999
DXF file: S9-Z11_SPR_DR_SQ40MM.dxf
999
Pro/ENGINEER 2012230 by Parametric Technology Corporation
  0
SECTION
  2
HEADER
  9
$ACADVER
  1
AC1015
  9
$DWGCODEPAGE
  3
ANSI_1252
  9
$EXTMAX
 10
420.0
 20
297.0
 30
0.0
  9
$EXTMIN
 10
0.0
 20
0.0
 30
0.0
  9
$LIMMIN
 10
0.0
 20
0.0
  9
$LIMMAX
 10
420.0
 20
297.0
  9
$VIEWCTR
 10
210.0
 20
148.5
  9
$VIEWSIZE
 40
297.0
  9
$CLAYER
  8
0
  9
$LTSCALE
 40
23.1
  9
$CELTYPE
  6
BYLAYER
  9
$DIMSCALE
 40
1.0
  9
$DIMASZ
 40
3.5
  9
$DIMEXO
 40
0.0
  9
$DIMDLI
 40
15.96
  9
$DIMEXE
 40
1.5
  9
$DIMCEN
 40
3.78
  9
$DIMLFAC
 40
1.0
  9
$DIMBLK
  1
_FILLED
  9
$DIMTXT
 40
3.5
  9
$DIMTOL
 70
1
  9
$DIMLIM
 70
0
  9
$DIMTFAC
 40
1.0
  9
$DIMTP
 40
0.005
  9
$DIMTM
 40
0.005
  9
$DIMGAP
 40
0.625
  9
$DIMDSEP
 70
46
  9
$PDMODE
 70
3
  9
$PDSIZE
 40
0.3125
  9
$HANDSEED
  5
3EB
  9
$TILEMODE
 70
1
  9
$MEASUREMENT
 70
1
  9
$INSUNITS
 70
4
  0
ENDSEC
  0
SECTION
  2
CLASSES
  0
CLASS
  1
ACDBDICTIONARYWDFLT
  2
AcDbDictionaryWithDefault
  3
AutoCAD 2000
 90
0
280
0
281
0
  0
CLASS
  1
ACDBPLACEHOLDER
  2
AcDbPlaceHolder
  3
AutoCAD 2000
 90
0
280
0
281
0
  0
CLASS
  1
LAYOUT
  2
AcDbLayout
  3
AutoCAD 2000
 90
0
280
0
281
0
  0
ENDSEC
  0
SECTION
  2
TABLES
  0
TABLE
  2
VPORT
  5
8
100
AcDbSymbolTable
 70
2
  0
VPORT
  5
1F4
100
AcDbSymbolTableRecord
100
AcDbViewportTableRecord
  2
*ACTIVE
 70
0
 10
0.0
 20
0.0
 11
1.0
 21
1.0
 12
210.0
 22
148.5
 13
0.0
 23
0.0
 14
1.0
 24
1.0
 15
0.0
 25
0.0
 16
0.0
 26
0.0
 36
1.0
 17
0.0
 27
0.0
 37
0.0
 40
297.0
 41
1.4141414141
 42
50.0
 43
0.0
 44
0.0
 50
0.0
 51
0.0
 71
0
 72
100
 73
1
 74
1
 75
0
 76
0
 77
0
 78
0
  0
ENDTAB
  0
TABLE
  2
LTYPE
  5
5
100
AcDbSymbolTable
 70
6
  0
LTYPE
  5
14
100
AcDbSymbolTableRecord
100
AcDbLinetypeTableRecord
  2
BYBLOCK
 70
0
  3

 72
65
 73
0
 40
0.0
  0
LTYPE
  5
15
100
AcDbSymbolTableRecord
100
AcDbLinetypeTableRecord
  2
BYLAYER
 70
0
  3

 72
65
 73
0
 40
0.0
  0
LTYPE
  5
16
100
AcDbSymbolTableRecord
100
AcDbLinetypeTableRecord
  2
CONTINUOUS
 70
64
  3
Solid line
 72
65
 73
0
 40
0.0
  0
LTYPE
  5
1F5
100
AcDbSymbolTableRecord
100
AcDbLinetypeTableRecord
  2
CENTER
 70
64
  3
____ _ ____ _ ____ _ ____ _ ____ _ ____ _ ____
 72
65
 73
4
 40
0.6
 49
0.375
 74
0
 49
-0.075
 74
0
 49
0.075
 74
0
 49
-0.075
 74
0
  0
LTYPE
  5
1F6
100
AcDbSymbolTableRecord
100
AcDbLinetypeTableRecord
  2
HIDDEN
 70
64
  3
- - - - - - - - - - - - - - - - - - - -
 72
65
 73
2
 40
0.2
 49
0.1
 74
0
 49
-0.1
 74
0
  0
LTYPE
  5
1F7
100
AcDbSymbolTableRecord
100
AcDbLinetypeTableRecord
  2
PHANTOM
 70
64
  3
_____ _ _ _____ _ _ _____ _ _ _____
 72
65
 73
6
 40
0.8
 49
0.45
 74
0
 49
-0.05
 74
0
 49
0.1
 74
0
 49
-0.05
 74
0
 49
0.1
 74
0
 49
-0.05
 74
0
  0
LTYPE
  5
1F8
100
AcDbSymbolTableRecord
100
AcDbLinetypeTableRecord
  2
DOT
 70
64
  3
. . . . . . . . . . . . . . . . . . . .
 72
65
 73
2
 40
0.2
 49
0.1
 74
0
 49
-0.1
 74
0
  0
LTYPE
  5
1F9
100
AcDbSymbolTableRecord
100
AcDbLinetypeTableRecord
  2
DASHED
 70
64
  3
- - - - - - - - - - - - - - - - - - - -
 72
65
 73
2
 40
0.2
 49
0.1
 74
0
 49
-0.1
 74
0
  0
ENDTAB
  0
TABLE
  2
LAYER
  5
2
100
AcDbSymbolTable
 70
36
  0
LAYER
  5
10
100
AcDbSymbolTableRecord
100
AcDbLayerTableRecord
  2
0
 70
0
 62
7
  6
CONTINUOUS
370
-3
390
F
  0
LAYER
  5
1FA
100
AcDbSymbolTableRecord
100
AcDbLayerTableRecord
  2
DEFAULT_1
 70
0
 62
7
  6
CENTER
370
-3
390
F
  0
LAYER
  5
1FB
100
AcDbSymbolTableRecord
100
AcDbLayerTableRecord
  2
DEFAULT_2
 70
0
 62
8
  6
HIDDEN
370
-3
390
F
  0
LAYER
  5
1FC
100
AcDbSymbolTableRecord
100
AcDbLayerTableRecord
  2
DEFAULT_3
 70
0
 62
7
  6
PHANTOM
370
-3
390
F
  0
LAYER
  5
1FD
100
AcDbSymbolTableRecord
100
AcDbLayerTableRecord
  2
01_ALL_DTM_PLN
 70
0
 62
7
  6
CONTINUOUS
370
-3
390
F
  0
LAYER
  5
1FE
100
AcDbSymbolTableRecord
100
AcDbLayerTableRecord
  2
01__ASM_ALL_DTM_PLN
 70
0
 62
7
  6
CONTINUOUS
370
-3
390
F
  0
LAYER
  5
1FF
100
AcDbSymbolTableRecord
100
AcDbLayerTableRecord
  2
01__ASM_DEF_DTM_PLN
 70
0
 62
7
  6
CONTINUOUS
370
-3
390
F
  0
LAYER
  5
200
100
AcDbSymbolTableRecord
100
AcDbLayerTableRecord
  2
01___PRT_ALL_DTM_PLN
 70
0
 62
7
  6
CONTINUOUS
370
-3
390
F
  0
LAYER
  5
201
100
AcDbSymbolTableRecord
100
AcDbLayerTableRecord
  2
01___PRT_DEF_DTM_PLN
 70
0
 62
7
  6
CONTINUOUS
370
-3
390
F
  0
LAYER
  5
202
100
AcDbSymbolTableRecord
100
AcDbLayerTableRecord
  2
02_ALL_AXES
 70
0
 62
7
  6
CONTINUOUS
370
-3
390
F
  0
LAYER
  5
203
100
AcDbSymbolTableRecord
100
AcDbLayerTableRecord
  2
02__ASM_ALL_AXES
 70
0
 62
7
  6
CONTINUOUS
370
-3
390
F
  0
LAYER
  5
204
100
AcDbSymbolTableRecord
100
AcDbLayerTableRecord
  2
02___PRT_ALL_AXES
 70
0
 62
7
  6
CONTINUOUS
370
-3
390
F
  0
LAYER
  5
205
100
AcDbSymbolTableRecord
100
AcDbLayerTableRecord
  2
03_ALL_CURVES
 70
0
 62
7
  6
CONTINUOUS
370
-3
390
F
  0
LAYER
  5
206
100
AcDbSymbolTableRecord
100
AcDbLayerTableRecord
  2
03__ASM_ALL_CURVES
 70
0
 62
7
  6
CONTINUOUS
370
-3
390
F
  0
LAYER
  5
207
100
AcDbSymbolTableRecord
100
AcDbLayerTableRecord
  2
03___PRT_ALL_CURVES
 70
0
 62
7
  6
CONTINUOUS
370
-3
390
F
  0
LAYER
  5
208
100
AcDbSymbolTableRecord
100
AcDbLayerTableRecord
  2
04_ALL_DTM_PNT
 70
0
 62
7
  6
CONTINUOUS
370
-3
390
F
  0
LAYER
  5
209
100
AcDbSymbolTableRecord
100
AcDbLayerTableRecord
  2
04__ASM_ALL_DTM_PNT
 70
0
 62
7
  6
CONTINUOUS
370
-3
390
F
  0
LAYER
  5
20A
100
AcDbSymbolTableRecord
100
AcDbLayerTableRecord
  2
04___PRT_ALL_DTM_PNT
 70
0
 62
7
  6
CONTINUOUS
370
-3
390
F
  0
LAYER
  5
20B
100
AcDbSymbolTableRecord
100
AcDbLayerTableRecord
  2
05_ALL_DTM_CSYS
 70
0
 62
7
  6
CONTINUOUS
370
-3
390
F
  0
LAYER
  5
20C
100
AcDbSymbolTableRecord
100
AcDbLayerTableRecord
  2
05__ASM_ALL_DTM_CSYS
 70
0
 62
7
  6
CONTINUOUS
370
-3
390
F
  0
LAYER
  5
20D
100
AcDbSymbolTableRecord
100
AcDbLayerTableRecord
  2
05__ASM_DEF_DTM_CSYS
 70
0
 62
7
  6
CONTINUOUS
370
-3
390
F
  0
LAYER
  5
20E
100
AcDbSymbolTableRecord
100
AcDbLayerTableRecord
  2
05___PRT_ALL_DTM_CSYS
 70
0
 62
7
  6
CONTINUOUS
370
-3
390
F
  0
LAYER
  5
20F
100
AcDbSymbolTableRecord
100
AcDbLayerTableRecord
  2
05___PRT_DEF_DTM_CSYS
 70
0
 62
7
  6
CONTINUOUS
370
-3
390
F
  0
LAYER
  5
210
100
AcDbSymbolTableRecord
100
AcDbLayerTableRecord
  2
06_ALL_SURFS
 70
0
 62
7
  6
CONTINUOUS
370
-3
390
F
  0
LAYER
  5
211
100
AcDbSymbolTableRecord
100
AcDbLayerTableRecord
  2
06__ASM_ALL_SURFS
 70
0
 62
7
  6
CONTINUOUS
370
-3
390
F
  0
LAYER
  5
212
100
AcDbSymbolTableRecord
100
AcDbLayerTableRecord
  2
06___PRT_ALL_SURFS
 70
0
 62
7
  6
CONTINUOUS
370
-3
390
F
  0
LAYER
  5
213
100
AcDbSymbolTableRecord
100
AcDbLayerTableRecord
  2
07__ASM_ALL_SKELETONS
 70
0
 62
7
  6
CONTINUOUS
370
-3
390
F
  0
LAYER
  5
214
100
AcDbSymbolTableRecord
100
AcDbLayerTableRecord
  2
ALLE
 70
0
 62
7
  6
CONTINUOUS
370
-3
390
F
  0
LAYER
  5
215
100
AcDbSymbolTableRecord
100
AcDbLayerTableRecord
  2
BEZUGSACHSEN
 70
0
 62
7
  6
CONTINUOUS
370
-3
390
F
  0
LAYER
  5
216
100
AcDbSymbolTableRecord
100
AcDbLayerTableRecord
  2
BEZUGSEBENE
 70
0
 62
7
  6
CONTINUOUS
370
-3
390
F
  0
LAYER
  5
217
100
AcDbSymbolTableRecord
100
AcDbLayerTableRecord
  2
BEZUGSEBENEN
 70
0
 62
7
  6
CONTINUOUS
370
-3
390
F
  0
LAYER
  5
218
100
AcDbSymbolTableRecord
100
AcDbLayerTableRecord
  2
BEZUGSEBENEN-KES
 70
0
 62
7
  6
CONTINUOUS
370
-3
390
F
  0
LAYER
  5
219
100
AcDbSymbolTableRecord
100
AcDbLayerTableRecord
  2
BEZUGSPUNKTE
 70
0
 62
7
  6
CONTINUOUS
370
-3
390
F
  0
LAYER
  5
21A
100
AcDbSymbolTableRecord
100
AcDbLayerTableRecord
  2
KURVEN
 70
0
 62
7
  6
CONTINUOUS
370
-3
390
F
  0
LAYER
  5
21B
100
AcDbSymbolTableRecord
100
AcDbLayerTableRecord
  2
PARAMETER-BEMAßUNGEN
 70
0
 62
7
  6
CONTINUOUS
370
-3
390
F
  0
LAYER
  5
21C
100
AcDbSymbolTableRecord
100
AcDbLayerTableRecord
  2
RUNDUNGEN
 70
0
 62
7
  6
CONTINUOUS
370
-3
390
F
  0
LAYER
  5
21D
100
AcDbSymbolTableRecord
100
AcDbLayerTableRecord
  2
ZEICHNUNGSNOTIZEN
 70
0
 62
7
  6
CONTINUOUS
370
-3
390
F
  0
ENDTAB
  0
TABLE
  2
STYLE
  5
3
100
AcDbSymbolTable
 70
1
  0
STYLE
  5
11
100
AcDbSymbolTableRecord
100
AcDbTextStyleTableRecord
  2
STANDARD
 70
0
 40
0.0
 41
0.7
 50
0.0
 71
0
 42
0.2
  3
txt
  4

  0
STYLE
  5
21E
100
AcDbSymbolTableRecord
100
AcDbTextStyleTableRecord
  2
TEXTSTYLE_1
 70
0
 40
0.0
 41
0.8
 50
0.0
 71
0
 42
0.2
  3
gdt
  4

  0
ENDTAB
  0
TABLE
  2
VIEW
  5
6
100
AcDbSymbolTable
 70
0
  0
ENDTAB
  0
TABLE
  2
UCS
  5
7
100
AcDbSymbolTable
 70
0
  0
ENDTAB
  0
TABLE
  2
APPID
  5
9
100
AcDbSymbolTable
 70
1
  0
APPID
  5
21F
100
AcDbSymbolTableRecord
100
AcDbRegAppTableRecord
  2
ACAD
 70
0
  0
ENDTAB
  0
TABLE
  2
BLOCK_RECORD
  5
1
100
AcDbSymbolTable
 70
0
  0
BLOCK_RECORD
  5
220
100
AcDbSymbolTableRecord
100
AcDbBlockTableRecord
  2
*Model_Space
  0
BLOCK_RECORD
  5
221
100
AcDbSymbolTableRecord
100
AcDbBlockTableRecord
  2
*Paper_Space
  0
ENDTAB
  0
TABLE
  2
DIMSTYLE
  5
A
100
AcDbSymbolTable
 70
1
100
AcDbDimStyleTable
 71
0
  0
DIMSTYLE
105
222
100
AcDbSymbolTableRecord
100
AcDbDimStyleTableRecord
  2
STANDARD
 70
0
  3

  4

 40
1.0
 41
3.5
 42
0.0
 43
0.38
 44
1.5
 45
0.0
 46
0.0
 47
0.005
 48
0.005
140
3.5
141
0.09
142
0.0
143
25.4
144
1.0
145
0.0
146
1.0
147
0.625
 71
1.0
 72
0.0
 73
0
 74
0
 75
0
 76
0
 77
1
 78
8
170
0
171
2
172
0
173
0
174
0
175
0
176
0
177
0
178
5
270
2
271
3
272
3
273
2
274
2
275
0
280
0
281
0
282
0
283
1
284
8
285
0
286
0
287
3
288
0
340
11
278
46
  0
ENDTAB
  0
ENDSEC
  0
SECTION
  2
BLOCKS
  0
BLOCK
  5
20
100
AcDbEntity
  8
0
100
AcDbBlockBegin
  2
*Model_Space
 70
0
 10
0.0
 20
0.0
 30
0.0
  3
*Model_Space
  1

  0
ENDBLK
  5
21
100
AcDbEntity
  8
0
100
AcDbBlockEnd
  0
BLOCK
  5
1C
100
AcDbEntity
  8
0
100
AcDbBlockBegin
  2
*Paper_Space
 70
0
 10
0.0
 20
0.0
 30
0.0
  3
*Paper_Space
  1

  0
ENDBLK
  5
1D
100
AcDbEntity
  8
0
100
AcDbBlockEnd
  0
ENDSEC
  0
SECTION
  2
ENTITIES
  0
HATCH
  5
223
100
AcDbEntity
  8
0
100
AcDbHatch
 62
2
  6
CONTINUOUS
 10
0.0
 20
0.0
 30
0.0
210
0.0
220
0.0
230
1.0
  2
A
 70
0
 71
0
 91
4
 92
1
 93
13
 72
1
 10
322.8141343212
 20
69.6576834701
 11
322.8141343212
 21
81.9579079584
 72
4
 94
3
 73
1
 74
0
 95
8
 96
4
 40
0.0
 40
0.0
 40
0.0
 40
0.0
 40
1.0
 40
1.0
 40
1.0
 40
1.0
 10
322.8141343212
 20
69.6576834701
 42
1.0
 10
322.8141343212
 20
69.5405261825
 42
0.8047378541
 10
322.7312916087
 20
69.4576834701
 42
0.8047378541
 10
322.6141343212
 20
69.4576834701
 42
1.0
 72
1
 10
322.6141343212
 20
69.4576834701
 11
318.0141343212
 21
69.4576834701
 72
4
 94
3
 73
1
 74
0
 95
8
 96
4
 40
0.0
 40
0.0
 40
0.0
 40
0.0
 40
1.0
 40
1.0
 40
1.0
 40
1.0
 10
318.0141343212
 20
69.4576834701
 42
1.0
 10
317.8969770337
 20
69.4576834701
 42
0.8047378541
 10
317.8141343212
 20
69.5405261825
 42
0.8047378541
 10
317.8141343212
 20
69.6576834701
 42
1.0
 72
1
 10
317.8141343212
 20
69.6576834701
 11
317.8141343212
 21
86.5492683455
 72
4
 94
3
 73
1
 74
0
 95
8
 96
4
 40
0.0
 40
0.0
 40
0.0
 40
0.0
 40
1.0
 40
1.0
 40
1.0
 40
1.0
 10
317.8141343212
 20
86.5492683455
 42
1.0
 10
317.8141343212
 20
88.3066276583
 42
0.8047378541
 10
319.0567750083
 20
89.5492683455
 42
0.8047378541
 10
320.8141343212
 20
89.5492683455
 42
1.0
 72
1
 10
334.8141343212
 20
89.5492683455
 11
320.8141343212
 21
89.5492683455
 72
4
 94
3
 73
1
 74
0
 95
8
 96
4
 40
0.0
 40
0.0
 40
0.0
 40
0.0
 40
1.0
 40
1.0
 40
1.0
 40
1.0
 10
336.8141343212
 20
91.5492683455
 42
1.0
 10
336.8141343212
 20
90.3776954702
 42
0.8047378541
 10
335.9857071964
 20
89.5492683455
 42
0.8047378541
 10
334.8141343212
 20
89.5492683455
 42
1.0
 72
1
 10
336.8141343212
 20
91.5492683455
 11
336.8141343212
 21
103.9492683455
 72
1
 10
336.8141343212
 20
103.9492683455
 11
342.3141343212
 21
103.9492683455
 72
1
 10
342.3141343212
 20
83.9579079584
 11
342.3141343212
 21
103.9492683455
 72
1
 10
342.3141343212
 20
83.9579079584
 11
324.8141343212
 21
83.9579079584
 72
4
 94
3
 73
1
 74
0
 95
8
 96
4
 40
0.0
 40
0.0
 40
0.0
 40
0.0
 40
1.0
 40
1.0
 40
1.0
 40
1.0
 10
322.8141343212
 20
81.9579079584
 42
1.0
 10
322.8141343212
 20
83.1294808337
 42
0.8047378541
 10
323.6425614459
 20
83.9579079584
 42
0.8047378541
 10
324.8141343212
 20
83.9579079584
 42
1.0
 97
0
 92
1
 93
13
 72
1
 10
322.8141343212
 20
237.1406287325
 11
322.8141343212
 21
240.9406287325
 72
4
 94
3
 73
1
 74
0
 95
8
 96
4
 40
0.0
 40
0.0
 40
0.0
 40
0.0
 40
1.0
 40
1.0
 40
1.0
 40
1.0
 10
322.8141343212
 20
237.1406287325
 42
1.0
 10
322.8141343212
 20
235.9690558572
 42
0.8047378541
 10
323.6425614459
 20
235.1406287325
 42
0.8047378541
 10
324.8141343212
 20
235.1406287325
 42
1.0
 72
1
 10
342.3141343212
 20
235.1406287325
 11
324.8141343212
 21
235.1406287325
 72
1
 10
342.3141343212
 20
215.1492683455
 11
342.3141343212
 21
235.1406287325
 72
1
 10
336.8141343212
 20
215.1492683455
 11
342.3141343212
 21
215.1492683455
 72
1
 10
336.8141343212
 20
215.1492683455
 11
336.8141343212
 21
227.5492683455
 72
4
 94
3
 73
1
 74
0
 95
8
 96
4
 40
0.0
 40
0.0
 40
0.0
 40
0.0
 40
1.0
 40
1.0
 40
1.0
 40
1.0
 10
336.8141343212
 20
227.5492683455
 42
1.0
 10
336.8141343212
 20
228.7208412207
 42
0.8047378541
 10
335.9857071964
 20
229.5492683455
 42
0.8047378541
 10
334.8141343212
 20
229.5492683455
 42
1.0
 72
1
 10
334.8141343212
 20
229.5492683455
 11
320.8141343212
 21
229.5492683455
 72
4
 94
3
 73
1
 74
0
 95
8
 96
4
 40
0.0
 40
0.0
 40
0.0
 40
0.0
 40
1.0
 40
1.0
 40
1.0
 40
1.0
 10
317.8141343212
 20
232.5492683455
 42
1.0
 10
317.8141343212
 20
230.7919090326
 42
0.8047378541
 10
319.0567750083
 20
229.5492683455
 42
0.8047378541
 10
320.8141343212
 20
229.5492683455
 42
1.0
 72
1
 10
317.8141343212
 20
232.5492683455
 11
317.8141343212
 21
240.9406287325
 72
4
 94
3
 73
1
 74
0
 95
8
 96
4
 40
0.0
 40
0.0
 40
0.0
 40
0.0
 40
1.0
 40
1.0
 40
1.0
 40
1.0
 10
317.8141343212
 20
240.9406287325
 42
1.0
 10
317.8141343212
 20
241.05778602
 42
0.8047378541
 10
317.8969770337
 20
241.1406287325
 42
0.8047378541
 10
318.0141343212
 20
241.1406287325
 42
1.0
 72
1
 10
322.6141343212
 20
241.1406287325
 11
318.0141343212
 21
241.1406287325
 72
4
 94
3
 73
1
 74
0
 95
8
 96
4
 40
0.0
 40
0.0
 40
0.0
 40
0.0
 40
1.0
 40
1.0
 40
1.0
 40
1.0
 10
322.8141343212
 20
240.9406287325
 42
1.0
 10
322.8141343212
 20
241.05778602
 42
0.8047378541
 10
322.7312916087
 20
241.1406287325
 42
0.8047378541
 10
322.6141343212
 20
241.1406287325
 42
1.0
 97
0
 92
1
 93
8
 72
1
 10
342.3141343212
 20
110.1492683455
 11
342.3141343212
 21
138.1492683455
 72
1
 10
336.8141343212
 20
110.1492683455
 11
342.3141343212
 21
110.1492683455
 72
1
 10
336.8141343212
 20
110.1492683455
 11
336.8141343212
 21
130.0492683455
 72
4
 94
3
 73
1
 74
0
 95
8
 96
4
 40
0.0
 40
0.0
 40
0.0
 40
0.0
 40
1.0
 40
1.0
 40
1.0
 40
1.0
 10
336.8141343212
 20
130.0492683455
 42
1.0
 10
336.8141343212
 20
131.2208412207
 42
0.8047378541
 10
335.9857071964
 20
132.0492683455
 42
0.8047378541
 10
334.8141343212
 20
132.0492683455
 42
1.0
 72
1
 10
334.8141343212
 20
132.0492683455
 11
318.1141343212
 21
132.0492683455
 72
4
 94
3
 73
1
 74
0
 95
8
 96
4
 40
0.0
 40
0.0
 40
0.0
 40
0.0
 40
1.0
 40
1.0
 40
1.0
 40
1.0
 10
317.8141343212
 20
132.3492683455
 42
1.0
 10
317.8141343212
 20
132.1735324142
 42
0.8047378541
 10
317.9383983899
 20
132.0492683455
 42
0.8047378541
 10
318.1141343212
 20
132.0492683455
 42
1.0
 72
1
 10
317.8141343212
 20
132.3492683455
 11
317.8141343212
 21
138.1492683455
 72
1
 10
317.8141343212
 20
138.1492683455
 11
342.3141343212
 21
138.1492683455
 97
0
 92
1
 93
8
 72
1
 10
342.3141343212
 20
180.9492683455
 11
342.3141343212
 21
208.9492683455
 72
1
 10
317.8141343212
 20
180.9492683455
 11
342.3141343212
 21
180.9492683455
 72
1
 10
317.8141343212
 20
180.9492683455
 11
317.8141343212
 21
186.7492683455
 72
4
 94
3
 73
1
 74
0
 95
8
 96
4
 40
0.0
 40
0.0
 40
0.0
 40
0.0
 40
1.0
 40
1.0
 40
1.0
 40
1.0
 10
317.8141343212
 20
186.7492683455
 42
1.0
 10
317.8141343212
 20
186.9250042767
 42
0.8047378541
 10
317.9383983899
 20
187.0492683455
 42
0.8047378541
 10
318.1141343212
 20
187.0492683455
 42
1.0
 72
1
 10
334.8141343212
 20
187.0492683455
 11
318.1141343212
 21
187.0492683455
 72
4
 94
3
 73
1
 74
0
 95
8
 96
4
 40
0.0
 40
0.0
 40
0.0
 40
0.0
 40
1.0
 40
1.0
 40
1.0
 40
1.0
 10
336.8141343212
 20
189.0492683455
 42
1.0
 10
336.8141343212
 20
187.8776954702
 42
0.8047378541
 10
335.9857071964
 20
187.0492683455
 42
0.8047378541
 10
334.8141343212
 20
187.0492683455
 42
1.0
 72
1
 10
336.8141343212
 20
189.0492683455
 11
336.8141343212
 21
208.9492683455
 72
1
 10
336.8141343212
 20
208.9492683455
 11
342.3141343212
 21
208.9492683455
 97
0
 75
0
 76
0
 52
45.0
 41
6.4667583445
 77
0
 78
1
 53
45.0
 43
0.0
 44
0.0
 45
-4.5726886777
 46
4.5726886777
 79
0
 98
1
 10
0.0
 20
0.0
  0
HATCH
  5
224
100
AcDbEntity
  8
0
100
AcDbHatch
 62
2
  6
CONTINUOUS
 10
0.0
 20
0.0
 30
0.0
210
0.0
220
0.0
230
1.0
  2
default__1
 70
0
 71
0
 91
4
 92
1
 93
13
 72
1
 10
361.8141343212
 20
69.6576834701
 11
361.8141343212
 21
81.9579079584
 72
4
 94
3
 73
1
 74
0
 95
8
 96
4
 40
0.0
 40
0.0
 40
0.0
 40
0.0
 40
1.0
 40
1.0
 40
1.0
 40
1.0
 10
361.8141343212
 20
81.9579079584
 42
1.0
 10
361.8141343212
 20
83.1294808337
 42
0.8047378541
 10
360.9857071964
 20
83.9579079584
 42
0.8047378541
 10
359.8141343212
 20
83.9579079584
 42
1.0
 72
1
 10
342.3141343212
 20
83.9579079584
 11
359.8141343212
 21
83.9579079584
 72
1
 10
342.3141343212
 20
83.9579079584
 11
342.3141343212
 21
103.9492683455
 72
1
 10
347.8141343212
 20
103.9492683455
 11
342.3141343212
 21
103.9492683455
 72
1
 10
347.8141343212
 20
91.5492683455
 11
347.8141343212
 21
103.9492683455
 72
4
 94
3
 73
1
 74
0
 95
8
 96
4
 40
0.0
 40
0.0
 40
0.0
 40
0.0
 40
1.0
 40
1.0
 40
1.0
 40
1.0
 10
347.8141343212
 20
91.5492683455
 42
1.0
 10
347.8141343212
 20
90.3776954702
 42
0.8047378541
 10
348.6425614459
 20
89.5492683455
 42
0.8047378541
 10
349.8141343212
 20
89.5492683455
 42
1.0
 72
1
 10
349.8141343212
 20
89.5492683455
 11
363.8141343212
 21
89.5492683455
 72
4
 94
3
 73
1
 74
0
 95
8
 96
4
 40
0.0
 40
0.0
 40
0.0
 40
0.0
 40
1.0
 40
1.0
 40
1.0
 40
1.0
 10
366.8141343212
 20
86.5492683455
 42
1.0
 10
366.8141343212
 20
88.3066276583
 42
0.8047378541
 10
365.5714936341
 20
89.5492683455
 42
0.8047378541
 10
363.8141343212
 20
89.5492683455
 42
1.0
 72
1
 10
366.8141343212
 20
69.6576834701
 11
366.8141343212
 21
86.5492683455
 72
4
 94
3
 73
1
 74
0
 95
8
 96
4
 40
0.0
 40
0.0
 40
0.0
 40
0.0
 40
1.0
 40
1.0
 40
1.0
 40
1.0
 10
366.6141343212
 20
69.4576834701
 42
1.0
 10
366.7312916087
 20
69.4576834701
 42
0.8047378541
 10
366.8141343212
 20
69.5405261825
 42
0.8047378541
 10
366.8141343212
 20
69.6576834701
 42
1.0
 72
1
 10
362.0141343212
 20
69.4576834701
 11
366.6141343212
 21
69.4576834701
 72
4
 94
3
 73
1
 74
0
 95
8
 96
4
 40
0.0
 40
0.0
 40
0.0
 40
0.0
 40
1.0
 40
1.0
 40
1.0
 40
1.0
 10
361.8141343212
 20
69.6576834701
 42
1.0
 10
361.8141343212
 20
69.5405261825
 42
0.8047378541
 10
361.8969770337
 20
69.4576834701
 42
0.8047378541
 10
362.0141343212
 20
69.4576834701
 42
1.0
 97
0
 92
1
 93
13
 72
1
 10
361.8141343212
 20
237.1406287325
 11
361.8141343212
 21
240.9406287325
 72
4
 94
3
 73
1
 74
0
 95
8
 96
4
 40
0.0
 40
0.0
 40
0.0
 40
0.0
 40
1.0
 40
1.0
 40
1.0
 40
1.0
 10
361.8141343212
 20
240.9406287325
 42
1.0
 10
361.8141343212
 20
241.05778602
 42
0.8047378541
 10
361.8969770337
 20
241.1406287325
 42
0.8047378541
 10
362.0141343212
 20
241.1406287325
 42
1.0
 72
1
 10
362.0141343212
 20
241.1406287325
 11
366.6141343212
 21
241.1406287325
 72
4
 94
3
 73
1
 74
0
 95
8
 96
4
 40
0.0
 40
0.0
 40
0.0
 40
0.0
 40
1.0
 40
1.0
 40
1.0
 40
1.0
 10
366.8141343212
 20
240.9406287325
 42
1.0
 10
366.8141343212
 20
241.05778602
 42
0.8047378541
 10
366.7312916087
 20
241.1406287325
 42
0.8047378541
 10
366.6141343212
 20
241.1406287325
 42
1.0
 72
1
 10
366.8141343212
 20
232.5492683455
 11
366.8141343212
 21
240.9406287325
 72
4
 94
3
 73
1
 74
0
 95
8
 96
4
 40
0.0
 40
0.0
 40
0.0
 40
0.0
 40
1.0
 40
1.0
 40
1.0
 40
1.0
 10
366.8141343212
 20
232.5492683455
 42
1.0
 10
366.8141343212
 20
230.7919090326
 42
0.8047378541
 10
365.5714936341
 20
229.5492683455
 42
0.8047378541
 10
363.8141343212
 20
229.5492683455
 42
1.0
 72
1
 10
349.8141343212
 20
229.5492683455
 11
363.8141343212
 21
229.5492683455
 72
4
 94
3
 73
1
 74
0
 95
8
 96
4
 40
0.0
 40
0.0
 40
0.0
 40
0.0
 40
1.0
 40
1.0
 40
1.0
 40
1.0
 10
347.8141343212
 20
227.5492683455
 42
1.0
 10
347.8141343212
 20
228.7208412207
 42
0.8047378541
 10
348.6425614459
 20
229.5492683455
 42
0.8047378541
 10
349.8141343212
 20
229.5492683455
 42
1.0
 72
1
 10
347.8141343212
 20
215.1492683455
 11
347.8141343212
 21
227.5492683455
 72
1
 10
347.8141343212
 20
215.1492683455
 11
342.3141343212
 21
215.1492683455
 72
1
 10
342.3141343212
 20
215.1492683455
 11
342.3141343212
 21
235.1406287325
 72
1
 10
342.3141343212
 20
235.1406287325
 11
359.8141343212
 21
235.1406287325
 72
4
 94
3
 73
1
 74
0
 95
8
 96
4
 40
0.0
 40
0.0
 40
0.0
 40
0.0
 40
1.0
 40
1.0
 40
1.0
 40
1.0
 10
361.8141343212
 20
237.1406287325
 42
1.0
 10
361.8141343212
 20
235.9690558572
 42
0.8047378541
 10
360.9857071964
 20
235.1406287325
 42
0.8047378541
 10
359.8141343212
 20
235.1406287325
 42
1.0
 97
0
 92
1
 93
8
 72
1
 10
342.3141343212
 20
110.1492683455
 11
342.3141343212
 21
138.1492683455
 72
1
 10
366.8141343212
 20
138.1492683455
 11
342.3141343212
 21
138.1492683455
 72
1
 10
366.8141343212
 20
132.3492683455
 11
366.8141343212
 21
138.1492683455
 72
4
 94
3
 73
1
 74
0
 95
8
 96
4
 40
0.0
 40
0.0
 40
0.0
 40
0.0
 40
1.0
 40
1.0
 40
1.0
 40
1.0
 10
366.8141343212
 20
132.3492683455
 42
1.0
 10
366.8141343212
 20
132.1735324142
 42
0.8047378541
 10
366.6898702525
 20
132.0492683455
 42
0.8047378541
 10
366.5141343212
 20
132.0492683455
 42
1.0
 72
1
 10
349.8141343212
 20
132.0492683455
 11
366.5141343212
 21
132.0492683455
 72
4
 94
3
 73
1
 74
0
 95
8
 96
4
 40
0.0
 40
0.0
 40
0.0
 40
0.0
 40
1.0
 40
1.0
 40
1.0
 40
1.0
 10
347.8141343212
 20
130.0492683455
 42
1.0
 10
347.8141343212
 20
131.2208412207
 42
0.8047378541
 10
348.6425614459
 20
132.0492683455
 42
0.8047378541
 10
349.8141343212
 20
132.0492683455
 42
1.0
 72
1
 10
347.8141343212
 20
110.1492683455
 11
347.8141343212
 21
130.0492683455
 72
1
 10
347.8141343212
 20
110.1492683455
 11
342.3141343212
 21
110.1492683455
 97
0
 92
1
 93
8
 72
1
 10
342.3141343212
 20
180.9492683455
 11
342.3141343212
 21
208.9492683455
 72
1
 10
347.8141343212
 20
208.9492683455
 11
342.3141343212
 21
208.9492683455
 72
1
 10
347.8141343212
 20
189.0492683455
 11
347.8141343212
 21
208.9492683455
 72
4
 94
3
 73
1
 74
0
 95
8
 96
4
 40
0.0
 40
0.0
 40
0.0
 40
0.0
 40
1.0
 40
1.0
 40
1.0
 40
1.0
 10
347.8141343212
 20
189.0492683455
 42
1.0
 10
347.8141343212
 20
187.8776954702
 42
0.8047378541
 10
348.6425614459
 20
187.0492683455
 42
0.8047378541
 10
349.8141343212
 20
187.0492683455
 42
1.0
 72
1
 10
349.8141343212
 20
187.0492683455
 11
366.5141343212
 21
187.0492683455
 72
4
 94
3
 73
1
 74
0
 95
8
 96
4
 40
0.0
 40
0.0
 40
0.0
 40
0.0
 40
1.0
 40
1.0
 40
1.0
 40
1.0
 10
366.8141343212
 20
186.7492683455
 42
1.0
 10
366.8141343212
 20
186.9250042767
 42
0.8047378541
 10
366.6898702525
 20
187.0492683455
 42
0.8047378541
 10
366.5141343212
 20
187.0492683455
 42
1.0
 72
1
 10
366.8141343212
 20
180.9492683455
 11
366.8141343212
 21
186.7492683455
 72
1
 10
366.8141343212
 20
180.9492683455
 11
342.3141343212
 21
180.9492683455
 97
0
 75
0
 76
0
 52
135.0
 41
5.9872688027
 77
0
 78
1
 53
135.0
 43
0.0
 44
0.0
 45
-4.2336383711
 46
-4.2336383711
 79
0
 98
1
 10
0.0
 20
0.0
  0
LINE
  5
225
100
AcDbEntity
  8
0
100
AcDbLine
 62
7
  6
CONTINUOUS
 10
0.0
 20
0.0
 11
0.0
 21
297.0
  0
LINE
  5
226
100
AcDbEntity
  8
0
100
AcDbLine
 62
7
  6
CONTINUOUS
 10
0.0
 20
0.0
 11
420.0
 21
0.0
  0
LINE
  5
227
100
AcDbEntity
  8
0
100
AcDbLine
 62
7
  6
CONTINUOUS
 10
0.0
 20
297.0
 11
420.0
 21
297.0
  0
LINE
  5
228
100
AcDbEntity
  8
0
100
AcDbLine
 62
7
  6
CONTINUOUS
 10
420.0
 20
0.0
 11
420.0
 21
297.0
  0
LINE
  5
229
100
AcDbEntity
  8
RUNDUNGEN
100
AcDbLine
 62
9
  6
CONTINUOUS
 10
45.0404327574
 20
188.9156158959
 11
45.0625065746
 21
189.11439403
  0
LINE
  5
22A
100
AcDbEntity
  8
RUNDUNGEN
100
AcDbLine
 62
9
  6
CONTINUOUS
 10
40.1478976208
 20
154.88728658
 11
40.1130750543
 21
154.6903414383
  0
LINE
  5
22B
100
AcDbEntity
  8
RUNDUNGEN
100
AcDbLine
 62
9
  6
CONTINUOUS
 10
74.1668609627
 20
229.3784256482
 11
74.2928982123
 21
229.5337144492
  0
LINE
  5
22C
100
AcDbEntity
  8
RUNDUNGEN
100
AcDbLine
 62
9
  6
CONTINUOUS
 10
51.6538947166
 20
203.3970775905
 11
51.518123527
 21
203.2502232951
  0
LINE
  5
22D
100
AcDbEntity
  8
RUNDUNGEN
100
AcDbLine
 62
9
  6
CONTINUOUS
 10
120.5454181302
 20
247.6709713461
 11
120.735402876
 21
247.7334677169
  0
LINE
  5
22E
100
AcDbEntity
  8
RUNDUNGEN
100
AcDbLine
 62
9
  6
CONTINUOUS
 10
111.316359104
 20
72.7545037067
 11
111.116462813
 21
72.7480637663
  0
LINE
  5
22F
100
AcDbEntity
  8
RUNDUNGEN
100
AcDbLine
 62
9
  6
CONTINUOUS
 10
145.694609439
 20
72.7545037067
 11
145.8945057311
 21
72.7480637997
  0
LINE
  5
230
100
AcDbEntity
  8
RUNDUNGEN
100
AcDbLine
 62
9
  6
CONTINUOUS
 10
67.120279493
 20
95.8260086438
 11
66.9486343373
 21
95.9286631154
  0
LINE
  5
231
100
AcDbEntity
  8
RUNDUNGEN
100
AcDbLine
 62
9
  6
CONTINUOUS
 10
96.0411040398
 20
77.23972328
 11
96.2057858251
 21
77.1262335906
  0
LINE
  5
232
100
AcDbEntity
  8
RUNDUNGEN
100
AcDbLine
 62
9
  6
CONTINUOUS
 10
42.4135686719
 20
139.1291982891
 11
42.3246707757
 21
139.3083551032
  0
LINE
  5
233
100
AcDbEntity
  8
RUNDUNGEN
100
AcDbLine
 62
9
  6
CONTINUOUS
 10
56.6948099818
 20
107.85764184
 11
56.7719919571
 21
107.6731345429
  0
LINE
  5
234
100
AcDbEntity
  8
RUNDUNGEN
100
AcDbLine
 62
7
  6
CONTINUOUS
 10
54.3704553216
 20
193.6254707805
 11
54.2042893164
 21
193.2616179824
  0
LINE
  5
235
100
AcDbEntity
  8
RUNDUNGEN
100
AcDbLine
 62
9
  6
CONTINUOUS
 10
54.5523817207
 20
193.5423877779
 11
54.3862157155
 21
193.1785349798
  0
LINE
  5
236
100
AcDbEntity
  8
RUNDUNGEN
100
AcDbLine
 62
7
  6
CONTINUOUS
 10
84.5621152011
 20
228.296416683
 11
84.225613788
 21
228.080160356
  0
LINE
  5
237
100
AcDbEntity
  8
RUNDUNGEN
100
AcDbLine
 62
9
  6
CONTINUOUS
 10
84.6702433646
 20
228.1281659765
 11
84.3337419515
 21
227.9119096495
  0
LINE
  5
238
100
AcDbEntity
  8
RUNDUNGEN
100
AcDbLine
 62
7
  6
CONTINUOUS
 10
105.3266430988
 20
81.3192778578
 11
105.7104402882
 21
81.2065848351
  0
LINE
  5
239
100
AcDbEntity
  8
RUNDUNGEN
100
AcDbLine
 62
9
  6
CONTINUOUS
 10
105.3829896102
 20
81.5111764526
 11
105.7667867996
 21
81.3984834298
  0
LINE
  5
23A
100
AcDbEntity
  8
RUNDUNGEN
100
AcDbLine
 62
7
  6
CONTINUOUS
 10
66.7118762413
 20
106.2694401137
 11
66.9738205348
 21
105.9671402839
  0
LINE
  5
23B
100
AcDbEntity
  8
RUNDUNGEN
100
AcDbLine
 62
9
  6
CONTINUOUS
 10
66.8630261561
 20
106.4004122605
 11
67.1249704497
 21
106.0981124307
  0
LINE
  5
23C
100
AcDbEntity
  8
RUNDUNGEN
100
AcDbLine
 62
7
  6
CONTINUOUS
 10
47.7161433206
 20
148.1355713759
 11
47.7730692559
 21
147.7396427991
  0
LINE
  5
23D
100
AcDbEntity
  8
RUNDUNGEN
100
AcDbLine
 62
9
  6
CONTINUOUS
 10
47.9141076089
 20
148.1640343435
 11
47.9710335442
 21
147.7681057668
  0
LINE
  5
23E
100
AcDbEntity
  8
RUNDUNGEN
100
AcDbLine
 62
9
  6
CONTINUOUS
 10
99.0054842715
 20
180.0492683455
 11
99.0054842715
 21
139.0492683455
  0
LINE
  5
23F
100
AcDbEntity
  8
RUNDUNGEN
100
AcDbLine
 62
7
  6
CONTINUOUS
 10
101.0054842715
 20
180.0492683455
 11
101.0054842715
 21
139.0492683455
  0
LINE
  5
240
100
AcDbEntity
  8
RUNDUNGEN
100
AcDbLine
 62
9
  6
CONTINUOUS
 10
101.3054842715
 20
180.0492683455
 11
101.3054842715
 21
139.0492683455
  0
LINE
  5
241
100
AcDbEntity
  8
RUNDUNGEN
100
AcDbLine
 62
9
  6
CONTINUOUS
 10
108.0054842715
 20
130.0492683455
 11
149.0054842715
 21
130.0492683455
  0
LINE
  5
242
100
AcDbEntity
  8
RUNDUNGEN
100
AcDbLine
 62
7
  6
CONTINUOUS
 10
108.0054842715
 20
132.0492683455
 11
149.0054842715
 21
132.0492683455
  0
LINE
  5
243
100
AcDbEntity
  8
RUNDUNGEN
100
AcDbLine
 62
9
  6
CONTINUOUS
 10
108.0054842715
 20
132.3492683455
 11
149.0054842715
 21
132.3492683455
  0
LINE
  5
244
100
AcDbEntity
  8
0
100
AcDbLine
 62
7
  6
CONTINUOUS
 10
107.1054842715
 20
169.6492683455
 11
107.1054842715
 21
149.4492683455
  0
LINE
  5
245
100
AcDbEntity
  8
RUNDUNGEN
100
AcDbLine
 62
9
  6
CONTINUOUS
 10
108.0054842715
 20
189.0492683455
 11
108.0054842715
 21
186.7492683455
  0
LINE
  5
246
100
AcDbEntity
  8
RUNDUNGEN
100
AcDbLine
 62
9
  6
CONTINUOUS
 10
108.0054842715
 20
130.0492683455
 11
108.0054842715
 21
132.3492683455
  0
LINE
  5
247
100
AcDbEntity
  8
0
100
AcDbLine
 62
7
  6
CONTINUOUS
 10
108.3054842715
 20
178.3832429417
 11
108.3054842715
 21
170.8492683455
  0
LINE
  5
248
100
AcDbEntity
  8
0
100
AcDbLine
 62
7
  6
CONTINUOUS
 10
108.3054842715
 20
148.2492683455
 11
108.3054842715
 21
140.7152937492
  0
LINE
  5
249
100
AcDbEntity
  8
RUNDUNGEN
100
AcDbLine
 62
7
  6
CONTINUOUS
 10
136.2755656566
 20
247.7334676852
 11
135.8389360939
 21
246.3246267682
  0
LINE
  5
24A
100
AcDbEntity
  8
0
100
AcDbLine
 62
7
  6
CONTINUOUS
 10
118.4054842715
 20
180.9492683455
 11
117.2054842715
 21
179.7492683455
  0
LINE
  5
24B
100
AcDbEntity
  8
0
100
AcDbLine
 62
7
  6
CONTINUOUS
 10
108.3054842715
 20
170.8492683455
 11
107.1054842715
 21
169.6492683455
  0
LINE
  5
24C
100
AcDbEntity
  8
RUNDUNGEN
100
AcDbLine
 62
7
  6
CONTINUOUS
 10
181.5890772376
 20
228.5845817933
 11
182.7180703307
 21
229.5337144492
  0
LINE
  5
24D
100
AcDbEntity
  8
RUNDUNGEN
100
AcDbLine
 62
7
  6
CONTINUOUS
 10
43.6570328878
 20
139.9410393887
 11
42.3246707757
 21
139.3083551032
  0
LINE
  5
24E
100
AcDbEntity
  8
RUNDUNGEN
100
AcDbLine
 62
7
  6
CONTINUOUS
 10
215.4412536754
 20
154.4586551022
 11
216.8978935217
 21
154.6903414441
  0
LINE
  5
24F
100
AcDbEntity
  8
0
100
AcDbLine
 62
7
  6
CONTINUOUS
 10
118.4054842715
 20
138.1492683455
 11
138.6054842715
 21
138.1492683455
  0
LINE
  5
250
100
AcDbEntity
  8
RUNDUNGEN
100
AcDbLine
 62
9
  6
CONTINUOUS
 10
99.0054842715
 20
139.0492683455
 11
101.3054842715
 21
139.0492683455
  0
LINE
  5
251
100
AcDbEntity
  8
RUNDUNGEN
100
AcDbLine
 62
9
  6
CONTINUOUS
 10
155.7054842715
 20
139.0492683455
 11
158.0054842715
 21
139.0492683455
  0
LINE
  5
252
100
AcDbEntity
  8
0
100
AcDbLine
 62
7
  6
CONTINUOUS
 10
109.6715096753
 20
139.3492683455
 11
117.2054842715
 21
139.3492683455
  0
LINE
  5
253
100
AcDbEntity
  8
0
100
AcDbLine
 62
7
  6
CONTINUOUS
 10
139.8054842715
 20
139.3492683455
 11
147.3394588677
 21
139.3492683455
  0
LINE
  5
254
100
AcDbEntity
  8
RUNDUNGEN
100
AcDbLine
 62
7
  6
CONTINUOUS
 10
198.8883141067
 20
108.2657465336
 11
200.2389766167
 21
107.67313453
  0
LINE
  5
255
100
AcDbEntity
  8
0
100
AcDbLine
 62
7
  6
CONTINUOUS
 10
107.1054842715
 20
149.4492683455
 11
108.3054842715
 21
148.2492683455
  0
LINE
  5
256
100
AcDbEntity
  8
0
100
AcDbLine
 62
7
  6
CONTINUOUS
 10
117.2054842715
 20
139.3492683455
 11
118.4054842715
 21
138.1492683455
  0
LINE
  5
257
100
AcDbEntity
  8
RUNDUNGEN
100
AcDbLine
 62
9
  6
CONTINUOUS
 10
128.3054842715
 20
240.9406287325
 11
128.3054842866
 21
241.1406287325
  0
LINE
  5
258
100
AcDbEntity
  8
DEFAULT_1
100
AcDbLine
 62
7
  6
CENTER
 10
128.5054842715
 20
159.5492683455
 11
128.5054842715
 21
60.0733520706
  0
LINE
  5
259
100
AcDbEntity
  8
DEFAULT_1
100
AcDbLine
 62
7
  6
CENTER
 10
128.5054842715
 20
159.5492683455
 11
128.5054842715
 21
259.0251846203
  0
LINE
  5
25A
100
AcDbEntity
  8
RUNDUNGEN
100
AcDbLine
 62
9
  6
CONTINUOUS
 10
128.7054842715
 20
240.9406287325
 11
128.7054842715
 21
241.1406287325
  0
LINE
  5
25B
100
AcDbEntity
  8
RUNDUNGEN
100
AcDbLine
 62
9
  6
CONTINUOUS
 10
138.3730015827
 20
248.8976266601
 11
138.3949558121
 21
249.0964180377
  0
LINE
  5
25C
100
AcDbEntity
  8
RUNDUNGEN
100
AcDbLine
 62
9
  6
CONTINUOUS
 10
112.800956361
 20
71.0401454568
 11
112.7660153196
 21
70.8432212998
  0
LINE
  5
25D
100
AcDbEntity
  8
RUNDUNGEN
100
AcDbLine
 62
9
  6
CONTINUOUS
 10
105.3829896102
 20
81.5111764526
 11
105.3266430988
 21
81.3192778578
  0
LINE
  5
25E
100
AcDbEntity
  8
RUNDUNGEN
100
AcDbLine
 62
9
  6
CONTINUOUS
 10
105.7667867996
 20
81.3984834298
 11
105.7104402737
 21
81.2065848394
  0
LINE
  5
25F
100
AcDbEntity
  8
RUNDUNGEN
100
AcDbLine
 62
9
  6
CONTINUOUS
 10
93.8653293069
 20
76.6001472203
 11
93.7882583749
 21
76.4155935115
  0
LINE
  5
260
100
AcDbEntity
  8
RUNDUNGEN
100
AcDbLine
 62
9
  6
CONTINUOUS
 10
168.5097699508
 20
240.0486730557
 11
168.5987755808
 21
240.2277763718
  0
LINE
  5
261
100
AcDbEntity
  8
RUNDUNGEN
100
AcDbLine
 62
9
  6
CONTINUOUS
 10
172.3407251784
 20
228.1281659765
 11
172.4488533546
 21
228.2964166749
  0
LINE
  5
262
100
AcDbEntity
  8
RUNDUNGEN
100
AcDbLine
 62
9
  6
CONTINUOUS
 10
172.6772265916
 20
227.9119096495
 11
172.785354755
 21
228.080160356
  0
LINE
  5
263
100
AcDbEntity
  8
RUNDUNGEN
100
AcDbLine
 62
9
  6
CONTINUOUS
 10
185.1119375473
 20
229.379107805
 11
185.2378813533
 21
229.5344724011
  0
LINE
  5
264
100
AcDbEntity
  8
RUNDUNGEN
100
AcDbLine
 62
9
  6
CONTINUOUS
 10
67.4423501346
 20
93.5811648349
 11
67.3064906228
 21
93.4343922452
  0
LINE
  5
265
100
AcDbEntity
  8
RUNDUNGEN
100
AcDbLine
 62
9
  6
CONTINUOUS
 10
66.8630261561
 20
106.4004122605
 11
66.7118762413
 21
106.2694401137
  0
LINE
  5
266
100
AcDbEntity
  8
RUNDUNGEN
100
AcDbLine
 62
9
  6
CONTINUOUS
 10
67.1249704497
 20
106.0981124307
 11
66.9738205249
 21
105.9671402954
  0
LINE
  5
267
100
AcDbEntity
  8
RUNDUNGEN
100
AcDbLine
 62
9
  6
CONTINUOUS
 10
54.5186508774
 20
108.4959088506
 11
54.3540374156
 21
108.3823200827
  0
LINE
  5
268
100
AcDbEntity
  8
RUNDUNGEN
100
AcDbLine
 62
9
  6
CONTINUOUS
 10
205.6804948948
 20
205.6417272374
 11
205.8522017587
 21
205.7442784582
  0
LINE
  5
269
100
AcDbEntity
  8
RUNDUNGEN
100
AcDbLine
 62
9
  6
CONTINUOUS
 10
202.4585868224
 20
193.5423877779
 11
202.6405132277
 21
193.6254707668
  0
LINE
  5
26A
100
AcDbEntity
  8
RUNDUNGEN
100
AcDbLine
 62
9
  6
CONTINUOUS
 10
202.6247528276
 20
193.1785349798
 11
202.8066792267
 21
193.2616179824
  0
LINE
  5
26B
100
AcDbEntity
  8
RUNDUNGEN
100
AcDbLine
 62
9
  6
CONTINUOUS
 10
213.878724559
 20
187.6901083155
 11
214.068671673
 21
187.7527189687
  0
LINE
  5
26C
100
AcDbEntity
  8
RUNDUNGEN
100
AcDbLine
 62
9
  6
CONTINUOUS
 10
41.4708575451
 20
137.0665909692
 11
41.277213998
 21
137.0165692071
  0
LINE
  5
26D
100
AcDbEntity
  8
RUNDUNGEN
100
AcDbLine
 62
9
  6
CONTINUOUS
 10
47.9710335442
 20
147.7681057668
 11
47.7730692537
 21
147.7396428141
  0
LINE
  5
26E
100
AcDbEntity
  8
RUNDUNGEN
100
AcDbLine
 62
9
  6
CONTINUOUS
 10
47.9141076089
 20
148.1640343435
 11
47.7161433206
 21
148.1355713759
  0
LINE
  5
26F
100
AcDbEntity
  8
RUNDUNGEN
100
AcDbLine
 62
9
  6
CONTINUOUS
 10
38.6622692845
 20
156.6007513946
 11
38.4623769039
 21
156.5941911989
  0
LINE
  5
270
100
AcDbEntity
  8
DEFAULT_1
100
AcDbLine
 62
7
  6
CENTER
 10
128.5054842715
 20
159.5492683455
 11
29.0295679967
 21
159.5492683455
  0
LINE
  5
271
100
AcDbEntity
  8
DEFAULT_1
100
AcDbLine
 62
7
  6
CENTER
 10
128.5054842715
 20
159.5492683455
 11
227.9814005464
 21
159.5492683455
  0
LINE
  5
272
100
AcDbEntity
  8
RUNDUNGEN
100
AcDbLine
 62
9
  6
CONTINUOUS
 10
218.3486992585
 20
156.6007513946
 11
218.5485916402
 21
156.5941912322
  0
LINE
  5
273
100
AcDbEntity
  8
RUNDUNGEN
100
AcDbLine
 62
9
  6
CONTINUOUS
 10
209.0399349988
 20
147.7681057668
 11
209.2378992872
 21
147.7396427991
  0
LINE
  5
274
100
AcDbEntity
  8
RUNDUNGEN
100
AcDbLine
 62
9
  6
CONTINUOUS
 10
209.0968609341
 20
148.1640343435
 11
209.2948252203
 21
148.1355713609
  0
LINE
  5
275
100
AcDbEntity
  8
RUNDUNGEN
100
AcDbLine
 62
9
  6
CONTINUOUS
 10
215.5401109979
 20
137.0665909692
 11
215.7337545533
 21
137.0165692394
  0
LINE
  5
276
100
AcDbEntity
  8
RUNDUNGEN
100
AcDbLine
 62
9
  6
CONTINUOUS
 10
43.132243984
 20
187.6901083155
 11
42.9422968596
 21
187.752718937
  0
LINE
  5
277
100
AcDbEntity
  8
RUNDUNGEN
100
AcDbLine
 62
9
  6
CONTINUOUS
 10
54.3862157155
 20
193.1785349798
 11
54.2042893227
 21
193.2616179962
  0
LINE
  5
278
100
AcDbEntity
  8
RUNDUNGEN
100
AcDbLine
 62
9
  6
CONTINUOUS
 10
54.5523817207
 20
193.5423877779
 11
54.3704553216
 21
193.6254707805
  0
LINE
  5
279
100
AcDbEntity
  8
RUNDUNGEN
100
AcDbLine
 62
9
  6
CONTINUOUS
 10
51.3304736482
 20
205.6417272373
 11
51.1587667673
 21
205.7442784296
  0
LINE
  5
27A
100
AcDbEntity
  8
RUNDUNGEN
100
AcDbLine
 62
9
  6
CONTINUOUS
 10
202.4923176657
 20
108.4959088505
 11
202.6569311464
 21
108.3823201101
  0
LINE
  5
27B
100
AcDbEntity
  8
RUNDUNGEN
100
AcDbLine
 62
9
  6
CONTINUOUS
 10
189.8859980933
 20
106.0981124307
 11
190.0371480082
 21
105.9671402839
  0
LINE
  5
27C
100
AcDbEntity
  8
RUNDUNGEN
100
AcDbLine
 62
9
  6
CONTINUOUS
 10
190.1479423869
 20
106.4004122605
 11
190.2990922919
 21
106.2694401023
  0
LINE
  5
27D
100
AcDbEntity
  8
RUNDUNGEN
100
AcDbLine
 62
9
  6
CONTINUOUS
 10
189.5686184085
 20
93.5811648349
 11
189.7044779447
 21
93.4343922679
  0
LINE
  5
27E
100
AcDbEntity
  8
RUNDUNGEN
100
AcDbLine
 62
9
  6
CONTINUOUS
 10
71.8990309957
 20
229.379107805
 11
71.7730871638
 21
229.5344723801
  0
LINE
  5
27F
100
AcDbEntity
  8
RUNDUNGEN
100
AcDbLine
 62
9
  6
CONTINUOUS
 10
84.3337419515
 20
227.9119096495
 11
84.2256138007
 21
228.0801603642
  0
LINE
  5
280
100
AcDbEntity
  8
RUNDUNGEN
100
AcDbLine
 62
9
  6
CONTINUOUS
 10
84.6702433646
 20
228.1281659765
 11
84.5621152011
 21
228.296416683
  0
LINE
  5
281
100
AcDbEntity
  8
RUNDUNGEN
100
AcDbLine
 62
9
  6
CONTINUOUS
 10
88.5011985923
 20
240.0486730557
 11
88.4121929324
 21
240.2277763569
  0
LINE
  5
282
100
AcDbEntity
  8
RUNDUNGEN
100
AcDbLine
 62
9
  6
CONTINUOUS
 10
163.1456392362
 20
76.6001472203
 11
163.2227101989
 21
76.4155935243
  0
LINE
  5
283
100
AcDbEntity
  8
RUNDUNGEN
100
AcDbLine
 62
9
  6
CONTINUOUS
 10
151.2441817434
 20
81.3984834298
 11
151.3005282548
 21
81.2065848351
  0
LINE
  5
284
100
AcDbEntity
  8
RUNDUNGEN
100
AcDbLine
 62
9
  6
CONTINUOUS
 10
151.6279789329
 20
81.5111764526
 11
151.6843254297
 21
81.3192778536
  0
LINE
  5
285
100
AcDbEntity
  8
RUNDUNGEN
100
AcDbLine
 62
9
  6
CONTINUOUS
 10
144.210012182
 20
71.0401454568
 11
144.2449532563
 21
70.8432213056
  0
LINE
  5
286
100
AcDbEntity
  8
RUNDUNGEN
100
AcDbLine
 62
9
  6
CONTINUOUS
 10
118.6379669604
 20
248.8976266601
 11
118.6160126978
 21
249.0964180341
  0
LINE
  5
287
100
AcDbEntity
  8
0
100
AcDbLine
 62
7
  6
CONTINUOUS
 10
148.7054842715
 20
140.7152937492
 11
148.7054842715
 21
148.2492683455
  0
LINE
  5
288
100
AcDbEntity
  8
0
100
AcDbLine
 62
7
  6
CONTINUOUS
 10
148.7054842715
 20
170.8492683455
 11
148.7054842715
 21
178.3832429417
  0
LINE
  5
289
100
AcDbEntity
  8
RUNDUNGEN
100
AcDbLine
 62
9
  6
CONTINUOUS
 10
149.0054842715
 20
186.7492683455
 11
149.0054842715
 21
189.0492683455
  0
LINE
  5
28A
100
AcDbEntity
  8
RUNDUNGEN
100
AcDbLine
 62
9
  6
CONTINUOUS
 10
149.0054842715
 20
132.3492683455
 11
149.0054842715
 21
130.0492683455
  0
LINE
  5
28B
100
AcDbEntity
  8
0
100
AcDbLine
 62
7
  6
CONTINUOUS
 10
149.9054842715
 20
149.4492683455
 11
149.9054842715
 21
169.6492683455
  0
LINE
  5
28C
100
AcDbEntity
  8
RUNDUNGEN
100
AcDbLine
 62
7
  6
CONTINUOUS
 10
169.2504927308
 20
236.5141085693
 11
169.644853482
 21
237.9353607639
  0
LINE
  5
28D
100
AcDbEntity
  8
RUNDUNGEN
100
AcDbLine
 62
7
  6
CONTINUOUS
 10
96.2057858251
 20
77.1262335906
 11
97.0216451764
 21
78.3549937883
  0
LINE
  5
28E
100
AcDbEntity
  8
0
100
AcDbLine
 62
7
  6
CONTINUOUS
 10
138.6054842715
 20
138.1492683455
 11
139.8054842715
 21
139.3492683455
  0
LINE
  5
28F
100
AcDbEntity
  8
0
100
AcDbLine
 62
7
  6
CONTINUOUS
 10
148.7054842715
 20
148.2492683455
 11
149.9054842715
 21
149.4492683455
  0
LINE
  5
290
100
AcDbEntity
  8
RUNDUNGEN
100
AcDbLine
 62
7
  6
CONTINUOUS
 10
204.3927007171
 20
202.2677974069
 11
205.4928450406
 21
203.2502233178
  0
LINE
  5
291
100
AcDbEntity
  8
RUNDUNGEN
100
AcDbLine
 62
7
  6
CONTINUOUS
 10
58.1226544363
 20
108.2657465336
 11
56.7719919263
 21
107.67313453
  0
LINE
  5
292
100
AcDbEntity
  8
RUNDUNGEN
100
AcDbLine
 62
7
  6
CONTINUOUS
 10
211.9484619353
 20
189.1143940264
 11
210.4855526854
 21
188.9263125789
  0
LINE
  5
293
100
AcDbEntity
  8
0
100
AcDbLine
 62
7
  6
CONTINUOUS
 10
147.3394588677
 20
179.7492683455
 11
139.8054842715
 21
179.7492683455
  0
LINE
  5
294
100
AcDbEntity
  8
0
100
AcDbLine
 62
7
  6
CONTINUOUS
 10
117.2054842715
 20
179.7492683455
 11
109.6715096753
 21
179.7492683455
  0
LINE
  5
295
100
AcDbEntity
  8
RUNDUNGEN
100
AcDbLine
 62
9
  6
CONTINUOUS
 10
99.0054842715
 20
180.0492683455
 11
101.3054842715
 21
180.0492683455
  0
LINE
  5
296
100
AcDbEntity
  8
RUNDUNGEN
100
AcDbLine
 62
9
  6
CONTINUOUS
 10
155.7054842715
 20
180.0492683455
 11
158.0054842715
 21
180.0492683455
  0
LINE
  5
297
100
AcDbEntity
  8
0
100
AcDbLine
 62
7
  6
CONTINUOUS
 10
138.6054842715
 20
180.9492683455
 11
118.4054842715
 21
180.9492683455
  0
LINE
  5
298
100
AcDbEntity
  8
RUNDUNGEN
100
AcDbLine
 62
7
  6
CONTINUOUS
 10
213.3539356552
 20
139.9410393887
 11
214.6862977673
 21
139.3083551032
  0
LINE
  5
299
100
AcDbEntity
  8
RUNDUNGEN
100
AcDbLine
 62
7
  6
CONTINUOUS
 10
75.4218913054
 20
228.5845817933
 11
74.2928982123
 21
229.5337144492
  0
LINE
  5
29A
100
AcDbEntity
  8
0
100
AcDbLine
 62
7
  6
CONTINUOUS
 10
149.9054842715
 20
169.6492683455
 11
148.7054842715
 21
170.8492683455
  0
LINE
  5
29B
100
AcDbEntity
  8
0
100
AcDbLine
 62
7
  6
CONTINUOUS
 10
139.8054842715
 20
179.7492683455
 11
138.6054842715
 21
180.9492683455
  0
LINE
  5
29C
100
AcDbEntity
  8
RUNDUNGEN
100
AcDbLine
 62
9
  6
CONTINUOUS
 10
155.7054842715
 20
139.0492683455
 11
155.7054842715
 21
180.0492683455
  0
LINE
  5
29D
100
AcDbEntity
  8
RUNDUNGEN
100
AcDbLine
 62
7
  6
CONTINUOUS
 10
156.0054842715
 20
139.0492683455
 11
156.0054842715
 21
180.0492683455
  0
LINE
  5
29E
100
AcDbEntity
  8
RUNDUNGEN
100
AcDbLine
 62
9
  6
CONTINUOUS
 10
158.0054842715
 20
139.0492683455
 11
158.0054842715
 21
180.0492683455
  0
LINE
  5
29F
100
AcDbEntity
  8
RUNDUNGEN
100
AcDbLine
 62
9
  6
CONTINUOUS
 10
149.0054842715
 20
186.7492683455
 11
108.0054842715
 21
186.7492683455
  0
LINE
  5
2A0
100
AcDbEntity
  8
RUNDUNGEN
100
AcDbLine
 62
7
  6
CONTINUOUS
 10
149.0054842715
 20
187.0492683455
 11
108.0054842715
 21
187.0492683455
  0
LINE
  5
2A1
100
AcDbEntity
  8
RUNDUNGEN
100
AcDbLine
 62
9
  6
CONTINUOUS
 10
149.0054842715
 20
189.0492683455
 11
108.0054842715
 21
189.0492683455
  0
LINE
  5
2A2
100
AcDbEntity
  8
RUNDUNGEN
100
AcDbLine
 62
9
  6
CONTINUOUS
 10
209.0399349988
 20
147.7681057668
 11
209.0968609341
 21
148.1640343435
  0
LINE
  5
2A3
100
AcDbEntity
  8
RUNDUNGEN
100
AcDbLine
 62
7
  6
CONTINUOUS
 10
209.2378992872
 20
147.7396427991
 11
209.2948252225
 21
148.1355713759
  0
LINE
  5
2A4
100
AcDbEntity
  8
RUNDUNGEN
100
AcDbLine
 62
9
  6
CONTINUOUS
 10
189.8859980933
 20
106.0981124307
 11
190.1479423869
 21
106.4004122605
  0
LINE
  5
2A5
100
AcDbEntity
  8
RUNDUNGEN
100
AcDbLine
 62
7
  6
CONTINUOUS
 10
190.0371480082
 20
105.9671402839
 11
190.2990923018
 21
106.2694401137
  0
LINE
  5
2A6
100
AcDbEntity
  8
RUNDUNGEN
100
AcDbLine
 62
9
  6
CONTINUOUS
 10
151.2441817434
 20
81.3984834298
 11
151.6279789329
 21
81.5111764526
  0
LINE
  5
2A7
100
AcDbEntity
  8
RUNDUNGEN
100
AcDbLine
 62
7
  6
CONTINUOUS
 10
151.3005282548
 20
81.2065848351
 11
151.6843254443
 21
81.3192778578
  0
LINE
  5
2A8
100
AcDbEntity
  8
RUNDUNGEN
100
AcDbLine
 62
9
  6
CONTINUOUS
 10
128.7054842715
 20
240.9406287325
 11
128.3054842715
 21
240.9406287325
  0
LINE
  5
2A9
100
AcDbEntity
  8
RUNDUNGEN
100
AcDbLine
 62
7
  6
CONTINUOUS
 10
128.7054842715
 20
241.1406287325
 11
128.3054842715
 21
241.1406287325
  0
LINE
  5
2AA
100
AcDbEntity
  8
RUNDUNGEN
100
AcDbLine
 62
9
  6
CONTINUOUS
 10
172.6772265915
 20
227.9119096495
 11
172.3407251784
 21
228.1281659765
  0
LINE
  5
2AB
100
AcDbEntity
  8
RUNDUNGEN
100
AcDbLine
 62
7
  6
CONTINUOUS
 10
172.785354755
 20
228.080160356
 11
172.4488533419
 21
228.296416683
  0
LINE
  5
2AC
100
AcDbEntity
  8
RUNDUNGEN
100
AcDbLine
 62
9
  6
CONTINUOUS
 10
202.6247528276
 20
193.1785349798
 11
202.4585868224
 21
193.5423877779
  0
LINE
  5
2AD
100
AcDbEntity
  8
RUNDUNGEN
100
AcDbLine
 62
7
  6
CONTINUOUS
 10
202.8066792267
 20
193.2616179824
 11
202.6405132215
 21
193.6254707805
  0
LINE
  5
2AE
100
AcDbEntity
  8
RUNDUNGEN
100
AcDbLine
 62
9
  6
CONTINUOUS
 10
200.3161585612
 20
107.8576418401
 11
200.2389766167
 21
107.67313453
  0
LINE
  5
2AF
100
AcDbEntity
  8
RUNDUNGEN
100
AcDbLine
 62
9
  6
CONTINUOUS
 10
214.5973998711
 20
139.1291982891
 11
214.6862977374
 21
139.3083551181
  0
LINE
  5
2B0
100
AcDbEntity
  8
RUNDUNGEN
100
AcDbLine
 62
9
  6
CONTINUOUS
 10
160.9698645032
 20
77.23972328
 11
160.8051827368
 21
77.1262335632
  0
LINE
  5
2B1
100
AcDbEntity
  8
RUNDUNGEN
100
AcDbLine
 62
9
  6
CONTINUOUS
 10
189.8906890501
 20
95.8260086438
 11
190.0623341887
 21
95.928663144
  0
LINE
  5
2B2
100
AcDbEntity
  8
RUNDUNGEN
100
AcDbLine
 62
9
  6
CONTINUOUS
 10
87.5597284886
 20
237.9854989795
 11
87.3661150694
 21
237.9353607316
  0
LINE
  5
2B3
100
AcDbEntity
  8
RUNDUNGEN
100
AcDbLine
 62
9
  6
CONTINUOUS
 10
169.4512400544
 20
237.9854989795
 11
169.644853482
 21
237.9353607639
  0
LINE
  5
2B4
100
AcDbEntity
  8
RUNDUNGEN
100
AcDbLine
 62
9
  6
CONTINUOUS
 10
136.4655504128
 20
247.6709713461
 11
136.2755656566
 21
247.7334676852
  0
LINE
  5
2B5
100
AcDbEntity
  8
RUNDUNGEN
100
AcDbLine
 62
9
  6
CONTINUOUS
 10
205.3570738265
 20
203.3970775905
 11
205.4928450406
 21
203.2502233178
  0
LINE
  5
2B6
100
AcDbEntity
  8
RUNDUNGEN
100
AcDbLine
 62
9
  6
CONTINUOUS
 10
182.8441075803
 20
229.3784256482
 11
182.7180703048
 21
229.5337144282
  0
LINE
  5
2B7
100
AcDbEntity
  8
RUNDUNGEN
100
AcDbLine
 62
9
  6
CONTINUOUS
 10
216.8630709222
 20
154.88728658
 11
216.8978935217
 21
154.6903414441
  0
LINE
  5
2B8
100
AcDbEntity
  8
RUNDUNGEN
100
AcDbLine
 62
9
  6
CONTINUOUS
 10
211.9705357857
 20
188.915615896
 11
211.9484619353
 21
189.1143940264
  0
LINE
  5
2B9
100
AcDbEntity
  8
0
100
AcDbLine
 62
7
  6
CONTINUOUS
 10
322.6141343212
 20
69.4576834701
 11
318.0141343212
 21
69.4576834701
  0
LINE
  5
2BA
100
AcDbEntity
  8
0
100
AcDbLine
 62
7
  6
CONTINUOUS
 10
362.0141343212
 20
69.4576834701
 11
366.6141343212
 21
69.4576834701
  0
LINE
  5
2BB
100
AcDbEntity
  8
0
100
AcDbLine
 62
7
  6
CONTINUOUS
 10
324.8141343212
 20
83.9579079584
 11
359.8141343212
 21
83.9579079584
  0
LINE
  5
2BC
100
AcDbEntity
  8
0
100
AcDbLine
 62
7
  6
CONTINUOUS
 10
334.8141343212
 20
89.5492683455
 11
320.8141343212
 21
89.5492683455
  0
LINE
  5
2BD
100
AcDbEntity
  8
0
100
AcDbLine
 62
7
  6
CONTINUOUS
 10
349.8141343212
 20
89.5492683455
 11
363.8141343212
 21
89.5492683455
  0
LINE
  5
2BE
100
AcDbEntity
  8
0
100
AcDbLine
 62
7
  6
CONTINUOUS
 10
336.8141343212
 20
103.9492683455
 11
347.8141343212
 21
103.9492683455
  0
LINE
  5
2BF
100
AcDbEntity
  8
0
100
AcDbLine
 62
7
  6
CONTINUOUS
 10
336.8141343212
 20
110.1492683455
 11
347.8141343212
 21
110.1492683455
  0
LINE
  5
2C0
100
AcDbEntity
  8
0
100
AcDbLine
 62
7
  6
CONTINUOUS
 10
317.8141343212
 20
69.6576834701
 11
317.8141343212
 21
240.9406287325
  0
LINE
  5
2C1
100
AcDbEntity
  8
RUNDUNGEN
100
AcDbLine
 62
7
  6
CONTINUOUS
 10
317.8141343212
 20
241.3728625035
 11
317.8141343212
 21
248.9078814252
  0
LINE
  5
2C2
100
AcDbEntity
  8
RUNDUNGEN
100
AcDbLine
 62
9
  6
CONTINUOUS
 10
318.0141343212
 20
241.1651965129
 11
318.0141343212
 21
249.1048599115
  0
LINE
  5
2C3
100
AcDbEntity
  8
0
100
AcDbLine
 62
7
  6
CONTINUOUS
 10
334.8141343212
 20
132.0492683455
 11
318.1141343212
 21
132.0492683455
  0
LINE
  5
2C4
100
AcDbEntity
  8
0
100
AcDbLine
 62
7
  6
CONTINUOUS
 10
349.8141343212
 20
132.0492683455
 11
366.5141343212
 21
132.0492683455
  0
LINE
  5
2C5
100
AcDbEntity
  8
0
100
AcDbLine
 62
9
  6
CONTINUOUS
 10
320.8141343212
 20
229.5492683455
 11
320.8141343212
 21
187.0492683455
  0
LINE
  5
2C6
100
AcDbEntity
  8
0
100
AcDbLine
 62
9
  6
CONTINUOUS
 10
320.8141343212
 20
132.0492683455
 11
320.8141343212
 21
89.5492683455
  0
LINE
  5
2C7
100
AcDbEntity
  8
RUNDUNGEN
100
AcDbLine
 62
9
  6
CONTINUOUS
 10
322.6141343212
 20
249.1085042947
 11
322.6141343212
 21
241.1406287325
  0
LINE
  5
2C8
100
AcDbEntity
  8
RUNDUNGEN
100
AcDbLine
 62
7
  6
CONTINUOUS
 10
322.8141343212
 20
248.9082953515
 11
322.8141343212
 21
240.9590365869
  0
LINE
  5
2C9
100
AcDbEntity
  8
0
100
AcDbLine
 62
7
  6
CONTINUOUS
 10
322.8141343212
 20
69.6576834701
 11
322.8141343212
 21
81.9579079584
  0
LINE
  5
2CA
100
AcDbEntity
  8
0
100
AcDbLine
 62
7
  6
CONTINUOUS
 10
322.8141343212
 20
237.1406287325
 11
322.8141343212
 21
240.9406287325
  0
LINE
  5
2CB
100
AcDbEntity
  8
0
100
AcDbLine
 62
7
  6
CONTINUOUS
 10
322.8141343212
 20
246.265806703
 11
322.8141343212
 21
248.9052241066
  0
LINE
  5
2CC
100
AcDbEntity
  8
0
100
AcDbLine
 62
7
  6
CONTINUOUS
 10
317.8141343212
 20
138.1492683455
 11
366.8141343212
 21
138.1492683455
  0
LINE
  5
2CD
100
AcDbEntity
  8
0
100
AcDbLine
 62
7
  6
CONTINUOUS
 10
317.8141343212
 20
139.3492683455
 11
366.8141343212
 21
139.3492683455
  0
LINE
  5
2CE
100
AcDbEntity
  8
0
100
AcDbLine
 62
7
  6
CONTINUOUS
 10
317.8141343212
 20
140.7152937492
 11
366.8141343212
 21
140.7152937492
  0
LINE
  5
2CF
100
AcDbEntity
  8
0
100
AcDbLine
 62
9
  6
CONTINUOUS
 10
334.8141343212
 20
229.5492683455
 11
334.8141343212
 21
187.0492683455
  0
LINE
  5
2D0
100
AcDbEntity
  8
0
100
AcDbLine
 62
9
  6
CONTINUOUS
 10
334.8141343212
 20
132.0492683455
 11
334.8141343212
 21
89.5492683455
  0
LINE
  5
2D1
100
AcDbEntity
  8
0
100
AcDbLine
 62
7
  6
CONTINUOUS
 10
336.8141343212
 20
91.5492683455
 11
336.8141343212
 21
130.0492683455
  0
LINE
  5
2D2
100
AcDbEntity
  8
0
100
AcDbLine
 62
7
  6
CONTINUOUS
 10
336.8141343212
 20
189.0492683455
 11
336.8141343212
 21
227.5492683455
  0
LINE
  5
2D3
100
AcDbEntity
  8
0
100
AcDbLine
 62
7
  6
CONTINUOUS
 10
317.8141343212
 20
148.2492683455
 11
366.8141343212
 21
148.2492683455
  0
LINE
  5
2D4
100
AcDbEntity
  8
0
100
AcDbLine
 62
7
  6
CONTINUOUS
 10
317.8141343212
 20
149.4492683455
 11
366.8141343212
 21
149.4492683455
  0
LINE
  5
2D5
100
AcDbEntity
  8
0
100
AcDbLine
 62
7
  6
CONTINUOUS
 10
342.3141343212
 20
83.9579079584
 11
342.3141343212
 21
235.1406287325
  0
LINE
  5
2D6
100
AcDbEntity
  8
02___PRT_ALL_AXES
100
AcDbLine
 62
7
  6
CENTER
 10
314.8141343212
 20
159.5492683455
 11
369.8141343212
 21
159.5492683455
  0
LINE
  5
2D7
100
AcDbEntity
  8
0
100
AcDbLine
 62
7
  6
CONTINUOUS
 10
347.8141343212
 20
91.5492683455
 11
347.8141343212
 21
130.0492683455
  0
LINE
  5
2D8
100
AcDbEntity
  8
0
100
AcDbLine
 62
7
  6
CONTINUOUS
 10
347.8141343212
 20
189.0492683455
 11
347.8141343212
 21
227.5492683455
  0
LINE
  5
2D9
100
AcDbEntity
  8
0
100
AcDbLine
 62
9
  6
CONTINUOUS
 10
349.8141343212
 20
89.5492683455
 11
349.8141343212
 21
132.0492683455
  0
LINE
  5
2DA
100
AcDbEntity
  8
0
100
AcDbLine
 62
9
  6
CONTINUOUS
 10
349.8141343212
 20
187.0492683455
 11
349.8141343212
 21
229.5492683455
  0
LINE
  5
2DB
100
AcDbEntity
  8
0
100
AcDbLine
 62
7
  6
CONTINUOUS
 10
317.8141343212
 20
169.6492683455
 11
366.8141343212
 21
169.6492683455
  0
LINE
  5
2DC
100
AcDbEntity
  8
0
100
AcDbLine
 62
7
  6
CONTINUOUS
 10
317.8141343212
 20
170.8492683455
 11
366.8141343212
 21
170.8492683455
  0
LINE
  5
2DD
100
AcDbEntity
  8
0
100
AcDbLine
 62
7
  6
CONTINUOUS
 10
317.8141343212
 20
178.3832429417
 11
366.8141343212
 21
178.3832429417
  0
LINE
  5
2DE
100
AcDbEntity
  8
0
100
AcDbLine
 62
7
  6
CONTINUOUS
 10
361.8141343212
 20
248.8976266601
 11
361.8141343212
 21
246.265806703
  0
LINE
  5
2DF
100
AcDbEntity
  8
0
100
AcDbLine
 62
7
  6
CONTINUOUS
 10
361.8141343212
 20
69.6576834701
 11
361.8141343212
 21
81.9579079584
  0
LINE
  5
2E0
100
AcDbEntity
  8
0
100
AcDbLine
 62
7
  6
CONTINUOUS
 10
361.8141343212
 20
237.1406287325
 11
361.8141343212
 21
240.9406287325
  0
LINE
  5
2E1
100
AcDbEntity
  8
RUNDUNGEN
100
AcDbLine
 62
7
  6
CONTINUOUS
 10
361.8141343212
 20
241.328516814
 11
361.8141343212
 21
248.907823872
  0
LINE
  5
2E2
100
AcDbEntity
  8
RUNDUNGEN
100
AcDbLine
 62
9
  6
CONTINUOUS
 10
362.0141343212
 20
241.1604872693
 11
362.0141343212
 21
249.1085042947
  0
LINE
  5
2E3
100
AcDbEntity
  8
0
100
AcDbLine
 62
9
  6
CONTINUOUS
 10
363.8141343212
 20
89.5492683455
 11
363.8141343212
 21
132.0492683455
  0
LINE
  5
2E4
100
AcDbEntity
  8
0
100
AcDbLine
 62
9
  6
CONTINUOUS
 10
363.8141343212
 20
187.0492683455
 11
363.8141343212
 21
229.5492683455
  0
LINE
  5
2E5
100
AcDbEntity
  8
RUNDUNGEN
100
AcDbLine
 62
9
  6
CONTINUOUS
 10
366.6141343212
 20
249.1085042947
 11
366.6141343212
 21
241.1406287325
  0
LINE
  5
2E6
100
AcDbEntity
  8
0
100
AcDbLine
 62
7
  6
CONTINUOUS
 10
366.8141343212
 20
248.8976266601
 11
366.8141343212
 21
247.6709713461
  0
LINE
  5
2E7
100
AcDbEntity
  8
RUNDUNGEN
100
AcDbLine
 62
7
  6
CONTINUOUS
 10
366.8141343212
 20
248.9085551843
 11
366.8141343212
 21
240.9556671423
  0
LINE
  5
2E8
100
AcDbEntity
  8
0
100
AcDbLine
 62
7
  6
CONTINUOUS
 10
366.8141343212
 20
69.6576834701
 11
366.8141343212
 21
240.9406287325
  0
LINE
  5
2E9
100
AcDbEntity
  8
0
100
AcDbLine
 62
7
  6
CONTINUOUS
 10
317.8141343212
 20
179.7492683455
 11
366.8141343212
 21
179.7492683455
  0
LINE
  5
2EA
100
AcDbEntity
  8
0
100
AcDbLine
 62
7
  6
CONTINUOUS
 10
317.8141343212
 20
180.9492683455
 11
366.8141343212
 21
180.9492683455
  0
LINE
  5
2EB
100
AcDbEntity
  8
0
100
AcDbLine
 62
7
  6
CONTINUOUS
 10
334.8141343212
 20
187.0492683455
 11
318.1141343212
 21
187.0492683455
  0
LINE
  5
2EC
100
AcDbEntity
  8
0
100
AcDbLine
 62
7
  6
CONTINUOUS
 10
349.8141343212
 20
187.0492683455
 11
366.5141343212
 21
187.0492683455
  0
LINE
  5
2ED
100
AcDbEntity
  8
0
100
AcDbLine
 62
7
  6
CONTINUOUS
 10
336.8141343212
 20
208.9492683455
 11
347.8141343212
 21
208.9492683455
  0
LINE
  5
2EE
100
AcDbEntity
  8
0
100
AcDbLine
 62
7
  6
CONTINUOUS
 10
336.8141343212
 20
215.1492683455
 11
347.8141343212
 21
215.1492683455
  0
LINE
  5
2EF
100
AcDbEntity
  8
0
100
AcDbLine
 62
7
  6
CONTINUOUS
 10
334.8141343212
 20
229.5492683455
 11
320.8141343212
 21
229.5492683455
  0
LINE
  5
2F0
100
AcDbEntity
  8
0
100
AcDbLine
 62
7
  6
CONTINUOUS
 10
349.8141343212
 20
229.5492683455
 11
363.8141343212
 21
229.5492683455
  0
LINE
  5
2F1
100
AcDbEntity
  8
0
100
AcDbLine
 62
7
  6
CONTINUOUS
 10
324.8141343212
 20
235.1406287325
 11
359.8141343212
 21
235.1406287325
  0
LINE
  5
2F2
100
AcDbEntity
  8
0
100
AcDbLine
 62
7
  6
CONTINUOUS
 10
322.6141343212
 20
241.1406287325
 11
318.0141343212
 21
241.1406287325
  0
LINE
  5
2F3
100
AcDbEntity
  8
0
100
AcDbLine
 62
7
  6
CONTINUOUS
 10
362.0141343212
 20
241.1406287325
 11
366.6141343212
 21
241.1406287325
  0
LINE
  5
2F4
100
AcDbEntity
  8
RUNDUNGEN
100
AcDbLine
 62
7
  6
CONTINUOUS
 10
322.6141343212
 20
246.3246267682
 11
318.0141343212
 21
246.3246267682
  0
LINE
  5
2F5
100
AcDbEntity
  8
RUNDUNGEN
100
AcDbLine
 62
7
  6
CONTINUOUS
 10
362.0141343212
 20
246.3246267682
 11
366.6141343212
 21
246.3246267682
  0
LINE
  5
2F6
100
AcDbEntity
  8
RUNDUNGEN
100
AcDbLine
 62
9
  6
CONTINUOUS
 10
322.6141343212
 20
247.7334676852
 11
318.0141343212
 21
247.7334676852
  0
LINE
  5
2F7
100
AcDbEntity
  8
RUNDUNGEN
100
AcDbLine
 62
9
  6
CONTINUOUS
 10
362.0141343212
 20
247.7334676852
 11
366.6141343212
 21
247.7334676852
  0
LINE
  5
2F8
100
AcDbEntity
  8
0
100
AcDbLine
 62
7
  6
CONTINUOUS
 10
322.6141343212
 20
249.1085042947
 11
318.0141343212
 21
249.1085042947
  0
LINE
  5
2F9
100
AcDbEntity
  8
0
100
AcDbLine
 62
7
  6
CONTINUOUS
 10
362.0141343212
 20
249.1085042947
 11
366.6141343212
 21
249.1085042947
  0
ARC
  5
2FA
100
AcDbEntity
  8
RUNDUNGEN
100
AcDbCircle
 62
7
  6
CONTINUOUS
 10
61.3056987272
 20
101.0556847794
 40
42.703
100
AcDbArc
 50
114.4115916791
 51
116.3906709708
  0
ARC
  5
2FB
100
AcDbEntity
  8
RUNDUNGEN
100
AcDbCircle
 62
7
  6
CONTINUOUS
 10
61.0437544336
 20
101.3579846091
 40
42.703
100
AcDbArc
 50
325.4275108474
 51
327.4065901391
  0
ARC
  5
2FC
100
AcDbEntity
  8
RUNDUNGEN
100
AcDbCircle
 62
9
  6
CONTINUOUS
 10
61.0437544336
 20
101.3579846091
 40
42.503
100
AcDbArc
 50
325.4275108474
 51
327.4106926296
  0
ARC
  5
2FD
100
AcDbEntity
  8
RUNDUNGEN
100
AcDbCircle
 62
9
  6
CONTINUOUS
 10
61.3056987272
 20
101.0556847794
 40
42.503
100
AcDbArc
 50
114.4074891885
 51
116.3906709708
  0
ARC
  5
2FE
100
AcDbEntity
  8
RUNDUNGEN
100
AcDbCircle
 62
9
  6
CONTINUOUS
 10
61.3056987272
 20
101.0556847794
 40
7.7
100
AcDbArc
 50
328.8730353994
 51
40.9090909091
  0
ARC
  5
2FF
100
AcDbEntity
  8
RUNDUNGEN
100
AcDbCircle
 62
9
  6
CONTINUOUS
 10
61.0437544336
 20
101.3579846091
 40
7.7
100
AcDbArc
 50
40.9090909091
 51
112.9451464187
  0
ARC
  5
300
100
AcDbEntity
  8
RUNDUNGEN
100
AcDbCircle
 62
7
  6
CONTINUOUS
 10
61.3056987272
 20
101.0556847794
 40
7.5
100
AcDbArc
 50
328.8960344857
 51
40.9090909091
  0
ARC
  5
301
100
AcDbEntity
  8
RUNDUNGEN
100
AcDbCircle
 62
7
  6
CONTINUOUS
 10
61.0437544336
 20
101.3579846091
 40
7.5
100
AcDbArc
 50
40.9090909091
 51
112.9221473325
  0
ARC
  5
302
100
AcDbEntity
  8
RUNDUNGEN
100
AcDbCircle
 62
7
  6
CONTINUOUS
 10
56.0001722044
 20
109.5182075142
 40
2.0
100
AcDbArc
 50
214.6069579631
 51
292.7002381201
  0
ARC
  5
303
100
AcDbEntity
  8
RUNDUNGEN
100
AcDbCircle
 62
9
  6
CONTINUOUS
 10
56.0001722044
 20
109.5182075142
 40
1.8
100
AcDbArc
 50
214.6069579631
 51
292.7002381201
  0
ARC
  5
304
100
AcDbEntity
  8
RUNDUNGEN
100
AcDbCircle
 62
7
  6
CONTINUOUS
 10
68.6650857399
 20
94.902118142
 40
2.0
100
AcDbArc
 50
149.1179436981
 51
227.2112238551
  0
ARC
  5
305
100
AcDbEntity
  8
RUNDUNGEN
100
AcDbCircle
 62
9
  6
CONTINUOUS
 10
68.6650857399
 20
94.902118142
 40
1.8
100
AcDbArc
 50
149.1179436981
 51
227.2112238551
  0
ARC
  5
306
100
AcDbEntity
  8
RUNDUNGEN
100
AcDbCircle
 62
7
  6
CONTINUOUS
 10
40.3494084418
 20
146.6722815121
 40
42.703
100
AcDbArc
 50
81.6843189518
 51
83.6633982435
  0
ARC
  5
307
100
AcDbEntity
  8
RUNDUNGEN
100
AcDbCircle
 62
7
  6
CONTINUOUS
 10
40.2924825065
 20
147.0682100888
 40
42.703
100
AcDbArc
 50
292.7002381201
 51
294.6793174118
  0
ARC
  5
308
100
AcDbEntity
  8
RUNDUNGEN
100
AcDbCircle
 62
9
  6
CONTINUOUS
 10
40.2924825065
 20
147.0682100888
 40
42.503
100
AcDbArc
 50
292.7002381201
 51
294.6834199024
  0
ARC
  5
309
100
AcDbEntity
  8
RUNDUNGEN
100
AcDbCircle
 62
9
  6
CONTINUOUS
 10
40.3494084418
 20
146.6722815121
 40
42.503
100
AcDbArc
 50
81.6802164613
 51
83.6633982435
  0
ARC
  5
30A
100
AcDbEntity
  8
RUNDUNGEN
100
AcDbCircle
 62
9
  6
CONTINUOUS
 10
40.3494084418
 20
146.6722815121
 40
7.7
100
AcDbArc
 50
296.1457626722
 51
8.1818181818
  0
ARC
  5
30B
100
AcDbEntity
  8
RUNDUNGEN
100
AcDbCircle
 62
9
  6
CONTINUOUS
 10
40.2924825065
 20
147.0682100888
 40
7.7
100
AcDbArc
 50
8.1818181818
 51
80.2178736915
  0
ARC
  5
30C
100
AcDbEntity
  8
RUNDUNGEN
100
AcDbCircle
 62
7
  6
CONTINUOUS
 10
40.3494084418
 20
146.6722815121
 40
7.5
100
AcDbArc
 50
296.1687617584
 51
8.1818181818
  0
ARC
  5
30D
100
AcDbEntity
  8
RUNDUNGEN
100
AcDbCircle
 62
7
  6
CONTINUOUS
 10
40.2924825065
 20
147.0682100888
 40
7.5
100
AcDbArc
 50
8.1818181818
 51
80.1948746052
  0
ARC
  5
30E
100
AcDbEntity
  8
RUNDUNGEN
100
AcDbCircle
 62
7
  6
CONTINUOUS
 10
43.2136494686
 20
137.5167868283
 40
2.0
100
AcDbArc
 50
116.3906709708
 51
194.4839511278
  0
ARC
  5
30F
100
AcDbEntity
  8
RUNDUNGEN
100
AcDbCircle
 62
9
  6
CONTINUOUS
 10
43.2136494686
 20
137.5167868283
 40
1.8
100
AcDbArc
 50
116.3906709708
 51
194.4839511278
  0
ARC
  5
310
100
AcDbEntity
  8
RUNDUNGEN
100
AcDbCircle
 62
7
  6
CONTINUOUS
 10
40.46130072
 20
156.6597928557
 40
2.0
100
AcDbArc
 50
181.8796852358
 51
259.9729653928
  0
ARC
  5
311
100
AcDbEntity
  8
RUNDUNGEN
100
AcDbCircle
 62
9
  6
CONTINUOUS
 10
40.46130072
 20
156.6597928557
 40
1.8
100
AcDbArc
 50
181.8796852358
 51
259.9729653928
  0
CIRCLE
  5
312
100
AcDbEntity
  8
02___PRT_ALL_AXES
100
AcDbCircle
 62
7
  6
CONTINUOUS
 10
76.0054842715
 20
159.5492683455
 40
3.1
  0
ARC
  5
313
100
AcDbEntity
  8
RUNDUNGEN
100
AcDbCircle
 62
7
  6
CONTINUOUS
 10
103.5974461119
 20
74.010387533
 40
42.703
100
AcDbArc
 50
147.1388644064
 51
149.1179436981
  0
ARC
  5
314
100
AcDbEntity
  8
RUNDUNGEN
100
AcDbCircle
 62
7
  6
CONTINUOUS
 10
103.2136489225
 20
74.1230805557
 40
42.703
100
AcDbArc
 50
358.1547835746
 51
0.1338628664
  0
ARC
  5
315
100
AcDbEntity
  8
RUNDUNGEN
100
AcDbCircle
 62
9
  6
CONTINUOUS
 10
103.2136489225
 20
74.1230805557
 40
42.503
100
AcDbArc
 50
358.1547835746
 51
0.1379653569
  0
ARC
  5
316
100
AcDbEntity
  8
RUNDUNGEN
100
AcDbCircle
 62
9
  6
CONTINUOUS
 10
103.5974461119
 20
74.010387533
 40
42.503
100
AcDbArc
 50
147.1347619158
 51
149.1179436981
  0
ARC
  5
317
100
AcDbEntity
  8
RUNDUNGEN
100
AcDbCircle
 62
9
  6
CONTINUOUS
 10
103.5974461119
 20
74.010387533
 40
7.7
100
AcDbArc
 50
1.6003081267
 51
73.6363636364
  0
ARC
  5
318
100
AcDbEntity
  8
RUNDUNGEN
100
AcDbCircle
 62
9
  6
CONTINUOUS
 10
103.2136489225
 20
74.1230805557
 40
7.7
100
AcDbArc
 50
73.6363636364
 51
145.672419146
  0
ARC
  5
319
100
AcDbEntity
  8
RUNDUNGEN
100
AcDbCircle
 62
7
  6
CONTINUOUS
 10
103.5974461119
 20
74.010387533
 40
7.5
100
AcDbArc
 50
1.623307213
 51
73.6363636364
  0
ARC
  5
31A
100
AcDbEntity
  8
RUNDUNGEN
100
AcDbCircle
 62
7
  6
CONTINUOUS
 10
103.2136489225
 20
74.1230805557
 40
7.5
100
AcDbArc
 50
73.6363636364
 51
145.6494200598
  0
ARC
  5
31B
100
AcDbEntity
  8
RUNDUNGEN
100
AcDbCircle
 62
7
  6
CONTINUOUS
 10
94.558967972
 20
78.261130484
 40
2.0
100
AcDbArc
 50
247.3342306904
 51
325.4275108474
  0
ARC
  5
31C
100
AcDbEntity
  8
RUNDUNGEN
100
AcDbCircle
 62
9
  6
CONTINUOUS
 10
94.558967972
 20
78.261130484
 40
1.8
100
AcDbArc
 50
247.3342306904
 51
325.4275108474
  0
ARC
  5
31D
100
AcDbEntity
  8
RUNDUNGEN
100
AcDbCircle
 62
7
  6
CONTINUOUS
 10
113.115425733
 20
72.8124628703
 40
2.0
100
AcDbArc
 50
181.8452164254
 51
259.9384965824
  0
ARC
  5
31E
100
AcDbEntity
  8
RUNDUNGEN
100
AcDbCircle
 62
9
  6
CONTINUOUS
 10
113.115425733
 20
72.8124628703
 40
1.8
100
AcDbArc
 50
181.8452164254
 51
259.9384965824
  0
ARC
  5
31F
100
AcDbEntity
  8
RUNDUNGEN
100
AcDbCircle
 62
9
  6
CONTINUOUS
 10
108.0054842715
 20
139.0492683455
 40
9.0
100
AcDbArc
 50
180.0
 51
270.0
  0
ARC
  5
320
100
AcDbEntity
  8
RUNDUNGEN
100
AcDbCircle
 62
7
  6
CONTINUOUS
 10
108.0054842715
 20
139.0492683455
 40
7.0
100
AcDbArc
 50
180.0
 51
270.0
  0
ARC
  5
321
100
AcDbEntity
  8
RUNDUNGEN
100
AcDbCircle
 62
9
  6
CONTINUOUS
 10
108.0054842715
 20
139.0492683455
 40
6.7
100
AcDbArc
 50
180.0
 51
270.0
  0
ARC
  5
322
100
AcDbEntity
  8
0
100
AcDbCircle
 62
7
  6
CONTINUOUS
 10
108.8054842715
 20
139.8492683455
 40
1.0
100
AcDbArc
 50
120.0
 51
330.0
  0
ARC
  5
323
100
AcDbEntity
  8
RUNDUNGEN
100
AcDbCircle
 62
7
  6
CONTINUOUS
 10
44.8417681039
 20
187.1266127223
 40
2.0
100
AcDbArc
 50
83.6633982435
 51
161.7566784005
  0
ARC
  5
324
100
AcDbEntity
  8
RUNDUNGEN
100
AcDbCircle
 62
9
  6
CONTINUOUS
 10
44.8417681039
 20
187.1266127223
 40
1.8
100
AcDbArc
 50
83.6633982435
 51
161.7566784005
  0
ARC
  5
325
100
AcDbEntity
  8
RUNDUNGEN
100
AcDbCircle
 62
7
  6
CONTINUOUS
 10
47.3820493512
 20
196.3772305799
 40
42.703
100
AcDbArc
 50
48.9570462245
 51
50.9361255163
  0
ARC
  5
326
100
AcDbEntity
  8
RUNDUNGEN
100
AcDbCircle
 62
7
  6
CONTINUOUS
 10
47.5482153564
 20
196.7410833781
 40
42.703
100
AcDbArc
 50
259.9729653928
 51
261.9520446846
  0
ARC
  5
327
100
AcDbEntity
  8
RUNDUNGEN
100
AcDbCircle
 62
9
  6
CONTINUOUS
 10
47.5482153564
 20
196.7410833781
 40
42.503
100
AcDbArc
 50
259.9729653928
 51
261.9561471751
  0
ARC
  5
328
100
AcDbEntity
  8
RUNDUNGEN
100
AcDbCircle
 62
9
  6
CONTINUOUS
 10
47.3820493512
 20
196.3772305799
 40
42.503
100
AcDbArc
 50
48.952943734
 51
50.9361255163
  0
ARC
  5
329
100
AcDbEntity
  8
RUNDUNGEN
100
AcDbCircle
 62
9
  6
CONTINUOUS
 10
47.3820493512
 20
196.3772305799
 40
7.7
100
AcDbArc
 50
263.4184899449
 51
335.4545454545
  0
ARC
  5
32A
100
AcDbEntity
  8
RUNDUNGEN
100
AcDbCircle
 62
9
  6
CONTINUOUS
 10
47.5482153564
 20
196.7410833781
 40
7.7
100
AcDbArc
 50
335.4545454545
 51
47.4906009642
  0
ARC
  5
32B
100
AcDbEntity
  8
RUNDUNGEN
100
AcDbCircle
 62
7
  6
CONTINUOUS
 10
47.3820493512
 20
196.3772305799
 40
7.5
100
AcDbArc
 50
263.4414890311
 51
335.4545454545
  0
ARC
  5
32C
100
AcDbEntity
  8
RUNDUNGEN
100
AcDbCircle
 62
7
  6
CONTINUOUS
 10
47.5482153564
 20
196.7410833781
 40
7.5
100
AcDbArc
 50
335.4545454545
 51
47.467601878
  0
ARC
  5
32D
100
AcDbEntity
  8
RUNDUNGEN
100
AcDbCircle
 62
7
  6
CONTINUOUS
 10
52.8758354228
 20
204.7187662492
 40
2.0
100
AcDbArc
 50
149.1524125085
 51
227.2456926655
  0
ARC
  5
32E
100
AcDbEntity
  8
RUNDUNGEN
100
AcDbCircle
 62
9
  6
CONTINUOUS
 10
52.8758354228
 20
204.7187662492
 40
1.8
100
AcDbArc
 50
149.1524125085
 51
227.2456926655
  0
ARC
  5
32F
100
AcDbEntity
  8
RUNDUNGEN
100
AcDbCircle
 62
7
  6
CONTINUOUS
 10
73.0325254828
 20
227.9808266288
 40
2.0
100
AcDbArc
 50
50.9361255163
 51
129.0294056733
  0
ARC
  5
330
100
AcDbEntity
  8
RUNDUNGEN
100
AcDbCircle
 62
9
  6
CONTINUOUS
 10
73.0325254828
 20
227.9808266288
 40
1.8
100
AcDbArc
 50
50.9361255163
 51
129.0294056733
  0
ARC
  5
331
100
AcDbEntity
  8
RUNDUNGEN
100
AcDbCircle
 62
7
  6
CONTINUOUS
 10
80.1708076571
 20
234.3895618523
 40
42.703
100
AcDbArc
 50
16.2297734973
 51
18.208852789
  0
ARC
  5
332
100
AcDbEntity
  8
RUNDUNGEN
100
AcDbCircle
 62
7
  6
CONTINUOUS
 10
80.5073090702
 20
234.6058181793
 40
42.703
100
AcDbArc
 50
227.2456926655
 51
229.2247719573
  0
ARC
  5
333
100
AcDbEntity
  8
RUNDUNGEN
100
AcDbCircle
 62
9
  6
CONTINUOUS
 10
80.1708076571
 20
234.3895618523
 40
42.503
100
AcDbArc
 50
16.2256710067
 51
18.208852789
  0
ARC
  5
334
100
AcDbEntity
  8
RUNDUNGEN
100
AcDbCircle
 62
9
  6
CONTINUOUS
 10
80.5073090702
 20
234.6058181793
 40
42.503
100
AcDbArc
 50
227.2456926655
 51
229.2288744478
  0
ARC
  5
335
100
AcDbEntity
  8
RUNDUNGEN
100
AcDbCircle
 62
9
  6
CONTINUOUS
 10
80.1708076571
 20
234.3895618523
 40
7.7
100
AcDbArc
 50
230.6912172176
 51
302.7272727273
  0
ARC
  5
336
100
AcDbEntity
  8
RUNDUNGEN
100
AcDbCircle
 62
9
  6
CONTINUOUS
 10
80.5073090702
 20
234.6058181793
 40
7.7
100
AcDbArc
 50
302.7272727273
 51
14.7633282369
  0
ARC
  5
337
100
AcDbEntity
  8
RUNDUNGEN
100
AcDbCircle
 62
7
  6
CONTINUOUS
 10
80.1708076571
 20
234.3895618523
 40
7.5
100
AcDbArc
 50
230.7142163039
 51
302.7272727273
  0
ARC
  5
338
100
AcDbEntity
  8
RUNDUNGEN
100
AcDbCircle
 62
7
  6
CONTINUOUS
 10
80.5073090702
 20
234.6058181793
 40
7.5
100
AcDbArc
 50
302.7272727273
 51
14.7403291507
  0
ARC
  5
339
100
AcDbEntity
  8
RUNDUNGEN
100
AcDbCircle
 62
9
  6
CONTINUOUS
 10
108.0054842715
 20
180.0492683455
 40
9.0
100
AcDbArc
 50
90.0
 51
180.0
  0
ARC
  5
33A
100
AcDbEntity
  8
RUNDUNGEN
100
AcDbCircle
 62
7
  6
CONTINUOUS
 10
108.0054842715
 20
180.0492683455
 40
7.0
100
AcDbArc
 50
90.0
 51
180.0
  0
ARC
  5
33B
100
AcDbEntity
  8
RUNDUNGEN
100
AcDbCircle
 62
9
  6
CONTINUOUS
 10
108.0054842715
 20
180.0492683455
 40
6.7
100
AcDbArc
 50
90.0
 51
180.0
  0
ARC
  5
33C
100
AcDbEntity
  8
0
100
AcDbCircle
 62
7
  6
CONTINUOUS
 10
108.8054842715
 20
179.2492683455
 40
1.0
100
AcDbArc
 50
30.0
 51
240.0
  0
ARC
  5
33D
100
AcDbEntity
  8
RUNDUNGEN
100
AcDbCircle
 62
7
  6
CONTINUOUS
 10
89.3022492615
 20
238.4367432106
 40
2.0
100
AcDbArc
 50
116.4251397813
 51
194.5184199383
  0
ARC
  5
33E
100
AcDbEntity
  8
RUNDUNGEN
100
AcDbCircle
 62
9
  6
CONTINUOUS
 10
89.3022492615
 20
238.4367432106
 40
1.8
100
AcDbArc
 50
116.4251397813
 51
194.5184199383
  0
ARC
  5
33F
100
AcDbEntity
  8
RUNDUNGEN
100
AcDbCircle
 62
7
  6
CONTINUOUS
 10
128.3054842715
 20
248.6406287325
 40
42.703
100
AcDbArc
 50
343.50250077
 51
345.4815800617
  0
ARC
  5
340
100
AcDbEntity
  8
RUNDUNGEN
100
AcDbCircle
 62
9
  6
CONTINUOUS
 10
128.3054842715
 20
248.6406287325
 40
42.503
100
AcDbArc
 50
343.4983982795
 51
345.4815800617
  0
ARC
  5
341
100
AcDbEntity
  8
RUNDUNGEN
100
AcDbCircle
 62
9
  6
CONTINUOUS
 10
128.3054842715
 20
248.6406287325
 40
7.7
100
AcDbArc
 50
197.9639444904
 51
270.0
  0
ARC
  5
342
100
AcDbEntity
  8
RUNDUNGEN
100
AcDbCircle
 62
7
  6
CONTINUOUS
 10
128.3054842715
 20
248.6406287325
 40
7.5
100
AcDbArc
 50
197.9869435766
 51
270.0
  0
ARC
  5
343
100
AcDbEntity
  8
RUNDUNGEN
100
AcDbCircle
 62
7
  6
CONTINUOUS
 10
118.835555324
 20
247.1085042947
 40
2.0
100
AcDbArc
 50
18.208852789
 51
96.302132946
  0
ARC
  5
344
100
AcDbEntity
  8
RUNDUNGEN
100
AcDbCircle
 62
9
  6
CONTINUOUS
 10
118.835555324
 20
247.1085042947
 40
1.8
100
AcDbArc
 50
18.208852789
 51
96.302132946
  0
ARC
  5
345
100
AcDbEntity
  8
RUNDUNGEN
100
AcDbCircle
 62
7
  6
CONTINUOUS
 10
143.8955428101
 20
72.8124628703
 40
2.0
100
AcDbArc
 50
280.0615034176
 51
358.1547835746
  0
ARC
  5
346
100
AcDbEntity
  8
RUNDUNGEN
100
AcDbCircle
 62
9
  6
CONTINUOUS
 10
143.8955428101
 20
72.8124628703
 40
1.8
100
AcDbArc
 50
280.0615034176
 51
358.1547835746
  0
CIRCLE
  5
347
100
AcDbEntity
  8
02___PRT_ALL_AXES
100
AcDbCircle
 62
7
  6
CONTINUOUS
 10
128.5054842715
 20
107.0492683455
 40
3.1
  0
ARC
  5
348
100
AcDbEntity
  8
RUNDUNGEN
100
AcDbCircle
 62
7
  6
CONTINUOUS
 10
153.7973196206
 20
74.1230805557
 40
42.703
100
AcDbArc
 50
179.8661371336
 51
181.8452164254
  0
ARC
  5
349
100
AcDbEntity
  8
RUNDUNGEN
100
AcDbCircle
 62
7
  6
CONTINUOUS
 10
153.4135224311
 20
74.010387533
 40
42.703
100
AcDbArc
 50
30.8820563019
 51
32.8611355936
  0
ARC
  5
34A
100
AcDbEntity
  8
RUNDUNGEN
100
AcDbCircle
 62
9
  6
CONTINUOUS
 10
153.4135224311
 20
74.010387533
 40
42.503
100
AcDbArc
 50
30.8820563019
 51
32.8652380842
  0
ARC
  5
34B
100
AcDbEntity
  8
RUNDUNGEN
100
AcDbCircle
 62
9
  6
CONTINUOUS
 10
153.7973196206
 20
74.1230805557
 40
42.503
100
AcDbArc
 50
179.8620346431
 51
181.8452164254
  0
ARC
  5
34C
100
AcDbEntity
  8
RUNDUNGEN
100
AcDbCircle
 62
9
  6
CONTINUOUS
 10
153.7973196206
 20
74.1230805557
 40
7.7
100
AcDbArc
 50
34.327580854
 51
106.3636363636
  0
ARC
  5
34D
100
AcDbEntity
  8
RUNDUNGEN
100
AcDbCircle
 62
9
  6
CONTINUOUS
 10
153.4135224311
 20
74.010387533
 40
7.7
100
AcDbArc
 50
106.3636363636
 51
178.3996918733
  0
ARC
  5
34E
100
AcDbEntity
  8
RUNDUNGEN
100
AcDbCircle
 62
7
  6
CONTINUOUS
 10
153.7973196206
 20
74.1230805557
 40
7.5
100
AcDbArc
 50
34.3505799402
 51
106.3636363636
  0
ARC
  5
34F
100
AcDbEntity
  8
RUNDUNGEN
100
AcDbCircle
 62
7
  6
CONTINUOUS
 10
153.4135224311
 20
74.010387533
 40
7.5
100
AcDbArc
 50
106.3636363636
 51
178.376692787
  0
ARC
  5
350
100
AcDbEntity
  8
RUNDUNGEN
100
AcDbCircle
 62
7
  6
CONTINUOUS
 10
162.4520005711
 20
78.261130484
 40
2.0
100
AcDbArc
 50
214.5724891526
 51
292.6657693096
  0
ARC
  5
351
100
AcDbEntity
  8
RUNDUNGEN
100
AcDbCircle
 62
9
  6
CONTINUOUS
 10
162.4520005711
 20
78.261130484
 40
1.8
100
AcDbArc
 50
214.5724891526
 51
292.6657693096
  0
ARC
  5
352
100
AcDbEntity
  8
RUNDUNGEN
100
AcDbCircle
 62
7
  6
CONTINUOUS
 10
128.5054842715
 20
159.5492683455
 40
90.0915848754
100
AcDbArc
 50
96.302132946
 51
116.4251397813
  0
ARC
  5
353
100
AcDbEntity
  8
RUNDUNGEN
100
AcDbCircle
 62
7
  6
CONTINUOUS
 10
128.5054842715
 20
159.5492683455
 40
90.0915848754
100
AcDbArc
 50
63.5748602187
 51
83.697867054
  0
ARC
  5
354
100
AcDbEntity
  8
RUNDUNGEN
100
AcDbCircle
 62
7
  6
CONTINUOUS
 10
128.5054842715
 20
159.5492683455
 40
90.0915848754
100
AcDbArc
 50
129.0294056733
 51
149.1524125085
  0
ARC
  5
355
100
AcDbEntity
  8
RUNDUNGEN
100
AcDbCircle
 62
7
  6
CONTINUOUS
 10
128.5054842715
 20
159.5492683455
 40
90.0915848754
100
AcDbArc
 50
161.7566784005
 51
181.8796852358
  0
ARC
  5
356
100
AcDbEntity
  8
RUNDUNGEN
100
AcDbCircle
 62
7
  6
CONTINUOUS
 10
128.5054842715
 20
159.5492683455
 40
90.0915848754
100
AcDbArc
 50
194.4839511278
 51
214.6069579631
  0
ARC
  5
357
100
AcDbEntity
  8
RUNDUNGEN
100
AcDbCircle
 62
7
  6
CONTINUOUS
 10
128.5054842715
 20
159.5492683455
 40
90.0915848754
100
AcDbArc
 50
227.2112238551
 51
247.3342306904
  0
ARC
  5
358
100
AcDbEntity
  8
RUNDUNGEN
100
AcDbCircle
 62
7
  6
CONTINUOUS
 10
128.5054842715
 20
159.5492683455
 40
90.0915848754
100
AcDbArc
 50
259.9384965824
 51
280.0615034176
  0
ARC
  5
359
100
AcDbEntity
  8
RUNDUNGEN
100
AcDbCircle
 62
7
  6
CONTINUOUS
 10
128.5054842715
 20
159.5492683455
 40
90.0915848754
100
AcDbArc
 50
292.6657693096
 51
312.7887761449
  0
ARC
  5
35A
100
AcDbEntity
  8
RUNDUNGEN
100
AcDbCircle
 62
7
  6
CONTINUOUS
 10
128.5054842715
 20
159.5492683455
 40
90.0915848754
100
AcDbArc
 50
325.3930420369
 51
345.5160488722
  0
ARC
  5
35B
100
AcDbEntity
  8
RUNDUNGEN
100
AcDbCircle
 62
7
  6
CONTINUOUS
 10
128.5054842715
 20
159.5492683455
 40
90.0915848754
100
AcDbArc
 50
358.1203147642
 51
18.2433215995
  0
ARC
  5
35C
100
AcDbEntity
  8
RUNDUNGEN
100
AcDbCircle
 62
7
  6
CONTINUOUS
 10
128.5054842715
 20
159.5492683455
 40
90.0915848754
100
AcDbArc
 50
30.8475874915
 51
50.9705943267
  0
ARC
  5
35D
100
AcDbEntity
  8
RUNDUNGEN
100
AcDbCircle
 62
9
  6
CONTINUOUS
 10
128.5054842715
 20
159.5492683455
 40
89.8915848754
100
AcDbArc
 50
96.302132946
 51
116.4251397813
  0
ARC
  5
35E
100
AcDbEntity
  8
RUNDUNGEN
100
AcDbCircle
 62
9
  6
CONTINUOUS
 10
128.5054842715
 20
159.5492683455
 40
89.8915848754
100
AcDbArc
 50
63.5748602187
 51
83.697867054
  0
ARC
  5
35F
100
AcDbEntity
  8
RUNDUNGEN
100
AcDbCircle
 62
9
  6
CONTINUOUS
 10
128.5054842715
 20
159.5492683455
 40
89.8915848754
100
AcDbArc
 50
30.8475874915
 51
50.9705943267
  0
ARC
  5
360
100
AcDbEntity
  8
RUNDUNGEN
100
AcDbCircle
 62
9
  6
CONTINUOUS
 10
128.5054842715
 20
159.5492683455
 40
89.8915848754
100
AcDbArc
 50
358.1203147642
 51
18.2433215995
  0
ARC
  5
361
100
AcDbEntity
  8
RUNDUNGEN
100
AcDbCircle
 62
9
  6
CONTINUOUS
 10
128.5054842715
 20
159.5492683455
 40
89.8915848754
100
AcDbArc
 50
325.3930420369
 51
345.5160488722
  0
ARC
  5
362
100
AcDbEntity
  8
RUNDUNGEN
100
AcDbCircle
 62
9
  6
CONTINUOUS
 10
128.5054842715
 20
159.5492683455
 40
89.8915848754
100
AcDbArc
 50
292.6657693096
 51
312.7887761449
  0
ARC
  5
363
100
AcDbEntity
  8
RUNDUNGEN
100
AcDbCircle
 62
9
  6
CONTINUOUS
 10
128.5054842715
 20
159.5492683455
 40
89.8915848754
100
AcDbArc
 50
259.9384965824
 51
280.0615034176
  0
ARC
  5
364
100
AcDbEntity
  8
RUNDUNGEN
100
AcDbCircle
 62
9
  6
CONTINUOUS
 10
128.5054842715
 20
159.5492683455
 40
89.8915848754
100
AcDbArc
 50
227.2112238551
 51
247.3342306904
  0
ARC
  5
365
100
AcDbEntity
  8
RUNDUNGEN
100
AcDbCircle
 62
9
  6
CONTINUOUS
 10
128.5054842715
 20
159.5492683455
 40
89.8915848754
100
AcDbArc
 50
194.4839511278
 51
214.6069579631
  0
ARC
  5
366
100
AcDbEntity
  8
RUNDUNGEN
100
AcDbCircle
 62
9
  6
CONTINUOUS
 10
128.5054842715
 20
159.5492683455
 40
89.8915848754
100
AcDbArc
 50
161.7566784005
 51
181.8796852358
  0
ARC
  5
367
100
AcDbEntity
  8
RUNDUNGEN
100
AcDbCircle
 62
9
  6
CONTINUOUS
 10
128.5054842715
 20
159.5492683455
 40
89.8915848754
100
AcDbArc
 50
129.0294056733
 51
149.1524125085
  0
CIRCLE
  5
368
100
AcDbEntity
  8
RUNDUNGEN
100
AcDbCircle
 62
9
  6
CONTINUOUS
 10
128.5054842715
 20
159.5492683455
 40
73.0
  0
CIRCLE
  5
369
100
AcDbEntity
  8
RUNDUNGEN
100
AcDbCircle
 62
7
  6
CONTINUOUS
 10
128.5054842715
 20
159.5492683455
 40
70.0
  0
CIRCLE
  5
36A
100
AcDbEntity
  8
RUNDUNGEN
100
AcDbCircle
 62
9
  6
CONTINUOUS
 10
128.5054842715
 20
159.5492683455
 40
68.0
  0
ARC
  5
36B
100
AcDbEntity
  8
RUNDUNGEN
100
AcDbCircle
 62
9
  6
CONTINUOUS
 10
149.0054842715
 20
139.0492683455
 40
9.0
100
AcDbArc
 50
270.0
 51
360.0
  0
ARC
  5
36C
100
AcDbEntity
  8
RUNDUNGEN
100
AcDbCircle
 62
7
  6
CONTINUOUS
 10
149.0054842715
 20
139.0492683455
 40
7.0
100
AcDbArc
 50
270.0
 51
360.0
  0
ARC
  5
36D
100
AcDbEntity
  8
RUNDUNGEN
100
AcDbCircle
 62
9
  6
CONTINUOUS
 10
149.0054842715
 20
139.0492683455
 40
6.7
100
AcDbArc
 50
270.0
 51
360.0
  0
ARC
  5
36E
100
AcDbEntity
  8
0
100
AcDbCircle
 62
7
  6
CONTINUOUS
 10
148.2054842715
 20
139.8492683455
 40
1.0
100
AcDbArc
 50
210.0
 51
60.0
  0
ARC
  5
36F
100
AcDbEntity
  8
RUNDUNGEN
100
AcDbCircle
 62
7
  6
CONTINUOUS
 10
188.3458828032
 20
94.902118142
 40
2.0
100
AcDbArc
 50
312.7887761449
 51
30.8820563019
  0
ARC
  5
370
100
AcDbEntity
  8
RUNDUNGEN
100
AcDbCircle
 62
9
  6
CONTINUOUS
 10
188.3458828032
 20
94.902118142
 40
1.8
100
AcDbArc
 50
312.7887761449
 51
30.8820563019
  0
ARC
  5
371
100
AcDbEntity
  8
RUNDUNGEN
100
AcDbCircle
 62
7
  6
CONTINUOUS
 10
195.9672141094
 20
101.3579846091
 40
42.703
100
AcDbArc
 50
212.5934098609
 51
214.5724891526
  0
ARC
  5
372
100
AcDbEntity
  8
RUNDUNGEN
100
AcDbCircle
 62
7
  6
CONTINUOUS
 10
195.7052698159
 20
101.0556847794
 40
42.703
100
AcDbArc
 50
63.6093290292
 51
65.5884083209
  0
ARC
  5
373
100
AcDbEntity
  8
RUNDUNGEN
100
AcDbCircle
 62
9
  6
CONTINUOUS
 10
195.7052698159
 20
101.0556847794
 40
42.503
100
AcDbArc
 50
63.6093290292
 51
65.5925108115
  0
ARC
  5
374
100
AcDbEntity
  8
RUNDUNGEN
100
AcDbCircle
 62
9
  6
CONTINUOUS
 10
195.9672141094
 20
101.3579846091
 40
42.503
100
AcDbArc
 50
212.5893073704
 51
214.5724891526
  0
ARC
  5
375
100
AcDbEntity
  8
RUNDUNGEN
100
AcDbCircle
 62
9
  6
CONTINUOUS
 10
195.9672141094
 20
101.3579846091
 40
7.7
100
AcDbArc
 50
67.0548535813
 51
139.0909090909
  0
ARC
  5
376
100
AcDbEntity
  8
RUNDUNGEN
100
AcDbCircle
 62
9
  6
CONTINUOUS
 10
195.7052698159
 20
101.0556847794
 40
7.7
100
AcDbArc
 50
139.0909090909
 51
211.1269646006
  0
ARC
  5
377
100
AcDbEntity
  8
RUNDUNGEN
100
AcDbCircle
 62
7
  6
CONTINUOUS
 10
195.9672141094
 20
101.3579846091
 40
7.5
100
AcDbArc
 50
67.0778526675
 51
139.0909090909
  0
ARC
  5
378
100
AcDbEntity
  8
RUNDUNGEN
100
AcDbCircle
 62
7
  6
CONTINUOUS
 10
195.7052698159
 20
101.0556847794
 40
7.5
100
AcDbArc
 50
139.0909090909
 51
211.1039655143
  0
ARC
  5
379
100
AcDbEntity
  8
RUNDUNGEN
100
AcDbCircle
 62
7
  6
CONTINUOUS
 10
201.0107963387
 20
109.5182075142
 40
2.0
100
AcDbArc
 50
247.2997618799
 51
325.3930420369
  0
ARC
  5
37A
100
AcDbEntity
  8
RUNDUNGEN
100
AcDbCircle
 62
9
  6
CONTINUOUS
 10
201.0107963387
 20
109.5182075142
 40
1.8
100
AcDbArc
 50
247.2997618799
 51
325.3930420369
  0
CIRCLE
  5
37B
100
AcDbEntity
  8
02___PRT_ALL_AXES
100
AcDbCircle
 62
7
  6
CONTINUOUS
 10
181.0054842715
 20
159.5492683455
 40
3.1
  0
ARC
  5
37C
100
AcDbEntity
  8
RUNDUNGEN
100
AcDbCircle
 62
7
  6
CONTINUOUS
 10
213.7973190745
 20
137.5167868283
 40
2.0
100
AcDbArc
 50
345.5160488722
 51
63.6093290292
  0
ARC
  5
37D
100
AcDbEntity
  8
RUNDUNGEN
100
AcDbCircle
 62
9
  6
CONTINUOUS
 10
213.7973190745
 20
137.5167868283
 40
1.8
100
AcDbArc
 50
345.5160488722
 51
63.6093290292
  0
ARC
  5
37E
100
AcDbEntity
  8
RUNDUNGEN
100
AcDbCircle
 62
7
  6
CONTINUOUS
 10
216.7184860366
 20
147.0682100888
 40
42.703
100
AcDbArc
 50
245.3206825882
 51
247.2997618799
  0
ARC
  5
37F
100
AcDbEntity
  8
RUNDUNGEN
100
AcDbCircle
 62
7
  6
CONTINUOUS
 10
216.6615601013
 20
146.6722815121
 40
42.703
100
AcDbArc
 50
96.3366017565
 51
98.3156810482
  0
ARC
  5
380
100
AcDbEntity
  8
RUNDUNGEN
100
AcDbCircle
 62
9
  6
CONTINUOUS
 10
216.6615601013
 20
146.6722815121
 40
42.503
100
AcDbArc
 50
96.3366017565
 51
98.3197835387
  0
ARC
  5
381
100
AcDbEntity
  8
RUNDUNGEN
100
AcDbCircle
 62
9
  6
CONTINUOUS
 10
216.7184860366
 20
147.0682100888
 40
42.503
100
AcDbArc
 50
245.3165800976
 51
247.2997618799
  0
ARC
  5
382
100
AcDbEntity
  8
RUNDUNGEN
100
AcDbCircle
 62
9
  6
CONTINUOUS
 10
216.7184860366
 20
147.0682100888
 40
7.7
100
AcDbArc
 50
99.7821263085
 51
171.8181818182
  0
ARC
  5
383
100
AcDbEntity
  8
RUNDUNGEN
100
AcDbCircle
 62
9
  6
CONTINUOUS
 10
216.6615601013
 20
146.6722815121
 40
7.7
100
AcDbArc
 50
171.8181818182
 51
243.8542373278
  0
ARC
  5
384
100
AcDbEntity
  8
RUNDUNGEN
100
AcDbCircle
 62
7
  6
CONTINUOUS
 10
216.7184860366
 20
147.0682100888
 40
7.5
100
AcDbArc
 50
99.8051253948
 51
171.8181818182
  0
ARC
  5
385
100
AcDbEntity
  8
RUNDUNGEN
100
AcDbCircle
 62
7
  6
CONTINUOUS
 10
216.6615601013
 20
146.6722815121
 40
7.5
100
AcDbArc
 50
171.8181818182
 51
243.8312382416
  0
ARC
  5
386
100
AcDbEntity
  8
RUNDUNGEN
100
AcDbCircle
 62
7
  6
CONTINUOUS
 10
216.549667823
 20
156.6597928557
 40
2.0
100
AcDbArc
 50
280.0270346072
 51
358.1203147642
  0
ARC
  5
387
100
AcDbEntity
  8
RUNDUNGEN
100
AcDbCircle
 62
9
  6
CONTINUOUS
 10
216.549667823
 20
156.6597928557
 40
1.8
100
AcDbArc
 50
280.0270346072
 51
358.1203147642
  0
ARC
  5
388
100
AcDbEntity
  8
RUNDUNGEN
100
AcDbCircle
 62
9
  6
CONTINUOUS
 10
149.0054842715
 20
180.0492683455
 40
9.0
100
AcDbArc
 50
0.0
 51
90.0
  0
ARC
  5
389
100
AcDbEntity
  8
RUNDUNGEN
100
AcDbCircle
 62
7
  6
CONTINUOUS
 10
149.0054842715
 20
180.0492683455
 40
7.0
100
AcDbArc
 50
0.0
 51
90.0
  0
ARC
  5
38A
100
AcDbEntity
  8
RUNDUNGEN
100
AcDbCircle
 62
9
  6
CONTINUOUS
 10
149.0054842715
 20
180.0492683455
 40
6.7
100
AcDbArc
 50
0.0
 51
90.0
  0
CIRCLE
  5
38B
100
AcDbEntity
  8
02___PRT_ALL_AXES
100
AcDbCircle
 62
7
  6
CONTINUOUS
 10
128.5054842715
 20
212.0492683455
 40
3.1
  0
ARC
  5
38C
100
AcDbEntity
  8
0
100
AcDbCircle
 62
7
  6
CONTINUOUS
 10
148.2054842715
 20
179.2492683455
 40
1.0
100
AcDbArc
 50
300.0
 51
150.0
  0
ARC
  5
38D
100
AcDbEntity
  8
RUNDUNGEN
100
AcDbCircle
 62
7
  6
CONTINUOUS
 10
128.7054842715
 20
248.6406287325
 40
42.703
100
AcDbArc
 50
194.5184199383
 51
196.49749923
  0
ARC
  5
38E
100
AcDbEntity
  8
RUNDUNGEN
100
AcDbCircle
 62
9
  6
CONTINUOUS
 10
128.7054842715
 20
248.6406287325
 40
42.503
100
AcDbArc
 50
194.5184199383
 51
196.5016017205
  0
ARC
  5
38F
100
AcDbEntity
  8
RUNDUNGEN
100
AcDbCircle
 62
9
  6
CONTINUOUS
 10
128.7054842715
 20
248.6406287325
 40
7.7
100
AcDbArc
 50
270.0
 51
342.0360555096
  0
ARC
  5
390
100
AcDbEntity
  8
RUNDUNGEN
100
AcDbCircle
 62
7
  6
CONTINUOUS
 10
128.7054842715
 20
248.6406287325
 40
7.5
100
AcDbArc
 50
270.0
 51
342.0130564234
  0
ARC
  5
391
100
AcDbEntity
  8
RUNDUNGEN
100
AcDbCircle
 62
7
  6
CONTINUOUS
 10
138.175413219
 20
247.1085042947
 40
2.0
100
AcDbArc
 50
83.697867054
 51
161.791147211
  0
ARC
  5
392
100
AcDbEntity
  8
RUNDUNGEN
100
AcDbCircle
 62
9
  6
CONTINUOUS
 10
138.175413219
 20
247.1085042947
 40
1.8
100
AcDbArc
 50
83.697867054
 51
161.791147211
  0
ARC
  5
393
100
AcDbEntity
  8
RUNDUNGEN
100
AcDbCircle
 62
7
  6
CONTINUOUS
 10
167.7087192816
 20
238.4367432106
 40
2.0
100
AcDbArc
 50
345.4815800617
 51
63.5748602187
  0
ARC
  5
394
100
AcDbEntity
  8
RUNDUNGEN
100
AcDbCircle
 62
9
  6
CONTINUOUS
 10
167.7087192816
 20
238.4367432106
 40
1.8
100
AcDbArc
 50
345.4815800617
 51
63.5748602187
  0
ARC
  5
395
100
AcDbEntity
  8
RUNDUNGEN
100
AcDbCircle
 62
7
  6
CONTINUOUS
 10
204.1351331203
 20
204.7187662492
 40
2.0
100
AcDbArc
 50
312.7543073345
 51
30.8475874915
  0
ARC
  5
396
100
AcDbEntity
  8
RUNDUNGEN
100
AcDbCircle
 62
9
  6
CONTINUOUS
 10
204.1351331203
 20
204.7187662492
 40
1.8
100
AcDbArc
 50
312.7543073345
 51
30.8475874915
  0
ARC
  5
397
100
AcDbEntity
  8
RUNDUNGEN
100
AcDbCircle
 62
7
  6
CONTINUOUS
 10
212.1692004392
 20
187.1266127223
 40
2.0
100
AcDbArc
 50
18.2433215995
 51
96.3366017565
  0
ARC
  5
398
100
AcDbEntity
  8
RUNDUNGEN
100
AcDbCircle
 62
9
  6
CONTINUOUS
 10
212.1692004392
 20
187.1266127223
 40
1.8
100
AcDbArc
 50
18.2433215995
 51
96.3366017565
  0
ARC
  5
399
100
AcDbEntity
  8
RUNDUNGEN
100
AcDbCircle
 62
7
  6
CONTINUOUS
 10
209.4627531866
 20
196.7410833781
 40
42.703
100
AcDbArc
 50
278.0479553154
 51
280.0270346072
  0
ARC
  5
39A
100
AcDbEntity
  8
RUNDUNGEN
100
AcDbCircle
 62
7
  6
CONTINUOUS
 10
209.6289191918
 20
196.3772305799
 40
42.703
100
AcDbArc
 50
129.0638744837
 51
131.0429537755
  0
ARC
  5
39B
100
AcDbEntity
  8
RUNDUNGEN
100
AcDbCircle
 62
9
  6
CONTINUOUS
 10
209.6289191918
 20
196.3772305799
 40
42.503
100
AcDbArc
 50
129.0638744837
 51
131.047056266
  0
ARC
  5
39C
100
AcDbEntity
  8
RUNDUNGEN
100
AcDbCircle
 62
9
  6
CONTINUOUS
 10
209.4627531866
 20
196.7410833781
 40
42.503
100
AcDbArc
 50
278.0438528249
 51
280.0270346072
  0
ARC
  5
39D
100
AcDbEntity
  8
RUNDUNGEN
100
AcDbCircle
 62
9
  6
CONTINUOUS
 10
209.4627531866
 20
196.7410833781
 40
7.7
100
AcDbArc
 50
132.5093990358
 51
204.5454545455
  0
ARC
  5
39E
100
AcDbEntity
  8
RUNDUNGEN
100
AcDbCircle
 62
9
  6
CONTINUOUS
 10
209.6289191918
 20
196.3772305799
 40
7.7
100
AcDbArc
 50
204.5454545455
 51
276.5815100551
  0
ARC
  5
39F
100
AcDbEntity
  8
RUNDUNGEN
100
AcDbCircle
 62
7
  6
CONTINUOUS
 10
209.4627531866
 20
196.7410833781
 40
7.5
100
AcDbArc
 50
132.532398122
 51
204.5454545455
  0
ARC
  5
3A0
100
AcDbEntity
  8
RUNDUNGEN
100
AcDbCircle
 62
7
  6
CONTINUOUS
 10
209.6289191918
 20
196.3772305799
 40
7.5
100
AcDbArc
 50
204.5454545455
 51
276.5585109689
  0
ARC
  5
3A1
100
AcDbEntity
  8
RUNDUNGEN
100
AcDbCircle
 62
7
  6
CONTINUOUS
 10
176.840160886
 20
234.3895618523
 40
42.703
100
AcDbArc
 50
161.791147211
 51
163.7702265027
  0
ARC
  5
3A2
100
AcDbEntity
  8
RUNDUNGEN
100
AcDbCircle
 62
7
  6
CONTINUOUS
 10
176.5036594728
 20
234.6058181793
 40
42.703
100
AcDbArc
 50
310.7752280427
 51
312.7543073345
  0
ARC
  5
3A3
100
AcDbEntity
  8
RUNDUNGEN
100
AcDbCircle
 62
9
  6
CONTINUOUS
 10
176.840160886
 20
234.3895618523
 40
42.503
100
AcDbArc
 50
161.791147211
 51
163.7743289933
  0
ARC
  5
3A4
100
AcDbEntity
  8
RUNDUNGEN
100
AcDbCircle
 62
9
  6
CONTINUOUS
 10
176.5036594728
 20
234.6058181793
 40
42.503
100
AcDbArc
 50
310.7711255522
 51
312.7543073345
  0
ARC
  5
3A5
100
AcDbEntity
  8
RUNDUNGEN
100
AcDbCircle
 62
9
  6
CONTINUOUS
 10
176.5036594728
 20
234.6058181793
 40
7.7
100
AcDbArc
 50
165.2366717631
 51
237.2727272727
  0
ARC
  5
3A6
100
AcDbEntity
  8
RUNDUNGEN
100
AcDbCircle
 62
9
  6
CONTINUOUS
 10
176.840160886
 20
234.3895618523
 40
7.7
100
AcDbArc
 50
237.2727272727
 51
309.3087827824
  0
ARC
  5
3A7
100
AcDbEntity
  8
RUNDUNGEN
100
AcDbCircle
 62
7
  6
CONTINUOUS
 10
176.5036594728
 20
234.6058181793
 40
7.5
100
AcDbArc
 50
165.2596708493
 51
237.2727272727
  0
ARC
  5
3A8
100
AcDbEntity
  8
RUNDUNGEN
100
AcDbCircle
 62
7
  6
CONTINUOUS
 10
176.840160886
 20
234.3895618523
 40
7.5
100
AcDbArc
 50
237.2727272727
 51
309.2857836961
  0
ARC
  5
3A9
100
AcDbEntity
  8
RUNDUNGEN
100
AcDbCircle
 62
7
  6
CONTINUOUS
 10
183.9784430602
 20
227.9808266288
 40
2.0
100
AcDbArc
 50
50.9705943267
 51
129.0638744837
  0
ARC
  5
3AA
100
AcDbEntity
  8
RUNDUNGEN
100
AcDbCircle
 62
9
  6
CONTINUOUS
 10
183.9784430602
 20
227.9808266288
 40
1.8
100
AcDbArc
 50
50.9705943267
 51
129.0638744837
  0
ARC
  5
3AB
100
AcDbEntity
  8
0
100
AcDbCircle
 62
7
  6
CONTINUOUS
 10
320.8141343212
 20
86.5492683455
 40
3.0
100
AcDbArc
 50
90.0
 51
180.0
  0
ARC
  5
3AC
100
AcDbEntity
  8
0
100
AcDbCircle
 62
7
  6
CONTINUOUS
 10
334.8141343212
 20
91.5492683455
 40
2.0
100
AcDbArc
 50
270.0
 51
360.0
  0
ARC
  5
3AD
100
AcDbEntity
  8
0
100
AcDbCircle
 62
7
  6
CONTINUOUS
 10
334.8141343212
 20
130.0492683455
 40
2.0
100
AcDbArc
 50
0.0
 51
90.0
  0
ARC
  5
3AE
100
AcDbEntity
  8
0
100
AcDbCircle
 62
7
  6
CONTINUOUS
 10
324.8141343212
 20
81.9579079584
 40
2.0
100
AcDbArc
 50
90.0
 51
180.0
  0
ARC
  5
3AF
100
AcDbEntity
  8
0
100
AcDbCircle
 62
7
  6
CONTINUOUS
 10
318.1141343212
 20
132.3492683455
 40
0.3
100
AcDbArc
 50
180.0
 51
270.0
  0
ARC
  5
3B0
100
AcDbEntity
  8
0
100
AcDbCircle
 62
7
  6
CONTINUOUS
 10
322.6141343212
 20
69.6576834701
 40
0.2
100
AcDbArc
 50
270.0
 51
360.0
  0
ARC
  5
3B1
100
AcDbEntity
  8
0
100
AcDbCircle
 62
7
  6
CONTINUOUS
 10
318.0141343212
 20
69.6576834701
 40
0.2
100
AcDbArc
 50
180.0
 51
270.0
  0
ARC
  5
3B2
100
AcDbEntity
  8
0
100
AcDbCircle
 62
7
  6
CONTINUOUS
 10
320.8141343212
 20
232.5492683455
 40
3.0
100
AcDbArc
 50
180.0
 51
270.0
  0
ARC
  5
3B3
100
AcDbEntity
  8
0
100
AcDbCircle
 62
7
  6
CONTINUOUS
 10
334.8141343212
 20
227.5492683455
 40
2.0
100
AcDbArc
 50
0.0
 51
90.0
  0
ARC
  5
3B4
100
AcDbEntity
  8
0
100
AcDbCircle
 62
7
  6
CONTINUOUS
 10
334.8141343212
 20
189.0492683455
 40
2.0
100
AcDbArc
 50
270.0
 51
360.0
  0
ARC
  5
3B5
100
AcDbEntity
  8
0
100
AcDbCircle
 62
7
  6
CONTINUOUS
 10
324.8141343212
 20
237.1406287325
 40
2.0
100
AcDbArc
 50
180.0
 51
270.0
  0
ARC
  5
3B6
100
AcDbEntity
  8
0
100
AcDbCircle
 62
7
  6
CONTINUOUS
 10
318.1141343212
 20
186.7492683455
 40
0.3
100
AcDbArc
 50
90.0
 51
180.0
  0
ARC
  5
3B7
100
AcDbEntity
  8
0
100
AcDbCircle
 62
7
  6
CONTINUOUS
 10
322.6141343212
 20
248.9085042947
 40
0.2
100
AcDbArc
 50
0.0
 51
90.0
  0
ARC
  5
3B8
100
AcDbEntity
  8
0
100
AcDbCircle
 62
7
  6
CONTINUOUS
 10
318.0141343212
 20
248.9085042947
 40
0.2
100
AcDbArc
 50
90.0
 51
180.0
  0
ARC
  5
3B9
100
AcDbEntity
  8
0
100
AcDbCircle
 62
7
  6
CONTINUOUS
 10
322.6141343212
 20
240.9406287325
 40
0.2
100
AcDbArc
 50
0.0
 51
90.0
  0
ARC
  5
3BA
100
AcDbEntity
  8
0
100
AcDbCircle
 62
7
  6
CONTINUOUS
 10
318.0141343212
 20
240.9406287325
 40
0.2
100
AcDbArc
 50
90.0
 51
180.0
  0
ARC
  5
3BB
100
AcDbEntity
  8
0
100
AcDbCircle
 62
7
  6
CONTINUOUS
 10
363.8141343212
 20
86.5492683455
 40
3.0
100
AcDbArc
 50
0.0
 51
90.0
  0
ARC
  5
3BC
100
AcDbEntity
  8
0
100
AcDbCircle
 62
7
  6
CONTINUOUS
 10
349.8141343212
 20
91.5492683455
 40
2.0
100
AcDbArc
 50
180.0
 51
270.0
  0
ARC
  5
3BD
100
AcDbEntity
  8
0
100
AcDbCircle
 62
7
  6
CONTINUOUS
 10
349.8141343212
 20
130.0492683455
 40
2.0
100
AcDbArc
 50
90.0
 51
180.0
  0
ARC
  5
3BE
100
AcDbEntity
  8
0
100
AcDbCircle
 62
7
  6
CONTINUOUS
 10
359.8141343212
 20
81.9579079584
 40
2.0
100
AcDbArc
 50
0.0
 51
90.0
  0
ARC
  5
3BF
100
AcDbEntity
  8
0
100
AcDbCircle
 62
7
  6
CONTINUOUS
 10
366.5141343212
 20
132.3492683455
 40
0.3
100
AcDbArc
 50
270.0
 51
360.0
  0
ARC
  5
3C0
100
AcDbEntity
  8
0
100
AcDbCircle
 62
7
  6
CONTINUOUS
 10
362.0141343212
 20
69.6576834701
 40
0.2
100
AcDbArc
 50
180.0
 51
270.0
  0
ARC
  5
3C1
100
AcDbEntity
  8
0
100
AcDbCircle
 62
7
  6
CONTINUOUS
 10
366.6141343212
 20
69.6576834701
 40
0.2
100
AcDbArc
 50
270.0
 51
360.0
  0
ARC
  5
3C2
100
AcDbEntity
  8
0
100
AcDbCircle
 62
7
  6
CONTINUOUS
 10
363.8141343212
 20
232.5492683455
 40
3.0
100
AcDbArc
 50
270.0
 51
360.0
  0
ARC
  5
3C3
100
AcDbEntity
  8
0
100
AcDbCircle
 62
7
  6
CONTINUOUS
 10
349.8141343212
 20
227.5492683455
 40
2.0
100
AcDbArc
 50
90.0
 51
180.0
  0
ARC
  5
3C4
100
AcDbEntity
  8
0
100
AcDbCircle
 62
7
  6
CONTINUOUS
 10
349.8141343212
 20
189.0492683455
 40
2.0
100
AcDbArc
 50
180.0
 51
270.0
  0
ARC
  5
3C5
100
AcDbEntity
  8
0
100
AcDbCircle
 62
7
  6
CONTINUOUS
 10
359.8141343212
 20
237.1406287325
 40
2.0
100
AcDbArc
 50
270.0
 51
360.0
  0
ARC
  5
3C6
100
AcDbEntity
  8
0
100
AcDbCircle
 62
7
  6
CONTINUOUS
 10
366.5141343212
 20
186.7492683455
 40
0.3
100
AcDbArc
 50
0.0
 51
90.0
  0
ARC
  5
3C7
100
AcDbEntity
  8
0
100
AcDbCircle
 62
7
  6
CONTINUOUS
 10
362.0141343212
 20
248.9085042947
 40
0.2
100
AcDbArc
 50
90.0
 51
180.0
  0
ARC
  5
3C8
100
AcDbEntity
  8
0
100
AcDbCircle
 62
7
  6
CONTINUOUS
 10
366.6141343212
 20
248.9085042947
 40
0.2
100
AcDbArc
 50
0.0
 51
90.0
  0
ARC
  5
3C9
100
AcDbEntity
  8
0
100
AcDbCircle
 62
7
  6
CONTINUOUS
 10
362.0141343212
 20
240.9406287325
 40
0.2
100
AcDbArc
 50
90.0
 51
180.0
  0
ARC
  5
3CA
100
AcDbEntity
  8
0
100
AcDbCircle
 62
7
  6
CONTINUOUS
 10
366.6141343212
 20
240.9406287325
 40
0.2
100
AcDbArc
 50
0.0
 51
90.0
  0
LINE
  5
3CB
100
AcDbEntity
  8
RUNDUNGEN
100
AcDbLine
 62
7
  6
CONTINUOUS
 10
135.8389360939
 20
246.3246267682
 11
136.0301153427
 21
246.265806703
  0
LINE
  5
3CC
100
AcDbEntity
  8
RUNDUNGEN
100
AcDbLine
 62
7
  6
CONTINUOUS
 10
210.4855526854
 20
188.9263125789
 11
210.5114668022
 21
188.7279750792
  0
LINE
  5
3CD
100
AcDbEntity
  8
RUNDUNGEN
100
AcDbLine
 62
7
  6
CONTINUOUS
 10
97.0216451764
 20
78.3549937883
 11
96.8547815578
 21
78.4652926462
  0
LINE
  5
3CE
100
AcDbEntity
  8
RUNDUNGEN
100
AcDbLine
 62
7
  6
CONTINUOUS
 10
121.1720324492
 20
246.3246267682
 11
120.9808532004
 21
246.265806703
  0
LINE
  5
3CF
100
AcDbEntity
  8
RUNDUNGEN
100
AcDbLine
 62
7
  6
CONTINUOUS
 10
204.3927007171
 20
202.2677974069
 11
204.2597773737
 21
202.4172654303
  0
LINE
  5
3D0
100
AcDbEntity
  8
RUNDUNGEN
100
AcDbLine
 62
7
  6
CONTINUOUS
 10
43.6570328878
 20
139.9410393887
 11
43.7424618935
 21
139.760177037
  0
LINE
  5
3D1
100
AcDbEntity
  8
RUNDUNGEN
100
AcDbLine
 62
7
  6
CONTINUOUS
 10
215.4412536754
 20
154.4586551022
 11
215.4102399575
 21
154.6562593899
  0
LINE
  5
3D2
100
AcDbEntity
  8
RUNDUNGEN
100
AcDbLine
 62
7
  6
CONTINUOUS
 10
169.2504927308
 20
236.5141085693
 11
169.0578619842
 21
236.567985287
  0
LINE
  5
3D3
100
AcDbEntity
  8
RUNDUNGEN
100
AcDbLine
 62
7
  6
CONTINUOUS
 10
198.8883141067
 20
108.2657465336
 11
198.9690566506
 21
108.4487491206
  0
LINE
  5
3D4
100
AcDbEntity
  8
RUNDUNGEN
100
AcDbLine
 62
7
  6
CONTINUOUS
 10
87.7604758122
 20
236.5141085693
 11
87.9531065588
 21
236.567985287
  0
LINE
  5
3D5
100
AcDbEntity
  8
RUNDUNGEN
100
AcDbLine
 62
7
  6
CONTINUOUS
 10
52.6182678259
 20
202.2677974069
 11
52.7511911694
 21
202.4172654303
  0
LINE
  5
3D6
100
AcDbEntity
  8
RUNDUNGEN
100
AcDbLine
 62
7
  6
CONTINUOUS
 10
75.4218913054
 20
228.5845817933
 11
75.2928616151
 21
228.4317399003
  0
LINE
  5
3D7
100
AcDbEntity
  8
RUNDUNGEN
100
AcDbLine
 62
7
  6
CONTINUOUS
 10
46.5254158577
 20
188.9263125789
 11
46.4995017409
 21
188.7279750792
  0
LINE
  5
3D8
100
AcDbEntity
  8
RUNDUNGEN
100
AcDbLine
 62
7
  6
CONTINUOUS
 10
41.5697148677
 20
154.4586551022
 11
41.6007285856
 21
154.6562593899
  0
LINE
  5
3D9
100
AcDbEntity
  8
RUNDUNGEN
100
AcDbLine
 62
7
  6
CONTINUOUS
 10
58.1226544363
 20
108.2657465336
 11
58.0419118924
 21
108.4487491206
  0
LINE
  5
3DA
100
AcDbEntity
  8
RUNDUNGEN
100
AcDbLine
 62
7
  6
CONTINUOUS
 10
67.7274337218
 20
97.1812403471
 11
67.8970827443
 21
97.0752756623
  0
LINE
  5
3DB
100
AcDbEntity
  8
RUNDUNGEN
100
AcDbLine
 62
7
  6
CONTINUOUS
 10
111.0944361681
 20
74.2228495235
 11
111.2944428414
 21
74.2254255443
  0
LINE
  5
3DC
100
AcDbEntity
  8
RUNDUNGEN
100
AcDbLine
 62
7
  6
CONTINUOUS
 10
145.9165323749
 20
74.2228495235
 11
145.7165257016
 21
74.2254255443
  0
LINE
  5
3DD
100
AcDbEntity
  8
RUNDUNGEN
100
AcDbLine
 62
7
  6
CONTINUOUS
 10
159.9893233667
 20
78.3549937883
 11
160.1561869852
 21
78.4652926462
  0
LINE
  5
3DE
100
AcDbEntity
  8
RUNDUNGEN
100
AcDbLine
 62
7
  6
CONTINUOUS
 10
189.2835348212
 20
97.1812403471
 11
189.1138857988
 21
97.0752756623
  0
LINE
  5
3DF
100
AcDbEntity
  8
RUNDUNGEN
100
AcDbLine
 62
7
  6
CONTINUOUS
 10
213.3539356552
 20
139.9410393887
 11
213.2685066495
 21
139.760177037
  0
LINE
  5
3E0
100
AcDbEntity
  8
RUNDUNGEN
100
AcDbLine
 62
7
  6
CONTINUOUS
 10
181.5890772376
 20
228.5845817933
 11
181.7181069279
 21
228.4317399003
  0
SPLINE
  5
3E1
100
AcDbEntity
  8
RUNDUNGEN
100
AcDbSpline
 62
9
  6
CONTINUOUS
 70
0
 71
3
 72
10
 73
6
 74
0
 42
0.0000001
 43
0.0000001
 44
0.0000000001
 40
0.0
 40
0.0
 40
0.0
 40
0.0
 40
0.129545236
 40
0.3481508347
 40
1.0
 40
1.0
 40
1.0
 40
1.0
 10
322.8141343212
 20
247.6709713461
 30
0.0
 10
322.8141343212
 20
247.6804190985
 30
0.0
 10
322.7943324024
 20
247.7023244341
 30
0.0
 10
322.72661257
 20
247.7265675346
 30
0.0
 10
322.6616737731
 20
247.7334676852
 30
0.0
 10
322.6141343212
 20
247.7334676852
 30
0.0
  0
SPLINE
  5
3E2
100
AcDbEntity
  8
RUNDUNGEN
100
AcDbSpline
 62
7
  6
CONTINUOUS
 70
0
 71
3
 72
10
 73
6
 74
0
 42
0.0000001
 43
0.0000001
 44
0.0000000001
 40
0.0
 40
0.0
 40
0.0
 40
0.0
 40
0.6566802109
 40
0.8748137826
 40
1.0
 40
1.0
 40
1.0
 40
1.0
 10
322.6141343212
 20
246.3246267682
 30
0.0
 10
322.6616307441
 20
246.3246267682
 30
0.0
 10
322.7264755481
 20
246.3180027913
 30
0.0
 10
322.7936936268
 20
246.2956541262
 30
0.0
 10
322.8141343212
 20
246.2748611825
 30
0.0
 10
322.8141343212
 20
246.265806703
 30
0.0
  0
SPLINE
  5
3E3
100
AcDbEntity
  8
RUNDUNGEN
100
AcDbSpline
 62
7
  6
CONTINUOUS
 70
0
 71
3
 72
10
 73
6
 74
0
 42
0.0000001
 43
0.0000001
 44
0.0000000001
 40
0.0
 40
0.0
 40
0.0
 40
0.0
 40
0.6566802109
 40
0.8748137826
 40
1.0
 40
1.0
 40
1.0
 40
1.0
 10
318.0141343212
 20
246.3246267682
 30
0.0
 10
317.9666378983
 20
246.3246267682
 30
0.0
 10
317.9017930943
 20
246.3180027913
 30
0.0
 10
317.8345750156
 20
246.2956541262
 30
0.0
 10
317.8141343212
 20
246.2748611825
 30
0.0
 10
317.8141343212
 20
246.265806703
 30
0.0
  0
SPLINE
  5
3E4
100
AcDbEntity
  8
RUNDUNGEN
100
AcDbSpline
 62
9
  6
CONTINUOUS
 70
0
 71
3
 72
10
 73
6
 74
0
 42
0.0000001
 43
0.0000001
 44
0.0000000001
 40
0.0
 40
0.0
 40
0.0
 40
0.0
 40
0.1295452374
 40
0.3481508235
 40
1.0
 40
1.0
 40
1.0
 40
1.0
 10
317.8141343212
 20
247.6709713461
 30
0.0
 10
317.8141343212
 20
247.6804190988
 30
0.0
 10
317.8339362385
 20
247.7023244358
 30
0.0
 10
317.9016560779
 20
247.7265675205
 30
0.0
 10
317.9665948678
 20
247.7334677169
 30
0.0
 10
318.0141343212
 20
247.7334677169
 30
0.0
  0
SPLINE
  5
3E5
100
AcDbEntity
  8
RUNDUNGEN
100
AcDbSpline
 62
9
  6
CONTINUOUS
 70
0
 71
3
 72
10
 73
6
 74
0
 42
0.0000001
 43
0.0000001
 44
0.0000000001
 40
0.0
 40
0.0
 40
0.0
 40
0.0
 40
0.129545236
 40
0.3481508347
 40
1.0
 40
1.0
 40
1.0
 40
1.0
 10
366.8141343212
 20
247.6709713461
 30
0.0
 10
366.8141343212
 20
247.6804190985
 30
0.0
 10
366.7943324024
 20
247.7023244341
 30
0.0
 10
366.72661257
 20
247.7265675346
 30
0.0
 10
366.6616737731
 20
247.7334676852
 30
0.0
 10
366.6141343212
 20
247.7334676852
 30
0.0
  0
SPLINE
  5
3E6
100
AcDbEntity
  8
RUNDUNGEN
100
AcDbSpline
 62
9
  6
CONTINUOUS
 70
0
 71
3
 72
10
 73
6
 74
0
 42
0.0000001
 43
0.0000001
 44
0.0000000001
 40
0.0
 40
0.0
 40
0.0
 40
0.0
 40
0.1295452377
 40
0.3481508215
 40
1.0
 40
1.0
 40
1.0
 40
1.0
 10
361.8141343212
 20
247.6709713461
 30
0.0
 10
361.8141343212
 20
247.6804190988
 30
0.0
 10
361.8339362382
 20
247.7023244361
 30
0.0
 10
361.9016560789
 20
247.726567518
 30
0.0
 10
361.9665948675
 20
247.7334677226
 30
0.0
 10
362.0141343212
 20
247.7334677226
 30
0.0
  0
SPLINE
  5
3E7
100
AcDbEntity
  8
RUNDUNGEN
100
AcDbSpline
 62
7
  6
CONTINUOUS
 70
0
 71
3
 72
10
 73
6
 74
0
 42
0.0000001
 43
0.0000001
 44
0.0000000001
 40
0.0
 40
0.0
 40
0.0
 40
0.0
 40
0.6566802109
 40
0.8748137826
 40
1.0
 40
1.0
 40
1.0
 40
1.0
 10
362.0141343212
 20
246.3246267682
 30
0.0
 10
361.9666378983
 20
246.3246267682
 30
0.0
 10
361.9017930943
 20
246.3180027913
 30
0.0
 10
361.8345750156
 20
246.2956541262
 30
0.0
 10
361.8141343212
 20
246.2748611825
 30
0.0
 10
361.8141343212
 20
246.265806703
 30
0.0
  0
SPLINE
  5
3E8
100
AcDbEntity
  8
RUNDUNGEN
100
AcDbSpline
 62
7
  6
CONTINUOUS
 70
0
 71
3
 72
10
 73
6
 74
0
 42
0.0000001
 43
0.0000001
 44
0.0000000001
 40
0.0
 40
0.0
 40
0.0
 40
0.0
 40
0.6566802109
 40
0.8748137826
 40
1.0
 40
1.0
 40
1.0
 40
1.0
 10
366.6141343212
 20
246.3246267682
 30
0.0
 10
366.6616307441
 20
246.3246267682
 30
0.0
 10
366.7264755481
 20
246.3180027913
 30
0.0
 10
366.7936936268
 20
246.2956541262
 30
0.0
 10
366.8141343212
 20
246.2748611825
 30
0.0
 10
366.8141343212
 20
246.265806703
 30
0.0
  0
ENDSEC
  0
SECTION
  2
OBJECTS
  0
DICTIONARY
  5
C
100
AcDbDictionary
280
0
281
1
  3
ACAD_GROUP
350
D
  3
ACAD_MLINESTYLE
350
17
  3
ACAD_LAYOUT
350
1A
  3
ACAD_PLOTSETTINGS
350
19
  3
ACAD_PLOTSTYLENAME
350
E
  0
DICTIONARY
  5
D
102
{ACAD_REACTORS
330
C
102
}
100
AcDbDictionary
280
0
281
1
  0
ACDBDICTIONARYWDFLT
  5
E
102
{ACAD_REACTORS
330
C
102
}
100
AcDbDictionary
281
1
  3
Normal
350
F
100
AcDbDictionaryWithDefault
340
F
  0
DICTIONARY
  5
17
102
{ACAD_REACTORS
330
C
102
}
100
AcDbDictionary
280
0
281
1
  3
Standard
350
18
  0
DICTIONARY
  5
19
102
{ACAD_REACTORS
330
C
102
}
100
AcDbDictionary
281
1
  0
DICTIONARY
  5
1A
102
{ACAD_REACTORS
330
C
102
}
100
AcDbDictionary
281
1
  3
Model
350
3E9
  3
Layout1
350
3EA
  0
ACDBPLACEHOLDER
  5
F
102
{ACAD_REACTORS
330
E
102
}
  0
MLINESTYLE
  5
18
102
{ACAD_REACTORS
330
17
102
}
100
AcDbMlineStyle
  2
STANDARD
 70
0
  3

 62
256
 51
90.0
 52
90.0
 71
2
 49
0.5
 62
256
  6
BYLAYER
 49
-0.5
 62
256
  6
BYLAYER
  0
LAYOUT
  5
3E9
102
{ACAD_REACTORS
330
1A
102
}
100
AcDbPlotSettings
  1

  2
none_device
  4
ISO_A3_(420.00_x_297.00_MM)
  6

 40
0.0
 41
0.0
 42
0.0
 43
0.0
 44
420.0
 45
297.0
 46
0.0
 47
0.0
 48
0.0
 49
0.0
140
0.0
141
0.0
142
1.0
143
1.0
 70
1024
 72
1
 73
0
 74
0
  7

 75
0
147
1.0
148
0.0
149
0.0
100
AcDbLayout
  1
Model
 70
0
 71
0
 10
0.0
 20
0.0
 11
420.0
 21
297.0
 12
0.0
 22
0.0
 32
0.0
 14
0.0
 24
0.0
 34
0.0
 15
0.0
 25
0.0
 35
0.0
146
0.0
 13
0.0
 23
0.0
 33
0.0
 16
1.0
 26
0.0
 36
0.0
 17
0.0
 27
1.0
 37
0.0
 76
0
330
220
345
0
346
0
  0
LAYOUT
  5
3EA
102
{ACAD_REACTORS
330
1A
102
}
100
AcDbPlotSettings
  1

  2
none_device
  4
ISO_A3_(420.00_x_297.00_MM)
  6

 40
0.0
 41
0.0
 42
0.0
 43
0.0
 44
420.0
 45
297.0
 46
0.0
 47
0.0
 48
0.0
 49
0.0
140
0.0
141
0.0
142
1.0
143
1.0
 70
0
 72
1
 73
0
 74
0
  7

 75
0
147
1.0
148
0.0
149
0.0
100
AcDbLayout
  1
Layout1
 70
0
 71
1
 10
0.0
 20
0.0
 11
420.0
 21
297.0
 12
0.0
 22
0.0
 32
0.0
 14
0.0
 24
0.0
 34
0.0
 15
0.0
 25
0.0
 35
0.0
146
0.0
 13
0.0
 23
0.0
 33
0.0
 16
1.0
 26
0.0
 36
0.0
 17
0.0
 27
1.0
 37
0.0
 76
0
330
221
345
0
346
0
  0
ENDSEC
  0
EOF
