999
DXF file: S9-Z10_SPR_DR_SQ60MM.dxf
999
Pro/ENGINEER 2012230 by Parametric Technology Corporation
  0
SECTION
  2
HEADER
  9
$ACADVER
  1
AC1015
  9
$DWGCODEPAGE
  3
ANSI_1252
  9
$EXTMAX
 10
420.0
 20
297.0
 30
0.0
  9
$EXTMIN
 10
0.0
 20
0.0
 30
0.0
  9
$LIMMIN
 10
0.0
 20
0.0
  9
$LIMMAX
 10
420.0
 20
297.0
  9
$VIEWCTR
 10
210.0
 20
148.5
  9
$VIEWSIZE
 40
297.0
  9
$CLAYER
  8
0
  9
$LTSCALE
 40
23.1
  9
$CELTYPE
  6
BYLAYER
  9
$DIMSCALE
 40
1.0
  9
$DIMASZ
 40
3.5
  9
$DIMEXO
 40
0.0
  9
$DIMDLI
 40
15.96
  9
$DIMEXE
 40
1.5
  9
$DIMCEN
 40
3.78
  9
$DIMLFAC
 40
1.0
  9
$DIMBLK
  1
_FILLED
  9
$DIMTXT
 40
3.5
  9
$DIMTOL
 70
1
  9
$DIMLIM
 70
0
  9
$DIMTFAC
 40
1.0
  9
$DIMTP
 40
0.005
  9
$DIMTM
 40
0.005
  9
$DIMGAP
 40
0.625
  9
$DIMDSEP
 70
46
  9
$PDMODE
 70
3
  9
$PDSIZE
 40
0.3125
  9
$HANDSEED
  5
3F5
  9
$TILEMODE
 70
1
  9
$MEASUREMENT
 70
1
  9
$INSUNITS
 70
4
  0
ENDSEC
  0
SECTION
  2
CLASSES
  0
CLASS
  1
ACDBDICTIONARYWDFLT
  2
AcDbDictionaryWithDefault
  3
AutoCAD 2000
 90
0
280
0
281
0
  0
CLASS
  1
ACDBPLACEHOLDER
  2
AcDbPlaceHolder
  3
AutoCAD 2000
 90
0
280
0
281
0
  0
CLASS
  1
LAYOUT
  2
AcDbLayout
  3
AutoCAD 2000
 90
0
280
0
281
0
  0
ENDSEC
  0
SECTION
  2
TABLES
  0
TABLE
  2
VPORT
  5
8
100
AcDbSymbolTable
 70
2
  0
VPORT
  5
1F4
100
AcDbSymbolTableRecord
100
AcDbViewportTableRecord
  2
*ACTIVE
 70
0
 10
0.0
 20
0.0
 11
1.0
 21
1.0
 12
210.0
 22
148.5
 13
0.0
 23
0.0
 14
1.0
 24
1.0
 15
0.0
 25
0.0
 16
0.0
 26
0.0
 36
1.0
 17
0.0
 27
0.0
 37
0.0
 40
297.0
 41
1.4141414141
 42
50.0
 43
0.0
 44
0.0
 50
0.0
 51
0.0
 71
0
 72
100
 73
1
 74
1
 75
0
 76
0
 77
0
 78
0
  0
ENDTAB
  0
TABLE
  2
LTYPE
  5
5
100
AcDbSymbolTable
 70
6
  0
LTYPE
  5
14
100
AcDbSymbolTableRecord
100
AcDbLinetypeTableRecord
  2
BYBLOCK
 70
0
  3

 72
65
 73
0
 40
0.0
  0
LTYPE
  5
15
100
AcDbSymbolTableRecord
100
AcDbLinetypeTableRecord
  2
BYLAYER
 70
0
  3

 72
65
 73
0
 40
0.0
  0
LTYPE
  5
16
100
AcDbSymbolTableRecord
100
AcDbLinetypeTableRecord
  2
CONTINUOUS
 70
64
  3
Solid line
 72
65
 73
0
 40
0.0
  0
LTYPE
  5
1F5
100
AcDbSymbolTableRecord
100
AcDbLinetypeTableRecord
  2
CENTER
 70
64
  3
____ _ ____ _ ____ _ ____ _ ____ _ ____ _ ____
 72
65
 73
4
 40
0.6
 49
0.375
 74
0
 49
-0.075
 74
0
 49
0.075
 74
0
 49
-0.075
 74
0
  0
LTYPE
  5
1F6
100
AcDbSymbolTableRecord
100
AcDbLinetypeTableRecord
  2
HIDDEN
 70
64
  3
- - - - - - - - - - - - - - - - - - - -
 72
65
 73
2
 40
0.2
 49
0.1
 74
0
 49
-0.1
 74
0
  0
LTYPE
  5
1F7
100
AcDbSymbolTableRecord
100
AcDbLinetypeTableRecord
  2
PHANTOM
 70
64
  3
_____ _ _ _____ _ _ _____ _ _ _____
 72
65
 73
6
 40
0.8
 49
0.45
 74
0
 49
-0.05
 74
0
 49
0.1
 74
0
 49
-0.05
 74
0
 49
0.1
 74
0
 49
-0.05
 74
0
  0
LTYPE
  5
1F8
100
AcDbSymbolTableRecord
100
AcDbLinetypeTableRecord
  2
DOT
 70
64
  3
. . . . . . . . . . . . . . . . . . . .
 72
65
 73
2
 40
0.2
 49
0.1
 74
0
 49
-0.1
 74
0
  0
LTYPE
  5
1F9
100
AcDbSymbolTableRecord
100
AcDbLinetypeTableRecord
  2
DASHED
 70
64
  3
- - - - - - - - - - - - - - - - - - - -
 72
65
 73
2
 40
0.2
 49
0.1
 74
0
 49
-0.1
 74
0
  0
ENDTAB
  0
TABLE
  2
LAYER
  5
2
100
AcDbSymbolTable
 70
36
  0
LAYER
  5
10
100
AcDbSymbolTableRecord
100
AcDbLayerTableRecord
  2
0
 70
0
 62
7
  6
CONTINUOUS
370
-3
390
F
  0
LAYER
  5
1FA
100
AcDbSymbolTableRecord
100
AcDbLayerTableRecord
  2
DEFAULT_1
 70
0
 62
7
  6
CENTER
370
-3
390
F
  0
LAYER
  5
1FB
100
AcDbSymbolTableRecord
100
AcDbLayerTableRecord
  2
DEFAULT_2
 70
0
 62
8
  6
HIDDEN
370
-3
390
F
  0
LAYER
  5
1FC
100
AcDbSymbolTableRecord
100
AcDbLayerTableRecord
  2
DEFAULT_3
 70
0
 62
7
  6
PHANTOM
370
-3
390
F
  0
LAYER
  5
1FD
100
AcDbSymbolTableRecord
100
AcDbLayerTableRecord
  2
01_ALL_DTM_PLN
 70
0
 62
7
  6
CONTINUOUS
370
-3
390
F
  0
LAYER
  5
1FE
100
AcDbSymbolTableRecord
100
AcDbLayerTableRecord
  2
01__ASM_ALL_DTM_PLN
 70
0
 62
7
  6
CONTINUOUS
370
-3
390
F
  0
LAYER
  5
1FF
100
AcDbSymbolTableRecord
100
AcDbLayerTableRecord
  2
01__ASM_DEF_DTM_PLN
 70
0
 62
7
  6
CONTINUOUS
370
-3
390
F
  0
LAYER
  5
200
100
AcDbSymbolTableRecord
100
AcDbLayerTableRecord
  2
01___PRT_ALL_DTM_PLN
 70
0
 62
7
  6
CONTINUOUS
370
-3
390
F
  0
LAYER
  5
201
100
AcDbSymbolTableRecord
100
AcDbLayerTableRecord
  2
01___PRT_DEF_DTM_PLN
 70
0
 62
7
  6
CONTINUOUS
370
-3
390
F
  0
LAYER
  5
202
100
AcDbSymbolTableRecord
100
AcDbLayerTableRecord
  2
02_ALL_AXES
 70
0
 62
7
  6
CONTINUOUS
370
-3
390
F
  0
LAYER
  5
203
100
AcDbSymbolTableRecord
100
AcDbLayerTableRecord
  2
02__ASM_ALL_AXES
 70
0
 62
7
  6
CONTINUOUS
370
-3
390
F
  0
LAYER
  5
204
100
AcDbSymbolTableRecord
100
AcDbLayerTableRecord
  2
02___PRT_ALL_AXES
 70
0
 62
7
  6
CONTINUOUS
370
-3
390
F
  0
LAYER
  5
205
100
AcDbSymbolTableRecord
100
AcDbLayerTableRecord
  2
03_ALL_CURVES
 70
0
 62
7
  6
CONTINUOUS
370
-3
390
F
  0
LAYER
  5
206
100
AcDbSymbolTableRecord
100
AcDbLayerTableRecord
  2
03__ASM_ALL_CURVES
 70
0
 62
7
  6
CONTINUOUS
370
-3
390
F
  0
LAYER
  5
207
100
AcDbSymbolTableRecord
100
AcDbLayerTableRecord
  2
03___PRT_ALL_CURVES
 70
0
 62
7
  6
CONTINUOUS
370
-3
390
F
  0
LAYER
  5
208
100
AcDbSymbolTableRecord
100
AcDbLayerTableRecord
  2
04_ALL_DTM_PNT
 70
0
 62
7
  6
CONTINUOUS
370
-3
390
F
  0
LAYER
  5
209
100
AcDbSymbolTableRecord
100
AcDbLayerTableRecord
  2
04__ASM_ALL_DTM_PNT
 70
0
 62
7
  6
CONTINUOUS
370
-3
390
F
  0
LAYER
  5
20A
100
AcDbSymbolTableRecord
100
AcDbLayerTableRecord
  2
04___PRT_ALL_DTM_PNT
 70
0
 62
7
  6
CONTINUOUS
370
-3
390
F
  0
LAYER
  5
20B
100
AcDbSymbolTableRecord
100
AcDbLayerTableRecord
  2
05_ALL_DTM_CSYS
 70
0
 62
7
  6
CONTINUOUS
370
-3
390
F
  0
LAYER
  5
20C
100
AcDbSymbolTableRecord
100
AcDbLayerTableRecord
  2
05__ASM_ALL_DTM_CSYS
 70
0
 62
7
  6
CONTINUOUS
370
-3
390
F
  0
LAYER
  5
20D
100
AcDbSymbolTableRecord
100
AcDbLayerTableRecord
  2
05__ASM_DEF_DTM_CSYS
 70
0
 62
7
  6
CONTINUOUS
370
-3
390
F
  0
LAYER
  5
20E
100
AcDbSymbolTableRecord
100
AcDbLayerTableRecord
  2
05___PRT_ALL_DTM_CSYS
 70
0
 62
7
  6
CONTINUOUS
370
-3
390
F
  0
LAYER
  5
20F
100
AcDbSymbolTableRecord
100
AcDbLayerTableRecord
  2
05___PRT_DEF_DTM_CSYS
 70
0
 62
7
  6
CONTINUOUS
370
-3
390
F
  0
LAYER
  5
210
100
AcDbSymbolTableRecord
100
AcDbLayerTableRecord
  2
06_ALL_SURFS
 70
0
 62
7
  6
CONTINUOUS
370
-3
390
F
  0
LAYER
  5
211
100
AcDbSymbolTableRecord
100
AcDbLayerTableRecord
  2
06__ASM_ALL_SURFS
 70
0
 62
7
  6
CONTINUOUS
370
-3
390
F
  0
LAYER
  5
212
100
AcDbSymbolTableRecord
100
AcDbLayerTableRecord
  2
06___PRT_ALL_SURFS
 70
0
 62
7
  6
CONTINUOUS
370
-3
390
F
  0
LAYER
  5
213
100
AcDbSymbolTableRecord
100
AcDbLayerTableRecord
  2
07__ASM_ALL_SKELETONS
 70
0
 62
7
  6
CONTINUOUS
370
-3
390
F
  0
LAYER
  5
214
100
AcDbSymbolTableRecord
100
AcDbLayerTableRecord
  2
ALLE
 70
0
 62
7
  6
CONTINUOUS
370
-3
390
F
  0
LAYER
  5
215
100
AcDbSymbolTableRecord
100
AcDbLayerTableRecord
  2
BEZUGSACHSEN
 70
0
 62
7
  6
CONTINUOUS
370
-3
390
F
  0
LAYER
  5
216
100
AcDbSymbolTableRecord
100
AcDbLayerTableRecord
  2
BEZUGSEBENE
 70
0
 62
7
  6
CONTINUOUS
370
-3
390
F
  0
LAYER
  5
217
100
AcDbSymbolTableRecord
100
AcDbLayerTableRecord
  2
BEZUGSEBENEN
 70
0
 62
7
  6
CONTINUOUS
370
-3
390
F
  0
LAYER
  5
218
100
AcDbSymbolTableRecord
100
AcDbLayerTableRecord
  2
BEZUGSEBENEN-KES
 70
0
 62
7
  6
CONTINUOUS
370
-3
390
F
  0
LAYER
  5
219
100
AcDbSymbolTableRecord
100
AcDbLayerTableRecord
  2
BEZUGSPUNKTE
 70
0
 62
7
  6
CONTINUOUS
370
-3
390
F
  0
LAYER
  5
21A
100
AcDbSymbolTableRecord
100
AcDbLayerTableRecord
  2
KURVEN
 70
0
 62
7
  6
CONTINUOUS
370
-3
390
F
  0
LAYER
  5
21B
100
AcDbSymbolTableRecord
100
AcDbLayerTableRecord
  2
PARAMETER-BEMAßUNGEN
 70
0
 62
7
  6
CONTINUOUS
370
-3
390
F
  0
LAYER
  5
21C
100
AcDbSymbolTableRecord
100
AcDbLayerTableRecord
  2
RUNDUNGEN
 70
0
 62
7
  6
CONTINUOUS
370
-3
390
F
  0
LAYER
  5
21D
100
AcDbSymbolTableRecord
100
AcDbLayerTableRecord
  2
ZEICHNUNGSNOTIZEN
 70
0
 62
7
  6
CONTINUOUS
370
-3
390
F
  0
ENDTAB
  0
TABLE
  2
STYLE
  5
3
100
AcDbSymbolTable
 70
1
  0
STYLE
  5
11
100
AcDbSymbolTableRecord
100
AcDbTextStyleTableRecord
  2
STANDARD
 70
0
 40
0.0
 41
0.7
 50
0.0
 71
0
 42
0.2
  3
txt
  4

  0
STYLE
  5
21E
100
AcDbSymbolTableRecord
100
AcDbTextStyleTableRecord
  2
TEXTSTYLE_1
 70
0
 40
0.0
 41
0.8
 50
0.0
 71
0
 42
0.2
  3
gdt
  4

  0
ENDTAB
  0
TABLE
  2
VIEW
  5
6
100
AcDbSymbolTable
 70
0
  0
ENDTAB
  0
TABLE
  2
UCS
  5
7
100
AcDbSymbolTable
 70
0
  0
ENDTAB
  0
TABLE
  2
APPID
  5
9
100
AcDbSymbolTable
 70
1
  0
APPID
  5
21F
100
AcDbSymbolTableRecord
100
AcDbRegAppTableRecord
  2
ACAD
 70
0
  0
ENDTAB
  0
TABLE
  2
BLOCK_RECORD
  5
1
100
AcDbSymbolTable
 70
0
  0
BLOCK_RECORD
  5
220
100
AcDbSymbolTableRecord
100
AcDbBlockTableRecord
  2
*Model_Space
  0
BLOCK_RECORD
  5
221
100
AcDbSymbolTableRecord
100
AcDbBlockTableRecord
  2
*Paper_Space
  0
ENDTAB
  0
TABLE
  2
DIMSTYLE
  5
A
100
AcDbSymbolTable
 70
1
100
AcDbDimStyleTable
 71
0
  0
DIMSTYLE
105
222
100
AcDbSymbolTableRecord
100
AcDbDimStyleTableRecord
  2
STANDARD
 70
0
  3

  4

 40
1.0
 41
3.5
 42
0.0
 43
0.38
 44
1.5
 45
0.0
 46
0.0
 47
0.005
 48
0.005
140
3.5
141
0.09
142
0.0
143
25.4
144
1.0
145
0.0
146
1.0
147
0.625
 71
1.0
 72
0.0
 73
0
 74
0
 75
0
 76
0
 77
1
 78
8
170
0
171
2
172
0
173
0
174
0
175
0
176
0
177
0
178
5
270
2
271
3
272
3
273
2
274
2
275
0
280
0
281
0
282
0
283
1
284
8
285
0
286
0
287
3
288
0
340
11
278
46
  0
ENDTAB
  0
ENDSEC
  0
SECTION
  2
BLOCKS
  0
BLOCK
  5
20
100
AcDbEntity
  8
0
100
AcDbBlockBegin
  2
*Model_Space
 70
0
 10
0.0
 20
0.0
 30
0.0
  3
*Model_Space
  1

  0
ENDBLK
  5
21
100
AcDbEntity
  8
0
100
AcDbBlockEnd
  0
BLOCK
  5
1C
100
AcDbEntity
  8
0
100
AcDbBlockBegin
  2
*Paper_Space
 70
0
 10
0.0
 20
0.0
 30
0.0
  3
*Paper_Space
  1

  0
ENDBLK
  5
1D
100
AcDbEntity
  8
0
100
AcDbBlockEnd
  0
ENDSEC
  0
SECTION
  2
ENTITIES
  0
HATCH
  5
223
100
AcDbEntity
  8
0
100
AcDbHatch
 62
2
  6
CONTINUOUS
 10
0.0
 20
0.0
 30
0.0
210
0.0
220
0.0
230
1.0
  2
A
 70
0
 71
0
 91
4
 92
1
 93
13
 72
1
 10
322.8141343212
 20
85.8291411527
 11
322.8141343212
 21
89.6291411527
 72
4
 94
3
 73
1
 74
0
 95
8
 96
4
 40
0.0
 40
0.0
 40
0.0
 40
0.0
 40
1.0
 40
1.0
 40
1.0
 40
1.0
 10
322.6141343212
 20
85.6291411527
 42
1.0
 10
322.7312916087
 20
85.6291411527
 42
0.8047378541
 10
322.8141343212
 20
85.7119838652
 42
0.8047378541
 10
322.8141343212
 20
85.8291411527
 42
1.0
 72
1
 10
318.0141343212
 20
85.6291411527
 11
322.6141343212
 21
85.6291411527
 72
4
 94
3
 73
1
 74
0
 95
8
 96
4
 40
0.0
 40
0.0
 40
0.0
 40
0.0
 40
1.0
 40
1.0
 40
1.0
 40
1.0
 10
318.0141343212
 20
85.6291411527
 42
1.0
 10
317.8969770337
 20
85.6291411527
 42
0.8047378541
 10
317.8141343212
 20
85.7119838652
 42
0.8047378541
 10
317.8141343212
 20
85.8291411527
 42
1.0
 72
1
 10
317.8141343212
 20
85.8291411527
 11
317.8141343212
 21
92.8542011589
 72
4
 94
3
 73
1
 74
0
 95
8
 96
4
 40
0.0
 40
0.0
 40
0.0
 40
0.0
 40
1.0
 40
1.0
 40
1.0
 40
1.0
 10
317.8141343212
 20
92.8542011589
 42
1.0
 10
317.8141343212
 20
94.6115604718
 42
0.8047378541
 10
319.0567750083
 20
95.8542011589
 42
0.8047378541
 10
320.8141343212
 20
95.8542011589
 42
1.0
 72
1
 10
334.8141343212
 20
95.8542011589
 11
320.8141343212
 21
95.8542011589
 72
4
 94
3
 73
1
 74
0
 95
8
 96
4
 40
0.0
 40
0.0
 40
0.0
 40
0.0
 40
1.0
 40
1.0
 40
1.0
 40
1.0
 10
336.8141343212
 20
97.8542011589
 42
1.0
 10
336.8141343212
 20
96.6826282837
 42
0.8047378541
 10
335.9857071964
 20
95.8542011589
 42
0.8047378541
 10
334.8141343212
 20
95.8542011589
 42
1.0
 72
1
 10
336.8141343212
 20
97.8542011589
 11
336.8141343212
 21
103.7542011589
 72
1
 10
336.8141343212
 20
103.7542011589
 11
342.3141343212
 21
103.7542011589
 72
1
 10
342.3141343212
 20
91.6291411527
 11
342.3141343212
 21
103.7542011589
 72
1
 10
342.3141343212
 20
91.6291411527
 11
324.8141343212
 21
91.6291411527
 72
4
 94
3
 73
1
 74
0
 95
8
 96
4
 40
0.0
 40
0.0
 40
0.0
 40
0.0
 40
1.0
 40
1.0
 40
1.0
 40
1.0
 10
322.8141343212
 20
89.6291411527
 42
1.0
 10
322.8141343212
 20
90.800714028
 42
0.8047378541
 10
323.6425614459
 20
91.6291411527
 42
0.8047378541
 10
324.8141343212
 20
91.6291411527
 42
1.0
 97
0
 92
1
 93
13
 72
1
 10
322.8141343212
 20
229.0792611651
 11
322.8141343212
 21
232.8792611651
 72
4
 94
3
 73
1
 74
0
 95
8
 96
4
 40
0.0
 40
0.0
 40
0.0
 40
0.0
 40
1.0
 40
1.0
 40
1.0
 40
1.0
 10
322.8141343212
 20
229.0792611651
 42
1.0
 10
322.8141343212
 20
227.9076882899
 42
0.8047378541
 10
323.6425614459
 20
227.0792611651
 42
0.8047378541
 10
324.8141343212
 20
227.0792611651
 42
1.0
 72
1
 10
342.3141343212
 20
227.0792611651
 11
324.8141343212
 21
227.0792611651
 72
1
 10
342.3141343212
 20
214.9542011589
 11
342.3141343212
 21
227.0792611651
 72
1
 10
336.8141343212
 20
214.9542011589
 11
342.3141343212
 21
214.9542011589
 72
1
 10
336.8141343212
 20
214.9542011589
 11
336.8141343212
 21
220.8542011589
 72
4
 94
3
 73
1
 74
0
 95
8
 96
4
 40
0.0
 40
0.0
 40
0.0
 40
0.0
 40
1.0
 40
1.0
 40
1.0
 40
1.0
 10
336.8141343212
 20
220.8542011589
 42
1.0
 10
336.8141343212
 20
222.0257740342
 42
0.8047378541
 10
335.9857071964
 20
222.8542011589
 42
0.8047378541
 10
334.8141343212
 20
222.8542011589
 42
1.0
 72
1
 10
334.8141343212
 20
222.8542011589
 11
320.8141343212
 21
222.8542011589
 72
4
 94
3
 73
1
 74
0
 95
8
 96
4
 40
0.0
 40
0.0
 40
0.0
 40
0.0
 40
1.0
 40
1.0
 40
1.0
 40
1.0
 10
317.8141343212
 20
225.8542011589
 42
1.0
 10
317.8141343212
 20
224.0968418461
 42
0.8047378541
 10
319.0567750083
 20
222.8542011589
 42
0.8047378541
 10
320.8141343212
 20
222.8542011589
 42
1.0
 72
1
 10
317.8141343212
 20
225.8542011589
 11
317.8141343212
 21
232.8792611651
 72
4
 94
3
 73
1
 74
0
 95
8
 96
4
 40
0.0
 40
0.0
 40
0.0
 40
0.0
 40
1.0
 40
1.0
 40
1.0
 40
1.0
 10
317.8141343212
 20
232.8792611651
 42
1.0
 10
317.8141343212
 20
232.9964184527
 42
0.8047378541
 10
317.8969770337
 20
233.0792611651
 42
0.8047378541
 10
318.0141343212
 20
233.0792611651
 42
1.0
 72
1
 10
322.6141343212
 20
233.0792611651
 11
318.0141343212
 21
233.0792611651
 72
4
 94
3
 73
1
 74
0
 95
8
 96
4
 40
0.0
 40
0.0
 40
0.0
 40
0.0
 40
1.0
 40
1.0
 40
1.0
 40
1.0
 10
322.8141343212
 20
232.8792611651
 42
1.0
 10
322.8141343212
 20
232.9964184527
 42
0.8047378541
 10
322.7312916087
 20
233.0792611651
 42
0.8047378541
 10
322.6141343212
 20
233.0792611651
 42
1.0
 97
0
 92
1
 93
8
 72
1
 10
342.3141343212
 20
109.9542011589
 11
342.3141343212
 21
127.9542011589
 72
1
 10
336.8141343212
 20
109.9542011589
 11
342.3141343212
 21
109.9542011589
 72
1
 10
336.8141343212
 20
109.9542011589
 11
336.8141343212
 21
119.9542011589
 72
4
 94
3
 73
1
 74
0
 95
8
 96
4
 40
0.0
 40
0.0
 40
0.0
 40
0.0
 40
1.0
 40
1.0
 40
1.0
 40
1.0
 10
336.8141343212
 20
119.9542011589
 42
1.0
 10
336.8141343212
 20
121.1257740342
 42
0.8047378541
 10
335.9857071964
 20
121.9542011589
 42
0.8047378541
 10
334.8141343212
 20
121.9542011589
 42
1.0
 72
1
 10
334.8141343212
 20
121.9542011589
 11
318.1141343212
 21
121.9542011589
 72
4
 94
3
 73
1
 74
0
 95
8
 96
4
 40
0.0
 40
0.0
 40
0.0
 40
0.0
 40
1.0
 40
1.0
 40
1.0
 40
1.0
 10
317.8141343212
 20
122.2542011589
 42
1.0
 10
317.8141343212
 20
122.0784652277
 42
0.8047378541
 10
317.9383983899
 20
121.9542011589
 42
0.8047378541
 10
318.1141343212
 20
121.9542011589
 42
1.0
 72
1
 10
317.8141343212
 20
122.2542011589
 11
317.8141343212
 21
127.9542011589
 72
1
 10
317.8141343212
 20
127.9542011589
 11
342.3141343212
 21
127.9542011589
 97
0
 92
1
 93
8
 72
1
 10
342.3141343212
 20
190.7542011589
 11
342.3141343212
 21
208.7542011589
 72
1
 10
317.8141343212
 20
190.7542011589
 11
342.3141343212
 21
190.7542011589
 72
1
 10
317.8141343212
 20
190.7542011589
 11
317.8141343212
 21
196.4542011589
 72
4
 94
3
 73
1
 74
0
 95
8
 96
4
 40
0.0
 40
0.0
 40
0.0
 40
0.0
 40
1.0
 40
1.0
 40
1.0
 40
1.0
 10
317.8141343212
 20
196.4542011589
 42
1.0
 10
317.8141343212
 20
196.6299370902
 42
0.8047378541
 10
317.9383983899
 20
196.7542011589
 42
0.8047378541
 10
318.1141343212
 20
196.7542011589
 42
1.0
 72
1
 10
334.8141343212
 20
196.7542011589
 11
318.1141343212
 21
196.7542011589
 72
4
 94
3
 73
1
 74
0
 95
8
 96
4
 40
0.0
 40
0.0
 40
0.0
 40
0.0
 40
1.0
 40
1.0
 40
1.0
 40
1.0
 10
336.8141343212
 20
198.7542011589
 42
1.0
 10
336.8141343212
 20
197.5826282837
 42
0.8047378541
 10
335.9857071964
 20
196.7542011589
 42
0.8047378541
 10
334.8141343212
 20
196.7542011589
 42
1.0
 72
1
 10
336.8141343212
 20
198.7542011589
 11
336.8141343212
 21
208.7542011589
 72
1
 10
336.8141343212
 20
208.7542011589
 11
342.3141343212
 21
208.7542011589
 97
0
 75
0
 76
0
 52
45.0
 41
8.4
 77
0
 78
1
 53
45.0
 43
0.0
 44
0.0
 45
-5.939696962
 46
5.939696962
 79
0
 98
1
 10
0.0
 20
0.0
  0
HATCH
  5
224
100
AcDbEntity
  8
0
100
AcDbHatch
 62
2
  6
CONTINUOUS
 10
0.0
 20
0.0
 30
0.0
210
0.0
220
0.0
230
1.0
  2
default__1
 70
0
 71
0
 91
4
 92
1
 93
13
 72
1
 10
361.8141343212
 20
85.8291411527
 11
361.8141343212
 21
89.6291411527
 72
4
 94
3
 73
1
 74
0
 95
8
 96
4
 40
0.0
 40
0.0
 40
0.0
 40
0.0
 40
1.0
 40
1.0
 40
1.0
 40
1.0
 10
361.8141343212
 20
89.6291411527
 42
1.0
 10
361.8141343212
 20
90.800714028
 42
0.8047378541
 10
360.9857071964
 20
91.6291411527
 42
0.8047378541
 10
359.8141343212
 20
91.6291411527
 42
1.0
 72
1
 10
342.3141343212
 20
91.6291411527
 11
359.8141343212
 21
91.6291411527
 72
1
 10
342.3141343212
 20
91.6291411527
 11
342.3141343212
 21
103.7542011589
 72
1
 10
347.8141343212
 20
103.7542011589
 11
342.3141343212
 21
103.7542011589
 72
1
 10
347.8141343212
 20
97.8542011589
 11
347.8141343212
 21
103.7542011589
 72
4
 94
3
 73
1
 74
0
 95
8
 96
4
 40
0.0
 40
0.0
 40
0.0
 40
0.0
 40
1.0
 40
1.0
 40
1.0
 40
1.0
 10
347.8141343212
 20
97.8542011589
 42
1.0
 10
347.8141343212
 20
96.6826282837
 42
0.8047378541
 10
348.6425614459
 20
95.8542011589
 42
0.8047378541
 10
349.8141343212
 20
95.8542011589
 42
1.0
 72
1
 10
349.8141343212
 20
95.8542011589
 11
363.8141343212
 21
95.8542011589
 72
4
 94
3
 73
1
 74
0
 95
8
 96
4
 40
0.0
 40
0.0
 40
0.0
 40
0.0
 40
1.0
 40
1.0
 40
1.0
 40
1.0
 10
366.8141343212
 20
92.8542011589
 42
1.0
 10
366.8141343212
 20
94.6115604718
 42
0.8047378541
 10
365.5714936341
 20
95.8542011589
 42
0.8047378541
 10
363.8141343212
 20
95.8542011589
 42
1.0
 72
1
 10
366.8141343212
 20
85.8291411527
 11
366.8141343212
 21
92.8542011589
 72
4
 94
3
 73
1
 74
0
 95
8
 96
4
 40
0.0
 40
0.0
 40
0.0
 40
0.0
 40
1.0
 40
1.0
 40
1.0
 40
1.0
 10
366.6141343212
 20
85.6291411527
 42
1.0
 10
366.7312916087
 20
85.6291411527
 42
0.8047378541
 10
366.8141343212
 20
85.7119838652
 42
0.8047378541
 10
366.8141343212
 20
85.8291411527
 42
1.0
 72
1
 10
366.6141343212
 20
85.6291411527
 11
362.0141343212
 21
85.6291411527
 72
4
 94
3
 73
1
 74
0
 95
8
 96
4
 40
0.0
 40
0.0
 40
0.0
 40
0.0
 40
1.0
 40
1.0
 40
1.0
 40
1.0
 10
362.0141343212
 20
85.6291411527
 42
1.0
 10
361.8969770337
 20
85.6291411527
 42
0.8047378541
 10
361.8141343212
 20
85.7119838652
 42
0.8047378541
 10
361.8141343212
 20
85.8291411527
 42
1.0
 97
0
 92
1
 93
13
 72
1
 10
361.8141343212
 20
229.0792611651
 11
361.8141343212
 21
232.8792611651
 72
4
 94
3
 73
1
 74
0
 95
8
 96
4
 40
0.0
 40
0.0
 40
0.0
 40
0.0
 40
1.0
 40
1.0
 40
1.0
 40
1.0
 10
361.8141343212
 20
232.8792611651
 42
1.0
 10
361.8141343212
 20
232.9964184527
 42
0.8047378541
 10
361.8969770337
 20
233.0792611651
 42
0.8047378541
 10
362.0141343212
 20
233.0792611651
 42
1.0
 72
1
 10
362.0141343212
 20
233.0792611651
 11
366.6141343212
 21
233.0792611651
 72
4
 94
3
 73
1
 74
0
 95
8
 96
4
 40
0.0
 40
0.0
 40
0.0
 40
0.0
 40
1.0
 40
1.0
 40
1.0
 40
1.0
 10
366.8141343212
 20
232.8792611651
 42
1.0
 10
366.8141343212
 20
232.9964184527
 42
0.8047378541
 10
366.7312916087
 20
233.0792611651
 42
0.8047378541
 10
366.6141343212
 20
233.0792611651
 42
1.0
 72
1
 10
366.8141343212
 20
225.8542011589
 11
366.8141343212
 21
232.8792611651
 72
4
 94
3
 73
1
 74
0
 95
8
 96
4
 40
0.0
 40
0.0
 40
0.0
 40
0.0
 40
1.0
 40
1.0
 40
1.0
 40
1.0
 10
366.8141343212
 20
225.8542011589
 42
1.0
 10
366.8141343212
 20
224.0968418461
 42
0.8047378541
 10
365.5714936341
 20
222.8542011589
 42
0.8047378541
 10
363.8141343212
 20
222.8542011589
 42
1.0
 72
1
 10
349.8141343212
 20
222.8542011589
 11
363.8141343212
 21
222.8542011589
 72
4
 94
3
 73
1
 74
0
 95
8
 96
4
 40
0.0
 40
0.0
 40
0.0
 40
0.0
 40
1.0
 40
1.0
 40
1.0
 40
1.0
 10
347.8141343212
 20
220.8542011589
 42
1.0
 10
347.8141343212
 20
222.0257740342
 42
0.8047378541
 10
348.6425614459
 20
222.8542011589
 42
0.8047378541
 10
349.8141343212
 20
222.8542011589
 42
1.0
 72
1
 10
347.8141343212
 20
214.9542011589
 11
347.8141343212
 21
220.8542011589
 72
1
 10
347.8141343212
 20
214.9542011589
 11
342.3141343212
 21
214.9542011589
 72
1
 10
342.3141343212
 20
214.9542011589
 11
342.3141343212
 21
227.0792611651
 72
1
 10
342.3141343212
 20
227.0792611651
 11
359.8141343212
 21
227.0792611651
 72
4
 94
3
 73
1
 74
0
 95
8
 96
4
 40
0.0
 40
0.0
 40
0.0
 40
0.0
 40
1.0
 40
1.0
 40
1.0
 40
1.0
 10
361.8141343212
 20
229.0792611651
 42
1.0
 10
361.8141343212
 20
227.9076882899
 42
0.8047378541
 10
360.9857071964
 20
227.0792611651
 42
0.8047378541
 10
359.8141343212
 20
227.0792611651
 42
1.0
 97
0
 92
1
 93
8
 72
1
 10
342.3141343212
 20
109.9542011589
 11
342.3141343212
 21
127.9542011589
 72
1
 10
366.8141343212
 20
127.9542011589
 11
342.3141343212
 21
127.9542011589
 72
1
 10
366.8141343212
 20
122.2542011589
 11
366.8141343212
 21
127.9542011589
 72
4
 94
3
 73
1
 74
0
 95
8
 96
4
 40
0.0
 40
0.0
 40
0.0
 40
0.0
 40
1.0
 40
1.0
 40
1.0
 40
1.0
 10
366.8141343212
 20
122.2542011589
 42
1.0
 10
366.8141343212
 20
122.0784652277
 42
0.8047378541
 10
366.6898702525
 20
121.9542011589
 42
0.8047378541
 10
366.5141343212
 20
121.9542011589
 42
1.0
 72
1
 10
349.8141343212
 20
121.9542011589
 11
366.5141343212
 21
121.9542011589
 72
4
 94
3
 73
1
 74
0
 95
8
 96
4
 40
0.0
 40
0.0
 40
0.0
 40
0.0
 40
1.0
 40
1.0
 40
1.0
 40
1.0
 10
347.8141343212
 20
119.9542011589
 42
1.0
 10
347.8141343212
 20
121.1257740342
 42
0.8047378541
 10
348.6425614459
 20
121.9542011589
 42
0.8047378541
 10
349.8141343212
 20
121.9542011589
 42
1.0
 72
1
 10
347.8141343212
 20
109.9542011589
 11
347.8141343212
 21
119.9542011589
 72
1
 10
347.8141343212
 20
109.9542011589
 11
342.3141343212
 21
109.9542011589
 97
0
 92
1
 93
8
 72
1
 10
342.3141343212
 20
190.7542011589
 11
342.3141343212
 21
208.7542011589
 72
1
 10
347.8141343212
 20
208.7542011589
 11
342.3141343212
 21
208.7542011589
 72
1
 10
347.8141343212
 20
198.7542011589
 11
347.8141343212
 21
208.7542011589
 72
4
 94
3
 73
1
 74
0
 95
8
 96
4
 40
0.0
 40
0.0
 40
0.0
 40
0.0
 40
1.0
 40
1.0
 40
1.0
 40
1.0
 10
347.8141343212
 20
198.7542011589
 42
1.0
 10
347.8141343212
 20
197.5826282837
 42
0.8047378541
 10
348.6425614459
 20
196.7542011589
 42
0.8047378541
 10
349.8141343212
 20
196.7542011589
 42
1.0
 72
1
 10
349.8141343212
 20
196.7542011589
 11
366.5141343212
 21
196.7542011589
 72
4
 94
3
 73
1
 74
0
 95
8
 96
4
 40
0.0
 40
0.0
 40
0.0
 40
0.0
 40
1.0
 40
1.0
 40
1.0
 40
1.0
 10
366.8141343212
 20
196.4542011589
 42
1.0
 10
366.8141343212
 20
196.6299370902
 42
0.8047378541
 10
366.6898702525
 20
196.7542011589
 42
0.8047378541
 10
366.5141343212
 20
196.7542011589
 42
1.0
 72
1
 10
366.8141343212
 20
190.7542011589
 11
366.8141343212
 21
196.4542011589
 72
1
 10
366.8141343212
 20
190.7542011589
 11
342.3141343212
 21
190.7542011589
 97
0
 75
0
 76
0
 52
45.0
 41
8.4
 77
0
 78
1
 53
45.0
 43
0.0
 44
0.0
 45
-5.939696962
 46
5.939696962
 79
0
 98
1
 10
0.0
 20
0.0
  0
LINE
  5
225
100
AcDbEntity
  8
0
100
AcDbLine
 62
7
  6
CONTINUOUS
 10
0.0
 20
0.0
 11
0.0
 21
297.0
  0
LINE
  5
226
100
AcDbEntity
  8
0
100
AcDbLine
 62
7
  6
CONTINUOUS
 10
0.0
 20
0.0
 11
420.0
 21
0.0
  0
LINE
  5
227
100
AcDbEntity
  8
0
100
AcDbLine
 62
7
  6
CONTINUOUS
 10
0.0
 20
297.0
 11
420.0
 21
297.0
  0
LINE
  5
228
100
AcDbEntity
  8
0
100
AcDbLine
 62
7
  6
CONTINUOUS
 10
420.0
 20
0.0
 11
420.0
 21
297.0
  0
LINE
  5
229
100
AcDbEntity
  8
RUNDUNGEN
100
AcDbLine
 62
9
  6
CONTINUOUS
 10
49.700399847
 20
176.5362858326
 11
49.6927897081
 21
176.7361409947
  0
LINE
  5
22A
100
AcDbEntity
  8
RUNDUNGEN
100
AcDbLine
 62
9
  6
CONTINUOUS
 10
49.700399847
 20
142.1721164852
 11
49.6927897244
 21
141.9722613226
  0
LINE
  5
22B
100
AcDbEntity
  8
RUNDUNGEN
100
AcDbLine
 62
9
  6
CONTINUOUS
 10
74.8502077038
 20
219.5752660891
 11
74.9615228889
 21
219.741425439
  0
LINE
  5
22C
100
AcDbEntity
  8
RUNDUNGEN
100
AcDbLine
 62
9
  6
CONTINUOUS
 10
54.6514557541
 20
191.7740690895
 11
54.5278271184
 21
191.6168559844
  0
LINE
  5
22D
100
AcDbEntity
  8
RUNDUNGEN
100
AcDbLine
 62
9
  6
CONTINUOUS
 10
120.4945075337
 20
239.611846381
 11
120.6822294256
 21
239.6808426947
  0
LINE
  5
22E
100
AcDbEntity
  8
RUNDUNGEN
100
AcDbLine
 62
9
  6
CONTINUOUS
 10
169.1987281943
 20
89.7156682628
 11
169.3911534063
 21
89.7701892477
  0
LINE
  5
22F
100
AcDbEntity
  8
RUNDUNGEN
100
AcDbLine
 62
9
  6
CONTINUOUS
 10
87.8122403487
 20
89.7156682628
 11
87.6198151323
 21
89.7701892321
  0
LINE
  5
230
100
AcDbEntity
  8
RUNDUNGEN
100
AcDbLine
 62
9
  6
CONTINUOUS
 10
120.4945075337
 20
79.0965559369
 11
120.6822294312
 21
79.0275596385
  0
LINE
  5
231
100
AcDbEntity
  8
RUNDUNGEN
100
AcDbLine
 62
9
  6
CONTINUOUS
 10
54.6514557541
 20
126.9343332284
 11
54.5278271056
 21
127.0915463234
  0
LINE
  5
232
100
AcDbEntity
  8
RUNDUNGEN
100
AcDbLine
 62
9
  6
CONTINUOUS
 10
74.8502077038
 20
99.1331362287
 11
74.9615229024
 21
98.9669768879
  0
LINE
  5
233
100
AcDbEntity
  8
RUNDUNGEN
100
AcDbLine
 62
7
  6
CONTINUOUS
 10
58.4505889373
 20
182.3267089154
 11
58.3269821395
 21
181.9462863089
  0
LINE
  5
234
100
AcDbEntity
  8
RUNDUNGEN
100
AcDbLine
 62
9
  6
CONTINUOUS
 10
58.6408002405
 20
182.2649055166
 11
58.5171934428
 21
181.88448291
  0
LINE
  5
235
100
AcDbEntity
  8
RUNDUNGEN
100
AcDbLine
 62
7
  6
CONTINUOUS
 10
85.3327846744
 20
219.1165846657
 11
85.0091778766
 21
218.8814705648
  0
LINE
  5
236
100
AcDbEntity
  8
RUNDUNGEN
100
AcDbLine
 62
9
  6
CONTINUOUS
 10
85.4503417248
 20
218.9547812668
 11
85.1267349271
 21
218.7196671659
  0
LINE
  5
237
100
AcDbEntity
  8
RUNDUNGEN
100
AcDbLine
 62
7
  6
CONTINUOUS
 10
128.3054842715
 20
85.6291411527
 11
128.7054842715
 21
85.6291411527
  0
LINE
  5
238
100
AcDbEntity
  8
RUNDUNGEN
100
AcDbLine
 62
9
  6
CONTINUOUS
 10
128.3054842715
 20
85.8291411527
 11
128.7054842715
 21
85.8291411527
  0
LINE
  5
239
100
AcDbEntity
  8
RUNDUNGEN
100
AcDbLine
 62
7
  6
CONTINUOUS
 10
85.0091778766
 20
99.8269317531
 11
85.3327846744
 21
99.5918176522
  0
LINE
  5
23A
100
AcDbEntity
  8
RUNDUNGEN
100
AcDbLine
 62
9
  6
CONTINUOUS
 10
85.1267349271
 20
99.988735152
 11
85.4503417248
 21
99.753621051
  0
LINE
  5
23B
100
AcDbEntity
  8
RUNDUNGEN
100
AcDbLine
 62
7
  6
CONTINUOUS
 10
58.3269821395
 20
136.762116009
 11
58.4505889373
 21
136.3816934025
  0
LINE
  5
23C
100
AcDbEntity
  8
RUNDUNGEN
100
AcDbLine
 62
9
  6
CONTINUOUS
 10
58.5171934428
 20
136.8239194078
 11
58.6408002405
 21
136.4434968013
  0
LINE
  5
23D
100
AcDbEntity
  8
RUNDUNGEN
100
AcDbLine
 62
9
  6
CONTINUOUS
 10
89.1054842715
 20
189.7542011589
 11
89.1054842715
 21
128.9542011589
  0
LINE
  5
23E
100
AcDbEntity
  8
RUNDUNGEN
100
AcDbLine
 62
9
  6
CONTINUOUS
 10
98.1054842715
 20
119.9542011589
 11
158.9054842715
 21
119.9542011589
  0
LINE
  5
23F
100
AcDbEntity
  8
RUNDUNGEN
100
AcDbLine
 62
7
  6
CONTINUOUS
 10
91.1054842715
 20
189.7542011589
 11
91.1054842715
 21
128.9542011589
  0
LINE
  5
240
100
AcDbEntity
  8
RUNDUNGEN
100
AcDbLine
 62
9
  6
CONTINUOUS
 10
91.4054842715
 20
189.7542011589
 11
91.4054842715
 21
128.9542011589
  0
LINE
  5
241
100
AcDbEntity
  8
0
100
AcDbLine
 62
7
  6
CONTINUOUS
 10
97.1054842715
 20
174.4542011589
 11
97.1054842715
 21
144.2542011589
  0
LINE
  5
242
100
AcDbEntity
  8
RUNDUNGEN
100
AcDbLine
 62
9
  6
CONTINUOUS
 10
98.1054842715
 20
198.7542011589
 11
98.1054842715
 21
196.4542011589
  0
LINE
  5
243
100
AcDbEntity
  8
RUNDUNGEN
100
AcDbLine
 62
9
  6
CONTINUOUS
 10
98.1054842715
 20
119.9542011589
 11
98.1054842715
 21
122.2542011589
  0
LINE
  5
244
100
AcDbEntity
  8
0
100
AcDbLine
 62
7
  6
CONTINUOUS
 10
98.3054842715
 20
188.1881757552
 11
98.3054842715
 21
175.6542011589
  0
LINE
  5
245
100
AcDbEntity
  8
0
100
AcDbLine
 62
7
  6
CONTINUOUS
 10
98.3054842715
 20
143.0542011589
 11
98.3054842715
 21
130.5202265627
  0
LINE
  5
246
100
AcDbEntity
  8
0
100
AcDbLine
 62
7
  6
CONTINUOUS
 10
113.4054842715
 20
190.7542011589
 11
112.2054842715
 21
189.5542011589
  0
LINE
  5
247
100
AcDbEntity
  8
0
100
AcDbLine
 62
7
  6
CONTINUOUS
 10
98.3054842715
 20
175.6542011589
 11
97.1054842715
 21
174.4542011589
  0
LINE
  5
248
100
AcDbEntity
  8
RUNDUNGEN
100
AcDbLine
 62
7
  6
CONTINUOUS
 10
98.1054842715
 20
121.9542011589
 11
158.9054842715
 21
121.9542011589
  0
LINE
  5
249
100
AcDbEntity
  8
RUNDUNGEN
100
AcDbLine
 62
9
  6
CONTINUOUS
 10
98.1054842715
 20
122.2542011589
 11
158.9054842715
 21
122.2542011589
  0
LINE
  5
24A
100
AcDbEntity
  8
0
100
AcDbLine
 62
7
  6
CONTINUOUS
 10
113.4054842715
 20
127.9542011589
 11
143.6054842715
 21
127.9542011589
  0
LINE
  5
24B
100
AcDbEntity
  8
RUNDUNGEN
100
AcDbLine
 62
9
  6
CONTINUOUS
 10
89.1054842715
 20
128.9542011589
 11
91.4054842715
 21
128.9542011589
  0
LINE
  5
24C
100
AcDbEntity
  8
RUNDUNGEN
100
AcDbLine
 62
9
  6
CONTINUOUS
 10
165.6054842715
 20
128.9542011589
 11
167.9054842715
 21
128.9542011589
  0
LINE
  5
24D
100
AcDbEntity
  8
0
100
AcDbLine
 62
7
  6
CONTINUOUS
 10
99.6715096753
 20
129.1542011589
 11
112.2054842715
 21
129.1542011589
  0
LINE
  5
24E
100
AcDbEntity
  8
0
100
AcDbLine
 62
7
  6
CONTINUOUS
 10
144.8054842715
 20
129.1542011589
 11
157.3394588677
 21
129.1542011589
  0
LINE
  5
24F
100
AcDbEntity
  8
0
100
AcDbLine
 62
7
  6
CONTINUOUS
 10
97.1054842715
 20
144.2542011589
 11
98.3054842715
 21
143.0542011589
  0
LINE
  5
250
100
AcDbEntity
  8
0
100
AcDbLine
 62
7
  6
CONTINUOUS
 10
112.2054842715
 20
129.1542011589
 11
113.4054842715
 21
127.9542011589
  0
LINE
  5
251
100
AcDbEntity
  8
RUNDUNGEN
100
AcDbLine
 62
7
  6
CONTINUOUS
 10
88.0005800938
 20
91.0387106606
 11
87.6198151323
 21
89.7701892321
  0
LINE
  5
252
100
AcDbEntity
  8
RUNDUNGEN
100
AcDbLine
 62
7
  6
CONTINUOUS
 10
136.3287391119
 20
239.6808426794
 11
135.8911662542
 21
238.4307792723
  0
LINE
  5
253
100
AcDbEntity
  8
RUNDUNGEN
100
AcDbLine
 62
7
  6
CONTINUOUS
 10
55.5814906181
 20
127.893993688
 11
54.5278271056
 21
127.0915463234
  0
LINE
  5
254
100
AcDbEntity
  8
RUNDUNGEN
100
AcDbLine
 62
7
  6
CONTINUOUS
 10
180.9606729274
 20
218.9873017622
 11
182.0494456541
 21
219.741425439
  0
LINE
  5
255
100
AcDbEntity
  8
RUNDUNGEN
100
AcDbLine
 62
7
  6
CONTINUOUS
 10
205.9940804203
 20
141.9423956418
 11
207.3181788349
 21
141.9722613232
  0
LINE
  5
256
100
AcDbEntity
  8
RUNDUNGEN
100
AcDbLine
 62
7
  6
CONTINUOUS
 10
51.0168881227
 20
141.9423956418
 11
49.6927897081
 21
141.9722613232
  0
LINE
  5
257
100
AcDbEntity
  8
RUNDUNGEN
100
AcDbLine
 62
7
  6
CONTINUOUS
 10
180.9606729274
 20
99.7211005557
 11
182.0494456541
 21
98.9669768788
  0
LINE
  5
258
100
AcDbEntity
  8
RUNDUNGEN
100
AcDbLine
 62
7
  6
CONTINUOUS
 10
87.6198151368
 20
228.9382130702
 11
88.0005800938
 21
227.6696916573
  0
LINE
  5
259
100
AcDbEntity
  8
RUNDUNGEN
100
AcDbLine
 62
9
  6
CONTINUOUS
 10
128.3054842715
 20
232.8792611651
 11
128.3054842898
 21
233.0792611651
  0
LINE
  5
25A
100
AcDbEntity
  8
RUNDUNGEN
100
AcDbLine
 62
9
  6
CONTINUOUS
 10
128.3054842715
 20
85.8291411527
 11
128.3054842715
 21
85.6291411527
  0
LINE
  5
25B
100
AcDbEntity
  8
DEFAULT_1
100
AcDbLine
 62
7
  6
CENTER
 10
128.5054842715
 20
159.3542011589
 11
128.5054842715
 21
59.8782848841
  0
LINE
  5
25C
100
AcDbEntity
  8
DEFAULT_1
100
AcDbLine
 62
7
  6
CENTER
 10
128.5054842715
 20
159.3542011589
 11
128.5054842715
 21
258.8301174338
  0
LINE
  5
25D
100
AcDbEntity
  8
RUNDUNGEN
100
AcDbLine
 62
9
  6
CONTINUOUS
 10
128.7054842715
 20
232.8792611651
 11
128.7054842715
 21
233.0792611651
  0
LINE
  5
25E
100
AcDbEntity
  8
RUNDUNGEN
100
AcDbLine
 62
9
  6
CONTINUOUS
 10
128.7054842715
 20
85.8291411527
 11
128.7054842533
 21
85.6291411527
  0
LINE
  5
25F
100
AcDbEntity
  8
RUNDUNGEN
100
AcDbLine
 62
9
  6
CONTINUOUS
 10
118.5873627625
 20
77.9307295508
 11
118.5631797016
 21
77.7321969853
  0
LINE
  5
260
100
AcDbEntity
  8
RUNDUNGEN
100
AcDbLine
 62
9
  6
CONTINUOUS
 10
138.4236057805
 20
240.7776727671
 11
138.4477888415
 21
240.9762053326
  0
LINE
  5
261
100
AcDbEntity
  8
RUNDUNGEN
100
AcDbLine
 62
9
  6
CONTINUOUS
 10
168.3410712202
 20
231.0568989844
 11
168.4382012128
 21
231.2317296582
  0
LINE
  5
262
100
AcDbEntity
  8
RUNDUNGEN
100
AcDbLine
 62
9
  6
CONTINUOUS
 10
88.6698973229
 20
87.6515033335
 11
88.5727673302
 21
87.4766726597
  0
LINE
  5
263
100
AcDbEntity
  8
RUNDUNGEN
100
AcDbLine
 62
9
  6
CONTINUOUS
 10
171.5606268182
 20
218.9547812668
 11
171.6781838834
 21
219.116584655
  0
LINE
  5
264
100
AcDbEntity
  8
RUNDUNGEN
100
AcDbLine
 62
9
  6
CONTINUOUS
 10
85.1267349271
 20
99.988735152
 11
85.0091778766
 21
99.8269317531
  0
LINE
  5
265
100
AcDbEntity
  8
RUNDUNGEN
100
AcDbLine
 62
9
  6
CONTINUOUS
 10
171.884233616
 20
218.7196671659
 11
172.0017906664
 21
218.8814705648
  0
LINE
  5
266
100
AcDbEntity
  8
RUNDUNGEN
100
AcDbLine
 62
9
  6
CONTINUOUS
 10
85.4503417248
 20
99.753621051
 11
85.3327846596
 21
99.5918176629
  0
LINE
  5
267
100
AcDbEntity
  8
RUNDUNGEN
100
AcDbLine
 62
9
  6
CONTINUOUS
 10
72.6220396168
 20
99.3109544404
 11
72.4857805954
 21
99.1645526675
  0
LINE
  5
268
100
AcDbEntity
  8
RUNDUNGEN
100
AcDbLine
 62
9
  6
CONTINUOUS
 10
184.3889289263
 20
219.3974478775
 11
184.5251879477
 21
219.5438496503
  0
LINE
  5
269
100
AcDbEntity
  8
RUNDUNGEN
100
AcDbLine
 62
9
  6
CONTINUOUS
 10
202.8789394252
 20
193.9481317174
 11
203.0602821317
 21
194.0324811265
  0
LINE
  5
26A
100
AcDbEntity
  8
RUNDUNGEN
100
AcDbLine
 62
9
  6
CONTINUOUS
 10
54.1320291178
 20
124.7602706005
 11
53.9506864113
 21
124.6759211914
  0
LINE
  5
26B
100
AcDbEntity
  8
RUNDUNGEN
100
AcDbLine
 62
9
  6
CONTINUOUS
 10
198.3701683025
 20
182.2649055166
 11
198.5603796114
 21
182.3267088981
  0
LINE
  5
26C
100
AcDbEntity
  8
RUNDUNGEN
100
AcDbLine
 62
9
  6
CONTINUOUS
 10
58.5171934428
 20
136.8239194078
 11
58.3269821395
 21
136.762116009
  0
LINE
  5
26D
100
AcDbEntity
  8
RUNDUNGEN
100
AcDbLine
 62
9
  6
CONTINUOUS
 10
198.4937751003
 20
181.88448291
 11
198.6839864035
 21
181.9462863089
  0
LINE
  5
26E
100
AcDbEntity
  8
RUNDUNGEN
100
AcDbLine
 62
9
  6
CONTINUOUS
 10
58.6408002405
 20
136.4434968013
 11
58.4505889316
 21
136.3816934198
  0
LINE
  5
26F
100
AcDbEntity
  8
RUNDUNGEN
100
AcDbLine
 62
9
  6
CONTINUOUS
 10
209.0086756224
 20
175.0827435363
 11
209.2049642893
 21
175.1210940153
  0
LINE
  5
270
100
AcDbEntity
  8
RUNDUNGEN
100
AcDbLine
 62
9
  6
CONTINUOUS
 10
48.0022929207
 20
143.6256587816
 11
47.8060042538
 21
143.5873083026
  0
LINE
  5
271
100
AcDbEntity
  8
DEFAULT_1
100
AcDbLine
 62
7
  6
CENTER
 10
128.5054842715
 20
159.3542011589
 11
29.0295679967
 21
159.3542011589
  0
LINE
  5
272
100
AcDbEntity
  8
DEFAULT_1
100
AcDbLine
 62
7
  6
CENTER
 10
128.5054842715
 20
159.3542011589
 11
227.9814005464
 21
159.3542011589
  0
LINE
  5
273
100
AcDbEntity
  8
RUNDUNGEN
100
AcDbLine
 62
9
  6
CONTINUOUS
 10
48.0022929207
 20
175.0827435363
 11
47.8060042507
 21
175.1210939994
  0
LINE
  5
274
100
AcDbEntity
  8
RUNDUNGEN
100
AcDbLine
 62
9
  6
CONTINUOUS
 10
209.0086756224
 20
143.6256587816
 11
209.2049642924
 21
143.5873083185
  0
LINE
  5
275
100
AcDbEntity
  8
RUNDUNGEN
100
AcDbLine
 62
9
  6
CONTINUOUS
 10
58.5171934428
 20
181.88448291
 11
58.3269821452
 21
181.9462863263
  0
LINE
  5
276
100
AcDbEntity
  8
RUNDUNGEN
100
AcDbLine
 62
9
  6
CONTINUOUS
 10
198.3701683025
 20
136.4434968013
 11
198.5603796058
 21
136.3816934025
  0
LINE
  5
277
100
AcDbEntity
  8
RUNDUNGEN
100
AcDbLine
 62
9
  6
CONTINUOUS
 10
58.6408002405
 20
182.2649055166
 11
58.4505889373
 21
182.3267089154
  0
LINE
  5
278
100
AcDbEntity
  8
RUNDUNGEN
100
AcDbLine
 62
9
  6
CONTINUOUS
 10
198.4937751003
 20
136.8239194078
 11
198.6839863979
 21
136.7621159916
  0
LINE
  5
279
100
AcDbEntity
  8
RUNDUNGEN
100
AcDbLine
 62
9
  6
CONTINUOUS
 10
202.8789394252
 20
124.7602706005
 11
203.0602821386
 21
124.6759212061
  0
LINE
  5
27A
100
AcDbEntity
  8
RUNDUNGEN
100
AcDbLine
 62
9
  6
CONTINUOUS
 10
54.1320291178
 20
193.9481317174
 11
53.9506864045
 21
194.0324811118
  0
LINE
  5
27B
100
AcDbEntity
  8
RUNDUNGEN
100
AcDbLine
 62
9
  6
CONTINUOUS
 10
72.6220396167
 20
219.3974478775
 11
72.4857805835
 21
219.5438496393
  0
LINE
  5
27C
100
AcDbEntity
  8
RUNDUNGEN
100
AcDbLine
 62
9
  6
CONTINUOUS
 10
184.3889289263
 20
99.3109544404
 11
184.5251879595
 21
99.1645526786
  0
LINE
  5
27D
100
AcDbEntity
  8
RUNDUNGEN
100
AcDbLine
 62
9
  6
CONTINUOUS
 10
85.1267349271
 20
218.7196671659
 11
85.0091778914
 21
218.8814705755
  0
LINE
  5
27E
100
AcDbEntity
  8
RUNDUNGEN
100
AcDbLine
 62
9
  6
CONTINUOUS
 10
171.5606268182
 20
99.753621051
 11
171.6781838687
 21
99.5918176522
  0
LINE
  5
27F
100
AcDbEntity
  8
RUNDUNGEN
100
AcDbLine
 62
9
  6
CONTINUOUS
 10
85.4503417248
 20
218.9547812668
 11
85.3327846744
 21
219.1165846657
  0
LINE
  5
280
100
AcDbEntity
  8
RUNDUNGEN
100
AcDbLine
 62
9
  6
CONTINUOUS
 10
171.884233616
 20
99.988735152
 11
172.0017906516
 21
99.8269317423
  0
LINE
  5
281
100
AcDbEntity
  8
RUNDUNGEN
100
AcDbLine
 62
9
  6
CONTINUOUS
 10
168.3410712202
 20
87.6515033335
 11
168.438201227
 21
87.4766726675
  0
LINE
  5
282
100
AcDbEntity
  8
RUNDUNGEN
100
AcDbLine
 62
9
  6
CONTINUOUS
 10
88.6698973229
 20
231.0568989844
 11
88.572767316
 21
231.2317296503
  0
LINE
  5
283
100
AcDbEntity
  8
RUNDUNGEN
100
AcDbLine
 62
9
  6
CONTINUOUS
 10
118.5873627625
 20
240.7776727671
 11
118.5631796855
 21
240.9762053306
  0
LINE
  5
284
100
AcDbEntity
  8
RUNDUNGEN
100
AcDbLine
 62
9
  6
CONTINUOUS
 10
138.4236057805
 20
77.9307295508
 11
138.4477888575
 21
77.7321969873
  0
LINE
  5
285
100
AcDbEntity
  8
RUNDUNGEN
100
AcDbLine
 62
7
  6
CONTINUOUS
 10
169.0103884493
 20
227.6696916573
 11
169.3911534107
 21
228.9382130858
  0
LINE
  5
286
100
AcDbEntity
  8
RUNDUNGEN
100
AcDbLine
 62
7
  6
CONTINUOUS
 10
201.4294779249
 20
190.8144086299
 11
202.4831414375
 21
191.6168559944
  0
LINE
  5
287
100
AcDbEntity
  8
RUNDUNGEN
100
AcDbLine
 62
7
  6
CONTINUOUS
 10
76.0502956157
 20
99.7211005557
 11
74.9615228889
 21
98.9669768788
  0
LINE
  5
288
100
AcDbEntity
  8
RUNDUNGEN
100
AcDbLine
 62
7
  6
CONTINUOUS
 10
51.0168881227
 20
176.7660066761
 11
49.6927897081
 21
176.7361409947
  0
LINE
  5
289
100
AcDbEntity
  8
RUNDUNGEN
100
AcDbLine
 62
7
  6
CONTINUOUS
 10
76.0502956157
 20
218.9873017622
 11
74.9615228889
 21
219.741425439
  0
LINE
  5
28A
100
AcDbEntity
  8
RUNDUNGEN
100
AcDbLine
 62
7
  6
CONTINUOUS
 10
121.1198022888
 20
238.4307792723
 11
120.6822294256
 21
239.6808426947
  0
LINE
  5
28B
100
AcDbEntity
  8
RUNDUNGEN
100
AcDbLine
 62
7
  6
CONTINUOUS
 10
169.0103884493
 20
91.0387106606
 11
169.3911534107
 21
89.7701892321
  0
LINE
  5
28C
100
AcDbEntity
  8
0
100
AcDbLine
 62
7
  6
CONTINUOUS
 10
158.7054842715
 20
130.5202265627
 11
158.7054842715
 21
143.0542011589
  0
LINE
  5
28D
100
AcDbEntity
  8
0
100
AcDbLine
 62
7
  6
CONTINUOUS
 10
158.7054842715
 20
175.6542011589
 11
158.7054842715
 21
188.1881757552
  0
LINE
  5
28E
100
AcDbEntity
  8
RUNDUNGEN
100
AcDbLine
 62
9
  6
CONTINUOUS
 10
158.9054842715
 20
196.4542011589
 11
158.9054842715
 21
198.7542011589
  0
LINE
  5
28F
100
AcDbEntity
  8
RUNDUNGEN
100
AcDbLine
 62
9
  6
CONTINUOUS
 10
158.9054842715
 20
122.2542011589
 11
158.9054842715
 21
119.9542011589
  0
LINE
  5
290
100
AcDbEntity
  8
0
100
AcDbLine
 62
7
  6
CONTINUOUS
 10
159.9054842715
 20
144.2542011589
 11
159.9054842715
 21
174.4542011589
  0
LINE
  5
291
100
AcDbEntity
  8
0
100
AcDbLine
 62
7
  6
CONTINUOUS
 10
157.3394588677
 20
189.5542011589
 11
144.8054842715
 21
189.5542011589
  0
LINE
  5
292
100
AcDbEntity
  8
0
100
AcDbLine
 62
7
  6
CONTINUOUS
 10
112.2054842715
 20
189.5542011589
 11
99.6715096753
 21
189.5542011589
  0
LINE
  5
293
100
AcDbEntity
  8
RUNDUNGEN
100
AcDbLine
 62
9
  6
CONTINUOUS
 10
89.1054842715
 20
189.7542011589
 11
91.4054842715
 21
189.7542011589
  0
LINE
  5
294
100
AcDbEntity
  8
RUNDUNGEN
100
AcDbLine
 62
9
  6
CONTINUOUS
 10
165.6054842715
 20
189.7542011589
 11
167.9054842715
 21
189.7542011589
  0
LINE
  5
295
100
AcDbEntity
  8
0
100
AcDbLine
 62
7
  6
CONTINUOUS
 10
143.6054842715
 20
190.7542011589
 11
113.4054842715
 21
190.7542011589
  0
LINE
  5
296
100
AcDbEntity
  8
RUNDUNGEN
100
AcDbLine
 62
9
  6
CONTINUOUS
 10
165.6054842715
 20
128.9542011589
 11
165.6054842715
 21
189.7542011589
  0
LINE
  5
297
100
AcDbEntity
  8
RUNDUNGEN
100
AcDbLine
 62
7
  6
CONTINUOUS
 10
165.9054842715
 20
128.9542011589
 11
165.9054842715
 21
189.7542011589
  0
LINE
  5
298
100
AcDbEntity
  8
RUNDUNGEN
100
AcDbLine
 62
9
  6
CONTINUOUS
 10
167.9054842715
 20
128.9542011589
 11
167.9054842715
 21
189.7542011589
  0
LINE
  5
299
100
AcDbEntity
  8
0
100
AcDbLine
 62
7
  6
CONTINUOUS
 10
143.6054842715
 20
127.9542011589
 11
144.8054842715
 21
129.1542011589
  0
LINE
  5
29A
100
AcDbEntity
  8
0
100
AcDbLine
 62
7
  6
CONTINUOUS
 10
158.7054842715
 20
143.0542011589
 11
159.9054842715
 21
144.2542011589
  0
LINE
  5
29B
100
AcDbEntity
  8
RUNDUNGEN
100
AcDbLine
 62
9
  6
CONTINUOUS
 10
158.9054842715
 20
196.4542011589
 11
98.1054842715
 21
196.4542011589
  0
LINE
  5
29C
100
AcDbEntity
  8
RUNDUNGEN
100
AcDbLine
 62
7
  6
CONTINUOUS
 10
158.9054842715
 20
196.7542011589
 11
98.1054842715
 21
196.7542011589
  0
LINE
  5
29D
100
AcDbEntity
  8
RUNDUNGEN
100
AcDbLine
 62
9
  6
CONTINUOUS
 10
158.9054842715
 20
198.7542011589
 11
98.1054842715
 21
198.7542011589
  0
LINE
  5
29E
100
AcDbEntity
  8
0
100
AcDbLine
 62
7
  6
CONTINUOUS
 10
159.9054842715
 20
174.4542011589
 11
158.7054842715
 21
175.6542011589
  0
LINE
  5
29F
100
AcDbEntity
  8
0
100
AcDbLine
 62
7
  6
CONTINUOUS
 10
144.8054842715
 20
189.5542011589
 11
143.6054842715
 21
190.7542011589
  0
LINE
  5
2A0
100
AcDbEntity
  8
RUNDUNGEN
100
AcDbLine
 62
9
  6
CONTINUOUS
 10
207.310568696
 20
142.1721164852
 11
207.3181788349
 21
141.9722613232
  0
LINE
  5
2A1
100
AcDbEntity
  8
RUNDUNGEN
100
AcDbLine
 62
9
  6
CONTINUOUS
 10
207.310568696
 20
176.5362858326
 11
207.3181788187
 21
176.7361409953
  0
LINE
  5
2A2
100
AcDbEntity
  8
RUNDUNGEN
100
AcDbLine
 62
9
  6
CONTINUOUS
 10
198.3701683025
 20
136.4434968013
 11
198.4937751003
 21
136.8239194078
  0
LINE
  5
2A3
100
AcDbEntity
  8
RUNDUNGEN
100
AcDbLine
 62
7
  6
CONTINUOUS
 10
198.5603796058
 20
136.3816934025
 11
198.6839864035
 21
136.762116009
  0
LINE
  5
2A4
100
AcDbEntity
  8
RUNDUNGEN
100
AcDbLine
 62
9
  6
CONTINUOUS
 10
182.1607608393
 20
99.1331362287
 11
182.0494456541
 21
98.9669768788
  0
LINE
  5
2A5
100
AcDbEntity
  8
RUNDUNGEN
100
AcDbLine
 62
9
  6
CONTINUOUS
 10
202.3595127889
 20
126.9343332284
 11
202.4831414247
 21
127.0915463335
  0
LINE
  5
2A6
100
AcDbEntity
  8
RUNDUNGEN
100
AcDbLine
 62
9
  6
CONTINUOUS
 10
171.5606268182
 20
99.753621051
 11
171.884233616
 21
99.988735152
  0
LINE
  5
2A7
100
AcDbEntity
  8
RUNDUNGEN
100
AcDbLine
 62
7
  6
CONTINUOUS
 10
171.6781838687
 20
99.5918176522
 11
172.0017906664
 21
99.8269317531
  0
LINE
  5
2A8
100
AcDbEntity
  8
RUNDUNGEN
100
AcDbLine
 62
9
  6
CONTINUOUS
 10
136.5164610094
 20
79.0965559369
 11
136.3287391175
 21
79.0275596232
  0
LINE
  5
2A9
100
AcDbEntity
  8
RUNDUNGEN
100
AcDbLine
 62
9
  6
CONTINUOUS
 10
87.8122403487
 20
228.9927340551
 11
87.6198151368
 21
228.9382130702
  0
LINE
  5
2AA
100
AcDbEntity
  8
RUNDUNGEN
100
AcDbLine
 62
9
  6
CONTINUOUS
 10
128.7054842715
 20
232.8792611651
 11
128.3054842715
 21
232.8792611651
  0
LINE
  5
2AB
100
AcDbEntity
  8
RUNDUNGEN
100
AcDbLine
 62
7
  6
CONTINUOUS
 10
128.7054842715
 20
233.0792611651
 11
128.3054842715
 21
233.0792611651
  0
LINE
  5
2AC
100
AcDbEntity
  8
RUNDUNGEN
100
AcDbLine
 62
9
  6
CONTINUOUS
 10
169.1987281943
 20
228.9927340551
 11
169.3911534107
 21
228.9382130858
  0
LINE
  5
2AD
100
AcDbEntity
  8
RUNDUNGEN
100
AcDbLine
 62
9
  6
CONTINUOUS
 10
136.5164610094
 20
239.611846381
 11
136.3287391119
 21
239.6808426794
  0
LINE
  5
2AE
100
AcDbEntity
  8
RUNDUNGEN
100
AcDbLine
 62
9
  6
CONTINUOUS
 10
171.884233616
 20
218.7196671659
 11
171.5606268182
 21
218.9547812668
  0
LINE
  5
2AF
100
AcDbEntity
  8
RUNDUNGEN
100
AcDbLine
 62
7
  6
CONTINUOUS
 10
172.0017906664
 20
218.8814705648
 11
171.6781838687
 21
219.1165846657
  0
LINE
  5
2B0
100
AcDbEntity
  8
RUNDUNGEN
100
AcDbLine
 62
9
  6
CONTINUOUS
 10
202.3595127889
 20
191.7740690895
 11
202.4831414375
 21
191.6168559944
  0
LINE
  5
2B1
100
AcDbEntity
  8
RUNDUNGEN
100
AcDbLine
 62
9
  6
CONTINUOUS
 10
182.1607608392
 20
219.5752660891
 11
182.0494456406
 21
219.74142543
  0
LINE
  5
2B2
100
AcDbEntity
  8
RUNDUNGEN
100
AcDbLine
 62
9
  6
CONTINUOUS
 10
198.4937751003
 20
181.88448291
 11
198.3701683025
 21
182.2649055166
  0
LINE
  5
2B3
100
AcDbEntity
  8
RUNDUNGEN
100
AcDbLine
 62
7
  6
CONTINUOUS
 10
198.6839864035
 20
181.9462863089
 11
198.5603796058
 21
182.3267089154
  0
LINE
  5
2B4
100
AcDbEntity
  8
0
100
AcDbLine
 62
7
  6
CONTINUOUS
 10
322.6141343212
 20
77.7175226226
 11
318.0141343212
 21
77.7175226226
  0
LINE
  5
2B5
100
AcDbEntity
  8
0
100
AcDbLine
 62
7
  6
CONTINUOUS
 10
362.0141343212
 20
77.7175226226
 11
366.6141343212
 21
77.7175226226
  0
LINE
  5
2B6
100
AcDbEntity
  8
RUNDUNGEN
100
AcDbLine
 62
9
  6
CONTINUOUS
 10
322.6141343212
 20
79.0275596385
 11
318.0141343212
 21
79.0275596385
  0
LINE
  5
2B7
100
AcDbEntity
  8
RUNDUNGEN
100
AcDbLine
 62
9
  6
CONTINUOUS
 10
362.0141343212
 20
79.0275596385
 11
366.6141343212
 21
79.0275596385
  0
LINE
  5
2B8
100
AcDbEntity
  8
RUNDUNGEN
100
AcDbLine
 62
7
  6
CONTINUOUS
 10
322.6141343212
 20
80.2776230455
 11
318.0141343212
 21
80.2776230455
  0
LINE
  5
2B9
100
AcDbEntity
  8
RUNDUNGEN
100
AcDbLine
 62
7
  6
CONTINUOUS
 10
362.0141343212
 20
80.2776230455
 11
366.6141343212
 21
80.2776230455
  0
LINE
  5
2BA
100
AcDbEntity
  8
0
100
AcDbLine
 62
7
  6
CONTINUOUS
 10
366.6141343212
 20
85.6291411527
 11
362.0141343212
 21
85.6291411527
  0
LINE
  5
2BB
100
AcDbEntity
  8
0
100
AcDbLine
 62
7
  6
CONTINUOUS
 10
318.0141343212
 20
85.6291411527
 11
322.6141343212
 21
85.6291411527
  0
LINE
  5
2BC
100
AcDbEntity
  8
0
100
AcDbLine
 62
7
  6
CONTINUOUS
 10
324.8141343212
 20
91.6291411527
 11
359.8141343212
 21
91.6291411527
  0
LINE
  5
2BD
100
AcDbEntity
  8
0
100
AcDbLine
 62
7
  6
CONTINUOUS
 10
334.8141343212
 20
95.8542011589
 11
320.8141343212
 21
95.8542011589
  0
LINE
  5
2BE
100
AcDbEntity
  8
0
100
AcDbLine
 62
7
  6
CONTINUOUS
 10
349.8141343212
 20
95.8542011589
 11
363.8141343212
 21
95.8542011589
  0
LINE
  5
2BF
100
AcDbEntity
  8
0
100
AcDbLine
 62
7
  6
CONTINUOUS
 10
336.8141343212
 20
103.7542011589
 11
347.8141343212
 21
103.7542011589
  0
LINE
  5
2C0
100
AcDbEntity
  8
0
100
AcDbLine
 62
7
  6
CONTINUOUS
 10
336.8141343212
 20
109.9542011589
 11
347.8141343212
 21
109.9542011589
  0
LINE
  5
2C1
100
AcDbEntity
  8
0
100
AcDbLine
 62
7
  6
CONTINUOUS
 10
334.8141343212
 20
121.9542011589
 11
318.1141343212
 21
121.9542011589
  0
LINE
  5
2C2
100
AcDbEntity
  8
0
100
AcDbLine
 62
7
  6
CONTINUOUS
 10
349.8141343212
 20
121.9542011589
 11
366.5141343212
 21
121.9542011589
  0
LINE
  5
2C3
100
AcDbEntity
  8
0
100
AcDbLine
 62
7
  6
CONTINUOUS
 10
317.8141343212
 20
127.9542011589
 11
366.8141343212
 21
127.9542011589
  0
LINE
  5
2C4
100
AcDbEntity
  8
0
100
AcDbLine
 62
7
  6
CONTINUOUS
 10
317.8141343212
 20
129.1542011589
 11
366.8141343212
 21
129.1542011589
  0
LINE
  5
2C5
100
AcDbEntity
  8
0
100
AcDbLine
 62
7
  6
CONTINUOUS
 10
317.8141343212
 20
130.5202265627
 11
366.8141343212
 21
130.5202265627
  0
LINE
  5
2C6
100
AcDbEntity
  8
0
100
AcDbLine
 62
7
  6
CONTINUOUS
 10
317.8141343212
 20
77.9194484073
 11
317.8141343212
 21
79.0965559369
  0
LINE
  5
2C7
100
AcDbEntity
  8
RUNDUNGEN
100
AcDbLine
 62
7
  6
CONTINUOUS
 10
317.8141343212
 20
77.9177563044
 11
317.8141343212
 21
85.8142392497
  0
LINE
  5
2C8
100
AcDbEntity
  8
0
100
AcDbLine
 62
7
  6
CONTINUOUS
 10
317.8141343212
 20
85.8291411527
 11
317.8141343212
 21
232.8792611651
  0
LINE
  5
2C9
100
AcDbEntity
  8
RUNDUNGEN
100
AcDbLine
 62
7
  6
CONTINUOUS
 10
317.8141343212
 20
233.2102677034
 11
317.8141343212
 21
240.790644513
  0
LINE
  5
2CA
100
AcDbEntity
  8
0
100
AcDbLine
 62
7
  6
CONTINUOUS
 10
317.8141343212
 20
238.3705252792
 11
317.8141343212
 21
240.7889539106
  0
LINE
  5
2CB
100
AcDbEntity
  8
RUNDUNGEN
100
AcDbLine
 62
9
  6
CONTINUOUS
 10
318.0141343212
 20
77.7175226226
 11
318.0141343212
 21
85.6291411527
  0
LINE
  5
2CC
100
AcDbEntity
  8
RUNDUNGEN
100
AcDbLine
 62
9
  6
CONTINUOUS
 10
318.0141343212
 20
233.0961278356
 11
318.0141343212
 21
240.9887399371
  0
LINE
  5
2CD
100
AcDbEntity
  8
0
100
AcDbLine
 62
9
  6
CONTINUOUS
 10
320.8141343212
 20
222.8542011589
 11
320.8141343212
 21
196.7542011589
  0
LINE
  5
2CE
100
AcDbEntity
  8
0
100
AcDbLine
 62
9
  6
CONTINUOUS
 10
320.8141343212
 20
121.9542011589
 11
320.8141343212
 21
95.8542011589
  0
LINE
  5
2CF
100
AcDbEntity
  8
RUNDUNGEN
100
AcDbLine
 62
9
  6
CONTINUOUS
 10
322.6141343212
 20
240.9908796952
 11
322.6141343212
 21
233.0792611651
  0
LINE
  5
2D0
100
AcDbEntity
  8
RUNDUNGEN
100
AcDbLine
 62
9
  6
CONTINUOUS
 10
322.6141343212
 20
85.6101724652
 11
322.6141343212
 21
77.719662383
  0
LINE
  5
2D1
100
AcDbEntity
  8
RUNDUNGEN
100
AcDbLine
 62
7
  6
CONTINUOUS
 10
322.8141343212
 20
240.790644488
 11
322.8141343212
 21
232.8943251569
  0
LINE
  5
2D2
100
AcDbEntity
  8
RUNDUNGEN
100
AcDbLine
 62
7
  6
CONTINUOUS
 10
322.8141343212
 20
85.4609430157
 11
322.8141343212
 21
77.9177559526
  0
LINE
  5
2D3
100
AcDbEntity
  8
0
100
AcDbLine
 62
7
  6
CONTINUOUS
 10
322.8141343212
 20
77.9194484073
 11
322.8141343212
 21
80.3378770387
  0
LINE
  5
2D4
100
AcDbEntity
  8
0
100
AcDbLine
 62
7
  6
CONTINUOUS
 10
322.8141343212
 20
85.8291411527
 11
322.8141343212
 21
89.6291411527
  0
LINE
  5
2D5
100
AcDbEntity
  8
0
100
AcDbLine
 62
7
  6
CONTINUOUS
 10
322.8141343212
 20
229.0792611651
 11
322.8141343212
 21
232.8792611651
  0
LINE
  5
2D6
100
AcDbEntity
  8
0
100
AcDbLine
 62
7
  6
CONTINUOUS
 10
322.8141343212
 20
239.611846381
 11
322.8141343212
 21
240.7889539106
  0
LINE
  5
2D7
100
AcDbEntity
  8
0
100
AcDbLine
 62
7
  6
CONTINUOUS
 10
317.8141343212
 20
143.0542011589
 11
366.8141343212
 21
143.0542011589
  0
LINE
  5
2D8
100
AcDbEntity
  8
0
100
AcDbLine
 62
7
  6
CONTINUOUS
 10
317.8141343212
 20
144.2542011589
 11
366.8141343212
 21
144.2542011589
  0
LINE
  5
2D9
100
AcDbEntity
  8
0
100
AcDbLine
 62
9
  6
CONTINUOUS
 10
334.8141343212
 20
222.8542011589
 11
334.8141343212
 21
196.7542011589
  0
LINE
  5
2DA
100
AcDbEntity
  8
0
100
AcDbLine
 62
9
  6
CONTINUOUS
 10
334.8141343212
 20
121.9542011589
 11
334.8141343212
 21
95.8542011589
  0
LINE
  5
2DB
100
AcDbEntity
  8
0
100
AcDbLine
 62
7
  6
CONTINUOUS
 10
336.8141343212
 20
97.8542011589
 11
336.8141343212
 21
119.9542011589
  0
LINE
  5
2DC
100
AcDbEntity
  8
0
100
AcDbLine
 62
7
  6
CONTINUOUS
 10
336.8141343212
 20
198.7542011589
 11
336.8141343212
 21
220.8542011589
  0
LINE
  5
2DD
100
AcDbEntity
  8
0
100
AcDbLine
 62
7
  6
CONTINUOUS
 10
342.3141343212
 20
91.6291411527
 11
342.3141343212
 21
227.0792611651
  0
LINE
  5
2DE
100
AcDbEntity
  8
02___PRT_ALL_AXES
100
AcDbLine
 62
7
  6
CENTER
 10
314.8141343212
 20
159.3542011589
 11
369.8141343212
 21
159.3542011589
  0
LINE
  5
2DF
100
AcDbEntity
  8
0
100
AcDbLine
 62
7
  6
CONTINUOUS
 10
347.8141343212
 20
97.8542011589
 11
347.8141343212
 21
119.9542011589
  0
LINE
  5
2E0
100
AcDbEntity
  8
0
100
AcDbLine
 62
7
  6
CONTINUOUS
 10
347.8141343212
 20
198.7542011589
 11
347.8141343212
 21
220.8542011589
  0
LINE
  5
2E1
100
AcDbEntity
  8
0
100
AcDbLine
 62
9
  6
CONTINUOUS
 10
349.8141343212
 20
95.8542011589
 11
349.8141343212
 21
121.9542011589
  0
LINE
  5
2E2
100
AcDbEntity
  8
0
100
AcDbLine
 62
9
  6
CONTINUOUS
 10
349.8141343212
 20
196.7542011589
 11
349.8141343212
 21
222.8542011589
  0
LINE
  5
2E3
100
AcDbEntity
  8
0
100
AcDbLine
 62
7
  6
CONTINUOUS
 10
317.8141343212
 20
174.4542011589
 11
366.8141343212
 21
174.4542011589
  0
LINE
  5
2E4
100
AcDbEntity
  8
0
100
AcDbLine
 62
7
  6
CONTINUOUS
 10
317.8141343212
 20
175.6542011589
 11
366.8141343212
 21
175.6542011589
  0
LINE
  5
2E5
100
AcDbEntity
  8
0
100
AcDbLine
 62
7
  6
CONTINUOUS
 10
361.8141343212
 20
240.7889539106
 11
361.8141343212
 21
239.611846381
  0
LINE
  5
2E6
100
AcDbEntity
  8
0
100
AcDbLine
 62
7
  6
CONTINUOUS
 10
361.8141343212
 20
79.0965559369
 11
361.8141343212
 21
77.9194484073
  0
LINE
  5
2E7
100
AcDbEntity
  8
RUNDUNGEN
100
AcDbLine
 62
7
  6
CONTINUOUS
 10
361.8141343212
 20
77.9177578299
 11
361.8141343212
 21
85.8140771609
  0
LINE
  5
2E8
100
AcDbEntity
  8
0
100
AcDbLine
 62
7
  6
CONTINUOUS
 10
361.8141343212
 20
85.8291411527
 11
361.8141343212
 21
89.6291411527
  0
LINE
  5
2E9
100
AcDbEntity
  8
0
100
AcDbLine
 62
7
  6
CONTINUOUS
 10
361.8141343212
 20
229.0792611651
 11
361.8141343212
 21
232.8792611651
  0
LINE
  5
2EA
100
AcDbEntity
  8
RUNDUNGEN
100
AcDbLine
 62
7
  6
CONTINUOUS
 10
361.8141343212
 20
233.2474593021
 11
361.8141343212
 21
240.7906463653
  0
LINE
  5
2EB
100
AcDbEntity
  8
RUNDUNGEN
100
AcDbLine
 62
9
  6
CONTINUOUS
 10
362.0141343212
 20
77.7175226226
 11
362.0141343212
 21
85.6291411527
  0
LINE
  5
2EC
100
AcDbEntity
  8
RUNDUNGEN
100
AcDbLine
 62
9
  6
CONTINUOUS
 10
362.0141343212
 20
233.0982298527
 11
362.0141343212
 21
240.9887399348
  0
LINE
  5
2ED
100
AcDbEntity
  8
0
100
AcDbLine
 62
9
  6
CONTINUOUS
 10
363.8141343212
 20
95.8542011589
 11
363.8141343212
 21
121.9542011589
  0
LINE
  5
2EE
100
AcDbEntity
  8
0
100
AcDbLine
 62
9
  6
CONTINUOUS
 10
363.8141343212
 20
196.7542011589
 11
363.8141343212
 21
222.8542011589
  0
LINE
  5
2EF
100
AcDbEntity
  8
RUNDUNGEN
100
AcDbLine
 62
9
  6
CONTINUOUS
 10
366.6141343212
 20
240.9908796952
 11
366.6141343212
 21
233.0792611651
  0
LINE
  5
2F0
100
AcDbEntity
  8
RUNDUNGEN
100
AcDbLine
 62
9
  6
CONTINUOUS
 10
366.6141343212
 20
85.6122744822
 11
366.6141343212
 21
77.7196623808
  0
LINE
  5
2F1
100
AcDbEntity
  8
0
100
AcDbLine
 62
7
  6
CONTINUOUS
 10
366.8141343212
 20
240.7889539106
 11
366.8141343212
 21
239.611846381
  0
LINE
  5
2F2
100
AcDbEntity
  8
RUNDUNGEN
100
AcDbLine
 62
7
  6
CONTINUOUS
 10
366.8141343212
 20
240.7906460134
 11
366.8141343212
 21
232.8941630681
  0
LINE
  5
2F3
100
AcDbEntity
  8
RUNDUNGEN
100
AcDbLine
 62
7
  6
CONTINUOUS
 10
366.8141343212
 20
85.4981346145
 11
366.8141343212
 21
77.9177578049
  0
LINE
  5
2F4
100
AcDbEntity
  8
0
100
AcDbLine
 62
7
  6
CONTINUOUS
 10
366.8141343212
 20
79.0965559369
 11
366.8141343212
 21
77.9194484073
  0
LINE
  5
2F5
100
AcDbEntity
  8
0
100
AcDbLine
 62
7
  6
CONTINUOUS
 10
366.8141343212
 20
85.8291411527
 11
366.8141343212
 21
232.8792611651
  0
LINE
  5
2F6
100
AcDbEntity
  8
0
100
AcDbLine
 62
7
  6
CONTINUOUS
 10
317.8141343212
 20
188.1881757552
 11
366.8141343212
 21
188.1881757552
  0
LINE
  5
2F7
100
AcDbEntity
  8
0
100
AcDbLine
 62
7
  6
CONTINUOUS
 10
317.8141343212
 20
189.5542011589
 11
366.8141343212
 21
189.5542011589
  0
LINE
  5
2F8
100
AcDbEntity
  8
0
100
AcDbLine
 62
7
  6
CONTINUOUS
 10
317.8141343212
 20
190.7542011589
 11
366.8141343212
 21
190.7542011589
  0
LINE
  5
2F9
100
AcDbEntity
  8
0
100
AcDbLine
 62
7
  6
CONTINUOUS
 10
334.8141343212
 20
196.7542011589
 11
318.1141343212
 21
196.7542011589
  0
LINE
  5
2FA
100
AcDbEntity
  8
0
100
AcDbLine
 62
7
  6
CONTINUOUS
 10
349.8141343212
 20
196.7542011589
 11
366.5141343212
 21
196.7542011589
  0
LINE
  5
2FB
100
AcDbEntity
  8
0
100
AcDbLine
 62
7
  6
CONTINUOUS
 10
336.8141343212
 20
208.7542011589
 11
347.8141343212
 21
208.7542011589
  0
LINE
  5
2FC
100
AcDbEntity
  8
0
100
AcDbLine
 62
7
  6
CONTINUOUS
 10
336.8141343212
 20
214.9542011589
 11
347.8141343212
 21
214.9542011589
  0
LINE
  5
2FD
100
AcDbEntity
  8
0
100
AcDbLine
 62
7
  6
CONTINUOUS
 10
334.8141343212
 20
222.8542011589
 11
320.8141343212
 21
222.8542011589
  0
LINE
  5
2FE
100
AcDbEntity
  8
0
100
AcDbLine
 62
7
  6
CONTINUOUS
 10
349.8141343212
 20
222.8542011589
 11
363.8141343212
 21
222.8542011589
  0
LINE
  5
2FF
100
AcDbEntity
  8
0
100
AcDbLine
 62
7
  6
CONTINUOUS
 10
324.8141343212
 20
227.0792611651
 11
359.8141343212
 21
227.0792611651
  0
LINE
  5
300
100
AcDbEntity
  8
0
100
AcDbLine
 62
7
  6
CONTINUOUS
 10
322.6141343212
 20
233.0792611651
 11
318.0141343212
 21
233.0792611651
  0
LINE
  5
301
100
AcDbEntity
  8
0
100
AcDbLine
 62
7
  6
CONTINUOUS
 10
362.0141343212
 20
233.0792611651
 11
366.6141343212
 21
233.0792611651
  0
LINE
  5
302
100
AcDbEntity
  8
RUNDUNGEN
100
AcDbLine
 62
7
  6
CONTINUOUS
 10
322.6141343212
 20
238.4307792723
 11
318.0141343212
 21
238.4307792723
  0
LINE
  5
303
100
AcDbEntity
  8
RUNDUNGEN
100
AcDbLine
 62
7
  6
CONTINUOUS
 10
362.0141343212
 20
238.4307792723
 11
366.6141343212
 21
238.4307792723
  0
LINE
  5
304
100
AcDbEntity
  8
RUNDUNGEN
100
AcDbLine
 62
9
  6
CONTINUOUS
 10
322.6141343212
 20
239.6808426794
 11
318.0141343212
 21
239.6808426794
  0
LINE
  5
305
100
AcDbEntity
  8
RUNDUNGEN
100
AcDbLine
 62
9
  6
CONTINUOUS
 10
362.0141343212
 20
239.6808426794
 11
366.6141343212
 21
239.6808426794
  0
LINE
  5
306
100
AcDbEntity
  8
0
100
AcDbLine
 62
7
  6
CONTINUOUS
 10
322.6141343212
 20
240.9908796952
 11
318.0141343212
 21
240.9908796952
  0
LINE
  5
307
100
AcDbEntity
  8
0
100
AcDbLine
 62
7
  6
CONTINUOUS
 10
362.0141343212
 20
240.9908796952
 11
366.6141343212
 21
240.9908796952
  0
ARC
  5
308
100
AcDbEntity
  8
RUNDUNGEN
100
AcDbCircle
 62
7
  6
CONTINUOUS
 10
73.8483709161
 20
100.6285702965
 40
2.0
100
AcDbArc
 50
227.0550650023
 51
303.8193340202
  0
ARC
  5
309
100
AcDbEntity
  8
RUNDUNGEN
100
AcDbCircle
 62
9
  6
CONTINUOUS
 10
73.8483709161
 20
100.6285702965
 40
1.8
100
AcDbArc
 50
227.0550650023
 51
303.8193340202
  0
ARC
  5
30A
100
AcDbEntity
  8
RUNDUNGEN
100
AcDbCircle
 62
7
  6
CONTINUOUS
 10
80.9243952822
 20
93.5241901943
 40
42.703
100
AcDbArc
 50
126.4035639619
 51
128.1806659798
  0
ARC
  5
30B
100
AcDbEntity
  8
RUNDUNGEN
100
AcDbCircle
 62
7
  6
CONTINUOUS
 10
80.6007884844
 20
93.7593042953
 40
42.703
100
AcDbArc
 50
339.8193340202
 51
341.5964360381
  0
ARC
  5
30C
100
AcDbEntity
  8
RUNDUNGEN
100
AcDbCircle
 62
9
  6
CONTINUOUS
 10
80.6007884844
 20
93.7593042953
 40
42.503
100
AcDbArc
 50
339.8193340202
 51
341.5923335476
  0
ARC
  5
30D
100
AcDbEntity
  8
RUNDUNGEN
100
AcDbCircle
 62
9
  6
CONTINUOUS
 10
80.9243952822
 20
93.5241901943
 40
42.503
100
AcDbArc
 50
126.4076664524
 51
128.1806659798
  0
ARC
  5
30E
100
AcDbEntity
  8
RUNDUNGEN
100
AcDbCircle
 62
9
  6
CONTINUOUS
 10
80.9243952822
 20
93.5241901943
 40
7.7
100
AcDbArc
 50
340.6693929688
 51
54.0
  0
ARC
  5
30F
100
AcDbEntity
  8
RUNDUNGEN
100
AcDbCircle
 62
9
  6
CONTINUOUS
 10
80.6007884844
 20
93.7593042953
 40
7.7
100
AcDbArc
 50
54.0
 51
127.3306070312
  0
ARC
  5
310
100
AcDbEntity
  8
RUNDUNGEN
100
AcDbCircle
 62
7
  6
CONTINUOUS
 10
80.9243952822
 20
93.5241901943
 40
7.5
100
AcDbArc
 50
340.6463938825
 51
54.0
  0
ARC
  5
311
100
AcDbEntity
  8
RUNDUNGEN
100
AcDbCircle
 62
7
  6
CONTINUOUS
 10
80.6007884844
 20
93.7593042953
 40
7.5
100
AcDbArc
 50
54.0
 51
127.3536061175
  0
ARC
  5
312
100
AcDbEntity
  8
RUNDUNGEN
100
AcDbCircle
 62
7
  6
CONTINUOUS
 10
51.317665065
 20
134.0640659446
 40
42.703
100
AcDbArc
 50
90.4035639619
 51
92.1806659798
  0
ARC
  5
313
100
AcDbEntity
  8
RUNDUNGEN
100
AcDbCircle
 62
7
  6
CONTINUOUS
 10
51.1940582673
 20
134.4444885512
 40
42.703
100
AcDbArc
 50
303.8193340202
 51
305.5964360381
  0
ARC
  5
314
100
AcDbEntity
  8
RUNDUNGEN
100
AcDbCircle
 62
9
  6
CONTINUOUS
 10
51.1940582673
 20
134.4444885512
 40
42.503
100
AcDbArc
 50
303.8193340202
 51
305.5923335476
  0
ARC
  5
315
100
AcDbEntity
  8
RUNDUNGEN
100
AcDbCircle
 62
9
  6
CONTINUOUS
 10
51.317665065
 20
134.0640659446
 40
42.503
100
AcDbArc
 50
90.4076664524
 51
92.1806659798
  0
ARC
  5
316
100
AcDbEntity
  8
RUNDUNGEN
100
AcDbCircle
 62
9
  6
CONTINUOUS
 10
51.317665065
 20
134.0640659446
 40
7.7
100
AcDbArc
 50
304.6693929688
 51
18.0
  0
ARC
  5
317
100
AcDbEntity
  8
RUNDUNGEN
100
AcDbCircle
 62
9
  6
CONTINUOUS
 10
51.1940582673
 20
134.4444885512
 40
7.7
100
AcDbArc
 50
18.0
 51
91.3306070312
  0
ARC
  5
318
100
AcDbEntity
  8
RUNDUNGEN
100
AcDbCircle
 62
7
  6
CONTINUOUS
 10
51.317665065
 20
134.0640659446
 40
7.5
100
AcDbArc
 50
304.6463938825
 51
18.0
  0
ARC
  5
319
100
AcDbEntity
  8
RUNDUNGEN
100
AcDbCircle
 62
7
  6
CONTINUOUS
 10
51.1940582673
 20
134.4444885512
 40
7.5
100
AcDbArc
 50
18.0
 51
91.3536061175
  0
ARC
  5
31A
100
AcDbEntity
  8
RUNDUNGEN
100
AcDbCircle
 62
7
  6
CONTINUOUS
 10
49.768890951
 20
143.970812949
 40
2.0
100
AcDbArc
 50
191.0550650023
 51
267.8193340202
  0
ARC
  5
31B
100
AcDbEntity
  8
RUNDUNGEN
100
AcDbCircle
 62
9
  6
CONTINUOUS
 10
49.768890951
 20
143.970812949
 40
1.8
100
AcDbArc
 50
191.0550650023
 51
267.8193340202
  0
ARC
  5
31C
100
AcDbEntity
  8
RUNDUNGEN
100
AcDbCircle
 62
7
  6
CONTINUOUS
 10
55.7641134759
 20
125.5194152823
 40
2.0
100
AcDbArc
 50
128.1806659798
 51
204.9449349977
  0
ARC
  5
31D
100
AcDbEntity
  8
RUNDUNGEN
100
AcDbCircle
 62
9
  6
CONTINUOUS
 10
55.7641134759
 20
125.5194152823
 40
1.8
100
AcDbArc
 50
128.1806659798
 51
204.9449349977
  0
ARC
  5
31E
100
AcDbEntity
  8
RUNDUNGEN
100
AcDbCircle
 62
7
  6
CONTINUOUS
 10
89.5440672565
 20
89.2249793985
 40
2.0
100
AcDbArc
 50
164.1806659798
 51
240.9449349977
  0
ARC
  5
31F
100
AcDbEntity
  8
RUNDUNGEN
100
AcDbCircle
 62
9
  6
CONTINUOUS
 10
89.5440672565
 20
89.2249793985
 40
1.8
100
AcDbArc
 50
164.1806659798
 51
240.9449349977
  0
ARC
  5
320
100
AcDbEntity
  8
RUNDUNGEN
100
AcDbCircle
 62
7
  6
CONTINUOUS
 10
118.8050104561
 20
79.7175226226
 40
2.0
100
AcDbArc
 50
263.0550650023
 51
339.8193340202
  0
ARC
  5
321
100
AcDbEntity
  8
RUNDUNGEN
100
AcDbCircle
 62
9
  6
CONTINUOUS
 10
118.8050104561
 20
79.7175226226
 40
1.8
100
AcDbArc
 50
263.0550650023
 51
339.8193340202
  0
ARC
  5
322
100
AcDbEntity
  8
RUNDUNGEN
100
AcDbCircle
 62
7
  6
CONTINUOUS
 10
128.3054842715
 20
78.1291411527
 40
42.703
100
AcDbArc
 50
15.8193340202
 51
17.5964360381
  0
ARC
  5
323
100
AcDbEntity
  8
RUNDUNGEN
100
AcDbCircle
 62
9
  6
CONTINUOUS
 10
128.3054842715
 20
78.1291411527
 40
42.503
100
AcDbArc
 50
15.8193340202
 51
17.5923335476
  0
ARC
  5
324
100
AcDbEntity
  8
RUNDUNGEN
100
AcDbCircle
 62
9
  6
CONTINUOUS
 10
128.3054842715
 20
78.1291411527
 40
7.7
100
AcDbArc
 50
90.0
 51
163.3306070312
  0
ARC
  5
325
100
AcDbEntity
  8
RUNDUNGEN
100
AcDbCircle
 62
7
  6
CONTINUOUS
 10
128.3054842715
 20
78.1291411527
 40
7.5
100
AcDbArc
 50
90.0
 51
163.3536061175
  0
ARC
  5
326
100
AcDbEntity
  8
RUNDUNGEN
100
AcDbCircle
 62
9
  6
CONTINUOUS
 10
98.1054842715
 20
128.9542011589
 40
9.0
100
AcDbArc
 50
180.0
 51
270.0
  0
ARC
  5
327
100
AcDbEntity
  8
RUNDUNGEN
100
AcDbCircle
 62
7
  6
CONTINUOUS
 10
98.1054842715
 20
128.9542011589
 40
7.0
100
AcDbArc
 50
180.0
 51
270.0
  0
ARC
  5
328
100
AcDbEntity
  8
RUNDUNGEN
100
AcDbCircle
 62
9
  6
CONTINUOUS
 10
98.1054842715
 20
128.9542011589
 40
6.7
100
AcDbArc
 50
180.0
 51
270.0
  0
ARC
  5
329
100
AcDbEntity
  8
0
100
AcDbCircle
 62
7
  6
CONTINUOUS
 10
98.8054842715
 20
129.6542011589
 40
1.0
100
AcDbArc
 50
120.0
 51
330.0
  0
ARC
  5
32A
100
AcDbEntity
  8
RUNDUNGEN
100
AcDbCircle
 62
7
  6
CONTINUOUS
 10
49.768890951
 20
174.7375893689
 40
2.0
100
AcDbArc
 50
92.1806659798
 51
168.9449349977
  0
ARC
  5
32B
100
AcDbEntity
  8
RUNDUNGEN
100
AcDbCircle
 62
9
  6
CONTINUOUS
 10
49.768890951
 20
174.7375893689
 40
1.8
100
AcDbArc
 50
92.1806659798
 51
168.9449349977
  0
ARC
  5
32C
100
AcDbEntity
  8
RUNDUNGEN
100
AcDbCircle
 62
7
  6
CONTINUOUS
 10
51.1940582673
 20
184.2639137667
 40
42.703
100
AcDbArc
 50
54.4035639619
 51
56.1806659798
  0
ARC
  5
32D
100
AcDbEntity
  8
RUNDUNGEN
100
AcDbCircle
 62
7
  6
CONTINUOUS
 10
51.317665065
 20
184.6443363732
 40
42.703
100
AcDbArc
 50
267.8193340202
 51
269.5964360381
  0
ARC
  5
32E
100
AcDbEntity
  8
RUNDUNGEN
100
AcDbCircle
 62
9
  6
CONTINUOUS
 10
51.317665065
 20
184.6443363732
 40
42.503
100
AcDbArc
 50
267.8193340202
 51
269.5923335476
  0
ARC
  5
32F
100
AcDbEntity
  8
RUNDUNGEN
100
AcDbCircle
 62
9
  6
CONTINUOUS
 10
51.1940582673
 20
184.2639137667
 40
42.503
100
AcDbArc
 50
54.4076664524
 51
56.1806659798
  0
ARC
  5
330
100
AcDbEntity
  8
RUNDUNGEN
100
AcDbCircle
 62
9
  6
CONTINUOUS
 10
51.1940582673
 20
184.2639137667
 40
7.7
100
AcDbArc
 50
268.6693929688
 51
342.0
  0
ARC
  5
331
100
AcDbEntity
  8
RUNDUNGEN
100
AcDbCircle
 62
9
  6
CONTINUOUS
 10
51.317665065
 20
184.6443363732
 40
7.7
100
AcDbArc
 50
342.0
 51
55.3306070312
  0
ARC
  5
332
100
AcDbEntity
  8
RUNDUNGEN
100
AcDbCircle
 62
7
  6
CONTINUOUS
 10
51.1940582673
 20
184.2639137667
 40
7.5
100
AcDbArc
 50
268.6463938825
 51
342.0
  0
ARC
  5
333
100
AcDbEntity
  8
RUNDUNGEN
100
AcDbCircle
 62
7
  6
CONTINUOUS
 10
51.317665065
 20
184.6443363732
 40
7.5
100
AcDbArc
 50
342.0
 51
55.3536061175
  0
ARC
  5
334
100
AcDbEntity
  8
RUNDUNGEN
100
AcDbCircle
 62
7
  6
CONTINUOUS
 10
55.7641134759
 20
193.1889870356
 40
2.0
100
AcDbArc
 50
155.0550650023
 51
231.8193340202
  0
ARC
  5
335
100
AcDbEntity
  8
RUNDUNGEN
100
AcDbCircle
 62
9
  6
CONTINUOUS
 10
55.7641134759
 20
193.1889870356
 40
1.8
100
AcDbArc
 50
155.0550650023
 51
231.8193340202
  0
CIRCLE
  5
336
100
AcDbEntity
  8
02___PRT_ALL_AXES
100
AcDbCircle
 62
7
  6
CONTINUOUS
 10
76.0054842715
 20
159.3542011589
 40
3.1
  0
ARC
  5
337
100
AcDbEntity
  8
RUNDUNGEN
100
AcDbCircle
 62
7
  6
CONTINUOUS
 10
73.8483709161
 20
218.0798320214
 40
2.0
100
AcDbArc
 50
56.1806659798
 51
132.9449349977
  0
ARC
  5
338
100
AcDbEntity
  8
RUNDUNGEN
100
AcDbCircle
 62
9
  6
CONTINUOUS
 10
73.8483709161
 20
218.0798320214
 40
1.8
100
AcDbArc
 50
56.1806659798
 51
132.9449349977
  0
ARC
  5
339
100
AcDbEntity
  8
RUNDUNGEN
100
AcDbCircle
 62
7
  6
CONTINUOUS
 10
80.6007884844
 20
224.9490980226
 40
42.703
100
AcDbArc
 50
18.4035639619
 51
20.1806659798
  0
ARC
  5
33A
100
AcDbEntity
  8
RUNDUNGEN
100
AcDbCircle
 62
7
  6
CONTINUOUS
 10
80.9243952822
 20
225.1842121235
 40
42.703
100
AcDbArc
 50
231.8193340202
 51
233.5964360381
  0
ARC
  5
33B
100
AcDbEntity
  8
RUNDUNGEN
100
AcDbCircle
 62
9
  6
CONTINUOUS
 10
80.6007884844
 20
224.9490980226
 40
42.503
100
AcDbArc
 50
18.4076664524
 51
20.1806659798
  0
ARC
  5
33C
100
AcDbEntity
  8
RUNDUNGEN
100
AcDbCircle
 62
9
  6
CONTINUOUS
 10
80.9243952822
 20
225.1842121235
 40
42.503
100
AcDbArc
 50
231.8193340202
 51
233.5923335476
  0
ARC
  5
33D
100
AcDbEntity
  8
RUNDUNGEN
100
AcDbCircle
 62
9
  6
CONTINUOUS
 10
80.9243952822
 20
225.1842121235
 40
7.7
100
AcDbArc
 50
306.0
 51
19.3306070312
  0
ARC
  5
33E
100
AcDbEntity
  8
RUNDUNGEN
100
AcDbCircle
 62
9
  6
CONTINUOUS
 10
80.6007884844
 20
224.9490980226
 40
7.7
100
AcDbArc
 50
232.6693929688
 51
306.0
  0
ARC
  5
33F
100
AcDbEntity
  8
RUNDUNGEN
100
AcDbCircle
 62
7
  6
CONTINUOUS
 10
80.6007884844
 20
224.9490980226
 40
7.5
100
AcDbArc
 50
232.6463938825
 51
306.0
  0
ARC
  5
340
100
AcDbEntity
  8
RUNDUNGEN
100
AcDbCircle
 62
7
  6
CONTINUOUS
 10
80.9243952822
 20
225.1842121235
 40
7.5
100
AcDbArc
 50
306.0
 51
19.3536061175
  0
ARC
  5
341
100
AcDbEntity
  8
RUNDUNGEN
100
AcDbCircle
 62
9
  6
CONTINUOUS
 10
98.1054842715
 20
189.7542011589
 40
9.0
100
AcDbArc
 50
90.0
 51
180.0
  0
ARC
  5
342
100
AcDbEntity
  8
RUNDUNGEN
100
AcDbCircle
 62
7
  6
CONTINUOUS
 10
98.1054842715
 20
189.7542011589
 40
7.0
100
AcDbArc
 50
90.0
 51
180.0
  0
ARC
  5
343
100
AcDbEntity
  8
RUNDUNGEN
100
AcDbCircle
 62
9
  6
CONTINUOUS
 10
98.1054842715
 20
189.7542011589
 40
6.7
100
AcDbArc
 50
90.0
 51
180.0
  0
ARC
  5
344
100
AcDbEntity
  8
0
100
AcDbCircle
 62
7
  6
CONTINUOUS
 10
98.8054842715
 20
189.0542011589
 40
1.0
100
AcDbArc
 50
30.0
 51
240.0
  0
ARC
  5
345
100
AcDbEntity
  8
RUNDUNGEN
100
AcDbCircle
 62
7
  6
CONTINUOUS
 10
89.5440672565
 20
229.4834229194
 40
2.0
100
AcDbArc
 50
119.0550650023
 51
195.8193340202
  0
ARC
  5
346
100
AcDbEntity
  8
RUNDUNGEN
100
AcDbCircle
 62
9
  6
CONTINUOUS
 10
89.5440672565
 20
229.4834229194
 40
1.8
100
AcDbArc
 50
119.0550650023
 51
195.8193340202
  0
ARC
  5
347
100
AcDbEntity
  8
RUNDUNGEN
100
AcDbCircle
 62
7
  6
CONTINUOUS
 10
128.3054842715
 20
240.5792611651
 40
42.703
100
AcDbArc
 50
342.4035639619
 51
344.1806659798
  0
ARC
  5
348
100
AcDbEntity
  8
RUNDUNGEN
100
AcDbCircle
 62
9
  6
CONTINUOUS
 10
128.3054842715
 20
240.5792611651
 40
42.503
100
AcDbArc
 50
342.4076664524
 51
344.1806659798
  0
ARC
  5
349
100
AcDbEntity
  8
RUNDUNGEN
100
AcDbCircle
 62
9
  6
CONTINUOUS
 10
128.3054842715
 20
240.5792611651
 40
7.7
100
AcDbArc
 50
196.6693929688
 51
270.0
  0
ARC
  5
34A
100
AcDbEntity
  8
RUNDUNGEN
100
AcDbCircle
 62
7
  6
CONTINUOUS
 10
128.3054842715
 20
240.5792611651
 40
7.5
100
AcDbArc
 50
196.6463938825
 51
270.0
  0
ARC
  5
34B
100
AcDbEntity
  8
RUNDUNGEN
100
AcDbCircle
 62
7
  6
CONTINUOUS
 10
118.8050104561
 20
238.9908796952
 40
2.0
100
AcDbArc
 50
20.1806659798
 51
96.9449349977
  0
ARC
  5
34C
100
AcDbEntity
  8
RUNDUNGEN
100
AcDbCircle
 62
9
  6
CONTINUOUS
 10
118.8050104561
 20
238.9908796952
 40
1.8
100
AcDbArc
 50
20.1806659798
 51
96.9449349977
  0
ARC
  5
34D
100
AcDbEntity
  8
RUNDUNGEN
100
AcDbCircle
 62
7
  6
CONTINUOUS
 10
128.7054842715
 20
78.1291411527
 40
42.703
100
AcDbArc
 50
162.4035639619
 51
164.1806659798
  0
ARC
  5
34E
100
AcDbEntity
  8
RUNDUNGEN
100
AcDbCircle
 62
9
  6
CONTINUOUS
 10
128.7054842715
 20
78.1291411527
 40
42.503
100
AcDbArc
 50
162.4076664524
 51
164.1806659798
  0
ARC
  5
34F
100
AcDbEntity
  8
RUNDUNGEN
100
AcDbCircle
 62
9
  6
CONTINUOUS
 10
128.7054842715
 20
78.1291411527
 40
7.7
100
AcDbArc
 50
16.6693929688
 51
90.0
  0
ARC
  5
350
100
AcDbEntity
  8
RUNDUNGEN
100
AcDbCircle
 62
7
  6
CONTINUOUS
 10
128.7054842715
 20
78.1291411527
 40
7.5
100
AcDbArc
 50
16.6463938825
 51
90.0
  0
ARC
  5
351
100
AcDbEntity
  8
RUNDUNGEN
100
AcDbCircle
 62
7
  6
CONTINUOUS
 10
138.205958087
 20
79.7175226226
 40
2.0
100
AcDbArc
 50
200.1806659798
 51
276.9449349977
  0
ARC
  5
352
100
AcDbEntity
  8
RUNDUNGEN
100
AcDbCircle
 62
9
  6
CONTINUOUS
 10
138.205958087
 20
79.7175226226
 40
1.8
100
AcDbArc
 50
200.1806659798
 51
276.9449349977
  0
CIRCLE
  5
353
100
AcDbEntity
  8
02___PRT_ALL_AXES
100
AcDbCircle
 62
7
  6
CONTINUOUS
 10
128.5054842715
 20
106.8542011589
 40
3.1
  0
ARC
  5
354
100
AcDbEntity
  8
RUNDUNGEN
100
AcDbCircle
 62
7
  6
CONTINUOUS
 10
167.4669012865
 20
89.2249793985
 40
2.0
100
AcDbArc
 50
299.0550650023
 51
15.8193340202
  0
ARC
  5
355
100
AcDbEntity
  8
RUNDUNGEN
100
AcDbCircle
 62
9
  6
CONTINUOUS
 10
167.4669012865
 20
89.2249793985
 40
1.8
100
AcDbArc
 50
299.0550650023
 51
15.8193340202
  0
ARC
  5
356
100
AcDbEntity
  8
RUNDUNGEN
100
AcDbCircle
 62
9
  6
CONTINUOUS
 10
158.9054842715
 20
128.9542011589
 40
9.0
100
AcDbArc
 50
270.0
 51
360.0
  0
ARC
  5
357
100
AcDbEntity
  8
RUNDUNGEN
100
AcDbCircle
 62
7
  6
CONTINUOUS
 10
158.9054842715
 20
128.9542011589
 40
7.0
100
AcDbArc
 50
270.0
 51
360.0
  0
ARC
  5
358
100
AcDbEntity
  8
RUNDUNGEN
100
AcDbCircle
 62
9
  6
CONTINUOUS
 10
158.9054842715
 20
128.9542011589
 40
6.7
100
AcDbArc
 50
270.0
 51
360.0
  0
ARC
  5
359
100
AcDbEntity
  8
0
100
AcDbCircle
 62
7
  6
CONTINUOUS
 10
158.2054842715
 20
129.6542011589
 40
1.0
100
AcDbArc
 50
210.0
 51
60.0
  0
ARC
  5
35A
100
AcDbEntity
  8
RUNDUNGEN
100
AcDbCircle
 62
7
  6
CONTINUOUS
 10
176.4101800586
 20
93.7593042953
 40
42.703
100
AcDbArc
 50
198.4035639619
 51
200.1806659798
  0
ARC
  5
35B
100
AcDbEntity
  8
RUNDUNGEN
100
AcDbCircle
 62
7
  6
CONTINUOUS
 10
176.0865732609
 20
93.5241901943
 40
42.703
100
AcDbArc
 50
51.8193340202
 51
53.5964360381
  0
ARC
  5
35C
100
AcDbEntity
  8
RUNDUNGEN
100
AcDbCircle
 62
9
  6
CONTINUOUS
 10
176.0865732609
 20
93.5241901943
 40
42.503
100
AcDbArc
 50
51.8193340202
 51
53.5923335476
  0
ARC
  5
35D
100
AcDbEntity
  8
RUNDUNGEN
100
AcDbCircle
 62
9
  6
CONTINUOUS
 10
176.4101800586
 20
93.7593042953
 40
42.503
100
AcDbArc
 50
198.4076664524
 51
200.1806659798
  0
ARC
  5
35E
100
AcDbEntity
  8
RUNDUNGEN
100
AcDbCircle
 62
9
  6
CONTINUOUS
 10
176.4101800586
 20
93.7593042953
 40
7.7
100
AcDbArc
 50
52.6693929688
 51
126.0
  0
ARC
  5
35F
100
AcDbEntity
  8
RUNDUNGEN
100
AcDbCircle
 62
9
  6
CONTINUOUS
 10
176.0865732609
 20
93.5241901943
 40
7.7
100
AcDbArc
 50
126.0
 51
199.3306070312
  0
ARC
  5
360
100
AcDbEntity
  8
RUNDUNGEN
100
AcDbCircle
 62
7
  6
CONTINUOUS
 10
176.4101800586
 20
93.7593042953
 40
7.5
100
AcDbArc
 50
52.6463938825
 51
126.0
  0
ARC
  5
361
100
AcDbEntity
  8
RUNDUNGEN
100
AcDbCircle
 62
7
  6
CONTINUOUS
 10
176.0865732609
 20
93.5241901943
 40
7.5
100
AcDbArc
 50
126.0
 51
199.3536061175
  0
ARC
  5
362
100
AcDbEntity
  8
RUNDUNGEN
100
AcDbCircle
 62
7
  6
CONTINUOUS
 10
183.1625976269
 20
100.6285702965
 40
2.0
100
AcDbArc
 50
236.1806659798
 51
312.9449349977
  0
ARC
  5
363
100
AcDbEntity
  8
RUNDUNGEN
100
AcDbCircle
 62
9
  6
CONTINUOUS
 10
183.1625976269
 20
100.6285702965
 40
1.8
100
AcDbArc
 50
236.1806659798
 51
312.9449349977
  0
ARC
  5
364
100
AcDbEntity
  8
RUNDUNGEN
100
AcDbCircle
 62
7
  6
CONTINUOUS
 10
201.2468550671
 20
125.5194152823
 40
2.0
100
AcDbArc
 50
335.0550650023
 51
51.8193340202
  0
ARC
  5
365
100
AcDbEntity
  8
RUNDUNGEN
100
AcDbCircle
 62
9
  6
CONTINUOUS
 10
201.2468550671
 20
125.5194152823
 40
1.8
100
AcDbArc
 50
335.0550650023
 51
51.8193340202
  0
ARC
  5
366
100
AcDbEntity
  8
RUNDUNGEN
100
AcDbCircle
 62
7
  6
CONTINUOUS
 10
205.8169102758
 20
134.4444885512
 40
42.703
100
AcDbArc
 50
234.4035639619
 51
236.1806659798
  0
ARC
  5
367
100
AcDbEntity
  8
RUNDUNGEN
100
AcDbCircle
 62
7
  6
CONTINUOUS
 10
205.693303478
 20
134.0640659446
 40
42.703
100
AcDbArc
 50
87.8193340202
 51
89.5964360381
  0
ARC
  5
368
100
AcDbEntity
  8
RUNDUNGEN
100
AcDbCircle
 62
9
  6
CONTINUOUS
 10
205.693303478
 20
134.0640659446
 40
42.503
100
AcDbArc
 50
87.8193340202
 51
89.5923335476
  0
ARC
  5
369
100
AcDbEntity
  8
RUNDUNGEN
100
AcDbCircle
 62
9
  6
CONTINUOUS
 10
205.8169102758
 20
134.4444885512
 40
42.503
100
AcDbArc
 50
234.4076664524
 51
236.1806659798
  0
ARC
  5
36A
100
AcDbEntity
  8
RUNDUNGEN
100
AcDbCircle
 62
9
  6
CONTINUOUS
 10
205.8169102758
 20
134.4444885512
 40
7.7
100
AcDbArc
 50
88.6693929688
 51
162.0
  0
ARC
  5
36B
100
AcDbEntity
  8
RUNDUNGEN
100
AcDbCircle
 62
9
  6
CONTINUOUS
 10
205.693303478
 20
134.0640659446
 40
7.7
100
AcDbArc
 50
162.0
 51
235.3306070312
  0
ARC
  5
36C
100
AcDbEntity
  8
RUNDUNGEN
100
AcDbCircle
 62
7
  6
CONTINUOUS
 10
205.8169102758
 20
134.4444885512
 40
7.5
100
AcDbArc
 50
88.6463938825
 51
162.0
  0
ARC
  5
36D
100
AcDbEntity
  8
RUNDUNGEN
100
AcDbCircle
 62
7
  6
CONTINUOUS
 10
205.693303478
 20
134.0640659446
 40
7.5
100
AcDbArc
 50
162.0
 51
235.3536061175
  0
ARC
  5
36E
100
AcDbEntity
  8
RUNDUNGEN
100
AcDbCircle
 62
7
  6
CONTINUOUS
 10
207.242077592
 20
143.970812949
 40
2.0
100
AcDbArc
 50
272.1806659798
 51
348.9449349977
  0
ARC
  5
36F
100
AcDbEntity
  8
RUNDUNGEN
100
AcDbCircle
 62
9
  6
CONTINUOUS
 10
207.242077592
 20
143.970812949
 40
1.8
100
AcDbArc
 50
272.1806659798
 51
348.9449349977
  0
ARC
  5
370
100
AcDbEntity
  8
RUNDUNGEN
100
AcDbCircle
 62
7
  6
CONTINUOUS
 10
128.5054842715
 20
159.3542011589
 40
82.2253062352
100
AcDbArc
 50
96.9449349977
 51
119.0550650023
  0
ARC
  5
371
100
AcDbEntity
  8
RUNDUNGEN
100
AcDbCircle
 62
7
  6
CONTINUOUS
 10
128.5054842715
 20
159.3542011589
 40
82.2253062352
100
AcDbArc
 50
60.9449349977
 51
83.0550650023
  0
ARC
  5
372
100
AcDbEntity
  8
RUNDUNGEN
100
AcDbCircle
 62
7
  6
CONTINUOUS
 10
128.5054842715
 20
159.3542011589
 40
82.2253062352
100
AcDbArc
 50
132.9449349977
 51
155.0550650023
  0
ARC
  5
373
100
AcDbEntity
  8
RUNDUNGEN
100
AcDbCircle
 62
7
  6
CONTINUOUS
 10
128.5054842715
 20
159.3542011589
 40
82.2253062352
100
AcDbArc
 50
168.9449349977
 51
191.0550650023
  0
ARC
  5
374
100
AcDbEntity
  8
RUNDUNGEN
100
AcDbCircle
 62
7
  6
CONTINUOUS
 10
128.5054842715
 20
159.3542011589
 40
82.2253062352
100
AcDbArc
 50
204.9449349977
 51
227.0550650023
  0
ARC
  5
375
100
AcDbEntity
  8
RUNDUNGEN
100
AcDbCircle
 62
7
  6
CONTINUOUS
 10
128.5054842715
 20
159.3542011589
 40
82.2253062352
100
AcDbArc
 50
240.9449349977
 51
263.0550650023
  0
ARC
  5
376
100
AcDbEntity
  8
RUNDUNGEN
100
AcDbCircle
 62
7
  6
CONTINUOUS
 10
128.5054842715
 20
159.3542011589
 40
82.2253062352
100
AcDbArc
 50
276.9449349977
 51
299.0550650023
  0
ARC
  5
377
100
AcDbEntity
  8
RUNDUNGEN
100
AcDbCircle
 62
7
  6
CONTINUOUS
 10
128.5054842715
 20
159.3542011589
 40
82.2253062352
100
AcDbArc
 50
312.9449349977
 51
335.0550650023
  0
ARC
  5
378
100
AcDbEntity
  8
RUNDUNGEN
100
AcDbCircle
 62
7
  6
CONTINUOUS
 10
128.5054842715
 20
159.3542011589
 40
82.2253062352
100
AcDbArc
 50
348.9449349977
 51
11.0550650023
  0
ARC
  5
379
100
AcDbEntity
  8
RUNDUNGEN
100
AcDbCircle
 62
7
  6
CONTINUOUS
 10
128.5054842715
 20
159.3542011589
 40
82.2253062352
100
AcDbArc
 50
24.9449349977
 51
47.0550650023
  0
ARC
  5
37A
100
AcDbEntity
  8
RUNDUNGEN
100
AcDbCircle
 62
9
  6
CONTINUOUS
 10
128.5054842715
 20
159.3542011589
 40
82.0253062352
100
AcDbArc
 50
96.9449349977
 51
119.0550650023
  0
ARC
  5
37B
100
AcDbEntity
  8
RUNDUNGEN
100
AcDbCircle
 62
9
  6
CONTINUOUS
 10
128.5054842715
 20
159.3542011589
 40
82.0253062352
100
AcDbArc
 50
60.9449349977
 51
83.0550650023
  0
ARC
  5
37C
100
AcDbEntity
  8
RUNDUNGEN
100
AcDbCircle
 62
9
  6
CONTINUOUS
 10
128.5054842715
 20
159.3542011589
 40
82.0253062352
100
AcDbArc
 50
24.9449349977
 51
47.0550650023
  0
ARC
  5
37D
100
AcDbEntity
  8
RUNDUNGEN
100
AcDbCircle
 62
9
  6
CONTINUOUS
 10
128.5054842715
 20
159.3542011589
 40
82.0253062352
100
AcDbArc
 50
348.9449349977
 51
11.0550650023
  0
ARC
  5
37E
100
AcDbEntity
  8
RUNDUNGEN
100
AcDbCircle
 62
9
  6
CONTINUOUS
 10
128.5054842715
 20
159.3542011589
 40
82.0253062352
100
AcDbArc
 50
312.9449349977
 51
335.0550650023
  0
ARC
  5
37F
100
AcDbEntity
  8
RUNDUNGEN
100
AcDbCircle
 62
9
  6
CONTINUOUS
 10
128.5054842715
 20
159.3542011589
 40
82.0253062352
100
AcDbArc
 50
276.9449349977
 51
299.0550650023
  0
ARC
  5
380
100
AcDbEntity
  8
RUNDUNGEN
100
AcDbCircle
 62
9
  6
CONTINUOUS
 10
128.5054842715
 20
159.3542011589
 40
82.0253062352
100
AcDbArc
 50
240.9449349977
 51
263.0550650023
  0
ARC
  5
381
100
AcDbEntity
  8
RUNDUNGEN
100
AcDbCircle
 62
9
  6
CONTINUOUS
 10
128.5054842715
 20
159.3542011589
 40
82.0253062352
100
AcDbArc
 50
204.9449349977
 51
227.0550650023
  0
ARC
  5
382
100
AcDbEntity
  8
RUNDUNGEN
100
AcDbCircle
 62
9
  6
CONTINUOUS
 10
128.5054842715
 20
159.3542011589
 40
82.0253062352
100
AcDbArc
 50
168.9449349977
 51
191.0550650023
  0
ARC
  5
383
100
AcDbEntity
  8
RUNDUNGEN
100
AcDbCircle
 62
9
  6
CONTINUOUS
 10
128.5054842715
 20
159.3542011589
 40
82.0253062352
100
AcDbArc
 50
132.9449349977
 51
155.0550650023
  0
CIRCLE
  5
384
100
AcDbEntity
  8
RUNDUNGEN
100
AcDbCircle
 62
9
  6
CONTINUOUS
 10
128.5054842715
 20
159.3542011589
 40
66.5
  0
CIRCLE
  5
385
100
AcDbEntity
  8
RUNDUNGEN
100
AcDbCircle
 62
7
  6
CONTINUOUS
 10
128.5054842715
 20
159.3542011589
 40
63.5
  0
CIRCLE
  5
386
100
AcDbEntity
  8
RUNDUNGEN
100
AcDbCircle
 62
9
  6
CONTINUOUS
 10
128.5054842715
 20
159.3542011589
 40
61.5
  0
ARC
  5
387
100
AcDbEntity
  8
RUNDUNGEN
100
AcDbCircle
 62
9
  6
CONTINUOUS
 10
158.9054842715
 20
189.7542011589
 40
9.0
100
AcDbArc
 50
0.0
 51
90.0
  0
ARC
  5
388
100
AcDbEntity
  8
RUNDUNGEN
100
AcDbCircle
 62
7
  6
CONTINUOUS
 10
158.9054842715
 20
189.7542011589
 40
7.0
100
AcDbArc
 50
0.0
 51
90.0
  0
ARC
  5
389
100
AcDbEntity
  8
RUNDUNGEN
100
AcDbCircle
 62
9
  6
CONTINUOUS
 10
158.9054842715
 20
189.7542011589
 40
6.7
100
AcDbArc
 50
0.0
 51
90.0
  0
ARC
  5
38A
100
AcDbEntity
  8
0
100
AcDbCircle
 62
7
  6
CONTINUOUS
 10
158.2054842715
 20
189.0542011589
 40
1.0
100
AcDbArc
 50
300.0
 51
150.0
  0
CIRCLE
  5
38B
100
AcDbEntity
  8
02___PRT_ALL_AXES
100
AcDbCircle
 62
7
  6
CONTINUOUS
 10
128.5054842715
 20
211.8542011589
 40
3.1
  0
ARC
  5
38C
100
AcDbEntity
  8
RUNDUNGEN
100
AcDbCircle
 62
7
  6
CONTINUOUS
 10
128.7054842715
 20
240.5792611651
 40
42.703
100
AcDbArc
 50
195.8193340202
 51
197.5964360381
  0
ARC
  5
38D
100
AcDbEntity
  8
RUNDUNGEN
100
AcDbCircle
 62
9
  6
CONTINUOUS
 10
128.7054842715
 20
240.5792611651
 40
42.503
100
AcDbArc
 50
195.8193340202
 51
197.5923335476
  0
ARC
  5
38E
100
AcDbEntity
  8
RUNDUNGEN
100
AcDbCircle
 62
9
  6
CONTINUOUS
 10
128.7054842715
 20
240.5792611651
 40
7.7
100
AcDbArc
 50
270.0
 51
343.3306070312
  0
ARC
  5
38F
100
AcDbEntity
  8
RUNDUNGEN
100
AcDbCircle
 62
7
  6
CONTINUOUS
 10
128.7054842715
 20
240.5792611651
 40
7.5
100
AcDbArc
 50
270.0
 51
343.3536061175
  0
ARC
  5
390
100
AcDbEntity
  8
RUNDUNGEN
100
AcDbCircle
 62
7
  6
CONTINUOUS
 10
138.205958087
 20
238.9908796952
 40
2.0
100
AcDbArc
 50
83.0550650023
 51
159.8193340202
  0
ARC
  5
391
100
AcDbEntity
  8
RUNDUNGEN
100
AcDbCircle
 62
9
  6
CONTINUOUS
 10
138.205958087
 20
238.9908796952
 40
1.8
100
AcDbArc
 50
83.0550650023
 51
159.8193340202
  0
ARC
  5
392
100
AcDbEntity
  8
RUNDUNGEN
100
AcDbCircle
 62
7
  6
CONTINUOUS
 10
167.4669012865
 20
229.4834229194
 40
2.0
100
AcDbArc
 50
344.1806659798
 51
60.9449349977
  0
ARC
  5
393
100
AcDbEntity
  8
RUNDUNGEN
100
AcDbCircle
 62
9
  6
CONTINUOUS
 10
167.4669012865
 20
229.4834229194
 40
1.8
100
AcDbArc
 50
344.1806659798
 51
60.9449349977
  0
CIRCLE
  5
394
100
AcDbEntity
  8
02___PRT_ALL_AXES
100
AcDbCircle
 62
7
  6
CONTINUOUS
 10
181.0054842715
 20
159.3542011589
 40
3.1
  0
ARC
  5
395
100
AcDbEntity
  8
RUNDUNGEN
100
AcDbCircle
 62
7
  6
CONTINUOUS
 10
207.242077592
 20
174.7375893689
 40
2.0
100
AcDbArc
 50
11.0550650023
 51
87.8193340202
  0
ARC
  5
396
100
AcDbEntity
  8
RUNDUNGEN
100
AcDbCircle
 62
9
  6
CONTINUOUS
 10
207.242077592
 20
174.7375893689
 40
1.8
100
AcDbArc
 50
11.0550650023
 51
87.8193340202
  0
ARC
  5
397
100
AcDbEntity
  8
RUNDUNGEN
100
AcDbCircle
 62
7
  6
CONTINUOUS
 10
201.2468550671
 20
193.1889870356
 40
2.0
100
AcDbArc
 50
308.1806659798
 51
24.9449349977
  0
ARC
  5
398
100
AcDbEntity
  8
RUNDUNGEN
100
AcDbCircle
 62
9
  6
CONTINUOUS
 10
201.2468550671
 20
193.1889870356
 40
1.8
100
AcDbArc
 50
308.1806659798
 51
24.9449349977
  0
ARC
  5
399
100
AcDbEntity
  8
RUNDUNGEN
100
AcDbCircle
 62
7
  6
CONTINUOUS
 10
205.693303478
 20
184.6443363732
 40
42.703
100
AcDbArc
 50
270.4035639619
 51
272.1806659798
  0
ARC
  5
39A
100
AcDbEntity
  8
RUNDUNGEN
100
AcDbCircle
 62
7
  6
CONTINUOUS
 10
205.8169102758
 20
184.2639137667
 40
42.703
100
AcDbArc
 50
123.8193340202
 51
125.5964360381
  0
ARC
  5
39B
100
AcDbEntity
  8
RUNDUNGEN
100
AcDbCircle
 62
9
  6
CONTINUOUS
 10
205.8169102758
 20
184.2639137667
 40
42.503
100
AcDbArc
 50
123.8193340202
 51
125.5923335476
  0
ARC
  5
39C
100
AcDbEntity
  8
RUNDUNGEN
100
AcDbCircle
 62
9
  6
CONTINUOUS
 10
205.693303478
 20
184.6443363732
 40
42.503
100
AcDbArc
 50
270.4076664524
 51
272.1806659798
  0
ARC
  5
39D
100
AcDbEntity
  8
RUNDUNGEN
100
AcDbCircle
 62
9
  6
CONTINUOUS
 10
205.693303478
 20
184.6443363732
 40
7.7
100
AcDbArc
 50
124.6693929688
 51
198.0
  0
ARC
  5
39E
100
AcDbEntity
  8
RUNDUNGEN
100
AcDbCircle
 62
9
  6
CONTINUOUS
 10
205.8169102758
 20
184.2639137667
 40
7.7
100
AcDbArc
 50
198.0
 51
271.3306070312
  0
ARC
  5
39F
100
AcDbEntity
  8
RUNDUNGEN
100
AcDbCircle
 62
7
  6
CONTINUOUS
 10
205.693303478
 20
184.6443363732
 40
7.5
100
AcDbArc
 50
124.6463938825
 51
198.0
  0
ARC
  5
3A0
100
AcDbEntity
  8
RUNDUNGEN
100
AcDbCircle
 62
7
  6
CONTINUOUS
 10
205.8169102758
 20
184.2639137667
 40
7.5
100
AcDbArc
 50
198.0
 51
271.3536061175
  0
ARC
  5
3A1
100
AcDbEntity
  8
RUNDUNGEN
100
AcDbCircle
 62
7
  6
CONTINUOUS
 10
176.4101800586
 20
224.9490980226
 40
42.703
100
AcDbArc
 50
159.8193340202
 51
161.5964360381
  0
ARC
  5
3A2
100
AcDbEntity
  8
RUNDUNGEN
100
AcDbCircle
 62
7
  6
CONTINUOUS
 10
176.0865732609
 20
225.1842121235
 40
42.703
100
AcDbArc
 50
306.4035639619
 51
308.1806659798
  0
ARC
  5
3A3
100
AcDbEntity
  8
RUNDUNGEN
100
AcDbCircle
 62
9
  6
CONTINUOUS
 10
176.4101800586
 20
224.9490980226
 40
42.503
100
AcDbArc
 50
159.8193340202
 51
161.5923335476
  0
ARC
  5
3A4
100
AcDbEntity
  8
RUNDUNGEN
100
AcDbCircle
 62
9
  6
CONTINUOUS
 10
176.0865732609
 20
225.1842121235
 40
42.503
100
AcDbArc
 50
306.4076664524
 51
308.1806659798
  0
ARC
  5
3A5
100
AcDbEntity
  8
RUNDUNGEN
100
AcDbCircle
 62
9
  6
CONTINUOUS
 10
176.0865732609
 20
225.1842121235
 40
7.7
100
AcDbArc
 50
160.6693929688
 51
234.0
  0
ARC
  5
3A6
100
AcDbEntity
  8
RUNDUNGEN
100
AcDbCircle
 62
9
  6
CONTINUOUS
 10
176.4101800586
 20
224.9490980226
 40
7.7
100
AcDbArc
 50
234.0
 51
307.3306070312
  0
ARC
  5
3A7
100
AcDbEntity
  8
RUNDUNGEN
100
AcDbCircle
 62
7
  6
CONTINUOUS
 10
176.0865732609
 20
225.1842121235
 40
7.5
100
AcDbArc
 50
160.6463938825
 51
234.0
  0
ARC
  5
3A8
100
AcDbEntity
  8
RUNDUNGEN
100
AcDbCircle
 62
7
  6
CONTINUOUS
 10
176.4101800586
 20
224.9490980226
 40
7.5
100
AcDbArc
 50
234.0
 51
307.3536061175
  0
ARC
  5
3A9
100
AcDbEntity
  8
RUNDUNGEN
100
AcDbCircle
 62
7
  6
CONTINUOUS
 10
183.1625976269
 20
218.0798320214
 40
2.0
100
AcDbArc
 50
47.0550650023
 51
123.8193340202
  0
ARC
  5
3AA
100
AcDbEntity
  8
RUNDUNGEN
100
AcDbCircle
 62
9
  6
CONTINUOUS
 10
183.1625976269
 20
218.0798320214
 40
1.8
100
AcDbArc
 50
47.0550650023
 51
123.8193340202
  0
ARC
  5
3AB
100
AcDbEntity
  8
0
100
AcDbCircle
 62
7
  6
CONTINUOUS
 10
320.8141343212
 20
92.8542011589
 40
3.0
100
AcDbArc
 50
90.0
 51
180.0
  0
ARC
  5
3AC
100
AcDbEntity
  8
0
100
AcDbCircle
 62
7
  6
CONTINUOUS
 10
320.8141343212
 20
225.8542011589
 40
3.0
100
AcDbArc
 50
180.0
 51
270.0
  0
ARC
  5
3AD
100
AcDbEntity
  8
0
100
AcDbCircle
 62
7
  6
CONTINUOUS
 10
363.8141343212
 20
92.8542011589
 40
3.0
100
AcDbArc
 50
0.0
 51
90.0
  0
ARC
  5
3AE
100
AcDbEntity
  8
0
100
AcDbCircle
 62
7
  6
CONTINUOUS
 10
363.8141343212
 20
225.8542011589
 40
3.0
100
AcDbArc
 50
270.0
 51
360.0
  0
ARC
  5
3AF
100
AcDbEntity
  8
0
100
AcDbCircle
 62
7
  6
CONTINUOUS
 10
334.8141343212
 20
97.8542011589
 40
2.0
100
AcDbArc
 50
270.0
 51
360.0
  0
ARC
  5
3B0
100
AcDbEntity
  8
0
100
AcDbCircle
 62
7
  6
CONTINUOUS
 10
334.8141343212
 20
119.9542011589
 40
2.0
100
AcDbArc
 50
0.0
 51
90.0
  0
ARC
  5
3B1
100
AcDbEntity
  8
0
100
AcDbCircle
 62
7
  6
CONTINUOUS
 10
334.8141343212
 20
198.7542011589
 40
2.0
100
AcDbArc
 50
270.0
 51
360.0
  0
ARC
  5
3B2
100
AcDbEntity
  8
0
100
AcDbCircle
 62
7
  6
CONTINUOUS
 10
324.8141343212
 20
89.6291411527
 40
2.0
100
AcDbArc
 50
90.0
 51
180.0
  0
ARC
  5
3B3
100
AcDbEntity
  8
0
100
AcDbCircle
 62
7
  6
CONTINUOUS
 10
324.8141343212
 20
229.0792611651
 40
2.0
100
AcDbArc
 50
180.0
 51
270.0
  0
ARC
  5
3B4
100
AcDbEntity
  8
0
100
AcDbCircle
 62
7
  6
CONTINUOUS
 10
334.8141343212
 20
220.8542011589
 40
2.0
100
AcDbArc
 50
0.0
 51
90.0
  0
ARC
  5
3B5
100
AcDbEntity
  8
0
100
AcDbCircle
 62
7
  6
CONTINUOUS
 10
349.8141343212
 20
220.8542011589
 40
2.0
100
AcDbArc
 50
90.0
 51
180.0
  0
ARC
  5
3B6
100
AcDbEntity
  8
0
100
AcDbCircle
 62
7
  6
CONTINUOUS
 10
349.8141343212
 20
119.9542011589
 40
2.0
100
AcDbArc
 50
90.0
 51
180.0
  0
ARC
  5
3B7
100
AcDbEntity
  8
0
100
AcDbCircle
 62
7
  6
CONTINUOUS
 10
349.8141343212
 20
198.7542011589
 40
2.0
100
AcDbArc
 50
180.0
 51
270.0
  0
ARC
  5
3B8
100
AcDbEntity
  8
0
100
AcDbCircle
 62
7
  6
CONTINUOUS
 10
359.8141343212
 20
89.6291411527
 40
2.0
100
AcDbArc
 50
0.0
 51
90.0
  0
ARC
  5
3B9
100
AcDbEntity
  8
0
100
AcDbCircle
 62
7
  6
CONTINUOUS
 10
359.8141343212
 20
229.0792611651
 40
2.0
100
AcDbArc
 50
270.0
 51
360.0
  0
ARC
  5
3BA
100
AcDbEntity
  8
0
100
AcDbCircle
 62
7
  6
CONTINUOUS
 10
349.8141343212
 20
97.8542011589
 40
2.0
100
AcDbArc
 50
180.0
 51
270.0
  0
ARC
  5
3BB
100
AcDbEntity
  8
0
100
AcDbCircle
 62
7
  6
CONTINUOUS
 10
318.1141343212
 20
122.2542011589
 40
0.3
100
AcDbArc
 50
180.0
 51
270.0
  0
ARC
  5
3BC
100
AcDbEntity
  8
0
100
AcDbCircle
 62
7
  6
CONTINUOUS
 10
318.1141343212
 20
196.4542011589
 40
0.3
100
AcDbArc
 50
90.0
 51
180.0
  0
ARC
  5
3BD
100
AcDbEntity
  8
0
100
AcDbCircle
 62
7
  6
CONTINUOUS
 10
366.5141343212
 20
122.2542011589
 40
0.3
100
AcDbArc
 50
270.0
 51
360.0
  0
ARC
  5
3BE
100
AcDbEntity
  8
0
100
AcDbCircle
 62
7
  6
CONTINUOUS
 10
366.5141343212
 20
196.4542011589
 40
0.3
100
AcDbArc
 50
0.0
 51
90.0
  0
ARC
  5
3BF
100
AcDbEntity
  8
0
100
AcDbCircle
 62
7
  6
CONTINUOUS
 10
322.6141343212
 20
77.9175226226
 40
0.2
100
AcDbArc
 50
270.0
 51
360.0
  0
ARC
  5
3C0
100
AcDbEntity
  8
0
100
AcDbCircle
 62
7
  6
CONTINUOUS
 10
322.6141343212
 20
240.7908796952
 40
0.2
100
AcDbArc
 50
0.0
 51
90.0
  0
ARC
  5
3C1
100
AcDbEntity
  8
0
100
AcDbCircle
 62
7
  6
CONTINUOUS
 10
318.0141343212
 20
240.7908796952
 40
0.2
100
AcDbArc
 50
90.0
 51
180.0000000001
  0
ARC
  5
3C2
100
AcDbEntity
  8
0
100
AcDbCircle
 62
7
  6
CONTINUOUS
 10
318.0141343212
 20
77.9175226226
 40
0.2
100
AcDbArc
 50
179.9999999989
 51
270.0
  0
ARC
  5
3C3
100
AcDbEntity
  8
0
100
AcDbCircle
 62
7
  6
CONTINUOUS
 10
322.6141343212
 20
85.8291411527
 40
0.2
100
AcDbArc
 50
270.0
 51
360.0
  0
ARC
  5
3C4
100
AcDbEntity
  8
0
100
AcDbCircle
 62
7
  6
CONTINUOUS
 10
322.6141343212
 20
232.8792611651
 40
0.2
100
AcDbArc
 50
0.0
 51
90.0
  0
ARC
  5
3C5
100
AcDbEntity
  8
0
100
AcDbCircle
 62
7
  6
CONTINUOUS
 10
318.0141343212
 20
85.8291411527
 40
0.2
100
AcDbArc
 50
180.0
 51
270.0
  0
ARC
  5
3C6
100
AcDbEntity
  8
0
100
AcDbCircle
 62
7
  6
CONTINUOUS
 10
318.0141343212
 20
232.8792611651
 40
0.2
100
AcDbArc
 50
90.0
 51
180.0
  0
ARC
  5
3C7
100
AcDbEntity
  8
0
100
AcDbCircle
 62
7
  6
CONTINUOUS
 10
362.0141343212
 20
77.9175226226
 40
0.2
100
AcDbArc
 50
179.9999999999
 51
270.0
  0
ARC
  5
3C8
100
AcDbEntity
  8
0
100
AcDbCircle
 62
7
  6
CONTINUOUS
 10
362.0141343212
 20
240.7908796952
 40
0.2
100
AcDbArc
 50
90.0
 51
180.0000000011
  0
ARC
  5
3C9
100
AcDbEntity
  8
0
100
AcDbCircle
 62
7
  6
CONTINUOUS
 10
366.6141343212
 20
240.7908796952
 40
0.2
100
AcDbArc
 50
0.0
 51
90.0
  0
ARC
  5
3CA
100
AcDbEntity
  8
0
100
AcDbCircle
 62
7
  6
CONTINUOUS
 10
366.6141343212
 20
77.9175226226
 40
0.2
100
AcDbArc
 50
270.0
 51
360.0
  0
ARC
  5
3CB
100
AcDbEntity
  8
0
100
AcDbCircle
 62
7
  6
CONTINUOUS
 10
362.0141343212
 20
85.8291411527
 40
0.2
100
AcDbArc
 50
180.0
 51
270.0
  0
ARC
  5
3CC
100
AcDbEntity
  8
0
100
AcDbCircle
 62
7
  6
CONTINUOUS
 10
362.0141343212
 20
232.8792611651
 40
0.2
100
AcDbArc
 50
90.0
 51
180.0
  0
ARC
  5
3CD
100
AcDbEntity
  8
0
100
AcDbCircle
 62
7
  6
CONTINUOUS
 10
366.6141343212
 20
232.8792611651
 40
0.2
100
AcDbArc
 50
0.0
 51
90.0
  0
ARC
  5
3CE
100
AcDbEntity
  8
0
100
AcDbCircle
 62
7
  6
CONTINUOUS
 10
366.6141343212
 20
85.8291411527
 40
0.2
100
AcDbArc
 50
270.0
 51
360.0
  0
LINE
  5
3CF
100
AcDbEntity
  8
RUNDUNGEN
100
AcDbLine
 62
7
  6
CONTINUOUS
 10
55.5814906181
 20
127.893993688
 11
55.6977350536
 21
127.7312161205
  0
LINE
  5
3D0
100
AcDbEntity
  8
RUNDUNGEN
100
AcDbLine
 62
7
  6
CONTINUOUS
 10
135.8911662542
 20
238.4307792723
 11
136.0818984265
 21
238.3705252792
  0
LINE
  5
3D1
100
AcDbEntity
  8
RUNDUNGEN
100
AcDbLine
 62
7
  6
CONTINUOUS
 10
205.9940804203
 20
141.9423956418
 11
205.9957149501
 21
142.142412225
  0
LINE
  5
3D2
100
AcDbEntity
  8
RUNDUNGEN
100
AcDbLine
 62
7
  6
CONTINUOUS
 10
51.0168881227
 20
176.7660066761
 11
51.0152535929
 21
176.5659900929
  0
LINE
  5
3D3
100
AcDbEntity
  8
RUNDUNGEN
100
AcDbLine
 62
7
  6
CONTINUOUS
 10
76.0502956157
 20
218.9873017622
 11
75.9314064554
 21
218.8264456997
  0
LINE
  5
3D4
100
AcDbEntity
  8
RUNDUNGEN
100
AcDbLine
 62
7
  6
CONTINUOUS
 10
121.1198022888
 20
238.4307792723
 11
120.9290701165
 21
238.3705252792
  0
LINE
  5
3D5
100
AcDbEntity
  8
RUNDUNGEN
100
AcDbLine
 62
7
  6
CONTINUOUS
 10
169.0103884493
 20
91.0387106606
 11
168.820666472
 21
90.975347607
  0
LINE
  5
3D6
100
AcDbEntity
  8
RUNDUNGEN
100
AcDbLine
 62
7
  6
CONTINUOUS
 10
201.4294779249
 20
190.8144086299
 11
201.3132334895
 21
190.9771861974
  0
LINE
  5
3D7
100
AcDbEntity
  8
RUNDUNGEN
100
AcDbLine
 62
7
  6
CONTINUOUS
 10
88.0005800938
 20
91.0387106606
 11
88.1903020711
 21
90.975347607
  0
LINE
  5
3D8
100
AcDbEntity
  8
RUNDUNGEN
100
AcDbLine
 62
7
  6
CONTINUOUS
 10
180.9606729274
 20
99.7211005557
 11
181.0795620876
 21
99.8819566182
  0
LINE
  5
3D9
100
AcDbEntity
  8
RUNDUNGEN
100
AcDbLine
 62
7
  6
CONTINUOUS
 10
169.0103884493
 20
227.6696916573
 11
168.820666472
 21
227.7330547109
  0
LINE
  5
3DA
100
AcDbEntity
  8
RUNDUNGEN
100
AcDbLine
 62
7
  6
CONTINUOUS
 10
88.0005800938
 20
227.6696916573
 11
88.1903020711
 21
227.7330547109
  0
LINE
  5
3DB
100
AcDbEntity
  8
RUNDUNGEN
100
AcDbLine
 62
7
  6
CONTINUOUS
 10
55.5814906181
 20
190.8144086299
 11
55.6977350536
 21
190.9771861974
  0
LINE
  5
3DC
100
AcDbEntity
  8
RUNDUNGEN
100
AcDbLine
 62
7
  6
CONTINUOUS
 10
51.0168881227
 20
141.9423956418
 11
51.0152535929
 21
142.142412225
  0
LINE
  5
3DD
100
AcDbEntity
  8
RUNDUNGEN
100
AcDbLine
 62
7
  6
CONTINUOUS
 10
76.0502956157
 20
99.7211005557
 11
75.9314064554
 21
99.8819566182
  0
LINE
  5
3DE
100
AcDbEntity
  8
RUNDUNGEN
100
AcDbLine
 62
7
  6
CONTINUOUS
 10
121.1198022888
 20
80.2776230455
 11
120.9290701165
 21
80.3378770387
  0
LINE
  5
3DF
100
AcDbEntity
  8
RUNDUNGEN
100
AcDbLine
 62
7
  6
CONTINUOUS
 10
135.8911662542
 20
80.2776230455
 11
136.0818984265
 21
80.3378770387
  0
LINE
  5
3E0
100
AcDbEntity
  8
RUNDUNGEN
100
AcDbLine
 62
7
  6
CONTINUOUS
 10
201.4294779249
 20
127.893993688
 11
201.3132334895
 21
127.7312161205
  0
LINE
  5
3E1
100
AcDbEntity
  8
RUNDUNGEN
100
AcDbLine
 62
7
  6
CONTINUOUS
 10
205.9940804203
 20
176.7660066761
 11
205.9957149501
 21
176.5659900929
  0
LINE
  5
3E2
100
AcDbEntity
  8
RUNDUNGEN
100
AcDbLine
 62
7
  6
CONTINUOUS
 10
180.9606729274
 20
218.9873017622
 11
181.0795620876
 21
218.8264456997
  0
SPLINE
  5
3E3
100
AcDbEntity
  8
RUNDUNGEN
100
AcDbSpline
 62
9
  6
CONTINUOUS
 70
0
 71
3
 72
10
 73
6
 74
0
 42
0.0000001
 43
0.0000001
 44
0.0000000001
 40
0.0
 40
0.0
 40
0.0
 40
0.0
 40
0.1371699636
 40
0.3567219389
 40
1.0
 40
1.0
 40
1.0
 40
1.0
 10
322.8141343212
 20
239.611846381
 30
0.0
 10
322.8141343212
 20
239.6220017412
 30
0.0
 10
322.795374973
 20
239.645752053
 30
0.0
 10
322.7270129823
 20
239.6734400437
 30
0.0
 10
322.6617593278
 20
239.6808426794
 30
0.0
 10
322.6141343212
 20
239.6808426794
 30
0.0
  0
SPLINE
  5
3E4
100
AcDbEntity
  8
RUNDUNGEN
100
AcDbSpline
 62
7
  6
CONTINUOUS
 70
0
 71
3
 72
10
 73
6
 74
0
 42
0.0000001
 43
0.0000001
 44
0.0000000001
 40
0.0
 40
0.0
 40
0.0
 40
0.0
 40
0.6547878277
 40
0.8730873945
 40
1.0
 40
1.0
 40
1.0
 40
1.0
 10
322.6141343212
 20
80.2776230455
 30
0.0
 10
322.6616474836
 20
80.2776230455
 30
0.0
 10
322.7265183547
 20
80.2843494554
 30
0.0
 10
322.7939533047
 20
80.3074281342
 30
0.0
 10
322.8141343212
 20
80.3286679193
 30
0.0
 10
322.8141343212
 20
80.3378770387
 30
0.0
  0
SPLINE
  5
3E5
100
AcDbEntity
  8
RUNDUNGEN
100
AcDbSpline
 62
9
  6
CONTINUOUS
 70
0
 71
3
 72
10
 73
6
 74
0
 42
0.0000001
 43
0.0000001
 44
0.0000000001
 40
0.0
 40
0.0
 40
0.0
 40
0.0
 40
0.1371699642
 40
0.3567219329
 40
1.0
 40
1.0
 40
1.0
 40
1.0
 10
317.8141343212
 20
239.611846381
 30
0.0
 10
317.8141343212
 20
239.6220017413
 30
0.0
 10
317.8328936686
 20
239.6457520538
 30
0.0
 10
317.9012556629
 20
239.6734400371
 30
0.0
 10
317.9665093138
 20
239.6808426947
 30
0.0
 10
318.0141343212
 20
239.6808426947
 30
0.0
  0
SPLINE
  5
3E6
100
AcDbEntity
  8
RUNDUNGEN
100
AcDbSpline
 62
7
  6
CONTINUOUS
 70
0
 71
3
 72
10
 73
6
 74
0
 42
0.0000001
 43
0.0000001
 44
0.0000000001
 40
0.0
 40
0.0
 40
0.0
 40
0.0
 40
0.6547878277
 40
0.8730873945
 40
1.0
 40
1.0
 40
1.0
 40
1.0
 10
322.6141343212
 20
238.4307792723
 30
0.0
 10
322.6616474836
 20
238.4307792723
 30
0.0
 10
322.7265183547
 20
238.4240528625
 30
0.0
 10
322.7939533047
 20
238.4009741837
 30
0.0
 10
322.8141343212
 20
238.3797343985
 30
0.0
 10
322.8141343212
 20
238.3705252792
 30
0.0
  0
SPLINE
  5
3E7
100
AcDbEntity
  8
RUNDUNGEN
100
AcDbSpline
 62
7
  6
CONTINUOUS
 70
0
 71
3
 72
10
 73
6
 74
0
 42
0.0000001
 43
0.0000001
 44
0.0000000001
 40
0.0
 40
0.0
 40
0.0
 40
0.0
 40
0.6547878277
 40
0.8730873945
 40
1.0
 40
1.0
 40
1.0
 40
1.0
 10
318.0141343212
 20
238.4307792723
 30
0.0
 10
317.9666211588
 20
238.4307792723
 30
0.0
 10
317.9017502877
 20
238.4240528625
 30
0.0
 10
317.8343153376
 20
238.4009741837
 30
0.0
 10
317.8141343212
 20
238.3797343985
 30
0.0
 10
317.8141343212
 20
238.3705252792
 30
0.0
  0
SPLINE
  5
3E8
100
AcDbEntity
  8
RUNDUNGEN
100
AcDbSpline
 62
9
  6
CONTINUOUS
 70
0
 71
3
 72
10
 73
6
 74
0
 42
0.0000001
 43
0.0000001
 44
0.0000000001
 40
0.0
 40
0.0
 40
0.0
 40
0.0
 40
0.1371699641
 40
0.3567219341
 40
1.0
 40
1.0
 40
1.0
 40
1.0
 10
322.8141343212
 20
79.0965559369
 30
0.0
 10
322.8141343212
 20
79.0864005766
 30
0.0
 10
322.7953749736
 20
79.0626502642
 30
0.0
 10
322.72701298
 20
79.0349622794
 30
0.0
 10
322.6617593284
 20
79.0275596263
 30
0.0
 10
322.6141343212
 20
79.0275596263
 30
0.0
  0
SPLINE
  5
3E9
100
AcDbEntity
  8
RUNDUNGEN
100
AcDbSpline
 62
9
  6
CONTINUOUS
 70
0
 71
3
 72
10
 73
6
 74
0
 42
0.0000001
 43
0.0000001
 44
0.0000000001
 40
0.0
 40
0.0
 40
0.0
 40
0.0
 40
0.1371699636
 40
0.3567219389
 40
1.0
 40
1.0
 40
1.0
 40
1.0
 10
317.8141343212
 20
79.0965559369
 30
0.0
 10
317.8141343212
 20
79.0864005767
 30
0.0
 10
317.8328936694
 20
79.0626502649
 30
0.0
 10
317.9012556601
 20
79.0349622742
 30
0.0
 10
317.9665093146
 20
79.0275596385
 30
0.0
 10
318.0141343212
 20
79.0275596385
 30
0.0
  0
SPLINE
  5
3EA
100
AcDbEntity
  8
RUNDUNGEN
100
AcDbSpline
 62
7
  6
CONTINUOUS
 70
0
 71
3
 72
10
 73
6
 74
0
 42
0.0000001
 43
0.0000001
 44
0.0000000001
 40
0.0
 40
0.0
 40
0.0
 40
0.0
 40
0.6547878277
 40
0.8730873945
 40
1.0
 40
1.0
 40
1.0
 40
1.0
 10
318.0141343212
 20
80.2776230455
 30
0.0
 10
317.9666211588
 20
80.2776230455
 30
0.0
 10
317.9017502877
 20
80.2843494554
 30
0.0
 10
317.8343153376
 20
80.3074281342
 30
0.0
 10
317.8141343212
 20
80.3286679193
 30
0.0
 10
317.8141343212
 20
80.3378770387
 30
0.0
  0
SPLINE
  5
3EB
100
AcDbEntity
  8
RUNDUNGEN
100
AcDbSpline
 62
9
  6
CONTINUOUS
 70
0
 71
3
 72
10
 73
6
 74
0
 42
0.0000001
 43
0.0000001
 44
0.0000000001
 40
0.0
 40
0.0
 40
0.0
 40
0.0
 40
0.1371699642
 40
0.3567219329
 40
1.0
 40
1.0
 40
1.0
 40
1.0
 10
366.8141343212
 20
79.0965559369
 30
0.0
 10
366.8141343212
 20
79.0864005765
 30
0.0
 10
366.7953749738
 20
79.0626502641
 30
0.0
 10
366.7270129795
 20
79.0349622808
 30
0.0
 10
366.6617593286
 20
79.0275596232
 30
0.0
 10
366.6141343212
 20
79.0275596232
 30
0.0
  0
SPLINE
  5
3EC
100
AcDbEntity
  8
RUNDUNGEN
100
AcDbSpline
 62
9
  6
CONTINUOUS
 70
0
 71
3
 72
10
 73
6
 74
0
 42
0.0000001
 43
0.0000001
 44
0.0000000001
 40
0.0
 40
0.0
 40
0.0
 40
0.0
 40
0.1371699641
 40
0.3567219341
 40
1.0
 40
1.0
 40
1.0
 40
1.0
 10
361.8141343212
 20
239.611846381
 30
0.0
 10
361.8141343212
 20
239.6220017413
 30
0.0
 10
361.8328936688
 20
239.6457520536
 30
0.0
 10
361.9012556623
 20
239.6734400384
 30
0.0
 10
361.966509314
 20
239.6808426916
 30
0.0
 10
362.0141343212
 20
239.6808426916
 30
0.0
  0
SPLINE
  5
3ED
100
AcDbEntity
  8
RUNDUNGEN
100
AcDbSpline
 62
9
  6
CONTINUOUS
 70
0
 71
3
 72
10
 73
6
 74
0
 42
0.0000001
 43
0.0000001
 44
0.0000000001
 40
0.0
 40
0.0
 40
0.0
 40
0.0
 40
0.1371699636
 40
0.3567219389
 40
1.0
 40
1.0
 40
1.0
 40
1.0
 10
361.8141343212
 20
79.0965559369
 30
0.0
 10
361.8141343212
 20
79.0864005767
 30
0.0
 10
361.8328936694
 20
79.0626502649
 30
0.0
 10
361.9012556601
 20
79.0349622742
 30
0.0
 10
361.9665093146
 20
79.0275596385
 30
0.0
 10
362.0141343212
 20
79.0275596385
 30
0.0
  0
SPLINE
  5
3EE
100
AcDbEntity
  8
RUNDUNGEN
100
AcDbSpline
 62
7
  6
CONTINUOUS
 70
0
 71
3
 72
10
 73
6
 74
0
 42
0.0000001
 43
0.0000001
 44
0.0000000001
 40
0.0
 40
0.0
 40
0.0
 40
0.0
 40
0.6547878277
 40
0.8730873945
 40
1.0
 40
1.0
 40
1.0
 40
1.0
 10
362.0141343212
 20
80.2776230455
 30
0.0
 10
361.9666211588
 20
80.2776230455
 30
0.0
 10
361.9017502877
 20
80.2843494554
 30
0.0
 10
361.8343153376
 20
80.3074281342
 30
0.0
 10
361.8141343212
 20
80.3286679193
 30
0.0
 10
361.8141343212
 20
80.3378770387
 30
0.0
  0
SPLINE
  5
3EF
100
AcDbEntity
  8
RUNDUNGEN
100
AcDbSpline
 62
7
  6
CONTINUOUS
 70
0
 71
3
 72
10
 73
6
 74
0
 42
0.0000001
 43
0.0000001
 44
0.0000000001
 40
0.0
 40
0.0
 40
0.0
 40
0.0
 40
0.6547878277
 40
0.8730873945
 40
1.0
 40
1.0
 40
1.0
 40
1.0
 10
362.0141343212
 20
238.4307792723
 30
0.0
 10
361.9666211588
 20
238.4307792723
 30
0.0
 10
361.9017502877
 20
238.4240528625
 30
0.0
 10
361.8343153376
 20
238.4009741837
 30
0.0
 10
361.8141343212
 20
238.3797343985
 30
0.0
 10
361.8141343212
 20
238.3705252792
 30
0.0
  0
SPLINE
  5
3F0
100
AcDbEntity
  8
RUNDUNGEN
100
AcDbSpline
 62
7
  6
CONTINUOUS
 70
0
 71
3
 72
10
 73
6
 74
0
 42
0.0000001
 43
0.0000001
 44
0.0000000001
 40
0.0
 40
0.0
 40
0.0
 40
0.0
 40
0.6547878277
 40
0.8730873945
 40
1.0
 40
1.0
 40
1.0
 40
1.0
 10
366.6141343212
 20
238.4307792723
 30
0.0
 10
366.6616474836
 20
238.4307792723
 30
0.0
 10
366.7265183547
 20
238.4240528625
 30
0.0
 10
366.7939533047
 20
238.4009741837
 30
0.0
 10
366.8141343212
 20
238.3797343985
 30
0.0
 10
366.8141343212
 20
238.3705252792
 30
0.0
  0
SPLINE
  5
3F1
100
AcDbEntity
  8
RUNDUNGEN
100
AcDbSpline
 62
9
  6
CONTINUOUS
 70
0
 71
3
 72
10
 73
6
 74
0
 42
0.0000001
 43
0.0000001
 44
0.0000000001
 40
0.0
 40
0.0
 40
0.0
 40
0.0
 40
0.1371699636
 40
0.3567219389
 40
1.0
 40
1.0
 40
1.0
 40
1.0
 10
366.8141343212
 20
239.611846381
 30
0.0
 10
366.8141343212
 20
239.6220017412
 30
0.0
 10
366.795374973
 20
239.645752053
 30
0.0
 10
366.7270129823
 20
239.6734400437
 30
0.0
 10
366.6617593278
 20
239.6808426794
 30
0.0
 10
366.6141343212
 20
239.6808426794
 30
0.0
  0
SPLINE
  5
3F2
100
AcDbEntity
  8
RUNDUNGEN
100
AcDbSpline
 62
7
  6
CONTINUOUS
 70
0
 71
3
 72
10
 73
6
 74
0
 42
0.0000001
 43
0.0000001
 44
0.0000000001
 40
0.0
 40
0.0
 40
0.0
 40
0.0
 40
0.6547878277
 40
0.8730873945
 40
1.0
 40
1.0
 40
1.0
 40
1.0
 10
366.6141343212
 20
80.2776230455
 30
0.0
 10
366.6616474836
 20
80.2776230455
 30
0.0
 10
366.7265183547
 20
80.2843494554
 30
0.0
 10
366.7939533047
 20
80.3074281342
 30
0.0
 10
366.8141343212
 20
80.3286679193
 30
0.0
 10
366.8141343212
 20
80.3378770387
 30
0.0
  0
ENDSEC
  0
SECTION
  2
OBJECTS
  0
DICTIONARY
  5
C
100
AcDbDictionary
280
0
281
1
  3
ACAD_GROUP
350
D
  3
ACAD_MLINESTYLE
350
17
  3
ACAD_LAYOUT
350
1A
  3
ACAD_PLOTSETTINGS
350
19
  3
ACAD_PLOTSTYLENAME
350
E
  0
DICTIONARY
  5
D
102
{ACAD_REACTORS
330
C
102
}
100
AcDbDictionary
280
0
281
1
  0
ACDBDICTIONARYWDFLT
  5
E
102
{ACAD_REACTORS
330
C
102
}
100
AcDbDictionary
281
1
  3
Normal
350
F
100
AcDbDictionaryWithDefault
340
F
  0
DICTIONARY
  5
17
102
{ACAD_REACTORS
330
C
102
}
100
AcDbDictionary
280
0
281
1
  3
Standard
350
18
  0
DICTIONARY
  5
19
102
{ACAD_REACTORS
330
C
102
}
100
AcDbDictionary
281
1
  0
DICTIONARY
  5
1A
102
{ACAD_REACTORS
330
C
102
}
100
AcDbDictionary
281
1
  3
Model
350
3F3
  3
Layout1
350
3F4
  0
ACDBPLACEHOLDER
  5
F
102
{ACAD_REACTORS
330
E
102
}
  0
MLINESTYLE
  5
18
102
{ACAD_REACTORS
330
17
102
}
100
AcDbMlineStyle
  2
STANDARD
 70
0
  3

 62
256
 51
90.0
 52
90.0
 71
2
 49
0.5
 62
256
  6
BYLAYER
 49
-0.5
 62
256
  6
BYLAYER
  0
LAYOUT
  5
3F3
102
{ACAD_REACTORS
330
1A
102
}
100
AcDbPlotSettings
  1

  2
none_device
  4
ISO_A3_(420.00_x_297.00_MM)
  6

 40
0.0
 41
0.0
 42
0.0
 43
0.0
 44
420.0
 45
297.0
 46
0.0
 47
0.0
 48
0.0
 49
0.0
140
0.0
141
0.0
142
1.0
143
1.0
 70
1024
 72
1
 73
0
 74
0
  7

 75
0
147
1.0
148
0.0
149
0.0
100
AcDbLayout
  1
Model
 70
0
 71
0
 10
0.0
 20
0.0
 11
420.0
 21
297.0
 12
0.0
 22
0.0
 32
0.0
 14
0.0
 24
0.0
 34
0.0
 15
0.0
 25
0.0
 35
0.0
146
0.0
 13
0.0
 23
0.0
 33
0.0
 16
1.0
 26
0.0
 36
0.0
 17
0.0
 27
1.0
 37
0.0
 76
0
330
220
345
0
346
0
  0
LAYOUT
  5
3F4
102
{ACAD_REACTORS
330
1A
102
}
100
AcDbPlotSettings
  1

  2
none_device
  4
ISO_A3_(420.00_x_297.00_MM)
  6

 40
0.0
 41
0.0
 42
0.0
 43
0.0
 44
420.0
 45
297.0
 46
0.0
 47
0.0
 48
0.0
 49
0.0
140
0.0
141
0.0
142
1.0
143
1.0
 70
0
 72
1
 73
0
 74
0
  7

 75
0
147
1.0
148
0.0
149
0.0
100
AcDbLayout
  1
Layout1
 70
0
 71
1
 10
0.0
 20
0.0
 11
420.0
 21
297.0
 12
0.0
 22
0.0
 32
0.0
 14
0.0
 24
0.0
 34
0.0
 15
0.0
 25
0.0
 35
0.0
146
0.0
 13
0.0
 23
0.0
 33
0.0
 16
1.0
 26
0.0
 36
0.0
 17
0.0
 27
1.0
 37
0.0
 76
0
330
221
345
0
346
0
  0
ENDSEC
  0
EOF
