999
DXF file: S:\Prolink\03_Konstruktion\CAD-Plots\Internet\2D_neu\S9\s9-57_ntp_cm_w50.dxf
999
Pro/ENGINEER 2012230 by Parametric Technology Corporation
  0
SECTION
  2
HEADER
  9
$ACADVER
  1
AC1021
  9
$DWGCODEPAGE
  3
ANSI_1252
  9
$EXTMAX
 10
297.0
 20
210.0
 30
0.0
  9
$EXTMIN
 10
0.0
 20
0.0
 30
0.0
  9
$LIMMIN
 10
0.0
 20
0.0
  9
$LIMMAX
 10
297.0
 20
210.0
  9
$VIEWCTR
 10
148.5
 20
105.0
  9
$VIEWSIZE
 40
210.0
  9
$CLAYER
  8
0
  9
$LTSCALE
 40
16.335
  9
$CELTYPE
  6
BYLAYER
  9
$DIMSCALE
 40
1.0
  9
$DIMASZ
 40
3.5
  9
$DIMEXO
 40
0.0
  9
$DIMDLI
 40
11.286
  9
$DIMEXE
 40
1.5
  9
$DIMCEN
 40
2.673
  9
$DIMLFAC
 40
1.0
  9
$DIMBLK
  1
_FILLED
  9
$DIMTXT
 40
3.5
  9
$DIMTOL
 70
1
  9
$DIMLIM
 70
0
  9
$DIMTFAC
 40
1.0
  9
$DIMTP
 40
0.005
  9
$DIMTM
 40
0.005
  9
$DIMGAP
 40
0.625
  9
$DIMDSEP
 70
46
  9
$PDMODE
 70
3
  9
$PDSIZE
 40
0.3125
  9
$HANDSEED
  5
321
  9
$TILEMODE
 70
1
  9
$MEASUREMENT
 70
1
  9
$INSUNITS
 70
4
  0
ENDSEC
  0
SECTION
  2
CLASSES
  0
CLASS
  1
ACDBDICTIONARYWDFLT
  2
AcDbDictionaryWithDefault
  3
AutoCAD 2000
 90
0
 91
1
280
0
281
0
  0
CLASS
  1
ACDBPLACEHOLDER
  2
AcDbPlaceHolder
  3
AutoCAD 2000
 90
0
 91
1
280
0
281
0
  0
CLASS
  1
LAYOUT
  2
AcDbLayout
  3
AutoCAD 2000
 90
0
 91
0
280
0
281
0
  0
ENDSEC
  0
SECTION
  2
TABLES
  0
TABLE
  2
VPORT
  5
8
100
AcDbSymbolTable
 70
2
  0
VPORT
  5
1F4
100
AcDbSymbolTableRecord
100
AcDbViewportTableRecord
  2
*ACTIVE
 70
0
 10
0.0
 20
0.0
 11
1.0
 21
1.0
 12
148.5
 22
105.0
 13
0.0
 23
0.0
 14
1.0
 24
1.0
 15
0.0
 25
0.0
 16
0.0
 26
0.0
 36
1.0
 17
0.0
 27
0.0
 37
0.0
 40
210.0
 41
1.4142857143
 42
50.0
 43
0.0
 44
0.0
 50
0.0
 51
0.0
 71
0
 72
100
 73
1
 74
1
 75
0
 76
0
 77
0
 78
0
  0
ENDTAB
  0
TABLE
  2
LTYPE
  5
5
100
AcDbSymbolTable
 70
6
  0
LTYPE
  5
14
100
AcDbSymbolTableRecord
100
AcDbLinetypeTableRecord
  2
BYBLOCK
 70
0
  3

 72
65
 73
0
 40
0.0
  0
LTYPE
  5
15
100
AcDbSymbolTableRecord
100
AcDbLinetypeTableRecord
  2
BYLAYER
 70
0
  3

 72
65
 73
0
 40
0.0
  0
LTYPE
  5
16
100
AcDbSymbolTableRecord
100
AcDbLinetypeTableRecord
  2
CONTINUOUS
 70
64
  3
Solid line
 72
65
 73
0
 40
0.0
  0
LTYPE
  5
1F5
100
AcDbSymbolTableRecord
100
AcDbLinetypeTableRecord
  2
CENTER
 70
64
  3
____ _ ____ _ ____ _ ____ _ ____ _ ____ _ ____
 72
65
 73
4
 40
0.6
 49
0.375
 74
0
 49
-0.075
 74
0
 49
0.075
 74
0
 49
-0.075
 74
0
  0
LTYPE
  5
1F6
100
AcDbSymbolTableRecord
100
AcDbLinetypeTableRecord
  2
HIDDEN
 70
64
  3
- - - - - - - - - - - - - - - - - - - -
 72
65
 73
2
 40
0.2
 49
0.1
 74
0
 49
-0.1
 74
0
  0
LTYPE
  5
1F7
100
AcDbSymbolTableRecord
100
AcDbLinetypeTableRecord
  2
PHANTOM
 70
64
  3
_____ _ _ _____ _ _ _____ _ _ _____
 72
65
 73
6
 40
0.8
 49
0.45
 74
0
 49
-0.05
 74
0
 49
0.1
 74
0
 49
-0.05
 74
0
 49
0.1
 74
0
 49
-0.05
 74
0
  0
LTYPE
  5
1F8
100
AcDbSymbolTableRecord
100
AcDbLinetypeTableRecord
  2
DOT
 70
64
  3
. . . . . . . . . . . . . . . . . . . .
 72
65
 73
2
 40
0.2
 49
0.1
 74
0
 49
-0.1
 74
0
  0
LTYPE
  5
1F9
100
AcDbSymbolTableRecord
100
AcDbLinetypeTableRecord
  2
DASHED
 70
64
  3
- - - - - - - - - - - - - - - - - - - -
 72
65
 73
2
 40
0.2
 49
0.1
 74
0
 49
-0.1
 74
0
  0
ENDTAB
  0
TABLE
  2
LAYER
  5
2
100
AcDbSymbolTable
 70
36
  0
LAYER
  5
10
100
AcDbSymbolTableRecord
100
AcDbLayerTableRecord
  2
0
 70
0
 62
7
  6
CONTINUOUS
370
-3
390
F
  0
LAYER
  5
1FA
100
AcDbSymbolTableRecord
100
AcDbLayerTableRecord
  2
DEFAULT_1
 70
0
 62
7
  6
CENTER
370
-3
390
F
  0
LAYER
  5
1FB
100
AcDbSymbolTableRecord
100
AcDbLayerTableRecord
  2
DEFAULT_2
 70
0
 62
8
  6
HIDDEN
370
-3
390
F
  0
LAYER
  5
1FC
100
AcDbSymbolTableRecord
100
AcDbLayerTableRecord
  2
DEFAULT_3
 70
0
 62
7
  6
PHANTOM
370
-3
390
F
  0
LAYER
  5
1FD
100
AcDbSymbolTableRecord
100
AcDbLayerTableRecord
  2
01___PRT_ALL_DTM_PLN
 70
0
 62
7
  6
CONTINUOUS
370
-3
390
F
  0
LAYER
  5
1FE
100
AcDbSymbolTableRecord
100
AcDbLayerTableRecord
  2
01___PRT_DEF_DTM_PLN
 70
0
 62
7
  6
CONTINUOUS
370
-3
390
F
  0
LAYER
  5
1FF
100
AcDbSymbolTableRecord
100
AcDbLayerTableRecord
  2
02___PRT_ALL_AXES
 70
0
 62
7
  6
CONTINUOUS
370
-3
390
F
  0
LAYER
  5
200
100
AcDbSymbolTableRecord
100
AcDbLayerTableRecord
  2
03___PRT_ALL_CURVES
 70
0
 62
7
  6
CONTINUOUS
370
-3
390
F
  0
LAYER
  5
201
100
AcDbSymbolTableRecord
100
AcDbLayerTableRecord
  2
04___PRT_ALL_DTM_PNT
 70
0
 62
7
  6
CONTINUOUS
370
-3
390
F
  0
LAYER
  5
202
100
AcDbSymbolTableRecord
100
AcDbLayerTableRecord
  2
05___PRT_ALL_DTM_CSYS
 70
0
 62
7
  6
CONTINUOUS
370
-3
390
F
  0
LAYER
  5
203
100
AcDbSymbolTableRecord
100
AcDbLayerTableRecord
  2
05___PRT_DEF_DTM_CSYS
 70
0
 62
7
  6
CONTINUOUS
370
-3
390
F
  0
LAYER
  5
204
100
AcDbSymbolTableRecord
100
AcDbLayerTableRecord
  2
06___PRT_ALL_SURFS
 70
0
 62
7
  6
CONTINUOUS
370
-3
390
F
  0
LAYER
  5
205
100
AcDbSymbolTableRecord
100
AcDbLayerTableRecord
  2
AUSFORMSCHRAEGEN
 70
0
 62
7
  6
CONTINUOUS
370
-3
390
F
  0
LAYER
  5
206
100
AcDbSymbolTableRecord
100
AcDbLayerTableRecord
  2
BEZUGSACHSEN
 70
0
 62
7
  6
CONTINUOUS
370
-3
390
F
  0
LAYER
  5
207
100
AcDbSymbolTableRecord
100
AcDbLayerTableRecord
  2
BEZUGSEBENE
 70
0
 62
7
  6
CONTINUOUS
370
-3
390
F
  0
LAYER
  5
208
100
AcDbSymbolTableRecord
100
AcDbLayerTableRecord
  2
BEZUGSEBENEN-KES
 70
0
 62
7
  6
CONTINUOUS
370
-3
390
F
  0
LAYER
  5
209
100
AcDbSymbolTableRecord
100
AcDbLayerTableRecord
  2
RUNDUNGEN
 70
0
 62
7
  6
CONTINUOUS
370
-3
390
F
  0
ENDTAB
  0
TABLE
  2
STYLE
  5
3
100
AcDbSymbolTable
 70
1
  0
STYLE
  5
11
100
AcDbSymbolTableRecord
100
AcDbTextStyleTableRecord
  2
STANDARD
 70
0
 40
0.0
 41
0.7
 50
0.0
 71
0
 42
0.2
  3
txt
  4

  0
STYLE
  5
20A
100
AcDbSymbolTableRecord
100
AcDbTextStyleTableRecord
  2
TEXTSTYLE_1
 70
0
 40
0.0
 41
0.8
 50
0.0
 71
0
 42
0.2
  3
gdt
  4

  0
ENDTAB
  0
TABLE
  2
VIEW
  5
6
100
AcDbSymbolTable
 70
0
  0
ENDTAB
  0
TABLE
  2
UCS
  5
7
100
AcDbSymbolTable
 70
0
  0
ENDTAB
  0
TABLE
  2
APPID
  5
9
100
AcDbSymbolTable
 70
1
  0
APPID
  5
20B
100
AcDbSymbolTableRecord
100
AcDbRegAppTableRecord
  2
ACAD
 70
0
  0
ENDTAB
  0
TABLE
  2
BLOCK_RECORD
  5
1
100
AcDbSymbolTable
 70
0
  0
BLOCK_RECORD
  5
20C
100
AcDbSymbolTableRecord
100
AcDbBlockTableRecord
  2
*Model_Space
  0
BLOCK_RECORD
  5
20D
100
AcDbSymbolTableRecord
100
AcDbBlockTableRecord
  2
*Paper_Space
  0
ENDTAB
  0
TABLE
  2
DIMSTYLE
  5
A
100
AcDbSymbolTable
 70
1
100
AcDbDimStyleTable
 71
0
  0
DIMSTYLE
105
20E
100
AcDbSymbolTableRecord
100
AcDbDimStyleTableRecord
  2
STANDARD
 70
0
  3

  4

 40
1.0
 41
3.5
 42
0.0
 43
0.38
 44
1.5
 45
0.0
 46
0.0
 47
0.005
 48
0.005
140
3.5
141
0.09
142
0.0
143
25.4
144
1.0
145
0.0
146
1.0
147
0.625
 71
1.0
 72
0.0
 73
0
 74
0
 75
0
 76
0
 77
1
 78
8
170
0
171
2
172
0
173
0
174
0
175
0
176
0
177
0
178
5
270
2
271
3
272
3
273
2
274
2
275
0
280
0
281
0
282
0
283
1
284
8
285
0
286
0
287
3
288
0
340
11
278
46
  0
ENDTAB
  0
ENDSEC
  0
SECTION
  2
BLOCKS
  0
BLOCK
  5
20
100
AcDbEntity
  8
0
100
AcDbBlockBegin
  2
*Model_Space
 70
0
 10
0.0
 20
0.0
 30
0.0
  3
*Model_Space
  1

  0
ENDBLK
  5
21
100
AcDbEntity
  8
0
100
AcDbBlockEnd
  0
BLOCK
  5
1C
100
AcDbEntity
  8
0
100
AcDbBlockBegin
  2
*Paper_Space
 70
0
 10
0.0
 20
0.0
 30
0.0
  3
*Paper_Space
  1

  0
ENDBLK
  5
1D
100
AcDbEntity
  8
0
100
AcDbBlockEnd
  0
ENDSEC
  0
SECTION
  2
ENTITIES
  0
LINE
  5
20F
100
AcDbEntity
  8
0
100
AcDbLine
 62
7
  6
CONTINUOUS
 10
0.0
 20
0.0
 11
0.0
 21
210.0
  0
LINE
  5
210
100
AcDbEntity
  8
0
100
AcDbLine
 62
7
  6
CONTINUOUS
 10
0.0
 20
0.0
 11
297.0
 21
0.0
  0
LINE
  5
211
100
AcDbEntity
  8
0
100
AcDbLine
 62
7
  6
CONTINUOUS
 10
0.0
 20
210.0
 11
297.0
 21
210.0
  0
LINE
  5
212
100
AcDbEntity
  8
0
100
AcDbLine
 62
7
  6
CONTINUOUS
 10
297.0
 20
0.0
 11
297.0
 21
210.0
  0
LINE
  5
213
100
AcDbEntity
  8
0
100
AcDbLine
 62
7
  6
CONTINUOUS
 10
76.6809303713
 20
152.5151946688
 11
76.6809303714
 21
167.5151946688
  0
LINE
  5
214
100
AcDbEntity
  8
RUNDUNGEN
100
AcDbLine
 62
7
  6
CONTINUOUS
 10
81.9309303713
 20
152.5151946688
 11
81.9309303714
 21
167.5151946688
  0
LINE
  5
215
100
AcDbEntity
  8
RUNDUNGEN
100
AcDbLine
 62
7
  6
CONTINUOUS
 10
82.9309303714
 20
166.5151946688
 11
82.9309303714
 21
153.5151946688
  0
LINE
  5
216
100
AcDbEntity
  8
RUNDUNGEN
100
AcDbLine
 62
7
  6
CONTINUOUS
 10
83.0132082545
 20
166.5151946688
 11
83.0132082545
 21
153.5151946688
  0
LINE
  5
217
100
AcDbEntity
  8
02___PRT_ALL_AXES
100
AcDbLine
 62
7
  6
CONTINUOUS
 10
83.8309303713
 20
167.5101821059
 11
83.8309303713
 21
170.5151946688
  0
LINE
  5
218
100
AcDbEntity
  8
02___PRT_ALL_AXES
100
AcDbLine
 62
7
  6
CONTINUOUS
 10
87.8309303714
 20
167.5053164013
 11
87.8309303714
 21
170.5151946688
  0
LINE
  5
219
100
AcDbEntity
  8
02___PRT_ALL_AXES
100
AcDbLine
 62
7
  6
CONTINUOUS
 10
89.2809303713
 20
167.5151946688
 11
89.2809303713
 21
170.5151946688
  0
LINE
  5
21A
100
AcDbEntity
  8
RUNDUNGEN
100
AcDbLine
 62
7
  6
CONTINUOUS
 10
90.0986524882
 20
153.5151946688
 11
90.0986524882
 21
156.6151946688
  0
LINE
  5
21B
100
AcDbEntity
  8
RUNDUNGEN
100
AcDbLine
 62
7
  6
CONTINUOUS
 10
90.0986524882
 20
163.4151946688
 11
90.0986524882
 21
166.5151946688
  0
LINE
  5
21C
100
AcDbEntity
  8
RUNDUNGEN
100
AcDbLine
 62
7
  6
CONTINUOUS
 10
90.1809303713
 20
153.5151946688
 11
90.1809303713
 21
156.6151946688
  0
LINE
  5
21D
100
AcDbEntity
  8
RUNDUNGEN
100
AcDbLine
 62
7
  6
CONTINUOUS
 10
90.1809303713
 20
163.4151946688
 11
90.1809303713
 21
166.5151946688
  0
LINE
  5
21E
100
AcDbEntity
  8
02___PRT_ALL_AXES
100
AcDbLine
 62
7
  6
CONTINUOUS
 10
91.1809303714
 20
167.5151946688
 11
91.1809303714
 21
170.5151946688
  0
LINE
  5
21F
100
AcDbEntity
  8
0
100
AcDbLine
 62
7
  6
CONTINUOUS
 10
126.6809303713
 20
152.5151946688
 11
119.4309303713
 21
152.5151946688
  0
LINE
  5
220
100
AcDbEntity
  8
0
100
AcDbLine
 62
7
  6
CONTINUOUS
 10
83.9309303714
 20
152.5151946688
 11
76.6809303713
 21
152.5151946688
  0
LINE
  5
221
100
AcDbEntity
  8
0
100
AcDbLine
 62
7
  6
CONTINUOUS
 10
93.8546924501
 20
152.5151946688
 11
109.5071682926
 21
152.5151946688
  0
LINE
  5
222
100
AcDbEntity
  8
RUNDUNGEN
100
AcDbLine
 62
7
  6
CONTINUOUS
 10
81.9312188536
 20
152.5151946688
 11
121.4306285556
 21
152.5151946688
  0
LINE
  5
223
100
AcDbEntity
  8
RUNDUNGEN
100
AcDbLine
 62
7
  6
CONTINUOUS
 10
82.9309303714
 20
153.5151946688
 11
93.1093364576
 21
153.5151946688
  0
LINE
  5
224
100
AcDbEntity
  8
RUNDUNGEN
100
AcDbLine
 62
7
  6
CONTINUOUS
 10
110.2525242851
 20
153.5151946688
 11
120.4309303713
 21
153.5151946688
  0
LINE
  5
225
100
AcDbEntity
  8
02___PRT_ALL_AXES
100
AcDbLine
 62
7
  6
CONTINUOUS
 10
96.1809303713
 20
167.5151946688
 11
96.1809303713
 21
170.5151946688
  0
LINE
  5
226
100
AcDbEntity
  8
0
100
AcDbLine
 62
7
  6
CONTINUOUS
 10
90.1809303713
 20
156.6151946688
 11
90.8990010449
 21
156.6151946688
  0
LINE
  5
227
100
AcDbEntity
  8
RUNDUNGEN
100
AcDbLine
 62
7
  6
CONTINUOUS
 10
89.9645124609
 20
156.6151946688
 11
90.1809303713
 21
156.6151946688
  0
LINE
  5
228
100
AcDbEntity
  8
0
100
AcDbLine
 62
7
  6
CONTINUOUS
 10
112.4628596978
 20
156.6151946688
 11
113.1809303714
 21
156.6151946688
  0
LINE
  5
229
100
AcDbEntity
  8
RUNDUNGEN
100
AcDbLine
 62
7
  6
CONTINUOUS
 10
113.1809303714
 20
156.6151946688
 11
113.3973482818
 21
156.6151946688
  0
LINE
  5
22A
100
AcDbEntity
  8
02___PRT_ALL_AXES
100
AcDbLine
 62
7
  6
CONTINUOUS
 10
99.6809303714
 20
167.5151946688
 11
99.6809303714
 21
170.5151946688
  0
LINE
  5
22B
100
AcDbEntity
  8
02___PRT_ALL_AXES
100
AcDbLine
 62
7
  6
CONTINUOUS
 10
103.6809303714
 20
167.5151946688
 11
103.6809303714
 21
170.5151946688
  0
LINE
  5
22C
100
AcDbEntity
  8
RUNDUNGEN
100
AcDbLine
 62
7
  6
CONTINUOUS
 10
90.1809303713
 20
163.4151946688
 11
89.9645124609
 21
163.4151946688
  0
LINE
  5
22D
100
AcDbEntity
  8
0
100
AcDbLine
 62
7
  6
CONTINUOUS
 10
90.1809303713
 20
163.4151946688
 11
90.8990010449
 21
163.4151946688
  0
LINE
  5
22E
100
AcDbEntity
  8
0
100
AcDbLine
 62
7
  6
CONTINUOUS
 10
112.4628596978
 20
163.4151946688
 11
113.1809303714
 21
163.4151946688
  0
LINE
  5
22F
100
AcDbEntity
  8
RUNDUNGEN
100
AcDbLine
 62
7
  6
CONTINUOUS
 10
113.1809303714
 20
163.4151946688
 11
113.3973482818
 21
163.4151946688
  0
LINE
  5
230
100
AcDbEntity
  8
02___PRT_ALL_AXES
100
AcDbLine
 62
7
  6
CONTINUOUS
 10
107.1809303714
 20
167.5151946688
 11
107.1809303714
 21
170.5151946688
  0
LINE
  5
231
100
AcDbEntity
  8
RUNDUNGEN
100
AcDbLine
 62
7
  6
CONTINUOUS
 10
120.4309303713
 20
166.5151946688
 11
110.2525242851
 21
166.5151946688
  0
LINE
  5
232
100
AcDbEntity
  8
RUNDUNGEN
100
AcDbLine
 62
7
  6
CONTINUOUS
 10
93.1093364576
 20
166.5151946688
 11
82.9309303714
 21
166.5151946688
  0
LINE
  5
233
100
AcDbEntity
  8
0
100
AcDbLine
 62
7
  6
CONTINUOUS
 10
126.6809303713
 20
167.5151946688
 11
119.5309303713
 21
167.5151946688
  0
LINE
  5
234
100
AcDbEntity
  8
02___PRT_ALL_AXES
100
AcDbLine
 62
7
  6
CONTINUOUS
 10
118.769938191
 20
167.5151946688
 11
112.3454861377
 21
167.5151946688
  0
LINE
  5
235
100
AcDbEntity
  8
02___PRT_ALL_AXES
100
AcDbLine
 62
7
  6
CONTINUOUS
 10
91.016374605
 20
167.5151946688
 11
84.5919225517
 21
167.5151946688
  0
LINE
  5
236
100
AcDbEntity
  8
RUNDUNGEN
100
AcDbLine
 62
7
  6
CONTINUOUS
 10
83.8309303713
 20
167.5151946688
 11
76.6809303714
 21
167.5151946688
  0
LINE
  5
237
100
AcDbEntity
  8
0
100
AcDbLine
 62
7
  6
CONTINUOUS
 10
83.8309303713
 20
167.5151946688
 11
76.6809303714
 21
167.5151946688
  0
LINE
  5
238
100
AcDbEntity
  8
RUNDUNGEN
100
AcDbLine
 62
7
  6
CONTINUOUS
 10
91.016374605
 20
167.5151946688
 11
112.3454861377
 21
167.5151946688
  0
LINE
  5
239
100
AcDbEntity
  8
0
100
AcDbLine
 62
7
  6
CONTINUOUS
 10
93.8546924501
 20
167.5151946688
 11
109.5071682926
 21
167.5151946688
  0
LINE
  5
23A
100
AcDbEntity
  8
RUNDUNGEN
100
AcDbLine
 62
7
  6
CONTINUOUS
 10
119.5309303713
 20
167.5151946688
 11
126.6809303714
 21
167.5151946688
  0
LINE
  5
23B
100
AcDbEntity
  8
02___PRT_ALL_AXES
100
AcDbLine
 62
7
  6
CONTINUOUS
 10
83.8309303713
 20
170.5151946688
 11
87.8309303714
 21
170.5151946688
  0
LINE
  5
23C
100
AcDbEntity
  8
02___PRT_ALL_AXES
100
AcDbLine
 62
7
  6
CONTINUOUS
 10
89.2809303713
 20
170.5151946688
 11
96.1809303713
 21
170.5151946688
  0
LINE
  5
23D
100
AcDbEntity
  8
02___PRT_ALL_AXES
100
AcDbLine
 62
7
  6
CONTINUOUS
 10
99.6809303714
 20
170.5151946688
 11
103.6809303714
 21
170.5151946688
  0
LINE
  5
23E
100
AcDbEntity
  8
02___PRT_ALL_AXES
100
AcDbLine
 62
7
  6
CONTINUOUS
 10
107.1809303714
 20
170.5151946688
 11
114.0809303713
 21
170.5151946688
  0
LINE
  5
23F
100
AcDbEntity
  8
02___PRT_ALL_AXES
100
AcDbLine
 62
7
  6
CONTINUOUS
 10
115.5309303713
 20
170.5151946688
 11
119.5309303713
 21
170.5151946688
  0
LINE
  5
240
100
AcDbEntity
  8
02___PRT_ALL_AXES
100
AcDbLine
 62
7
  6
CONTINUOUS
 10
112.1809303713
 20
167.5151946688
 11
112.1809303714
 21
170.5151946688
  0
LINE
  5
241
100
AcDbEntity
  8
RUNDUNGEN
100
AcDbLine
 62
7
  6
CONTINUOUS
 10
113.1809303714
 20
153.5151946688
 11
113.1809303714
 21
156.6151946688
  0
LINE
  5
242
100
AcDbEntity
  8
RUNDUNGEN
100
AcDbLine
 62
7
  6
CONTINUOUS
 10
113.1809303714
 20
163.4151946688
 11
113.1809303714
 21
166.5151946688
  0
LINE
  5
243
100
AcDbEntity
  8
RUNDUNGEN
100
AcDbLine
 62
7
  6
CONTINUOUS
 10
113.2632082545
 20
166.5151946688
 11
113.2632082545
 21
163.4151946688
  0
LINE
  5
244
100
AcDbEntity
  8
RUNDUNGEN
100
AcDbLine
 62
7
  6
CONTINUOUS
 10
113.2632082545
 20
156.6151946688
 11
113.2632082545
 21
153.5151946688
  0
LINE
  5
245
100
AcDbEntity
  8
02___PRT_ALL_AXES
100
AcDbLine
 62
7
  6
CONTINUOUS
 10
114.0809303713
 20
167.5151946688
 11
114.0809303713
 21
170.5151946688
  0
LINE
  5
246
100
AcDbEntity
  8
02___PRT_ALL_AXES
100
AcDbLine
 62
7
  6
CONTINUOUS
 10
115.5309303714
 20
167.5053164013
 11
115.5309303714
 21
170.5151946688
  0
LINE
  5
247
100
AcDbEntity
  8
02___PRT_ALL_AXES
100
AcDbLine
 62
7
  6
CONTINUOUS
 10
119.5309303713
 20
167.5101821059
 11
119.5309303713
 21
170.5151946688
  0
LINE
  5
248
100
AcDbEntity
  8
RUNDUNGEN
100
AcDbLine
 62
7
  6
CONTINUOUS
 10
120.3486524882
 20
153.5151946688
 11
120.3486524882
 21
166.5151946688
  0
LINE
  5
249
100
AcDbEntity
  8
RUNDUNGEN
100
AcDbLine
 62
7
  6
CONTINUOUS
 10
120.4309303713
 20
153.5151946688
 11
120.4309303713
 21
166.5151946688
  0
LINE
  5
24A
100
AcDbEntity
  8
RUNDUNGEN
100
AcDbLine
 62
7
  6
CONTINUOUS
 10
121.4309303714
 20
167.5151946688
 11
121.4309303713
 21
152.5151946688
  0
LINE
  5
24B
100
AcDbEntity
  8
0
100
AcDbLine
 62
7
  6
CONTINUOUS
 10
126.6809303713
 20
152.5151946688
 11
126.6809303714
 21
167.5151946688
  0
LINE
  5
24C
100
AcDbEntity
  8
RUNDUNGEN
100
AcDbLine
 62
7
  6
CONTINUOUS
 10
205.6477653214
 20
153.5151946688
 11
205.6477653214
 21
152.5151946688
  0
LINE
  5
24D
100
AcDbEntity
  8
RUNDUNGEN
100
AcDbLine
 62
7
  6
CONTINUOUS
 10
205.6477653214
 20
166.5151946688
 11
205.6477653276
 21
167.5151946688
  0
LINE
  5
24E
100
AcDbEntity
  8
02___PRT_ALL_AXES
100
AcDbLine
 62
7
  6
CONTINUOUS
 10
212.1705397464
 20
167.5151946688
 11
212.1705397464
 21
170.5151946688
  0
LINE
  5
24F
100
AcDbEntity
  8
RUNDUNGEN
100
AcDbLine
 62
7
  6
CONTINUOUS
 10
214.2134070224
 20
166.5151946688
 11
214.2134070224
 21
152.5151946688
  0
LINE
  5
250
100
AcDbEntity
  8
02___PRT_ALL_AXES
100
AcDbLine
 62
7
  6
CONTINUOUS
 10
214.2134070224
 20
166.5151946688
 11
214.2134070224
 21
167.5102281756
  0
LINE
  5
251
100
AcDbEntity
  8
RUNDUNGEN
100
AcDbLine
 62
7
  6
CONTINUOUS
 10
214.6106300282
 20
166.5151946688
 11
214.6106300282
 21
153.5151946688
  0
LINE
  5
252
100
AcDbEntity
  8
02___PRT_ALL_AXES
100
AcDbLine
 62
7
  6
CONTINUOUS
 10
216.1705397464
 20
167.5151946688
 11
216.1705397464
 21
170.5151946688
  0
LINE
  5
253
100
AcDbEntity
  8
RUNDUNGEN
100
AcDbLine
 62
7
  6
CONTINUOUS
 10
200.1710642435
 20
152.5151946688
 11
253.1705243909
 21
152.5151946688
  0
LINE
  5
254
100
AcDbEntity
  8
RUNDUNGEN
100
AcDbLine
 62
7
  6
CONTINUOUS
 10
205.6477507807
 20
153.5151946688
 11
253.837206413
 21
153.5151946688
  0
LINE
  5
255
100
AcDbEntity
  8
RUNDUNGEN
100
AcDbLine
 62
7
  6
CONTINUOUS
 10
230.6705397464
 20
156.6151946688
 11
246.1705397464
 21
156.6151946688
  0
LINE
  5
256
100
AcDbEntity
  8
0
100
AcDbLine
 62
7
  6
CONTINUOUS
 10
246.1705397464
 20
156.6151946688
 11
250.1705397464
 21
156.6151946688
  0
LINE
  5
257
100
AcDbEntity
  8
02___PRT_ALL_AXES
100
AcDbLine
 62
7
  6
CONTINUOUS
 10
223.6705397464
 20
167.5151946688
 11
223.6705397464
 21
170.5151946688
  0
LINE
  5
258
100
AcDbEntity
  8
02___PRT_ALL_AXES
100
AcDbLine
 62
7
  6
CONTINUOUS
 10
227.6705397464
 20
167.5151946688
 11
227.6705397464
 21
170.5151946688
  0
LINE
  5
259
100
AcDbEntity
  8
RUNDUNGEN
100
AcDbLine
 62
7
  6
CONTINUOUS
 10
246.1705397464
 20
163.4151946688
 11
230.6705397464
 21
163.4151946688
  0
LINE
  5
25A
100
AcDbEntity
  8
0
100
AcDbLine
 62
7
  6
CONTINUOUS
 10
246.1705397464
 20
163.4151946688
 11
250.1705397464
 21
163.4151946688
  0
LINE
  5
25B
100
AcDbEntity
  8
02___PRT_ALL_AXES
100
AcDbLine
 62
7
  6
CONTINUOUS
 10
227.8705397464
 20
167.5151946688
 11
227.8705397464
 21
170.5151946688
  0
LINE
  5
25C
100
AcDbEntity
  8
RUNDUNGEN
100
AcDbLine
 62
7
  6
CONTINUOUS
 10
230.9804494645
 20
153.5151946688
 11
230.9804494645
 21
156.6151946688
  0
LINE
  5
25D
100
AcDbEntity
  8
RUNDUNGEN
100
AcDbLine
 62
7
  6
CONTINUOUS
 10
230.9804494645
 20
163.4151946688
 11
230.9804494645
 21
166.5151946688
  0
LINE
  5
25E
100
AcDbEntity
  8
RUNDUNGEN
100
AcDbLine
 62
7
  6
CONTINUOUS
 10
231.3776724703
 20
152.5151946688
 11
231.3776724703
 21
156.6151946688
  0
LINE
  5
25F
100
AcDbEntity
  8
RUNDUNGEN
100
AcDbLine
 62
7
  6
CONTINUOUS
 10
231.3776724703
 20
163.4151946688
 11
231.3776724687
 21
167.5151946688
  0
LINE
  5
260
100
AcDbEntity
  8
02___PRT_ALL_AXES
100
AcDbLine
 62
7
  6
CONTINUOUS
 10
231.8705397464
 20
167.5151946688
 11
231.8705397464
 21
170.5151946688
  0
LINE
  5
261
100
AcDbEntity
  8
RUNDUNGEN
100
AcDbLine
 62
7
  6
CONTINUOUS
 10
253.837206413
 20
166.5151946688
 11
205.6477502548
 21
166.5151946688
  0
LINE
  5
262
100
AcDbEntity
  8
02___PRT_ALL_AXES
100
AcDbLine
 62
7
  6
CONTINUOUS
 10
246.1705397464
 20
167.5151946688
 11
231.3776724703
 21
167.5151946688
  0
LINE
  5
263
100
AcDbEntity
  8
RUNDUNGEN
100
AcDbLine
 62
7
  6
CONTINUOUS
 10
253.1705397464
 20
167.5151946688
 11
230.5832264587
 21
167.5151946688
  0
LINE
  5
264
100
AcDbEntity
  8
02___PRT_ALL_AXES
100
AcDbLine
 62
7
  6
CONTINUOUS
 10
230.5832264587
 20
167.5151946688
 11
215.7405268873
 21
167.5151946688
  0
LINE
  5
265
100
AcDbEntity
  8
02___PRT_ALL_AXES
100
AcDbLine
 62
7
  6
CONTINUOUS
 10
213.5460399465
 20
167.5151946688
 11
205.6477653214
 21
167.5151946688
  0
LINE
  5
266
100
AcDbEntity
  8
RUNDUNGEN
100
AcDbLine
 62
7
  6
CONTINUOUS
 10
205.6477653214
 20
167.5151946688
 11
200.1710998866
 21
167.5151946688
  0
LINE
  5
267
100
AcDbEntity
  8
02___PRT_ALL_AXES
100
AcDbLine
 62
7
  6
CONTINUOUS
 10
212.170849501
 20
170.5151946688
 11
216.1702299917
 21
170.5151946688
  0
LINE
  5
268
100
AcDbEntity
  8
02___PRT_ALL_AXES
100
AcDbLine
 62
7
  6
CONTINUOUS
 10
223.670849501
 20
170.5151946688
 11
227.6702299917
 21
170.5151946688
  0
LINE
  5
269
100
AcDbEntity
  8
02___PRT_ALL_AXES
100
AcDbLine
 62
7
  6
CONTINUOUS
 10
227.870849501
 20
170.5151946688
 11
231.8702299917
 21
170.5151946688
  0
LINE
  5
26A
100
AcDbEntity
  8
02___PRT_ALL_AXES
100
AcDbLine
 62
7
  6
CONTINUOUS
 10
243.1705397464
 20
170.5151946688
 11
248.1705397464
 21
170.5151946688
  0
LINE
  5
26B
100
AcDbEntity
  8
02___PRT_ALL_AXES
100
AcDbLine
 62
7
  6
CONTINUOUS
 10
243.1705397464
 20
167.5151946688
 11
243.1705397464
 21
170.5151946688
  0
LINE
  5
26C
100
AcDbEntity
  8
RUNDUNGEN
100
AcDbLine
 62
7
  6
CONTINUOUS
 10
246.1705397464
 20
152.5151946688
 11
246.1705397464
 21
156.6151946688
  0
LINE
  5
26D
100
AcDbEntity
  8
RUNDUNGEN
100
AcDbLine
 62
7
  6
CONTINUOUS
 10
246.1705397464
 20
163.4151946688
 11
246.1705397464
 21
167.5151946688
  0
LINE
  5
26E
100
AcDbEntity
  8
02___PRT_ALL_AXES
100
AcDbLine
 62
7
  6
CONTINUOUS
 10
248.1705397464
 20
167.5151946688
 11
248.1705397464
 21
170.5151946688
  0
LINE
  5
26F
100
AcDbEntity
  8
0
100
AcDbLine
 62
7
  6
CONTINUOUS
 10
257.6705397464
 20
157.0151946688
 11
257.6705397464
 21
163.0151946688
  0
LINE
  5
270
100
AcDbEntity
  8
RUNDUNGEN
100
AcDbLine
 62
7
  6
CONTINUOUS
 10
93.8546924501
 20
42.8779511171
 11
109.5071682926
 21
42.8779511171
  0
LINE
  5
271
100
AcDbEntity
  8
0
100
AcDbLine
 62
7
  6
CONTINUOUS
 10
76.6809303713
 20
88.3779511171
 11
76.6809303713
 21
103.3779511171
  0
LINE
  5
272
100
AcDbEntity
  8
RUNDUNGEN
100
AcDbLine
 62
7
  6
CONTINUOUS
 10
81.9309303713
 20
88.3779511171
 11
81.9309303714
 21
95.8779511171
  0
LINE
  5
273
100
AcDbEntity
  8
RUNDUNGEN
100
AcDbLine
 62
7
  6
CONTINUOUS
 10
113.1809303714
 20
49.8779511171
 11
112.1809303713
 21
49.8779511171
  0
LINE
  5
274
100
AcDbEntity
  8
RUNDUNGEN
100
AcDbLine
 62
7
  6
CONTINUOUS
 10
90.1809303713
 20
49.8779511171
 11
91.1809303714
 21
49.8779511171
  0
LINE
  5
275
100
AcDbEntity
  8
RUNDUNGEN
100
AcDbLine
 62
7
  6
CONTINUOUS
 10
82.9309303714
 20
81.835083841
 11
82.9309303714
 21
90.400725542
  0
LINE
  5
276
100
AcDbEntity
  8
02___PRT_ALL_AXES
100
AcDbLine
 62
7
  6
CONTINUOUS
 10
83.9309303714
 20
82.5024509169
 11
83.9309303714
 21
90.400725542
  0
LINE
  5
277
100
AcDbEntity
  8
02___PRT_ALL_AXES
100
AcDbLine
 62
7
  6
CONTINUOUS
 10
83.0132082545
 20
81.4378608352
 11
83.8327528701
 21
81.7925891017
  0
LINE
  5
278
100
AcDbEntity
  8
02___PRT_ALL_AXES
100
AcDbLine
 62
7
  6
CONTINUOUS
 10
87.7078538804
 20
82.5687174606
 11
88.3354987373
 21
95.8778945107
  0
LINE
  5
279
100
AcDbEntity
  8
RUNDUNGEN
100
AcDbLine
 62
7
  6
CONTINUOUS
 10
88.7051513782
 20
82.4878447353
 11
89.410756197
 21
97.4501587823
  0
LINE
  5
27A
100
AcDbEntity
  8
RUNDUNGEN
100
AcDbLine
 62
7
  6
CONTINUOUS
 10
110.2525242851
 20
42.2112844504
 11
109.5071682926
 21
42.8779511171
  0
LINE
  5
27B
100
AcDbEntity
  8
RUNDUNGEN
100
AcDbLine
 62
7
  6
CONTINUOUS
 10
90.1809303713
 20
49.8779511171
 11
90.1809303713
 21
64.6708183932
  0
LINE
  5
27C
100
AcDbEntity
  8
RUNDUNGEN
100
AcDbLine
 62
7
  6
CONTINUOUS
 10
90.0986524882
 20
65.068041399
 11
83.0132082545
 21
81.4378608352
  0
LINE
  5
27D
100
AcDbEntity
  8
02___PRT_ALL_AXES
100
AcDbLine
 62
7
  6
CONTINUOUS
 10
91.016374605
 20
65.4652644047
 11
84.5919225517
 21
80.3079639761
  0
LINE
  5
27E
100
AcDbEntity
  8
02___PRT_ALL_AXES
100
AcDbLine
 62
7
  6
CONTINUOUS
 10
91.1809303714
 20
49.8779511171
 11
91.1809303714
 21
64.6708183932
  0
LINE
  5
27F
100
AcDbEntity
  8
RUNDUNGEN
100
AcDbLine
 62
7
  6
CONTINUOUS
 10
118.8857588986
 20
103.06872386
 11
114.2266388766
 21
98.1877409797
  0
LINE
  5
280
100
AcDbEntity
  8
RUNDUNGEN
100
AcDbLine
 62
7
  6
CONTINUOUS
 10
113.1809303714
 20
64.6708183932
 11
112.1809303713
 21
64.6708183932
  0
LINE
  5
281
100
AcDbEntity
  8
RUNDUNGEN
100
AcDbLine
 62
7
  6
CONTINUOUS
 10
90.1809303713
 20
64.6708183932
 11
91.1809303706
 21
64.6708183948
  0
LINE
  5
282
100
AcDbEntity
  8
0
100
AcDbLine
 62
7
  6
CONTINUOUS
 10
96.9809303713
 20
58.8779511171
 11
96.9809303713
 21
48.3779511171
  0
LINE
  5
283
100
AcDbEntity
  8
RUNDUNGEN
100
AcDbLine
 62
7
  6
CONTINUOUS
 10
98.6088749496
 20
68.2779511171
 11
98.6088749496
 21
69.2779511171
  0
LINE
  5
284
100
AcDbEntity
  8
RUNDUNGEN
100
AcDbLine
 62
7
  6
CONTINUOUS
 10
98.095234149
 20
68.3450328239
 11
98.3520545493
 21
69.3114919705
  0
LINE
  5
285
100
AcDbEntity
  8
RUNDUNGEN
100
AcDbLine
 62
7
  6
CONTINUOUS
 10
104.7529857931
 20
68.2779511171
 11
98.6088749496
 21
68.2779511171
  0
LINE
  5
286
100
AcDbEntity
  8
RUNDUNGEN
100
AcDbLine
 62
7
  6
CONTINUOUS
 10
105.0098061934
 20
69.3114919705
 11
104.7529857931
 21
69.2779511171
  0
LINE
  5
287
100
AcDbEntity
  8
RUNDUNGEN
100
AcDbLine
 62
7
  6
CONTINUOUS
 10
104.7529857931
 20
69.2779511171
 11
98.6088749496
 21
69.2779511171
  0
LINE
  5
288
100
AcDbEntity
  8
RUNDUNGEN
100
AcDbLine
 62
7
  6
CONTINUOUS
 10
98.6088749496
 20
69.2779511171
 11
98.3520545493
 21
69.3114919705
  0
LINE
  5
289
100
AcDbEntity
  8
RUNDUNGEN
100
AcDbLine
 62
7
  6
CONTINUOUS
 10
113.2632082545
 20
65.068041399
 11
112.3454861383
 21
65.465264404
  0
LINE
  5
28A
100
AcDbEntity
  8
RUNDUNGEN
100
AcDbLine
 62
7
  6
CONTINUOUS
 10
104.7529857931
 20
68.2779511171
 11
104.7529857931
 21
69.2779511171
  0
LINE
  5
28B
100
AcDbEntity
  8
RUNDUNGEN
100
AcDbLine
 62
7
  6
CONTINUOUS
 10
90.0986524882
 20
65.068041399
 11
91.016374605
 21
65.4652644047
  0
LINE
  5
28C
100
AcDbEntity
  8
RUNDUNGEN
100
AcDbLine
 62
7
  6
CONTINUOUS
 10
105.2666265937
 20
68.3450328239
 11
105.0098061934
 21
69.3114919705
  0
LINE
  5
28D
100
AcDbEntity
  8
0
100
AcDbLine
 62
7
  6
CONTINUOUS
 10
106.3809303713
 20
58.8779511171
 11
106.3809303713
 21
48.3779511171
  0
LINE
  5
28E
100
AcDbEntity
  8
02___PRT_ALL_AXES
100
AcDbLine
 62
7
  6
CONTINUOUS
 10
112.1809303713
 20
64.6708183932
 11
112.1809303713
 21
49.8779511171
  0
LINE
  5
28F
100
AcDbEntity
  8
02___PRT_ALL_AXES
100
AcDbLine
 62
7
  6
CONTINUOUS
 10
115.6416945182
 20
82.534295456
 11
114.6567093645
 21
82.4878447353
  0
LINE
  5
290
100
AcDbEntity
  8
02___PRT_ALL_AXES
100
AcDbLine
 62
7
  6
CONTINUOUS
 10
120.4309303713
 20
81.835083841
 11
119.5304709177
 21
81.835083841
  0
LINE
  5
291
100
AcDbEntity
  8
02___PRT_ALL_AXES
100
AcDbLine
 62
7
  6
CONTINUOUS
 10
82.9309303714
 20
81.835083841
 11
83.831389825
 21
81.835083841
  0
LINE
  5
292
100
AcDbEntity
  8
02___PRT_ALL_AXES
100
AcDbLine
 62
7
  6
CONTINUOUS
 10
87.7201662245
 20
82.534295456
 11
88.7051513782
 21
82.4878447353
  0
LINE
  5
293
100
AcDbEntity
  8
RUNDUNGEN
100
AcDbLine
 62
7
  6
CONTINUOUS
 10
89.1352218661
 20
98.1877409797
 11
84.4761015655
 21
103.0687241518
  0
LINE
  5
294
100
AcDbEntity
  8
RUNDUNGEN
100
AcDbLine
 62
7
  6
CONTINUOUS
 10
113.9511045457
 20
97.4501587823
 11
114.6567093645
 21
82.4878447353
  0
LINE
  5
295
100
AcDbEntity
  8
RUNDUNGEN
100
AcDbLine
 62
7
  6
CONTINUOUS
 10
113.1809303714
 20
64.6708183932
 11
113.1809303714
 21
49.8779511171
  0
LINE
  5
296
100
AcDbEntity
  8
02___PRT_ALL_AXES
100
AcDbLine
 62
7
  6
CONTINUOUS
 10
118.769938191
 20
80.3079639761
 11
112.3454861377
 21
65.4652644047
  0
LINE
  5
297
100
AcDbEntity
  8
RUNDUNGEN
100
AcDbLine
 62
7
  6
CONTINUOUS
 10
120.3486524882
 20
81.4378608352
 11
113.2632082545
 21
65.068041399
  0
LINE
  5
298
100
AcDbEntity
  8
02___PRT_ALL_AXES
100
AcDbLine
 62
7
  6
CONTINUOUS
 10
115.0263622308
 20
95.8778897316
 11
115.6540068623
 21
82.5687174606
  0
LINE
  5
299
100
AcDbEntity
  8
RUNDUNGEN
100
AcDbLine
 62
7
  6
CONTINUOUS
 10
93.1093364576
 20
42.2112844504
 11
93.8546924501
 21
42.8779511171
  0
LINE
  5
29A
100
AcDbEntity
  8
02___PRT_ALL_AXES
100
AcDbLine
 62
7
  6
CONTINUOUS
 10
119.4309303714
 20
90.400725542
 11
119.4309303714
 21
82.5024509169
  0
LINE
  5
29B
100
AcDbEntity
  8
RUNDUNGEN
100
AcDbLine
 62
7
  6
CONTINUOUS
 10
120.4309303713
 20
90.400725542
 11
120.4309303713
 21
81.835083841
  0
LINE
  5
29C
100
AcDbEntity
  8
0
100
AcDbLine
 62
7
  6
CONTINUOUS
 10
126.6809303714
 20
88.3779511171
 11
121.4309303713
 21
88.3779511171
  0
LINE
  5
29D
100
AcDbEntity
  8
0
100
AcDbLine
 62
7
  6
CONTINUOUS
 10
81.9309303713
 20
88.3779511171
 11
76.6809303713
 21
88.3779511171
  0
LINE
  5
29E
100
AcDbEntity
  8
02___PRT_ALL_AXES
100
AcDbLine
 62
7
  6
CONTINUOUS
 10
120.3486524882
 20
81.4378608352
 11
119.5291078726
 21
81.7925891017
  0
LINE
  5
29F
100
AcDbEntity
  8
RUNDUNGEN
100
AcDbLine
 62
7
  6
CONTINUOUS
 10
121.4309303714
 20
95.8779511171
 11
121.4309303714
 21
88.3779511171
  0
LINE
  5
2A0
100
AcDbEntity
  8
RUNDUNGEN
100
AcDbLine
 62
7
  6
CONTINUOUS
 10
120.4309303713
 20
90.400725542
 11
119.4309303713
 21
90.400725542
  0
LINE
  5
2A1
100
AcDbEntity
  8
RUNDUNGEN
100
AcDbLine
 62
7
  6
CONTINUOUS
 10
82.9309303714
 20
90.400725542
 11
83.9309303694
 21
90.4007255359
  0
LINE
  5
2A2
100
AcDbEntity
  8
RUNDUNGEN
100
AcDbLine
 62
7
  6
CONTINUOUS
 10
115.0263593359
 20
95.8779511171
 11
114.0274694609
 21
95.8308446664
  0
LINE
  5
2A3
100
AcDbEntity
  8
RUNDUNGEN
100
AcDbLine
 62
7
  6
CONTINUOUS
 10
88.3355014068
 20
95.8779511171
 11
89.3343912818
 21
95.8308446664
  0
LINE
  5
2A4
100
AcDbEntity
  8
0
100
AcDbLine
 62
7
  6
CONTINUOUS
 10
126.6809303714
 20
88.3779511171
 11
126.6809303714
 21
103.3779511171
  0
LINE
  5
2A5
100
AcDbEntity
  8
RUNDUNGEN
100
AcDbLine
 62
7
  6
CONTINUOUS
 10
81.9312384197
 20
95.8773909768
 11
88.3354987373
 21
95.8778945107
  0
LINE
  5
2A6
100
AcDbEntity
  8
RUNDUNGEN
100
AcDbLine
 62
7
  6
CONTINUOUS
 10
115.0263622308
 20
95.8778897316
 11
121.430649439
 21
95.8774402806
  0
LINE
  5
2A7
100
AcDbEntity
  8
0
100
AcDbLine
 62
7
  6
CONTINUOUS
 10
126.6809303713
 20
103.3779511171
 11
119.5910361389
 21
103.3779511171
  0
LINE
  5
2A8
100
AcDbEntity
  8
0
100
AcDbLine
 62
7
  6
CONTINUOUS
 10
83.7708256495
 20
103.3779511171
 11
76.6809303713
 21
103.3779511171
  0
ARC
  5
2A9
100
AcDbEntity
  8
02___PRT_ALL_AXES
100
AcDbCircle
 62
7
  6
CONTINUOUS
 10
84.1017052437
 20
166.5149092964
 40
1.0884970265
100
AcDbArc
 50
172.2879244274
 51
179.9849787069
  0
ARC
  5
2AA
100
AcDbEntity
  8
02___PRT_ALL_AXES
100
AcDbCircle
 62
7
  6
CONTINUOUS
 10
119.2601555025
 20
166.5149092957
 40
1.0884970231
100
AcDbArc
 50
0.0150213348
 51
7.7120791287
  0
ARC
  5
2AB
100
AcDbEntity
  8
RUNDUNGEN
100
AcDbCircle
 62
7
  6
CONTINUOUS
 10
119.2603290701
 20
153.5155475832
 40
1.0883234753
100
AcDbArc
 50
351.7200822522
 51
359.9814205007
  0
ARC
  5
2AC
100
AcDbEntity
  8
RUNDUNGEN
100
AcDbCircle
 62
7
  6
CONTINUOUS
 10
112.174885482
 20
166.514841368
 40
1.0883228299
100
AcDbArc
 50
0.0185998572
 51
8.282566149
  0
ARC
  5
2AD
100
AcDbEntity
  8
RUNDUNGEN
100
AcDbCircle
 62
7
  6
CONTINUOUS
 10
91.1869752607
 20
153.5155479697
 40
1.0883228299
100
AcDbArc
 50
180.0185998571
 51
188.282566149
  0
ARC
  5
2AE
100
AcDbEntity
  8
RUNDUNGEN
100
AcDbCircle
 62
7
  6
CONTINUOUS
 10
91.1869752596
 20
166.5148413667
 40
1.0883228288
100
AcDbArc
 50
171.7174241447
 51
179.981400076
  0
ARC
  5
2AF
100
AcDbEntity
  8
RUNDUNGEN
100
AcDbCircle
 62
7
  6
CONTINUOUS
 10
112.1748854831
 20
153.515547971
 40
1.0883228288
100
AcDbArc
 50
351.7174241447
 51
359.981400076
  0
ARC
  5
2B0
100
AcDbEntity
  8
02___PRT_ALL_AXES
100
AcDbCircle
 62
7
  6
CONTINUOUS
 10
83.9309303714
 20
166.5151946688
 40
1.0
100
AcDbArc
 50
95.712713718
 51
180.0
  0
ARC
  5
2B1
100
AcDbEntity
  8
RUNDUNGEN
100
AcDbCircle
 62
7
  6
CONTINUOUS
 10
91.1809303714
 20
166.5151946688
 40
1.0
100
AcDbArc
 50
90.0
 51
180.0
  0
ARC
  5
2B2
100
AcDbEntity
  8
RUNDUNGEN
100
AcDbCircle
 62
7
  6
CONTINUOUS
 10
112.1809303713
 20
166.5151946688
 40
1.0
100
AcDbArc
 50
0.0
 51
90.0
  0
ARC
  5
2B3
100
AcDbEntity
  8
02___PRT_ALL_AXES
100
AcDbCircle
 62
7
  6
CONTINUOUS
 10
119.4309303714
 20
166.5151946688
 40
1.0
100
AcDbArc
 50
0.0
 51
84.287286282
  0
ARC
  5
2B4
100
AcDbEntity
  8
RUNDUNGEN
100
AcDbCircle
 62
7
  6
CONTINUOUS
 10
119.4309303714
 20
153.5151946688
 40
1.0
100
AcDbArc
 50
270.0
 51
360.0
  0
ARC
  5
2B5
100
AcDbEntity
  8
RUNDUNGEN
100
AcDbCircle
 62
7
  6
CONTINUOUS
 10
112.1809303713
 20
153.5151946688
 40
1.0
100
AcDbArc
 50
270.0
 51
360.0
  0
ARC
  5
2B6
100
AcDbEntity
  8
RUNDUNGEN
100
AcDbCircle
 62
7
  6
CONTINUOUS
 10
91.1809303714
 20
153.5151946688
 40
1.0
100
AcDbArc
 50
180.0
 51
270.0
  0
ARC
  5
2B7
100
AcDbEntity
  8
RUNDUNGEN
100
AcDbCircle
 62
7
  6
CONTINUOUS
 10
83.9309303714
 20
153.5151946688
 40
1.0
100
AcDbArc
 50
180.0
 51
270.0
  0
ARC
  5
2B8
100
AcDbEntity
  8
02___PRT_ALL_AXES
100
AcDbCircle
 62
7
  6
CONTINUOUS
 10
214.1704922201
 20
187.4981675261
 40
19.9879854202
100
AcDbArc
 50
270.0001362347
 51
270.1230158464
  0
ARC
  5
2B9
100
AcDbEntity
  8
RUNDUNGEN
100
AcDbCircle
 62
7
  6
CONTINUOUS
 10
200.1705397464
 20
160.0151946688
 40
8.5
100
AcDbArc
 50
310.1190919465
 51
49.8809107647
  0
CIRCLE
  5
2BA
100
AcDbEntity
  8
0
100
AcDbCircle
 62
7
  6
CONTINUOUS
 10
200.1705397464
 20
160.0151946688
 40
7.5
  0
ARC
  5
2BB
100
AcDbEntity
  8
RUNDUNGEN
100
AcDbCircle
 62
7
  6
CONTINUOUS
 10
253.1705397464
 20
163.0151946688
 40
4.5
100
AcDbArc
 50
0.0
 51
90.0
  0
ARC
  5
2BC
100
AcDbEntity
  8
RUNDUNGEN
100
AcDbCircle
 62
7
  6
CONTINUOUS
 10
253.1705397464
 20
157.0151946688
 40
4.5
100
AcDbArc
 50
269.9998044882
 51
360.0
  0
ARC
  5
2BD
100
AcDbEntity
  8
0
100
AcDbCircle
 62
7
  6
CONTINUOUS
 10
230.6705397464
 20
160.0151946688
 40
3.4
100
AcDbArc
 50
90.0
 51
270.0
  0
ARC
  5
2BE
100
AcDbEntity
  8
0
100
AcDbCircle
 62
7
  6
CONTINUOUS
 10
250.1705397464
 20
160.0151946688
 40
3.4
100
AcDbArc
 50
270.0
 51
90.0
  0
CIRCLE
  5
2BF
100
AcDbEntity
  8
0
100
AcDbCircle
 62
7
  6
CONTINUOUS
 10
200.1705397464
 20
160.0151946688
 40
3.25
  0
ARC
  5
2C0
100
AcDbEntity
  8
02___PRT_ALL_AXES
100
AcDbCircle
 62
7
  6
CONTINUOUS
 10
214.2156553551
 20
166.4644271948
 40
1.0458033976
100
AcDbArc
 50
87.794500564
 51
90.1231780988
  0
CIRCLE
  5
2C1
100
AcDbEntity
  8
02___PRT_ALL_AXES
100
AcDbCircle
 62
7
  6
CONTINUOUS
 10
93.6809303714
 20
50.3779511171
 40
2.5
  0
CIRCLE
  5
2C2
100
AcDbEntity
  8
02___PRT_ALL_AXES
100
AcDbCircle
 62
7
  6
CONTINUOUS
 10
91.2809303714
 20
70.3779511171
 40
2.0
  0
ARC
  5
2C3
100
AcDbEntity
  8
RUNDUNGEN
100
AcDbCircle
 62
7
  6
CONTINUOUS
 10
89.1809303713
 20
64.6708183932
 40
2.0
100
AcDbArc
 50
0.0
 51
23.404689551
  0
ARC
  5
2C4
100
AcDbEntity
  8
RUNDUNGEN
100
AcDbCircle
 62
7
  6
CONTINUOUS
 10
98.6088749496
 20
70.2779511171
 40
2.0
100
AcDbArc
 50
255.1185207656
 51
270.0
  0
ARC
  5
2C5
100
AcDbEntity
  8
RUNDUNGEN
100
AcDbCircle
 62
7
  6
CONTINUOUS
 10
98.6088749496
 20
70.2779511171
 40
1.0
100
AcDbArc
 50
255.1185207656
 51
270.0
  0
ARC
  5
2C6
100
AcDbEntity
  8
RUNDUNGEN
100
AcDbCircle
 62
7
  6
CONTINUOUS
 10
89.1809303713
 20
64.6708183932
 40
1.0
100
AcDbArc
 50
0.0
 51
23.404689551
  0
ARC
  5
2C7
100
AcDbEntity
  8
02___PRT_ALL_AXES
100
AcDbCircle
 62
7
  6
CONTINUOUS
 10
101.67114099
 20
81.8754608761
 40
14.0
100
AcDbArc
 50
284.8814792344
 51
307.0560803983
  0
ARC
  5
2C8
100
AcDbEntity
  8
02___PRT_ALL_AXES
100
AcDbCircle
 62
7
  6
CONTINUOUS
 10
101.67114099
 20
81.8754608761
 40
14.0
100
AcDbArc
 50
317.258996992
 51
357.1800417164
  0
ARC
  5
2C9
100
AcDbEntity
  8
RUNDUNGEN
100
AcDbCircle
 62
7
  6
CONTINUOUS
 10
101.67114099
 20
81.8754608761
 40
13.0
100
AcDbArc
 50
284.8814792344
 51
2.7
  0
CIRCLE
  5
2CA
100
AcDbEntity
  8
02___PRT_ALL_AXES
100
AcDbCircle
 62
7
  6
CONTINUOUS
 10
85.8309303713
 20
81.8779511171
 40
2.0
  0
ARC
  5
2CB
100
AcDbEntity
  8
RUNDUNGEN
100
AcDbCircle
 62
7
  6
CONTINUOUS
 10
83.7530724674
 20
102.3779064141
 40
1.0
100
AcDbArc
 50
43.6677801461
 51
89.9975686966
  0
ARC
  5
2CC
100
AcDbEntity
  8
RUNDUNGEN
100
AcDbCircle
 62
7
  6
CONTINUOUS
 10
81.9309303713
 20
87.3779511171
 40
1.0
100
AcDbArc
 50
0.0
 51
90.0
  0
ARC
  5
2CD
100
AcDbEntity
  8
RUNDUNGEN
100
AcDbCircle
 62
7
  6
CONTINUOUS
 10
88.411866322
 20
97.497265233
 40
1.0
100
AcDbArc
 50
357.3
 51
43.6677801461
  0
ARC
  5
2CE
100
AcDbEntity
  8
RUNDUNGEN
100
AcDbCircle
 62
7
  6
CONTINUOUS
 10
83.9309303714
 20
81.835083841
 40
1.0
100
AcDbArc
 50
180.0
 51
203.404689551
  0
ARC
  5
2CF
100
AcDbEntity
  8
0
100
AcDbCircle
 62
7
  6
CONTINUOUS
 10
101.6809303714
 20
49.8779511171
 40
11.5
100
AcDbArc
 50
185.0588717029
 51
187.7142208059
  0
ARC
  5
2D0
100
AcDbEntity
  8
0
100
AcDbCircle
 62
7
  6
CONTINUOUS
 10
101.6809303714
 20
49.8779511171
 40
11.5
100
AcDbArc
 50
192.9883630214
 51
196.1322966875
  0
ARC
  5
2D1
100
AcDbEntity
  8
RUNDUNGEN
100
AcDbCircle
 62
7
  6
CONTINUOUS
 10
101.6809303714
 20
49.8779511171
 40
11.5
100
AcDbArc
 50
180.0
 51
360.0
  0
ARC
  5
2D2
100
AcDbEntity
  8
RUNDUNGEN
100
AcDbCircle
 62
7
  6
CONTINUOUS
 10
101.6809303714
 20
49.8779511171
 40
10.5
100
AcDbArc
 50
318.1896851042
 51
360.0
  0
ARC
  5
2D3
100
AcDbEntity
  8
RUNDUNGEN
100
AcDbCircle
 62
7
  6
CONTINUOUS
 10
101.6809303714
 20
49.8779511171
 40
10.5
100
AcDbArc
 50
180.0
 51
221.8103148958
  0
ARC
  5
2D4
100
AcDbEntity
  8
0
100
AcDbCircle
 62
7
  6
CONTINUOUS
 10
101.6809303714
 20
48.3779511171
 40
4.7
100
AcDbArc
 50
180.0
 51
360.0
  0
ARC
  5
2D5
100
AcDbEntity
  8
0
100
AcDbCircle
 62
7
  6
CONTINUOUS
 10
101.6809303714
 20
58.8779511171
 40
4.7
100
AcDbArc
 50
0.0
 51
180.0
  0
CIRCLE
  5
2D6
100
AcDbEntity
  8
02___PRT_ALL_AXES
100
AcDbCircle
 62
7
  6
CONTINUOUS
 10
101.6809303714
 20
66.1779511171
 40
2.0
  0
ARC
  5
2D7
100
AcDbEntity
  8
RUNDUNGEN
100
AcDbCircle
 62
7
  6
CONTINUOUS
 10
104.7529857931
 20
70.2779511171
 40
2.0
100
AcDbArc
 50
270.0
 51
284.8814792344
  0
ARC
  5
2D8
100
AcDbEntity
  8
RUNDUNGEN
100
AcDbCircle
 62
7
  6
CONTINUOUS
 10
104.7529857931
 20
70.2779511171
 40
1.0
100
AcDbArc
 50
270.0
 51
284.8814792344
  0
CIRCLE
  5
2D9
100
AcDbEntity
  8
02___PRT_ALL_AXES
100
AcDbCircle
 62
7
  6
CONTINUOUS
 10
109.6809303714
 20
50.3779511171
 40
2.5
  0
CIRCLE
  5
2DA
100
AcDbEntity
  8
02___PRT_ALL_AXES
100
AcDbCircle
 62
7
  6
CONTINUOUS
 10
112.0809303714
 20
70.3779511171
 40
2.0
  0
ARC
  5
2DB
100
AcDbEntity
  8
RUNDUNGEN
100
AcDbCircle
 62
7
  6
CONTINUOUS
 10
114.1809303714
 20
64.6708183932
 40
2.0
100
AcDbArc
 50
156.595310449
 51
180.0
  0
ARC
  5
2DC
100
AcDbEntity
  8
RUNDUNGEN
100
AcDbCircle
 62
7
  6
CONTINUOUS
 10
114.1809303714
 20
64.6708183932
 40
1.0
100
AcDbArc
 50
156.595310449
 51
180.0
  0
ARC
  5
2DD
100
AcDbEntity
  8
02___PRT_ALL_AXES
100
AcDbCircle
 62
7
  6
CONTINUOUS
 10
101.6907197527
 20
81.8754608761
 40
14.0
100
AcDbArc
 50
182.8199582836
 51
222.741003008
  0
ARC
  5
2DE
100
AcDbEntity
  8
02___PRT_ALL_AXES
100
AcDbCircle
 62
7
  6
CONTINUOUS
 10
101.6907197527
 20
81.8754608761
 40
14.0
100
AcDbArc
 50
232.9439196017
 51
255.1185207656
  0
ARC
  5
2DF
100
AcDbEntity
  8
RUNDUNGEN
100
AcDbCircle
 62
7
  6
CONTINUOUS
 10
101.6907197527
 20
81.8754608761
 40
13.0
100
AcDbArc
 50
177.3
 51
255.1185207656
  0
CIRCLE
  5
2E0
100
AcDbEntity
  8
02___PRT_ALL_AXES
100
AcDbCircle
 62
7
  6
CONTINUOUS
 10
117.5309303714
 20
81.8779511171
 40
2.0
  0
ARC
  5
2E1
100
AcDbEntity
  8
RUNDUNGEN
100
AcDbCircle
 62
7
  6
CONTINUOUS
 10
119.6087889746
 20
102.3779071466
 40
1.0
100
AcDbArc
 50
90.0023894998
 51
136.3322198539
  0
ARC
  5
2E2
100
AcDbEntity
  8
RUNDUNGEN
100
AcDbCircle
 62
7
  6
CONTINUOUS
 10
121.4309303714
 20
87.3779511171
 40
1.0
100
AcDbArc
 50
90.0
 51
180.0
  0
ARC
  5
2E3
100
AcDbEntity
  8
RUNDUNGEN
100
AcDbCircle
 62
7
  6
CONTINUOUS
 10
114.9499944207
 20
97.497265233
 40
1.0
100
AcDbArc
 50
136.3322198539
 51
182.7
  0
ARC
  5
2E4
100
AcDbEntity
  8
RUNDUNGEN
100
AcDbCircle
 62
7
  6
CONTINUOUS
 10
119.4309303714
 20
81.835083841
 40
1.0
100
AcDbArc
 50
336.595310449
 51
360.0
  0
SPLINE
  5
2E5
100
AcDbEntity
  8
0
100
AcDbSpline
 62
7
  6
CONTINUOUS
 70
0
 71
3
 72
25
 73
21
 74
0
 42
0.0000001
 43
0.0000001
 44
0.0000000001
 40
0.0
 40
0.0
 40
0.0
 40
0.0
 40
0.0330474956
 40
0.052948534
 40
0.0752937793
 40
0.1271813892
 40
0.1880881839
 40
0.2570661447
 40
0.3331041779
 40
0.4148516414
 40
0.500009617
 40
0.5851663844
 40
0.6669128266
 40
0.7429477387
 40
0.8119220636
 40
0.8728256336
 40
0.9247104307
 40
0.947054545
 40
0.9669542958
 40
1.0
 40
1.0
 40
1.0
 40
1.0
 10
90.8990010449
 20
163.4151946688
 30
0.0
 10
90.9911154077
 20
163.4151946688
 30
0.0
 10
91.1381311738
 20
163.3720066143
 30
0.0
 10
91.3216772174
 20
163.2709189828
 30
0.0
 10
91.535510084
 20
163.1175336005
 30
0.0
 10
91.8071252561
 20
162.8540399147
 30
0.0
 10
92.1197611976
 20
162.453709214
 30
0.0
 10
92.4140443645
 20
161.9590747766
 30
0.0
 10
92.6640014184
 20
161.3763338225
 30
0.0
 10
92.8366441643
 20
160.7185749557
 30
0.0
 10
92.8991307276
 20
160.0151157153
 30
0.0
 10
92.8366188035
 20
159.3116621481
 30
0.0
 10
92.6639635253
 20
158.6539220017
 30
0.0
 10
92.4139958693
 20
158.0712092682
 30
0.0
 10
92.1197142008
 20
157.5766063776
 30
0.0
 10
91.8070829846
 20
157.1763065986
 30
0.0
 10
91.5354791989
 20
156.9128301053
 30
0.0
 10
91.3216551857
 20
156.7594574535
 30
0.0
 10
91.1381178478
 20
156.6583782113
 30
0.0
 10
90.9911104146
 20
156.6151946688
 30
0.0
 10
90.8990010449
 20
156.6151946688
 30
0.0
  0
SPLINE
  5
2E6
100
AcDbEntity
  8
0
100
AcDbSpline
 62
7
  6
CONTINUOUS
 70
0
 71
3
 72
25
 73
21
 74
0
 42
0.0000001
 43
0.0000001
 44
0.0000000001
 40
0.0
 40
0.0
 40
0.0
 40
0.0
 40
0.033062005
 40
0.0529764869
 40
0.075332279
 40
0.1272434998
 40
0.1881624354
 40
0.2571148788
 40
0.3331103231
 40
0.4148075068
 40
0.499912952
 40
0.5850263741
 40
0.6667477066
 40
0.7427801935
 40
0.8117779711
 40
0.8727264529
 40
0.9246525755
 40
0.9470135136
 40
0.9669326322
 40
1.0
 40
1.0
 40
1.0
 40
1.0
 10
112.4628596978
 20
156.6151946688
 30
0.0
 10
112.370704539
 20
156.6151946688
 30
0.0
 10
112.2236224717
 20
156.6584456967
 30
0.0
 10
112.0399713903
 20
156.7595650159
 30
0.0
 10
111.8260843844
 20
156.9131092343
 30
0.0
 10
111.5543983884
 20
157.176709262
 30
0.0
 10
111.2418104436
 20
157.577121147
 30
0.0
 10
110.9476591529
 20
158.0716506856
 30
0.0
 10
110.6978578278
 20
158.6540986719
 30
0.0
 10
110.5252660036
 20
159.3114470985
 30
0.0
 10
110.4626731383
 20
160.0144857797
 30
0.0
 10
110.5250087685
 20
160.7176178574
 30
0.0
 10
110.6974650613
 20
161.37520533
 30
0.0
 10
110.947253544
 20
161.9579840947
 30
0.0
 10
111.2414806317
 20
162.4528352531
 30
0.0
 10
111.5541955054
 20
162.8534684465
 30
0.0
 10
111.8259626271
 20
163.1171823591
 30
0.0
 10
112.0398933335
 20
163.2707859777
 30
0.0
 10
112.2235844733
 20
163.3719183223
 30
0.0
 10
112.3706895909
 20
163.4151946688
 30
0.0
 10
112.4628596978
 20
163.4151946688
 30
0.0
  0
SPLINE
  5
2E7
100
AcDbEntity
  8
RUNDUNGEN
100
AcDbSpline
 62
7
  6
CONTINUOUS
 70
0
 71
3
 72
15
 73
11
 74
0
 42
0.0000001
 43
0.0000001
 44
0.0000000001
 40
0.0
 40
0.0
 40
0.0
 40
0.0
 40
0.2769842997
 40
0.4126264429
 40
0.5446405565
 40
0.671419715
 40
0.791022424
 40
0.9011947136
 40
0.9521173139
 40
1.0
 40
1.0
 40
1.0
 40
1.0
 10
101.6809303714
 20
157.0151946688
 30
0.0
 10
102.4421888025
 20
156.6138210532
 30
0.0
 10
103.5761977823
 20
156.0156717814
 30
0.0
 10
105.0882217615
 20
155.2556576041
 30
0.0
 10
106.1952219108
 20
154.7295972931
 30
0.0
 10
107.2741623945
 20
154.2615407112
 30
0.0
 10
108.3130548141
 20
153.8753553007
 30
0.0
 10
109.155227704
 20
153.6402966568
 30
0.0
 10
109.7966445901
 20
153.5353890076
 30
0.0
 10
110.1037528144
 20
153.5151993978
 30
0.0
 10
110.2525242851
 20
153.5151946688
 30
0.0
  0
SPLINE
  5
2E8
100
AcDbEntity
  8
RUNDUNGEN
100
AcDbSpline
 62
7
  6
CONTINUOUS
 70
0
 71
3
 72
15
 73
11
 74
0
 42
0.0000001
 43
0.0000001
 44
0.0000000001
 40
0.0
 40
0.0
 40
0.0
 40
0.0
 40
0.0478826888
 40
0.098805287
 40
0.2089775884
 40
0.3285803082
 40
0.4553594622
 40
0.5873735762
 40
0.7230157341
 40
1.0
 40
1.0
 40
1.0
 40
1.0
 10
93.1093364576
 20
153.5151946688
 30
0.0
 10
93.2581079369
 20
153.5151994851
 30
0.0
 10
93.5652161605
 20
153.5353889343
 30
0.0
 10
94.2066331325
 20
153.6402964248
 30
0.0
 10
95.0488059463
 20
153.875355585
 30
0.0
 10
96.0876985398
 20
154.2615406493
 30
0.0
 10
97.1666389775
 20
154.7295974191
 30
0.0
 10
98.2736391933
 20
155.255657662
 30
0.0
 10
99.7856630431
 20
156.0156719731
 30
0.0
 10
100.9196722358
 20
156.6138207151
 30
0.0
 10
101.6809303714
 20
157.0151946688
 30
0.0
  0
SPLINE
  5
2E9
100
AcDbEntity
  8
RUNDUNGEN
100
AcDbSpline
 62
7
  6
CONTINUOUS
 70
0
 71
3
 72
13
 73
9
 74
0
 42
0.0000001
 43
0.0000001
 44
0.0000000001
 40
0.0
 40
0.0
 40
0.0
 40
0.0
 40
0.2711691802
 40
0.4063089373
 40
0.5372130125
 40
0.7789688837
 40
0.8911571671
 40
1.0
 40
1.0
 40
1.0
 40
1.0
 10
82.9309303713
 20
166.515203719
 30
0.0
 10
82.9309312543
 20
166.6537478196
 30
0.0
 10
82.8593028296
 20
166.8606300946
 30
0.0
 10
82.7077174834
 20
167.0889955678
 30
0.0
 10
82.5328203688
 20
167.2817728633
 30
0.0
 10
82.3254475575
 20
167.4273165769
 30
0.0
 10
82.0998404684
 20
167.5026489203
 30
0.0
 10
81.986539686
 20
167.5151872042
 30
0.0
 10
81.9309303714
 20
167.5151946688
 30
0.0
  0
SPLINE
  5
2EA
100
AcDbEntity
  8
RUNDUNGEN
100
AcDbSpline
 62
7
  6
CONTINUOUS
 70
0
 71
3
 72
13
 73
9
 74
0
 42
0.0000001
 43
0.0000001
 44
0.0000000001
 40
0.0
 40
0.0
 40
0.0
 40
0.0
 40
0.1088422624
 40
0.2210307356
 40
0.4627887597
 40
0.5936925756
 40
0.728831833
 40
1.0
 40
1.0
 40
1.0
 40
1.0
 10
121.4309303714
 20
167.5151946688
 30
0.0
 10
121.3753215599
 20
167.5151878624
 30
0.0
 10
121.262021404
 20
167.50264869
 30
0.0
 10
121.0364143368
 20
167.4273167644
 30
0.0
 10
120.8290410331
 20
167.2817739639
 30
0.0
 10
120.6541420245
 20
167.0889981839
 30
0.0
 10
120.5025646212
 20
166.8606302949
 30
0.0
 10
120.4309289352
 20
166.6537524233
 30
0.0
 10
120.4309303715
 20
166.5152093679
 30
0.0
  0
SPLINE
  5
2EB
100
AcDbEntity
  8
RUNDUNGEN
100
AcDbSpline
 62
7
  6
CONTINUOUS
 70
0
 71
3
 72
13
 73
9
 74
0
 42
0.0000001
 43
0.0000001
 44
0.0000000001
 40
0.0
 40
0.0
 40
0.0
 40
0.0
 40
0.2711679926
 40
0.4063077679
 40
0.5372094649
 40
0.7789662733
 40
0.8911564424
 40
1.0
 40
1.0
 40
1.0
 40
1.0
 10
120.4309303715
 20
153.5151810076
 30
0.0
 10
120.4309290367
 20
153.3766380145
 30
0.0
 10
120.5025625453
 20
153.1697585613
 30
0.0
 10
120.6541447923
 20
152.9413949394
 30
0.0
 10
120.829038687
 20
152.7486171093
 30
0.0
 10
121.0364104308
 20
152.6030714362
 30
0.0
 10
121.2620195423
 20
152.5277429488
 30
0.0
 10
121.3753208875
 20
152.515201983
 30
0.0
 10
121.4309303713
 20
152.5151946688
 30
0.0
  0
SPLINE
  5
2EC
100
AcDbEntity
  8
RUNDUNGEN
100
AcDbSpline
 62
7
  6
CONTINUOUS
 70
0
 71
3
 72
16
 73
12
 74
0
 42
0.0000001
 43
0.0000001
 44
0.0000000001
 40
0.0
 40
0.0
 40
0.0
 40
0.0
 40
0.2880621049
 40
0.4279388136
 40
0.5625256559
 40
0.6895553602
 40
0.8064006559
 40
0.8601637079
 40
0.910410586
 40
0.9569864609
 40
1.0
 40
1.0
 40
1.0
 40
1.0
 10
101.6809303714
 20
163.0151946688
 30
0.0
 10
100.9773358984
 20
163.5374225063
 30
0.0
 10
99.9324179881
 20
164.313841223
 30
0.0
 10
98.5351015586
 20
165.3016020633
 30
0.0
 10
97.5190997838
 20
165.9797268125
 30
0.0
 10
96.5349631278
 20
166.5777196024
 30
0.0
 10
95.7304143057
 20
166.9959539176
 30
0.0
 10
95.1095400956
 20
167.2536763704
 30
0.0
 10
94.6740254295
 20
167.3974426494
 30
0.0
 10
94.2582267674
 20
167.4907352052
 30
0.0
 10
93.9855304195
 20
167.5151946026
 30
0.0
 10
93.8546924501
 20
167.5151946688
 30
0.0
  0
SPLINE
  5
2ED
100
AcDbEntity
  8
RUNDUNGEN
100
AcDbSpline
 62
7
  6
CONTINUOUS
 70
0
 71
3
 72
16
 73
12
 74
0
 42
0.0000001
 43
0.0000001
 44
0.0000000001
 40
0.0
 40
0.0
 40
0.0
 40
0.0
 40
0.2880019813
 40
0.4278513469
 40
0.5624331495
 40
0.6894718144
 40
0.8063382986
 40
0.8601108572
 40
0.9103723034
 40
0.9569801516
 40
1.0
 40
1.0
 40
1.0
 40
1.0
 10
101.6809303714
 20
157.0151946688
 30
0.0
 10
102.3843872407
 20
156.4930874478
 30
0.0
 10
103.4290553988
 20
155.7167768105
 30
0.0
 10
104.8261620139
 20
154.7292045536
 30
0.0
 10
105.8420881174
 20
154.0510951931
 30
0.0
 10
106.8262560558
 20
153.4530049754
 30
0.0
 10
107.6308981136
 20
153.0346872968
 30
0.0
 10
108.2518732597
 20
152.7768529703
 30
0.0
 10
108.6875363746
 20
152.6329797743
 30
0.0
 10
109.1035049344
 20
152.5397150319
 30
0.0
 10
109.3763120607
 20
152.5151954692
 30
0.0
 10
109.5071692968
 20
152.5151946689
 30
0.0
  0
SPLINE
  5
2EE
100
AcDbEntity
  8
02___PRT_ALL_AXES
100
AcDbSpline
 62
7
  6
CONTINUOUS
 70
0
 71
3
 72
11
 73
7
 74
0
 42
0.0000001
 43
0.0000001
 44
0.0000000001
 40
0.0
 40
0.0
 40
0.0
 40
0.0
 40
0.2590906543
 40
0.5124933308
 40
0.7589549274
 40
1.0
 40
1.0
 40
1.0
 40
1.0
 10
83.0230537392
 20
166.6609801991
 30
0.0
 10
83.037604279
 20
166.7685169505
 30
0.0
 10
83.0987750695
 20
166.9783980037
 30
0.0
 10
83.2802351346
 20
167.245803406
 30
0.0
 10
83.5323548641
 20
167.4364547256
 30
0.0
 10
83.7324811551
 20
167.4976996747
 30
0.0
 10
83.8327528701
 20
167.5094558897
 30
0.0
  0
SPLINE
  5
2EF
100
AcDbEntity
  8
02___PRT_ALL_AXES
100
AcDbSpline
 62
7
  6
CONTINUOUS
 70
0
 71
3
 72
15
 73
11
 74
0
 42
0.0000001
 43
0.0000001
 44
0.0000000001
 40
0.0
 40
0.0
 40
0.0
 40
0.0
 40
0.0114110201
 40
0.0298457386
 40
0.0879776476
 40
0.1745217578
 40
0.2891672528
 40
0.4308995381
 40
0.5980640319
 40
1.0
 40
1.0
 40
1.0
 40
1.0
 10
83.8327528701
 20
167.5094558897
 30
0.0
 10
83.8349083878
 20
167.5075122038
 30
0.0
 10
83.841804909
 20
167.5040007716
 30
0.0
 10
83.8628836197
 20
167.4966438994
 30
0.0
 10
83.904082882
 20
167.4896411799
 30
0.0
 10
83.9698937444
 20
167.48539263
 30
0.0
 10
84.0572044881
 20
167.4867340725
 30
0.0
 10
84.1647511177
 20
167.4929949762
 30
0.0
 10
84.3450042695
 20
167.5068298082
 30
0.0
 10
84.4896883999
 20
167.5151946688
 30
0.0
 10
84.5919225517
 20
167.5151946688
 30
0.0
  0
SPLINE
  5
2F0
100
AcDbEntity
  8
RUNDUNGEN
100
AcDbSpline
 62
7
  6
CONTINUOUS
 70
0
 71
3
 72
12
 73
8
 74
0
 42
0.0000001
 43
0.0000001
 44
0.0000000001
 40
0.0
 40
0.0
 40
0.0
 40
0.0
 40
0.2594802564
 40
0.5125498925
 40
0.6367375531
 40
0.759265298
 40
1.0
 40
1.0
 40
1.0
 40
1.0
 10
90.1100040261
 20
166.6716200066
 30
0.0
 10
90.126735992
 20
166.7866683954
 30
0.0
 10
90.1968609013
 20
167.0103778316
 30
0.0
 10
90.3712739396
 20
167.24371601
 30
0.0
 10
90.5490294171
 20
167.3818295407
 30
0.0
 10
90.7437217343
 20
167.4827298181
 30
0.0
 10
90.908514727
 20
167.5151946688
 30
0.0
 10
91.016374605
 20
167.5151946688
 30
0.0
  0
SPLINE
  5
2F1
100
AcDbEntity
  8
RUNDUNGEN
100
AcDbSpline
 62
7
  6
CONTINUOUS
 70
0
 71
3
 72
12
 73
8
 74
0
 42
0.0000001
 43
0.0000001
 44
0.0000000001
 40
0.0
 40
0.0
 40
0.0
 40
0.0
 40
0.2820753476
 40
0.546258455
 40
0.7829954107
 40
0.8931534072
 40
1.0
 40
1.0
 40
1.0
 40
1.0
 10
93.1093364576
 20
166.5151946688
 30
0.0
 10
93.1093364576
 20
166.6441651689
 30
0.0
 10
93.1453443091
 20
166.8956487448
 30
0.0
 10
93.3020901697
 20
167.2240629658
 30
0.0
 10
93.5125152806
 20
167.4220102362
 30
0.0
 10
93.7061740268
 20
167.5017293199
 30
0.0
 10
93.8058400473
 20
167.5151946688
 30
0.0
 10
93.8546924501
 20
167.5151946688
 30
0.0
  0
SPLINE
  5
2F2
100
AcDbEntity
  8
RUNDUNGEN
100
AcDbSpline
 62
7
  6
CONTINUOUS
 70
0
 71
3
 72
12
 73
8
 74
0
 42
0.0000001
 43
0.0000001
 44
0.0000000001
 40
0.0
 40
0.0
 40
0.0
 40
0.0
 40
0.2820753402
 40
0.5462584416
 40
0.7829953986
 40
0.8931534002
 40
1.0
 40
1.0
 40
1.0
 40
1.0
 10
110.2525242851
 20
166.5151946688
 30
0.0
 10
110.252524293
 20
166.6441651671
 30
0.0
 10
110.2165164541
 20
166.8956487425
 30
0.0
 10
110.0597705997
 20
167.2240629665
 30
0.0
 10
109.8493454826
 20
167.4220102375
 30
0.0
 10
109.6556867263
 20
167.5017293195
 30
0.0
 10
109.5560206992
 20
167.5151946688
 30
0.0
 10
109.5071682926
 20
167.5151946688
 30
0.0
  0
SPLINE
  5
2F3
100
AcDbEntity
  8
RUNDUNGEN
100
AcDbSpline
 62
7
  6
CONTINUOUS
 70
0
 71
3
 72
12
 73
8
 74
0
 42
0.0000001
 43
0.0000001
 44
0.0000000001
 40
0.0
 40
0.0
 40
0.0
 40
0.0
 40
0.2594802554
 40
0.5125498941
 40
0.6367375557
 40
0.7592653005
 40
1.0
 40
1.0
 40
1.0
 40
1.0
 10
113.2518567431
 20
166.6716198256
 30
0.0
 10
113.2351247945
 20
166.7866682322
 30
0.0
 10
113.1649999087
 20
167.0103777105
 30
0.0
 10
112.9905868719
 20
167.243715942
 30
0.0
 10
112.8128313806
 20
167.3818295071
 30
0.0
 10
112.6181390437
 20
167.4827298094
 30
0.0
 10
112.4533460296
 20
167.5151946687
 30
0.0
 10
112.3454861383
 20
167.5151946688
 30
0.0
  0
SPLINE
  5
2F4
100
AcDbEntity
  8
02___PRT_ALL_AXES
100
AcDbSpline
 62
7
  6
CONTINUOUS
 70
0
 71
3
 72
15
 73
11
 74
0
 42
0.0000001
 43
0.0000001
 44
0.0000000001
 40
0.0
 40
0.0
 40
0.0
 40
0.0
 40
0.4019920775
 40
0.5691468916
 40
0.7108723979
 40
0.8254839805
 40
0.9120206256
 40
0.9701441002
 40
0.9885809066
 40
1.0
 40
1.0
 40
1.0
 40
1.0
 10
118.769938191
 20
167.5151946688
 30
0.0
 10
118.8721875923
 20
167.5151946688
 30
0.0
 10
119.0168825042
 20
167.5067795842
 30
0.0
 10
119.1971515592
 20
167.4930244819
 30
0.0
 10
119.304683354
 20
167.4866728644
 30
0.0
 10
119.3919818308
 20
167.4854128336
 30
0.0
 10
119.4577851119
 20
167.4896124938
 30
0.0
 10
119.4989764414
 20
167.4966317579
 30
0.0
 10
119.5200590147
 20
167.5039864523
 30
0.0
 10
119.5269508093
 20
167.50751081
 30
0.0
 10
119.5291078726
 20
167.5094558897
 30
0.0
  0
SPLINE
  5
2F5
100
AcDbEntity
  8
02___PRT_ALL_AXES
100
AcDbSpline
 62
7
  6
CONTINUOUS
 70
0
 71
3
 72
11
 73
7
 74
0
 42
0.0000001
 43
0.0000001
 44
0.0000000001
 40
0.0
 40
0.0
 40
0.0
 40
0.0
 40
0.259090653
 40
0.5124933304
 40
0.7589549271
 40
1.0
 40
1.0
 40
1.0
 40
1.0
 10
120.3388069945
 20
166.6609802648
 30
0.0
 10
120.3242564489
 20
166.7685170091
 30
0.0
 10
120.2630856515
 20
166.978398048
 30
0.0
 10
120.0816255841
 20
167.2458034279
 30
0.0
 10
119.8295058635
 20
167.4364547316
 30
0.0
 10
119.6293795825
 20
167.4976996753
 30
0.0
 10
119.5291078726
 20
167.5094558897
 30
0.0
  0
SPLINE
  5
2F6
100
AcDbEntity
  8
RUNDUNGEN
100
AcDbSpline
 62
7
  6
CONTINUOUS
 70
0
 71
3
 72
15
 73
11
 74
0
 42
0.0000001
 43
0.0000001
 44
0.0000000001
 40
0.0
 40
0.0
 40
0.0
 40
0.0
 40
0.2770274931
 40
0.4126904203
 40
0.5447096709
 40
0.6714838014
 40
0.7910721
 40
0.9012269544
 40
0.9521221875
 40
1.0
 40
1.0
 40
1.0
 40
1.0
 10
101.6809303714
 20
163.0151946688
 30
0.0
 10
100.9195306021
 20
163.4165866101
 30
0.0
 10
99.7853703918
 20
164.0148735851
 30
0.0
 10
98.2731457
 20
164.7749636575
 30
0.0
 10
97.1660880259
 20
165.3010537797
 30
0.0
 10
96.0871654119
 20
165.7690351062
 30
0.0
 10
95.0483771242
 20
166.1551769705
 30
0.0
 10
94.2063579343
 20
166.3900895132
 30
0.0
 10
93.5651014431
 20
166.495005203
 30
0.0
 10
93.2580926776
 20
166.5151945529
 30
0.0
 10
93.1093364576
 20
166.5151946688
 30
0.0
  0
SPLINE
  5
2F7
100
AcDbEntity
  8
RUNDUNGEN
100
AcDbSpline
 62
7
  6
CONTINUOUS
 70
0
 71
3
 72
15
 73
11
 74
0
 42
0.0000001
 43
0.0000001
 44
0.0000000001
 40
0.0
 40
0.0
 40
0.0
 40
0.0
 40
0.0478777906
 40
0.0987729984
 40
0.208927803
 40
0.3285160693
 40
0.4552901927
 40
0.5873094402
 40
0.7229723853
 40
1.0
 40
1.0
 40
1.0
 40
1.0
 10
110.2525242851
 20
166.5151946688
 30
0.0
 10
110.1037681333
 20
166.5151945499
 30
0.0
 10
109.7967595145
 20
166.4950052177
 30
0.0
 10
109.1555033149
 20
166.390089616
 30
0.0
 10
108.3134844261
 20
166.1551772421
 30
0.0
 10
107.2746963634
 20
165.7690355629
 30
0.0
 10
106.195773871
 20
165.3010542867
 30
0.0
 10
105.0887161434
 20
164.7749642213
 30
0.0
 10
103.5764910912
 20
164.014873921
 30
0.0
 10
102.4423304363
 20
163.41658686
 30
0.0
 10
101.6809303714
 20
163.0151946688
 30
0.0
  0
SPLINE
  5
2F8
100
AcDbEntity
  8
RUNDUNGEN
100
AcDbSpline
 62
7
  6
CONTINUOUS
 70
0
 71
3
 72
12
 73
8
 74
0
 42
0.0000001
 43
0.0000001
 44
0.0000000001
 40
0.0
 40
0.0
 40
0.0
 40
0.0
 40
0.2594801063
 40
0.5125501593
 40
0.6367378984
 40
0.7592656217
 40
1.0
 40
1.0
 40
1.0
 40
1.0
 10
120.3373082155
 20
153.3588188139
 30
0.0
 10
120.3205809614
 20
153.2437654876
 30
0.0
 10
120.2504623587
 20
153.0200446188
 30
0.0
 10
120.0760499569
 20
152.7866919447
 30
0.0
 10
119.8982908188
 20
152.6485691508
 30
0.0
 10
119.7035930975
 20
152.5476619123
 30
0.0
 10
119.5387940709
 20
152.5151946688
 30
0.0
 10
119.4309303714
 20
152.5151946688
 30
0.0
  0
SPLINE
  5
2F9
100
AcDbEntity
  8
RUNDUNGEN
100
AcDbSpline
 62
7
  6
CONTINUOUS
 70
0
 71
3
 72
12
 73
8
 74
0
 42
0.0000001
 43
0.0000001
 44
0.0000000001
 40
0.0
 40
0.0
 40
0.0
 40
0.0
 40
0.2594802564
 40
0.5125498925
 40
0.6367375531
 40
0.759265298
 40
1.0
 40
1.0
 40
1.0
 40
1.0
 10
113.2518567166
 20
153.358769331
 30
0.0
 10
113.2351247507
 20
153.2437209422
 30
0.0
 10
113.1649998414
 20
153.0200115061
 30
0.0
 10
112.9905868031
 20
152.7866733276
 30
0.0
 10
112.8128313256
 20
152.648559797
 30
0.0
 10
112.6181390084
 20
152.5476595195
 30
0.0
 10
112.4533460157
 20
152.5151946688
 30
0.0
 10
112.3454861377
 20
152.5151946688
 30
0.0
  0
SPLINE
  5
2FA
100
AcDbEntity
  8
RUNDUNGEN
100
AcDbSpline
 62
7
  6
CONTINUOUS
 70
0
 71
3
 72
13
 73
9
 74
0
 42
0.0000001
 43
0.0000001
 44
0.0000000001
 40
0.0
 40
0.0
 40
0.0
 40
0.0
 40
0.1088420547
 40
0.2210298926
 40
0.4627876596
 40
0.5936921869
 40
0.7288314517
 40
1.0
 40
1.0
 40
1.0
 40
1.0
 10
81.9309303713
 20
152.5151946688
 30
0.0
 10
81.986539306
 20
152.5152016581
 30
0.0
 10
82.0998396153
 20
152.5277398384
 30
0.0
 10
82.3254466903
 20
152.6030733853
 30
0.0
 10
82.5328209832
 20
152.7486159554
 30
0.0
 10
82.7077211007
 20
152.9413925416
 30
0.0
 10
82.8592990606
 20
153.1697624631
 30
0.0
 10
82.9309312234
 20
153.3766421237
 30
0.0
 10
82.9309303713
 20
153.5151859452
 30
0.0
  0
SPLINE
  5
2FB
100
AcDbEntity
  8
RUNDUNGEN
100
AcDbSpline
 62
7
  6
CONTINUOUS
 70
0
 71
3
 72
12
 73
8
 74
0
 42
0.0000001
 43
0.0000001
 44
0.0000000001
 40
0.0
 40
0.0
 40
0.0
 40
0.0
 40
0.2820753476
 40
0.546258455
 40
0.7829954107
 40
0.8931534072
 40
1.0
 40
1.0
 40
1.0
 40
1.0
 10
110.2525242851
 20
153.5151946688
 30
0.0
 10
110.2525242851
 20
153.3862241687
 30
0.0
 10
110.2165164336
 20
153.1347405928
 30
0.0
 10
110.059770573
 20
152.8063263718
 30
0.0
 10
109.8493454621
 20
152.6083791014
 30
0.0
 10
109.6556867159
 20
152.5286600177
 30
0.0
 10
109.5560206954
 20
152.5151946688
 30
0.0
 10
109.5071682926
 20
152.5151946688
 30
0.0
  0
SPLINE
  5
2FC
100
AcDbEntity
  8
RUNDUNGEN
100
AcDbSpline
 62
7
  6
CONTINUOUS
 70
0
 71
3
 72
12
 73
8
 74
0
 42
0.0000001
 43
0.0000001
 44
0.0000000001
 40
0.0
 40
0.0
 40
0.0
 40
0.0
 40
0.282075211
 40
0.5462581805
 40
0.7829951496
 40
0.8931532437
 40
1.0
 40
1.0
 40
1.0
 40
1.0
 10
93.1093364576
 20
153.5151946688
 30
0.0
 10
93.1093362488
 20
153.3862241892
 30
0.0
 10
93.1453437777
 20
153.1347405911
 30
0.0
 10
93.3020895155
 20
152.8063262686
 30
0.0
 10
93.5125148111
 20
152.6083790432
 30
0.0
 10
93.7061737834
 20
152.5286600024
 30
0.0
 10
93.8058399566
 20
152.5151946688
 30
0.0
 10
93.8546924501
 20
152.5151946688
 30
0.0
  0
SPLINE
  5
2FD
100
AcDbEntity
  8
RUNDUNGEN
100
AcDbSpline
 62
7
  6
CONTINUOUS
 70
0
 71
3
 72
12
 73
8
 74
0
 42
0.0000001
 43
0.0000001
 44
0.0000000001
 40
0.0
 40
0.0
 40
0.0
 40
0.0
 40
0.2594802554
 40
0.5125498941
 40
0.6367375557
 40
0.7592653005
 40
1.0
 40
1.0
 40
1.0
 40
1.0
 10
90.1100039996
 20
153.358769512
 30
0.0
 10
90.1267359482
 20
153.2437211055
 30
0.0
 10
90.196860834
 20
153.0200116271
 30
0.0
 10
90.3712738708
 20
152.7866733957
 30
0.0
 10
90.5490293621
 20
152.6485598305
 30
0.0
 10
90.743721699
 20
152.5476595282
 30
0.0
 10
90.9085147131
 20
152.5151946689
 30
0.0
 10
91.0163746044
 20
152.5151946688
 30
0.0
  0
SPLINE
  5
2FE
100
AcDbEntity
  8
RUNDUNGEN
100
AcDbSpline
 62
7
  6
CONTINUOUS
 70
0
 71
3
 72
13
 73
9
 74
0
 42
0.0000001
 43
0.0000001
 44
0.0000000001
 40
0.0
 40
0.0
 40
0.0
 40
0.0
 40
0.2591761426
 40
0.5126591708
 40
0.6369360848
 40
0.759233761
 40
0.8801426277
 40
1.0
 40
1.0
 40
1.0
 40
1.0
 10
83.0132082545
 20
153.5151946688
 30
0.0
 10
83.0132082545
 20
153.3855106606
 30
0.0
 10
83.0594616293
 20
153.1266191915
 30
0.0
 10
83.2292184249
 20
152.847373085
 30
0.0
 10
83.4165251729
 20
152.6792761336
 30
0.0
 10
83.5764288436
 20
152.5857659606
 30
0.0
 10
83.750109473
 20
152.5282895875
 30
0.0
 10
83.8709573187
 20
152.5151946688
 30
0.0
 10
83.9309303714
 20
152.5151946688
 30
0.0
  0
SPLINE
  5
2FF
100
AcDbEntity
  8
RUNDUNGEN
100
AcDbSpline
 62
7
  6
CONTINUOUS
 70
0
 71
3
 72
16
 73
12
 74
0
 42
0.0000001
 43
0.0000001
 44
0.0000000001
 40
0.0
 40
0.0
 40
0.0
 40
0.0
 40
0.0430198573
 40
0.0896277152
 40
0.1398891567
 40
0.1936617169
 40
0.3105282239
 40
0.4375668798
 40
0.5721486811
 40
0.7119980677
 40
1.0
 40
1.0
 40
1.0
 40
1.0
 10
93.8546912572
 20
152.5151946689
 30
0.0
 10
93.9855485229
 20
152.5151956196
 30
0.0
 10
94.2583556884
 20
152.5397151422
 30
0.0
 10
94.674324365
 20
152.6329796523
 30
0.0
 10
95.1099874798
 20
152.7768529595
 30
0.0
 10
95.7309626537
 20
153.0346873973
 30
0.0
 10
96.5356048273
 20
153.4530049876
 30
0.0
 10
97.5197728016
 20
154.0510952791
 30
0.0
 10
98.5356988279
 20
154.7292048403
 30
0.0
 10
99.9328059396
 20
155.7167763219
 30
0.0
 10
100.9774723318
 20
156.4930892452
 30
0.0
 10
101.6809303714
 20
157.0151946688
 30
0.0
  0
SPLINE
  5
300
100
AcDbEntity
  8
RUNDUNGEN
100
AcDbSpline
 62
7
  6
CONTINUOUS
 70
0
 71
3
 72
16
 73
12
 74
0
 42
0.0000001
 43
0.0000001
 44
0.0000000001
 40
0.0
 40
0.0
 40
0.0
 40
0.0
 40
0.0430135126
 40
0.0895893559
 40
0.1398362008
 40
0.1935992198
 40
0.3104444667
 40
0.4374741579
 40
0.5720609908
 40
0.7119377242
 40
1.0
 40
1.0
 40
1.0
 40
1.0
 10
109.5071682926
 20
167.5151946688
 30
0.0
 10
109.3763304038
 20
167.5151946007
 30
0.0
 10
109.103634233
 20
167.4907352342
 30
0.0
 10
108.6878358314
 20
167.3974427874
 30
0.0
 10
108.2523214334
 20
167.2536766477
 30
0.0
 10
107.6314475059
 20
166.9959544287
 30
0.0
 10
106.8268988785
 20
166.5777203596
 30
0.0
 10
105.8427623999
 20
165.9797276941
 30
0.0
 10
104.8267605493
 20
165.3016030477
 30
0.0
 10
103.4294436495
 20
164.3138418863
 30
0.0
 10
102.3845253899
 20
163.5374226436
 30
0.0
 10
101.6809303714
 20
163.0151946688
 30
0.0
  0
SPLINE
  5
301
100
AcDbEntity
  8
RUNDUNGEN
100
AcDbSpline
 62
7
  6
CONTINUOUS
 70
0
 71
3
 72
15
 73
11
 74
0
 42
0.0000001
 43
0.0000001
 44
0.0000000001
 40
0.0
 40
0.0
 40
0.0
 40
0.0
 40
0.1597171081
 40
0.3047950099
 40
0.4377942654
 40
0.561146978
 40
0.6770838369
 40
0.7876352413
 40
0.8946936856
 40
1.0
 40
1.0
 40
1.0
 40
1.0
 10
253.837206413
 20
153.5151946688
 30
0.0
 10
254.1434991559
 20
153.5152035386
 30
0.0
 10
254.7301718969
 20
153.5794741767
 30
0.0
 10
255.5320118439
 20
153.8464529261
 30
0.0
 10
256.203884199
 20
154.2324298205
 30
0.0
 10
256.7460290482
 20
154.7036626717
 30
0.0
 10
257.1622440582
 20
155.2349587071
 30
0.0
 10
257.4564895779
 20
155.8072739309
 30
0.0
 10
257.6316177255
 20
156.4049620005
 30
0.0
 10
257.6704867703
 20
156.8132466173
 30
0.0
 10
257.6705397464
 20
157.0151946688
 30
0.0
  0
SPLINE
  5
302
100
AcDbEntity
  8
RUNDUNGEN
100
AcDbSpline
 62
7
  6
CONTINUOUS
 70
0
 71
3
 72
11
 73
7
 74
0
 42
0.0000001
 43
0.0000001
 44
0.0000000001
 40
0.0
 40
0.0
 40
0.0
 40
0.0
 40
0.2475255824
 40
0.4959767166
 40
0.7464927768
 40
1.0
 40
1.0
 40
1.0
 40
1.0
 10
200.1705397464
 20
152.5151946688
 30
0.0
 10
200.6317208231
 20
152.5152085998
 30
0.0
 10
201.5564924329
 20
152.5640290087
 30
0.0
 10
202.9330051877
 20
152.776070303
 30
0.0
 10
204.2971725863
 20
153.1045792697
 30
0.0
 10
205.1967028313
 20
153.3749832102
 30
0.0
 10
205.6477404278
 20
153.5151859452
 30
0.0
  0
SPLINE
  5
303
100
AcDbEntity
  8
RUNDUNGEN
100
AcDbSpline
 62
7
  6
CONTINUOUS
 70
0
 71
3
 72
14
 73
10
 74
0
 42
0.0000001
 43
0.0000001
 44
0.0000000001
 40
0.0
 40
0.0
 40
0.0
 40
0.0
 40
0.3347516119
 40
0.4888294303
 40
0.6277683621
 40
0.7482550427
 40
0.848631707
 40
0.9304345786
 40
1.0
 40
1.0
 40
1.0
 40
1.0
 10
214.6106300282
 20
153.5151946688
 30
0.0
 10
214.6106300282
 20
153.3872213187
 30
0.0
 10
214.5968797872
 20
153.1997439869
 30
0.0
 10
214.547979259
 20
152.9645013411
 30
0.0
 10
214.4998702391
 20
152.8135524695
 30
0.0
 10
214.4413257113
 20
152.6885145095
 30
0.0
 10
214.3738598883
 20
152.5934721268
 30
0.0
 10
214.2982426224
 20
152.5311985647
 30
0.0
 10
214.2400014277
 20
152.5151946688
 30
0.0
 10
214.2134070224
 20
152.5151946688
 30
0.0
  0
SPLINE
  5
304
100
AcDbEntity
  8
RUNDUNGEN
100
AcDbSpline
 62
7
  6
CONTINUOUS
 70
0
 71
3
 72
14
 73
10
 74
0
 42
0.0000001
 43
0.0000001
 44
0.0000000001
 40
0.0
 40
0.0
 40
0.0
 40
0.0
 40
0.3347521292
 40
0.4888297824
 40
0.6277685373
 40
0.7482551463
 40
0.8486317593
 40
0.9304345939
 40
1.0
 40
1.0
 40
1.0
 40
1.0
 10
230.9804494645
 20
153.5151946688
 30
0.0
 10
230.9804494645
 20
153.3872211204
 30
0.0
 10
230.9666992239
 20
153.1997436467
 30
0.0
 10
230.9177985943
 20
152.9645009514
 30
0.0
 10
230.8696895802
 20
152.8135522456
 30
0.0
 10
230.8111450829
 20
152.6885143958
 30
0.0
 10
230.743679271
 20
152.593472084
 30
0.0
 10
230.6680620394
 20
152.531198539
 30
0.0
 10
230.609820859
 20
152.5151946689
 30
0.0
 10
230.5832264594
 20
152.5151946688
 30
0.0
  0
SPLINE
  5
305
100
AcDbEntity
  8
RUNDUNGEN
100
AcDbSpline
 62
7
  6
CONTINUOUS
 70
0
 71
3
 72
13
 73
9
 74
0
 42
0.0000001
 43
0.0000001
 44
0.0000000001
 40
0.0
 40
0.0
 40
0.0
 40
0.0
 40
0.2929288483
 40
0.5623464106
 40
0.683917036
 40
0.795987115
 40
0.9003284652
 40
1.0
 40
1.0
 40
1.0
 40
1.0
 10
253.837206413
 20
153.5151946688
 30
0.0
 10
253.8372061801
 20
153.3865018478
 30
0.0
 10
253.8059100239
 20
153.1383510671
 30
0.0
 10
253.6864991605
 20
152.8566822767
 30
0.0
 10
253.5478209498
 20
152.6829072343
 30
0.0
 10
253.4318102606
 20
152.588074745
 30
0.0
 10
253.3044374096
 20
152.5289028529
 30
0.0
 10
253.2143285745
 20
152.5151946688
 30
0.0
 10
253.1705397463
 20
152.5151946688
 30
0.0
  0
SPLINE
  5
306
100
AcDbEntity
  8
RUNDUNGEN
100
AcDbSpline
 62
7
  6
CONTINUOUS
 70
0
 71
3
 72
13
 73
9
 74
0
 42
0.0000001
 43
0.0000001
 44
0.0000000001
 40
0.0
 40
0.0
 40
0.0
 40
0.0
 40
0.2929286733
 40
0.5623460693
 40
0.6839166706
 40
0.7959867931
 40
0.9003282675
 40
1.0
 40
1.0
 40
1.0
 40
1.0
 10
253.837206413
 20
166.5151946688
 30
0.0
 10
253.837206413
 20
166.6438874628
 30
0.0
 10
253.8059106165
 20
166.8920382543
 30
0.0
 10
253.6864999042
 20
167.1737070956
 30
0.0
 10
253.5478216331
 20
167.347482125
 30
0.0
 10
253.4318107861
 20
167.4423146198
 30
0.0
 10
253.30443769
 20
167.5014864972
 30
0.0
 10
253.2143286783
 20
167.5151946688
 30
0.0
 10
253.1705397464
 20
167.5151946688
 30
0.0
  0
SPLINE
  5
307
100
AcDbEntity
  8
RUNDUNGEN
100
AcDbSpline
 62
7
  6
CONTINUOUS
 70
0
 71
3
 72
14
 73
10
 74
0
 42
0.0000001
 43
0.0000001
 44
0.0000000001
 40
0.0
 40
0.0
 40
0.0
 40
0.0
 40
0.3347521313
 40
0.4888297842
 40
0.6277685377
 40
0.7482551455
 40
0.8486317584
 40
0.9304345934
 40
1.0
 40
1.0
 40
1.0
 40
1.0
 10
230.9804494645
 20
166.5151946688
 30
0.0
 10
230.9804494645
 20
166.6431682182
 30
0.0
 10
230.9666992239
 20
166.8306456927
 30
0.0
 10
230.9177985937
 20
167.0658883881
 30
0.0
 10
230.86968958
 20
167.216837093
 30
0.0
 10
230.8111450827
 20
167.3418749418
 30
0.0
 10
230.7436792714
 20
167.4369172536
 30
0.0
 10
230.6680620392
 20
167.4991907984
 30
0.0
 10
230.6098208585
 20
167.5151946688
 30
0.0
 10
230.5832264587
 20
167.5151946688
 30
0.0
  0
SPLINE
  5
308
100
AcDbEntity
  8
02___PRT_ALL_AXES
100
AcDbSpline
 62
7
  6
CONTINUOUS
 70
0
 71
3
 72
12
 73
8
 74
0
 42
0.0000001
 43
0.0000001
 44
0.0000000001
 40
0.0
 40
0.0
 40
0.0
 40
0.0
 40
0.2857907869
 40
0.5557497325
 40
0.7975386395
 40
0.9043758022
 40
1.0
 40
1.0
 40
1.0
 40
1.0
 10
214.2559017618
 20
167.5094558897
 30
0.0
 10
214.3973253471
 20
167.504008017
 30
0.0
 10
214.6721363573
 20
167.4891113427
 30
0.0
 10
215.0672769561
 20
167.4828964738
 30
0.0
 10
215.3733838744
 20
167.4976594582
 30
0.0
 10
215.592932099
 20
167.5112987561
 30
0.0
 10
215.693172152
 20
167.5151946688
 30
0.0
 10
215.7405268873
 20
167.5151946688
 30
0.0
  0
SPLINE
  5
309
100
AcDbEntity
  8
02___PRT_ALL_AXES
100
AcDbSpline
 62
7
  6
CONTINUOUS
 70
0
 71
3
 72
12
 73
8
 74
0
 42
0.0000001
 43
0.0000001
 44
0.0000000001
 40
0.0
 40
0.0
 40
0.0
 40
0.0
 40
0.3255934083
 40
0.6154314359
 40
0.7380636005
 40
0.8427617596
 40
1.0
 40
1.0
 40
1.0
 40
1.0
 10
214.6106300282
 20
166.5151946688
 30
0.0
 10
214.6106300282
 20
166.634792604
 30
0.0
 10
214.5947497054
 20
166.8611628018
 30
0.0
 10
214.5350177549
 20
167.1271079023
 30
0.0
 10
214.4612505712
 20
167.3033728333
 30
0.0
 10
214.3890594548
 20
167.4235206321
 30
0.0
 10
214.3116499905
 20
167.494355194
 30
0.0
 10
214.2559017618
 20
167.5094558897
 30
0.0
  0
SPLINE
  5
30A
100
AcDbEntity
  8
02___PRT_ALL_AXES
100
AcDbSpline
 62
7
  6
CONTINUOUS
 70
0
 71
3
 72
9
 73
5
 74
0
 42
0.0000001
 43
0.0000001
 44
0.0000000001
 40
0.0
 40
0.0
 40
0.0
 40
0.0
 40
0.4936215844
 40
1.0
 40
1.0
 40
1.0
 40
1.0
 10
213.5460399465
 20
167.5151946688
 30
0.0
 10
213.6487988407
 20
167.5151946688
 30
0.0
 10
213.8569567232
 20
167.512028354
 30
0.0
 10
214.0651252189
 20
167.5101821059
 30
0.0
 10
214.1705397464
 20
167.5101821059
 30
0.0
  0
SPLINE
  5
30B
100
AcDbEntity
  8
RUNDUNGEN
100
AcDbSpline
 62
7
  6
CONTINUOUS
 70
0
 71
3
 72
15
 73
11
 74
0
 42
0.0000001
 43
0.0000001
 44
0.0000000001
 40
0.0
 40
0.0
 40
0.0
 40
0.0
 40
0.105337212
 40
0.212400458
 40
0.3229691149
 40
0.4389168217
 40
0.5622721909
 40
0.6952633769
 40
0.8403309107
 40
1.0
 40
1.0
 40
1.0
 40
1.0
 10
257.6705397464
 20
163.0151946688
 30
0.0
 10
257.670521706
 20
163.2172014214
 30
0.0
 10
257.6316367975
 20
163.6255644842
 30
0.0
 10
257.4563479894
 20
164.2233037577
 30
0.0
 10
257.1621056182
 20
164.795686088
 30
0.0
 10
256.7457871716
 20
165.3269846591
 30
0.0
 10
256.2035731739
 20
165.7981429151
 30
0.0
 10
255.531708333
 20
166.1840735069
 30
0.0
 10
254.729953158
 20
166.450878345
 30
0.0
 10
254.1434062235
 20
166.5151944553
 30
0.0
 10
253.837206413
 20
166.5151946688
 30
0.0
  0
SPLINE
  5
30C
100
AcDbEntity
  8
RUNDUNGEN
100
AcDbSpline
 62
7
  6
CONTINUOUS
 70
0
 71
3
 72
11
 73
7
 74
0
 42
0.0000001
 43
0.0000001
 44
0.0000000001
 40
0.0
 40
0.0
 40
0.0
 40
0.0
 40
0.2535080417
 40
0.5040231769
 40
0.7524737821
 40
1.0
 40
1.0
 40
1.0
 40
1.0
 10
205.6477395142
 20
166.515203719
 30
0.0
 10
205.1967004406
 20
166.6554065602
 30
0.0
 10
204.297170706
 20
166.9258110074
 30
0.0
 10
202.9330044599
 20
167.2543184629
 30
0.0
 10
201.5564936009
 20
167.4663607908
 30
0.0
 10
200.631721926
 20
167.5151797899
 30
0.0
 10
200.1705397464
 20
167.5151946688
 30
0.0
  0
SPLINE
  5
30D
100
AcDbEntity
  8
RUNDUNGEN
100
AcDbSpline
 62
7
  6
CONTINUOUS
 70
0
 71
3
 72
16
 73
12
 74
0
 42
0.0000001
 43
0.0000001
 44
0.0000000001
 40
0.0
 40
0.0
 40
0.0
 40
0.0
 40
0.3571434277
 40
0.5200345003
 40
0.6645966034
 40
0.7861820428
 40
0.8815596104
 40
0.9190901303
 40
0.950193039
 40
0.9762926789
 40
1.0
 40
1.0
 40
1.0
 40
1.0
 10
114.9499944207
 20
97.7463904816
 30
0.0
 10
114.8213122327
 20
97.7387068274
 30
0.0
 10
114.6337545491
 20
97.7245204702
 30
0.0
 10
114.3974528689
 20
97.6822323871
 30
0.0
 10
114.2469033125
 20
97.6452900766
 30
0.0
 10
114.1231996114
 20
97.6032608807
 30
0.0
 10
114.0402817711
 20
97.5624159604
 30
0.0
 10
113.9924312011
 20
97.5272785156
 30
0.0
 10
113.9683559214
 20
97.502686679
 30
0.0
 10
113.9535272101
 20
97.4770016246
 30
0.0
 10
113.9507014469
 20
97.4587064727
 30
0.0
 10
113.9511045457
 20
97.4501587842
 30
0.0
  0
SPLINE
  5
30E
100
AcDbEntity
  8
RUNDUNGEN
100
AcDbSpline
 62
7
  6
CONTINUOUS
 70
0
 71
3
 72
11
 73
7
 74
0
 42
0.0000001
 43
0.0000001
 44
0.0000000001
 40
0.0
 40
0.0
 40
0.0
 40
0.0
 40
0.2497453618
 40
0.4997580051
 40
0.7498628857
 40
1.0
 40
1.0
 40
1.0
 40
1.0
 10
83.9309303714
 20
90.400725542
 30
0.0
 10
83.9309457291
 20
90.8908893514
 30
0.0
 10
83.7825258735
 20
91.8726248757
 30
0.0
 10
83.2906711492
 20
93.2638415949
 30
0.0
 10
82.645678353
 20
94.5895639182
 30
0.0
 10
82.1693961055
 20
95.4480940897
 30
0.0
 10
81.9312384197
 20
95.8773909768
 30
0.0
  0
SPLINE
  5
30F
100
AcDbEntity
  8
RUNDUNGEN
100
AcDbSpline
 62
7
  6
CONTINUOUS
 70
0
 71
3
 72
15
 73
11
 74
0
 42
0.0000001
 43
0.0000001
 44
0.0000000001
 40
0.0
 40
0.0
 40
0.0
 40
0.0
 40
0.3763936598
 40
0.542183931
 40
0.6863361037
 40
0.8052332614
 40
0.8964158418
 40
0.9313143343
 40
0.9594707985
 40
1.0
 40
1.0
 40
1.0
 40
1.0
 10
114.9499944207
 20
97.7463904816
 30
0.0
 10
114.869655896
 20
97.820364626
 30
0.0
 10
114.7481719032
 20
97.920757942
 30
0.0
 10
114.5880309163
 20
98.0391340663
 30
0.0
 10
114.484520078
 20
98.1083446425
 30
0.0
 10
114.3950028322
 20
98.1590247538
 30
0.0
 10
114.3297125848
 20
98.1877408125
 30
0.0
 10
114.286040599
 20
98.1987413613
 30
0.0
 10
114.2564565081
 20
98.201878497
 30
0.0
 10
114.2347583889
 20
98.1962471354
 30
0.0
 10
114.2266388789
 20
98.1877409822
 30
0.0
  0
SPLINE
  5
310
100
AcDbEntity
  8
RUNDUNGEN
100
AcDbSpline
 62
7
  6
CONTINUOUS
 70
0
 71
3
 72
15
 73
11
 74
0
 42
0.0000001
 43
0.0000001
 44
0.0000000001
 40
0.0
 40
0.0
 40
0.0
 40
0.0
 40
0.3763937224
 40
0.5421840231
 40
0.6863361962
 40
0.8052333332
 40
0.8964158604
 40
0.9313142935
 40
0.9594706871
 40
1.0
 40
1.0
 40
1.0
 40
1.0
 10
88.411866322
 20
97.7463904816
 30
0.0
 10
88.4922049583
 20
97.8203645345
 30
0.0
 10
88.6136888689
 20
97.9207579833
 30
0.0
 10
88.7738299184
 20
98.0391340804
 30
0.0
 10
88.8773407802
 20
98.1083446298
 30
0.0
 10
88.9668580335
 20
98.1590246902
 30
0.0
 10
89.0321482411
 20
98.1877407349
 30
0.0
 10
89.0758201369
 20
98.1987413808
 30
0.0
 10
89.1054042306
 20
98.2018786245
 30
0.0
 10
89.1271023368
 20
98.1962471533
 30
0.0
 10
89.1352218692
 20
98.1877409765
 30
0.0
  0
SPLINE
  5
311
100
AcDbEntity
  8
RUNDUNGEN
100
AcDbSpline
 62
7
  6
CONTINUOUS
 70
0
 71
3
 72
16
 73
12
 74
0
 42
0.0000001
 43
0.0000001
 44
0.0000000001
 40
0.0
 40
0.0
 40
0.0
 40
0.0
 40
0.357143374
 40
0.5200344339
 40
0.6645965381
 40
0.7861819913
 40
0.8815595757
 40
0.9190900824
 40
0.9501929727
 40
0.9762926175
 40
1.0
 40
1.0
 40
1.0
 40
1.0
 10
88.411866322
 20
97.7463904816
 30
0.0
 10
88.5405484982
 20
97.7387069187
 30
0.0
 10
88.7281061573
 20
97.7245204654
 30
0.0
 10
88.9644078123
 20
97.6822323741
 30
0.0
 10
89.1149573845
 20
97.6452901117
 30
0.0
 10
89.2386610925
 20
97.6032608835
 30
0.0
 10
89.3215789294
 20
97.5624159502
 30
0.0
 10
89.3694295248
 20
97.5272785501
 30
0.0
 10
89.3935048235
 20
97.5026867439
 30
0.0
 10
89.408333547
 20
97.4770016709
 30
0.0
 10
89.4111592967
 20
97.4587064919
 30
0.0
 10
89.4107561969
 20
97.450158781
 30
0.0
  0
LINE
  5
312
100
AcDbEntity
  8
RUNDUNGEN
100
AcDbLine
 62
7
  6
CONTINUOUS
 10
114.9499944207
 20
97.7463904816
 11
115.0263618418
 21
95.8778897316
  0
SPLINE
  5
313
100
AcDbEntity
  8
RUNDUNGEN
100
AcDbSpline
 62
7
  6
CONTINUOUS
 70
0
 71
3
 72
13
 73
9
 74
0
 42
0.0000001
 43
0.0000001
 44
0.0000000001
 40
0.0
 40
0.0
 40
0.0
 40
0.0
 40
0.1135174487
 40
0.2283225875
 40
0.3456856524
 40
0.466795466
 40
0.7235062862
 40
1.0
 40
1.0
 40
1.0
 40
1.0
 10
101.6809303714
 20
38.3779511171
 30
0.0
 10
101.3260843365
 20
38.3779694135
 30
0.0
 10
100.6115022379
 20
38.4246713938
 30
0.0
 10
99.5486922554
 20
38.6350790499
 30
0.0
 10
98.4988571959
 20
38.9874662918
 30
0.0
 10
97.1014927872
 20
39.6616251041
 30
0.0
 10
95.4404130265
 20
40.8899444472
 30
0.0
 10
94.3482686294
 20
42.1684509725
 30
0.0
 10
93.8546924501
 20
42.8779511171
 30
0.0
  0
SPLINE
  5
314
100
AcDbEntity
  8
RUNDUNGEN
100
AcDbSpline
 62
7
  6
CONTINUOUS
 70
0
 71
3
 72
13
 73
9
 74
0
 42
0.0000001
 43
0.0000001
 44
0.0000000001
 40
0.0
 40
0.0
 40
0.0
 40
0.0
 40
0.2764935645
 40
0.5332043589
 40
0.6543141802
 40
0.7716772725
 40
0.8864824734
 40
1.0
 40
1.0
 40
1.0
 40
1.0
 10
109.5071682926
 20
42.8779511171
 30
0.0
 10
109.0135923652
 20
42.1684513655
 30
0.0
 10
107.9214484288
 20
40.8899452
 30
0.0
 10
106.2603692737
 20
39.6616259338
 30
0.0
 10
104.8630049566
 20
38.987466859
 30
0.0
 10
103.813169666
 20
38.6350793563
 30
0.0
 10
102.7503591842
 20
38.4246714396
 30
0.0
 10
102.0357766498
 20
38.3779695366
 30
0.0
 10
101.6809303714
 20
38.3779511171
 30
0.0
  0
LINE
  5
315
100
AcDbEntity
  8
RUNDUNGEN
100
AcDbLine
 62
7
  6
CONTINUOUS
 10
119.6087963607
 20
103.3779093082
 11
119.5910366252
 21
103.3564420797
  0
LINE
  5
316
100
AcDbEntity
  8
RUNDUNGEN
100
AcDbLine
 62
7
  6
CONTINUOUS
 10
119.5910366252
 20
103.3564420797
 11
114.9499944207
 21
97.7463904816
  0
SPLINE
  5
317
100
AcDbEntity
  8
RUNDUNGEN
100
AcDbSpline
 62
7
  6
CONTINUOUS
 70
0
 71
3
 72
13
 73
9
 74
0
 42
0.0000001
 43
0.0000001
 44
0.0000000001
 40
0.0
 40
0.0
 40
0.0
 40
0.0
 40
0.2546284731
 40
0.5068657864
 40
0.6315785951
 40
0.7552591605
 40
0.8779973229
 40
1.0
 40
1.0
 40
1.0
 40
1.0
 10
121.4309303714
 20
95.8779511171
 30
0.0
 10
121.3202925227
 20
95.4176040385
 30
0.0
 10
121.0999551732
 20
94.5012744074
 30
0.0
 10
120.8391759416
 20
93.3561025558
 30
0.0
 10
120.6566940188
 20
92.4432205805
 30
0.0
 10
120.5409375442
 20
91.7627528787
 30
0.0
 10
120.456057002
 20
91.0827409994
 30
0.0
 10
120.4309296405
 20
90.6276189751
 30
0.0
 10
120.4309303715
 20
90.4007674961
 30
0.0
  0
SPLINE
  5
318
100
AcDbEntity
  8
RUNDUNGEN
100
AcDbSpline
 62
7
  6
CONTINUOUS
 70
0
 71
3
 72
13
 73
9
 74
0
 42
0.0000001
 43
0.0000001
 44
0.0000000001
 40
0.0
 40
0.0
 40
0.0
 40
0.0
 40
0.1220030775
 40
0.2447418846
 40
0.3684224534
 40
0.4931346651
 40
0.7453714409
 40
1.0
 40
1.0
 40
1.0
 40
1.0
 10
82.9309303713
 20
90.4007513492
 30
0.0
 10
82.9309308207
 20
90.6276042325
 30
0.0
 10
82.9058055042
 20
91.0827295175
 30
0.0
 10
82.8209281461
 20
91.7627459189
 30
0.0
 10
82.7051657197
 20
92.4432147684
 30
0.0
 10
82.522683879
 20
93.356097311
 30
0.0
 10
82.2619065391
 20
94.5012710931
 30
0.0
 10
82.041572915
 20
95.417603586
 30
0.0
 10
81.9309303714
 20
95.8779511171
 30
0.0
  0
LINE
  5
319
100
AcDbEntity
  8
RUNDUNGEN
100
AcDbLine
 62
7
  6
CONTINUOUS
 10
88.411866322
 20
97.7463904816
 11
83.7561070934
 21
103.3742314374
  0
LINE
  5
31A
100
AcDbEntity
  8
RUNDUNGEN
100
AcDbLine
 62
7
  6
CONTINUOUS
 10
83.7561070934
 20
103.3742314374
 11
83.7530643892
 21
103.3779093037
  0
LINE
  5
31B
100
AcDbEntity
  8
RUNDUNGEN
100
AcDbLine
 62
7
  6
CONTINUOUS
 10
88.335499096
 20
95.8778945107
 11
88.411866322
 21
97.7463904816
  0
SPLINE
  5
31C
100
AcDbEntity
  8
RUNDUNGEN
100
AcDbSpline
 62
7
  6
CONTINUOUS
 70
0
 71
3
 72
11
 73
7
 74
0
 42
0.0000001
 43
0.0000001
 44
0.0000000001
 40
0.0
 40
0.0
 40
0.0
 40
0.0
 40
0.2501375226
 40
0.5002439895
 40
0.7502576495
 40
1.0
 40
1.0
 40
1.0
 40
1.0
 10
121.430649439
 20
95.8774402806
 30
0.0
 10
121.1924951136
 20
95.4481353436
 30
0.0
 10
120.7161988907
 20
94.5895982344
 30
0.0
 10
120.0711922356
 20
93.2638595416
 30
0.0
 10
119.579346555
 20
91.8726270659
 30
0.0
 10
119.4309127073
 20
90.8908880417
 30
0.0
 10
119.4309303714
 20
90.400725542
 30
0.0
  0
ELLIPSE
  5
31D
100
AcDbEntity
  8
0
100
AcDbEllipse
 62
7
  6
CONTINUOUS
 10
89.9645124609
 20
160.0151946688
 30
0.0
 11
0.0
 21
3.4
 31
0.0
 40
0.4328358209
 41
0.0
 42
3.1415926536
  0
ELLIPSE
  5
31E
100
AcDbEntity
  8
0
100
AcDbEllipse
 62
7
  6
CONTINUOUS
 10
113.3973482818
 20
160.0151946688
 30
0.0
 11
0.0
 21
3.4
 31
0.0
 40
0.4328358209
 41
-3.1415926536
 42
0.0
  0
ENDSEC
  0
SECTION
  2
OBJECTS
  0
DICTIONARY
  5
C
100
AcDbDictionary
280
0
281
1
  3
ACAD_GROUP
350
D
  3
ACAD_MLINESTYLE
350
17
  3
ACAD_LAYOUT
350
1A
  3
ACAD_PLOTSETTINGS
350
19
  3
ACAD_PLOTSTYLENAME
350
E
  0
DICTIONARY
  5
D
102
{ACAD_REACTORS
330
C
102
}
100
AcDbDictionary
280
0
281
1
  0
ACDBDICTIONARYWDFLT
  5
E
102
{ACAD_REACTORS
330
C
102
}
100
AcDbDictionary
281
1
  3
Normal
350
F
100
AcDbDictionaryWithDefault
340
F
  0
DICTIONARY
  5
17
102
{ACAD_REACTORS
330
C
102
}
100
AcDbDictionary
280
0
281
1
  3
Standard
350
18
  0
DICTIONARY
  5
19
102
{ACAD_REACTORS
330
C
102
}
100
AcDbDictionary
281
1
  0
DICTIONARY
  5
1A
102
{ACAD_REACTORS
330
C
102
}
100
AcDbDictionary
281
1
  3
Model
350
31F
  3
Layout1
350
320
  0
ACDBPLACEHOLDER
  5
F
102
{ACAD_REACTORS
330
E
102
}
  0
MLINESTYLE
  5
18
102
{ACAD_REACTORS
330
17
102
}
100
AcDbMlineStyle
  2
STANDARD
 70
0
  3

 62
256
 51
90.0
 52
90.0
 71
2
 49
0.5
 62
256
  6
BYLAYER
 49
-0.5
 62
256
  6
BYLAYER
  0
LAYOUT
  5
31F
102
{ACAD_REACTORS
330
1A
102
}
100
AcDbPlotSettings
  1

  2
none_device
  4
ISO_A4_(297.00_x_210.00_MM)
  6

 40
0.0
 41
0.0
 42
0.0
 43
0.0
 44
297.0
 45
210.0
 46
0.0
 47
0.0
 48
0.0
 49
0.0
140
0.0
141
0.0
142
1.0
143
1.0
 70
1024
 72
1
 73
0
 74
0
  7

 75
0
147
1.0
148
0.0
149
0.0
100
AcDbLayout
  1
Model
 70
0
 71
0
 10
0.0
 20
0.0
 11
297.0
 21
210.0
 12
0.0
 22
0.0
 32
0.0
 14
0.0
 24
0.0
 34
0.0
 15
0.0
 25
0.0
 35
0.0
146
0.0
 13
0.0
 23
0.0
 33
0.0
 16
1.0
 26
0.0
 36
0.0
 17
0.0
 27
1.0
 37
0.0
 76
0
330
20C
345
0
346
0
  0
LAYOUT
  5
320
102
{ACAD_REACTORS
330
1A
102
}
100
AcDbPlotSettings
  1

  2
none_device
  4
ISO_A4_(297.00_x_210.00_MM)
  6

 40
0.0
 41
0.0
 42
0.0
 43
0.0
 44
297.0
 45
210.0
 46
0.0
 47
0.0
 48
0.0
 49
0.0
140
0.0
141
0.0
142
1.0
143
1.0
 70
0
 72
1
 73
0
 74
0
  7

 75
0
147
1.0
148
0.0
149
0.0
100
AcDbLayout
  1
Layout1
 70
0
 71
1
 10
0.0
 20
0.0
 11
297.0
 21
210.0
 12
0.0
 22
0.0
 32
0.0
 14
0.0
 24
0.0
 34
0.0
 15
0.0
 25
0.0
 35
0.0
146
0.0
 13
0.0
 23
0.0
 33
0.0
 16
1.0
 26
0.0
 36
0.0
 17
0.0
 27
1.0
 37
0.0
 76
0
330
20D
345
0
346
0
  0
ENDSEC
  0
EOF
