999
DXF file: S:\Prolink\03_Konstruktion\CAD-Plots\Internet\2D_neu\S9\s9-57_ntp_cm_w100.dxf
999
Pro/ENGINEER 2012230 by Parametric Technology Corporation
  0
SECTION
  2
HEADER
  9
$ACADVER
  1
AC1021
  9
$DWGCODEPAGE
  3
ANSI_1252
  9
$EXTMAX
 10
297.0
 20
210.0
 30
0.0
  9
$EXTMIN
 10
0.0
 20
0.0
 30
0.0
  9
$LIMMIN
 10
0.0
 20
0.0
  9
$LIMMAX
 10
297.0
 20
210.0
  9
$VIEWCTR
 10
148.5
 20
105.0
  9
$VIEWSIZE
 40
210.0
  9
$CLAYER
  8
0
  9
$LTSCALE
 40
16.335
  9
$CELTYPE
  6
BYLAYER
  9
$DIMSCALE
 40
1.0
  9
$DIMASZ
 40
3.5
  9
$DIMEXO
 40
0.0
  9
$DIMDLI
 40
11.286
  9
$DIMEXE
 40
1.5
  9
$DIMCEN
 40
2.673
  9
$DIMLFAC
 40
1.0
  9
$DIMBLK
  1
_FILLED
  9
$DIMTXT
 40
3.5
  9
$DIMTOL
 70
1
  9
$DIMLIM
 70
0
  9
$DIMTFAC
 40
1.0
  9
$DIMTP
 40
0.005
  9
$DIMTM
 40
0.005
  9
$DIMGAP
 40
0.625
  9
$DIMDSEP
 70
46
  9
$PDMODE
 70
3
  9
$PDSIZE
 40
0.3125
  9
$HANDSEED
  5
3EC
  9
$TILEMODE
 70
1
  9
$MEASUREMENT
 70
1
  9
$INSUNITS
 70
4
  0
ENDSEC
  0
SECTION
  2
CLASSES
  0
CLASS
  1
ACDBDICTIONARYWDFLT
  2
AcDbDictionaryWithDefault
  3
AutoCAD 2000
 90
0
 91
1
280
0
281
0
  0
CLASS
  1
ACDBPLACEHOLDER
  2
AcDbPlaceHolder
  3
AutoCAD 2000
 90
0
 91
1
280
0
281
0
  0
CLASS
  1
LAYOUT
  2
AcDbLayout
  3
AutoCAD 2000
 90
0
 91
0
280
0
281
0
  0
ENDSEC
  0
SECTION
  2
TABLES
  0
TABLE
  2
VPORT
  5
8
100
AcDbSymbolTable
 70
2
  0
VPORT
  5
1F4
100
AcDbSymbolTableRecord
100
AcDbViewportTableRecord
  2
*ACTIVE
 70
0
 10
0.0
 20
0.0
 11
1.0
 21
1.0
 12
148.5
 22
105.0
 13
0.0
 23
0.0
 14
1.0
 24
1.0
 15
0.0
 25
0.0
 16
0.0
 26
0.0
 36
1.0
 17
0.0
 27
0.0
 37
0.0
 40
210.0
 41
1.4142857143
 42
50.0
 43
0.0
 44
0.0
 50
0.0
 51
0.0
 71
0
 72
100
 73
1
 74
1
 75
0
 76
0
 77
0
 78
0
  0
ENDTAB
  0
TABLE
  2
LTYPE
  5
5
100
AcDbSymbolTable
 70
6
  0
LTYPE
  5
14
100
AcDbSymbolTableRecord
100
AcDbLinetypeTableRecord
  2
BYBLOCK
 70
0
  3

 72
65
 73
0
 40
0.0
  0
LTYPE
  5
15
100
AcDbSymbolTableRecord
100
AcDbLinetypeTableRecord
  2
BYLAYER
 70
0
  3

 72
65
 73
0
 40
0.0
  0
LTYPE
  5
16
100
AcDbSymbolTableRecord
100
AcDbLinetypeTableRecord
  2
CONTINUOUS
 70
64
  3
Solid line
 72
65
 73
0
 40
0.0
  0
LTYPE
  5
1F5
100
AcDbSymbolTableRecord
100
AcDbLinetypeTableRecord
  2
CENTER
 70
64
  3
____ _ ____ _ ____ _ ____ _ ____ _ ____ _ ____
 72
65
 73
4
 40
0.6
 49
0.375
 74
0
 49
-0.075
 74
0
 49
0.075
 74
0
 49
-0.075
 74
0
  0
LTYPE
  5
1F6
100
AcDbSymbolTableRecord
100
AcDbLinetypeTableRecord
  2
HIDDEN
 70
64
  3
- - - - - - - - - - - - - - - - - - - -
 72
65
 73
2
 40
0.2
 49
0.1
 74
0
 49
-0.1
 74
0
  0
LTYPE
  5
1F7
100
AcDbSymbolTableRecord
100
AcDbLinetypeTableRecord
  2
PHANTOM
 70
64
  3
_____ _ _ _____ _ _ _____ _ _ _____
 72
65
 73
6
 40
0.8
 49
0.45
 74
0
 49
-0.05
 74
0
 49
0.1
 74
0
 49
-0.05
 74
0
 49
0.1
 74
0
 49
-0.05
 74
0
  0
LTYPE
  5
1F8
100
AcDbSymbolTableRecord
100
AcDbLinetypeTableRecord
  2
DOT
 70
64
  3
. . . . . . . . . . . . . . . . . . . .
 72
65
 73
2
 40
0.2
 49
0.1
 74
0
 49
-0.1
 74
0
  0
LTYPE
  5
1F9
100
AcDbSymbolTableRecord
100
AcDbLinetypeTableRecord
  2
DASHED
 70
64
  3
- - - - - - - - - - - - - - - - - - - -
 72
65
 73
2
 40
0.2
 49
0.1
 74
0
 49
-0.1
 74
0
  0
ENDTAB
  0
TABLE
  2
LAYER
  5
2
100
AcDbSymbolTable
 70
36
  0
LAYER
  5
10
100
AcDbSymbolTableRecord
100
AcDbLayerTableRecord
  2
0
 70
0
 62
7
  6
CONTINUOUS
370
-3
390
F
  0
LAYER
  5
1FA
100
AcDbSymbolTableRecord
100
AcDbLayerTableRecord
  2
DEFAULT_1
 70
0
 62
7
  6
CENTER
370
-3
390
F
  0
LAYER
  5
1FB
100
AcDbSymbolTableRecord
100
AcDbLayerTableRecord
  2
DEFAULT_2
 70
0
 62
8
  6
HIDDEN
370
-3
390
F
  0
LAYER
  5
1FC
100
AcDbSymbolTableRecord
100
AcDbLayerTableRecord
  2
DEFAULT_3
 70
0
 62
7
  6
PHANTOM
370
-3
390
F
  0
LAYER
  5
1FD
100
AcDbSymbolTableRecord
100
AcDbLayerTableRecord
  2
01___PRT_ALL_DTM_PLN
 70
0
 62
7
  6
CONTINUOUS
370
-3
390
F
  0
LAYER
  5
1FE
100
AcDbSymbolTableRecord
100
AcDbLayerTableRecord
  2
01___PRT_DEF_DTM_PLN
 70
0
 62
7
  6
CONTINUOUS
370
-3
390
F
  0
LAYER
  5
1FF
100
AcDbSymbolTableRecord
100
AcDbLayerTableRecord
  2
02___PRT_ALL_AXES
 70
0
 62
7
  6
CONTINUOUS
370
-3
390
F
  0
LAYER
  5
200
100
AcDbSymbolTableRecord
100
AcDbLayerTableRecord
  2
03___PRT_ALL_CURVES
 70
0
 62
7
  6
CONTINUOUS
370
-3
390
F
  0
LAYER
  5
201
100
AcDbSymbolTableRecord
100
AcDbLayerTableRecord
  2
04___PRT_ALL_DTM_PNT
 70
0
 62
7
  6
CONTINUOUS
370
-3
390
F
  0
LAYER
  5
202
100
AcDbSymbolTableRecord
100
AcDbLayerTableRecord
  2
05___PRT_ALL_DTM_CSYS
 70
0
 62
7
  6
CONTINUOUS
370
-3
390
F
  0
LAYER
  5
203
100
AcDbSymbolTableRecord
100
AcDbLayerTableRecord
  2
05___PRT_DEF_DTM_CSYS
 70
0
 62
7
  6
CONTINUOUS
370
-3
390
F
  0
LAYER
  5
204
100
AcDbSymbolTableRecord
100
AcDbLayerTableRecord
  2
06___PRT_ALL_SURFS
 70
0
 62
7
  6
CONTINUOUS
370
-3
390
F
  0
LAYER
  5
205
100
AcDbSymbolTableRecord
100
AcDbLayerTableRecord
  2
AUSFORMSCHRAEGEN
 70
0
 62
7
  6
CONTINUOUS
370
-3
390
F
  0
LAYER
  5
206
100
AcDbSymbolTableRecord
100
AcDbLayerTableRecord
  2
BEZUGSACHSEN
 70
0
 62
7
  6
CONTINUOUS
370
-3
390
F
  0
LAYER
  5
207
100
AcDbSymbolTableRecord
100
AcDbLayerTableRecord
  2
BEZUGSEBENE
 70
0
 62
7
  6
CONTINUOUS
370
-3
390
F
  0
LAYER
  5
208
100
AcDbSymbolTableRecord
100
AcDbLayerTableRecord
  2
BEZUGSEBENEN-KES
 70
0
 62
7
  6
CONTINUOUS
370
-3
390
F
  0
LAYER
  5
209
100
AcDbSymbolTableRecord
100
AcDbLayerTableRecord
  2
RUNDUNGEN
 70
0
 62
7
  6
CONTINUOUS
370
-3
390
F
  0
ENDTAB
  0
TABLE
  2
STYLE
  5
3
100
AcDbSymbolTable
 70
1
  0
STYLE
  5
11
100
AcDbSymbolTableRecord
100
AcDbTextStyleTableRecord
  2
STANDARD
 70
0
 40
0.0
 41
0.7
 50
0.0
 71
0
 42
0.2
  3
txt
  4

  0
STYLE
  5
20A
100
AcDbSymbolTableRecord
100
AcDbTextStyleTableRecord
  2
TEXTSTYLE_1
 70
0
 40
0.0
 41
0.8
 50
0.0
 71
0
 42
0.2
  3
gdt
  4

  0
ENDTAB
  0
TABLE
  2
VIEW
  5
6
100
AcDbSymbolTable
 70
0
  0
ENDTAB
  0
TABLE
  2
UCS
  5
7
100
AcDbSymbolTable
 70
0
  0
ENDTAB
  0
TABLE
  2
APPID
  5
9
100
AcDbSymbolTable
 70
1
  0
APPID
  5
20B
100
AcDbSymbolTableRecord
100
AcDbRegAppTableRecord
  2
ACAD
 70
0
  0
ENDTAB
  0
TABLE
  2
BLOCK_RECORD
  5
1
100
AcDbSymbolTable
 70
0
  0
BLOCK_RECORD
  5
20C
100
AcDbSymbolTableRecord
100
AcDbBlockTableRecord
  2
*Model_Space
  0
BLOCK_RECORD
  5
20D
100
AcDbSymbolTableRecord
100
AcDbBlockTableRecord
  2
*Paper_Space
  0
ENDTAB
  0
TABLE
  2
DIMSTYLE
  5
A
100
AcDbSymbolTable
 70
1
100
AcDbDimStyleTable
 71
0
  0
DIMSTYLE
105
20E
100
AcDbSymbolTableRecord
100
AcDbDimStyleTableRecord
  2
STANDARD
 70
0
  3

  4

 40
1.0
 41
3.5
 42
0.0
 43
0.38
 44
1.5
 45
0.0
 46
0.0
 47
0.005
 48
0.005
140
3.5
141
0.09
142
0.0
143
25.4
144
1.0
145
0.0
146
1.0
147
0.625
 71
1.0
 72
0.0
 73
0
 74
0
 75
0
 76
0
 77
1
 78
8
170
0
171
2
172
0
173
0
174
0
175
0
176
0
177
0
178
5
270
2
271
3
272
3
273
2
274
2
275
0
280
0
281
0
282
0
283
1
284
8
285
0
286
0
287
3
288
0
340
11
278
46
  0
ENDTAB
  0
ENDSEC
  0
SECTION
  2
BLOCKS
  0
BLOCK
  5
20
100
AcDbEntity
  8
0
100
AcDbBlockBegin
  2
*Model_Space
 70
0
 10
0.0
 20
0.0
 30
0.0
  3
*Model_Space
  1

  0
ENDBLK
  5
21
100
AcDbEntity
  8
0
100
AcDbBlockEnd
  0
BLOCK
  5
1C
100
AcDbEntity
  8
0
100
AcDbBlockBegin
  2
*Paper_Space
 70
0
 10
0.0
 20
0.0
 30
0.0
  3
*Paper_Space
  1

  0
ENDBLK
  5
1D
100
AcDbEntity
  8
0
100
AcDbBlockEnd
  0
ENDSEC
  0
SECTION
  2
ENTITIES
  0
LINE
  5
20F
100
AcDbEntity
  8
0
100
AcDbLine
 62
7
  6
CONTINUOUS
 10
0.0
 20
0.0
 11
0.0
 21
210.0
  0
LINE
  5
210
100
AcDbEntity
  8
0
100
AcDbLine
 62
7
  6
CONTINUOUS
 10
0.0
 20
0.0
 11
297.0
 21
0.0
  0
LINE
  5
211
100
AcDbEntity
  8
0
100
AcDbLine
 62
7
  6
CONTINUOUS
 10
0.0
 20
210.0
 11
297.0
 21
210.0
  0
LINE
  5
212
100
AcDbEntity
  8
0
100
AcDbLine
 62
7
  6
CONTINUOUS
 10
297.0
 20
0.0
 11
297.0
 21
210.0
  0
LINE
  5
213
100
AcDbEntity
  8
0
100
AcDbLine
 62
7
  6
CONTINUOUS
 10
51.6809303713
 20
152.5152170942
 11
51.6809303713
 21
167.5152170942
  0
LINE
  5
214
100
AcDbEntity
  8
RUNDUNGEN
100
AcDbLine
 62
7
  6
CONTINUOUS
 10
56.9309303713
 20
152.5152170942
 11
56.9309303713
 21
167.5152170942
  0
LINE
  5
215
100
AcDbEntity
  8
RUNDUNGEN
100
AcDbLine
 62
7
  6
CONTINUOUS
 10
57.9309303713
 20
166.5152170942
 11
57.9309303713
 21
153.5152170942
  0
LINE
  5
216
100
AcDbEntity
  8
RUNDUNGEN
100
AcDbLine
 62
7
  6
CONTINUOUS
 10
58.0132082545
 20
166.5152170942
 11
58.0132082545
 21
153.5152170942
  0
LINE
  5
217
100
AcDbEntity
  8
02___PRT_ALL_AXES
100
AcDbLine
 62
7
  6
CONTINUOUS
 10
58.8309303713
 20
167.5102045313
 11
58.8309303713
 21
170.5152170942
  0
LINE
  5
218
100
AcDbEntity
  8
02___PRT_ALL_AXES
100
AcDbLine
 62
7
  6
CONTINUOUS
 10
62.8309303713
 20
167.5053388266
 11
62.8309303713
 21
170.5152170942
  0
LINE
  5
219
100
AcDbEntity
  8
02___PRT_ALL_AXES
100
AcDbLine
 62
7
  6
CONTINUOUS
 10
64.2809303713
 20
167.5152170942
 11
64.2809303713
 21
170.5152170942
  0
LINE
  5
21A
100
AcDbEntity
  8
RUNDUNGEN
100
AcDbLine
 62
7
  6
CONTINUOUS
 10
65.0986524882
 20
153.5152170942
 11
65.0986524882
 21
156.6152170942
  0
LINE
  5
21B
100
AcDbEntity
  8
RUNDUNGEN
100
AcDbLine
 62
7
  6
CONTINUOUS
 10
65.0986524882
 20
163.4152170942
 11
65.0986524882
 21
166.5152170942
  0
LINE
  5
21C
100
AcDbEntity
  8
RUNDUNGEN
100
AcDbLine
 62
7
  6
CONTINUOUS
 10
65.1809303713
 20
153.5152170942
 11
65.1809303713
 21
156.6152170942
  0
LINE
  5
21D
100
AcDbEntity
  8
RUNDUNGEN
100
AcDbLine
 62
7
  6
CONTINUOUS
 10
65.1809303713
 20
163.4152170942
 11
65.1809303713
 21
166.5152170942
  0
LINE
  5
21E
100
AcDbEntity
  8
0
100
AcDbLine
 62
7
  6
CONTINUOUS
 10
65.1809303713
 20
163.4152170942
 11
65.1809303713
 21
166.5152170942
  0
LINE
  5
21F
100
AcDbEntity
  8
02___PRT_ALL_AXES
100
AcDbLine
 62
7
  6
CONTINUOUS
 10
66.1809303713
 20
167.5152170942
 11
66.1809303713
 21
170.5152170942
  0
LINE
  5
220
100
AcDbEntity
  8
02___PRT_ALL_AXES
100
AcDbLine
 62
7
  6
CONTINUOUS
 10
71.1809303713
 20
167.5152170942
 11
71.1809303713
 21
170.5152170942
  0
LINE
  5
221
100
AcDbEntity
  8
02___PRT_ALL_AXES
100
AcDbLine
 62
7
  6
CONTINUOUS
 10
74.6809303713
 20
167.5152170942
 11
74.6809303713
 21
170.5152170942
  0
LINE
  5
222
100
AcDbEntity
  8
02___PRT_ALL_AXES
100
AcDbLine
 62
7
  6
CONTINUOUS
 10
78.6809303713
 20
167.5152170942
 11
78.6809303713
 21
170.5152170942
  0
LINE
  5
223
100
AcDbEntity
  8
02___PRT_ALL_AXES
100
AcDbLine
 62
7
  6
CONTINUOUS
 10
82.1809303713
 20
167.5152170942
 11
82.1809303713
 21
170.5152170942
  0
LINE
  5
224
100
AcDbEntity
  8
02___PRT_ALL_AXES
100
AcDbLine
 62
7
  6
CONTINUOUS
 10
87.1809303713
 20
167.5152170942
 11
87.1809303713
 21
170.5152170942
  0
LINE
  5
225
100
AcDbEntity
  8
RUNDUNGEN
100
AcDbLine
 62
7
  6
CONTINUOUS
 10
88.1809303713
 20
153.5152170942
 11
88.1809303713
 21
156.6152170942
  0
LINE
  5
226
100
AcDbEntity
  8
RUNDUNGEN
100
AcDbLine
 62
7
  6
CONTINUOUS
 10
88.1809303713
 20
163.4152170942
 11
88.1809303713
 21
166.5152170942
  0
LINE
  5
227
100
AcDbEntity
  8
RUNDUNGEN
100
AcDbLine
 62
7
  6
CONTINUOUS
 10
88.2632082545
 20
166.5152170942
 11
88.2632082545
 21
163.4152170942
  0
LINE
  5
228
100
AcDbEntity
  8
RUNDUNGEN
100
AcDbLine
 62
7
  6
CONTINUOUS
 10
88.2632082545
 20
156.6152170942
 11
88.2632082545
 21
153.5152170942
  0
LINE
  5
229
100
AcDbEntity
  8
02___PRT_ALL_AXES
100
AcDbLine
 62
7
  6
CONTINUOUS
 10
89.0809303713
 20
167.5152170942
 11
89.0809303713
 21
170.5152170942
  0
LINE
  5
22A
100
AcDbEntity
  8
02___PRT_ALL_AXES
100
AcDbLine
 62
7
  6
CONTINUOUS
 10
90.5309303713
 20
167.5053388266
 11
90.5309303713
 21
170.5152170942
  0
LINE
  5
22B
100
AcDbEntity
  8
02___PRT_ALL_AXES
100
AcDbLine
 62
7
  6
CONTINUOUS
 10
94.5309303713
 20
167.5102045313
 11
94.5309303713
 21
170.5152170942
  0
LINE
  5
22C
100
AcDbEntity
  8
RUNDUNGEN
100
AcDbLine
 62
7
  6
CONTINUOUS
 10
95.3486524882
 20
153.5152170942
 11
95.3486524882
 21
166.5152170942
  0
LINE
  5
22D
100
AcDbEntity
  8
0
100
AcDbLine
 62
7
  6
CONTINUOUS
 10
151.6809303714
 20
152.5152170942
 11
144.4309303713
 21
152.5152170942
  0
LINE
  5
22E
100
AcDbEntity
  8
0
100
AcDbLine
 62
7
  6
CONTINUOUS
 10
108.9309303714
 20
152.5152170942
 11
94.4309303713
 21
152.5152170942
  0
LINE
  5
22F
100
AcDbEntity
  8
0
100
AcDbLine
 62
7
  6
CONTINUOUS
 10
58.9309303713
 20
152.5152170942
 11
51.6809303713
 21
152.5152170942
  0
LINE
  5
230
100
AcDbEntity
  8
0
100
AcDbLine
 62
7
  6
CONTINUOUS
 10
68.8546924501
 20
152.5152170942
 11
84.5071682926
 21
152.5152170942
  0
LINE
  5
231
100
AcDbEntity
  8
RUNDUNGEN
100
AcDbLine
 62
7
  6
CONTINUOUS
 10
56.9310841141
 20
152.5152170942
 11
96.4307390266
 21
152.5152170942
  0
LINE
  5
232
100
AcDbEntity
  8
0
100
AcDbLine
 62
7
  6
CONTINUOUS
 10
118.8546924501
 20
152.5152170942
 11
134.5071682926
 21
152.5152170942
  0
LINE
  5
233
100
AcDbEntity
  8
RUNDUNGEN
100
AcDbLine
 62
7
  6
CONTINUOUS
 10
106.9310841141
 20
152.5152170942
 11
146.4307390266
 21
152.5152170942
  0
LINE
  5
234
100
AcDbEntity
  8
RUNDUNGEN
100
AcDbLine
 62
7
  6
CONTINUOUS
 10
57.9309303713
 20
153.5152170942
 11
68.1093364576
 21
153.5152170942
  0
LINE
  5
235
100
AcDbEntity
  8
RUNDUNGEN
100
AcDbLine
 62
7
  6
CONTINUOUS
 10
85.2525242851
 20
153.5152170942
 11
95.4309303713
 21
153.5152170942
  0
LINE
  5
236
100
AcDbEntity
  8
RUNDUNGEN
100
AcDbLine
 62
7
  6
CONTINUOUS
 10
107.9309303713
 20
153.5152170942
 11
118.1093364576
 21
153.5152170942
  0
LINE
  5
237
100
AcDbEntity
  8
RUNDUNGEN
100
AcDbLine
 62
7
  6
CONTINUOUS
 10
135.2525242851
 20
153.5152170942
 11
138.1809303713
 21
153.5152170942
  0
LINE
  5
238
100
AcDbEntity
  8
RUNDUNGEN
100
AcDbLine
 62
7
  6
CONTINUOUS
 10
138.2632082545
 20
153.5152170942
 11
145.4309303713
 21
153.5152170942
  0
LINE
  5
239
100
AcDbEntity
  8
RUNDUNGEN
100
AcDbLine
 62
7
  6
CONTINUOUS
 10
95.4309303713
 20
153.5152170942
 11
95.4309303713
 21
166.5152170942
  0
LINE
  5
23A
100
AcDbEntity
  8
RUNDUNGEN
100
AcDbLine
 62
7
  6
CONTINUOUS
 10
96.4309303713
 20
167.5152170942
 11
96.4309303713
 21
152.5152170942
  0
LINE
  5
23B
100
AcDbEntity
  8
0
100
AcDbLine
 62
7
  6
CONTINUOUS
 10
65.1809303713
 20
156.6152170942
 11
65.8990010449
 21
156.6152170942
  0
LINE
  5
23C
100
AcDbEntity
  8
RUNDUNGEN
100
AcDbLine
 62
7
  6
CONTINUOUS
 10
64.9645124609
 20
156.6152170942
 11
65.1809303713
 21
156.6152170942
  0
LINE
  5
23D
100
AcDbEntity
  8
0
100
AcDbLine
 62
7
  6
CONTINUOUS
 10
87.4628596978
 20
156.6152170942
 11
88.1809303713
 21
156.6152170942
  0
LINE
  5
23E
100
AcDbEntity
  8
RUNDUNGEN
100
AcDbLine
 62
7
  6
CONTINUOUS
 10
88.2632082545
 20
156.6152170942
 11
88.3973482818
 21
156.6152170942
  0
LINE
  5
23F
100
AcDbEntity
  8
0
100
AcDbLine
 62
7
  6
CONTINUOUS
 10
115.1809303713
 20
156.6152170942
 11
115.8990010449
 21
156.6152170942
  0
LINE
  5
240
100
AcDbEntity
  8
RUNDUNGEN
100
AcDbLine
 62
7
  6
CONTINUOUS
 10
114.9645124609
 20
156.6152170942
 11
115.1809303713
 21
156.6152170942
  0
LINE
  5
241
100
AcDbEntity
  8
0
100
AcDbLine
 62
7
  6
CONTINUOUS
 10
137.4628596978
 20
156.6152170942
 11
138.1809303714
 21
156.6152170942
  0
LINE
  5
242
100
AcDbEntity
  8
RUNDUNGEN
100
AcDbLine
 62
7
  6
CONTINUOUS
 10
138.2632082545
 20
156.6152170942
 11
138.3973482818
 21
156.6152170942
  0
LINE
  5
243
100
AcDbEntity
  8
RUNDUNGEN
100
AcDbLine
 62
7
  6
CONTINUOUS
 10
115.0986524882
 20
163.4152170942
 11
114.9645124609
 21
163.4152170942
  0
LINE
  5
244
100
AcDbEntity
  8
RUNDUNGEN
100
AcDbLine
 62
7
  6
CONTINUOUS
 10
65.0986524882
 20
163.4152170942
 11
64.9645124609
 21
163.4152170942
  0
LINE
  5
245
100
AcDbEntity
  8
0
100
AcDbLine
 62
7
  6
CONTINUOUS
 10
65.1809303713
 20
163.4152170942
 11
65.8990010449
 21
163.4152170942
  0
LINE
  5
246
100
AcDbEntity
  8
0
100
AcDbLine
 62
7
  6
CONTINUOUS
 10
87.4628596978
 20
163.4152170942
 11
88.1809303713
 21
163.4152170942
  0
LINE
  5
247
100
AcDbEntity
  8
RUNDUNGEN
100
AcDbLine
 62
7
  6
CONTINUOUS
 10
88.1809303713
 20
163.4152170942
 11
88.3973482818
 21
163.4152170942
  0
LINE
  5
248
100
AcDbEntity
  8
0
100
AcDbLine
 62
7
  6
CONTINUOUS
 10
115.1809303713
 20
163.4152170942
 11
115.8990010449
 21
163.4152170942
  0
LINE
  5
249
100
AcDbEntity
  8
0
100
AcDbLine
 62
7
  6
CONTINUOUS
 10
137.4628596978
 20
163.4152170942
 11
138.1809303714
 21
163.4152170942
  0
LINE
  5
24A
100
AcDbEntity
  8
RUNDUNGEN
100
AcDbLine
 62
7
  6
CONTINUOUS
 10
138.1809303714
 20
163.4152170942
 11
138.3973482818
 21
163.4152170942
  0
LINE
  5
24B
100
AcDbEntity
  8
RUNDUNGEN
100
AcDbLine
 62
7
  6
CONTINUOUS
 10
106.9309303713
 20
152.5152170942
 11
106.9309303713
 21
167.5152170942
  0
LINE
  5
24C
100
AcDbEntity
  8
RUNDUNGEN
100
AcDbLine
 62
7
  6
CONTINUOUS
 10
107.9309303713
 20
166.5152170942
 11
107.9309303713
 21
153.5152170942
  0
LINE
  5
24D
100
AcDbEntity
  8
RUNDUNGEN
100
AcDbLine
 62
7
  6
CONTINUOUS
 10
108.0132082545
 20
166.5152170942
 11
108.0132082545
 21
153.5152170942
  0
LINE
  5
24E
100
AcDbEntity
  8
02___PRT_ALL_AXES
100
AcDbLine
 62
7
  6
CONTINUOUS
 10
108.8309303713
 20
167.5102045313
 11
108.8309303713
 21
170.5152170942
  0
LINE
  5
24F
100
AcDbEntity
  8
RUNDUNGEN
100
AcDbLine
 62
7
  6
CONTINUOUS
 10
145.4309303714
 20
166.5152170942
 11
135.2525242851
 21
166.5152170942
  0
LINE
  5
250
100
AcDbEntity
  8
RUNDUNGEN
100
AcDbLine
 62
7
  6
CONTINUOUS
 10
118.1093364576
 20
166.5152170942
 11
115.1809303713
 21
166.5152170942
  0
LINE
  5
251
100
AcDbEntity
  8
RUNDUNGEN
100
AcDbLine
 62
7
  6
CONTINUOUS
 10
115.0986524882
 20
166.5152170942
 11
107.9309303713
 21
166.5152170942
  0
LINE
  5
252
100
AcDbEntity
  8
RUNDUNGEN
100
AcDbLine
 62
7
  6
CONTINUOUS
 10
95.4309303713
 20
166.5152170942
 11
85.2525242851
 21
166.5152170942
  0
LINE
  5
253
100
AcDbEntity
  8
RUNDUNGEN
100
AcDbLine
 62
7
  6
CONTINUOUS
 10
68.1093364576
 20
166.5152170942
 11
65.1809303713
 21
166.5152170942
  0
LINE
  5
254
100
AcDbEntity
  8
RUNDUNGEN
100
AcDbLine
 62
7
  6
CONTINUOUS
 10
65.0986524882
 20
166.5152170942
 11
57.9309303713
 21
166.5152170942
  0
LINE
  5
255
100
AcDbEntity
  8
0
100
AcDbLine
 62
7
  6
CONTINUOUS
 10
151.6809303714
 20
167.5152170942
 11
144.5309303713
 21
167.5152170942
  0
LINE
  5
256
100
AcDbEntity
  8
02___PRT_ALL_AXES
100
AcDbLine
 62
7
  6
CONTINUOUS
 10
143.769938191
 20
167.5152170942
 11
137.3454861377
 21
167.5152170942
  0
LINE
  5
257
100
AcDbEntity
  8
02___PRT_ALL_AXES
100
AcDbLine
 62
7
  6
CONTINUOUS
 10
116.016374605
 20
167.5152170942
 11
109.5919225517
 21
167.5152170942
  0
LINE
  5
258
100
AcDbEntity
  8
0
100
AcDbLine
 62
7
  6
CONTINUOUS
 10
108.8309303713
 20
167.5152170942
 11
94.5309303713
 21
167.5152170942
  0
LINE
  5
259
100
AcDbEntity
  8
02___PRT_ALL_AXES
100
AcDbLine
 62
7
  6
CONTINUOUS
 10
93.769938191
 20
167.5152170942
 11
87.3454861377
 21
167.5152170942
  0
LINE
  5
25A
100
AcDbEntity
  8
02___PRT_ALL_AXES
100
AcDbLine
 62
7
  6
CONTINUOUS
 10
66.016374605
 20
167.5152170942
 11
59.5919225517
 21
167.5152170942
  0
LINE
  5
25B
100
AcDbEntity
  8
RUNDUNGEN
100
AcDbLine
 62
7
  6
CONTINUOUS
 10
58.8309303713
 20
167.5152170942
 11
51.6809303713
 21
167.5152170942
  0
LINE
  5
25C
100
AcDbEntity
  8
0
100
AcDbLine
 62
7
  6
CONTINUOUS
 10
58.8309303713
 20
167.5152170942
 11
51.6809303713
 21
167.5152170942
  0
LINE
  5
25D
100
AcDbEntity
  8
RUNDUNGEN
100
AcDbLine
 62
7
  6
CONTINUOUS
 10
59.5919225517
 20
167.5152170942
 11
87.3454861377
 21
167.5152170942
  0
LINE
  5
25E
100
AcDbEntity
  8
RUNDUNGEN
100
AcDbLine
 62
7
  6
CONTINUOUS
 10
94.5309303713
 20
167.5152170942
 11
108.8309303713
 21
167.5152170942
  0
LINE
  5
25F
100
AcDbEntity
  8
RUNDUNGEN
100
AcDbLine
 62
7
  6
CONTINUOUS
 10
116.016374605
 20
167.5152170942
 11
137.3454861377
 21
167.5152170942
  0
LINE
  5
260
100
AcDbEntity
  8
RUNDUNGEN
100
AcDbLine
 62
7
  6
CONTINUOUS
 10
144.5309303713
 20
167.5152170942
 11
151.6809303714
 21
167.5152170942
  0
LINE
  5
261
100
AcDbEntity
  8
02___PRT_ALL_AXES
100
AcDbLine
 62
7
  6
CONTINUOUS
 10
58.8309303713
 20
170.5152170942
 11
62.8309303713
 21
170.5152170942
  0
LINE
  5
262
100
AcDbEntity
  8
02___PRT_ALL_AXES
100
AcDbLine
 62
7
  6
CONTINUOUS
 10
64.2809303713
 20
170.5152170942
 11
71.1809303713
 21
170.5152170942
  0
LINE
  5
263
100
AcDbEntity
  8
02___PRT_ALL_AXES
100
AcDbLine
 62
7
  6
CONTINUOUS
 10
74.6809303713
 20
170.5152170942
 11
78.6809303713
 21
170.5152170942
  0
LINE
  5
264
100
AcDbEntity
  8
02___PRT_ALL_AXES
100
AcDbLine
 62
7
  6
CONTINUOUS
 10
82.1809303713
 20
170.5152170942
 11
89.0809303713
 21
170.5152170942
  0
LINE
  5
265
100
AcDbEntity
  8
02___PRT_ALL_AXES
100
AcDbLine
 62
7
  6
CONTINUOUS
 10
90.5309303713
 20
170.5152170942
 11
94.5309303713
 21
170.5152170942
  0
LINE
  5
266
100
AcDbEntity
  8
02___PRT_ALL_AXES
100
AcDbLine
 62
7
  6
CONTINUOUS
 10
108.8309303713
 20
170.5152170942
 11
112.8309303713
 21
170.5152170942
  0
LINE
  5
267
100
AcDbEntity
  8
02___PRT_ALL_AXES
100
AcDbLine
 62
7
  6
CONTINUOUS
 10
114.2809303713
 20
170.5152170942
 11
121.1809303713
 21
170.5152170942
  0
LINE
  5
268
100
AcDbEntity
  8
02___PRT_ALL_AXES
100
AcDbLine
 62
7
  6
CONTINUOUS
 10
124.6809303714
 20
170.5152170942
 11
128.6809303714
 21
170.5152170942
  0
LINE
  5
269
100
AcDbEntity
  8
02___PRT_ALL_AXES
100
AcDbLine
 62
7
  6
CONTINUOUS
 10
132.1809303714
 20
170.5152170942
 11
139.0809303713
 21
170.5152170942
  0
LINE
  5
26A
100
AcDbEntity
  8
02___PRT_ALL_AXES
100
AcDbLine
 62
7
  6
CONTINUOUS
 10
140.5309303713
 20
170.5152170942
 11
144.5309303713
 21
170.5152170942
  0
LINE
  5
26B
100
AcDbEntity
  8
02___PRT_ALL_AXES
100
AcDbLine
 62
7
  6
CONTINUOUS
 10
112.8309303713
 20
167.5053388266
 11
112.8309303713
 21
170.5152170942
  0
LINE
  5
26C
100
AcDbEntity
  8
02___PRT_ALL_AXES
100
AcDbLine
 62
7
  6
CONTINUOUS
 10
114.2809303713
 20
167.5152170942
 11
114.2809303713
 21
170.5152170942
  0
LINE
  5
26D
100
AcDbEntity
  8
RUNDUNGEN
100
AcDbLine
 62
7
  6
CONTINUOUS
 10
115.0986524882
 20
153.5152170942
 11
115.0986524882
 21
156.6152170942
  0
LINE
  5
26E
100
AcDbEntity
  8
RUNDUNGEN
100
AcDbLine
 62
7
  6
CONTINUOUS
 10
115.0986524882
 20
163.4152170942
 11
115.0986524882
 21
166.5152170942
  0
LINE
  5
26F
100
AcDbEntity
  8
RUNDUNGEN
100
AcDbLine
 62
7
  6
CONTINUOUS
 10
115.1809303713
 20
153.5152170942
 11
115.1809303713
 21
156.6152170942
  0
LINE
  5
270
100
AcDbEntity
  8
0
100
AcDbLine
 62
7
  6
CONTINUOUS
 10
115.1809303713
 20
153.5152170942
 11
115.1809303713
 21
156.6152170942
  0
LINE
  5
271
100
AcDbEntity
  8
RUNDUNGEN
100
AcDbLine
 62
7
  6
CONTINUOUS
 10
115.1809303713
 20
163.4152170942
 11
115.1809303713
 21
166.5152170942
  0
LINE
  5
272
100
AcDbEntity
  8
0
100
AcDbLine
 62
7
  6
CONTINUOUS
 10
115.1809303713
 20
163.4152170942
 11
115.1809303713
 21
166.5152170942
  0
LINE
  5
273
100
AcDbEntity
  8
02___PRT_ALL_AXES
100
AcDbLine
 62
7
  6
CONTINUOUS
 10
116.1809303713
 20
167.5152170942
 11
116.1809303713
 21
170.5152170942
  0
LINE
  5
274
100
AcDbEntity
  8
02___PRT_ALL_AXES
100
AcDbLine
 62
7
  6
CONTINUOUS
 10
121.1809303713
 20
167.5152170942
 11
121.1809303713
 21
170.5152170942
  0
LINE
  5
275
100
AcDbEntity
  8
02___PRT_ALL_AXES
100
AcDbLine
 62
7
  6
CONTINUOUS
 10
124.6809303714
 20
167.5152170942
 11
124.6809303714
 21
170.5152170942
  0
LINE
  5
276
100
AcDbEntity
  8
02___PRT_ALL_AXES
100
AcDbLine
 62
7
  6
CONTINUOUS
 10
128.6809303714
 20
167.5152170942
 11
128.6809303714
 21
170.5152170942
  0
LINE
  5
277
100
AcDbEntity
  8
02___PRT_ALL_AXES
100
AcDbLine
 62
7
  6
CONTINUOUS
 10
132.1809303714
 20
167.5152170942
 11
132.1809303714
 21
170.5152170942
  0
LINE
  5
278
100
AcDbEntity
  8
02___PRT_ALL_AXES
100
AcDbLine
 62
7
  6
CONTINUOUS
 10
137.1809303713
 20
167.5152170942
 11
137.1809303713
 21
170.5152170942
  0
LINE
  5
279
100
AcDbEntity
  8
RUNDUNGEN
100
AcDbLine
 62
7
  6
CONTINUOUS
 10
138.1809303713
 20
153.5152170942
 11
138.1809303714
 21
156.6152170942
  0
LINE
  5
27A
100
AcDbEntity
  8
RUNDUNGEN
100
AcDbLine
 62
7
  6
CONTINUOUS
 10
138.1809303714
 20
163.4152170942
 11
138.1809303714
 21
166.5152170942
  0
LINE
  5
27B
100
AcDbEntity
  8
RUNDUNGEN
100
AcDbLine
 62
7
  6
CONTINUOUS
 10
138.2632082545
 20
166.5152170942
 11
138.2632082545
 21
163.4152170942
  0
LINE
  5
27C
100
AcDbEntity
  8
RUNDUNGEN
100
AcDbLine
 62
7
  6
CONTINUOUS
 10
138.2632082545
 20
156.6152170942
 11
138.2632082545
 21
153.5152170942
  0
LINE
  5
27D
100
AcDbEntity
  8
02___PRT_ALL_AXES
100
AcDbLine
 62
7
  6
CONTINUOUS
 10
139.0809303713
 20
167.5152170942
 11
139.0809303713
 21
170.5152170942
  0
LINE
  5
27E
100
AcDbEntity
  8
02___PRT_ALL_AXES
100
AcDbLine
 62
7
  6
CONTINUOUS
 10
140.5309303713
 20
167.5053388266
 11
140.5309303713
 21
170.5152170942
  0
LINE
  5
27F
100
AcDbEntity
  8
02___PRT_ALL_AXES
100
AcDbLine
 62
7
  6
CONTINUOUS
 10
144.5309303713
 20
167.5102045313
 11
144.5309303713
 21
170.5152170942
  0
LINE
  5
280
100
AcDbEntity
  8
RUNDUNGEN
100
AcDbLine
 62
7
  6
CONTINUOUS
 10
145.3486524882
 20
153.5152170942
 11
145.3486524882
 21
166.5152170942
  0
LINE
  5
281
100
AcDbEntity
  8
RUNDUNGEN
100
AcDbLine
 62
7
  6
CONTINUOUS
 10
145.4309303713
 20
153.5152170942
 11
145.4309303714
 21
166.5152170942
  0
LINE
  5
282
100
AcDbEntity
  8
RUNDUNGEN
100
AcDbLine
 62
7
  6
CONTINUOUS
 10
146.4309303714
 20
167.5152170942
 11
146.4309303714
 21
152.5152170942
  0
LINE
  5
283
100
AcDbEntity
  8
0
100
AcDbLine
 62
7
  6
CONTINUOUS
 10
151.6809303714
 20
152.5152170942
 11
151.6809303714
 21
167.5152170942
  0
LINE
  5
284
100
AcDbEntity
  8
RUNDUNGEN
100
AcDbLine
 62
7
  6
CONTINUOUS
 10
205.6477653214
 20
153.5152170942
 11
205.6477653214
 21
152.5152170942
  0
LINE
  5
285
100
AcDbEntity
  8
RUNDUNGEN
100
AcDbLine
 62
7
  6
CONTINUOUS
 10
205.6477653214
 20
166.5152170942
 11
205.6477653037
 21
167.5152170942
  0
LINE
  5
286
100
AcDbEntity
  8
02___PRT_ALL_AXES
100
AcDbLine
 62
7
  6
CONTINUOUS
 10
212.1705397464
 20
167.5152170942
 11
212.1705397464
 21
170.5152170942
  0
LINE
  5
287
100
AcDbEntity
  8
RUNDUNGEN
100
AcDbLine
 62
7
  6
CONTINUOUS
 10
214.2134070224
 20
166.5152170942
 11
214.2134070224
 21
152.5152170942
  0
LINE
  5
288
100
AcDbEntity
  8
02___PRT_ALL_AXES
100
AcDbLine
 62
7
  6
CONTINUOUS
 10
214.2134070224
 20
166.5152170942
 11
214.2134070224
 21
167.5102506009
  0
LINE
  5
289
100
AcDbEntity
  8
RUNDUNGEN
100
AcDbLine
 62
7
  6
CONTINUOUS
 10
214.6106300282
 20
166.5152170942
 11
214.6106300282
 21
153.5152170942
  0
LINE
  5
28A
100
AcDbEntity
  8
02___PRT_ALL_AXES
100
AcDbLine
 62
7
  6
CONTINUOUS
 10
216.1705397464
 20
167.5152170942
 11
216.1705397464
 21
170.5152170942
  0
LINE
  5
28B
100
AcDbEntity
  8
RUNDUNGEN
100
AcDbLine
 62
7
  6
CONTINUOUS
 10
200.17081884
 20
152.5152170942
 11
253.1704930582
 21
152.5152170942
  0
LINE
  5
28C
100
AcDbEntity
  8
RUNDUNGEN
100
AcDbLine
 62
7
  6
CONTINUOUS
 10
205.6478599676
 20
153.5152170942
 11
253.837206413
 21
153.5152170942
  0
LINE
  5
28D
100
AcDbEntity
  8
RUNDUNGEN
100
AcDbLine
 62
7
  6
CONTINUOUS
 10
230.6705397464
 20
156.6152170942
 11
246.1705397464
 21
156.6152170942
  0
LINE
  5
28E
100
AcDbEntity
  8
0
100
AcDbLine
 62
7
  6
CONTINUOUS
 10
246.1705397464
 20
156.6152170942
 11
250.1705397464
 21
156.6152170942
  0
LINE
  5
28F
100
AcDbEntity
  8
02___PRT_ALL_AXES
100
AcDbLine
 62
7
  6
CONTINUOUS
 10
223.6705397464
 20
167.5152170942
 11
223.6705397464
 21
170.5152170942
  0
LINE
  5
290
100
AcDbEntity
  8
02___PRT_ALL_AXES
100
AcDbLine
 62
7
  6
CONTINUOUS
 10
227.6705397464
 20
167.5152170942
 11
227.6705397464
 21
170.5152170942
  0
LINE
  5
291
100
AcDbEntity
  8
RUNDUNGEN
100
AcDbLine
 62
7
  6
CONTINUOUS
 10
230.6705397464
 20
163.4152170942
 11
246.1705397464
 21
163.4152170942
  0
LINE
  5
292
100
AcDbEntity
  8
0
100
AcDbLine
 62
7
  6
CONTINUOUS
 10
246.1705397464
 20
163.4152170942
 11
250.1705397464
 21
163.4152170942
  0
LINE
  5
293
100
AcDbEntity
  8
02___PRT_ALL_AXES
100
AcDbLine
 62
7
  6
CONTINUOUS
 10
227.8705397464
 20
167.5152170942
 11
227.8705397464
 21
170.5152170942
  0
LINE
  5
294
100
AcDbEntity
  8
RUNDUNGEN
100
AcDbLine
 62
7
  6
CONTINUOUS
 10
230.9804494645
 20
153.5152170942
 11
230.9804494645
 21
156.6152170942
  0
LINE
  5
295
100
AcDbEntity
  8
RUNDUNGEN
100
AcDbLine
 62
7
  6
CONTINUOUS
 10
230.9804494645
 20
163.4152170942
 11
230.9804494645
 21
166.5152170942
  0
LINE
  5
296
100
AcDbEntity
  8
RUNDUNGEN
100
AcDbLine
 62
7
  6
CONTINUOUS
 10
231.3776724703
 20
152.5152170942
 11
231.3776724703
 21
156.6152170942
  0
LINE
  5
297
100
AcDbEntity
  8
RUNDUNGEN
100
AcDbLine
 62
7
  6
CONTINUOUS
 10
231.3776724703
 20
163.4152170942
 11
231.3776724608
 21
167.5152170942
  0
LINE
  5
298
100
AcDbEntity
  8
02___PRT_ALL_AXES
100
AcDbLine
 62
7
  6
CONTINUOUS
 10
231.8705397464
 20
167.5152170942
 11
231.8705397464
 21
170.5152170942
  0
LINE
  5
299
100
AcDbEntity
  8
RUNDUNGEN
100
AcDbLine
 62
7
  6
CONTINUOUS
 10
253.837206413
 20
166.5152170942
 11
205.647863016
 21
166.5152170942
  0
LINE
  5
29A
100
AcDbEntity
  8
02___PRT_ALL_AXES
100
AcDbLine
 62
7
  6
CONTINUOUS
 10
246.1705397464
 20
167.5152170942
 11
231.3776724703
 21
167.5152170942
  0
LINE
  5
29B
100
AcDbEntity
  8
02___PRT_ALL_AXES
100
AcDbLine
 62
7
  6
CONTINUOUS
 10
230.5832264587
 20
167.5152170942
 11
215.7405268873
 21
167.5152170942
  0
LINE
  5
29C
100
AcDbEntity
  8
RUNDUNGEN
100
AcDbLine
 62
7
  6
CONTINUOUS
 10
253.1705495542
 20
167.5152170942
 11
215.7405268873
 21
167.5152170942
  0
LINE
  5
29D
100
AcDbEntity
  8
RUNDUNGEN
100
AcDbLine
 62
7
  6
CONTINUOUS
 10
205.6477653214
 20
167.5152170942
 11
200.170829699
 21
167.5152170942
  0
LINE
  5
29E
100
AcDbEntity
  8
02___PRT_ALL_AXES
100
AcDbLine
 62
7
  6
CONTINUOUS
 10
213.5460399465
 20
167.5152170942
 11
200.1705397464
 21
167.5152170942
  0
LINE
  5
29F
100
AcDbEntity
  8
02___PRT_ALL_AXES
100
AcDbLine
 62
7
  6
CONTINUOUS
 10
212.1705397464
 20
170.5152170942
 11
216.1705397464
 21
170.5152170942
  0
LINE
  5
2A0
100
AcDbEntity
  8
02___PRT_ALL_AXES
100
AcDbLine
 62
7
  6
CONTINUOUS
 10
223.6705397464
 20
170.5152170942
 11
227.6705397464
 21
170.5152170942
  0
LINE
  5
2A1
100
AcDbEntity
  8
02___PRT_ALL_AXES
100
AcDbLine
 62
7
  6
CONTINUOUS
 10
227.8705397464
 20
170.5152170942
 11
231.8705397464
 21
170.5152170942
  0
LINE
  5
2A2
100
AcDbEntity
  8
02___PRT_ALL_AXES
100
AcDbLine
 62
7
  6
CONTINUOUS
 10
243.1709269396
 20
170.5152170942
 11
248.1701525531
 21
170.5152170942
  0
LINE
  5
2A3
100
AcDbEntity
  8
02___PRT_ALL_AXES
100
AcDbLine
 62
7
  6
CONTINUOUS
 10
243.1705397464
 20
167.5152170942
 11
243.1705397464
 21
170.5152170942
  0
LINE
  5
2A4
100
AcDbEntity
  8
RUNDUNGEN
100
AcDbLine
 62
7
  6
CONTINUOUS
 10
246.1705397464
 20
152.5152170942
 11
246.1705397464
 21
156.6152170942
  0
LINE
  5
2A5
100
AcDbEntity
  8
RUNDUNGEN
100
AcDbLine
 62
7
  6
CONTINUOUS
 10
246.1705397464
 20
163.4152170942
 11
246.1705397464
 21
167.5152170942
  0
LINE
  5
2A6
100
AcDbEntity
  8
02___PRT_ALL_AXES
100
AcDbLine
 62
7
  6
CONTINUOUS
 10
248.1705397464
 20
167.5152170942
 11
248.1705397464
 21
170.5152170942
  0
LINE
  5
2A7
100
AcDbEntity
  8
0
100
AcDbLine
 62
7
  6
CONTINUOUS
 10
257.6705397464
 20
157.0152170942
 11
257.6705397464
 21
163.0152170942
  0
LINE
  5
2A8
100
AcDbEntity
  8
0
100
AcDbLine
 62
7
  6
CONTINUOUS
 10
51.6809303713
 20
88.3779511171
 11
51.6809303713
 21
103.3779511171
  0
LINE
  5
2A9
100
AcDbEntity
  8
RUNDUNGEN
100
AcDbLine
 62
7
  6
CONTINUOUS
 10
56.9309303713
 20
88.3779511171
 11
56.9309303713
 21
95.8779511171
  0
LINE
  5
2AA
100
AcDbEntity
  8
RUNDUNGEN
100
AcDbLine
 62
7
  6
CONTINUOUS
 10
57.9309303713
 20
81.835083841
 11
57.9309303713
 21
90.4006278475
  0
LINE
  5
2AB
100
AcDbEntity
  8
02___PRT_ALL_AXES
100
AcDbLine
 62
7
  6
CONTINUOUS
 10
58.9309303713
 20
82.5024509169
 11
58.9309303713
 21
90.400725542
  0
LINE
  5
2AC
100
AcDbEntity
  8
02___PRT_ALL_AXES
100
AcDbLine
 62
7
  6
CONTINUOUS
 10
62.7078538804
 20
82.5687174606
 11
63.3355014068
 21
95.8779511171
  0
LINE
  5
2AD
100
AcDbEntity
  8
RUNDUNGEN
100
AcDbLine
 62
7
  6
CONTINUOUS
 10
65.1809303713
 20
49.8779511171
 11
65.1809303713
 21
64.6708183932
  0
LINE
  5
2AE
100
AcDbEntity
  8
02___PRT_ALL_AXES
100
AcDbLine
 62
7
  6
CONTINUOUS
 10
66.1809303713
 20
49.8779511171
 11
66.1809303713
 21
64.6708183932
  0
LINE
  5
2AF
100
AcDbEntity
  8
RUNDUNGEN
100
AcDbLine
 62
7
  6
CONTINUOUS
 10
63.7051513782
 20
82.4878447353
 11
64.410756197
 21
97.4501587823
  0
LINE
  5
2B0
100
AcDbEntity
  8
RUNDUNGEN
100
AcDbLine
 62
7
  6
CONTINUOUS
 10
65.0986524882
 20
65.068041399
 11
58.0132082545
 21
81.4378608352
  0
LINE
  5
2B1
100
AcDbEntity
  8
RUNDUNGEN
100
AcDbLine
 62
7
  6
CONTINUOUS
 10
85.2525242851
 20
42.2112844504
 11
84.5071682926
 21
42.8779511171
  0
LINE
  5
2B2
100
AcDbEntity
  8
02___PRT_ALL_AXES
100
AcDbLine
 62
7
  6
CONTINUOUS
 10
66.016374605
 20
65.4652644047
 11
59.5919225517
 21
80.3079639761
  0
LINE
  5
2B3
100
AcDbEntity
  8
0
100
AcDbLine
 62
7
  6
CONTINUOUS
 10
71.9809303713
 20
58.8779511171
 11
71.9809303713
 21
48.3779511171
  0
LINE
  5
2B4
100
AcDbEntity
  8
RUNDUNGEN
100
AcDbLine
 62
7
  6
CONTINUOUS
 10
73.6088749496
 20
68.2779511171
 11
73.608874947
 21
69.2779511171
  0
LINE
  5
2B5
100
AcDbEntity
  8
RUNDUNGEN
100
AcDbLine
 62
7
  6
CONTINUOUS
 10
93.8854754023
 20
103.0684268638
 11
89.2266388766
 21
98.1877409797
  0
LINE
  5
2B6
100
AcDbEntity
  8
RUNDUNGEN
100
AcDbLine
 62
7
  6
CONTINUOUS
 10
118.8546997304
 20
42.8779413093
 11
134.5071645993
 21
42.8779461416
  0
LINE
  5
2B7
100
AcDbEntity
  8
RUNDUNGEN
100
AcDbLine
 62
7
  6
CONTINUOUS
 10
68.8546997304
 20
42.8779413093
 11
84.5071645993
 21
42.8779461416
  0
LINE
  5
2B8
100
AcDbEntity
  8
RUNDUNGEN
100
AcDbLine
 62
7
  6
CONTINUOUS
 10
73.095234149
 20
68.3450328239
 11
73.3520545493
 21
69.3114919705
  0
LINE
  5
2B9
100
AcDbEntity
  8
02___PRT_ALL_AXES
100
AcDbLine
 62
7
  6
CONTINUOUS
 10
58.0132082545
 20
81.4378608352
 11
58.8327528701
 21
81.7925891017
  0
LINE
  5
2BA
100
AcDbEntity
  8
RUNDUNGEN
100
AcDbLine
 62
7
  6
CONTINUOUS
 10
79.7529857931
 20
68.2779511171
 11
79.7529857931
 21
69.2779511171
  0
LINE
  5
2BB
100
AcDbEntity
  8
0
100
AcDbLine
 62
7
  6
CONTINUOUS
 10
81.3809303713
 20
58.8779511171
 11
81.3809303713
 21
48.3779511171
  0
LINE
  5
2BC
100
AcDbEntity
  8
RUNDUNGEN
100
AcDbLine
 62
7
  6
CONTINUOUS
 10
138.1809303714
 20
49.8779511171
 11
137.1809303713
 21
49.8779511171
  0
LINE
  5
2BD
100
AcDbEntity
  8
RUNDUNGEN
100
AcDbLine
 62
7
  6
CONTINUOUS
 10
88.1809303713
 20
49.8779511171
 11
87.1809303713
 21
49.8779511171
  0
LINE
  5
2BE
100
AcDbEntity
  8
RUNDUNGEN
100
AcDbLine
 62
7
  6
CONTINUOUS
 10
65.1809303713
 20
49.8779511171
 11
66.1809303713
 21
49.8779511171
  0
LINE
  5
2BF
100
AcDbEntity
  8
RUNDUNGEN
100
AcDbLine
 62
7
  6
CONTINUOUS
 10
115.1809303713
 20
49.8779511171
 11
116.1809303713
 21
49.8779511171
  0
LINE
  5
2C0
100
AcDbEntity
  8
RUNDUNGEN
100
AcDbLine
 62
7
  6
CONTINUOUS
 10
80.2666265892
 20
68.3450328233
 11
80.0098061909
 21
69.3114919699
  0
LINE
  5
2C1
100
AcDbEntity
  8
RUNDUNGEN
100
AcDbLine
 62
7
  6
CONTINUOUS
 10
88.9511045457
 20
97.4501587823
 11
89.6567093645
 21
82.4878447353
  0
LINE
  5
2C2
100
AcDbEntity
  8
02___PRT_ALL_AXES
100
AcDbLine
 62
7
  6
CONTINUOUS
 10
87.1809303713
 20
64.6708183932
 11
87.1809303713
 21
49.8779511171
  0
LINE
  5
2C3
100
AcDbEntity
  8
RUNDUNGEN
100
AcDbLine
 62
7
  6
CONTINUOUS
 10
88.1809303713
 20
64.6708183932
 11
88.1809303713
 21
49.8779511171
  0
LINE
  5
2C4
100
AcDbEntity
  8
02___PRT_ALL_AXES
100
AcDbLine
 62
7
  6
CONTINUOUS
 10
90.0263593359
 20
95.8779511171
 11
90.6540068623
 21
82.5687174606
  0
LINE
  5
2C5
100
AcDbEntity
  8
02___PRT_ALL_AXES
100
AcDbLine
 62
7
  6
CONTINUOUS
 10
93.769938191
 20
80.3079639761
 11
87.3454861377
 21
65.4652644047
  0
LINE
  5
2C6
100
AcDbEntity
  8
RUNDUNGEN
100
AcDbLine
 62
7
  6
CONTINUOUS
 10
95.3486524882
 20
81.4378608352
 11
88.2632082545
 21
65.068041399
  0
LINE
  5
2C7
100
AcDbEntity
  8
RUNDUNGEN
100
AcDbLine
 62
7
  6
CONTINUOUS
 10
65.0986524882
 20
65.068041399
 11
66.016374605
 21
65.4652644047
  0
LINE
  5
2C8
100
AcDbEntity
  8
RUNDUNGEN
100
AcDbLine
 62
7
  6
CONTINUOUS
 10
88.2632082545
 20
65.068041399
 11
87.3454861363
 21
65.465264396
  0
LINE
  5
2C9
100
AcDbEntity
  8
RUNDUNGEN
100
AcDbLine
 62
7
  6
CONTINUOUS
 10
64.1352218661
 20
98.1877409797
 11
59.4763853404
 21
103.0684268638
  0
LINE
  5
2CA
100
AcDbEntity
  8
02___PRT_ALL_AXES
100
AcDbLine
 62
7
  6
CONTINUOUS
 10
94.4309303713
 20
90.400725542
 11
94.4309303713
 21
82.5024509169
  0
LINE
  5
2CB
100
AcDbEntity
  8
RUNDUNGEN
100
AcDbLine
 62
7
  6
CONTINUOUS
 10
95.4309303713
 20
90.400725542
 11
95.4309303713
 21
81.835083841
  0
LINE
  5
2CC
100
AcDbEntity
  8
RUNDUNGEN
100
AcDbLine
 62
7
  6
CONTINUOUS
 10
96.4309303713
 20
95.8779511171
 11
96.4309303713
 21
88.3779511171
  0
LINE
  5
2CD
100
AcDbEntity
  8
02___PRT_ALL_AXES
100
AcDbLine
 62
7
  6
CONTINUOUS
 10
108.0132082545
 20
81.4378608352
 11
108.8327528701
 21
81.7925891017
  0
LINE
  5
2CE
100
AcDbEntity
  8
RUNDUNGEN
100
AcDbLine
 62
7
  6
CONTINUOUS
 10
130.0098061909
 20
69.3114919699
 11
129.7529857929
 21
69.2779511171
  0
LINE
  5
2CF
100
AcDbEntity
  8
RUNDUNGEN
100
AcDbLine
 62
7
  6
CONTINUOUS
 10
138.1809303714
 20
64.6708183932
 11
137.1809303713
 21
64.6708183932
  0
LINE
  5
2D0
100
AcDbEntity
  8
RUNDUNGEN
100
AcDbLine
 62
7
  6
CONTINUOUS
 10
88.1809303713
 20
64.6708183932
 11
87.1809303713
 21
64.6708183932
  0
LINE
  5
2D1
100
AcDbEntity
  8
RUNDUNGEN
100
AcDbLine
 62
7
  6
CONTINUOUS
 10
115.1809303713
 20
64.6708183932
 11
116.1809303699
 21
64.6708184027
  0
LINE
  5
2D2
100
AcDbEntity
  8
RUNDUNGEN
100
AcDbLine
 62
7
  6
CONTINUOUS
 10
65.1809303713
 20
64.6708183932
 11
66.1809303699
 21
64.6708184027
  0
LINE
  5
2D3
100
AcDbEntity
  8
RUNDUNGEN
100
AcDbLine
 62
7
  6
CONTINUOUS
 10
73.608874947
 20
69.2779511171
 11
73.352054549
 21
69.3114919706
  0
LINE
  5
2D4
100
AcDbEntity
  8
RUNDUNGEN
100
AcDbLine
 62
7
  6
CONTINUOUS
 10
68.1093364576
 20
42.2112844504
 11
68.8546924501
 21
42.8779511171
  0
LINE
  5
2D5
100
AcDbEntity
  8
RUNDUNGEN
100
AcDbLine
 62
7
  6
CONTINUOUS
 10
129.7529857931
 20
68.2779511171
 11
123.6088749496
 21
68.2779511171
  0
LINE
  5
2D6
100
AcDbEntity
  8
RUNDUNGEN
100
AcDbLine
 62
7
  6
CONTINUOUS
 10
79.7529857931
 20
68.2779511171
 11
73.6088749496
 21
68.2779511171
  0
LINE
  5
2D7
100
AcDbEntity
  8
RUNDUNGEN
100
AcDbLine
 62
7
  6
CONTINUOUS
 10
129.7529857931
 20
69.2779511171
 11
123.6088749496
 21
69.2779511171
  0
LINE
  5
2D8
100
AcDbEntity
  8
RUNDUNGEN
100
AcDbLine
 62
7
  6
CONTINUOUS
 10
79.7529857931
 20
69.2779511171
 11
73.6088749496
 21
69.2779511171
  0
LINE
  5
2D9
100
AcDbEntity
  8
RUNDUNGEN
100
AcDbLine
 62
7
  6
CONTINUOUS
 10
80.0098061909
 20
69.3114919699
 11
79.7529857929
 21
69.2779511171
  0
LINE
  5
2DA
100
AcDbEntity
  8
RUNDUNGEN
100
AcDbLine
 62
7
  6
CONTINUOUS
 10
123.608874947
 20
69.2779511171
 11
123.352054549
 21
69.3114919706
  0
LINE
  5
2DB
100
AcDbEntity
  8
RUNDUNGEN
100
AcDbLine
 62
7
  6
CONTINUOUS
 10
135.2525242851
 20
42.2112844504
 11
134.5071682926
 21
42.8779511171
  0
LINE
  5
2DC
100
AcDbEntity
  8
RUNDUNGEN
100
AcDbLine
 62
7
  6
CONTINUOUS
 10
106.9309303713
 20
88.3779511171
 11
106.9309303713
 21
95.8779511171
  0
LINE
  5
2DD
100
AcDbEntity
  8
RUNDUNGEN
100
AcDbLine
 62
7
  6
CONTINUOUS
 10
107.9309303713
 20
81.835083841
 11
107.9309303713
 21
90.400725542
  0
LINE
  5
2DE
100
AcDbEntity
  8
02___PRT_ALL_AXES
100
AcDbLine
 62
7
  6
CONTINUOUS
 10
108.9309303713
 20
82.5024509169
 11
108.9309303713
 21
90.400725542
  0
LINE
  5
2DF
100
AcDbEntity
  8
RUNDUNGEN
100
AcDbLine
 62
7
  6
CONTINUOUS
 10
143.8854754023
 20
103.0684268638
 11
139.2266388766
 21
98.1877409797
  0
LINE
  5
2E0
100
AcDbEntity
  8
02___PRT_ALL_AXES
100
AcDbLine
 62
7
  6
CONTINUOUS
 10
95.3486524882
 20
81.4378608352
 11
94.5291078726
 21
81.7925891017
  0
LINE
  5
2E1
100
AcDbEntity
  8
02___PRT_ALL_AXES
100
AcDbLine
 62
7
  6
CONTINUOUS
 10
112.7078538804
 20
82.5687174606
 11
113.3355014068
 21
95.8779511171
  0
LINE
  5
2E2
100
AcDbEntity
  8
RUNDUNGEN
100
AcDbLine
 62
7
  6
CONTINUOUS
 10
113.7051513782
 20
82.4878447353
 11
114.410756197
 21
97.4501587823
  0
LINE
  5
2E3
100
AcDbEntity
  8
RUNDUNGEN
100
AcDbLine
 62
7
  6
CONTINUOUS
 10
115.0986524882
 20
65.068041399
 11
116.016374605
 21
65.4652644047
  0
LINE
  5
2E4
100
AcDbEntity
  8
02___PRT_ALL_AXES
100
AcDbLine
 62
7
  6
CONTINUOUS
 10
140.6416945182
 20
82.534295456
 11
139.6567093645
 21
82.4878447353
  0
LINE
  5
2E5
100
AcDbEntity
  8
02___PRT_ALL_AXES
100
AcDbLine
 62
7
  6
CONTINUOUS
 10
90.6416945182
 20
82.534295456
 11
89.6567093645
 21
82.4878447353
  0
LINE
  5
2E6
100
AcDbEntity
  8
02___PRT_ALL_AXES
100
AcDbLine
 62
7
  6
CONTINUOUS
 10
145.4309303714
 20
81.835083841
 11
144.5304709177
 21
81.835083841
  0
LINE
  5
2E7
100
AcDbEntity
  8
02___PRT_ALL_AXES
100
AcDbLine
 62
7
  6
CONTINUOUS
 10
95.4309303713
 20
81.835083841
 11
94.5304709177
 21
81.835083841
  0
LINE
  5
2E8
100
AcDbEntity
  8
02___PRT_ALL_AXES
100
AcDbLine
 62
7
  6
CONTINUOUS
 10
57.9309303713
 20
81.835083841
 11
58.831389825
 21
81.835083841
  0
LINE
  5
2E9
100
AcDbEntity
  8
02___PRT_ALL_AXES
100
AcDbLine
 62
7
  6
CONTINUOUS
 10
107.9309303713
 20
81.835083841
 11
108.831389825
 21
81.835083841
  0
LINE
  5
2EA
100
AcDbEntity
  8
02___PRT_ALL_AXES
100
AcDbLine
 62
7
  6
CONTINUOUS
 10
62.7201662245
 20
82.534295456
 11
63.7051513782
 21
82.4878447353
  0
LINE
  5
2EB
100
AcDbEntity
  8
02___PRT_ALL_AXES
100
AcDbLine
 62
7
  6
CONTINUOUS
 10
112.7201662245
 20
82.534295456
 11
113.7051513782
 21
82.4878447353
  0
LINE
  5
2EC
100
AcDbEntity
  8
RUNDUNGEN
100
AcDbLine
 62
7
  6
CONTINUOUS
 10
138.2632082545
 20
65.068041399
 11
137.3454861363
 21
65.465264396
  0
LINE
  5
2ED
100
AcDbEntity
  8
RUNDUNGEN
100
AcDbLine
 62
7
  6
CONTINUOUS
 10
115.0986524882
 20
65.068041399
 11
108.0132082545
 21
81.4378608352
  0
LINE
  5
2EE
100
AcDbEntity
  8
02___PRT_ALL_AXES
100
AcDbLine
 62
7
  6
CONTINUOUS
 10
116.016374605
 20
65.4652644047
 11
109.5919225517
 21
80.3079639761
  0
LINE
  5
2EF
100
AcDbEntity
  8
RUNDUNGEN
100
AcDbLine
 62
7
  6
CONTINUOUS
 10
115.1809303713
 20
49.8779511171
 11
115.1809303713
 21
64.6708183932
  0
LINE
  5
2F0
100
AcDbEntity
  8
02___PRT_ALL_AXES
100
AcDbLine
 62
7
  6
CONTINUOUS
 10
116.1809303713
 20
49.8779511171
 11
116.1809303713
 21
64.6708183932
  0
LINE
  5
2F1
100
AcDbEntity
  8
0
100
AcDbLine
 62
7
  6
CONTINUOUS
 10
121.9809303713
 20
58.8779511171
 11
121.9809303713
 21
48.3779511171
  0
LINE
  5
2F2
100
AcDbEntity
  8
0
100
AcDbLine
 62
7
  6
CONTINUOUS
 10
151.6809303714
 20
88.3779511171
 11
146.4309303714
 21
88.3779511171
  0
LINE
  5
2F3
100
AcDbEntity
  8
0
100
AcDbLine
 62
7
  6
CONTINUOUS
 10
106.9309303713
 20
88.3779511171
 11
96.4309303713
 21
88.3779511171
  0
LINE
  5
2F4
100
AcDbEntity
  8
0
100
AcDbLine
 62
7
  6
CONTINUOUS
 10
56.9309303713
 20
88.3779511171
 11
51.6809303713
 21
88.3779511171
  0
LINE
  5
2F5
100
AcDbEntity
  8
RUNDUNGEN
100
AcDbLine
 62
7
  6
CONTINUOUS
 10
145.4309303714
 20
90.400725542
 11
144.4309303713
 21
90.400725542
  0
LINE
  5
2F6
100
AcDbEntity
  8
RUNDUNGEN
100
AcDbLine
 62
7
  6
CONTINUOUS
 10
95.4309303713
 20
90.400725542
 11
94.4309303713
 21
90.400725542
  0
LINE
  5
2F7
100
AcDbEntity
  8
RUNDUNGEN
100
AcDbLine
 62
7
  6
CONTINUOUS
 10
107.9309303713
 20
90.400725542
 11
108.9309303671
 21
90.4007255598
  0
LINE
  5
2F8
100
AcDbEntity
  8
RUNDUNGEN
100
AcDbLine
 62
7
  6
CONTINUOUS
 10
57.9309303713
 20
90.400725542
 11
58.9309303671
 21
90.4007255598
  0
LINE
  5
2F9
100
AcDbEntity
  8
RUNDUNGEN
100
AcDbLine
 62
7
  6
CONTINUOUS
 10
123.6088749496
 20
68.2779511171
 11
123.608874947
 21
69.2779511171
  0
LINE
  5
2FA
100
AcDbEntity
  8
RUNDUNGEN
100
AcDbLine
 62
7
  6
CONTINUOUS
 10
123.095234149
 20
68.3450328239
 11
123.3520545493
 21
69.3114919705
  0
LINE
  5
2FB
100
AcDbEntity
  8
RUNDUNGEN
100
AcDbLine
 62
7
  6
CONTINUOUS
 10
140.0263593359
 20
95.8779511171
 11
139.0274694609
 21
95.8308446664
  0
LINE
  5
2FC
100
AcDbEntity
  8
RUNDUNGEN
100
AcDbLine
 62
7
  6
CONTINUOUS
 10
63.3355014068
 20
95.8779511171
 11
64.3343912818
 21
95.8308446664
  0
LINE
  5
2FD
100
AcDbEntity
  8
RUNDUNGEN
100
AcDbLine
 62
7
  6
CONTINUOUS
 10
129.7529857931
 20
68.2779511171
 11
129.7529857931
 21
69.2779511171
  0
LINE
  5
2FE
100
AcDbEntity
  8
RUNDUNGEN
100
AcDbLine
 62
7
  6
CONTINUOUS
 10
90.0263593359
 20
95.8779511171
 11
89.0274694609
 21
95.8308446664
  0
LINE
  5
2FF
100
AcDbEntity
  8
RUNDUNGEN
100
AcDbLine
 62
7
  6
CONTINUOUS
 10
106.9310901335
 20
95.8776611644
 11
113.3355014068
 21
95.8779511171
  0
LINE
  5
300
100
AcDbEntity
  8
RUNDUNGEN
100
AcDbLine
 62
7
  6
CONTINUOUS
 10
90.0263593359
 20
95.8779511171
 11
96.4307801489
 21
95.8776783795
  0
LINE
  5
301
100
AcDbEntity
  8
RUNDUNGEN
100
AcDbLine
 62
7
  6
CONTINUOUS
 10
140.0263593359
 20
95.8779511171
 11
146.4307801489
 21
95.8776783796
  0
LINE
  5
302
100
AcDbEntity
  8
RUNDUNGEN
100
AcDbLine
 62
7
  6
CONTINUOUS
 10
56.9310901335
 20
95.8776611645
 11
63.3355014068
 21
95.8779511171
  0
LINE
  5
303
100
AcDbEntity
  8
RUNDUNGEN
100
AcDbLine
 62
7
  6
CONTINUOUS
 10
113.3355014068
 20
95.8779511171
 11
114.3343912818
 21
95.8308446664
  0
LINE
  5
304
100
AcDbEntity
  8
02___PRT_ALL_AXES
100
AcDbLine
 62
7
  6
CONTINUOUS
 10
145.3486524882
 20
81.4378608352
 11
144.5291078726
 21
81.7925891017
  0
LINE
  5
305
100
AcDbEntity
  8
RUNDUNGEN
100
AcDbLine
 62
7
  6
CONTINUOUS
 10
114.1352218661
 20
98.1877409797
 11
109.4763853404
 21
103.0684268638
  0
LINE
  5
306
100
AcDbEntity
  8
RUNDUNGEN
100
AcDbLine
 62
7
  6
CONTINUOUS
 10
130.2666265892
 20
68.3450328233
 11
130.0098061909
 21
69.3114919699
  0
LINE
  5
307
100
AcDbEntity
  8
0
100
AcDbLine
 62
7
  6
CONTINUOUS
 10
131.3809303713
 20
58.8779511171
 11
131.3809303713
 21
48.3779511171
  0
LINE
  5
308
100
AcDbEntity
  8
RUNDUNGEN
100
AcDbLine
 62
7
  6
CONTINUOUS
 10
118.1093364576
 20
42.2112844504
 11
118.8546924501
 21
42.8779511171
  0
LINE
  5
309
100
AcDbEntity
  8
02___PRT_ALL_AXES
100
AcDbLine
 62
7
  6
CONTINUOUS
 10
137.1809303713
 20
64.6708183932
 11
137.1809303713
 21
49.8779511171
  0
LINE
  5
30A
100
AcDbEntity
  8
02___PRT_ALL_AXES
100
AcDbLine
 62
7
  6
CONTINUOUS
 10
143.769938191
 20
80.3079639761
 11
137.3454861377
 21
65.4652644047
  0
LINE
  5
30B
100
AcDbEntity
  8
RUNDUNGEN
100
AcDbLine
 62
7
  6
CONTINUOUS
 10
145.3486524882
 20
81.4378608352
 11
138.2632082545
 21
65.068041399
  0
LINE
  5
30C
100
AcDbEntity
  8
0
100
AcDbLine
 62
7
  6
CONTINUOUS
 10
151.6809303714
 20
103.3779511171
 11
144.6088289495
 21
103.3779511171
  0
LINE
  5
30D
100
AcDbEntity
  8
0
100
AcDbLine
 62
7
  6
CONTINUOUS
 10
108.7530315894
 20
103.3779511171
 11
94.6088289495
 21
103.3779511171
  0
LINE
  5
30E
100
AcDbEntity
  8
0
100
AcDbLine
 62
7
  6
CONTINUOUS
 10
58.7530315894
 20
103.3779511171
 11
51.6809303713
 21
103.3779511171
  0
LINE
  5
30F
100
AcDbEntity
  8
RUNDUNGEN
100
AcDbLine
 62
7
  6
CONTINUOUS
 10
138.9511045457
 20
97.4501587823
 11
139.6567093645
 21
82.4878447353
  0
LINE
  5
310
100
AcDbEntity
  8
02___PRT_ALL_AXES
100
AcDbLine
 62
7
  6
CONTINUOUS
 10
140.0263593359
 20
95.8779511171
 11
140.6540068623
 21
82.5687174606
  0
LINE
  5
311
100
AcDbEntity
  8
RUNDUNGEN
100
AcDbLine
 62
7
  6
CONTINUOUS
 10
138.1809303714
 20
64.6708183932
 11
138.1809303714
 21
49.8779511171
  0
LINE
  5
312
100
AcDbEntity
  8
02___PRT_ALL_AXES
100
AcDbLine
 62
7
  6
CONTINUOUS
 10
144.4309303713
 20
90.400725542
 11
144.4309303713
 21
82.5024509169
  0
LINE
  5
313
100
AcDbEntity
  8
RUNDUNGEN
100
AcDbLine
 62
7
  6
CONTINUOUS
 10
145.4309303714
 20
90.400725542
 11
145.4309303714
 21
81.835083841
  0
LINE
  5
314
100
AcDbEntity
  8
RUNDUNGEN
100
AcDbLine
 62
7
  6
CONTINUOUS
 10
146.4309303714
 20
95.8779511171
 11
146.4309303714
 21
88.3779511171
  0
LINE
  5
315
100
AcDbEntity
  8
0
100
AcDbLine
 62
7
  6
CONTINUOUS
 10
151.6809303714
 20
88.3779511171
 11
151.6809303714
 21
103.3779511171
  0
ARC
  5
316
100
AcDbEntity
  8
RUNDUNGEN
100
AcDbCircle
 62
7
  6
CONTINUOUS
 10
94.2603284481
 20
153.5155695762
 40
1.0883240971
100
AcDbArc
 50
351.7232558451
 51
359.9814432701
  0
ARC
  5
317
100
AcDbEntity
  8
RUNDUNGEN
100
AcDbCircle
 62
7
  6
CONTINUOUS
 10
66.1869752638
 20
153.5155703932
 40
1.088322833
100
AcDbArc
 50
180.0185997594
 51
188.2825534654
  0
ARC
  5
318
100
AcDbEntity
  8
RUNDUNGEN
100
AcDbCircle
 62
7
  6
CONTINUOUS
 10
87.1748854831
 20
153.5155703963
 40
1.0883228288
100
AcDbArc
 50
351.717424148
 51
359.981400076
  0
ARC
  5
319
100
AcDbEntity
  8
RUNDUNGEN
100
AcDbCircle
 62
7
  6
CONTINUOUS
 10
94.4309303713
 20
153.5152170942
 40
1.0
100
AcDbArc
 50
270.0
 51
360.0
  0
ARC
  5
31A
100
AcDbEntity
  8
RUNDUNGEN
100
AcDbCircle
 62
7
  6
CONTINUOUS
 10
87.1809303713
 20
153.5152170942
 40
1.0
100
AcDbArc
 50
270.0
 51
360.0
  0
ARC
  5
31B
100
AcDbEntity
  8
RUNDUNGEN
100
AcDbCircle
 62
7
  6
CONTINUOUS
 10
66.1809303713
 20
153.5152170942
 40
1.0
100
AcDbArc
 50
180.0
 51
270.0
  0
ARC
  5
31C
100
AcDbEntity
  8
RUNDUNGEN
100
AcDbCircle
 62
7
  6
CONTINUOUS
 10
58.9309303713
 20
153.5152170942
 40
1.0
100
AcDbArc
 50
180.0
 51
270.0
  0
ARC
  5
31D
100
AcDbEntity
  8
02___PRT_ALL_AXES
100
AcDbCircle
 62
7
  6
CONTINUOUS
 10
94.2602865802
 20
166.5148974259
 40
1.0883659549
100
AcDbArc
 50
0.0168285701
 51
15.3836751464
  0
ARC
  5
31E
100
AcDbEntity
  8
02___PRT_ALL_AXES
100
AcDbCircle
 62
7
  6
CONTINUOUS
 10
59.1015741594
 20
166.5148974285
 40
1.0883659518
100
AcDbArc
 50
164.6163508154
 51
179.9831715676
  0
ARC
  5
31F
100
AcDbEntity
  8
RUNDUNGEN
100
AcDbCircle
 62
7
  6
CONTINUOUS
 10
87.1748854789
 20
166.5148637951
 40
1.088322833
100
AcDbArc
 50
0.0185997594
 51
8.2825534654
  0
ARC
  5
320
100
AcDbEntity
  8
RUNDUNGEN
100
AcDbCircle
 62
7
  6
CONTINUOUS
 10
66.1869752596
 20
166.514863792
 40
1.0883228288
100
AcDbArc
 50
171.717424148
 51
179.981400076
  0
ARC
  5
321
100
AcDbEntity
  8
RUNDUNGEN
100
AcDbCircle
 62
7
  6
CONTINUOUS
 10
58.9309633658
 20
166.5152170942
 40
1.0000164987
100
AcDbArc
 50
112.5004391984
 51
180.0
  0
ARC
  5
322
100
AcDbEntity
  8
02___PRT_ALL_AXES
100
AcDbCircle
 62
7
  6
CONTINUOUS
 10
58.9309303713
 20
166.5152170942
 40
1.0
100
AcDbArc
 50
95.712713718
 51
180.0
  0
ARC
  5
323
100
AcDbEntity
  8
RUNDUNGEN
100
AcDbCircle
 62
7
  6
CONTINUOUS
 10
66.1809303713
 20
166.5152170942
 40
1.0
100
AcDbArc
 50
90.0
 51
180.0
  0
ARC
  5
324
100
AcDbEntity
  8
RUNDUNGEN
100
AcDbCircle
 62
7
  6
CONTINUOUS
 10
87.1809303713
 20
166.5152170942
 40
1.0
100
AcDbArc
 50
0.0
 51
90.0
  0
ARC
  5
325
100
AcDbEntity
  8
02___PRT_ALL_AXES
100
AcDbCircle
 62
7
  6
CONTINUOUS
 10
94.4309303713
 20
166.5152170942
 40
1.0
100
AcDbArc
 50
0.0
 51
84.287286282
  0
ARC
  5
326
100
AcDbEntity
  8
RUNDUNGEN
100
AcDbCircle
 62
7
  6
CONTINUOUS
 10
144.2603284481
 20
153.5155695762
 40
1.0883240971
100
AcDbArc
 50
351.7232558451
 51
359.9814432701
  0
ARC
  5
327
100
AcDbEntity
  8
RUNDUNGEN
100
AcDbCircle
 62
7
  6
CONTINUOUS
 10
116.1869752638
 20
153.5155703932
 40
1.088322833
100
AcDbArc
 50
180.0185997594
 51
188.2825534654
  0
ARC
  5
328
100
AcDbEntity
  8
RUNDUNGEN
100
AcDbCircle
 62
7
  6
CONTINUOUS
 10
137.1748854831
 20
153.5155703963
 40
1.0883228288
100
AcDbArc
 50
351.717424148
 51
359.981400076
  0
ARC
  5
329
100
AcDbEntity
  8
RUNDUNGEN
100
AcDbCircle
 62
7
  6
CONTINUOUS
 10
144.4309303713
 20
153.5152170942
 40
1.0
100
AcDbArc
 50
270.0
 51
360.0
  0
ARC
  5
32A
100
AcDbEntity
  8
RUNDUNGEN
100
AcDbCircle
 62
7
  6
CONTINUOUS
 10
137.1809303713
 20
153.5152170942
 40
1.0
100
AcDbArc
 50
270.0
 51
360.0
  0
ARC
  5
32B
100
AcDbEntity
  8
RUNDUNGEN
100
AcDbCircle
 62
7
  6
CONTINUOUS
 10
116.1809303713
 20
153.5152170942
 40
1.0
100
AcDbArc
 50
180.0
 51
270.0
  0
ARC
  5
32C
100
AcDbEntity
  8
RUNDUNGEN
100
AcDbCircle
 62
7
  6
CONTINUOUS
 10
108.9309303713
 20
153.5152170942
 40
1.0
100
AcDbArc
 50
180.0
 51
270.0
  0
ARC
  5
32D
100
AcDbEntity
  8
02___PRT_ALL_AXES
100
AcDbCircle
 62
7
  6
CONTINUOUS
 10
144.2602865802
 20
166.5148974259
 40
1.0883659549
100
AcDbArc
 50
0.0168285701
 51
15.3836751464
  0
ARC
  5
32E
100
AcDbEntity
  8
02___PRT_ALL_AXES
100
AcDbCircle
 62
7
  6
CONTINUOUS
 10
109.1015741594
 20
166.5148974285
 40
1.0883659518
100
AcDbArc
 50
164.6163508154
 51
179.9831715676
  0
ARC
  5
32F
100
AcDbEntity
  8
RUNDUNGEN
100
AcDbCircle
 62
7
  6
CONTINUOUS
 10
137.1748854789
 20
166.5148637951
 40
1.088322833
100
AcDbArc
 50
0.0185997593
 51
8.2825534654
  0
ARC
  5
330
100
AcDbEntity
  8
RUNDUNGEN
100
AcDbCircle
 62
7
  6
CONTINUOUS
 10
116.1869752596
 20
166.514863792
 40
1.0883228288
100
AcDbArc
 50
171.717424148
 51
179.981400076
  0
ARC
  5
331
100
AcDbEntity
  8
02___PRT_ALL_AXES
100
AcDbCircle
 62
7
  6
CONTINUOUS
 10
108.9309303713
 20
166.5152170942
 40
1.0
100
AcDbArc
 50
95.712713718
 51
180.0
  0
ARC
  5
332
100
AcDbEntity
  8
RUNDUNGEN
100
AcDbCircle
 62
7
  6
CONTINUOUS
 10
116.1809303713
 20
166.5152170942
 40
1.0
100
AcDbArc
 50
90.0
 51
180.0
  0
ARC
  5
333
100
AcDbEntity
  8
RUNDUNGEN
100
AcDbCircle
 62
7
  6
CONTINUOUS
 10
137.1809303713
 20
166.5152170942
 40
1.0
100
AcDbArc
 50
0.0
 51
90.0
  0
ARC
  5
334
100
AcDbEntity
  8
02___PRT_ALL_AXES
100
AcDbCircle
 62
7
  6
CONTINUOUS
 10
144.4309303713
 20
166.5152170942
 40
1.0
100
AcDbArc
 50
0.0
 51
84.287286282
  0
ARC
  5
335
100
AcDbEntity
  8
02___PRT_ALL_AXES
100
AcDbCircle
 62
7
  6
CONTINUOUS
 10
214.17049222
 20
187.498189981
 40
19.9879854498
100
AcDbArc
 50
270.0001362347
 51
270.1230158462
  0
ARC
  5
336
100
AcDbEntity
  8
RUNDUNGEN
100
AcDbCircle
 62
7
  6
CONTINUOUS
 10
200.1705397464
 20
160.0152170942
 40
8.5
100
AcDbArc
 50
310.1196547616
 51
49.8803295253
  0
CIRCLE
  5
337
100
AcDbEntity
  8
0
100
AcDbCircle
 62
7
  6
CONTINUOUS
 10
200.1705397464
 20
160.0152170942
 40
7.5
  0
ARC
  5
338
100
AcDbEntity
  8
RUNDUNGEN
100
AcDbCircle
 62
7
  6
CONTINUOUS
 10
253.1705397464
 20
163.0152170942
 40
4.5
100
AcDbArc
 50
0.0
 51
89.99993665
  0
ARC
  5
339
100
AcDbEntity
  8
RUNDUNGEN
100
AcDbCircle
 62
7
  6
CONTINUOUS
 10
253.1705397464
 20
157.0152170942
 40
4.5
100
AcDbArc
 50
269.9994055482
 51
360.0
  0
ARC
  5
33A
100
AcDbEntity
  8
0
100
AcDbCircle
 62
7
  6
CONTINUOUS
 10
230.6705397464
 20
160.0152170942
 40
3.4
100
AcDbArc
 50
90.0
 51
270.0
  0
ARC
  5
33B
100
AcDbEntity
  8
0
100
AcDbCircle
 62
7
  6
CONTINUOUS
 10
250.1705397463
 20
160.0152170942
 40
3.4
100
AcDbArc
 50
270.0
 51
90.0
  0
CIRCLE
  5
33C
100
AcDbEntity
  8
0
100
AcDbCircle
 62
7
  6
CONTINUOUS
 10
200.1705397464
 20
160.0152170942
 40
3.25
  0
ARC
  5
33D
100
AcDbEntity
  8
02___PRT_ALL_AXES
100
AcDbCircle
 62
7
  6
CONTINUOUS
 10
214.2156553551
 20
166.4644496202
 40
1.0458033975
100
AcDbArc
 50
87.794500564
 51
90.1231780989
  0
CIRCLE
  5
33E
100
AcDbEntity
  8
02___PRT_ALL_AXES
100
AcDbCircle
 62
7
  6
CONTINUOUS
 10
68.6809303713
 20
50.3779511171
 40
2.5
  0
CIRCLE
  5
33F
100
AcDbEntity
  8
02___PRT_ALL_AXES
100
AcDbCircle
 62
7
  6
CONTINUOUS
 10
66.2809303713
 20
70.3779511171
 40
2.0
  0
ARC
  5
340
100
AcDbEntity
  8
RUNDUNGEN
100
AcDbCircle
 62
7
  6
CONTINUOUS
 10
73.6088749496
 20
70.2779511171
 40
2.0
100
AcDbArc
 50
255.1185207656
 51
270.0
  0
ARC
  5
341
100
AcDbEntity
  8
RUNDUNGEN
100
AcDbCircle
 62
7
  6
CONTINUOUS
 10
64.1809303713
 20
64.6708183932
 40
2.0
100
AcDbArc
 50
0.0
 51
23.404689551
  0
ARC
  5
342
100
AcDbEntity
  8
RUNDUNGEN
100
AcDbCircle
 62
7
  6
CONTINUOUS
 10
73.6088749496
 20
70.2779511171
 40
1.0
100
AcDbArc
 50
255.1185207656
 51
270.0
  0
ARC
  5
343
100
AcDbEntity
  8
RUNDUNGEN
100
AcDbCircle
 62
7
  6
CONTINUOUS
 10
64.1809303713
 20
64.6708183932
 40
1.0
100
AcDbArc
 50
0.0
 51
23.404689551
  0
ARC
  5
344
100
AcDbEntity
  8
0
100
AcDbCircle
 62
7
  6
CONTINUOUS
 10
76.6809303713
 20
49.8779511171
 40
11.5
100
AcDbArc
 50
349.1994374582
 51
349.6490794446
  0
ARC
  5
345
100
AcDbEntity
  8
RUNDUNGEN
100
AcDbCircle
 62
7
  6
CONTINUOUS
 10
76.6809303713
 20
49.8779511171
 40
11.5
100
AcDbArc
 50
180.0
 51
360.0
  0
ARC
  5
346
100
AcDbEntity
  8
0
100
AcDbCircle
 62
7
  6
CONTINUOUS
 10
76.6809303713
 20
49.8779511171
 40
11.5
100
AcDbArc
 50
185.7542886311
 51
190.800562542
  0
ARC
  5
347
100
AcDbEntity
  8
RUNDUNGEN
100
AcDbCircle
 62
7
  6
CONTINUOUS
 10
76.6809303713
 20
49.8779511171
 40
10.5
100
AcDbArc
 50
318.1896514322
 51
360.0
  0
ARC
  5
348
100
AcDbEntity
  8
RUNDUNGEN
100
AcDbCircle
 62
7
  6
CONTINUOUS
 10
76.6809303713
 20
49.8779511171
 40
10.5
100
AcDbArc
 50
180.0
 51
221.8103812708
  0
ARC
  5
349
100
AcDbEntity
  8
0
100
AcDbCircle
 62
7
  6
CONTINUOUS
 10
76.6809303713
 20
48.3779511171
 40
4.7
100
AcDbArc
 50
180.0
 51
360.0
  0
ARC
  5
34A
100
AcDbEntity
  8
0
100
AcDbCircle
 62
7
  6
CONTINUOUS
 10
76.6809303713
 20
58.8779511171
 40
4.7
100
AcDbArc
 50
0.0
 51
180.0
  0
CIRCLE
  5
34B
100
AcDbEntity
  8
02___PRT_ALL_AXES
100
AcDbCircle
 62
7
  6
CONTINUOUS
 10
84.6809303713
 20
50.3779511171
 40
2.5
  0
CIRCLE
  5
34C
100
AcDbEntity
  8
02___PRT_ALL_AXES
100
AcDbCircle
 62
7
  6
CONTINUOUS
 10
87.0809303713
 20
70.3779511171
 40
2.0
  0
CIRCLE
  5
34D
100
AcDbEntity
  8
02___PRT_ALL_AXES
100
AcDbCircle
 62
7
  6
CONTINUOUS
 10
76.6809303713
 20
66.1779511171
 40
2.0
  0
ARC
  5
34E
100
AcDbEntity
  8
RUNDUNGEN
100
AcDbCircle
 62
7
  6
CONTINUOUS
 10
79.7529857931
 20
70.2779511171
 40
2.0
100
AcDbArc
 50
270.0
 51
284.8814792344
  0
ARC
  5
34F
100
AcDbEntity
  8
RUNDUNGEN
100
AcDbCircle
 62
7
  6
CONTINUOUS
 10
89.1809303713
 20
64.6708183932
 40
2.0
100
AcDbArc
 50
156.595310449
 51
180.0
  0
ARC
  5
350
100
AcDbEntity
  8
RUNDUNGEN
100
AcDbCircle
 62
7
  6
CONTINUOUS
 10
79.7529857931
 20
70.2779511171
 40
1.0
100
AcDbArc
 50
270.0
 51
284.8814792344
  0
ARC
  5
351
100
AcDbEntity
  8
RUNDUNGEN
100
AcDbCircle
 62
7
  6
CONTINUOUS
 10
89.1809303713
 20
64.6708183932
 40
1.0
100
AcDbArc
 50
156.595310449
 51
180.0
  0
ARC
  5
352
100
AcDbEntity
  8
02___PRT_ALL_AXES
100
AcDbCircle
 62
7
  6
CONTINUOUS
 10
76.67114099
 20
81.8754608761
 40
14.0
100
AcDbArc
 50
284.8814792344
 51
307.0560803983
  0
ARC
  5
353
100
AcDbEntity
  8
02___PRT_ALL_AXES
100
AcDbCircle
 62
7
  6
CONTINUOUS
 10
76.67114099
 20
81.8754608761
 40
14.0
100
AcDbArc
 50
317.258996992
 51
357.1800417164
  0
ARC
  5
354
100
AcDbEntity
  8
RUNDUNGEN
100
AcDbCircle
 62
7
  6
CONTINUOUS
 10
76.67114099
 20
81.8754608761
 40
13.0
100
AcDbArc
 50
284.8814792344
 51
2.7
  0
CIRCLE
  5
355
100
AcDbEntity
  8
02___PRT_ALL_AXES
100
AcDbCircle
 62
7
  6
CONTINUOUS
 10
60.8309303713
 20
81.8779511171
 40
2.0
  0
ARC
  5
356
100
AcDbEntity
  8
RUNDUNGEN
100
AcDbCircle
 62
7
  6
CONTINUOUS
 10
56.9309303713
 20
87.3779511171
 40
1.0
100
AcDbArc
 50
0.0
 51
90.0
  0
ARC
  5
357
100
AcDbEntity
  8
RUNDUNGEN
100
AcDbCircle
 62
7
  6
CONTINUOUS
 10
58.9309303713
 20
81.835083841
 40
1.0
100
AcDbArc
 50
180.0
 51
203.404689551
  0
ARC
  5
358
100
AcDbEntity
  8
RUNDUNGEN
100
AcDbCircle
 62
7
  6
CONTINUOUS
 10
58.7530297963
 20
102.3779511171
 40
1.0
100
AcDbArc
 50
43.6677801461
 51
90.0
  0
ARC
  5
359
100
AcDbEntity
  8
RUNDUNGEN
100
AcDbCircle
 62
7
  6
CONTINUOUS
 10
63.411866322
 20
97.497265233
 40
1.0
100
AcDbArc
 50
357.3
 51
43.6677801461
  0
ARC
  5
35A
100
AcDbEntity
  8
02___PRT_ALL_AXES
100
AcDbCircle
 62
7
  6
CONTINUOUS
 10
76.6907197527
 20
81.8754608761
 40
14.0
100
AcDbArc
 50
182.8199582836
 51
222.741003008
  0
ARC
  5
35B
100
AcDbEntity
  8
02___PRT_ALL_AXES
100
AcDbCircle
 62
7
  6
CONTINUOUS
 10
76.6907197527
 20
81.8754608761
 40
14.0
100
AcDbArc
 50
232.9439196017
 51
255.1185207656
  0
ARC
  5
35C
100
AcDbEntity
  8
RUNDUNGEN
100
AcDbCircle
 62
7
  6
CONTINUOUS
 10
76.6907197527
 20
81.8754608761
 40
13.0
100
AcDbArc
 50
177.3
 51
255.1185207656
  0
CIRCLE
  5
35D
100
AcDbEntity
  8
02___PRT_ALL_AXES
100
AcDbCircle
 62
7
  6
CONTINUOUS
 10
92.5309303713
 20
81.8779511171
 40
2.0
  0
ARC
  5
35E
100
AcDbEntity
  8
RUNDUNGEN
100
AcDbCircle
 62
7
  6
CONTINUOUS
 10
96.4309303713
 20
87.3779511171
 40
1.0
100
AcDbArc
 50
90.0
 51
180.0
  0
ARC
  5
35F
100
AcDbEntity
  8
RUNDUNGEN
100
AcDbCircle
 62
7
  6
CONTINUOUS
 10
94.4309303713
 20
81.835083841
 40
1.0
100
AcDbArc
 50
336.595310449
 51
360.0
  0
ARC
  5
360
100
AcDbEntity
  8
RUNDUNGEN
100
AcDbCircle
 62
7
  6
CONTINUOUS
 10
94.6088309464
 20
102.3779511171
 40
1.0
100
AcDbArc
 50
90.0
 51
136.3322198539
  0
ARC
  5
361
100
AcDbEntity
  8
RUNDUNGEN
100
AcDbCircle
 62
7
  6
CONTINUOUS
 10
89.9499944207
 20
97.497265233
 40
1.0
100
AcDbArc
 50
136.3322198539
 51
182.7
  0
CIRCLE
  5
362
100
AcDbEntity
  8
02___PRT_ALL_AXES
100
AcDbCircle
 62
7
  6
CONTINUOUS
 10
118.6809303713
 20
50.3779511171
 40
2.5
  0
CIRCLE
  5
363
100
AcDbEntity
  8
02___PRT_ALL_AXES
100
AcDbCircle
 62
7
  6
CONTINUOUS
 10
116.2809303713
 20
70.3779511171
 40
2.0
  0
ARC
  5
364
100
AcDbEntity
  8
RUNDUNGEN
100
AcDbCircle
 62
7
  6
CONTINUOUS
 10
114.1809303713
 20
64.6708183932
 40
2.0
100
AcDbArc
 50
0.0
 51
23.404689551
  0
ARC
  5
365
100
AcDbEntity
  8
RUNDUNGEN
100
AcDbCircle
 62
7
  6
CONTINUOUS
 10
123.6088749496
 20
70.2779511171
 40
2.0
100
AcDbArc
 50
255.1185207656
 51
270.0
  0
ARC
  5
366
100
AcDbEntity
  8
RUNDUNGEN
100
AcDbCircle
 62
7
  6
CONTINUOUS
 10
123.6088749496
 20
70.2779511171
 40
1.0
100
AcDbArc
 50
255.1185207656
 51
270.0
  0
ARC
  5
367
100
AcDbEntity
  8
RUNDUNGEN
100
AcDbCircle
 62
7
  6
CONTINUOUS
 10
114.1809303713
 20
64.6708183932
 40
1.0
100
AcDbArc
 50
0.0
 51
23.404689551
  0
ARC
  5
368
100
AcDbEntity
  8
0
100
AcDbCircle
 62
7
  6
CONTINUOUS
 10
126.6809303713
 20
49.8779511171
 40
11.5
100
AcDbArc
 50
185.7507211495
 51
190.3466749917
  0
ARC
  5
369
100
AcDbEntity
  8
0
100
AcDbCircle
 62
7
  6
CONTINUOUS
 10
126.6809303713
 20
49.8779511171
 40
11.5
100
AcDbArc
 50
190.8146772585
 51
196.1248380087
  0
ARC
  5
36A
100
AcDbEntity
  8
RUNDUNGEN
100
AcDbCircle
 62
7
  6
CONTINUOUS
 10
126.6809303713
 20
49.8779511171
 40
11.5
100
AcDbArc
 50
180.0
 51
360.0
  0
ARC
  5
36B
100
AcDbEntity
  8
RUNDUNGEN
100
AcDbCircle
 62
7
  6
CONTINUOUS
 10
126.6809303713
 20
49.8779511171
 40
10.5
100
AcDbArc
 50
318.1896514322
 51
360.0
  0
ARC
  5
36C
100
AcDbEntity
  8
RUNDUNGEN
100
AcDbCircle
 62
7
  6
CONTINUOUS
 10
126.6809303713
 20
49.8779511171
 40
10.5
100
AcDbArc
 50
180.0
 51
221.8103812707
  0
ARC
  5
36D
100
AcDbEntity
  8
0
100
AcDbCircle
 62
7
  6
CONTINUOUS
 10
126.6809303713
 20
48.3779511171
 40
4.7
100
AcDbArc
 50
180.0
 51
360.0
  0
ARC
  5
36E
100
AcDbEntity
  8
0
100
AcDbCircle
 62
7
  6
CONTINUOUS
 10
126.6809303713
 20
58.8779511171
 40
4.7
100
AcDbArc
 50
0.0
 51
180.0
  0
CIRCLE
  5
36F
100
AcDbEntity
  8
02___PRT_ALL_AXES
100
AcDbCircle
 62
7
  6
CONTINUOUS
 10
134.6809303714
 20
50.3779511171
 40
2.5
  0
CIRCLE
  5
370
100
AcDbEntity
  8
02___PRT_ALL_AXES
100
AcDbCircle
 62
7
  6
CONTINUOUS
 10
137.0809303714
 20
70.3779511171
 40
2.0
  0
CIRCLE
  5
371
100
AcDbEntity
  8
02___PRT_ALL_AXES
100
AcDbCircle
 62
7
  6
CONTINUOUS
 10
126.6809303713
 20
66.1779511171
 40
2.0
  0
ARC
  5
372
100
AcDbEntity
  8
RUNDUNGEN
100
AcDbCircle
 62
7
  6
CONTINUOUS
 10
129.7529857931
 20
70.2779511171
 40
2.0
100
AcDbArc
 50
270.0
 51
284.8814792344
  0
ARC
  5
373
100
AcDbEntity
  8
RUNDUNGEN
100
AcDbCircle
 62
7
  6
CONTINUOUS
 10
139.1809303713
 20
64.6708183932
 40
2.0
100
AcDbArc
 50
156.595310449
 51
180.0
  0
ARC
  5
374
100
AcDbEntity
  8
RUNDUNGEN
100
AcDbCircle
 62
7
  6
CONTINUOUS
 10
129.7529857931
 20
70.2779511171
 40
1.0
100
AcDbArc
 50
270.0
 51
284.8814792344
  0
ARC
  5
375
100
AcDbEntity
  8
RUNDUNGEN
100
AcDbCircle
 62
7
  6
CONTINUOUS
 10
139.1809303713
 20
64.6708183932
 40
1.0
100
AcDbArc
 50
156.595310449
 51
180.0
  0
ARC
  5
376
100
AcDbEntity
  8
02___PRT_ALL_AXES
100
AcDbCircle
 62
7
  6
CONTINUOUS
 10
126.67114099
 20
81.8754608761
 40
14.0
100
AcDbArc
 50
284.8814792344
 51
307.0560803983
  0
ARC
  5
377
100
AcDbEntity
  8
02___PRT_ALL_AXES
100
AcDbCircle
 62
7
  6
CONTINUOUS
 10
126.67114099
 20
81.8754608761
 40
14.0
100
AcDbArc
 50
317.258996992
 51
357.1800417164
  0
ARC
  5
378
100
AcDbEntity
  8
RUNDUNGEN
100
AcDbCircle
 62
7
  6
CONTINUOUS
 10
126.67114099
 20
81.8754608761
 40
13.0
100
AcDbArc
 50
284.8814792344
 51
2.7
  0
CIRCLE
  5
379
100
AcDbEntity
  8
02___PRT_ALL_AXES
100
AcDbCircle
 62
7
  6
CONTINUOUS
 10
110.8309303713
 20
81.8779511171
 40
2.0
  0
ARC
  5
37A
100
AcDbEntity
  8
RUNDUNGEN
100
AcDbCircle
 62
7
  6
CONTINUOUS
 10
106.9309303713
 20
87.3779511171
 40
1.0
100
AcDbArc
 50
0.0
 51
90.0
  0
ARC
  5
37B
100
AcDbEntity
  8
RUNDUNGEN
100
AcDbCircle
 62
7
  6
CONTINUOUS
 10
108.9309303713
 20
81.835083841
 40
1.0
100
AcDbArc
 50
180.0
 51
203.404689551
  0
ARC
  5
37C
100
AcDbEntity
  8
RUNDUNGEN
100
AcDbCircle
 62
7
  6
CONTINUOUS
 10
108.7530297963
 20
102.3779511171
 40
1.0
100
AcDbArc
 50
43.6677801461
 51
90.0
  0
ARC
  5
37D
100
AcDbEntity
  8
RUNDUNGEN
100
AcDbCircle
 62
7
  6
CONTINUOUS
 10
113.411866322
 20
97.497265233
 40
1.0
100
AcDbArc
 50
357.3
 51
43.6677801461
  0
ARC
  5
37E
100
AcDbEntity
  8
02___PRT_ALL_AXES
100
AcDbCircle
 62
7
  6
CONTINUOUS
 10
126.6907197527
 20
81.8754608761
 40
14.0
100
AcDbArc
 50
182.8199582836
 51
222.741003008
  0
ARC
  5
37F
100
AcDbEntity
  8
02___PRT_ALL_AXES
100
AcDbCircle
 62
7
  6
CONTINUOUS
 10
126.6907197527
 20
81.8754608761
 40
14.0
100
AcDbArc
 50
232.9439196017
 51
255.1185207656
  0
ARC
  5
380
100
AcDbEntity
  8
RUNDUNGEN
100
AcDbCircle
 62
7
  6
CONTINUOUS
 10
126.6907197527
 20
81.8754608761
 40
13.0
100
AcDbArc
 50
177.3
 51
255.1185207656
  0
CIRCLE
  5
381
100
AcDbEntity
  8
02___PRT_ALL_AXES
100
AcDbCircle
 62
7
  6
CONTINUOUS
 10
142.5309303713
 20
81.8779511171
 40
2.0
  0
ARC
  5
382
100
AcDbEntity
  8
RUNDUNGEN
100
AcDbCircle
 62
7
  6
CONTINUOUS
 10
146.4309303714
 20
87.3779511171
 40
1.0
100
AcDbArc
 50
90.0
 51
180.0
  0
ARC
  5
383
100
AcDbEntity
  8
RUNDUNGEN
100
AcDbCircle
 62
7
  6
CONTINUOUS
 10
144.4309303713
 20
81.835083841
 40
1.0
100
AcDbArc
 50
336.595310449
 51
360.0
  0
ARC
  5
384
100
AcDbEntity
  8
RUNDUNGEN
100
AcDbCircle
 62
7
  6
CONTINUOUS
 10
144.6088309464
 20
102.3779511171
 40
1.0
100
AcDbArc
 50
90.0
 51
136.3322198539
  0
ARC
  5
385
100
AcDbEntity
  8
RUNDUNGEN
100
AcDbCircle
 62
7
  6
CONTINUOUS
 10
139.9499944207
 20
97.497265233
 40
1.0
100
AcDbArc
 50
136.3322198539
 51
182.7
  0
SPLINE
  5
386
100
AcDbEntity
  8
0
100
AcDbSpline
 62
7
  6
CONTINUOUS
 70
0
 71
3
 72
25
 73
21
 74
0
 42
0.0000001
 43
0.0000001
 44
0.0000000001
 40
0.0
 40
0.0
 40
0.0
 40
0.0
 40
0.0330439078
 40
0.0529423304
 40
0.0752845493
 40
0.1271642613
 40
0.1880634114
 40
0.2570365551
 40
0.3330760834
 40
0.4148361963
 40
0.5000153895
 40
0.5851954358
 40
0.6669552733
 40
0.7429872937
 40
0.8119530495
 40
0.8728464642
 40
0.9247220122
 40
0.9470624671
 40
0.9669589762
 40
1.0
 40
1.0
 40
1.0
 40
1.0
 10
65.8990010449
 20
163.4152170942
 30
0.0
 10
65.9911054049
 20
163.4152170942
 30
0.0
 10
66.1381043705
 20
163.3720383561
 30
0.0
 10
66.3216313717
 20
163.2709691412
 30
0.0
 10
66.5354394349
 20
163.117614203
 30
0.0
 10
66.8070265128
 20
162.8541665309
 30
0.0
 10
67.1196501166
 20
162.4538987123
 30
0.0
 10
67.4139435169
 20
161.959306165
 30
0.0
 10
67.6639436156
 20
161.376554395
 30
0.0
 10
67.8366123353
 20
160.7186985754
 30
0.0
 10
67.8991183297
 20
160.0150817856
 30
0.0
 10
67.8366070382
 20
159.3114632141
 30
0.0
 10
67.6638794028
 20
158.6536409891
 30
0.0
 10
67.4138506543
 20
158.0709495447
 30
0.0
 10
67.1195700974
 20
157.5764170323
 30
0.0
 10
66.806962618
 20
157.1761977944
 30
0.0
 10
66.5353911777
 20
156.9127811708
 30
0.0
 10
66.3215972442
 20
156.7594441376
 30
0.0
 10
66.1380830973
 20
156.658389233
 30
0.0
 10
65.9910973664
 20
156.6152170942
 30
0.0
 10
65.8990010449
 20
156.6152170942
 30
0.0
  0
SPLINE
  5
387
100
AcDbEntity
  8
0
100
AcDbSpline
 62
7
  6
CONTINUOUS
 70
0
 71
3
 72
25
 73
21
 74
0
 42
0.0000001
 43
0.0000001
 44
0.0000000001
 40
0.0
 40
0.0
 40
0.0
 40
0.0
 40
0.0330474956
 40
0.052948534
 40
0.0752937793
 40
0.1271813892
 40
0.1880881839
 40
0.2570661447
 40
0.3331041779
 40
0.4148516414
 40
0.500009617
 40
0.5851663844
 40
0.6669128266
 40
0.7429477387
 40
0.8119220636
 40
0.8728256336
 40
0.9247104307
 40
0.947054545
 40
0.9669542958
 40
1.0
 40
1.0
 40
1.0
 40
1.0
 10
115.8990010449
 20
163.4152170942
 30
0.0
 10
115.9911154077
 20
163.4152170942
 30
0.0
 10
116.1381311738
 20
163.3720290397
 30
0.0
 10
116.3216772174
 20
163.2709414081
 30
0.0
 10
116.535510084
 20
163.1175560258
 30
0.0
 10
116.8071252561
 20
162.8540623401
 30
0.0
 10
117.1197611976
 20
162.4537316393
 30
0.0
 10
117.4140443645
 20
161.9590972019
 30
0.0
 10
117.6640014184
 20
161.3763562479
 30
0.0
 10
117.8366441643
 20
160.718597381
 30
0.0
 10
117.8991307276
 20
160.0151381406
 30
0.0
 10
117.8366188035
 20
159.3116845734
 30
0.0
 10
117.6639635253
 20
158.653944427
 30
0.0
 10
117.4139958693
 20
158.0712316935
 30
0.0
 10
117.1197142008
 20
157.5766288029
 30
0.0
 10
116.8070829846
 20
157.176329024
 30
0.0
 10
116.5354791989
 20
156.9128525306
 30
0.0
 10
116.3216551857
 20
156.7594798789
 30
0.0
 10
116.1381178478
 20
156.6584006366
 30
0.0
 10
115.9911104146
 20
156.6152170942
 30
0.0
 10
115.8990010449
 20
156.6152170942
 30
0.0
  0
SPLINE
  5
388
100
AcDbEntity
  8
0
100
AcDbSpline
 62
7
  6
CONTINUOUS
 70
0
 71
3
 72
25
 73
21
 74
0
 42
0.0000001
 43
0.0000001
 44
0.0000000001
 40
0.0
 40
0.0
 40
0.0
 40
0.0
 40
0.033062005
 40
0.0529764869
 40
0.075332279
 40
0.1272434998
 40
0.1881624354
 40
0.2571148788
 40
0.3331103231
 40
0.4148075068
 40
0.499912952
 40
0.5850263741
 40
0.6667477066
 40
0.7427801935
 40
0.8117779711
 40
0.8727264529
 40
0.9246525755
 40
0.9470135136
 40
0.9669326322
 40
1.0
 40
1.0
 40
1.0
 40
1.0
 10
137.4628596978
 20
156.6152170942
 30
0.0
 10
137.370704539
 20
156.6152170942
 30
0.0
 10
137.2236224717
 20
156.6584681221
 30
0.0
 10
137.0399713903
 20
156.7595874412
 30
0.0
 10
136.8260843844
 20
156.9131316597
 30
0.0
 10
136.5543983884
 20
157.1767316874
 30
0.0
 10
136.2418104436
 20
157.5771435723
 30
0.0
 10
135.9476591529
 20
158.0716731109
 30
0.0
 10
135.6978578278
 20
158.6541210972
 30
0.0
 10
135.5252660036
 20
159.3114695239
 30
0.0
 10
135.4626731383
 20
160.0145082051
 30
0.0
 10
135.5250087685
 20
160.7176402827
 30
0.0
 10
135.6974650613
 20
161.3752277553
 30
0.0
 10
135.947253544
 20
161.95800652
 30
0.0
 10
136.2414806317
 20
162.4528576784
 30
0.0
 10
136.5541955054
 20
162.8534908718
 30
0.0
 10
136.8259626271
 20
163.1172047844
 30
0.0
 10
137.0398933335
 20
163.270808403
 30
0.0
 10
137.2235844733
 20
163.3719407476
 30
0.0
 10
137.3706895909
 20
163.4152170942
 30
0.0
 10
137.4628596978
 20
163.4152170942
 30
0.0
  0
SPLINE
  5
389
100
AcDbEntity
  8
0
100
AcDbSpline
 62
7
  6
CONTINUOUS
 70
0
 71
3
 72
25
 73
21
 74
0
 42
0.0000001
 43
0.0000001
 44
0.0000000001
 40
0.0
 40
0.0
 40
0.0
 40
0.0
 40
0.0330568693
 40
0.0529663572
 40
0.0753155201
 40
0.1272134595
 40
0.1881279731
 40
0.2570938954
 40
0.333104137
 40
0.4148335262
 40
0.4999960376
 40
0.5851607403
 40
0.6668941671
 40
0.7429070179
 40
0.8118739176
 40
0.8727883393
 40
0.9246857114
 40
0.9470345
 40
0.966943584
 40
1.0
 40
1.0
 40
1.0
 40
1.0
 10
87.4628596978
 20
156.6152170942
 30
0.0
 10
87.3707188816
 20
156.6152170942
 30
0.0
 10
87.2236659704
 20
156.658457931
 30
0.0
 10
87.0400466638
 20
156.7595380366
 30
0.0
 10
86.8262080004
 20
156.9130304498
 30
0.0
 10
86.5545522613
 20
157.176562549
 30
0.0
 10
86.2419410171
 20
157.5769418589
 30
0.0
 10
85.9477381257
 20
158.0715191434
 30
0.0
 10
85.6978512013
 20
158.654113534
 30
0.0
 10
85.5251775659
 20
159.3117449635
 30
0.0
 10
85.4626451036
 20
160.0151899098
 30
0.0
 10
85.5251653138
 20
160.7186478657
 30
0.0
 10
85.6978436297
 20
161.376304091
 30
0.0
 10
85.9477390478
 20
161.958918048
 30
0.0
 10
86.241948425
 20
162.4535029163
 30
0.0
 10
86.5545615584
 20
162.8538818293
 30
0.0
 10
86.8262164609
 20
163.1174108167
 30
0.0
 10
87.0400531611
 20
163.2708993626
 30
0.0
 10
87.2236692253
 20
163.3719783774
 30
0.0
 10
87.3707201451
 20
163.4152170942
 30
0.0
 10
87.4628596978
 20
163.4152170942
 30
0.0
  0
SPLINE
  5
38A
100
AcDbEntity
  8
RUNDUNGEN
100
AcDbSpline
 62
7
  6
CONTINUOUS
 70
0
 71
3
 72
14
 73
10
 74
0
 42
0.0000001
 43
0.0000001
 44
0.0000000001
 40
0.0
 40
0.0
 40
0.0
 40
0.0
 40
0.0894637775
 40
0.1934637674
 40
0.3103545057
 40
0.4374274077
 40
0.5720435154
 40
0.7119262146
 40
1.0
 40
1.0
 40
1.0
 40
1.0
 10
118.854688254
 20
152.5152170949
 30
0.0
 10
119.1267442073
 20
152.5152231021
 30
0.0
 10
119.7138966507
 20
152.6224177838
 30
0.0
 10
120.5952628921
 20
152.964676693
 30
0.0
 10
121.5357921497
 20
153.4529494569
 30
0.0
 10
122.5198935336
 20
154.0511599864
 30
0.0
 10
123.5357654734
 20
154.7292898608
 30
0.0
 10
124.9328675515
 20
155.7168058941
 30
0.0
 10
125.9774709996
 20
156.4931457415
 30
0.0
 10
126.6809303713
 20
157.0152170942
 30
0.0
  0
SPLINE
  5
38B
100
AcDbEntity
  8
RUNDUNGEN
100
AcDbSpline
 62
7
  6
CONTINUOUS
 70
0
 71
3
 72
14
 73
10
 74
0
 42
0.0000001
 43
0.0000001
 44
0.0000000001
 40
0.0
 40
0.0
 40
0.0
 40
0.0
 40
0.2880734176
 40
0.4279560317
 40
0.5625724262
 40
0.6896458886
 40
0.8065370683
 40
0.9105369499
 40
1.0
 40
1.0
 40
1.0
 40
1.0
 10
76.6809303713
 20
163.0152170942
 30
0.0
 10
75.9774751001
 20
163.5372899354
 30
0.0
 10
74.9328712014
 20
164.3136236802
 30
0.0
 10
73.5357715482
 20
165.3011378297
 30
0.0
 10
72.5198986135
 20
165.9792673042
 30
0.0
 10
71.5357944072
 20
166.5774771009
 30
0.0
 10
70.5952631898
 20
167.0657499458
 30
0.0
 10
69.7139019105
 20
167.4080084247
 30
0.0
 10
69.1267533314
 20
167.515217521
 30
0.0
 10
68.85469999
 20
167.5152170941
 30
0.0
  0
SPLINE
  5
38C
100
AcDbEntity
  8
RUNDUNGEN
100
AcDbSpline
 62
7
  6
CONTINUOUS
 70
0
 71
3
 72
14
 73
10
 74
0
 42
0.0000001
 43
0.0000001
 44
0.0000000001
 40
0.0
 40
0.0
 40
0.0
 40
0.0
 40
0.0894630432
 40
0.1934628598
 40
0.3103539996
 40
0.4374274413
 40
0.5720438247
 40
0.7119264321
 40
1.0
 40
1.0
 40
1.0
 40
1.0
 10
84.5071644676
 20
167.5152170941
 30
0.0
 10
84.2351110369
 20
167.5152173109
 30
0.0
 10
83.6479622355
 20
167.4080099932
 30
0.0
 10
82.7666008396
 20
167.0657511755
 30
0.0
 10
81.8260693622
 20
166.577478906
 30
0.0
 10
80.8419648171
 20
165.9792691131
 30
0.0
 10
79.8260916687
 20
165.30113931
 30
0.0
 10
78.4289904636
 20
164.3136254215
 30
0.0
 10
77.3843879954
 20
163.5372881277
 30
0.0
 10
76.6809303713
 20
163.0152170942
 30
0.0
  0
SPLINE
  5
38D
100
AcDbEntity
  8
RUNDUNGEN
100
AcDbSpline
 62
7
  6
CONTINUOUS
 70
0
 71
3
 72
14
 73
10
 74
0
 42
0.0000001
 43
0.0000001
 44
0.0000000001
 40
0.0
 40
0.0
 40
0.0
 40
0.0
 40
0.2880738978
 40
0.4279565771
 40
0.5625726716
 40
0.6896455534
 40
0.806536257
 40
0.9105362584
 40
1.0
 40
1.0
 40
1.0
 40
1.0
 10
76.6809303713
 20
157.0152170942
 30
0.0
 10
77.3843882856
 20
156.4931433016
 30
0.0
 10
78.4289941388
 20
155.7168063727
 30
0.0
 10
79.8260956321
 20
154.729289328
 30
0.0
 10
80.8419675355
 20
154.0511597944
 30
0.0
 10
81.8260687172
 20
153.4529495666
 30
0.0
 10
82.766597703
 20
152.9646764884
 30
0.0
 10
83.6479637722
 20
152.6224184779
 30
0.0
 10
84.2351160587
 20
152.5152222375
 30
0.0
 10
84.5071718845
 20
152.5152170947
 30
0.0
  0
SPLINE
  5
38E
100
AcDbEntity
  8
RUNDUNGEN
100
AcDbSpline
 62
7
  6
CONTINUOUS
 70
0
 71
3
 72
14
 73
10
 74
0
 42
0.0000001
 43
0.0000001
 44
0.0000000001
 40
0.0
 40
0.0
 40
0.0
 40
0.0
 40
0.2770117512
 40
0.4126674917
 40
0.5446951796
 40
0.6714879319
 40
0.7910985049
 40
0.9012933164
 40
1.0
 40
1.0
 40
1.0
 40
1.0
 10
76.6809303713
 20
157.0152170942
 30
0.0
 10
77.4421568713
 20
156.6138167832
 30
0.0
 10
78.5761633324
 20
156.0156991205
 30
0.0
 10
80.0881680787
 20
155.2557448305
 30
0.0
 10
81.1951349263
 20
154.7295625148
 30
0.0
 10
82.2739572348
 20
154.2616479082
 30
0.0
 10
83.3132736725
 20
153.8752557621
 30
0.0
 10
84.2973984031
 20
153.6008373517
 30
0.0
 10
84.9458787113
 20
153.515234398
 30
0.0
 10
85.2525242851
 20
153.5152170942
 30
0.0
  0
SPLINE
  5
38F
100
AcDbEntity
  8
RUNDUNGEN
100
AcDbSpline
 62
7
  6
CONTINUOUS
 70
0
 71
3
 72
14
 73
10
 74
0
 42
0.0000001
 43
0.0000001
 44
0.0000000001
 40
0.0
 40
0.0
 40
0.0
 40
0.0
 40
0.0987066788
 40
0.2089015042
 40
0.3285121013
 40
0.455304865
 40
0.5873325712
 40
0.7229883252
 40
1.0
 40
1.0
 40
1.0
 40
1.0
 10
68.1093364576
 20
153.5152170942
 30
0.0
 10
68.4159820185
 20
153.5152350608
 30
0.0
 10
69.0644625028
 20
153.6008360359
 30
0.0
 10
70.0485869859
 20
153.8752564361
 30
0.0
 10
71.0879037289
 20
154.2616478975
 30
0.0
 10
72.166726276
 20
154.7295625081
 30
0.0
 10
73.2736930918
 20
155.2557451977
 30
0.0
 10
74.7856977177
 20
156.0156994342
 30
0.0
 10
75.9197044886
 20
156.61381611
 30
0.0
 10
76.6809303713
 20
157.0152170942
 30
0.0
  0
SPLINE
  5
390
100
AcDbEntity
  8
RUNDUNGEN
100
AcDbSpline
 62
7
  6
CONTINUOUS
 70
0
 71
3
 72
13
 73
9
 74
0
 42
0.0000001
 43
0.0000001
 44
0.0000000001
 40
0.0
 40
0.0
 40
0.0
 40
0.0
 40
0.1088376991
 40
0.2210131668
 40
0.4627555886
 40
0.5936637838
 40
0.7288162146
 40
1.0
 40
1.0
 40
1.0
 40
1.0
 10
106.9309303713
 20
152.5152170942
 30
0.0
 10
106.9865381334
 20
152.5152208129
 30
0.0
 10
107.0998331279
 20
152.5277556627
 30
0.0
 10
107.325426424
 20
152.6030889833
 30
0.0
 10
107.5328049852
 20
152.7486177224
 30
0.0
 10
107.7076895953
 20
152.9414096709
 30
0.0
 10
107.859370446
 20
153.1697442632
 30
0.0
 10
107.9309140248
 20
153.3766741591
 30
0.0
 10
107.9309303658
 20
153.5152283868
 30
0.0
  0
SPLINE
  5
391
100
AcDbEntity
  8
RUNDUNGEN
100
AcDbSpline
 62
7
  6
CONTINUOUS
 70
0
 71
3
 72
13
 73
9
 74
0
 42
0.0000001
 43
0.0000001
 44
0.0000000001
 40
0.0
 40
0.0
 40
0.0
 40
0.0
 40
0.1088379876
 40
0.221014521
 40
0.4627575549
 40
0.5936679046
 40
0.7288180513
 40
1.0
 40
1.0
 40
1.0
 40
1.0
 10
146.4309303714
 20
167.5152170942
 30
0.0
 10
146.3753225475
 20
167.5152134604
 30
0.0
 10
146.2620271494
 20
167.5026778936
 30
0.0
 10
146.0364328445
 20
167.4273448868
 30
0.0
 10
145.8290557018
 20
167.2818127675
 30
0.0
 10
145.6541655081
 20
167.0890252928
 30
0.0
 10
145.5024978367
 20
166.8606842547
 30
0.0
 10
145.4309442209
 20
166.6537606
 30
0.0
 10
145.4309303753
 20
166.5152075239
 30
0.0
  0
SPLINE
  5
392
100
AcDbEntity
  8
RUNDUNGEN
100
AcDbSpline
 62
7
  6
CONTINUOUS
 70
0
 71
3
 72
14
 73
10
 74
0
 42
0.0000001
 43
0.0000001
 44
0.0000000001
 40
0.0
 40
0.0
 40
0.0
 40
0.0
 40
0.0894637775
 40
0.1934637674
 40
0.3103545057
 40
0.4374274077
 40
0.5720435154
 40
0.7119262146
 40
1.0
 40
1.0
 40
1.0
 40
1.0
 10
68.854688254
 20
152.5152170949
 30
0.0
 10
69.1267442073
 20
152.5152231021
 30
0.0
 10
69.7138966507
 20
152.6224177838
 30
0.0
 10
70.5952628921
 20
152.964676693
 30
0.0
 10
71.5357921497
 20
153.4529494569
 30
0.0
 10
72.5198935335
 20
154.0511599864
 30
0.0
 10
73.5357654734
 20
154.7292898608
 30
0.0
 10
74.9328675515
 20
155.716805894
 30
0.0
 10
75.9774709996
 20
156.4931457415
 30
0.0
 10
76.6809303713
 20
157.0152170942
 30
0.0
  0
SPLINE
  5
393
100
AcDbEntity
  8
RUNDUNGEN
100
AcDbSpline
 62
7
  6
CONTINUOUS
 70
0
 71
3
 72
14
 73
10
 74
0
 42
0.0000001
 43
0.0000001
 44
0.0000000001
 40
0.0
 40
0.0
 40
0.0
 40
0.0
 40
0.2770113799
 40
0.4126670248
 40
0.5446947997
 40
0.6714878332
 40
0.791098499
 40
0.9012932371
 40
1.0
 40
1.0
 40
1.0
 40
1.0
 10
76.6809303713
 20
163.0152170942
 30
0.0
 10
75.9197030029
 20
163.4166126645
 30
0.0
 10
74.7857007132
 20
164.0147341728
 30
0.0
 10
73.2736981024
 20
164.7746888588
 30
0.0
 10
72.1667279592
 20
165.3008656194
 30
0.0
 10
71.0879045425
 20
165.7687788179
 30
0.0
 10
70.0485883302
 20
166.1551773552
 30
0.0
 10
69.0644592391
 20
166.4295702413
 30
0.0
 10
68.4159821749
 20
166.5152044616
 30
0.0
 10
68.1093364576
 20
166.5152170942
 30
0.0
  0
SPLINE
  5
394
100
AcDbEntity
  8
RUNDUNGEN
100
AcDbSpline
 62
7
  6
CONTINUOUS
 70
0
 71
3
 72
14
 73
10
 74
0
 42
0.0000001
 43
0.0000001
 44
0.0000000001
 40
0.0
 40
0.0
 40
0.0
 40
0.0
 40
0.0987067597
 40
0.2089014953
 40
0.3285121399
 40
0.455305153
 40
0.5873329185
 40
0.722988547
 40
1.0
 40
1.0
 40
1.0
 40
1.0
 10
85.2525242851
 20
166.5152170942
 30
0.0
 10
84.9458785767
 20
166.5152041143
 30
0.0
 10
84.2974014307
 20
166.429571082
 30
0.0
 10
83.3132726535
 20
166.1551769615
 30
0.0
 10
82.2739564794
 20
165.7687789059
 30
0.0
 10
81.1951330957
 20
165.3008659491
 30
0.0
 10
80.0881631808
 20
164.7746890404
 30
0.0
 10
78.5761604844
 20
164.0147341932
 30
0.0
 10
77.442157589
 20
163.4166134441
 30
0.0
 10
76.6809303713
 20
163.0152170942
 30
0.0
  0
SPLINE
  5
395
100
AcDbEntity
  8
RUNDUNGEN
100
AcDbSpline
 62
7
  6
CONTINUOUS
 70
0
 71
3
 72
14
 73
10
 74
0
 42
0.0000001
 43
0.0000001
 44
0.0000000001
 40
0.0
 40
0.0
 40
0.0
 40
0.0
 40
0.2880734176
 40
0.4279560317
 40
0.5625724262
 40
0.6896458886
 40
0.8065370683
 40
0.9105369499
 40
1.0
 40
1.0
 40
1.0
 40
1.0
 10
126.6809303713
 20
163.0152170942
 30
0.0
 10
125.9774751001
 20
163.5372899354
 30
0.0
 10
124.9328712014
 20
164.3136236801
 30
0.0
 10
123.5357715482
 20
165.3011378297
 30
0.0
 10
122.5198986135
 20
165.9792673041
 30
0.0
 10
121.5357944072
 20
166.5774771009
 30
0.0
 10
120.5952631898
 20
167.0657499458
 30
0.0
 10
119.7139019105
 20
167.4080084247
 30
0.0
 10
119.1267533314
 20
167.515217521
 30
0.0
 10
118.85469999
 20
167.5152170941
 30
0.0
  0
SPLINE
  5
396
100
AcDbEntity
  8
RUNDUNGEN
100
AcDbSpline
 62
7
  6
CONTINUOUS
 70
0
 71
3
 72
14
 73
10
 74
0
 42
0.0000001
 43
0.0000001
 44
0.0000000001
 40
0.0
 40
0.0
 40
0.0
 40
0.0
 40
0.0894630432
 40
0.1934628598
 40
0.3103539996
 40
0.4374274413
 40
0.5720438247
 40
0.7119264321
 40
1.0
 40
1.0
 40
1.0
 40
1.0
 10
134.5071644676
 20
167.5152170941
 30
0.0
 10
134.2351110369
 20
167.5152173109
 30
0.0
 10
133.6479622355
 20
167.4080099932
 30
0.0
 10
132.7666008396
 20
167.0657511755
 30
0.0
 10
131.8260693622
 20
166.577478906
 30
0.0
 10
130.8419648171
 20
165.9792691131
 30
0.0
 10
129.8260916687
 20
165.30113931
 30
0.0
 10
128.4289904636
 20
164.3136254215
 30
0.0
 10
127.3843879954
 20
163.5372881276
 30
0.0
 10
126.6809303713
 20
163.0152170942
 30
0.0
  0
SPLINE
  5
397
100
AcDbEntity
  8
02___PRT_ALL_AXES
100
AcDbSpline
 62
7
  6
CONTINUOUS
 70
0
 71
3
 72
11
 73
7
 74
0
 42
0.0000001
 43
0.0000001
 44
0.0000000001
 40
0.0
 40
0.0
 40
0.0
 40
0.0
 40
0.2584597356
 40
0.5112794455
 40
0.7579375285
 40
1.0
 40
1.0
 40
1.0
 40
1.0
 10
108.05220311
 20
166.803620212
 30
0.0
 10
108.0777139853
 20
166.8960067138
 30
0.0
 10
108.1533740517
 20
167.072948872
 30
0.0
 10
108.3338060925
 20
167.2933929516
 30
0.0
 10
108.5658270082
 20
167.4485105995
 30
0.0
 10
108.7436000953
 20
167.4990257244
 30
0.0
 10
108.8327528701
 20
167.5094783151
 30
0.0
  0
SPLINE
  5
398
100
AcDbEntity
  8
02___PRT_ALL_AXES
100
AcDbSpline
 62
7
  6
CONTINUOUS
 70
0
 71
3
 72
14
 73
10
 74
0
 42
0.0000001
 43
0.0000001
 44
0.0000000001
 40
0.0
 40
0.0
 40
0.0
 40
0.0
 40
0.0297220994
 40
0.0878542888
 40
0.1743954296
 40
0.2890420927
 40
0.4307711021
 40
0.5979572406
 40
1.0
 40
1.0
 40
1.0
 40
1.0
 10
108.8327528701
 20
167.5094783151
 30
0.0
 10
108.8383666049
 20
167.5044162654
 30
0.0
 10
108.8607569447
 20
167.4977119148
 30
0.0
 10
108.9037003453
 20
167.4893723979
 30
0.0
 10
108.9700343399
 20
167.4855311578
 30
0.0
 10
109.0571163791
 20
167.4867046243
 30
0.0
 10
109.1647328535
 20
167.4930411034
 30
0.0
 10
109.3449607636
 20
167.506824123
 30
0.0
 10
109.4896741179
 20
167.5152170942
 30
0.0
 10
109.5919225517
 20
167.5152170942
 30
0.0
  0
SPLINE
  5
399
100
AcDbEntity
  8
RUNDUNGEN
100
AcDbSpline
 62
7
  6
CONTINUOUS
 70
0
 71
3
 72
11
 73
7
 74
0
 42
0.0000001
 43
0.0000001
 44
0.0000000001
 40
0.0
 40
0.0
 40
0.0
 40
0.0
 40
0.2597507826
 40
0.5130842613
 40
0.7590143154
 40
1.0
 40
1.0
 40
1.0
 40
1.0
 10
115.1100040261
 20
166.6716424319
 30
0.0
 10
115.126735992
 20
166.7866908207
 30
0.0
 10
115.1969747627
 20
167.0104772766
 30
0.0
 10
115.4041679257
 20
167.2879990034
 30
0.0
 10
115.6883896322
 20
167.4720755291
 30
0.0
 10
115.908514727
 20
167.5152170942
 30
0.0
 10
116.016374605
 20
167.5152170942
 30
0.0
  0
SPLINE
  5
39A
100
AcDbEntity
  8
RUNDUNGEN
100
AcDbSpline
 62
7
  6
CONTINUOUS
 70
0
 71
3
 72
14
 73
10
 74
0
 42
0.0000001
 43
0.0000001
 44
0.0000000001
 40
0.0
 40
0.0
 40
0.0
 40
0.0
 40
0.2880738978
 40
0.4279565771
 40
0.5625726716
 40
0.6896455534
 40
0.806536257
 40
0.9105362584
 40
1.0
 40
1.0
 40
1.0
 40
1.0
 10
126.6809303713
 20
157.0152170942
 30
0.0
 10
127.3843882856
 20
156.4931433016
 30
0.0
 10
128.4289941388
 20
155.7168063728
 30
0.0
 10
129.8260956321
 20
154.729289328
 30
0.0
 10
130.8419675355
 20
154.0511597944
 30
0.0
 10
131.8260687172
 20
153.4529495666
 30
0.0
 10
132.766597703
 20
152.9646764884
 30
0.0
 10
133.6479637722
 20
152.6224184779
 30
0.0
 10
134.2351160587
 20
152.5152222375
 30
0.0
 10
134.5071718845
 20
152.5152170947
 30
0.0
  0
SPLINE
  5
39B
100
AcDbEntity
  8
RUNDUNGEN
100
AcDbSpline
 62
7
  6
CONTINUOUS
 70
0
 71
3
 72
11
 73
7
 74
0
 42
0.0000001
 43
0.0000001
 44
0.0000000001
 40
0.0
 40
0.0
 40
0.0
 40
0.0
 40
0.2825356835
 40
0.5472257537
 40
0.7843970358
 40
1.0
 40
1.0
 40
1.0
 40
1.0
 10
118.1093364576
 20
166.5152170942
 30
0.0
 10
118.1093364576
 20
166.6441725921
 30
0.0
 10
118.1451961144
 20
166.8956448272
 30
0.0
 10
118.3025701277
 20
167.2241389882
 30
0.0
 10
118.5470152165
 20
167.456045855
 30
0.0
 10
118.7562865169
 20
167.5152170942
 30
0.0
 10
118.8546924501
 20
167.5152170942
 30
0.0
  0
SPLINE
  5
39C
100
AcDbEntity
  8
RUNDUNGEN
100
AcDbSpline
 62
7
  6
CONTINUOUS
 70
0
 71
3
 72
11
 73
7
 74
0
 42
0.0000001
 43
0.0000001
 44
0.0000000001
 40
0.0
 40
0.0
 40
0.0
 40
0.0
 40
0.2825355199
 40
0.5472254266
 40
0.7843967178
 40
1.0
 40
1.0
 40
1.0
 40
1.0
 10
135.2525242851
 20
166.5152170942
 30
0.0
 10
135.2525245468
 20
166.6441725699
 30
0.0
 10
135.2166652837
 20
166.8956448402
 30
0.0
 10
135.0592914217
 20
167.2241391265
 30
0.0
 10
134.8148459794
 20
167.4560459971
 30
0.0
 10
134.605574411
 20
167.5152170942
 30
0.0
 10
134.5071682926
 20
167.5152170942
 30
0.0
  0
SPLINE
  5
39D
100
AcDbEntity
  8
RUNDUNGEN
100
AcDbSpline
 62
7
  6
CONTINUOUS
 70
0
 71
3
 72
14
 73
10
 74
0
 42
0.0000001
 43
0.0000001
 44
0.0000000001
 40
0.0
 40
0.0
 40
0.0
 40
0.0
 40
0.2770113799
 40
0.4126670248
 40
0.5446947997
 40
0.6714878332
 40
0.791098499
 40
0.9012932371
 40
1.0
 40
1.0
 40
1.0
 40
1.0
 10
126.6809303713
 20
163.0152170942
 30
0.0
 10
125.9197030029
 20
163.4166126645
 30
0.0
 10
124.7857007132
 20
164.0147341728
 30
0.0
 10
123.2736981024
 20
164.7746888588
 30
0.0
 10
122.1667279592
 20
165.3008656193
 30
0.0
 10
121.0879045425
 20
165.7687788179
 30
0.0
 10
120.0485883302
 20
166.1551773552
 30
0.0
 10
119.0644592391
 20
166.4295702413
 30
0.0
 10
118.4159821749
 20
166.5152044616
 30
0.0
 10
118.1093364576
 20
166.5152170942
 30
0.0
  0
SPLINE
  5
39E
100
AcDbEntity
  8
RUNDUNGEN
100
AcDbSpline
 62
7
  6
CONTINUOUS
 70
0
 71
3
 72
14
 73
10
 74
0
 42
0.0000001
 43
0.0000001
 44
0.0000000001
 40
0.0
 40
0.0
 40
0.0
 40
0.0
 40
0.0987067597
 40
0.2089014953
 40
0.3285121399
 40
0.455305153
 40
0.5873329185
 40
0.722988547
 40
1.0
 40
1.0
 40
1.0
 40
1.0
 10
135.2525242851
 20
166.5152170942
 30
0.0
 10
134.9458785767
 20
166.5152041143
 30
0.0
 10
134.2974014307
 20
166.429571082
 30
0.0
 10
133.3132726535
 20
166.1551769615
 30
0.0
 10
132.2739564794
 20
165.7687789059
 30
0.0
 10
131.1951330957
 20
165.3008659491
 30
0.0
 10
130.0881631808
 20
164.7746890404
 30
0.0
 10
128.5761604844
 20
164.0147341932
 30
0.0
 10
127.442157589
 20
163.4166134441
 30
0.0
 10
126.6809303713
 20
163.0152170942
 30
0.0
  0
SPLINE
  5
39F
100
AcDbEntity
  8
RUNDUNGEN
100
AcDbSpline
 62
7
  6
CONTINUOUS
 70
0
 71
3
 72
11
 73
7
 74
0
 42
0.0000001
 43
0.0000001
 44
0.0000000001
 40
0.0
 40
0.0
 40
0.0
 40
0.0
 40
0.2597507805
 40
0.5130842637
 40
0.7590143192
 40
1.0
 40
1.0
 40
1.0
 40
1.0
 10
138.2518567778
 20
166.6716420149
 30
0.0
 10
138.2351248516
 20
166.7866904449
 30
0.0
 10
138.1648861344
 20
167.0104769976
 30
0.0
 10
137.9576929775
 20
167.2879988693
 30
0.0
 10
137.6734712093
 20
167.4720755031
 30
0.0
 10
137.453346046
 20
167.5152170939
 30
0.0
 10
137.3454861363
 20
167.5152170942
 30
0.0
  0
SPLINE
  5
3A0
100
AcDbEntity
  8
02___PRT_ALL_AXES
100
AcDbSpline
 62
7
  6
CONTINUOUS
 70
0
 71
3
 72
14
 73
10
 74
0
 42
0.0000001
 43
0.0000001
 44
0.0000000001
 40
0.0
 40
0.0
 40
0.0
 40
0.0
 40
0.4019922241
 40
0.5691711289
 40
0.7109184186
 40
0.8255772449
 40
0.9121345546
 40
0.9702765298
 40
1.0
 40
1.0
 40
1.0
 40
1.0
 10
143.769938191
 20
167.5152170942
 30
0.0
 10
143.8721736369
 20
167.5152170942
 30
0.0
 10
144.0168728508
 20
167.5068356181
 30
0.0
 10
144.1970890711
 20
167.4930350433
 30
0.0
 10
144.3047121645
 20
167.4867058522
 30
0.0
 10
144.3918052921
 20
167.485541751
 30
0.0
 10
144.4581503143
 20
167.4893698061
 30
0.0
 10
144.5010993602
 20
167.4977140847
 30
0.0
 10
144.5234938864
 20
167.5044160387
 30
0.0
 10
144.5291078726
 20
167.5094783151
 30
0.0
  0
SPLINE
  5
3A1
100
AcDbEntity
  8
02___PRT_ALL_AXES
100
AcDbSpline
 62
7
  6
CONTINUOUS
 70
0
 71
3
 72
11
 73
7
 74
0
 42
0.0000001
 43
0.0000001
 44
0.0000000001
 40
0.0
 40
0.0
 40
0.0
 40
0.0
 40
0.2584597327
 40
0.5112794387
 40
0.7579375225
 40
1.0
 40
1.0
 40
1.0
 40
1.0
 10
145.3096575018
 20
166.8036206857
 30
0.0
 10
145.2841465957
 20
166.8960071344
 30
0.0
 10
145.2084864913
 20
167.0729491798
 30
0.0
 10
145.0280544657
 20
167.2933931041
 30
0.0
 10
144.7960336229
 20
167.4485106376
 30
0.0
 10
144.6182606106
 20
167.4990257287
 30
0.0
 10
144.5291078726
 20
167.5094783151
 30
0.0
  0
SPLINE
  5
3A2
100
AcDbEntity
  8
RUNDUNGEN
100
AcDbSpline
 62
7
  6
CONTINUOUS
 70
0
 71
3
 72
11
 73
7
 74
0
 42
0.0000001
 43
0.0000001
 44
0.0000000001
 40
0.0
 40
0.0
 40
0.0
 40
0.0
 40
0.2597503134
 40
0.5130847735
 40
0.759014958
 40
1.0
 40
1.0
 40
1.0
 40
1.0
 10
145.3373168884
 20
153.3589003712
 30
0.0
 10
145.3205952742
 20
153.2438412235
 30
0.0
 10
145.2503704385
 20
153.0200296832
 30
0.0
 10
145.043179109
 20
152.7424703354
 30
0.0
 10
144.7589415578
 20
152.5583656656
 30
0.0
 10
144.5387986527
 20
152.5152170942
 30
0.0
 10
144.4309303713
 20
152.5152170942
 30
0.0
  0
SPLINE
  5
3A3
100
AcDbEntity
  8
RUNDUNGEN
100
AcDbSpline
 62
7
  6
CONTINUOUS
 70
0
 71
3
 72
11
 73
7
 74
0
 42
0.0000001
 43
0.0000001
 44
0.0000000001
 40
0.0
 40
0.0
 40
0.0
 40
0.0
 40
0.2597507826
 40
0.5130842613
 40
0.7590143154
 40
1.0
 40
1.0
 40
1.0
 40
1.0
 10
138.2518567166
 20
153.3587917564
 30
0.0
 10
138.2351247507
 20
153.2437433676
 30
0.0
 10
138.16488598
 20
153.0199569117
 30
0.0
 10
137.957692817
 20
152.7424351849
 30
0.0
 10
137.6734711105
 20
152.5583586592
 30
0.0
 10
137.4533460157
 20
152.5152170942
 30
0.0
 10
137.3454861377
 20
152.5152170942
 30
0.0
  0
SPLINE
  5
3A4
100
AcDbEntity
  8
RUNDUNGEN
100
AcDbSpline
 62
7
  6
CONTINUOUS
 70
0
 71
3
 72
11
 73
7
 74
0
 42
0.0000001
 43
0.0000001
 44
0.0000000001
 40
0.0
 40
0.0
 40
0.0
 40
0.0
 40
0.2825356835
 40
0.5472257537
 40
0.7843970358
 40
1.0
 40
1.0
 40
1.0
 40
1.0
 10
135.2525242851
 20
153.5152170942
 30
0.0
 10
135.2525242851
 20
153.3862615962
 30
0.0
 10
135.2166646283
 20
153.1347893612
 30
0.0
 10
135.059290615
 20
152.8062952002
 30
0.0
 10
134.8148455262
 20
152.5743883334
 30
0.0
 10
134.6055742258
 20
152.5152170942
 30
0.0
 10
134.5071682926
 20
152.5152170942
 30
0.0
  0
SPLINE
  5
3A5
100
AcDbEntity
  8
RUNDUNGEN
100
AcDbSpline
 62
7
  6
CONTINUOUS
 70
0
 71
3
 72
11
 73
7
 74
0
 42
0.0000001
 43
0.0000001
 44
0.0000000001
 40
0.0
 40
0.0
 40
0.0
 40
0.0
 40
0.2825353205
 40
0.5472250295
 40
0.7843963349
 40
1.0
 40
1.0
 40
1.0
 40
1.0
 10
118.1093364576
 20
153.5152170942
 30
0.0
 10
118.1093358863
 20
153.3862616473
 30
0.0
 10
118.1451946817
 20
153.13478934
 30
0.0
 10
118.3025683598
 20
152.8062949066
 30
0.0
 10
118.5470142195
 20
152.5743880267
 30
0.0
 10
118.7562861095
 20
152.5152170942
 30
0.0
 10
118.8546924501
 20
152.5152170942
 30
0.0
  0
SPLINE
  5
3A6
100
AcDbEntity
  8
RUNDUNGEN
100
AcDbSpline
 62
7
  6
CONTINUOUS
 70
0
 71
3
 72
11
 73
7
 74
0
 42
0.0000001
 43
0.0000001
 44
0.0000000001
 40
0.0
 40
0.0
 40
0.0
 40
0.0
 40
0.2597507805
 40
0.5130842637
 40
0.7590143192
 40
1.0
 40
1.0
 40
1.0
 40
1.0
 10
115.1100039649
 20
153.3587921734
 30
0.0
 10
115.1267358911
 20
153.2437437434
 30
0.0
 10
115.1969746083
 20
153.0199571907
 30
0.0
 10
115.4041677652
 20
152.742435319
 30
0.0
 10
115.6883895334
 20
152.5583586852
 30
0.0
 10
115.9085146967
 20
152.5152170944
 30
0.0
 10
116.0163746064
 20
152.5152170942
 30
0.0
  0
SPLINE
  5
3A7
100
AcDbEntity
  8
RUNDUNGEN
100
AcDbSpline
 62
7
  6
CONTINUOUS
 70
0
 71
3
 72
12
 73
8
 74
0
 42
0.0000001
 43
0.0000001
 44
0.0000000001
 40
0.0
 40
0.0
 40
0.0
 40
0.0
 40
0.2595253116
 40
0.5133505699
 40
0.6377953209
 40
0.7602581337
 40
1.0
 40
1.0
 40
1.0
 40
1.0
 10
108.0132082545
 20
153.5152170942
 30
0.0
 10
108.0132082545
 20
153.3855333671
 30
0.0
 10
108.0594856403
 20
153.1266411421
 30
0.0
 10
108.2291536284
 20
152.8473985784
 30
0.0
 10
108.4166331461
 20
152.6792944099
 30
0.0
 10
108.6274266716
 20
152.5556551993
 30
0.0
 10
108.8111323503
 20
152.5152170942
 30
0.0
 10
108.9309303713
 20
152.5152170942
 30
0.0
  0
SPLINE
  5
3A8
100
AcDbEntity
  8
RUNDUNGEN
100
AcDbSpline
 62
7
  6
CONTINUOUS
 70
0
 71
3
 72
14
 73
10
 74
0
 42
0.0000001
 43
0.0000001
 44
0.0000000001
 40
0.0
 40
0.0
 40
0.0
 40
0.0
 40
0.2770117512
 40
0.4126674917
 40
0.5446951796
 40
0.6714879319
 40
0.7910985049
 40
0.9012933164
 40
1.0
 40
1.0
 40
1.0
 40
1.0
 10
126.6809303713
 20
157.0152170942
 30
0.0
 10
127.4421568713
 20
156.6138167832
 30
0.0
 10
128.5761633324
 20
156.0156991205
 30
0.0
 10
130.0881680787
 20
155.2557448306
 30
0.0
 10
131.1951349263
 20
154.7295625148
 30
0.0
 10
132.2739572348
 20
154.2616479082
 30
0.0
 10
133.3132736725
 20
153.8752557621
 30
0.0
 10
134.2973984031
 20
153.6008373517
 30
0.0
 10
134.9458787113
 20
153.515234398
 30
0.0
 10
135.2525242851
 20
153.5152170942
 30
0.0
  0
SPLINE
  5
3A9
100
AcDbEntity
  8
02___PRT_ALL_AXES
100
AcDbSpline
 62
7
  6
CONTINUOUS
 70
0
 71
3
 72
11
 73
7
 74
0
 42
0.0000001
 43
0.0000001
 44
0.0000000001
 40
0.0
 40
0.0
 40
0.0
 40
0.0
 40
0.2584597356
 40
0.5112794455
 40
0.7579375285
 40
1.0
 40
1.0
 40
1.0
 40
1.0
 10
58.05220311
 20
166.803620212
 30
0.0
 10
58.0777139853
 20
166.8960067138
 30
0.0
 10
58.1533740517
 20
167.072948872
 30
0.0
 10
58.3338060925
 20
167.2933929516
 30
0.0
 10
58.5658270082
 20
167.4485105995
 30
0.0
 10
58.7436000953
 20
167.4990257244
 30
0.0
 10
58.8327528701
 20
167.5094783151
 30
0.0
  0
SPLINE
  5
3AA
100
AcDbEntity
  8
02___PRT_ALL_AXES
100
AcDbSpline
 62
7
  6
CONTINUOUS
 70
0
 71
3
 72
14
 73
10
 74
0
 42
0.0000001
 43
0.0000001
 44
0.0000000001
 40
0.0
 40
0.0
 40
0.0
 40
0.0
 40
0.0297220935
 40
0.0878542713
 40
0.1743954155
 40
0.2890421048
 40
0.4307711296
 40
0.5979572616
 40
1.0
 40
1.0
 40
1.0
 40
1.0
 10
58.8327528701
 20
167.5094783151
 30
0.0
 10
58.8383666038
 20
167.5044162664
 30
0.0
 10
58.8607569296
 20
167.4977118935
 30
0.0
 10
58.9037003402
 20
167.4893724301
 30
0.0
 10
58.9700343315
 20
167.4855311367
 30
0.0
 10
59.0571163849
 20
167.4867046553
 30
0.0
 10
59.164732869
 20
167.4930410852
 30
0.0
 10
59.3449607753
 20
167.5068241366
 30
0.0
 10
59.4896741232
 20
167.5152170942
 30
0.0
 10
59.5919225517
 20
167.5152170942
 30
0.0
  0
SPLINE
  5
3AB
100
AcDbEntity
  8
RUNDUNGEN
100
AcDbSpline
 62
7
  6
CONTINUOUS
 70
0
 71
3
 72
11
 73
7
 74
0
 42
0.0000001
 43
0.0000001
 44
0.0000000001
 40
0.0
 40
0.0
 40
0.0
 40
0.0
 40
0.2597507826
 40
0.5130842613
 40
0.7590143154
 40
1.0
 40
1.0
 40
1.0
 40
1.0
 10
65.1100040261
 20
166.6716424319
 30
0.0
 10
65.126735992
 20
166.7866908207
 30
0.0
 10
65.1969747627
 20
167.0104772766
 30
0.0
 10
65.4041679257
 20
167.2879990034
 30
0.0
 10
65.6883896322
 20
167.4720755291
 30
0.0
 10
65.908514727
 20
167.5152170942
 30
0.0
 10
66.016374605
 20
167.5152170942
 30
0.0
  0
SPLINE
  5
3AC
100
AcDbEntity
  8
RUNDUNGEN
100
AcDbSpline
 62
7
  6
CONTINUOUS
 70
0
 71
3
 72
13
 73
9
 74
0
 42
0.0000001
 43
0.0000001
 44
0.0000000001
 40
0.0
 40
0.0
 40
0.0
 40
0.0
 40
0.1088379876
 40
0.221014521
 40
0.4627575549
 40
0.5936679046
 40
0.7288180513
 40
1.0
 40
1.0
 40
1.0
 40
1.0
 10
96.4309303713
 20
167.5152170942
 30
0.0
 10
96.3753225475
 20
167.5152134604
 30
0.0
 10
96.2620271494
 20
167.5026778936
 30
0.0
 10
96.0364328445
 20
167.4273448868
 30
0.0
 10
95.8290557018
 20
167.2818127675
 30
0.0
 10
95.6541655081
 20
167.0890252928
 30
0.0
 10
95.5024978367
 20
166.8606842547
 30
0.0
 10
95.4309442209
 20
166.6537606
 30
0.0
 10
95.4309303753
 20
166.5152075239
 30
0.0
  0
SPLINE
  5
3AD
100
AcDbEntity
  8
RUNDUNGEN
100
AcDbSpline
 62
7
  6
CONTINUOUS
 70
0
 71
3
 72
11
 73
7
 74
0
 42
0.0000001
 43
0.0000001
 44
0.0000000001
 40
0.0
 40
0.0
 40
0.0
 40
0.0
 40
0.2825356835
 40
0.5472257537
 40
0.7843970358
 40
1.0
 40
1.0
 40
1.0
 40
1.0
 10
68.1093364576
 20
166.5152170942
 30
0.0
 10
68.1093364576
 20
166.6441725921
 30
0.0
 10
68.1451961144
 20
166.8956448272
 30
0.0
 10
68.3025701277
 20
167.2241389882
 30
0.0
 10
68.5470152165
 20
167.456045855
 30
0.0
 10
68.7562865169
 20
167.5152170942
 30
0.0
 10
68.8546924501
 20
167.5152170942
 30
0.0
  0
SPLINE
  5
3AE
100
AcDbEntity
  8
RUNDUNGEN
100
AcDbSpline
 62
7
  6
CONTINUOUS
 70
0
 71
3
 72
11
 73
7
 74
0
 42
0.0000001
 43
0.0000001
 44
0.0000000001
 40
0.0
 40
0.0
 40
0.0
 40
0.0
 40
0.2825355199
 40
0.5472254266
 40
0.7843967178
 40
1.0
 40
1.0
 40
1.0
 40
1.0
 10
85.2525242851
 20
166.5152170942
 30
0.0
 10
85.2525245468
 20
166.6441725699
 30
0.0
 10
85.2166652837
 20
166.8956448402
 30
0.0
 10
85.0592914217
 20
167.2241391265
 30
0.0
 10
84.8148459794
 20
167.4560459971
 30
0.0
 10
84.605574411
 20
167.5152170942
 30
0.0
 10
84.5071682926
 20
167.5152170942
 30
0.0
  0
SPLINE
  5
3AF
100
AcDbEntity
  8
RUNDUNGEN
100
AcDbSpline
 62
7
  6
CONTINUOUS
 70
0
 71
3
 72
14
 73
10
 74
0
 42
0.0000001
 43
0.0000001
 44
0.0000000001
 40
0.0
 40
0.0
 40
0.0
 40
0.0
 40
0.0987066788
 40
0.2089015042
 40
0.3285121013
 40
0.455304865
 40
0.5873325712
 40
0.7229883252
 40
1.0
 40
1.0
 40
1.0
 40
1.0
 10
118.1093364576
 20
153.5152170942
 30
0.0
 10
118.4159820185
 20
153.5152350608
 30
0.0
 10
119.0644625028
 20
153.6008360359
 30
0.0
 10
120.0485869859
 20
153.8752564361
 30
0.0
 10
121.0879037289
 20
154.2616478975
 30
0.0
 10
122.166726276
 20
154.7295625081
 30
0.0
 10
123.2736930918
 20
155.2557451977
 30
0.0
 10
124.7856977177
 20
156.0156994342
 30
0.0
 10
125.9197044887
 20
156.61381611
 30
0.0
 10
126.6809303713
 20
157.0152170942
 30
0.0
  0
SPLINE
  5
3B0
100
AcDbEntity
  8
RUNDUNGEN
100
AcDbSpline
 62
7
  6
CONTINUOUS
 70
0
 71
3
 72
11
 73
7
 74
0
 42
0.0000001
 43
0.0000001
 44
0.0000000001
 40
0.0
 40
0.0
 40
0.0
 40
0.0
 40
0.2597507805
 40
0.5130842637
 40
0.7590143192
 40
1.0
 40
1.0
 40
1.0
 40
1.0
 10
88.2518567778
 20
166.6716420149
 30
0.0
 10
88.2351248516
 20
166.7866904449
 30
0.0
 10
88.1648861344
 20
167.0104769976
 30
0.0
 10
87.9576929775
 20
167.2879988693
 30
0.0
 10
87.6734712093
 20
167.4720755031
 30
0.0
 10
87.453346046
 20
167.5152170939
 30
0.0
 10
87.3454861363
 20
167.5152170942
 30
0.0
  0
SPLINE
  5
3B1
100
AcDbEntity
  8
02___PRT_ALL_AXES
100
AcDbSpline
 62
7
  6
CONTINUOUS
 70
0
 71
3
 72
14
 73
10
 74
0
 42
0.0000001
 43
0.0000001
 44
0.0000000001
 40
0.0
 40
0.0
 40
0.0
 40
0.0
 40
0.4019922373
 40
0.5691711378
 40
0.7109184174
 40
0.8255772322
 40
0.9121345435
 40
0.9702765265
 40
1.0
 40
1.0
 40
1.0
 40
1.0
 10
93.769938191
 20
167.5152170942
 30
0.0
 10
93.8721736401
 20
167.5152170942
 30
0.0
 10
94.0168728561
 20
167.5068356112
 30
0.0
 10
94.1970890762
 20
167.4930350505
 30
0.0
 10
94.3047121629
 20
167.4867058349
 30
0.0
 10
94.3918052836
 20
167.4855417659
 30
0.0
 10
94.4581503102
 20
167.4893697862
 30
0.0
 10
94.5010993511
 20
167.4977140973
 30
0.0
 10
94.5234938857
 20
167.5044160381
 30
0.0
 10
94.5291078726
 20
167.5094783151
 30
0.0
  0
SPLINE
  5
3B2
100
AcDbEntity
  8
02___PRT_ALL_AXES
100
AcDbSpline
 62
7
  6
CONTINUOUS
 70
0
 71
3
 72
11
 73
7
 74
0
 42
0.0000001
 43
0.0000001
 44
0.0000000001
 40
0.0
 40
0.0
 40
0.0
 40
0.0
 40
0.2584597327
 40
0.5112794387
 40
0.7579375225
 40
1.0
 40
1.0
 40
1.0
 40
1.0
 10
95.3096575018
 20
166.8036206857
 30
0.0
 10
95.2841465957
 20
166.8960071344
 30
0.0
 10
95.2084864913
 20
167.0729491798
 30
0.0
 10
95.0280544657
 20
167.2933931041
 30
0.0
 10
94.7960336229
 20
167.4485106376
 30
0.0
 10
94.6182606106
 20
167.4990257287
 30
0.0
 10
94.5291078726
 20
167.5094783151
 30
0.0
  0
SPLINE
  5
3B3
100
AcDbEntity
  8
RUNDUNGEN
100
AcDbSpline
 62
7
  6
CONTINUOUS
 70
0
 71
3
 72
13
 73
9
 74
0
 42
0.0000001
 43
0.0000001
 44
0.0000000001
 40
0.0
 40
0.0
 40
0.0
 40
0.0
 40
0.2711789313
 40
0.4063254952
 40
0.5372383906
 40
0.7789846326
 40
0.8911618283
 40
1.0
 40
1.0
 40
1.0
 40
1.0
 10
95.4309303758
 20
153.5152270199
 30
0.0
 10
95.4309449329
 20
153.3766755634
 30
0.0
 10
95.5025130468
 20
153.1697633451
 30
0.0
 10
95.6541547391
 20
152.9414084016
 30
0.0
 10
95.8290522682
 20
152.7486243801
 30
0.0
 10
96.0364309591
 20
152.6030919274
 30
0.0
 10
96.2620266121
 20
152.527755257
 30
0.0
 10
96.3753224848
 20
152.5152217239
 30
0.0
 10
96.4309303713
 20
152.5152170942
 30
0.0
  0
SPLINE
  5
3B4
100
AcDbEntity
  8
RUNDUNGEN
100
AcDbSpline
 62
7
  6
CONTINUOUS
 70
0
 71
3
 72
13
 73
9
 74
0
 42
0.0000001
 43
0.0000001
 44
0.0000000001
 40
0.0
 40
0.0
 40
0.0
 40
0.0
 40
0.1088376991
 40
0.2210131668
 40
0.4627555886
 40
0.5936637838
 40
0.7288162146
 40
1.0
 40
1.0
 40
1.0
 40
1.0
 10
56.9309303713
 20
152.5152170942
 30
0.0
 10
56.9865381334
 20
152.5152208129
 30
0.0
 10
57.0998331279
 20
152.5277556627
 30
0.0
 10
57.325426424
 20
152.6030889833
 30
0.0
 10
57.5328049852
 20
152.7486177224
 30
0.0
 10
57.7076895953
 20
152.9414096709
 30
0.0
 10
57.859370446
 20
153.1697442632
 30
0.0
 10
57.9309140248
 20
153.376674159
 30
0.0
 10
57.9309303658
 20
153.5152283868
 30
0.0
  0
SPLINE
  5
3B5
100
AcDbEntity
  8
RUNDUNGEN
100
AcDbSpline
 62
7
  6
CONTINUOUS
 70
0
 71
3
 72
13
 73
9
 74
0
 42
0.0000001
 43
0.0000001
 44
0.0000000001
 40
0.0
 40
0.0
 40
0.0
 40
0.0
 40
0.271182021
 40
0.4063332348
 40
0.5372436397
 40
0.778988237
 40
0.8911627169
 40
1.0
 40
1.0
 40
1.0
 40
1.0
 10
57.9309303655
 20
166.5152053109
 30
0.0
 10
57.930913554
 20
166.6537587194
 30
0.0
 10
57.8593658063
 20
166.860684237
 30
0.0
 10
57.7076957847
 20
167.0890256818
 30
0.0
 10
57.5328060909
 20
167.281816316
 30
0.0
 10
57.3254257613
 20
167.4273441782
 30
0.0
 10
57.0998324626
 20
167.5026797535
 30
0.0
 10
56.9865379539
 20
167.5152132298
 30
0.0
 10
56.9309303713
 20
167.5152170942
 30
0.0
  0
SPLINE
  5
3B6
100
AcDbEntity
  8
RUNDUNGEN
100
AcDbSpline
 62
7
  6
CONTINUOUS
 70
0
 71
3
 72
11
 73
7
 74
0
 42
0.0000001
 43
0.0000001
 44
0.0000000001
 40
0.0
 40
0.0
 40
0.0
 40
0.0
 40
0.2597503134
 40
0.5130847735
 40
0.759014958
 40
1.0
 40
1.0
 40
1.0
 40
1.0
 10
95.3373168884
 20
153.3589003712
 30
0.0
 10
95.3205952742
 20
153.2438412235
 30
0.0
 10
95.2503704385
 20
153.0200296832
 30
0.0
 10
95.043179109
 20
152.7424703354
 30
0.0
 10
94.7589415578
 20
152.5583656656
 30
0.0
 10
94.5387986527
 20
152.5152170942
 30
0.0
 10
94.4309303713
 20
152.5152170942
 30
0.0
  0
SPLINE
  5
3B7
100
AcDbEntity
  8
RUNDUNGEN
100
AcDbSpline
 62
7
  6
CONTINUOUS
 70
0
 71
3
 72
11
 73
7
 74
0
 42
0.0000001
 43
0.0000001
 44
0.0000000001
 40
0.0
 40
0.0
 40
0.0
 40
0.0
 40
0.2597507826
 40
0.5130842613
 40
0.7590143154
 40
1.0
 40
1.0
 40
1.0
 40
1.0
 10
88.2518567166
 20
153.3587917564
 30
0.0
 10
88.2351247507
 20
153.2437433676
 30
0.0
 10
88.16488598
 20
153.0199569117
 30
0.0
 10
87.957692817
 20
152.7424351849
 30
0.0
 10
87.6734711105
 20
152.5583586592
 30
0.0
 10
87.4533460157
 20
152.5152170942
 30
0.0
 10
87.3454861377
 20
152.5152170942
 30
0.0
  0
SPLINE
  5
3B8
100
AcDbEntity
  8
RUNDUNGEN
100
AcDbSpline
 62
7
  6
CONTINUOUS
 70
0
 71
3
 72
13
 73
9
 74
0
 42
0.0000001
 43
0.0000001
 44
0.0000000001
 40
0.0
 40
0.0
 40
0.0
 40
0.0
 40
0.2711789313
 40
0.4063254952
 40
0.5372383906
 40
0.7789846326
 40
0.8911618283
 40
1.0
 40
1.0
 40
1.0
 40
1.0
 10
145.4309303758
 20
153.5152270199
 30
0.0
 10
145.4309449329
 20
153.3766755634
 30
0.0
 10
145.5025130468
 20
153.1697633451
 30
0.0
 10
145.6541547391
 20
152.9414084016
 30
0.0
 10
145.8290522682
 20
152.7486243801
 30
0.0
 10
146.0364309591
 20
152.6030919274
 30
0.0
 10
146.2620266121
 20
152.527755257
 30
0.0
 10
146.3753224848
 20
152.5152217239
 30
0.0
 10
146.4309303714
 20
152.5152170942
 30
0.0
  0
SPLINE
  5
3B9
100
AcDbEntity
  8
RUNDUNGEN
100
AcDbSpline
 62
7
  6
CONTINUOUS
 70
0
 71
3
 72
11
 73
7
 74
0
 42
0.0000001
 43
0.0000001
 44
0.0000000001
 40
0.0
 40
0.0
 40
0.0
 40
0.0
 40
0.2825356835
 40
0.5472257537
 40
0.7843970358
 40
1.0
 40
1.0
 40
1.0
 40
1.0
 10
85.2525242851
 20
153.5152170942
 30
0.0
 10
85.2525242851
 20
153.3862615962
 30
0.0
 10
85.2166646283
 20
153.1347893612
 30
0.0
 10
85.059290615
 20
152.8062952002
 30
0.0
 10
84.8148455262
 20
152.5743883334
 30
0.0
 10
84.6055742258
 20
152.5152170942
 30
0.0
 10
84.5071682926
 20
152.5152170942
 30
0.0
  0
SPLINE
  5
3BA
100
AcDbEntity
  8
RUNDUNGEN
100
AcDbSpline
 62
7
  6
CONTINUOUS
 70
0
 71
3
 72
11
 73
7
 74
0
 42
0.0000001
 43
0.0000001
 44
0.0000000001
 40
0.0
 40
0.0
 40
0.0
 40
0.0
 40
0.2825353205
 40
0.5472250295
 40
0.7843963349
 40
1.0
 40
1.0
 40
1.0
 40
1.0
 10
68.1093364576
 20
153.5152170942
 30
0.0
 10
68.1093358863
 20
153.3862616473
 30
0.0
 10
68.1451946817
 20
153.13478934
 30
0.0
 10
68.3025683598
 20
152.8062949066
 30
0.0
 10
68.5470142195
 20
152.5743880267
 30
0.0
 10
68.7562861095
 20
152.5152170942
 30
0.0
 10
68.8546924501
 20
152.5152170942
 30
0.0
  0
SPLINE
  5
3BB
100
AcDbEntity
  8
RUNDUNGEN
100
AcDbSpline
 62
7
  6
CONTINUOUS
 70
0
 71
3
 72
11
 73
7
 74
0
 42
0.0000001
 43
0.0000001
 44
0.0000000001
 40
0.0
 40
0.0
 40
0.0
 40
0.0
 40
0.2597507805
 40
0.5130842637
 40
0.7590143192
 40
1.0
 40
1.0
 40
1.0
 40
1.0
 10
65.1100039649
 20
153.3587921734
 30
0.0
 10
65.1267358911
 20
153.2437437434
 30
0.0
 10
65.1969746083
 20
153.0199571907
 30
0.0
 10
65.4041677652
 20
152.742435319
 30
0.0
 10
65.6883895334
 20
152.5583586852
 30
0.0
 10
65.9085146967
 20
152.5152170944
 30
0.0
 10
66.0163746064
 20
152.5152170942
 30
0.0
  0
SPLINE
  5
3BC
100
AcDbEntity
  8
RUNDUNGEN
100
AcDbSpline
 62
7
  6
CONTINUOUS
 70
0
 71
3
 72
12
 73
8
 74
0
 42
0.0000001
 43
0.0000001
 44
0.0000000001
 40
0.0
 40
0.0
 40
0.0
 40
0.0
 40
0.2595253116
 40
0.5133505699
 40
0.6377953209
 40
0.7602581337
 40
1.0
 40
1.0
 40
1.0
 40
1.0
 10
58.0132082545
 20
153.5152170942
 30
0.0
 10
58.0132082545
 20
153.3855333671
 30
0.0
 10
58.0594856403
 20
153.1266411421
 30
0.0
 10
58.2291536284
 20
152.8473985784
 30
0.0
 10
58.4166331461
 20
152.6792944099
 30
0.0
 10
58.6274266716
 20
152.5556551993
 30
0.0
 10
58.8111323503
 20
152.5152170942
 30
0.0
 10
58.9309303713
 20
152.5152170942
 30
0.0
  0
SPLINE
  5
3BD
100
AcDbEntity
  8
RUNDUNGEN
100
AcDbSpline
 62
7
  6
CONTINUOUS
 70
0
 71
3
 72
13
 73
9
 74
0
 42
0.0000001
 43
0.0000001
 44
0.0000000001
 40
0.0
 40
0.0
 40
0.0
 40
0.0
 40
0.271182021
 40
0.4063332348
 40
0.5372436397
 40
0.778988237
 40
0.8911627169
 40
1.0
 40
1.0
 40
1.0
 40
1.0
 10
107.9309303655
 20
166.5152053109
 30
0.0
 10
107.930913554
 20
166.6537587194
 30
0.0
 10
107.8593658063
 20
166.860684237
 30
0.0
 10
107.7076957847
 20
167.0890256818
 30
0.0
 10
107.5328060909
 20
167.281816316
 30
0.0
 10
107.3254257613
 20
167.4273441782
 30
0.0
 10
107.0998324626
 20
167.5026797535
 30
0.0
 10
106.9865379539
 20
167.5152132298
 30
0.0
 10
106.9309303713
 20
167.5152170942
 30
0.0
  0
SPLINE
  5
3BE
100
AcDbEntity
  8
RUNDUNGEN
100
AcDbSpline
 62
7
  6
CONTINUOUS
 70
0
 71
3
 72
15
 73
11
 74
0
 42
0.0000001
 43
0.0000001
 44
0.0000000001
 40
0.0
 40
0.0
 40
0.0
 40
0.0
 40
0.1052961083
 40
0.2123588658
 40
0.322905642
 40
0.4388471935
 40
0.5621979055
 40
0.6951836776
 40
0.8402723306
 40
1.0
 40
1.0
 40
1.0
 40
1.0
 10
257.6705397464
 20
163.0152170942
 30
0.0
 10
257.6704473055
 20
163.217145765
 30
0.0
 10
257.6315843874
 20
163.6254110503
 30
0.0
 10
257.4565224549
 20
164.2231031213
 30
0.0
 10
257.1622659975
 20
164.7954200439
 30
0.0
 10
256.7461142304
 20
165.3267658464
 30
0.0
 10
256.2039273583
 20
165.7979246318
 30
0.0
 10
255.5320891621
 20
166.1839299147
 30
0.0
 10
254.7302319678
 20
166.4509212983
 30
0.0
 10
254.1435197217
 20
166.5152058058
 30
0.0
 10
253.837206413
 20
166.5152170942
 30
0.0
  0
SPLINE
  5
3BF
100
AcDbEntity
  8
RUNDUNGEN
100
AcDbSpline
 62
7
  6
CONTINUOUS
 70
0
 71
3
 72
11
 73
7
 74
0
 42
0.0000001
 43
0.0000001
 44
0.0000000001
 40
0.0
 40
0.0
 40
0.0
 40
0.0
 40
0.2475152463
 40
0.495959841
 40
0.7464745638
 40
1.0
 40
1.0
 40
1.0
 40
1.0
 10
200.1705397464
 20
152.5152170942
 30
0.0
 10
200.6317181307
 20
152.5152245058
 30
0.0
 10
201.5564915264
 20
152.5640494909
 30
0.0
 10
202.9330214235
 20
152.7760834321
 30
0.0
 10
204.297254707
 20
153.1046189926
 30
0.0
 10
205.1968435883
 20
153.3750539966
 30
0.0
 10
205.6479287832
 20
153.5152750863
 30
0.0
  0
SPLINE
  5
3C0
100
AcDbEntity
  8
RUNDUNGEN
100
AcDbSpline
 62
7
  6
CONTINUOUS
 70
0
 71
3
 72
15
 73
11
 74
0
 42
0.0000001
 43
0.0000001
 44
0.0000000001
 40
0.0
 40
0.0
 40
0.0
 40
0.0
 40
0.159727445
 40
0.3048162683
 40
0.4378019136
 40
0.5611523741
 40
0.6770944296
 40
0.7876412835
 40
0.894703451
 40
1.0
 40
1.0
 40
1.0
 40
1.0
 10
253.837206413
 20
153.5152170942
 30
0.0
 10
254.1435195653
 20
153.5152331493
 30
0.0
 10
254.7302356215
 20
153.5794866068
 30
0.0
 10
255.5320879812
 20
153.8465017924
 30
0.0
 10
256.2039268848
 20
154.2325028229
 30
0.0
 10
256.7461145413
 20
154.7036634357
 30
0.0
 10
257.1622633358
 20
155.2350125479
 30
0.0
 10
257.4565240105
 20
155.807327998
 30
0.0
 10
257.631579759
 20
156.4050231176
 30
0.0
 10
257.6704407016
 20
156.8132874006
 30
0.0
 10
257.6705397464
 20
157.0152170942
 30
0.0
  0
SPLINE
  5
3C1
100
AcDbEntity
  8
RUNDUNGEN
100
AcDbSpline
 62
7
  6
CONTINUOUS
 70
0
 71
3
 72
14
 73
10
 74
0
 42
0.0000001
 43
0.0000001
 44
0.0000000001
 40
0.0
 40
0.0
 40
0.0
 40
0.0
 40
0.3347509042
 40
0.4888287867
 40
0.6277679646
 40
0.7482548358
 40
0.8486316172
 40
0.9304345565
 40
1.0
 40
1.0
 40
1.0
 40
1.0
 10
214.6106300282
 20
153.5152170942
 30
0.0
 10
214.6106300282
 20
153.3872440155
 30
0.0
 10
214.5968798011
 20
153.1997669403
 30
0.0
 10
214.547979438
 20
152.964524417
 30
0.0
 10
214.4998704003
 20
152.8135753503
 30
0.0
 10
214.4413258577
 20
152.6885371666
 30
0.0
 10
214.3738599871
 20
152.5934946329
 30
0.0
 10
214.2982426562
 20
152.5312210312
 30
0.0
 10
214.2400014359
 20
152.5152170942
 30
0.0
 10
214.2134070224
 20
152.5152170942
 30
0.0
  0
SPLINE
  5
3C2
100
AcDbEntity
  8
RUNDUNGEN
100
AcDbSpline
 62
7
  6
CONTINUOUS
 70
0
 71
3
 72
14
 73
10
 74
0
 42
0.0000001
 43
0.0000001
 44
0.0000000001
 40
0.0
 40
0.0
 40
0.0
 40
0.0
 40
0.3347521287
 40
0.4888297837
 40
0.6277685403
 40
0.7482551509
 40
0.8486317655
 40
0.9304345987
 40
1.0
 40
1.0
 40
1.0
 40
1.0
 10
230.9804494645
 20
153.5152170942
 30
0.0
 10
230.9804494645
 20
153.3872435467
 30
0.0
 10
230.966699224
 20
153.1997660738
 30
0.0
 10
230.9177985947
 20
152.9645233788
 30
0.0
 10
230.8696895809
 20
152.8135746721
 30
0.0
 10
230.8111450831
 20
152.6885368211
 30
0.0
 10
230.7436792702
 20
152.5934945105
 30
0.0
 10
230.6680620425
 20
152.5312209648
 30
0.0
 10
230.609820865
 20
152.5152170943
 30
0.0
 10
230.5832264674
 20
152.5152170942
 30
0.0
  0
SPLINE
  5
3C3
100
AcDbEntity
  8
RUNDUNGEN
100
AcDbSpline
 62
7
  6
CONTINUOUS
 70
0
 71
3
 72
13
 73
9
 74
0
 42
0.0000001
 43
0.0000001
 44
0.0000000001
 40
0.0
 40
0.0
 40
0.0
 40
0.0
 40
0.2928998793
 40
0.5623710284
 40
0.6838706432
 40
0.7960244477
 40
0.9004428225
 40
1.0
 40
1.0
 40
1.0
 40
1.0
 10
253.837206413
 20
153.5152170942
 30
0.0
 10
253.8372057757
 20
153.3865391802
 30
0.0
 10
253.8058666429
 20
153.1384109909
 30
0.0
 10
253.6866025025
 20
152.8566678164
 30
0.0
 10
253.5477840622
 20
152.682990909
 30
0.0
 10
253.4318093658
 20
152.5880342759
 30
0.0
 10
253.3043374316
 20
152.5290465076
 30
0.0
 10
253.2142775927
 20
152.5152170942
 30
0.0
 10
253.1705397463
 20
152.5152170942
 30
0.0
  0
SPLINE
  5
3C4
100
AcDbEntity
  8
RUNDUNGEN
100
AcDbSpline
 62
7
  6
CONTINUOUS
 70
0
 71
3
 72
13
 73
9
 74
0
 42
0.0000001
 43
0.0000001
 44
0.0000000001
 40
0.0
 40
0.0
 40
0.0
 40
0.0
 40
0.2928993952
 40
0.5623700806
 40
0.6838696364
 40
0.7960235654
 40
0.9004422843
 40
1.0
 40
1.0
 40
1.0
 40
1.0
 10
253.837206413
 20
166.5152170942
 30
0.0
 10
253.8372064131
 20
166.6438949305
 30
0.0
 10
253.8058682561
 20
166.8920231412
 30
0.0
 10
253.6866045253
 20
167.1737664417
 30
0.0
 10
253.5477859346
 20
167.3474433252
 30
0.0
 10
253.4318107993
 20
167.4423999748
 30
0.0
 10
253.3043381963
 20
167.5013877072
 30
0.0
 10
253.214277875
 20
167.5152170942
 30
0.0
 10
253.1705397464
 20
167.5152170942
 30
0.0
  0
SPLINE
  5
3C5
100
AcDbEntity
  8
RUNDUNGEN
100
AcDbSpline
 62
7
  6
CONTINUOUS
 70
0
 71
3
 72
14
 73
10
 74
0
 42
0.0000001
 43
0.0000001
 44
0.0000000001
 40
0.0
 40
0.0
 40
0.0
 40
0.0
 40
0.3347521313
 40
0.4888297842
 40
0.6277685377
 40
0.7482551455
 40
0.8486317584
 40
0.9304345934
 40
1.0
 40
1.0
 40
1.0
 40
1.0
 10
230.9804494645
 20
166.5152170942
 30
0.0
 10
230.9804494645
 20
166.6431906435
 30
0.0
 10
230.9666992239
 20
166.830668118
 30
0.0
 10
230.9177985937
 20
167.0659108135
 30
0.0
 10
230.86968958
 20
167.2168595183
 30
0.0
 10
230.8111450827
 20
167.3418973671
 30
0.0
 10
230.7436792714
 20
167.436939679
 30
0.0
 10
230.6680620392
 20
167.4992132237
 30
0.0
 10
230.6098208585
 20
167.5152170942
 30
0.0
 10
230.5832264587
 20
167.5152170942
 30
0.0
  0
SPLINE
  5
3C6
100
AcDbEntity
  8
02___PRT_ALL_AXES
100
AcDbSpline
 62
7
  6
CONTINUOUS
 70
0
 71
3
 72
11
 73
7
 74
0
 42
0.0000001
 43
0.0000001
 44
0.0000000001
 40
0.0
 40
0.0
 40
0.0
 40
0.0
 40
0.2857822579
 40
0.5557244869
 40
0.7975185875
 40
1.0
 40
1.0
 40
1.0
 40
1.0
 10
214.2559017618
 20
167.5094783151
 30
0.0
 10
214.3973185515
 20
167.5040307041
 30
0.0
 10
214.6721050729
 20
167.4890871148
 30
0.0
 10
215.067256986
 20
167.4830572043
 30
0.0
 10
215.4205934974
 20
167.4995212854
 30
0.0
 10
215.6402564607
 20
167.5152170942
 30
0.0
 10
215.7405268873
 20
167.5152170942
 30
0.0
  0
SPLINE
  5
3C7
100
AcDbEntity
  8
02___PRT_ALL_AXES
100
AcDbSpline
 62
7
  6
CONTINUOUS
 70
0
 71
3
 72
12
 73
8
 74
0
 42
0.0000001
 43
0.0000001
 44
0.0000000001
 40
0.0
 40
0.0
 40
0.0
 40
0.0
 40
0.3255927847
 40
0.6154310412
 40
0.7380633732
 40
0.8427616562
 40
1.0
 40
1.0
 40
1.0
 40
1.0
 10
214.6106300282
 20
166.5152170942
 30
0.0
 10
214.6106300282
 20
166.6348147997
 30
0.0
 10
214.5947497316
 20
166.8611848489
 30
0.0
 10
214.5350178793
 20
167.1271298805
 30
0.0
 10
214.4612507005
 20
167.3033950223
 30
0.0
 10
214.389059544
 20
167.4235429627
 30
0.0
 10
214.3116500269
 20
167.4943776095
 30
0.0
 10
214.2559017618
 20
167.5094783151
 30
0.0
  0
SPLINE
  5
3C8
100
AcDbEntity
  8
02___PRT_ALL_AXES
100
AcDbSpline
 62
7
  6
CONTINUOUS
 70
0
 71
3
 72
9
 73
5
 74
0
 42
0.0000001
 43
0.0000001
 44
0.0000000001
 40
0.0
 40
0.0
 40
0.0
 40
0.0
 40
0.2443326199
 40
1.0
 40
1.0
 40
1.0
 40
1.0
 10
213.5460399465
 20
167.5152170942
 30
0.0
 10
213.5969035055
 20
167.5152170942
 30
0.0
 10
213.8050725069
 20
167.513498646
 30
0.0
 10
214.0132298776
 20
167.5102045313
 30
0.0
 10
214.1705397463
 20
167.5102045313
 30
0.0
  0
SPLINE
  5
3C9
100
AcDbEntity
  8
RUNDUNGEN
100
AcDbSpline
 62
7
  6
CONTINUOUS
 70
0
 71
3
 72
11
 73
7
 74
0
 42
0.0000001
 43
0.0000001
 44
0.0000000001
 40
0.0
 40
0.0
 40
0.0
 40
0.0
 40
0.2535235881
 40
0.5040394976
 40
0.7524855443
 40
1.0
 40
1.0
 40
1.0
 40
1.0
 10
205.6479338898
 20
166.5151573674
 30
0.0
 10
205.1968521734
 20
166.655379607
 30
0.0
 10
204.2972625607
 20
166.9258109875
 30
0.0
 10
202.9330277421
 20
167.2543522202
 30
0.0
 10
201.5564925196
 20
167.466384264
 30
0.0
 10
200.6317171095
 20
167.5152093924
 30
0.0
 10
200.1705397464
 20
167.5152170942
 30
0.0
  0
SPLINE
  5
3CA
100
AcDbEntity
  8
RUNDUNGEN
100
AcDbSpline
 62
7
  6
CONTINUOUS
 70
0
 71
3
 72
12
 73
8
 74
0
 42
0.0000001
 43
0.0000001
 44
0.0000000001
 40
0.0
 40
0.0
 40
0.0
 40
0.0
 40
0.122009993
 40
0.2447625135
 40
0.4931372209
 40
0.7453766862
 40
1.0
 40
1.0
 40
1.0
 40
1.0
 10
57.9309303655
 20
90.4007112038
 30
0.0
 10
57.9309218088
 20
90.6275725289
 30
0.0
 10
57.9058546003
 20
91.0827289376
 30
0.0
 10
57.7920854528
 20
91.9929163162
 30
0.0
 10
57.5733517305
 20
93.1320326079
 30
0.0
 10
57.2619963093
 20
94.5012843709
 30
0.0
 10
57.0415551862
 20
95.4176188357
 30
0.0
 10
56.9309303713
 20
95.8779511171
 30
0.0
  0
LINE
  5
3CB
100
AcDbEntity
  8
RUNDUNGEN
100
AcDbLine
 62
7
  6
CONTINUOUS
 10
113.411866322
 20
97.7463904816
 11
108.7530297963
 21
103.3779511171
  0
LINE
  5
3CC
100
AcDbEntity
  8
RUNDUNGEN
100
AcDbLine
 62
7
  6
CONTINUOUS
 10
113.3355014068
 20
95.8779511171
 11
113.411866322
 21
97.7463904816
  0
LINE
  5
3CD
100
AcDbEntity
  8
RUNDUNGEN
100
AcDbLine
 62
7
  6
CONTINUOUS
 10
89.9499944207
 20
97.7463904816
 11
90.0263593359
 21
95.8779511171
  0
SPLINE
  5
3CE
100
AcDbEntity
  8
RUNDUNGEN
100
AcDbSpline
 62
7
  6
CONTINUOUS
 70
0
 71
3
 72
17
 73
13
 74
0
 42
0.0000001
 43
0.0000001
 44
0.0000000001
 40
0.0
 40
0.0
 40
0.0
 40
0.0
 40
0.181322578
 40
0.357065304
 40
0.5199386459
 40
0.6645117121
 40
0.7860744712
 40
0.8812896364
 40
0.9185490125
 40
0.9495457631
 40
0.9758064583
 40
1.0
 40
1.0
 40
1.0
 40
1.0
 10
89.9499944207
 20
97.7463904816
 30
0.0
 10
89.8846810782
 20
97.7419156392
 30
0.0
 10
89.7561005047
 20
97.7325699179
 30
0.0
 10
89.5693331906
 20
97.7127765184
 30
0.0
 10
89.3973188002
 20
97.6828904842
 30
0.0
 10
89.2468341389
 20
97.6453974134
 30
0.0
 10
89.1234341098
 20
97.6026519205
 30
0.0
 10
89.0404478188
 20
97.5624026367
 30
0.0
 10
88.9923795869
 20
97.527859993
 30
0.0
 10
88.9682628972
 20
97.5033769688
 30
0.0
 10
88.9534416479
 20
97.4774291098
 30
0.0
 10
88.9506930676
 20
97.4588841555
 30
0.0
 10
88.9511045457
 20
97.4501587823
 30
0.0
  0
SPLINE
  5
3CF
100
AcDbEntity
  8
RUNDUNGEN
100
AcDbSpline
 62
7
  6
CONTINUOUS
 70
0
 71
3
 72
15
 73
11
 74
0
 42
0.0000001
 43
0.0000001
 44
0.0000000001
 40
0.0
 40
0.0
 40
0.0
 40
0.0
 40
0.376393704
 40
0.542183996
 40
0.6863361621
 40
0.8052332951
 40
0.8964158239
 40
0.9313142616
 40
0.9594706632
 40
1.0
 40
1.0
 40
1.0
 40
1.0
 10
89.9499944207
 20
97.7463904816
 30
0.0
 10
89.8696557968
 20
97.8203645464
 30
0.0
 10
89.7481719046
 20
97.9207580154
 30
0.0
 10
89.5880308674
 20
98.0391341261
 30
0.0
 10
89.4845200088
 20
98.1083446791
 30
0.0
 10
89.3950027537
 20
98.159024739
 30
0.0
 10
89.3297125385
 20
98.1877407775
 30
0.0
 10
89.2860406338
 20
98.1987414121
 30
0.0
 10
89.2564565261
 20
98.2018786448
 30
0.0
 10
89.2347584141
 20
98.1962471619
 30
0.0
 10
89.2266388766
 20
98.1877409797
 30
0.0
  0
SPLINE
  5
3D0
100
AcDbEntity
  8
RUNDUNGEN
100
AcDbSpline
 62
7
  6
CONTINUOUS
 70
0
 71
3
 72
15
 73
11
 74
0
 42
0.0000001
 43
0.0000001
 44
0.0000000001
 40
0.0
 40
0.0
 40
0.0
 40
0.0
 40
0.3763937493
 40
0.5421840623
 40
0.686336246
 40
0.8052333894
 40
0.896415916
 40
0.9313143447
 40
0.9594707297
 40
1.0
 40
1.0
 40
1.0
 40
1.0
 10
63.411866322
 20
97.7463904816
 30
0.0
 10
63.4922049733
 20
97.8203645193
 30
0.0
 10
63.6136889126
 20
97.9207579352
 30
0.0
 10
63.7738299772
 20
98.0391340142
 30
0.0
 10
63.8773408415
 20
98.1083445601
 30
0.0
 10
63.96685809
 20
98.1590246253
 30
0.0
 10
64.0321482868
 20
98.187740681
 30
0.0
 10
64.0758201731
 20
98.1987413396
 30
0.0
 10
64.1054042452
 20
98.2018785948
 30
0.0
 10
64.1271023428
 20
98.1962471471
 30
0.0
 10
64.1352218661
 20
98.1877409797
 30
0.0
  0
SPLINE
  5
3D1
100
AcDbEntity
  8
RUNDUNGEN
100
AcDbSpline
 62
7
  6
CONTINUOUS
 70
0
 71
3
 72
17
 73
13
 74
0
 42
0.0000001
 43
0.0000001
 44
0.0000000001
 40
0.0
 40
0.0
 40
0.0
 40
0.0
 40
0.1813225749
 40
0.3570652951
 40
0.5199386333
 40
0.6645116989
 40
0.7860744599
 40
0.8812896236
 40
0.9185489955
 40
0.9495457436
 40
0.9758064424
 40
1.0
 40
1.0
 40
1.0
 40
1.0
 10
63.411866322
 20
97.7463904816
 30
0.0
 10
63.4771796642
 20
97.7419156454
 30
0.0
 10
63.605760236
 20
97.7325699309
 30
0.0
 10
63.7925275463
 20
97.7127765243
 30
0.0
 10
63.9645419329
 20
97.6828904837
 30
0.0
 10
64.1150265948
 20
97.645397414
 30
0.0
 10
64.2384266237
 20
97.602651918
 30
0.0
 10
64.321412916
 20
97.5624026409
 30
0.0
 10
64.3694811533
 20
97.5278600093
 30
0.0
 10
64.3935978466
 20
97.5033769895
 30
0.0
 10
64.408419098
 20
97.4774291234
 30
0.0
 10
64.4111676754
 20
97.4588841613
 30
0.0
 10
64.410756197
 20
97.4501587823
 30
0.0
  0
LINE
  5
3D2
100
AcDbEntity
  8
RUNDUNGEN
100
AcDbLine
 62
7
  6
CONTINUOUS
 10
144.6088309464
 20
103.3779511171
 11
139.9499944207
 21
97.7463904816
  0
SPLINE
  5
3D3
100
AcDbEntity
  8
RUNDUNGEN
100
AcDbSpline
 62
7
  6
CONTINUOUS
 70
0
 71
3
 72
17
 73
13
 74
0
 42
0.0000001
 43
0.0000001
 44
0.0000000001
 40
0.0
 40
0.0
 40
0.0
 40
0.0
 40
0.181322578
 40
0.357065304
 40
0.5199386459
 40
0.6645117121
 40
0.7860744712
 40
0.8812896364
 40
0.9185490125
 40
0.9495457631
 40
0.9758064583
 40
1.0
 40
1.0
 40
1.0
 40
1.0
 10
139.9499944207
 20
97.7463904816
 30
0.0
 10
139.8846810782
 20
97.7419156392
 30
0.0
 10
139.7561005047
 20
97.7325699179
 30
0.0
 10
139.5693331906
 20
97.7127765184
 30
0.0
 10
139.3973188002
 20
97.6828904842
 30
0.0
 10
139.2468341389
 20
97.6453974134
 30
0.0
 10
139.1234341098
 20
97.6026519205
 30
0.0
 10
139.0404478188
 20
97.5624026367
 30
0.0
 10
138.9923795869
 20
97.527859993
 30
0.0
 10
138.9682628972
 20
97.5033769688
 30
0.0
 10
138.9534416479
 20
97.4774291098
 30
0.0
 10
138.9506930676
 20
97.4588841555
 30
0.0
 10
138.9511045457
 20
97.4501587823
 30
0.0
  0
SPLINE
  5
3D4
100
AcDbEntity
  8
RUNDUNGEN
100
AcDbSpline
 62
7
  6
CONTINUOUS
 70
0
 71
3
 72
15
 73
11
 74
0
 42
0.0000001
 43
0.0000001
 44
0.0000000001
 40
0.0
 40
0.0
 40
0.0
 40
0.0
 40
0.376393704
 40
0.542183996
 40
0.6863361621
 40
0.8052332951
 40
0.8964158239
 40
0.9313142616
 40
0.9594706632
 40
1.0
 40
1.0
 40
1.0
 40
1.0
 10
139.9499944207
 20
97.7463904816
 30
0.0
 10
139.8696557968
 20
97.8203645464
 30
0.0
 10
139.7481719046
 20
97.9207580154
 30
0.0
 10
139.5880308674
 20
98.0391341261
 30
0.0
 10
139.4845200088
 20
98.1083446791
 30
0.0
 10
139.3950027537
 20
98.159024739
 30
0.0
 10
139.3297125385
 20
98.1877407775
 30
0.0
 10
139.2860406338
 20
98.1987414121
 30
0.0
 10
139.2564565261
 20
98.2018786448
 30
0.0
 10
139.2347584141
 20
98.1962471619
 30
0.0
 10
139.2266388766
 20
98.1877409797
 30
0.0
  0
SPLINE
  5
3D5
100
AcDbEntity
  8
RUNDUNGEN
100
AcDbSpline
 62
7
  6
CONTINUOUS
 70
0
 71
3
 72
15
 73
11
 74
0
 42
0.0000001
 43
0.0000001
 44
0.0000000001
 40
0.0
 40
0.0
 40
0.0
 40
0.0
 40
0.3763937493
 40
0.5421840623
 40
0.686336246
 40
0.8052333894
 40
0.896415916
 40
0.9313143447
 40
0.9594707297
 40
1.0
 40
1.0
 40
1.0
 40
1.0
 10
113.411866322
 20
97.7463904816
 30
0.0
 10
113.4922049733
 20
97.8203645193
 30
0.0
 10
113.6136889126
 20
97.9207579352
 30
0.0
 10
113.7738299772
 20
98.0391340142
 30
0.0
 10
113.8773408415
 20
98.1083445601
 30
0.0
 10
113.96685809
 20
98.1590246253
 30
0.0
 10
114.0321482868
 20
98.187740681
 30
0.0
 10
114.0758201731
 20
98.1987413396
 30
0.0
 10
114.1054042452
 20
98.2018785948
 30
0.0
 10
114.1271023428
 20
98.1962471471
 30
0.0
 10
114.1352218661
 20
98.1877409797
 30
0.0
  0
SPLINE
  5
3D6
100
AcDbEntity
  8
RUNDUNGEN
100
AcDbSpline
 62
7
  6
CONTINUOUS
 70
0
 71
3
 72
17
 73
13
 74
0
 42
0.0000001
 43
0.0000001
 44
0.0000000001
 40
0.0
 40
0.0
 40
0.0
 40
0.0
 40
0.1813225749
 40
0.3570652951
 40
0.5199386333
 40
0.6645116989
 40
0.7860744599
 40
0.8812896236
 40
0.9185489955
 40
0.9495457436
 40
0.9758064424
 40
1.0
 40
1.0
 40
1.0
 40
1.0
 10
113.411866322
 20
97.7463904816
 30
0.0
 10
113.4771796642
 20
97.7419156454
 30
0.0
 10
113.605760236
 20
97.7325699309
 30
0.0
 10
113.7925275463
 20
97.7127765243
 30
0.0
 10
113.9645419329
 20
97.6828904837
 30
0.0
 10
114.1150265948
 20
97.645397414
 30
0.0
 10
114.2384266237
 20
97.602651918
 30
0.0
 10
114.321412916
 20
97.5624026409
 30
0.0
 10
114.3694811533
 20
97.5278600093
 30
0.0
 10
114.3935978466
 20
97.5033769895
 30
0.0
 10
114.408419098
 20
97.4774291234
 30
0.0
 10
114.4111676754
 20
97.4588841613
 30
0.0
 10
114.410756197
 20
97.4501587823
 30
0.0
  0
SPLINE
  5
3D7
100
AcDbEntity
  8
RUNDUNGEN
100
AcDbSpline
 62
7
  6
CONTINUOUS
 70
0
 71
3
 72
12
 73
8
 74
0
 42
0.0000001
 43
0.0000001
 44
0.0000000001
 40
0.0
 40
0.0
 40
0.0
 40
0.0
 40
0.122009993
 40
0.2447625135
 40
0.4931372209
 40
0.7453766862
 40
1.0
 40
1.0
 40
1.0
 40
1.0
 10
107.9309303655
 20
90.4007112038
 30
0.0
 10
107.9309218088
 20
90.6275725289
 30
0.0
 10
107.9058546003
 20
91.0827289376
 30
0.0
 10
107.7920854528
 20
91.9929163161
 30
0.0
 10
107.5733517305
 20
93.1320326078
 30
0.0
 10
107.2619963093
 20
94.5012843709
 30
0.0
 10
107.0415551862
 20
95.4176188357
 30
0.0
 10
106.9309303713
 20
95.8779511171
 30
0.0
  0
SPLINE
  5
3D8
100
AcDbEntity
  8
RUNDUNGEN
100
AcDbSpline
 62
7
  6
CONTINUOUS
 70
0
 71
3
 72
11
 73
7
 74
0
 42
0.0000001
 43
0.0000001
 44
0.0000000001
 40
0.0
 40
0.0
 40
0.0
 40
0.0
 40
0.2280023345
 40
0.4661880844
 40
0.7231448283
 40
1.0
 40
1.0
 40
1.0
 40
1.0
 10
126.6809303713
 20
38.3779511171
 30
0.0
 10
125.9688910244
 20
38.3781393455
 30
0.0
 10
124.5063117074
 20
38.571664525
 30
0.0
 10
122.3974245388
 20
39.4423947446
 30
0.0
 10
120.4413395996
 20
40.8892721056
 30
0.0
 10
119.3485425185
 20
42.1682512157
 30
0.0
 10
118.85469999
 20
42.8779413093
 30
0.0
  0
SPLINE
  5
3D9
100
AcDbEntity
  8
RUNDUNGEN
100
AcDbSpline
 62
7
  6
CONTINUOUS
 70
0
 71
3
 72
11
 73
7
 74
0
 42
0.0000001
 43
0.0000001
 44
0.0000000001
 40
0.0
 40
0.0
 40
0.0
 40
0.0
 40
0.2768551687
 40
0.5338118676
 40
0.7719976116
 40
1.0
 40
1.0
 40
1.0
 40
1.0
 10
134.5071644676
 20
42.8779461416
 30
0.0
 10
134.0133219308
 20
42.1682553703
 30
0.0
 10
132.9205247626
 20
40.8892747315
 30
0.0
 10
130.9644387965
 20
39.4423975091
 30
0.0
 10
128.855550986
 20
38.5716615697
 30
0.0
 10
127.392970355
 20
38.3781443064
 30
0.0
 10
126.6809303713
 20
38.3779511171
 30
0.0
  0
SPLINE
  5
3DA
100
AcDbEntity
  8
RUNDUNGEN
100
AcDbSpline
 62
7
  6
CONTINUOUS
 70
0
 71
3
 72
11
 73
7
 74
0
 42
0.0000001
 43
0.0000001
 44
0.0000000001
 40
0.0
 40
0.0
 40
0.0
 40
0.0
 40
0.2501213272
 40
0.5002121337
 40
0.7502225734
 40
1.0
 40
1.0
 40
1.0
 40
1.0
 10
96.4307801489
 20
95.8776783795
 30
0.0
 10
96.1926471415
 20
95.4483704789
 30
0.0
 10
95.7163216179
 20
94.5898628193
 30
0.0
 10
95.0713481481
 20
93.2641167069
 30
0.0
 10
94.5792160873
 20
91.8728585303
 30
0.0
 10
94.4309354675
 20
90.8909808887
 30
0.0
 10
94.4309303713
 20
90.400725542
 30
0.0
  0
SPLINE
  5
3DB
100
AcDbEntity
  8
RUNDUNGEN
100
AcDbSpline
 62
7
  6
CONTINUOUS
 70
0
 71
3
 72
12
 73
8
 74
0
 42
0.0000001
 43
0.0000001
 44
0.0000000001
 40
0.0
 40
0.0
 40
0.0
 40
0.0
 40
0.2546250954
 40
0.5068636702
 40
0.7552377676
 40
0.8779899985
 40
1.0
 40
1.0
 40
1.0
 40
1.0
 10
96.4309303713
 20
95.8779511171
 30
0.0
 10
96.3203055688
 20
95.4176156891
 30
0.0
 10
96.0998601446
 20
94.5012810647
 30
0.0
 10
95.7885106273
 20
93.1320281677
 30
0.0
 10
95.5697780535
 20
91.9929157921
 30
0.0
 10
95.4560060771
 20
91.0827310361
 30
0.0
 10
95.4309374223
 20
90.6275753146
 30
0.0
 10
95.4309303753
 20
90.4007140965
 30
0.0
  0
SPLINE
  5
3DC
100
AcDbEntity
  8
RUNDUNGEN
100
AcDbSpline
 62
7
  6
CONTINUOUS
 70
0
 71
3
 72
11
 73
7
 74
0
 42
0.0000001
 43
0.0000001
 44
0.0000000001
 40
0.0
 40
0.0
 40
0.0
 40
0.0
 40
0.2497777272
 40
0.4997888886
 40
0.7498799695
 40
1.0
 40
1.0
 40
1.0
 40
1.0
 10
58.9309303713
 20
90.400725542
 30
0.0
 10
58.9309206983
 20
90.8909800201
 30
0.0
 10
58.7826597873
 20
91.8728584909
 30
0.0
 10
58.2905184137
 20
93.2641137692
 30
0.0
 10
57.6455430185
 20
94.5898525807
 30
0.0
 10
57.1692184091
 20
95.4483552198
 30
0.0
 10
56.9310901335
 20
95.8776611645
 30
0.0
  0
SPLINE
  5
3DD
100
AcDbEntity
  8
RUNDUNGEN
100
AcDbSpline
 62
7
  6
CONTINUOUS
 70
0
 71
3
 72
11
 73
7
 74
0
 42
0.0000001
 43
0.0000001
 44
0.0000000001
 40
0.0
 40
0.0
 40
0.0
 40
0.0
 40
0.2501213272
 40
0.5002121337
 40
0.7502225734
 40
1.0
 40
1.0
 40
1.0
 40
1.0
 10
146.4307801489
 20
95.8776783796
 30
0.0
 10
146.1926471415
 20
95.4483704789
 30
0.0
 10
145.7163216179
 20
94.5898628193
 30
0.0
 10
145.0713481481
 20
93.2641167069
 30
0.0
 10
144.5792160873
 20
91.8728585303
 30
0.0
 10
144.4309354675
 20
90.8909808886
 30
0.0
 10
144.4309303713
 20
90.400725542
 30
0.0
  0
SPLINE
  5
3DE
100
AcDbEntity
  8
RUNDUNGEN
100
AcDbSpline
 62
7
  6
CONTINUOUS
 70
0
 71
3
 72
12
 73
8
 74
0
 42
0.0000001
 43
0.0000001
 44
0.0000000001
 40
0.0
 40
0.0
 40
0.0
 40
0.0
 40
0.2546250954
 40
0.5068636702
 40
0.7552377676
 40
0.8779899985
 40
1.0
 40
1.0
 40
1.0
 40
1.0
 10
146.4309303714
 20
95.8779511171
 30
0.0
 10
146.3203055688
 20
95.4176156891
 30
0.0
 10
146.0998601446
 20
94.5012810647
 30
0.0
 10
145.7885106273
 20
93.1320281677
 30
0.0
 10
145.5697780535
 20
91.992915792
 30
0.0
 10
145.4560060772
 20
91.0827310361
 30
0.0
 10
145.4309374223
 20
90.6275753146
 30
0.0
 10
145.4309303753
 20
90.4007140965
 30
0.0
  0
SPLINE
  5
3DF
100
AcDbEntity
  8
RUNDUNGEN
100
AcDbSpline
 62
7
  6
CONTINUOUS
 70
0
 71
3
 72
11
 73
7
 74
0
 42
0.0000001
 43
0.0000001
 44
0.0000000001
 40
0.0
 40
0.0
 40
0.0
 40
0.0
 40
0.2497777272
 40
0.4997888886
 40
0.7498799695
 40
1.0
 40
1.0
 40
1.0
 40
1.0
 10
108.9309303713
 20
90.400725542
 30
0.0
 10
108.9309206983
 20
90.8909800201
 30
0.0
 10
108.7826597872
 20
91.8728584908
 30
0.0
 10
108.2905184137
 20
93.2641137692
 30
0.0
 10
107.6455430185
 20
94.5898525806
 30
0.0
 10
107.1692184092
 20
95.4483552197
 30
0.0
 10
106.9310901335
 20
95.8776611644
 30
0.0
  0
LINE
  5
3E0
100
AcDbEntity
  8
RUNDUNGEN
100
AcDbLine
 62
7
  6
CONTINUOUS
 10
94.6088309464
 20
103.3779511171
 11
89.9499944207
 21
97.7463904816
  0
SPLINE
  5
3E1
100
AcDbEntity
  8
RUNDUNGEN
100
AcDbSpline
 62
7
  6
CONTINUOUS
 70
0
 71
3
 72
11
 73
7
 74
0
 42
0.0000001
 43
0.0000001
 44
0.0000000001
 40
0.0
 40
0.0
 40
0.0
 40
0.0
 40
0.2280023345
 40
0.4661880844
 40
0.7231448283
 40
1.0
 40
1.0
 40
1.0
 40
1.0
 10
76.6809303713
 20
38.3779511171
 30
0.0
 10
75.9688910244
 20
38.3781393455
 30
0.0
 10
74.5063117074
 20
38.571664525
 30
0.0
 10
72.3974245388
 20
39.4423947446
 30
0.0
 10
70.4413395996
 20
40.8892721056
 30
0.0
 10
69.3485425185
 20
42.1682512157
 30
0.0
 10
68.85469999
 20
42.8779413093
 30
0.0
  0
SPLINE
  5
3E2
100
AcDbEntity
  8
RUNDUNGEN
100
AcDbSpline
 62
7
  6
CONTINUOUS
 70
0
 71
3
 72
11
 73
7
 74
0
 42
0.0000001
 43
0.0000001
 44
0.0000000001
 40
0.0
 40
0.0
 40
0.0
 40
0.0
 40
0.2768551687
 40
0.5338118676
 40
0.7719976116
 40
1.0
 40
1.0
 40
1.0
 40
1.0
 10
84.5071644676
 20
42.8779461416
 30
0.0
 10
84.0133219308
 20
42.1682553703
 30
0.0
 10
82.9205247626
 20
40.8892747315
 30
0.0
 10
80.9644387965
 20
39.4423975091
 30
0.0
 10
78.855550986
 20
38.5716615697
 30
0.0
 10
77.392970355
 20
38.3781443064
 30
0.0
 10
76.6809303713
 20
38.3779511171
 30
0.0
  0
LINE
  5
3E3
100
AcDbEntity
  8
RUNDUNGEN
100
AcDbLine
 62
7
  6
CONTINUOUS
 10
139.9499944207
 20
97.7463904816
 11
140.0263593359
 21
95.8779511171
  0
LINE
  5
3E4
100
AcDbEntity
  8
RUNDUNGEN
100
AcDbLine
 62
7
  6
CONTINUOUS
 10
63.3355014068
 20
95.8779511171
 11
63.411866322
 21
97.7463904816
  0
LINE
  5
3E5
100
AcDbEntity
  8
RUNDUNGEN
100
AcDbLine
 62
7
  6
CONTINUOUS
 10
63.411866322
 20
97.7463904816
 11
58.7530297963
 21
103.3779511171
  0
ELLIPSE
  5
3E6
100
AcDbEntity
  8
0
100
AcDbEllipse
 62
7
  6
CONTINUOUS
 10
114.9645124609
 20
160.0152170942
 30
0.0
 11
0.0
 21
3.4
 31
0.0
 40
0.4328358209
 41
0.0
 42
3.1415926536
  0
ELLIPSE
  5
3E7
100
AcDbEntity
  8
0
100
AcDbEllipse
 62
7
  6
CONTINUOUS
 10
138.3973482818
 20
160.0152170942
 30
0.0
 11
-0.0
 21
3.4
 31
0.0
 40
0.4328358209
 41
-3.1415926536
 42
0.0
  0
ELLIPSE
  5
3E8
100
AcDbEntity
  8
0
100
AcDbEllipse
 62
7
  6
CONTINUOUS
 10
64.9645124609
 20
160.0152170942
 30
0.0
 11
-0.0
 21
3.4
 31
0.0
 40
0.4328358209
 41
0.0
 42
3.1415926536
  0
ELLIPSE
  5
3E9
100
AcDbEntity
  8
0
100
AcDbEllipse
 62
7
  6
CONTINUOUS
 10
88.3973482818
 20
160.0152170942
 30
0.0
 11
0.0
 21
3.4
 31
0.0
 40
0.4328358209
 41
-3.1415926536
 42
0.0
  0
ENDSEC
  0
SECTION
  2
OBJECTS
  0
DICTIONARY
  5
C
100
AcDbDictionary
280
0
281
1
  3
ACAD_GROUP
350
D
  3
ACAD_MLINESTYLE
350
17
  3
ACAD_LAYOUT
350
1A
  3
ACAD_PLOTSETTINGS
350
19
  3
ACAD_PLOTSTYLENAME
350
E
  0
DICTIONARY
  5
D
102
{ACAD_REACTORS
330
C
102
}
100
AcDbDictionary
280
0
281
1
  0
ACDBDICTIONARYWDFLT
  5
E
102
{ACAD_REACTORS
330
C
102
}
100
AcDbDictionary
281
1
  3
Normal
350
F
100
AcDbDictionaryWithDefault
340
F
  0
DICTIONARY
  5
17
102
{ACAD_REACTORS
330
C
102
}
100
AcDbDictionary
280
0
281
1
  3
Standard
350
18
  0
DICTIONARY
  5
19
102
{ACAD_REACTORS
330
C
102
}
100
AcDbDictionary
281
1
  0
DICTIONARY
  5
1A
102
{ACAD_REACTORS
330
C
102
}
100
AcDbDictionary
281
1
  3
Model
350
3EA
  3
Layout1
350
3EB
  0
ACDBPLACEHOLDER
  5
F
102
{ACAD_REACTORS
330
E
102
}
  0
MLINESTYLE
  5
18
102
{ACAD_REACTORS
330
17
102
}
100
AcDbMlineStyle
  2
STANDARD
 70
0
  3

 62
256
 51
90.0
 52
90.0
 71
2
 49
0.5
 62
256
  6
BYLAYER
 49
-0.5
 62
256
  6
BYLAYER
  0
LAYOUT
  5
3EA
102
{ACAD_REACTORS
330
1A
102
}
100
AcDbPlotSettings
  1

  2
none_device
  4
ISO_A4_(297.00_x_210.00_MM)
  6

 40
0.0
 41
0.0
 42
0.0
 43
0.0
 44
297.0
 45
210.0
 46
0.0
 47
0.0
 48
0.0
 49
0.0
140
0.0
141
0.0
142
1.0
143
1.0
 70
1024
 72
1
 73
0
 74
0
  7

 75
0
147
1.0
148
0.0
149
0.0
100
AcDbLayout
  1
Model
 70
0
 71
0
 10
0.0
 20
0.0
 11
297.0
 21
210.0
 12
0.0
 22
0.0
 32
0.0
 14
0.0
 24
0.0
 34
0.0
 15
0.0
 25
0.0
 35
0.0
146
0.0
 13
0.0
 23
0.0
 33
0.0
 16
1.0
 26
0.0
 36
0.0
 17
0.0
 27
1.0
 37
0.0
 76
0
330
20C
345
0
346
0
  0
LAYOUT
  5
3EB
102
{ACAD_REACTORS
330
1A
102
}
100
AcDbPlotSettings
  1

  2
none_device
  4
ISO_A4_(297.00_x_210.00_MM)
  6

 40
0.0
 41
0.0
 42
0.0
 43
0.0
 44
297.0
 45
210.0
 46
0.0
 47
0.0
 48
0.0
 49
0.0
140
0.0
141
0.0
142
1.0
143
1.0
 70
0
 72
1
 73
0
 74
0
  7

 75
0
147
1.0
148
0.0
149
0.0
100
AcDbLayout
  1
Layout1
 70
0
 71
1
 10
0.0
 20
0.0
 11
297.0
 21
210.0
 12
0.0
 22
0.0
 32
0.0
 14
0.0
 24
0.0
 34
0.0
 15
0.0
 25
0.0
 35
0.0
146
0.0
 13
0.0
 23
0.0
 33
0.0
 16
1.0
 26
0.0
 36
0.0
 17
0.0
 27
1.0
 37
0.0
 76
0
330
20D
345
0
346
0
  0
ENDSEC
  0
EOF
