999
DXF file: S:\Prolink\03_Konstruktion\CAD-Plots\Internet\2D_neu\S9\s9-57_grt_smr_w50.dxf
999
Pro/ENGINEER 2012230 by Parametric Technology Corporation
  0
SECTION
  2
HEADER
  9
$ACADVER
  1
AC1021
  9
$DWGCODEPAGE
  3
ANSI_1252
  9
$EXTMAX
 10
297.0
 20
210.0
 30
0.0
  9
$EXTMIN
 10
0.0
 20
0.0
 30
0.0
  9
$LIMMIN
 10
0.0
 20
0.0
  9
$LIMMAX
 10
297.0
 20
210.0
  9
$VIEWCTR
 10
148.5
 20
105.0
  9
$VIEWSIZE
 40
210.0
  9
$CLAYER
  8
0
  9
$LTSCALE
 40
16.335
  9
$CELTYPE
  6
BYLAYER
  9
$DIMSCALE
 40
1.0
  9
$DIMASZ
 40
3.5
  9
$DIMEXO
 40
0.0
  9
$DIMDLI
 40
11.286
  9
$DIMEXE
 40
1.5
  9
$DIMCEN
 40
2.673
  9
$DIMLFAC
 40
1.0
  9
$DIMBLK
  1
_FILLED
  9
$DIMTXT
 40
3.5
  9
$DIMTOL
 70
1
  9
$DIMLIM
 70
0
  9
$DIMTFAC
 40
1.0
  9
$DIMTP
 40
0.005
  9
$DIMTM
 40
0.005
  9
$DIMGAP
 40
0.625
  9
$DIMDSEP
 70
46
  9
$PDMODE
 70
3
  9
$PDSIZE
 40
0.3125
  9
$HANDSEED
  5
2EB
  9
$TILEMODE
 70
1
  9
$MEASUREMENT
 70
1
  9
$INSUNITS
 70
4
  0
ENDSEC
  0
SECTION
  2
CLASSES
  0
CLASS
  1
ACDBDICTIONARYWDFLT
  2
AcDbDictionaryWithDefault
  3
AutoCAD 2000
 90
0
 91
1
280
0
281
0
  0
CLASS
  1
ACDBPLACEHOLDER
  2
AcDbPlaceHolder
  3
AutoCAD 2000
 90
0
 91
1
280
0
281
0
  0
CLASS
  1
LAYOUT
  2
AcDbLayout
  3
AutoCAD 2000
 90
0
 91
0
280
0
281
0
  0
ENDSEC
  0
SECTION
  2
TABLES
  0
TABLE
  2
VPORT
  5
8
100
AcDbSymbolTable
 70
2
  0
VPORT
  5
1F4
100
AcDbSymbolTableRecord
100
AcDbViewportTableRecord
  2
*ACTIVE
 70
0
 10
0.0
 20
0.0
 11
1.0
 21
1.0
 12
148.5
 22
105.0
 13
0.0
 23
0.0
 14
1.0
 24
1.0
 15
0.0
 25
0.0
 16
0.0
 26
0.0
 36
1.0
 17
0.0
 27
0.0
 37
0.0
 40
210.0
 41
1.4142857143
 42
50.0
 43
0.0
 44
0.0
 50
0.0
 51
0.0
 71
0
 72
100
 73
1
 74
1
 75
0
 76
0
 77
0
 78
0
  0
ENDTAB
  0
TABLE
  2
LTYPE
  5
5
100
AcDbSymbolTable
 70
6
  0
LTYPE
  5
14
100
AcDbSymbolTableRecord
100
AcDbLinetypeTableRecord
  2
BYBLOCK
 70
0
  3

 72
65
 73
0
 40
0.0
  0
LTYPE
  5
15
100
AcDbSymbolTableRecord
100
AcDbLinetypeTableRecord
  2
BYLAYER
 70
0
  3

 72
65
 73
0
 40
0.0
  0
LTYPE
  5
16
100
AcDbSymbolTableRecord
100
AcDbLinetypeTableRecord
  2
CONTINUOUS
 70
64
  3
Solid line
 72
65
 73
0
 40
0.0
  0
LTYPE
  5
1F5
100
AcDbSymbolTableRecord
100
AcDbLinetypeTableRecord
  2
CENTER
 70
64
  3
____ _ ____ _ ____ _ ____ _ ____ _ ____ _ ____
 72
65
 73
4
 40
0.6
 49
0.375
 74
0
 49
-0.075
 74
0
 49
0.075
 74
0
 49
-0.075
 74
0
  0
LTYPE
  5
1F6
100
AcDbSymbolTableRecord
100
AcDbLinetypeTableRecord
  2
HIDDEN
 70
64
  3
- - - - - - - - - - - - - - - - - - - -
 72
65
 73
2
 40
0.2
 49
0.1
 74
0
 49
-0.1
 74
0
  0
LTYPE
  5
1F7
100
AcDbSymbolTableRecord
100
AcDbLinetypeTableRecord
  2
PHANTOM
 70
64
  3
_____ _ _ _____ _ _ _____ _ _ _____
 72
65
 73
6
 40
0.8
 49
0.45
 74
0
 49
-0.05
 74
0
 49
0.1
 74
0
 49
-0.05
 74
0
 49
0.1
 74
0
 49
-0.05
 74
0
  0
LTYPE
  5
1F8
100
AcDbSymbolTableRecord
100
AcDbLinetypeTableRecord
  2
DOT
 70
64
  3
. . . . . . . . . . . . . . . . . . . .
 72
65
 73
2
 40
0.2
 49
0.1
 74
0
 49
-0.1
 74
0
  0
LTYPE
  5
1F9
100
AcDbSymbolTableRecord
100
AcDbLinetypeTableRecord
  2
DASHED
 70
64
  3
- - - - - - - - - - - - - - - - - - - -
 72
65
 73
2
 40
0.2
 49
0.1
 74
0
 49
-0.1
 74
0
  0
ENDTAB
  0
TABLE
  2
LAYER
  5
2
100
AcDbSymbolTable
 70
36
  0
LAYER
  5
10
100
AcDbSymbolTableRecord
100
AcDbLayerTableRecord
  2
0
 70
0
 62
7
  6
CONTINUOUS
370
-3
390
F
  0
LAYER
  5
1FA
100
AcDbSymbolTableRecord
100
AcDbLayerTableRecord
  2
DEFAULT_1
 70
0
 62
7
  6
CENTER
370
-3
390
F
  0
LAYER
  5
1FB
100
AcDbSymbolTableRecord
100
AcDbLayerTableRecord
  2
DEFAULT_2
 70
0
 62
8
  6
HIDDEN
370
-3
390
F
  0
LAYER
  5
1FC
100
AcDbSymbolTableRecord
100
AcDbLayerTableRecord
  2
DEFAULT_3
 70
0
 62
7
  6
PHANTOM
370
-3
390
F
  0
LAYER
  5
1FD
100
AcDbSymbolTableRecord
100
AcDbLayerTableRecord
  2
01___PRT_ALL_DTM_PLN
 70
0
 62
7
  6
CONTINUOUS
370
-3
390
F
  0
LAYER
  5
1FE
100
AcDbSymbolTableRecord
100
AcDbLayerTableRecord
  2
01___PRT_DEF_DTM_PLN
 70
0
 62
7
  6
CONTINUOUS
370
-3
390
F
  0
LAYER
  5
1FF
100
AcDbSymbolTableRecord
100
AcDbLayerTableRecord
  2
02___PRT_ALL_AXES
 70
0
 62
7
  6
CONTINUOUS
370
-3
390
F
  0
LAYER
  5
200
100
AcDbSymbolTableRecord
100
AcDbLayerTableRecord
  2
03___PRT_ALL_CURVES
 70
0
 62
7
  6
CONTINUOUS
370
-3
390
F
  0
LAYER
  5
201
100
AcDbSymbolTableRecord
100
AcDbLayerTableRecord
  2
04___PRT_ALL_DTM_PNT
 70
0
 62
7
  6
CONTINUOUS
370
-3
390
F
  0
LAYER
  5
202
100
AcDbSymbolTableRecord
100
AcDbLayerTableRecord
  2
05___PRT_ALL_DTM_CSYS
 70
0
 62
7
  6
CONTINUOUS
370
-3
390
F
  0
LAYER
  5
203
100
AcDbSymbolTableRecord
100
AcDbLayerTableRecord
  2
05___PRT_DEF_DTM_CSYS
 70
0
 62
7
  6
CONTINUOUS
370
-3
390
F
  0
LAYER
  5
204
100
AcDbSymbolTableRecord
100
AcDbLayerTableRecord
  2
06___PRT_ALL_SURFS
 70
0
 62
7
  6
CONTINUOUS
370
-3
390
F
  0
LAYER
  5
205
100
AcDbSymbolTableRecord
100
AcDbLayerTableRecord
  2
ALLE
 70
0
 62
7
  6
CONTINUOUS
370
-3
390
F
  0
LAYER
  5
206
100
AcDbSymbolTableRecord
100
AcDbLayerTableRecord
  2
AUSFORMSCHRAEGEN
 70
0
 62
7
  6
CONTINUOUS
370
-3
390
F
  0
LAYER
  5
207
100
AcDbSymbolTableRecord
100
AcDbLayerTableRecord
  2
BEZUGSACHSEN
 70
0
 62
7
  6
CONTINUOUS
370
-3
390
F
  0
LAYER
  5
208
100
AcDbSymbolTableRecord
100
AcDbLayerTableRecord
  2
BEZUGSEBENE
 70
0
 62
7
  6
CONTINUOUS
370
-3
390
F
  0
LAYER
  5
209
100
AcDbSymbolTableRecord
100
AcDbLayerTableRecord
  2
BEZUGSEBENEN
 70
0
 62
7
  6
CONTINUOUS
370
-3
390
F
  0
LAYER
  5
20A
100
AcDbSymbolTableRecord
100
AcDbLayerTableRecord
  2
BEZUGSEBENEN-KES
 70
0
 62
7
  6
CONTINUOUS
370
-3
390
F
  0
LAYER
  5
20B
100
AcDbSymbolTableRecord
100
AcDbLayerTableRecord
  2
FLAECHEN
 70
0
 62
7
  6
CONTINUOUS
370
-3
390
F
  0
LAYER
  5
20C
100
AcDbSymbolTableRecord
100
AcDbLayerTableRecord
  2
KURVEN
 70
0
 62
7
  6
CONTINUOUS
370
-3
390
F
  0
LAYER
  5
20D
100
AcDbSymbolTableRecord
100
AcDbLayerTableRecord
  2
PARAMETER-BEMAßUNGEN
 70
0
 62
7
  6
CONTINUOUS
370
-3
390
F
  0
LAYER
  5
20E
100
AcDbSymbolTableRecord
100
AcDbLayerTableRecord
  2
RUNDUNGEN
 70
0
 62
7
  6
CONTINUOUS
370
-3
390
F
  0
LAYER
  5
20F
100
AcDbSymbolTableRecord
100
AcDbLayerTableRecord
  2
SAMMELFLÄCHEN
 70
0
 62
7
  6
CONTINUOUS
370
-3
390
F
  0
ENDTAB
  0
TABLE
  2
STYLE
  5
3
100
AcDbSymbolTable
 70
1
  0
STYLE
  5
11
100
AcDbSymbolTableRecord
100
AcDbTextStyleTableRecord
  2
STANDARD
 70
0
 40
0.0
 41
0.7
 50
0.0
 71
0
 42
0.2
  3
txt
  4

  0
STYLE
  5
210
100
AcDbSymbolTableRecord
100
AcDbTextStyleTableRecord
  2
TEXTSTYLE_1
 70
0
 40
0.0
 41
0.8
 50
0.0
 71
0
 42
0.2
  3
gdt
  4

  0
ENDTAB
  0
TABLE
  2
VIEW
  5
6
100
AcDbSymbolTable
 70
0
  0
ENDTAB
  0
TABLE
  2
UCS
  5
7
100
AcDbSymbolTable
 70
0
  0
ENDTAB
  0
TABLE
  2
APPID
  5
9
100
AcDbSymbolTable
 70
1
  0
APPID
  5
211
100
AcDbSymbolTableRecord
100
AcDbRegAppTableRecord
  2
ACAD
 70
0
  0
ENDTAB
  0
TABLE
  2
BLOCK_RECORD
  5
1
100
AcDbSymbolTable
 70
0
  0
BLOCK_RECORD
  5
212
100
AcDbSymbolTableRecord
100
AcDbBlockTableRecord
  2
*Model_Space
  0
BLOCK_RECORD
  5
213
100
AcDbSymbolTableRecord
100
AcDbBlockTableRecord
  2
*Paper_Space
  0
ENDTAB
  0
TABLE
  2
DIMSTYLE
  5
A
100
AcDbSymbolTable
 70
1
100
AcDbDimStyleTable
 71
0
  0
DIMSTYLE
105
214
100
AcDbSymbolTableRecord
100
AcDbDimStyleTableRecord
  2
STANDARD
 70
0
  3

  4

 40
1.0
 41
3.5
 42
0.0
 43
0.38
 44
1.5
 45
0.0
 46
0.0
 47
0.005
 48
0.005
140
3.5
141
0.09
142
0.0
143
25.4
144
1.0
145
0.0
146
1.0
147
0.625
 71
1.0
 72
0.0
 73
0
 74
0
 75
0
 76
0
 77
1
 78
8
170
0
171
2
172
0
173
0
174
0
175
0
176
0
177
0
178
5
270
2
271
3
272
3
273
2
274
2
275
0
280
0
281
0
282
0
283
1
284
8
285
0
286
0
287
3
288
0
340
11
278
46
  0
ENDTAB
  0
ENDSEC
  0
SECTION
  2
BLOCKS
  0
BLOCK
  5
20
100
AcDbEntity
  8
0
100
AcDbBlockBegin
  2
*Model_Space
 70
0
 10
0.0
 20
0.0
 30
0.0
  3
*Model_Space
  1

  0
ENDBLK
  5
21
100
AcDbEntity
  8
0
100
AcDbBlockEnd
  0
BLOCK
  5
1C
100
AcDbEntity
  8
0
100
AcDbBlockBegin
  2
*Paper_Space
 70
0
 10
0.0
 20
0.0
 30
0.0
  3
*Paper_Space
  1

  0
ENDBLK
  5
1D
100
AcDbEntity
  8
0
100
AcDbBlockEnd
  0
ENDSEC
  0
SECTION
  2
ENTITIES
  0
LINE
  5
215
100
AcDbEntity
  8
0
100
AcDbLine
 62
7
  6
CONTINUOUS
 10
0.0
 20
0.0
 11
0.0
 21
210.0
  0
LINE
  5
216
100
AcDbEntity
  8
0
100
AcDbLine
 62
7
  6
CONTINUOUS
 10
0.0
 20
0.0
 11
297.0
 21
0.0
  0
LINE
  5
217
100
AcDbEntity
  8
0
100
AcDbLine
 62
7
  6
CONTINUOUS
 10
0.0
 20
210.0
 11
297.0
 21
210.0
  0
LINE
  5
218
100
AcDbEntity
  8
0
100
AcDbLine
 62
7
  6
CONTINUOUS
 10
297.0
 20
0.0
 11
297.0
 21
210.0
  0
LINE
  5
219
100
AcDbEntity
  8
RUNDUNGEN
100
AcDbLine
 62
7
  6
CONTINUOUS
 10
54.75
 20
152.6406250228
 11
54.75
 21
165.6406250228
  0
LINE
  5
21A
100
AcDbEntity
  8
RUNDUNGEN
100
AcDbLine
 62
7
  6
CONTINUOUS
 10
55.7499998889
 20
151.8004926203
 11
55.7500004971
 21
166.4807149554
  0
LINE
  5
21B
100
AcDbEntity
  8
RUNDUNGEN
100
AcDbLine
 62
7
  6
CONTINUOUS
 10
67.8624944951
 20
159.31957053
 11
67.8630712849
 21
159.1411257032
  0
LINE
  5
21C
100
AcDbEntity
  8
RUNDUNGEN
100
AcDbLine
 62
7
  6
CONTINUOUS
 10
68.0214115054
 20
164.8015420321
 11
68.0214222925
 21
153.4797359499
  0
LINE
  5
21D
100
AcDbEntity
  8
RUNDUNGEN
100
AcDbLine
 62
7
  6
CONTINUOUS
 10
67.8630712855
 20
159.141125703
 11
67.8625895978
 21
158.9770518764
  0
LWPOLYLINE
  5
21E
100
AcDbEntity
  8
RUNDUNGEN
100
AcDbPolyline
 62
7
  6
CONTINUOUS
 90
11
 70
0
 10
67.8625895978
 20
158.9770518764
 10
67.8584060693
 20
158.6341955907
 10
67.850047902
 20
158.2982127079
 10
67.8377762808
 20
157.9711574781
 10
67.821825749
 20
157.6548638197
 10
67.8024500823
 20
157.3510665692
 10
67.780000042
 20
157.0612935004
 10
67.7548131127
 20
156.7870930856
 10
67.7272460066
 20
156.5297629076
 10
67.6977648346
 20
156.2906027324
 10
67.6668310291
 20
156.0706890298
  0
LINE
  5
21F
100
AcDbEntity
  8
RUNDUNGEN
100
AcDbLine
 62
7
  6
CONTINUOUS
 10
67.6668310291
 20
156.0706890298
 11
67.6485733648
 21
155.953604677
  0
LINE
  5
220
100
AcDbEntity
  8
RUNDUNGEN
100
AcDbLine
 62
7
  6
CONTINUOUS
 10
67.6485774479
 20
162.3276292131
 11
67.6657883145
 21
162.2174928673
  0
LWPOLYLINE
  5
221
100
AcDbEntity
  8
RUNDUNGEN
100
AcDbPolyline
 62
7
  6
CONTINUOUS
 90
11
 70
0
 10
67.6657883145
 20
162.2174928673
 10
67.6967399888
 20
161.998408937
 10
67.7262530288
 20
161.760083466
 10
67.7538718185
 20
161.5035907567
 10
67.7791279757
 20
161.2302382081
 10
67.8016604015
 20
160.9413198562
 10
67.8211376933
 20
160.6383758605
 10
67.8372088838
 20
160.3229352051
 10
67.8496163474
 20
159.9967327012
 10
67.8581320433
 20
159.6615946343
 10
67.8624944951
 20
159.31957053
  0
LINE
  5
222
100
AcDbEntity
  8
0
100
AcDbLine
 62
7
  6
CONTINUOUS
 10
103.75
 20
151.6406250228
 11
102.8975039373
 21
151.6406250228
  0
LINE
  5
223
100
AcDbEntity
  8
0
100
AcDbLine
 62
7
  6
CONTINUOUS
 10
55.75
 20
151.6406250228
 11
57.45
 21
151.6406250228
  0
LINE
  5
224
100
AcDbEntity
  8
0
100
AcDbLine
 62
7
  6
CONTINUOUS
 10
68.4429742566
 20
151.6406250228
 11
85.7243427628
 21
151.6406250228
  0
LINE
  5
225
100
AcDbEntity
  8
RUNDUNGEN
100
AcDbLine
 62
7
  6
CONTINUOUS
 10
55.7500061358
 20
151.6406250228
 11
102.8975039373
 21
151.6406250228
  0
LINE
  5
226
100
AcDbEntity
  8
RUNDUNGEN
100
AcDbLine
 62
7
  6
CONTINUOUS
 10
86.6902685891
 20
152.6406250228
 11
99.1092499401
 21
152.640624121
  0
LINE
  5
227
100
AcDbEntity
  8
RUNDUNGEN
100
AcDbLine
 62
7
  6
CONTINUOUS
 10
62.1040449409
 20
152.6406230738
 11
67.4581665036
 21
152.6406250228
  0
LINE
  5
228
100
AcDbEntity
  8
RUNDUNGEN
100
AcDbLine
 62
7
  6
CONTINUOUS
 10
67.6997459916
 20
155.9456250228
 11
63.8833753324
 21
155.9456250228
  0
LINE
  5
229
100
AcDbEntity
  8
0
100
AcDbLine
 62
7
  6
CONTINUOUS
 10
87.5366716013
 20
155.9456250228
 11
92.1453977111
 21
155.9456250228
  0
LINE
  5
22A
100
AcDbEntity
  8
0
100
AcDbLine
 62
7
  6
CONTINUOUS
 10
92.1453977111
 20
162.3356250228
 11
87.5366716013
 21
162.3356250228
  0
LINE
  5
22B
100
AcDbEntity
  8
RUNDUNGEN
100
AcDbLine
 62
7
  6
CONTINUOUS
 10
63.8833753324
 20
162.3356250228
 11
67.6997444978
 21
162.3356250228
  0
LINE
  5
22C
100
AcDbEntity
  8
RUNDUNGEN
100
AcDbLine
 62
7
  6
CONTINUOUS
 10
85.7430317543
 20
164.5952253645
 11
85.7430313858
 21
153.6860254393
  0
LINE
  5
22D
100
AcDbEntity
  8
RUNDUNGEN
100
AcDbLine
 62
7
  6
CONTINUOUS
 10
62.1040472031
 20
165.6406276063
 11
67.4581665036
 21
165.6406250228
  0
LINE
  5
22E
100
AcDbEntity
  8
RUNDUNGEN
100
AcDbLine
 62
7
  6
CONTINUOUS
 10
99.1092596816
 20
165.6406279238
 11
86.6902685891
 21
165.6406250228
  0
LINE
  5
22F
100
AcDbEntity
  8
0
100
AcDbLine
 62
7
  6
CONTINUOUS
 10
63.0888381325
 20
166.6406250228
 11
55.75
 21
166.6406250228
  0
LINE
  5
230
100
AcDbEntity
  8
RUNDUNGEN
100
AcDbLine
 62
7
  6
CONTINUOUS
 10
55.7500087466
 20
166.6406250228
 11
102.8975031667
 21
166.6406250228
  0
LINE
  5
231
100
AcDbEntity
  8
0
100
AcDbLine
 62
7
  6
CONTINUOUS
 10
68.4429742566
 20
166.6406250228
 11
85.7243427628
 21
166.6406250228
  0
LINE
  5
232
100
AcDbEntity
  8
0
100
AcDbLine
 62
7
  6
CONTINUOUS
 10
100.8269515621
 20
166.6406250228
 11
103.75
 21
166.6406250228
  0
LINE
  5
233
100
AcDbEntity
  8
RUNDUNGEN
100
AcDbLine
 62
7
  6
CONTINUOUS
 10
103.75
 20
166.6406250228
 11
103.75
 21
151.6406250228
  0
LINE
  5
234
100
AcDbEntity
  8
RUNDUNGEN
100
AcDbLine
 62
7
  6
CONTINUOUS
 10
104.75
 20
165.6406250228
 11
104.75
 21
152.6406250229
  0
LINE
  5
235
100
AcDbEntity
  8
RUNDUNGEN
100
AcDbLine
 62
7
  6
CONTINUOUS
 10
192.71875
 20
152.6406250228
 11
192.71875
 21
151.6406250228
  0
LINE
  5
236
100
AcDbEntity
  8
RUNDUNGEN
100
AcDbLine
 62
7
  6
CONTINUOUS
 10
192.71875
 20
165.6406250228
 11
192.7187500008
 21
166.6406250228
  0
LINE
  5
237
100
AcDbEntity
  8
RUNDUNGEN
100
AcDbLine
 62
7
  6
CONTINUOUS
 10
205.5598645984
 20
152.6406250228
 11
205.6300136256
 21
151.645662835
  0
LINE
  5
238
100
AcDbEntity
  8
RUNDUNGEN
100
AcDbLine
 62
7
  6
CONTINUOUS
 10
205.5598743284
 20
165.6406250228
 11
205.6300219606
 21
166.6356916791
  0
LINE
  5
239
100
AcDbEntity
  8
RUNDUNGEN
100
AcDbLine
 62
7
  6
CONTINUOUS
 10
205.5598645984
 20
152.6406250228
 11
205.5598645984
 21
151.6406250229
  0
LINE
  5
23A
100
AcDbEntity
  8
RUNDUNGEN
100
AcDbLine
 62
7
  6
CONTINUOUS
 10
205.5598743284
 20
165.6406250228
 11
205.5598743284
 21
166.6406250228
  0
LINE
  5
23B
100
AcDbEntity
  8
RUNDUNGEN
100
AcDbLine
 62
7
  6
CONTINUOUS
 10
206.5536973231
 20
165.5020646516
 11
206.7590774458
 21
166.480747049
  0
LINE
  5
23C
100
AcDbEntity
  8
RUNDUNGEN
100
AcDbLine
 62
7
  6
CONTINUOUS
 10
206.5536862434
 20
152.7791838696
 11
206.759060807
 21
151.800499505
  0
LINE
  5
23D
100
AcDbEntity
  8
RUNDUNGEN
100
AcDbLine
 62
7
  6
CONTINUOUS
 10
192.71875
 20
151.6406250228
 11
245.2184062887
 21
151.6406250228
  0
LINE
  5
23E
100
AcDbEntity
  8
RUNDUNGEN
100
AcDbLine
 62
7
  6
CONTINUOUS
 10
215.0276658995
 20
152.6406230738
 11
245.3923981777
 21
152.6406250228
  0
LINE
  5
23F
100
AcDbEntity
  8
RUNDUNGEN
100
AcDbLine
 62
7
  6
CONTINUOUS
 10
192.71875
 20
152.6406250228
 11
205.5598645984
 21
152.6406250228
  0
LINE
  5
240
100
AcDbEntity
  8
RUNDUNGEN
100
AcDbLine
 62
7
  6
CONTINUOUS
 10
246.7624635364
 20
155.9456250228
 11
225.11875
 21
155.9456250228
  0
LINE
  5
241
100
AcDbEntity
  8
RUNDUNGEN
100
AcDbLine
 62
7
  6
CONTINUOUS
 10
225.11875
 20
162.3356250228
 11
246.7624550643
 21
162.3356250228
  0
LINE
  5
242
100
AcDbEntity
  8
RUNDUNGEN
100
AcDbLine
 62
7
  6
CONTINUOUS
 10
205.5598843903
 20
165.6406250228
 11
192.71875
 21
165.6406250228
  0
LINE
  5
243
100
AcDbEntity
  8
RUNDUNGEN
100
AcDbLine
 62
7
  6
CONTINUOUS
 10
215.0276787289
 20
165.6406276063
 11
245.3923981777
 21
165.6406250228
  0
LINE
  5
244
100
AcDbEntity
  8
RUNDUNGEN
100
AcDbLine
 62
7
  6
CONTINUOUS
 10
192.71875
 20
166.6406250228
 11
245.2184671085
 21
166.6406250228
  0
LINE
  5
245
100
AcDbEntity
  8
RUNDUNGEN
100
AcDbLine
 62
7
  6
CONTINUOUS
 10
248.5867193167
 20
164.8015420321
 11
248.5867804932
 21
153.4797359499
  0
LINE
  5
246
100
AcDbEntity
  8
0
100
AcDbLine
 62
7
  6
CONTINUOUS
 10
72.9454981559
 20
44.953125
 11
80.9133650601
 21
44.953125
  0
LINE
  5
247
100
AcDbEntity
  8
RUNDUNGEN
100
AcDbLine
 62
7
  6
CONTINUOUS
 10
54.75
 20
85.953125
 11
54.75
 21
111.453125
  0
LINE
  5
248
100
AcDbEntity
  8
RUNDUNGEN
100
AcDbLine
 62
7
  6
CONTINUOUS
 10
55.75
 20
92.1120006716
 11
55.6969627729
 21
92.0417789103
  0
LINE
  5
249
100
AcDbEntity
  8
RUNDUNGEN
100
AcDbLine
 62
7
  6
CONTINUOUS
 10
68.4429243752
 20
52.4534078915
 11
85.7243910686
 21
52.4533052796
  0
LINE
  5
24A
100
AcDbEntity
  8
RUNDUNGEN
100
AcDbLine
 62
7
  6
CONTINUOUS
 10
55.75
 20
84.953125
 11
55.7500004971
 21
90.9126446263
  0
LINE
  5
24B
100
AcDbEntity
  8
RUNDUNGEN
100
AcDbLine
 62
7
  6
CONTINUOUS
 10
55.7500087466
 20
92.1119839476
 11
55.75
 21
112.453125
  0
LINE
  5
24C
100
AcDbEntity
  8
RUNDUNGEN
100
AcDbLine
 62
7
  6
CONTINUOUS
 10
68.4429742566
 20
52.453125
 11
67.4581665036
 21
52.2794768223
  0
LINE
  5
24D
100
AcDbEntity
  8
RUNDUNGEN
100
AcDbLine
 62
7
  6
CONTINUOUS
 10
86.6902685891
 20
52.1943059549
 11
85.7243427629
 21
52.4531250002
  0
LINE
  5
24E
100
AcDbEntity
  8
RUNDUNGEN
100
AcDbLine
 62
7
  6
CONTINUOUS
 10
62.1040472031
 20
82.6441962711
 11
68.0214115054
 21
49.0851556833
  0
LINE
  5
24F
100
AcDbEntity
  8
RUNDUNGEN
100
AcDbLine
 62
7
  6
CONTINUOUS
 10
63.0888381325
 20
82.8179373987
 11
68.4429243752
 21
52.4534078915
  0
LINE
  5
250
100
AcDbEntity
  8
RUNDUNGEN
100
AcDbLine
 62
7
  6
CONTINUOUS
 10
63.6131248174
 20
104.9528016226
 11
67.8523015067
 21
80.911235934
  0
LINE
  5
251
100
AcDbEntity
  8
RUNDUNGEN
100
AcDbLine
 62
7
  6
CONTINUOUS
 10
63.4517772406
 20
111.6266196842
 11
68.8371092597
 21
81.0848841117
  0
LINE
  5
252
100
AcDbEntity
  8
RUNDUNGEN
100
AcDbLine
 62
7
  6
CONTINUOUS
 10
73.7611480248
 20
76.953125
 11
73.7611480248
 21
75.953125
  0
LINE
  5
253
100
AcDbEntity
  8
RUNDUNGEN
100
AcDbLine
 62
7
  6
CONTINUOUS
 10
73.7611480248
 20
75.953125
 11
84.3113583159
 21
75.953125
  0
LINE
  5
254
100
AcDbEntity
  8
RUNDUNGEN
100
AcDbLine
 62
7
  6
CONTINUOUS
 10
73.7611480248
 20
76.953125
 11
84.3113583159
 21
76.953125
  0
LINE
  5
255
100
AcDbEntity
  8
RUNDUNGEN
100
AcDbLine
 62
7
  6
CONTINUOUS
 10
84.3113583159
 20
76.953125
 11
84.3113583157
 21
75.953125
  0
LINE
  5
256
100
AcDbEntity
  8
RUNDUNGEN
100
AcDbLine
 62
7
  6
CONTINUOUS
 10
68.8371092597
 20
81.0848841117
 11
67.8523015067
 21
80.911235934
  0
LINE
  5
257
100
AcDbEntity
  8
RUNDUNGEN
100
AcDbLine
 62
7
  6
CONTINUOUS
 10
89.1409874473
 20
80.6590297745
 11
90.1069132736
 21
80.4002107294
  0
LINE
  5
258
100
AcDbEntity
  8
RUNDUNGEN
100
AcDbLine
 62
7
  6
CONTINUOUS
 10
89.1409874473
 20
80.6590297745
 11
97.4615881405
 21
111.7119343109
  0
LINE
  5
259
100
AcDbEntity
  8
RUNDUNGEN
100
AcDbLine
 62
7
  6
CONTINUOUS
 10
63.0888381325
 20
82.8179373987
 11
62.1040305267
 21
82.6442908474
  0
LINE
  5
25A
100
AcDbEntity
  8
0
100
AcDbLine
 62
7
  6
CONTINUOUS
 10
57.5014124396
 20
84.953125
 11
55.75
 21
84.953125
  0
LINE
  5
25B
100
AcDbEntity
  8
RUNDUNGEN
100
AcDbLine
 62
7
  6
CONTINUOUS
 10
90.1069132736
 20
80.4002107294
 11
96.685761216
 21
104.9528055058
  0
LINE
  5
25C
100
AcDbEntity
  8
RUNDUNGEN
100
AcDbLine
 62
7
  6
CONTINUOUS
 10
98.1433224674
 20
98.8013848114
 11
85.7243910686
 21
52.4533052796
  0
LINE
  5
25D
100
AcDbEntity
  8
RUNDUNGEN
100
AcDbLine
 62
7
  6
CONTINUOUS
 10
99.1092596816
 20
98.5426116907
 11
85.7430317543
 21
48.6591699604
  0
LINE
  5
25E
100
AcDbEntity
  8
RUNDUNGEN
100
AcDbLine
 62
7
  6
CONTINUOUS
 10
54.75
 20
92.1120006716
 11
55.7500087465
 21
92.1120006716
  0
LINE
  5
25F
100
AcDbEntity
  8
RUNDUNGEN
100
AcDbLine
 62
7
  6
CONTINUOUS
 10
103.75
 20
97.453125
 11
100.3519865786
 21
97.453125
  0
LINE
  5
260
100
AcDbEntity
  8
RUNDUNGEN
100
AcDbLine
 62
7
  6
CONTINUOUS
 10
103.75
 20
112.453125
 11
103.75
 21
97.453125
  0
LINE
  5
261
100
AcDbEntity
  8
RUNDUNGEN
100
AcDbLine
 62
7
  6
CONTINUOUS
 10
104.75
 20
111.453125
 11
104.75
 21
98.453125
  0
LINE
  5
262
100
AcDbEntity
  8
RUNDUNGEN
100
AcDbLine
 62
7
  6
CONTINUOUS
 10
99.1092481624
 20
98.5425687006
 11
98.1433224674
 21
98.8013848114
  0
LINE
  5
263
100
AcDbEntity
  8
RUNDUNGEN
100
AcDbLine
 62
7
  6
CONTINUOUS
 10
102.8975031667
 20
104.953125
 11
96.685761216
 21
104.9528055058
  0
LINE
  5
264
100
AcDbEntity
  8
RUNDUNGEN
100
AcDbLine
 62
7
  6
CONTINUOUS
 10
54.75
 20
104.953125
 11
63.6131248174
 21
104.9528016226
  0
LINE
  5
265
100
AcDbEntity
  8
RUNDUNGEN
100
AcDbLine
 62
7
  6
CONTINUOUS
 10
64.5978755502
 20
105.1267731777
 11
63.6130677972
 21
104.953125
  0
LINE
  5
266
100
AcDbEntity
  8
RUNDUNGEN
100
AcDbLine
 62
7
  6
CONTINUOUS
 10
95.7199209979
 20
105.2119440451
 11
96.685846824
 21
104.9531249993
  0
LINE
  5
267
100
AcDbEntity
  8
RUNDUNGEN
100
AcDbLine
 62
7
  6
CONTINUOUS
 10
103.75
 20
112.453125
 11
102.8365704891
 21
112.453125
  0
LINE
  5
268
100
AcDbEntity
  8
0
100
AcDbLine
 62
7
  6
CONTINUOUS
 10
62.4717635543
 20
112.453125
 11
55.75
 21
112.453125
  0
LINE
  5
269
100
AcDbEntity
  8
0
100
AcDbLine
 62
7
  6
CONTINUOUS
 10
98.4208128436
 20
112.453125
 11
103.75
 21
112.453125
  0
ARC
  5
26A
100
AcDbEntity
  8
RUNDUNGEN
100
AcDbCircle
 62
7
  6
CONTINUOUS
 10
103.75
 20
165.6406250228
 40
1.0
100
AcDbArc
 50
0.0
 51
90.0
  0
ARC
  5
26B
100
AcDbEntity
  8
RUNDUNGEN
100
AcDbCircle
 62
7
  6
CONTINUOUS
 10
103.75
 20
152.6406250228
 40
1.0
100
AcDbArc
 50
270.0
 51
360.0
  0
ARC
  5
26C
100
AcDbEntity
  8
RUNDUNGEN
100
AcDbCircle
 62
7
  6
CONTINUOUS
 10
55.7485270485
 20
165.639394391
 40
0.9986040438
100
AcDbArc
 50
89.9994988597
 51
179.9293860157
  0
ARC
  5
26D
100
AcDbEntity
  8
RUNDUNGEN
100
AcDbCircle
 62
7
  6
CONTINUOUS
 10
55.7485252593
 20
152.6418544305
 40
0.9986021724
100
AcDbArc
 50
180.07054387
 51
270.0
  0
ARC
  5
26E
100
AcDbEntity
  8
RUNDUNGEN
100
AcDbCircle
 62
7
  6
CONTINUOUS
 10
55.7093264261
 20
152.7796483601
 40
0.959326539
100
AcDbArc
 50
180.0277942124
 51
189.2107427942
  0
ARC
  5
26F
100
AcDbEntity
  8
RUNDUNGEN
100
AcDbCircle
 62
7
  6
CONTINUOUS
 10
55.7093238141
 20
165.5015994011
 40
0.9593239269
100
AcDbArc
 50
170.7892202562
 51
179.9722061191
  0
ARC
  5
270
100
AcDbEntity
  8
RUNDUNGEN
100
AcDbCircle
 62
7
  6
CONTINUOUS
 10
55.7501388691
 20
152.0069163681
 40
0.3662913715
100
AcDbArc
 50
261.6528738355
 51
269.9782779178
  0
ARC
  5
271
100
AcDbEntity
  8
RUNDUNGEN
100
AcDbCircle
 62
7
  6
CONTINUOUS
 10
55.7501269907
 20
166.2744136103
 40
0.3662114346
100
AcDbArc
 50
90.0198683927
 51
98.3473298183
  0
ARC
  5
272
100
AcDbEntity
  8
RUNDUNGEN
100
AcDbCircle
 62
7
  6
CONTINUOUS
 10
204.3487767692
 20
159.1402568209
 40
12.5017395203
100
AcDbArc
 50
359.9983770302
 51
31.3293567904
  0
ARC
  5
273
100
AcDbEntity
  8
RUNDUNGEN
100
AcDbCircle
 62
7
  6
CONTINUOUS
 10
205.0723461348
 20
158.4370183985
 40
8.2186756152
100
AcDbArc
 50
78.1556423986
 51
86.1085791442
  0
ARC
  5
274
100
AcDbEntity
  8
RUNDUNGEN
100
AcDbCircle
 62
7
  6
CONTINUOUS
 10
205.0419252401
 20
158.2923041847
 40
7.3665528452
100
AcDbArc
 50
78.157557626
 51
85.9680760742
  0
ARC
  5
275
100
AcDbEntity
  8
RUNDUNGEN
100
AcDbCircle
 62
7
  6
CONTINUOUS
 10
205.5598093135
 20
152.2791725436
 40
0.6385475231
100
AcDbArc
 50
270.0049606178
 51
276.3195827549
  0
ARC
  5
276
100
AcDbEntity
  8
RUNDUNGEN
100
AcDbCircle
 62
7
  6
CONTINUOUS
 10
204.3488746388
 20
159.1409710109
 40
12.5016369442
100
AcDbArc
 50
328.6704688618
 51
359.9951038394
  0
ARC
  5
277
100
AcDbEntity
  8
RUNDUNGEN
100
AcDbCircle
 62
7
  6
CONTINUOUS
 10
205.0724481888
 20
159.8433513676
 40
8.2177915989
100
AcDbArc
 50
273.891174245
 51
281.8432172837
  0
ARC
  5
278
100
AcDbEntity
  8
RUNDUNGEN
100
AcDbCircle
 62
7
  6
CONTINUOUS
 10
205.21875
 20
159.1406250228
 40
7.5
100
AcDbArc
 50
281.851182757
 51
78.1472375354
  0
ARC
  5
279
100
AcDbEntity
  8
0
100
AcDbCircle
 62
7
  6
CONTINUOUS
 10
192.71875
 20
159.1406250228
 40
7.5
100
AcDbArc
 50
248.5853969557
 51
252.451272939
  0
ARC
  5
27A
100
AcDbEntity
  8
0
100
AcDbCircle
 62
7
  6
CONTINUOUS
 10
192.71875
 20
159.1406250228
 40
7.5
100
AcDbArc
 50
259.6054947275
 51
263.1696677596
  0
ARC
  5
27B
100
AcDbEntity
  8
RUNDUNGEN
100
AcDbCircle
 62
7
  6
CONTINUOUS
 10
192.71875
 20
159.1406250228
 40
7.5
100
AcDbArc
 50
90.0
 51
270.0
  0
ARC
  5
27C
100
AcDbEntity
  8
RUNDUNGEN
100
AcDbCircle
 62
7
  6
CONTINUOUS
 10
205.0420564687
 20
159.988037035
 40
7.3656356505
100
AcDbArc
 50
274.0312491532
 51
281.8428073401
  0
ARC
  5
27D
100
AcDbEntity
  8
RUNDUNGEN
100
AcDbCircle
 62
7
  6
CONTINUOUS
 10
192.71875
 20
159.1406250228
 40
6.5
100
AcDbArc
 50
90.0
 51
270.0
  0
ARC
  5
27E
100
AcDbEntity
  8
RUNDUNGEN
100
AcDbCircle
 62
7
  6
CONTINUOUS
 10
205.21875
 20
159.1406250228
 40
6.5
100
AcDbArc
 50
281.8514424116
 51
78.1484592463
  0
CIRCLE
  5
27F
100
AcDbEntity
  8
RUNDUNGEN
100
AcDbCircle
 62
7
  6
CONTINUOUS
 10
205.21875
 20
159.1406250228
 40
6.0
  0
CIRCLE
  5
280
100
AcDbEntity
  8
RUNDUNGEN
100
AcDbCircle
 62
7
  6
CONTINUOUS
 10
205.21875
 20
159.1406250228
 40
5.0
  0
CIRCLE
  5
281
100
AcDbEntity
  8
0
100
AcDbCircle
 62
7
  6
CONTINUOUS
 10
192.71875
 20
159.1406250228
 40
3.19
  0
ARC
  5
282
100
AcDbEntity
  8
RUNDUNGEN
100
AcDbCircle
 62
7
  6
CONTINUOUS
 10
205.5598100955
 20
166.0019979264
 40
0.6386270997
100
AcDbArc
 50
83.681343419
 51
89.9942372126
  0
ARC
  5
283
100
AcDbEntity
  8
RUNDUNGEN
100
AcDbCircle
 62
7
  6
CONTINUOUS
 10
245.3926652718
 20
159.1394553756
 40
6.4988303582
100
AcDbArc
 50
269.9976452119
 51
299.4386135941
  0
ARC
  5
284
100
AcDbEntity
  8
RUNDUNGEN
100
AcDbCircle
 62
7
  6
CONTINUOUS
 10
242.6652581273
 20
159.140415888
 40
5.1957931396
100
AcDbArc
 50
0.008229411
 51
37.948974918
  0
ARC
  5
285
100
AcDbEntity
  8
RUNDUNGEN
100
AcDbCircle
 62
7
  6
CONTINUOUS
 10
245.21875
 20
159.1406250228
 40
7.5
100
AcDbArc
 50
269.9973742396
 51
90.001377235
  0
ARC
  5
286
100
AcDbEntity
  8
RUNDUNGEN
100
AcDbCircle
 62
7
  6
CONTINUOUS
 10
245.3926639659
 20
159.1418341408
 40
6.4987908874
100
AcDbArc
 50
60.5617961139
 51
90.0023432891
  0
ARC
  5
287
100
AcDbEntity
  8
RUNDUNGEN
100
AcDbCircle
 62
7
  6
CONTINUOUS
 10
242.6651792109
 20
159.1408526693
 40
5.195872521
100
AcDbArc
 50
322.0514567173
 51
0.0034128178
  0
ARC
  5
288
100
AcDbEntity
  8
RUNDUNGEN
100
AcDbCircle
 62
7
  6
CONTINUOUS
 10
242.31875
 20
159.1406250228
 40
3.195
100
AcDbArc
 50
269.9971116187
 51
90.0033829179
  0
ARC
  5
289
100
AcDbEntity
  8
0
100
AcDbCircle
 62
7
  6
CONTINUOUS
 10
225.11875
 20
159.1406250228
 40
3.195
100
AcDbArc
 50
90.0
 51
270.0
  0
ARC
  5
28A
100
AcDbEntity
  8
RUNDUNGEN
100
AcDbCircle
 62
7
  6
CONTINUOUS
 10
73.7611480248
 20
81.953125
 40
6.0
100
AcDbArc
 50
190.0
 51
270.0
  0
ARC
  5
28B
100
AcDbEntity
  8
RUNDUNGEN
100
AcDbCircle
 62
7
  6
CONTINUOUS
 10
84.3113583159
 20
81.953125
 40
6.0
100
AcDbArc
 50
270.0
 51
345.0
  0
ARC
  5
28C
100
AcDbEntity
  8
RUNDUNGEN
100
AcDbCircle
 62
7
  6
CONTINUOUS
 10
80.9133650601
 20
49.953125
 40
5.0
100
AcDbArc
 50
270.0
 51
345.0016630803
  0
ARC
  5
28D
100
AcDbEntity
  8
RUNDUNGEN
100
AcDbCircle
 62
7
  6
CONTINUOUS
 10
72.9454981559
 20
49.953125
 40
5.0
100
AcDbArc
 50
189.9968400099
 51
270.0
  0
ARC
  5
28E
100
AcDbEntity
  8
RUNDUNGEN
100
AcDbCircle
 62
7
  6
CONTINUOUS
 10
84.3113583159
 20
81.953125
 40
5.0
100
AcDbArc
 50
269.9999999853
 51
345.0000000169
  0
ARC
  5
28F
100
AcDbEntity
  8
RUNDUNGEN
100
AcDbCircle
 62
7
  6
CONTINUOUS
 10
73.7611480248
 20
81.953125
 40
5.0
100
AcDbArc
 50
189.9999999994
 51
270.0000000006
  0
ARC
  5
290
100
AcDbEntity
  8
RUNDUNGEN
100
AcDbCircle
 62
7
  6
CONTINUOUS
 10
57.5014226105
 20
79.95312503
 40
4.9999999963
100
AcDbArc
 50
9.9999999492
 51
89.9999999912
  0
ARC
  5
291
100
AcDbEntity
  8
RUNDUNGEN
100
AcDbCircle
 62
7
  6
CONTINUOUS
 10
100.3519910891
 20
95.4531418333
 40
1.9999964561
100
AcDbArc
 50
90.0001292165
 51
165.0004992499
  0
ARC
  5
292
100
AcDbEntity
  8
RUNDUNGEN
100
AcDbCircle
 62
7
  6
CONTINUOUS
 10
55.75
 20
111.453125
 40
1.0
100
AcDbArc
 50
90.0
 51
180.0
  0
ARC
  5
293
100
AcDbEntity
  8
RUNDUNGEN
100
AcDbCircle
 62
7
  6
CONTINUOUS
 10
55.75
 20
85.953125
 40
1.0
100
AcDbArc
 50
180.0
 51
270.0
  0
ARC
  5
294
100
AcDbEntity
  8
RUNDUNGEN
100
AcDbCircle
 62
7
  6
CONTINUOUS
 10
103.75
 20
98.453125
 40
1.0
100
AcDbArc
 50
270.0
 51
360.0
  0
ARC
  5
295
100
AcDbEntity
  8
RUNDUNGEN
100
AcDbCircle
 62
7
  6
CONTINUOUS
 10
103.75
 20
111.453125
 40
1.0
100
AcDbArc
 50
0.0
 51
90.0
  0
ARC
  5
296
100
AcDbEntity
  8
RUNDUNGEN
100
AcDbCircle
 62
7
  6
CONTINUOUS
 10
62.4669464565
 20
111.4531021226
 40
1.0
100
AcDbArc
 50
10.0
 51
89.9999095413
  0
ARC
  5
297
100
AcDbEntity
  8
RUNDUNGEN
100
AcDbCircle
 62
7
  6
CONTINUOUS
 10
98.4275128435
 20
111.4531110737
 40
1.0
100
AcDbArc
 50
90.0001031529
 51
164.9999999974
  0
SPLINE
  5
298
100
AcDbEntity
  8
RUNDUNGEN
100
AcDbSpline
 62
7
  6
CONTINUOUS
 70
0
 71
3
 72
11
 73
7
 74
0
 42
0.0000001
 43
0.0000001
 44
0.0000000001
 40
0.0
 40
0.0
 40
0.0
 40
0.0
 40
0.2184837422
 40
0.4632881237
 40
0.7267657576
 40
1.0
 40
1.0
 40
1.0
 40
1.0
 10
99.1092596816
 20
165.6406279238
 30
0.0
 10
98.9929575179
 20
165.1779511935
 30
0.0
 10
98.7915441514
 20
164.1853625059
 30
0.0
 10
98.5803001374
 20
162.6116860485
 30
0.0
 10
98.4494562169
 20
160.9094032748
 30
0.0
 10
98.4201670651
 20
159.7372456493
 30
0.0
 10
98.420134926
 20
159.1406250228
 30
0.0
  0
SPLINE
  5
299
100
AcDbEntity
  8
RUNDUNGEN
100
AcDbSpline
 62
7
  6
CONTINUOUS
 70
0
 71
3
 72
19
 73
15
 74
0
 42
0.0000001
 43
0.0000001
 44
0.0000000001
 40
0.0
 40
0.0
 40
0.0
 40
0.0
 40
0.1796641455
 40
0.3521215374
 40
0.5110100924
 40
0.6512588976
 40
0.7133243181
 40
0.7696657873
 40
0.820212633
 40
0.8650728216
 40
0.9045899804
 40
0.9394319273
 40
0.9707017267
 40
1.0
 40
1.0
 40
1.0
 40
1.0
 10
100.3519865786
 20
159.1406250228
 30
0.0
 10
100.3520042571
 20
158.6391897111
 30
0.0
 10
100.3851515649
 20
157.6560940514
 30
0.0
 10
100.5325885567
 20
156.2362679596
 30
0.0
 10
100.7691471154
 20
154.9401154273
 30
0.0
 10
101.0401179908
 20
153.9668910477
 30
0.0
 10
101.2976006435
 20
153.2919518334
 30
0.0
 10
101.4968784235
 20
152.8640577395
 30
0.0
 10
101.7082685615
 20
152.4963319902
 30
0.0
 10
101.9300727373
 20
152.1909236103
 30
0.0
 10
102.1608463027
 20
151.9494745446
 30
0.0
 10
102.399755079
 20
151.773523711
 30
0.0
 10
102.64587901
 20
151.6653913914
 30
0.0
 10
102.8157336499
 20
151.6406250516
 30
0.0
 10
102.8975039373
 20
151.6406250228
 30
0.0
  0
SPLINE
  5
29A
100
AcDbEntity
  8
RUNDUNGEN
100
AcDbSpline
 62
7
  6
CONTINUOUS
 70
0
 71
3
 72
17
 73
13
 74
0
 42
0.0000001
 43
0.0000001
 44
0.0000000001
 40
0.0
 40
0.0
 40
0.0
 40
0.0
 40
0.1680821392
 40
0.3311201817
 40
0.4844562411
 40
0.624078001
 40
0.7468426263
 40
0.8506104433
 40
0.8950788671
 40
0.9346202931
 40
0.9694506635
 40
1.0
 40
1.0
 40
1.0
 40
1.0
 10
57.5014226112
 20
159.1401916129
 30
0.0
 10
57.5014262733
 20
159.572197656
 30
0.0
 10
57.4799786185
 20
160.423410873
 30
0.0
 10
57.384206926
 20
161.6654501819
 30
0.0
 10
57.2288631723
 20
162.8277899468
 30
0.0
 10
57.0198878075
 20
163.8765950979
 30
0.0
 10
56.7646741669
 20
164.7834373048
 30
0.0
 10
56.5090947753
 20
165.4336034843
 30
0.0
 10
56.2821466645
 20
165.8601251588
 30
0.0
 10
56.1141795795
 20
166.1159126977
 30
0.0
 10
55.9406343245
 20
166.3232039102
 30
0.0
 10
55.8138951863
 20
166.4350797937
 30
0.0
 10
55.7500004971
 20
166.4807149554
 30
0.0
  0
SPLINE
  5
29B
100
AcDbEntity
  8
RUNDUNGEN
100
AcDbSpline
 62
7
  6
CONTINUOUS
 70
0
 71
3
 72
17
 73
13
 74
0
 42
0.0000001
 43
0.0000001
 44
0.0000000001
 40
0.0
 40
0.0
 40
0.0
 40
0.0
 40
0.0305459265
 40
0.0653742571
 40
0.1049162636
 40
0.1493842764
 40
0.2531512121
 40
0.3759152081
 40
0.5155474345
 40
0.668897168
 40
0.8319343237
 40
1.0
 40
1.0
 40
1.0
 40
1.0
 10
55.7499998889
 20
151.8004926203
 30
0.0
 10
55.8138878945
 20
151.8461073816
 30
0.0
 10
55.9405760527
 20
151.9579959256
 30
0.0
 10
56.1141006126
 20
152.1652434765
 30
0.0
 10
56.2820697343
 20
152.4209860573
 30
0.0
 10
56.5090005974
 20
152.8474551566
 30
0.0
 10
56.7645874849
 20
153.4975310154
 30
0.0
 10
57.0198020507
 20
154.4042915217
 30
0.0
 10
57.2287940071
 20
155.4530364269
 30
0.0
 10
57.3841435226
 20
156.6153075022
 30
0.0
 10
57.4799331476
 20
157.8571995317
 30
0.0
 10
57.501415685
 20
158.7082748156
 30
0.0
 10
57.5014226112
 20
159.1401916129
 30
0.0
  0
SPLINE
  5
29C
100
AcDbEntity
  8
RUNDUNGEN
100
AcDbSpline
 62
7
  6
CONTINUOUS
 70
0
 71
3
 72
11
 73
7
 74
0
 42
0.0000001
 43
0.0000001
 44
0.0000000001
 40
0.0
 40
0.0
 40
0.0
 40
0.0
 40
0.2732036169
 40
0.5366877534
 40
0.7815128151
 40
1.0
 40
1.0
 40
1.0
 40
1.0
 10
98.420134926
 20
159.1406250228
 30
0.0
 10
98.4201623813
 20
158.5440716778
 30
0.0
 10
98.4494618299
 20
157.3719681521
 30
0.0
 10
98.5802782182
 20
155.6696914991
 30
0.0
 10
98.7915496088
 20
154.0959531584
 30
0.0
 10
98.9929396733
 20
153.103306228
 30
0.0
 10
99.1092499401
 20
152.640624121
 30
0.0
  0
SPLINE
  5
29D
100
AcDbEntity
  8
RUNDUNGEN
100
AcDbSpline
 62
7
  6
CONTINUOUS
 70
0
 71
3
 72
19
 73
15
 74
0
 42
0.0000001
 43
0.0000001
 44
0.0000000001
 40
0.0
 40
0.0
 40
0.0
 40
0.0
 40
0.0293182772
 40
0.0605863426
 40
0.0954288756
 40
0.1349459224
 40
0.1798064456
 40
0.2303548715
 40
0.2867006065
 40
0.3487720332
 40
0.4890270422
 40
0.6478962771
 40
0.8203406824
 40
1.0
 40
1.0
 40
1.0
 40
1.0
 10
102.8976805905
 20
166.6406250228
 30
0.0
 10
102.81585276
 20
166.640633192
 30
0.0
 10
102.6459355324
 20
166.6158931733
 30
0.0
 10
102.3997621881
 20
166.5077230497
 30
0.0
 10
102.1608455508
 20
166.3317807641
 30
0.0
 10
101.9300696288
 20
166.0903196193
 30
0.0
 10
101.7082566897
 20
165.7849023467
 30
0.0
 10
101.4968559213
 20
165.4171521374
 30
0.0
 10
101.2975635601
 20
164.9892175361
 30
0.0
 10
101.0400651565
 20
164.3142185926
 30
0.0
 10
100.7691241502
 20
163.3409845034
 30
0.0
 10
100.53257369
 20
162.0448775805
 30
0.0
 10
100.3851546652
 20
160.6251234464
 30
0.0
 10
100.3520073059
 20
159.6420573598
 30
0.0
 10
100.3519865786
 20
159.1406250228
 30
0.0
  0
SPLINE
  5
29E
100
AcDbEntity
  8
RUNDUNGEN
100
AcDbSpline
 62
7
  6
CONTINUOUS
 70
0
 71
3
 72
13
 73
9
 74
0
 42
0.0000001
 43
0.0000001
 44
0.0000000001
 40
0.0
 40
0.0
 40
0.0
 40
0.0
 40
0.3393912925
 40
0.6115727431
 40
0.7246787124
 40
0.8248059958
 40
0.9151123867
 40
1.0
 40
1.0
 40
1.0
 40
1.0
 10
85.7430313858
 20
153.6860254393
 30
0.0
 10
85.8070589131
 20
153.5311709194
 30
0.0
 10
85.9360975838
 20
153.2574653078
 30
0.0
 10
86.1387054166
 20
152.9589488989
 30
0.0
 10
86.3108425057
 20
152.7909762246
 30
0.0
 10
86.4348251725
 20
152.7051816725
 30
0.0
 10
86.5614836521
 20
152.6526535327
 30
0.0
 10
86.648356637
 20
152.6406339852
 30
0.0
 10
86.6902685891
 20
152.6406250228
 30
0.0
  0
SPLINE
  5
29F
100
AcDbEntity
  8
RUNDUNGEN
100
AcDbSpline
 62
7
  6
CONTINUOUS
 70
0
 71
3
 72
13
 73
9
 74
0
 42
0.0000001
 43
0.0000001
 44
0.0000000001
 40
0.0
 40
0.0
 40
0.0
 40
0.0
 40
0.0705184044
 40
0.1493412674
 40
0.2424014851
 40
0.3532543317
 40
0.634841438
 40
1.0
 40
1.0
 40
1.0
 40
1.0
 10
67.4581665036
 20
165.6406250228
 30
0.0
 10
67.4830440014
 20
165.6406136614
 30
0.0
 10
67.536049837
 20
165.6302994761
 30
0.0
 10
67.6110550863
 20
165.5870371553
 30
0.0
 10
67.6838672572
 20
165.5179292258
 30
0.0
 10
67.787078537
 20
165.3805738065
 30
0.0
 10
67.906910032
 20
165.1398006576
 30
0.0
 10
67.9829856063
 20
164.9244982461
 30
0.0
 10
68.0214115054
 20
164.8015420321
 30
0.0
  0
SPLINE
  5
2A0
100
AcDbEntity
  8
RUNDUNGEN
100
AcDbSpline
 62
7
  6
CONTINUOUS
 70
0
 71
3
 72
13
 73
9
 74
0
 42
0.0000001
 43
0.0000001
 44
0.0000000001
 40
0.0
 40
0.0
 40
0.0
 40
0.0
 40
0.0705182944
 40
0.1493396724
 40
0.242398516
 40
0.3532522933
 40
0.6348433683
 40
1.0
 40
1.0
 40
1.0
 40
1.0
 10
67.4581665036
 20
152.6406250228
 30
0.0
 10
67.4830446577
 20
152.6406386756
 30
0.0
 10
67.5360504933
 20
152.650953901
 30
0.0
 10
67.6110583934
 20
152.6942144041
 30
0.0
 10
67.6838725651
 20
152.7633236766
 30
0.0
 10
67.7870849831
 20
152.9006858635
 30
0.0
 10
67.9069170119
 20
153.1414681141
 30
0.0
 10
67.9829950792
 20
153.3567770827
 30
0.0
 10
68.0214222925
 20
153.4797359499
 30
0.0
  0
SPLINE
  5
2A1
100
AcDbEntity
  8
RUNDUNGEN
100
AcDbSpline
 62
7
  6
CONTINUOUS
 70
0
 71
3
 72
9
 73
5
 74
0
 42
0.0000001
 43
0.0000001
 44
0.0000000001
 40
0.0
 40
0.0
 40
0.0
 40
0.0
 40
0.4807937849
 40
1.0
 40
1.0
 40
1.0
 40
1.0
 10
62.1040449409
 20
152.6406230738
 30
0.0
 10
62.2153834244
 20
153.6778977062
 30
0.0
 10
62.3744836109
 20
155.8432357685
 30
0.0
 10
62.4254519215
 20
158.0133219616
 30
0.0
 10
62.4254613763
 20
159.1399026947
 30
0.0
  0
SPLINE
  5
2A2
100
AcDbEntity
  8
RUNDUNGEN
100
AcDbSpline
 62
7
  6
CONTINUOUS
 70
0
 71
3
 72
9
 73
5
 74
0
 42
0.0000001
 43
0.0000001
 44
0.0000000001
 40
0.0
 40
0.0
 40
0.0
 40
0.0
 40
0.519226392
 40
1.0
 40
1.0
 40
1.0
 40
1.0
 10
62.4254613763
 20
159.1399026947
 30
0.0
 10
62.4254563983
 20
160.2667772452
 30
0.0
 10
62.3745353191
 20
162.4373462561
 30
0.0
 10
62.2154037585
 20
164.6031660956
 30
0.0
 10
62.1040472031
 20
165.6406276063
 30
0.0
  0
SPLINE
  5
2A3
100
AcDbEntity
  8
RUNDUNGEN
100
AcDbSpline
 62
7
  6
CONTINUOUS
 70
0
 71
3
 72
10
 73
6
 74
0
 42
0.0000001
 43
0.0000001
 44
0.0000000001
 40
0.0
 40
0.0
 40
0.0
 40
0.0
 40
0.5284316167
 40
0.7746339897
 40
1.0
 40
1.0
 40
1.0
 40
1.0
 10
67.8934556934
 20
159.1411621606
 30
0.0
 10
67.8934657911
 20
158.5769030709
 30
0.0
 10
67.8705062121
 20
157.7493811625
 30
0.0
 10
67.7892538155
 20
156.6845416596
 30
0.0
 10
67.7325284462
 20
156.1840273824
 30
0.0
 10
67.6997459916
 20
155.9456250228
 30
0.0
  0
SPLINE
  5
2A4
100
AcDbEntity
  8
RUNDUNGEN
100
AcDbSpline
 62
7
  6
CONTINUOUS
 70
0
 71
3
 72
10
 73
6
 74
0
 42
0.0000001
 43
0.0000001
 44
0.0000000001
 40
0.0
 40
0.0
 40
0.0
 40
0.0
 40
0.2253655816
 40
0.4715644998
 40
1.0
 40
1.0
 40
1.0
 40
1.0
 10
67.6997444978
 20
162.3356250228
 30
0.0
 10
67.7325162662
 20
162.0973030804
 30
0.0
 10
67.7892278144
 20
161.5969614373
 30
0.0
 10
67.8704702542
 20
160.5324802119
 30
0.0
 10
67.8934454163
 20
159.7052362534
 30
0.0
 10
67.8934556934
 20
159.1411621606
 30
0.0
  0
SPLINE
  5
2A5
100
AcDbEntity
  8
RUNDUNGEN
100
AcDbSpline
 62
7
  6
CONTINUOUS
 70
0
 71
3
 72
13
 73
9
 74
0
 42
0.0000001
 43
0.0000001
 44
0.0000000001
 40
0.0
 40
0.0
 40
0.0
 40
0.0
 40
0.0848876131
 40
0.1751942766
 40
0.2753215916
 40
0.3884273528
 40
0.6606086913
 40
1.0
 40
1.0
 40
1.0
 40
1.0
 10
86.6902685891
 20
165.6406250228
 30
0.0
 10
86.6483566621
 20
165.640616718
 30
0.0
 10
86.5614834181
 20
165.6285970018
 30
0.0
 10
86.4348254106
 20
165.5760677356
 30
0.0
 10
86.3108426572
 20
165.4902735137
 30
0.0
 10
86.1387053628
 20
165.3223013956
 30
0.0
 10
85.9360979658
 20
165.0237851166
 30
0.0
 10
85.8070590039
 20
164.7500798992
 30
0.0
 10
85.7430317543
 20
164.5952253645
 30
0.0
  0
LINE
  5
2A6
100
AcDbEntity
  8
RUNDUNGEN
100
AcDbLine
 62
7
  6
CONTINUOUS
 10
55.6969728593
 20
166.6367454615
 11
55.7498970151
 21
166.6356503824
  0
SPLINE
  5
2A7
100
AcDbEntity
  8
RUNDUNGEN
100
AcDbSpline
 62
7
  6
CONTINUOUS
 70
0
 71
3
 72
17
 73
13
 74
0
 42
0.0000001
 43
0.0000001
 44
0.0000000001
 40
0.0
 40
0.0
 40
0.0
 40
0.0
 40
0.1548715056
 40
0.3078644194
 40
0.457052906
 40
0.5995714745
 40
0.731326532
 40
0.8467868143
 40
0.8962769486
 40
0.9389796098
 40
0.973878287
 40
1.0
 40
1.0
 40
1.0
 40
1.0
 10
55.7498970151
 20
166.6356503824
 30
0.0
 10
56.0828528669
 20
166.6283339808
 30
0.0
 10
56.7444718857
 20
166.5977460304
 30
0.0
 10
57.7235097851
 20
166.5082508144
 30
0.0
 10
58.6719718144
 20
166.3846812266
 30
0.0
 10
59.5710032153
 20
166.2391520456
 30
0.0
 10
60.3947525135
 20
166.0844799429
 30
0.0
 10
61.019029621
 20
165.9521580108
 30
0.0
 10
61.453254853
 20
165.847980747
 30
0.0
 10
61.7174574198
 20
165.7777341836
 30
0.0
 10
61.9305705514
 20
165.7120150614
 30
0.0
 10
62.0535666236
 20
165.6652547751
 30
0.0
 10
62.1040474933
 20
165.6406173961
 30
0.0
  0
SPLINE
  5
2A8
100
AcDbEntity
  8
RUNDUNGEN
100
AcDbSpline
 62
7
  6
CONTINUOUS
 70
0
 71
3
 72
9
 73
5
 74
0
 42
0.0000001
 43
0.0000001
 44
0.0000000001
 40
0.0
 40
0.0
 40
0.0
 40
0.0
 40
0.5831901314
 40
1.0
 40
1.0
 40
1.0
 40
1.0
 10
55.7500093053
 20
166.4807083618
 30
0.0
 10
55.7438771929
 20
166.5080662663
 30
0.0
 10
55.7322172917
 20
166.5546901609
 30
0.0
 10
55.7163628934
 20
166.6003328263
 30
0.0
 10
55.7075378164
 20
166.6183228434
 30
0.0
  0
SPLINE
  5
2A9
100
AcDbEntity
  8
RUNDUNGEN
100
AcDbSpline
 62
7
  6
CONTINUOUS
 70
0
 71
3
 72
9
 73
5
 74
0
 42
0.0000001
 43
0.0000001
 44
0.0000000001
 40
0.0
 40
0.0
 40
0.0
 40
0.0
 40
0.2738707258
 40
1.0
 40
1.0
 40
1.0
 40
1.0
 10
55.7075378164
 20
166.6183228434
 30
0.0
 10
55.7066835658
 20
166.6200642429
 30
0.0
 10
55.7034756846
 20
166.6263770526
 30
0.0
 10
55.6998932473
 20
166.6325124274
 30
0.0
 10
55.6969728593
 20
166.6367454615
 30
0.0
  0
LINE
  5
2AA
100
AcDbEntity
  8
RUNDUNGEN
100
AcDbLine
 62
7
  6
CONTINUOUS
 10
55.6969732294
 20
151.6445038822
 11
55.7498904188
 21
151.6455990556
  0
SPLINE
  5
2AB
100
AcDbEntity
  8
RUNDUNGEN
100
AcDbSpline
 62
7
  6
CONTINUOUS
 70
0
 71
3
 72
17
 73
13
 74
0
 42
0.0000001
 43
0.0000001
 44
0.0000000001
 40
0.0
 40
0.0
 40
0.0
 40
0.0
 40
0.154870797
 40
0.307865318
 40
0.4570526777
 40
0.5995716172
 40
0.7313265457
 40
0.8467870109
 40
0.8962770659
 40
0.938980178
 40
0.9738784635
 40
1.0
 40
1.0
 40
1.0
 40
1.0
 10
55.7498904188
 20
151.6455990556
 30
0.0
 10
56.0828447144
 20
151.6529169423
 30
0.0
 10
56.744465216
 20
151.6835100357
 30
0.0
 10
57.7235040214
 20
151.772991004
 30
0.0
 10
58.6719662477
 20
151.896574134
 30
0.0
 10
59.5709968255
 20
152.0420949943
 30
0.0
 10
60.394747689
 20
152.196765668
 30
0.0
 10
61.0190223463
 20
152.3290963426
 30
0.0
 10
61.4532524785
 20
152.4332603598
 30
0.0
 10
61.7174482163
 20
152.5035304704
 30
0.0
 10
61.9305717109
 20
152.569214827
 30
0.0
 10
62.0535629677
 20
152.6159877138
 30
0.0
 10
62.1040393605
 20
152.6406333985
 30
0.0
  0
SPLINE
  5
2AC
100
AcDbEntity
  8
RUNDUNGEN
100
AcDbSpline
 62
7
  6
CONTINUOUS
 70
0
 71
3
 72
9
 73
5
 74
0
 42
0.0000001
 43
0.0000001
 44
0.0000000001
 40
0.0
 40
0.0
 40
0.0
 40
0.0
 40
0.1997447145
 40
1.0
 40
1.0
 40
1.0
 40
1.0
 10
55.6969732294
 20
151.6445038822
 30
0.0
 10
55.6993327721
 20
151.6479235515
 30
0.0
 10
55.7100572103
 20
151.665790832
 30
0.0
 10
55.7175667303
 20
151.6853638009
 30
0.0
 10
55.7229816877
 20
151.7011037712
 30
0.0
  0
SPLINE
  5
2AD
100
AcDbEntity
  8
RUNDUNGEN
100
AcDbSpline
 62
7
  6
CONTINUOUS
 70
0
 71
3
 72
9
 73
5
 74
0
 42
0.0000001
 43
0.0000001
 44
0.0000000001
 40
0.0
 40
0.0
 40
0.0
 40
0.0
 40
0.2305592439
 40
1.0
 40
1.0
 40
1.0
 40
1.0
 10
55.7229816877
 20
151.7011037712
 30
0.0
 10
55.724132297
 20
151.7044483139
 30
0.0
 10
55.7289726522
 20
151.7190061836
 30
0.0
 10
55.7332717159
 20
151.7337402978
 30
0.0
 10
55.7363752769
 20
151.7451287036
 30
0.0
  0
SPLINE
  5
2AE
100
AcDbEntity
  8
RUNDUNGEN
100
AcDbSpline
 62
7
  6
CONTINUOUS
 70
0
 71
3
 72
9
 73
5
 74
0
 42
0.0000001
 43
0.0000001
 44
0.0000000001
 40
0.0
 40
0.0
 40
0.0
 40
0.0
 40
0.2334107054
 40
1.0
 40
1.0
 40
1.0
 40
1.0
 10
55.7363752769
 20
151.7451287036
 30
0.0
 10
55.7375417021
 20
151.7494088592
 30
0.0
 10
55.7424111866
 20
151.7677811177
 30
0.0
 10
55.746811865
 20
151.7862757365
 30
0.0
 10
55.7499980163
 20
151.8004930305
 30
0.0
  0
SPLINE
  5
2AF
100
AcDbEntity
  8
RUNDUNGEN
100
AcDbSpline
 62
7
  6
CONTINUOUS
 70
0
 71
3
 72
15
 73
11
 74
0
 42
0.0000001
 43
0.0000001
 44
0.0000000001
 40
0.0
 40
0.0
 40
0.0
 40
0.0
 40
0.0395927901
 40
0.08430998
 40
0.1870215517
 40
0.3041513812
 40
0.4321123478
 40
0.5679129821
 40
0.7091178381
 40
1.0
 40
1.0
 40
1.0
 40
1.0
 10
85.7430317522
 20
164.5952298366
 30
0.0
 10
85.6988018611
 20
164.5096289832
 30
0.0
 10
85.5955694865
 20
164.3320157923
 30
0.0
 10
85.3423272292
 20
163.9536425425
 30
0.0
 10
84.9479844395
 20
163.4439436341
 30
0.0
 10
84.3990294256
 20
162.7995758639
 30
0.0
 10
83.7772680436
 20
162.111958711
 30
0.0
 10
83.1028356631
 20
161.3933205964
 30
0.0
 10
82.1454010105
 20
160.3966699956
 30
0.0
 10
81.4088950308
 20
159.6461478459
 30
0.0
 10
80.9133650601
 20
159.1406250228
 30
0.0
  0
SPLINE
  5
2B0
100
AcDbEntity
  8
RUNDUNGEN
100
AcDbSpline
 62
7
  6
CONTINUOUS
 70
0
 71
3
 72
15
 73
11
 74
0
 42
0.0000001
 43
0.0000001
 44
0.0000000001
 40
0.0
 40
0.0
 40
0.0
 40
0.0
 40
0.2908671543
 40
0.4320737552
 40
0.5678778951
 40
0.6958419943
 40
0.8129740751
 40
0.9156881818
 40
0.9604067013
 40
1.0
 40
1.0
 40
1.0
 40
1.0
 10
80.9133650601
 20
159.1406250228
 30
0.0
 10
81.4088798849
 20
158.6351386004
 30
0.0
 10
82.1453501986
 20
157.8846268357
 30
0.0
 10
83.1027712213
 20
156.8879963457
 30
0.0
 10
83.7772192789
 20
156.1693450688
 30
0.0
 10
84.3989958035
 20
155.4817126251
 30
0.0
 10
84.9479661442
 20
154.8373326272
 30
0.0
 10
85.3423166847
 20
154.327620997
 30
0.0
 10
85.595566274
 20
153.9492399405
 30
0.0
 10
85.6988011918
 20
153.7716230267
 30
0.0
 10
85.7430313839
 20
153.6860209469
 30
0.0
  0
SPLINE
  5
2B1
100
AcDbEntity
  8
RUNDUNGEN
100
AcDbSpline
 62
7
  6
CONTINUOUS
 70
0
 71
3
 72
11
 73
7
 74
0
 42
0.0000001
 43
0.0000001
 44
0.0000000001
 40
0.0
 40
0.0
 40
0.0
 40
0.0
 40
0.2477101266
 40
0.496836802
 40
0.7477927309
 40
1.0
 40
1.0
 40
1.0
 40
1.0
 10
54.7623692494
 20
165.6551554146
 30
0.0
 10
54.7807554457
 20
165.7687031311
 30
0.0
 10
54.8597283219
 20
165.9917667104
 30
0.0
 10
55.0881267331
 20
166.2627096818
 30
0.0
 10
55.3972143242
 20
166.4398732641
 30
0.0
 10
55.6328850311
 20
166.4807470271
 30
0.0
 10
55.75
 20
166.480747049
 30
0.0
  0
SPLINE
  5
2B2
100
AcDbEntity
  8
RUNDUNGEN
100
AcDbSpline
 62
7
  6
CONTINUOUS
 70
0
 71
3
 72
15
 73
11
 74
0
 42
0.0000001
 43
0.0000001
 44
0.0000000001
 40
0.0
 40
0.0
 40
0.0
 40
0.0
 40
0.0416695545
 40
0.0893743562
 40
0.1986284137
 40
0.3207198379
 40
0.4507175887
 40
0.5853659697
 40
0.7225897006
 40
1.0
 40
1.0
 40
1.0
 40
1.0
 10
99.1092511612
 20
152.6406190063
 30
0.0
 10
99.152755586
 20
152.6068238061
 30
0.0
 10
99.250904491
 20
152.5405916133
 30
0.0
 10
99.4793377109
 20
152.4108338435
 30
0.0
 10
99.8146827674
 20
152.2556939203
 30
0.0
 10
100.2613357523
 20
152.0855511693
 30
0.0
 10
100.7498317026
 20
151.9334940852
 30
0.0
 10
101.2662577438
 20
151.8070942076
 30
0.0
 10
101.9816217273
 20
151.6803426112
 30
0.0
 10
102.5307580761
 20
151.64062512
 30
0.0
 10
102.8975039373
 20
151.6406266287
 30
0.0
  0
SPLINE
  5
2B3
100
AcDbEntity
  8
RUNDUNGEN
100
AcDbSpline
 62
7
  6
CONTINUOUS
 70
0
 71
3
 72
15
 73
11
 74
0
 42
0.0000001
 43
0.0000001
 44
0.0000000001
 40
0.0
 40
0.0
 40
0.0
 40
0.0
 40
0.2774074412
 40
0.4146311545
 40
0.549279485
 40
0.6792773736
 40
0.8013698215
 40
0.9106253049
 40
0.9583306843
 40
1.0
 40
1.0
 40
1.0
 40
1.0
 10
102.8978383593
 20
166.6406246199
 30
0.0
 10
102.5310670504
 20
166.6406420283
 30
0.0
 10
101.9818892344
 20
166.6009400256
 30
0.0
 10
101.2664674946
 20
166.4742038005
 30
0.0
 10
100.7499984887
 20
166.3478004729
 30
0.0
 10
100.2614585057
 20
166.1957432023
 30
0.0
 10
99.8147631391
 20
166.0255943846
 30
0.0
 10
99.4793884226
 20
165.8704386581
 30
0.0
 10
99.2509321331
 20
165.7406754716
 30
0.0
 10
99.1527706504
 20
165.6744433789
 30
0.0
 10
99.1092650296
 20
165.640643077
 30
0.0
  0
SPLINE
  5
2B4
100
AcDbEntity
  8
RUNDUNGEN
100
AcDbSpline
 62
7
  6
CONTINUOUS
 70
0
 71
3
 72
11
 73
7
 74
0
 42
0.0000001
 43
0.0000001
 44
0.0000000001
 40
0.0
 40
0.0
 40
0.0
 40
0.0
 40
0.2477102817
 40
0.4968370016
 40
0.7477928605
 40
1.0
 40
1.0
 40
1.0
 40
1.0
 10
54.7623691841
 20
152.6260925392
 30
0.0
 10
54.7807553345
 20
152.5125446448
 30
0.0
 10
54.8597281155
 20
152.2894807299
 30
0.0
 10
55.0881264992
 20
152.0185372629
 30
0.0
 10
55.397214172
 20
151.8413733402
 30
0.0
 10
55.6328849933
 20
151.8004995131
 30
0.0
 10
55.75
 20
151.800499505
 30
0.0
  0
SPLINE
  5
2B5
100
AcDbEntity
  8
RUNDUNGEN
100
AcDbSpline
 62
7
  6
CONTINUOUS
 70
0
 71
3
 72
16
 73
12
 74
0
 42
0.0000001
 43
0.0000001
 44
0.0000000001
 40
0.0
 40
0.0
 40
0.0
 40
0.0
 40
0.0357137823
 40
0.0772862631
 40
0.1242542312
 40
0.1760656232
 40
0.2919015678
 40
0.4204866156
 40
0.5582357937
 40
0.702257179
 40
1.0
 40
1.0
 40
1.0
 40
1.0
 10
68.0214115129
 20
164.801556456
 30
0.0
 10
68.0540111442
 20
164.718082415
 30
0.0
 10
68.1385349555
 20
164.5429302958
 30
0.0
 10
68.2989769286
 20
164.2753654707
 30
0.0
 10
68.4985465113
 20
163.9849775374
 30
0.0
 10
68.8228070977
 20
163.5548906301
 30
0.0
 10
69.298616148
 20
162.9833630427
 30
0.0
 10
69.9374715589
 20
162.2681118409
 30
0.0
 10
70.6399664189
 20
161.5152139211
 30
0.0
 10
71.646088689
 20
160.4653238228
 30
0.0
 10
72.4224853961
 20
159.6741242966
 30
0.0
 10
72.9454981559
 20
159.1406250228
 30
0.0
  0
SPLINE
  5
2B6
100
AcDbEntity
  8
RUNDUNGEN
100
AcDbSpline
 62
7
  6
CONTINUOUS
 70
0
 71
3
 72
14
 73
10
 74
0
 42
0.0000001
 43
0.0000001
 44
0.0000000001
 40
0.0
 40
0.0
 40
0.0
 40
0.0
 40
0.0641384632
 40
0.138129373
 40
0.2284783697
 40
0.3386939885
 40
0.4704940876
 40
0.6246800628
 40
1.0
 40
1.0
 40
1.0
 40
1.0
 10
68.4429745531
 20
151.6406250465
 30
0.0
 10
68.4679943292
 20
151.6406363479
 30
0.0
 10
68.5222144191
 20
151.6530660783
 30
0.0
 10
68.5971400824
 20
151.7036357362
 30
0.0
 10
68.6695548707
 20
151.7834223051
 30
0.0
 10
68.7404551137
 20
151.8924059253
 30
0.0
 10
68.8101830624
 20
152.0305792263
 30
0.0
 10
68.907767041
 20
152.2695757745
 30
0.0
 10
68.9679955256
 20
152.4676228594
 30
0.0
 10
69.0062671438
 20
152.6089407896
 30
0.0
  0
SPLINE
  5
2B7
100
AcDbEntity
  8
RUNDUNGEN
100
AcDbSpline
 62
7
  6
CONTINUOUS
 70
0
 71
3
 72
16
 73
12
 74
0
 42
0.0000001
 43
0.0000001
 44
0.0000000001
 40
0.0
 40
0.0
 40
0.0
 40
0.0
 40
0.0357135547
 40
0.0772871389
 40
0.1242557133
 40
0.1760675579
 40
0.2919044455
 40
0.4204899782
 40
0.5582397196
 40
0.7022618171
 40
1.0
 40
1.0
 40
1.0
 40
1.0
 10
68.021422297
 20
153.4797247701
 30
0.0
 10
68.0540225403
 20
153.5631975351
 30
0.0
 10
68.1385505712
 20
153.73834914
 30
0.0
 10
68.2989965713
 20
154.0059141847
 30
0.0
 10
68.498571241
 20
154.2963033483
 30
0.0
 10
68.8228368788
 20
154.7263897114
 30
0.0
 10
69.2986465657
 20
155.2979185499
 30
0.0
 10
69.9375031443
 20
156.0131697725
 30
0.0
 10
70.6399970495
 20
156.7660684114
 30
0.0
 10
71.6461116956
 20
157.8159452421
 30
0.0
 10
72.4224926152
 20
158.6071395822
 30
0.0
 10
72.9454981559
 20
159.1406250228
 30
0.0
  0
SPLINE
  5
2B8
100
AcDbEntity
  8
RUNDUNGEN
100
AcDbSpline
 62
7
  6
CONTINUOUS
 70
0
 71
3
 72
14
 73
10
 74
0
 42
0.0000001
 43
0.0000001
 44
0.0000000001
 40
0.0
 40
0.0
 40
0.0
 40
0.0
 40
0.0783486297
 40
0.1633595771
 40
0.2601764338
 40
0.3721871745
 40
0.5014101887
 40
0.6489318196
 40
1.0
 40
1.0
 40
1.0
 40
1.0
 10
85.7243425817
 20
166.6406250163
 30
0.0
 10
85.6822721859
 20
166.640618469
 30
0.0
 10
85.5940904357
 20
166.6263579735
 30
0.0
 10
85.4669812017
 20
166.5649129535
 30
0.0
 10
85.3432050094
 20
166.4654394969
 30
0.0
 10
85.222416684
 20
166.3291142229
 30
0.0
 10
85.1044534238
 20
166.1563842329
 30
0.0
 10
84.9418269986
 20
165.8606808955
 30
0.0
 10
84.840656673
 20
165.6117679759
 30
0.0
 10
84.7770683653
 20
165.4343055313
 30
0.0
  0
SPLINE
  5
2B9
100
AcDbEntity
  8
RUNDUNGEN
100
AcDbSpline
 62
7
  6
CONTINUOUS
 70
0
 71
3
 72
14
 73
10
 74
0
 42
0.0000001
 43
0.0000001
 44
0.0000000001
 40
0.0
 40
0.0
 40
0.0
 40
0.0
 40
0.0641375695
 40
0.1381291993
 40
0.2284794148
 40
0.3386952011
 40
0.470494753
 40
0.6246800949
 40
1.0
 40
1.0
 40
1.0
 40
1.0
 10
68.4429744992
 20
166.6406250068
 30
0.0
 10
68.4679939506
 20
166.6406156995
 30
0.0
 10
68.5222149202
 20
166.6281868866
 30
0.0
 10
68.5971398966
 20
166.5776152949
 30
0.0
 10
68.6695545904
 20
166.497827564
 30
0.0
 10
68.7404551669
 20
166.388843633
 30
0.0
 10
68.8101832156
 20
166.2506706665
 30
0.0
 10
68.9077674467
 20
166.0116744717
 30
0.0
 10
68.9679958184
 20
165.8136273931
 30
0.0
 10
69.0062671438
 20
165.6723092561
 30
0.0
  0
SPLINE
  5
2BA
100
AcDbEntity
  8
RUNDUNGEN
100
AcDbSpline
 62
7
  6
CONTINUOUS
 70
0
 71
3
 72
15
 73
11
 74
0
 42
0.0000001
 43
0.0000001
 44
0.0000000001
 40
0.0
 40
0.0
 40
0.0
 40
0.0
 40
0.0429369288
 40
0.0903943509
 40
0.1967514473
 40
0.3153245098
 40
0.4429607386
 40
0.5771127492
 40
0.7157404636
 40
1.0
 40
1.0
 40
1.0
 40
1.0
 10
84.7770683653
 20
165.4343055313
 30
0.0
 10
84.7413564317
 20
165.3346410732
 30
0.0
 10
84.6579623668
 20
165.1277478284
 30
0.0
 10
84.4533144984
 20
164.6877550377
 30
0.0
 10
84.1353148625
 20
164.0956641592
 30
0.0
 10
83.6926475172
 20
163.3473874084
 30
0.0
 10
83.1941133655
 20
162.5529101513
 30
0.0
 10
82.6554361267
 20
161.7254791327
 30
0.0
 10
81.8938067424
 20
160.5824815043
 30
0.0
 10
81.3075183351
 20
159.7201949016
 30
0.0
 10
80.9133650601
 20
159.1406250228
 30
0.0
  0
SPLINE
  5
2BB
100
AcDbEntity
  8
RUNDUNGEN
100
AcDbSpline
 62
7
  6
CONTINUOUS
 70
0
 71
3
 72
15
 73
11
 74
0
 42
0.0000001
 43
0.0000001
 44
0.0000000001
 40
0.0
 40
0.0
 40
0.0
 40
0.0
 40
0.2842469369
 40
0.4228759352
 40
0.5570309427
 40
0.6846698225
 40
0.80324476
 40
0.9096040205
 40
0.9570626763
 40
1.0
 40
1.0
 40
1.0
 40
1.0
 10
80.9133650601
 20
159.1406250228
 30
0.0
 10
81.3074941237
 20
158.5610762427
 30
0.0
 10
81.8937758956
 20
157.6988188636
 30
0.0
 10
82.6553925989
 20
156.5558373892
 30
0.0
 10
83.1940788494
 20
155.7283918507
 30
0.0
 10
83.6926253745
 20
154.9339004819
 30
0.0
 10
84.1353032329
 20
154.1856107009
 30
0.0
 10
84.453307601
 20
153.5935076254
 30
0.0
 10
84.657960495
 20
153.1535068562
 30
0.0
 10
84.7413560286
 20
152.9466098633
 30
0.0
 10
84.7770683653
 20
152.8469445144
 30
0.0
  0
SPLINE
  5
2BC
100
AcDbEntity
  8
RUNDUNGEN
100
AcDbSpline
 62
7
  6
CONTINUOUS
 70
0
 71
3
 72
14
 73
10
 74
0
 42
0.0000001
 43
0.0000001
 44
0.0000000001
 40
0.0
 40
0.0
 40
0.0
 40
0.0
 40
0.3510682394
 40
0.4985898707
 40
0.6278129165
 40
0.7398238121
 40
0.8366405999
 40
0.9216511547
 40
1.0
 40
1.0
 40
1.0
 40
1.0
 10
84.7770683653
 20
152.8469445144
 30
0.0
 10
84.840656798
 20
152.6694821078
 30
0.0
 10
84.9418271271
 20
152.4205692068
 30
0.0
 10
85.1044534783
 20
152.1248658241
 30
0.0
 10
85.2224168024
 20
151.9521357815
 30
0.0
 10
85.3432051991
 20
151.8158105333
 30
0.0
 10
85.4669812095
 20
151.716337122
 30
0.0
 10
85.594090564
 20
151.6548925824
 30
0.0
 10
85.6822720595
 20
151.6406321601
 30
0.0
 10
85.7243425654
 20
151.6406250306
 30
0.0
  0
SPLINE
  5
2BD
100
AcDbEntity
  8
RUNDUNGEN
100
AcDbSpline
 62
7
  6
CONTINUOUS
 70
0
 71
3
 72
15
 73
11
 74
0
 42
0.0000001
 43
0.0000001
 44
0.0000000001
 40
0.0
 40
0.0
 40
0.0
 40
0.0
 40
0.039570138
 40
0.0843829536
 40
0.1875285991
 40
0.3051336045
 40
0.4333596799
 40
0.569157723
 40
0.7101175423
 40
1.0
 40
1.0
 40
1.0
 40
1.0
 10
69.0062671438
 20
152.6089407896
 30
0.0
 10
69.0326355851
 20
152.7062928083
 30
0.0
 10
69.1010138466
 20
152.9106074359
 30
0.0
 10
69.285394593
 20
153.3518436548
 30
0.0
 10
69.5941042373
 20
153.9551333186
 30
0.0
 10
70.039117168
 20
154.7254227769
 30
0.0
 10
70.5519580328
 20
155.5521360008
 30
0.0
 10
71.1128941687
 20
156.4187172724
 30
0.0
 10
71.912481838
 20
157.6215233479
 30
0.0
 10
72.5300123381
 20
158.5296322564
 30
0.0
 10
72.9454981559
 20
159.1406250228
 30
0.0
  0
SPLINE
  5
2BE
100
AcDbEntity
  8
RUNDUNGEN
100
AcDbSpline
 62
7
  6
CONTINUOUS
 70
0
 71
3
 72
15
 73
11
 74
0
 42
0.0000001
 43
0.0000001
 44
0.0000000001
 40
0.0
 40
0.0
 40
0.0
 40
0.0
 40
0.039570279
 40
0.0843826639
 40
0.1875277795
 40
0.3051322905
 40
0.4333580106
 40
0.56915544
 40
0.710114391
 40
1.0
 40
1.0
 40
1.0
 40
1.0
 10
69.0062671438
 20
165.6723092561
 30
0.0
 10
69.0326379007
 20
165.5749574848
 30
0.0
 10
69.1010125153
 20
165.3706427194
 30
0.0
 10
69.2853867156
 20
164.9294056472
 30
0.0
 10
69.5941026037
 20
164.3261231568
 30
0.0
 10
70.0391088325
 20
163.5558340629
 30
0.0
 10
70.5519505624
 20
162.7291255314
 30
0.0
 10
71.1128845468
 20
161.8625484166
 30
0.0
 10
71.9124752437
 20
160.659739116
 30
0.0
 10
72.5300044186
 20
159.7516221814
 30
0.0
 10
72.9454981559
 20
159.1406250228
 30
0.0
  0
SPLINE
  5
2BF
100
AcDbEntity
  8
RUNDUNGEN
100
AcDbSpline
 62
7
  6
CONTINUOUS
 70
0
 71
3
 72
11
 73
7
 74
0
 42
0.0000001
 43
0.0000001
 44
0.0000000001
 40
0.0
 40
0.0
 40
0.0
 40
0.0
 40
0.2320957382
 40
0.4805100529
 40
0.7397855553
 40
1.0
 40
1.0
 40
1.0
 40
1.0
 10
85.7429894858
 20
164.5951481302
 30
0.0
 10
85.7261437904
 20
164.699105365
 30
0.0
 10
85.6461905538
 20
164.9083467283
 30
0.0
 10
85.4241293523
 20
165.1672690591
 30
0.0
 10
85.1251284988
 20
165.3553714188
 30
0.0
 10
84.8942672668
 20
165.4199630808
 30
0.0
 10
84.7770683655
 20
165.4342962707
 30
0.0
  0
SPLINE
  5
2C0
100
AcDbEntity
  8
RUNDUNGEN
100
AcDbSpline
 62
7
  6
CONTINUOUS
 70
0
 71
3
 72
11
 73
7
 74
0
 42
0.0000001
 43
0.0000001
 44
0.0000000001
 40
0.0
 40
0.0
 40
0.0
 40
0.0
 40
0.2540212457
 40
0.5056597483
 40
0.753985455
 40
1.0
 40
1.0
 40
1.0
 40
1.0
 10
86.6902685891
 20
165.6406250228
 30
0.0
 10
86.6902685885
 20
165.770534485
 30
0.0
 10
86.640613229
 20
166.0318498037
 30
0.0
 10
86.4268496981
 20
166.3640144908
 30
0.0
 10
86.1058812642
 20
166.5879582209
 30
0.0
 10
85.8501575038
 20
166.6406250228
 30
0.0
 10
85.7243427629
 20
166.6406250228
 30
0.0
  0
SPLINE
  5
2C1
100
AcDbEntity
  8
RUNDUNGEN
100
AcDbSpline
 62
7
  6
CONTINUOUS
 70
0
 71
3
 72
11
 73
7
 74
0
 42
0.0000001
 43
0.0000001
 44
0.0000000001
 40
0.0
 40
0.0
 40
0.0
 40
0.0
 40
0.2540211942
 40
0.5056596798
 40
0.753985409
 40
1.0
 40
1.0
 40
1.0
 40
1.0
 10
99.1092481624
 20
165.6406279238
 30
0.0
 10
99.1092477384
 20
165.7705370865
 30
0.0
 10
99.0595917577
 20
166.031851645
 30
0.0
 10
98.8458280893
 20
166.3640151698
 30
0.0
 10
98.5248601607
 20
166.5879581359
 30
0.0
 10
98.2691369674
 20
166.6406249074
 30
0.0
 10
98.1433224674
 20
166.6406250228
 30
0.0
  0
SPLINE
  5
2C2
100
AcDbEntity
  8
RUNDUNGEN
100
AcDbSpline
 62
7
  6
CONTINUOUS
 70
0
 71
3
 72
11
 73
7
 74
0
 42
0.0000001
 43
0.0000001
 44
0.0000000001
 40
0.0
 40
0.0
 40
0.0
 40
0.0
 40
0.2540211637
 40
0.5056596397
 40
0.7539853717
 40
1.0
 40
1.0
 40
1.0
 40
1.0
 10
99.1092459922
 20
152.640624121
 30
0.0
 10
99.1092460415
 20
152.5107147444
 30
0.0
 10
99.0595906552
 20
152.249399535
 30
0.0
 10
98.8458268785
 20
151.9172352087
 30
0.0
 10
98.5248584009
 20
151.6932917369
 30
0.0
 10
98.2691346686
 20
151.6406250214
 30
0.0
 10
98.1433199273
 20
151.6406250228
 30
0.0
  0
SPLINE
  5
2C3
100
AcDbEntity
  8
RUNDUNGEN
100
AcDbSpline
 62
7
  6
CONTINUOUS
 70
0
 71
3
 72
11
 73
7
 74
0
 42
0.0000001
 43
0.0000001
 44
0.0000000001
 40
0.0
 40
0.0
 40
0.0
 40
0.0
 40
0.2540212502
 40
0.505659753
 40
0.7539854579
 40
1.0
 40
1.0
 40
1.0
 40
1.0
 10
86.6902685891
 20
152.6406250228
 30
0.0
 10
86.6902685891
 20
152.5107155583
 30
0.0
 10
86.6406132294
 20
152.2494002364
 30
0.0
 10
86.4268496947
 20
151.9172355493
 30
0.0
 10
86.1058812604
 20
151.6932918233
 30
0.0
 10
85.8501575024
 20
151.6406250228
 30
0.0
 10
85.7243427628
 20
151.6406250228
 30
0.0
  0
SPLINE
  5
2C4
100
AcDbEntity
  8
RUNDUNGEN
100
AcDbSpline
 62
7
  6
CONTINUOUS
 70
0
 71
3
 72
11
 73
7
 74
0
 42
0.0000001
 43
0.0000001
 44
0.0000000001
 40
0.0
 40
0.0
 40
0.0
 40
0.0
 40
0.2320955774
 40
0.4805099236
 40
0.7397855526
 40
1.0
 40
1.0
 40
1.0
 40
1.0
 10
85.7429941915
 20
153.6861019155
 30
0.0
 10
85.7261486061
 20
153.5821442286
 30
0.0
 10
85.6461952605
 20
153.3729018034
 30
0.0
 10
85.424133089
 20
153.113978118
 30
0.0
 10
85.1251305444
 20
152.9258750468
 30
0.0
 10
84.8942678924
 20
152.8612837216
 30
0.0
 10
84.7770683652
 20
152.8469510058
 30
0.0
  0
SPLINE
  5
2C5
100
AcDbEntity
  8
RUNDUNGEN
100
AcDbSpline
 62
7
  6
CONTINUOUS
 70
0
 71
3
 72
11
 73
7
 74
0
 42
0.0000001
 43
0.0000001
 44
0.0000000001
 40
0.0
 40
0.0
 40
0.0
 40
0.0
 40
0.2604814347
 40
0.5182469616
 40
0.7656685926
 40
1.0
 40
1.0
 40
1.0
 40
1.0
 10
69.0062671437
 20
165.6722938676
 30
0.0
 10
68.8836306757
 20
165.6630373416
 30
0.0
 10
68.6409935799
 20
165.6044591004
 30
0.0
 10
68.3284654005
 20
165.4109240703
 30
0.0
 10
68.1032866602
 20
165.1350485603
 30
0.0
 10
68.0321025769
 20
164.911544886
 30
0.0
 10
68.0214728522
 20
164.8014180255
 30
0.0
  0
SPLINE
  5
2C6
100
AcDbEntity
  8
RUNDUNGEN
100
AcDbSpline
 62
7
  6
CONTINUOUS
 70
0
 71
3
 72
11
 73
7
 74
0
 42
0.0000001
 43
0.0000001
 44
0.0000000001
 40
0.0
 40
0.0
 40
0.0
 40
0.0
 40
0.2482605022
 40
0.4975003067
 40
0.7482033348
 40
1.0
 40
1.0
 40
1.0
 40
1.0
 10
68.4429742566
 20
166.6406250228
 30
0.0
 10
68.3147992249
 20
166.6406250228
 30
0.0
 10
68.055055286
 20
166.5883286019
 30
0.0
 10
67.7278002284
 20
166.3651091705
 30
0.0
 10
67.5091208161
 20
166.0328624483
 30
0.0
 10
67.4581665048
 20
165.7706257489
 30
0.0
 10
67.4581665036
 20
165.6406250228
 30
0.0
  0
SPLINE
  5
2C7
100
AcDbEntity
  8
RUNDUNGEN
100
AcDbSpline
 62
7
  6
CONTINUOUS
 70
0
 71
3
 72
11
 73
7
 74
0
 42
0.0000001
 43
0.0000001
 44
0.0000000001
 40
0.0
 40
0.0
 40
0.0
 40
0.0
 40
0.248260517
 40
0.4975003281
 40
0.7482033501
 40
1.0
 40
1.0
 40
1.0
 40
1.0
 10
63.0888381325
 20
166.6406250228
 30
0.0
 10
62.9606633225
 20
166.6406249672
 30
0.0
 10
62.7009198716
 20
166.5883286409
 30
0.0
 10
62.37366524
 20
166.3651099008
 30
0.0
 10
62.1549857103
 20
166.0328641624
 30
0.0
 10
62.1040308802
 20
165.7706280919
 30
0.0
 10
62.1040305267
 20
165.6406276063
 30
0.0
  0
SPLINE
  5
2C8
100
AcDbEntity
  8
RUNDUNGEN
100
AcDbSpline
 62
7
  6
CONTINUOUS
 70
0
 71
3
 72
11
 73
7
 74
0
 42
0.0000001
 43
0.0000001
 44
0.0000000001
 40
0.0
 40
0.0
 40
0.0
 40
0.0
 40
0.2343311682
 40
0.4817528068
 40
0.7395184821
 40
1.0
 40
1.0
 40
1.0
 40
1.0
 10
68.0214660535
 20
153.4798320205
 30
0.0
 10
68.0320951204
 20
153.3697042789
 30
0.0
 10
68.1032788248
 20
153.1461983994
 30
0.0
 10
68.3284591201
 20
152.8703202403
 30
0.0
 10
68.6409901614
 20
152.6767836491
 30
0.0
 10
68.8836295793
 20
152.6182053937
 30
0.0
 10
69.0062671437
 20
152.6089491844
 30
0.0
  0
SPLINE
  5
2C9
100
AcDbEntity
  8
RUNDUNGEN
100
AcDbSpline
 62
7
  6
CONTINUOUS
 70
0
 71
3
 72
11
 73
7
 74
0
 42
0.0000001
 43
0.0000001
 44
0.0000000001
 40
0.0
 40
0.0
 40
0.0
 40
0.0
 40
0.2517966613
 40
0.502499689
 40
0.7517394951
 40
1.0
 40
1.0
 40
1.0
 40
1.0
 10
67.4581665036
 20
152.6406250228
 30
0.0
 10
67.4581665052
 20
152.5106242989
 30
0.0
 10
67.509120816
 20
152.2483876022
 30
0.0
 10
67.7278002248
 20
151.91614088
 30
0.0
 10
68.0550552823
 20
151.692921445
 30
0.0
 10
68.3147992234
 20
151.6406250228
 30
0.0
 10
68.4429742564
 20
151.6406250228
 30
0.0
  0
SPLINE
  5
2CA
100
AcDbEntity
  8
RUNDUNGEN
100
AcDbSpline
 62
7
  6
CONTINUOUS
 70
0
 71
3
 72
11
 73
7
 74
0
 42
0.0000001
 43
0.0000001
 44
0.0000000001
 40
0.0
 40
0.0
 40
0.0
 40
0.0
 40
0.2517966515
 40
0.5024996754
 40
0.7517394874
 40
1.0
 40
1.0
 40
1.0
 40
1.0
 10
62.1040289343
 20
152.6406230738
 30
0.0
 10
62.1040292009
 20
152.5106227806
 30
0.0
 10
62.1549837017
 20
152.2483870723
 30
0.0
 10
62.3736623781
 20
151.9161415128
 30
0.0
 10
62.700916021
 20
151.6929224238
 30
0.0
 10
62.9606589165
 20
151.6406254669
 30
0.0
 10
63.0888335338
 20
151.6406250228
 30
0.0
  0
SPLINE
  5
2CB
100
AcDbEntity
  8
RUNDUNGEN
100
AcDbSpline
 62
7
  6
CONTINUOUS
 70
0
 71
3
 72
15
 73
11
 74
0
 42
0.0000001
 43
0.0000001
 44
0.0000000001
 40
0.0
 40
0.0
 40
0.0
 40
0.0
 40
0.3687292272
 40
0.535877882
 40
0.6832168293
 40
0.805637672
 40
0.8991836975
 40
0.934579465
 40
0.9625125057
 40
1.0
 40
1.0
 40
1.0
 40
1.0
 10
215.0275751216
 20
152.6406230738
 30
0.0
 10
215.0275751735
 20
152.512971531
 30
0.0
 10
215.0217133088
 20
152.3273324677
 30
0.0
 10
215.0003638608
 20
152.091718153
 30
0.0
 10
214.9796550949
 20
151.9418132724
 30
0.0
 10
214.954469963
 20
151.8184611415
 30
0.0
 10
214.9295667026
 20
151.7349335568
 30
0.0
 10
214.9061251635
 20
151.6854543952
 30
0.0
 10
214.887603815
 20
151.6566465645
 30
0.0
 10
214.8669066199
 20
151.6406252778
 30
0.0
 10
214.8539287051
 20
151.6406250228
 30
0.0
  0
SPLINE
  5
2CC
100
AcDbEntity
  8
RUNDUNGEN
100
AcDbSpline
 62
7
  6
CONTINUOUS
 70
0
 71
3
 72
15
 73
11
 74
0
 42
0.0000001
 43
0.0000001
 44
0.0000000001
 40
0.0
 40
0.0
 40
0.0
 40
0.0
 40
0.368729549
 40
0.5358783506
 40
0.6832173739
 40
0.8056381844
 40
0.8991840562
 40
0.9345797081
 40
0.9625126237
 40
1.0
 40
1.0
 40
1.0
 40
1.0
 10
245.3923981777
 20
152.6406250228
 30
0.0
 10
245.3923981866
 20
152.5129730203
 30
0.0
 10
245.3865362162
 20
152.3273332886
 30
0.0
 10
245.3651865227
 20
152.0917181589
 30
0.0
 10
245.344477544
 20
151.9418128214
 30
0.0
 10
245.3192921647
 20
151.8184604323
 30
0.0
 10
245.2943886822
 20
151.7349327611
 30
0.0
 10
245.2709469062
 20
151.6854536986
 30
0.0
 10
245.2524254057
 20
151.6566459893
 30
0.0
 10
245.2317279084
 20
151.6406250228
 30
0.0
 10
245.218749999
 20
151.6406250228
 30
0.0
  0
SPLINE
  5
2CD
100
AcDbEntity
  8
RUNDUNGEN
100
AcDbSpline
 62
7
  6
CONTINUOUS
 70
0
 71
3
 72
15
 73
11
 74
0
 42
0.0000001
 43
0.0000001
 44
0.0000000001
 40
0.0
 40
0.0
 40
0.0
 40
0.0
 40
0.3766182732
 40
0.5445285394
 40
0.6912878234
 40
0.8123077409
 40
0.9040357851
 40
0.938414671
 40
0.9652410325
 40
1.0
 40
1.0
 40
1.0
 40
1.0
 10
248.586989713
 20
153.4798320205
 30
0.0
 10
248.6439740583
 20
153.3757159556
 30
0.0
 10
248.7225136151
 20
153.2229739916
 30
0.0
 10
248.8119918357
 20
153.0242911349
 30
0.0
 10
248.8631250338
 20
152.8968136201
 30
0.0
 10
248.899142183
 20
152.7892667393
 30
0.0
 10
248.9178882757
 20
152.7136333852
 30
0.0
 10
248.9227103655
 20
152.6652321638
 30
0.0
 10
248.9220759031
 20
152.6357188933
 30
0.0
 10
248.914353481
 20
152.6143332685
 30
0.0
 10
248.9048137736
 20
152.6089491844
 30
0.0
  0
SPLINE
  5
2CE
100
AcDbEntity
  8
RUNDUNGEN
100
AcDbSpline
 62
7
  6
CONTINUOUS
 70
0
 71
3
 72
15
 73
11
 74
0
 42
0.0000001
 43
0.0000001
 44
0.0000000001
 40
0.0
 40
0.0
 40
0.0
 40
0.0
 40
0.0374872641
 40
0.0654201488
 40
0.1008157759
 40
0.1943616041
 40
0.3167823791
 40
0.4641213843
 40
0.6312702072
 40
1.0
 40
1.0
 40
1.0
 40
1.0
 10
214.8539376013
 20
166.6406250228
 30
0.0
 10
214.8669154332
 20
166.6406249909
 30
0.0
 10
214.8876127568
 20
166.6246040059
 30
0.0
 10
214.90613409
 20
166.5957963889
 30
0.0
 10
214.9295756755
 20
166.5463174518
 30
0.0
 10
214.9544789489
 20
166.4627900322
 30
0.0
 10
214.979664111
 20
166.3394380141
 30
0.0
 10
215.0003728973
 20
166.1895331168
 30
0.0
 10
215.0217223691
 20
165.9539185873
 30
0.0
 10
215.0275842215
 20
165.7682793137
 30
0.0
 10
215.0275841526
 20
165.6406276063
 30
0.0
  0
SPLINE
  5
2CF
100
AcDbEntity
  8
RUNDUNGEN
100
AcDbSpline
 62
7
  6
CONTINUOUS
 70
0
 71
3
 72
15
 73
11
 74
0
 42
0.0000001
 43
0.0000001
 44
0.0000000001
 40
0.0
 40
0.0
 40
0.0
 40
0.0
 40
0.0374873734
 40
0.0654202878
 40
0.1008159387
 40
0.1943618085
 40
0.316782618
 40
0.4641216406
 40
0.6312704436
 40
1.0
 40
1.0
 40
1.0
 40
1.0
 10
245.21875
 20
166.6406250228
 30
0.0
 10
245.2317279083
 20
166.6406250228
 30
0.0
 10
245.2524254039
 20
166.6246040565
 30
0.0
 10
245.2709469022
 20
166.5957963482
 30
0.0
 10
245.2943886764
 20
166.5463172866
 30
0.0
 10
245.3192921579
 20
166.462789617
 30
0.0
 10
245.3444775366
 20
166.3394372295
 30
0.0
 10
245.3651865159
 20
166.1895318928
 30
0.0
 10
245.3865362118
 20
165.9539167613
 30
0.0
 10
245.3923981845
 20
165.7682770275
 30
0.0
 10
245.3923981777
 20
165.6406250228
 30
0.0
  0
SPLINE
  5
2D0
100
AcDbEntity
  8
RUNDUNGEN
100
AcDbSpline
 62
7
  6
CONTINUOUS
 70
0
 71
3
 72
15
 73
11
 74
0
 42
0.0000001
 43
0.0000001
 44
0.0000000001
 40
0.0
 40
0.0
 40
0.0
 40
0.0
 40
0.0347591176
 40
0.0615856564
 40
0.0959647061
 40
0.1876929653
 40
0.3087129156
 40
0.4554720758
 40
0.6233821187
 40
1.0
 40
1.0
 40
1.0
 40
1.0
 10
248.9048098256
 20
165.6722938676
 30
0.0
 10
248.9143493231
 20
165.6669095164
 30
0.0
 10
248.9220711198
 20
165.6455238582
 30
0.0
 10
248.9227053606
 20
165.61601071
 30
0.0
 10
248.9178829944
 20
165.5676097784
 30
0.0
 10
248.8991368988
 20
165.4919770351
 30
0.0
 10
248.8631199946
 20
165.3844311052
 30
0.0
 10
248.8119873734
 20
165.2569548052
 30
0.0
 10
248.7225103327
 20
165.0582738273
 30
0.0
 10
248.6439719541
 20
164.9055332249
 30
0.0
 10
248.5869885134
 20
164.8014180255
 30
0.0
  0
SPLINE
  5
2D1
100
AcDbEntity
  8
RUNDUNGEN
100
AcDbSpline
 62
7
  6
CONTINUOUS
 70
0
 71
3
 72
13
 73
9
 74
0
 42
0.0000001
 43
0.0000001
 44
0.0000000001
 40
0.0
 40
0.0
 40
0.0
 40
0.0
 40
0.2884084642
 40
0.5463505947
 40
0.6655315775
 40
0.7797972579
 40
0.8907501008
 40
1.0
 40
1.0
 40
1.0
 40
1.0
 10
248.5867193153
 20
164.801556456
 30
0.0
 10
249.2347158707
 20
164.5089393201
 30
0.0
 10
250.4027018807
 20
163.8038543658
 30
0.0
 10
251.5454105145
 20
162.5946104344
 30
0.0
 10
252.1645442477
 20
161.5487578906
 30
0.0
 10
252.4852446801
 20
160.7590301872
 30
0.0
 10
252.6762836893
 20
159.9537334708
 30
0.0
 10
252.7187062397
 20
159.4099546103
 30
0.0
 10
252.71875
 20
159.1406250228
 30
0.0
  0
SPLINE
  5
2D2
100
AcDbEntity
  8
RUNDUNGEN
100
AcDbSpline
 62
7
  6
CONTINUOUS
 70
0
 71
3
 72
13
 73
9
 74
0
 42
0.0000001
 43
0.0000001
 44
0.0000000001
 40
0.0
 40
0.0
 40
0.0
 40
0.0
 40
0.2884091745
 40
0.5463517841
 40
0.6655333581
 40
0.7797996504
 40
0.8907514354
 40
1.0
 40
1.0
 40
1.0
 40
1.0
 10
248.5867804925
 20
153.4797247701
 30
0.0
 10
249.2347804126
 20
153.7723230947
 30
0.0
 10
250.4027458836
 20
154.477432814
 30
0.0
 10
251.5454376231
 20
155.6866729777
 30
0.0
 10
252.1645620526
 20
156.7325238559
 30
0.0
 10
252.4852511953
 20
157.5222480596
 30
0.0
 10
252.6762872254
 20
158.3275327111
 30
0.0
 10
252.7187097532
 20
158.8713011592
 30
0.0
 10
252.71875
 20
159.1406250228
 30
0.0
  0
SPLINE
  5
2D3
100
AcDbEntity
  8
RUNDUNGEN
100
AcDbSpline
 62
7
  6
CONTINUOUS
 70
0
 71
3
 72
13
 73
9
 74
0
 42
0.0000001
 43
0.0000001
 44
0.0000000001
 40
0.0
 40
0.0
 40
0.0
 40
0.0
 40
0.1103240791
 40
0.2221281202
 40
0.4553743727
 40
0.5799471462
 40
0.7119065763
 40
1.0
 40
1.0
 40
1.0
 40
1.0
 10
205.6301139714
 20
166.6367454615
 30
0.0
 10
205.9777093157
 20
166.6301984638
 30
0.0
 10
206.6773323849
 20
166.6002563736
 30
0.0
 10
208.1074646989
 20
166.4782418732
 30
0.0
 10
209.5748039932
 20
166.2825868226
 30
0.0
 10
211.1038308665
 20
166.0729157102
 30
0.0
 10
212.8061492139
 20
165.8543844612
 30
0.0
 10
214.1231788533
 20
165.7184592567
 30
0.0
 10
215.0276853045
 20
165.6406173961
 30
0.0
  0
SPLINE
  5
2D4
100
AcDbEntity
  8
RUNDUNGEN
100
AcDbSpline
 62
7
  6
CONTINUOUS
 70
0
 71
3
 72
13
 73
9
 74
0
 42
0.0000001
 43
0.0000001
 44
0.0000000001
 40
0.0
 40
0.0
 40
0.0
 40
0.0
 40
0.1103245884
 40
0.2221275015
 40
0.4553739938
 40
0.5799468057
 40
0.7119063528
 40
1.0
 40
1.0
 40
1.0
 40
1.0
 10
205.6301207416
 20
151.6445038822
 30
0.0
 10
205.9777169881
 20
151.651052402
 30
0.0
 10
206.6773364804
 20
151.6809981576
 30
0.0
 10
208.1074656913
 20
151.8030018138
 30
0.0
 10
209.5747988106
 20
151.9986633607
 30
0.0
 10
211.1038242627
 20
152.2083309546
 30
0.0
 10
212.8061395072
 20
152.4268722261
 30
0.0
 10
214.1231709749
 20
152.5627588158
 30
0.0
 10
215.027673549
 20
152.6406333985
 30
0.0
  0
LINE
  5
2D5
100
AcDbEntity
  8
RUNDUNGEN
100
AcDbLine
 62
7
  6
CONTINUOUS
 10
57.5014226111
 20
84.9531250055
 11
55.7500004971
 21
90.9126446263
  0
LINE
  5
2D6
100
AcDbEntity
  8
RUNDUNGEN
100
AcDbLine
 62
7
  6
CONTINUOUS
 10
96.6857730803
 20
104.9528055067
 11
98.4275097605
 21
112.4531026845
  0
LINE
  5
2D7
100
AcDbEntity
  8
RUNDUNGEN
100
AcDbLine
 62
7
  6
CONTINUOUS
 10
62.4669462203
 20
112.4531003935
 11
63.6131169301
 21
104.952801623
  0
SPLINE
  5
2D8
100
AcDbEntity
  8
RUNDUNGEN
100
AcDbSpline
 62
7
  6
CONTINUOUS
 70
0
 71
3
 72
12
 73
8
 74
0
 42
0.0000001
 43
0.0000001
 44
0.0000000001
 40
0.0
 40
0.0
 40
0.0
 40
0.0
 40
0.2502160441
 40
0.5003583074
 40
0.6254524339
 40
0.7505297855
 40
1.0
 40
1.0
 40
1.0
 40
1.0
 10
102.8975031667
 20
104.953125
 30
0.0
 10
102.4102585637
 20
104.5125126632
 30
0.0
 10
101.4359699197
 20
103.6314474952
 30
0.0
 10
100.2847825783
 20
102.4566520108
 30
0.0
 10
99.4602888215
 20
101.4319200313
 30
0.0
 10
98.7282731718
 20
100.3432980709
 30
0.0
 10
98.3128333967
 20
99.4340330198
 30
0.0
 10
98.1433224674
 20
98.8013848114
 30
0.0
  0
SPLINE
  5
2D9
100
AcDbEntity
  8
RUNDUNGEN
100
AcDbSpline
 62
7
  6
CONTINUOUS
 70
0
 71
3
 72
13
 73
9
 74
0
 42
0.0000001
 43
0.0000001
 44
0.0000000001
 40
0.0
 40
0.0
 40
0.0
 40
0.0
 40
0.2972877273
 40
0.5538948157
 40
0.6714048093
 40
0.7837668807
 40
0.892749775
 40
1.0
 40
1.0
 40
1.0
 40
1.0
 10
84.7770683653
 20
48.3739601764
 30
0.0
 10
84.6525675757
 20
47.8379434871
 30
0.0
 10
84.2586014523
 20
46.8671825659
 30
0.0
 10
83.4254043692
 20
45.9132813475
 30
0.0
 10
82.6771715648
 20
45.4054786712
 30
0.0
 10
82.10383093
 20
45.1435894767
 30
0.0
 10
81.5129643886
 20
44.987796453
 30
0.0
 10
81.1118874159
 20
44.953196387
 30
0.0
 10
80.9133650601
 20
44.953125
 30
0.0
  0
SPLINE
  5
2DA
100
AcDbEntity
  8
RUNDUNGEN
100
AcDbSpline
 62
7
  6
CONTINUOUS
 70
0
 71
3
 72
14
 73
10
 74
0
 42
0.0000001
 43
0.0000001
 44
0.0000000001
 40
0.0
 40
0.0
 40
0.0
 40
0.0
 40
0.250781648
 40
0.3758629961
 40
0.5007476078
 40
0.6255184284
 40
0.7502736371
 40
0.8750843605
 40
1.0
 40
1.0
 40
1.0
 40
1.0
 10
55.6969728593
 20
92.0417610286
 30
0.0
 10
56.3687012396
 20
91.3496216431
 30
0.0
 10
57.3732466941
 20
90.3097523198
 30
0.0
 10
58.6614206821
 20
88.8776940437
 30
0.0
 10
59.5813945217
 20
87.7674931558
 30
0.0
 10
60.4305010948
 20
86.6029040549
 30
0.0
 10
61.1735131643
 20
85.3666612213
 30
0.0
 10
61.7645874375
 20
84.0488814787
 30
0.0
 10
62.0206194942
 20
83.1173169468
 30
0.0
 10
62.1040474933
 20
82.6441896955
 30
0.0
  0
LINE
  5
2DB
100
AcDbEntity
  8
RUNDUNGEN
100
AcDbLine
 62
7
  6
CONTINUOUS
 10
55.7500093053
 20
90.9126143319
 11
55.6969728593
 21
92.0417610286
  0
SPLINE
  5
2DC
100
AcDbEntity
  8
RUNDUNGEN
100
AcDbSpline
 62
7
  6
CONTINUOUS
 70
0
 71
3
 72
16
 73
12
 74
0
 42
0.0000001
 43
0.0000001
 44
0.0000000001
 40
0.0
 40
0.0
 40
0.0
 40
0.0
 40
0.0422510338
 40
0.0715847584
 40
0.107859807
 40
0.2020208131
 40
0.323994018
 40
0.470134162
 40
0.63554909
 40
0.8145400774
 40
1.0
 40
1.0
 40
1.0
 40
1.0
 10
54.75
 20
91.1181776533
 30
0.0
 10
54.7500000001
 20
91.1033721127
 30
0.0
 10
54.7648782507
 20
91.0793892999
 30
0.0
 10
54.7945421543
 20
91.0565835489
 30
0.0
 10
54.843702835
 20
91.0290418272
 30
0.0
 10
54.9273603848
 20
90.999348784
 30
0.0
 10
55.0508816938
 20
90.9695468806
 30
0.0
 10
55.2009193923
 20
90.9450044475
 30
0.0
 10
55.3718986201
 20
90.9266441063
 30
0.0
 10
55.5572865529
 20
90.9153545133
 30
0.0
 10
55.6850114262
 20
90.9127974962
 30
0.0
 10
55.75
 20
90.9127975542
 30
0.0
  0
SPLINE
  5
2DD
100
AcDbEntity
  8
RUNDUNGEN
100
AcDbSpline
 62
7
  6
CONTINUOUS
 70
0
 71
3
 72
13
 73
9
 74
0
 42
0.0000001
 43
0.0000001
 44
0.0000000001
 40
0.0
 40
0.0
 40
0.0
 40
0.0
 40
0.2500967348
 40
0.5000307214
 40
0.6250530159
 40
0.7500563233
 40
0.875033287
 40
1.0
 40
1.0
 40
1.0
 40
1.0
 10
55.7500087466
 20
92.1119839476
 30
0.0
 10
56.5570037916
 20
91.5025348561
 30
0.0
 10
58.1617172095
 20
90.2721939133
 30
0.0
 10
60.015346982
 20
88.539442478
 30
0.0
 10
61.2894220348
 20
86.9652495321
 30
0.0
 10
62.1036455466
 20
85.6811664772
 30
0.0
 10
62.7338276626
 20
84.2964737556
 30
0.0
 10
63.00107662
 20
83.3155631945
 30
0.0
 10
63.0888381325
 20
82.8179373987
 30
0.0
  0
LINE
  5
2DE
100
AcDbEntity
  8
RUNDUNGEN
100
AcDbLine
 62
7
  6
CONTINUOUS
 10
102.8976805907
 20
104.9531250003
 11
100.3519865643
 21
97.4531249888
  0
SPLINE
  5
2DF
100
AcDbEntity
  8
RUNDUNGEN
100
AcDbSpline
 62
7
  6
CONTINUOUS
 70
0
 71
3
 72
13
 73
9
 74
0
 42
0.0000001
 43
0.0000001
 44
0.0000000001
 40
0.0
 40
0.0
 40
0.0
 40
0.0
 40
0.3013569313
 40
0.5587661577
 40
0.6756384238
 40
0.7868703957
 40
0.8943765459
 40
1.0
 40
1.0
 40
1.0
 40
1.0
 10
69.0062671438
 20
48.7670564877
 30
0.0
 10
69.0965961385
 20
48.1762461598
 30
0.0
 10
69.4537253723
 20
47.0981472816
 30
0.0
 10
70.30503713
 20
46.0267976147
 30
0.0
 10
71.0874555026
 20
45.4578159541
 30
0.0
 10
71.689526986
 20
45.1655728925
 30
0.0
 10
72.3123449896
 20
44.9917523252
 30
0.0
 10
72.7360171132
 20
44.9531683857
 30
0.0
 10
72.9454981559
 20
44.953125
 30
0.0
  0
SPLINE
  5
2E0
100
AcDbEntity
  8
RUNDUNGEN
100
AcDbSpline
 62
7
  6
CONTINUOUS
 70
0
 71
3
 72
13
 73
9
 74
0
 42
0.0000001
 43
0.0000001
 44
0.0000000001
 40
0.0
 40
0.0
 40
0.0
 40
0.0
 40
0.2524765812
 40
0.5034283088
 40
0.6281184099
 40
0.7523361909
 40
0.8762291222
 40
1.0
 40
1.0
 40
1.0
 40
1.0
 10
102.8978383593
 20
104.953589859
 30
0.0
 10
102.5302829649
 20
104.4423702145
 30
0.0
 10
101.7973108216
 20
103.4231501245
 30
0.0
 10
100.9086556268
 20
102.1325942549
 30
0.0
 10
100.2476811391
 20
101.0753727971
 30
0.0
 10
99.7918875136
 20
100.2644410635
 30
0.0
 10
99.3947324469
 20
99.4253876147
 30
0.0
 10
99.1891514868
 20
98.8407728739
 30
0.0
 10
99.1092650296
 20
98.5426248026
 30
0.0
  0
SPLINE
  5
2E1
100
AcDbEntity
  8
RUNDUNGEN
100
AcDbSpline
 62
7
  6
CONTINUOUS
 70
0
 71
3
 72
13
 73
9
 74
0
 42
0.0000001
 43
0.0000001
 44
0.0000000001
 40
0.0
 40
0.0
 40
0.0
 40
0.0
 40
0.3222385666
 40
0.604514562
 40
0.7240364794
 40
0.8278365156
 40
0.91809438
 40
1.0
 40
1.0
 40
1.0
 40
1.0
 10
69.0062671437
 20
48.7670651744
 30
0.0
 10
68.8876629999
 20
48.7512045468
 30
0.0
 10
68.662208551
 20
48.7405367774
 30
0.0
 10
68.3933350707
 20
48.7815766499
 30
0.0
 10
68.2182866799
 20
48.8518282215
 30
0.0
 10
68.119961099
 20
48.9160820212
 30
0.0
 10
68.0508384949
 20
48.9938004777
 30
0.0
 10
68.026755217
 20
49.0549339114
 30
0.0
 10
68.0214728522
 20
49.0848864866
 30
0.0
  0
SPLINE
  5
2E2
100
AcDbEntity
  8
RUNDUNGEN
100
AcDbSpline
 62
7
  6
CONTINUOUS
 70
0
 71
3
 72
13
 73
9
 74
0
 42
0.0000001
 43
0.0000001
 44
0.0000000001
 40
0.0
 40
0.0
 40
0.0
 40
0.0
 40
0.0878597733
 40
0.1825701318
 40
0.2884780963
 40
0.4076954822
 40
0.6847865759
 40
1.0
 40
1.0
 40
1.0
 40
1.0
 10
85.7429894858
 20
48.6590310356
 30
0.0
 10
85.7347498641
 20
48.6282825815
 30
0.0
 10
85.7060954178
 20
48.5670693535
 30
0.0
 10
85.6337283714
 20
48.4897827633
 30
0.0
 10
85.5346900438
 20
48.4276781601
 30
0.0
 10
85.3636308787
 20
48.3630616266
 30
0.0
 10
85.1042765781
 20
48.3321109476
 30
0.0
 10
84.8892960659
 20
48.3527908696
 30
0.0
 10
84.7770683655
 20
48.37396618
 30
0.0
  0
LINE
  5
2E3
100
AcDbEntity
  8
RUNDUNGEN
100
AcDbLine
 62
7
  6
CONTINUOUS
 10
68.4429312372
 20
52.4534078914
 11
69.0062671438
 21
48.7670564877
  0
SPLINE
  5
2E4
100
AcDbEntity
  8
RUNDUNGEN
100
AcDbSpline
 62
7
  6
CONTINUOUS
 70
0
 71
3
 72
16
 73
12
 74
0
 42
0.0000001
 43
0.0000001
 44
0.0000000001
 40
0.0
 40
0.0
 40
0.0
 40
0.0
 40
0.008411773
 40
0.0240927144
 40
0.0813518721
 40
0.1727601633
 40
0.2954579223
 40
0.4452019833
 40
0.6167037869
 40
0.8038526571
 40
1.0
 40
1.0
 40
1.0
 40
1.0
 10
54.75
 20
92.1120006716
 30
0.0
 10
54.7500000135
 20
92.1093220857
 30
0.0
 10
54.7563255569
 20
92.1029771895
 30
0.0
 10
54.7798998833
 20
92.0940046516
 30
0.0
 10
54.8320139381
 20
92.0830868598
 30
0.0
 10
54.9173524535
 20
92.0724107293
 30
0.0
 10
55.0329819784
 20
92.0623825356
 30
0.0
 10
55.1740467315
 20
92.0540209206
 30
0.0
 10
55.3358360289
 20
92.0475382125
 30
0.0
 10
55.5124497191
 20
92.043262092
 30
0.0
 10
55.6345034254
 20
92.04201217
 30
0.0
 10
55.6969627729
 20
92.0417789103
 30
0.0
  0
LINE
  5
2E5
100
AcDbEntity
  8
RUNDUNGEN
100
AcDbLine
 62
7
  6
CONTINUOUS
 10
85.7243844829
 20
52.4533052796
 11
84.7770683653
 21
48.3739601764
  0
ELLIPSE
  5
2E6
100
AcDbEntity
  8
0
100
AcDbEllipse
 62
7
  6
CONTINUOUS
 10
87.5366716013
 20
159.1406250228
 30
0.0
 11
0.0
 21
3.195
 31
0.0
 40
0.2679491924
 41
0.0
 42
3.1415926536
  0
ELLIPSE
  5
2E7
100
AcDbEntity
  8
0
100
AcDbEllipse
 62
7
  6
CONTINUOUS
 10
92.1453977111
 20
159.1406250228
 30
0.0
 11
-0.0
 21
3.195
 31
0.0
 40
0.2679491924
 41
-3.1415926536
 42
0.0
  0
ELLIPSE
  5
2E8
100
AcDbEntity
  8
0
100
AcDbEllipse
 62
7
  6
CONTINUOUS
 10
63.8833753324
 20
159.1406250228
 30
0.0
 11
-0.0
 21
3.195
 31
0.0
 40
0.1763269807
 41
0.0
 42
3.1415926536
  0
ENDSEC
  0
SECTION
  2
OBJECTS
  0
DICTIONARY
  5
C
100
AcDbDictionary
280
0
281
1
  3
ACAD_GROUP
350
D
  3
ACAD_MLINESTYLE
350
17
  3
ACAD_LAYOUT
350
1A
  3
ACAD_PLOTSETTINGS
350
19
  3
ACAD_PLOTSTYLENAME
350
E
  0
DICTIONARY
  5
D
102
{ACAD_REACTORS
330
C
102
}
100
AcDbDictionary
280
0
281
1
  0
ACDBDICTIONARYWDFLT
  5
E
102
{ACAD_REACTORS
330
C
102
}
100
AcDbDictionary
281
1
  3
Normal
350
F
100
AcDbDictionaryWithDefault
340
F
  0
DICTIONARY
  5
17
102
{ACAD_REACTORS
330
C
102
}
100
AcDbDictionary
280
0
281
1
  3
Standard
350
18
  0
DICTIONARY
  5
19
102
{ACAD_REACTORS
330
C
102
}
100
AcDbDictionary
281
1
  0
DICTIONARY
  5
1A
102
{ACAD_REACTORS
330
C
102
}
100
AcDbDictionary
281
1
  3
Model
350
2E9
  3
Layout1
350
2EA
  0
ACDBPLACEHOLDER
  5
F
102
{ACAD_REACTORS
330
E
102
}
  0
MLINESTYLE
  5
18
102
{ACAD_REACTORS
330
17
102
}
100
AcDbMlineStyle
  2
STANDARD
 70
0
  3

 62
256
 51
90.0
 52
90.0
 71
2
 49
0.5
 62
256
  6
BYLAYER
 49
-0.5
 62
256
  6
BYLAYER
  0
LAYOUT
  5
2E9
102
{ACAD_REACTORS
330
1A
102
}
100
AcDbPlotSettings
  1

  2
none_device
  4
ISO_A4_(297.00_x_210.00_MM)
  6

 40
0.0
 41
0.0
 42
0.0
 43
0.0
 44
297.0
 45
210.0
 46
0.0
 47
0.0
 48
0.0
 49
0.0
140
0.0
141
0.0
142
1.0
143
1.0
 70
1024
 72
1
 73
0
 74
0
  7

 75
0
147
1.0
148
0.0
149
0.0
100
AcDbLayout
  1
Model
 70
0
 71
0
 10
0.0
 20
0.0
 11
297.0
 21
210.0
 12
0.0
 22
0.0
 32
0.0
 14
0.0
 24
0.0
 34
0.0
 15
0.0
 25
0.0
 35
0.0
146
0.0
 13
0.0
 23
0.0
 33
0.0
 16
1.0
 26
0.0
 36
0.0
 17
0.0
 27
1.0
 37
0.0
 76
0
330
212
345
0
346
0
  0
LAYOUT
  5
2EA
102
{ACAD_REACTORS
330
1A
102
}
100
AcDbPlotSettings
  1

  2
none_device
  4
ISO_A4_(297.00_x_210.00_MM)
  6

 40
0.0
 41
0.0
 42
0.0
 43
0.0
 44
297.0
 45
210.0
 46
0.0
 47
0.0
 48
0.0
 49
0.0
140
0.0
141
0.0
142
1.0
143
1.0
 70
0
 72
1
 73
0
 74
0
  7

 75
0
147
1.0
148
0.0
149
0.0
100
AcDbLayout
  1
Layout1
 70
0
 71
1
 10
0.0
 20
0.0
 11
297.0
 21
210.0
 12
0.0
 22
0.0
 32
0.0
 14
0.0
 24
0.0
 34
0.0
 15
0.0
 25
0.0
 35
0.0
146
0.0
 13
0.0
 23
0.0
 33
0.0
 16
1.0
 26
0.0
 36
0.0
 17
0.0
 27
1.0
 37
0.0
 76
0
330
213
345
0
346
0
  0
ENDSEC
  0
EOF
