999
DXF file: S:\Prolink\03_Konstruktion\CAD-Plots\Internet\2D_neu\S9\s9-57_grt_smr_sg_h50_w50.dxf
999
Pro/ENGINEER 2012230 by Parametric Technology Corporation
  0
SECTION
  2
HEADER
  9
$ACADVER
  1
AC1021
  9
$DWGCODEPAGE
  3
ANSI_1252
  9
$EXTMAX
 10
297.0
 20
210.0
 30
0.0
  9
$EXTMIN
 10
0.0
 20
0.0
 30
0.0
  9
$LIMMIN
 10
0.0
 20
0.0
  9
$LIMMAX
 10
297.0
 20
210.0
  9
$VIEWCTR
 10
148.5
 20
105.0
  9
$VIEWSIZE
 40
210.0
  9
$CLAYER
  8
0
  9
$LTSCALE
 40
16.335
  9
$CELTYPE
  6
BYLAYER
  9
$DIMSCALE
 40
1.0
  9
$DIMASZ
 40
3.5
  9
$DIMEXO
 40
0.0
  9
$DIMDLI
 40
11.286
  9
$DIMEXE
 40
1.5
  9
$DIMCEN
 40
2.673
  9
$DIMLFAC
 40
1.0
  9
$DIMBLK
  1
_FILLED
  9
$DIMTXT
 40
3.5
  9
$DIMTOL
 70
1
  9
$DIMLIM
 70
0
  9
$DIMTFAC
 40
1.0
  9
$DIMTP
 40
0.005
  9
$DIMTM
 40
0.005
  9
$DIMGAP
 40
0.625
  9
$DIMDSEP
 70
46
  9
$PDMODE
 70
3
  9
$PDSIZE
 40
0.3125
  9
$HANDSEED
  5
39E
  9
$TILEMODE
 70
1
  9
$MEASUREMENT
 70
1
  9
$INSUNITS
 70
4
  0
ENDSEC
  0
SECTION
  2
CLASSES
  0
CLASS
  1
ACDBDICTIONARYWDFLT
  2
AcDbDictionaryWithDefault
  3
AutoCAD 2000
 90
0
 91
1
280
0
281
0
  0
CLASS
  1
ACDBPLACEHOLDER
  2
AcDbPlaceHolder
  3
AutoCAD 2000
 90
0
 91
1
280
0
281
0
  0
CLASS
  1
LAYOUT
  2
AcDbLayout
  3
AutoCAD 2000
 90
0
 91
0
280
0
281
0
  0
ENDSEC
  0
SECTION
  2
TABLES
  0
TABLE
  2
VPORT
  5
8
100
AcDbSymbolTable
 70
2
  0
VPORT
  5
1F4
100
AcDbSymbolTableRecord
100
AcDbViewportTableRecord
  2
*ACTIVE
 70
0
 10
0.0
 20
0.0
 11
1.0
 21
1.0
 12
148.5
 22
105.0
 13
0.0
 23
0.0
 14
1.0
 24
1.0
 15
0.0
 25
0.0
 16
0.0
 26
0.0
 36
1.0
 17
0.0
 27
0.0
 37
0.0
 40
210.0
 41
1.4142857143
 42
50.0
 43
0.0
 44
0.0
 50
0.0
 51
0.0
 71
0
 72
100
 73
1
 74
1
 75
0
 76
0
 77
0
 78
0
  0
ENDTAB
  0
TABLE
  2
LTYPE
  5
5
100
AcDbSymbolTable
 70
6
  0
LTYPE
  5
14
100
AcDbSymbolTableRecord
100
AcDbLinetypeTableRecord
  2
BYBLOCK
 70
0
  3

 72
65
 73
0
 40
0.0
  0
LTYPE
  5
15
100
AcDbSymbolTableRecord
100
AcDbLinetypeTableRecord
  2
BYLAYER
 70
0
  3

 72
65
 73
0
 40
0.0
  0
LTYPE
  5
16
100
AcDbSymbolTableRecord
100
AcDbLinetypeTableRecord
  2
CONTINUOUS
 70
64
  3
Solid line
 72
65
 73
0
 40
0.0
  0
LTYPE
  5
1F5
100
AcDbSymbolTableRecord
100
AcDbLinetypeTableRecord
  2
CENTER
 70
64
  3
____ _ ____ _ ____ _ ____ _ ____ _ ____ _ ____
 72
65
 73
4
 40
0.6
 49
0.375
 74
0
 49
-0.075
 74
0
 49
0.075
 74
0
 49
-0.075
 74
0
  0
LTYPE
  5
1F6
100
AcDbSymbolTableRecord
100
AcDbLinetypeTableRecord
  2
HIDDEN
 70
64
  3
- - - - - - - - - - - - - - - - - - - -
 72
65
 73
2
 40
0.2
 49
0.1
 74
0
 49
-0.1
 74
0
  0
LTYPE
  5
1F7
100
AcDbSymbolTableRecord
100
AcDbLinetypeTableRecord
  2
PHANTOM
 70
64
  3
_____ _ _ _____ _ _ _____ _ _ _____
 72
65
 73
6
 40
0.8
 49
0.45
 74
0
 49
-0.05
 74
0
 49
0.1
 74
0
 49
-0.05
 74
0
 49
0.1
 74
0
 49
-0.05
 74
0
  0
LTYPE
  5
1F8
100
AcDbSymbolTableRecord
100
AcDbLinetypeTableRecord
  2
DOT
 70
64
  3
. . . . . . . . . . . . . . . . . . . .
 72
65
 73
2
 40
0.2
 49
0.1
 74
0
 49
-0.1
 74
0
  0
LTYPE
  5
1F9
100
AcDbSymbolTableRecord
100
AcDbLinetypeTableRecord
  2
DASHED
 70
64
  3
- - - - - - - - - - - - - - - - - - - -
 72
65
 73
2
 40
0.2
 49
0.1
 74
0
 49
-0.1
 74
0
  0
ENDTAB
  0
TABLE
  2
LAYER
  5
2
100
AcDbSymbolTable
 70
36
  0
LAYER
  5
10
100
AcDbSymbolTableRecord
100
AcDbLayerTableRecord
  2
0
 70
0
 62
7
  6
CONTINUOUS
370
-3
390
F
  0
LAYER
  5
1FA
100
AcDbSymbolTableRecord
100
AcDbLayerTableRecord
  2
DEFAULT_1
 70
0
 62
7
  6
CENTER
370
-3
390
F
  0
LAYER
  5
1FB
100
AcDbSymbolTableRecord
100
AcDbLayerTableRecord
  2
DEFAULT_2
 70
0
 62
8
  6
HIDDEN
370
-3
390
F
  0
LAYER
  5
1FC
100
AcDbSymbolTableRecord
100
AcDbLayerTableRecord
  2
DEFAULT_3
 70
0
 62
7
  6
PHANTOM
370
-3
390
F
  0
LAYER
  5
1FD
100
AcDbSymbolTableRecord
100
AcDbLayerTableRecord
  2
01___PRT_ALL_DTM_PLN
 70
0
 62
7
  6
CONTINUOUS
370
-3
390
F
  0
LAYER
  5
1FE
100
AcDbSymbolTableRecord
100
AcDbLayerTableRecord
  2
01___PRT_DEF_DTM_PLN
 70
0
 62
7
  6
CONTINUOUS
370
-3
390
F
  0
LAYER
  5
1FF
100
AcDbSymbolTableRecord
100
AcDbLayerTableRecord
  2
02___PRT_ALL_AXES
 70
0
 62
7
  6
CONTINUOUS
370
-3
390
F
  0
LAYER
  5
200
100
AcDbSymbolTableRecord
100
AcDbLayerTableRecord
  2
03___PRT_ALL_CURVES
 70
0
 62
7
  6
CONTINUOUS
370
-3
390
F
  0
LAYER
  5
201
100
AcDbSymbolTableRecord
100
AcDbLayerTableRecord
  2
04___PRT_ALL_DTM_PNT
 70
0
 62
7
  6
CONTINUOUS
370
-3
390
F
  0
LAYER
  5
202
100
AcDbSymbolTableRecord
100
AcDbLayerTableRecord
  2
05___PRT_ALL_DTM_CSYS
 70
0
 62
7
  6
CONTINUOUS
370
-3
390
F
  0
LAYER
  5
203
100
AcDbSymbolTableRecord
100
AcDbLayerTableRecord
  2
05___PRT_DEF_DTM_CSYS
 70
0
 62
7
  6
CONTINUOUS
370
-3
390
F
  0
LAYER
  5
204
100
AcDbSymbolTableRecord
100
AcDbLayerTableRecord
  2
06___PRT_ALL_SURFS
 70
0
 62
7
  6
CONTINUOUS
370
-3
390
F
  0
LAYER
  5
205
100
AcDbSymbolTableRecord
100
AcDbLayerTableRecord
  2
ALLE
 70
0
 62
7
  6
CONTINUOUS
370
-3
390
F
  0
LAYER
  5
206
100
AcDbSymbolTableRecord
100
AcDbLayerTableRecord
  2
AUSFORMSCHRAEGEN
 70
0
 62
7
  6
CONTINUOUS
370
-3
390
F
  0
LAYER
  5
207
100
AcDbSymbolTableRecord
100
AcDbLayerTableRecord
  2
BEZUGSACHSEN
 70
0
 62
7
  6
CONTINUOUS
370
-3
390
F
  0
LAYER
  5
208
100
AcDbSymbolTableRecord
100
AcDbLayerTableRecord
  2
BEZUGSEBENE
 70
0
 62
7
  6
CONTINUOUS
370
-3
390
F
  0
LAYER
  5
209
100
AcDbSymbolTableRecord
100
AcDbLayerTableRecord
  2
BEZUGSEBENEN
 70
0
 62
7
  6
CONTINUOUS
370
-3
390
F
  0
LAYER
  5
20A
100
AcDbSymbolTableRecord
100
AcDbLayerTableRecord
  2
BEZUGSEBENEN-KES
 70
0
 62
7
  6
CONTINUOUS
370
-3
390
F
  0
LAYER
  5
20B
100
AcDbSymbolTableRecord
100
AcDbLayerTableRecord
  2
FLAECHEN
 70
0
 62
7
  6
CONTINUOUS
370
-3
390
F
  0
LAYER
  5
20C
100
AcDbSymbolTableRecord
100
AcDbLayerTableRecord
  2
KURVEN
 70
0
 62
7
  6
CONTINUOUS
370
-3
390
F
  0
LAYER
  5
20D
100
AcDbSymbolTableRecord
100
AcDbLayerTableRecord
  2
PARAMETER-BEMAßUNGEN
 70
0
 62
7
  6
CONTINUOUS
370
-3
390
F
  0
LAYER
  5
20E
100
AcDbSymbolTableRecord
100
AcDbLayerTableRecord
  2
RUNDUNGEN
 70
0
 62
7
  6
CONTINUOUS
370
-3
390
F
  0
LAYER
  5
20F
100
AcDbSymbolTableRecord
100
AcDbLayerTableRecord
  2
SAMMELFLÄCHEN
 70
0
 62
7
  6
CONTINUOUS
370
-3
390
F
  0
ENDTAB
  0
TABLE
  2
STYLE
  5
3
100
AcDbSymbolTable
 70
1
  0
STYLE
  5
11
100
AcDbSymbolTableRecord
100
AcDbTextStyleTableRecord
  2
STANDARD
 70
0
 40
0.0
 41
0.7
 50
0.0
 71
0
 42
0.2
  3
txt
  4

  0
STYLE
  5
210
100
AcDbSymbolTableRecord
100
AcDbTextStyleTableRecord
  2
TEXTSTYLE_1
 70
0
 40
0.0
 41
0.8
 50
0.0
 71
0
 42
0.2
  3
gdt
  4

  0
ENDTAB
  0
TABLE
  2
VIEW
  5
6
100
AcDbSymbolTable
 70
0
  0
ENDTAB
  0
TABLE
  2
UCS
  5
7
100
AcDbSymbolTable
 70
0
  0
ENDTAB
  0
TABLE
  2
APPID
  5
9
100
AcDbSymbolTable
 70
1
  0
APPID
  5
211
100
AcDbSymbolTableRecord
100
AcDbRegAppTableRecord
  2
ACAD
 70
0
  0
ENDTAB
  0
TABLE
  2
BLOCK_RECORD
  5
1
100
AcDbSymbolTable
 70
0
  0
BLOCK_RECORD
  5
212
100
AcDbSymbolTableRecord
100
AcDbBlockTableRecord
  2
*Model_Space
  0
BLOCK_RECORD
  5
213
100
AcDbSymbolTableRecord
100
AcDbBlockTableRecord
  2
*Paper_Space
  0
ENDTAB
  0
TABLE
  2
DIMSTYLE
  5
A
100
AcDbSymbolTable
 70
1
100
AcDbDimStyleTable
 71
0
  0
DIMSTYLE
105
214
100
AcDbSymbolTableRecord
100
AcDbDimStyleTableRecord
  2
STANDARD
 70
0
  3

  4

 40
1.0
 41
3.5
 42
0.0
 43
0.38
 44
1.5
 45
0.0
 46
0.0
 47
0.005
 48
0.005
140
3.5
141
0.09
142
0.0
143
25.4
144
1.0
145
0.0
146
1.0
147
0.625
 71
1.0
 72
0.0
 73
0
 74
0
 75
0
 76
0
 77
1
 78
8
170
0
171
2
172
0
173
0
174
0
175
0
176
0
177
0
178
5
270
2
271
3
272
3
273
2
274
2
275
0
280
0
281
0
282
0
283
1
284
8
285
0
286
0
287
3
288
0
340
11
278
46
  0
ENDTAB
  0
ENDSEC
  0
SECTION
  2
BLOCKS
  0
BLOCK
  5
20
100
AcDbEntity
  8
0
100
AcDbBlockBegin
  2
*Model_Space
 70
0
 10
0.0
 20
0.0
 30
0.0
  3
*Model_Space
  1

  0
ENDBLK
  5
21
100
AcDbEntity
  8
0
100
AcDbBlockEnd
  0
BLOCK
  5
1C
100
AcDbEntity
  8
0
100
AcDbBlockBegin
  2
*Paper_Space
 70
0
 10
0.0
 20
0.0
 30
0.0
  3
*Paper_Space
  1

  0
ENDBLK
  5
1D
100
AcDbEntity
  8
0
100
AcDbBlockEnd
  0
ENDSEC
  0
SECTION
  2
ENTITIES
  0
LINE
  5
215
100
AcDbEntity
  8
0
100
AcDbLine
 62
7
  6
CONTINUOUS
 10
0.0
 20
0.0
 11
0.0
 21
210.0
  0
LINE
  5
216
100
AcDbEntity
  8
0
100
AcDbLine
 62
7
  6
CONTINUOUS
 10
0.0
 20
0.0
 11
297.0
 21
0.0
  0
LINE
  5
217
100
AcDbEntity
  8
0
100
AcDbLine
 62
7
  6
CONTINUOUS
 10
0.0
 20
210.0
 11
297.0
 21
210.0
  0
LINE
  5
218
100
AcDbEntity
  8
0
100
AcDbLine
 62
7
  6
CONTINUOUS
 10
297.0
 20
0.0
 11
297.0
 21
210.0
  0
LINE
  5
219
100
AcDbEntity
  8
0
100
AcDbLine
 62
7
  6
CONTINUOUS
 10
103.75
 20
126.6406252602
 11
102.8975039373
 21
126.6406252602
  0
LINE
  5
21A
100
AcDbEntity
  8
0
100
AcDbLine
 62
7
  6
CONTINUOUS
 10
55.75
 20
126.6406252602
 11
57.45
 21
126.6406252602
  0
LINE
  5
21B
100
AcDbEntity
  8
0
100
AcDbLine
 62
7
  6
CONTINUOUS
 10
68.4429742566
 20
126.6406252602
 11
85.7243427628
 21
126.6406252602
  0
LINE
  5
21C
100
AcDbEntity
  8
RUNDUNGEN
100
AcDbLine
 62
7
  6
CONTINUOUS
 10
55.7500061358
 20
126.6406252602
 11
102.8975039373
 21
126.6406252602
  0
LINE
  5
21D
100
AcDbEntity
  8
RUNDUNGEN
100
AcDbLine
 62
7
  6
CONTINUOUS
 10
86.6902685891
 20
127.6406252602
 11
99.1092499401
 21
127.6406243583
  0
LINE
  5
21E
100
AcDbEntity
  8
RUNDUNGEN
100
AcDbLine
 62
7
  6
CONTINUOUS
 10
62.1040449409
 20
127.6406233112
 11
67.4581665036
 21
127.6406252602
  0
LINE
  5
21F
100
AcDbEntity
  8
RUNDUNGEN
100
AcDbLine
 62
7
  6
CONTINUOUS
 10
67.6997459916
 20
130.9456252602
 11
63.8833753324
 21
130.9456252602
  0
LINE
  5
220
100
AcDbEntity
  8
0
100
AcDbLine
 62
7
  6
CONTINUOUS
 10
87.5366716013
 20
130.9456252602
 11
92.1453977111
 21
130.9456252602
  0
LINE
  5
221
100
AcDbEntity
  8
RUNDUNGEN
100
AcDbLine
 62
7
  6
CONTINUOUS
 10
54.75
 20
127.6406252602
 11
54.75
 21
140.6406252602
  0
LINE
  5
222
100
AcDbEntity
  8
RUNDUNGEN
100
AcDbLine
 62
7
  6
CONTINUOUS
 10
55.7499998889
 20
126.8004928577
 11
55.7500004971
 21
141.4807151927
  0
LINE
  5
223
100
AcDbEntity
  8
0
100
AcDbLine
 62
7
  6
CONTINUOUS
 10
92.1453977111
 20
137.3356252602
 11
87.5366716013
 21
137.3356252602
  0
LINE
  5
224
100
AcDbEntity
  8
RUNDUNGEN
100
AcDbLine
 62
7
  6
CONTINUOUS
 10
63.8833753324
 20
137.3356252602
 11
67.6997444978
 21
137.3356252602
  0
LINE
  5
225
100
AcDbEntity
  8
RUNDUNGEN
100
AcDbLine
 62
7
  6
CONTINUOUS
 10
81.9073948804
 20
141.6523887964
 11
81.8747501442
 21
141.644142627
  0
LINE
  5
226
100
AcDbEntity
  8
RUNDUNGEN
100
AcDbLine
 62
7
  6
CONTINUOUS
 10
81.8747501442
 20
141.644142627
 11
81.831598711
 21
141.6406256537
  0
LINE
  5
227
100
AcDbEntity
  8
RUNDUNGEN
100
AcDbLine
 62
7
  6
CONTINUOUS
 10
82.9428329603
 20
140.4428376395
 11
83.9241834976
 21
140.4428376395
  0
LINE
  5
228
100
AcDbEntity
  8
RUNDUNGEN
100
AcDbLine
 62
7
  6
CONTINUOUS
 10
62.1040472031
 20
140.6406278436
 11
67.4581665036
 21
140.6406252602
  0
LINE
  5
229
100
AcDbEntity
  8
RUNDUNGEN
100
AcDbLine
 62
7
  6
CONTINUOUS
 10
99.1092596816
 20
140.6406281612
 11
86.6902685891
 21
140.6406252602
  0
LINE
  5
22A
100
AcDbEntity
  8
RUNDUNGEN
100
AcDbLine
 62
7
  6
CONTINUOUS
 10
82.9429229166
 20
141.191249243
 11
83.924103386
 21
141.191249243
  0
LINE
  5
22B
100
AcDbEntity
  8
RUNDUNGEN
100
AcDbLine
 62
7
  6
CONTINUOUS
 10
86.1125326954
 20
141.5563159381
 11
98.5315110906
 21
141.5563162316
  0
LINE
  5
22C
100
AcDbEntity
  8
RUNDUNGEN
100
AcDbLine
 62
7
  6
CONTINUOUS
 10
102.8975031667
 20
141.6406252602
 11
99.723352799
 21
141.6406252602
  0
LINE
  5
22D
100
AcDbEntity
  8
0
100
AcDbLine
 62
7
  6
CONTINUOUS
 10
63.0888381325
 20
141.6406252602
 11
55.75
 21
141.6406252602
  0
LINE
  5
22E
100
AcDbEntity
  8
RUNDUNGEN
100
AcDbLine
 62
7
  6
CONTINUOUS
 10
55.7500087466
 20
141.6406252602
 11
81.8294661553
 21
141.6406252602
  0
LINE
  5
22F
100
AcDbEntity
  8
0
100
AcDbLine
 62
7
  6
CONTINUOUS
 10
68.4429742566
 20
141.6406252602
 11
81.8294473297
 21
141.6406252602
  0
LINE
  5
230
100
AcDbEntity
  8
0
100
AcDbLine
 62
7
  6
CONTINUOUS
 10
100.5807422573
 20
141.6406252602
 11
103.75
 21
141.6406252602
  0
LINE
  5
231
100
AcDbEntity
  8
RUNDUNGEN
100
AcDbLine
 62
7
  6
CONTINUOUS
 10
85.592597601
 20
142.3725815474
 11
98.0115815917
 21
142.3725846898
  0
LINE
  5
232
100
AcDbEntity
  8
RUNDUNGEN
100
AcDbLine
 62
7
  6
CONTINUOUS
 10
98.8540509155
 20
142.5327717082
 11
99.7114421152
 21
142.5327713782
  0
LWPOLYLINE
  5
233
100
AcDbEntity
  8
RUNDUNGEN
100
AcDbPolyline
 62
7
  6
CONTINUOUS
 90
4
 70
0
 10
100.5785908611
 20
141.640625653
 10
100.5354394303
 20
141.6441426288
 10
100.4923041728
 20
141.6550387415
 10
100.4779537213
 20
141.6611889214
  0
LINE
  5
234
100
AcDbEntity
  8
RUNDUNGEN
100
AcDbLine
 62
7
  6
CONTINUOUS
 10
67.6473279574
 20
137.3356252602
 11
67.6773129095
 21
137.1391947408
  0
LWPOLYLINE
  5
235
100
AcDbEntity
  8
RUNDUNGEN
100
AcDbPolyline
 62
7
  6
CONTINUOUS
 90
10
 70
0
 10
67.6773129095
 20
137.1391947408
 10
67.7100383748
 20
136.8949797973
 10
67.7408634275
 20
136.6290738199
 10
67.7692020461
 20
136.3429775764
 10
67.7945449653
 20
136.0382860331
 10
67.8164820389
 20
135.7168728232
 10
67.8345771355
 20
135.3806340283
 10
67.8484808873
 20
135.0317528151
 10
67.8579219043
 20
134.6724807521
 10
67.8625825549
 20
134.3053826812
  0
LINE
  5
236
100
AcDbEntity
  8
RUNDUNGEN
100
AcDbLine
 62
7
  6
CONTINUOUS
 10
67.8625825549
 20
134.3053826812
 11
67.8630712851
 21
134.1411259397
  0
LINE
  5
237
100
AcDbEntity
  8
RUNDUNGEN
100
AcDbLine
 62
7
  6
CONTINUOUS
 10
68.0214115054
 20
139.8015422695
 11
68.0214222925
 21
128.4797361872
  0
LINE
  5
238
100
AcDbEntity
  8
RUNDUNGEN
100
AcDbLine
 62
7
  6
CONTINUOUS
 10
67.8630712857
 20
134.1411259393
 11
67.8626874827
 21
133.9945745363
  0
LWPOLYLINE
  5
239
100
AcDbEntity
  8
RUNDUNGEN
100
AcDbPolyline
 62
7
  6
CONTINUOUS
 90
10
 70
0
 10
67.8626874827
 20
133.9945745363
 10
67.8582601527
 20
133.6263935504
 10
67.8490226683
 20
133.2660225478
 10
67.8352935392
 20
132.9160333416
 10
67.8173514201
 20
132.5786879009
 10
67.7955397504
 20
132.2561686881
 10
67.7702996055
 20
131.9503731678
 10
67.7420426692
 20
131.6631782779
 10
67.7112712322
 20
131.3961776957
 10
67.678577541
 20
131.1508757385
  0
LINE
  5
23A
100
AcDbEntity
  8
RUNDUNGEN
100
AcDbLine
 62
7
  6
CONTINUOUS
 10
67.678577541
 20
131.1508757385
 11
67.6473290551
 21
130.9456252602
  0
LINE
  5
23B
100
AcDbEntity
  8
RUNDUNGEN
100
AcDbLine
 62
7
  6
CONTINUOUS
 10
82.0528352922
 20
142.0679105497
 11
82.5490127564
 21
185.6953656636
  0
LINE
  5
23C
100
AcDbEntity
  8
RUNDUNGEN
100
AcDbLine
 62
7
  6
CONTINUOUS
 10
83.6261838056
 20
185.6929844732
 11
83.924103386
 21
141.191249243
  0
LINE
  5
23D
100
AcDbEntity
  8
RUNDUNGEN
100
AcDbLine
 62
7
  6
CONTINUOUS
 10
84.4954839477
 20
185.6929844732
 11
84.7894743014
 21
141.7899831315
  0
LINE
  5
23E
100
AcDbEntity
  8
RUNDUNGEN
100
AcDbLine
 62
7
  6
CONTINUOUS
 10
82.9428329603
 20
140.4428376395
 11
82.9428329603
 21
141.191249243
  0
LINE
  5
23F
100
AcDbEntity
  8
RUNDUNGEN
100
AcDbLine
 62
7
  6
CONTINUOUS
 10
83.9241834976
 20
140.4428376395
 11
83.9241834976
 21
141.191249243
  0
LINE
  5
240
100
AcDbEntity
  8
RUNDUNGEN
100
AcDbLine
 62
7
  6
CONTINUOUS
 10
82.9429229166
 20
141.191249243
 11
83.4489545563
 21
185.6929844732
  0
LWPOLYLINE
  5
241
100
AcDbEntity
  8
RUNDUNGEN
100
AcDbPolyline
 62
7
  6
CONTINUOUS
 90
6
 70
0
 10
82.0528386012
 20
142.0678688862
 10
82.0430250939
 20
141.960307369
 10
82.0153672372
 20
141.8514603678
 10
81.9721793385
 20
141.7512824877
 10
81.9182650834
 20
141.6653225756
 10
81.8658429255
 20
141.6029487064
  0
LINE
  5
242
100
AcDbEntity
  8
RUNDUNGEN
100
AcDbLine
 62
7
  6
CONTINUOUS
 10
100.5027946732
 20
141.6523888054
 11
100.4919248546
 21
141.6653221187
  0
LINE
  5
243
100
AcDbEntity
  8
RUNDUNGEN
100
AcDbLine
 62
7
  6
CONTINUOUS
 10
85.7430317543
 20
139.5952256019
 11
85.7430313858
 21
128.6860256767
  0
LINE
  5
244
100
AcDbEntity
  8
RUNDUNGEN
100
AcDbLine
 62
7
  6
CONTINUOUS
 10
100.4919248546
 20
141.6653221187
 11
100.4380106793
 21
141.7512816362
  0
LINE
  5
245
100
AcDbEntity
  8
RUNDUNGEN
100
AcDbLine
 62
7
  6
CONTINUOUS
 10
81.8658429255
 20
141.6029487064
 11
81.8660527168
 21
141.6031678336
  0
LINE
  5
246
100
AcDbEntity
  8
RUNDUNGEN
100
AcDbLine
 62
7
  6
CONTINUOUS
 10
81.8658429255
 20
141.6029487064
 11
81.8572862127
 21
141.5941862868
  0
LWPOLYLINE
  5
247
100
AcDbEntity
  8
RUNDUNGEN
100
AcDbPolyline
 62
7
  6
CONTINUOUS
 90
4
 70
0
 10
100.4380106793
 20
141.7512816362
 10
100.3948227003
 20
141.8514592114
 10
100.367164647
 20
141.9603061584
 10
100.3573509512
 20
142.0678686342
  0
LWPOLYLINE
  5
248
100
AcDbEntity
  8
RUNDUNGEN
100
AcDbPolyline
 62
7
  6
CONTINUOUS
 90
8
 70
0
 10
99.8240514368
 20
188.8292989158
 10
99.8093199907
 20
189.1378235906
 10
99.7829575161
 20
189.4462252382
 10
99.7452581086
 20
189.7440737865
 10
99.6968987566
 20
190.0245798788
 10
99.6389455312
 20
190.2821123594
 10
99.5725405394
 20
190.5135206894
 10
99.4981567198
 20
190.719075979
  0
LINE
  5
249
100
AcDbEntity
  8
RUNDUNGEN
100
AcDbLine
 62
7
  6
CONTINUOUS
 10
99.8273441426
 20
188.6691832018
 11
99.8240514368
 21
188.8292989158
  0
LINE
  5
24A
100
AcDbEntity
  8
RUNDUNGEN
100
AcDbLine
 62
7
  6
CONTINUOUS
 10
100.3250248948
 20
142.217629482
 11
99.7967136889
 21
188.6668048667
  0
LINE
  5
24B
100
AcDbEntity
  8
RUNDUNGEN
100
AcDbLine
 62
7
  6
CONTINUOUS
 10
100.3573610102
 20
142.0673972931
 11
99.8273553473
 21
188.6691860113
  0
LINE
  5
24C
100
AcDbEntity
  8
RUNDUNGEN
100
AcDbLine
 62
7
  6
CONTINUOUS
 10
103.75
 20
141.6406252602
 11
103.75
 21
126.6406252602
  0
LINE
  5
24D
100
AcDbEntity
  8
RUNDUNGEN
100
AcDbLine
 62
7
  6
CONTINUOUS
 10
104.75
 20
140.6406252602
 11
104.75
 21
127.6406252602
  0
LINE
  5
24E
100
AcDbEntity
  8
RUNDUNGEN
100
AcDbLine
 62
7
  6
CONTINUOUS
 10
83.4489545563
 20
185.6929844732
 11
83.6261838056
 21
185.6929844732
  0
LWPOLYLINE
  5
24F
100
AcDbEntity
  8
RUNDUNGEN
100
AcDbPolyline
 62
7
  6
CONTINUOUS
 90
18
 70
0
 10
84.7338200912
 20
191.6341763946
 10
84.4875273574
 20
191.584608209
 10
84.2529709504
 20
191.4882639128
 10
84.0389525959
 20
191.351588484
 10
83.849816279
 20
191.1833978053
 10
83.6801964448
 20
190.9853521026
 10
83.5268130302
 20
190.7582313759
 10
83.3841342382
 20
190.4961495838
 10
83.2482900817
 20
190.1902078718
 10
83.1197700331
 20
189.8370403518
 10
82.9988478104
 20
189.4317192458
 10
82.8879685135
 20
188.9756216709
 10
82.7893992202
 20
188.4718860904
 10
82.7054922202
 20
187.9266965981
 10
82.6382631802
 20
187.3490140673
 10
82.5891864198
 20
186.7494535914
 10
82.559144072
 20
186.1426013241
 10
82.5490198933
 20
185.6953645404
  0
LINE
  5
250
100
AcDbEntity
  8
RUNDUNGEN
100
AcDbLine
 62
7
  6
CONTINUOUS
 10
84.8556175904
 20
191.6405930199
 11
84.7338200912
 21
191.6341763946
  0
LINE
  5
251
100
AcDbEntity
  8
RUNDUNGEN
100
AcDbLine
 62
7
  6
CONTINUOUS
 10
99.2152344697
 20
190.7484791421
 11
85.8162978249
 21
190.7484791421
  0
LINE
  5
252
100
AcDbEntity
  8
RUNDUNGEN
100
AcDbLine
 62
7
  6
CONTINUOUS
 10
84.8556174987
 20
191.6406072421
 11
98.3459343275
 21
191.6406252602
  0
LWPOLYLINE
  5
253
100
AcDbEntity
  8
RUNDUNGEN
100
AcDbPolyline
 62
7
  6
CONTINUOUS
 90
10
 70
0
 10
99.4981567198
 20
190.719075979
 10
99.4163346563
 20
190.8992634597
 10
99.3245952341
 20
191.0600130917
 10
99.2194756606
 20
191.205141909
 10
99.0989661362
 20
191.3341058885
 10
98.960514952
 20
191.4458258258
 10
98.8066603116
 20
191.5351280664
 10
98.642544704
 20
191.5979870007
 10
98.4717340848
 20
191.6330327696
 10
98.3495331459
 20
191.6405930551
  0
LINE
  5
254
100
AcDbEntity
  8
RUNDUNGEN
100
AcDbLine
 62
7
  6
CONTINUOUS
 10
192.71875
 20
126.6406252602
 11
245.2184062887
 21
126.6406252602
  0
LINE
  5
255
100
AcDbEntity
  8
RUNDUNGEN
100
AcDbLine
 62
7
  6
CONTINUOUS
 10
192.71875
 20
127.6406252602
 11
205.5598645984
 21
127.6406252602
  0
LINE
  5
256
100
AcDbEntity
  8
RUNDUNGEN
100
AcDbLine
 62
7
  6
CONTINUOUS
 10
215.0276658995
 20
127.6406233112
 11
245.3923981777
 21
127.6406252602
  0
LINE
  5
257
100
AcDbEntity
  8
RUNDUNGEN
100
AcDbLine
 62
7
  6
CONTINUOUS
 10
189.4791412521
 20
188.6668048667
 11
189.0648283549
 21
141.191249243
  0
LINE
  5
258
100
AcDbEntity
  8
RUNDUNGEN
100
AcDbLine
 62
7
  6
CONTINUOUS
 10
190.1461787118
 20
188.6668048667
 11
189.7370908794
 21
141.7899823673
  0
LINE
  5
259
100
AcDbEntity
  8
RUNDUNGEN
100
AcDbLine
 62
7
  6
CONTINUOUS
 10
246.7624635364
 20
130.9456252602
 11
225.11875
 21
130.9456252602
  0
LINE
  5
25A
100
AcDbEntity
  8
RUNDUNGEN
100
AcDbLine
 62
7
  6
CONTINUOUS
 10
192.71875
 20
127.6406252602
 11
192.71875
 21
126.6406252602
  0
LINE
  5
25B
100
AcDbEntity
  8
RUNDUNGEN
100
AcDbLine
 62
7
  6
CONTINUOUS
 10
192.71875
 20
140.6406252602
 11
192.7187500008
 21
141.6406252602
  0
LINE
  5
25C
100
AcDbEntity
  8
RUNDUNGEN
100
AcDbLine
 62
7
  6
CONTINUOUS
 10
225.11875
 20
137.3356252602
 11
246.7624550643
 21
137.3356252602
  0
LINE
  5
25D
100
AcDbEntity
  8
RUNDUNGEN
100
AcDbLine
 62
7
  6
CONTINUOUS
 10
205.5598843903
 20
140.6406252602
 11
192.71875
 21
140.6406252602
  0
LINE
  5
25E
100
AcDbEntity
  8
RUNDUNGEN
100
AcDbLine
 62
7
  6
CONTINUOUS
 10
215.0276787289
 20
140.6406278436
 11
245.3923981777
 21
140.6406252602
  0
LINE
  5
25F
100
AcDbEntity
  8
RUNDUNGEN
100
AcDbLine
 62
7
  6
CONTINUOUS
 10
206.5536862434
 20
127.779184107
 11
206.759060807
 21
126.8004997423
  0
LINE
  5
260
100
AcDbEntity
  8
RUNDUNGEN
100
AcDbLine
 62
7
  6
CONTINUOUS
 10
205.5598645984
 20
127.6406252602
 11
205.630096809
 21
126.6445054607
  0
LINE
  5
261
100
AcDbEntity
  8
RUNDUNGEN
100
AcDbLine
 62
7
  6
CONTINUOUS
 10
192.71875
 20
141.6406252602
 11
245.2184671085
 21
141.6406252602
  0
LINE
  5
262
100
AcDbEntity
  8
RUNDUNGEN
100
AcDbLine
 62
7
  6
CONTINUOUS
 10
192.7540180969
 20
142.3725798035
 11
217.3069640072
 21
142.3725841855
  0
LINE
  5
263
100
AcDbEntity
  8
RUNDUNGEN
100
AcDbLine
 62
7
  6
CONTINUOUS
 10
220.1342464273
 20
142.5327713782
 11
245.4516782711
 21
142.5327713782
  0
LINE
  5
264
100
AcDbEntity
  8
RUNDUNGEN
100
AcDbLine
 62
7
  6
CONTINUOUS
 10
205.5598645984
 20
127.6406252602
 11
205.5598645984
 21
126.6406252602
  0
LINE
  5
265
100
AcDbEntity
  8
RUNDUNGEN
100
AcDbLine
 62
7
  6
CONTINUOUS
 10
205.5598743284
 20
140.6406252602
 11
205.5598743284
 21
141.6406252601
  0
LINE
  5
266
100
AcDbEntity
  8
RUNDUNGEN
100
AcDbLine
 62
7
  6
CONTINUOUS
 10
205.5598743284
 20
140.6406252602
 11
205.6300960897
 21
141.6367457131
  0
LINE
  5
267
100
AcDbEntity
  8
RUNDUNGEN
100
AcDbLine
 62
7
  6
CONTINUOUS
 10
206.5536973231
 20
140.502064889
 11
206.7590774458
 21
141.4807472864
  0
LINE
  5
268
100
AcDbEntity
  8
RUNDUNGEN
100
AcDbLine
 62
7
  6
CONTINUOUS
 10
247.7309744774
 20
142.2176294676
 11
247.3514168835
 21
185.6929844732
  0
LINE
  5
269
100
AcDbEntity
  8
RUNDUNGEN
100
AcDbLine
 62
7
  6
CONTINUOUS
 10
248.8726716451
 20
141.191249243
 11
248.4843108853
 21
185.6929844684
  0
LINE
  5
26A
100
AcDbEntity
  8
RUNDUNGEN
100
AcDbLine
 62
7
  6
CONTINUOUS
 10
248.5867193167
 20
139.8015422695
 11
248.5867804932
 21
128.4797361872
  0
LINE
  5
26B
100
AcDbEntity
  8
RUNDUNGEN
100
AcDbLine
 62
7
  6
CONTINUOUS
 10
242.2516110758
 20
190.7484791421
 11
192.2460987503
 21
190.7484791421
  0
LINE
  5
26C
100
AcDbEntity
  8
RUNDUNGEN
100
AcDbLine
 62
7
  6
CONTINUOUS
 10
242.4842028914
 20
191.6406252602
 11
192.4790270213
 21
191.6406252602
  0
LINE
  5
26D
100
AcDbEntity
  8
0
100
AcDbLine
 62
7
  6
CONTINUOUS
 10
72.9454981559
 20
44.953125
 11
80.9133650601
 21
44.953125
  0
LINE
  5
26E
100
AcDbEntity
  8
RUNDUNGEN
100
AcDbLine
 62
7
  6
CONTINUOUS
 10
82.9428329603
 20
48.3871541287
 11
83.9241834976
 21
48.3871541287
  0
LINE
  5
26F
100
AcDbEntity
  8
RUNDUNGEN
100
AcDbLine
 62
7
  6
CONTINUOUS
 10
82.9429229166
 20
48.7992033549
 11
83.924103386
 21
48.7992033549
  0
LINE
  5
270
100
AcDbEntity
  8
RUNDUNGEN
100
AcDbLine
 62
7
  6
CONTINUOUS
 10
83.4489545563
 20
49.1875641147
 11
83.6261838056
 21
49.1875641147
  0
LINE
  5
271
100
AcDbEntity
  8
RUNDUNGEN
100
AcDbLine
 62
7
  6
CONTINUOUS
 10
54.75
 20
85.953125
 11
54.75
 21
111.453125
  0
LINE
  5
272
100
AcDbEntity
  8
RUNDUNGEN
100
AcDbLine
 62
7
  6
CONTINUOUS
 10
55.75
 20
92.1120006716
 11
55.6969627729
 21
92.0417789103
  0
LINE
  5
273
100
AcDbEntity
  8
RUNDUNGEN
100
AcDbLine
 62
7
  6
CONTINUOUS
 10
68.4429243752
 20
52.4534078915
 11
81.8294661553
 21
52.453195258
  0
LINE
  5
274
100
AcDbEntity
  8
RUNDUNGEN
100
AcDbLine
 62
7
  6
CONTINUOUS
 10
55.75
 20
84.953125
 11
55.7500004971
 21
90.9126446263
  0
LINE
  5
275
100
AcDbEntity
  8
RUNDUNGEN
100
AcDbLine
 62
7
  6
CONTINUOUS
 10
55.7500087466
 20
92.1119839476
 11
55.75
 21
112.453125
  0
LINE
  5
276
100
AcDbEntity
  8
RUNDUNGEN
100
AcDbLine
 62
7
  6
CONTINUOUS
 10
68.4429742566
 20
52.453125
 11
67.4581665036
 21
52.2794768223
  0
LINE
  5
277
100
AcDbEntity
  8
RUNDUNGEN
100
AcDbLine
 62
7
  6
CONTINUOUS
 10
84.8612085275
 20
55.1876721086
 11
84.94708834
 21
55.1876739905
  0
LINE
  5
278
100
AcDbEntity
  8
RUNDUNGEN
100
AcDbLine
 62
7
  6
CONTINUOUS
 10
81.8294473297
 20
52.453125
 11
82.6987474718
 21
52.2201967289
  0
LINE
  5
279
100
AcDbEntity
  8
RUNDUNGEN
100
AcDbLine
 62
7
  6
CONTINUOUS
 10
86.6902685891
 20
52.1943059549
 11
85.592597601
 21
52.4884069147
  0
LINE
  5
27A
100
AcDbEntity
  8
RUNDUNGEN
100
AcDbLine
 62
7
  6
CONTINUOUS
 10
83.9918182324
 20
55.4202639242
 11
84.8611183745
 21
55.1873356531
  0
LINE
  5
27B
100
AcDbEntity
  8
RUNDUNGEN
100
AcDbLine
 62
7
  6
CONTINUOUS
 10
85.8162978249
 20
54.954407382
 11
84.9469976832
 21
55.1873356546
  0
LINE
  5
27C
100
AcDbEntity
  8
RUNDUNGEN
100
AcDbLine
 62
7
  6
CONTINUOUS
 10
62.1040472031
 20
82.6441962711
 11
68.0214115054
 21
49.0851556833
  0
LINE
  5
27D
100
AcDbEntity
  8
RUNDUNGEN
100
AcDbLine
 62
7
  6
CONTINUOUS
 10
84.4954839477
 20
49.8546015744
 11
84.7894743014
 21
49.4714658861
  0
LINE
  5
27E
100
AcDbEntity
  8
RUNDUNGEN
100
AcDbLine
 62
7
  6
CONTINUOUS
 10
83.6261838056
 20
49.1875641147
 11
83.924103386
 21
48.7992033549
  0
LINE
  5
27F
100
AcDbEntity
  8
RUNDUNGEN
100
AcDbLine
 62
7
  6
CONTINUOUS
 10
63.0888381325
 20
82.8179373987
 11
68.4429243752
 21
52.4534078915
  0
LINE
  5
280
100
AcDbEntity
  8
RUNDUNGEN
100
AcDbLine
 62
7
  6
CONTINUOUS
 10
99.4672666264
 20
108.6070466451
 11
98.9274135468
 21
108.1927337479
  0
LINE
  5
281
100
AcDbEntity
  8
RUNDUNGEN
100
AcDbLine
 62
7
  6
CONTINUOUS
 10
63.6131248174
 20
104.9528016226
 11
67.8523015067
 21
80.911235934
  0
LINE
  5
282
100
AcDbEntity
  8
RUNDUNGEN
100
AcDbLine
 62
7
  6
CONTINUOUS
 10
100.3250248948
 20
107.465349416
 11
99.7967136889
 21
107.0598397461
  0
LINE
  5
283
100
AcDbEntity
  8
RUNDUNGEN
100
AcDbLine
 62
7
  6
CONTINUOUS
 10
63.4517772406
 20
111.6266196842
 11
68.8371092597
 21
81.0848841117
  0
LINE
  5
284
100
AcDbEntity
  8
RUNDUNGEN
100
AcDbLine
 62
7
  6
CONTINUOUS
 10
73.7611480248
 20
76.953125
 11
73.7611480248
 21
75.953125
  0
LINE
  5
285
100
AcDbEntity
  8
RUNDUNGEN
100
AcDbLine
 62
7
  6
CONTINUOUS
 10
73.7611480248
 20
75.953125
 11
84.3113583159
 21
75.953125
  0
LINE
  5
286
100
AcDbEntity
  8
RUNDUNGEN
100
AcDbLine
 62
7
  6
CONTINUOUS
 10
73.7611480248
 20
76.953125
 11
84.3113583159
 21
76.953125
  0
LINE
  5
287
100
AcDbEntity
  8
RUNDUNGEN
100
AcDbLine
 62
7
  6
CONTINUOUS
 10
88.6132327467
 20
77.7705568438
 11
89.4825328888
 21
77.5376285727
  0
LINE
  5
288
100
AcDbEntity
  8
RUNDUNGEN
100
AcDbLine
 62
7
  6
CONTINUOUS
 10
82.9428329603
 20
48.3871541287
 11
82.9428329603
 21
48.7992033549
  0
LINE
  5
289
100
AcDbEntity
  8
RUNDUNGEN
100
AcDbLine
 62
7
  6
CONTINUOUS
 10
83.9241834976
 20
48.3871541287
 11
83.9241834976
 21
48.7992033549
  0
LINE
  5
28A
100
AcDbEntity
  8
RUNDUNGEN
100
AcDbLine
 62
7
  6
CONTINUOUS
 10
84.3113583159
 20
76.953125
 11
84.3113583157
 21
75.953125
  0
LINE
  5
28B
100
AcDbEntity
  8
RUNDUNGEN
100
AcDbLine
 62
7
  6
CONTINUOUS
 10
68.8371092597
 20
81.0848841117
 11
67.8523015067
 21
80.911235934
  0
LINE
  5
28C
100
AcDbEntity
  8
RUNDUNGEN
100
AcDbLine
 62
7
  6
CONTINUOUS
 10
89.1409874473
 20
80.6590297745
 11
90.2386536839
 21
80.3649109928
  0
LINE
  5
28D
100
AcDbEntity
  8
RUNDUNGEN
100
AcDbLine
 62
7
  6
CONTINUOUS
 10
89.1409874473
 20
80.6590297745
 11
97.4615881405
 21
111.7119343109
  0
LINE
  5
28E
100
AcDbEntity
  8
RUNDUNGEN
100
AcDbLine
 62
7
  6
CONTINUOUS
 10
63.0888381325
 20
82.8179373987
 11
62.1040305267
 21
82.6442908474
  0
LINE
  5
28F
100
AcDbEntity
  8
0
100
AcDbLine
 62
7
  6
CONTINUOUS
 10
57.5014124396
 20
84.953125
 11
55.75
 21
84.953125
  0
LINE
  5
290
100
AcDbEntity
  8
RUNDUNGEN
100
AcDbLine
 62
7
  6
CONTINUOUS
 10
88.6132327806
 20
77.7705569704
 11
81.8294661553
 21
52.453195258
  0
LINE
  5
291
100
AcDbEntity
  8
RUNDUNGEN
100
AcDbLine
 62
7
  6
CONTINUOUS
 10
96.2976564988
 20
105.0571403039
 11
89.718723941
 21
80.5042257475
  0
LINE
  5
292
100
AcDbEntity
  8
RUNDUNGEN
100
AcDbLine
 62
7
  6
CONTINUOUS
 10
96.8175956727
 20
104.9178569031
 11
90.2386536839
 21
80.3649109928
  0
LINE
  5
293
100
AcDbEntity
  8
RUNDUNGEN
100
AcDbLine
 62
7
  6
CONTINUOUS
 10
89.4825328888
 20
77.5376285727
 11
82.6987474718
 21
52.2201967289
  0
LINE
  5
294
100
AcDbEntity
  8
RUNDUNGEN
100
AcDbLine
 62
7
  6
CONTINUOUS
 10
83.9918182324
 20
55.4202639242
 11
97.3907548771
 21
105.4257762497
  0
LINE
  5
295
100
AcDbEntity
  8
RUNDUNGEN
100
AcDbLine
 62
7
  6
CONTINUOUS
 10
84.8612085275
 20
55.1876721086
 11
98.2600550192
 21
105.1928479787
  0
LINE
  5
296
100
AcDbEntity
  8
RUNDUNGEN
100
AcDbLine
 62
7
  6
CONTINUOUS
 10
98.3459343275
 20
105.1928479787
 11
84.94708834
 21
55.1876739905
  0
LINE
  5
297
100
AcDbEntity
  8
RUNDUNGEN
100
AcDbLine
 62
7
  6
CONTINUOUS
 10
99.2152344697
 20
104.9599197076
 11
85.8162978249
 21
54.954407382
  0
LINE
  5
298
100
AcDbEntity
  8
RUNDUNGEN
100
AcDbLine
 62
7
  6
CONTINUOUS
 10
98.8540509155
 20
101.9862257629
 11
99.7114421152
 21
105.1860532711
  0
LINE
  5
299
100
AcDbEntity
  8
RUNDUNGEN
100
AcDbLine
 62
7
  6
CONTINUOUS
 10
85.592597601
 20
52.4884069147
 11
98.0115815917
 21
98.8366862523
  0
LINE
  5
29A
100
AcDbEntity
  8
RUNDUNGEN
100
AcDbLine
 62
7
  6
CONTINUOUS
 10
86.1125326954
 20
52.3491098153
 11
98.5315110906
 21
98.6973707482
  0
LINE
  5
29B
100
AcDbEntity
  8
RUNDUNGEN
100
AcDbLine
 62
7
  6
CONTINUOUS
 10
99.723352799
 20
101.7533031753
 11
100.5807234308
 21
104.9530547384
  0
LINE
  5
29C
100
AcDbEntity
  8
RUNDUNGEN
100
AcDbLine
 62
7
  6
CONTINUOUS
 10
99.1092596816
 20
98.5426116907
 11
85.7430317543
 21
48.6591699604
  0
LINE
  5
29D
100
AcDbEntity
  8
RUNDUNGEN
100
AcDbLine
 62
7
  6
CONTINUOUS
 10
54.75
 20
92.1120006716
 11
55.7500087465
 21
92.1120006716
  0
LINE
  5
29E
100
AcDbEntity
  8
RUNDUNGEN
100
AcDbLine
 62
7
  6
CONTINUOUS
 10
98.4860060894
 20
109.0190958713
 11
98.4860060894
 21
108.6070466451
  0
LINE
  5
29F
100
AcDbEntity
  8
RUNDUNGEN
100
AcDbLine
 62
7
  6
CONTINUOUS
 10
99.4673566268
 20
109.0190958713
 11
99.4673566268
 21
108.6070466451
  0
LINE
  5
2A0
100
AcDbEntity
  8
RUNDUNGEN
100
AcDbLine
 62
7
  6
CONTINUOUS
 10
103.75
 20
97.453125
 11
100.3519865786
 21
97.453125
  0
LINE
  5
2A1
100
AcDbEntity
  8
RUNDUNGEN
100
AcDbLine
 62
7
  6
CONTINUOUS
 10
103.75
 20
112.453125
 11
103.75
 21
97.453125
  0
LINE
  5
2A2
100
AcDbEntity
  8
RUNDUNGEN
100
AcDbLine
 62
7
  6
CONTINUOUS
 10
104.75
 20
111.453125
 11
104.75
 21
98.453125
  0
LINE
  5
2A3
100
AcDbEntity
  8
RUNDUNGEN
100
AcDbLine
 62
7
  6
CONTINUOUS
 10
82.0851646756
 20
49.9409005226
 11
82.5796544142
 21
50.3204581165
  0
LINE
  5
2A4
100
AcDbEntity
  8
RUNDUNGEN
100
AcDbLine
 62
7
  6
CONTINUOUS
 10
99.1092481624
 20
98.5425687006
 11
98.0115815917
 21
98.8366862523
  0
LINE
  5
2A5
100
AcDbEntity
  8
RUNDUNGEN
100
AcDbLine
 62
7
  6
CONTINUOUS
 10
82.9429229166
 20
48.7992033549
 11
83.4489545563
 21
49.1875641147
  0
LINE
  5
2A6
100
AcDbEntity
  8
RUNDUNGEN
100
AcDbLine
 62
7
  6
CONTINUOUS
 10
102.8975031667
 20
104.953125
 11
100.5807234308
 21
104.9530547384
  0
LINE
  5
2A7
100
AcDbEntity
  8
RUNDUNGEN
100
AcDbLine
 62
7
  6
CONTINUOUS
 10
54.75
 20
104.953125
 11
63.6131248174
 21
104.9528016226
  0
LINE
  5
2A8
100
AcDbEntity
  8
RUNDUNGEN
100
AcDbLine
 62
7
  6
CONTINUOUS
 10
98.3459343275
 20
105.1928479787
 11
98.2600550192
 21
105.1928479787
  0
LINE
  5
2A9
100
AcDbEntity
  8
RUNDUNGEN
100
AcDbLine
 62
7
  6
CONTINUOUS
 10
99.7233513881
 20
101.7532979098
 11
98.8540509155
 21
101.9862257629
  0
LINE
  5
2AA
100
AcDbEntity
  8
RUNDUNGEN
100
AcDbLine
 62
7
  6
CONTINUOUS
 10
64.5978755502
 20
105.1267731777
 11
63.6130677972
 21
104.953125
  0
LINE
  5
2AB
100
AcDbEntity
  8
RUNDUNGEN
100
AcDbLine
 62
7
  6
CONTINUOUS
 10
98.9274135468
 20
108.1927337479
 11
98.8039195569
 21
108.1927337479
  0
LINE
  5
2AC
100
AcDbEntity
  8
RUNDUNGEN
100
AcDbLine
 62
7
  6
CONTINUOUS
 10
99.4672666264
 20
108.6070466451
 11
98.4860862722
 21
108.6070466451
  0
LINE
  5
2AD
100
AcDbEntity
  8
RUNDUNGEN
100
AcDbLine
 62
7
  6
CONTINUOUS
 10
99.4673566268
 20
109.0190958713
 11
98.4860060894
 21
109.0190958713
  0
LINE
  5
2AE
100
AcDbEntity
  8
RUNDUNGEN
100
AcDbLine
 62
7
  6
CONTINUOUS
 10
95.7199209979
 20
105.2119440451
 11
96.8175956727
 21
104.9178569031
  0
LINE
  5
2AF
100
AcDbEntity
  8
RUNDUNGEN
100
AcDbLine
 62
7
  6
CONTINUOUS
 10
97.3907548771
 20
105.4257762497
 11
98.2600550181
 21
105.1928479745
  0
LINE
  5
2B0
100
AcDbEntity
  8
RUNDUNGEN
100
AcDbLine
 62
7
  6
CONTINUOUS
 10
99.2152344697
 20
104.9599197076
 11
98.3459343275
 21
105.1928479787
  0
LINE
  5
2B1
100
AcDbEntity
  8
RUNDUNGEN
100
AcDbLine
 62
7
  6
CONTINUOUS
 10
100.5807422573
 20
104.953125
 11
99.7114421152
 21
105.1860532711
  0
LINE
  5
2B2
100
AcDbEntity
  8
RUNDUNGEN
100
AcDbLine
 62
7
  6
CONTINUOUS
 10
103.75
 20
112.453125
 11
102.8365704891
 21
112.453125
  0
LINE
  5
2B3
100
AcDbEntity
  8
0
100
AcDbLine
 62
7
  6
CONTINUOUS
 10
62.4717635543
 20
112.453125
 11
55.75
 21
112.453125
  0
LINE
  5
2B4
100
AcDbEntity
  8
0
100
AcDbLine
 62
7
  6
CONTINUOUS
 10
98.4228614897
 20
112.453125
 11
103.75
 21
112.453125
  0
LINE
  5
2B5
100
AcDbEntity
  8
RUNDUNGEN
100
AcDbLine
 62
7
  6
CONTINUOUS
 10
97.9346194148
 20
107.5256962882
 11
97.6207152805
 21
107.9347841206
  0
LINE
  5
2B6
100
AcDbEntity
  8
RUNDUNGEN
100
AcDbLine
 62
7
  6
CONTINUOUS
 10
98.8039195569
 20
108.1927337479
 11
98.4860862722
 21
108.6070466451
  0
ARC
  5
2B7
100
AcDbEntity
  8
RUNDUNGEN
100
AcDbCircle
 62
7
  6
CONTINUOUS
 10
91.9953155122
 20
188.5777805304
 40
7.8019061032
100
AcDbArc
 50
0.6537927228
 51
2.353833909
  0
ARC
  5
2B8
100
AcDbEntity
  8
RUNDUNGEN
100
AcDbCircle
 62
7
  6
CONTINUOUS
 10
103.75
 20
140.6406252602
 40
1.0
100
AcDbArc
 50
0.0
 51
90.0
  0
ARC
  5
2B9
100
AcDbEntity
  8
RUNDUNGEN
100
AcDbCircle
 62
7
  6
CONTINUOUS
 10
103.75
 20
127.6406252602
 40
1.0
100
AcDbArc
 50
270.0
 51
360.0
  0
ARC
  5
2BA
100
AcDbEntity
  8
RUNDUNGEN
100
AcDbCircle
 62
7
  6
CONTINUOUS
 10
55.7485270485
 20
140.6393946284
 40
0.9986040438
100
AcDbArc
 50
89.9994988597
 51
179.9293860157
  0
ARC
  5
2BB
100
AcDbEntity
  8
RUNDUNGEN
100
AcDbCircle
 62
7
  6
CONTINUOUS
 10
55.7485252593
 20
127.6418546679
 40
0.9986021724
100
AcDbArc
 50
180.07054387
 51
270.0
  0
ARC
  5
2BC
100
AcDbEntity
  8
RUNDUNGEN
100
AcDbCircle
 62
7
  6
CONTINUOUS
 10
55.7093264261
 20
127.7796485974
 40
0.959326539
100
AcDbArc
 50
180.0277942124
 51
189.2107427942
  0
ARC
  5
2BD
100
AcDbEntity
  8
RUNDUNGEN
100
AcDbCircle
 62
7
  6
CONTINUOUS
 10
55.7093238141
 20
140.5015996385
 40
0.9593239269
100
AcDbArc
 50
170.7892202562
 51
179.9722061191
  0
ARC
  5
2BE
100
AcDbEntity
  8
RUNDUNGEN
100
AcDbCircle
 62
7
  6
CONTINUOUS
 10
101.1820566355
 20
142.164531301
 40
0.858742009
100
AcDbArc
 50
176.4526072251
 51
185.8748729431
  0
ARC
  5
2BF
100
AcDbEntity
  8
RUNDUNGEN
100
AcDbCircle
 62
7
  6
CONTINUOUS
 10
84.9461901072
 20
190.798227701
 40
0.8423979462
100
AcDbArc
 50
78.3953501226
 51
89.9450726301
  0
ARC
  5
2C0
100
AcDbEntity
  8
RUNDUNGEN
100
AcDbCircle
 62
7
  6
CONTINUOUS
 10
101.1157810017
 20
142.1483211834
 40
0.7900271557
100
AcDbArc
 50
205.3506556692
 51
215.3139486399
  0
ARC
  5
2C1
100
AcDbEntity
  8
RUNDUNGEN
100
AcDbCircle
 62
7
  6
CONTINUOUS
 10
101.1067340331
 20
142.1424372198
 40
0.7792437131
100
AcDbArc
 50
215.3454449287
 51
219.1086429307
  0
ARC
  5
2C2
100
AcDbEntity
  8
RUNDUNGEN
100
AcDbCircle
 62
7
  6
CONTINUOUS
 10
81.829876071
 20
140.9553072642
 40
0.6853181291
100
AcDbArc
 50
90.0358419322
 51
98.6763463115
  0
ARC
  5
2C3
100
AcDbEntity
  8
RUNDUNGEN
100
AcDbCircle
 62
7
  6
CONTINUOUS
 10
55.7501388691
 20
127.0069166054
 40
0.3662913715
100
AcDbArc
 50
261.6528738355
 51
269.9782779178
  0
ARC
  5
2C4
100
AcDbEntity
  8
RUNDUNGEN
100
AcDbCircle
 62
7
  6
CONTINUOUS
 10
55.7501269907
 20
141.2744138476
 40
0.3662114346
100
AcDbArc
 50
90.0198683927
 51
98.3473298183
  0
ARC
  5
2C5
100
AcDbEntity
  8
0
100
AcDbCircle
 62
7
  6
CONTINUOUS
 10
192.71875
 20
134.1406252602
 40
7.5
100
AcDbArc
 50
248.5868857948
 51
252.4504050311
  0
ARC
  5
2C6
100
AcDbEntity
  8
0
100
AcDbCircle
 62
7
  6
CONTINUOUS
 10
192.71875
 20
134.1406252602
 40
7.5
100
AcDbArc
 50
259.6038774333
 51
263.1664854347
  0
ARC
  5
2C7
100
AcDbEntity
  8
RUNDUNGEN
100
AcDbCircle
 62
7
  6
CONTINUOUS
 10
192.71875
 20
134.1406252602
 40
7.5
100
AcDbArc
 50
90.0
 51
270.0
  0
ARC
  5
2C8
100
AcDbEntity
  8
RUNDUNGEN
100
AcDbCircle
 62
7
  6
CONTINUOUS
 10
192.71875
 20
134.1406252602
 40
6.5
100
AcDbArc
 50
90.0
 51
270.0
  0
CIRCLE
  5
2C9
100
AcDbEntity
  8
0
100
AcDbCircle
 62
7
  6
CONTINUOUS
 10
192.71875
 20
134.1406252602
 40
3.19
  0
ARC
  5
2CA
100
AcDbEntity
  8
RUNDUNGEN
100
AcDbCircle
 62
7
  6
CONTINUOUS
 10
192.7553164822
 20
134.2631175152
 40
8.1094623922
100
AcDbArc
 50
90.0091734807
 51
111.8504758187
  0
ARC
  5
2CB
100
AcDbEntity
  8
RUNDUNGEN
100
AcDbCircle
 62
7
  6
CONTINUOUS
 10
188.1648670389
 20
141.1991109018
 40
0.8999978266
100
AcDbArc
 50
302.8282131206
 51
359.4995024763
  0
ARC
  5
2CC
100
AcDbEntity
  8
RUNDUNGEN
100
AcDbCircle
 62
7
  6
CONTINUOUS
 10
204.348872186
 20
134.140953388
 40
12.5016369442
100
AcDbArc
 50
328.6705446264
 51
31.329210126
  0
ARC
  5
2CD
100
AcDbEntity
  8
RUNDUNGEN
100
AcDbCircle
 62
7
  6
CONTINUOUS
 10
205.0723461348
 20
133.4370186358
 40
8.2186756152
100
AcDbArc
 50
78.1556423986
 51
86.1085791442
  0
ARC
  5
2CE
100
AcDbEntity
  8
RUNDUNGEN
100
AcDbCircle
 62
7
  6
CONTINUOUS
 10
205.21875
 20
134.1406252602
 40
7.5
100
AcDbArc
 50
281.851182757
 51
78.1472375354
  0
ARC
  5
2CF
100
AcDbEntity
  8
RUNDUNGEN
100
AcDbCircle
 62
7
  6
CONTINUOUS
 10
205.0419252401
 20
133.292304422
 40
7.3665528452
100
AcDbArc
 50
78.157557626
 51
85.9680760742
  0
ARC
  5
2D0
100
AcDbEntity
  8
RUNDUNGEN
100
AcDbCircle
 62
7
  6
CONTINUOUS
 10
205.21875
 20
134.1406252602
 40
6.5
100
AcDbArc
 50
281.8514424116
 51
78.1484592463
  0
CIRCLE
  5
2D1
100
AcDbEntity
  8
RUNDUNGEN
100
AcDbCircle
 62
7
  6
CONTINUOUS
 10
205.21875
 20
134.1406252602
 40
6.0
  0
CIRCLE
  5
2D2
100
AcDbEntity
  8
RUNDUNGEN
100
AcDbCircle
 62
7
  6
CONTINUOUS
 10
205.21875
 20
134.1406252602
 40
5.0
  0
ARC
  5
2D3
100
AcDbEntity
  8
RUNDUNGEN
100
AcDbCircle
 62
7
  6
CONTINUOUS
 10
205.5598093135
 20
127.2791727809
 40
0.6385475231
100
AcDbArc
 50
270.0049606178
 51
276.3195827549
  0
ARC
  5
2D4
100
AcDbEntity
  8
RUNDUNGEN
100
AcDbCircle
 62
7
  6
CONTINUOUS
 10
205.0724481888
 20
134.8433516049
 40
8.217791599
100
AcDbArc
 50
273.891174245
 51
281.8432172837
  0
ARC
  5
2D5
100
AcDbEntity
  8
RUNDUNGEN
100
AcDbCircle
 62
7
  6
CONTINUOUS
 10
205.0420564687
 20
134.9880372724
 40
7.3656356505
100
AcDbArc
 50
274.0312491532
 51
281.8428073401
  0
ARC
  5
2D6
100
AcDbEntity
  8
RUNDUNGEN
100
AcDbCircle
 62
7
  6
CONTINUOUS
 10
205.5598100955
 20
141.0019981637
 40
0.6386270997
100
AcDbArc
 50
83.681343419
 51
89.9942372126
  0
ARC
  5
2D7
100
AcDbEntity
  8
RUNDUNGEN
100
AcDbCircle
 62
7
  6
CONTINUOUS
 10
192.4790270213
 20
188.6406252602
 40
3.0
100
AcDbArc
 50
90.0
 51
179.4999999999
  0
ARC
  5
2D8
100
AcDbEntity
  8
RUNDUNGEN
100
AcDbCircle
 62
7
  6
CONTINUOUS
 10
192.2461169415
 20
188.6484607914
 40
2.1000183508
100
AcDbArc
 50
90.0004963198
 51
179.4995036802
  0
ARC
  5
2D9
100
AcDbEntity
  8
0
100
AcDbCircle
 62
7
  6
CONTINUOUS
 10
225.11875
 20
134.1406252602
 40
3.195
100
AcDbArc
 50
90.0
 51
270.0
  0
ARC
  5
2DA
100
AcDbEntity
  8
RUNDUNGEN
100
AcDbCircle
 62
7
  6
CONTINUOUS
 10
245.4517063677
 20
134.1327817843
 40
8.399989594
100
AcDbArc
 50
74.2558739488
 51
90.0001916451
  0
ARC
  5
2DB
100
AcDbEntity
  8
RUNDUNGEN
100
AcDbCircle
 62
7
  6
CONTINUOUS
 10
245.21875
 20
134.1406252602
 40
7.5
100
AcDbArc
 50
269.9973742396
 51
90.0021611314
  0
ARC
  5
2DC
100
AcDbEntity
  8
RUNDUNGEN
100
AcDbCircle
 62
7
  6
CONTINUOUS
 10
245.3926652718
 20
134.1394556129
 40
6.4988303582
100
AcDbArc
 50
269.9976452119
 51
299.4386135941
  0
ARC
  5
2DD
100
AcDbEntity
  8
RUNDUNGEN
100
AcDbCircle
 62
7
  6
CONTINUOUS
 10
245.3926639659
 20
134.1418343782
 40
6.4987908874
100
AcDbArc
 50
60.5617961139
 51
90.0023432891
  0
ARC
  5
2DE
100
AcDbEntity
  8
RUNDUNGEN
100
AcDbCircle
 62
7
  6
CONTINUOUS
 10
242.6652527567
 20
134.140441447
 40
5.1957931396
100
AcDbArc
 50
322.0517352853
 51
37.9487183073
  0
ARC
  5
2DF
100
AcDbEntity
  8
RUNDUNGEN
100
AcDbCircle
 62
7
  6
CONTINUOUS
 10
242.31875
 20
134.1406252602
 40
3.195
100
AcDbArc
 50
269.9971116187
 51
90.0033829179
  0
ARC
  5
2E0
100
AcDbEntity
  8
RUNDUNGEN
100
AcDbCircle
 62
7
  6
CONTINUOUS
 10
249.7726329542
 20
141.1991109124
 40
0.8999978232
100
AcDbArc
 50
180.5004982008
 51
237.1712823122
  0
ARC
  5
2E1
100
AcDbEntity
  8
RUNDUNGEN
100
AcDbCircle
 62
7
  6
CONTINUOUS
 10
242.4845393469
 20
185.6406252602
 40
6.0
100
AcDbArc
 50
0.5000000001
 51
90.0032308811
  0
ARC
  5
2E2
100
AcDbEntity
  8
RUNDUNGEN
100
AcDbCircle
 62
7
  6
CONTINUOUS
 10
242.2516080423
 20
185.648476082
 40
5.1000030602
100
AcDbArc
 50
0.5000340805
 51
89.9999659195
  0
ARC
  5
2E3
100
AcDbEntity
  8
RUNDUNGEN
100
AcDbCircle
 62
7
  6
CONTINUOUS
 10
80.9133650601
 20
49.953125
 40
5.0
100
AcDbArc
 50
270.0
 51
345.0016630803
  0
ARC
  5
2E4
100
AcDbEntity
  8
RUNDUNGEN
100
AcDbCircle
 62
7
  6
CONTINUOUS
 10
72.9454981559
 20
49.953125
 40
5.0
100
AcDbArc
 50
189.9968400099
 51
270.0
  0
ARC
  5
2E5
100
AcDbEntity
  8
RUNDUNGEN
100
AcDbCircle
 62
7
  6
CONTINUOUS
 10
83.917210251
 20
49.6985829492
 40
0.9013471773
100
AcDbArc
 50
300.6931961699
 51
345.4055795584
  0
ARC
  5
2E6
100
AcDbEntity
  8
RUNDUNGEN
100
AcDbCircle
 62
7
  6
CONTINUOUS
 10
83.4491475954
 20
50.0876779695
 40
0.90012244
100
AcDbArc
 50
165.012287693
 51
269.9877123199
  0
ARC
  5
2E7
100
AcDbEntity
  8
RUNDUNGEN
100
AcDbCircle
 62
7
  6
CONTINUOUS
 10
83.6261243645
 20
50.0876073105
 40
0.9000431978
100
AcDbArc
 50
270.0037839524
 51
344.9962160476
  0
ARC
  5
2E8
100
AcDbEntity
  8
RUNDUNGEN
100
AcDbCircle
 62
7
  6
CONTINUOUS
 10
83.9243586462
 20
49.6865807501
 40
0.8873774991
100
AcDbArc
 50
269.9835219835
 51
300.6918670452
  0
ARC
  5
2E9
100
AcDbEntity
  8
RUNDUNGEN
100
AcDbCircle
 62
7
  6
CONTINUOUS
 10
-1276.4470719505
 20
472.9517826519
 40
1421.1877296943
100
AcDbArc
 50
344.9973207739
 51
345.111239333
  0
ARC
  5
2EA
100
AcDbEntity
  8
RUNDUNGEN
100
AcDbCircle
 62
7
  6
CONTINUOUS
 10
-890.3681034356
 20
312.9459593998
 40
1007.3911949463
100
AcDbArc
 50
344.8661178796
 51
345.0003688614
  0
ARC
  5
2EB
100
AcDbEntity
  8
RUNDUNGEN
100
AcDbCircle
 62
7
  6
CONTINUOUS
 10
-785.6620035128
 20
341.4532598531
 40
913.6297060776
100
AcDbArc
 50
344.9954140185
 51
345.1912014432
  0
ARC
  5
2EC
100
AcDbEntity
  8
RUNDUNGEN
100
AcDbCircle
 62
7
  6
CONTINUOUS
 10
-707.4907179845
 20
289.3248445942
 40
824.0961927596
100
AcDbArc
 50
343.1479449052
 51
343.2957217401
  0
ARC
  5
2ED
100
AcDbEntity
  8
RUNDUNGEN
100
AcDbCircle
 62
7
  6
CONTINUOUS
 10
73.7611480248
 20
81.953125
 40
6.0
100
AcDbArc
 50
190.0
 51
270.0
  0
ARC
  5
2EE
100
AcDbEntity
  8
RUNDUNGEN
100
AcDbCircle
 62
7
  6
CONTINUOUS
 10
84.3113583159
 20
81.953125
 40
6.0
100
AcDbArc
 50
270.0
 51
315.8056280309
  0
ARC
  5
2EF
100
AcDbEntity
  8
RUNDUNGEN
100
AcDbCircle
 62
7
  6
CONTINUOUS
 10
84.3113583159
 20
81.953125
 40
5.0
100
AcDbArc
 50
269.9999999853
 51
345.0000000169
  0
ARC
  5
2F0
100
AcDbEntity
  8
RUNDUNGEN
100
AcDbCircle
 62
7
  6
CONTINUOUS
 10
73.7611480248
 20
81.953125
 40
5.0
100
AcDbArc
 50
189.9999999994
 51
270.0000000006
  0
ARC
  5
2F1
100
AcDbEntity
  8
RUNDUNGEN
100
AcDbCircle
 62
7
  6
CONTINUOUS
 10
57.5014226105
 20
79.95312503
 40
4.9999999963
100
AcDbArc
 50
9.9999999492
 51
89.9999999912
  0
ARC
  5
2F2
100
AcDbEntity
  8
RUNDUNGEN
100
AcDbCircle
 62
7
  6
CONTINUOUS
 10
55.75
 20
111.453125
 40
1.0
100
AcDbArc
 50
90.0
 51
180.0
  0
ARC
  5
2F3
100
AcDbEntity
  8
RUNDUNGEN
100
AcDbCircle
 62
7
  6
CONTINUOUS
 10
55.75
 20
85.953125
 40
1.0
100
AcDbArc
 50
180.0
 51
270.0
  0
ARC
  5
2F4
100
AcDbEntity
  8
RUNDUNGEN
100
AcDbCircle
 62
7
  6
CONTINUOUS
 10
62.4669464565
 20
111.4531021226
 40
1.0
100
AcDbArc
 50
10.0
 51
89.9999095413
  0
ARC
  5
2F5
100
AcDbEntity
  8
RUNDUNGEN
100
AcDbCircle
 62
7
  6
CONTINUOUS
 10
1457.8469992558
 20
-315.2761561503
 40
1420.142171167
100
AcDbArc
 50
164.997267264
 51
165.1112713935
  0
ARC
  5
2F6
100
AcDbEntity
  8
RUNDUNGEN
100
AcDbCircle
 62
7
  6
CONTINUOUS
 10
1072.7782937959
 20
-155.5397096184
 40
1007.3911957497
100
AcDbArc
 50
164.8661178826
 51
165.0003688608
  0
ARC
  5
2F7
100
AcDbEntity
  8
RUNDUNGEN
100
AcDbCircle
 62
7
  6
CONTINUOUS
 10
968.152762495
 20
-184.0684548482
 40
913.7130805154
100
AcDbArc
 50
164.9954222325
 51
165.1911926885
  0
ARC
  5
2F8
100
AcDbEntity
  8
RUNDUNGEN
100
AcDbCircle
 62
7
  6
CONTINUOUS
 10
889.9009418682
 20
-131.9186049348
 40
824.0962285812
100
AcDbArc
 50
163.1479449084
 51
163.2957217372
  0
ARC
  5
2F9
100
AcDbEntity
  8
RUNDUNGEN
100
AcDbCircle
 62
7
  6
CONTINUOUS
 10
100.3519910891
 20
95.4531418333
 40
1.9999964561
100
AcDbArc
 50
90.0001292165
 51
165.0004992499
  0
ARC
  5
2FA
100
AcDbEntity
  8
RUNDUNGEN
100
AcDbCircle
 62
7
  6
CONTINUOUS
 10
103.75
 20
98.453125
 40
1.0
100
AcDbArc
 50
270.0
 51
360.0
  0
ARC
  5
2FB
100
AcDbEntity
  8
RUNDUNGEN
100
AcDbCircle
 62
7
  6
CONTINUOUS
 10
103.75
 20
111.453125
 40
1.0
100
AcDbArc
 50
0.0
 51
90.0
  0
ARC
  5
2FC
100
AcDbEntity
  8
RUNDUNGEN
100
AcDbCircle
 62
7
  6
CONTINUOUS
 10
98.4275128435
 20
111.4531110737
 40
1.0
100
AcDbArc
 50
90.0001031529
 51
164.9999999973
  0
ARC
  5
2FD
100
AcDbEntity
  8
RUNDUNGEN
100
AcDbCircle
 62
7
  6
CONTINUOUS
 10
98.4929234521
 20
107.7077089444
 40
0.9012825473
100
AcDbArc
 50
120.6914123632
 51
165.4072613568
  0
ARC
  5
2FE
100
AcDbEntity
  8
RUNDUNGEN
100
AcDbCircle
 62
7
  6
CONTINUOUS
 10
98.927220509
 20
107.2926198941
 40
0.9001224388
100
AcDbArc
 50
345.0122876073
 51
89.9877124489
  0
ARC
  5
2FF
100
AcDbEntity
  8
RUNDUNGEN
100
AcDbCircle
 62
7
  6
CONTINUOUS
 10
98.8039789978
 20
107.2926905522
 40
0.9000431976
100
AcDbArc
 50
90.0037839454
 51
164.9962160546
  0
ARC
  5
300
100
AcDbEntity
  8
RUNDUNGEN
100
AcDbCircle
 62
7
  6
CONTINUOUS
 10
98.4858311954
 20
107.7196688938
 40
0.8873778552
100
AcDbArc
 50
89.9835338375
 51
120.6917797783
  0
SPLINE
  5
301
100
AcDbEntity
  8
RUNDUNGEN
100
AcDbSpline
 62
7
  6
CONTINUOUS
 70
0
 71
3
 72
13
 73
9
 74
0
 42
0.0000001
 43
0.0000001
 44
0.0000000001
 40
0.0
 40
0.0
 40
0.0
 40
0.0
 40
0.0705182944
 40
0.1493396724
 40
0.242398516
 40
0.3532522933
 40
0.6348433683
 40
1.0
 40
1.0
 40
1.0
 40
1.0
 10
67.4581665036
 20
127.6406252602
 30
0.0
 10
67.4830446577
 20
127.6406389129
 30
0.0
 10
67.5360504933
 20
127.6509541384
 30
0.0
 10
67.6110583934
 20
127.6942146415
 30
0.0
 10
67.6838725651
 20
127.7633239139
 30
0.0
 10
67.7870849831
 20
127.9006861009
 30
0.0
 10
67.9069170119
 20
128.1414683514
 30
0.0
 10
67.9829950792
 20
128.35677732
 30
0.0
 10
68.0214222925
 20
128.4797361872
 30
0.0
  0
SPLINE
  5
302
100
AcDbEntity
  8
RUNDUNGEN
100
AcDbSpline
 62
7
  6
CONTINUOUS
 70
0
 71
3
 72
9
 73
5
 74
0
 42
0.0000001
 43
0.0000001
 44
0.0000000001
 40
0.0
 40
0.0
 40
0.0
 40
0.0
 40
0.4807937849
 40
1.0
 40
1.0
 40
1.0
 40
1.0
 10
62.1040449409
 20
127.6406233112
 30
0.0
 10
62.2153834244
 20
128.6778979435
 30
0.0
 10
62.3744836109
 20
130.8432360059
 30
0.0
 10
62.4254519215
 20
133.0133221989
 30
0.0
 10
62.4254613763
 20
134.139902932
 30
0.0
  0
SPLINE
  5
303
100
AcDbEntity
  8
RUNDUNGEN
100
AcDbSpline
 62
7
  6
CONTINUOUS
 70
0
 71
3
 72
9
 73
5
 74
0
 42
0.0000001
 43
0.0000001
 44
0.0000000001
 40
0.0
 40
0.0
 40
0.0
 40
0.0
 40
0.519226392
 40
1.0
 40
1.0
 40
1.0
 40
1.0
 10
62.4254613763
 20
134.139902932
 30
0.0
 10
62.4254563983
 20
135.2667774825
 30
0.0
 10
62.3745353191
 20
137.4373464935
 30
0.0
 10
62.2154037585
 20
139.6031663329
 30
0.0
 10
62.1040472031
 20
140.6406278436
 30
0.0
  0
SPLINE
  5
304
100
AcDbEntity
  8
RUNDUNGEN
100
AcDbSpline
 62
7
  6
CONTINUOUS
 70
0
 71
3
 72
9
 73
5
 74
0
 42
0.0000001
 43
0.0000001
 44
0.0000000001
 40
0.0
 40
0.0
 40
0.0
 40
0.0
 40
0.5284754012
 40
1.0
 40
1.0
 40
1.0
 40
1.0
 10
67.8934556934
 20
134.1411623979
 30
0.0
 10
67.8934657911
 20
133.5769033082
 30
0.0
 10
67.8634055476
 20
132.5090425687
 30
0.0
 10
67.7683297725
 20
131.4443839831
 30
0.0
 10
67.6997459916
 20
130.9456252602
 30
0.0
  0
SPLINE
  5
305
100
AcDbEntity
  8
RUNDUNGEN
100
AcDbSpline
 62
7
  6
CONTINUOUS
 70
0
 71
3
 72
9
 73
5
 74
0
 42
0.0000001
 43
0.0000001
 44
0.0000000001
 40
0.0
 40
0.0
 40
0.0
 40
0.0
 40
0.4715207336
 40
1.0
 40
1.0
 40
1.0
 40
1.0
 10
67.6997444978
 20
137.3356252602
 30
0.0
 10
67.768305493
 20
136.837037898
 30
0.0
 10
67.8633664857
 20
135.7727382796
 30
0.0
 10
67.8934454163
 20
134.7052364908
 30
0.0
 10
67.8934556934
 20
134.1411623979
 30
0.0
  0
LINE
  5
306
100
AcDbEntity
  8
RUNDUNGEN
100
AcDbLine
 62
7
  6
CONTINUOUS
 10
55.6969728593
 20
141.6367456989
 11
55.7498970151
 21
141.6356506198
  0
SPLINE
  5
307
100
AcDbEntity
  8
RUNDUNGEN
100
AcDbSpline
 62
7
  6
CONTINUOUS
 70
0
 71
3
 72
17
 73
13
 74
0
 42
0.0000001
 43
0.0000001
 44
0.0000000001
 40
0.0
 40
0.0
 40
0.0
 40
0.0
 40
0.1548715056
 40
0.3078644194
 40
0.457052906
 40
0.5995714745
 40
0.731326532
 40
0.8467868143
 40
0.8962769486
 40
0.9389796098
 40
0.973878287
 40
1.0
 40
1.0
 40
1.0
 40
1.0
 10
55.7498970151
 20
141.6356506198
 30
0.0
 10
56.0828528669
 20
141.6283342181
 30
0.0
 10
56.7444718857
 20
141.5977462677
 30
0.0
 10
57.7235097851
 20
141.5082510517
 30
0.0
 10
58.6719718144
 20
141.3846814639
 30
0.0
 10
59.5710032153
 20
141.2391522829
 30
0.0
 10
60.3947525135
 20
141.0844801802
 30
0.0
 10
61.019029621
 20
140.9521582481
 30
0.0
 10
61.453254853
 20
140.8479809844
 30
0.0
 10
61.7174574198
 20
140.7777344209
 30
0.0
 10
61.9305705514
 20
140.7120152987
 30
0.0
 10
62.0535666236
 20
140.6652550124
 30
0.0
 10
62.1040474933
 20
140.6406176335
 30
0.0
  0
SPLINE
  5
308
100
AcDbEntity
  8
RUNDUNGEN
100
AcDbSpline
 62
7
  6
CONTINUOUS
 70
0
 71
3
 72
9
 73
5
 74
0
 42
0.0000001
 43
0.0000001
 44
0.0000000001
 40
0.0
 40
0.0
 40
0.0
 40
0.0
 40
0.5831901314
 40
1.0
 40
1.0
 40
1.0
 40
1.0
 10
55.7500093053
 20
141.4807085991
 30
0.0
 10
55.7438771929
 20
141.5080665037
 30
0.0
 10
55.7322172917
 20
141.5546903982
 30
0.0
 10
55.7163628934
 20
141.6003330636
 30
0.0
 10
55.7075378164
 20
141.6183230808
 30
0.0
  0
SPLINE
  5
309
100
AcDbEntity
  8
RUNDUNGEN
100
AcDbSpline
 62
7
  6
CONTINUOUS
 70
0
 71
3
 72
9
 73
5
 74
0
 42
0.0000001
 43
0.0000001
 44
0.0000000001
 40
0.0
 40
0.0
 40
0.0
 40
0.0
 40
0.2738707258
 40
1.0
 40
1.0
 40
1.0
 40
1.0
 10
55.7075378164
 20
141.6183230808
 30
0.0
 10
55.7066835658
 20
141.6200644802
 30
0.0
 10
55.7034756846
 20
141.6263772899
 30
0.0
 10
55.6998932473
 20
141.6325126647
 30
0.0
 10
55.6969728593
 20
141.6367456989
 30
0.0
  0
LINE
  5
30A
100
AcDbEntity
  8
RUNDUNGEN
100
AcDbLine
 62
7
  6
CONTINUOUS
 10
55.6969732294
 20
126.6445041196
 11
55.7498904188
 21
126.6455992929
  0
SPLINE
  5
30B
100
AcDbEntity
  8
RUNDUNGEN
100
AcDbSpline
 62
7
  6
CONTINUOUS
 70
0
 71
3
 72
17
 73
13
 74
0
 42
0.0000001
 43
0.0000001
 44
0.0000000001
 40
0.0
 40
0.0
 40
0.0
 40
0.0
 40
0.154870797
 40
0.307865318
 40
0.4570526777
 40
0.5995716172
 40
0.7313265457
 40
0.8467870109
 40
0.8962770659
 40
0.938980178
 40
0.9738784635
 40
1.0
 40
1.0
 40
1.0
 40
1.0
 10
55.7498904188
 20
126.6455992929
 30
0.0
 10
56.0828447144
 20
126.6529171796
 30
0.0
 10
56.744465216
 20
126.6835102731
 30
0.0
 10
57.7235040214
 20
126.7729912413
 30
0.0
 10
58.6719662477
 20
126.8965743714
 30
0.0
 10
59.5709968255
 20
127.0420952316
 30
0.0
 10
60.394747689
 20
127.1967659053
 30
0.0
 10
61.0190223463
 20
127.3290965799
 30
0.0
 10
61.4532524785
 20
127.4332605972
 30
0.0
 10
61.7174482163
 20
127.5035307077
 30
0.0
 10
61.9305717109
 20
127.5692150644
 30
0.0
 10
62.0535629677
 20
127.6159879511
 30
0.0
 10
62.1040393605
 20
127.6406336359
 30
0.0
  0
SPLINE
  5
30C
100
AcDbEntity
  8
RUNDUNGEN
100
AcDbSpline
 62
7
  6
CONTINUOUS
 70
0
 71
3
 72
9
 73
5
 74
0
 42
0.0000001
 43
0.0000001
 44
0.0000000001
 40
0.0
 40
0.0
 40
0.0
 40
0.0
 40
0.4076037808
 40
1.0
 40
1.0
 40
1.0
 40
1.0
 10
55.6969732294
 20
126.6445041196
 30
0.0
 10
55.7053351329
 20
126.6566229696
 30
0.0
 10
55.7201714985
 20
126.6899970003
 30
0.0
 10
55.7307488469
 20
126.7244829575
 30
0.0
 10
55.7363752769
 20
126.7451289409
 30
0.0
  0
SPLINE
  5
30D
100
AcDbEntity
  8
RUNDUNGEN
100
AcDbSpline
 62
7
  6
CONTINUOUS
 70
0
 71
3
 72
9
 73
5
 74
0
 42
0.0000001
 43
0.0000001
 44
0.0000000001
 40
0.0
 40
0.0
 40
0.0
 40
0.0
 40
0.2334107054
 40
1.0
 40
1.0
 40
1.0
 40
1.0
 10
55.7363752769
 20
126.7451289409
 30
0.0
 10
55.7375417021
 20
126.7494090965
 30
0.0
 10
55.7424111866
 20
126.7677813551
 30
0.0
 10
55.746811865
 20
126.7862759738
 30
0.0
 10
55.7499980163
 20
126.8004932678
 30
0.0
  0
SPLINE
  5
30E
100
AcDbEntity
  8
RUNDUNGEN
100
AcDbSpline
 62
7
  6
CONTINUOUS
 70
0
 71
3
 72
13
 73
9
 74
0
 42
0.0000001
 43
0.0000001
 44
0.0000000001
 40
0.0
 40
0.0
 40
0.0
 40
0.0
 40
0.0848876131
 40
0.1751942766
 40
0.2753215916
 40
0.3884273528
 40
0.6606086913
 40
1.0
 40
1.0
 40
1.0
 40
1.0
 10
86.6902685891
 20
140.6406252602
 30
0.0
 10
86.6483566621
 20
140.6406169553
 30
0.0
 10
86.5614834181
 20
140.6285972391
 30
0.0
 10
86.4348254106
 20
140.5760679729
 30
0.0
 10
86.3108426572
 20
140.490273751
 30
0.0
 10
86.1387053628
 20
140.322301633
 30
0.0
 10
85.9360979658
 20
140.0237853539
 30
0.0
 10
85.8070590039
 20
139.7500801366
 30
0.0
 10
85.7430317543
 20
139.5952256019
 30
0.0
  0
SPLINE
  5
30F
100
AcDbEntity
  8
RUNDUNGEN
100
AcDbSpline
 62
7
  6
CONTINUOUS
 70
0
 71
3
 72
15
 73
11
 74
0
 42
0.0000001
 43
0.0000001
 44
0.0000000001
 40
0.0
 40
0.0
 40
0.0
 40
0.0
 40
0.0395927901
 40
0.08430998
 40
0.1870215517
 40
0.3041513812
 40
0.4321123478
 40
0.5679129821
 40
0.7091178381
 40
1.0
 40
1.0
 40
1.0
 40
1.0
 10
85.7430317522
 20
139.5952300739
 30
0.0
 10
85.6988018611
 20
139.5096292205
 30
0.0
 10
85.5955694865
 20
139.3320160296
 30
0.0
 10
85.3423272292
 20
138.9536427798
 30
0.0
 10
84.9479844395
 20
138.4439438714
 30
0.0
 10
84.3990294256
 20
137.7995761013
 30
0.0
 10
83.7772680436
 20
137.1119589483
 30
0.0
 10
83.1028356631
 20
136.3933208338
 30
0.0
 10
82.1454010105
 20
135.3966702329
 30
0.0
 10
81.4088950308
 20
134.6461480833
 30
0.0
 10
80.9133650601
 20
134.1406252602
 30
0.0
  0
SPLINE
  5
310
100
AcDbEntity
  8
RUNDUNGEN
100
AcDbSpline
 62
7
  6
CONTINUOUS
 70
0
 71
3
 72
15
 73
11
 74
0
 42
0.0000001
 43
0.0000001
 44
0.0000000001
 40
0.0
 40
0.0
 40
0.0
 40
0.0
 40
0.2908671543
 40
0.4320737552
 40
0.5678778951
 40
0.6958419943
 40
0.8129740751
 40
0.9156881818
 40
0.9604067013
 40
1.0
 40
1.0
 40
1.0
 40
1.0
 10
80.9133650601
 20
134.1406252602
 30
0.0
 10
81.4088798849
 20
133.6351388377
 30
0.0
 10
82.1453501986
 20
132.884627073
 30
0.0
 10
83.1027712213
 20
131.8879965831
 30
0.0
 10
83.7772192789
 20
131.1693453061
 30
0.0
 10
84.3989958035
 20
130.4817128625
 30
0.0
 10
84.9479661442
 20
129.8373328645
 30
0.0
 10
85.3423166847
 20
129.3276212343
 30
0.0
 10
85.595566274
 20
128.9492401778
 30
0.0
 10
85.6988011918
 20
128.771623264
 30
0.0
 10
85.7430313839
 20
128.6860211842
 30
0.0
  0
SPLINE
  5
311
100
AcDbEntity
  8
RUNDUNGEN
100
AcDbSpline
 62
7
  6
CONTINUOUS
 70
0
 71
3
 72
16
 73
12
 74
0
 42
0.0000001
 43
0.0000001
 44
0.0000000001
 40
0.0
 40
0.0
 40
0.0
 40
0.0
 40
0.0357137823
 40
0.0772862631
 40
0.1242542312
 40
0.1760656232
 40
0.2919015678
 40
0.4204866156
 40
0.5582357937
 40
0.702257179
 40
1.0
 40
1.0
 40
1.0
 40
1.0
 10
68.0214115129
 20
139.8015566933
 30
0.0
 10
68.0540111442
 20
139.7180826523
 30
0.0
 10
68.1385349555
 20
139.5429305332
 30
0.0
 10
68.2989769286
 20
139.275365708
 30
0.0
 10
68.4985465113
 20
138.9849777748
 30
0.0
 10
68.8228070977
 20
138.5548908675
 30
0.0
 10
69.298616148
 20
137.98336328
 30
0.0
 10
69.9374715589
 20
137.2681120782
 30
0.0
 10
70.6399664189
 20
136.5152141584
 30
0.0
 10
71.646088689
 20
135.4653240601
 30
0.0
 10
72.4224853961
 20
134.6741245339
 30
0.0
 10
72.9454981559
 20
134.1406252602
 30
0.0
  0
SPLINE
  5
312
100
AcDbEntity
  8
RUNDUNGEN
100
AcDbSpline
 62
7
  6
CONTINUOUS
 70
0
 71
3
 72
11
 73
7
 74
0
 42
0.0000001
 43
0.0000001
 44
0.0000000001
 40
0.0
 40
0.0
 40
0.0
 40
0.0
 40
0.2477101266
 40
0.496836802
 40
0.7477927309
 40
1.0
 40
1.0
 40
1.0
 40
1.0
 10
54.7623692494
 20
140.6551556519
 30
0.0
 10
54.7807554457
 20
140.7687033685
 30
0.0
 10
54.8597283219
 20
140.9917669477
 30
0.0
 10
55.0881267331
 20
141.2627099192
 30
0.0
 10
55.3972143242
 20
141.4398735014
 30
0.0
 10
55.6328850311
 20
141.4807472645
 30
0.0
 10
55.75
 20
141.4807472864
 30
0.0
  0
SPLINE
  5
313
100
AcDbEntity
  8
RUNDUNGEN
100
AcDbSpline
 62
7
  6
CONTINUOUS
 70
0
 71
3
 72
15
 73
11
 74
0
 42
0.0000001
 43
0.0000001
 44
0.0000000001
 40
0.0
 40
0.0
 40
0.0
 40
0.0
 40
0.0416695545
 40
0.0893743562
 40
0.1986284137
 40
0.3207198379
 40
0.4507175887
 40
0.5853659697
 40
0.7225897006
 40
1.0
 40
1.0
 40
1.0
 40
1.0
 10
99.1092511612
 20
127.6406192436
 30
0.0
 10
99.152755586
 20
127.6068240434
 30
0.0
 10
99.250904491
 20
127.5405918506
 30
0.0
 10
99.4793377109
 20
127.4108340808
 30
0.0
 10
99.8146827674
 20
127.2556941576
 30
0.0
 10
100.2613357523
 20
127.0855514066
 30
0.0
 10
100.7498317026
 20
126.9334943225
 30
0.0
 10
101.2662577438
 20
126.807094445
 30
0.0
 10
101.9816217273
 20
126.6803428485
 30
0.0
 10
102.5307580761
 20
126.6406253573
 30
0.0
 10
102.8975039373
 20
126.640626866
 30
0.0
  0
SPLINE
  5
314
100
AcDbEntity
  8
RUNDUNGEN
100
AcDbSpline
 62
7
  6
CONTINUOUS
 70
0
 71
3
 72
15
 73
11
 74
0
 42
0.0000001
 43
0.0000001
 44
0.0000000001
 40
0.0
 40
0.0
 40
0.0
 40
0.0
 40
0.2774074412
 40
0.4146311545
 40
0.549279485
 40
0.6792773736
 40
0.8013698215
 40
0.9106253049
 40
0.9583306843
 40
1.0
 40
1.0
 40
1.0
 40
1.0
 10
102.8978383593
 20
141.6406248572
 30
0.0
 10
102.5310670504
 20
141.6406422656
 30
0.0
 10
101.9818892344
 20
141.6009402629
 30
0.0
 10
101.2664674946
 20
141.4742040378
 30
0.0
 10
100.7499984887
 20
141.3478007102
 30
0.0
 10
100.2614585057
 20
141.1957434396
 30
0.0
 10
99.8147631391
 20
141.0255946219
 30
0.0
 10
99.4793884226
 20
140.8704388955
 30
0.0
 10
99.2509321331
 20
140.7406757089
 30
0.0
 10
99.1527706504
 20
140.6744436163
 30
0.0
 10
99.1092650296
 20
140.6406433144
 30
0.0
  0
SPLINE
  5
315
100
AcDbEntity
  8
RUNDUNGEN
100
AcDbSpline
 62
7
  6
CONTINUOUS
 70
0
 71
3
 72
11
 73
7
 74
0
 42
0.0000001
 43
0.0000001
 44
0.0000000001
 40
0.0
 40
0.0
 40
0.0
 40
0.0
 40
0.2477102817
 40
0.4968370016
 40
0.7477928605
 40
1.0
 40
1.0
 40
1.0
 40
1.0
 10
54.7623691841
 20
127.6260927765
 30
0.0
 10
54.7807553345
 20
127.5125448821
 30
0.0
 10
54.8597281155
 20
127.2894809672
 30
0.0
 10
55.0881264992
 20
127.0185375002
 30
0.0
 10
55.397214172
 20
126.8413735775
 30
0.0
 10
55.6328849933
 20
126.8004997504
 30
0.0
 10
55.75
 20
126.8004997423
 30
0.0
  0
SPLINE
  5
316
100
AcDbEntity
  8
RUNDUNGEN
100
AcDbSpline
 62
7
  6
CONTINUOUS
 70
0
 71
3
 72
16
 73
12
 74
0
 42
0.0000001
 43
0.0000001
 44
0.0000000001
 40
0.0
 40
0.0
 40
0.0
 40
0.0
 40
0.0357135547
 40
0.0772871389
 40
0.1242557133
 40
0.1760675579
 40
0.2919044455
 40
0.4204899782
 40
0.5582397196
 40
0.7022618171
 40
1.0
 40
1.0
 40
1.0
 40
1.0
 10
68.021422297
 20
128.4797250075
 30
0.0
 10
68.0540225403
 20
128.5631977725
 30
0.0
 10
68.1385505712
 20
128.7383493773
 30
0.0
 10
68.2989965713
 20
129.005914422
 30
0.0
 10
68.498571241
 20
129.2963035857
 30
0.0
 10
68.8228368788
 20
129.7263899488
 30
0.0
 10
69.2986465657
 20
130.2979187873
 30
0.0
 10
69.9375031443
 20
131.0131700098
 30
0.0
 10
70.6399970495
 20
131.7660686487
 30
0.0
 10
71.6461116956
 20
132.8159454794
 30
0.0
 10
72.4224926152
 20
133.6071398196
 30
0.0
 10
72.9454981559
 20
134.1406252602
 30
0.0
  0
SPLINE
  5
317
100
AcDbEntity
  8
RUNDUNGEN
100
AcDbSpline
 62
7
  6
CONTINUOUS
 70
0
 71
3
 72
9
 73
5
 74
0
 42
0.0000001
 43
0.0000001
 44
0.0000000001
 40
0.0
 40
0.0
 40
0.0
 40
0.0
 40
0.2485182799
 40
1.0
 40
1.0
 40
1.0
 40
1.0
 10
100.401830012
 20
141.8100655241
 30
0.0
 10
100.3919864715
 20
141.8308309742
 30
0.0
 10
100.3559660162
 20
141.9160567302
 30
0.0
 10
100.3349544636
 20
142.007511073
 30
0.0
 10
100.3278249104
 20
142.0766336462
 30
0.0
  0
SPLINE
  5
318
100
AcDbEntity
  8
RUNDUNGEN
100
AcDbSpline
 62
7
  6
CONTINUOUS
 70
0
 71
3
 72
11
 73
7
 74
0
 42
0.0000001
 43
0.0000001
 44
0.0000000001
 40
0.0
 40
0.0
 40
0.0
 40
0.0
 40
0.2460139267
 40
0.4943684312
 40
0.7460199594
 40
1.0
 40
1.0
 40
1.0
 40
1.0
 10
100.5785908672
 20
141.6406280847
 30
0.0
 10
100.46616248
 20
141.640923253
 30
0.0
 10
100.2378062014
 20
141.688233937
 30
0.0
 10
99.9506421638
 20
141.887691642
 30
0.0
 10
99.7584499734
 20
142.1836334278
 30
0.0
 10
99.7124204875
 20
142.4167061997
 30
0.0
 10
99.7114421152
 20
142.5327713782
 30
0.0
  0
SPLINE
  5
319
100
AcDbEntity
  8
RUNDUNGEN
100
AcDbSpline
 62
7
  6
CONTINUOUS
 70
0
 71
3
 72
17
 73
13
 74
0
 42
0.0000001
 43
0.0000001
 44
0.0000000001
 40
0.0
 40
0.0
 40
0.0
 40
0.0
 40
0.0323503878
 40
0.0618945397
 40
0.127821124
 40
0.1700889238
 40
0.2193651439
 40
0.338091162
 40
0.4806634612
 40
0.6422864322
 40
0.8175101506
 40
1.0
 40
1.0
 40
1.0
 40
1.0
 10
81.2159061849
 20
141.3592806655
 30
0.0
 10
81.1984608324
 20
141.3430516602
 30
0.0
 10
81.1687446192
 20
141.3071091673
 30
0.0
 10
81.141085235
 20
141.2140312802
 30
0.0
 10
81.1793445911
 20
141.1110535994
 30
0.0
 10
81.2495032961
 20
141.019505805
 30
0.0
 10
81.3609214071
 20
140.9107840622
 30
0.0
 10
81.5510535259
 20
140.7813103224
 30
0.0
 10
81.8321746894
 20
140.6451670362
 30
0.0
 10
82.1683189806
 20
140.5338087991
 30
0.0
 10
82.5446199685
 20
140.4598913956
 30
0.0
 10
82.8084245075
 20
140.4429258395
 30
0.0
 10
82.9428329603
 20
140.4428376395
 30
0.0
  0
SPLINE
  5
31A
100
AcDbEntity
  8
RUNDUNGEN
100
AcDbSpline
 62
7
  6
CONTINUOUS
 70
0
 71
3
 72
21
 73
17
 74
0
 42
0.0000001
 43
0.0000001
 44
0.0000000001
 40
0.0
 40
0.0
 40
0.0
 40
0.0
 40
0.0012444405
 40
0.0048519424
 40
0.0108721363
 40
0.0192879791
 40
0.0431740445
 40
0.0762382321
 40
0.1182035437
 40
0.1687041799
 40
0.2271789623
 40
0.2930402558
 40
0.4444773909
 40
0.6173559767
 40
0.8052575361
 40
1.0
 40
1.0
 40
1.0
 40
1.0
 10
82.5490885388
 20
185.6953647971
 30
0.0
 10
82.5490634214
 20
185.6957372812
 30
0.0
 10
82.5513180397
 20
185.6957031927
 30
0.0
 10
82.553790485
 20
185.6962747275
 30
0.0
 10
82.559634652
 20
185.6964118605
 30
0.0
 10
82.5708579774
 20
185.6969300101
 30
0.0
 10
82.5906605226
 20
185.697263143
 30
0.0
 10
82.6202394302
 20
185.6976590037
 30
0.0
 10
82.6579334165
 20
185.6978932078
 30
0.0
 10
82.7032025749
 20
185.6980295971
 30
0.0
 10
82.7556575417
 20
185.6980403383
 30
0.0
 10
82.8383872098
 20
185.6978888639
 30
0.0
 10
82.9554396614
 20
185.6973678923
 30
0.0
 10
83.109100116
 20
185.6963215987
 30
0.0
 10
83.2757497
 20
185.6948558017
 30
0.0
 10
83.3905359329
 20
185.6936488043
 30
0.0
 10
83.4489545565
 20
185.6929844684
 30
0.0
  0
SPLINE
  5
31B
100
AcDbEntity
  8
RUNDUNGEN
100
AcDbSpline
 62
7
  6
CONTINUOUS
 70
0
 71
3
 72
9
 73
5
 74
0
 42
0.0000001
 43
0.0000001
 44
0.0000000001
 40
0.0
 40
0.0
 40
0.0
 40
0.0
 40
0.2591163229
 40
1.0
 40
1.0
 40
1.0
 40
1.0
 10
83.9241834976
 20
140.4428376395
 30
0.0
 10
84.0036310376
 20
140.4428861947
 30
0.0
 10
84.310108058
 20
140.4545802439
 30
0.0
 10
84.6149768614
 20
140.5119591737
 30
0.0
 10
84.8317095711
 20
140.5799998377
 30
0.0
  0
SPLINE
  5
31C
100
AcDbEntity
  8
RUNDUNGEN
100
AcDbSpline
 62
7
  6
CONTINUOUS
 70
0
 71
3
 72
9
 73
5
 74
0
 42
0.0000001
 43
0.0000001
 44
0.0000000001
 40
0.0
 40
0.0
 40
0.0
 40
0.0
 40
0.2453892316
 40
1.0
 40
1.0
 40
1.0
 40
1.0
 10
84.8317095711
 20
140.5799998377
 30
0.0
 10
84.8270955505
 20
140.5681375231
 30
0.0
 10
84.8082432756
 20
140.5198158631
 30
0.0
 10
84.7902713024
 20
140.4711525662
 30
0.0
 10
84.7770683653
 20
140.4343057686
 30
0.0
  0
SPLINE
  5
31D
100
AcDbEntity
  8
RUNDUNGEN
100
AcDbSpline
 62
7
  6
CONTINUOUS
 70
0
 71
3
 72
18
 73
14
 74
0
 42
0.0000001
 43
0.0000001
 44
0.0000000001
 40
0.0
 40
0.0
 40
0.0
 40
0.0
 40
0.0293205343
 40
0.0605910067
 40
0.095436222
 40
0.1349563111
 40
0.1798202878
 40
0.2303726051
 40
0.3487218992
 40
0.4889877056
 40
0.6478691708
 40
0.8203268516
 40
1.0
 40
1.0
 40
1.0
 40
1.0
 10
102.8976805905
 20
141.6406252602
 30
0.0
 10
102.81585276
 20
141.6406334293
 30
0.0
 10
102.6459354632
 20
141.6158934433
 30
0.0
 10
102.3997624604
 20
141.5077231587
 30
0.0
 10
102.1608443476
 20
141.3317815685
 30
0.0
 10
101.9300750696
 20
141.0903172923
 30
0.0
 10
101.7082321551
 20
140.7849141475
 30
0.0
 10
101.4106587996
 20
140.2668427672
 30
0.0
 10
101.082463536
 20
139.465150888
 30
0.0
 10
100.7690617571
 20
138.3412090973
 30
0.0
 10
100.5325930147
 20
137.044808329
 30
0.0
 10
100.3851486954
 20
135.6251451505
 30
0.0
 10
100.3520073059
 20
134.6420575971
 30
0.0
 10
100.3519865786
 20
134.1406252602
 30
0.0
  0
SPLINE
  5
31E
100
AcDbEntity
  8
RUNDUNGEN
100
AcDbSpline
 62
7
  6
CONTINUOUS
 70
0
 71
3
 72
13
 73
9
 74
0
 42
0.0000001
 43
0.0000001
 44
0.0000000001
 40
0.0
 40
0.0
 40
0.0
 40
0.0
 40
0.0903651183
 40
0.1967261148
 40
0.3153035254
 40
0.4429444345
 40
0.7157300399
 40
1.0
 40
1.0
 40
1.0
 40
1.0
 10
84.7770683653
 20
140.4343057686
 30
0.0
 10
84.7019117375
 20
140.2245595066
 30
0.0
 10
84.502921842
 20
139.7809129598
 30
0.0
 10
84.1354664317
 20
139.0956998479
 30
0.0
 10
83.6926163594
 20
138.3473682188
 30
0.0
 10
83.0123617425
 20
137.2634247692
 30
0.0
 10
82.0795622067
 20
135.8561212729
 30
0.0
 10
81.3075183351
 20
134.7201951389
 30
0.0
 10
80.9133650601
 20
134.1406252602
 30
0.0
  0
SPLINE
  5
31F
100
AcDbEntity
  8
RUNDUNGEN
100
AcDbSpline
 62
7
  6
CONTINUOUS
 70
0
 71
3
 72
13
 73
9
 74
0
 42
0.0000001
 43
0.0000001
 44
0.0000000001
 40
0.0
 40
0.0
 40
0.0
 40
0.0
 40
0.2842573607
 40
0.5570472473
 40
0.6846908078
 40
0.8032700937
 40
0.9096332546
 40
1.0
 40
1.0
 40
1.0
 40
1.0
 10
80.9133650601
 20
134.1406252602
 30
0.0
 10
81.3074941237
 20
133.56107648
 30
0.0
 10
82.0795379467
 20
132.4251750849
 30
0.0
 10
83.0123244122
 20
131.0178796494
 30
0.0
 10
83.6925942719
 20
129.9339201823
 30
0.0
 10
84.135454721
 20
129.1855754429
 30
0.0
 10
84.5029154073
 20
128.5003493279
 30
0.0
 10
84.7019102274
 20
128.0566947353
 30
0.0
 10
84.7770683653
 20
127.8469447517
 30
0.0
  0
SPLINE
  5
320
100
AcDbEntity
  8
RUNDUNGEN
100
AcDbSpline
 62
7
  6
CONTINUOUS
 70
0
 71
3
 72
14
 73
10
 74
0
 42
0.0000001
 43
0.0000001
 44
0.0000000001
 40
0.0
 40
0.0
 40
0.0
 40
0.0
 40
0.3510682394
 40
0.4985898707
 40
0.6278129165
 40
0.7398238121
 40
0.8366405999
 40
0.9216511547
 40
1.0
 40
1.0
 40
1.0
 40
1.0
 10
84.7770683653
 20
127.8469447517
 30
0.0
 10
84.840656798
 20
127.6694823451
 30
0.0
 10
84.9418271271
 20
127.4205694441
 30
0.0
 10
85.1044534783
 20
127.1248660614
 30
0.0
 10
85.2224168024
 20
126.9521360188
 30
0.0
 10
85.3432051991
 20
126.8158107706
 30
0.0
 10
85.4669812095
 20
126.7163373593
 30
0.0
 10
85.594090564
 20
126.6548928197
 30
0.0
 10
85.6822720595
 20
126.6406323974
 30
0.0
 10
85.7243425654
 20
126.6406252679
 30
0.0
  0
SPLINE
  5
321
100
AcDbEntity
  8
RUNDUNGEN
100
AcDbSpline
 62
7
  6
CONTINUOUS
 70
0
 71
3
 72
15
 73
11
 74
0
 42
0.0000001
 43
0.0000001
 44
0.0000000001
 40
0.0
 40
0.0
 40
0.0
 40
0.0
 40
0.039570138
 40
0.0843829536
 40
0.1875285991
 40
0.3051336045
 40
0.4333596799
 40
0.569157723
 40
0.7101175423
 40
1.0
 40
1.0
 40
1.0
 40
1.0
 10
69.0062671438
 20
127.6089410269
 30
0.0
 10
69.0326355851
 20
127.7062930456
 30
0.0
 10
69.1010138466
 20
127.9106076732
 30
0.0
 10
69.285394593
 20
128.3518438921
 30
0.0
 10
69.5941042373
 20
128.955133556
 30
0.0
 10
70.039117168
 20
129.7254230142
 30
0.0
 10
70.5519580328
 20
130.5521362381
 30
0.0
 10
71.1128941687
 20
131.4187175098
 30
0.0
 10
71.912481838
 20
132.6215235852
 30
0.0
 10
72.5300123381
 20
133.5296324937
 30
0.0
 10
72.9454981559
 20
134.1406252602
 30
0.0
  0
SPLINE
  5
322
100
AcDbEntity
  8
RUNDUNGEN
100
AcDbSpline
 62
7
  6
CONTINUOUS
 70
0
 71
3
 72
15
 73
11
 74
0
 42
0.0000001
 43
0.0000001
 44
0.0000000001
 40
0.0
 40
0.0
 40
0.0
 40
0.0
 40
0.039570279
 40
0.0843826639
 40
0.1875277795
 40
0.3051322905
 40
0.4333580106
 40
0.56915544
 40
0.710114391
 40
1.0
 40
1.0
 40
1.0
 40
1.0
 10
69.0062671438
 20
140.6723094934
 30
0.0
 10
69.0326379007
 20
140.5749577221
 30
0.0
 10
69.1010125153
 20
140.3706429567
 30
0.0
 10
69.2853867156
 20
139.9294058845
 30
0.0
 10
69.5941026037
 20
139.3261233942
 30
0.0
 10
70.0391088325
 20
138.5558343002
 30
0.0
 10
70.5519505624
 20
137.7291257688
 30
0.0
 10
71.1128845468
 20
136.862548654
 30
0.0
 10
71.9124752437
 20
135.6597393533
 30
0.0
 10
72.5300044186
 20
134.7516224187
 30
0.0
 10
72.9454981559
 20
134.1406252602
 30
0.0
  0
SPLINE
  5
323
100
AcDbEntity
  8
RUNDUNGEN
100
AcDbSpline
 62
7
  6
CONTINUOUS
 70
0
 71
3
 72
11
 73
7
 74
0
 42
0.0000001
 43
0.0000001
 44
0.0000000001
 40
0.0
 40
0.0
 40
0.0
 40
0.0
 40
0.2184837422
 40
0.4632881237
 40
0.7267657576
 40
1.0
 40
1.0
 40
1.0
 40
1.0
 10
99.1092596816
 20
140.6406281612
 30
0.0
 10
98.9929575179
 20
140.1779514308
 30
0.0
 10
98.7915441514
 20
139.1853627433
 30
0.0
 10
98.5803001374
 20
137.6116862859
 30
0.0
 10
98.4494562169
 20
135.9094035121
 30
0.0
 10
98.4201670651
 20
134.7372458867
 30
0.0
 10
98.420134926
 20
134.1406252602
 30
0.0
  0
SPLINE
  5
324
100
AcDbEntity
  8
RUNDUNGEN
100
AcDbSpline
 62
7
  6
CONTINUOUS
 70
0
 71
3
 72
11
 73
7
 74
0
 42
0.0000001
 43
0.0000001
 44
0.0000000001
 40
0.0
 40
0.0
 40
0.0
 40
0.0
 40
0.2732036169
 40
0.5366877534
 40
0.7815128151
 40
1.0
 40
1.0
 40
1.0
 40
1.0
 10
98.420134926
 20
134.1406252602
 30
0.0
 10
98.4201623813
 20
133.5440719151
 30
0.0
 10
98.4494618299
 20
132.3719683894
 30
0.0
 10
98.5802782182
 20
130.6696917364
 30
0.0
 10
98.7915496088
 20
129.0959533958
 30
0.0
 10
98.9929396733
 20
128.1033064653
 30
0.0
 10
99.1092499401
 20
127.6406243583
 30
0.0
  0
SPLINE
  5
325
100
AcDbEntity
  8
RUNDUNGEN
100
AcDbSpline
 62
7
  6
CONTINUOUS
 70
0
 71
3
 72
11
 73
7
 74
0
 42
0.0000001
 43
0.0000001
 44
0.0000000001
 40
0.0
 40
0.0
 40
0.0
 40
0.0
 40
0.2320957382
 40
0.4805100529
 40
0.7397855553
 40
1.0
 40
1.0
 40
1.0
 40
1.0
 10
85.7429894858
 20
139.5951483676
 30
0.0
 10
85.7261437904
 20
139.6991056023
 30
0.0
 10
85.6461905538
 20
139.9083469656
 30
0.0
 10
85.4241293523
 20
140.1672692964
 30
0.0
 10
85.1251284988
 20
140.3553716561
 30
0.0
 10
84.8942672668
 20
140.4199633181
 30
0.0
 10
84.7770683655
 20
140.434296508
 30
0.0
  0
SPLINE
  5
326
100
AcDbEntity
  8
RUNDUNGEN
100
AcDbSpline
 62
7
  6
CONTINUOUS
 70
0
 71
3
 72
9
 73
5
 74
0
 42
0.0000001
 43
0.0000001
 44
0.0000000001
 40
0.0
 40
0.0
 40
0.0
 40
0.0
 40
0.5728327485
 40
1.0
 40
1.0
 40
1.0
 40
1.0
 10
84.8317821148
 20
140.5801668276
 30
0.0
 10
84.9499252462
 20
140.6492107205
 30
0.0
 10
85.1543929912
 20
140.7736625139
 30
0.0
 10
85.3273438633
 20
140.944935994
 30
0.0
 10
85.3837660084
 20
141.0299602942
 30
0.0
  0
SPLINE
  5
327
100
AcDbEntity
  8
RUNDUNGEN
100
AcDbSpline
 62
7
  6
CONTINUOUS
 70
0
 71
3
 72
11
 73
7
 74
0
 42
0.0000001
 43
0.0000001
 44
0.0000000001
 40
0.0
 40
0.0
 40
0.0
 40
0.0
 40
0.3096587164
 40
0.5721662675
 40
0.7969025464
 40
1.0
 40
1.0
 40
1.0
 40
1.0
 10
85.3837660084
 20
141.0299602942
 30
0.0
 10
85.437063063
 20
141.1101971049
 30
0.0
 10
85.5443126391
 20
141.2531320176
 30
0.0
 10
85.7260452324
 20
141.424150596
 30
0.0
 10
85.9154205365
 20
141.5311075381
 30
0.0
 10
86.0493543123
 20
141.5562976536
 30
0.0
 10
86.1125315388
 20
141.5563112081
 30
0.0
  0
SPLINE
  5
328
100
AcDbEntity
  8
RUNDUNGEN
100
AcDbSpline
 62
7
  6
CONTINUOUS
 70
0
 71
3
 72
11
 73
7
 74
0
 42
0.0000001
 43
0.0000001
 44
0.0000000001
 40
0.0
 40
0.0
 40
0.0
 40
0.0
 40
0.2527208818
 40
0.5041161617
 40
0.7532749252
 40
1.0
 40
1.0
 40
1.0
 40
1.0
 10
86.6902685891
 20
140.6406252602
 30
0.0
 10
86.6902685886
 20
140.7366579207
 30
0.0
 10
86.6633163332
 20
140.9292957299
 30
0.0
 10
86.5450420429
 20
141.1940197618
 30
0.0
 10
86.3587332351
 20
141.4133313109
 30
0.0
 10
86.1978891517
 20
141.5175326793
 30
0.0
 10
86.1125326954
 20
141.5563159381
 30
0.0
  0
SPLINE
  5
329
100
AcDbEntity
  8
RUNDUNGEN
100
AcDbSpline
 62
7
  6
CONTINUOUS
 70
0
 71
3
 72
11
 73
7
 74
0
 42
0.0000001
 43
0.0000001
 44
0.0000000001
 40
0.0
 40
0.0
 40
0.0
 40
0.0
 40
0.2527201649
 40
0.5041144635
 40
0.7532728611
 40
1.0
 40
1.0
 40
1.0
 40
1.0
 10
99.1092481624
 20
140.6406281612
 30
0.0
 10
99.109247849
 20
140.7366603879
 30
0.0
 10
99.0822952669
 20
140.9292971289
 30
0.0
 10
98.9640211887
 20
141.1940198276
 30
0.0
 10
98.7777124767
 20
141.4133311104
 30
0.0
 10
98.6168681542
 20
141.5175327941
 30
0.0
 10
98.5315110906
 20
141.5563162316
 30
0.0
  0
SPLINE
  5
32A
100
AcDbEntity
  8
RUNDUNGEN
100
AcDbSpline
 62
7
  6
CONTINUOUS
 70
0
 71
3
 72
10
 73
6
 74
0
 42
0.0000001
 43
0.0000001
 44
0.0000000001
 40
0.0
 40
0.0
 40
0.0
 40
0.0
 40
0.2015169988
 40
0.442527503
 40
1.0
 40
1.0
 40
1.0
 40
1.0
 10
98.531511816
 20
141.5563169068
 30
0.0
 10
98.6117829724
 20
141.5563210959
 30
0.0
 10
98.7879606269
 20
141.5679853575
 30
0.0
 10
99.1836602079
 20
141.6115395508
 30
0.0
 10
99.5012955604
 20
141.6406260341
 30
0.0
 10
99.7233560434
 20
141.6406259201
 30
0.0
  0
SPLINE
  5
32B
100
AcDbEntity
  8
RUNDUNGEN
100
AcDbSpline
 62
7
  6
CONTINUOUS
 70
0
 71
3
 72
11
 73
7
 74
0
 42
0.0000001
 43
0.0000001
 44
0.0000000001
 40
0.0
 40
0.0
 40
0.0
 40
0.0
 40
0.2540211637
 40
0.5056596397
 40
0.7539853717
 40
1.0
 40
1.0
 40
1.0
 40
1.0
 10
99.1092459922
 20
127.6406243583
 30
0.0
 10
99.1092460415
 20
127.5107149817
 30
0.0
 10
99.0595906552
 20
127.2493997723
 30
0.0
 10
98.8458268785
 20
126.9172354461
 30
0.0
 10
98.5248584009
 20
126.6932919742
 30
0.0
 10
98.2691346686
 20
126.6406252587
 30
0.0
 10
98.1433199273
 20
126.6406252602
 30
0.0
  0
SPLINE
  5
32C
100
AcDbEntity
  8
RUNDUNGEN
100
AcDbSpline
 62
7
  6
CONTINUOUS
 70
0
 71
3
 72
11
 73
7
 74
0
 42
0.0000001
 43
0.0000001
 44
0.0000000001
 40
0.0
 40
0.0
 40
0.0
 40
0.0
 40
0.2540212502
 40
0.505659753
 40
0.7539854579
 40
1.0
 40
1.0
 40
1.0
 40
1.0
 10
86.6902685891
 20
127.6406252602
 30
0.0
 10
86.6902685891
 20
127.5107157956
 30
0.0
 10
86.6406132294
 20
127.2494004737
 30
0.0
 10
86.4268496947
 20
126.9172357866
 30
0.0
 10
86.1058812604
 20
126.6932920607
 30
0.0
 10
85.8501575024
 20
126.6406252602
 30
0.0
 10
85.7243427628
 20
126.6406252602
 30
0.0
  0
SPLINE
  5
32D
100
AcDbEntity
  8
RUNDUNGEN
100
AcDbSpline
 62
7
  6
CONTINUOUS
 70
0
 71
3
 72
11
 73
7
 74
0
 42
0.0000001
 43
0.0000001
 44
0.0000000001
 40
0.0
 40
0.0
 40
0.0
 40
0.0
 40
0.2320955774
 40
0.4805099236
 40
0.7397855526
 40
1.0
 40
1.0
 40
1.0
 40
1.0
 10
85.7429941915
 20
128.6861021529
 30
0.0
 10
85.7261486061
 20
128.582144466
 30
0.0
 10
85.6461952605
 20
128.3729020407
 30
0.0
 10
85.424133089
 20
128.1139783553
 30
0.0
 10
85.1251305444
 20
127.9258752841
 30
0.0
 10
84.8942678924
 20
127.861283959
 30
0.0
 10
84.7770683652
 20
127.8469512431
 30
0.0
  0
SPLINE
  5
32E
100
AcDbEntity
  8
RUNDUNGEN
100
AcDbSpline
 62
7
  6
CONTINUOUS
 70
0
 71
3
 72
11
 73
7
 74
0
 42
0.0000001
 43
0.0000001
 44
0.0000000001
 40
0.0
 40
0.0
 40
0.0
 40
0.0
 40
0.2604814347
 40
0.5182469616
 40
0.7656685926
 40
1.0
 40
1.0
 40
1.0
 40
1.0
 10
69.0062671437
 20
140.672294105
 30
0.0
 10
68.8836306757
 20
140.6630375789
 30
0.0
 10
68.6409935799
 20
140.6044593378
 30
0.0
 10
68.3284654005
 20
140.4109243076
 30
0.0
 10
68.1032866602
 20
140.1350487977
 30
0.0
 10
68.0321025769
 20
139.9115451233
 30
0.0
 10
68.0214728522
 20
139.8014182628
 30
0.0
  0
SPLINE
  5
32F
100
AcDbEntity
  8
RUNDUNGEN
100
AcDbSpline
 62
7
  6
CONTINUOUS
 70
0
 71
3
 72
11
 73
7
 74
0
 42
0.0000001
 43
0.0000001
 44
0.0000000001
 40
0.0
 40
0.0
 40
0.0
 40
0.0
 40
0.2482605022
 40
0.4975003067
 40
0.7482033348
 40
1.0
 40
1.0
 40
1.0
 40
1.0
 10
68.4429742566
 20
141.6406252602
 30
0.0
 10
68.3147992249
 20
141.6406252602
 30
0.0
 10
68.055055286
 20
141.5883288392
 30
0.0
 10
67.7278002284
 20
141.3651094078
 30
0.0
 10
67.5091208161
 20
141.0328626856
 30
0.0
 10
67.4581665048
 20
140.7706259862
 30
0.0
 10
67.4581665036
 20
140.6406252602
 30
0.0
  0
SPLINE
  5
330
100
AcDbEntity
  8
RUNDUNGEN
100
AcDbSpline
 62
7
  6
CONTINUOUS
 70
0
 71
3
 72
11
 73
7
 74
0
 42
0.0000001
 43
0.0000001
 44
0.0000000001
 40
0.0
 40
0.0
 40
0.0
 40
0.0
 40
0.248260517
 40
0.4975003281
 40
0.7482033501
 40
1.0
 40
1.0
 40
1.0
 40
1.0
 10
63.0888381325
 20
141.6406252602
 30
0.0
 10
62.9606633225
 20
141.6406252045
 30
0.0
 10
62.7009198716
 20
141.5883288782
 30
0.0
 10
62.37366524
 20
141.3651101381
 30
0.0
 10
62.1549857103
 20
141.0328643998
 30
0.0
 10
62.1040308802
 20
140.7706283293
 30
0.0
 10
62.1040305267
 20
140.6406278436
 30
0.0
  0
SPLINE
  5
331
100
AcDbEntity
  8
RUNDUNGEN
100
AcDbSpline
 62
7
  6
CONTINUOUS
 70
0
 71
3
 72
11
 73
7
 74
0
 42
0.0000001
 43
0.0000001
 44
0.0000000001
 40
0.0
 40
0.0
 40
0.0
 40
0.0
 40
0.2343311682
 40
0.4817528068
 40
0.7395184821
 40
1.0
 40
1.0
 40
1.0
 40
1.0
 10
68.0214660535
 20
128.4798322578
 30
0.0
 10
68.0320951204
 20
128.3697045162
 30
0.0
 10
68.1032788248
 20
128.1461986368
 30
0.0
 10
68.3284591201
 20
127.8703204776
 30
0.0
 10
68.6409901614
 20
127.6767838865
 30
0.0
 10
68.8836295793
 20
127.6182056311
 30
0.0
 10
69.0062671437
 20
127.6089494218
 30
0.0
  0
SPLINE
  5
332
100
AcDbEntity
  8
RUNDUNGEN
100
AcDbSpline
 62
7
  6
CONTINUOUS
 70
0
 71
3
 72
11
 73
7
 74
0
 42
0.0000001
 43
0.0000001
 44
0.0000000001
 40
0.0
 40
0.0
 40
0.0
 40
0.0
 40
0.2517966613
 40
0.502499689
 40
0.7517394951
 40
1.0
 40
1.0
 40
1.0
 40
1.0
 10
67.4581665036
 20
127.6406252602
 30
0.0
 10
67.4581665052
 20
127.5106245362
 30
0.0
 10
67.509120816
 20
127.2483878396
 30
0.0
 10
67.7278002248
 20
126.9161411173
 30
0.0
 10
68.0550552823
 20
126.6929216823
 30
0.0
 10
68.3147992234
 20
126.6406252602
 30
0.0
 10
68.4429742564
 20
126.6406252602
 30
0.0
  0
SPLINE
  5
333
100
AcDbEntity
  8
RUNDUNGEN
100
AcDbSpline
 62
7
  6
CONTINUOUS
 70
0
 71
3
 72
11
 73
7
 74
0
 42
0.0000001
 43
0.0000001
 44
0.0000000001
 40
0.0
 40
0.0
 40
0.0
 40
0.0
 40
0.2517966515
 40
0.5024996754
 40
0.7517394874
 40
1.0
 40
1.0
 40
1.0
 40
1.0
 10
62.1040289343
 20
127.6406233112
 30
0.0
 10
62.1040292009
 20
127.5106230179
 30
0.0
 10
62.1549837017
 20
127.2483873096
 30
0.0
 10
62.3736623781
 20
126.9161417501
 30
0.0
 10
62.700916021
 20
126.6929226611
 30
0.0
 10
62.9606589165
 20
126.6406257042
 30
0.0
 10
63.0888335338
 20
126.6406252602
 30
0.0
  0
SPLINE
  5
334
100
AcDbEntity
  8
RUNDUNGEN
100
AcDbSpline
 62
7
  6
CONTINUOUS
 70
0
 71
3
 72
13
 73
9
 74
0
 42
0.0000001
 43
0.0000001
 44
0.0000000001
 40
0.0
 40
0.0
 40
0.0
 40
0.0
 40
0.195464974
 40
0.429029691
 40
0.5592264224
 40
0.6981338301
 40
0.8457732425
 40
1.0
 40
1.0
 40
1.0
 40
1.0
 10
82.0528282822
 20
142.0678826526
 30
0.0
 10
82.0519702486
 20
141.9794641148
 30
0.0
 10
82.1050425783
 20
141.7861708077
 30
0.0
 10
82.2413857993
 20
141.5702710195
 30
0.0
 10
82.399490949
 20
141.4056584617
 30
0.0
 10
82.5520079866
 20
141.2929590583
 30
0.0
 10
82.7355356778
 20
141.210242549
 30
0.0
 10
82.873159151
 20
141.1904839283
 30
0.0
 10
82.9429227946
 20
141.1912385164
 30
0.0
  0
SPLINE
  5
335
100
AcDbEntity
  8
RUNDUNGEN
100
AcDbSpline
 62
7
  6
CONTINUOUS
 70
0
 71
3
 72
13
 73
9
 74
0
 42
0.0000001
 43
0.0000001
 44
0.0000000001
 40
0.0
 40
0.0
 40
0.0
 40
0.0
 40
0.3393912925
 40
0.6115727431
 40
0.7246787124
 40
0.8248059958
 40
0.9151123867
 40
1.0
 40
1.0
 40
1.0
 40
1.0
 10
85.7430313858
 20
128.6860256767
 30
0.0
 10
85.8070589131
 20
128.5311711567
 30
0.0
 10
85.9360975838
 20
128.2574655451
 30
0.0
 10
86.1387054166
 20
127.9589491362
 30
0.0
 10
86.3108425057
 20
127.790976462
 30
0.0
 10
86.4348251725
 20
127.7051819098
 30
0.0
 10
86.5614836521
 20
127.6526537701
 30
0.0
 10
86.648356637
 20
127.6406342225
 30
0.0
 10
86.6902685891
 20
127.6406252602
 30
0.0
  0
SPLINE
  5
336
100
AcDbEntity
  8
RUNDUNGEN
100
AcDbSpline
 62
7
  6
CONTINUOUS
 70
0
 71
3
 72
15
 73
11
 74
0
 42
0.0000001
 43
0.0000001
 44
0.0000000001
 40
0.0
 40
0.0
 40
0.0
 40
0.0
 40
0.3311066763
 40
0.4844893352
 40
0.6241535267
 40
0.7469554607
 40
0.8507548132
 40
0.8952367512
 40
0.9347901941
 40
1.0
 40
1.0
 40
1.0
 40
1.0
 10
57.5014226112
 20
134.1401918502
 30
0.0
 10
57.5014298229
 20
134.9909462997
 30
0.0
 10
57.441216845
 20
136.2374631571
 30
0.0
 10
57.2288950954
 20
137.8277680049
 30
0.0
 10
57.0198889094
 20
138.8765843127
 30
0.0
 10
56.7646488514
 20
139.783488439
 30
0.0
 10
56.5091586099
 20
140.4334800387
 30
0.0
 10
56.2820568261
 20
140.8602992278
 30
0.0
 10
56.0716527866
 20
141.1805168181
 30
0.0
 10
55.8863469749
 20
141.383333178
 30
0.0
 10
55.7500004971
 20
141.4807151927
 30
0.0
  0
SPLINE
  5
337
100
AcDbEntity
  8
RUNDUNGEN
100
AcDbSpline
 62
7
  6
CONTINUOUS
 70
0
 71
3
 72
11
 73
7
 74
0
 42
0.0000001
 43
0.0000001
 44
0.0000000001
 40
0.0
 40
0.0
 40
0.0
 40
0.0
 40
0.2201616023
 40
0.4536072754
 40
0.7109916574
 40
1.0
 40
1.0
 40
1.0
 40
1.0
 10
99.7114421152
 20
142.5327713782
 30
0.0
 10
99.7633925379
 20
142.5327677748
 30
0.0
 10
99.8708565277
 20
142.5185647361
 30
0.0
 10
100.0281321797
 20
142.4563613418
 30
0.0
 10
100.1827123183
 20
142.3546580776
 30
0.0
 10
100.2778073029
 20
142.2668348852
 30
0.0
 10
100.3250248948
 20
142.217629482
 30
0.0
  0
SPLINE
  5
338
100
AcDbEntity
  8
RUNDUNGEN
100
AcDbSpline
 62
7
  6
CONTINUOUS
 70
0
 71
3
 72
9
 73
5
 74
0
 42
0.0000001
 43
0.0000001
 44
0.0000000001
 40
0.0
 40
0.0
 40
0.0
 40
0.0
 40
0.5003566846
 40
1.0
 40
1.0
 40
1.0
 40
1.0
 10
98.0115815917
 20
142.3725846898
 30
0.0
 10
98.1546120554
 20
142.3726017904
 30
0.0
 10
98.4322289035
 20
142.4562941001
 30
0.0
 10
98.7112243724
 20
142.5327735201
 30
0.0
 10
98.8540509155
 20
142.5327717082
 30
0.0
  0
SPLINE
  5
339
100
AcDbEntity
  8
RUNDUNGEN
100
AcDbSpline
 62
7
  6
CONTINUOUS
 70
0
 71
3
 72
11
 73
7
 74
0
 42
0.0000001
 43
0.0000001
 44
0.0000000001
 40
0.0
 40
0.0
 40
0.0
 40
0.0
 40
0.3096874939
 40
0.5721550677
 40
0.7968405443
 40
1.0
 40
1.0
 40
1.0
 40
1.0
 10
84.7894743014
 20
141.7899831315
 30
0.0
 10
84.8480331732
 20
141.8787620387
 30
0.0
 10
84.9659372387
 20
142.0369342737
 30
0.0
 10
85.1660638096
 20
142.2262616338
 30
0.0
 10
85.3749509262
 20
142.3446981921
 30
0.0
 10
85.5228288879
 20
142.3725667372
 30
0.0
 10
85.592597601
 20
142.3725815474
 30
0.0
  0
SPLINE
  5
33A
100
AcDbEntity
  8
RUNDUNGEN
100
AcDbSpline
 62
7
  6
CONTINUOUS
 70
0
 71
3
 72
18
 73
14
 74
0
 42
0.0000001
 43
0.0000001
 44
0.0000000001
 40
0.0
 40
0.0
 40
0.0
 40
0.0
 40
0.0243280126
 40
0.0512845423
 40
0.0828192365
 40
0.1200834895
 40
0.1636648888
 40
0.2137618029
 40
0.333166498
 40
0.4762421725
 40
0.6389344438
 40
0.8157148369
 40
1.0
 40
1.0
 40
1.0
 40
1.0
 10
85.8162978249
 20
190.7484791421
 30
0.0
 10
85.7720639217
 20
190.7484584533
 30
0.0
 10
85.6782267061
 20
190.7305966657
 30
0.0
 10
85.545732182
 20
190.6550166641
 30
0.0
 10
85.418865005
 20
190.5340204919
 30
0.0
 10
85.297028476
 20
190.3691091688
 30
0.0
 10
85.1803783599
 20
190.1610316828
 30
0.0
 10
85.0235106395
 20
189.8063074024
 30
0.0
 10
84.8537446738
 20
189.2622335343
 30
0.0
 10
84.6941671925
 20
188.5051299084
 30
0.0
 10
84.5764116143
 20
187.6349782071
 30
0.0
 10
84.5060158079
 20
186.68479841
 30
0.0
 10
84.4932546483
 20
186.0280497614
 30
0.0
 10
84.4954839477
 20
185.6929844732
 30
0.0
  0
SPLINE
  5
33B
100
AcDbEntity
  8
RUNDUNGEN
100
AcDbSpline
 62
7
  6
CONTINUOUS
 70
0
 71
3
 72
17
 73
13
 74
0
 42
0.0000001
 43
0.0000001
 44
0.0000000001
 40
0.0
 40
0.0
 40
0.0
 40
0.0
 40
0.1877175041
 40
0.3649269466
 40
0.5263122981
 40
0.6673973933
 40
0.7850462663
 40
0.8777931106
 40
0.9151427418
 40
0.9471133431
 40
0.9748072542
 40
1.0
 40
1.0
 40
1.0
 40
1.0
 10
99.7906387344
 20
188.8982094696
 30
0.0
 10
99.7854388211
 20
189.0246563435
 30
0.0
 10
99.7693316724
 20
189.270276534
 30
0.0
 10
99.7273409959
 20
189.6227944857
 30
0.0
 10
99.6698074301
 20
189.9412358485
 30
0.0
 10
99.5990134586
 20
190.2158857063
 30
0.0
 10
99.5176061773
 20
190.4387644395
 30
0.0
 10
99.4383839408
 20
190.5872151372
 30
0.0
 10
99.3690674352
 20
190.6721573057
 30
0.0
 10
99.3193389648
 20
190.7153082836
 30
0.0
 10
99.2680685729
 20
190.7421295872
 30
0.0
 10
99.2322186895
 20
190.7484654603
 30
0.0
 10
99.2152344697
 20
190.7484791421
 30
0.0
  0
SPLINE
  5
33C
100
AcDbEntity
  8
RUNDUNGEN
100
AcDbSpline
 62
7
  6
CONTINUOUS
 70
0
 71
3
 72
15
 73
11
 74
0
 42
0.0000001
 43
0.0000001
 44
0.0000000001
 40
0.0
 40
0.0
 40
0.0
 40
0.0
 40
0.0652045286
 40
0.1047585426
 40
0.1492400588
 40
0.253038505
 40
0.3758397803
 40
0.5155144083
 40
0.6689107089
 40
1.0
 40
1.0
 40
1.0
 40
1.0
 10
55.7499998889
 20
126.8004928577
 30
0.0
 10
55.8863363221
 20
126.8978343507
 30
0.0
 10
56.0715672635
 20
127.1006703798
 30
0.0
 10
56.2819822194
 20
127.4208093715
 30
0.0
 10
56.5090627747
 20
127.8475812775
 30
0.0
 10
56.7645628918
 20
128.4974794277
 30
0.0
 10
57.0198028116
 20
129.4043030872
 30
0.0
 10
57.2288265022
 20
130.4530587582
 30
0.0
 10
57.4411439311
 20
132.0432060502
 30
0.0
 10
57.5014089707
 20
133.2895742978
 30
0.0
 10
57.5014226112
 20
134.1401918502
 30
0.0
  0
SPLINE
  5
33D
100
AcDbEntity
  8
RUNDUNGEN
100
AcDbSpline
 62
7
  6
CONTINUOUS
 70
0
 71
3
 72
18
 73
14
 74
0
 42
0.0000001
 43
0.0000001
 44
0.0000000001
 40
0.0
 40
0.0
 40
0.0
 40
0.0
 40
0.1796779742
 40
0.35214864
 40
0.5110494245
 40
0.6513090246
 40
0.7696480586
 40
0.8201987949
 40
0.8650624364
 40
0.9045826368
 40
0.9394272655
 40
0.9706994716
 40
1.0
 40
1.0
 40
1.0
 40
1.0
 10
100.3519865786
 20
134.1406252602
 30
0.0
 10
100.3520042571
 20
133.6391899484
 30
0.0
 10
100.3851456229
 20
132.6560728261
 30
0.0
 10
100.5326077924
 20
131.236337677
 30
0.0
 10
100.7690850105
 20
129.9398913397
 30
0.0
 10
101.0825160882
 20
128.8159749452
 30
0.0
 10
101.4106900842
 20
128.0143491304
 30
0.0
 10
101.7082440836
 20
127.4963206724
 30
0.0
 10
101.9300781655
 20
127.1909264101
 30
0.0
 10
102.1608451023
 20
126.9494742153
 30
0.0
 10
102.3997553507
 20
126.7735240766
 30
0.0
 10
102.645878941
 20
126.6653915962
 30
0.0
 10
102.8157336499
 20
126.640625289
 30
0.0
 10
102.8975039373
 20
126.6406252602
 30
0.0
  0
SPLINE
  5
33E
100
AcDbEntity
  8
RUNDUNGEN
100
AcDbSpline
 62
7
  6
CONTINUOUS
 70
0
 71
3
 72
9
 73
5
 74
0
 42
0.0000001
 43
0.0000001
 44
0.0000000001
 40
0.0
 40
0.0
 40
0.0
 40
0.0
 40
0.2440418588
 40
1.0
 40
1.0
 40
1.0
 40
1.0
 10
84.9469967721
 20
191.6406252314
 30
0.0
 10
84.9357004676
 20
191.6406210157
 30
0.0
 10
84.8894171946
 20
191.6380943233
 30
0.0
 10
84.8439493379
 20
191.6251203919
 30
0.0
 10
84.8119019326
 20
191.6110701264
 30
0.0
  0
SPLINE
  5
33F
100
AcDbEntity
  8
RUNDUNGEN
100
AcDbSpline
 62
7
  6
CONTINUOUS
 70
0
 71
3
 72
9
 73
5
 74
0
 42
0.0000001
 43
0.0000001
 44
0.0000000001
 40
0.0
 40
0.0
 40
0.0
 40
0.0
 40
0.2334775186
 40
1.0
 40
1.0
 40
1.0
 40
1.0
 10
84.8119019326
 20
191.6110701264
 30
0.0
 10
84.8004995777
 20
191.606071091
 30
0.0
 10
84.7526701948
 20
191.5823559651
 30
0.0
 10
84.7093170974
 20
191.5502300508
 30
0.0
 10
84.6787476099
 20
191.5230966265
 30
0.0
  0
SPLINE
  5
340
100
AcDbEntity
  8
RUNDUNGEN
100
AcDbSpline
 62
7
  6
CONTINUOUS
 70
0
 71
3
 72
16
 73
12
 74
0
 42
0.0000001
 43
0.0000001
 44
0.0000000001
 40
0.0
 40
0.0
 40
0.0
 40
0.0
 40
0.0271764414
 40
0.0594209532
 40
0.0971060358
 40
0.1403480045
 40
0.2432192621
 40
0.3666153974
 40
0.5078865711
 40
0.6634669278
 40
1.0
 40
1.0
 40
1.0
 40
1.0
 10
84.6787476099
 20
191.5230966265
 30
0.0
 10
84.6380184504
 20
191.4869454949
 30
0.0
 10
84.5581700699
 20
191.3975230721
 30
0.0
 10
84.4514178216
 20
191.2343373676
 30
0.0
 10
84.3483061823
 20
191.0319490531
 30
0.0
 10
84.2083808629
 20
190.6909341845
 30
0.0
 10
84.0531212565
 20
190.1724665445
 30
0.0
 10
83.8999465408
 20
189.4515876073
 30
0.0
 10
83.7762739738
 20
188.6180893495
 30
0.0
 10
83.6532575738
 20
187.354492581
 30
0.0
 10
83.6223772774
 20
186.3673523673
 30
0.0
 10
83.6261838056
 20
185.6929844732
 30
0.0
  0
SPLINE
  5
341
100
AcDbEntity
  8
RUNDUNGEN
100
AcDbSpline
 62
7
  6
CONTINUOUS
 70
0
 71
3
 72
14
 73
10
 74
0
 42
0.0000001
 43
0.0000001
 44
0.0000000001
 40
0.0
 40
0.0
 40
0.0
 40
0.0
 40
0.0641384632
 40
0.138129373
 40
0.2284783697
 40
0.3386939885
 40
0.4704940876
 40
0.6246800628
 40
1.0
 40
1.0
 40
1.0
 40
1.0
 10
68.4429745531
 20
126.6406252839
 30
0.0
 10
68.4679943292
 20
126.6406365853
 30
0.0
 10
68.5222144191
 20
126.6530663157
 30
0.0
 10
68.5971400824
 20
126.7036359735
 30
0.0
 10
68.6695548707
 20
126.7834225424
 30
0.0
 10
68.7404551137
 20
126.8924061626
 30
0.0
 10
68.8101830624
 20
127.0305794637
 30
0.0
 10
68.907767041
 20
127.2695760118
 30
0.0
 10
68.9679955256
 20
127.4676230968
 30
0.0
 10
69.0062671438
 20
127.6089410269
 30
0.0
  0
SPLINE
  5
342
100
AcDbEntity
  8
RUNDUNGEN
100
AcDbSpline
 62
7
  6
CONTINUOUS
 70
0
 71
3
 72
9
 73
5
 74
0
 42
0.0000001
 43
0.0000001
 44
0.0000000001
 40
0.0
 40
0.0
 40
0.0
 40
0.0
 40
0.4638285919
 40
1.0
 40
1.0
 40
1.0
 40
1.0
 10
81.7264939652
 20
141.6327827828
 30
0.0
 10
81.6369553077
 20
141.6191525995
 30
0.0
 10
81.4492205207
 20
141.5508514069
 30
0.0
 10
81.2925544761
 20
141.4305993193
 30
0.0
 10
81.2159061849
 20
141.3592806655
 30
0.0
  0
SPLINE
  5
343
100
AcDbEntity
  8
RUNDUNGEN
100
AcDbSpline
 62
7
  6
CONTINUOUS
 70
0
 71
3
 72
14
 73
10
 74
0
 42
0.0000001
 43
0.0000001
 44
0.0000000001
 40
0.0
 40
0.0
 40
0.0
 40
0.0
 40
0.0641375695
 40
0.1381291993
 40
0.2284794148
 40
0.3386952011
 40
0.470494753
 40
0.6246800949
 40
1.0
 40
1.0
 40
1.0
 40
1.0
 10
68.4429744992
 20
141.6406252441
 30
0.0
 10
68.4679939506
 20
141.6406159368
 30
0.0
 10
68.5222149202
 20
141.628187124
 30
0.0
 10
68.5971398966
 20
141.5776155322
 30
0.0
 10
68.6695545904
 20
141.4978278013
 30
0.0
 10
68.7404551669
 20
141.3888438703
 30
0.0
 10
68.8101832156
 20
141.2506709038
 30
0.0
 10
68.9077674467
 20
141.011674709
 30
0.0
 10
68.9679958184
 20
140.8136276305
 30
0.0
 10
69.0062671438
 20
140.6723094934
 30
0.0
  0
SPLINE
  5
344
100
AcDbEntity
  8
RUNDUNGEN
100
AcDbSpline
 62
7
  6
CONTINUOUS
 70
0
 71
3
 72
19
 73
15
 74
0
 42
0.0000001
 43
0.0000001
 44
0.0000000001
 40
0.0
 40
0.0
 40
0.0
 40
0.0
 40
0.1862633591
 40
0.3650019825
 40
0.5295616569
 40
0.6742190324
 40
0.7376547847
 40
0.7945823253
 40
0.8447022752
 40
0.8878906
 40
0.9242209266
 40
0.9541431274
 40
0.9787103163
 40
1.0
 40
1.0
 40
1.0
 40
1.0
 10
83.4489545563
 20
185.6929844732
 30
0.0
 10
83.4527704839
 20
186.0858057164
 30
0.0
 10
83.4772525308
 20
186.8555288064
 30
0.0
 10
83.5641622997
 20
187.9694540071
 30
0.0
 10
83.696866741
 20
188.9904579656
 30
0.0
 10
83.8460271742
 20
189.7629334294
 30
0.0
 10
83.9875750618
 20
190.3038533931
 30
0.0
 10
84.096369761
 20
190.6467619162
 30
0.0
 10
84.2114473758
 20
190.9422744017
 30
0.0
 10
84.3316495192
 20
191.1883100226
 30
0.0
 10
84.4561718674
 20
191.3834630434
 30
0.0
 10
84.5848039755
 20
191.5270040188
 30
0.0
 10
84.7189035571
 20
191.618121763
 30
0.0
 10
84.8162168845
 20
191.6406085725
 30
0.0
 10
84.8611180075
 20
191.6406252318
 30
0.0
  0
SPLINE
  5
345
100
AcDbEntity
  8
RUNDUNGEN
100
AcDbSpline
 62
7
  6
CONTINUOUS
 70
0
 71
3
 72
9
 73
5
 74
0
 42
0.0000001
 43
0.0000001
 44
0.0000000001
 40
0.0
 40
0.0
 40
0.0
 40
0.0
 40
0.5138459473
 40
1.0
 40
1.0
 40
1.0
 40
1.0
 10
83.9241034403
 20
141.191241126
 30
0.0
 10
84.0069533233
 20
141.190727428
 30
0.0
 10
84.1694928144
 20
141.2200658301
 30
0.0
 10
84.3131788937
 20
141.2977175755
 30
0.0
 10
84.377294632
 20
141.3428131854
 30
0.0
  0
SPLINE
  5
346
100
AcDbEntity
  8
RUNDUNGEN
100
AcDbSpline
 62
7
  6
CONTINUOUS
 70
0
 71
3
 72
10
 73
6
 74
0
 42
0.0000001
 43
0.0000001
 44
0.0000000001
 40
0.0
 40
0.0
 40
0.0
 40
0.0
 40
0.1392197768
 40
0.3697837183
 40
1.0
 40
1.0
 40
1.0
 40
1.0
 10
84.4954839477
 20
185.6929844732
 30
0.0
 10
84.4551555259
 20
185.6940275735
 30
0.0
 10
84.3479956737
 20
185.694749421
 30
0.0
 10
84.0582319827
 20
185.6954336911
 30
0.0
 10
83.8087983655
 20
185.6942072274
 30
0.0
 10
83.6261838056
 20
185.6929844732
 30
0.0
  0
SPLINE
  5
347
100
AcDbEntity
  8
RUNDUNGEN
100
AcDbSpline
 62
7
  6
CONTINUOUS
 70
0
 71
3
 72
11
 73
7
 74
0
 42
0.0000001
 43
0.0000001
 44
0.0000000001
 40
0.0
 40
0.0
 40
0.0
 40
0.0
 40
0.2886238654
 40
0.5472011361
 40
0.7803179478
 40
1.0
 40
1.0
 40
1.0
 40
1.0
 10
84.377294632
 20
141.3428131854
 30
0.0
 10
84.4261146467
 20
141.3770054033
 30
0.0
 10
84.5186027928
 20
141.4419401712
 30
0.0
 10
84.6422056247
 20
141.546101523
 30
0.0
 10
84.7357582137
 20
141.6609236618
 30
0.0
 10
84.7755044849
 20
141.7468217063
 30
0.0
 10
84.7894743014
 20
141.7899831315
 30
0.0
  0
SPLINE
  5
348
100
AcDbEntity
  8
RUNDUNGEN
100
AcDbSpline
 62
7
  6
CONTINUOUS
 70
0
 71
3
 72
11
 73
7
 74
0
 42
0.0000001
 43
0.0000001
 44
0.0000000001
 40
0.0
 40
0.0
 40
0.0
 40
0.0
 40
0.2533161989
 40
0.5049613159
 40
0.753540565
 40
1.0
 40
1.0
 40
1.0
 40
1.0
 10
85.8162978249
 20
190.7484791421
 30
0.0
 10
85.8154393204
 20
190.8503238898
 30
0.0
 10
85.7798524681
 20
191.0546451119
 30
0.0
 10
85.6305895956
 20
191.3246217066
 30
0.0
 10
85.4022188777
 20
191.5282651028
 30
0.0
 10
85.212719542
 20
191.6035162366
 30
0.0
 10
85.1156447035
 20
191.62340613
 30
0.0
  0
SPLINE
  5
349
100
AcDbEntity
  8
RUNDUNGEN
100
AcDbSpline
 62
7
  6
CONTINUOUS
 70
0
 71
3
 72
11
 73
7
 74
0
 42
0.0000001
 43
0.0000001
 44
0.0000000001
 40
0.0
 40
0.0
 40
0.0
 40
0.0
 40
0.2539738053
 40
0.5056246648
 40
0.7539798016
 40
1.0
 40
1.0
 40
1.0
 40
1.0
 10
99.2152344697
 20
190.7484791421
 30
0.0
 10
99.2142571341
 20
190.8644213416
 30
0.0
 10
99.1683242399
 20
191.0972450594
 30
0.0
 10
98.9765248251
 20
191.3929795603
 30
0.0
 10
98.6898833666
 20
191.5925269757
 30
0.0
 10
98.4618474367
 20
191.6401242333
 30
0.0
 10
98.34953325
 20
191.6406173576
 30
0.0
  0
SPLINE
  5
34A
100
AcDbEntity
  8
RUNDUNGEN
100
AcDbSpline
 62
7
  6
CONTINUOUS
 70
0
 71
3
 72
11
 73
7
 74
0
 42
0.0000001
 43
0.0000001
 44
0.0000000001
 40
0.0
 40
0.0
 40
0.0
 40
0.0
 40
0.4332127042
 40
0.7446941417
 40
0.9335925098
 40
1.0
 40
1.0
 40
1.0
 40
1.0
 10
99.7967136889
 20
188.6668048667
 30
0.0
 10
99.8011429017
 20
188.6669995463
 30
0.0
 10
99.8085278743
 20
188.667499406
 30
0.0
 10
99.8187612914
 20
188.6676558559
 30
0.0
 10
99.8233272326
 20
188.6688980605
 30
0.0
 10
99.8272076476
 20
188.6685066441
 30
0.0
 10
99.8272793434
 20
188.6691824645
 30
0.0
  0
SPLINE
  5
34B
100
AcDbEntity
  8
RUNDUNGEN
100
AcDbSpline
 62
7
  6
CONTINUOUS
 70
0
 71
3
 72
9
 73
5
 74
0
 42
0.0000001
 43
0.0000001
 44
0.0000000001
 40
0.0
 40
0.0
 40
0.0
 40
0.0
 40
0.2451941733
 40
1.0
 40
1.0
 40
1.0
 40
1.0
 10
100.3250255989
 20
142.2175663861
 30
0.0
 10
100.3303877185
 20
142.2062869766
 30
0.0
 10
100.3494384816
 20
142.1589405906
 30
0.0
 10
100.3568850921
 20
142.1073838974
 30
0.0
 10
100.35734978
 20
142.0689402822
 30
0.0
  0
SPLINE
  5
34C
100
AcDbEntity
  8
RUNDUNGEN
100
AcDbSpline
 62
7
  6
CONTINUOUS
 70
0
 71
3
 72
11
 73
7
 74
0
 42
0.0000001
 43
0.0000001
 44
0.0000000001
 40
0.0
 40
0.0
 40
0.0
 40
0.0
 40
0.2460045166
 40
0.4943581438
 40
0.746010688
 40
1.0
 40
1.0
 40
1.0
 40
1.0
 10
99.7233513881
 20
141.6406252602
 30
0.0
 10
99.6107539325
 20
141.6406252332
 30
0.0
 10
99.3819220057
 20
141.687508573
 30
0.0
 10
99.0939807575
 20
141.8868311982
 30
0.0
 10
98.9012040252
 20
142.183080643
 30
0.0
 10
98.8550307982
 20
142.4165237029
 30
0.0
 10
98.8540509155
 20
142.5327717082
 30
0.0
  0
SPLINE
  5
34D
100
AcDbEntity
  8
RUNDUNGEN
100
AcDbSpline
 62
7
  6
CONTINUOUS
 70
0
 71
3
 72
11
 73
7
 74
0
 42
0.0000001
 43
0.0000001
 44
0.0000000001
 40
0.0
 40
0.0
 40
0.0
 40
0.0
 40
0.246600018
 40
0.495892235
 40
0.7474231846
 40
1.0
 40
1.0
 40
1.0
 40
1.0
 10
98.5315111923
 20
141.5563162316
 30
0.0
 10
98.4553141588
 20
141.5909376559
 30
0.0
 10
98.311708147
 20
141.6839591518
 30
0.0
 10
98.1443724424
 20
141.8790550221
 30
0.0
 10
98.037813255
 20
142.1150899245
 30
0.0
 10
98.0123040868
 20
142.2868655939
 30
0.0
 10
98.0115815917
 20
142.3725846898
 30
0.0
  0
SPLINE
  5
34E
100
AcDbEntity
  8
RUNDUNGEN
100
AcDbSpline
 62
7
  6
CONTINUOUS
 70
0
 71
3
 72
13
 73
9
 74
0
 42
0.0000001
 43
0.0000001
 44
0.0000000001
 40
0.0
 40
0.0
 40
0.0
 40
0.0
 40
0.0705184044
 40
0.1493412674
 40
0.2424014851
 40
0.3532543317
 40
0.634841438
 40
1.0
 40
1.0
 40
1.0
 40
1.0
 10
67.4581665036
 20
140.6406252602
 30
0.0
 10
67.4830440014
 20
140.6406138987
 30
0.0
 10
67.536049837
 20
140.6302997134
 30
0.0
 10
67.6110550863
 20
140.5870373927
 30
0.0
 10
67.6838672572
 20
140.5179294631
 30
0.0
 10
67.787078537
 20
140.3805740439
 30
0.0
 10
67.906910032
 20
140.139800895
 30
0.0
 10
67.9829856063
 20
139.9244984834
 30
0.0
 10
68.0214115054
 20
139.8015422695
 30
0.0
  0
SPLINE
  5
34F
100
AcDbEntity
  8
RUNDUNGEN
100
AcDbSpline
 62
7
  6
CONTINUOUS
 70
0
 71
3
 72
11
 73
7
 74
0
 42
0.0000001
 43
0.0000001
 44
0.0000000001
 40
0.0
 40
0.0
 40
0.0
 40
0.0
 40
0.2466001323
 40
0.4958924522
 40
0.7474233801
 40
1.0
 40
1.0
 40
1.0
 40
1.0
 10
86.1125303093
 20
141.5563159381
 30
0.0
 10
86.0363332772
 20
141.5909372203
 30
0.0
 10
85.892727195
 20
141.6839583217
 30
0.0
 10
85.7253909336
 20
141.8790533551
 30
0.0
 10
85.6188307081
 20
142.1150873869
 30
0.0
 10
85.5933206099
 20
142.2868626234
 30
0.0
 10
85.592597601
 20
142.3725815474
 30
0.0
  0
SPLINE
  5
350
100
AcDbEntity
  8
RUNDUNGEN
100
AcDbSpline
 62
7
  6
CONTINUOUS
 70
0
 71
3
 72
9
 73
5
 74
0
 42
0.0000001
 43
0.0000001
 44
0.0000000001
 40
0.0
 40
0.0
 40
0.0
 40
0.0
 40
0.5086075083
 40
1.0
 40
1.0
 40
1.0
 40
1.0
 10
85.3837651229
 20
141.0299578214
 30
0.0
 10
85.2268224547
 20
141.0940020337
 30
0.0
 10
84.9457985253
 20
141.3026159636
 30
0.0
 10
84.807175465
 20
141.6271727379
 30
0.0
 10
84.7894750658
 20
141.7899831384
 30
0.0
  0
SPLINE
  5
351
100
AcDbEntity
  8
RUNDUNGEN
100
AcDbSpline
 62
7
  6
CONTINUOUS
 70
0
 71
3
 72
10
 73
6
 74
0
 42
0.0000001
 43
0.0000001
 44
0.0000000001
 40
0.0
 40
0.0
 40
0.0
 40
0.0
 40
0.2128690271
 40
0.4590794786
 40
1.0
 40
1.0
 40
1.0
 40
1.0
 10
84.8314043722
 20
140.5799094595
 30
0.0
 10
84.7802365305
 20
140.6181577044
 30
0.0
 10
84.6815907901
 20
140.7163594916
 30
0.0
 10
84.5100325964
 20
140.9635096323
 30
0.0
 10
84.4191960898
 20
141.1859802844
 30
0.0
 10
84.377295973
 20
141.3428132146
 30
0.0
  0
SPLINE
  5
352
100
AcDbEntity
  8
RUNDUNGEN
100
AcDbSpline
 62
7
  6
CONTINUOUS
 70
0
 71
3
 72
9
 73
5
 74
0
 42
0.0000001
 43
0.0000001
 44
0.0000000001
 40
0.0
 40
0.0
 40
0.0
 40
0.0
 40
0.5056826908
 40
1.0
 40
1.0
 40
1.0
 40
1.0
 10
81.2159061842
 20
141.3593196981
 30
0.0
 10
81.3329744613
 20
141.35104464
 30
0.0
 10
81.5709053718
 20
141.3816172965
 30
0.0
 10
81.774081797
 20
141.5107079998
 30
0.0
 10
81.85505623
 20
141.5919756501
 30
0.0
  0
SPLINE
  5
353
100
AcDbEntity
  8
RUNDUNGEN
100
AcDbSpline
 62
7
  6
CONTINUOUS
 70
0
 71
3
 72
13
 73
9
 74
0
 42
0.0000001
 43
0.0000001
 44
0.0000000001
 40
0.0
 40
0.0
 40
0.0
 40
0.0
 40
0.2884091745
 40
0.5463517841
 40
0.6655333581
 40
0.7797996504
 40
0.8907514354
 40
1.0
 40
1.0
 40
1.0
 40
1.0
 10
248.5867804925
 20
128.4797250075
 30
0.0
 10
249.2347804126
 20
128.772323332
 30
0.0
 10
250.4027458836
 20
129.4774330514
 30
0.0
 10
251.5454376231
 20
130.6866732151
 30
0.0
 10
252.1645620526
 20
131.7325240933
 30
0.0
 10
252.4852511953
 20
132.5222482969
 30
0.0
 10
252.6762872254
 20
133.3275329484
 30
0.0
 10
252.7187097532
 20
133.8713013966
 30
0.0
 10
252.71875
 20
134.1406252602
 30
0.0
  0
SPLINE
  5
354
100
AcDbEntity
  8
RUNDUNGEN
100
AcDbSpline
 62
7
  6
CONTINUOUS
 70
0
 71
3
 72
14
 73
10
 74
0
 42
0.0000001
 43
0.0000001
 44
0.0000000001
 40
0.0
 40
0.0
 40
0.0
 40
0.0
 40
0.1167468295
 40
0.2125855478
 40
0.3341230736
 40
0.4785853131
 40
0.6415872583
 40
0.8177906094
 40
1.0
 40
1.0
 40
1.0
 40
1.0
 10
245.21875
 20
141.6406252602
 30
0.0
 10
245.2559490308
 20
141.6406252602
 30
0.0
 10
245.3106196436
 20
141.7031193148
 30
0.0
 10
245.3518581482
 20
141.7967484346
 30
0.0
 10
245.3867382105
 20
141.9083758939
 30
0.0
 10
245.4142860619
 20
142.0419192671
 30
0.0
 10
245.4354196241
 20
142.1948246282
 30
0.0
 10
245.4483840399
 20
142.3604907777
 30
0.0
 10
245.4515471384
 20
142.4747141661
 30
0.0
 10
245.4516782711
 20
142.5327713782
 30
0.0
  0
SPLINE
  5
355
100
AcDbEntity
  8
RUNDUNGEN
100
AcDbSpline
 62
7
  6
CONTINUOUS
 70
0
 71
3
 72
14
 73
10
 74
0
 42
0.0000001
 43
0.0000001
 44
0.0000000001
 40
0.0
 40
0.0
 40
0.0
 40
0.0
 40
0.1146436427
 40
0.2112769653
 40
0.3344055926
 40
0.4803912978
 40
0.6441762388
 40
0.8198337958
 40
1.0
 40
1.0
 40
1.0
 40
1.0
 10
247.2537092056
 20
141.3593196981
 30
0.0
 10
247.2910773742
 20
141.3487774992
 30
0.0
 10
247.3631290075
 20
141.4011369683
 30
0.0
 10
247.4295092181
 20
141.48642857
 30
0.0
 10
247.4955655981
 20
141.5935870347
 30
0.0
 10
247.560171107
 20
141.72468024
 30
0.0
 10
247.6232877512
 20
141.8767960479
 30
0.0
 10
247.681287861
 20
142.0429671475
 30
0.0
 10
247.7151892768
 20
142.1586854259
 30
0.0
 10
247.7308264911
 20
142.2176652202
 30
0.0
  0
SPLINE
  5
356
100
AcDbEntity
  8
RUNDUNGEN
100
AcDbSpline
 62
7
  6
CONTINUOUS
 70
0
 71
3
 72
11
 73
7
 74
0
 42
0.0000001
 43
0.0000001
 44
0.0000000001
 40
0.0
 40
0.0
 40
0.0
 40
0.0
 40
0.2114878715
 40
0.4514958833
 40
0.7170852965
 40
1.0
 40
1.0
 40
1.0
 40
1.0
 10
189.1891272512
 20
141.3428196615
 30
0.0
 10
189.2213563395
 20
141.3809390206
 30
0.0
 10
189.2994663233
 20
141.4542784323
 30
0.0
 10
189.4337153866
 20
141.55727202
 30
0.0
 10
189.5830796515
 20
141.6683429231
 30
0.0
 10
189.6850797871
 20
141.7481014877
 30
0.0
 10
189.7370908794
 20
141.7899823673
 30
0.0
  0
SPLINE
  5
357
100
AcDbEntity
  8
RUNDUNGEN
100
AcDbSpline
 62
7
  6
CONTINUOUS
 70
0
 71
3
 72
21
 73
17
 74
0
 42
0.0000001
 43
0.0000001
 44
0.0000000001
 40
0.0
 40
0.0
 40
0.0
 40
0.0
 40
0.2072847856
 40
0.4003240326
 40
0.5730798691
 40
0.7211001897
 40
0.7845918725
 40
0.8405268378
 40
0.8885461753
 40
0.9282911318
 40
0.9594435252
 40
0.9818469215
 40
0.9897322325
 40
0.99538869
 40
0.9988060711
 40
1.0
 40
1.0
 40
1.0
 40
1.0
 10
190.1461787118
 20
188.6668048667
 30
0.0
 10
190.1000860417
 20
188.6671243886
 30
0.0
 10
190.0110680528
 20
188.6676902881
 30
0.0
 10
189.8836341825
 20
188.6683376166
 30
0.0
 10
189.7693783281
 20
188.6687390629
 30
0.0
 10
189.6839282597
 20
188.6688729801
 30
0.0
 10
189.624457427
 20
188.6688317226
 30
0.0
 10
189.5872198258
 20
188.6687395438
 30
0.0
 10
189.5552743457
 20
188.6685789261
 30
0.0
 10
189.5288078976
 20
188.6683743188
 30
0.0
 10
189.508124193
 20
188.6680693402
 30
0.0
 10
189.4943352243
 20
188.6678416338
 30
0.0
 10
189.4865214092
 20
188.6674743695
 30
0.0
 10
189.4824662082
 20
188.6674123943
 30
0.0
 10
189.4807063728
 20
188.6669827652
 30
0.0
 10
189.479143569
 20
188.6670703497
 30
0.0
 10
189.4791412521
 20
188.6668048667
 30
0.0
  0
SPLINE
  5
358
100
AcDbEntity
  8
RUNDUNGEN
100
AcDbSpline
 62
7
  6
CONTINUOUS
 70
0
 71
3
 72
14
 73
10
 74
0
 42
0.0000001
 43
0.0000001
 44
0.0000000001
 40
0.0
 40
0.0
 40
0.0
 40
0.0
 40
0.1167468314
 40
0.2125855515
 40
0.3341230792
 40
0.4785853196
 40
0.6415872632
 40
0.8177906109
 40
1.0
 40
1.0
 40
1.0
 40
1.0
 10
219.9013181562
 20
141.6406252602
 30
0.0
 10
219.9385171876
 20
141.6406252602
 30
0.0
 10
219.9931878007
 20
141.7031193167
 30
0.0
 10
220.0344263058
 20
141.796748438
 30
0.0
 10
220.0693063679
 20
141.908375899
 30
0.0
 10
220.0968542188
 20
142.0419192726
 30
0.0
 10
220.1179877807
 20
142.1948246323
 30
0.0
 10
220.1309521964
 20
142.3604907798
 30
0.0
 10
220.1341152946
 20
142.4747141666
 30
0.0
 10
220.1342464273
 20
142.5327713782
 30
0.0
  0
SPLINE
  5
359
100
AcDbEntity
  8
RUNDUNGEN
100
AcDbSpline
 62
7
  6
CONTINUOUS
 70
0
 71
3
 72
9
 73
5
 74
0
 42
0.0000001
 43
0.0000001
 44
0.0000000001
 40
0.0
 40
0.0
 40
0.0
 40
0.0
 40
0.2489606709
 40
1.0
 40
1.0
 40
1.0
 40
1.0
 10
205.6301139714
 20
141.6367456989
 30
0.0
 10
205.741922778
 20
141.6346397673
 30
0.0
 10
206.1909581949
 20
141.622757859
 30
0.0
 10
206.6396037649
 20
141.597396769
 30
0.0
 10
206.9759952419
 20
141.5719404129
 30
0.0
  0
SPLINE
  5
35A
100
AcDbEntity
  8
RUNDUNGEN
100
AcDbSpline
 62
7
  6
CONTINUOUS
 70
0
 71
3
 72
11
 73
7
 74
0
 42
0.0000001
 43
0.0000001
 44
0.0000000001
 40
0.0
 40
0.0
 40
0.0
 40
0.0
 40
0.2219591869
 40
0.457636105
 40
0.715681209
 40
1.0
 40
1.0
 40
1.0
 40
1.0
 10
206.9759952419
 20
141.5719404129
 30
0.0
 10
207.5740320736
 20
141.5266840982
 30
0.0
 10
208.8037703672
 20
141.3912088603
 30
0.0
 10
210.7187503768
 20
141.122763162
 30
0.0
 10
212.8037740614
 20
140.8524055367
 30
0.0
 10
214.2622684567
 20
140.7064894373
 30
0.0
 10
215.0276853045
 20
140.6406176335
 30
0.0
  0
SPLINE
  5
35B
100
AcDbEntity
  8
RUNDUNGEN
100
AcDbSpline
 62
7
  6
CONTINUOUS
 70
0
 71
3
 72
9
 73
5
 74
0
 42
0.0000001
 43
0.0000001
 44
0.0000000001
 40
0.0
 40
0.0
 40
0.0
 40
0.0
 40
0.2489492869
 40
1.0
 40
1.0
 40
1.0
 40
1.0
 10
205.6301207416
 20
126.6445041196
 30
0.0
 10
205.7427498731
 20
126.6466259897
 30
0.0
 10
206.1950999976
 20
126.6586233231
 30
0.0
 10
206.6470530748
 20
126.6842961229
 30
0.0
 10
206.9859239302
 20
126.710063888
 30
0.0
  0
SPLINE
  5
35C
100
AcDbEntity
  8
RUNDUNGEN
100
AcDbSpline
 62
7
  6
CONTINUOUS
 70
0
 71
3
 72
11
 73
7
 74
0
 42
0.0000001
 43
0.0000001
 44
0.0000000001
 40
0.0
 40
0.0
 40
0.0
 40
0.0
 40
0.2219650911
 40
0.4576617614
 40
0.7157144091
 40
1.0
 40
1.0
 40
1.0
 40
1.0
 10
206.9859239302
 20
126.710063888
 30
0.0
 10
207.583224915
 20
126.7554826994
 30
0.0
 10
208.8114812609
 20
126.8910965731
 30
0.0
 10
210.7241931848
 20
127.1592390675
 30
0.0
 10
212.8066529007
 20
127.4291506955
 30
0.0
 10
214.2632894277
 20
127.5748227734
 30
0.0
 10
215.027673549
 20
127.6406336359
 30
0.0
  0
SPLINE
  5
35D
100
AcDbEntity
  8
RUNDUNGEN
100
AcDbSpline
 62
7
  6
CONTINUOUS
 70
0
 71
3
 72
10
 73
6
 74
0
 42
0.0000001
 43
0.0000001
 44
0.0000000001
 40
0.0
 40
0.0
 40
0.0
 40
0.0
 40
0.2001550343
 40
0.4416867326
 40
1.0
 40
1.0
 40
1.0
 40
1.0
 10
217.2066462134
 20
141.6406772978
 30
0.0
 10
217.2239581764
 20
141.6870258792
 30
0.0
 10
217.2532277253
 20
141.7926084432
 30
0.0
 10
217.2952762649
 20
142.036360029
 30
0.0
 10
217.3066517394
 20
142.2345754055
 30
0.0
 10
217.3069640072
 20
142.3725841855
 30
0.0
  0
SPLINE
  5
35E
100
AcDbEntity
  8
RUNDUNGEN
100
AcDbSpline
 62
7
  6
CONTINUOUS
 70
0
 71
3
 72
16
 73
12
 74
0
 42
0.0000001
 43
0.0000001
 44
0.0000000001
 40
0.0
 40
0.0
 40
0.0
 40
0.0
 40
0.0039994681
 40
0.0172611709
 40
0.0396010387
 40
0.0708112866
 40
0.1589107224
 40
0.2785948408
 40
0.4260677025
 40
0.5976287731
 40
1.0
 40
1.0
 40
1.0
 40
1.0
 10
189.0648282903
 20
141.191240642
 30
0.0
 10
189.064831724
 20
141.1909793148
 30
0.0
 10
189.0661510766
 20
141.1928809701
 30
0.0
 10
189.0672432834
 20
141.1937788606
 30
0.0
 10
189.0703421484
 20
141.1977791984
 30
0.0
 10
189.0759674583
 20
141.2045948641
 30
0.0
 10
189.0858809921
 20
141.2170568876
 30
0.0
 10
189.1003410361
 20
141.2350355359
 30
0.0
 10
189.1183809192
 20
141.25738383
 30
0.0
 10
189.1481820618
 20
141.2938805738
 30
0.0
 10
189.1721720136
 20
141.3227233195
 30
0.0
 10
189.1891272512
 20
141.3428196615
 30
0.0
  0
SPLINE
  5
35F
100
AcDbEntity
  8
RUNDUNGEN
100
AcDbSpline
 62
7
  6
CONTINUOUS
 70
0
 71
3
 72
10
 73
6
 74
0
 42
0.0000001
 43
0.0000001
 44
0.0000000001
 40
0.0
 40
0.0
 40
0.0
 40
0.0
 40
0.2034723708
 40
0.445641683
 40
1.0
 40
1.0
 40
1.0
 40
1.0
 10
192.6596531964
 20
141.6571100314
 30
0.0
 10
192.6758721937
 20
141.703469123
 30
0.0
 10
192.7033928689
 20
141.8077892897
 30
0.0
 10
192.7429200865
 20
142.0460637029
 30
0.0
 10
192.7537177378
 20
142.2387685627
 30
0.0
 10
192.7540180969
 20
142.3725798035
 30
0.0
  0
SPLINE
  5
360
100
AcDbEntity
  8
RUNDUNGEN
100
AcDbSpline
 62
7
  6
CONTINUOUS
 70
0
 71
3
 72
10
 73
6
 74
0
 42
0.0000001
 43
0.0000001
 44
0.0000000001
 40
0.0
 40
0.0
 40
0.0
 40
0.0
 40
0.1821327344
 40
0.4182668256
 40
1.0
 40
1.0
 40
1.0
 40
1.0
 10
189.8923653529
 20
141.0822056609
 30
0.0
 10
189.8955460787
 20
141.1263048338
 30
0.0
 10
189.889544254
 20
141.2283416777
 30
0.0
 10
189.8463918247
 20
141.4673528246
 30
0.0
 10
189.7863397929
 20
141.6576294063
 30
0.0
 10
189.7370905852
 20
141.7899823772
 30
0.0
  0
SPLINE
  5
361
100
AcDbEntity
  8
RUNDUNGEN
100
AcDbSpline
 62
7
  6
CONTINUOUS
 70
0
 71
3
 72
11
 73
7
 74
0
 42
0.0000001
 43
0.0000001
 44
0.0000000001
 40
0.0
 40
0.0
 40
0.0
 40
0.0
 40
0.2345460692
 40
0.47698081
 40
0.7319955438
 40
1.0
 40
1.0
 40
1.0
 40
1.0
 10
188.8735390537
 20
140.5799283553
 30
0.0
 10
188.9320937873
 20
140.614889103
 30
0.0
 10
189.0397084604
 20
140.7070811479
 30
0.0
 10
189.1504132527
 20
140.8927722292
 30
0.0
 10
189.2038555692
 20
141.1117867855
 30
0.0
 10
189.2002063334
 20
141.2656830292
 30
0.0
 10
189.1891409803
 20
141.342819484
 30
0.0
  0
SPLINE
  5
362
100
AcDbEntity
  8
RUNDUNGEN
100
AcDbSpline
 62
7
  6
CONTINUOUS
 70
0
 71
3
 72
10
 73
6
 74
0
 42
0.0000001
 43
0.0000001
 44
0.0000000001
 40
0.0
 40
0.0
 40
0.0
 40
0.0
 40
0.2499918965
 40
0.5000491969
 40
1.0
 40
1.0
 40
1.0
 40
1.0
 10
217.3069640072
 20
142.3725841855
 30
0.0
 10
217.5429708193
 20
142.3728549556
 30
0.0
 10
218.0151559551
 20
142.3890846967
 30
0.0
 10
218.9558142258
 20
142.4658558015
 30
0.0
 10
219.6622636374
 20
142.5327977131
 30
0.0
 10
220.1342464273
 20
142.5327713782
 30
0.0
  0
SPLINE
  5
363
100
AcDbEntity
  8
RUNDUNGEN
100
AcDbSpline
 62
7
  6
CONTINUOUS
 70
0
 71
3
 72
22
 73
18
 74
0
 42
0.0000001
 43
0.0000001
 44
0.0000000001
 40
0.0
 40
0.0
 40
0.0
 40
0.0
 40
0.1580822718
 40
0.3172678936
 40
0.4729108988
 40
0.621505257
 40
0.6919765467
 40
0.7590267819
 40
0.8216700721
 40
0.878622077
 40
0.927809307
 40
0.9487360519
 40
0.9666562521
 40
0.9811073794
 40
0.991658561
 40
0.9980310548
 40
1.0
 40
1.0
 40
1.0
 40
1.0
 10
247.730975032
 20
142.2175663521
 30
0.0
 10
247.8015169624
 20
142.1770220852
 30
0.0
 10
247.9398627353
 20
142.0898999966
 30
0.0
 10
248.1356639817
 20
141.9449792417
 30
0.0
 10
248.3176087098
 20
141.7905048539
 30
0.0
 10
248.4571772071
 20
141.6572634373
 30
0.0
 10
248.5597808201
 20
141.5516142287
 30
0.0
 10
248.6298770216
 20
141.4761079933
 30
0.0
 10
248.6938294545
 20
141.4044003438
 30
0.0
 10
248.7504788345
 20
141.3385901412
 30
0.0
 10
248.7924826553
 20
141.2883222616
 30
0.0
 10
248.8211642596
 20
141.2534751914
 30
0.0
 10
248.8386943259
 20
141.2318471678
 30
0.0
 10
248.8521295146
 20
141.2157242435
 30
0.0
 10
248.8635669474
 20
141.2008880159
 30
0.0
 10
248.8677116917
 20
141.1975754034
 30
0.0
 10
248.8726663116
 20
141.1902241977
 30
0.0
 10
248.8726717336
 20
141.19123758
 30
0.0
  0
SPLINE
  5
364
100
AcDbEntity
  8
RUNDUNGEN
100
AcDbSpline
 62
7
  6
CONTINUOUS
 70
0
 71
3
 72
22
 73
18
 74
0
 42
0.0000001
 43
0.0000001
 44
0.0000000001
 40
0.0
 40
0.0
 40
0.0
 40
0.0
 40
0.1793867903
 40
0.3605663078
 40
0.5333634442
 40
0.6890176334
 40
0.7578905207
 40
0.819508436
 40
0.8730513109
 40
0.9178845559
 40
0.9533870666
 40
0.9674674869
 40
0.9790532878
 40
0.9881181249
 40
0.9946370338
 40
0.9985900726
 40
1.0
 40
1.0
 40
1.0
 40
1.0
 10
247.3514168835
 20
185.6929844732
 30
0.0
 10
247.4191670074
 20
185.693782088
 30
0.0
 10
247.5553466562
 20
185.6951921572
 30
0.0
 10
247.7567933052
 20
185.6967698505
 30
0.0
 10
247.949279863
 20
185.6977648073
 30
0.0
 10
248.0993498657
 20
185.6980859762
 30
0.0
 10
248.2074280932
 20
185.6979827978
 30
0.0
 10
248.2769363716
 20
185.6977436015
 30
0.0
 10
248.3373694532
 20
185.6973471935
 30
0.0
 10
248.3879211582
 20
185.6967937914
 30
0.0
 10
248.4236052065
 20
185.6962002963
 30
0.0
 10
248.4466589515
 20
185.6955919736
 30
0.0
 10
248.4598596289
 20
185.6951849154
 30
0.0
 10
248.4698775936
 20
185.6946354964
 30
0.0
 10
248.4777761672
 20
185.6943536279
 30
0.0
 10
248.4812885821
 20
185.6935444597
 30
0.0
 10
248.4843062382
 20
185.6935169811
 30
0.0
 10
248.4843108853
 20
185.6929844684
 30
0.0
  0
SPLINE
  5
365
100
AcDbEntity
  8
RUNDUNGEN
100
AcDbSpline
 62
7
  6
CONTINUOUS
 70
0
 71
3
 72
14
 73
10
 74
0
 42
0.0000001
 43
0.0000001
 44
0.0000000001
 40
0.0
 40
0.0
 40
0.0
 40
0.0
 40
0.1822093891
 40
0.3584127368
 40
0.5214146804
 40
0.6658769208
 40
0.7874144485
 40
0.8832531686
 40
1.0
 40
1.0
 40
1.0
 40
1.0
 10
242.2516110758
 20
190.7484791421
 30
0.0
 10
242.2517422085
 20
190.8065363538
 30
0.0
 10
242.2549053067
 20
190.9207597406
 30
0.0
 10
242.2678697224
 20
191.086425888
 30
0.0
 10
242.2890032843
 20
191.2393312477
 30
0.0
 10
242.3165511352
 20
191.3728746213
 30
0.0
 10
242.3514311973
 20
191.4845020823
 30
0.0
 10
242.3926697024
 20
191.5781312036
 30
0.0
 10
242.4473403155
 20
191.6406252602
 30
0.0
 10
242.4845393469
 20
191.6406252602
 30
0.0
  0
SPLINE
  5
366
100
AcDbEntity
  8
RUNDUNGEN
100
AcDbSpline
 62
7
  6
CONTINUOUS
 70
0
 71
3
 72
14
 73
10
 74
0
 42
0.0000001
 43
0.0000001
 44
0.0000000001
 40
0.0
 40
0.0
 40
0.0
 40
0.0
 40
0.1822093582
 40
0.3584126553
 40
0.5214145667
 40
0.6658768
 40
0.7874143371
 40
0.8832530777
 40
1.0
 40
1.0
 40
1.0
 40
1.0
 10
192.2460987503
 20
190.7484791421
 30
0.0
 10
192.2462298608
 20
190.806536349
 30
0.0
 10
192.2493929176
 20
190.9207597211
 30
0.0
 10
192.2623572911
 20
191.0864258505
 30
0.0
 10
192.2834908242
 20
191.2393311986
 30
0.0
 10
192.3110386615
 20
191.3728745792
 30
0.0
 10
192.3459187318
 20
191.4845020527
 30
0.0
 10
192.3871572767
 20
191.5781312198
 30
0.0
 10
192.4418279619
 20
191.6406252602
 30
0.0
 10
192.4790270255
 20
191.6406252602
 30
0.0
  0
SPLINE
  5
367
100
AcDbEntity
  8
RUNDUNGEN
100
AcDbSpline
 62
7
  6
CONTINUOUS
 70
0
 71
3
 72
13
 73
9
 74
0
 42
0.0000001
 43
0.0000001
 44
0.0000000001
 40
0.0
 40
0.0
 40
0.0
 40
0.0
 40
0.2884084642
 40
0.5463505947
 40
0.6655315775
 40
0.7797972579
 40
0.8907501008
 40
1.0
 40
1.0
 40
1.0
 40
1.0
 10
248.5867193153
 20
139.8015566933
 30
0.0
 10
249.2347158707
 20
139.5089395574
 30
0.0
 10
250.4027018807
 20
138.8038546032
 30
0.0
 10
251.5454105145
 20
137.5946106717
 30
0.0
 10
252.1645442477
 20
136.5487581279
 30
0.0
 10
252.4852446801
 20
135.7590304245
 30
0.0
 10
252.6762836893
 20
134.9537337082
 30
0.0
 10
252.7187062397
 20
134.4099548476
 30
0.0
 10
252.71875
 20
134.1406252602
 30
0.0
  0
SPLINE
  5
368
100
AcDbEntity
  8
RUNDUNGEN
100
AcDbSpline
 62
7
  6
CONTINUOUS
 70
0
 71
3
 72
15
 73
11
 74
0
 42
0.0000001
 43
0.0000001
 44
0.0000000001
 40
0.0
 40
0.0
 40
0.0
 40
0.0
 40
0.3687292272
 40
0.535877882
 40
0.6832168293
 40
0.805637672
 40
0.8991836975
 40
0.934579465
 40
0.9625125057
 40
1.0
 40
1.0
 40
1.0
 40
1.0
 10
215.0275751216
 20
127.6406233112
 30
0.0
 10
215.0275751735
 20
127.5129717683
 30
0.0
 10
215.0217133088
 20
127.327332705
 30
0.0
 10
215.0003638608
 20
127.0917183903
 30
0.0
 10
214.9796550949
 20
126.9418135097
 30
0.0
 10
214.954469963
 20
126.8184613789
 30
0.0
 10
214.9295667026
 20
126.7349337941
 30
0.0
 10
214.9061251635
 20
126.6854546325
 30
0.0
 10
214.887603815
 20
126.6566468018
 30
0.0
 10
214.8669066199
 20
126.6406255151
 30
0.0
 10
214.8539287051
 20
126.6406252602
 30
0.0
  0
SPLINE
  5
369
100
AcDbEntity
  8
RUNDUNGEN
100
AcDbSpline
 62
7
  6
CONTINUOUS
 70
0
 71
3
 72
15
 73
11
 74
0
 42
0.0000001
 43
0.0000001
 44
0.0000000001
 40
0.0
 40
0.0
 40
0.0
 40
0.0
 40
0.368729549
 40
0.5358783506
 40
0.6832173739
 40
0.8056381844
 40
0.8991840562
 40
0.9345797081
 40
0.9625126237
 40
1.0
 40
1.0
 40
1.0
 40
1.0
 10
245.3923981777
 20
127.6406252602
 30
0.0
 10
245.3923981866
 20
127.5129732576
 30
0.0
 10
245.3865362162
 20
127.327333526
 30
0.0
 10
245.3651865227
 20
127.0917183962
 30
0.0
 10
245.344477544
 20
126.9418130588
 30
0.0
 10
245.3192921647
 20
126.8184606696
 30
0.0
 10
245.2943886822
 20
126.7349329984
 30
0.0
 10
245.2709469062
 20
126.6854539359
 30
0.0
 10
245.2524254057
 20
126.6566462267
 30
0.0
 10
245.2317279084
 20
126.6406252602
 30
0.0
 10
245.218749999
 20
126.6406252602
 30
0.0
  0
SPLINE
  5
36A
100
AcDbEntity
  8
RUNDUNGEN
100
AcDbSpline
 62
7
  6
CONTINUOUS
 70
0
 71
3
 72
15
 73
11
 74
0
 42
0.0000001
 43
0.0000001
 44
0.0000000001
 40
0.0
 40
0.0
 40
0.0
 40
0.0
 40
0.3766182732
 40
0.5445285394
 40
0.6912878234
 40
0.8123077409
 40
0.9040357851
 40
0.938414671
 40
0.9652410325
 40
1.0
 40
1.0
 40
1.0
 40
1.0
 10
248.586989713
 20
128.4798322578
 30
0.0
 10
248.6439740583
 20
128.3757161929
 30
0.0
 10
248.7225136151
 20
128.222974229
 30
0.0
 10
248.8119918357
 20
128.0242913722
 30
0.0
 10
248.8631250338
 20
127.8968138575
 30
0.0
 10
248.899142183
 20
127.7892669766
 30
0.0
 10
248.9178882757
 20
127.7136336225
 30
0.0
 10
248.9227103655
 20
127.6652324011
 30
0.0
 10
248.9220759031
 20
127.6357191307
 30
0.0
 10
248.914353481
 20
127.6143335058
 30
0.0
 10
248.9048137736
 20
127.6089494218
 30
0.0
  0
SPLINE
  5
36B
100
AcDbEntity
  8
RUNDUNGEN
100
AcDbSpline
 62
7
  6
CONTINUOUS
 70
0
 71
3
 72
15
 73
11
 74
0
 42
0.0000001
 43
0.0000001
 44
0.0000000001
 40
0.0
 40
0.0
 40
0.0
 40
0.0
 40
0.0347591176
 40
0.0615856564
 40
0.0959647061
 40
0.1876929653
 40
0.3087129156
 40
0.4554720758
 40
0.6233821187
 40
1.0
 40
1.0
 40
1.0
 40
1.0
 10
248.9048098256
 20
140.672294105
 30
0.0
 10
248.9143493231
 20
140.6669097537
 30
0.0
 10
248.9220711198
 20
140.6455240955
 30
0.0
 10
248.9227053606
 20
140.6160109474
 30
0.0
 10
248.9178829944
 20
140.5676100158
 30
0.0
 10
248.8991368988
 20
140.4919772725
 30
0.0
 10
248.8631199946
 20
140.3844313425
 30
0.0
 10
248.8119873734
 20
140.2569550425
 30
0.0
 10
248.7225103327
 20
140.0582740646
 30
0.0
 10
248.6439719541
 20
139.9055334622
 30
0.0
 10
248.5869885134
 20
139.8014182628
 30
0.0
  0
SPLINE
  5
36C
100
AcDbEntity
  8
RUNDUNGEN
100
AcDbSpline
 62
7
  6
CONTINUOUS
 70
0
 71
3
 72
15
 73
11
 74
0
 42
0.0000001
 43
0.0000001
 44
0.0000000001
 40
0.0
 40
0.0
 40
0.0
 40
0.0
 40
0.0374873734
 40
0.0654202878
 40
0.1008159387
 40
0.1943618085
 40
0.316782618
 40
0.4641216406
 40
0.6312704436
 40
1.0
 40
1.0
 40
1.0
 40
1.0
 10
245.21875
 20
141.6406252602
 30
0.0
 10
245.2317279083
 20
141.6406252602
 30
0.0
 10
245.2524254039
 20
141.6246042938
 30
0.0
 10
245.2709469022
 20
141.5957965855
 30
0.0
 10
245.2943886764
 20
141.5463175239
 30
0.0
 10
245.3192921579
 20
141.4627898543
 30
0.0
 10
245.3444775366
 20
141.3394374668
 30
0.0
 10
245.3651865159
 20
141.1895321301
 30
0.0
 10
245.3865362118
 20
140.9539169987
 30
0.0
 10
245.3923981845
 20
140.7682772648
 30
0.0
 10
245.3923981777
 20
140.6406252602
 30
0.0
  0
SPLINE
  5
36D
100
AcDbEntity
  8
RUNDUNGEN
100
AcDbSpline
 62
7
  6
CONTINUOUS
 70
0
 71
3
 72
15
 73
11
 74
0
 42
0.0000001
 43
0.0000001
 44
0.0000000001
 40
0.0
 40
0.0
 40
0.0
 40
0.0
 40
0.0374872641
 40
0.0654201488
 40
0.1008157759
 40
0.1943616041
 40
0.3167823791
 40
0.4641213843
 40
0.6312702072
 40
1.0
 40
1.0
 40
1.0
 40
1.0
 10
214.8539376013
 20
141.6406252602
 30
0.0
 10
214.8669154332
 20
141.6406252282
 30
0.0
 10
214.8876127568
 20
141.6246042433
 30
0.0
 10
214.90613409
 20
141.5957966263
 30
0.0
 10
214.9295756755
 20
141.5463176891
 30
0.0
 10
214.9544789489
 20
141.4627902696
 30
0.0
 10
214.979664111
 20
141.3394382514
 30
0.0
 10
215.0003728973
 20
141.1895333541
 30
0.0
 10
215.0217223691
 20
140.9539188247
 30
0.0
 10
215.0275842215
 20
140.768279551
 30
0.0
 10
215.0275841526
 20
140.6406278436
 30
0.0
  0
SPLINE
  5
36E
100
AcDbEntity
  8
RUNDUNGEN
100
AcDbSpline
 62
7
  6
CONTINUOUS
 70
0
 71
3
 72
9
 73
5
 74
0
 42
0.0000001
 43
0.0000001
 44
0.0000000001
 40
0.0
 40
0.0
 40
0.0
 40
0.0
 40
0.2502098847
 40
1.0
 40
1.0
 40
1.0
 40
1.0
 10
98.0115815917
 20
98.8366862523
 30
0.0
 10
98.0819582607
 20
99.0993382547
 30
0.0
 10
98.3628858233
 20
100.1491568481
 30
0.0
 10
98.6431566505
 20
101.1991511484
 30
0.0
 10
98.8540509155
 20
101.9862257629
 30
0.0
  0
SPLINE
  5
36F
100
AcDbEntity
  8
RUNDUNGEN
100
AcDbSpline
 62
7
  6
CONTINUOUS
 70
0
 71
3
 72
9
 73
5
 74
0
 42
0.0000001
 43
0.0000001
 44
0.0000000001
 40
0.0
 40
0.0
 40
0.0
 40
0.0
 40
0.2503171024
 40
1.0
 40
1.0
 40
1.0
 40
1.0
 10
90.2386536839
 20
80.3649109928
 30
0.0
 10
90.1754674601
 20
80.1290310345
 30
0.0
 10
89.9232285519
 20
79.1866566762
 30
0.0
 10
89.6717699975
 20
78.2440735651
 30
0.0
 10
89.4825328888
 20
77.5376285727
 30
0.0
  0
LINE
  5
370
100
AcDbEntity
  8
RUNDUNGEN
100
AcDbLine
 62
7
  6
CONTINUOUS
 10
57.5014226111
 20
84.9531250055
 11
55.7500004971
 21
90.9126446263
  0
SPLINE
  5
371
100
AcDbEntity
  8
RUNDUNGEN
100
AcDbSpline
 62
7
  6
CONTINUOUS
 70
0
 71
3
 72
13
 73
9
 74
0
 42
0.0000001
 43
0.0000001
 44
0.0000000001
 40
0.0
 40
0.0
 40
0.0
 40
0.0
 40
0.3013569313
 40
0.5587661577
 40
0.6756384238
 40
0.7868703957
 40
0.8943765459
 40
1.0
 40
1.0
 40
1.0
 40
1.0
 10
69.0062671438
 20
48.7670564877
 30
0.0
 10
69.0965961385
 20
48.1762461598
 30
0.0
 10
69.4537253723
 20
47.0981472816
 30
0.0
 10
70.30503713
 20
46.0267976147
 30
0.0
 10
71.0874555026
 20
45.4578159541
 30
0.0
 10
71.689526986
 20
45.1655728925
 30
0.0
 10
72.3123449896
 20
44.9917523252
 30
0.0
 10
72.7360171132
 20
44.9531683857
 30
0.0
 10
72.9454981559
 20
44.953125
 30
0.0
  0
LINE
  5
372
100
AcDbEntity
  8
RUNDUNGEN
100
AcDbLine
 62
7
  6
CONTINUOUS
 10
68.4429312372
 20
52.4534078914
 11
69.0062671438
 21
48.7670564877
  0
SPLINE
  5
373
100
AcDbEntity
  8
RUNDUNGEN
100
AcDbSpline
 62
7
  6
CONTINUOUS
 70
0
 71
3
 72
13
 73
9
 74
0
 42
0.0000001
 43
0.0000001
 44
0.0000000001
 40
0.0
 40
0.0
 40
0.0
 40
0.0
 40
0.1256364873
 40
0.2489539781
 40
0.3708595834
 40
0.4928033301
 40
0.7410840568
 40
1.0
 40
1.0
 40
1.0
 40
1.0
 10
101.1942834021
 20
106.9880731909
 30
0.0
 10
101.2317649064
 20
107.1116974904
 30
0.0
 10
101.2738950929
 20
107.3678455155
 30
0.0
 10
101.2338610441
 20
107.7513187126
 30
0.0
 10
101.0984539661
 20
108.1081484486
 30
0.0
 10
100.8072080825
 20
108.5272453059
 30
0.0
 10
100.2614098485
 20
108.9140465421
 30
0.0
 10
99.7335779994
 20
109.0189952566
 30
0.0
 10
99.4673566268
 20
109.0190958713
 30
0.0
  0
SPLINE
  5
374
100
AcDbEntity
  8
RUNDUNGEN
100
AcDbSpline
 62
7
  6
CONTINUOUS
 70
0
 71
3
 72
9
 73
5
 74
0
 42
0.0000001
 43
0.0000001
 44
0.0000000001
 40
0.0
 40
0.0
 40
0.0
 40
0.0
 40
0.5048886762
 40
1.0
 40
1.0
 40
1.0
 40
1.0
 10
98.4860060894
 20
109.0190958713
 30
0.0
 10
98.327728487
 20
109.0190405977
 30
0.0
 10
98.0131097842
 20
108.9817521014
 30
0.0
 10
97.7162181811
 20
108.8705550258
 30
0.0
 10
97.5788330129
 20
108.798331495
 30
0.0
  0
LINE
  5
375
100
AcDbEntity
  8
RUNDUNGEN
100
AcDbLine
 62
7
  6
CONTINUOUS
 10
97.5788330129
 20
108.798331495
 11
98.4275033163
 21
112.4531143277
  0
LINE
  5
376
100
AcDbEntity
  8
RUNDUNGEN
100
AcDbLine
 62
7
  6
CONTINUOUS
 10
62.4669462203
 20
112.4531003935
 11
63.6131169301
 21
104.952801623
  0
SPLINE
  5
377
100
AcDbEntity
  8
RUNDUNGEN
100
AcDbSpline
 62
7
  6
CONTINUOUS
 70
0
 71
3
 72
14
 73
10
 74
0
 42
0.0000001
 43
0.0000001
 44
0.0000000001
 40
0.0
 40
0.0
 40
0.0
 40
0.0
 40
0.250781648
 40
0.3758629961
 40
0.5007476078
 40
0.6255184284
 40
0.7502736371
 40
0.8750843605
 40
1.0
 40
1.0
 40
1.0
 40
1.0
 10
55.6969728593
 20
92.0417610286
 30
0.0
 10
56.3687012396
 20
91.3496216431
 30
0.0
 10
57.3732466941
 20
90.3097523198
 30
0.0
 10
58.6614206821
 20
88.8776940437
 30
0.0
 10
59.5813945217
 20
87.7674931558
 30
0.0
 10
60.4305010948
 20
86.6029040549
 30
0.0
 10
61.1735131643
 20
85.3666612213
 30
0.0
 10
61.7645874375
 20
84.0488814787
 30
0.0
 10
62.0206194942
 20
83.1173169468
 30
0.0
 10
62.1040474933
 20
82.6441896955
 30
0.0
  0
LINE
  5
378
100
AcDbEntity
  8
RUNDUNGEN
100
AcDbLine
 62
7
  6
CONTINUOUS
 10
55.7500093053
 20
90.9126143319
 11
55.6969728593
 21
92.0417610286
  0
SPLINE
  5
379
100
AcDbEntity
  8
RUNDUNGEN
100
AcDbSpline
 62
7
  6
CONTINUOUS
 70
0
 71
3
 72
9
 73
5
 74
0
 42
0.0000001
 43
0.0000001
 44
0.0000000001
 40
0.0
 40
0.0
 40
0.0
 40
0.0
 40
0.5001387273
 40
1.0
 40
1.0
 40
1.0
 40
1.0
 10
102.8975031667
 20
104.953125
 30
0.0
 10
102.3397182101
 20
104.4487234496
 30
0.0
 10
101.2246119757
 20
103.4406094235
 30
0.0
 10
100.1894751402
 20
102.3429196957
 30
0.0
 10
99.723352799
 20
101.7533031753
 30
0.0
  0
LINE
  5
37A
100
AcDbEntity
  8
RUNDUNGEN
100
AcDbLine
 62
7
  6
CONTINUOUS
 10
102.8976805907
 20
104.9531250003
 11
100.3519865643
 21
97.4531249888
  0
SPLINE
  5
37B
100
AcDbEntity
  8
RUNDUNGEN
100
AcDbSpline
 62
7
  6
CONTINUOUS
 70
0
 71
3
 72
11
 73
7
 74
0
 42
0.0000001
 43
0.0000001
 44
0.0000000001
 40
0.0
 40
0.0
 40
0.0
 40
0.0
 40
0.3500058255
 40
0.5035602264
 40
0.6393912162
 40
1.0
 40
1.0
 40
1.0
 40
1.0
 10
85.3837651229
 20
49.6189803003
 30
0.0
 10
85.3097190327
 20
49.6264425475
 30
0.0
 10
85.2027497952
 20
49.6315608087
 30
0.0
 10
85.0659532554
 20
49.6209976611
 30
0.0
 10
84.9336753995
 20
49.5984759815
 30
0.0
 10
84.8109817774
 20
49.545063345
 30
0.0
 10
84.7894750658
 20
49.4714656813
 30
0.0
  0
SPLINE
  5
37C
100
AcDbEntity
  8
RUNDUNGEN
100
AcDbSpline
 62
7
  6
CONTINUOUS
 70
0
 71
3
 72
13
 73
9
 74
0
 42
0.0000001
 43
0.0000001
 44
0.0000000001
 40
0.0
 40
0.0
 40
0.0
 40
0.0
 40
0.2524765812
 40
0.5034283088
 40
0.6281184099
 40
0.7523361909
 40
0.8762291222
 40
1.0
 40
1.0
 40
1.0
 40
1.0
 10
102.8978383593
 20
104.953589859
 30
0.0
 10
102.5302829649
 20
104.4423702145
 30
0.0
 10
101.7973108216
 20
103.4231501245
 30
0.0
 10
100.9086556268
 20
102.1325942549
 30
0.0
 10
100.2476811391
 20
101.0753727971
 30
0.0
 10
99.7918875136
 20
100.2644410635
 30
0.0
 10
99.3947324469
 20
99.4253876147
 30
0.0
 10
99.1891514868
 20
98.8407728739
 30
0.0
 10
99.1092650296
 20
98.5426248026
 30
0.0
  0
SPLINE
  5
37D
100
AcDbEntity
  8
RUNDUNGEN
100
AcDbSpline
 62
7
  6
CONTINUOUS
 70
0
 71
3
 72
12
 73
8
 74
0
 42
0.0000001
 43
0.0000001
 44
0.0000000001
 40
0.0
 40
0.0
 40
0.0
 40
0.0
 40
0.3604644001
 40
0.6520405866
 40
0.7673063976
 40
0.8619568354
 40
1.0
 40
1.0
 40
1.0
 40
1.0
 10
84.8314043722
 20
48.6079401103
 30
0.0
 10
84.7880520966
 20
48.6622081036
 30
0.0
 10
84.7051365478
 20
48.7568892807
 30
0.0
 10
84.594681107
 20
48.8561584256
 30
0.0
 10
84.5119702758
 20
48.9073549175
 30
0.0
 10
84.4509143689
 20
48.9334872351
 30
0.0
 10
84.4007299375
 20
48.9360859117
 30
0.0
 10
84.377295973
 20
48.9235005974
 30
0.0
  0
SPLINE
  5
37E
100
AcDbEntity
  8
RUNDUNGEN
100
AcDbSpline
 62
7
  6
CONTINUOUS
 70
0
 71
3
 72
9
 73
5
 74
0
 42
0.0000001
 43
0.0000001
 44
0.0000000001
 40
0.0
 40
0.0
 40
0.0
 40
0.0
 40
0.5000311652
 40
1.0
 40
1.0
 40
1.0
 40
1.0
 10
89.718723941
 20
80.5042257475
 30
0.0
 10
89.5913356841
 20
80.0287019886
 30
0.0
 10
89.2713049813
 20
79.0941241285
 30
0.0
 10
88.842815365
 20
78.2059670172
 30
0.0
 10
88.6132327467
 20
77.7705568438
 30
0.0
  0
SPLINE
  5
37F
100
AcDbEntity
  8
RUNDUNGEN
100
AcDbSpline
 62
7
  6
CONTINUOUS
 70
0
 71
3
 72
13
 73
9
 74
0
 42
0.0000001
 43
0.0000001
 44
0.0000000001
 40
0.0
 40
0.0
 40
0.0
 40
0.0
 40
0.3524694046
 40
0.5153139015
 40
0.6609167002
 40
0.7842783078
 40
0.8818052262
 40
1.0
 40
1.0
 40
1.0
 40
1.0
 10
81.2159061842
 20
50.4181657944
 30
0.0
 10
81.3329043751
 20
50.3888513559
 30
0.0
 10
81.5019575787
 20
50.337310348
 30
0.0
 10
81.7119142292
 20
50.2523617912
 30
0.0
 10
81.844503362
 20
50.1880204297
 30
0.0
 10
81.9531861826
 20
50.1217793373
 30
0.0
 10
82.0410503269
 20
50.0534659548
 30
0.0
 10
82.0944433317
 20
49.9804312264
 30
0.0
 10
82.0852296093
 20
49.9410485089
 30
0.0
  0
SPLINE
  5
380
100
AcDbEntity
  8
RUNDUNGEN
100
AcDbSpline
 62
7
  6
CONTINUOUS
 70
0
 71
3
 72
9
 73
5
 74
0
 42
0.0000001
 43
0.0000001
 44
0.0000000001
 40
0.0
 40
0.0
 40
0.0
 40
0.0
 40
0.4989572713
 40
1.0
 40
1.0
 40
1.0
 40
1.0
 10
97.5788464193
 20
108.7983882018
 30
0.0
 10
97.4406511795
 20
108.6632358926
 30
0.0
 10
97.2138007994
 20
108.340185504
 30
0.0
 10
97.076268444
 20
107.9748241253
 30
0.0
 10
97.0264125844
 20
107.787230274
 30
0.0
  0
SPLINE
  5
381
100
AcDbEntity
  8
RUNDUNGEN
100
AcDbSpline
 62
7
  6
CONTINUOUS
 70
0
 71
3
 72
11
 73
7
 74
0
 42
0.0000001
 43
0.0000001
 44
0.0000000001
 40
0.0
 40
0.0
 40
0.0
 40
0.0
 40
0.3499948602
 40
0.5035457477
 40
0.6393749853
 40
1.0
 40
1.0
 40
1.0
 40
1.0
 10
97.0264143135
 20
107.7872278819
 30
0.0
 10
97.1004610844
 20
107.7797669598
 30
0.0
 10
97.2074317986
 20
107.7746515984
 30
0.0
 10
97.3442294023
 20
107.7852211364
 30
0.0
 10
97.4765145387
 20
107.8077513632
 30
0.0
 10
97.5992067164
 20
107.8611802889
 30
0.0
 10
97.6207141824
 20
107.9347844148
 30
0.0
  0
SPLINE
  5
382
100
AcDbEntity
  8
RUNDUNGEN
100
AcDbSpline
 62
7
  6
CONTINUOUS
 70
0
 71
3
 72
12
 73
8
 74
0
 42
0.0000001
 43
0.0000001
 44
0.0000000001
 40
0.0
 40
0.0
 40
0.0
 40
0.0
 40
0.3604559523
 40
0.6520295867
 40
0.7672966719
 40
0.861949971
 40
1.0
 40
1.0
 40
1.0
 40
1.0
 10
97.5787906482
 20
108.7983359463
 30
0.0
 10
97.6221394169
 20
108.7440628185
 30
0.0
 10
97.7050508478
 20
108.6493723698
 30
0.0
 10
97.8155055915
 20
108.5500939912
 30
0.0
 10
97.8982185481
 20
108.4988912255
 30
0.0
 10
97.9592784782
 20
108.4727542963
 30
0.0
 10
98.009466081
 20
108.4701508996
 30
0.0
 10
98.0329042251
 20
108.4827340197
 30
0.0
  0
SPLINE
  5
383
100
AcDbEntity
  8
RUNDUNGEN
100
AcDbSpline
 62
7
  6
CONTINUOUS
 70
0
 71
3
 72
13
 73
9
 74
0
 42
0.0000001
 43
0.0000001
 44
0.0000000001
 40
0.0
 40
0.0
 40
0.0
 40
0.0
 40
0.3524694084
 40
0.5153139039
 40
0.6609166996
 40
0.7842783042
 40
0.881805221
 40
1.0
 40
1.0
 40
1.0
 40
1.0
 10
101.1942834029
 20
106.9880841938
 30
0.0
 10
101.0772852148
 20
107.0173986343
 30
0.0
 10
100.9082320164
 20
107.0689396442
 30
0.0
 10
100.6982753741
 20
107.1538882024
 30
0.0
 10
100.5656862487
 20
107.2182295639
 30
0.0
 10
100.4570034354
 20
107.2844706548
 30
0.0
 10
100.3691392942
 20
107.3527840394
 30
0.0
 10
100.3157462938
 20
107.4258187629
 30
0.0
 10
100.3249600105
 20
107.4652014823
 30
0.0
  0
SPLINE
  5
384
100
AcDbEntity
  8
RUNDUNGEN
100
AcDbSpline
 62
7
  6
CONTINUOUS
 70
0
 71
3
 72
12
 73
8
 74
0
 42
0.0000001
 43
0.0000001
 44
0.0000000001
 40
0.0
 40
0.0
 40
0.0
 40
0.0
 40
0.246805162
 40
0.4770053348
 40
0.7167228559
 40
0.8524051334
 40
1.0
 40
1.0
 40
1.0
 40
1.0
 10
82.0851639714
 20
49.940899968
 30
0.0
 10
82.0495964087
 20
49.8107263551
 30
0.0
 10
82.0375549232
 20
49.539768299
 30
0.0
 10
82.1896363335
 20
49.1669662193
 30
0.0
 10
82.4406635433
 20
48.9327984005
 30
0.0
 10
82.706406191
 20
48.8205834814
 30
0.0
 10
82.8622225926
 20
48.7991997065
 30
0.0
 10
82.9429227946
 20
48.7992032658
 30
0.0
  0
SPLINE
  5
385
100
AcDbEntity
  8
RUNDUNGEN
100
AcDbSpline
 62
7
  6
CONTINUOUS
 70
0
 71
3
 72
16
 73
12
 74
0
 42
0.0000001
 43
0.0000001
 44
0.0000000001
 40
0.0
 40
0.0
 40
0.0
 40
0.0
 40
0.008411773
 40
0.0240927144
 40
0.0813518721
 40
0.1727601633
 40
0.2954579223
 40
0.4452019833
 40
0.6167037869
 40
0.8038526571
 40
1.0
 40
1.0
 40
1.0
 40
1.0
 10
54.75
 20
92.1120006716
 30
0.0
 10
54.7500000135
 20
92.1093220857
 30
0.0
 10
54.7563255569
 20
92.1029771895
 30
0.0
 10
54.7798998833
 20
92.0940046516
 30
0.0
 10
54.8320139381
 20
92.0830868598
 30
0.0
 10
54.9173524535
 20
92.0724107293
 30
0.0
 10
55.0329819784
 20
92.0623825356
 30
0.0
 10
55.1740467315
 20
92.0540209206
 30
0.0
 10
55.3358360289
 20
92.0475382125
 30
0.0
 10
55.5124497191
 20
92.043262092
 30
0.0
 10
55.6345034254
 20
92.04201217
 30
0.0
 10
55.6969627729
 20
92.0417789103
 30
0.0
  0
SPLINE
  5
386
100
AcDbEntity
  8
RUNDUNGEN
100
AcDbSpline
 62
7
  6
CONTINUOUS
 70
0
 71
3
 72
13
 73
9
 74
0
 42
0.0000001
 43
0.0000001
 44
0.0000000001
 40
0.0
 40
0.0
 40
0.0
 40
0.0
 40
0.0878597733
 40
0.1825701318
 40
0.2884780963
 40
0.4076954822
 40
0.6847865759
 40
1.0
 40
1.0
 40
1.0
 40
1.0
 10
85.7429894858
 20
48.6590310356
 30
0.0
 10
85.7347498641
 20
48.6282825815
 30
0.0
 10
85.7060954178
 20
48.5670693535
 30
0.0
 10
85.6337283714
 20
48.4897827633
 30
0.0
 10
85.5346900438
 20
48.4276781601
 30
0.0
 10
85.3636308787
 20
48.3630616266
 30
0.0
 10
85.1042765781
 20
48.3321109476
 30
0.0
 10
84.8892960659
 20
48.3527908696
 30
0.0
 10
84.7770683655
 20
48.37396618
 30
0.0
  0
SPLINE
  5
387
100
AcDbEntity
  8
RUNDUNGEN
100
AcDbSpline
 62
7
  6
CONTINUOUS
 70
0
 71
3
 72
10
 73
6
 74
0
 42
0.0000001
 43
0.0000001
 44
0.0000000001
 40
0.0
 40
0.0
 40
0.0
 40
0.0
 40
0.2489919772
 40
0.624630221
 40
1.0
 40
1.0
 40
1.0
 40
1.0
 10
84.8317821148
 20
48.6083885087
 30
0.0
 10
84.9007984869
 20
48.6759243751
 30
0.0
 10
85.0582949719
 20
48.8617437207
 30
0.0
 10
85.2496370848
 20
49.2020711457
 30
0.0
 10
85.3463717926
 20
49.4782900144
 30
0.0
 10
85.3837660084
 20
49.6189790753
 30
0.0
  0
SPLINE
  5
388
100
AcDbEntity
  8
RUNDUNGEN
100
AcDbSpline
 62
7
  6
CONTINUOUS
 70
0
 71
3
 72
9
 73
5
 74
0
 42
0.0000001
 43
0.0000001
 44
0.0000000001
 40
0.0
 40
0.0
 40
0.0
 40
0.0
 40
0.4999095611
 40
1.0
 40
1.0
 40
1.0
 40
1.0
 10
98.531511816
 20
98.6973705538
 30
0.0
 10
98.6731184173
 20
99.2258701982
 30
0.0
 10
99.0370783324
 20
100.2614472811
 30
0.0
 10
99.4873755494
 20
101.2594506777
 30
0.0
 10
99.7233560434
 20
101.7533071161
 30
0.0
  0
SPLINE
  5
389
100
AcDbEntity
  8
RUNDUNGEN
100
AcDbSpline
 62
7
  6
CONTINUOUS
 70
0
 71
3
 72
13
 73
9
 74
0
 42
0.0000001
 43
0.0000001
 44
0.0000000001
 40
0.0
 40
0.0
 40
0.0
 40
0.0
 40
0.3222385666
 40
0.604514562
 40
0.7240364794
 40
0.8278365156
 40
0.91809438
 40
1.0
 40
1.0
 40
1.0
 40
1.0
 10
69.0062671437
 20
48.7670651744
 30
0.0
 10
68.8876629999
 20
48.7512045468
 30
0.0
 10
68.662208551
 20
48.7405367774
 30
0.0
 10
68.3933350707
 20
48.7815766499
 30
0.0
 10
68.2182866799
 20
48.8518282215
 30
0.0
 10
68.119961099
 20
48.9160820212
 30
0.0
 10
68.0508384949
 20
48.9938004777
 30
0.0
 10
68.026755217
 20
49.0549339114
 30
0.0
 10
68.0214728522
 20
49.0848864866
 30
0.0
  0
SPLINE
  5
38A
100
AcDbEntity
  8
RUNDUNGEN
100
AcDbSpline
 62
7
  6
CONTINUOUS
 70
0
 71
3
 72
12
 73
8
 74
0
 42
0.0000001
 43
0.0000001
 44
0.0000000001
 40
0.0
 40
0.0
 40
0.0
 40
0.0
 40
0.2468057488
 40
0.4770056061
 40
0.7167218349
 40
0.8524045784
 40
1.0
 40
1.0
 40
1.0
 40
1.0
 10
100.3250255989
 20
107.4653499705
 30
0.0
 10
100.3605932449
 20
107.5955239096
 30
0.0
 10
100.3726346995
 20
107.8664822328
 30
0.0
 10
100.2205530092
 20
108.2392835719
 30
0.0
 10
99.9695267191
 20
108.4734512558
 30
0.0
 10
99.7037842522
 20
108.5856664484
 30
0.0
 10
99.5479672635
 20
108.607050291
 30
0.0
 10
99.4672667485
 20
108.6070467343
 30
0.0
  0
SPLINE
  5
38B
100
AcDbEntity
  8
RUNDUNGEN
100
AcDbSpline
 62
7
  6
CONTINUOUS
 70
0
 71
3
 72
13
 73
9
 74
0
 42
0.0000001
 43
0.0000001
 44
0.0000000001
 40
0.0
 40
0.0
 40
0.0
 40
0.0
 40
0.1256361282
 40
0.2489527256
 40
0.3708583038
 40
0.4928030325
 40
0.7410846905
 40
1.0
 40
1.0
 40
1.0
 40
1.0
 10
81.2159061849
 20
50.4181768091
 30
0.0
 10
81.1784247783
 20
50.2945528536
 30
0.0
 10
81.136294516
 20
50.0384061421
 30
0.0
 10
81.176328031
 20
49.6549342537
 30
0.0
 10
81.3117339387
 20
49.2981040167
 30
0.0
 10
81.6029800459
 20
48.8790047089
 30
0.0
 10
82.1487801581
 20
48.4922032607
 30
0.0
 10
82.676612215
 20
48.3872546529
 30
0.0
 10
82.9428329603
 20
48.3871541287
 30
0.0
  0
SPLINE
  5
38C
100
AcDbEntity
  8
RUNDUNGEN
100
AcDbSpline
 62
7
  6
CONTINUOUS
 70
0
 71
3
 72
9
 73
5
 74
0
 42
0.0000001
 43
0.0000001
 44
0.0000000001
 40
0.0
 40
0.0
 40
0.0
 40
0.0
 40
0.5048886564
 40
1.0
 40
1.0
 40
1.0
 40
1.0
 10
83.9241834976
 20
48.3871541287
 30
0.0
 10
84.0825255855
 20
48.3872093596
 30
0.0
 10
84.397274661
 20
48.4245315403
 30
0.0
 10
84.6942694104
 20
48.5358142286
 30
0.0
 10
84.8317095711
 20
48.6080690771
 30
0.0
  0
LINE
  5
38D
100
AcDbEntity
  8
RUNDUNGEN
100
AcDbLine
 62
7
  6
CONTINUOUS
 10
84.8317095711
 20
48.6080690771
 11
84.7770683653
 21
48.3739601764
  0
SPLINE
  5
38E
100
AcDbEntity
  8
RUNDUNGEN
100
AcDbSpline
 62
7
  6
CONTINUOUS
 70
0
 71
3
 72
26
 73
22
 74
0
 42
0.0000001
 43
0.0000001
 44
0.0000000001
 40
0.0
 40
0.0
 40
0.0
 40
0.0
 40
0.1911176974
 40
0.3756406605
 40
0.5469825766
 40
0.6256909025
 40
0.6987106345
 40
0.765288251
 40
0.8247212494
 40
0.8763423761
 40
0.9195762046
 40
0.9378811038
 40
0.953904376
 40
0.9676013242
 40
0.978927467
 40
0.9878421555
 40
0.9943263834
 40
0.9966543183
 40
0.9983722413
 40
0.9994822825
 40
1.0
 40
1.0
 40
1.0
 40
1.0
 10
85.8162978249
 20
54.954407382
 30
0.0
 10
85.7294262243
 20
54.6301967849
 30
0.0
 10
85.5591866579
 20
53.9928271098
 30
0.0
 10
85.3128339506
 20
53.0643228954
 30
0.0
 10
85.1184706524
 20
52.3262735485
 30
0.0
 10
84.9749462155
 20
51.7773397424
 30
0.0
 10
84.8784590467
 20
51.4062835122
 30
0.0
 10
84.7910292441
 20
51.0678502709
 30
0.0
 10
84.7135879713
 20
50.7656518037
 30
0.0
 10
84.6469908137
 20
50.5029973727
 30
0.0
 10
84.5988001109
 20
50.3101924099
 30
0.0
 10
84.566313416
 20
50.1779063644
 30
0.0
 10
84.5464761399
 20
50.0959274779
 30
0.0
 10
84.5298425243
 20
50.0257893626
 30
0.0
 10
84.5164383306
 20
49.967701927
 30
0.0
 10
84.5063582432
 20
49.9218889372
 30
0.0
 10
84.5000567308
 20
49.89133978
 30
0.0
 10
84.4969008307
 20
49.8731932092
 30
0.0
 10
84.4954637505
 20
49.8641195667
 30
0.0
 10
84.4951431662
 20
49.8584889715
 30
0.0
 10
84.4949390513
 20
49.8553294431
 30
0.0
 10
84.4954839477
 20
49.8546015744
 30
0.0
  0
SPLINE
  5
38F
100
AcDbEntity
  8
RUNDUNGEN
100
AcDbSpline
 62
7
  6
CONTINUOUS
 70
0
 71
3
 72
22
 73
18
 74
0
 42
0.0000001
 43
0.0000001
 44
0.0000000001
 40
0.0
 40
0.0
 40
0.0
 40
0.0
 40
0.0018348748
 40
0.0060962831
 40
0.0127868426
 40
0.0218930389
 40
0.0333977546
 40
0.0472650484
 40
0.0818817175
 40
0.1253235662
 40
0.1770781883
 40
0.2365514053
 40
0.3031046626
 40
0.4545839273
 40
0.6254668945
 40
0.8094741557
 40
1.0
 40
1.0
 40
1.0
 40
1.0
 10
99.7967136889
 20
107.0598397461
 30
0.0
 10
99.7956635133
 20
107.0590190369
 30
0.0
 10
99.7943274974
 20
107.054430288
 30
0.0
 10
99.7907924137
 20
107.0461312559
 30
0.0
 10
99.7863983315
 20
107.0320738488
 30
0.0
 10
99.780353289
 20
107.0132562551
 30
0.0
 10
99.7730702926
 20
106.9892668533
 30
0.0
 10
99.760587407
 20
106.9475305519
 30
0.0
 10
99.7419234616
 20
106.883409506
 30
0.0
 10
99.7159906391
 20
106.792754399
 30
0.0
 10
99.6854664078
 20
106.6846290035
 30
0.0
 10
99.6506866845
 20
106.5602631161
 30
0.0
 10
99.596777148
 20
106.366028857
 30
0.0
 10
99.5218799221
 20
106.0936347531
 30
0.0
 10
99.4251534615
 20
105.7387604203
 30
0.0
 10
99.3216768983
 20
105.3563290864
 30
0.0
 10
99.2510540906
 20
105.0935993798
 30
0.0
 10
99.2152344697
 20
104.9599197076
 30
0.0
  0
SPLINE
  5
390
100
AcDbEntity
  8
RUNDUNGEN
100
AcDbSpline
 62
7
  6
CONTINUOUS
 70
0
 71
3
 72
13
 73
9
 74
0
 42
0.0000001
 43
0.0000001
 44
0.0000000001
 40
0.0
 40
0.0
 40
0.0
 40
0.0
 40
0.2972877273
 40
0.5538948157
 40
0.6714048093
 40
0.7837668807
 40
0.892749775
 40
1.0
 40
1.0
 40
1.0
 40
1.0
 10
84.7770683653
 20
48.3739601764
 30
0.0
 10
84.6525675757
 20
47.8379434871
 30
0.0
 10
84.2586014523
 20
46.8671825659
 30
0.0
 10
83.4254043692
 20
45.9132813475
 30
0.0
 10
82.6771715648
 20
45.4054786712
 30
0.0
 10
82.10383093
 20
45.1435894767
 30
0.0
 10
81.5129643886
 20
44.987796453
 30
0.0
 10
81.1118874159
 20
44.953196387
 30
0.0
 10
80.9133650601
 20
44.953125
 30
0.0
  0
SPLINE
  5
391
100
AcDbEntity
  8
RUNDUNGEN
100
AcDbSpline
 62
7
  6
CONTINUOUS
 70
0
 71
3
 72
23
 73
19
 74
0
 42
0.0000001
 43
0.0000001
 44
0.0000000001
 40
0.0
 40
0.0
 40
0.0
 40
0.0
 40
0.1910927134
 40
0.3756397803
 40
0.5469663276
 40
0.6256818731
 40
0.6987022912
 40
0.7652860519
 40
0.8247127865
 40
0.8763406568
 40
0.9195752657
 40
0.9539092197
 40
0.9676099831
 40
0.9789331442
 40
0.9878447339
 40
0.9943301011
 40
0.9983785595
 40
1.0
 40
1.0
 40
1.0
 40
1.0
 10
97.3907548771
 20
105.4257762497
 30
0.0
 10
97.4265204084
 20
105.5592560027
 30
0.0
 10
97.4966181207
 20
105.8216991808
 30
0.0
 10
97.598054036
 20
106.2040092098
 30
0.0
 10
97.6780873294
 20
106.5079202637
 30
0.0
 10
97.7371845971
 20
106.7339441973
 30
0.0
 10
97.7769161182
 20
106.8867404773
 30
0.0
 10
97.8129176132
 20
107.0260943532
 30
0.0
 10
97.8448035554
 20
107.1505321597
 30
0.0
 10
97.8722313971
 20
107.2586851911
 30
0.0
 10
97.8948722873
 20
107.3493211279
 30
0.0
 10
97.9105782293
 20
107.4134446609
 30
0.0
 10
97.9204526905
 20
107.4551910912
 30
0.0
 10
97.9260397682
 20
107.4791448781
 30
0.0
 10
97.9300077237
 20
107.4979080877
 30
0.0
 10
97.9332750763
 20
107.5119330604
 30
0.0
 10
97.9339382098
 20
107.5201369892
 30
0.0
 10
97.9353191405
 20
107.5247554173
 30
0.0
 10
97.9346194148
 20
107.5256962882
 30
0.0
  0
SPLINE
  5
392
100
AcDbEntity
  8
RUNDUNGEN
100
AcDbSpline
 62
7
  6
CONTINUOUS
 70
0
 71
3
 72
25
 73
21
 74
0
 42
0.0000001
 43
0.0000001
 44
0.0000000001
 40
0.0
 40
0.0
 40
0.0
 40
0.0
 40
0.0006204775
 40
0.0018381954
 40
0.0060965664
 40
0.0127860204
 40
0.0218952653
 40
0.0334028687
 40
0.0472664663
 40
0.0634400688
 40
0.0818774787
 40
0.125318537
 40
0.1770669633
 40
0.2365463367
 40
0.3030941537
 40
0.3760150893
 40
0.4545662198
 40
0.6254651505
 40
0.8094490825
 40
1.0
 40
1.0
 40
1.0
 40
1.0
 10
82.5796544142
 20
50.3204581165
 30
0.0
 10
82.5805181392
 20
50.321130489
 30
0.0
 10
82.5820334868
 20
50.3241566903
 30
0.0
 10
82.5864978657
 20
50.3337770499
 30
0.0
 10
82.5936361806
 20
50.3541986081
 30
0.0
 10
82.6048732418
 20
50.3876517616
 30
0.0
 10
82.6193147772
 20
50.4336510662
 30
0.0
 10
82.6370922593
 20
50.4918059437
 30
0.0
 10
82.6580605404
 20
50.5620374707
 30
0.0
 10
82.682176565
 20
50.6440784508
 30
0.0
 10
82.7205632137
 20
50.7763115081
 30
0.0
 10
82.7756736431
 20
50.9690353937
 30
0.0
 10
82.8498120174
 20
51.2316206668
 30
0.0
 10
82.9342703555
 20
51.5336469285
 30
0.0
 10
83.0281358312
 20
51.8718250339
 30
0.0
 10
83.130415686
 20
52.2425833794
 30
0.0
 10
83.2809229613
 20
52.790998177
 30
0.0
 10
83.481989042
 20
53.5287067173
 30
0.0
 10
83.7333022271
 20
54.4575035194
 30
0.0
 10
83.9048159867
 20
55.0955684879
 30
0.0
 10
83.9918182324
 20
55.4202639242
 30
0.0
  0
SPLINE
  5
393
100
AcDbEntity
  8
RUNDUNGEN
100
AcDbSpline
 62
7
  6
CONTINUOUS
 70
0
 71
3
 72
16
 73
12
 74
0
 42
0.0000001
 43
0.0000001
 44
0.0000000001
 40
0.0
 40
0.0
 40
0.0
 40
0.0
 40
0.0422510338
 40
0.0715847584
 40
0.107859807
 40
0.2020208131
 40
0.323994018
 40
0.470134162
 40
0.63554909
 40
0.8145400774
 40
1.0
 40
1.0
 40
1.0
 40
1.0
 10
54.75
 20
91.1181776533
 30
0.0
 10
54.7500000001
 20
91.1033721127
 30
0.0
 10
54.7648782507
 20
91.0793892999
 30
0.0
 10
54.7945421543
 20
91.0565835489
 30
0.0
 10
54.843702835
 20
91.0290418272
 30
0.0
 10
54.9273603848
 20
90.999348784
 30
0.0
 10
55.0508816938
 20
90.9695468806
 30
0.0
 10
55.2009193923
 20
90.9450044475
 30
0.0
 10
55.3718986201
 20
90.9266441063
 30
0.0
 10
55.5572865529
 20
90.9153545133
 30
0.0
 10
55.6850114262
 20
90.9127974962
 30
0.0
 10
55.75
 20
90.9127975542
 30
0.0
  0
SPLINE
  5
394
100
AcDbEntity
  8
RUNDUNGEN
100
AcDbSpline
 62
7
  6
CONTINUOUS
 70
0
 71
3
 72
13
 73
9
 74
0
 42
0.0000001
 43
0.0000001
 44
0.0000000001
 40
0.0
 40
0.0
 40
0.0
 40
0.0
 40
0.2500967348
 40
0.5000307214
 40
0.6250530159
 40
0.7500563233
 40
0.875033287
 40
1.0
 40
1.0
 40
1.0
 40
1.0
 10
55.7500087466
 20
92.1119839476
 30
0.0
 10
56.5570037916
 20
91.5025348561
 30
0.0
 10
58.1617172095
 20
90.2721939133
 30
0.0
 10
60.015346982
 20
88.539442478
 30
0.0
 10
61.2894220348
 20
86.9652495321
 30
0.0
 10
62.1036455466
 20
85.6811664772
 30
0.0
 10
62.7338276626
 20
84.2964737556
 30
0.0
 10
63.00107662
 20
83.3155631945
 30
0.0
 10
63.0888381325
 20
82.8179373987
 30
0.0
  0
SPLINE
  5
395
100
AcDbEntity
  8
RUNDUNGEN
100
AcDbSpline
 62
7
  6
CONTINUOUS
 70
0
 71
3
 72
26
 73
22
 74
0
 42
0.0000001
 43
0.0000001
 44
0.0000000001
 40
0.0
 40
0.0
 40
0.0
 40
0.0
 40
0.1918957594
 40
0.3769957562
 40
0.5485748212
 40
0.6272581781
 40
0.7001650139
 40
0.7665554194
 40
0.8257498304
 40
0.8771074541
 40
0.9200810196
 40
0.9382655022
 40
0.954179899
 40
0.9677828015
 40
0.9790329556
 40
0.9878927213
 40
0.9943435528
 40
0.9966623733
 40
0.9983757299
 40
0.9994846754
 40
1.0
 40
1.0
 40
1.0
 40
1.0
 10
84.9470739812
 20
55.1876739902
 30
0.0
 10
84.8597977797
 20
54.8044633714
 30
0.0
 10
84.6888462556
 20
54.051496776
 30
0.0
 10
84.4416872279
 20
52.9554773979
 30
0.0
 10
84.2469213519
 20
52.0853380083
 30
0.0
 10
84.1033411473
 20
51.4392125958
 30
0.0
 10
84.0070019263
 20
51.0032827509
 30
0.0
 10
83.9198239043
 20
50.6062073075
 30
0.0
 10
83.8427096956
 20
50.252109062
 30
0.0
 10
83.7764810587
 20
49.9447255196
 30
0.0
 10
83.7286072591
 20
49.7193077481
 30
0.0
 10
83.6963636413
 20
49.5647834779
 30
0.0
 10
83.6766879788
 20
49.4690853166
 30
0.0
 10
83.6601982958
 20
49.3872370048
 30
0.0
 10
83.6469139478
 20
49.3194685449
 30
0.0
 10
83.6369350228
 20
49.2660181392
 30
0.0
 10
83.6306899057
 20
49.2303977799
 30
0.0
 10
83.6275831544
 20
49.2092250382
 30
0.0
 10
83.6261404509
 20
49.1986681736
 30
0.0
 10
83.625872027
 20
49.1920607444
 30
0.0
 10
83.6256143397
 20
49.1884527455
 30
0.0
 10
83.6261838056
 20
49.1875641147
 30
0.0
  0
SPLINE
  5
396
100
AcDbEntity
  8
RUNDUNGEN
100
AcDbSpline
 62
7
  6
CONTINUOUS
 70
0
 71
3
 72
26
 73
22
 74
0
 42
0.0000001
 43
0.0000001
 44
0.0000000001
 40
0.0
 40
0.0
 40
0.0
 40
0.0
 40
0.0005922838
 40
0.0017805272
 40
0.0035725816
 40
0.005968939
 40
0.0125702117
 40
0.0215726761
 40
0.0329560734
 40
0.0466815091
 40
0.0627066357
 40
0.0809889596
 40
0.124116238
 40
0.1755693237
 40
0.2347998901
 40
0.3011702544
 40
0.3740057913
 40
0.4525741584
 40
0.6238262072
 40
0.8085259428
 40
1.0
 40
1.0
 40
1.0
 40
1.0
 10
83.4489545563
 20
49.1875641147
 30
0.0
 10
83.4498561793
 20
49.1883816159
 30
0.0
 10
83.4513097721
 20
49.1919091154
 30
0.0
 10
83.4540192893
 20
49.1986097513
 30
0.0
 10
83.4574320772
 20
49.2091843261
 30
0.0
 10
83.4639400467
 20
49.2303429214
 30
0.0
 10
83.473939033
 20
49.2659837278
 30
0.0
 10
83.4883182341
 20
49.3195290245
 30
0.0
 10
83.5059271818
 20
49.3873807129
 30
0.0
 10
83.5267390043
 20
49.4693013247
 30
0.0
 10
83.5506724361
 20
49.5650571859
 30
0.0
 10
83.5888075681
 20
49.7195370053
 30
0.0
 10
83.6435959249
 20
49.9448900295
 30
0.0
 10
83.7173676186
 20
50.2522196803
 30
0.0
 10
83.8015169085
 20
50.6061754296
 30
0.0
 10
83.8951625747
 20
51.0030353135
 30
0.0
 10
83.9973353051
 20
51.4387103568
 30
0.0
 10
84.1479710637
 20
52.0843836772
 30
0.0
 10
84.3495058147
 20
52.9542194302
 30
0.0
 10
84.6016386896
 20
54.050481197
 30
0.0
 10
84.7738226852
 20
54.804043961
 30
0.0
 10
84.8611947598
 20
55.1876721083
 30
0.0
  0
SPLINE
  5
397
100
AcDbEntity
  8
RUNDUNGEN
100
AcDbSpline
 62
7
  6
CONTINUOUS
 70
0
 71
3
 72
23
 73
19
 74
0
 42
0.0000001
 43
0.0000001
 44
0.0000000001
 40
0.0
 40
0.0
 40
0.0
 40
0.0
 40
0.0017301273
 40
0.00586025
 40
0.0123861693
 40
0.0212943887
 40
0.0325693361
 40
0.0461806325
 40
0.0802340742
 40
0.1230909796
 40
0.1742962139
 40
0.2333050706
 40
0.2995261631
 40
0.3722820386
 40
0.450868952
 40
0.6224032577
 40
0.8077460435
 40
1.0
 40
1.0
 40
1.0
 40
1.0
 10
98.9274135468
 20
108.1927337479
 30
0.0
 10
98.9262279065
 20
108.1914298443
 30
0.0
 10
98.9251804287
 20
108.185154694
 30
0.0
 10
98.9214751561
 20
108.173399055
 30
0.0
 10
98.9172790204
 20
108.1537367894
 30
0.0
 10
98.9112774725
 20
108.1272766101
 30
0.0
 10
98.904127541
 20
108.0935736082
 30
0.0
 10
98.8918092824
 20
108.0348268975
 30
0.0
 10
98.8733897452
 20
107.9444679513
 30
0.0
 10
98.8477503275
 20
107.8165128116
 30
0.0
 10
98.8175110292
 20
107.6635490812
 30
0.0
 10
98.7829732858
 20
107.4871772328
 30
0.0
 10
98.7444996489
 20
107.2892066979
 30
0.0
 10
98.702468472
 20
107.0716119928
 30
0.0
 10
98.6404012417
 20
106.7486294763
 30
0.0
 10
98.5572563755
 20
106.3129149482
 30
0.0
 10
98.45316967
 20
105.7633234127
 30
0.0
 10
98.3820393261
 20
105.3853265052
 30
0.0
 10
98.3459343275
 20
105.1928479787
 30
0.0
  0
SPLINE
  5
398
100
AcDbEntity
  8
RUNDUNGEN
100
AcDbSpline
 62
7
  6
CONTINUOUS
 70
0
 71
3
 72
23
 73
19
 74
0
 42
0.0000001
 43
0.0000001
 44
0.0000000001
 40
0.0
 40
0.0
 40
0.0
 40
0.0
 40
0.1925471658
 40
0.3781681247
 40
0.5499283904
 40
0.6285942572
 40
0.70139839
 40
0.7676324421
 40
0.826615064
 40
0.8777537107
 40
0.9205039294
 40
0.9544135057
 40
0.9679405074
 40
0.9791238067
 40
0.9879340035
 40
0.9943566376
 40
0.9983793625
 40
1.0
 40
1.0
 40
1.0
 40
1.0
 10
98.2600550192
 20
105.1928479787
 30
0.0
 10
98.2961325934
 20
105.3851831092
 30
0.0
 10
98.3667692661
 20
105.7629762401
 30
0.0
 10
98.4688034253
 20
106.3124869228
 30
0.0
 10
98.5491351588
 20
106.7483088368
 30
0.0
 10
98.6082731844
 20
107.0714473896
 30
0.0
 10
98.6478867097
 20
107.2891292869
 30
0.0
 10
98.6836888709
 20
107.4871719295
 30
0.0
 10
98.7153188621
 20
107.6635917282
 30
0.0
 10
98.7424625024
 20
107.8165708546
 30
0.0
 10
98.7648187756
 20
107.944510607
 30
0.0
 10
98.7803034615
 20
108.0348661887
 30
0.0
 10
98.7900138179
 20
108.0936248076
 30
0.0
 10
98.7955161556
 20
108.1272907908
 30
0.0
 10
98.7993833585
 20
108.1537413367
 30
0.0
 10
98.8026588897
 20
108.1733117056
 30
0.0
 10
98.803173017
 20
108.1851220797
 30
0.0
 10
98.8046826709
 20
108.1912741074
 30
0.0
 10
98.8039195569
 20
108.1927337479
 30
0.0
  0
ELLIPSE
  5
399
100
AcDbEntity
  8
0
100
AcDbEllipse
 62
7
  6
CONTINUOUS
 10
87.5366716013
 20
134.1406252602
 30
0.0
 11
0.0
 21
3.195
 31
0.0
 40
0.2679491924
 41
0.0
 42
3.1415926536
  0
ELLIPSE
  5
39A
100
AcDbEntity
  8
0
100
AcDbEllipse
 62
7
  6
CONTINUOUS
 10
92.1453977111
 20
134.1406252602
 30
0.0
 11
0.0
 21
3.195
 31
0.0
 40
0.2679491924
 41
-3.1415926536
 42
0.0
  0
ELLIPSE
  5
39B
100
AcDbEntity
  8
0
100
AcDbEllipse
 62
7
  6
CONTINUOUS
 10
63.8833753324
 20
134.1406252602
 30
0.0
 11
-0.0
 21
3.195
 31
0.0
 40
0.1763269807
 41
0.0
 42
3.1415926536
  0
ENDSEC
  0
SECTION
  2
OBJECTS
  0
DICTIONARY
  5
C
100
AcDbDictionary
280
0
281
1
  3
ACAD_GROUP
350
D
  3
ACAD_MLINESTYLE
350
17
  3
ACAD_LAYOUT
350
1A
  3
ACAD_PLOTSETTINGS
350
19
  3
ACAD_PLOTSTYLENAME
350
E
  0
DICTIONARY
  5
D
102
{ACAD_REACTORS
330
C
102
}
100
AcDbDictionary
280
0
281
1
  0
ACDBDICTIONARYWDFLT
  5
E
102
{ACAD_REACTORS
330
C
102
}
100
AcDbDictionary
281
1
  3
Normal
350
F
100
AcDbDictionaryWithDefault
340
F
  0
DICTIONARY
  5
17
102
{ACAD_REACTORS
330
C
102
}
100
AcDbDictionary
280
0
281
1
  3
Standard
350
18
  0
DICTIONARY
  5
19
102
{ACAD_REACTORS
330
C
102
}
100
AcDbDictionary
281
1
  0
DICTIONARY
  5
1A
102
{ACAD_REACTORS
330
C
102
}
100
AcDbDictionary
281
1
  3
Model
350
39C
  3
Layout1
350
39D
  0
ACDBPLACEHOLDER
  5
F
102
{ACAD_REACTORS
330
E
102
}
  0
MLINESTYLE
  5
18
102
{ACAD_REACTORS
330
17
102
}
100
AcDbMlineStyle
  2
STANDARD
 70
0
  3

 62
256
 51
90.0
 52
90.0
 71
2
 49
0.5
 62
256
  6
BYLAYER
 49
-0.5
 62
256
  6
BYLAYER
  0
LAYOUT
  5
39C
102
{ACAD_REACTORS
330
1A
102
}
100
AcDbPlotSettings
  1

  2
none_device
  4
ISO_A4_(297.00_x_210.00_MM)
  6

 40
0.0
 41
0.0
 42
0.0
 43
0.0
 44
297.0
 45
210.0
 46
0.0
 47
0.0
 48
0.0
 49
0.0
140
0.0
141
0.0
142
1.0
143
1.0
 70
1024
 72
1
 73
0
 74
0
  7

 75
0
147
1.0
148
0.0
149
0.0
100
AcDbLayout
  1
Model
 70
0
 71
0
 10
0.0
 20
0.0
 11
297.0
 21
210.0
 12
0.0
 22
0.0
 32
0.0
 14
0.0
 24
0.0
 34
0.0
 15
0.0
 25
0.0
 35
0.0
146
0.0
 13
0.0
 23
0.0
 33
0.0
 16
1.0
 26
0.0
 36
0.0
 17
0.0
 27
1.0
 37
0.0
 76
0
330
212
345
0
346
0
  0
LAYOUT
  5
39D
102
{ACAD_REACTORS
330
1A
102
}
100
AcDbPlotSettings
  1

  2
none_device
  4
ISO_A4_(297.00_x_210.00_MM)
  6

 40
0.0
 41
0.0
 42
0.0
 43
0.0
 44
297.0
 45
210.0
 46
0.0
 47
0.0
 48
0.0
 49
0.0
140
0.0
141
0.0
142
1.0
143
1.0
 70
0
 72
1
 73
0
 74
0
  7

 75
0
147
1.0
148
0.0
149
0.0
100
AcDbLayout
  1
Layout1
 70
0
 71
1
 10
0.0
 20
0.0
 11
297.0
 21
210.0
 12
0.0
 22
0.0
 32
0.0
 14
0.0
 24
0.0
 34
0.0
 15
0.0
 25
0.0
 35
0.0
146
0.0
 13
0.0
 23
0.0
 33
0.0
 16
1.0
 26
0.0
 36
0.0
 17
0.0
 27
1.0
 37
0.0
 76
0
330
213
345
0
346
0
  0
ENDSEC
  0
EOF
