999
DXF file: S:\Prolink\03_Konstruktion\CAD-Plots\Internet\2D_neu\S9\s9-57_grt_smr_sg_h25_w50.dxf
999
Pro/ENGINEER 2012230 by Parametric Technology Corporation
  0
SECTION
  2
HEADER
  9
$ACADVER
  1
AC1021
  9
$DWGCODEPAGE
  3
ANSI_1252
  9
$EXTMAX
 10
297.0
 20
210.0
 30
0.0
  9
$EXTMIN
 10
0.0
 20
0.0
 30
0.0
  9
$LIMMIN
 10
0.0
 20
0.0
  9
$LIMMAX
 10
297.0
 20
210.0
  9
$VIEWCTR
 10
148.5
 20
105.0
  9
$VIEWSIZE
 40
210.0
  9
$CLAYER
  8
0
  9
$LTSCALE
 40
16.335
  9
$CELTYPE
  6
BYLAYER
  9
$DIMSCALE
 40
1.0
  9
$DIMASZ
 40
3.5
  9
$DIMEXO
 40
0.0
  9
$DIMDLI
 40
11.286
  9
$DIMEXE
 40
1.5
  9
$DIMCEN
 40
2.673
  9
$DIMLFAC
 40
1.0
  9
$DIMBLK
  1
_FILLED
  9
$DIMTXT
 40
3.5
  9
$DIMTOL
 70
1
  9
$DIMLIM
 70
0
  9
$DIMTFAC
 40
1.0
  9
$DIMTP
 40
0.005
  9
$DIMTM
 40
0.005
  9
$DIMGAP
 40
0.625
  9
$DIMDSEP
 70
46
  9
$PDMODE
 70
3
  9
$PDSIZE
 40
0.3125
  9
$HANDSEED
  5
3A0
  9
$TILEMODE
 70
1
  9
$MEASUREMENT
 70
1
  9
$INSUNITS
 70
4
  0
ENDSEC
  0
SECTION
  2
CLASSES
  0
CLASS
  1
ACDBDICTIONARYWDFLT
  2
AcDbDictionaryWithDefault
  3
AutoCAD 2000
 90
0
 91
1
280
0
281
0
  0
CLASS
  1
ACDBPLACEHOLDER
  2
AcDbPlaceHolder
  3
AutoCAD 2000
 90
0
 91
1
280
0
281
0
  0
CLASS
  1
LAYOUT
  2
AcDbLayout
  3
AutoCAD 2000
 90
0
 91
0
280
0
281
0
  0
ENDSEC
  0
SECTION
  2
TABLES
  0
TABLE
  2
VPORT
  5
8
100
AcDbSymbolTable
 70
2
  0
VPORT
  5
1F4
100
AcDbSymbolTableRecord
100
AcDbViewportTableRecord
  2
*ACTIVE
 70
0
 10
0.0
 20
0.0
 11
1.0
 21
1.0
 12
148.5
 22
105.0
 13
0.0
 23
0.0
 14
1.0
 24
1.0
 15
0.0
 25
0.0
 16
0.0
 26
0.0
 36
1.0
 17
0.0
 27
0.0
 37
0.0
 40
210.0
 41
1.4142857143
 42
50.0
 43
0.0
 44
0.0
 50
0.0
 51
0.0
 71
0
 72
100
 73
1
 74
1
 75
0
 76
0
 77
0
 78
0
  0
ENDTAB
  0
TABLE
  2
LTYPE
  5
5
100
AcDbSymbolTable
 70
6
  0
LTYPE
  5
14
100
AcDbSymbolTableRecord
100
AcDbLinetypeTableRecord
  2
BYBLOCK
 70
0
  3

 72
65
 73
0
 40
0.0
  0
LTYPE
  5
15
100
AcDbSymbolTableRecord
100
AcDbLinetypeTableRecord
  2
BYLAYER
 70
0
  3

 72
65
 73
0
 40
0.0
  0
LTYPE
  5
16
100
AcDbSymbolTableRecord
100
AcDbLinetypeTableRecord
  2
CONTINUOUS
 70
64
  3
Solid line
 72
65
 73
0
 40
0.0
  0
LTYPE
  5
1F5
100
AcDbSymbolTableRecord
100
AcDbLinetypeTableRecord
  2
CENTER
 70
64
  3
____ _ ____ _ ____ _ ____ _ ____ _ ____ _ ____
 72
65
 73
4
 40
0.6
 49
0.375
 74
0
 49
-0.075
 74
0
 49
0.075
 74
0
 49
-0.075
 74
0
  0
LTYPE
  5
1F6
100
AcDbSymbolTableRecord
100
AcDbLinetypeTableRecord
  2
HIDDEN
 70
64
  3
- - - - - - - - - - - - - - - - - - - -
 72
65
 73
2
 40
0.2
 49
0.1
 74
0
 49
-0.1
 74
0
  0
LTYPE
  5
1F7
100
AcDbSymbolTableRecord
100
AcDbLinetypeTableRecord
  2
PHANTOM
 70
64
  3
_____ _ _ _____ _ _ _____ _ _ _____
 72
65
 73
6
 40
0.8
 49
0.45
 74
0
 49
-0.05
 74
0
 49
0.1
 74
0
 49
-0.05
 74
0
 49
0.1
 74
0
 49
-0.05
 74
0
  0
LTYPE
  5
1F8
100
AcDbSymbolTableRecord
100
AcDbLinetypeTableRecord
  2
DOT
 70
64
  3
. . . . . . . . . . . . . . . . . . . .
 72
65
 73
2
 40
0.2
 49
0.1
 74
0
 49
-0.1
 74
0
  0
LTYPE
  5
1F9
100
AcDbSymbolTableRecord
100
AcDbLinetypeTableRecord
  2
DASHED
 70
64
  3
- - - - - - - - - - - - - - - - - - - -
 72
65
 73
2
 40
0.2
 49
0.1
 74
0
 49
-0.1
 74
0
  0
ENDTAB
  0
TABLE
  2
LAYER
  5
2
100
AcDbSymbolTable
 70
36
  0
LAYER
  5
10
100
AcDbSymbolTableRecord
100
AcDbLayerTableRecord
  2
0
 70
0
 62
7
  6
CONTINUOUS
370
-3
390
F
  0
LAYER
  5
1FA
100
AcDbSymbolTableRecord
100
AcDbLayerTableRecord
  2
DEFAULT_1
 70
0
 62
7
  6
CENTER
370
-3
390
F
  0
LAYER
  5
1FB
100
AcDbSymbolTableRecord
100
AcDbLayerTableRecord
  2
DEFAULT_2
 70
0
 62
8
  6
HIDDEN
370
-3
390
F
  0
LAYER
  5
1FC
100
AcDbSymbolTableRecord
100
AcDbLayerTableRecord
  2
DEFAULT_3
 70
0
 62
7
  6
PHANTOM
370
-3
390
F
  0
LAYER
  5
1FD
100
AcDbSymbolTableRecord
100
AcDbLayerTableRecord
  2
01___PRT_ALL_DTM_PLN
 70
0
 62
7
  6
CONTINUOUS
370
-3
390
F
  0
LAYER
  5
1FE
100
AcDbSymbolTableRecord
100
AcDbLayerTableRecord
  2
01___PRT_DEF_DTM_PLN
 70
0
 62
7
  6
CONTINUOUS
370
-3
390
F
  0
LAYER
  5
1FF
100
AcDbSymbolTableRecord
100
AcDbLayerTableRecord
  2
02___PRT_ALL_AXES
 70
0
 62
7
  6
CONTINUOUS
370
-3
390
F
  0
LAYER
  5
200
100
AcDbSymbolTableRecord
100
AcDbLayerTableRecord
  2
03___PRT_ALL_CURVES
 70
0
 62
7
  6
CONTINUOUS
370
-3
390
F
  0
LAYER
  5
201
100
AcDbSymbolTableRecord
100
AcDbLayerTableRecord
  2
04___PRT_ALL_DTM_PNT
 70
0
 62
7
  6
CONTINUOUS
370
-3
390
F
  0
LAYER
  5
202
100
AcDbSymbolTableRecord
100
AcDbLayerTableRecord
  2
05___PRT_ALL_DTM_CSYS
 70
0
 62
7
  6
CONTINUOUS
370
-3
390
F
  0
LAYER
  5
203
100
AcDbSymbolTableRecord
100
AcDbLayerTableRecord
  2
05___PRT_DEF_DTM_CSYS
 70
0
 62
7
  6
CONTINUOUS
370
-3
390
F
  0
LAYER
  5
204
100
AcDbSymbolTableRecord
100
AcDbLayerTableRecord
  2
06___PRT_ALL_SURFS
 70
0
 62
7
  6
CONTINUOUS
370
-3
390
F
  0
LAYER
  5
205
100
AcDbSymbolTableRecord
100
AcDbLayerTableRecord
  2
ALLE
 70
0
 62
7
  6
CONTINUOUS
370
-3
390
F
  0
LAYER
  5
206
100
AcDbSymbolTableRecord
100
AcDbLayerTableRecord
  2
AUSFORMSCHRAEGEN
 70
0
 62
7
  6
CONTINUOUS
370
-3
390
F
  0
LAYER
  5
207
100
AcDbSymbolTableRecord
100
AcDbLayerTableRecord
  2
BEZUGSACHSEN
 70
0
 62
7
  6
CONTINUOUS
370
-3
390
F
  0
LAYER
  5
208
100
AcDbSymbolTableRecord
100
AcDbLayerTableRecord
  2
BEZUGSEBENE
 70
0
 62
7
  6
CONTINUOUS
370
-3
390
F
  0
LAYER
  5
209
100
AcDbSymbolTableRecord
100
AcDbLayerTableRecord
  2
BEZUGSEBENEN
 70
0
 62
7
  6
CONTINUOUS
370
-3
390
F
  0
LAYER
  5
20A
100
AcDbSymbolTableRecord
100
AcDbLayerTableRecord
  2
BEZUGSEBENEN-KES
 70
0
 62
7
  6
CONTINUOUS
370
-3
390
F
  0
LAYER
  5
20B
100
AcDbSymbolTableRecord
100
AcDbLayerTableRecord
  2
FLAECHEN
 70
0
 62
7
  6
CONTINUOUS
370
-3
390
F
  0
LAYER
  5
20C
100
AcDbSymbolTableRecord
100
AcDbLayerTableRecord
  2
KURVEN
 70
0
 62
7
  6
CONTINUOUS
370
-3
390
F
  0
LAYER
  5
20D
100
AcDbSymbolTableRecord
100
AcDbLayerTableRecord
  2
PARAMETER-BEMAßUNGEN
 70
0
 62
7
  6
CONTINUOUS
370
-3
390
F
  0
LAYER
  5
20E
100
AcDbSymbolTableRecord
100
AcDbLayerTableRecord
  2
RUNDUNGEN
 70
0
 62
7
  6
CONTINUOUS
370
-3
390
F
  0
LAYER
  5
20F
100
AcDbSymbolTableRecord
100
AcDbLayerTableRecord
  2
SAMMELFLÄCHEN
 70
0
 62
7
  6
CONTINUOUS
370
-3
390
F
  0
ENDTAB
  0
TABLE
  2
STYLE
  5
3
100
AcDbSymbolTable
 70
1
  0
STYLE
  5
11
100
AcDbSymbolTableRecord
100
AcDbTextStyleTableRecord
  2
STANDARD
 70
0
 40
0.0
 41
0.7
 50
0.0
 71
0
 42
0.2
  3
txt
  4

  0
STYLE
  5
210
100
AcDbSymbolTableRecord
100
AcDbTextStyleTableRecord
  2
TEXTSTYLE_1
 70
0
 40
0.0
 41
0.8
 50
0.0
 71
0
 42
0.2
  3
gdt
  4

  0
ENDTAB
  0
TABLE
  2
VIEW
  5
6
100
AcDbSymbolTable
 70
0
  0
ENDTAB
  0
TABLE
  2
UCS
  5
7
100
AcDbSymbolTable
 70
0
  0
ENDTAB
  0
TABLE
  2
APPID
  5
9
100
AcDbSymbolTable
 70
1
  0
APPID
  5
211
100
AcDbSymbolTableRecord
100
AcDbRegAppTableRecord
  2
ACAD
 70
0
  0
ENDTAB
  0
TABLE
  2
BLOCK_RECORD
  5
1
100
AcDbSymbolTable
 70
0
  0
BLOCK_RECORD
  5
212
100
AcDbSymbolTableRecord
100
AcDbBlockTableRecord
  2
*Model_Space
  0
BLOCK_RECORD
  5
213
100
AcDbSymbolTableRecord
100
AcDbBlockTableRecord
  2
*Paper_Space
  0
ENDTAB
  0
TABLE
  2
DIMSTYLE
  5
A
100
AcDbSymbolTable
 70
1
100
AcDbDimStyleTable
 71
0
  0
DIMSTYLE
105
214
100
AcDbSymbolTableRecord
100
AcDbDimStyleTableRecord
  2
STANDARD
 70
0
  3

  4

 40
1.0
 41
3.5
 42
0.0
 43
0.38
 44
1.5
 45
0.0
 46
0.0
 47
0.005
 48
0.005
140
3.5
141
0.09
142
0.0
143
25.4
144
1.0
145
0.0
146
1.0
147
0.625
 71
1.0
 72
0.0
 73
0
 74
0
 75
0
 76
0
 77
1
 78
8
170
0
171
2
172
0
173
0
174
0
175
0
176
0
177
0
178
5
270
2
271
3
272
3
273
2
274
2
275
0
280
0
281
0
282
0
283
1
284
8
285
0
286
0
287
3
288
0
340
11
278
46
  0
ENDTAB
  0
ENDSEC
  0
SECTION
  2
BLOCKS
  0
BLOCK
  5
20
100
AcDbEntity
  8
0
100
AcDbBlockBegin
  2
*Model_Space
 70
0
 10
0.0
 20
0.0
 30
0.0
  3
*Model_Space
  1

  0
ENDBLK
  5
21
100
AcDbEntity
  8
0
100
AcDbBlockEnd
  0
BLOCK
  5
1C
100
AcDbEntity
  8
0
100
AcDbBlockBegin
  2
*Paper_Space
 70
0
 10
0.0
 20
0.0
 30
0.0
  3
*Paper_Space
  1

  0
ENDBLK
  5
1D
100
AcDbEntity
  8
0
100
AcDbBlockEnd
  0
ENDSEC
  0
SECTION
  2
ENTITIES
  0
LINE
  5
215
100
AcDbEntity
  8
0
100
AcDbLine
 62
7
  6
CONTINUOUS
 10
0.0
 20
0.0
 11
0.0
 21
210.0
  0
LINE
  5
216
100
AcDbEntity
  8
0
100
AcDbLine
 62
7
  6
CONTINUOUS
 10
0.0
 20
0.0
 11
297.0
 21
0.0
  0
LINE
  5
217
100
AcDbEntity
  8
0
100
AcDbLine
 62
7
  6
CONTINUOUS
 10
0.0
 20
210.0
 11
297.0
 21
210.0
  0
LINE
  5
218
100
AcDbEntity
  8
0
100
AcDbLine
 62
7
  6
CONTINUOUS
 10
297.0
 20
0.0
 11
297.0
 21
210.0
  0
LINE
  5
219
100
AcDbEntity
  8
RUNDUNGEN
100
AcDbLine
 62
7
  6
CONTINUOUS
 10
54.75
 20
140.1406252602
 11
54.75
 21
153.1406252602
  0
LINE
  5
21A
100
AcDbEntity
  8
RUNDUNGEN
100
AcDbLine
 62
7
  6
CONTINUOUS
 10
55.7499998889
 20
139.3004928577
 11
55.7500004971
 21
153.9807151927
  0
LINE
  5
21B
100
AcDbEntity
  8
0
100
AcDbLine
 62
7
  6
CONTINUOUS
 10
103.75
 20
139.1406252602
 11
102.8975039373
 21
139.1406252602
  0
LINE
  5
21C
100
AcDbEntity
  8
0
100
AcDbLine
 62
7
  6
CONTINUOUS
 10
55.75
 20
139.1406252602
 11
57.45
 21
139.1406252602
  0
LINE
  5
21D
100
AcDbEntity
  8
0
100
AcDbLine
 62
7
  6
CONTINUOUS
 10
68.4429742566
 20
139.1406252602
 11
85.7243427628
 21
139.1406252602
  0
LINE
  5
21E
100
AcDbEntity
  8
RUNDUNGEN
100
AcDbLine
 62
7
  6
CONTINUOUS
 10
55.7500061358
 20
139.1406252602
 11
102.8975039373
 21
139.1406252602
  0
LINE
  5
21F
100
AcDbEntity
  8
RUNDUNGEN
100
AcDbLine
 62
7
  6
CONTINUOUS
 10
86.6902685891
 20
140.1406252602
 11
99.1092499401
 21
140.1406243583
  0
LINE
  5
220
100
AcDbEntity
  8
RUNDUNGEN
100
AcDbLine
 62
7
  6
CONTINUOUS
 10
62.1040449409
 20
140.1406233112
 11
67.4581665036
 21
140.1406252602
  0
LINE
  5
221
100
AcDbEntity
  8
RUNDUNGEN
100
AcDbLine
 62
7
  6
CONTINUOUS
 10
67.6997459916
 20
143.4456252602
 11
63.8833753324
 21
143.4456252602
  0
LINE
  5
222
100
AcDbEntity
  8
0
100
AcDbLine
 62
7
  6
CONTINUOUS
 10
87.5366716013
 20
143.4456252602
 11
92.1453977111
 21
143.4456252602
  0
LINE
  5
223
100
AcDbEntity
  8
RUNDUNGEN
100
AcDbLine
 62
7
  6
CONTINUOUS
 10
67.6473279529
 20
149.8356252602
 11
67.6661175132
 21
149.7153069146
  0
LWPOLYLINE
  5
224
100
AcDbEntity
  8
RUNDUNGEN
100
AcDbPolyline
 62
7
  6
CONTINUOUS
 90
11
 70
0
 10
67.6661175132
 20
149.7153069146
 10
67.6971417051
 20
149.4953728609
 10
67.7267127108
 20
149.2561061957
 10
67.7543702153
 20
148.9985985879
 10
67.77964294
 20
148.7241766364
 10
67.8021688388
 20
148.4341553624
 10
67.8216129546
 20
148.1301001326
 10
67.8376236904
 20
147.8135627319
 10
67.84994554
 20
147.4863015019
 10
67.8583478298
 20
147.1501694629
 10
67.8625714129
 20
146.8072451593
  0
LINE
  5
225
100
AcDbEntity
  8
RUNDUNGEN
100
AcDbLine
 62
7
  6
CONTINUOUS
 10
67.8625714129
 20
146.8072451593
 11
67.8630712849
 21
146.6411259404
  0
LINE
  5
226
100
AcDbEntity
  8
RUNDUNGEN
100
AcDbLine
 62
7
  6
CONTINUOUS
 10
68.0214115054
 20
152.3015422695
 11
68.0214222925
 21
140.9797361872
  0
LINE
  5
227
100
AcDbEntity
  8
RUNDUNGEN
100
AcDbLine
 62
7
  6
CONTINUOUS
 10
67.8630712855
 20
146.6411259402
 11
67.8626657194
 21
146.4905004753
  0
LWPOLYLINE
  5
228
100
AcDbEntity
  8
RUNDUNGEN
100
AcDbPolyline
 62
7
  6
CONTINUOUS
 90
11
 70
0
 10
67.8626657194
 20
146.4905004753
 10
67.858634891
 20
146.1466842731
 10
67.8504025655
 20
145.8096468397
 10
67.8382272179
 20
145.4814716234
 10
67.8223466083
 20
145.164019716
 10
67.8030123663
 20
144.8590497529
 10
67.7805755724
 20
144.5681123268
 10
67.755377752
 20
144.2927815573
 10
67.7277764954
 20
144.034376234
 10
67.6982404318
 20
143.7942143997
 10
67.6672358577
 20
143.57338955
  0
LINE
  5
229
100
AcDbEntity
  8
RUNDUNGEN
100
AcDbLine
 62
7
  6
CONTINUOUS
 10
67.6672358577
 20
143.57338955
 11
67.6473290495
 21
143.4456252602
  0
LINE
  5
22A
100
AcDbEntity
  8
0
100
AcDbLine
 62
7
  6
CONTINUOUS
 10
92.1453977111
 20
149.8356252602
 11
87.5366716013
 21
149.8356252602
  0
LINE
  5
22B
100
AcDbEntity
  8
RUNDUNGEN
100
AcDbLine
 62
7
  6
CONTINUOUS
 10
63.8833753324
 20
149.8356252602
 11
67.6997444978
 21
149.8356252602
  0
LINE
  5
22C
100
AcDbEntity
  8
RUNDUNGEN
100
AcDbLine
 62
7
  6
CONTINUOUS
 10
82.9428329603
 20
152.9428376395
 11
83.9241834976
 21
152.9428376395
  0
LINE
  5
22D
100
AcDbEntity
  8
RUNDUNGEN
100
AcDbLine
 62
7
  6
CONTINUOUS
 10
81.9075649897
 20
154.1524847034
 11
81.8771002204
 21
154.1445289216
  0
LINE
  5
22E
100
AcDbEntity
  8
RUNDUNGEN
100
AcDbLine
 62
7
  6
CONTINUOUS
 10
81.8771002204
 20
154.1445289216
 11
81.8312121107
 21
154.1406252691
  0
LINE
  5
22F
100
AcDbEntity
  8
RUNDUNGEN
100
AcDbLine
 62
7
  6
CONTINUOUS
 10
62.1040472031
 20
153.1406278436
 11
67.4581665036
 21
153.1406252602
  0
LINE
  5
230
100
AcDbEntity
  8
RUNDUNGEN
100
AcDbLine
 62
7
  6
CONTINUOUS
 10
99.1092596816
 20
153.1406281612
 11
86.6902685891
 21
153.1406252602
  0
LINE
  5
231
100
AcDbEntity
  8
RUNDUNGEN
100
AcDbLine
 62
7
  6
CONTINUOUS
 10
82.9428497048
 20
153.691249243
 11
83.9241404754
 21
153.691249243
  0
LINE
  5
232
100
AcDbEntity
  8
RUNDUNGEN
100
AcDbLine
 62
7
  6
CONTINUOUS
 10
86.1125326954
 20
154.0563159381
 11
98.5315110906
 21
154.0563162316
  0
LINE
  5
233
100
AcDbEntity
  8
RUNDUNGEN
100
AcDbLine
 62
7
  6
CONTINUOUS
 10
102.8975031667
 20
154.1406252602
 11
99.7233528268
 21
154.1406252602
  0
LINE
  5
234
100
AcDbEntity
  8
0
100
AcDbLine
 62
7
  6
CONTINUOUS
 10
63.0888381325
 20
154.1406252602
 11
55.75
 21
154.1406252602
  0
LINE
  5
235
100
AcDbEntity
  8
RUNDUNGEN
100
AcDbLine
 62
7
  6
CONTINUOUS
 10
55.7500087466
 20
154.1406252602
 11
81.8294648174
 21
154.1406252602
  0
LINE
  5
236
100
AcDbEntity
  8
0
100
AcDbLine
 62
7
  6
CONTINUOUS
 10
68.4429742566
 20
154.1406252602
 11
81.8294473297
 21
154.1406252602
  0
LINE
  5
237
100
AcDbEntity
  8
0
100
AcDbLine
 62
7
  6
CONTINUOUS
 10
100.5807422573
 20
154.1406252602
 11
103.75
 21
154.1406252602
  0
LINE
  5
238
100
AcDbEntity
  8
RUNDUNGEN
100
AcDbLine
 62
7
  6
CONTINUOUS
 10
85.592597601
 20
154.8725815474
 11
98.0115815917
 21
154.8725846898
  0
LINE
  5
239
100
AcDbEntity
  8
RUNDUNGEN
100
AcDbLine
 62
7
  6
CONTINUOUS
 10
98.8540509155
 20
155.0327717082
 11
99.7114421152
 21
155.0327713782
  0
LWPOLYLINE
  5
23A
100
AcDbEntity
  8
RUNDUNGEN
100
AcDbPolyline
 62
7
  6
CONTINUOUS
 90
4
 70
0
 10
100.5789774585
 20
154.1406252685
 10
100.5330893862
 20
154.1445289181
 10
100.4910037888
 20
154.1555194396
 10
100.4778884799
 20
154.1612224322
  0
LINE
  5
23B
100
AcDbEntity
  8
RUNDUNGEN
100
AcDbLine
 62
7
  6
CONTINUOUS
 10
82.0528358577
 20
154.5679690571
 11
82.2646858682
 21
173.1953656684
  0
LINE
  5
23C
100
AcDbEntity
  8
RUNDUNGEN
100
AcDbLine
 62
7
  6
CONTINUOUS
 10
83.793592835
 20
173.1929844732
 11
83.9241404754
 21
153.691249243
  0
LINE
  5
23D
100
AcDbEntity
  8
RUNDUNGEN
100
AcDbLine
 62
7
  6
CONTINUOUS
 10
82.9428329603
 20
152.9428376395
 11
82.9428329603
 21
153.691249243
  0
LINE
  5
23E
100
AcDbEntity
  8
RUNDUNGEN
100
AcDbLine
 62
7
  6
CONTINUOUS
 10
83.9241834976
 20
152.9428376395
 11
83.9241834976
 21
153.691249243
  0
LINE
  5
23F
100
AcDbEntity
  8
RUNDUNGEN
100
AcDbLine
 62
7
  6
CONTINUOUS
 10
82.9428497048
 20
153.691249243
 11
83.164627668
 21
173.1929844732
  0
LWPOLYLINE
  5
240
100
AcDbEntity
  8
RUNDUNGEN
100
AcDbPolyline
 62
7
  6
CONTINUOUS
 90
6
 70
0
 10
82.0528388192
 20
154.5679286032
 10
82.0412683896
 20
154.450433211
 10
82.0129802725
 20
154.3445908973
 10
81.9701706626
 20
154.2475063129
 10
81.9174661938
 20
154.1642377983
 10
81.8657497406
 20
154.1028484585
  0
LINE
  5
241
100
AcDbEntity
  8
RUNDUNGEN
100
AcDbLine
 62
7
  6
CONTINUOUS
 10
84.6628929771
 20
173.1929844732
 11
84.7894743014
 21
154.2899831315
  0
LINE
  5
242
100
AcDbEntity
  8
RUNDUNGEN
100
AcDbLine
 62
7
  6
CONTINUOUS
 10
85.7430317543
 20
152.0952256019
 11
85.7430313858
 21
141.1860256767
  0
LINE
  5
243
100
AcDbEntity
  8
RUNDUNGEN
100
AcDbLine
 62
7
  6
CONTINUOUS
 10
81.8657497406
 20
154.1028484585
 11
81.8660858733
 21
154.1031995065
  0
LINE
  5
244
100
AcDbEntity
  8
RUNDUNGEN
100
AcDbLine
 62
7
  6
CONTINUOUS
 10
81.8657497406
 20
154.1028484585
 11
81.8583257275
 21
154.0952295002
  0
LINE
  5
245
100
AcDbEntity
  8
RUNDUNGEN
100
AcDbLine
 62
7
  6
CONTINUOUS
 10
100.5026245918
 20
154.1524847034
 11
100.4927234096
 21
154.1642377713
  0
LINE
  5
246
100
AcDbEntity
  8
RUNDUNGEN
100
AcDbLine
 62
7
  6
CONTINUOUS
 10
83.164627668
 20
173.1929844732
 11
83.793592835
 21
173.1929844732
  0
LINE
  5
247
100
AcDbEntity
  8
RUNDUNGEN
100
AcDbLine
 62
7
  6
CONTINUOUS
 10
100.4927234096
 20
154.1642377713
 11
100.4400189399
 21
154.2475062837
  0
LWPOLYLINE
  5
248
100
AcDbEntity
  8
RUNDUNGEN
100
AcDbPolyline
 62
7
  6
CONTINUOUS
 90
4
 70
0
 10
100.4400189399
 20
154.2475062837
 10
100.3972093122
 20
154.3445909075
 10
100.3689211883
 20
154.4504332597
 10
100.357350766
 20
154.5679286225
  0
LINE
  5
249
100
AcDbEntity
  8
RUNDUNGEN
100
AcDbLine
 62
7
  6
CONTINUOUS
 10
99.4995613579
 20
178.2484791421
 11
85.9837068543
 21
178.2484791421
  0
LWPOLYLINE
  5
24A
100
AcDbEntity
  8
RUNDUNGEN
100
AcDbPolyline
 62
7
  6
CONTINUOUS
 90
8
 70
0
 10
100.1078925533
 20
176.3451503584
 10
100.0928251658
 20
176.6501072441
 10
100.0664370175
 20
176.9542179492
 10
100.0290478417
 20
177.2476813156
 10
99.9813150313
 20
177.5241264701
 10
99.9242498578
 20
177.7782698661
 10
99.8589122462
 20
178.0071604942
 10
99.7857484107
 20
178.2109919359
  0
LINE
  5
24B
100
AcDbEntity
  8
RUNDUNGEN
100
AcDbLine
 62
7
  6
CONTINUOUS
 10
100.1116727648
 20
176.1691835477
 11
100.1078925533
 21
176.3451503584
  0
LINE
  5
24C
100
AcDbEntity
  8
RUNDUNGEN
100
AcDbLine
 62
7
  6
CONTINUOUS
 10
100.3250094733
 20
154.7176427982
 11
100.0810405772
 21
176.1668048667
  0
LINE
  5
24D
100
AcDbEntity
  8
RUNDUNGEN
100
AcDbLine
 62
7
  6
CONTINUOUS
 10
100.3573610492
 20
154.5673938606
 11
100.1116822356
 21
176.1691860041
  0
LWPOLYLINE
  5
24E
100
AcDbEntity
  8
RUNDUNGEN
100
AcDbPolyline
 62
7
  6
CONTINUOUS
 90
21
 70
0
 10
84.5727345946
 20
179.1406037646
 10
84.4608397256
 20
179.1352770917
 10
84.2394575914
 20
179.0950785762
 10
84.0260493213
 20
179.0166353418
 10
83.8281217908
 20
178.904361041
 10
83.6499148691
 20
178.7646328493
 10
83.488827049
 20
178.6000531693
 10
83.3432332378
 20
178.413085315
 10
83.2085253456
 20
178.2006928213
 10
83.0815999742
 20
177.9586110424
 10
82.9609827188
 20
177.6827779174
 10
82.8454120186
 20
177.3670225781
 10
82.7362909394
 20
177.0109046751
 10
82.6348121625
 20
176.613751631
 10
82.5426724089
 20
176.17775722
 10
82.4615558517
 20
175.7065804235
 10
82.3929685145
 20
175.2055936736
 10
82.3382098347
 20
174.6816077066
 10
82.2981695468
 20
174.1425367187
 10
82.2733821059
 20
173.5988312308
 10
82.2646917572
 20
173.1953648723
  0
LINE
  5
24F
100
AcDbEntity
  8
RUNDUNGEN
100
AcDbLine
 62
7
  6
CONTINUOUS
 10
98.6341328497
 20
179.1406163347
 11
84.5727345398
 21
179.1406154598
  0
LINE
  5
250
100
AcDbEntity
  8
RUNDUNGEN
100
AcDbLine
 62
7
  6
CONTINUOUS
 10
103.75
 20
154.1406252602
 11
103.75
 21
139.1406252602
  0
LINE
  5
251
100
AcDbEntity
  8
RUNDUNGEN
100
AcDbLine
 62
7
  6
CONTINUOUS
 10
104.75
 20
153.1406252602
 11
104.75
 21
140.1406252602
  0
LWPOLYLINE
  5
252
100
AcDbEntity
  8
RUNDUNGEN
100
AcDbPolyline
 62
7
  6
CONTINUOUS
 90
10
 70
0
 10
99.7857484107
 20
178.2109919359
 10
99.7052121823
 20
178.3902622683
 10
99.6150320584
 20
178.5504144276
 10
99.5120505383
 20
178.6949862387
 10
99.3941773467
 20
178.8238085592
 10
99.2587066564
 20
178.9361054921
 10
99.1079976627
 20
179.0268050578
 10
98.9468373106
 20
179.0919413935
 10
98.7787043478
 20
179.1300582477
 10
98.6341327592
 20
179.1405962919
  0
LINE
  5
253
100
AcDbEntity
  8
RUNDUNGEN
100
AcDbLine
 62
7
  6
CONTINUOUS
 10
189.2609695574
 20
176.1668048667
 11
189.0648283549
 21
153.691249243
  0
LINE
  5
254
100
AcDbEntity
  8
RUNDUNGEN
100
AcDbLine
 62
7
  6
CONTINUOUS
 10
189.9280070171
 20
176.1668048667
 11
189.7370908794
 21
154.2899823673
  0
LINE
  5
255
100
AcDbEntity
  8
RUNDUNGEN
100
AcDbLine
 62
7
  6
CONTINUOUS
 10
192.71875
 20
140.1406252602
 11
192.71875
 21
139.1406252602
  0
LINE
  5
256
100
AcDbEntity
  8
RUNDUNGEN
100
AcDbLine
 62
7
  6
CONTINUOUS
 10
192.71875
 20
153.1406252602
 11
192.7187500008
 21
154.1406252602
  0
LINE
  5
257
100
AcDbEntity
  8
RUNDUNGEN
100
AcDbLine
 62
7
  6
CONTINUOUS
 10
192.71875
 20
139.1406252602
 11
245.2184062887
 21
139.1406252602
  0
LINE
  5
258
100
AcDbEntity
  8
RUNDUNGEN
100
AcDbLine
 62
7
  6
CONTINUOUS
 10
215.0276658995
 20
140.1406233112
 11
245.3923981777
 21
140.1406252602
  0
LINE
  5
259
100
AcDbEntity
  8
RUNDUNGEN
100
AcDbLine
 62
7
  6
CONTINUOUS
 10
192.71875
 20
140.1406252602
 11
205.5598645984
 21
140.1406252602
  0
LINE
  5
25A
100
AcDbEntity
  8
RUNDUNGEN
100
AcDbLine
 62
7
  6
CONTINUOUS
 10
246.7624635364
 20
143.4456252602
 11
225.11875
 21
143.4456252602
  0
LINE
  5
25B
100
AcDbEntity
  8
RUNDUNGEN
100
AcDbLine
 62
7
  6
CONTINUOUS
 10
206.5536862434
 20
140.279184107
 11
206.759060807
 21
139.3004997423
  0
LINE
  5
25C
100
AcDbEntity
  8
RUNDUNGEN
100
AcDbLine
 62
7
  6
CONTINUOUS
 10
205.5598645984
 20
140.1406252602
 11
205.6300136256
 21
139.1456630723
  0
LINE
  5
25D
100
AcDbEntity
  8
RUNDUNGEN
100
AcDbLine
 62
7
  6
CONTINUOUS
 10
205.5598645984
 20
140.1406252602
 11
205.5598645984
 21
139.1406252602
  0
LINE
  5
25E
100
AcDbEntity
  8
RUNDUNGEN
100
AcDbLine
 62
7
  6
CONTINUOUS
 10
205.5598743284
 20
153.1406252602
 11
205.5598743284
 21
154.1406252601
  0
LINE
  5
25F
100
AcDbEntity
  8
RUNDUNGEN
100
AcDbLine
 62
7
  6
CONTINUOUS
 10
205.5598743284
 20
153.1406252602
 11
205.6300219606
 21
154.1356919164
  0
LINE
  5
260
100
AcDbEntity
  8
RUNDUNGEN
100
AcDbLine
 62
7
  6
CONTINUOUS
 10
206.5536973231
 20
153.002064889
 11
206.7590774458
 21
153.9807472864
  0
LINE
  5
261
100
AcDbEntity
  8
RUNDUNGEN
100
AcDbLine
 62
7
  6
CONTINUOUS
 10
188.6527791287
 20
152.9428376395
 11
188.6648173497
 21
152.9507413994
  0
LINE
  5
262
100
AcDbEntity
  8
RUNDUNGEN
100
AcDbLine
 62
7
  6
CONTINUOUS
 10
188.663240047
 20
152.9496989856
 11
188.6587771277
 21
152.9468034854
  0
LINE
  5
263
100
AcDbEntity
  8
RUNDUNGEN
100
AcDbLine
 62
7
  6
CONTINUOUS
 10
225.11875
 20
149.8356252602
 11
246.7624550643
 21
149.8356252602
  0
LINE
  5
264
100
AcDbEntity
  8
RUNDUNGEN
100
AcDbLine
 62
7
  6
CONTINUOUS
 10
205.5598843903
 20
153.1406252602
 11
192.71875
 21
153.1406252602
  0
LINE
  5
265
100
AcDbEntity
  8
RUNDUNGEN
100
AcDbLine
 62
7
  6
CONTINUOUS
 10
215.0276787289
 20
153.1406278436
 11
245.3923981777
 21
153.1406252602
  0
LINE
  5
266
100
AcDbEntity
  8
RUNDUNGEN
100
AcDbLine
 62
7
  6
CONTINUOUS
 10
192.71875
 20
154.1406252602
 11
245.2184671085
 21
154.1406252602
  0
LINE
  5
267
100
AcDbEntity
  8
RUNDUNGEN
100
AcDbLine
 62
7
  6
CONTINUOUS
 10
192.7540180969
 20
154.8725798035
 11
217.3069640072
 21
154.8725841855
  0
LINE
  5
268
100
AcDbEntity
  8
RUNDUNGEN
100
AcDbLine
 62
7
  6
CONTINUOUS
 10
220.1342464273
 20
155.0327713782
 11
245.4516782711
 21
155.0327713782
  0
LINE
  5
269
100
AcDbEntity
  8
RUNDUNGEN
100
AcDbLine
 62
7
  6
CONTINUOUS
 10
249.2651306202
 20
152.9554978428
 11
249.2737317254
 21
152.950029691
  0
LINE
  5
26A
100
AcDbEntity
  8
RUNDUNGEN
100
AcDbLine
 62
7
  6
CONTINUOUS
 10
249.2787214514
 20
152.9468045123
 11
249.2751235929
 21
152.9491387625
  0
LINE
  5
26B
100
AcDbEntity
  8
RUNDUNGEN
100
AcDbLine
 62
7
  6
CONTINUOUS
 10
249.2847208713
 20
152.9428376395
 11
249.2742507165
 21
152.949696201
  0
LINE
  5
26C
100
AcDbEntity
  8
RUNDUNGEN
100
AcDbLine
 62
7
  6
CONTINUOUS
 10
249.2737317254
 20
152.950029691
 11
249.2726873657
 21
152.9507431074
  0
LINE
  5
26D
100
AcDbEntity
  8
RUNDUNGEN
100
AcDbLine
 62
7
  6
CONTINUOUS
 10
242.4697827706
 20
178.2484791421
 11
192.0279270555
 21
178.2484791421
  0
LINE
  5
26E
100
AcDbEntity
  8
RUNDUNGEN
100
AcDbLine
 62
7
  6
CONTINUOUS
 10
242.7023919499
 20
179.1406252602
 11
192.2608553266
 21
179.1406252602
  0
LINE
  5
26F
100
AcDbEntity
  8
RUNDUNGEN
100
AcDbLine
 62
7
  6
CONTINUOUS
 10
247.7309173161
 20
154.7176427971
 11
247.5695885782
 21
173.1929844732
  0
LINE
  5
270
100
AcDbEntity
  8
RUNDUNGEN
100
AcDbLine
 62
7
  6
CONTINUOUS
 10
248.8726716451
 20
153.691249243
 11
248.7024825801
 21
173.1929844694
  0
LINE
  5
271
100
AcDbEntity
  8
RUNDUNGEN
100
AcDbLine
 62
7
  6
CONTINUOUS
 10
248.5867193167
 20
152.3015422695
 11
248.5867804932
 21
140.9797361872
  0
LINE
  5
272
100
AcDbEntity
  8
0
100
AcDbLine
 62
7
  6
CONTINUOUS
 10
72.9454981559
 20
44.953125
 11
80.9133650601
 21
44.953125
  0
LINE
  5
273
100
AcDbEntity
  8
RUNDUNGEN
100
AcDbLine
 62
7
  6
CONTINUOUS
 10
82.9428329603
 20
48.3871541287
 11
83.9241834976
 21
48.3871541287
  0
LINE
  5
274
100
AcDbEntity
  8
RUNDUNGEN
100
AcDbLine
 62
7
  6
CONTINUOUS
 10
82.9428497048
 20
48.7992033549
 11
83.9241404754
 21
48.7992033549
  0
LINE
  5
275
100
AcDbEntity
  8
RUNDUNGEN
100
AcDbLine
 62
7
  6
CONTINUOUS
 10
83.164627668
 20
48.96939242
 11
83.793592835
 21
48.96939242
  0
LINE
  5
276
100
AcDbEntity
  8
RUNDUNGEN
100
AcDbLine
 62
7
  6
CONTINUOUS
 10
54.75
 20
85.953125
 11
54.75
 21
111.453125
  0
LINE
  5
277
100
AcDbEntity
  8
RUNDUNGEN
100
AcDbLine
 62
7
  6
CONTINUOUS
 10
55.75
 20
92.1120006716
 11
55.6969627729
 21
92.0417789103
  0
LINE
  5
278
100
AcDbEntity
  8
RUNDUNGEN
100
AcDbLine
 62
7
  6
CONTINUOUS
 10
68.4429243752
 20
52.4534078915
 11
81.8294648174
 21
52.4531902648
  0
LINE
  5
279
100
AcDbEntity
  8
RUNDUNGEN
100
AcDbLine
 62
7
  6
CONTINUOUS
 10
55.75
 20
84.953125
 11
55.7500004971
 21
90.9126446263
  0
LINE
  5
27A
100
AcDbEntity
  8
RUNDUNGEN
100
AcDbLine
 62
7
  6
CONTINUOUS
 10
55.7500087466
 20
92.1119839476
 11
55.75
 21
112.453125
  0
LINE
  5
27B
100
AcDbEntity
  8
RUNDUNGEN
100
AcDbLine
 62
7
  6
CONTINUOUS
 10
68.4429742566
 20
52.453125
 11
67.4581665036
 21
52.2794768223
  0
LINE
  5
27C
100
AcDbEntity
  8
RUNDUNGEN
100
AcDbLine
 62
7
  6
CONTINUOUS
 10
84.5768769866
 20
54.9694830501
 11
85.1144927397
 21
54.9694850171
  0
LINE
  5
27D
100
AcDbEntity
  8
RUNDUNGEN
100
AcDbLine
 62
7
  6
CONTINUOUS
 10
81.8294473297
 20
52.453125
 11
82.6987474718
 21
52.2201967289
  0
LINE
  5
27E
100
AcDbEntity
  8
RUNDUNGEN
100
AcDbLine
 62
7
  6
CONTINUOUS
 10
86.6902685891
 20
52.1943059549
 11
85.592597601
 21
52.4884069147
  0
LINE
  5
27F
100
AcDbEntity
  8
RUNDUNGEN
100
AcDbLine
 62
7
  6
CONTINUOUS
 10
83.7074913441
 20
55.2020922294
 11
84.5767914862
 21
54.9691639583
  0
LINE
  5
280
100
AcDbEntity
  8
RUNDUNGEN
100
AcDbLine
 62
7
  6
CONTINUOUS
 10
85.9837068543
 20
54.7362356873
 11
85.1144067125
 21
54.9691639595
  0
LINE
  5
281
100
AcDbEntity
  8
RUNDUNGEN
100
AcDbLine
 62
7
  6
CONTINUOUS
 10
62.1040472031
 20
82.6441962711
 11
68.0214115054
 21
49.0851556833
  0
LINE
  5
282
100
AcDbEntity
  8
RUNDUNGEN
100
AcDbLine
 62
7
  6
CONTINUOUS
 10
84.6628929771
 20
49.6364298797
 11
84.7894743014
 21
49.4714658861
  0
LINE
  5
283
100
AcDbEntity
  8
RUNDUNGEN
100
AcDbLine
 62
7
  6
CONTINUOUS
 10
83.793592835
 20
48.96939242
 11
83.9241404754
 21
48.7992033549
  0
LINE
  5
284
100
AcDbEntity
  8
RUNDUNGEN
100
AcDbLine
 62
7
  6
CONTINUOUS
 10
63.0888381325
 20
82.8179373987
 11
68.4429243752
 21
52.4534078915
  0
LINE
  5
285
100
AcDbEntity
  8
RUNDUNGEN
100
AcDbLine
 62
7
  6
CONTINUOUS
 10
99.4673398952
 20
108.6070466451
 11
99.2117404351
 21
108.4109054426
  0
LINE
  5
286
100
AcDbEntity
  8
RUNDUNGEN
100
AcDbLine
 62
7
  6
CONTINUOUS
 10
63.6131248174
 20
104.9528016226
 11
67.8523015067
 21
80.911235934
  0
LINE
  5
287
100
AcDbEntity
  8
RUNDUNGEN
100
AcDbLine
 62
7
  6
CONTINUOUS
 10
100.3250094733
 20
107.4652923111
 11
100.0810405772
 21
107.2780114408
  0
LINE
  5
288
100
AcDbEntity
  8
RUNDUNGEN
100
AcDbLine
 62
7
  6
CONTINUOUS
 10
63.4517772406
 20
111.6266196842
 11
68.8371092597
 21
81.0848841117
  0
LINE
  5
289
100
AcDbEntity
  8
RUNDUNGEN
100
AcDbLine
 62
7
  6
CONTINUOUS
 10
73.7611480248
 20
76.953125
 11
73.7611480248
 21
75.953125
  0
LINE
  5
28A
100
AcDbEntity
  8
RUNDUNGEN
100
AcDbLine
 62
7
  6
CONTINUOUS
 10
73.7611480248
 20
75.953125
 11
84.3113583159
 21
75.953125
  0
LINE
  5
28B
100
AcDbEntity
  8
RUNDUNGEN
100
AcDbLine
 62
7
  6
CONTINUOUS
 10
73.7611480248
 20
76.953125
 11
84.3113583159
 21
76.953125
  0
LINE
  5
28C
100
AcDbEntity
  8
RUNDUNGEN
100
AcDbLine
 62
7
  6
CONTINUOUS
 10
88.6132327467
 20
77.7705568438
 11
89.4825328888
 21
77.5376285727
  0
LINE
  5
28D
100
AcDbEntity
  8
RUNDUNGEN
100
AcDbLine
 62
7
  6
CONTINUOUS
 10
82.9428329603
 20
48.3871541287
 11
82.9428329603
 21
48.7992033549
  0
LINE
  5
28E
100
AcDbEntity
  8
RUNDUNGEN
100
AcDbLine
 62
7
  6
CONTINUOUS
 10
83.9241834976
 20
48.3871541287
 11
83.9241834976
 21
48.7992033549
  0
LINE
  5
28F
100
AcDbEntity
  8
RUNDUNGEN
100
AcDbLine
 62
7
  6
CONTINUOUS
 10
84.3113583159
 20
76.953125
 11
84.3113583157
 21
75.953125
  0
LINE
  5
290
100
AcDbEntity
  8
RUNDUNGEN
100
AcDbLine
 62
7
  6
CONTINUOUS
 10
68.8371092597
 20
81.0848841117
 11
67.8523015067
 21
80.911235934
  0
LINE
  5
291
100
AcDbEntity
  8
RUNDUNGEN
100
AcDbLine
 62
7
  6
CONTINUOUS
 10
89.1409874473
 20
80.6590297745
 11
90.2386536839
 21
80.3649109928
  0
LINE
  5
292
100
AcDbEntity
  8
RUNDUNGEN
100
AcDbLine
 62
7
  6
CONTINUOUS
 10
89.1409874473
 20
80.6590297745
 11
97.4615881405
 21
111.7119343109
  0
LINE
  5
293
100
AcDbEntity
  8
RUNDUNGEN
100
AcDbLine
 62
7
  6
CONTINUOUS
 10
63.0888381325
 20
82.8179373987
 11
62.1040305267
 21
82.6442908474
  0
LINE
  5
294
100
AcDbEntity
  8
0
100
AcDbLine
 62
7
  6
CONTINUOUS
 10
57.5014124396
 20
84.953125
 11
55.75
 21
84.953125
  0
LINE
  5
295
100
AcDbEntity
  8
RUNDUNGEN
100
AcDbLine
 62
7
  6
CONTINUOUS
 10
88.6132404685
 20
77.7705856618
 11
81.8294648174
 21
52.4531902648
  0
LINE
  5
296
100
AcDbEntity
  8
RUNDUNGEN
100
AcDbLine
 62
7
  6
CONTINUOUS
 10
96.2976564988
 20
105.0571403039
 11
89.718723941
 21
80.5042257475
  0
LINE
  5
297
100
AcDbEntity
  8
RUNDUNGEN
100
AcDbLine
 62
7
  6
CONTINUOUS
 10
96.8175956727
 20
104.9178569031
 11
90.2386536839
 21
80.3649109928
  0
LINE
  5
298
100
AcDbEntity
  8
RUNDUNGEN
100
AcDbLine
 62
7
  6
CONTINUOUS
 10
89.4825328888
 20
77.5376285727
 11
82.6987474718
 21
52.2201967289
  0
LINE
  5
299
100
AcDbEntity
  8
RUNDUNGEN
100
AcDbLine
 62
7
  6
CONTINUOUS
 10
83.7074913441
 20
55.2020922294
 11
97.2233458477
 21
105.6439479445
  0
LINE
  5
29A
100
AcDbEntity
  8
RUNDUNGEN
100
AcDbLine
 62
7
  6
CONTINUOUS
 10
84.5768769866
 20
54.9694830501
 11
98.0926459898
 21
105.4110196734
  0
LINE
  5
29B
100
AcDbEntity
  8
RUNDUNGEN
100
AcDbLine
 62
7
  6
CONTINUOUS
 10
98.6302612158
 20
105.4110196734
 11
85.1144927397
 21
54.9694850171
  0
LINE
  5
29C
100
AcDbEntity
  8
RUNDUNGEN
100
AcDbLine
 62
7
  6
CONTINUOUS
 10
99.4995613579
 20
105.1780914024
 11
85.9837068543
 21
54.7362356873
  0
LINE
  5
29D
100
AcDbEntity
  8
RUNDUNGEN
100
AcDbLine
 62
7
  6
CONTINUOUS
 10
98.8540509155
 20
101.9862257629
 11
99.7114421152
 21
105.1860532711
  0
LINE
  5
29E
100
AcDbEntity
  8
RUNDUNGEN
100
AcDbLine
 62
7
  6
CONTINUOUS
 10
85.592597601
 20
52.4884069147
 11
98.0115815917
 21
98.8366862523
  0
LINE
  5
29F
100
AcDbEntity
  8
RUNDUNGEN
100
AcDbLine
 62
7
  6
CONTINUOUS
 10
86.1125326954
 20
52.3491098153
 11
98.5315110906
 21
98.6973707482
  0
LINE
  5
2A0
100
AcDbEntity
  8
RUNDUNGEN
100
AcDbLine
 62
7
  6
CONTINUOUS
 10
99.7233528268
 20
101.7533032793
 11
100.5807247682
 21
104.9530597297
  0
LINE
  5
2A1
100
AcDbEntity
  8
RUNDUNGEN
100
AcDbLine
 62
7
  6
CONTINUOUS
 10
99.1092596816
 20
98.5426116907
 11
85.7430317543
 21
48.6591699604
  0
LINE
  5
2A2
100
AcDbEntity
  8
RUNDUNGEN
100
AcDbLine
 62
7
  6
CONTINUOUS
 10
54.75
 20
92.1120006716
 11
55.7500087465
 21
92.1120006716
  0
LINE
  5
2A3
100
AcDbEntity
  8
RUNDUNGEN
100
AcDbLine
 62
7
  6
CONTINUOUS
 10
98.4860060894
 20
109.0190958713
 11
98.4860060894
 21
108.6070466451
  0
LINE
  5
2A4
100
AcDbEntity
  8
RUNDUNGEN
100
AcDbLine
 62
7
  6
CONTINUOUS
 10
99.4673566268
 20
109.0190958713
 11
99.4673566268
 21
108.6070466451
  0
LINE
  5
2A5
100
AcDbEntity
  8
RUNDUNGEN
100
AcDbLine
 62
7
  6
CONTINUOUS
 10
103.75
 20
97.453125
 11
100.3519865786
 21
97.453125
  0
LINE
  5
2A6
100
AcDbEntity
  8
RUNDUNGEN
100
AcDbLine
 62
7
  6
CONTINUOUS
 10
103.75
 20
112.453125
 11
103.75
 21
97.453125
  0
LINE
  5
2A7
100
AcDbEntity
  8
RUNDUNGEN
100
AcDbLine
 62
7
  6
CONTINUOUS
 10
104.75
 20
111.453125
 11
104.75
 21
98.453125
  0
LINE
  5
2A8
100
AcDbEntity
  8
RUNDUNGEN
100
AcDbLine
 62
7
  6
CONTINUOUS
 10
82.0851801124
 20
49.9409576839
 11
82.2953275259
 21
50.1022864218
  0
LINE
  5
2A9
100
AcDbEntity
  8
RUNDUNGEN
100
AcDbLine
 62
7
  6
CONTINUOUS
 10
99.1092481624
 20
98.5425687006
 11
98.0115815917
 21
98.8366862523
  0
LINE
  5
2AA
100
AcDbEntity
  8
RUNDUNGEN
100
AcDbLine
 62
7
  6
CONTINUOUS
 10
82.9428497048
 20
48.7992033549
 11
83.164627668
 21
48.96939242
  0
LINE
  5
2AB
100
AcDbEntity
  8
RUNDUNGEN
100
AcDbLine
 62
7
  6
CONTINUOUS
 10
102.8975031667
 20
104.953125
 11
100.5807247682
 21
104.9530597297
  0
LINE
  5
2AC
100
AcDbEntity
  8
RUNDUNGEN
100
AcDbLine
 62
7
  6
CONTINUOUS
 10
54.75
 20
104.953125
 11
63.6131248174
 21
104.9528016226
  0
LINE
  5
2AD
100
AcDbEntity
  8
RUNDUNGEN
100
AcDbLine
 62
7
  6
CONTINUOUS
 10
98.6302612158
 20
105.4110196734
 11
98.0926459898
 21
105.4110196734
  0
LINE
  5
2AE
100
AcDbEntity
  8
RUNDUNGEN
100
AcDbLine
 62
7
  6
CONTINUOUS
 10
99.7233513881
 20
101.7532979098
 11
98.8540509155
 21
101.9862257629
  0
LINE
  5
2AF
100
AcDbEntity
  8
RUNDUNGEN
100
AcDbLine
 62
7
  6
CONTINUOUS
 10
64.5978755502
 20
105.1267731777
 11
63.6130677972
 21
104.953125
  0
LINE
  5
2B0
100
AcDbEntity
  8
RUNDUNGEN
100
AcDbLine
 62
7
  6
CONTINUOUS
 10
99.2117404351
 20
108.4109054426
 11
98.6365105275
 21
108.4109054426
  0
LINE
  5
2B1
100
AcDbEntity
  8
RUNDUNGEN
100
AcDbLine
 62
7
  6
CONTINUOUS
 10
99.4673398952
 20
108.6070466451
 11
98.4860489818
 21
108.6070466451
  0
LINE
  5
2B2
100
AcDbEntity
  8
RUNDUNGEN
100
AcDbLine
 62
7
  6
CONTINUOUS
 10
99.4673566268
 20
109.0190958713
 11
98.4860060894
 21
109.0190958713
  0
LINE
  5
2B3
100
AcDbEntity
  8
RUNDUNGEN
100
AcDbLine
 62
7
  6
CONTINUOUS
 10
95.7199209979
 20
105.2119440451
 11
96.8175956727
 21
104.9178569031
  0
LINE
  5
2B4
100
AcDbEntity
  8
RUNDUNGEN
100
AcDbLine
 62
7
  6
CONTINUOUS
 10
97.2233458477
 20
105.6439479445
 11
98.0926459889
 21
105.41101967
  0
LINE
  5
2B5
100
AcDbEntity
  8
RUNDUNGEN
100
AcDbLine
 62
7
  6
CONTINUOUS
 10
99.4995613579
 20
105.1780914024
 11
98.6302612158
 21
105.4110196734
  0
LINE
  5
2B6
100
AcDbEntity
  8
RUNDUNGEN
100
AcDbLine
 62
7
  6
CONTINUOUS
 10
100.5807422573
 20
104.953125
 11
99.7114421152
 21
105.1860532711
  0
LINE
  5
2B7
100
AcDbEntity
  8
RUNDUNGEN
100
AcDbLine
 62
7
  6
CONTINUOUS
 10
103.75
 20
112.453125
 11
102.8365704891
 21
112.453125
  0
LINE
  5
2B8
100
AcDbEntity
  8
0
100
AcDbLine
 62
7
  6
CONTINUOUS
 10
62.4717635543
 20
112.453125
 11
55.75
 21
112.453125
  0
LINE
  5
2B9
100
AcDbEntity
  8
0
100
AcDbLine
 62
7
  6
CONTINUOUS
 10
98.4228619925
 20
112.453125
 11
103.75
 21
112.453125
  0
LINE
  5
2BA
100
AcDbEntity
  8
RUNDUNGEN
100
AcDbLine
 62
7
  6
CONTINUOUS
 10
97.7672103854
 20
107.7438679829
 11
97.6207152805
 21
107.9347841206
  0
LINE
  5
2BB
100
AcDbEntity
  8
RUNDUNGEN
100
AcDbLine
 62
7
  6
CONTINUOUS
 10
98.6365105275
 20
108.4109054426
 11
98.4860489818
 21
108.6070466451
  0
ARC
  5
2BC
100
AcDbEntity
  8
RUNDUNGEN
100
AcDbCircle
 62
7
  6
CONTINUOUS
 10
103.75
 20
153.1406252602
 40
1.0
100
AcDbArc
 50
0.0
 51
90.0
  0
ARC
  5
2BD
100
AcDbEntity
  8
RUNDUNGEN
100
AcDbCircle
 62
7
  6
CONTINUOUS
 10
103.75
 20
140.1406252602
 40
1.0
100
AcDbArc
 50
270.0
 51
360.0
  0
ARC
  5
2BE
100
AcDbEntity
  8
RUNDUNGEN
100
AcDbCircle
 62
7
  6
CONTINUOUS
 10
55.7485270485
 20
153.1393946284
 40
0.9986040438
100
AcDbArc
 50
89.9994988597
 51
179.9293860157
  0
ARC
  5
2BF
100
AcDbEntity
  8
RUNDUNGEN
100
AcDbCircle
 62
7
  6
CONTINUOUS
 10
55.7485252593
 20
140.1418546679
 40
0.9986021724
100
AcDbArc
 50
180.07054387
 51
270.0
  0
ARC
  5
2C0
100
AcDbEntity
  8
RUNDUNGEN
100
AcDbCircle
 62
7
  6
CONTINUOUS
 10
55.7093264261
 20
140.2796485974
 40
0.959326539
100
AcDbArc
 50
180.0277942124
 51
189.2107427942
  0
ARC
  5
2C1
100
AcDbEntity
  8
RUNDUNGEN
100
AcDbCircle
 62
7
  6
CONTINUOUS
 10
55.7093238141
 20
153.0015996385
 40
0.9593239269
100
AcDbArc
 50
170.7892202562
 51
179.9722061191
  0
ARC
  5
2C2
100
AcDbEntity
  8
RUNDUNGEN
100
AcDbCircle
 62
7
  6
CONTINUOUS
 10
101.1820505696
 20
154.6645288822
 40
0.8587379869
100
AcDbArc
 50
176.4524299894
 51
185.8747505676
  0
ARC
  5
2C3
100
AcDbEntity
  8
RUNDUNGEN
100
AcDbCircle
 62
7
  6
CONTINUOUS
 10
101.1570834974
 20
154.6616865958
 40
0.8336111657
100
AcDbArc
 50
185.8560640656
 51
195.4552308278
  0
ARC
  5
2C4
100
AcDbEntity
  8
RUNDUNGEN
100
AcDbCircle
 62
7
  6
CONTINUOUS
 10
101.1067539264
 20
154.6424534996
 40
0.779271688
100
AcDbArc
 50
215.3455176053
 51
219.1030762573
  0
ARC
  5
2C5
100
AcDbEntity
  8
RUNDUNGEN
100
AcDbCircle
 62
7
  6
CONTINUOUS
 10
55.7501388691
 20
139.5069166054
 40
0.3662913715
100
AcDbArc
 50
261.6528738355
 51
269.9782779178
  0
ARC
  5
2C6
100
AcDbEntity
  8
RUNDUNGEN
100
AcDbCircle
 62
7
  6
CONTINUOUS
 10
55.7501269907
 20
153.7744138476
 40
0.3662114346
100
AcDbArc
 50
90.0198683927
 51
98.3473298183
  0
ARC
  5
2C7
100
AcDbEntity
  8
0
100
AcDbCircle
 62
7
  6
CONTINUOUS
 10
192.71875
 20
146.6406252602
 40
7.5
100
AcDbArc
 50
248.5858215333
 51
252.4510305349
  0
ARC
  5
2C8
100
AcDbEntity
  8
0
100
AcDbCircle
 62
7
  6
CONTINUOUS
 10
192.71875
 20
146.6406252602
 40
7.5
100
AcDbArc
 50
259.6051179188
 51
263.1689268236
  0
ARC
  5
2C9
100
AcDbEntity
  8
RUNDUNGEN
100
AcDbCircle
 62
7
  6
CONTINUOUS
 10
192.71875
 20
146.6406252602
 40
7.5
100
AcDbArc
 50
90.0
 51
270.0
  0
ARC
  5
2CA
100
AcDbEntity
  8
RUNDUNGEN
100
AcDbCircle
 62
7
  6
CONTINUOUS
 10
192.71875
 20
146.6406252602
 40
6.5
100
AcDbArc
 50
90.0
 51
270.0
  0
CIRCLE
  5
2CB
100
AcDbEntity
  8
0
100
AcDbCircle
 62
7
  6
CONTINUOUS
 10
192.71875
 20
146.6406252602
 40
3.19
  0
ARC
  5
2CC
100
AcDbEntity
  8
RUNDUNGEN
100
AcDbCircle
 62
7
  6
CONTINUOUS
 10
192.7553157347
 20
146.763121386
 40
8.1094585213
100
AcDbArc
 50
90.0091682039
 51
111.8504810954
  0
ARC
  5
2CD
100
AcDbEntity
  8
RUNDUNGEN
100
AcDbCircle
 62
7
  6
CONTINUOUS
 10
188.1648632805
 20
153.6991049488
 40
0.8999996798
100
AcDbArc
 50
303.6250617628
 51
359.4998835341
  0
ARC
  5
2CE
100
AcDbEntity
  8
RUNDUNGEN
100
AcDbCircle
 62
7
  6
CONTINUOUS
 10
204.348872186
 20
146.640953388
 40
12.5016369442
100
AcDbArc
 50
328.6705446264
 51
31.3293567904
  0
ARC
  5
2CF
100
AcDbEntity
  8
RUNDUNGEN
100
AcDbCircle
 62
7
  6
CONTINUOUS
 10
205.0723461348
 20
145.9370186358
 40
8.2186756152
100
AcDbArc
 50
78.1556423986
 51
86.1085791442
  0
ARC
  5
2D0
100
AcDbEntity
  8
RUNDUNGEN
100
AcDbCircle
 62
7
  6
CONTINUOUS
 10
205.21875
 20
146.6406252602
 40
7.5
100
AcDbArc
 50
281.851182757
 51
78.1472375354
  0
ARC
  5
2D1
100
AcDbEntity
  8
RUNDUNGEN
100
AcDbCircle
 62
7
  6
CONTINUOUS
 10
205.0419252401
 20
145.792304422
 40
7.3665528452
100
AcDbArc
 50
78.157557626
 51
85.9680760742
  0
ARC
  5
2D2
100
AcDbEntity
  8
RUNDUNGEN
100
AcDbCircle
 62
7
  6
CONTINUOUS
 10
205.21875
 20
146.6406252602
 40
6.5
100
AcDbArc
 50
281.8514424116
 51
78.1484592463
  0
CIRCLE
  5
2D3
100
AcDbEntity
  8
RUNDUNGEN
100
AcDbCircle
 62
7
  6
CONTINUOUS
 10
205.21875
 20
146.6406252602
 40
6.0
  0
CIRCLE
  5
2D4
100
AcDbEntity
  8
RUNDUNGEN
100
AcDbCircle
 62
7
  6
CONTINUOUS
 10
205.21875
 20
146.6406252602
 40
5.0
  0
ARC
  5
2D5
100
AcDbEntity
  8
RUNDUNGEN
100
AcDbCircle
 62
7
  6
CONTINUOUS
 10
205.5598093135
 20
139.7791727809
 40
0.6385475231
100
AcDbArc
 50
270.0049606178
 51
276.3195827549
  0
ARC
  5
2D6
100
AcDbEntity
  8
RUNDUNGEN
100
AcDbCircle
 62
7
  6
CONTINUOUS
 10
205.0724481888
 20
147.3433516049
 40
8.2177915989
100
AcDbArc
 50
273.891174245
 51
281.8432172837
  0
ARC
  5
2D7
100
AcDbEntity
  8
RUNDUNGEN
100
AcDbCircle
 62
7
  6
CONTINUOUS
 10
205.0420564687
 20
147.4880372723
 40
7.3656356505
100
AcDbArc
 50
274.0312491532
 51
281.8428073401
  0
ARC
  5
2D8
100
AcDbEntity
  8
RUNDUNGEN
100
AcDbCircle
 62
7
  6
CONTINUOUS
 10
205.5598100955
 20
153.5019981637
 40
0.6386270997
100
AcDbArc
 50
83.681343419
 51
89.9942372126
  0
ARC
  5
2D9
100
AcDbEntity
  8
RUNDUNGEN
100
AcDbCircle
 62
7
  6
CONTINUOUS
 10
192.2608553266
 20
176.1406252602
 40
3.0
100
AcDbArc
 50
90.0
 51
179.4999999999
  0
ARC
  5
2DA
100
AcDbEntity
  8
RUNDUNGEN
100
AcDbCircle
 62
7
  6
CONTINUOUS
 10
192.0279487058
 20
176.1484572971
 40
2.1000186356
100
AcDbArc
 50
90.0005906952
 51
179.4994091705
  0
ARC
  5
2DB
100
AcDbEntity
  8
0
100
AcDbCircle
 62
7
  6
CONTINUOUS
 10
225.11875
 20
146.6406252602
 40
3.195
100
AcDbArc
 50
90.0
 51
270.0
  0
ARC
  5
2DC
100
AcDbEntity
  8
RUNDUNGEN
100
AcDbCircle
 62
7
  6
CONTINUOUS
 10
245.4517142391
 20
146.6329101723
 40
8.399861206
100
AcDbArc
 50
74.2560879433
 51
90.0002453396
  0
ARC
  5
2DD
100
AcDbEntity
  8
RUNDUNGEN
100
AcDbCircle
 62
7
  6
CONTINUOUS
 10
245.21875
 20
146.6406252602
 40
7.5
100
AcDbArc
 50
269.9973742396
 51
90.0021611314
  0
ARC
  5
2DE
100
AcDbEntity
  8
RUNDUNGEN
100
AcDbCircle
 62
7
  6
CONTINUOUS
 10
245.3926652718
 20
146.6394556129
 40
6.4988303582
100
AcDbArc
 50
269.9976452119
 51
299.4386135941
  0
ARC
  5
2DF
100
AcDbEntity
  8
RUNDUNGEN
100
AcDbCircle
 62
7
  6
CONTINUOUS
 10
245.3926639659
 20
146.6418343782
 40
6.4987908874
100
AcDbArc
 50
60.5617961139
 51
90.0023432891
  0
ARC
  5
2E0
100
AcDbEntity
  8
RUNDUNGEN
100
AcDbCircle
 62
7
  6
CONTINUOUS
 10
242.6652527567
 20
146.640441447
 40
5.1957931396
100
AcDbArc
 50
322.0517352853
 51
37.9487183073
  0
ARC
  5
2E1
100
AcDbEntity
  8
RUNDUNGEN
100
AcDbCircle
 62
7
  6
CONTINUOUS
 10
242.31875
 20
146.6406252602
 40
3.195
100
AcDbArc
 50
269.9971116187
 51
90.0033829179
  0
ARC
  5
2E2
100
AcDbEntity
  8
RUNDUNGEN
100
AcDbCircle
 62
7
  6
CONTINUOUS
 10
249.7726373758
 20
153.699103125
 40
0.9
100
AcDbArc
 50
180.5
 51
236.2546670138
  0
ARC
  5
2E3
100
AcDbEntity
  8
RUNDUNGEN
100
AcDbCircle
 62
7
  6
CONTINUOUS
 10
242.7027110417
 20
173.1406252602
 40
6.0
100
AcDbArc
 50
0.5000000001
 51
90.003065885
  0
ARC
  5
2E4
100
AcDbEntity
  8
RUNDUNGEN
100
AcDbCircle
 62
7
  6
CONTINUOUS
 10
242.4697798304
 20
173.1484761762
 40
5.1000029659
100
AcDbArc
 50
0.5000330311
 51
89.9999669689
  0
ARC
  5
2E5
100
AcDbEntity
  8
RUNDUNGEN
100
AcDbCircle
 62
7
  6
CONTINUOUS
 10
80.9133650601
 20
49.953125
 40
5.0
100
AcDbArc
 50
270.0
 51
345.0016630803
  0
ARC
  5
2E6
100
AcDbEntity
  8
RUNDUNGEN
100
AcDbCircle
 62
7
  6
CONTINUOUS
 10
72.9454981559
 20
49.953125
 40
5.0
100
AcDbArc
 50
189.9968400099
 51
270.0
  0
ARC
  5
2E7
100
AcDbEntity
  8
RUNDUNGEN
100
AcDbCircle
 62
7
  6
CONTINUOUS
 10
83.9172006984
 20
49.6985901347
 40
0.9013582323
100
AcDbArc
 50
300.6934851819
 51
345.4052905464
  0
ARC
  5
2E8
100
AcDbEntity
  8
RUNDUNGEN
100
AcDbCircle
 62
7
  6
CONTINUOUS
 10
83.1648207071
 20
49.8695062748
 40
0.90012244
100
AcDbArc
 50
165.0122876918
 51
269.9877123161
  0
ARC
  5
2E9
100
AcDbEntity
  8
RUNDUNGEN
100
AcDbCircle
 62
7
  6
CONTINUOUS
 10
83.7935333939
 20
49.8694356158
 40
0.9000431978
100
AcDbArc
 50
270.0037839535
 51
344.9962160465
  0
ARC
  5
2EA
100
AcDbEntity
  8
RUNDUNGEN
100
AcDbCircle
 62
7
  6
CONTINUOUS
 10
83.9243698313
 20
49.686540252
 40
0.8873369648
100
AcDbArc
 50
269.985192316
 51
300.6925807257
  0
ARC
  5
2EB
100
AcDbEntity
  8
RUNDUNGEN
100
AcDbCircle
 62
7
  6
CONTINUOUS
 10
-1276.3972567059
 20
472.9384852659
 40
1421.1361702487
100
AcDbArc
 50
344.9973187074
 51
345.1112413995
  0
ARC
  5
2EC
100
AcDbEntity
  8
RUNDUNGEN
100
AcDbCircle
 62
7
  6
CONTINUOUS
 10
-890.3417609298
 20
312.9388777766
 40
1007.3639171808
100
AcDbArc
 50
344.8661188948
 51
345.0003701444
  0
ARC
  5
2ED
100
AcDbEntity
  8
RUNDUNGEN
100
AcDbCircle
 62
7
  6
CONTINUOUS
 10
-764.0547464909
 20
335.7261738749
 40
891.2763424804
100
AcDbArc
 50
345.0432644852
 51
345.1921120967
  0
ARC
  5
2EE
100
AcDbEntity
  8
RUNDUNGEN
100
AcDbCircle
 62
7
  6
CONTINUOUS
 10
-707.4469117783
 20
289.3116368319
 40
824.0504387957
100
AcDbArc
 50
343.1479408094
 51
343.2957254869
  0
ARC
  5
2EF
100
AcDbEntity
  8
RUNDUNGEN
100
AcDbCircle
 62
7
  6
CONTINUOUS
 10
73.7611480248
 20
81.953125
 40
6.0
100
AcDbArc
 50
190.0
 51
270.0
  0
ARC
  5
2F0
100
AcDbEntity
  8
RUNDUNGEN
100
AcDbCircle
 62
7
  6
CONTINUOUS
 10
84.3113583159
 20
81.953125
 40
6.0
100
AcDbArc
 50
270.0
 51
315.8058756482
  0
ARC
  5
2F1
100
AcDbEntity
  8
RUNDUNGEN
100
AcDbCircle
 62
7
  6
CONTINUOUS
 10
84.3113583159
 20
81.953125
 40
5.0
100
AcDbArc
 50
269.9999999853
 51
345.0000000169
  0
ARC
  5
2F2
100
AcDbEntity
  8
RUNDUNGEN
100
AcDbCircle
 62
7
  6
CONTINUOUS
 10
73.7611480248
 20
81.953125
 40
5.0
100
AcDbArc
 50
189.9999999994
 51
270.0000000006
  0
ARC
  5
2F3
100
AcDbEntity
  8
RUNDUNGEN
100
AcDbCircle
 62
7
  6
CONTINUOUS
 10
57.5014226105
 20
79.95312503
 40
4.9999999963
100
AcDbArc
 50
9.9999999492
 51
89.9999999912
  0
ARC
  5
2F4
100
AcDbEntity
  8
RUNDUNGEN
100
AcDbCircle
 62
7
  6
CONTINUOUS
 10
55.75
 20
111.453125
 40
1.0
100
AcDbArc
 50
90.0
 51
180.0
  0
ARC
  5
2F5
100
AcDbEntity
  8
RUNDUNGEN
100
AcDbCircle
 62
7
  6
CONTINUOUS
 10
55.75
 20
85.953125
 40
1.0
100
AcDbArc
 50
180.0
 51
270.0
  0
ARC
  5
2F6
100
AcDbEntity
  8
RUNDUNGEN
100
AcDbCircle
 62
7
  6
CONTINUOUS
 10
62.4669464565
 20
111.4531021226
 40
1.0
100
AcDbArc
 50
10.0
 51
89.9999095413
  0
ARC
  5
2F7
100
AcDbEntity
  8
RUNDUNGEN
100
AcDbCircle
 62
7
  6
CONTINUOUS
 10
1458.0287250971
 20
-315.3246650045
 40
1420.3302598571
100
AcDbArc
 50
164.9972748125
 51
165.111263845
  0
ARC
  5
2F8
100
AcDbEntity
  8
RUNDUNGEN
100
AcDbCircle
 62
7
  6
CONTINUOUS
 10
1072.7519663706
 20
-155.5326320453
 40
1007.3639335991
100
AcDbArc
 50
164.8661188962
 51
165.0003701432
  0
ARC
  5
2F9
100
AcDbEntity
  8
RUNDUNGEN
100
AcDbCircle
 62
7
  6
CONTINUOUS
 10
968.1774137795
 20
-184.0750171312
 40
913.7385902681
100
AcDbArc
 50
164.9954249653
 51
165.1911899557
  0
ARC
  5
2FA
100
AcDbEntity
  8
RUNDUNGEN
100
AcDbCircle
 62
7
  6
CONTINUOUS
 10
889.8571396554
 20
-131.9053983766
 40
824.0504787882
100
AcDbArc
 50
163.147940813
 51
163.2957254838
  0
ARC
  5
2FB
100
AcDbEntity
  8
RUNDUNGEN
100
AcDbCircle
 62
7
  6
CONTINUOUS
 10
100.3519910891
 20
95.4531418333
 40
1.9999964561
100
AcDbArc
 50
90.0001292165
 51
165.0004992499
  0
ARC
  5
2FC
100
AcDbEntity
  8
RUNDUNGEN
100
AcDbCircle
 62
7
  6
CONTINUOUS
 10
103.75
 20
98.453125
 40
1.0
100
AcDbArc
 50
270.0
 51
360.0
  0
ARC
  5
2FD
100
AcDbEntity
  8
RUNDUNGEN
100
AcDbCircle
 62
7
  6
CONTINUOUS
 10
103.75
 20
111.453125
 40
1.0
100
AcDbArc
 50
0.0
 51
90.0
  0
ARC
  5
2FE
100
AcDbEntity
  8
RUNDUNGEN
100
AcDbCircle
 62
7
  6
CONTINUOUS
 10
98.4275128435
 20
111.4531110737
 40
1.0
100
AcDbArc
 50
90.0001031529
 51
164.9999999974
  0
ARC
  5
2FF
100
AcDbEntity
  8
RUNDUNGEN
100
AcDbCircle
 62
7
  6
CONTINUOUS
 10
98.4929483275
 20
107.707690233
 40
0.9013113347
100
AcDbArc
 50
120.6921650583
 51
165.4065086617
  0
ARC
  5
300
100
AcDbEntity
  8
RUNDUNGEN
100
AcDbCircle
 62
7
  6
CONTINUOUS
 10
99.2115473984
 20
107.5107915897
 40
0.900122438
100
AcDbArc
 50
345.012287536
 51
89.9877125004
  0
ARC
  5
301
100
AcDbEntity
  8
RUNDUNGEN
100
AcDbCircle
 62
7
  6
CONTINUOUS
 10
98.6365699684
 20
107.5108622469
 40
0.9000431977
100
AcDbArc
 50
90.0037839463
 51
164.9962160537
  0
ARC
  5
302
100
AcDbEntity
  8
RUNDUNGEN
100
AcDbCircle
 62
7
  6
CONTINUOUS
 10
98.4858201483
 20
107.7197088873
 40
0.8873378253
100
AcDbArc
 50
89.9852260541
 51
120.6924844855
  0
SPLINE
  5
303
100
AcDbEntity
  8
RUNDUNGEN
100
AcDbSpline
 62
7
  6
CONTINUOUS
 70
0
 71
3
 72
13
 73
9
 74
0
 42
0.0000001
 43
0.0000001
 44
0.0000000001
 40
0.0
 40
0.0
 40
0.0
 40
0.0
 40
0.0705182944
 40
0.1493396724
 40
0.242398516
 40
0.3532522933
 40
0.6348433683
 40
1.0
 40
1.0
 40
1.0
 40
1.0
 10
67.4581665036
 20
140.1406252602
 30
0.0
 10
67.4830446577
 20
140.1406389129
 30
0.0
 10
67.5360504933
 20
140.1509541384
 30
0.0
 10
67.6110583934
 20
140.1942146415
 30
0.0
 10
67.6838725651
 20
140.2633239139
 30
0.0
 10
67.7870849831
 20
140.4006861009
 30
0.0
 10
67.9069170119
 20
140.6414683514
 30
0.0
 10
67.9829950792
 20
140.85677732
 30
0.0
 10
68.0214222925
 20
140.9797361872
 30
0.0
  0
SPLINE
  5
304
100
AcDbEntity
  8
RUNDUNGEN
100
AcDbSpline
 62
7
  6
CONTINUOUS
 70
0
 71
3
 72
9
 73
5
 74
0
 42
0.0000001
 43
0.0000001
 44
0.0000000001
 40
0.0
 40
0.0
 40
0.0
 40
0.0
 40
0.4807937849
 40
1.0
 40
1.0
 40
1.0
 40
1.0
 10
62.1040449409
 20
140.1406233112
 30
0.0
 10
62.2153834244
 20
141.1778979435
 30
0.0
 10
62.3744836109
 20
143.3432360059
 30
0.0
 10
62.4254519215
 20
145.5133221989
 30
0.0
 10
62.4254613763
 20
146.639902932
 30
0.0
  0
SPLINE
  5
305
100
AcDbEntity
  8
RUNDUNGEN
100
AcDbSpline
 62
7
  6
CONTINUOUS
 70
0
 71
3
 72
9
 73
5
 74
0
 42
0.0000001
 43
0.0000001
 44
0.0000000001
 40
0.0
 40
0.0
 40
0.0
 40
0.0
 40
0.519226392
 40
1.0
 40
1.0
 40
1.0
 40
1.0
 10
62.4254613763
 20
146.639902932
 30
0.0
 10
62.4254563983
 20
147.7667774825
 30
0.0
 10
62.3745353191
 20
149.9373464935
 30
0.0
 10
62.2154037585
 20
152.1031663329
 30
0.0
 10
62.1040472031
 20
153.1406278436
 30
0.0
  0
SPLINE
  5
306
100
AcDbEntity
  8
RUNDUNGEN
100
AcDbSpline
 62
7
  6
CONTINUOUS
 70
0
 71
3
 72
10
 73
6
 74
0
 42
0.0000001
 43
0.0000001
 44
0.0000000001
 40
0.0
 40
0.0
 40
0.0
 40
0.0
 40
0.5284316167
 40
0.7746339897
 40
1.0
 40
1.0
 40
1.0
 40
1.0
 10
67.8934556934
 20
146.6411623979
 30
0.0
 10
67.8934657911
 20
146.0769033082
 30
0.0
 10
67.8705062121
 20
145.2493813998
 30
0.0
 10
67.7892538155
 20
144.1845418969
 30
0.0
 10
67.7325284462
 20
143.6840276198
 30
0.0
 10
67.6997459916
 20
143.4456252602
 30
0.0
  0
SPLINE
  5
307
100
AcDbEntity
  8
RUNDUNGEN
100
AcDbSpline
 62
7
  6
CONTINUOUS
 70
0
 71
3
 72
10
 73
6
 74
0
 42
0.0000001
 43
0.0000001
 44
0.0000000001
 40
0.0
 40
0.0
 40
0.0
 40
0.0
 40
0.2253655816
 40
0.4715644998
 40
1.0
 40
1.0
 40
1.0
 40
1.0
 10
67.6997444978
 20
149.8356252602
 30
0.0
 10
67.7325162662
 20
149.5973033177
 30
0.0
 10
67.7892278144
 20
149.0969616747
 30
0.0
 10
67.8704702542
 20
148.0324804492
 30
0.0
 10
67.8934454163
 20
147.2052364908
 30
0.0
 10
67.8934556934
 20
146.6411623979
 30
0.0
  0
LINE
  5
308
100
AcDbEntity
  8
RUNDUNGEN
100
AcDbLine
 62
7
  6
CONTINUOUS
 10
55.6969728593
 20
154.1367456989
 11
55.7498970151
 21
154.1356506198
  0
SPLINE
  5
309
100
AcDbEntity
  8
RUNDUNGEN
100
AcDbSpline
 62
7
  6
CONTINUOUS
 70
0
 71
3
 72
17
 73
13
 74
0
 42
0.0000001
 43
0.0000001
 44
0.0000000001
 40
0.0
 40
0.0
 40
0.0
 40
0.0
 40
0.1548715056
 40
0.3078644194
 40
0.457052906
 40
0.5995714745
 40
0.731326532
 40
0.8467868143
 40
0.8962769486
 40
0.9389796098
 40
0.973878287
 40
1.0
 40
1.0
 40
1.0
 40
1.0
 10
55.7498970151
 20
154.1356506198
 30
0.0
 10
56.0828528669
 20
154.1283342181
 30
0.0
 10
56.7444718857
 20
154.0977462677
 30
0.0
 10
57.7235097851
 20
154.0082510517
 30
0.0
 10
58.6719718144
 20
153.8846814639
 30
0.0
 10
59.5710032153
 20
153.7391522829
 30
0.0
 10
60.3947525135
 20
153.5844801802
 30
0.0
 10
61.019029621
 20
153.4521582481
 30
0.0
 10
61.453254853
 20
153.3479809844
 30
0.0
 10
61.7174574198
 20
153.2777344209
 30
0.0
 10
61.9305705514
 20
153.2120152987
 30
0.0
 10
62.0535666236
 20
153.1652550124
 30
0.0
 10
62.1040474933
 20
153.1406176335
 30
0.0
  0
SPLINE
  5
30A
100
AcDbEntity
  8
RUNDUNGEN
100
AcDbSpline
 62
7
  6
CONTINUOUS
 70
0
 71
3
 72
9
 73
5
 74
0
 42
0.0000001
 43
0.0000001
 44
0.0000000001
 40
0.0
 40
0.0
 40
0.0
 40
0.0
 40
0.5831901314
 40
1.0
 40
1.0
 40
1.0
 40
1.0
 10
55.7500093053
 20
153.9807085991
 30
0.0
 10
55.7438771929
 20
154.0080665037
 30
0.0
 10
55.7322172917
 20
154.0546903982
 30
0.0
 10
55.7163628934
 20
154.1003330636
 30
0.0
 10
55.7075378164
 20
154.1183230808
 30
0.0
  0
SPLINE
  5
30B
100
AcDbEntity
  8
RUNDUNGEN
100
AcDbSpline
 62
7
  6
CONTINUOUS
 70
0
 71
3
 72
9
 73
5
 74
0
 42
0.0000001
 43
0.0000001
 44
0.0000000001
 40
0.0
 40
0.0
 40
0.0
 40
0.0
 40
0.2738707258
 40
1.0
 40
1.0
 40
1.0
 40
1.0
 10
55.7075378164
 20
154.1183230808
 30
0.0
 10
55.7066835658
 20
154.1200644802
 30
0.0
 10
55.7034756846
 20
154.1263772899
 30
0.0
 10
55.6998932473
 20
154.1325126647
 30
0.0
 10
55.6969728593
 20
154.1367456989
 30
0.0
  0
LINE
  5
30C
100
AcDbEntity
  8
RUNDUNGEN
100
AcDbLine
 62
7
  6
CONTINUOUS
 10
55.6969732294
 20
139.1445041196
 11
55.7498904188
 21
139.1455992929
  0
SPLINE
  5
30D
100
AcDbEntity
  8
RUNDUNGEN
100
AcDbSpline
 62
7
  6
CONTINUOUS
 70
0
 71
3
 72
17
 73
13
 74
0
 42
0.0000001
 43
0.0000001
 44
0.0000000001
 40
0.0
 40
0.0
 40
0.0
 40
0.0
 40
0.154870797
 40
0.307865318
 40
0.4570526777
 40
0.5995716172
 40
0.7313265457
 40
0.8467870109
 40
0.8962770659
 40
0.938980178
 40
0.9738784635
 40
1.0
 40
1.0
 40
1.0
 40
1.0
 10
55.7498904188
 20
139.1455992929
 30
0.0
 10
56.0828447144
 20
139.1529171796
 30
0.0
 10
56.744465216
 20
139.1835102731
 30
0.0
 10
57.7235040214
 20
139.2729912413
 30
0.0
 10
58.6719662477
 20
139.3965743714
 30
0.0
 10
59.5709968255
 20
139.5420952316
 30
0.0
 10
60.394747689
 20
139.6967659053
 30
0.0
 10
61.0190223463
 20
139.8290965799
 30
0.0
 10
61.4532524785
 20
139.9332605972
 30
0.0
 10
61.7174482163
 20
140.0035307077
 30
0.0
 10
61.9305717109
 20
140.0692150644
 30
0.0
 10
62.0535629677
 20
140.1159879511
 30
0.0
 10
62.1040393605
 20
140.1406336359
 30
0.0
  0
SPLINE
  5
30E
100
AcDbEntity
  8
RUNDUNGEN
100
AcDbSpline
 62
7
  6
CONTINUOUS
 70
0
 71
3
 72
9
 73
5
 74
0
 42
0.0000001
 43
0.0000001
 44
0.0000000001
 40
0.0
 40
0.0
 40
0.0
 40
0.0
 40
0.1997447145
 40
1.0
 40
1.0
 40
1.0
 40
1.0
 10
55.6969732294
 20
139.1445041196
 30
0.0
 10
55.6993327721
 20
139.1479237888
 30
0.0
 10
55.7100572103
 20
139.1657910693
 30
0.0
 10
55.7175667303
 20
139.1853640383
 30
0.0
 10
55.7229816877
 20
139.2011040085
 30
0.0
  0
SPLINE
  5
30F
100
AcDbEntity
  8
RUNDUNGEN
100
AcDbSpline
 62
7
  6
CONTINUOUS
 70
0
 71
3
 72
9
 73
5
 74
0
 42
0.0000001
 43
0.0000001
 44
0.0000000001
 40
0.0
 40
0.0
 40
0.0
 40
0.0
 40
0.2305592439
 40
1.0
 40
1.0
 40
1.0
 40
1.0
 10
55.7229816877
 20
139.2011040085
 30
0.0
 10
55.724132297
 20
139.2044485513
 30
0.0
 10
55.7289726522
 20
139.219006421
 30
0.0
 10
55.7332717159
 20
139.2337405351
 30
0.0
 10
55.7363752769
 20
139.2451289409
 30
0.0
  0
SPLINE
  5
310
100
AcDbEntity
  8
RUNDUNGEN
100
AcDbSpline
 62
7
  6
CONTINUOUS
 70
0
 71
3
 72
9
 73
5
 74
0
 42
0.0000001
 43
0.0000001
 44
0.0000000001
 40
0.0
 40
0.0
 40
0.0
 40
0.0
 40
0.2334107054
 40
1.0
 40
1.0
 40
1.0
 40
1.0
 10
55.7363752769
 20
139.2451289409
 30
0.0
 10
55.7375417021
 20
139.2494090965
 30
0.0
 10
55.7424111866
 20
139.2677813551
 30
0.0
 10
55.746811865
 20
139.2862759738
 30
0.0
 10
55.7499980163
 20
139.3004932678
 30
0.0
  0
SPLINE
  5
311
100
AcDbEntity
  8
RUNDUNGEN
100
AcDbSpline
 62
7
  6
CONTINUOUS
 70
0
 71
3
 72
11
 73
7
 74
0
 42
0.0000001
 43
0.0000001
 44
0.0000000001
 40
0.0
 40
0.0
 40
0.0
 40
0.0
 40
0.2460348816
 40
0.4943591123
 40
0.7459793674
 40
1.0
 40
1.0
 40
1.0
 40
1.0
 10
99.723351187
 20
154.1406252602
 30
0.0
 10
99.6107407276
 20
154.1406252606
 30
0.0
 10
99.3818932548
 20
154.1874876671
 30
0.0
 10
99.0940383334
 20
154.3868877714
 30
0.0
 10
98.9011820323
 20
154.6830526195
 30
0.0
 10
98.8550309112
 20
154.9165102911
 30
0.0
 10
98.8540509155
 20
155.0327717082
 30
0.0
  0
SPLINE
  5
312
100
AcDbEntity
  8
RUNDUNGEN
100
AcDbSpline
 62
7
  6
CONTINUOUS
 70
0
 71
3
 72
15
 73
11
 74
0
 42
0.0000001
 43
0.0000001
 44
0.0000000001
 40
0.0
 40
0.0
 40
0.0
 40
0.0
 40
0.0395927901
 40
0.08430998
 40
0.1870215517
 40
0.3041513812
 40
0.4321123478
 40
0.5679129821
 40
0.7091178381
 40
1.0
 40
1.0
 40
1.0
 40
1.0
 10
85.7430317522
 20
152.0952300739
 30
0.0
 10
85.6988018611
 20
152.0096292205
 30
0.0
 10
85.5955694865
 20
151.8320160296
 30
0.0
 10
85.3423272292
 20
151.4536427798
 30
0.0
 10
84.9479844395
 20
150.9439438714
 30
0.0
 10
84.3990294256
 20
150.2995761013
 30
0.0
 10
83.7772680436
 20
149.6119589483
 30
0.0
 10
83.1028356631
 20
148.8933208338
 30
0.0
 10
82.1454010105
 20
147.8966702329
 30
0.0
 10
81.4088950308
 20
147.1461480833
 30
0.0
 10
80.9133650601
 20
146.6406252602
 30
0.0
  0
SPLINE
  5
313
100
AcDbEntity
  8
RUNDUNGEN
100
AcDbSpline
 62
7
  6
CONTINUOUS
 70
0
 71
3
 72
15
 73
11
 74
0
 42
0.0000001
 43
0.0000001
 44
0.0000000001
 40
0.0
 40
0.0
 40
0.0
 40
0.0
 40
0.2908671543
 40
0.4320737552
 40
0.5678778951
 40
0.6958419943
 40
0.8129740751
 40
0.9156881818
 40
0.9604067013
 40
1.0
 40
1.0
 40
1.0
 40
1.0
 10
80.9133650601
 20
146.6406252602
 30
0.0
 10
81.4088798849
 20
146.1351388377
 30
0.0
 10
82.1453501986
 20
145.384627073
 30
0.0
 10
83.1027712213
 20
144.3879965831
 30
0.0
 10
83.7772192789
 20
143.6693453061
 30
0.0
 10
84.3989958035
 20
142.9817128625
 30
0.0
 10
84.9479661442
 20
142.3373328645
 30
0.0
 10
85.3423166847
 20
141.8276212343
 30
0.0
 10
85.595566274
 20
141.4492401778
 30
0.0
 10
85.6988011918
 20
141.271623264
 30
0.0
 10
85.7430313839
 20
141.1860211842
 30
0.0
  0
SPLINE
  5
314
100
AcDbEntity
  8
RUNDUNGEN
100
AcDbSpline
 62
7
  6
CONTINUOUS
 70
0
 71
3
 72
11
 73
7
 74
0
 42
0.0000001
 43
0.0000001
 44
0.0000000001
 40
0.0
 40
0.0
 40
0.0
 40
0.0
 40
0.2477101266
 40
0.496836802
 40
0.7477927309
 40
1.0
 40
1.0
 40
1.0
 40
1.0
 10
54.7623692494
 20
153.1551556519
 30
0.0
 10
54.7807554457
 20
153.2687033685
 30
0.0
 10
54.8597283219
 20
153.4917669477
 30
0.0
 10
55.0881267331
 20
153.7627099192
 30
0.0
 10
55.3972143242
 20
153.9398735014
 30
0.0
 10
55.6328850311
 20
153.9807472645
 30
0.0
 10
55.75
 20
153.9807472864
 30
0.0
  0
SPLINE
  5
315
100
AcDbEntity
  8
RUNDUNGEN
100
AcDbSpline
 62
7
  6
CONTINUOUS
 70
0
 71
3
 72
15
 73
11
 74
0
 42
0.0000001
 43
0.0000001
 44
0.0000000001
 40
0.0
 40
0.0
 40
0.0
 40
0.0
 40
0.0416695545
 40
0.0893743562
 40
0.1986284137
 40
0.3207198379
 40
0.4507175887
 40
0.5853659697
 40
0.7225897006
 40
1.0
 40
1.0
 40
1.0
 40
1.0
 10
99.1092511612
 20
140.1406192436
 30
0.0
 10
99.152755586
 20
140.1068240434
 30
0.0
 10
99.250904491
 20
140.0405918506
 30
0.0
 10
99.4793377109
 20
139.9108340808
 30
0.0
 10
99.8146827674
 20
139.7556941576
 30
0.0
 10
100.2613357523
 20
139.5855514066
 30
0.0
 10
100.7498317026
 20
139.4334943225
 30
0.0
 10
101.2662577438
 20
139.307094445
 30
0.0
 10
101.9816217273
 20
139.1803428485
 30
0.0
 10
102.5307580761
 20
139.1406253573
 30
0.0
 10
102.8975039373
 20
139.140626866
 30
0.0
  0
SPLINE
  5
316
100
AcDbEntity
  8
RUNDUNGEN
100
AcDbSpline
 62
7
  6
CONTINUOUS
 70
0
 71
3
 72
15
 73
11
 74
0
 42
0.0000001
 43
0.0000001
 44
0.0000000001
 40
0.0
 40
0.0
 40
0.0
 40
0.0
 40
0.2774074412
 40
0.4146311545
 40
0.549279485
 40
0.6792773736
 40
0.8013698215
 40
0.9106253049
 40
0.9583306843
 40
1.0
 40
1.0
 40
1.0
 40
1.0
 10
102.8978383593
 20
154.1406248572
 30
0.0
 10
102.5310670504
 20
154.1406422656
 30
0.0
 10
101.9818892344
 20
154.1009402629
 30
0.0
 10
101.2664674946
 20
153.9742040378
 30
0.0
 10
100.7499984887
 20
153.8478007102
 30
0.0
 10
100.2614585057
 20
153.6957434396
 30
0.0
 10
99.8147631391
 20
153.5255946219
 30
0.0
 10
99.4793884226
 20
153.3704388955
 30
0.0
 10
99.2509321331
 20
153.2406757089
 30
0.0
 10
99.1527706504
 20
153.1744436163
 30
0.0
 10
99.1092650296
 20
153.1406433144
 30
0.0
  0
SPLINE
  5
317
100
AcDbEntity
  8
RUNDUNGEN
100
AcDbSpline
 62
7
  6
CONTINUOUS
 70
0
 71
3
 72
11
 73
7
 74
0
 42
0.0000001
 43
0.0000001
 44
0.0000000001
 40
0.0
 40
0.0
 40
0.0
 40
0.0
 40
0.2477102817
 40
0.4968370016
 40
0.7477928605
 40
1.0
 40
1.0
 40
1.0
 40
1.0
 10
54.7623691841
 20
140.1260927765
 30
0.0
 10
54.7807553345
 20
140.0125448821
 30
0.0
 10
54.8597281155
 20
139.7894809672
 30
0.0
 10
55.0881264992
 20
139.5185375002
 30
0.0
 10
55.397214172
 20
139.3413735775
 30
0.0
 10
55.6328849933
 20
139.3004997504
 30
0.0
 10
55.75
 20
139.3004997423
 30
0.0
  0
SPLINE
  5
318
100
AcDbEntity
  8
RUNDUNGEN
100
AcDbSpline
 62
7
  6
CONTINUOUS
 70
0
 71
3
 72
16
 73
12
 74
0
 42
0.0000001
 43
0.0000001
 44
0.0000000001
 40
0.0
 40
0.0
 40
0.0
 40
0.0
 40
0.0357137823
 40
0.0772862631
 40
0.1242542312
 40
0.1760656232
 40
0.2919015678
 40
0.4204866156
 40
0.5582357937
 40
0.702257179
 40
1.0
 40
1.0
 40
1.0
 40
1.0
 10
68.0214115129
 20
152.3015566933
 30
0.0
 10
68.0540111442
 20
152.2180826523
 30
0.0
 10
68.1385349555
 20
152.0429305332
 30
0.0
 10
68.2989769286
 20
151.775365708
 30
0.0
 10
68.4985465113
 20
151.4849777748
 30
0.0
 10
68.8228070977
 20
151.0548908675
 30
0.0
 10
69.298616148
 20
150.48336328
 30
0.0
 10
69.9374715589
 20
149.7681120782
 30
0.0
 10
70.6399664189
 20
149.0152141584
 30
0.0
 10
71.646088689
 20
147.9653240601
 30
0.0
 10
72.4224853961
 20
147.1741245339
 30
0.0
 10
72.9454981559
 20
146.6406252602
 30
0.0
  0
SPLINE
  5
319
100
AcDbEntity
  8
RUNDUNGEN
100
AcDbSpline
 62
7
  6
CONTINUOUS
 70
0
 71
3
 72
16
 73
12
 74
0
 42
0.0000001
 43
0.0000001
 44
0.0000000001
 40
0.0
 40
0.0
 40
0.0
 40
0.0
 40
0.0357135547
 40
0.0772871389
 40
0.1242557133
 40
0.1760675579
 40
0.2919044455
 40
0.4204899782
 40
0.5582397196
 40
0.7022618171
 40
1.0
 40
1.0
 40
1.0
 40
1.0
 10
68.021422297
 20
140.9797250075
 30
0.0
 10
68.0540225403
 20
141.0631977725
 30
0.0
 10
68.1385505712
 20
141.2383493773
 30
0.0
 10
68.2989965713
 20
141.505914422
 30
0.0
 10
68.498571241
 20
141.7963035857
 30
0.0
 10
68.8228368788
 20
142.2263899488
 30
0.0
 10
69.2986465657
 20
142.7979187873
 30
0.0
 10
69.9375031443
 20
143.5131700098
 30
0.0
 10
70.6399970495
 20
144.2660686487
 30
0.0
 10
71.6461116956
 20
145.3159454794
 30
0.0
 10
72.4224926152
 20
146.1071398196
 30
0.0
 10
72.9454981559
 20
146.6406252602
 30
0.0
  0
SPLINE
  5
31A
100
AcDbEntity
  8
RUNDUNGEN
100
AcDbSpline
 62
7
  6
CONTINUOUS
 70
0
 71
3
 72
13
 73
9
 74
0
 42
0.0000001
 43
0.0000001
 44
0.0000000001
 40
0.0
 40
0.0
 40
0.0
 40
0.0
 40
0.3393912925
 40
0.6115727431
 40
0.7246787124
 40
0.8248059958
 40
0.9151123867
 40
1.0
 40
1.0
 40
1.0
 40
1.0
 10
85.7430313858
 20
141.1860256767
 30
0.0
 10
85.8070589131
 20
141.0311711567
 30
0.0
 10
85.9360975838
 20
140.7574655451
 30
0.0
 10
86.1387054166
 20
140.4589491362
 30
0.0
 10
86.3108425057
 20
140.290976462
 30
0.0
 10
86.4348251725
 20
140.2051819098
 30
0.0
 10
86.5614836521
 20
140.1526537701
 30
0.0
 10
86.648356637
 20
140.1406342225
 30
0.0
 10
86.6902685891
 20
140.1406252602
 30
0.0
  0
SPLINE
  5
31B
100
AcDbEntity
  8
RUNDUNGEN
100
AcDbSpline
 62
7
  6
CONTINUOUS
 70
0
 71
3
 72
9
 73
5
 74
0
 42
0.0000001
 43
0.0000001
 44
0.0000000001
 40
0.0
 40
0.0
 40
0.0
 40
0.0
 40
0.747979149
 40
1.0
 40
1.0
 40
1.0
 40
1.0
 10
100.4711189488
 20
154.1916403021
 30
0.0
 10
100.4314388163
 20
154.2475897406
 30
0.0
 10
100.3880626789
 20
154.3299924865
 30
0.0
 10
100.3597946053
 20
154.4172714297
 30
0.0
 10
100.3536165693
 20
154.4395414382
 30
0.0
  0
SPLINE
  5
31C
100
AcDbEntity
  8
RUNDUNGEN
100
AcDbSpline
 62
7
  6
CONTINUOUS
 70
0
 71
3
 72
11
 73
7
 74
0
 42
0.0000001
 43
0.0000001
 44
0.0000000001
 40
0.0
 40
0.0
 40
0.0
 40
0.0
 40
0.2460392503
 40
0.4943665155
 40
0.7459857134
 40
1.0
 40
1.0
 40
1.0
 40
1.0
 10
100.5789774623
 20
154.1406271449
 30
0.0
 10
100.4665071844
 20
154.1408673557
 30
0.0
 10
100.2380507743
 20
154.1880839624
 30
0.0
 10
99.9508323603
 20
154.3875909674
 30
0.0
 10
99.7584539778
 20
154.6835050433
 30
0.0
 10
99.7124208821
 20
154.9166593856
 30
0.0
 10
99.7114421152
 20
155.0327713782
 30
0.0
  0
SPLINE
  5
31D
100
AcDbEntity
  8
RUNDUNGEN
100
AcDbSpline
 62
7
  6
CONTINUOUS
 70
0
 71
3
 72
17
 73
13
 74
0
 42
0.0000001
 43
0.0000001
 44
0.0000000001
 40
0.0
 40
0.0
 40
0.0
 40
0.0
 40
0.0323477247
 40
0.0618940652
 40
0.1278199391
 40
0.1700878541
 40
0.2193641825
 40
0.3380897498
 40
0.4806597345
 40
0.6422861398
 40
0.8175112192
 40
1.0
 40
1.0
 40
1.0
 40
1.0
 10
81.2159061849
 20
153.8592806655
 30
0.0
 10
81.1984635911
 20
153.8430515894
 30
0.0
 10
81.168750521
 20
153.8071090365
 30
0.0
 10
81.1410763639
 20
153.7140360766
 30
0.0
 10
81.1793413486
 20
153.6110547682
 30
0.0
 10
81.2495010362
 20
153.5195095345
 30
0.0
 10
81.3609203357
 20
153.4107888779
 30
0.0
 10
81.5510511056
 20
153.2813178561
 30
0.0
 10
81.8321662167
 20
153.1451626691
 30
0.0
 10
82.1683165669
 20
153.033805799
 30
0.0
 10
82.544622417
 20
152.9599359408
 30
0.0
 10
82.8084253276
 20
152.9428765126
 30
0.0
 10
82.9428329603
 20
152.9428376395
 30
0.0
  0
SPLINE
  5
31E
100
AcDbEntity
  8
RUNDUNGEN
100
AcDbSpline
 62
7
  6
CONTINUOUS
 70
0
 71
3
 72
22
 73
18
 74
0
 42
0.0000001
 43
0.0000001
 44
0.0000000001
 40
0.0
 40
0.0
 40
0.0
 40
0.0
 40
0.0012444441
 40
0.0048519488
 40
0.0108721448
 40
0.0192879899
 40
0.0300666566
 40
0.0431742162
 40
0.0762384051
 40
0.118203714
 40
0.1687043455
 40
0.2271791215
 40
0.2930404061
 40
0.4444775135
 40
0.6173560623
 40
0.8052575778
 40
1.0
 40
1.0
 40
1.0
 40
1.0
 10
82.2647616524
 20
173.1953648027
 30
0.0
 10
82.2647365384
 20
173.1957372882
 30
0.0
 10
82.2669911798
 20
173.1957031866
 30
0.0
 10
82.2694632154
 20
173.1962748992
 30
0.0
 10
82.2753106769
 20
173.1964106565
 30
0.0
 10
82.2826751059
 20
173.1967599967
 30
0.0
 10
82.2924375426
 20
173.1969896804
 30
0.0
 10
82.3094838949
 20
173.1973366537
 30
0.0
 10
82.3359462682
 20
173.1976449732
 30
0.0
 10
82.3735944495
 20
173.1978982645
 30
0.0
 10
82.4188798059
 20
173.1980279065
 30
0.0
 10
82.4713293955
 20
173.1980408892
 30
0.0
 10
82.5540612634
 20
173.1978884982
 30
0.0
 10
82.6711124364
 20
173.1973680569
 30
0.0
 10
82.8247733643
 20
173.1963215604
 30
0.0
 10
82.9914227878
 20
173.1948558223
 30
0.0
 10
83.106209048
 20
173.1936488071
 30
0.0
 10
83.1646276682
 20
173.1929844694
 30
0.0
  0
SPLINE
  5
31F
100
AcDbEntity
  8
RUNDUNGEN
100
AcDbSpline
 62
7
  6
CONTINUOUS
 70
0
 71
3
 72
9
 73
5
 74
0
 42
0.0000001
 43
0.0000001
 44
0.0000000001
 40
0.0
 40
0.0
 40
0.0
 40
0.0
 40
0.2591283877
 40
1.0
 40
1.0
 40
1.0
 40
1.0
 10
83.9241834976
 20
152.9428376395
 30
0.0
 10
84.003632739
 20
152.9428689973
 30
0.0
 10
84.3101006985
 20
152.9546367573
 30
0.0
 10
84.6149632287
 20
153.0119629097
 30
0.0
 10
84.8316887769
 20
153.0799948833
 30
0.0
  0
SPLINE
  5
320
100
AcDbEntity
  8
RUNDUNGEN
100
AcDbSpline
 62
7
  6
CONTINUOUS
 70
0
 71
3
 72
19
 73
15
 74
0
 42
0.0000001
 43
0.0000001
 44
0.0000000001
 40
0.0
 40
0.0
 40
0.0
 40
0.0
 40
0.0293182772
 40
0.0605863426
 40
0.0954288756
 40
0.1349459224
 40
0.1798064456
 40
0.2303548715
 40
0.2867006065
 40
0.3487720332
 40
0.4890270422
 40
0.6478962771
 40
0.8203406824
 40
1.0
 40
1.0
 40
1.0
 40
1.0
 10
102.8976805905
 20
154.1406252602
 30
0.0
 10
102.81585276
 20
154.1406334293
 30
0.0
 10
102.6459355324
 20
154.1158934107
 30
0.0
 10
102.3997621881
 20
154.007723287
 30
0.0
 10
102.1608455508
 20
153.8317810015
 30
0.0
 10
101.9300696288
 20
153.5903198566
 30
0.0
 10
101.7082566897
 20
153.2849025841
 30
0.0
 10
101.4968559213
 20
152.9171523747
 30
0.0
 10
101.2975635601
 20
152.4892177734
 30
0.0
 10
101.0400651565
 20
151.8142188299
 30
0.0
 10
100.7691241502
 20
150.8409847407
 30
0.0
 10
100.53257369
 20
149.5448778178
 30
0.0
 10
100.3851546652
 20
148.1251236837
 30
0.0
 10
100.3520073059
 20
147.1420575971
 30
0.0
 10
100.3519865786
 20
146.6406252602
 30
0.0
  0
SPLINE
  5
321
100
AcDbEntity
  8
RUNDUNGEN
100
AcDbSpline
 62
7
  6
CONTINUOUS
 70
0
 71
3
 72
9
 73
5
 74
0
 42
0.0000001
 43
0.0000001
 44
0.0000000001
 40
0.0
 40
0.0
 40
0.0
 40
0.0
 40
0.2453843811
 40
1.0
 40
1.0
 40
1.0
 40
1.0
 10
84.8316887769
 20
153.0799948833
 30
0.0
 10
84.8270752366
 20
153.0681337034
 30
0.0
 10
84.8082397283
 20
153.0198097961
 30
0.0
 10
84.7902703706
 20
152.9711499656
 30
0.0
 10
84.7770683653
 20
152.9343057686
 30
0.0
  0
SPLINE
  5
322
100
AcDbEntity
  8
RUNDUNGEN
100
AcDbSpline
 62
7
  6
CONTINUOUS
 70
0
 71
3
 72
14
 73
10
 74
0
 42
0.0000001
 43
0.0000001
 44
0.0000000001
 40
0.0
 40
0.0
 40
0.0
 40
0.0
 40
0.0903647458
 40
0.1967253038
 40
0.3153022256
 40
0.4429426085
 40
0.5770989854
 40
0.7157312117
 40
1.0
 40
1.0
 40
1.0
 40
1.0
 10
84.7770683653
 20
152.9343057686
 30
0.0
 10
84.7019117375
 20
152.7245595066
 30
0.0
 10
84.5029209943
 20
152.2809134552
 30
0.0
 10
84.1354701409
 20
151.5956976805
 30
0.0
 10
83.6926003984
 20
150.8473775458
 30
0.0
 10
83.1941270887
 20
150.0529133302
 30
0.0
 10
82.6554323043
 20
149.2254785507
 30
0.0
 10
81.8938091284
 20
148.0824822531
 30
0.0
 10
81.3075183351
 20
147.2201951389
 30
0.0
 10
80.9133650601
 20
146.6406252602
 30
0.0
  0
SPLINE
  5
323
100
AcDbEntity
  8
RUNDUNGEN
100
AcDbSpline
 62
7
  6
CONTINUOUS
 70
0
 71
3
 72
14
 73
10
 74
0
 42
0.0000001
 43
0.0000001
 44
0.0000000001
 40
0.0
 40
0.0
 40
0.0
 40
0.0
 40
0.2842561889
 40
0.4228896993
 40
0.5570490735
 40
0.6846921077
 40
0.8032709047
 40
0.9096336271
 40
1.0
 40
1.0
 40
1.0
 40
1.0
 10
80.9133650601
 20
146.6406252602
 30
0.0
 10
81.3074941237
 20
146.06107648
 30
0.0
 10
81.8937782803
 20
145.1988185889
 30
0.0
 10
82.6553887784
 20
144.0558384468
 30
0.0
 10
83.1940925662
 20
143.228389143
 30
0.0
 10
83.6925782777
 20
142.4339108308
 30
0.0
 10
84.1354584378
 20
141.6855776161
 30
0.0
 10
84.5029145579
 20
141.0003488313
 30
0.0
 10
84.7019102274
 20
140.5566947353
 30
0.0
 10
84.7770683653
 20
140.3469447517
 30
0.0
  0
SPLINE
  5
324
100
AcDbEntity
  8
RUNDUNGEN
100
AcDbSpline
 62
7
  6
CONTINUOUS
 70
0
 71
3
 72
14
 73
10
 74
0
 42
0.0000001
 43
0.0000001
 44
0.0000000001
 40
0.0
 40
0.0
 40
0.0
 40
0.0
 40
0.3510682394
 40
0.4985898707
 40
0.6278129165
 40
0.7398238121
 40
0.8366405999
 40
0.9216511547
 40
1.0
 40
1.0
 40
1.0
 40
1.0
 10
84.7770683653
 20
140.3469447517
 30
0.0
 10
84.840656798
 20
140.1694823451
 30
0.0
 10
84.9418271271
 20
139.9205694441
 30
0.0
 10
85.1044534783
 20
139.6248660614
 30
0.0
 10
85.2224168024
 20
139.4521360188
 30
0.0
 10
85.3432051991
 20
139.3158107706
 30
0.0
 10
85.4669812095
 20
139.2163373593
 30
0.0
 10
85.594090564
 20
139.1548928197
 30
0.0
 10
85.6822720595
 20
139.1406323974
 30
0.0
 10
85.7243425654
 20
139.1406252679
 30
0.0
  0
SPLINE
  5
325
100
AcDbEntity
  8
RUNDUNGEN
100
AcDbSpline
 62
7
  6
CONTINUOUS
 70
0
 71
3
 72
15
 73
11
 74
0
 42
0.0000001
 43
0.0000001
 44
0.0000000001
 40
0.0
 40
0.0
 40
0.0
 40
0.0
 40
0.039570138
 40
0.0843829536
 40
0.1875285991
 40
0.3051336045
 40
0.4333596799
 40
0.569157723
 40
0.7101175423
 40
1.0
 40
1.0
 40
1.0
 40
1.0
 10
69.0062671438
 20
140.1089410269
 30
0.0
 10
69.0326355851
 20
140.2062930456
 30
0.0
 10
69.1010138466
 20
140.4106076732
 30
0.0
 10
69.285394593
 20
140.8518438921
 30
0.0
 10
69.5941042373
 20
141.455133556
 30
0.0
 10
70.039117168
 20
142.2254230142
 30
0.0
 10
70.5519580328
 20
143.0521362381
 30
0.0
 10
71.1128941687
 20
143.9187175098
 30
0.0
 10
71.912481838
 20
145.1215235852
 30
0.0
 10
72.5300123381
 20
146.0296324937
 30
0.0
 10
72.9454981559
 20
146.6406252602
 30
0.0
  0
SPLINE
  5
326
100
AcDbEntity
  8
RUNDUNGEN
100
AcDbSpline
 62
7
  6
CONTINUOUS
 70
0
 71
3
 72
15
 73
11
 74
0
 42
0.0000001
 43
0.0000001
 44
0.0000000001
 40
0.0
 40
0.0
 40
0.0
 40
0.0
 40
0.039570279
 40
0.0843826639
 40
0.1875277795
 40
0.3051322905
 40
0.4333580106
 40
0.56915544
 40
0.710114391
 40
1.0
 40
1.0
 40
1.0
 40
1.0
 10
69.0062671438
 20
153.1723094934
 30
0.0
 10
69.0326379007
 20
153.0749577221
 30
0.0
 10
69.1010125153
 20
152.8706429567
 30
0.0
 10
69.2853867156
 20
152.4294058845
 30
0.0
 10
69.5941026037
 20
151.8261233942
 30
0.0
 10
70.0391088325
 20
151.0558343002
 30
0.0
 10
70.5519505624
 20
150.2291257688
 30
0.0
 10
71.1128845468
 20
149.362548654
 30
0.0
 10
71.9124752437
 20
148.1597393533
 30
0.0
 10
72.5300044186
 20
147.2516224187
 30
0.0
 10
72.9454981559
 20
146.6406252602
 30
0.0
  0
SPLINE
  5
327
100
AcDbEntity
  8
RUNDUNGEN
100
AcDbSpline
 62
7
  6
CONTINUOUS
 70
0
 71
3
 72
11
 73
7
 74
0
 42
0.0000001
 43
0.0000001
 44
0.0000000001
 40
0.0
 40
0.0
 40
0.0
 40
0.0
 40
0.2320957382
 40
0.4805100529
 40
0.7397855553
 40
1.0
 40
1.0
 40
1.0
 40
1.0
 10
85.7429894858
 20
152.0951483676
 30
0.0
 10
85.7261437904
 20
152.1991056023
 30
0.0
 10
85.6461905538
 20
152.4083469656
 30
0.0
 10
85.4241293523
 20
152.6672692964
 30
0.0
 10
85.1251284988
 20
152.8553716561
 30
0.0
 10
84.8942672668
 20
152.9199633181
 30
0.0
 10
84.7770683655
 20
152.934296508
 30
0.0
  0
SPLINE
  5
328
100
AcDbEntity
  8
RUNDUNGEN
100
AcDbSpline
 62
7
  6
CONTINUOUS
 70
0
 71
3
 72
9
 73
5
 74
0
 42
0.0000001
 43
0.0000001
 44
0.0000000001
 40
0.0
 40
0.0
 40
0.0
 40
0.0
 40
0.5728441608
 40
1.0
 40
1.0
 40
1.0
 40
1.0
 10
84.8317559808
 20
153.0801484864
 30
0.0
 10
84.9499093914
 20
153.149193719
 30
0.0
 10
85.154408301
 20
153.2736279269
 30
0.0
 10
85.3273375724
 20
153.4449373331
 30
0.0
 10
85.3837660084
 20
153.5299602942
 30
0.0
  0
SPLINE
  5
329
100
AcDbEntity
  8
RUNDUNGEN
100
AcDbSpline
 62
7
  6
CONTINUOUS
 70
0
 71
3
 72
11
 73
7
 74
0
 42
0.0000001
 43
0.0000001
 44
0.0000000001
 40
0.0
 40
0.0
 40
0.0
 40
0.0
 40
0.3096588224
 40
0.5721662661
 40
0.7969025435
 40
1.0
 40
1.0
 40
1.0
 40
1.0
 10
85.3837660084
 20
153.5299602942
 30
0.0
 10
85.4370629459
 20
153.6101972209
 30
0.0
 10
85.5443126672
 20
153.7531320588
 30
0.0
 10
85.7260453549
 20
153.9241504777
 30
0.0
 10
85.9154205052
 20
154.031107603
 30
0.0
 10
86.0493543122
 20
154.0562977126
 30
0.0
 10
86.1125315388
 20
154.0563112081
 30
0.0
  0
SPLINE
  5
32A
100
AcDbEntity
  8
RUNDUNGEN
100
AcDbSpline
 62
7
  6
CONTINUOUS
 70
0
 71
3
 72
11
 73
7
 74
0
 42
0.0000001
 43
0.0000001
 44
0.0000000001
 40
0.0
 40
0.0
 40
0.0
 40
0.0
 40
0.2527202013
 40
0.504114513
 40
0.7532728986
 40
1.0
 40
1.0
 40
1.0
 40
1.0
 10
86.6902685891
 20
153.1406252602
 30
0.0
 10
86.6902685886
 20
153.2366576607
 30
0.0
 10
86.6633165373
 20
153.4292948335
 30
0.0
 10
86.5450429062
 20
153.6940182924
 30
0.0
 10
86.3587343034
 20
153.913330299
 30
0.0
 10
86.1978898515
 20
154.0175323613
 30
0.0
 10
86.1125326954
 20
154.0563159381
 30
0.0
  0
SPLINE
  5
32B
100
AcDbEntity
  8
RUNDUNGEN
100
AcDbSpline
 62
7
  6
CONTINUOUS
 70
0
 71
3
 72
11
 73
7
 74
0
 42
0.0000001
 43
0.0000001
 44
0.0000000001
 40
0.0
 40
0.0
 40
0.0
 40
0.0
 40
0.2527201652
 40
0.5041144641
 40
0.7532728619
 40
1.0
 40
1.0
 40
1.0
 40
1.0
 10
99.1092481624
 20
153.1406281612
 30
0.0
 10
99.109247849
 20
153.236660388
 30
0.0
 10
99.0822952668
 20
153.4292971293
 30
0.0
 10
98.9640211884
 20
153.6940198282
 30
0.0
 10
98.7777124763
 20
153.9133311108
 30
0.0
 10
98.6168681539
 20
154.0175327942
 30
0.0
 10
98.5315110906
 20
154.0563162316
 30
0.0
  0
SPLINE
  5
32C
100
AcDbEntity
  8
RUNDUNGEN
100
AcDbSpline
 62
7
  6
CONTINUOUS
 70
0
 71
3
 72
10
 73
6
 74
0
 42
0.0000001
 43
0.0000001
 44
0.0000000001
 40
0.0
 40
0.0
 40
0.0
 40
0.0
 40
0.2015407177
 40
0.4425650723
 40
1.0
 40
1.0
 40
1.0
 40
1.0
 10
98.5315118083
 20
154.0563169103
 30
0.0
 10
98.6117922942
 20
154.0563347637
 30
0.0
 10
98.7879806636
 20
154.0680462847
 30
0.0
 10
99.1836902576
 20
154.1114908979
 30
0.0
 10
99.5013109631
 20
154.140623627
 30
0.0
 10
99.723356158
 20
154.1406259201
 30
0.0
  0
SPLINE
  5
32D
100
AcDbEntity
  8
RUNDUNGEN
100
AcDbSpline
 62
7
  6
CONTINUOUS
 70
0
 71
3
 72
11
 73
7
 74
0
 42
0.0000001
 43
0.0000001
 44
0.0000000001
 40
0.0
 40
0.0
 40
0.0
 40
0.0
 40
0.2540211637
 40
0.5056596397
 40
0.7539853717
 40
1.0
 40
1.0
 40
1.0
 40
1.0
 10
99.1092459922
 20
140.1406243583
 30
0.0
 10
99.1092460415
 20
140.0107149817
 30
0.0
 10
99.0595906552
 20
139.7493997723
 30
0.0
 10
98.8458268785
 20
139.4172354461
 30
0.0
 10
98.5248584009
 20
139.1932919742
 30
0.0
 10
98.2691346686
 20
139.1406252587
 30
0.0
 10
98.1433199273
 20
139.1406252602
 30
0.0
  0
SPLINE
  5
32E
100
AcDbEntity
  8
RUNDUNGEN
100
AcDbSpline
 62
7
  6
CONTINUOUS
 70
0
 71
3
 72
11
 73
7
 74
0
 42
0.0000001
 43
0.0000001
 44
0.0000000001
 40
0.0
 40
0.0
 40
0.0
 40
0.0
 40
0.2540212502
 40
0.505659753
 40
0.7539854579
 40
1.0
 40
1.0
 40
1.0
 40
1.0
 10
86.6902685891
 20
140.1406252602
 30
0.0
 10
86.6902685891
 20
140.0107157956
 30
0.0
 10
86.6406132294
 20
139.7494004737
 30
0.0
 10
86.4268496947
 20
139.4172357866
 30
0.0
 10
86.1058812604
 20
139.1932920607
 30
0.0
 10
85.8501575024
 20
139.1406252602
 30
0.0
 10
85.7243427628
 20
139.1406252602
 30
0.0
  0
SPLINE
  5
32F
100
AcDbEntity
  8
RUNDUNGEN
100
AcDbSpline
 62
7
  6
CONTINUOUS
 70
0
 71
3
 72
11
 73
7
 74
0
 42
0.0000001
 43
0.0000001
 44
0.0000000001
 40
0.0
 40
0.0
 40
0.0
 40
0.0
 40
0.2320955774
 40
0.4805099236
 40
0.7397855526
 40
1.0
 40
1.0
 40
1.0
 40
1.0
 10
85.7429941915
 20
141.1861021529
 30
0.0
 10
85.7261486061
 20
141.0821444659
 30
0.0
 10
85.6461952605
 20
140.8729020407
 30
0.0
 10
85.424133089
 20
140.6139783553
 30
0.0
 10
85.1251305444
 20
140.4258752841
 30
0.0
 10
84.8942678924
 20
140.361283959
 30
0.0
 10
84.7770683652
 20
140.3469512431
 30
0.0
  0
SPLINE
  5
330
100
AcDbEntity
  8
RUNDUNGEN
100
AcDbSpline
 62
7
  6
CONTINUOUS
 70
0
 71
3
 72
11
 73
7
 74
0
 42
0.0000001
 43
0.0000001
 44
0.0000000001
 40
0.0
 40
0.0
 40
0.0
 40
0.0
 40
0.2604814347
 40
0.5182469616
 40
0.7656685926
 40
1.0
 40
1.0
 40
1.0
 40
1.0
 10
69.0062671437
 20
153.172294105
 30
0.0
 10
68.8836306757
 20
153.1630375789
 30
0.0
 10
68.6409935799
 20
153.1044593378
 30
0.0
 10
68.3284654005
 20
152.9109243076
 30
0.0
 10
68.1032866602
 20
152.6350487977
 30
0.0
 10
68.0321025769
 20
152.4115451233
 30
0.0
 10
68.0214728522
 20
152.3014182628
 30
0.0
  0
SPLINE
  5
331
100
AcDbEntity
  8
RUNDUNGEN
100
AcDbSpline
 62
7
  6
CONTINUOUS
 70
0
 71
3
 72
11
 73
7
 74
0
 42
0.0000001
 43
0.0000001
 44
0.0000000001
 40
0.0
 40
0.0
 40
0.0
 40
0.0
 40
0.2482605022
 40
0.4975003067
 40
0.7482033348
 40
1.0
 40
1.0
 40
1.0
 40
1.0
 10
68.4429742566
 20
154.1406252602
 30
0.0
 10
68.3147992249
 20
154.1406252602
 30
0.0
 10
68.055055286
 20
154.0883288392
 30
0.0
 10
67.7278002284
 20
153.8651094078
 30
0.0
 10
67.5091208161
 20
153.5328626856
 30
0.0
 10
67.4581665048
 20
153.2706259862
 30
0.0
 10
67.4581665036
 20
153.1406252602
 30
0.0
  0
SPLINE
  5
332
100
AcDbEntity
  8
RUNDUNGEN
100
AcDbSpline
 62
7
  6
CONTINUOUS
 70
0
 71
3
 72
11
 73
7
 74
0
 42
0.0000001
 43
0.0000001
 44
0.0000000001
 40
0.0
 40
0.0
 40
0.0
 40
0.0
 40
0.248260517
 40
0.4975003281
 40
0.7482033501
 40
1.0
 40
1.0
 40
1.0
 40
1.0
 10
63.0888381325
 20
154.1406252602
 30
0.0
 10
62.9606633225
 20
154.1406252045
 30
0.0
 10
62.7009198716
 20
154.0883288782
 30
0.0
 10
62.37366524
 20
153.8651101381
 30
0.0
 10
62.1549857103
 20
153.5328643998
 30
0.0
 10
62.1040308802
 20
153.2706283293
 30
0.0
 10
62.1040305267
 20
153.1406278436
 30
0.0
  0
SPLINE
  5
333
100
AcDbEntity
  8
RUNDUNGEN
100
AcDbSpline
 62
7
  6
CONTINUOUS
 70
0
 71
3
 72
11
 73
7
 74
0
 42
0.0000001
 43
0.0000001
 44
0.0000000001
 40
0.0
 40
0.0
 40
0.0
 40
0.0
 40
0.2343311682
 40
0.4817528068
 40
0.7395184821
 40
1.0
 40
1.0
 40
1.0
 40
1.0
 10
68.0214660535
 20
140.9798322578
 30
0.0
 10
68.0320951204
 20
140.8697045162
 30
0.0
 10
68.1032788248
 20
140.6461986368
 30
0.0
 10
68.3284591201
 20
140.3703204776
 30
0.0
 10
68.6409901614
 20
140.1767838865
 30
0.0
 10
68.8836295793
 20
140.1182056311
 30
0.0
 10
69.0062671437
 20
140.1089494218
 30
0.0
  0
SPLINE
  5
334
100
AcDbEntity
  8
RUNDUNGEN
100
AcDbSpline
 62
7
  6
CONTINUOUS
 70
0
 71
3
 72
11
 73
7
 74
0
 42
0.0000001
 43
0.0000001
 44
0.0000000001
 40
0.0
 40
0.0
 40
0.0
 40
0.0
 40
0.2517966613
 40
0.502499689
 40
0.7517394951
 40
1.0
 40
1.0
 40
1.0
 40
1.0
 10
67.4581665036
 20
140.1406252602
 30
0.0
 10
67.4581665052
 20
140.0106245362
 30
0.0
 10
67.509120816
 20
139.7483878396
 30
0.0
 10
67.7278002248
 20
139.4161411173
 30
0.0
 10
68.0550552823
 20
139.1929216823
 30
0.0
 10
68.3147992234
 20
139.1406252602
 30
0.0
 10
68.4429742564
 20
139.1406252602
 30
0.0
  0
SPLINE
  5
335
100
AcDbEntity
  8
RUNDUNGEN
100
AcDbSpline
 62
7
  6
CONTINUOUS
 70
0
 71
3
 72
11
 73
7
 74
0
 42
0.0000001
 43
0.0000001
 44
0.0000000001
 40
0.0
 40
0.0
 40
0.0
 40
0.0
 40
0.2517966515
 40
0.5024996754
 40
0.7517394874
 40
1.0
 40
1.0
 40
1.0
 40
1.0
 10
62.1040289343
 20
140.1406233112
 30
0.0
 10
62.1040292009
 20
140.0106230179
 30
0.0
 10
62.1549837017
 20
139.7483873096
 30
0.0
 10
62.3736623781
 20
139.4161417501
 30
0.0
 10
62.700916021
 20
139.1929226611
 30
0.0
 10
62.9606589165
 20
139.1406257042
 30
0.0
 10
63.0888335338
 20
139.1406252602
 30
0.0
  0
SPLINE
  5
336
100
AcDbEntity
  8
RUNDUNGEN
100
AcDbSpline
 62
7
  6
CONTINUOUS
 70
0
 71
3
 72
13
 73
9
 74
0
 42
0.0000001
 43
0.0000001
 44
0.0000000001
 40
0.0
 40
0.0
 40
0.0
 40
0.0
 40
0.0848876131
 40
0.1751942766
 40
0.2753215916
 40
0.3884273528
 40
0.6606086913
 40
1.0
 40
1.0
 40
1.0
 40
1.0
 10
86.6902685891
 20
153.1406252602
 30
0.0
 10
86.6483566621
 20
153.1406169553
 30
0.0
 10
86.5614834181
 20
153.1285972391
 30
0.0
 10
86.4348254106
 20
153.0760679729
 30
0.0
 10
86.3108426572
 20
152.990273751
 30
0.0
 10
86.1387053628
 20
152.822301633
 30
0.0
 10
85.9360979658
 20
152.5237853539
 30
0.0
 10
85.8070590039
 20
152.2500801366
 30
0.0
 10
85.7430317543
 20
152.0952256019
 30
0.0
  0
SPLINE
  5
337
100
AcDbEntity
  8
RUNDUNGEN
100
AcDbSpline
 62
7
  6
CONTINUOUS
 70
0
 71
3
 72
11
 73
7
 74
0
 42
0.0000001
 43
0.0000001
 44
0.0000000001
 40
0.0
 40
0.0
 40
0.0
 40
0.0
 40
0.2184837422
 40
0.4632881237
 40
0.7267657576
 40
1.0
 40
1.0
 40
1.0
 40
1.0
 10
99.1092596816
 20
153.1406281612
 30
0.0
 10
98.9929575179
 20
152.6779514308
 30
0.0
 10
98.7915441514
 20
151.6853627433
 30
0.0
 10
98.5803001374
 20
150.1116862859
 30
0.0
 10
98.4494562169
 20
148.4094035121
 30
0.0
 10
98.4201670651
 20
147.2372458867
 30
0.0
 10
98.420134926
 20
146.6406252602
 30
0.0
  0
SPLINE
  5
338
100
AcDbEntity
  8
RUNDUNGEN
100
AcDbSpline
 62
7
  6
CONTINUOUS
 70
0
 71
3
 72
16
 73
12
 74
0
 42
0.0000001
 43
0.0000001
 44
0.0000000001
 40
0.0
 40
0.0
 40
0.0
 40
0.0
 40
0.1681140325
 40
0.3311830113
 40
0.4845481659
 40
0.6241964188
 40
0.7469843385
 40
0.8507718453
 40
0.895248707
 40
0.9347976359
 40
1.0
 40
1.0
 40
1.0
 40
1.0
 10
57.5014226112
 20
146.6401918502
 30
0.0
 10
57.5014262733
 20
147.0721978933
 30
0.0
 10
57.4799783663
 20
147.9234115981
 30
0.0
 10
57.3842077584
 20
149.1654488088
 30
0.0
 10
57.2288603899
 20
150.327795567
 30
0.0
 10
57.0198967053
 20
151.3765781215
 30
0.0
 10
56.7646471671
 20
152.2834897767
 30
0.0
 10
56.5091587736
 20
152.9334799087
 30
0.0
 10
56.2820568019
 20
153.360299247
 30
0.0
 10
56.0716527978
 20
153.6805168091
 30
0.0
 10
55.8863469749
 20
153.883333178
 30
0.0
 10
55.7500004971
 20
153.9807151927
 30
0.0
  0
SPLINE
  5
339
100
AcDbEntity
  8
RUNDUNGEN
100
AcDbSpline
 62
7
  6
CONTINUOUS
 70
0
 71
3
 72
11
 73
7
 74
0
 42
0.0000001
 43
0.0000001
 44
0.0000000001
 40
0.0
 40
0.0
 40
0.0
 40
0.0
 40
0.2201622754
 40
0.4536081009
 40
0.7109917035
 40
1.0
 40
1.0
 40
1.0
 40
1.0
 10
99.7114421152
 20
155.0327713782
 30
0.0
 10
99.7633911981
 20
155.0327680298
 30
0.0
 10
99.8708522782
 20
155.018565391
 30
0.0
 10
100.0281238498
 20
154.9563652437
 30
0.0
 10
100.1827006766
 20
154.8546669006
 30
0.0
 10
100.2777932931
 20
154.7668468147
 30
0.0
 10
100.3250094733
 20
154.7176427982
 30
0.0
  0
SPLINE
  5
33A
100
AcDbEntity
  8
RUNDUNGEN
100
AcDbSpline
 62
7
  6
CONTINUOUS
 70
0
 71
3
 72
9
 73
5
 74
0
 42
0.0000001
 43
0.0000001
 44
0.0000000001
 40
0.0
 40
0.0
 40
0.0
 40
0.0
 40
0.500367759
 40
1.0
 40
1.0
 40
1.0
 40
1.0
 10
98.0115815917
 20
154.8725846898
 30
0.0
 10
98.1546151476
 20
154.8726904927
 30
0.0
 10
98.4322413655
 20
154.9562053645
 30
0.0
 10
98.7112275736
 20
155.0327648484
 30
0.0
 10
98.8540509155
 20
155.0327717082
 30
0.0
  0
SPLINE
  5
33B
100
AcDbEntity
  8
RUNDUNGEN
100
AcDbSpline
 62
7
  6
CONTINUOUS
 70
0
 71
3
 72
11
 73
7
 74
0
 42
0.0000001
 43
0.0000001
 44
0.0000000001
 40
0.0
 40
0.0
 40
0.0
 40
0.0
 40
0.3096874576
 40
0.5721549253
 40
0.7968405563
 40
1.0
 40
1.0
 40
1.0
 40
1.0
 10
84.7894743014
 20
154.2899831315
 30
0.0
 10
84.8480329844
 20
154.378762141
 30
0.0
 10
84.9659373226
 20
154.5369341548
 30
0.0
 10
85.16606397
 20
154.7262612931
 30
0.0
 10
85.3749508332
 20
154.8446983415
 30
0.0
 10
85.522828896
 20
154.8725667642
 30
0.0
 10
85.592597601
 20
154.8725815474
 30
0.0
  0
SPLINE
  5
33C
100
AcDbEntity
  8
RUNDUNGEN
100
AcDbSpline
 62
7
  6
CONTINUOUS
 70
0
 71
3
 72
19
 73
15
 74
0
 42
0.0000001
 43
0.0000001
 44
0.0000000001
 40
0.0
 40
0.0
 40
0.0
 40
0.0
 40
0.0243266732
 40
0.0512818485
 40
0.0828148294
 40
0.120076953
 40
0.1636559625
 40
0.2137502002
 40
0.2703380083
 40
0.333202886
 40
0.4762707174
 40
0.6389539884
 40
0.8157247821
 40
1.0
 40
1.0
 40
1.0
 40
1.0
 10
85.9837068543
 20
178.2484791421
 30
0.0
 10
85.939472973
 20
178.2484594207
 30
0.0
 10
85.8456352825
 20
178.2305973654
 30
0.0
 10
85.7131412858
 20
178.1550160043
 30
0.0
 10
85.586274762
 20
178.0340198759
 30
0.0
 10
85.4644332607
 20
177.8691107859
 30
0.0
 10
85.3478053277
 20
177.6610245855
 30
0.0
 10
85.237079041
 20
177.4109077947
 30
0.0
 10
85.1333116823
 20
177.1203660696
 30
0.0
 10
84.9997417506
 20
176.6618562464
 30
0.0
 10
84.8616538342
 20
176.0050106497
 30
0.0
 10
84.7437959587
 20
175.1350158949
 30
0.0
 10
84.6734325267
 20
174.1847873894
 30
0.0
 10
84.6606633732
 20
173.5280499549
 30
0.0
 10
84.6628929771
 20
173.1929844732
 30
0.0
  0
SPLINE
  5
33D
100
AcDbEntity
  8
RUNDUNGEN
100
AcDbSpline
 62
7
  6
CONTINUOUS
 70
0
 71
3
 72
16
 73
12
 74
0
 42
0.0000001
 43
0.0000001
 44
0.0000000001
 40
0.0
 40
0.0
 40
0.0
 40
0.0
 40
0.3603003939
 40
0.5227682376
 40
0.6658080642
 40
0.7853840866
 40
0.8793232652
 40
0.9168099307
 40
0.948551157
 40
0.975650689
 40
1.0
 40
1.0
 40
1.0
 40
1.0
 10
100.0810405772
 20
176.1668048667
 30
0.0
 10
100.0779462286
 20
176.4374358732
 30
0.0
 10
100.0540887896
 20
176.8305196901
 30
0.0
 10
99.9782099332
 20
177.3251191479
 30
0.0
 10
99.9069480401
 20
177.6368325703
 30
0.0
 10
99.8225615761
 20
177.8913719728
 30
0.0
 10
99.7390211473
 20
178.0619002267
 30
0.0
 10
99.6649394202
 20
178.1600584696
 30
0.0
 10
99.6117939697
 20
178.2098805404
 30
0.0
 10
99.5567250571
 20
178.2410270028
 30
0.0
 10
99.5178519491
 20
178.2484645614
 30
0.0
 10
99.4995613579
 20
178.2484791421
 30
0.0
  0
SPLINE
  5
33E
100
AcDbEntity
  8
RUNDUNGEN
100
AcDbSpline
 62
7
  6
CONTINUOUS
 70
0
 71
3
 72
17
 73
13
 74
0
 42
0.0000001
 43
0.0000001
 44
0.0000000001
 40
0.0
 40
0.0
 40
0.0
 40
0.0
 40
0.0305459265
 40
0.0653742571
 40
0.1049162636
 40
0.1493842764
 40
0.2531512121
 40
0.3759152081
 40
0.5155474345
 40
0.668897168
 40
0.8319343237
 40
1.0
 40
1.0
 40
1.0
 40
1.0
 10
55.7499998889
 20
139.3004928577
 30
0.0
 10
55.8138878945
 20
139.346107619
 30
0.0
 10
55.9405760527
 20
139.4579961629
 30
0.0
 10
56.1141006126
 20
139.6652437139
 30
0.0
 10
56.2820697343
 20
139.9209862946
 30
0.0
 10
56.5090005974
 20
140.3474553939
 30
0.0
 10
56.7645874849
 20
140.9975312528
 30
0.0
 10
57.0198020507
 20
141.904291759
 30
0.0
 10
57.2287940071
 20
142.9530366642
 30
0.0
 10
57.3841435226
 20
144.1153077395
 30
0.0
 10
57.4799331476
 20
145.357199769
 30
0.0
 10
57.501415685
 20
146.208275053
 30
0.0
 10
57.5014226112
 20
146.6401918502
 30
0.0
  0
SPLINE
  5
33F
100
AcDbEntity
  8
RUNDUNGEN
100
AcDbSpline
 62
7
  6
CONTINUOUS
 70
0
 71
3
 72
13
 73
9
 74
0
 42
0.0000001
 43
0.0000001
 44
0.0000000001
 40
0.0
 40
0.0
 40
0.0
 40
0.0
 40
0.1954653504
 40
0.4290267448
 40
0.559224761
 40
0.6981329038
 40
0.8457726389
 40
1.0
 40
1.0
 40
1.0
 40
1.0
 10
82.0528278123
 20
154.5679434833
 30
0.0
 10
82.0519567293
 20
154.479526118
 30
0.0
 10
82.1050157366
 20
154.2862303352
 30
0.0
 10
82.2413460352
 20
154.0703287317
 30
0.0
 10
82.3994308881
 20
153.905704127
 30
0.0
 10
82.5519395841
 20
153.7929872187
 30
0.0
 10
82.7354724423
 20
153.7103101757
 30
0.0
 10
82.8730869401
 20
153.6904729479
 30
0.0
 10
82.9428496821
 20
153.6912472471
 30
0.0
  0
SPLINE
  5
340
100
AcDbEntity
  8
RUNDUNGEN
100
AcDbSpline
 62
7
  6
CONTINUOUS
 70
0
 71
3
 72
11
 73
7
 74
0
 42
0.0000001
 43
0.0000001
 44
0.0000000001
 40
0.0
 40
0.0
 40
0.0
 40
0.0
 40
0.2732036169
 40
0.5366877534
 40
0.7815128151
 40
1.0
 40
1.0
 40
1.0
 40
1.0
 10
98.420134926
 20
146.6406252602
 30
0.0
 10
98.4201623813
 20
146.0440719151
 30
0.0
 10
98.4494618299
 20
144.8719683894
 30
0.0
 10
98.5802782182
 20
143.1696917364
 30
0.0
 10
98.7915496088
 20
141.5959533958
 30
0.0
 10
98.9929396733
 20
140.6033064653
 30
0.0
 10
99.1092499401
 20
140.1406243583
 30
0.0
  0
SPLINE
  5
341
100
AcDbEntity
  8
RUNDUNGEN
100
AcDbSpline
 62
7
  6
CONTINUOUS
 70
0
 71
3
 72
19
 73
15
 74
0
 42
0.0000001
 43
0.0000001
 44
0.0000000001
 40
0.0
 40
0.0
 40
0.0
 40
0.0
 40
0.1796641455
 40
0.3521215374
 40
0.5110100924
 40
0.6512588976
 40
0.7133243181
 40
0.7696657873
 40
0.820212633
 40
0.8650728216
 40
0.9045899804
 40
0.9394319273
 40
0.9707017267
 40
1.0
 40
1.0
 40
1.0
 40
1.0
 10
100.3519865786
 20
146.6406252602
 30
0.0
 10
100.3520042571
 20
146.1391899484
 30
0.0
 10
100.3851515649
 20
145.1560942887
 30
0.0
 10
100.5325885567
 20
143.7362681969
 30
0.0
 10
100.7691471154
 20
142.4401156647
 30
0.0
 10
101.0401179908
 20
141.466891285
 30
0.0
 10
101.2976006435
 20
140.7919520708
 30
0.0
 10
101.4968784235
 20
140.3640579768
 30
0.0
 10
101.7082685615
 20
139.9963322275
 30
0.0
 10
101.9300727373
 20
139.6909238476
 30
0.0
 10
102.1608463027
 20
139.4494747819
 30
0.0
 10
102.399755079
 20
139.2735239483
 30
0.0
 10
102.64587901
 20
139.1653916287
 30
0.0
 10
102.8157336499
 20
139.140625289
 30
0.0
 10
102.8975039373
 20
139.1406252602
 30
0.0
  0
SPLINE
  5
342
100
AcDbEntity
  8
RUNDUNGEN
100
AcDbSpline
 62
7
  6
CONTINUOUS
 70
0
 71
3
 72
14
 73
10
 74
0
 42
0.0000001
 43
0.0000001
 44
0.0000000001
 40
0.0
 40
0.0
 40
0.0
 40
0.0
 40
0.0641384632
 40
0.138129373
 40
0.2284783697
 40
0.3386939885
 40
0.4704940876
 40
0.6246800628
 40
1.0
 40
1.0
 40
1.0
 40
1.0
 10
68.4429745531
 20
139.1406252839
 30
0.0
 10
68.4679943292
 20
139.1406365853
 30
0.0
 10
68.5222144191
 20
139.1530663157
 30
0.0
 10
68.5971400824
 20
139.2036359735
 30
0.0
 10
68.6695548707
 20
139.2834225424
 30
0.0
 10
68.7404551137
 20
139.3924061626
 30
0.0
 10
68.8101830624
 20
139.5305794637
 30
0.0
 10
68.907767041
 20
139.7695760118
 30
0.0
 10
68.9679955256
 20
139.9676230968
 30
0.0
 10
69.0062671438
 20
140.1089410269
 30
0.0
  0
SPLINE
  5
343
100
AcDbEntity
  8
RUNDUNGEN
100
AcDbSpline
 62
7
  6
CONTINUOUS
 70
0
 71
3
 72
10
 73
6
 74
0
 42
0.0000001
 43
0.0000001
 44
0.0000000001
 40
0.0
 40
0.0
 40
0.0
 40
0.0
 40
0.2257340661
 40
0.4623361673
 40
1.0
 40
1.0
 40
1.0
 40
1.0
 10
81.8294473598
 20
154.1406252593
 30
0.0
 10
81.7775922725
 20
154.1406230046
 30
0.0
 10
81.6710129551
 20
154.1281274386
 30
0.0
 10
81.4529210093
 20
154.0515442539
 30
0.0
 10
81.3063285331
 20
153.9434158395
 30
0.0
 10
81.2159061849
 20
153.8592806655
 30
0.0
  0
SPLINE
  5
344
100
AcDbEntity
  8
RUNDUNGEN
100
AcDbSpline
 62
7
  6
CONTINUOUS
 70
0
 71
3
 72
14
 73
10
 74
0
 42
0.0000001
 43
0.0000001
 44
0.0000000001
 40
0.0
 40
0.0
 40
0.0
 40
0.0
 40
0.0641375695
 40
0.1381291993
 40
0.2284794148
 40
0.3386952011
 40
0.470494753
 40
0.6246800949
 40
1.0
 40
1.0
 40
1.0
 40
1.0
 10
68.4429744992
 20
154.1406252441
 30
0.0
 10
68.4679939506
 20
154.1406159368
 30
0.0
 10
68.5222149202
 20
154.128187124
 30
0.0
 10
68.5971398966
 20
154.0776155322
 30
0.0
 10
68.6695545904
 20
153.9978278013
 30
0.0
 10
68.7404551669
 20
153.8888438703
 30
0.0
 10
68.8101832156
 20
153.7506709038
 30
0.0
 10
68.9077674467
 20
153.511674709
 30
0.0
 10
68.9679958184
 20
153.3136276305
 30
0.0
 10
69.0062671438
 20
153.1723094934
 30
0.0
  0
SPLINE
  5
345
100
AcDbEntity
  8
RUNDUNGEN
100
AcDbSpline
 62
7
  6
CONTINUOUS
 70
0
 71
3
 72
19
 73
15
 74
0
 42
0.0000001
 43
0.0000001
 44
0.0000000001
 40
0.0
 40
0.0
 40
0.0
 40
0.0
 40
0.0212601915
 40
0.0457024197
 40
0.0754573692
 40
0.111617298
 40
0.1546561598
 40
0.2046610576
 40
0.2615157137
 40
0.3249231939
 40
0.4696514721
 40
0.6344161662
 40
0.8134344499
 40
1.0
 40
1.0
 40
1.0
 40
1.0
 10
85.114405848
 20
179.1406252343
 30
0.0
 10
85.0696883401
 20
179.1406093938
 30
0.0
 10
84.9729175167
 20
179.1183014364
 30
0.0
 10
84.8400567901
 20
179.0272152929
 30
0.0
 10
84.7135911278
 20
178.8837072511
 30
0.0
 10
84.5920449382
 20
178.6886103215
 30
0.0
 10
84.4755956395
 20
178.4425975329
 30
0.0
 10
84.36501347
 20
178.1470420089
 30
0.0
 10
84.2614346561
 20
177.804010893
 30
0.0
 10
84.1280782994
 20
177.2626348988
 30
0.0
 10
83.9907285071
 20
176.4895958692
 30
0.0
 10
83.8737332865
 20
175.4682995504
 30
0.0
 10
83.8040048495
 20
174.3545373454
 30
0.0
 10
83.7913773366
 20
173.5853898773
 30
0.0
 10
83.793592835
 20
173.1929844732
 30
0.0
  0
SPLINE
  5
346
100
AcDbEntity
  8
RUNDUNGEN
100
AcDbSpline
 62
7
  6
CONTINUOUS
 70
0
 71
3
 72
19
 73
15
 74
0
 42
0.0000001
 43
0.0000001
 44
0.0000000001
 40
0.0
 40
0.0
 40
0.0
 40
0.0
 40
0.1862633436
 40
0.3650019547
 40
0.529561625
 40
0.674218996
 40
0.7376547432
 40
0.7945822843
 40
0.844702239
 40
0.8878905453
 40
0.9242208353
 40
0.9541430812
 40
0.9787103902
 40
1.0
 40
1.0
 40
1.0
 40
1.0
 10
83.164627668
 20
173.1929844732
 30
0.0
 10
83.1684429535
 20
173.58580571
 30
0.0
 10
83.1929259952
 20
174.3555287581
 30
0.0
 10
83.2798346968
 20
175.4694540225
 30
0.0
 10
83.4125401018
 20
176.4904578779
 30
0.0
 10
83.5617003241
 20
177.2629333758
 30
0.0
 10
83.7032481655
 20
177.8038533647
 30
0.0
 10
83.8120428501
 20
178.1467619103
 30
0.0
 10
83.9271203999
 20
178.4422744098
 30
0.0
 10
84.0473224471
 20
178.6883099691
 30
0.0
 10
84.1718448109
 20
178.8834629949
 30
0.0
 10
84.3004772307
 20
179.0270040264
 30
0.0
 10
84.434576446
 20
179.1181224849
 30
0.0
 10
84.5318901684
 20
179.1406094308
 30
0.0
 10
84.5767911383
 20
179.1406252346
 30
0.0
  0
SPLINE
  5
347
100
AcDbEntity
  8
RUNDUNGEN
100
AcDbSpline
 62
7
  6
CONTINUOUS
 70
0
 71
3
 72
9
 73
5
 74
0
 42
0.0000001
 43
0.0000001
 44
0.0000000001
 40
0.0
 40
0.0
 40
0.0
 40
0.0
 40
0.5138945601
 40
1.0
 40
1.0
 40
1.0
 40
1.0
 10
83.9241405054
 20
153.6912447614
 30
0.0
 10
84.0069923287
 20
153.6907181252
 30
0.0
 10
84.1695253768
 20
153.72006315
 30
0.0
 10
84.3131896579
 20
153.79772546
 30
0.0
 10
84.377294632
 20
153.8428131854
 30
0.0
  0
SPLINE
  5
348
100
AcDbEntity
  8
RUNDUNGEN
100
AcDbSpline
 62
7
  6
CONTINUOUS
 70
0
 71
3
 72
10
 73
6
 74
0
 42
0.0000001
 43
0.0000001
 44
0.0000000001
 40
0.0
 40
0.0
 40
0.0
 40
0.0
 40
0.1392197768
 40
0.3697837183
 40
1.0
 40
1.0
 40
1.0
 40
1.0
 10
84.6628929771
 20
173.1929844732
 30
0.0
 10
84.6225645553
 20
173.1940275735
 30
0.0
 10
84.5154047031
 20
173.1947494211
 30
0.0
 10
84.2256410121
 20
173.195433692
 30
0.0
 10
83.9762073949
 20
173.1942072286
 30
0.0
 10
83.793592835
 20
173.1929844732
 30
0.0
  0
SPLINE
  5
349
100
AcDbEntity
  8
RUNDUNGEN
100
AcDbSpline
 62
7
  6
CONTINUOUS
 70
0
 71
3
 72
11
 73
7
 74
0
 42
0.0000001
 43
0.0000001
 44
0.0000000001
 40
0.0
 40
0.0
 40
0.0
 40
0.0
 40
0.2886193331
 40
0.5471876813
 40
0.78031098
 40
1.0
 40
1.0
 40
1.0
 40
1.0
 10
84.377294632
 20
153.8428131854
 30
0.0
 10
84.4261170615
 20
153.8770012013
 30
0.0
 10
84.5186057189
 20
153.9419318233
 30
0.0
 10
84.6422157078
 20
154.0460851809
 30
0.0
 10
84.7357630809
 20
154.1609163988
 30
0.0
 10
84.7755021961
 20
154.246820532
 30
0.0
 10
84.7894743014
 20
154.2899831315
 30
0.0
  0
SPLINE
  5
34A
100
AcDbEntity
  8
RUNDUNGEN
100
AcDbSpline
 62
7
  6
CONTINUOUS
 70
0
 71
3
 72
11
 73
7
 74
0
 42
0.0000001
 43
0.0000001
 44
0.0000000001
 40
0.0
 40
0.0
 40
0.0
 40
0.0
 40
0.2540206337
 40
0.5056408911
 40
0.7539651217
 40
1.0
 40
1.0
 40
1.0
 40
1.0
 10
85.9837068543
 20
178.2484791421
 30
0.0
 10
85.9827268247
 20
178.3647405245
 30
0.0
 10
85.9365756632
 20
178.5981981128
 30
0.0
 10
85.7437193829
 20
178.8943628453
 30
0.0
 10
85.4558645387
 20
179.0937628709
 30
0.0
 10
85.2270171367
 20
179.1406252602
 30
0.0
 10
85.1144067125
 20
179.1406252602
 30
0.0
  0
SPLINE
  5
34B
100
AcDbEntity
  8
RUNDUNGEN
100
AcDbSpline
 62
7
  6
CONTINUOUS
 70
0
 71
3
 72
11
 73
7
 74
0
 42
0.0000001
 43
0.0000001
 44
0.0000000001
 40
0.0
 40
0.0
 40
0.0
 40
0.0
 40
0.2540067086
 40
0.5056246563
 40
0.7539555934
 40
1.0
 40
1.0
 40
1.0
 40
1.0
 10
99.4995613579
 20
178.2484791421
 30
0.0
 10
99.4985840945
 20
178.3644127872
 30
0.0
 10
99.4526917306
 20
178.5972051227
 30
0.0
 10
99.2608831545
 20
178.8928193589
 30
0.0
 10
98.9744241258
 20
179.0924522513
 30
0.0
 10
98.7464351012
 20
179.1400901795
 30
0.0
 10
98.6341328491
 20
179.1406161911
 30
0.0
  0
SPLINE
  5
34C
100
AcDbEntity
  8
RUNDUNGEN
100
AcDbSpline
 62
7
  6
CONTINUOUS
 70
0
 71
3
 72
11
 73
7
 74
0
 42
0.0000001
 43
0.0000001
 44
0.0000000001
 40
0.0
 40
0.0
 40
0.0
 40
0.0
 40
0.4332712178
 40
0.7447720564
 40
0.9336503778
 40
1.0
 40
1.0
 40
1.0
 40
1.0
 10
100.0810405772
 20
176.1668048667
 30
0.0
 10
100.0854704071
 20
176.1669995728
 30
0.0
 10
100.0928548407
 20
176.1674994723
 30
0.0
 10
100.1030930083
 20
176.1676560307
 30
0.0
 10
100.1076514825
 20
176.1688980077
 30
0.0
 10
100.1115378503
 20
176.1685072227
 30
0.0
 10
100.111606263
 20
176.169182791
 30
0.0
  0
SPLINE
  5
34D
100
AcDbEntity
  8
RUNDUNGEN
100
AcDbSpline
 62
7
  6
CONTINUOUS
 70
0
 71
3
 72
9
 73
5
 74
0
 42
0.0000001
 43
0.0000001
 44
0.0000000001
 40
0.0
 40
0.0
 40
0.0
 40
0.0
 40
0.2452634335
 40
1.0
 40
1.0
 40
1.0
 40
1.0
 10
100.3250099196
 20
154.7176030866
 30
0.0
 10
100.330371046
 20
154.7063162195
 30
0.0
 10
100.3494223533
 20
154.6589588787
 30
0.0
 10
100.3568852466
 20
154.6073932037
 30
0.0
 10
100.3573507824
 20
154.5689445665
 30
0.0
  0
SPLINE
  5
34E
100
AcDbEntity
  8
RUNDUNGEN
100
AcDbSpline
 62
7
  6
CONTINUOUS
 70
0
 71
3
 72
13
 73
9
 74
0
 42
0.0000001
 43
0.0000001
 44
0.0000000001
 40
0.0
 40
0.0
 40
0.0
 40
0.0
 40
0.0705184044
 40
0.1493412674
 40
0.2424014851
 40
0.3532543317
 40
0.634841438
 40
1.0
 40
1.0
 40
1.0
 40
1.0
 10
67.4581665036
 20
153.1406252602
 30
0.0
 10
67.4830440014
 20
153.1406138987
 30
0.0
 10
67.536049837
 20
153.1302997134
 30
0.0
 10
67.6110550863
 20
153.0870373927
 30
0.0
 10
67.6838672572
 20
153.0179294631
 30
0.0
 10
67.787078537
 20
152.8805740439
 30
0.0
 10
67.906910032
 20
152.639800895
 30
0.0
 10
67.9829856063
 20
152.4244984834
 30
0.0
 10
68.0214115054
 20
152.3015422695
 30
0.0
  0
SPLINE
  5
34F
100
AcDbEntity
  8
RUNDUNGEN
100
AcDbSpline
 62
7
  6
CONTINUOUS
 70
0
 71
3
 72
11
 73
7
 74
0
 42
0.0000001
 43
0.0000001
 44
0.0000000001
 40
0.0
 40
0.0
 40
0.0
 40
0.0
 40
0.2466000792
 40
0.4958923013
 40
0.7474232181
 40
1.0
 40
1.0
 40
1.0
 40
1.0
 10
98.5315111923
 20
154.0563162316
 30
0.0
 10
98.4553141275
 20
154.0909376514
 30
0.0
 10
98.3117080644
 20
154.1839591338
 30
0.0
 10
98.1443723149
 20
154.3790550102
 30
0.0
 10
98.0378131497
 20
154.6150899259
 30
0.0
 10
98.0123040458
 20
154.7868655989
 30
0.0
 10
98.0115815917
 20
154.8725846898
 30
0.0
  0
SPLINE
  5
350
100
AcDbEntity
  8
RUNDUNGEN
100
AcDbSpline
 62
7
  6
CONTINUOUS
 70
0
 71
3
 72
11
 73
7
 74
0
 42
0.0000001
 43
0.0000001
 44
0.0000000001
 40
0.0
 40
0.0
 40
0.0
 40
0.0
 40
0.2466001323
 40
0.4958924522
 40
0.7474233801
 40
1.0
 40
1.0
 40
1.0
 40
1.0
 10
86.1125303093
 20
154.0563159381
 30
0.0
 10
86.0363332772
 20
154.0909372203
 30
0.0
 10
85.892727195
 20
154.1839583217
 30
0.0
 10
85.7253909336
 20
154.3790533551
 30
0.0
 10
85.6188307081
 20
154.6150873869
 30
0.0
 10
85.5933206099
 20
154.7868626234
 30
0.0
 10
85.592597601
 20
154.8725815474
 30
0.0
  0
SPLINE
  5
351
100
AcDbEntity
  8
RUNDUNGEN
100
AcDbSpline
 62
7
  6
CONTINUOUS
 70
0
 71
3
 72
9
 73
5
 74
0
 42
0.0000001
 43
0.0000001
 44
0.0000000001
 40
0.0
 40
0.0
 40
0.0
 40
0.0
 40
0.5086074998
 40
1.0
 40
1.0
 40
1.0
 40
1.0
 10
85.3837653185
 20
153.5299583678
 30
0.0
 10
85.2268226934
 20
153.594002528
 30
0.0
 10
84.9457988006
 20
153.8026162657
 30
0.0
 10
84.8071755505
 20
154.127172805
 30
0.0
 10
84.7894750097
 20
154.2899831379
 30
0.0
  0
SPLINE
  5
352
100
AcDbEntity
  8
RUNDUNGEN
100
AcDbSpline
 62
7
  6
CONTINUOUS
 70
0
 71
3
 72
11
 73
7
 74
0
 42
0.0000001
 43
0.0000001
 44
0.0000000001
 40
0.0
 40
0.0
 40
0.0
 40
0.0
 40
0.2126051155
 40
0.458509837
 40
0.7260492149
 40
1.0
 40
1.0
 40
1.0
 40
1.0
 10
84.831404373
 20
153.0799074798
 30
0.0
 10
84.7802359891
 20
153.1181554706
 30
0.0
 10
84.6816339983
 20
153.2163372205
 30
0.0
 10
84.5566847899
 20
153.3961082749
 30
0.0
 10
84.4513149028
 20
153.6087961711
 30
0.0
 10
84.3985423583
 20
153.7632856126
 30
0.0
 10
84.3772960812
 20
153.8428132169
 30
0.0
  0
SPLINE
  5
353
100
AcDbEntity
  8
RUNDUNGEN
100
AcDbSpline
 62
7
  6
CONTINUOUS
 70
0
 71
3
 72
9
 73
5
 74
0
 42
0.0000001
 43
0.0000001
 44
0.0000000001
 40
0.0
 40
0.0
 40
0.0
 40
0.0
 40
0.5056866104
 40
1.0
 40
1.0
 40
1.0
 40
1.0
 10
81.2159061857
 20
153.8593205127
 30
0.0
 10
81.3332835469
 20
153.8510230773
 30
0.0
 10
81.5718703776
 20
153.8818049799
 30
0.0
 10
81.7753884812
 20
154.0116309673
 30
0.0
 10
81.856380845
 20
154.0933053756
 30
0.0
  0
SPLINE
  5
354
100
AcDbEntity
  8
RUNDUNGEN
100
AcDbSpline
 62
7
  6
CONTINUOUS
 70
0
 71
3
 72
15
 73
11
 74
0
 42
0.0000001
 43
0.0000001
 44
0.0000000001
 40
0.0
 40
0.0
 40
0.0
 40
0.0
 40
0.1167486974
 40
0.1613661902
 40
0.2125962733
 40
0.3342204926
 40
0.4786943848
 40
0.6415834223
 40
0.8175891242
 40
1.0
 40
1.0
 40
1.0
 40
1.0
 10
245.21875
 20
154.1406252602
 30
0.0
 10
245.2559536013
 20
154.1406252602
 30
0.0
 10
245.2983576367
 20
154.1890060954
 30
0.0
 10
245.3293552676
 20
154.247111538
 30
0.0
 10
245.3570100721
 20
154.3113058414
 30
0.0
 10
245.3863454347
 20
154.4080305973
 30
0.0
 10
245.4144324659
 20
154.5420441899
 30
0.0
 10
245.4353606066
 20
154.6947251788
 30
0.0
 10
245.4484272361
 20
154.8604161288
 30
0.0
 10
245.4515469794
 20
154.974643756
 30
0.0
 10
245.4516782711
 20
155.0327713782
 30
0.0
  0
SPLINE
  5
355
100
AcDbEntity
  8
RUNDUNGEN
100
AcDbSpline
 62
7
  6
CONTINUOUS
 70
0
 71
3
 72
15
 73
11
 74
0
 42
0.0000001
 43
0.0000001
 44
0.0000000001
 40
0.0
 40
0.0
 40
0.0
 40
0.0
 40
0.1167486983
 40
0.1613661916
 40
0.2125962753
 40
0.3342204951
 40
0.478694388
 40
0.6415834252
 40
0.8175891251
 40
1.0
 40
1.0
 40
1.0
 40
1.0
 10
219.9013181562
 20
154.1406252602
 30
0.0
 10
219.9385217578
 20
154.1406252602
 30
0.0
 10
219.9809257934
 20
154.1890060961
 30
0.0
 10
220.0119234244
 20
154.2471115393
 30
0.0
 10
220.0395782289
 20
154.3113058433
 30
0.0
 10
220.0689135914
 20
154.4080305998
 30
0.0
 10
220.0970006225
 20
154.5420441927
 30
0.0
 10
220.1179287628
 20
154.694725181
 30
0.0
 10
220.1309953925
 20
154.86041613
 30
0.0
 10
220.1341151356
 20
154.9746437563
 30
0.0
 10
220.1342464273
 20
155.0327713782
 30
0.0
  0
SPLINE
  5
356
100
AcDbEntity
  8
RUNDUNGEN
100
AcDbSpline
 62
7
  6
CONTINUOUS
 70
0
 71
3
 72
13
 73
9
 74
0
 42
0.0000001
 43
0.0000001
 44
0.0000000001
 40
0.0
 40
0.0
 40
0.0
 40
0.0
 40
0.2884091745
 40
0.5463517841
 40
0.6655333581
 40
0.7797996504
 40
0.8907514354
 40
1.0
 40
1.0
 40
1.0
 40
1.0
 10
248.5867804925
 20
140.9797250075
 30
0.0
 10
249.2347804126
 20
141.272323332
 30
0.0
 10
250.4027458836
 20
141.9774330514
 30
0.0
 10
251.5454376231
 20
143.1866732151
 30
0.0
 10
252.1645620526
 20
144.2325240933
 30
0.0
 10
252.4852511953
 20
145.0222482969
 30
0.0
 10
252.6762872254
 20
145.8275329484
 30
0.0
 10
252.7187097532
 20
146.3713013966
 30
0.0
 10
252.71875
 20
146.6406252602
 30
0.0
  0
SPLINE
  5
357
100
AcDbEntity
  8
RUNDUNGEN
100
AcDbSpline
 62
7
  6
CONTINUOUS
 70
0
 71
3
 72
10
 73
6
 74
0
 42
0.0000001
 43
0.0000001
 44
0.0000000001
 40
0.0
 40
0.0
 40
0.0
 40
0.0
 40
0.2001549911
 40
0.4416866108
 40
1.0
 40
1.0
 40
1.0
 40
1.0
 10
217.2066466558
 20
154.1406768864
 30
0.0
 10
217.2239588477
 20
154.1870254053
 30
0.0
 10
217.2532286806
 20
154.2926079536
 30
0.0
 10
217.2952772793
 20
154.5363596997
 30
0.0
 10
217.3066522777
 20
154.7345752842
 30
0.0
 10
217.3069640072
 20
154.8725841855
 30
0.0
  0
SPLINE
  5
358
100
AcDbEntity
  8
RUNDUNGEN
100
AcDbSpline
 62
7
  6
CONTINUOUS
 70
0
 71
3
 72
9
 73
5
 74
0
 42
0.0000001
 43
0.0000001
 44
0.0000000001
 40
0.0
 40
0.0
 40
0.0
 40
0.0
 40
0.2489606709
 40
1.0
 40
1.0
 40
1.0
 40
1.0
 10
205.6301139714
 20
154.1367456989
 30
0.0
 10
205.741922778
 20
154.1346397673
 30
0.0
 10
206.1909581949
 20
154.122757859
 30
0.0
 10
206.6396037649
 20
154.097396769
 30
0.0
 10
206.9759952419
 20
154.0719404129
 30
0.0
  0
SPLINE
  5
359
100
AcDbEntity
  8
RUNDUNGEN
100
AcDbSpline
 62
7
  6
CONTINUOUS
 70
0
 71
3
 72
11
 73
7
 74
0
 42
0.0000001
 43
0.0000001
 44
0.0000000001
 40
0.0
 40
0.0
 40
0.0
 40
0.0
 40
0.2219591869
 40
0.457636105
 40
0.715681209
 40
1.0
 40
1.0
 40
1.0
 40
1.0
 10
206.9759952419
 20
154.0719404129
 30
0.0
 10
207.5740320736
 20
154.0266840982
 30
0.0
 10
208.8037703672
 20
153.8912088603
 30
0.0
 10
210.7187503768
 20
153.622763162
 30
0.0
 10
212.8037740614
 20
153.3524055367
 30
0.0
 10
214.2622684567
 20
153.2064894373
 30
0.0
 10
215.0276853045
 20
153.1406176335
 30
0.0
  0
SPLINE
  5
35A
100
AcDbEntity
  8
RUNDUNGEN
100
AcDbSpline
 62
7
  6
CONTINUOUS
 70
0
 71
3
 72
9
 73
5
 74
0
 42
0.0000001
 43
0.0000001
 44
0.0000000001
 40
0.0
 40
0.0
 40
0.0
 40
0.0
 40
0.2489492869
 40
1.0
 40
1.0
 40
1.0
 40
1.0
 10
205.6301207416
 20
139.1445041196
 30
0.0
 10
205.7427498731
 20
139.1466259897
 30
0.0
 10
206.1950999976
 20
139.1586233231
 30
0.0
 10
206.6470530748
 20
139.1842961229
 30
0.0
 10
206.9859239302
 20
139.210063888
 30
0.0
  0
SPLINE
  5
35B
100
AcDbEntity
  8
RUNDUNGEN
100
AcDbSpline
 62
7
  6
CONTINUOUS
 70
0
 71
3
 72
11
 73
7
 74
0
 42
0.0000001
 43
0.0000001
 44
0.0000000001
 40
0.0
 40
0.0
 40
0.0
 40
0.0
 40
0.2219650911
 40
0.4576617614
 40
0.7157144091
 40
1.0
 40
1.0
 40
1.0
 40
1.0
 10
206.9859239302
 20
139.210063888
 30
0.0
 10
207.583224915
 20
139.2554826994
 30
0.0
 10
208.8114812609
 20
139.3910965731
 30
0.0
 10
210.7241931848
 20
139.6592390675
 30
0.0
 10
212.8066529007
 20
139.9291506955
 30
0.0
 10
214.2632894277
 20
140.0748227734
 30
0.0
 10
215.027673549
 20
140.1406336359
 30
0.0
  0
SPLINE
  5
35C
100
AcDbEntity
  8
RUNDUNGEN
100
AcDbSpline
 62
7
  6
CONTINUOUS
 70
0
 71
3
 72
10
 73
6
 74
0
 42
0.0000001
 43
0.0000001
 44
0.0000000001
 40
0.0
 40
0.0
 40
0.0
 40
0.0
 40
0.2034723708
 40
0.445641683
 40
1.0
 40
1.0
 40
1.0
 40
1.0
 10
192.6596531964
 20
154.1571100314
 30
0.0
 10
192.6758721937
 20
154.203469123
 30
0.0
 10
192.7033928689
 20
154.3077892897
 30
0.0
 10
192.7429200865
 20
154.5460637029
 30
0.0
 10
192.7537177378
 20
154.7387685627
 30
0.0
 10
192.7540180969
 20
154.8725798035
 30
0.0
  0
SPLINE
  5
35D
100
AcDbEntity
  8
RUNDUNGEN
100
AcDbSpline
 62
7
  6
CONTINUOUS
 70
0
 71
3
 72
10
 73
6
 74
0
 42
0.0000001
 43
0.0000001
 44
0.0000000001
 40
0.0
 40
0.0
 40
0.0
 40
0.0
 40
0.1821323106
 40
0.4182662836
 40
1.0
 40
1.0
 40
1.0
 40
1.0
 10
189.8923647967
 20
153.5822053755
 30
0.0
 10
189.8955456371
 20
153.626304448
 30
0.0
 10
189.8895439743
 20
153.728341204
 30
0.0
 10
189.8463917819
 20
153.9673524522
 30
0.0
 10
189.7863398185
 20
154.1576292237
 30
0.0
 10
189.737090621
 20
154.289982376
 30
0.0
  0
SPLINE
  5
35E
100
AcDbEntity
  8
RUNDUNGEN
100
AcDbSpline
 62
7
  6
CONTINUOUS
 70
0
 71
3
 72
11
 73
7
 74
0
 42
0.0000001
 43
0.0000001
 44
0.0000000001
 40
0.0
 40
0.0
 40
0.0
 40
0.0
 40
0.2345426585
 40
0.4769773088
 40
0.7319937026
 40
1.0
 40
1.0
 40
1.0
 40
1.0
 10
188.8735435191
 20
153.0799208803
 30
0.0
 10
188.9320965299
 20
153.1148825682
 30
0.0
 10
189.0397078697
 20
153.2070768219
 30
0.0
 10
189.1504084798
 20
153.3927695105
 30
0.0
 10
189.203848504
 20
153.6117854801
 30
0.0
 10
189.2001982985
 20
153.7656826863
 30
0.0
 10
189.1891323868
 20
153.8428195955
 30
0.0
  0
SPLINE
  5
35F
100
AcDbEntity
  8
RUNDUNGEN
100
AcDbSpline
 62
7
  6
CONTINUOUS
 70
0
 71
3
 72
15
 73
11
 74
0
 42
0.0000001
 43
0.0000001
 44
0.0000000001
 40
0.0
 40
0.0
 40
0.0
 40
0.0
 40
0.1146320575
 40
0.159574726
 40
0.2113531298
 40
0.3344696465
 40
0.4804411788
 40
0.6442103593
 40
0.8198510845
 40
1.0
 40
1.0
 40
1.0
 40
1.0
 10
247.2537094303
 20
153.8593205127
 30
0.0
 10
247.2910772967
 20
153.8487777236
 30
0.0
 10
247.3467365555
 20
153.8892099979
 30
0.0
 10
247.3931498722
 20
153.9406623262
 30
0.0
 10
247.4387979826
 20
154.0003947948
 30
0.0
 10
247.4950614042
 20
154.0932346202
 30
0.0
 10
247.5603360349
 20
154.2247935383
 30
0.0
 10
247.6232384783
 20
154.3767604841
 30
0.0
 10
247.6813036676
 20
154.5429772659
 30
0.0
 10
247.7151898483
 20
154.6586852796
 30
0.0
 10
247.7308269838
 20
154.7176652043
 30
0.0
  0
SPLINE
  5
360
100
AcDbEntity
  8
RUNDUNGEN
100
AcDbSpline
 62
7
  6
CONTINUOUS
 70
0
 71
3
 72
22
 73
18
 74
0
 42
0.0000001
 43
0.0000001
 44
0.0000000001
 40
0.0
 40
0.0
 40
0.0
 40
0.0
 40
0.1580793346
 40
0.317263325
 40
0.4729058761
 40
0.6214998126
 40
0.6919721541
 40
0.7590233902
 40
0.8216693218
 40
0.8786235884
 40
0.9278077619
 40
0.9487308316
 40
0.9666486975
 40
0.9811017334
 40
0.9916599196
 40
0.9980372426
 40
1.0
 40
1.0
 40
1.0
 40
1.0
 10
247.7309176643
 20
154.7176030836
 30
0.0
 10
247.8014483381
 20
154.6770357492
 30
0.0
 10
247.9398221956
 20
154.5899533819
 30
0.0
 10
248.135620762
 20
154.4450133612
 30
0.0
 10
248.3175729801
 20
154.290536578
 30
0.0
 10
248.4571512826
 20
154.1572937767
 30
0.0
 10
248.5597590615
 20
154.0516392114
 30
0.0
 10
248.6298575816
 20
153.9761262208
 30
0.0
 10
248.6938127212
 20
153.9044117033
 30
0.0
 10
248.7504650308
 20
153.8385984673
 30
0.0
 10
248.7924740459
 20
153.7883339578
 30
0.0
 10
248.8211585637
 20
153.7534939591
 30
0.0
 10
248.8386949585
 20
153.7318701485
 30
0.0
 10
248.8521240205
 20
153.7157433752
 30
0.0
 10
248.8635861176
 20
153.7008999695
 30
0.0
 10
248.8676876624
 20
153.6975773187
 30
0.0
 10
248.8726779157
 20
153.6902368347
 30
0.0
 10
248.8726716636
 20
153.6912470677
 30
0.0
  0
SPLINE
  5
361
100
AcDbEntity
  8
RUNDUNGEN
100
AcDbSpline
 62
7
  6
CONTINUOUS
 70
0
 71
3
 72
22
 73
18
 74
0
 42
0.0000001
 43
0.0000001
 44
0.0000000001
 40
0.0
 40
0.0
 40
0.0
 40
0.0
 40
0.1793867948
 40
0.3605663209
 40
0.5333634591
 40
0.6890176452
 40
0.7578905303
 40
0.8195084442
 40
0.8730513168
 40
0.9178845592
 40
0.9533870684
 40
0.9674674881
 40
0.9790532885
 40
0.9881181251
 40
0.9946370336
 40
0.9985900722
 40
1.0
 40
1.0
 40
1.0
 40
1.0
 10
247.5695885782
 20
173.1929844732
 30
0.0
 10
247.6373387039
 20
173.1937820897
 30
0.0
 10
247.7735183577
 20
173.1951921618
 30
0.0
 10
247.9749650126
 20
173.1967698588
 30
0.0
 10
248.1674515733
 20
173.1977648182
 30
0.0
 10
248.3175215748
 20
173.1980859884
 30
0.0
 10
248.4255997999
 20
173.1979828102
 30
0.0
 10
248.4951080762
 20
173.1977436137
 30
0.0
 10
248.5555411554
 20
173.197347205
 30
0.0
 10
248.606092858
 20
173.1967938018
 30
0.0
 10
248.6417769045
 20
173.1962003054
 30
0.0
 10
248.6648306486
 20
173.1955919814
 30
0.0
 10
248.6780313253
 20
173.195184922
 30
0.0
 10
248.6880492897
 20
173.1946355023
 30
0.0
 10
248.6959478622
 20
173.1943536314
 30
0.0
 10
248.6994602779
 20
173.1935444639
 30
0.0
 10
248.7024779329
 20
173.1935169822
 30
0.0
 10
248.7024825801
 20
173.1929844694
 30
0.0
  0
SPLINE
  5
362
100
AcDbEntity
  8
RUNDUNGEN
100
AcDbSpline
 62
7
  6
CONTINUOUS
 70
0
 71
3
 72
15
 73
11
 74
0
 42
0.0000001
 43
0.0000001
 44
0.0000000001
 40
0.0
 40
0.0
 40
0.0
 40
0.0
 40
0.1824108749
 40
0.3584165748
 40
0.521305612
 40
0.6657795049
 40
0.7874037247
 40
0.8386338084
 40
0.8832513017
 40
1.0
 40
1.0
 40
1.0
 40
1.0
 10
242.4697827706
 20
178.2484791421
 30
0.0
 10
242.4699140623
 20
178.306606764
 30
0.0
 10
242.4730338054
 20
178.4208343903
 30
0.0
 10
242.486100435
 20
178.5865253393
 30
0.0
 10
242.5070285753
 20
178.7392063276
 30
0.0
 10
242.5351156064
 20
178.8732199206
 30
0.0
 10
242.5644509689
 20
178.969944677
 30
0.0
 10
242.5921057735
 20
179.034138981
 30
0.0
 10
242.6231034044
 20
179.0922444242
 30
0.0
 10
242.6655074401
 20
179.1406252602
 30
0.0
 10
242.7027110417
 20
179.1406252602
 30
0.0
  0
SPLINE
  5
363
100
AcDbEntity
  8
RUNDUNGEN
100
AcDbSpline
 62
7
  6
CONTINUOUS
 70
0
 71
3
 72
15
 73
11
 74
0
 42
0.0000001
 43
0.0000001
 44
0.0000000001
 40
0.0
 40
0.0
 40
0.0
 40
0.0
 40
0.1824108486
 40
0.3584165115
 40
0.521305528
 40
0.6657794125
 40
0.7874036309
 40
0.838633719
 40
0.8832512212
 40
1.0
 40
1.0
 40
1.0
 40
1.0
 10
192.0279270555
 20
178.2484791421
 30
0.0
 10
192.028058326
 20
178.3066067607
 30
0.0
 10
192.0311780307
 20
178.4208343778
 30
0.0
 10
192.0442446203
 20
178.5865253174
 30
0.0
 10
192.0651727319
 20
178.7392063021
 30
0.0
 10
192.0932597531
 20
178.8732198991
 30
0.0
 10
192.122595122
 20
178.9699446624
 30
0.0
 10
192.1502499425
 20
179.034138969
 30
0.0
 10
192.1812476054
 20
179.0922444396
 30
0.0
 10
192.2236516996
 20
179.1406252602
 30
0.0
 10
192.26085533
 20
179.1406252602
 30
0.0
  0
SPLINE
  5
364
100
AcDbEntity
  8
RUNDUNGEN
100
AcDbSpline
 62
7
  6
CONTINUOUS
 70
0
 71
3
 72
11
 73
7
 74
0
 42
0.0000001
 43
0.0000001
 44
0.0000000001
 40
0.0
 40
0.0
 40
0.0
 40
0.0
 40
0.21147652
 40
0.4514907792
 40
0.7170799317
 40
1.0
 40
1.0
 40
1.0
 40
1.0
 10
189.1891272512
 20
153.8428196615
 30
0.0
 10
189.2213680804
 20
153.8809254166
 30
0.0
 10
189.2994696592
 20
153.9542681053
 30
0.0
 10
189.433728482
 20
154.0572487971
 30
0.0
 10
189.5830910585
 20
154.1683251108
 30
0.0
 10
189.6850749224
 20
154.2481057788
 30
0.0
 10
189.7370908794
 20
154.2899823673
 30
0.0
  0
SPLINE
  5
365
100
AcDbEntity
  8
RUNDUNGEN
100
AcDbSpline
 62
7
  6
CONTINUOUS
 70
0
 71
3
 72
21
 73
17
 74
0
 42
0.0000001
 43
0.0000001
 44
0.0000000001
 40
0.0
 40
0.0
 40
0.0
 40
0.0
 40
0.2072847856
 40
0.4003240326
 40
0.573079869
 40
0.7211001896
 40
0.7845918724
 40
0.8405268377
 40
0.8885461752
 40
0.9282911317
 40
0.9594435251
 40
0.9818469213
 40
0.9897322324
 40
0.9953886899
 40
0.998806071
 40
1.0
 40
1.0
 40
1.0
 40
1.0
 10
189.9280070171
 20
176.1668048667
 30
0.0
 10
189.8819143469
 20
176.1671243886
 30
0.0
 10
189.792896358
 20
176.1676902881
 30
0.0
 10
189.6654624877
 20
176.1683376167
 30
0.0
 10
189.5512066333
 20
176.1687390631
 30
0.0
 10
189.465756565
 20
176.1688729805
 30
0.0
 10
189.4062857322
 20
176.1688317232
 30
0.0
 10
189.369048131
 20
176.1687395445
 30
0.0
 10
189.3371026509
 20
176.168578927
 30
0.0
 10
189.3106362028
 20
176.1683743197
 30
0.0
 10
189.2899524982
 20
176.1680693411
 30
0.0
 10
189.2761635296
 20
176.1678416345
 30
0.0
 10
189.2683497144
 20
176.1674743701
 30
0.0
 10
189.2642945135
 20
176.1674123946
 30
0.0
 10
189.2625346779
 20
176.1669827656
 30
0.0
 10
189.2609718742
 20
176.1670703497
 30
0.0
 10
189.2609695574
 20
176.1668048667
 30
0.0
  0
SPLINE
  5
366
100
AcDbEntity
  8
RUNDUNGEN
100
AcDbSpline
 62
7
  6
CONTINUOUS
 70
0
 71
3
 72
10
 73
6
 74
0
 42
0.0000001
 43
0.0000001
 44
0.0000000001
 40
0.0
 40
0.0
 40
0.0
 40
0.0
 40
0.2499910243
 40
0.5000556891
 40
1.0
 40
1.0
 40
1.0
 40
1.0
 10
217.3069640072
 20
154.8725841855
 30
0.0
 10
217.5429718012
 20
154.8726213015
 30
0.0
 10
218.0151981005
 20
154.8883739271
 30
0.0
 10
218.9557840274
 20
154.9662229165
 30
0.0
 10
219.6622664602
 20
155.0327781765
 30
0.0
 10
220.1342464273
 20
155.0327713782
 30
0.0
  0
SPLINE
  5
367
100
AcDbEntity
  8
RUNDUNGEN
100
AcDbSpline
 62
7
  6
CONTINUOUS
 70
0
 71
3
 72
15
 73
11
 74
0
 42
0.0000001
 43
0.0000001
 44
0.0000000001
 40
0.0
 40
0.0
 40
0.0
 40
0.0
 40
0.0347591176
 40
0.0615856564
 40
0.0959647061
 40
0.1876929653
 40
0.3087129156
 40
0.4554720758
 40
0.6233821187
 40
1.0
 40
1.0
 40
1.0
 40
1.0
 10
248.9048098256
 20
153.172294105
 30
0.0
 10
248.9143493231
 20
153.1669097537
 30
0.0
 10
248.9220711198
 20
153.1455240955
 30
0.0
 10
248.9227053606
 20
153.1160109474
 30
0.0
 10
248.9178829944
 20
153.0676100158
 30
0.0
 10
248.8991368988
 20
152.9919772725
 30
0.0
 10
248.8631199946
 20
152.8844313425
 30
0.0
 10
248.8119873734
 20
152.7569550425
 30
0.0
 10
248.7225103327
 20
152.5582740646
 30
0.0
 10
248.6439719541
 20
152.4055334622
 30
0.0
 10
248.5869885134
 20
152.3014182628
 30
0.0
  0
SPLINE
  5
368
100
AcDbEntity
  8
RUNDUNGEN
100
AcDbSpline
 62
7
  6
CONTINUOUS
 70
0
 71
3
 72
15
 73
11
 74
0
 42
0.0000001
 43
0.0000001
 44
0.0000000001
 40
0.0
 40
0.0
 40
0.0
 40
0.0
 40
0.0374873734
 40
0.0654202878
 40
0.1008159387
 40
0.1943618085
 40
0.316782618
 40
0.4641216406
 40
0.6312704436
 40
1.0
 40
1.0
 40
1.0
 40
1.0
 10
245.21875
 20
154.1406252602
 30
0.0
 10
245.2317279083
 20
154.1406252602
 30
0.0
 10
245.2524254039
 20
154.1246042938
 30
0.0
 10
245.2709469022
 20
154.0957965855
 30
0.0
 10
245.2943886764
 20
154.0463175239
 30
0.0
 10
245.3192921579
 20
153.9627898543
 30
0.0
 10
245.3444775366
 20
153.8394374668
 30
0.0
 10
245.3651865159
 20
153.6895321301
 30
0.0
 10
245.3865362118
 20
153.4539169987
 30
0.0
 10
245.3923981845
 20
153.2682772648
 30
0.0
 10
245.3923981777
 20
153.1406252602
 30
0.0
  0
SPLINE
  5
369
100
AcDbEntity
  8
RUNDUNGEN
100
AcDbSpline
 62
7
  6
CONTINUOUS
 70
0
 71
3
 72
15
 73
11
 74
0
 42
0.0000001
 43
0.0000001
 44
0.0000000001
 40
0.0
 40
0.0
 40
0.0
 40
0.0
 40
0.0374872641
 40
0.0654201488
 40
0.1008157759
 40
0.1943616041
 40
0.3167823791
 40
0.4641213843
 40
0.6312702072
 40
1.0
 40
1.0
 40
1.0
 40
1.0
 10
214.8539376013
 20
154.1406252602
 30
0.0
 10
214.8669154332
 20
154.1406252282
 30
0.0
 10
214.8876127568
 20
154.1246042433
 30
0.0
 10
214.90613409
 20
154.0957966263
 30
0.0
 10
214.9295756755
 20
154.0463176891
 30
0.0
 10
214.9544789489
 20
153.9627902696
 30
0.0
 10
214.979664111
 20
153.8394382514
 30
0.0
 10
215.0003728973
 20
153.6895333541
 30
0.0
 10
215.0217223691
 20
153.4539188247
 30
0.0
 10
215.0275842215
 20
153.268279551
 30
0.0
 10
215.0275841526
 20
153.1406278436
 30
0.0
  0
SPLINE
  5
36A
100
AcDbEntity
  8
RUNDUNGEN
100
AcDbSpline
 62
7
  6
CONTINUOUS
 70
0
 71
3
 72
15
 73
11
 74
0
 42
0.0000001
 43
0.0000001
 44
0.0000000001
 40
0.0
 40
0.0
 40
0.0
 40
0.0
 40
0.3766182732
 40
0.5445285394
 40
0.6912878234
 40
0.8123077409
 40
0.9040357851
 40
0.938414671
 40
0.9652410325
 40
1.0
 40
1.0
 40
1.0
 40
1.0
 10
248.586989713
 20
140.9798322578
 30
0.0
 10
248.6439740583
 20
140.8757161929
 30
0.0
 10
248.7225136151
 20
140.722974229
 30
0.0
 10
248.8119918357
 20
140.5242913722
 30
0.0
 10
248.8631250338
 20
140.3968138575
 30
0.0
 10
248.899142183
 20
140.2892669766
 30
0.0
 10
248.9178882757
 20
140.2136336225
 30
0.0
 10
248.9227103655
 20
140.1652324011
 30
0.0
 10
248.9220759031
 20
140.1357191307
 30
0.0
 10
248.914353481
 20
140.1143335058
 30
0.0
 10
248.9048137736
 20
140.1089494218
 30
0.0
  0
SPLINE
  5
36B
100
AcDbEntity
  8
RUNDUNGEN
100
AcDbSpline
 62
7
  6
CONTINUOUS
 70
0
 71
3
 72
15
 73
11
 74
0
 42
0.0000001
 43
0.0000001
 44
0.0000000001
 40
0.0
 40
0.0
 40
0.0
 40
0.0
 40
0.368729549
 40
0.5358783506
 40
0.6832173739
 40
0.8056381844
 40
0.8991840562
 40
0.9345797081
 40
0.9625126237
 40
1.0
 40
1.0
 40
1.0
 40
1.0
 10
245.3923981777
 20
140.1406252602
 30
0.0
 10
245.3923981866
 20
140.0129732576
 30
0.0
 10
245.3865362162
 20
139.827333526
 30
0.0
 10
245.3651865227
 20
139.5917183962
 30
0.0
 10
245.344477544
 20
139.4418130588
 30
0.0
 10
245.3192921647
 20
139.3184606696
 30
0.0
 10
245.2943886822
 20
139.2349329984
 30
0.0
 10
245.2709469062
 20
139.1854539359
 30
0.0
 10
245.2524254057
 20
139.1566462267
 30
0.0
 10
245.2317279084
 20
139.1406252602
 30
0.0
 10
245.218749999
 20
139.1406252602
 30
0.0
  0
SPLINE
  5
36C
100
AcDbEntity
  8
RUNDUNGEN
100
AcDbSpline
 62
7
  6
CONTINUOUS
 70
0
 71
3
 72
15
 73
11
 74
0
 42
0.0000001
 43
0.0000001
 44
0.0000000001
 40
0.0
 40
0.0
 40
0.0
 40
0.0
 40
0.3687292272
 40
0.535877882
 40
0.6832168293
 40
0.805637672
 40
0.8991836975
 40
0.934579465
 40
0.9625125057
 40
1.0
 40
1.0
 40
1.0
 40
1.0
 10
215.0275751216
 20
140.1406233112
 30
0.0
 10
215.0275751735
 20
140.0129717683
 30
0.0
 10
215.0217133088
 20
139.827332705
 30
0.0
 10
215.0003638608
 20
139.5917183903
 30
0.0
 10
214.9796550949
 20
139.4418135097
 30
0.0
 10
214.954469963
 20
139.3184613789
 30
0.0
 10
214.9295667026
 20
139.2349337941
 30
0.0
 10
214.9061251635
 20
139.1854546325
 30
0.0
 10
214.887603815
 20
139.1566468018
 30
0.0
 10
214.8669066199
 20
139.1406255151
 30
0.0
 10
214.8539287051
 20
139.1406252602
 30
0.0
  0
SPLINE
  5
36D
100
AcDbEntity
  8
RUNDUNGEN
100
AcDbSpline
 62
7
  6
CONTINUOUS
 70
0
 71
3
 72
16
 73
12
 74
0
 42
0.0000001
 43
0.0000001
 44
0.0000000001
 40
0.0
 40
0.0
 40
0.0
 40
0.0
 40
0.0039911906
 40
0.0172772745
 40
0.0396541815
 40
0.0708931185
 40
0.158971388
 40
0.2785961802
 40
0.4260288243
 40
0.597593624
 40
1.0
 40
1.0
 40
1.0
 40
1.0
 10
189.0648283167
 20
153.6912445087
 30
0.0
 10
189.0648290393
 20
153.6909837051
 30
0.0
 10
189.0661579543
 20
153.6928849177
 30
0.0
 10
189.0672397246
 20
153.6937870019
 30
0.0
 10
189.0703460223
 20
153.6977938759
 30
0.0
 10
189.0759670439
 20
153.7046142005
 30
0.0
 10
189.0858857128
 20
153.7170687527
 30
0.0
 10
189.1003491221
 20
153.7350335351
 30
0.0
 10
189.118391715
 20
153.7573711825
 30
0.0
 10
189.1481873821
 20
153.7938711245
 30
0.0
 10
189.1721709868
 20
153.8227217487
 30
0.0
 10
189.1891272512
 20
153.8428196615
 30
0.0
  0
SPLINE
  5
36E
100
AcDbEntity
  8
RUNDUNGEN
100
AcDbSpline
 62
7
  6
CONTINUOUS
 70
0
 71
3
 72
13
 73
9
 74
0
 42
0.0000001
 43
0.0000001
 44
0.0000000001
 40
0.0
 40
0.0
 40
0.0
 40
0.0
 40
0.2884084642
 40
0.5463505947
 40
0.6655315775
 40
0.7797972579
 40
0.8907501008
 40
1.0
 40
1.0
 40
1.0
 40
1.0
 10
248.5867193153
 20
152.3015566933
 30
0.0
 10
249.2347158707
 20
152.0089395574
 30
0.0
 10
250.4027018807
 20
151.3038546032
 30
0.0
 10
251.5454105145
 20
150.0946106717
 30
0.0
 10
252.1645442477
 20
149.0487581279
 30
0.0
 10
252.4852446801
 20
148.2590304245
 30
0.0
 10
252.6762836893
 20
147.4537337082
 30
0.0
 10
252.7187062397
 20
146.9099548476
 30
0.0
 10
252.71875
 20
146.6406252602
 30
0.0
  0
SPLINE
  5
36F
100
AcDbEntity
  8
RUNDUNGEN
100
AcDbSpline
 62
7
  6
CONTINUOUS
 70
0
 71
3
 72
9
 73
5
 74
0
 42
0.0000001
 43
0.0000001
 44
0.0000000001
 40
0.0
 40
0.0
 40
0.0
 40
0.0
 40
0.2502276952
 40
1.0
 40
1.0
 40
1.0
 40
1.0
 10
98.0115815917
 20
98.8366862523
 30
0.0
 10
98.0819539494
 20
99.0993594481
 30
0.0
 10
98.3629010336
 20
100.1491728097
 30
0.0
 10
98.643156863
 20
101.19917113
 30
0.0
 10
98.8540509155
 20
101.9862257629
 30
0.0
  0
SPLINE
  5
370
100
AcDbEntity
  8
RUNDUNGEN
100
AcDbSpline
 62
7
  6
CONTINUOUS
 70
0
 71
3
 72
9
 73
5
 74
0
 42
0.0000001
 43
0.0000001
 44
0.0000000001
 40
0.0
 40
0.0
 40
0.0
 40
0.0
 40
0.250323849
 40
1.0
 40
1.0
 40
1.0
 40
1.0
 10
90.2386536839
 20
80.3649109928
 30
0.0
 10
90.1754497436
 20
80.1290289669
 30
0.0
 10
89.9232160236
 20
79.1866532112
 30
0.0
 10
89.6718277092
 20
78.24405129
 30
0.0
 10
89.4825328888
 20
77.5376285727
 30
0.0
  0
LINE
  5
371
100
AcDbEntity
  8
RUNDUNGEN
100
AcDbLine
 62
7
  6
CONTINUOUS
 10
57.5014226111
 20
84.9531250055
 11
55.7500004971
 21
90.9126446263
  0
SPLINE
  5
372
100
AcDbEntity
  8
RUNDUNGEN
100
AcDbSpline
 62
7
  6
CONTINUOUS
 70
0
 71
3
 72
13
 73
9
 74
0
 42
0.0000001
 43
0.0000001
 44
0.0000000001
 40
0.0
 40
0.0
 40
0.0
 40
0.0
 40
0.3013569313
 40
0.5587661577
 40
0.6756384238
 40
0.7868703957
 40
0.8943765459
 40
1.0
 40
1.0
 40
1.0
 40
1.0
 10
69.0062671438
 20
48.7670564877
 30
0.0
 10
69.0965961385
 20
48.1762461598
 30
0.0
 10
69.4537253723
 20
47.0981472816
 30
0.0
 10
70.30503713
 20
46.0267976147
 30
0.0
 10
71.0874555026
 20
45.4578159541
 30
0.0
 10
71.689526986
 20
45.1655728925
 30
0.0
 10
72.3123449896
 20
44.9917523252
 30
0.0
 10
72.7360171132
 20
44.9531683857
 30
0.0
 10
72.9454981559
 20
44.953125
 30
0.0
  0
LINE
  5
373
100
AcDbEntity
  8
RUNDUNGEN
100
AcDbLine
 62
7
  6
CONTINUOUS
 10
68.4429312372
 20
52.4534078914
 11
69.0062671438
 21
48.7670564877
  0
SPLINE
  5
374
100
AcDbEntity
  8
RUNDUNGEN
100
AcDbSpline
 62
7
  6
CONTINUOUS
 70
0
 71
3
 72
15
 73
11
 74
0
 42
0.0000001
 43
0.0000001
 44
0.0000000001
 40
0.0
 40
0.0
 40
0.0
 40
0.0
 40
0.1252770681
 40
0.2482416782
 40
0.369799301
 40
0.4913964064
 40
0.6145734445
 40
0.7404598081
 40
0.8692567994
 40
1.0
 40
1.0
 40
1.0
 40
1.0
 10
101.1942834021
 20
106.9880731909
 30
0.0
 10
101.2317501784
 20
107.1117003474
 30
0.0
 10
101.2739118496
 20
107.3678356668
 30
0.0
 10
101.2338440641
 20
107.7513180082
 30
0.0
 10
101.0985315369
 20
108.1081094472
 30
0.0
 10
100.8807572302
 20
108.4210976392
 30
0.0
 10
100.5941846206
 20
108.6788073181
 30
0.0
 10
100.2522666957
 20
108.8717870888
 30
0.0
 10
99.8706158845
 20
108.9919912594
 30
0.0
 10
99.6021728932
 20
109.0190754564
 30
0.0
 10
99.4673566268
 20
109.0190958713
 30
0.0
  0
SPLINE
  5
375
100
AcDbEntity
  8
RUNDUNGEN
100
AcDbSpline
 62
7
  6
CONTINUOUS
 70
0
 71
3
 72
9
 73
5
 74
0
 42
0.0000001
 43
0.0000001
 44
0.0000000001
 40
0.0
 40
0.0
 40
0.0
 40
0.0
 40
0.5049189969
 40
1.0
 40
1.0
 40
1.0
 40
1.0
 10
98.4860060894
 20
109.0190958713
 30
0.0
 10
98.3277139128
 20
109.0190611063
 30
0.0
 10
98.0130824541
 20
108.9817489327
 30
0.0
 10
97.7161879951
 20
108.8705412655
 30
0.0
 10
97.5788065522
 20
108.7983204069
 30
0.0
  0
LINE
  5
376
100
AcDbEntity
  8
RUNDUNGEN
100
AcDbLine
 62
7
  6
CONTINUOUS
 10
97.5788065522
 20
108.7983204069
 11
98.4275033236
 21
112.4531143289
  0
LINE
  5
377
100
AcDbEntity
  8
RUNDUNGEN
100
AcDbLine
 62
7
  6
CONTINUOUS
 10
62.4669462203
 20
112.4531003935
 11
63.6131169301
 21
104.952801623
  0
SPLINE
  5
378
100
AcDbEntity
  8
RUNDUNGEN
100
AcDbSpline
 62
7
  6
CONTINUOUS
 70
0
 71
3
 72
14
 73
10
 74
0
 42
0.0000001
 43
0.0000001
 44
0.0000000001
 40
0.0
 40
0.0
 40
0.0
 40
0.0
 40
0.250781648
 40
0.3758629961
 40
0.5007476078
 40
0.6255184284
 40
0.7502736371
 40
0.8750843605
 40
1.0
 40
1.0
 40
1.0
 40
1.0
 10
55.6969728593
 20
92.0417610286
 30
0.0
 10
56.3687012396
 20
91.3496216431
 30
0.0
 10
57.3732466941
 20
90.3097523198
 30
0.0
 10
58.6614206821
 20
88.8776940437
 30
0.0
 10
59.5813945217
 20
87.7674931558
 30
0.0
 10
60.4305010948
 20
86.6029040549
 30
0.0
 10
61.1735131643
 20
85.3666612213
 30
0.0
 10
61.7645874375
 20
84.0488814787
 30
0.0
 10
62.0206194942
 20
83.1173169468
 30
0.0
 10
62.1040474933
 20
82.6441896955
 30
0.0
  0
LINE
  5
379
100
AcDbEntity
  8
RUNDUNGEN
100
AcDbLine
 62
7
  6
CONTINUOUS
 10
55.7500093053
 20
90.9126143319
 11
55.6969728593
 21
92.0417610286
  0
SPLINE
  5
37A
100
AcDbEntity
  8
RUNDUNGEN
100
AcDbSpline
 62
7
  6
CONTINUOUS
 70
0
 71
3
 72
9
 73
5
 74
0
 42
0.0000001
 43
0.0000001
 44
0.0000000001
 40
0.0
 40
0.0
 40
0.0
 40
0.0
 40
0.500138727
 40
1.0
 40
1.0
 40
1.0
 40
1.0
 10
102.8975031667
 20
104.953125
 30
0.0
 10
102.3397182222
 20
104.4487234606
 30
0.0
 10
101.2246120259
 20
103.4406094423
 30
0.0
 10
100.1894751671
 20
102.3429197806
 30
0.0
 10
99.7233528268
 20
101.7533032793
 30
0.0
  0
LINE
  5
37B
100
AcDbEntity
  8
RUNDUNGEN
100
AcDbLine
 62
7
  6
CONTINUOUS
 10
102.8976805907
 20
104.9531250003
 11
100.3519865643
 21
97.4531249888
  0
SPLINE
  5
37C
100
AcDbEntity
  8
RUNDUNGEN
100
AcDbSpline
 62
7
  6
CONTINUOUS
 70
0
 71
3
 72
11
 73
7
 74
0
 42
0.0000001
 43
0.0000001
 44
0.0000000001
 40
0.0
 40
0.0
 40
0.0
 40
0.0
 40
0.3500056876
 40
0.5035600571
 40
0.6393910441
 40
1.0
 40
1.0
 40
1.0
 40
1.0
 10
85.3837653185
 20
49.6189800297
 30
0.0
 10
85.3097192466
 20
49.6264423083
 30
0.0
 10
85.2027500248
 20
49.6315606082
 30
0.0
 10
85.0659534947
 20
49.6209975158
 30
0.0
 10
84.9336755655
 20
49.5984758648
 30
0.0
 10
84.8109819083
 20
49.5450633588
 30
0.0
 10
84.7894750097
 20
49.4714656963
 30
0.0
  0
SPLINE
  5
37D
100
AcDbEntity
  8
RUNDUNGEN
100
AcDbSpline
 62
7
  6
CONTINUOUS
 70
0
 71
3
 72
13
 73
9
 74
0
 42
0.0000001
 43
0.0000001
 44
0.0000000001
 40
0.0
 40
0.0
 40
0.0
 40
0.0
 40
0.2524765812
 40
0.5034283088
 40
0.6281184099
 40
0.7523361909
 40
0.8762291222
 40
1.0
 40
1.0
 40
1.0
 40
1.0
 10
102.8978383593
 20
104.953589859
 30
0.0
 10
102.5302829649
 20
104.4423702145
 30
0.0
 10
101.7973108216
 20
103.4231501245
 30
0.0
 10
100.9086556268
 20
102.1325942549
 30
0.0
 10
100.2476811391
 20
101.0753727971
 30
0.0
 10
99.7918875136
 20
100.2644410635
 30
0.0
 10
99.3947324469
 20
99.4253876147
 30
0.0
 10
99.1891514868
 20
98.8407728739
 30
0.0
 10
99.1092650296
 20
98.5426248026
 30
0.0
  0
SPLINE
  5
37E
100
AcDbEntity
  8
RUNDUNGEN
100
AcDbSpline
 62
7
  6
CONTINUOUS
 70
0
 71
3
 72
13
 73
9
 74
0
 42
0.0000001
 43
0.0000001
 44
0.0000000001
 40
0.0
 40
0.0
 40
0.0
 40
0.0
 40
0.3595676597
 40
0.6504180213
 40
0.7653964468
 40
0.8598104297
 40
0.9360180306
 40
1.0
 40
1.0
 40
1.0
 40
1.0
 10
84.831404373
 20
48.6079412931
 30
0.0
 10
84.7880515295
 20
48.6622091127
 30
0.0
 10
84.7052364176
 20
48.7569073775
 30
0.0
 10
84.5944689521
 20
48.8561230089
 30
0.0
 10
84.5122316152
 20
48.9074007271
 30
0.0
 10
84.4609858536
 20
48.9287305798
 30
0.0
 10
84.41556973
 20
48.9358212005
 30
0.0
 10
84.3881845243
 20
48.9293484477
 30
0.0
 10
84.3772960812
 20
48.9235004122
 30
0.0
  0
SPLINE
  5
37F
100
AcDbEntity
  8
RUNDUNGEN
100
AcDbSpline
 62
7
  6
CONTINUOUS
 70
0
 71
3
 72
9
 73
5
 74
0
 42
0.0000001
 43
0.0000001
 44
0.0000000001
 40
0.0
 40
0.0
 40
0.0
 40
0.0
 40
0.4999945548
 40
1.0
 40
1.0
 40
1.0
 40
1.0
 10
89.718723941
 20
80.5042257475
 30
0.0
 10
89.5913255772
 20
80.0287526208
 30
0.0
 10
89.2712274299
 20
79.0942286867
 30
0.0
 10
88.842886814
 20
78.2060215783
 30
0.0
 10
88.6132598708
 20
77.7706056166
 30
0.0
  0
SPLINE
  5
380
100
AcDbEntity
  8
RUNDUNGEN
100
AcDbSpline
 62
7
  6
CONTINUOUS
 70
0
 71
3
 72
14
 73
10
 74
0
 42
0.0000001
 43
0.0000001
 44
0.0000000001
 40
0.0
 40
0.0
 40
0.0
 40
0.0
 40
0.1783414759
 40
0.3525542249
 40
0.5153776063
 40
0.6609615607
 40
0.7843071665
 40
0.8818213095
 40
1.0
 40
1.0
 40
1.0
 40
1.0
 10
81.2159061857
 20
50.4181655697
 30
0.0
 10
81.2751124577
 20
50.4033311681
 30
0.0
 10
81.3913966344
 20
50.3708411152
 30
0.0
 10
81.5585632053
 20
50.3144501193
 30
0.0
 10
81.7119190909
 20
50.2523500045
 30
0.0
 10
81.8445042958
 20
50.1880222683
 30
0.0
 10
81.9531884271
 20
50.1217781824
 30
0.0
 10
82.0410524252
 20
50.0534656418
 30
0.0
 10
82.0944456439
 20
49.9804304845
 30
0.0
 10
82.0852314572
 20
49.9410480162
 30
0.0
  0
SPLINE
  5
381
100
AcDbEntity
  8
RUNDUNGEN
100
AcDbSpline
 62
7
  6
CONTINUOUS
 70
0
 71
3
 72
9
 73
5
 74
0
 42
0.0000001
 43
0.0000001
 44
0.0000000001
 40
0.0
 40
0.0
 40
0.0
 40
0.0
 40
0.4989616202
 40
1.0
 40
1.0
 40
1.0
 40
1.0
 10
97.5788144584
 20
108.7983506341
 30
0.0
 10
97.4406270923
 20
108.6631982675
 30
0.0
 10
97.213755044
 20
108.3401813128
 30
0.0
 10
97.0762597668
 20
107.9748171305
 30
0.0
 10
97.0264125844
 20
107.787230274
 30
0.0
  0
SPLINE
  5
382
100
AcDbEntity
  8
RUNDUNGEN
100
AcDbSpline
 62
7
  6
CONTINUOUS
 70
0
 71
3
 72
11
 73
7
 74
0
 42
0.0000001
 43
0.0000001
 44
0.0000000001
 40
0.0
 40
0.0
 40
0.0
 40
0.0
 40
0.3499947127
 40
0.5035455757
 40
0.6393748223
 40
1.0
 40
1.0
 40
1.0
 40
1.0
 10
97.0264139754
 20
107.7872283496
 30
0.0
 10
97.1004607344
 20
107.7797674412
 30
0.0
 10
97.2074314359
 20
107.7746520803
 30
0.0
 10
97.3442290392
 20
107.7852215472
 30
0.0
 10
97.4765142644
 20
107.80775171
 30
0.0
 10
97.5992065263
 20
107.8611802921
 30
0.0
 10
97.6207143162
 20
107.934784379
 30
0.0
  0
SPLINE
  5
383
100
AcDbEntity
  8
RUNDUNGEN
100
AcDbSpline
 62
7
  6
CONTINUOUS
 70
0
 71
3
 72
13
 73
9
 74
0
 42
0.0000001
 43
0.0000001
 44
0.0000000001
 40
0.0
 40
0.0
 40
0.0
 40
0.0
 40
0.3595634035
 40
0.650412768
 40
0.7653920859
 40
0.8598077602
 40
0.9360172613
 40
1.0
 40
1.0
 40
1.0
 40
1.0
 10
97.5787906447
 20
108.7983314809
 30
0.0
 10
97.6221413444
 20
108.7440605323
 30
0.0
 10
97.7049537472
 20
108.649356519
 30
0.0
 10
97.8157200314
 20
108.5501345922
 30
0.0
 10
97.8979579938
 20
108.4988522423
 30
0.0
 10
97.9492050184
 20
108.4775192125
 30
0.0
 10
97.9946226413
 20
108.4704254082
 30
0.0
 10
98.0220096559
 20
108.4768955783
 30
0.0
 10
98.0328991946
 20
108.4827426132
 30
0.0
  0
SPLINE
  5
384
100
AcDbEntity
  8
RUNDUNGEN
100
AcDbSpline
 62
7
  6
CONTINUOUS
 70
0
 71
3
 72
14
 73
10
 74
0
 42
0.0000001
 43
0.0000001
 44
0.0000000001
 40
0.0
 40
0.0
 40
0.0
 40
0.0
 40
0.1783414751
 40
0.3525542237
 40
0.5153776053
 40
0.6609615602
 40
0.7843071667
 40
0.8818213101
 40
1.0
 40
1.0
 40
1.0
 40
1.0
 10
101.1942834014
 20
106.9880844331
 30
0.0
 10
101.1350771292
 20
107.0029188344
 30
0.0
 10
101.018792952
 20
107.0354088867
 30
0.0
 10
100.8516263801
 20
107.0917998819
 30
0.0
 10
100.6982704932
 20
107.1538999965
 30
0.0
 10
100.5656852868
 20
107.2182277326
 30
0.0
 10
100.4570011541
 20
107.2844718188
 30
0.0
 10
100.3691371552
 20
107.3527843591
 30
0.0
 10
100.3157439356
 20
107.4258195175
 30
0.0
 10
100.3249581233
 20
107.4652019855
 30
0.0
  0
SPLINE
  5
385
100
AcDbEntity
  8
RUNDUNGEN
100
AcDbSpline
 62
7
  6
CONTINUOUS
 70
0
 71
3
 72
13
 73
9
 74
0
 42
0.0000001
 43
0.0000001
 44
0.0000000001
 40
0.0
 40
0.0
 40
0.0
 40
0.0
 40
0.2464405775
 40
0.4762982898
 40
0.5933282253
 40
0.7171460877
 40
0.8526286749
 40
1.0
 40
1.0
 40
1.0
 40
1.0
 10
82.0851796661
 20
49.9409573357
 30
0.0
 10
82.0496156747
 20
49.8107818432
 30
0.0
 10
82.0372399137
 20
49.5400030196
 30
0.0
 10
82.1643801692
 20
49.2302946723
 30
0.0
 10
82.3327471013
 20
49.0328563597
 30
0.0
 10
82.4992681215
 20
48.9082740731
 30
0.0
 10
82.7063827425
 20
48.8205214219
 30
0.0
 10
82.8621519772
 20
48.7991962852
 30
0.0
 10
82.9428496821
 20
48.7992033376
 30
0.0
  0
SPLINE
  5
386
100
AcDbEntity
  8
RUNDUNGEN
100
AcDbSpline
 62
7
  6
CONTINUOUS
 70
0
 71
3
 72
16
 73
12
 74
0
 42
0.0000001
 43
0.0000001
 44
0.0000000001
 40
0.0
 40
0.0
 40
0.0
 40
0.0
 40
0.008411773
 40
0.0240927144
 40
0.0813518721
 40
0.1727601633
 40
0.2954579223
 40
0.4452019833
 40
0.6167037869
 40
0.8038526571
 40
1.0
 40
1.0
 40
1.0
 40
1.0
 10
54.75
 20
92.1120006716
 30
0.0
 10
54.7500000135
 20
92.1093220857
 30
0.0
 10
54.7563255569
 20
92.1029771895
 30
0.0
 10
54.7798998833
 20
92.0940046516
 30
0.0
 10
54.8320139381
 20
92.0830868598
 30
0.0
 10
54.9173524535
 20
92.0724107293
 30
0.0
 10
55.0329819784
 20
92.0623825356
 30
0.0
 10
55.1740467315
 20
92.0540209206
 30
0.0
 10
55.3358360289
 20
92.0475382125
 30
0.0
 10
55.5124497191
 20
92.043262092
 30
0.0
 10
55.6345034254
 20
92.04201217
 30
0.0
 10
55.6969627729
 20
92.0417789103
 30
0.0
  0
SPLINE
  5
387
100
AcDbEntity
  8
RUNDUNGEN
100
AcDbSpline
 62
7
  6
CONTINUOUS
 70
0
 71
3
 72
13
 73
9
 74
0
 42
0.0000001
 43
0.0000001
 44
0.0000000001
 40
0.0
 40
0.0
 40
0.0
 40
0.0
 40
0.0878597733
 40
0.1825701318
 40
0.2884780963
 40
0.4076954822
 40
0.6847865759
 40
1.0
 40
1.0
 40
1.0
 40
1.0
 10
85.7429894858
 20
48.6590310356
 30
0.0
 10
85.7347498641
 20
48.6282825815
 30
0.0
 10
85.7060954178
 20
48.5670693535
 30
0.0
 10
85.6337283714
 20
48.4897827633
 30
0.0
 10
85.5346900438
 20
48.4276781601
 30
0.0
 10
85.3636308787
 20
48.3630616266
 30
0.0
 10
85.1042765781
 20
48.3321109476
 30
0.0
 10
84.8892960659
 20
48.3527908696
 30
0.0
 10
84.7770683655
 20
48.37396618
 30
0.0
  0
SPLINE
  5
388
100
AcDbEntity
  8
RUNDUNGEN
100
AcDbSpline
 62
7
  6
CONTINUOUS
 70
0
 71
3
 72
9
 73
5
 74
0
 42
0.0000001
 43
0.0000001
 44
0.0000000001
 40
0.0
 40
0.0
 40
0.0
 40
0.0
 40
0.4989543941
 40
1.0
 40
1.0
 40
1.0
 40
1.0
 10
84.8317559808
 20
48.6083577776
 30
0.0
 10
84.9698318097
 20
48.7434687128
 30
0.0
 10
85.196558201
 20
49.0663151126
 30
0.0
 10
85.3339422971
 20
49.4314931234
 30
0.0
 10
85.3837660084
 20
49.6189790753
 30
0.0
  0
SPLINE
  5
389
100
AcDbEntity
  8
RUNDUNGEN
100
AcDbSpline
 62
7
  6
CONTINUOUS
 70
0
 71
3
 72
9
 73
5
 74
0
 42
0.0000001
 43
0.0000001
 44
0.0000000001
 40
0.0
 40
0.0
 40
0.0
 40
0.0
 40
0.4999510621
 40
1.0
 40
1.0
 40
1.0
 40
1.0
 10
98.5315118083
 20
98.6973705559
 30
0.0
 10
98.6731239552
 20
99.2259158293
 30
0.0
 10
99.0370911372
 20
100.2614918206
 30
0.0
 10
99.487393424
 20
101.2594925848
 30
0.0
 10
99.723356158
 20
101.7533072655
 30
0.0
  0
SPLINE
  5
38A
100
AcDbEntity
  8
RUNDUNGEN
100
AcDbSpline
 62
7
  6
CONTINUOUS
 70
0
 71
3
 72
13
 73
9
 74
0
 42
0.0000001
 43
0.0000001
 44
0.0000000001
 40
0.0
 40
0.0
 40
0.0
 40
0.0
 40
0.3222385666
 40
0.604514562
 40
0.7240364794
 40
0.8278365156
 40
0.91809438
 40
1.0
 40
1.0
 40
1.0
 40
1.0
 10
69.0062671437
 20
48.7670651744
 30
0.0
 10
68.8876629999
 20
48.7512045468
 30
0.0
 10
68.662208551
 20
48.7405367774
 30
0.0
 10
68.3933350707
 20
48.7815766499
 30
0.0
 10
68.2182866799
 20
48.8518282215
 30
0.0
 10
68.119961099
 20
48.9160820212
 30
0.0
 10
68.0508384949
 20
48.9938004777
 30
0.0
 10
68.026755217
 20
49.0549339114
 30
0.0
 10
68.0214728522
 20
49.0848864866
 30
0.0
  0
SPLINE
  5
38B
100
AcDbEntity
  8
RUNDUNGEN
100
AcDbSpline
 62
7
  6
CONTINUOUS
 70
0
 71
3
 72
13
 73
9
 74
0
 42
0.0000001
 43
0.0000001
 44
0.0000000001
 40
0.0
 40
0.0
 40
0.0
 40
0.0
 40
0.2464405691
 40
0.4762982241
 40
0.5933281518
 40
0.7171460378
 40
0.8526286402
 40
1.0
 40
1.0
 40
1.0
 40
1.0
 10
100.3250099196
 20
107.4652926592
 30
0.0
 10
100.3605739094
 20
107.5954681468
 30
0.0
 10
100.3729496788
 20
107.8662469335
 30
0.0
 10
100.2458094467
 20
108.175955237
 30
0.0
 10
100.0774425677
 20
108.373393561
 30
0.0
 10
99.9109215557
 20
108.4979758885
 30
0.0
 10
99.7038069034
 20
108.5857285706
 30
0.0
 10
99.5480376415
 20
108.6070537154
 30
0.0
 10
99.4673399179
 20
108.6070466623
 30
0.0
  0
SPLINE
  5
38C
100
AcDbEntity
  8
RUNDUNGEN
100
AcDbSpline
 62
7
  6
CONTINUOUS
 70
0
 71
3
 72
15
 73
11
 74
0
 42
0.0000001
 43
0.0000001
 44
0.0000000001
 40
0.0
 40
0.0
 40
0.0
 40
0.0
 40
0.1252770438
 40
0.2482416884
 40
0.3697993613
 40
0.4913964785
 40
0.6145735069
 40
0.7404598413
 40
0.8692568163
 40
1.0
 40
1.0
 40
1.0
 40
1.0
 10
81.2159061849
 20
50.4181768091
 30
0.0
 10
81.1784394132
 20
50.2945496774
 30
0.0
 10
81.1362777288
 20
50.0384143474
 30
0.0
 10
81.176345552
 20
49.654931949
 30
0.0
 10
81.3116580867
 20
49.2981404006
 30
0.0
 10
81.5294325066
 20
48.9851522168
 30
0.0
 10
81.8160051101
 20
48.7274425801
 30
0.0
 10
82.1579230016
 20
48.5344628674
 30
0.0
 10
82.5395737536
 20
48.4142587244
 30
0.0
 10
82.8080167113
 20
48.3871745486
 30
0.0
 10
82.9428329603
 20
48.3871541287
 30
0.0
  0
SPLINE
  5
38D
100
AcDbEntity
  8
RUNDUNGEN
100
AcDbSpline
 62
7
  6
CONTINUOUS
 70
0
 71
3
 72
9
 73
5
 74
0
 42
0.0000001
 43
0.0000001
 44
0.0000000001
 40
0.0
 40
0.0
 40
0.0
 40
0.0
 40
0.5049192723
 40
1.0
 40
1.0
 40
1.0
 40
1.0
 10
83.9241834976
 20
48.3871541287
 30
0.0
 10
84.0825316665
 20
48.387188959
 30
0.0
 10
84.3972762903
 20
48.4245298656
 30
0.0
 10
84.6942596755
 20
48.5358129596
 30
0.0
 10
84.8316887769
 20
48.6080607798
 30
0.0
  0
LINE
  5
38E
100
AcDbEntity
  8
RUNDUNGEN
100
AcDbLine
 62
7
  6
CONTINUOUS
 10
84.8316887769
 20
48.6080607798
 11
84.7770683653
 21
48.3739601764
  0
SPLINE
  5
38F
100
AcDbEntity
  8
RUNDUNGEN
100
AcDbSpline
 62
7
  6
CONTINUOUS
 70
0
 71
3
 72
27
 73
23
 74
0
 42
0.0000001
 43
0.0000001
 44
0.0000000001
 40
0.0
 40
0.0
 40
0.0
 40
0.0
 40
0.1911177929
 40
0.375640795
 40
0.463361615
 40
0.5469826457
 40
0.6256909505
 40
0.6987106669
 40
0.7652882559
 40
0.8247212695
 40
0.8763425124
 40
0.9195764254
 40
0.9378812931
 40
0.9539044991
 40
0.9676013781
 40
0.9789274807
 40
0.9878421871
 40
0.9943264617
 40
0.9966544102
 40
0.9983723292
 40
0.999482341
 40
1.0
 40
1.0
 40
1.0
 40
1.0
 10
85.9837068543
 20
54.7362356873
 30
0.0
 10
85.8968351918
 20
54.4120249229
 30
0.0
 10
85.726596529
 20
53.7746547715
 30
0.0
 10
85.5179020259
 20
52.9880981183
 30
0.0
 10
85.3584854408
 20
52.3837894486
 30
0.0
 10
85.2469084811
 20
51.9590537511
 30
0.0
 10
85.1423554178
 20
51.5591677567
 30
0.0
 10
85.045867987
 20
51.1881117018
 30
0.0
 10
84.9584382619
 20
50.84967848
 30
0.0
 10
84.8809969268
 20
50.5474798309
 30
0.0
 10
84.8143996664
 20
50.2848250266
 30
0.0
 10
84.7662088739
 20
50.0920197736
 30
0.0
 10
84.733722187
 20
49.9597337464
 30
0.0
 10
84.7138849873
 20
49.8777551397
 30
0.0
 10
84.6972514554
 20
49.8076173222
 30
0.0
 10
84.6838473047
 20
49.7495300317
 30
0.0
 10
84.6737672204
 20
49.703717017
 30
0.0
 10
84.6674656422
 20
49.673167688
 30
0.0
 10
84.6643097478
 20
49.6550210755
 30
0.0
 10
84.6628726137
 20
49.6459473743
 30
0.0
 10
84.6625521615
 20
49.6403171138
 30
0.0
 10
84.6623479621
 20
49.6371575311
 30
0.0
 10
84.6628929771
 20
49.6364298797
 30
0.0
  0
SPLINE
  5
390
100
AcDbEntity
  8
RUNDUNGEN
100
AcDbSpline
 62
7
  6
CONTINUOUS
 70
0
 71
3
 72
22
 73
18
 74
0
 42
0.0000001
 43
0.0000001
 44
0.0000000001
 40
0.0
 40
0.0
 40
0.0
 40
0.0
 40
0.0018355679
 40
0.0060970159
 40
0.0127871997
 40
0.0218928599
 40
0.0333971298
 40
0.0472641777
 40
0.0818807965
 40
0.1253228995
 40
0.1770778535
 40
0.2365512914
 40
0.3031045752
 40
0.4545836284
 40
0.6254664298
 40
0.8094739106
 40
1.0
 40
1.0
 40
1.0
 40
1.0
 10
100.0810405772
 20
107.2780114408
 30
0.0
 10
100.0799908115
 20
107.2771893905
 30
0.0
 10
100.078653606
 20
107.2726018819
 30
0.0
 10
100.0751193185
 20
107.2643010836
 30
0.0
 10
100.0707248819
 20
107.2502451218
 30
0.0
 10
100.0646802977
 20
107.2314281335
 30
0.0
 10
100.0573974516
 20
107.2074397262
 30
0.0
 10
100.0449147383
 20
107.1657038869
 30
0.0
 10
100.026250783
 20
107.1015829085
 30
0.0
 10
100.0003178758
 20
107.0109274091
 30
0.0
 10
99.9697934972
 20
106.9028014527
 30
0.0
 10
99.9350136704
 20
106.7784351581
 30
0.0
 10
99.8811041289
 20
106.5842008776
 30
0.0
 10
99.8062069627
 20
106.3118070261
 30
0.0
 10
99.7094805326
 20
105.9569328103
 30
0.0
 10
99.6060039262
 20
105.5745012702
 30
0.0
 10
99.5353810217
 20
105.3117712449
 30
0.0
 10
99.4995613579
 20
105.1780914024
 30
0.0
  0
SPLINE
  5
391
100
AcDbEntity
  8
RUNDUNGEN
100
AcDbSpline
 62
7
  6
CONTINUOUS
 70
0
 71
3
 72
13
 73
9
 74
0
 42
0.0000001
 43
0.0000001
 44
0.0000000001
 40
0.0
 40
0.0
 40
0.0
 40
0.0
 40
0.2972877273
 40
0.5538948157
 40
0.6714048093
 40
0.7837668807
 40
0.892749775
 40
1.0
 40
1.0
 40
1.0
 40
1.0
 10
84.7770683653
 20
48.3739601764
 30
0.0
 10
84.6525675757
 20
47.8379434871
 30
0.0
 10
84.2586014523
 20
46.8671825659
 30
0.0
 10
83.4254043692
 20
45.9132813475
 30
0.0
 10
82.6771715648
 20
45.4054786712
 30
0.0
 10
82.10383093
 20
45.1435894767
 30
0.0
 10
81.5129643886
 20
44.987796453
 30
0.0
 10
81.1118874159
 20
44.953196387
 30
0.0
 10
80.9133650601
 20
44.953125
 30
0.0
  0
LINE
  5
392
100
AcDbEntity
  8
RUNDUNGEN
100
AcDbLine
 62
7
  6
CONTINUOUS
 10
97.0260333287
 20
105.6970250905
 11
96.8175956727
 21
104.9178569031
  0
SPLINE
  5
393
100
AcDbEntity
  8
RUNDUNGEN
100
AcDbSpline
 62
7
  6
CONTINUOUS
 70
0
 71
3
 72
23
 73
19
 74
0
 42
0.0000001
 43
0.0000001
 44
0.0000000001
 40
0.0
 40
0.0
 40
0.0
 40
0.0
 40
0.1910929649
 40
0.3756402541
 40
0.5469666335
 40
0.6256820549
 40
0.6987023872
 40
0.7652861782
 40
0.8247131394
 40
0.876341349
 40
0.9195762198
 40
0.9539101266
 40
0.96761064
 40
0.9789333455
 40
0.9878443873
 40
0.9943293692
 40
0.9983778642
 40
1.0
 40
1.0
 40
1.0
 40
1.0
 10
97.2233458477
 20
105.6439479445
 30
0.0
 10
97.2591114276
 20
105.7774278694
 30
0.0
 10
97.329209217
 20
106.0398713752
 30
0.0
 10
97.4306451981
 20
106.4221816062
 30
0.0
 10
97.5106784761
 20
106.7260926048
 30
0.0
 10
97.5697756662
 20
106.9521162707
 30
0.0
 10
97.6095071518
 20
107.1049124225
 30
0.0
 10
97.645508677
 20
107.2442664138
 30
0.0
 10
97.6773947371
 20
107.368704636
 30
0.0
 10
97.7048227311
 20
107.4768582323
 30
0.0
 10
97.7274637569
 20
107.567494578
 30
0.0
 10
97.7431696348
 20
107.6316180237
 30
0.0
 10
97.753044049
 20
107.6733640217
 30
0.0
 10
97.7586306784
 20
107.6973167305
 30
0.0
 10
97.7625989257
 20
107.7160795035
 30
0.0
 10
97.765864787
 20
107.7301026171
 30
0.0
 10
97.7665302566
 20
107.7383090461
 30
0.0
 10
97.7679088251
 20
107.7429255312
 30
0.0
 10
97.7672103854
 20
107.7438679829
 30
0.0
  0
SPLINE
  5
394
100
AcDbEntity
  8
RUNDUNGEN
100
AcDbSpline
 62
7
  6
CONTINUOUS
 70
0
 71
3
 72
26
 73
22
 74
0
 42
0.0000001
 43
0.0000001
 44
0.0000000001
 40
0.0
 40
0.0
 40
0.0
 40
0.0
 40
0.0006204164
 40
0.0018381047
 40
0.0036632327
 40
0.0060969205
 40
0.0127864219
 40
0.0218956837
 40
0.0334032431
 40
0.0472667655
 40
0.0634402942
 40
0.0818776643
 40
0.1253187881
 40
0.1770673078
 40
0.2365466705
 40
0.3030944319
 40
0.3760153217
 40
0.4545663992
 40
0.625465172
 40
0.8094490667
 40
1.0
 40
1.0
 40
1.0
 40
1.0
 10
82.2953275259
 20
50.1022864218
 30
0.0
 10
82.2961912659
 20
50.1029586003
 30
0.0
 10
82.2977049342
 20
50.1059867609
 30
0.0
 10
82.3004030928
 20
50.1117477264
 30
0.0
 10
82.303865478
 20
50.1208272539
 30
0.0
 10
82.3104126855
 20
50.1389656939
 30
0.0
 10
82.3205051115
 20
50.1695327438
 30
0.0
 10
82.3350038284
 20
50.2154586912
 30
0.0
 10
82.3527595569
 20
50.2736413113
 30
0.0
 10
82.373735452
 20
50.3438626625
 30
0.0
 10
82.3978488215
 20
50.4259066704
 30
0.0
 10
82.4362365479
 20
50.5581383149
 30
0.0
 10
82.4913463972
 20
50.7508633224
 30
0.0
 10
82.5654851219
 20
51.0134486342
 30
0.0
 10
82.6499434253
 20
51.3154751836
 30
0.0
 10
82.7438089173
 20
51.6536532119
 30
0.0
 10
82.8460887347
 20
52.0244114684
 30
0.0
 10
82.9965959609
 20
52.5728260654
 30
0.0
 10
83.1976620234
 20
53.310534506
 30
0.0
 10
83.4489752119
 20
54.2393314161
 30
0.0
 10
83.6204890691
 20
54.8773966194
 30
0.0
 10
83.7074913441
 20
55.2020922294
 30
0.0
  0
SPLINE
  5
395
100
AcDbEntity
  8
RUNDUNGEN
100
AcDbSpline
 62
7
  6
CONTINUOUS
 70
0
 71
3
 72
16
 73
12
 74
0
 42
0.0000001
 43
0.0000001
 44
0.0000000001
 40
0.0
 40
0.0
 40
0.0
 40
0.0
 40
0.0422510338
 40
0.0715847584
 40
0.107859807
 40
0.2020208131
 40
0.323994018
 40
0.470134162
 40
0.63554909
 40
0.8145400774
 40
1.0
 40
1.0
 40
1.0
 40
1.0
 10
54.75
 20
91.1181776533
 30
0.0
 10
54.7500000001
 20
91.1033721127
 30
0.0
 10
54.7648782507
 20
91.0793892999
 30
0.0
 10
54.7945421543
 20
91.0565835489
 30
0.0
 10
54.843702835
 20
91.0290418272
 30
0.0
 10
54.9273603848
 20
90.999348784
 30
0.0
 10
55.0508816938
 20
90.9695468806
 30
0.0
 10
55.2009193923
 20
90.9450044475
 30
0.0
 10
55.3718986201
 20
90.9266441063
 30
0.0
 10
55.5572865529
 20
90.9153545133
 30
0.0
 10
55.6850114262
 20
90.9127974962
 30
0.0
 10
55.75
 20
90.9127975542
 30
0.0
  0
SPLINE
  5
396
100
AcDbEntity
  8
RUNDUNGEN
100
AcDbSpline
 62
7
  6
CONTINUOUS
 70
0
 71
3
 72
13
 73
9
 74
0
 42
0.0000001
 43
0.0000001
 44
0.0000000001
 40
0.0
 40
0.0
 40
0.0
 40
0.0
 40
0.2500967348
 40
0.5000307214
 40
0.6250530159
 40
0.7500563233
 40
0.875033287
 40
1.0
 40
1.0
 40
1.0
 40
1.0
 10
55.7500087466
 20
92.1119839476
 30
0.0
 10
56.5570037916
 20
91.5025348561
 30
0.0
 10
58.1617172095
 20
90.2721939133
 30
0.0
 10
60.015346982
 20
88.539442478
 30
0.0
 10
61.2894220348
 20
86.9652495321
 30
0.0
 10
62.1036455466
 20
85.6811664772
 30
0.0
 10
62.7338276626
 20
84.2964737556
 30
0.0
 10
63.00107662
 20
83.3155631945
 30
0.0
 10
63.0888381325
 20
82.8179373987
 30
0.0
  0
SPLINE
  5
397
100
AcDbEntity
  8
RUNDUNGEN
100
AcDbSpline
 62
7
  6
CONTINUOUS
 70
0
 71
3
 72
27
 73
23
 74
0
 42
0.0000001
 43
0.0000001
 44
0.0000000001
 40
0.0
 40
0.0
 40
0.0
 40
0.0
 40
0.191895911
 40
0.3769959721
 40
0.4648825635
 40
0.5485750509
 40
0.6272583899
 40
0.7001651988
 40
0.7665555709
 40
0.8257499506
 40
0.8771075523
 40
0.9200810881
 40
0.9382655469
 40
0.9541799189
 40
0.967782806
 40
0.9790329644
 40
0.9878927584
 40
0.9943436178
 40
0.9966624421
 40
0.9983757905
 40
0.9994847127
 40
1.0
 40
1.0
 40
1.0
 40
1.0
 10
85.1144791142
 20
54.9694850171
 30
0.0
 10
85.0272037272
 20
54.5862750451
 30
0.0
 10
84.8562526177
 20
53.8333101899
 30
0.0
 10
84.6467979511
 20
52.9045062581
 30
0.0
 10
84.4869735458
 20
52.191688083
 30
0.0
 10
84.3752802974
 20
51.6914421992
 30
0.0
 10
84.2707487183
 20
51.221033112
 30
0.0
 10
84.1744095296
 20
50.7851047311
 30
0.0
 10
84.0872319566
 20
50.3880305688
 30
0.0
 10
84.0101180054
 20
50.0339335081
 30
0.0
 10
83.9438893357
 20
49.7265510653
 30
0.0
 10
83.8960154567
 20
49.5011341406
 30
0.0
 10
83.8637719921
 20
49.3466104625
 30
0.0
 10
83.8440965076
 20
49.2509126822
 30
0.0
 10
83.8276069985
 20
49.1690646559
 30
0.0
 10
83.8143227592
 20
49.1012963333
 30
0.0
 10
83.8043438352
 20
49.0478459774
 30
0.0
 10
83.7980986414
 20
49.0122255742
 30
0.0
 10
83.7949919077
 20
48.9910528933
 30
0.0
 10
83.7935491858
 20
48.9804960328
 30
0.0
 10
83.7932809142
 20
48.9738889109
 30
0.0
 10
83.7930232164
 20
48.9702808585
 30
0.0
 10
83.793592835
 20
48.96939242
 30
0.0
  0
SPLINE
  5
398
100
AcDbEntity
  8
RUNDUNGEN
100
AcDbSpline
 62
7
  6
CONTINUOUS
 70
0
 71
3
 72
26
 73
22
 74
0
 42
0.0000001
 43
0.0000001
 44
0.0000000001
 40
0.0
 40
0.0
 40
0.0
 40
0.0
 40
0.0005922321
 40
0.0017804484
 40
0.0035724941
 40
0.0059688563
 40
0.0125701605
 40
0.0215726559
 40
0.0329560581
 40
0.0466814779
 40
0.0627065793
 40
0.0809888795
 40
0.1241161307
 40
0.1755691974
 40
0.2347997344
 40
0.3011700672
 40
0.3740055796
 40
0.4525739313
 40
0.6238259815
 40
0.8085257861
 40
1.0
 40
1.0
 40
1.0
 40
1.0
 10
83.164627668
 20
48.96939242
 30
0.0
 10
83.1655292429
 20
48.9702098111
 30
0.0
 10
83.166982655
 20
48.9737372429
 30
0.0
 10
83.1696921178
 20
48.980437644
 30
0.0
 10
83.1731048417
 20
48.991012161
 30
0.0
 10
83.1796128482
 20
49.0121707239
 30
0.0
 10
83.1896119053
 20
49.0478115525
 30
0.0
 10
83.2039911484
 20
49.1013568109
 30
0.0
 10
83.2215999894
 20
49.169208362
 30
0.0
 10
83.2424116297
 20
49.2511286902
 30
0.0
 10
83.266344863
 20
49.3468841696
 30
0.0
 10
83.3044798148
 20
49.5013633979
 30
0.0
 10
83.3592682278
 20
49.7267155698
 30
0.0
 10
83.4330399405
 20
50.0340441162
 30
0.0
 10
83.517188942
 20
50.3879986834
 30
0.0
 10
83.6108342223
 20
50.7848572658
 30
0.0
 10
83.7130065976
 20
51.2205309118
 30
0.0
 10
83.8636418887
 20
51.8662022903
 30
0.0
 10
84.0651760043
 20
52.7360356551
 30
0.0
 10
84.3173079905
 20
53.8322947644
 30
0.0
 10
84.4894927082
 20
54.5858555458
 30
0.0
 10
84.5768639295
 20
54.9694830501
 30
0.0
  0
SPLINE
  5
399
100
AcDbEntity
  8
RUNDUNGEN
100
AcDbSpline
 62
7
  6
CONTINUOUS
 70
0
 71
3
 72
23
 73
19
 74
0
 42
0.0000001
 43
0.0000001
 44
0.0000000001
 40
0.0
 40
0.0
 40
0.0
 40
0.0
 40
0.0017304993
 40
0.0058606649
 40
0.0123864339
 40
0.0212944381
 40
0.0325692279
 40
0.0461804666
 40
0.0802339708
 40
0.1230909677
 40
0.174296214
 40
0.2333050559
 40
0.2995261402
 40
0.3722820124
 40
0.4508689208
 40
0.6224032125
 40
0.8077460181
 40
1.0
 40
1.0
 40
1.0
 40
1.0
 10
99.2117404351
 20
108.4109054426
 30
0.0
 10
99.2105548944
 20
108.4096009364
 30
0.0
 10
99.2095064394
 20
108.4033260738
 30
0.0
 10
99.2058019654
 20
108.3915695121
 30
0.0
 10
99.2016057652
 20
108.3719078497
 30
0.0
 10
99.1956048297
 20
108.3454479719
 30
0.0
 10
99.1884551607
 20
108.3117454041
 30
0.0
 10
99.1761371125
 20
108.2529987893
 30
0.0
 10
99.1577174077
 20
108.1626397903
 30
0.0
 10
99.1320775376
 20
108.0346845634
 30
0.0
 10
99.1018377126
 20
107.8817208465
 30
0.0
 10
99.0672997106
 20
107.7053490592
 30
0.0
 10
99.0288262127
 20
107.5073785245
 30
0.0
 10
98.9867953085
 20
107.2897837836
 30
0.0
 10
98.9247282809
 20
106.966801251
 30
0.0
 10
98.8415843138
 20
106.5310865497
 30
0.0
 10
98.7374972493
 20
105.9814950525
 30
0.0
 10
98.6663637912
 20
105.603498681
 30
0.0
 10
98.6302612158
 20
105.4110196734
 30
0.0
  0
SPLINE
  5
39A
100
AcDbEntity
  8
RUNDUNGEN
100
AcDbSpline
 62
7
  6
CONTINUOUS
 70
0
 71
3
 72
23
 73
19
 74
0
 42
0.0000001
 43
0.0000001
 44
0.0000000001
 40
0.0
 40
0.0
 40
0.0
 40
0.0
 40
0.1925471957
 40
0.378168178
 40
0.549928434
 40
0.6285942979
 40
0.7013984297
 40
0.7676324757
 40
0.826615083
 40
0.8777537419
 40
0.9205040558
 40
0.9544136981
 40
0.9679406409
 40
0.979123779
 40
0.9879337574
 40
0.9943562425
 40
0.9983790152
 40
1.0
 40
1.0
 40
1.0
 40
1.0
 10
98.0926459898
 20
105.4110196734
 30
0.0
 10
98.1287211512
 20
105.6033552838
 30
0.0
 10
98.1993608857
 20
105.9811478871
 30
0.0
 10
98.3013954837
 20
106.5306585255
 30
0.0
 10
98.3817263072
 20
106.9664806093
 30
0.0
 10
98.4408641017
 20
107.2896191838
 30
0.0
 10
98.4804773596
 20
107.5073011153
 30
0.0
 10
98.5162793973
 20
107.705343753
 30
0.0
 10
98.5479096668
 20
107.8817634919
 30
0.0
 10
98.5750538454
 20
108.0347426075
 30
0.0
 10
98.5974106804
 20
108.1626824608
 30
0.0
 10
98.612895542
 20
108.2530380636
 30
0.0
 10
98.6226057773
 20
108.3117966255
 30
0.0
 10
98.6281075115
 20
108.3454620783
 30
0.0
 10
98.6319746402
 20
108.3719125532
 30
0.0
 10
98.6352485209
 20
108.3914817696
 30
0.0
 10
98.6357646286
 20
108.4032940584
 30
0.0
 10
98.6372721148
 20
108.4094446071
 30
0.0
 10
98.6365105275
 20
108.4109054426
 30
0.0
  0
ELLIPSE
  5
39B
100
AcDbEntity
  8
0
100
AcDbEllipse
 62
7
  6
CONTINUOUS
 10
87.5366716013
 20
146.6406252602
 30
0.0
 11
0.0
 21
3.195
 31
0.0
 40
0.2679491924
 41
0.0
 42
3.1415926536
  0
ELLIPSE
  5
39C
100
AcDbEntity
  8
0
100
AcDbEllipse
 62
7
  6
CONTINUOUS
 10
92.1453977111
 20
146.6406252602
 30
0.0
 11
0.0
 21
3.195
 31
0.0
 40
0.2679491924
 41
-3.1415926536
 42
0.0
  0
ELLIPSE
  5
39D
100
AcDbEntity
  8
0
100
AcDbEllipse
 62
7
  6
CONTINUOUS
 10
63.8833753324
 20
146.6406252602
 30
0.0
 11
-0.0
 21
3.195
 31
0.0
 40
0.1763269807
 41
0.0
 42
3.1415926536
  0
ENDSEC
  0
SECTION
  2
OBJECTS
  0
DICTIONARY
  5
C
100
AcDbDictionary
280
0
281
1
  3
ACAD_GROUP
350
D
  3
ACAD_MLINESTYLE
350
17
  3
ACAD_LAYOUT
350
1A
  3
ACAD_PLOTSETTINGS
350
19
  3
ACAD_PLOTSTYLENAME
350
E
  0
DICTIONARY
  5
D
102
{ACAD_REACTORS
330
C
102
}
100
AcDbDictionary
280
0
281
1
  0
ACDBDICTIONARYWDFLT
  5
E
102
{ACAD_REACTORS
330
C
102
}
100
AcDbDictionary
281
1
  3
Normal
350
F
100
AcDbDictionaryWithDefault
340
F
  0
DICTIONARY
  5
17
102
{ACAD_REACTORS
330
C
102
}
100
AcDbDictionary
280
0
281
1
  3
Standard
350
18
  0
DICTIONARY
  5
19
102
{ACAD_REACTORS
330
C
102
}
100
AcDbDictionary
281
1
  0
DICTIONARY
  5
1A
102
{ACAD_REACTORS
330
C
102
}
100
AcDbDictionary
281
1
  3
Model
350
39E
  3
Layout1
350
39F
  0
ACDBPLACEHOLDER
  5
F
102
{ACAD_REACTORS
330
E
102
}
  0
MLINESTYLE
  5
18
102
{ACAD_REACTORS
330
17
102
}
100
AcDbMlineStyle
  2
STANDARD
 70
0
  3

 62
256
 51
90.0
 52
90.0
 71
2
 49
0.5
 62
256
  6
BYLAYER
 49
-0.5
 62
256
  6
BYLAYER
  0
LAYOUT
  5
39E
102
{ACAD_REACTORS
330
1A
102
}
100
AcDbPlotSettings
  1

  2
none_device
  4
ISO_A4_(297.00_x_210.00_MM)
  6

 40
0.0
 41
0.0
 42
0.0
 43
0.0
 44
297.0
 45
210.0
 46
0.0
 47
0.0
 48
0.0
 49
0.0
140
0.0
141
0.0
142
1.0
143
1.0
 70
1024
 72
1
 73
0
 74
0
  7

 75
0
147
1.0
148
0.0
149
0.0
100
AcDbLayout
  1
Model
 70
0
 71
0
 10
0.0
 20
0.0
 11
297.0
 21
210.0
 12
0.0
 22
0.0
 32
0.0
 14
0.0
 24
0.0
 34
0.0
 15
0.0
 25
0.0
 35
0.0
146
0.0
 13
0.0
 23
0.0
 33
0.0
 16
1.0
 26
0.0
 36
0.0
 17
0.0
 27
1.0
 37
0.0
 76
0
330
212
345
0
346
0
  0
LAYOUT
  5
39F
102
{ACAD_REACTORS
330
1A
102
}
100
AcDbPlotSettings
  1

  2
none_device
  4
ISO_A4_(297.00_x_210.00_MM)
  6

 40
0.0
 41
0.0
 42
0.0
 43
0.0
 44
297.0
 45
210.0
 46
0.0
 47
0.0
 48
0.0
 49
0.0
140
0.0
141
0.0
142
1.0
143
1.0
 70
0
 72
1
 73
0
 74
0
  7

 75
0
147
1.0
148
0.0
149
0.0
100
AcDbLayout
  1
Layout1
 70
0
 71
1
 10
0.0
 20
0.0
 11
297.0
 21
210.0
 12
0.0
 22
0.0
 32
0.0
 14
0.0
 24
0.0
 34
0.0
 15
0.0
 25
0.0
 35
0.0
146
0.0
 13
0.0
 23
0.0
 33
0.0
 16
1.0
 26
0.0
 36
0.0
 17
0.0
 27
1.0
 37
0.0
 76
0
330
213
345
0
346
0
  0
ENDSEC
  0
EOF
