999
DXF file: S:\Prolink\03_Konstruktion\CAD-Plots\Internet\2D_neu\S9\s9-57_grt_smr_g_w50.dxf
999
Pro/ENGINEER 2012230 by Parametric Technology Corporation
  0
SECTION
  2
HEADER
  9
$ACADVER
  1
AC1021
  9
$DWGCODEPAGE
  3
ANSI_1252
  9
$EXTMAX
 10
297.0
 20
210.0
 30
0.0
  9
$EXTMIN
 10
0.0
 20
0.0
 30
0.0
  9
$LIMMIN
 10
0.0
 20
0.0
  9
$LIMMAX
 10
297.0
 20
210.0
  9
$VIEWCTR
 10
148.5
 20
105.0
  9
$VIEWSIZE
 40
210.0
  9
$CLAYER
  8
0
  9
$LTSCALE
 40
16.335
  9
$CELTYPE
  6
BYLAYER
  9
$DIMSCALE
 40
1.0
  9
$DIMASZ
 40
3.5
  9
$DIMEXO
 40
0.0
  9
$DIMDLI
 40
11.286
  9
$DIMEXE
 40
1.5
  9
$DIMCEN
 40
2.673
  9
$DIMLFAC
 40
1.0
  9
$DIMBLK
  1
_FILLED
  9
$DIMTXT
 40
3.5
  9
$DIMTOL
 70
1
  9
$DIMLIM
 70
0
  9
$DIMTFAC
 40
1.0
  9
$DIMTP
 40
0.005
  9
$DIMTM
 40
0.005
  9
$DIMGAP
 40
0.625
  9
$DIMDSEP
 70
46
  9
$PDMODE
 70
3
  9
$PDSIZE
 40
0.3125
  9
$HANDSEED
  5
307
  9
$TILEMODE
 70
1
  9
$MEASUREMENT
 70
1
  9
$INSUNITS
 70
4
  0
ENDSEC
  0
SECTION
  2
CLASSES
  0
CLASS
  1
ACDBDICTIONARYWDFLT
  2
AcDbDictionaryWithDefault
  3
AutoCAD 2000
 90
0
 91
1
280
0
281
0
  0
CLASS
  1
ACDBPLACEHOLDER
  2
AcDbPlaceHolder
  3
AutoCAD 2000
 90
0
 91
1
280
0
281
0
  0
CLASS
  1
LAYOUT
  2
AcDbLayout
  3
AutoCAD 2000
 90
0
 91
0
280
0
281
0
  0
ENDSEC
  0
SECTION
  2
TABLES
  0
TABLE
  2
VPORT
  5
8
100
AcDbSymbolTable
 70
2
  0
VPORT
  5
1F4
100
AcDbSymbolTableRecord
100
AcDbViewportTableRecord
  2
*ACTIVE
 70
0
 10
0.0
 20
0.0
 11
1.0
 21
1.0
 12
148.5
 22
105.0
 13
0.0
 23
0.0
 14
1.0
 24
1.0
 15
0.0
 25
0.0
 16
0.0
 26
0.0
 36
1.0
 17
0.0
 27
0.0
 37
0.0
 40
210.0
 41
1.4142857143
 42
50.0
 43
0.0
 44
0.0
 50
0.0
 51
0.0
 71
0
 72
100
 73
1
 74
1
 75
0
 76
0
 77
0
 78
0
  0
ENDTAB
  0
TABLE
  2
LTYPE
  5
5
100
AcDbSymbolTable
 70
6
  0
LTYPE
  5
14
100
AcDbSymbolTableRecord
100
AcDbLinetypeTableRecord
  2
BYBLOCK
 70
0
  3

 72
65
 73
0
 40
0.0
  0
LTYPE
  5
15
100
AcDbSymbolTableRecord
100
AcDbLinetypeTableRecord
  2
BYLAYER
 70
0
  3

 72
65
 73
0
 40
0.0
  0
LTYPE
  5
16
100
AcDbSymbolTableRecord
100
AcDbLinetypeTableRecord
  2
CONTINUOUS
 70
64
  3
Solid line
 72
65
 73
0
 40
0.0
  0
LTYPE
  5
1F5
100
AcDbSymbolTableRecord
100
AcDbLinetypeTableRecord
  2
CENTER
 70
64
  3
____ _ ____ _ ____ _ ____ _ ____ _ ____ _ ____
 72
65
 73
4
 40
0.6
 49
0.375
 74
0
 49
-0.075
 74
0
 49
0.075
 74
0
 49
-0.075
 74
0
  0
LTYPE
  5
1F6
100
AcDbSymbolTableRecord
100
AcDbLinetypeTableRecord
  2
HIDDEN
 70
64
  3
- - - - - - - - - - - - - - - - - - - -
 72
65
 73
2
 40
0.2
 49
0.1
 74
0
 49
-0.1
 74
0
  0
LTYPE
  5
1F7
100
AcDbSymbolTableRecord
100
AcDbLinetypeTableRecord
  2
PHANTOM
 70
64
  3
_____ _ _ _____ _ _ _____ _ _ _____
 72
65
 73
6
 40
0.8
 49
0.45
 74
0
 49
-0.05
 74
0
 49
0.1
 74
0
 49
-0.05
 74
0
 49
0.1
 74
0
 49
-0.05
 74
0
  0
LTYPE
  5
1F8
100
AcDbSymbolTableRecord
100
AcDbLinetypeTableRecord
  2
DOT
 70
64
  3
. . . . . . . . . . . . . . . . . . . .
 72
65
 73
2
 40
0.2
 49
0.1
 74
0
 49
-0.1
 74
0
  0
LTYPE
  5
1F9
100
AcDbSymbolTableRecord
100
AcDbLinetypeTableRecord
  2
DASHED
 70
64
  3
- - - - - - - - - - - - - - - - - - - -
 72
65
 73
2
 40
0.2
 49
0.1
 74
0
 49
-0.1
 74
0
  0
ENDTAB
  0
TABLE
  2
LAYER
  5
2
100
AcDbSymbolTable
 70
36
  0
LAYER
  5
10
100
AcDbSymbolTableRecord
100
AcDbLayerTableRecord
  2
0
 70
0
 62
7
  6
CONTINUOUS
370
-3
390
F
  0
LAYER
  5
1FA
100
AcDbSymbolTableRecord
100
AcDbLayerTableRecord
  2
DEFAULT_1
 70
0
 62
7
  6
CENTER
370
-3
390
F
  0
LAYER
  5
1FB
100
AcDbSymbolTableRecord
100
AcDbLayerTableRecord
  2
DEFAULT_2
 70
0
 62
8
  6
HIDDEN
370
-3
390
F
  0
LAYER
  5
1FC
100
AcDbSymbolTableRecord
100
AcDbLayerTableRecord
  2
DEFAULT_3
 70
0
 62
7
  6
PHANTOM
370
-3
390
F
  0
LAYER
  5
1FD
100
AcDbSymbolTableRecord
100
AcDbLayerTableRecord
  2
01___PRT_ALL_DTM_PLN
 70
0
 62
7
  6
CONTINUOUS
370
-3
390
F
  0
LAYER
  5
1FE
100
AcDbSymbolTableRecord
100
AcDbLayerTableRecord
  2
01___PRT_DEF_DTM_PLN
 70
0
 62
7
  6
CONTINUOUS
370
-3
390
F
  0
LAYER
  5
1FF
100
AcDbSymbolTableRecord
100
AcDbLayerTableRecord
  2
02___PRT_ALL_AXES
 70
0
 62
7
  6
CONTINUOUS
370
-3
390
F
  0
LAYER
  5
200
100
AcDbSymbolTableRecord
100
AcDbLayerTableRecord
  2
03___PRT_ALL_CURVES
 70
0
 62
7
  6
CONTINUOUS
370
-3
390
F
  0
LAYER
  5
201
100
AcDbSymbolTableRecord
100
AcDbLayerTableRecord
  2
04___PRT_ALL_DTM_PNT
 70
0
 62
7
  6
CONTINUOUS
370
-3
390
F
  0
LAYER
  5
202
100
AcDbSymbolTableRecord
100
AcDbLayerTableRecord
  2
05___PRT_ALL_DTM_CSYS
 70
0
 62
7
  6
CONTINUOUS
370
-3
390
F
  0
LAYER
  5
203
100
AcDbSymbolTableRecord
100
AcDbLayerTableRecord
  2
05___PRT_DEF_DTM_CSYS
 70
0
 62
7
  6
CONTINUOUS
370
-3
390
F
  0
LAYER
  5
204
100
AcDbSymbolTableRecord
100
AcDbLayerTableRecord
  2
06___PRT_ALL_SURFS
 70
0
 62
7
  6
CONTINUOUS
370
-3
390
F
  0
LAYER
  5
205
100
AcDbSymbolTableRecord
100
AcDbLayerTableRecord
  2
ALLE
 70
0
 62
7
  6
CONTINUOUS
370
-3
390
F
  0
LAYER
  5
206
100
AcDbSymbolTableRecord
100
AcDbLayerTableRecord
  2
AUSFORMSCHRAEGEN
 70
0
 62
7
  6
CONTINUOUS
370
-3
390
F
  0
LAYER
  5
207
100
AcDbSymbolTableRecord
100
AcDbLayerTableRecord
  2
BEZUGSACHSEN
 70
0
 62
7
  6
CONTINUOUS
370
-3
390
F
  0
LAYER
  5
208
100
AcDbSymbolTableRecord
100
AcDbLayerTableRecord
  2
BEZUGSEBENE
 70
0
 62
7
  6
CONTINUOUS
370
-3
390
F
  0
LAYER
  5
209
100
AcDbSymbolTableRecord
100
AcDbLayerTableRecord
  2
BEZUGSEBENEN
 70
0
 62
7
  6
CONTINUOUS
370
-3
390
F
  0
LAYER
  5
20A
100
AcDbSymbolTableRecord
100
AcDbLayerTableRecord
  2
BEZUGSEBENEN-KES
 70
0
 62
7
  6
CONTINUOUS
370
-3
390
F
  0
LAYER
  5
20B
100
AcDbSymbolTableRecord
100
AcDbLayerTableRecord
  2
FLAECHEN
 70
0
 62
7
  6
CONTINUOUS
370
-3
390
F
  0
LAYER
  5
20C
100
AcDbSymbolTableRecord
100
AcDbLayerTableRecord
  2
KURVEN
 70
0
 62
7
  6
CONTINUOUS
370
-3
390
F
  0
LAYER
  5
20D
100
AcDbSymbolTableRecord
100
AcDbLayerTableRecord
  2
PARAMETER-BEMAßUNGEN
 70
0
 62
7
  6
CONTINUOUS
370
-3
390
F
  0
LAYER
  5
20E
100
AcDbSymbolTableRecord
100
AcDbLayerTableRecord
  2
RUNDUNGEN
 70
0
 62
7
  6
CONTINUOUS
370
-3
390
F
  0
LAYER
  5
20F
100
AcDbSymbolTableRecord
100
AcDbLayerTableRecord
  2
SAMMELFLÄCHEN
 70
0
 62
7
  6
CONTINUOUS
370
-3
390
F
  0
ENDTAB
  0
TABLE
  2
STYLE
  5
3
100
AcDbSymbolTable
 70
1
  0
STYLE
  5
11
100
AcDbSymbolTableRecord
100
AcDbTextStyleTableRecord
  2
STANDARD
 70
0
 40
0.0
 41
0.7
 50
0.0
 71
0
 42
0.2
  3
txt
  4

  0
STYLE
  5
210
100
AcDbSymbolTableRecord
100
AcDbTextStyleTableRecord
  2
TEXTSTYLE_1
 70
0
 40
0.0
 41
0.8
 50
0.0
 71
0
 42
0.2
  3
gdt
  4

  0
ENDTAB
  0
TABLE
  2
VIEW
  5
6
100
AcDbSymbolTable
 70
0
  0
ENDTAB
  0
TABLE
  2
UCS
  5
7
100
AcDbSymbolTable
 70
0
  0
ENDTAB
  0
TABLE
  2
APPID
  5
9
100
AcDbSymbolTable
 70
1
  0
APPID
  5
211
100
AcDbSymbolTableRecord
100
AcDbRegAppTableRecord
  2
ACAD
 70
0
  0
ENDTAB
  0
TABLE
  2
BLOCK_RECORD
  5
1
100
AcDbSymbolTable
 70
0
  0
BLOCK_RECORD
  5
212
100
AcDbSymbolTableRecord
100
AcDbBlockTableRecord
  2
*Model_Space
  0
BLOCK_RECORD
  5
213
100
AcDbSymbolTableRecord
100
AcDbBlockTableRecord
  2
*Paper_Space
  0
ENDTAB
  0
TABLE
  2
DIMSTYLE
  5
A
100
AcDbSymbolTable
 70
1
100
AcDbDimStyleTable
 71
0
  0
DIMSTYLE
105
214
100
AcDbSymbolTableRecord
100
AcDbDimStyleTableRecord
  2
STANDARD
 70
0
  3

  4

 40
1.0
 41
3.5
 42
0.0
 43
0.38
 44
1.5
 45
0.0
 46
0.0
 47
0.005
 48
0.005
140
3.5
141
0.09
142
0.0
143
25.4
144
1.0
145
0.0
146
1.0
147
0.625
 71
1.0
 72
0.0
 73
0
 74
0
 75
0
 76
0
 77
1
 78
8
170
0
171
2
172
0
173
0
174
0
175
0
176
0
177
0
178
5
270
2
271
3
272
3
273
2
274
2
275
0
280
0
281
0
282
0
283
1
284
8
285
0
286
0
287
3
288
0
340
11
278
46
  0
ENDTAB
  0
ENDSEC
  0
SECTION
  2
BLOCKS
  0
BLOCK
  5
20
100
AcDbEntity
  8
0
100
AcDbBlockBegin
  2
*Model_Space
 70
0
 10
0.0
 20
0.0
 30
0.0
  3
*Model_Space
  1

  0
ENDBLK
  5
21
100
AcDbEntity
  8
0
100
AcDbBlockEnd
  0
BLOCK
  5
1C
100
AcDbEntity
  8
0
100
AcDbBlockBegin
  2
*Paper_Space
 70
0
 10
0.0
 20
0.0
 30
0.0
  3
*Paper_Space
  1

  0
ENDBLK
  5
1D
100
AcDbEntity
  8
0
100
AcDbBlockEnd
  0
ENDSEC
  0
SECTION
  2
ENTITIES
  0
LINE
  5
215
100
AcDbEntity
  8
0
100
AcDbLine
 62
7
  6
CONTINUOUS
 10
0.0
 20
0.0
 11
0.0
 21
210.0
  0
LINE
  5
216
100
AcDbEntity
  8
0
100
AcDbLine
 62
7
  6
CONTINUOUS
 10
0.0
 20
0.0
 11
297.0
 21
0.0
  0
LINE
  5
217
100
AcDbEntity
  8
0
100
AcDbLine
 62
7
  6
CONTINUOUS
 10
0.0
 20
210.0
 11
297.0
 21
210.0
  0
LINE
  5
218
100
AcDbEntity
  8
0
100
AcDbLine
 62
7
  6
CONTINUOUS
 10
297.0
 20
0.0
 11
297.0
 21
210.0
  0
LINE
  5
219
100
AcDbEntity
  8
RUNDUNGEN
100
AcDbLine
 62
7
  6
CONTINUOUS
 10
54.75
 20
146.6406245093
 11
54.75
 21
171.6406245093
  0
LINE
  5
21A
100
AcDbEntity
  8
0
100
AcDbLine
 62
7
  6
CONTINUOUS
 10
59.1139685943
 20
157.6406245093
 11
59.1139685943
 21
149.6406245093
  0
LINE
  5
21B
100
AcDbEntity
  8
0
100
AcDbLine
 62
7
  6
CONTINUOUS
 10
60.6912501802
 20
157.6406245093
 11
60.6912501802
 21
149.6406245093
  0
LINE
  5
21C
100
AcDbEntity
  8
0
100
AcDbLine
 62
7
  6
CONTINUOUS
 10
60.9319842971
 20
149.6406245093
 11
60.9319842971
 21
157.6406245093
  0
LINE
  5
21D
100
AcDbEntity
  8
RUNDUNGEN
100
AcDbLine
 62
7
  6
CONTINUOUS
 10
61.8732477524
 20
171.6406245093
 11
61.8732477524
 21
158.6406245093
  0
LINE
  5
21E
100
AcDbEntity
  8
RUNDUNGEN
100
AcDbLine
 62
7
  6
CONTINUOUS
 10
78.75
 20
145.6406245093
 11
55.75
 21
145.6406245093
  0
LINE
  5
21F
100
AcDbEntity
  8
RUNDUNGEN
100
AcDbLine
 62
7
  6
CONTINUOUS
 10
68.0214222372
 20
170.801513757
 11
68.0214113594
 21
159.4797071202
  0
LINE
  5
220
100
AcDbEntity
  8
RUNDUNGEN
100
AcDbLine
 62
7
  6
CONTINUOUS
 10
67.7496956688
 20
162.1556773937
 11
67.7189514498
 21
161.9534107798
  0
LINE
  5
221
100
AcDbEntity
  8
RUNDUNGEN
100
AcDbLine
 62
7
  6
CONTINUOUS
 10
79.75
 20
146.6406245093
 11
54.75
 21
146.6406245093
  0
LINE
  5
222
100
AcDbEntity
  8
0
100
AcDbLine
 62
7
  6
CONTINUOUS
 10
79.75
 20
149.6406245093
 11
59.1139685943
 21
149.6406245093
  0
LINE
  5
223
100
AcDbEntity
  8
RUNDUNGEN
100
AcDbLine
 62
7
  6
CONTINUOUS
 10
67.7189534213
 20
168.3278589982
 11
67.7506484303
 21
168.1188499309
  0
LWPOLYLINE
  5
224
100
AcDbEntity
  8
RUNDUNGEN
100
AcDbPolyline
 62
7
  6
CONTINUOUS
 90
21
 70
0
 10
67.7506484303
 20
168.1188499309
 10
67.7806415636
 20
167.8936869978
 10
67.8090599766
 20
167.6498573673
 10
67.8355380363
 20
167.3876871805
 10
67.8596795594
 20
167.107617342
 10
67.8810841229
 20
166.8103237288
 10
67.8993805089
 20
166.4961226806
 10
67.9140987241
 20
166.1682021771
 10
67.9248938853
 20
165.8291280256
 10
67.9314555126
 20
165.4826202547
 10
67.9336010683
 20
165.1323854813
 10
67.9312472709
 20
164.7823084972
 10
67.9244857851
 20
164.4362564274
 10
67.9135141704
 20
164.097922865
 10
67.8986501581
 20
163.771035356
 10
67.8802398623
 20
163.4580394152
 10
67.8587584911
 20
163.1620221605
 10
67.8345705716
 20
162.8832500535
 10
67.8080726668
 20
162.6223268016
 10
67.7796561257
 20
162.3796948079
 10
67.7496956688
 20
162.1556773937
  0
LINE
  5
225
100
AcDbEntity
  8
RUNDUNGEN
100
AcDbLine
 62
7
  6
CONTINUOUS
 10
76.0440952255
 20
149.6406245093
 11
76.0440952255
 21
146.6406245093
  0
LINE
  5
226
100
AcDbEntity
  8
RUNDUNGEN
100
AcDbLine
 62
7
  6
CONTINUOUS
 10
79.75
 20
149.6406245093
 11
79.75
 21
146.6406245093
  0
LINE
  5
227
100
AcDbEntity
  8
0
100
AcDbLine
 62
7
  6
CONTINUOUS
 10
104.75
 20
157.6406245093
 11
97.8173326026
 21
157.6406245093
  0
LINE
  5
228
100
AcDbEntity
  8
0
100
AcDbLine
 62
7
  6
CONTINUOUS
 10
68.4429742566
 20
157.6406245093
 11
85.7243427628
 21
157.6406245093
  0
LINE
  5
229
100
AcDbEntity
  8
RUNDUNGEN
100
AcDbLine
 62
7
  6
CONTINUOUS
 10
55.7652081941
 20
157.6406245093
 11
100.8173326026
 21
157.6406245093
  0
LINE
  5
22A
100
AcDbEntity
  8
RUNDUNGEN
100
AcDbLine
 62
7
  6
CONTINUOUS
 10
98.8173326026
 20
158.6406245093
 11
86.6902685891
 21
158.6406245093
  0
LINE
  5
22B
100
AcDbEntity
  8
RUNDUNGEN
100
AcDbLine
 62
7
  6
CONTINUOUS
 10
67.4581665036
 20
158.6406245093
 11
54.75
 21
158.6406245093
  0
LINE
  5
22C
100
AcDbEntity
  8
RUNDUNGEN
100
AcDbLine
 62
7
  6
CONTINUOUS
 10
87.2911891309
 20
159.9456243351
 11
92.5953080517
 21
159.9456244155
  0
LINE
  5
22D
100
AcDbEntity
  8
RUNDUNGEN
100
AcDbLine
 62
7
  6
CONTINUOUS
 10
67.7701774243
 20
161.9456245093
 11
62.6240156854
 21
161.9456245093
  0
LINE
  5
22E
100
AcDbEntity
  8
RUNDUNGEN
100
AcDbLine
 62
7
  6
CONTINUOUS
 10
86.3183232397
 20
161.9456245093
 11
90.66345354
 21
161.9456245093
  0
LINE
  5
22F
100
AcDbEntity
  8
RUNDUNGEN
100
AcDbLine
 62
7
  6
CONTINUOUS
 10
85.7430329611
 20
170.5952273329
 11
85.743031144
 21
159.6860254163
  0
LWPOLYLINE
  5
230
100
AcDbEntity
  8
RUNDUNGEN
100
AcDbPolyline
 62
7
  6
CONTINUOUS
 90
29
 70
0
 10
86.5057433781
 20
161.4275267098
 10
86.5017106166
 20
161.4347259949
 10
86.479378849
 20
161.4793393495
 10
86.443734232
 20
161.5617399969
 10
86.3985538097
 20
161.6826277747
 10
86.3472403499
 20
161.8416378489
 10
86.2930376829
 20
162.0365520112
 10
86.2380311728
 20
162.2671721484
 10
86.1841596205
 20
162.5318122434
 10
86.1331556637
 20
162.8289617965
 10
86.0866208149
 20
163.1564946903
 10
86.046005089
 20
163.5124129643
 10
86.0125867425
 20
163.8946039741
 10
85.9876764161
 20
164.2970222955
 10
85.9722268432
 20
164.7139703562
 10
85.9669353007
 20
165.1382585148
 10
85.9721125934
 20
165.5626460701
 10
85.9874624727
 20
165.9798915269
 10
86.0123011943
 20
166.3828102943
 10
86.0456819633
 20
166.765620021
 10
86.0862951437
 20
167.1222123425
 10
86.1328606281
 20
167.4504053949
 10
86.1839135245
 20
167.7481237239
 10
86.2378464317
 20
168.0132401405
 10
86.2929162197
 20
168.2442320512
 10
86.3471856943
 20
168.4394200659
 10
86.3985463565
 20
168.5986026885
 10
86.4437662012
 20
168.7195857746
 10
86.462188292
 20
168.7636838079
  0
LINE
  5
231
100
AcDbEntity
  8
RUNDUNGEN
100
AcDbLine
 62
7
  6
CONTINUOUS
 10
90.6634537166
 20
168.3356245093
 11
86.3183266974
 21
168.3356245093
  0
LINE
  5
232
100
AcDbEntity
  8
RUNDUNGEN
100
AcDbLine
 62
7
  6
CONTINUOUS
 10
62.624015685
 20
168.3356245093
 11
67.7701621847
 21
168.3356245093
  0
LINE
  5
233
100
AcDbEntity
  8
RUNDUNGEN
100
AcDbLine
 62
7
  6
CONTINUOUS
 10
92.5953080626
 20
170.3356246031
 11
87.2911891522
 21
170.3356246835
  0
LINE
  5
234
100
AcDbEntity
  8
RUNDUNGEN
100
AcDbLine
 62
7
  6
CONTINUOUS
 10
98.8173326026
 20
171.6406245093
 11
86.6902685891
 21
171.6406245093
  0
LINE
  5
235
100
AcDbEntity
  8
RUNDUNGEN
100
AcDbLine
 62
7
  6
CONTINUOUS
 10
54.75
 20
171.6406245093
 11
67.4581665036
 21
171.6406245093
  0
LINE
  5
236
100
AcDbEntity
  8
0
100
AcDbLine
 62
7
  6
CONTINUOUS
 10
104.75
 20
172.6406245093
 11
97.8173326026
 21
172.6406245093
  0
LINE
  5
237
100
AcDbEntity
  8
0
100
AcDbLine
 62
7
  6
CONTINUOUS
 10
68.4429742566
 20
172.6406245093
 11
85.7243427628
 21
172.6406245093
  0
LINE
  5
238
100
AcDbEntity
  8
RUNDUNGEN
100
AcDbLine
 62
7
  6
CONTINUOUS
 10
55.75
 20
172.6406245093
 11
104.75
 21
172.6406245093
  0
LINE
  5
239
100
AcDbEntity
  8
RUNDUNGEN
100
AcDbLine
 62
7
  6
CONTINUOUS
 10
98.8173326026
 20
171.6406245093
 11
98.8173326026
 21
170.9715764041
  0
LINE
  5
23A
100
AcDbEntity
  8
RUNDUNGEN
100
AcDbLine
 62
7
  6
CONTINUOUS
 10
98.8173326026
 20
159.3096726145
 11
98.8173326026
 21
158.6406245093
  0
LINE
  5
23B
100
AcDbEntity
  8
RUNDUNGEN
100
AcDbLine
 62
7
  6
CONTINUOUS
 10
100.81745354
 20
172.640624503
 11
100.8173326026
 21
169.7440075842
  0
LINE
  5
23C
100
AcDbEntity
  8
RUNDUNGEN
100
AcDbLine
 62
7
  6
CONTINUOUS
 10
100.8173326026
 20
160.5372414344
 11
100.8173326026
 21
157.6406245093
  0
LINE
  5
23D
100
AcDbEntity
  8
0
100
AcDbLine
 62
7
  6
CONTINUOUS
 10
104.75
 20
157.6406245093
 11
104.75
 21
172.6406245093
  0
LINE
  5
23E
100
AcDbEntity
  8
RUNDUNGEN
100
AcDbLine
 62
7
  6
CONTINUOUS
 10
183.96875
 20
146.6406245093
 11
183.9691469253
 21
171.6406245093
  0
LINE
  5
23F
100
AcDbEntity
  8
RUNDUNGEN
100
AcDbLine
 62
7
  6
CONTINUOUS
 10
186.58875
 20
145.6406245093
 11
186.58875
 21
172.6406245093
  0
LINE
  5
240
100
AcDbEntity
  8
RUNDUNGEN
100
AcDbLine
 62
7
  6
CONTINUOUS
 10
188.96875
 20
145.6406245093
 11
188.96875
 21
150.6406245093
  0
LINE
  5
241
100
AcDbEntity
  8
0
100
AcDbLine
 62
7
  6
CONTINUOUS
 10
193.96875
 20
145.6406245093
 11
193.96875
 21
149.6406245093
  0
LINE
  5
242
100
AcDbEntity
  8
RUNDUNGEN
100
AcDbLine
 62
7
  6
CONTINUOUS
 10
198.96875
 20
145.6406245093
 11
198.96875
 21
150.6406245093
  0
LINE
  5
243
100
AcDbEntity
  8
RUNDUNGEN
100
AcDbLine
 62
7
  6
CONTINUOUS
 10
203.96875
 20
146.6406245093
 11
203.96875
 21
171.6406245093
  0
LINE
  5
244
100
AcDbEntity
  8
RUNDUNGEN
100
AcDbLine
 62
7
  6
CONTINUOUS
 10
202.6655246272
 20
145.6406245093
 11
198.96875
 21
145.6406245093
  0
LINE
  5
245
100
AcDbEntity
  8
RUNDUNGEN
100
AcDbLine
 62
7
  6
CONTINUOUS
 10
188.96875
 20
145.6406245093
 11
184.96875
 21
145.6406245093
  0
LINE
  5
246
100
AcDbEntity
  8
0
100
AcDbLine
 62
7
  6
CONTINUOUS
 10
188.96875
 20
145.6406245093
 11
198.96875
 21
145.6406245093
  0
LINE
  5
247
100
AcDbEntity
  8
RUNDUNGEN
100
AcDbLine
 62
7
  6
CONTINUOUS
 10
203.96875
 20
146.6406245093
 11
198.96875
 21
146.6406245093
  0
LINE
  5
248
100
AcDbEntity
  8
RUNDUNGEN
100
AcDbLine
 62
7
  6
CONTINUOUS
 10
188.96875
 20
146.6406245093
 11
183.96875
 21
146.6406245093
  0
LINE
  5
249
100
AcDbEntity
  8
RUNDUNGEN
100
AcDbLine
 62
7
  6
CONTINUOUS
 10
183.9691469253
 20
149.6406245093
 11
183.9703360238
 21
149.6406245093
  0
LINE
  5
24A
100
AcDbEntity
  8
0
100
AcDbLine
 62
7
  6
CONTINUOUS
 10
188.96875
 20
149.6406245093
 11
198.96875
 21
149.6406245093
  0
LINE
  5
24B
100
AcDbEntity
  8
0
100
AcDbLine
 62
7
  6
CONTINUOUS
 10
188.96875
 20
150.6406245093
 11
198.96875
 21
150.6406245093
  0
LINE
  5
24C
100
AcDbEntity
  8
RUNDUNGEN
100
AcDbLine
 62
7
  6
CONTINUOUS
 10
214.96875
 20
171.6406245093
 11
214.96875
 21
158.6406245093
  0
LINE
  5
24D
100
AcDbEntity
  8
RUNDUNGEN
100
AcDbLine
 62
7
  6
CONTINUOUS
 10
218.2628452255
 20
167.0714562158
 11
218.2628452255
 21
163.2096463335
  0
LINE
  5
24E
100
AcDbEntity
  8
RUNDUNGEN
100
AcDbLine
 62
7
  6
CONTINUOUS
 10
246.4684762563
 20
157.6406245093
 11
203.96875
 21
157.6406245093
  0
LINE
  5
24F
100
AcDbEntity
  8
RUNDUNGEN
100
AcDbLine
 62
7
  6
CONTINUOUS
 10
246.6423981777
 20
158.6406245093
 11
203.96875
 21
158.6406245093
  0
LINE
  5
250
100
AcDbEntity
  8
RUNDUNGEN
100
AcDbLine
 62
7
  6
CONTINUOUS
 10
248.41190004
 20
161.9456245093
 11
219.2265665295
 21
161.9456245093
  0
LINE
  5
251
100
AcDbEntity
  8
0
100
AcDbLine
 62
7
  6
CONTINUOUS
 10
221.96875
 20
161.9456245093
 11
221.96875
 21
162.1347701784
  0
LINE
  5
252
100
AcDbEntity
  8
0
100
AcDbLine
 62
7
  6
CONTINUOUS
 10
221.96875
 20
168.1464781422
 11
221.96875
 21
168.3356245093
  0
LWPOLYLINE
  5
253
100
AcDbEntity
  8
RUNDUNGEN
100
AcDbPolyline
 62
7
  6
CONTINUOUS
 90
29
 70
0
 10
224.1720435778
 20
161.945624666
 10
223.9355714475
 20
161.9557132752
 10
223.5930049219
 20
162.0062631692
 10
223.2599838029
 20
162.0979105586
 10
222.941014667
 20
162.2290800919
 10
222.6369045472
 20
162.3992426446
 10
222.3525499715
 20
162.6055054353
 10
222.0929082749
 20
162.8444273599
 10
221.860449835
 20
163.114122348
 10
221.6576071625
 20
163.4114672031
 10
221.4884255468
 20
163.7304199702
 10
221.3555940646
 20
164.0656532226
 10
221.2593189943
 20
164.4155803721
 10
221.2008557436
 20
164.7740699577
 10
221.1809000276
 20
165.1354090422
 10
221.1997351365
 20
165.4967402295
 10
221.2570921752
 20
165.855389597
 10
221.3522888651
 20
166.2056514949
 10
221.4840678135
 20
166.5413478818
 10
221.6522521645
 20
166.8608765628
 10
221.8542209001
 20
167.1589848689
 10
222.0859401611
 20
167.4295958832
 10
222.3448981428
 20
167.6694625753
 10
222.6287013061
 20
167.876741399
 10
222.9324289894
 20
168.0479986263
 10
223.2511139697
 20
168.1802892411
 10
223.5839350407
 20
168.2730573995
 10
223.9264518277
 20
168.3247426718
 10
224.1720432919
 20
168.3356243234
  0
LINE
  5
254
100
AcDbEntity
  8
RUNDUNGEN
100
AcDbLine
 62
7
  6
CONTINUOUS
 10
219.226566527
 20
168.3356245093
 11
248.4118136119
 21
168.3356245093
  0
LINE
  5
255
100
AcDbEntity
  8
RUNDUNGEN
100
AcDbLine
 62
7
  6
CONTINUOUS
 10
183.9691469253
 20
171.6406245093
 11
246.6423981777
 21
171.6406245093
  0
LINE
  5
256
100
AcDbEntity
  8
RUNDUNGEN
100
AcDbLine
 62
7
  6
CONTINUOUS
 10
184.9693920195
 20
172.6406245093
 11
246.4684666401
 21
172.6406245093
  0
LINE
  5
257
100
AcDbEntity
  8
RUNDUNGEN
100
AcDbLine
 62
7
  6
CONTINUOUS
 10
249.8367801796
 20
170.801513757
 11
249.8367184888
 21
159.4797071202
  0
LINE
  5
258
100
AcDbEntity
  8
RUNDUNGEN
100
AcDbLine
 62
7
  6
CONTINUOUS
 10
58.8012734528
 20
111.6367040878
 11
59.741076905
 21
111.9784195706
  0
LINE
  5
259
100
AcDbEntity
  8
0
100
AcDbLine
 62
7
  6
CONTINUOUS
 10
72.9454981559
 20
43.703125
 11
80.9133650601
 21
43.703125
  0
LINE
  5
25A
100
AcDbEntity
  8
RUNDUNGEN
100
AcDbLine
 62
7
  6
CONTINUOUS
 10
68.4429242926
 20
51.2034083599
 11
85.7243916853
 21
51.2033075811
  0
LINE
  5
25B
100
AcDbEntity
  8
RUNDUNGEN
100
AcDbLine
 62
7
  6
CONTINUOUS
 10
54.75
 20
111.083125
 11
54.75
 21
93.703125
  0
LINE
  5
25C
100
AcDbEntity
  8
RUNDUNGEN
100
AcDbLine
 62
7
  6
CONTINUOUS
 10
55.75
 20
111.083125
 11
55.75
 21
93.9986343086
  0
LINE
  5
25D
100
AcDbEntity
  8
RUNDUNGEN
100
AcDbLine
 62
7
  6
CONTINUOUS
 10
67.4581665036
 20
51.0294768223
 11
68.4429742566
 21
51.203125
  0
LINE
  5
25E
100
AcDbEntity
  8
RUNDUNGEN
100
AcDbLine
 62
7
  6
CONTINUOUS
 10
86.6902685891
 20
50.9443059549
 11
85.7243427629
 21
51.2031250003
  0
LINE
  5
25F
100
AcDbEntity
  8
RUNDUNGEN
100
AcDbLine
 62
7
  6
CONTINUOUS
 10
68.0214222372
 20
47.8350948204
 11
61.8732477524
 21
82.703125
  0
LINE
  5
260
100
AcDbEntity
  8
RUNDUNGEN
100
AcDbLine
 62
7
  6
CONTINUOUS
 10
68.4429242926
 20
51.2034083599
 11
62.8228434616
 21
83.0764706016
  0
LINE
  5
261
100
AcDbEntity
  8
RUNDUNGEN
100
AcDbLine
 62
7
  6
CONTINUOUS
 10
54.75
 20
93.703125
 11
61.8732477524
 21
82.703125
  0
LINE
  5
262
100
AcDbEntity
  8
RUNDUNGEN
100
AcDbLine
 62
7
  6
CONTINUOUS
 10
55.75
 20
93.9986343086
 11
62.8228434616
 21
83.0764706016
  0
LINE
  5
263
100
AcDbEntity
  8
RUNDUNGEN
100
AcDbLine
 62
7
  6
CONTINUOUS
 10
70.7943129022
 20
78.6528320823
 11
58.8012734528
 21
111.6367040878
  0
LINE
  5
264
100
AcDbEntity
  8
RUNDUNGEN
100
AcDbLine
 62
7
  6
CONTINUOUS
 10
71.7341163531
 20
78.9945475686
 11
59.7410769037
 21
111.9784195741
  0
LINE
  5
265
100
AcDbEntity
  8
RUNDUNGEN
100
AcDbLine
 62
7
  6
CONTINUOUS
 10
76.4331336079
 20
74.703125
 11
76.433133609
 21
75.703125
  0
LINE
  5
266
100
AcDbEntity
  8
RUNDUNGEN
100
AcDbLine
 62
7
  6
CONTINUOUS
 10
70.7943129022
 20
78.6528320823
 11
71.7341163531
 21
78.9945475686
  0
LINE
  5
267
100
AcDbEntity
  8
RUNDUNGEN
100
AcDbLine
 62
7
  6
CONTINUOUS
 10
84.3113583159
 20
74.703125
 11
76.4331336079
 21
74.703125
  0
LINE
  5
268
100
AcDbEntity
  8
RUNDUNGEN
100
AcDbLine
 62
7
  6
CONTINUOUS
 10
84.3113583159
 20
75.703125
 11
76.4331336079
 21
75.703125
  0
LINE
  5
269
100
AcDbEntity
  8
0
100
AcDbLine
 62
7
  6
CONTINUOUS
 10
63.2623307623
 20
110.5448404863
 11
65.0295426036
 21
105.6845638711
  0
LINE
  5
26A
100
AcDbEntity
  8
0
100
AcDbLine
 62
7
  6
CONTINUOUS
 10
79.75
 20
107.3160503217
 11
79.75
 21
104.2384897507
  0
LINE
  5
26B
100
AcDbEntity
  8
RUNDUNGEN
100
AcDbLine
 62
7
  6
CONTINUOUS
 10
90.1069132736
 20
79.1502107294
 11
89.1409874477
 21
79.4090297759
  0
LINE
  5
26C
100
AcDbEntity
  8
RUNDUNGEN
100
AcDbLine
 62
7
  6
CONTINUOUS
 10
84.3113583159
 20
74.703125
 11
84.3113583159
 21
75.703125
  0
LINE
  5
26D
100
AcDbEntity
  8
0
100
AcDbLine
 62
7
  6
CONTINUOUS
 10
90.511007732
 20
96.113125
 11
92.0138171572
 21
101.7216861289
  0
LINE
  5
26E
100
AcDbEntity
  8
RUNDUNGEN
100
AcDbLine
 62
7
  6
CONTINUOUS
 10
97.6601895871
 20
111.203125
 11
97.5452575536
 21
110.7741928119
  0
LINE
  5
26F
100
AcDbEntity
  8
RUNDUNGEN
100
AcDbLine
 62
7
  6
CONTINUOUS
 10
97.3276161525
 20
109.9619440451
 11
89.1409874473
 21
79.4090297745
  0
LINE
  5
270
100
AcDbEntity
  8
0
100
AcDbLine
 62
7
  6
CONTINUOUS
 10
90.937344349
 20
86.113125
 11
90.511007732
 21
96.113125
  0
LINE
  5
271
100
AcDbEntity
  8
RUNDUNGEN
100
AcDbLine
 62
7
  6
CONTINUOUS
 10
96.6857518741
 20
103.7027706413
 11
90.1069132736
 21
79.1502107294
  0
LINE
  5
272
100
AcDbEntity
  8
RUNDUNGEN
100
AcDbLine
 62
7
  6
CONTINUOUS
 10
97.8173326026
 20
96.3347774976
 11
85.7243916853
 21
51.2033075811
  0
LINE
  5
273
100
AcDbEntity
  8
RUNDUNGEN
100
AcDbLine
 62
7
  6
CONTINUOUS
 10
98.8173326026
 20
96.203125
 11
85.7430329611
 21
47.4091744645
  0
LINE
  5
274
100
AcDbEntity
  8
0
100
AcDbLine
 62
7
  6
CONTINUOUS
 10
104.75
 20
96.203125
 11
100.3602378893
 21
96.203125
  0
LINE
  5
275
100
AcDbEntity
  8
RUNDUNGEN
100
AcDbLine
 62
7
  6
CONTINUOUS
 10
97.8173326026
 20
96.3347774976
 11
97.8173326026
 21
96.7749217697
  0
LINE
  5
276
100
AcDbEntity
  8
RUNDUNGEN
100
AcDbLine
 62
7
  6
CONTINUOUS
 10
98.8173326026
 20
96.203125
 11
98.8173326026
 21
96.7749228938
  0
LINE
  5
277
100
AcDbEntity
  8
RUNDUNGEN
100
AcDbLine
 62
7
  6
CONTINUOUS
 10
97.8173326026
 20
96.7749217697
 11
98.8173326026
 21
96.7749217697
  0
LINE
  5
278
100
AcDbEntity
  8
RUNDUNGEN
100
AcDbLine
 62
7
  6
CONTINUOUS
 10
100.817453589
 20
103.703125
 11
100.8173326026
 21
97.7820723684
  0
LINE
  5
279
100
AcDbEntity
  8
0
100
AcDbLine
 62
7
  6
CONTINUOUS
 10
76.0440952255
 20
99.4088606192
 11
65.3530101553
 21
96.5441930084
  0
LINE
  5
27A
100
AcDbEntity
  8
0
100
AcDbLine
 62
7
  6
CONTINUOUS
 10
92.0138171572
 20
101.7216861289
 11
95.1196456984
 21
101.7216861289
  0
LINE
  5
27B
100
AcDbEntity
  8
0
100
AcDbLine
 62
7
  6
CONTINUOUS
 10
104.75
 20
96.203125
 11
104.75
 21
111.203125
  0
LINE
  5
27C
100
AcDbEntity
  8
RUNDUNGEN
100
AcDbLine
 62
7
  6
CONTINUOUS
 10
96.6857518741
 20
103.7027706413
 11
100.8173326026
 21
103.703125
  0
LINE
  5
27D
100
AcDbEntity
  8
0
100
AcDbLine
 62
7
  6
CONTINUOUS
 10
62.0295426036
 20
105.6845638711
 11
65.0295426036
 21
105.6845638711
  0
LINE
  5
27E
100
AcDbEntity
  8
0
100
AcDbLine
 62
7
  6
CONTINUOUS
 10
93.2312063733
 20
105.6845638711
 11
96.1814955892
 21
105.6845638711
  0
LINE
  5
27F
100
AcDbEntity
  8
RUNDUNGEN
100
AcDbLine
 62
7
  6
CONTINUOUS
 10
96.6858468242
 20
103.703125
 11
95.7199209979
 21
103.9619440451
  0
LINE
  5
280
100
AcDbEntity
  8
RUNDUNGEN
100
AcDbLine
 62
7
  6
CONTINUOUS
 10
98.3279025005
 20
110.7741637307
 11
97.5452575536
 21
110.7741928119
  0
LINE
  5
281
100
AcDbEntity
  8
RUNDUNGEN
100
AcDbLine
 62
7
  6
CONTINUOUS
 10
55.75
 20
111.083125
 11
54.75
 21
111.083125
  0
LINE
  5
282
100
AcDbEntity
  8
0
100
AcDbLine
 62
7
  6
CONTINUOUS
 10
104.75
 20
111.203125
 11
97.6601895871
 21
111.203125
  0
LINE
  5
283
100
AcDbEntity
  8
RUNDUNGEN
100
AcDbLine
 62
7
  6
CONTINUOUS
 10
60.0229764457
 20
111.203125
 11
62.3225273113
 21
111.203125
  0
LINE
  5
284
100
AcDbEntity
  8
RUNDUNGEN
100
AcDbLine
 62
7
  6
CONTINUOUS
 10
59.1139685943
 20
113.703125
 11
75.1857787137
 21
112.2970238122
  0
LINE
  5
285
100
AcDbEntity
  8
RUNDUNGEN
100
AcDbLine
 62
7
  6
CONTINUOUS
 10
57.37
 20
113.703125
 11
59.1139685943
 21
113.703125
  0
ARC
  5
286
100
AcDbEntity
  8
RUNDUNGEN
100
AcDbCircle
 62
7
  6
CONTINUOUS
 10
52.3263101436
 20
164.0676333183
 40
15.5889691118
100
AcDbArc
 50
352.1764687447
 51
352.7351658837
  0
ARC
  5
287
100
AcDbEntity
  8
RUNDUNGEN
100
AcDbCircle
 62
7
  6
CONTINUOUS
 10
52.5325051192
 20
166.2402274146
 40
15.38105594
100
AcDbArc
 50
7.349982161
 51
7.8298856158
  0
ARC
  5
288
100
AcDbEntity
  8
RUNDUNGEN
100
AcDbCircle
 62
7
  6
CONTINUOUS
 10
85.3227018061
 20
160.0057376248
 40
1.9496001898
100
AcDbArc
 50
50.1155620953
 51
51.5375685174
  0
ARC
  5
289
100
AcDbEntity
  8
RUNDUNGEN
100
AcDbCircle
 62
7
  6
CONTINUOUS
 10
85.328358235
 20
170.2682830538
 40
1.940421991
100
AcDbArc
 50
304.5522884641
 51
308.4644112975
  0
ARC
  5
28A
100
AcDbEntity
  8
RUNDUNGEN
100
AcDbCircle
 62
7
  6
CONTINUOUS
 10
85.3283583261
 20
160.0129661111
 40
1.9404218062
100
AcDbArc
 50
51.5355907183
 51
55.4478000972
  0
ARC
  5
28B
100
AcDbEntity
  8
RUNDUNGEN
100
AcDbCircle
 62
7
  6
CONTINUOUS
 10
78.75
 20
146.6406245093
 40
1.0
100
AcDbArc
 50
270.0
 51
360.0
  0
ARC
  5
28C
100
AcDbEntity
  8
RUNDUNGEN
100
AcDbCircle
 62
7
  6
CONTINUOUS
 10
97.8173326026
 20
171.6406245093
 40
1.0
100
AcDbArc
 50
0.0
 51
90.0
  0
ARC
  5
28D
100
AcDbEntity
  8
RUNDUNGEN
100
AcDbCircle
 62
7
  6
CONTINUOUS
 10
97.8173326026
 20
158.6406245093
 40
1.0
100
AcDbArc
 50
270.0
 51
360.0
  0
ARC
  5
28E
100
AcDbEntity
  8
RUNDUNGEN
100
AcDbCircle
 62
7
  6
CONTINUOUS
 10
55.75
 20
171.6406245093
 40
1.0
100
AcDbArc
 50
90.0
 51
180.0
  0
ARC
  5
28F
100
AcDbEntity
  8
RUNDUNGEN
100
AcDbCircle
 62
7
  6
CONTINUOUS
 10
55.75
 20
146.6406245093
 40
1.0
100
AcDbArc
 50
180.0
 51
270.0
  0
ARC
  5
290
100
AcDbEntity
  8
RUNDUNGEN
100
AcDbCircle
 62
7
  6
CONTINUOUS
 10
62.8240895528
 20
158.5526243053
 40
0.9120006473
100
AcDbArc
 50
241.9799532658
 51
269.9217151982
  0
ARC
  5
291
100
AcDbEntity
  8
RUNDUNGEN
100
AcDbCircle
 62
7
  6
CONTINUOUS
 10
184.96875
 20
146.6406245093
 40
1.0
100
AcDbArc
 50
180.0
 51
270.0
  0
CIRCLE
  5
292
100
AcDbEntity
  8
0
100
AcDbCircle
 62
7
  6
CONTINUOUS
 10
193.96875
 20
165.1406245093
 40
3.19
  0
ARC
  5
293
100
AcDbEntity
  8
RUNDUNGEN
100
AcDbCircle
 62
7
  6
CONTINUOUS
 10
184.969283999
 20
171.6404723919
 40
1.0001492696
100
AcDbArc
 50
89.9938118216
 51
179.991285508
  0
ARC
  5
294
100
AcDbEntity
  8
RUNDUNGEN
100
AcDbCircle
 62
7
  6
CONTINUOUS
 10
246.46875
 20
165.1406245093
 40
7.5
100
AcDbArc
 50
269.9979087524
 51
90.0013948174
  0
ARC
  5
295
100
AcDbEntity
  8
RUNDUNGEN
100
AcDbCircle
 62
7
  6
CONTINUOUS
 10
246.6426514859
 20
165.1417416904
 40
6.4988828239
100
AcDbArc
 50
60.5615110654
 51
90.002233229
  0
ARC
  5
296
100
AcDbEntity
  8
RUNDUNGEN
100
AcDbCircle
 62
7
  6
CONTINUOUS
 10
246.642663229
 20
165.1394176068
 40
6.4987931029
100
AcDbArc
 50
269.9976632088
 51
299.4381919421
  0
ARC
  5
297
100
AcDbEntity
  8
RUNDUNGEN
100
AcDbCircle
 62
7
  6
CONTINUOUS
 10
244.3179791999
 20
165.1405942995
 40
5.1930327913
100
AcDbArc
 50
322.0308793941
 51
37.9702328061
  0
ARC
  5
298
100
AcDbEntity
  8
RUNDUNGEN
100
AcDbCircle
 62
7
  6
CONTINUOUS
 10
243.965665244
 20
165.1267528985
 40
3.2088723537
100
AcDbArc
 50
74.0262743832
 51
89.9715862118
  0
ARC
  5
299
100
AcDbEntity
  8
RUNDUNGEN
100
AcDbCircle
 62
7
  6
CONTINUOUS
 10
243.9686128933
 20
165.1406245049
 40
3.1949210034
100
AcDbArc
 50
270.0285221557
 51
89.9717778016
  0
ARC
  5
29A
100
AcDbEntity
  8
0
100
AcDbCircle
 62
7
  6
CONTINUOUS
 10
105.6062583404
 20
100.2893726037
 40
13.5
100
AcDbArc
 50
126.057558731
 51
156.4440875642
  0
ARC
  5
29B
100
AcDbEntity
  8
RUNDUNGEN
100
AcDbCircle
 62
7
  6
CONTINUOUS
 10
76.4331336079
 20
80.703125
 40
6.0
100
AcDbArc
 50
199.981425274
 51
270.0
  0
ARC
  5
29C
100
AcDbEntity
  8
RUNDUNGEN
100
AcDbCircle
 62
7
  6
CONTINUOUS
 10
84.3113583159
 20
80.703125
 40
6.0
100
AcDbArc
 50
270.0
 51
345.0
  0
ARC
  5
29D
100
AcDbEntity
  8
RUNDUNGEN
100
AcDbCircle
 62
7
  6
CONTINUOUS
 10
84.3113583159
 20
80.703125
 40
5.0
100
AcDbArc
 50
269.9999999722
 51
345.0000000173
  0
ARC
  5
29E
100
AcDbEntity
  8
RUNDUNGEN
100
AcDbCircle
 62
7
  6
CONTINUOUS
 10
80.9133650601
 20
48.703125
 40
5.0
100
AcDbArc
 50
270.0
 51
345.0017165146
  0
ARC
  5
29F
100
AcDbEntity
  8
RUNDUNGEN
100
AcDbCircle
 62
7
  6
CONTINUOUS
 10
72.9454981559
 20
48.703125
 40
5.0
100
AcDbArc
 50
189.9975482085
 51
270.0
  0
ARC
  5
2A0
100
AcDbEntity
  8
0
100
AcDbCircle
 62
7
  6
CONTINUOUS
 10
74.75
 20
104.2384897507
 40
5.0
100
AcDbArc
 50
285.0
 51
360.0
  0
ARC
  5
2A1
100
AcDbEntity
  8
0
100
AcDbCircle
 62
7
  6
CONTINUOUS
 10
76.4331336079
 20
80.703125
 40
5.0
100
AcDbArc
 50
263.3928771211
 51
270.0
  0
ARC
  5
2A2
100
AcDbEntity
  8
0
100
AcDbCircle
 62
7
  6
CONTINUOUS
 10
76.4331336079
 20
80.703125
 40
5.0
100
AcDbArc
 50
258.1253803911
 51
258.979153534
  0
ARC
  5
2A3
100
AcDbEntity
  8
0
100
AcDbCircle
 62
7
  6
CONTINUOUS
 10
76.4331336079
 20
80.703125
 40
5.0
100
AcDbArc
 50
246.2709319562
 51
252.9807638719
  0
ARC
  5
2A4
100
AcDbEntity
  8
0
100
AcDbCircle
 62
7
  6
CONTINUOUS
 10
76.4331336079
 20
80.703125
 40
5.0
100
AcDbArc
 50
237.5420919207
 51
241.1462281376
  0
ARC
  5
2A5
100
AcDbEntity
  8
0
100
AcDbCircle
 62
7
  6
CONTINUOUS
 10
74.75
 20
107.3160503217
 40
5.0
100
AcDbArc
 50
0.0
 51
85.0
  0
ARC
  5
2A6
100
AcDbEntity
  8
RUNDUNGEN
100
AcDbCircle
 62
7
  6
CONTINUOUS
 10
76.4331336079
 20
80.703125
 40
5.0
100
AcDbArc
 50
199.981425274
 51
270.0
  0
ARC
  5
2A7
100
AcDbEntity
  8
RUNDUNGEN
100
AcDbCircle
 62
7
  6
CONTINUOUS
 10
57.37
 20
111.083125
 40
2.62
100
AcDbArc
 50
90.6223099694
 51
180.0
  0
ARC
  5
2A8
100
AcDbEntity
  8
RUNDUNGEN
100
AcDbCircle
 62
7
  6
CONTINUOUS
 10
57.2787918622
 20
111.083125
 40
2.62
100
AcDbArc
 50
19.981425274
 51
89.0026516659
  0
ARC
  5
2A9
100
AcDbEntity
  8
RUNDUNGEN
100
AcDbCircle
 62
7
  6
CONTINUOUS
 10
100.351992453
 20
94.2031469234
 40
1.9999953845
100
AcDbArc
 50
90.0
 51
164.9998822774
  0
ARC
  5
2AA
100
AcDbEntity
  8
RUNDUNGEN
100
AcDbCircle
 62
7
  6
CONTINUOUS
 10
57.37
 20
111.083125
 40
1.62
100
AcDbArc
 50
91.613127102
 51
180.0
  0
ARC
  5
2AB
100
AcDbEntity
  8
RUNDUNGEN
100
AcDbCircle
 62
7
  6
CONTINUOUS
 10
57.2787918622
 20
111.083125
 40
1.62
100
AcDbArc
 50
19.981425274
 51
88.386872898
  0
ARC
  5
2AC
100
AcDbEntity
  8
RUNDUNGEN
100
AcDbCircle
 62
7
  6
CONTINUOUS
 10
62.3225273113
 20
110.203125
 40
1.0
100
AcDbArc
 50
19.981425274
 51
90.0
  0
SPLINE
  5
2AD
100
AcDbEntity
  8
0
100
AcDbSpline
 62
7
  6
CONTINUOUS
 70
0
 71
3
 72
21
 73
17
 74
0
 42
0.0000001
 43
0.0000001
 44
0.0000000001
 40
0.0
 40
0.0
 40
0.0
 40
0.0
 40
0.1214774038
 40
0.1814623732
 40
0.2420901425
 40
0.3041848362
 40
0.3681139236
 40
0.4336141738
 40
0.4999871685
 40
0.5663632618
 40
0.631865403
 40
0.6957883035
 40
0.7578881501
 40
0.8185177251
 40
0.8785037945
 40
1.0
 40
1.0
 40
1.0
 40
1.0
 10
86.1942921699
 20
162.4896083224
 30
0.0
 10
86.4468639316
 20
162.5885364915
 30
0.0
 10
86.8111860188
 20
162.7834612672
 30
0.0
 10
87.2072889674
 20
163.1550820648
 30
0.0
 10
87.4518885149
 20
163.4843178051
 30
0.0
 10
87.6406181897
 20
163.8580225266
 30
0.0
 10
87.7724756399
 20
164.2664093569
 30
0.0
 10
87.8507224705
 20
164.6977228463
 30
0.0
 10
87.8767505748
 20
165.140680091
 30
0.0
 10
87.850612035
 20
165.583621183
 30
0.0
 10
87.7725572426
 20
166.0149713339
 30
0.0
 10
87.640535386
 20
166.4233144017
 30
0.0
 10
87.4518217773
 20
166.7970161475
 30
0.0
 10
87.2072304056
 20
167.1262923455
 30
0.0
 10
86.8109814106
 20
167.4978233138
 30
0.0
 10
86.4466666187
 20
167.6928367687
 30
0.0
 10
86.1940440595
 20
167.7917503586
 30
0.0
  0
SPLINE
  5
2AE
100
AcDbEntity
  8
RUNDUNGEN
100
AcDbSpline
 62
7
  6
CONTINUOUS
 70
0
 71
3
 72
16
 73
12
 74
0
 42
0.0000001
 43
0.0000001
 44
0.0000000001
 40
0.0
 40
0.0
 40
0.0
 40
0.0
 40
0.297750054
 40
0.441769095
 40
0.5795168165
 40
0.7081007375
 40
0.8239356661
 40
0.8757464407
 40
0.922714103
 40
0.9642867327
 40
1.0
 40
1.0
 40
1.0
 40
1.0
 10
72.9454981559
 20
165.1406245093
 30
0.0
 10
72.4224757276
 20
165.674135127
 30
0.0
 10
71.6460716131
 20
166.4653377789
 30
0.0
 10
70.6399510886
 20
167.5152326491
 30
0.0
 10
69.9374684271
 20
168.2681188288
 30
0.0
 10
69.2986212119
 20
168.9833595971
 30
0.0
 10
68.8228191586
 20
169.5548797731
 30
0.0
 10
68.4985625216
 20
169.9849605285
 30
0.0
 10
68.2989916727
 20
170.2753433349
 30
0.0
 10
68.1385482047
 20
170.5429036333
 30
0.0
 10
68.0540220408
 20
170.7180526894
 30
0.0
 10
68.0214222417
 20
170.8015248554
 30
0.0
  0
SPLINE
  5
2AF
100
AcDbEntity
  8
RUNDUNGEN
100
AcDbSpline
 62
7
  6
CONTINUOUS
 70
0
 71
3
 72
15
 73
11
 74
0
 42
0.0000001
 43
0.0000001
 44
0.0000000001
 40
0.0
 40
0.0
 40
0.0
 40
0.0
 40
0.2898861397
 40
0.4308449709
 40
0.5666422934
 40
0.6948679436
 40
0.8124723772
 40
0.9156173851
 40
0.9604297248
 40
1.0
 40
1.0
 40
1.0
 40
1.0
 10
72.9454981559
 20
165.1406245093
 30
0.0
 10
72.5300053242
 20
164.5296250938
 30
0.0
 10
71.9124732993
 20
163.6215088197
 30
0.0
 10
71.1128830394
 20
162.4186982813
 30
0.0
 10
70.5519491548
 20
161.5521220018
 30
0.0
 10
70.0391076654
 20
160.7254140672
 30
0.0
 10
69.5941019626
 20
159.9551254249
 30
0.0
 10
69.2853860788
 20
159.3518435782
 30
0.0
 10
69.1010124046
 20
158.9106066994
 30
0.0
 10
69.032638017
 20
158.7062920063
 30
0.0
 10
69.0062671438
 20
158.6089402761
 30
0.0
  0
SPLINE
  5
2B0
100
AcDbEntity
  8
RUNDUNGEN
100
AcDbSpline
 62
7
  6
CONTINUOUS
 70
0
 71
3
 72
15
 73
11
 74
0
 42
0.0000001
 43
0.0000001
 44
0.0000000001
 40
0.0
 40
0.0
 40
0.0
 40
0.0
 40
0.2898924418
 40
0.4308497479
 40
0.5666461635
 40
0.6948709364
 40
0.8124742999
 40
0.9156181831
 40
0.9604301184
 40
1.0
 40
1.0
 40
1.0
 40
1.0
 10
72.9454981559
 20
165.1406245093
 30
0.0
 10
72.5299948367
 20
165.7516361558
 30
0.0
 10
71.9124571028
 20
166.6597631947
 30
0.0
 10
71.1128625305
 20
167.8625825669
 30
0.0
 10
70.5519341182
 20
168.7291523094
 30
0.0
 10
70.0390989117
 20
169.5558553507
 30
0.0
 10
69.5940935811
 20
170.3261353737
 30
0.0
 10
69.2853898404
 20
170.9294157535
 30
0.0
 10
69.1010124708
 20
171.3706453953
 30
0.0
 10
69.0326355677
 20
171.5749573955
 30
0.0
 10
69.0062671438
 20
171.6723087425
 30
0.0
  0
SPLINE
  5
2B1
100
AcDbEntity
  8
RUNDUNGEN
100
AcDbSpline
 62
7
  6
CONTINUOUS
 70
0
 71
3
 72
14
 73
10
 74
0
 42
0.0000001
 43
0.0000001
 44
0.0000000001
 40
0.0
 40
0.0
 40
0.0
 40
0.0
 40
0.3753191938
 40
0.5295041047
 40
0.6613038567
 40
0.7715201843
 40
0.8618707341
 40
0.935862455
 40
1.0
 40
1.0
 40
1.0
 40
1.0
 10
69.0062671438
 20
171.6723087425
 30
0.0
 10
68.9679955351
 20
171.8136265177
 30
0.0
 10
68.9077676974
 20
172.0116732664
 30
0.0
 10
68.8101838416
 20
172.2506692363
 30
0.0
 10
68.7404557156
 20
172.3888423003
 30
0.0
 10
68.6695549696
 20
172.4978266271
 30
0.0
 10
68.5971400157
 20
172.5776146369
 30
0.0
 10
68.5222149231
 20
172.6281863418
 30
0.0
 10
68.4679939323
 20
172.6406151716
 30
0.0
 10
68.4429744901
 20
172.6406244932
 30
0.0
  0
SPLINE
  5
2B2
100
AcDbEntity
  8
RUNDUNGEN
100
AcDbSpline
 62
7
  6
CONTINUOUS
 70
0
 71
3
 72
16
 73
12
 74
0
 42
0.0000001
 43
0.0000001
 44
0.0000000001
 40
0.0
 40
0.0
 40
0.0
 40
0.0
 40
0.0694184145
 40
0.1477830965
 40
0.2412524696
 40
0.3532414979
 40
0.4167287083
 40
0.4852659355
 40
0.6374009115
 40
0.8092670986
 40
1.0
 40
1.0
 40
1.0
 40
1.0
 10
87.2911891522
 20
170.3356246835
 30
0.0
 10
87.2416140724
 20
170.3356242018
 30
0.0
 10
87.135378784
 20
170.3131780793
 30
0.0
 10
86.9874634793
 20
170.2202651909
 30
0.0
 10
86.8460712813
 20
170.0731509403
 30
0.0
 10
86.7380424554
 20
169.9135282899
 30
0.0
 10
86.653391379
 20
169.7611537956
 30
0.0
 10
86.5643928816
 20
169.5786763579
 30
0.0
 10
86.4593842238
 20
169.3183899578
 30
0.0
 10
86.3459845321
 20
168.9684959096
 30
0.0
 10
86.280412733
 20
168.7178374609
 30
0.0
 10
86.2489664224
 20
168.5853053853
 30
0.0
  0
SPLINE
  5
2B3
100
AcDbEntity
  8
RUNDUNGEN
100
AcDbSpline
 62
7
  6
CONTINUOUS
 70
0
 71
3
 72
15
 73
11
 74
0
 42
0.0000001
 43
0.0000001
 44
0.0000000001
 40
0.0
 40
0.0
 40
0.0
 40
0.0
 40
0.111823043
 40
0.2363651728
 40
0.36962717
 40
0.5069097712
 40
0.6432424303
 40
0.7737311037
 40
0.8938718693
 40
1.0
 40
1.0
 40
1.0
 40
1.0
 10
86.2489664224
 20
168.5853053853
 30
0.0
 10
86.186878189
 20
168.3236313678
 30
0.0
 10
86.0801676039
 20
167.7646221893
 30
0.0
 10
85.9705863556
 20
166.8819604992
 30
0.0
 10
85.9068154777
 20
165.9334319316
 30
0.0
 10
85.8913081479
 20
164.9545793042
 30
0.0
 10
85.9254516636
 20
163.9828721318
 30
0.0
 10
86.0068869674
 20
163.0552765094
 30
0.0
 10
86.1326463958
 20
162.2060255601
 30
0.0
 10
86.2499287635
 20
161.6738655898
 30
0.0
 10
86.3173534751
 20
161.4276894488
 30
0.0
  0
SPLINE
  5
2B4
100
AcDbEntity
  8
RUNDUNGEN
100
AcDbSpline
 62
7
  6
CONTINUOUS
 70
0
 71
3
 72
14
 73
10
 74
0
 42
0.0000001
 43
0.0000001
 44
0.0000000001
 40
0.0
 40
0.0
 40
0.0
 40
0.0
 40
0.3581158629
 40
0.5085754014
 40
0.6395508369
 40
0.7515161864
 40
0.8462247956
 40
0.9271220403
 40
1.0
 40
1.0
 40
1.0
 40
1.0
 10
86.3173534751
 20
161.4276894488
 30
0.0
 10
86.3761821265
 20
161.2128986097
 30
0.0
 10
86.4728859155
 20
160.9106359648
 30
0.0
 10
86.6361194756
 20
160.5475313414
 30
0.0
 10
86.7570448501
 20
160.334321829
 30
0.0
 10
86.8830187774
 20
160.1654328791
 30
0.0
 10
87.0137454904
 20
160.0416413206
 30
0.0
 10
87.1496417882
 20
159.9640624633
 30
0.0
 10
87.2458685362
 20
159.9456247432
 30
0.0
 10
87.2911891309
 20
159.9456243351
 30
0.0
  0
SPLINE
  5
2B5
100
AcDbEntity
  8
RUNDUNGEN
100
AcDbSpline
 62
7
  6
CONTINUOUS
 70
0
 71
3
 72
14
 73
10
 74
0
 42
0.0000001
 43
0.0000001
 44
0.0000000001
 40
0.0
 40
0.0
 40
0.0
 40
0.0
 40
0.0903649771
 40
0.1967258946
 40
0.3153031302
 40
0.4429439002
 40
0.5771007565
 40
0.7157331943
 40
1.0
 40
1.0
 40
1.0
 40
1.0
 10
84.7770683653
 20
171.4343050177
 30
0.0
 10
84.7019112077
 20
171.224558338
 30
0.0
 10
84.5029209481
 20
170.7809105189
 30
0.0
 10
84.135468278
 20
170.0956931038
 30
0.0
 10
83.6925970088
 20
169.3473708594
 30
0.0
 10
83.1941218376
 20
168.5529043576
 30
0.0
 10
82.6554254176
 20
167.7254674681
 30
0.0
 10
81.8938041073
 20
166.5824737397
 30
0.0
 10
81.3075151068
 20
165.7201906783
 30
0.0
 10
80.9133650601
 20
165.1406245093
 30
0.0
  0
SPLINE
  5
2B6
100
AcDbEntity
  8
RUNDUNGEN
100
AcDbSpline
 62
7
  6
CONTINUOUS
 70
0
 71
3
 72
11
 73
7
 74
0
 42
0.0000001
 43
0.0000001
 44
0.0000000001
 40
0.0
 40
0.0
 40
0.0
 40
0.0
 40
0.2602144496
 40
0.519489958
 40
0.7679042719
 40
1.0
 40
1.0
 40
1.0
 40
1.0
 10
84.7770683655
 20
158.8469530041
 30
0.0
 10
84.8942672994
 20
158.8612861874
 30
0.0
 10
85.1251285983
 20
158.9258778607
 30
0.0
 10
85.4241295222
 20
159.1139802872
 30
0.0
 10
85.6461907464
 20
159.3729027108
 30
0.0
 10
85.726143958
 20
159.5821441413
 30
0.0
 10
85.7429896289
 20
159.6861014019
 30
0.0
  0
SPLINE
  5
2B7
100
AcDbEntity
  8
RUNDUNGEN
100
AcDbSpline
 62
7
  6
CONTINUOUS
 70
0
 71
3
 72
11
 73
7
 74
0
 42
0.0000001
 43
0.0000001
 44
0.0000000001
 40
0.0
 40
0.0
 40
0.0
 40
0.0
 40
0.2517966704
 40
0.5024996986
 40
0.7517395009
 40
1.0
 40
1.0
 40
1.0
 40
1.0
 10
67.4581665036
 20
171.6406245093
 30
0.0
 10
67.4581665036
 20
171.7706252382
 30
0.0
 10
67.5091208145
 20
172.0328619417
 30
0.0
 10
67.7278002314
 20
172.3651086642
 30
0.0
 10
68.0550552899
 20
172.5883280903
 30
0.0
 10
68.3147992263
 20
172.6406245093
 30
0.0
 10
68.4429742566
 20
172.6406245093
 30
0.0
  0
SPLINE
  5
2B8
100
AcDbEntity
  8
RUNDUNGEN
100
AcDbSpline
 62
7
  6
CONTINUOUS
 70
0
 71
3
 72
11
 73
7
 74
0
 42
0.0000001
 43
0.0000001
 44
0.0000000001
 40
0.0
 40
0.0
 40
0.0
 40
0.0
 40
0.2343310722
 40
0.4817527875
 40
0.7395185507
 40
1.0
 40
1.0
 40
1.0
 40
1.0
 10
68.0214593909
 20
170.8014175114
 30
0.0
 10
68.0320888212
 20
170.9115455476
 30
0.0
 10
68.1032735727
 20
171.135051937
 30
0.0
 10
68.3284557091
 20
171.4109301911
 30
0.0
 10
68.6409886158
 20
171.604466232
 30
0.0
 10
68.8836291504
 20
171.6630436096
 30
0.0
 10
69.006267144
 20
171.672299218
 30
0.0
  0
SPLINE
  5
2B9
100
AcDbEntity
  8
RUNDUNGEN
100
AcDbSpline
 62
7
  6
CONTINUOUS
 70
0
 71
3
 72
14
 73
10
 74
0
 42
0.0000001
 43
0.0000001
 44
0.0000000001
 40
0.0
 40
0.0
 40
0.0
 40
0.0
 40
0.0903644553
 40
0.1967245139
 40
0.3153009679
 40
0.4429408071
 40
0.5770965323
 40
0.7157284204
 40
1.0
 40
1.0
 40
1.0
 40
1.0
 10
84.7770683653
 20
158.8469440009
 30
0.0
 10
84.7019121432
 20
159.0566896463
 30
0.0
 10
84.5029217969
 20
159.5003337598
 30
0.0
 10
84.1354726519
 20
160.1855468941
 30
0.0
 10
83.692605135
 20
160.9338640195
 30
0.0
 10
83.194134527
 20
161.728325082
 30
0.0
 10
82.6554418493
 20
162.5557567202
 30
0.0
 10
81.8938161173
 20
163.6987566401
 30
0.0
 10
81.307522941
 20
164.5610494436
 30
0.0
 10
80.9133650601
 20
165.1406245093
 30
0.0
  0
SPLINE
  5
2BA
100
AcDbEntity
  8
RUNDUNGEN
100
AcDbSpline
 62
7
  6
CONTINUOUS
 70
0
 71
3
 72
14
 73
10
 74
0
 42
0.0000001
 43
0.0000001
 44
0.0000000001
 40
0.0
 40
0.0
 40
0.0
 40
0.0
 40
0.3753198197
 40
0.5295051422
 40
0.6613046211
 40
0.7715204206
 40
0.8618708232
 40
0.9358625721
 40
1.0
 40
1.0
 40
1.0
 40
1.0
 10
69.0062671438
 20
158.6089402761
 30
0.0
 10
68.9679956855
 20
158.467622187
 30
0.0
 10
68.9077673925
 20
158.2695751091
 30
0.0
 10
68.8101833267
 20
158.0305788763
 30
0.0
 10
68.7404552566
 20
157.8924059258
 30
0.0
 10
68.6695545808
 20
157.7834219761
 30
0.0
 10
68.5971398654
 20
157.7036341028
 30
0.0
 10
68.5222149926
 20
157.6530622205
 30
0.0
 10
68.4679938912
 20
157.6406335316
 30
0.0
 10
68.4429744912
 20
157.6406245243
 30
0.0
  0
SPLINE
  5
2BB
100
AcDbEntity
  8
RUNDUNGEN
100
AcDbSpline
 62
7
  6
CONTINUOUS
 70
0
 71
3
 72
13
 73
9
 74
0
 42
0.0000001
 43
0.0000001
 44
0.0000000001
 40
0.0
 40
0.0
 40
0.0
 40
0.0
 40
0.0848876646
 40
0.1751942967
 40
0.2753216437
 40
0.3884274751
 40
0.6606086886
 40
1.0
 40
1.0
 40
1.0
 40
1.0
 10
86.6902685891
 20
158.6406245093
 30
0.0
 10
86.6483566038
 20
158.6406332746
 30
0.0
 10
86.561483419
 20
158.6526532265
 30
0.0
 10
86.4348251203
 20
158.7051821718
 30
0.0
 10
86.3108422845
 20
158.7909765938
 30
0.0
 10
86.1387049413
 20
158.9589488756
 30
0.0
 10
85.9360969985
 20
159.2574651385
 30
0.0
 10
85.8070586806
 20
159.5311708563
 30
0.0
 10
85.743031144
 20
159.6860254163
 30
0.0
  0
SPLINE
  5
2BC
100
AcDbEntity
  8
RUNDUNGEN
100
AcDbSpline
 62
7
  6
CONTINUOUS
 70
0
 71
3
 72
11
 73
7
 74
0
 42
0.0000001
 43
0.0000001
 44
0.0000000001
 40
0.0
 40
0.0
 40
0.0
 40
0.0
 40
0.2552683291
 40
0.5080736143
 40
0.756440666
 40
1.0
 40
1.0
 40
1.0
 40
1.0
 10
61.8732477524
 20
158.6406245093
 30
0.0
 10
61.8732477524
 20
158.5484415786
 30
0.0
 10
61.8976062349
 20
158.3640550246
 30
0.0
 10
62.0042085806
 20
158.109119129
 30
0.0
 10
62.1722049755
 20
157.8950028376
 30
0.0
 10
62.3179503279
 20
157.7887424666
 30
0.0
 10
62.3956494682
 20
157.7475253831
 30
0.0
  0
SPLINE
  5
2BD
100
AcDbEntity
  8
RUNDUNGEN
100
AcDbSpline
 62
7
  6
CONTINUOUS
 70
0
 71
3
 72
11
 73
7
 74
0
 42
0.0000001
 43
0.0000001
 44
0.0000000001
 40
0.0
 40
0.0
 40
0.0
 40
0.0
 40
0.248260499
 40
0.4975003014
 40
0.7482033296
 40
1.0
 40
1.0
 40
1.0
 40
1.0
 10
68.4429742566
 20
157.6406245093
 30
0.0
 10
68.3147992263
 20
157.6406245093
 30
0.0
 10
68.0550552899
 20
157.6929209283
 30
0.0
 10
67.7278002314
 20
157.9161403544
 30
0.0
 10
67.5091208145
 20
158.2483870769
 30
0.0
 10
67.4581665036
 20
158.5106237804
 30
0.0
 10
67.4581665036
 20
158.6406245093
 30
0.0
  0
SPLINE
  5
2BE
100
AcDbEntity
  8
RUNDUNGEN
100
AcDbSpline
 62
7
  6
CONTINUOUS
 70
0
 71
3
 72
11
 73
7
 74
0
 42
0.0000001
 43
0.0000001
 44
0.0000000001
 40
0.0
 40
0.0
 40
0.0
 40
0.0
 40
0.2604814624
 40
0.5182472304
 40
0.7656689386
 40
1.0
 40
1.0
 40
1.0
 40
1.0
 10
69.006267144
 20
158.608949077
 30
0.0
 10
68.8836290896
 20
158.6182046975
 30
0.0
 10
68.6409884408
 20
158.676782142
 30
0.0
 10
68.3284554471
 20
158.8703183796
 30
0.0
 10
68.1032733502
 20
159.1461968755
 30
0.0
 10
68.0320887321
 20
159.3697034175
 30
0.0
 10
68.0214593909
 20
159.4798315072
 30
0.0
  0
SPLINE
  5
2BF
100
AcDbEntity
  8
RUNDUNGEN
100
AcDbSpline
 62
7
  6
CONTINUOUS
 70
0
 71
3
 72
13
 73
9
 74
0
 42
0.0000001
 43
0.0000001
 44
0.0000000001
 40
0.0
 40
0.0
 40
0.0
 40
0.0
 40
0.0848876591
 40
0.1751943226
 40
0.2753216488
 40
0.3884274201
 40
0.6606086589
 40
1.0
 40
1.0
 40
1.0
 40
1.0
 10
86.6902685891
 20
171.6406245093
 30
0.0
 10
86.6483567176
 20
171.6406161052
 30
0.0
 10
86.5614836414
 20
171.6285964319
 30
0.0
 10
86.4348257484
 20
171.5760674657
 30
0.0
 10
86.3108431776
 20
171.4902734406
 30
0.0
 10
86.1387061428
 20
171.3223017682
 30
0.0
 10
85.9360988126
 20
171.023786281
 30
0.0
 10
85.807060163
 20
170.7500815661
 30
0.0
 10
85.7430329611
 20
170.5952273329
 30
0.0
  0
SPLINE
  5
2C0
100
AcDbEntity
  8
RUNDUNGEN
100
AcDbSpline
 62
7
  6
CONTINUOUS
 70
0
 71
3
 72
9
 73
5
 74
0
 42
0.0000001
 43
0.0000001
 44
0.0000000001
 40
0.0
 40
0.0
 40
0.0
 40
0.0
 40
0.2431774033
 40
1.0
 40
1.0
 40
1.0
 40
1.0
 10
100.8173326026
 20
160.5372414344
 30
0.0
 10
100.8173328347
 20
160.5846619469
 30
0.0
 10
100.8106137619
 20
160.7796723854
 30
0.0
 10
100.7803008324
 20
160.9733354754
 30
0.0
 10
100.7491842552
 20
161.1176011299
 30
0.0
  0
SPLINE
  5
2C1
100
AcDbEntity
  8
RUNDUNGEN
100
AcDbSpline
 62
7
  6
CONTINUOUS
 70
0
 71
3
 72
11
 73
7
 74
0
 42
0.0000001
 43
0.0000001
 44
0.0000000001
 40
0.0
 40
0.0
 40
0.0
 40
0.0
 40
0.2398796358
 40
0.5000000159
 40
0.7601204149
 40
1.0
 40
1.0
 40
1.0
 40
1.0
 10
100.7491842552
 20
161.1176011299
 30
0.0
 10
100.6127050968
 20
161.7504132192
 30
0.0
 10
100.4152954179
 20
163.088678225
 30
0.0
 10
100.3190571582
 20
165.1406246899
 30
0.0
 10
100.4152954552
 20
167.1925710136
 30
0.0
 10
100.6127051062
 20
168.5308359375
 30
0.0
 10
100.7491842552
 20
169.1636478887
 30
0.0
  0
SPLINE
  5
2C2
100
AcDbEntity
  8
RUNDUNGEN
100
AcDbSpline
 62
7
  6
CONTINUOUS
 70
0
 71
3
 72
12
 73
8
 74
0
 42
0.0000001
 43
0.0000001
 44
0.0000000001
 40
0.0
 40
0.0
 40
0.0
 40
0.0
 40
0.2923832618
 40
0.5676152616
 40
0.6926705674
 40
0.8068282402
 40
1.0
 40
1.0
 40
1.0
 40
1.0
 10
100.7491842553
 20
161.1176077878
 30
0.0
 10
100.5272575528
 20
161.090687511
 30
0.0
 10
100.1002169525
 20
161.0001691949
 30
0.0
 10
99.6067562813
 20
160.7978904654
 30
0.0
 10
99.2726367061
 20
160.5878023719
 30
0.0
 10
99.0186994405
 20
160.3764585395
 30
0.0
 10
98.871399645
 20
160.1822423424
 30
0.0
 10
98.8173376959
 20
160.0447948952
 30
0.0
  0
SPLINE
  5
2C3
100
AcDbEntity
  8
RUNDUNGEN
100
AcDbSpline
 62
7
  6
CONTINUOUS
 70
0
 71
3
 72
9
 73
5
 74
0
 42
0.0000001
 43
0.0000001
 44
0.0000000001
 40
0.0
 40
0.0
 40
0.0
 40
0.0
 40
0.25704839
 40
1.0
 40
1.0
 40
1.0
 40
1.0
 10
100.7491842552
 20
169.1636478887
 30
0.0
 10
100.759754719
 20
169.2126372494
 30
0.0
 10
100.7970600404
 20
169.4039520332
 30
0.0
 10
100.8173338304
 20
169.5991541335
 30
0.0
 10
100.8173326026
 20
169.7440075842
 30
0.0
  0
SPLINE
  5
2C4
100
AcDbEntity
  8
RUNDUNGEN
100
AcDbSpline
 62
7
  6
CONTINUOUS
 70
0
 71
3
 72
11
 73
7
 74
0
 42
0.0000001
 43
0.0000001
 44
0.0000000001
 40
0.0
 40
0.0
 40
0.0
 40
0.0
 40
0.2368706562
 40
0.4995536545
 40
0.7624657849
 40
1.0
 40
1.0
 40
1.0
 40
1.0
 10
67.7871783058
 20
168.2079234787
 30
0.0
 10
67.8490720704
 20
167.7283236545
 30
0.0
 10
67.9358779328
 20
166.7111831518
 30
0.0
 10
67.9783736518
 20
165.1544871109
 30
0.0
 10
67.9373293292
 20
163.5963929711
 30
0.0
 10
67.8514727173
 20
162.5773546732
 30
0.0
 10
67.7901347994
 20
162.0963177718
 30
0.0
  0
SPLINE
  5
2C5
100
AcDbEntity
  8
0
100
AcDbSpline
 62
7
  6
CONTINUOUS
 70
0
 71
3
 72
31
 73
27
 74
0
 42
0.0000001
 43
0.0000001
 44
0.0000000001
 40
0.0
 40
0.0
 40
0.0
 40
0.0
 40
0.0086364479
 40
0.0192364671
 40
0.0329013666
 40
0.050105108
 40
0.0710052732
 40
0.0956234023
 40
0.1238730907
 40
0.1556171855
 40
0.2287093645
 40
0.3126141462
 40
0.404278687
 40
0.4999999692
 40
0.5957212568
 40
0.687385809
 40
0.7712906098
 40
0.8443828146
 40
0.8761269247
 40
0.904376625
 40
0.9289947493
 40
0.949894891
 40
0.9670986124
 40
0.9807635151
 40
0.9913635488
 40
1.0
 40
1.0
 40
1.0
 40
1.0
 10
62.6240156697
 20
168.3356245093
 30
0.0
 10
62.6048319572
 20
168.3356245093
 30
0.0
 10
62.5619458232
 20
168.3227663502
 30
0.0
 10
62.5060121448
 20
168.2739281363
 30
0.0
 10
62.4524635009
 20
168.1984129583
 30
0.0
 10
62.4006339787
 20
168.0954411365
 30
0.0
 10
62.3504942304
 20
167.965298511
 30
0.0
 10
62.3025663504
 20
167.808498933
 30
0.0
 10
62.2572670961
 20
167.626024885
 30
0.0
 10
62.1983427732
 20
167.3362682347
 30
0.0
 10
62.1369291444
 20
166.9212614826
 30
0.0
 10
62.0834069153
 20
166.3713583861
 30
0.0
 10
62.0501315756
 20
165.7695114346
 30
0.0
 10
62.038827067
 20
165.1406247575
 30
0.0
 10
62.0501315481
 20
164.5117380539
 30
0.0
 10
62.0834068983
 20
163.9098910233
 30
0.0
 10
62.1369291174
 20
163.3599878003
 30
0.0
 10
62.1983427506
 20
162.944980914
 30
0.0
 10
62.2572670679
 20
162.6552241427
 30
0.0
 10
62.3025663067
 20
162.4727500395
 30
0.0
 10
62.3504941788
 20
162.3159504957
 30
0.0
 10
62.400633963
 20
162.1858079967
 30
0.0
 10
62.452463543
 20
162.0828363036
 30
0.0
 10
62.5060122001
 20
162.007321152
 30
0.0
 10
62.5619457939
 20
161.9584828
 30
0.0
 10
62.6048319504
 20
161.9456245093
 30
0.0
 10
62.6240156702
 20
161.9456245093
 30
0.0
  0
SPLINE
  5
2C6
100
AcDbEntity
  8
RUNDUNGEN
100
AcDbSpline
 62
7
  6
CONTINUOUS
 70
0
 71
3
 72
13
 73
9
 74
0
 42
0.0000001
 43
0.0000001
 44
0.0000000001
 40
0.0
 40
0.0
 40
0.0
 40
0.0
 40
0.3651570841
 40
0.6467450729
 40
0.7575986914
 40
0.8506593168
 40
0.9294820825
 40
1.0
 40
1.0
 40
1.0
 40
1.0
 10
68.0214222372
 20
170.801513757
 30
0.0
 10
67.9829951395
 20
170.924472827
 30
0.0
 10
67.9069185931
 20
171.1397813811
 30
0.0
 10
67.7870854129
 20
171.3805621317
 30
0.0
 10
67.6838721031
 20
171.5179229405
 30
0.0
 10
67.611058383
 20
171.5870338527
 30
0.0
 10
67.5360516247
 20
171.6302982963
 30
0.0
 10
67.4830445258
 20
171.6406131179
 30
0.0
 10
67.4581665036
 20
171.6406245093
 30
0.0
  0
SPLINE
  5
2C7
100
AcDbEntity
  8
RUNDUNGEN
100
AcDbSpline
 62
7
  6
CONTINUOUS
 70
0
 71
3
 72
13
 73
9
 74
0
 42
0.0000001
 43
0.0000001
 44
0.0000000001
 40
0.0
 40
0.0
 40
0.0
 40
0.0
 40
0.3651587439
 40
0.6467454884
 40
0.7575981254
 40
0.8506585434
 40
0.9294816374
 40
1.0
 40
1.0
 40
1.0
 40
1.0
 10
68.0214113594
 20
159.4797071202
 30
0.0
 10
67.9829853571
 20
159.3567509229
 30
0.0
 10
67.9069100777
 20
159.1414485906
 30
0.0
 10
67.7870786218
 20
158.9006756228
 30
0.0
 10
67.6838670668
 20
158.7633206579
 30
0.0
 10
67.6110549958
 20
158.6942126364
 30
0.0
 10
67.5360499926
 20
158.6509497027
 30
0.0
 10
67.4830439773
 20
158.6406355284
 30
0.0
 10
67.4581665036
 20
158.6406245093
 30
0.0
  0
SPLINE
  5
2C8
100
AcDbEntity
  8
RUNDUNGEN
100
AcDbSpline
 62
7
  6
CONTINUOUS
 70
0
 71
3
 72
11
 73
7
 74
0
 42
0.0000001
 43
0.0000001
 44
0.0000000001
 40
0.0
 40
0.0
 40
0.0
 40
0.0
 40
0.2460145452
 40
0.4943402521
 40
0.7459787546
 40
1.0
 40
1.0
 40
1.0
 40
1.0
 10
85.7243427628
 20
157.6406245093
 30
0.0
 10
85.8501575039
 20
157.6406245093
 30
0.0
 10
86.1058812644
 20
157.6932913114
 30
0.0
 10
86.4268496983
 20
157.9172350418
 30
0.0
 10
86.6406132291
 20
158.2493997288
 30
0.0
 10
86.6902685885
 20
158.5107150473
 30
0.0
 10
86.6902685891
 20
158.6406245093
 30
0.0
  0
SPLINE
  5
2C9
100
AcDbEntity
  8
RUNDUNGEN
100
AcDbSpline
 62
7
  6
CONTINUOUS
 70
0
 71
3
 72
15
 73
11
 74
0
 42
0.0000001
 43
0.0000001
 44
0.0000000001
 40
0.0
 40
0.0
 40
0.0
 40
0.0
 40
0.0823312255
 40
0.1313489626
 40
0.1854591189
 40
0.3060067728
 40
0.4379476105
 40
0.576105798
 40
0.716999287
 40
1.0
 40
1.0
 40
1.0
 40
1.0
 10
98.8173326026
 20
171.6406248218
 30
0.0
 10
98.8173325638
 20
171.705402373
 30
0.0
 10
98.8609081602
 20
171.8070277298
 30
0.0
 10
98.9504906404
 20
171.9212386471
 30
0.0
 10
99.0758227069
 20
172.0457899893
 30
0.0
 10
99.2702717263
 20
172.1900595274
 30
0.0
 10
99.5382587827
 20
172.3417916017
 30
0.0
 10
99.8361044103
 20
172.4695191684
 30
0.0
 10
100.2595277116
 20
172.5989727047
 30
0.0
 10
100.5946649792
 20
172.6406257945
 30
0.0
 10
100.8173276815
 20
172.6406245103
 30
0.0
  0
LINE
  5
2CA
100
AcDbEntity
  8
RUNDUNGEN
100
AcDbLine
 62
7
  6
CONTINUOUS
 10
98.8173326026
 20
170.2364541233
 11
98.8173326026
 21
170.9715764041
  0
SPLINE
  5
2CB
100
AcDbEntity
  8
RUNDUNGEN
100
AcDbSpline
 62
7
  6
CONTINUOUS
 70
0
 71
3
 72
14
 73
10
 74
0
 42
0.0000001
 43
0.0000001
 44
0.0000000001
 40
0.0
 40
0.0
 40
0.0
 40
0.0
 40
0.3005397999
 40
0.4423426885
 40
0.5746138686
 40
0.6956696419
 40
0.80533737
 40
0.9054942742
 40
1.0
 40
1.0
 40
1.0
 40
1.0
 10
100.8173326026
 20
169.7440075842
 30
0.0
 10
100.5602977073
 20
169.7440075842
 30
0.0
 10
100.1793174592
 20
169.7881056047
 30
0.0
 10
99.7106182978
 20
169.9397593499
 30
0.0
 10
99.406493302
 20
170.0904685299
 30
0.0
 10
99.1547383904
 20
170.2752145907
 30
0.0
 10
98.9646464277
 20
170.4883181409
 30
0.0
 10
98.8451063666
 20
170.7232389502
 30
0.0
 10
98.8173326026
 20
170.8907509382
 30
0.0
 10
98.8173326026
 20
170.9715764041
 30
0.0
  0
SPLINE
  5
2CC
100
AcDbEntity
  8
RUNDUNGEN
100
AcDbSpline
 62
7
  6
CONTINUOUS
 70
0
 71
3
 72
15
 73
11
 74
0
 42
0.0000001
 43
0.0000001
 44
0.0000000001
 40
0.0
 40
0.0
 40
0.0
 40
0.0
 40
0.0823311977
 40
0.131348948
 40
0.185459139
 40
0.3060069039
 40
0.4379477843
 40
0.57610597
 40
0.7169994286
 40
1.0
 40
1.0
 40
1.0
 40
1.0
 10
98.8173326026
 20
158.6406238062
 30
0.0
 10
98.8173325154
 20
158.5758461539
 30
0.0
 10
98.860908623
 20
158.4742207119
 30
0.0
 10
98.9504913982
 20
158.3600097054
 30
0.0
 10
99.0758239584
 20
158.235458191
 30
0.0
 10
99.2702735584
 20
158.0911884257
 30
0.0
 10
99.5382612937
 20
157.9394561755
 30
0.0
 10
99.8361075938
 20
157.8117283279
 30
0.0
 10
100.2595317017
 20
157.6822763261
 30
0.0
 10
100.5946695887
 20
157.6406177284
 30
0.0
 10
100.8173326026
 20
157.6406245093
 30
0.0
  0
SPLINE
  5
2CD
100
AcDbEntity
  8
RUNDUNGEN
100
AcDbSpline
 62
7
  6
CONTINUOUS
 70
0
 71
3
 72
11
 73
7
 74
0
 42
0.0000001
 43
0.0000001
 44
0.0000000001
 40
0.0
 40
0.0
 40
0.0
 40
0.0
 40
0.2397899894
 40
0.5000000155
 40
0.7602100598
 40
1.0
 40
1.0
 40
1.0
 40
1.0
 10
98.8173326026
 20
160.0447948953
 30
0.0
 10
98.6800798526
 20
160.8509779115
 30
0.0
 10
98.483124394
 20
162.547526333
 30
0.0
 10
98.3873595403
 20
165.1406247299
 30
0.0
 10
98.4831244162
 20
167.7337229597
 30
0.0
 10
98.6800798881
 20
169.4302712712
 30
0.0
 10
98.8173326026
 20
170.2364541233
 30
0.0
  0
SPLINE
  5
2CE
100
AcDbEntity
  8
RUNDUNGEN
100
AcDbSpline
 62
7
  6
CONTINUOUS
 70
0
 71
3
 72
14
 73
10
 74
0
 42
0.0000001
 43
0.0000001
 44
0.0000000001
 40
0.0
 40
0.0
 40
0.0
 40
0.0
 40
0.3005397962
 40
0.4423426846
 40
0.5746138653
 40
0.6956696396
 40
0.8053373686
 40
0.9054942738
 40
1.0
 40
1.0
 40
1.0
 40
1.0
 10
100.8173326026
 20
160.5372414344
 30
0.0
 10
100.5602977104
 20
160.5372414344
 30
0.0
 10
100.1793174658
 20
160.493143415
 30
0.0
 10
99.7106183067
 20
160.3414896719
 30
0.0
 10
99.406493309
 20
160.1907804931
 30
0.0
 10
99.1547383948
 20
160.0060344321
 30
0.0
 10
98.9646464295
 20
159.7929308809
 30
0.0
 10
98.8451063675
 20
159.5580100699
 30
0.0
 10
98.8173326026
 20
159.3904980807
 30
0.0
 10
98.8173326026
 20
159.3096726145
 30
0.0
  0
SPLINE
  5
2CF
100
AcDbEntity
  8
RUNDUNGEN
100
AcDbSpline
 62
7
  6
CONTINUOUS
 70
0
 71
3
 72
12
 73
8
 74
0
 42
0.0000001
 43
0.0000001
 44
0.0000000001
 40
0.0
 40
0.0
 40
0.0
 40
0.0
 40
0.2923829299
 40
0.5676145371
 40
0.6926697706
 40
0.8068275312
 40
1.0
 40
1.0
 40
1.0
 40
1.0
 10
100.7491842553
 20
169.1636390222
 30
0.0
 10
100.5272573671
 20
169.1905593633
 30
0.0
 10
100.100216486
 20
169.2810779755
 30
0.0
 10
99.6067556027
 20
169.4833573617
 30
0.0
 10
99.272635684
 20
169.6934457848
 30
0.0
 10
99.0186972782
 20
169.9047902024
 30
0.0
 10
98.8713962667
 20
170.0990064516
 30
0.0
 10
98.8173326026
 20
170.2364541233
 30
0.0
  0
LINE
  5
2D0
100
AcDbEntity
  8
RUNDUNGEN
100
AcDbLine
 62
7
  6
CONTINUOUS
 10
98.8173326026
 20
159.3096726145
 11
98.8173326026
 21
160.0447948953
  0
SPLINE
  5
2D1
100
AcDbEntity
  8
RUNDUNGEN
100
AcDbSpline
 62
7
  6
CONTINUOUS
 70
0
 71
3
 72
11
 73
7
 74
0
 42
0.0000001
 43
0.0000001
 44
0.0000000001
 40
0.0
 40
0.0
 40
0.0
 40
0.0
 40
0.2476041864
 40
0.4970761844
 40
0.7481525754
 40
1.0
 40
1.0
 40
1.0
 40
1.0
 10
86.5353558355
 20
168.7489429684
 30
0.0
 10
86.6525970215
 20
168.8420744992
 30
0.0
 10
86.8669786694
 20
169.0571937486
 30
0.0
 10
87.1077614145
 20
169.4445924256
 30
0.0
 10
87.2573668974
 20
169.8781429743
 30
0.0
 10
87.291189165
 20
170.1833290564
 30
0.0
 10
87.2911891522
 20
170.3356246835
 30
0.0
  0
SPLINE
  5
2D2
100
AcDbEntity
  8
RUNDUNGEN
100
AcDbSpline
 62
7
  6
CONTINUOUS
 70
0
 71
3
 72
15
 73
11
 74
0
 42
0.0000001
 43
0.0000001
 44
0.0000000001
 40
0.0
 40
0.0
 40
0.0
 40
0.0
 40
0.1166643206
 40
0.161334433
 40
0.2126355565
 40
0.3344292806
 40
0.4790536661
 40
0.6420055236
 40
0.8179161273
 40
1.0
 40
1.0
 40
1.0
 40
1.0
 10
75.7852761804
 20
145.6406245093
 30
0.0
 10
75.8269205254
 20
145.6406245093
 30
0.0
 10
75.8742555538
 20
145.695073656
 30
0.0
 10
75.9088032
 20
145.7602437728
 30
0.0
 10
75.9396461838
 20
145.8323318382
 30
0.0
 10
75.972306397
 20
145.9408810773
 30
0.0
 10
76.0034951042
 20
146.0911975631
 30
0.0
 10
76.026612183
 20
146.2623130768
 30
0.0
 10
76.0408733362
 20
146.4478165267
 30
0.0
 10
76.0440952255
 20
146.5756280855
 30
0.0
 10
76.0440952255
 20
146.6406245093
 30
0.0
  0
SPLINE
  5
2D3
100
AcDbEntity
  8
RUNDUNGEN
100
AcDbSpline
 62
7
  6
CONTINUOUS
 70
0
 71
3
 72
14
 73
10
 74
0
 42
0.0000001
 43
0.0000001
 44
0.0000000001
 40
0.0
 40
0.0
 40
0.0
 40
0.0
 40
0.078348694
 40
0.163359634
 40
0.2601764329
 40
0.3721872166
 40
0.5014103196
 40
0.6489319413
 40
1.0
 40
1.0
 40
1.0
 40
1.0
 10
85.7243425721
 20
157.6406245165
 30
0.0
 10
85.6822721407
 20
157.6406314217
 30
0.0
 10
85.5940904824
 20
157.6548919758
 30
0.0
 10
85.4669809488
 20
157.7163364444
 30
0.0
 10
85.3432048239
 20
157.8158100438
 30
0.0
 10
85.2224165893
 20
157.9521354171
 30
0.0
 10
85.1044529007
 20
158.1248651905
 30
0.0
 10
84.941826449
 20
158.4205685781
 30
0.0
 10
84.8406577678
 20
158.6694820125
 30
0.0
 10
84.7770683653
 20
158.8469440009
 30
0.0
  0
SPLINE
  5
2D4
100
AcDbEntity
  8
RUNDUNGEN
100
AcDbSpline
 62
7
  6
CONTINUOUS
 70
0
 71
3
 72
11
 73
7
 74
0
 42
0.0000001
 43
0.0000001
 44
0.0000000001
 40
0.0
 40
0.0
 40
0.0
 40
0.0
 40
0.2477014937
 40
0.4971975208
 40
0.7482445836
 40
1.0
 40
1.0
 40
1.0
 40
1.0
 10
86.572865846
 20
161.5017425623
 30
0.0
 10
86.684758408
 20
161.4082381756
 30
0.0
 10
86.8888029696
 20
161.1944167117
 30
0.0
 10
87.1174092411
 20
160.8139176038
 30
0.0
 10
87.2591581831
 20
160.3907975799
 30
0.0
 10
87.2911891434
 20
160.0938292574
 30
0.0
 10
87.2911891309
 20
159.9456243351
 30
0.0
  0
SPLINE
  5
2D5
100
AcDbEntity
  8
RUNDUNGEN
100
AcDbSpline
 62
7
  6
CONTINUOUS
 70
0
 71
3
 72
31
 73
27
 74
0
 42
0.0000001
 43
0.0000001
 44
0.0000000001
 40
0.0
 40
0.0
 40
0.0
 40
0.0
 40
0.0119799384
 40
0.0254344867
 40
0.0413804712
 40
0.0603802974
 40
0.0826775649
 40
0.1082861524
 40
0.1371165069
 40
0.1690210414
 40
0.2410929962
 40
0.3221590315
 40
0.4094890983
 40
0.5000001388
 40
0.5905112548
 40
0.6778413263
 40
0.7589068369
 40
0.8309783324
 40
0.8628828939
 40
0.8917135767
 40
0.9173224424
 40
0.9396197748
 40
0.9586195336
 40
0.9745654892
 40
0.9880200664
 40
1.0
 40
1.0
 40
1.0
 40
1.0
 10
92.5953080517
 20
159.9456244155
 30
0.0
 10
92.6399198216
 20
159.9456249861
 30
0.0
 10
92.7352468485
 20
159.9652528994
 30
0.0
 10
92.8684977488
 20
160.0466815814
 30
0.0
 10
92.9961414338
 20
160.1756243751
 30
0.0
 10
93.1187417077
 20
160.3508700531
 30
0.0
 10
93.2359733185
 20
160.5712100547
 30
0.0
 10
93.3472443954
 20
160.8347213417
 30
0.0
 10
93.4515516552
 20
161.1390842437
 30
0.0
 10
93.5852348767
 20
161.6154446702
 30
0.0
 10
93.7233516714
 20
162.2914063675
 30
0.0
 10
93.8428391118
 20
163.1793761692
 30
0.0
 10
93.9160662695
 20
164.1412169008
 30
0.0
 10
93.9411287929
 20
165.1406261005
 30
0.0
 10
93.9160661542
 20
166.1400353027
 30
0.0
 10
93.8428389748
 20
167.1018744096
 30
0.0
 10
93.7233512422
 20
167.9898404076
 30
0.0
 10
93.5852373389
 20
168.6657991051
 30
0.0
 10
93.4515533527
 20
169.142158909
 30
0.0
 10
93.3472462816
 20
169.4465243559
 30
0.0
 10
93.235974325
 20
169.7100380191
 30
0.0
 10
93.1187419015
 20
169.9303787562
 30
0.0
 10
92.9961412776
 20
170.1056240779
 30
0.0
 10
92.8684972781
 20
170.2345661702
 30
0.0
 10
92.7352468365
 20
170.3159952447
 30
0.0
 10
92.6399198148
 20
170.3356240699
 30
0.0
 10
92.5953080626
 20
170.3356246031
 30
0.0
  0
SPLINE
  5
2D6
100
AcDbEntity
  8
RUNDUNGEN
100
AcDbSpline
 62
7
  6
CONTINUOUS
 70
0
 71
3
 72
11
 73
7
 74
0
 42
0.0000001
 43
0.0000001
 44
0.0000000001
 40
0.0
 40
0.0
 40
0.0
 40
0.0
 40
0.2417997152
 40
0.4883173135
 40
0.7416651715
 40
1.0
 40
1.0
 40
1.0
 40
1.0
 10
62.8228434616
 20
172.6406245093
 30
0.0
 10
62.7001996033
 20
172.6406245093
 30
0.0
 10
62.4496627936
 20
172.5884865403
 30
0.0
 10
62.134196615
 20
172.3661020505
 30
0.0
 10
61.9225777518
 20
172.0339019039
 30
0.0
 10
61.8732477524
 20
171.7716551851
 30
0.0
 10
61.8732477524
 20
171.6406245093
 30
0.0
  0
SPLINE
  5
2D7
100
AcDbEntity
  8
RUNDUNGEN
100
AcDbSpline
 62
7
  6
CONTINUOUS
 70
0
 71
3
 72
14
 73
10
 74
0
 42
0.0000001
 43
0.0000001
 44
0.0000000001
 40
0.0
 40
0.0
 40
0.0
 40
0.0
 40
0.0783486522
 40
0.1633595635
 40
0.2601764111
 40
0.37218717
 40
0.501410192
 40
0.6489318235
 40
1.0
 40
1.0
 40
1.0
 40
1.0
 10
85.7243425795
 20
172.6406245026
 30
0.0
 10
85.682272172
 20
172.6406178719
 30
0.0
 10
85.5940904541
 20
172.6263573778
 30
0.0
 10
85.4669811842
 20
172.5649124481
 30
0.0
 10
85.3432050124
 20
172.4654389837
 30
0.0
 10
85.2224166863
 20
172.3291137054
 30
0.0
 10
85.1044533846
 20
172.1563837291
 30
0.0
 10
84.9418269681
 20
171.8606803815
 30
0.0
 10
84.8406567765
 20
171.6117674209
 30
0.0
 10
84.7770683653
 20
171.4343050177
 30
0.0
  0
SPLINE
  5
2D8
100
AcDbEntity
  8
RUNDUNGEN
100
AcDbSpline
 62
7
  6
CONTINUOUS
 70
0
 71
3
 72
27
 73
23
 74
0
 42
0.0000001
 43
0.0000001
 44
0.0000000001
 40
0.0
 40
0.0
 40
0.0
 40
0.0
 40
0.0140486081
 40
0.029253986
 40
0.0465351842
 40
0.0664747561
 40
0.1151389604
 40
0.1755864638
 40
0.2466413909
 40
0.3261405736
 40
0.4115671669
 40
0.5000001028
 40
0.5884331139
 40
0.6738597223
 40
0.7533583845
 40
0.8244129282
 40
0.884860802
 40
0.9335253412
 40
0.9534647777
 40
0.9707458663
 40
0.9859512757
 40
1.0
 40
1.0
 40
1.0
 40
1.0
 10
90.6634528697
 20
161.9456243216
 30
0.0
 10
90.6963964373
 20
161.9456245052
 30
0.0
 10
90.7653779129
 20
161.9571415339
 30
0.0
 10
90.8640935481
 20
162.0063906525
 30
0.0
 10
90.959312527
 20
162.085445969
 30
0.0
 10
91.0900741426
 20
162.2396129663
 30
0.0
 10
91.2357708734
 20
162.5077414698
 30
0.0
 10
91.3807460299
 20
162.9053095267
 30
0.0
 10
91.4988656094
 20
163.3866662884
 30
0.0
 10
91.5873214961
 20
163.9333711146
 30
0.0
 10
91.6412072541
 20
164.5254730722
 30
0.0
 10
91.6597933352
 20
165.1406252205
 30
0.0
 10
91.6412070812
 20
165.7557773601
 30
0.0
 10
91.5873213148
 20
166.3478784111
 30
0.0
 10
91.4988645003
 20
166.8945807013
 30
0.0
 10
91.3807517744
 20
167.3759381411
 30
0.0
 10
91.2357707788
 20
167.7735048448
 30
0.0
 10
91.0900749087
 20
168.0416353005
 30
0.0
 10
90.9593124794
 20
168.1958019149
 30
0.0
 10
90.8640940705
 20
168.2748570622
 30
0.0
 10
90.7653786907
 20
168.3241067298
 30
0.0
 10
90.6963969225
 20
168.3356245242
 30
0.0
 10
90.6634530824
 20
168.335624697
 30
0.0
  0
SPLINE
  5
2D9
100
AcDbEntity
  8
RUNDUNGEN
100
AcDbSpline
 62
7
  6
CONTINUOUS
 70
0
 71
3
 72
15
 73
11
 74
0
 42
0.0000001
 43
0.0000001
 44
0.0000000001
 40
0.0
 40
0.0
 40
0.0
 40
0.0
 40
0.0395926908
 40
0.0843096621
 40
0.1870206817
 40
0.3041499668
 40
0.4321102875
 40
0.5679101553
 40
0.7091145487
 40
1.0
 40
1.0
 40
1.0
 40
1.0
 10
85.743031142
 20
159.6860210342
 30
0.0
 10
85.6988013079
 20
159.7716216229
 30
0.0
 10
85.5955692711
 20
159.9492340613
 30
0.0
 10
85.3423282464
 20
160.3276054784
 30
0.0
 10
84.9479872144
 20
160.8373015256
 30
0.0
 10
84.3990355875
 20
161.4816663702
 30
0.0
 10
83.7772777202
 20
162.1692800318
 30
0.0
 10
83.1028491132
 20
162.8879151496
 30
0.0
 10
82.1454113384
 20
163.884569325
 30
0.0
 10
81.408898943
 20
164.635094514
 30
0.0
 10
80.9133650601
 20
165.1406245093
 30
0.0
  0
SPLINE
  5
2DA
100
AcDbEntity
  8
RUNDUNGEN
100
AcDbSpline
 62
7
  6
CONTINUOUS
 70
0
 71
3
 72
15
 73
11
 74
0
 42
0.0000001
 43
0.0000001
 44
0.0000000001
 40
0.0
 40
0.0
 40
0.0
 40
0.0
 40
0.0395928905
 40
0.0843102223
 40
0.1870221635
 40
0.3041523423
 40
0.4321137662
 40
0.567914971
 40
0.7091201367
 40
1.0
 40
1.0
 40
1.0
 40
1.0
 10
85.743032959
 20
170.5952319581
 30
0.0
 10
85.6988030489
 20
170.509630796
 30
0.0
 10
85.5955705274
 20
170.3320169075
 30
0.0
 10
85.3423274875
 20
169.9536421697
 30
0.0
 10
84.9479836538
 20
169.4439410853
 30
0.0
 10
84.3990261674
 20
168.7995712021
 30
0.0
 10
83.7772621266
 20
168.1119514402
 30
0.0
 10
83.1028268778
 20
167.3933110089
 30
0.0
 10
82.1453940987
 20
166.3966626358
 30
0.0
 10
81.4088923695
 20
165.6461425051
 30
0.0
 10
80.9133650601
 20
165.1406245093
 30
0.0
  0
SPLINE
  5
2DB
100
AcDbEntity
  8
RUNDUNGEN
100
AcDbSpline
 62
7
  6
CONTINUOUS
 70
0
 71
3
 72
13
 73
9
 74
0
 42
0.0000001
 43
0.0000001
 44
0.0000000001
 40
0.0
 40
0.0
 40
0.0
 40
0.0
 40
0.1231146936
 40
0.2466523642
 40
0.3707174188
 40
0.4955989657
 40
0.7466245705
 40
1.0
 40
1.0
 40
1.0
 40
1.0
 10
90.6634563404
 20
161.9456245093
 30
0.0
 10
90.7896963973
 20
161.9456245132
 30
0.0
 10
91.0433479552
 20
161.919687537
 30
0.0
 10
91.4083411607
 20
161.8049898738
 30
0.0
 10
91.744698568
 20
161.6184746271
 30
0.0
 10
92.137549269
 20
161.2846073189
 30
0.0
 10
92.4962451119
 20
160.7278065175
 30
0.0
 10
92.5953080635
 20
160.2054319795
 30
0.0
 10
92.5953080517
 20
159.9456244155
 30
0.0
  0
SPLINE
  5
2DC
100
AcDbEntity
  8
RUNDUNGEN
100
AcDbSpline
 62
7
  6
CONTINUOUS
 70
0
 71
3
 72
13
 73
9
 74
0
 42
0.0000001
 43
0.0000001
 44
0.0000000001
 40
0.0
 40
0.0
 40
0.0
 40
0.0
 40
0.1231146939
 40
0.2466523645
 40
0.3707174189
 40
0.4955989657
 40
0.7466245705
 40
1.0
 40
1.0
 40
1.0
 40
1.0
 10
90.6634563514
 20
168.3356245093
 30
0.0
 10
90.7896964086
 20
168.3356245054
 30
0.0
 10
91.0433479667
 20
168.3615614816
 30
0.0
 10
91.4083411724
 20
168.4762591448
 30
0.0
 10
91.7446985793
 20
168.6627743917
 30
0.0
 10
92.13754928
 20
168.9966416998
 30
0.0
 10
92.4962451226
 20
169.5534425013
 30
0.0
 10
92.5953080743
 20
170.0758170391
 30
0.0
 10
92.5953080626
 20
170.3356246031
 30
0.0
  0
SPLINE
  5
2DD
100
AcDbEntity
  8
RUNDUNGEN
100
AcDbSpline
 62
7
  6
CONTINUOUS
 70
0
 71
3
 72
11
 73
7
 74
0
 42
0.0000001
 43
0.0000001
 44
0.0000000001
 40
0.0
 40
0.0
 40
0.0
 40
0.0
 40
0.2320957585
 40
0.4805100746
 40
0.7397855647
 40
1.0
 40
1.0
 40
1.0
 40
1.0
 10
85.7429891829
 20
170.5951476167
 30
0.0
 10
85.726143439
 20
170.6991047986
 30
0.0
 10
85.6461901548
 20
170.9083460257
 30
0.0
 10
85.424129004
 20
171.16726817
 30
0.0
 10
85.1251282956
 20
171.355370396
 30
0.0
 10
84.8942672002
 20
171.4199620358
 30
0.0
 10
84.7770683655
 20
171.4342952391
 30
0.0
  0
SPLINE
  5
2DE
100
AcDbEntity
  8
RUNDUNGEN
100
AcDbSpline
 62
7
  6
CONTINUOUS
 70
0
 71
3
 72
16
 73
12
 74
0
 42
0.0000001
 43
0.0000001
 44
0.0000000001
 40
0.0
 40
0.0
 40
0.0
 40
0.0
 40
0.2977434597
 40
0.4417646984
 40
0.5795137437
 40
0.7080986981
 40
0.8239345274
 40
0.8757458693
 40
0.9227137934
 40
0.9642861997
 40
1.0
 40
1.0
 40
1.0
 40
1.0
 10
72.9454981559
 20
165.1406245093
 30
0.0
 10
72.4224814864
 20
164.6071267565
 30
0.0
 10
71.6460874048
 20
163.8159228299
 30
0.0
 10
70.6399634163
 20
162.7660330152
 30
0.0
 10
69.9374694437
 20
162.0131354449
 30
0.0
 10
69.2986145236
 20
161.2978848859
 30
0.0
 10
68.8228056164
 20
160.7263579459
 30
0.0
 10
68.498545717
 20
160.2962711281
 30
0.0
 10
68.2989766101
 20
160.0058833613
 30
0.0
 10
68.1385346053
 20
159.7383188368
 30
0.0
 10
68.0540108704
 20
159.5631668026
 30
0.0
 10
68.021411367
 20
159.4796926568
 30
0.0
  0
SPLINE
  5
2DF
100
AcDbEntity
  8
RUNDUNGEN
100
AcDbSpline
 62
7
  6
CONTINUOUS
 70
0
 71
3
 72
11
 73
7
 74
0
 42
0.0000001
 43
0.0000001
 44
0.0000000001
 40
0.0
 40
0.0
 40
0.0
 40
0.0
 40
0.2540212454
 40
0.5056597478
 40
0.7539854548
 40
1.0
 40
1.0
 40
1.0
 40
1.0
 10
86.6902685891
 20
171.6406245093
 30
0.0
 10
86.6902685886
 20
171.7705339713
 30
0.0
 10
86.6406132292
 20
172.0318492898
 30
0.0
 10
86.4268496985
 20
172.3640139768
 30
0.0
 10
86.1058812645
 20
172.5879577072
 30
0.0
 10
85.8501575039
 20
172.6406245093
 30
0.0
 10
85.7243427629
 20
172.6406245093
 30
0.0
  0
SPLINE
  5
2E0
100
AcDbEntity
  8
RUNDUNGEN
100
AcDbSpline
 62
7
  6
CONTINUOUS
 70
0
 71
3
 72
13
 73
9
 74
0
 42
0.0000001
 43
0.0000001
 44
0.0000000001
 40
0.0
 40
0.0
 40
0.0
 40
0.0
 40
0.2305033004
 40
0.4667523537
 40
0.5901661598
 40
0.7192357701
 40
0.8560340442
 40
1.0
 40
1.0
 40
1.0
 40
1.0
 10
202.6655246272
 20
145.6406245093
 30
0.0
 10
202.8046939896
 20
145.6406245093
 30
0.0
 10
203.087592853
 20
145.6751154581
 30
0.0
 10
203.4229361231
 20
145.8110282825
 30
0.0
 10
203.6623461645
 20
145.986055622
 30
0.0
 10
203.8218592149
 20
146.1614078262
 30
0.0
 10
203.9388998828
 20
146.3829354579
 30
0.0
 10
203.96875
 20
146.553703193
 30
0.0
 10
203.96875
 20
146.6406245093
 30
0.0
  0
SPLINE
  5
2E1
100
AcDbEntity
  8
0
100
AcDbSpline
 62
7
  6
CONTINUOUS
 70
0
 71
3
 72
15
 73
11
 74
0
 42
0.0000001
 43
0.0000001
 44
0.0000000001
 40
0.0
 40
0.0
 40
0.0
 40
0.0
 40
0.1229664642
 40
0.2474741102
 40
0.3733383801
 40
0.499996659
 40
0.6266550877
 40
0.752521608
 40
0.8770321122
 40
1.0
 40
1.0
 40
1.0
 40
1.0
 10
218.6773274314
 20
167.4980234655
 30
0.0
 10
218.5101084504
 20
167.355069273
 30
0.0
 10
218.2014612915
 20
167.0327266107
 30
0.0
 10
217.8455946306
 20
166.4618026429
 30
0.0
 10
217.6191096158
 20
165.820447915
 30
0.0
 10
217.5410471625
 20
165.1406420587
 30
0.0
 10
217.6191034383
 20
164.4608319889
 30
0.0
 10
217.845581155
 20
163.8194640161
 30
0.0
 10
218.2014565733
 20
163.2485311746
 30
0.0
 10
218.5101068881
 20
162.9261812656
 30
0.0
 10
218.6773274314
 20
162.7832249811
 30
0.0
  0
SPLINE
  5
2E2
100
AcDbEntity
  8
0
100
AcDbSpline
 62
7
  6
CONTINUOUS
 70
0
 71
3
 72
11
 73
7
 74
0
 42
0.0000001
 43
0.0000001
 44
0.0000000001
 40
0.0
 40
0.0
 40
0.0
 40
0.0
 40
0.2983319007
 40
0.5702391847
 40
0.8060969846
 40
1.0
 40
1.0
 40
1.0
 40
1.0
 10
218.6773274314
 20
162.7832249811
 30
0.0
 10
218.881421007
 20
162.6087460644
 30
0.0
 10
219.316114333
 20
162.3241615986
 30
0.0
 10
220.0014105054
 20
162.0718954015
 30
0.0
 10
220.6260194382
 20
161.9627817683
 30
0.0
 10
221.0131572985
 20
161.9456245093
 30
0.0
 10
221.1876766962
 20
161.9456245093
 30
0.0
  0
SPLINE
  5
2E3
100
AcDbEntity
  8
0
100
AcDbSpline
 62
7
  6
CONTINUOUS
 70
0
 71
3
 72
11
 73
7
 74
0
 42
0.0000001
 43
0.0000001
 44
0.0000000001
 40
0.0
 40
0.0
 40
0.0
 40
0.0
 40
0.1939054047
 40
0.4297647128
 40
0.7016718803
 40
1.0
 40
1.0
 40
1.0
 40
1.0
 10
221.1876766699
 20
168.3356245093
 30
0.0
 10
221.0131551099
 20
168.3356245093
 30
0.0
 10
220.6260136726
 20
168.3184681416
 30
0.0
 10
220.0014013381
 20
168.2093522617
 30
0.0
 10
219.3161091859
 20
167.9570815035
 30
0.0
 10
218.88141889
 20
167.6724996493
 30
0.0
 10
218.6773274314
 20
167.4980234655
 30
0.0
  0
SPLINE
  5
2E4
100
AcDbEntity
  8
RUNDUNGEN
100
AcDbSpline
 62
7
  6
CONTINUOUS
 70
0
 71
3
 72
14
 73
10
 74
0
 42
0.0000001
 43
0.0000001
 44
0.0000000001
 40
0.0
 40
0.0
 40
0.0
 40
0.0
 40
0.0657196888
 40
0.1444619045
 40
0.2428818801
 40
0.3626744873
 40
0.5022760223
 40
0.6583691809
 40
1.0
 40
1.0
 40
1.0
 40
1.0
 10
214.5954043984
 20
172.6406245093
 30
0.0
 10
214.620234089
 20
172.6406245093
 30
0.0
 10
214.6751162141
 20
172.624571025
 30
0.0
 10
214.7454475474
 20
172.5630762715
 30
0.0
 10
214.8084849416
 20
172.4693489952
 30
0.0
 10
214.8635168249
 20
172.3453465923
 30
0.0
 10
214.9090340462
 20
172.194786092
 30
0.0
 10
214.955669855
 20
171.9582944159
 30
0.0
 10
214.96875
 20
171.7696967504
 30
0.0
 10
214.96875
 20
171.6406245093
 30
0.0
  0
SPLINE
  5
2E5
100
AcDbEntity
  8
RUNDUNGEN
100
AcDbSpline
 62
7
  6
CONTINUOUS
 70
0
 71
3
 72
14
 73
10
 74
0
 42
0.0000001
 43
0.0000001
 44
0.0000000001
 40
0.0
 40
0.0
 40
0.0
 40
0.0
 40
0.3416308191
 40
0.4977239777
 40
0.6373255127
 40
0.7571181199
 40
0.8555380955
 40
0.9342803112
 40
1.0
 40
1.0
 40
1.0
 40
1.0
 10
214.96875
 20
158.6406245093
 30
0.0
 10
214.96875
 20
158.5115522682
 30
0.0
 10
214.955669855
 20
158.3229546027
 30
0.0
 10
214.9090340462
 20
158.0864629265
 30
0.0
 10
214.8635168249
 20
157.9359024263
 30
0.0
 10
214.8084849416
 20
157.8119000234
 30
0.0
 10
214.7454475474
 20
157.7181727471
 30
0.0
 10
214.6751162141
 20
157.6566779936
 30
0.0
 10
214.620234089
 20
157.6406245093
 30
0.0
 10
214.5954043984
 20
157.6406245093
 30
0.0
  0
SPLINE
  5
2E6
100
AcDbEntity
  8
RUNDUNGEN
100
AcDbSpline
 62
7
  6
CONTINUOUS
 70
0
 71
3
 72
15
 73
11
 74
0
 42
0.0000001
 43
0.0000001
 44
0.0000000001
 40
0.0
 40
0.0
 40
0.0
 40
0.0
 40
0.3687295696
 40
0.5358783757
 40
0.6832173983
 40
0.805638207
 40
0.8991840738
 40
0.9345797228
 40
0.9625126347
 40
1.0
 40
1.0
 40
1.0
 40
1.0
 10
246.6423981777
 20
171.6406245093
 30
0.0
 10
246.6423981777
 20
171.768276517
 30
0.0
 10
246.636536197
 20
171.9539162541
 30
0.0
 10
246.6151864943
 20
172.189531388
 30
0.0
 10
246.5944775131
 20
172.3394367234
 30
0.0
 10
246.5692921356
 20
172.4627891084
 30
0.0
 10
246.5443886574
 20
172.5463167755
 30
0.0
 10
246.5209468882
 20
172.595795836
 30
0.0
 10
246.5024253957
 20
172.624603542
 30
0.0
 10
246.4817279053
 20
172.6406245093
 30
0.0
 10
246.46875
 20
172.6406245093
 30
0.0
  0
SPLINE
  5
2E7
100
AcDbEntity
  8
RUNDUNGEN
100
AcDbSpline
 62
7
  6
CONTINUOUS
 70
0
 71
3
 72
15
 73
11
 74
0
 42
0.0000001
 43
0.0000001
 44
0.0000000001
 40
0.0
 40
0.0
 40
0.0
 40
0.0
 40
0.0374873653
 40
0.0654202772
 40
0.1008159263
 40
0.194361793
 40
0.3167826017
 40
0.4641216243
 40
0.6312704305
 40
1.0
 40
1.0
 40
1.0
 40
1.0
 10
246.46875
 20
157.6406245093
 30
0.0
 10
246.4817279053
 20
157.6406245093
 30
0.0
 10
246.5024253958
 20
157.6566454766
 30
0.0
 10
246.5209468882
 20
157.6854531826
 30
0.0
 10
246.5443886574
 20
157.7349322431
 30
0.0
 10
246.5692921356
 20
157.8184599102
 30
0.0
 10
246.5944775131
 20
157.9418122952
 30
0.0
 10
246.6151864943
 20
158.0917176306
 30
0.0
 10
246.636536197
 20
158.3273327645
 30
0.0
 10
246.6423981777
 20
158.5129725015
 30
0.0
 10
246.6423981777
 20
158.6406245093
 30
0.0
  0
SPLINE
  5
2E8
100
AcDbEntity
  8
RUNDUNGEN
100
AcDbSpline
 62
7
  6
CONTINUOUS
 70
0
 71
3
 72
15
 73
11
 74
0
 42
0.0000001
 43
0.0000001
 44
0.0000000001
 40
0.0
 40
0.0
 40
0.0
 40
0.0
 40
0.3766194318
 40
0.5445299935
 40
0.6912893328
 40
0.8123090474
 40
0.9040366412
 40
0.9384152353
 40
0.9652412979
 40
1.0
 40
1.0
 40
1.0
 40
1.0
 10
249.8369908883
 20
170.8014175114
 30
0.0
 10
249.89397555
 20
170.9055337376
 30
0.0
 10
249.9725154536
 20
171.0582759299
 30
0.0
 10
250.0619938358
 20
171.2569590912
 30
0.0
 10
250.1131269266
 20
171.3844366167
 30
0.0
 10
250.1491437472
 20
171.49198333
 30
0.0
 10
250.167889464
 20
171.5676164502
 30
0.0
 10
250.1727110319
 20
171.6160173596
 30
0.0
 10
250.1720762311
 20
171.6455303601
 30
0.0
 10
250.1643530071
 20
171.6669156034
 30
0.0
 10
250.1548131384
 20
171.672299218
 30
0.0
  0
SPLINE
  5
2E9
100
AcDbEntity
  8
RUNDUNGEN
100
AcDbSpline
 62
7
  6
CONTINUOUS
 70
0
 71
3
 72
15
 73
11
 74
0
 42
0.0000001
 43
0.0000001
 44
0.0000000001
 40
0.0
 40
0.0
 40
0.0
 40
0.0
 40
0.0347587008
 40
0.0615847698
 40
0.095963373
 40
0.1876909884
 40
0.3087107233
 40
0.4554700747
 40
0.6233806345
 40
1.0
 40
1.0
 40
1.0
 40
1.0
 10
250.1548135467
 20
158.608949077
 30
0.0
 10
250.1643534204
 20
158.6143327009
 30
0.0
 10
250.1720766342
 20
158.6357179717
 30
0.0
 10
250.1727114238
 20
158.6652310008
 30
0.0
 10
250.1678898344
 20
158.7136319625
 30
0.0
 10
250.1491440816
 20
158.7892651586
 30
0.0
 10
250.1131272067
 20
158.896811975
 30
0.0
 10
250.0619940516
 20
159.0242896125
 30
0.0
 10
249.9725155767
 20
159.2229729186
 30
0.0
 10
249.8939756002
 20
159.3757152156
 30
0.0
 10
249.8369908883
 20
159.4798315072
 30
0.0
  0
SPLINE
  5
2EA
100
AcDbEntity
  8
RUNDUNGEN
100
AcDbSpline
 62
7
  6
CONTINUOUS
 70
0
 71
3
 72
13
 73
9
 74
0
 42
0.0000001
 43
0.0000001
 44
0.0000000001
 40
0.0
 40
0.0
 40
0.0
 40
0.0
 40
0.1092500454
 40
0.2202032496
 40
0.3344688063
 40
0.4536497187
 40
0.7115917372
 40
1.0
 40
1.0
 40
1.0
 40
1.0
 10
253.96875
 20
165.1406245093
 30
0.0
 10
253.9687086824
 20
164.8712945323
 30
0.0
 10
253.9262834537
 20
164.3275142181
 30
0.0
 10
253.7352434308
 20
163.5222169704
 30
0.0
 10
253.4145428335
 20
162.7324887234
 30
0.0
 10
252.7954086432
 20
161.686637199
 30
0.0
 10
251.6527000425
 20
160.4773941113
 30
0.0
 10
250.4847140495
 20
159.7723109708
 30
0.0
 10
249.8367184874
 20
159.4796926568
 30
0.0
  0
SPLINE
  5
2EB
100
AcDbEntity
  8
RUNDUNGEN
100
AcDbSpline
 62
7
  6
CONTINUOUS
 70
0
 71
3
 72
13
 73
9
 74
0
 42
0.0000001
 43
0.0000001
 44
0.0000000001
 40
0.0
 40
0.0
 40
0.0
 40
0.0
 40
0.1092532079
 40
0.2202091692
 40
0.3344740317
 40
0.4536544359
 40
0.7115949238
 40
1.0
 40
1.0
 40
1.0
 40
1.0
 10
253.96875
 20
165.1406245093
 30
0.0
 10
253.9687055572
 20
165.4099598215
 30
0.0
 10
253.9262786338
 20
165.953749181
 30
0.0
 10
253.7352402541
 20
166.7590528498
 30
0.0
 10
253.4145336312
 20
167.5487742628
 30
0.0
 10
252.7954113076
 20
168.5946120996
 30
0.0
 10
251.6527226117
 20
169.8038306244
 30
0.0
 10
250.4847701758
 20
170.5089290891
 30
0.0
 10
249.8367801789
 20
170.8015248554
 30
0.0
  0
SPLINE
  5
2EC
100
AcDbEntity
  8
RUNDUNGEN
100
AcDbSpline
 62
7
  6
CONTINUOUS
 70
0
 71
3
 72
15
 73
11
 74
0
 42
0.0000001
 43
0.0000001
 44
0.0000000001
 40
0.0
 40
0.0
 40
0.0
 40
0.0
 40
0.1822581225
 40
0.3576671983
 40
0.5190100928
 40
0.661147918
 40
0.7803854954
 40
0.874788231
 40
0.9456403969
 40
1.0
 40
1.0
 40
1.0
 40
1.0
 10
203.96875
 20
171.6406245093
 30
0.0
 10
203.96875
 20
171.7069967342
 30
0.0
 10
203.9649079848
 20
171.8372805827
 30
0.0
 10
203.9480485393
 20
172.0256495113
 30
0.0
 10
203.9208465568
 20
172.1980757095
 30
0.0
 10
203.8846806833
 20
172.3478933139
 30
0.0
 10
203.8414294895
 20
172.4704126799
 30
0.0
 10
203.7922748555
 20
172.5621386631
 30
0.0
 10
203.7384423241
 20
172.6231172483
 30
0.0
 10
203.6930366146
 20
172.6406245093
 30
0.0
 10
203.6732406914
 20
172.6406245093
 30
0.0
  0
SPLINE
  5
2ED
100
AcDbEntity
  8
RUNDUNGEN
100
AcDbSpline
 62
7
  6
CONTINUOUS
 70
0
 71
3
 72
19
 73
15
 74
0
 42
0.0000001
 43
0.0000001
 44
0.0000000001
 40
0.0
 40
0.0
 40
0.0
 40
0.0
 40
0.0610147581
 40
0.1223277857
 40
0.184138078
 40
0.2465199278
 40
0.3724735041
 40
0.4999562149
 40
0.6274501567
 40
0.7534309382
 40
0.8158292164
 40
0.8776551332
 40
0.9389794931
 40
1.0
 40
1.0
 40
1.0
 40
1.0
 10
223.9391506167
 20
161.9552006877
 30
0.0
 10
223.7516010204
 20
161.9706114828
 30
0.0
 10
223.3775761476
 20
162.0386587711
 30
0.0
 10
222.8462990098
 20
162.2488824732
 30
0.0
 10
222.3616788282
 20
162.5597926416
 30
0.0
 10
221.7989219348
 20
163.0931502426
 30
0.0
 10
221.2916869902
 20
163.9521931937
 30
0.0
 10
221.0809419638
 20
165.1323551734
 30
0.0
 10
221.2860354541
 20
166.313596225
 30
0.0
 10
221.7891013802
 20
167.1752449024
 30
0.0
 10
222.3492054795
 20
167.7116510469
 30
0.0
 10
222.8323268857
 20
168.0251235202
 30
0.0
 10
223.3625447309
 20
168.2382661794
 30
0.0
 10
223.736255639
 20
168.3083137476
 30
0.0
 10
223.9237368848
 20
168.324739324
 30
0.0
  0
SPLINE
  5
2EE
100
AcDbEntity
  8
0
100
AcDbSpline
 62
7
  6
CONTINUOUS
 70
0
 71
3
 72
31
 73
27
 74
0
 42
0.0000001
 43
0.0000001
 44
0.0000000001
 40
0.0
 40
0.0
 40
0.0
 40
0.0
 40
0.0042667163
 40
0.0118546809
 40
0.0232288256
 40
0.0385918421
 40
0.0580896101
 40
0.0817844124
 40
0.1097219039
 40
0.1417951995
 40
0.2173784478
 40
0.3051998036
 40
0.4008227847
 40
0.4999738837
 40
0.5991315416
 40
0.6947497188
 40
0.7825820814
 40
0.8581701713
 40
0.8902603049
 40
0.9182009867
 40
0.9419022347
 40
0.9614037699
 40
0.9767686428
 40
0.9881448065
 40
0.9957334902
 40
1.0
 40
1.0
 40
1.0
 40
1.0
 10
221.96875
 20
162.1347701784
 30
0.0
 10
221.96875
 20
162.1446321626
 30
0.0
 10
221.9527441648
 20
162.1696294808
 30
0.0
 10
221.9159713324
 20
162.2071207318
 30
0.0
 10
221.8561130222
 20
162.2601334666
 30
0.0
 10
221.7753321277
 20
162.3297021588
 30
0.0
 10
221.6739271783
 20
162.4195079825
 30
0.0
 10
221.5546611075
 20
162.5326852096
 30
0.0
 10
221.4206112432
 20
162.6723412211
 30
0.0
 10
221.2168691944
 20
162.9107097714
 30
0.0
 10
220.9606169642
 20
163.2849384673
 30
0.0
 10
220.7011899011
 20
163.8275654484
 30
0.0
 10
220.5249929999
 20
164.4601704761
 30
0.0
 10
220.4616913441
 20
165.1404523245
 30
0.0
 10
220.5249311105
 20
165.8207324242
 30
0.0
 10
220.7011082671
 20
166.4533700105
 30
0.0
 10
220.960455647
 20
166.9960635841
 30
0.0
 10
221.2167505427
 20
167.3703611437
 30
0.0
 10
221.4205375931
 20
167.6087629379
 30
0.0
 10
221.554558505
 20
167.7485326904
 30
0.0
 10
221.673882984
 20
167.8616944358
 30
0.0
 10
221.7752989699
 20
167.9515293826
 30
0.0
 10
221.8560969898
 20
168.0211047964
 30
0.0
 10
221.915966762
 20
168.0741221577
 30
0.0
 10
221.9527382914
 20
168.1116206999
 30
0.0
 10
221.96875
 20
168.1366166353
 30
0.0
 10
221.96875
 20
168.1464781422
 30
0.0
  0
SPLINE
  5
2EF
100
AcDbEntity
  8
0
100
AcDbSpline
 62
7
  6
CONTINUOUS
 70
0
 71
3
 72
23
 73
19
 74
0
 42
0.0000001
 43
0.0000001
 44
0.0000000001
 40
0.0
 40
0.0
 40
0.0
 40
0.0
 40
0.0620398181
 40
0.1241758991
 40
0.1864029731
 40
0.2487979712
 40
0.3113753202
 40
0.3741309066
 40
0.4370260863
 40
0.4999999766
 40
0.5629738692
 40
0.625869056
 40
0.6886246518
 40
0.751202014
 40
0.8135970225
 40
0.8758240975
 40
0.9379601847
 40
1.0
 40
1.0
 40
1.0
 40
1.0
 10
219.2265664405
 20
168.3356245093
 30
0.0
 10
219.0160059889
 20
168.3356245093
 30
0.0
 10
218.5935105688
 20
168.296265462
 30
0.0
 10
217.9820312866
 20
168.1206521717
 30
0.0
 10
217.4130166008
 20
167.8327463342
 30
0.0
 10
216.9078631625
 20
167.440879141
 30
0.0
 10
216.4875941401
 20
166.9564483223
 30
0.0
 10
216.1708977833
 20
166.396615022
 30
0.0
 10
215.9739936003
 20
165.7826887923
 30
0.0
 10
215.9071995761
 20
165.1406247665
 30
0.0
 10
215.9739934455
 20
164.498560687
 30
0.0
 10
216.1708976781
 20
163.8846344069
 30
0.0
 10
216.4875939752
 20
163.3248009585
 30
0.0
 10
216.9078630176
 20
162.840370023
 30
0.0
 10
217.413016344
 20
162.4485025264
 30
0.0
 10
217.9820312821
 20
162.1605969665
 30
0.0
 10
218.5935106098
 20
161.9849839817
 30
0.0
 10
219.0160060011
 20
161.9456245093
 30
0.0
 10
219.226566443
 20
161.9456245093
 30
0.0
  0
SPLINE
  5
2F0
100
AcDbEntity
  8
RUNDUNGEN
100
AcDbSpline
 62
7
  6
CONTINUOUS
 70
0
 71
3
 72
11
 73
7
 74
0
 42
0.0000001
 43
0.0000001
 44
0.0000000001
 40
0.0
 40
0.0
 40
0.0
 40
0.0
 40
0.2656668774
 40
0.5219312645
 40
0.7664151448
 40
1.0
 40
1.0
 40
1.0
 40
1.0
 10
100.7491842553
 20
97.3734246708
 30
0.0
 10
100.573485875
 20
97.3869694075
 30
0.0
 10
100.223817797
 20
97.3746402536
 30
0.0
 10
99.7296472167
 20
97.2348263596
 30
0.0
 10
99.3061059582
 20
96.9824985221
 30
0.0
 10
99.0878879035
 20
96.7444645097
 30
0.0
 10
99.0027721145
 20
96.6149982867
 30
0.0
  0
SPLINE
  5
2F1
100
AcDbEntity
  8
RUNDUNGEN
100
AcDbSpline
 62
7
  6
CONTINUOUS
 70
0
 71
3
 72
9
 73
5
 74
0
 42
0.0000001
 43
0.0000001
 44
0.0000000001
 40
0.0
 40
0.0
 40
0.0
 40
0.0
 40
0.2523140127
 40
1.0
 40
1.0
 40
1.0
 40
1.0
 10
99.0027721145
 20
96.6149982867
 30
0.0
 10
98.9818526674
 20
96.5831785523
 30
0.0
 10
98.9039174159
 20
96.4538720942
 30
0.0
 10
98.8465387053
 20
96.3121242725
 30
0.0
 10
98.8173326026
 20
96.203125
 30
0.0
  0
LINE
  5
2F2
100
AcDbEntity
  8
RUNDUNGEN
100
AcDbLine
 62
7
  6
CONTINUOUS
 10
57.3243959311
 20
113.7027280747
 11
57.3243959311
 21
112.7024829805
  0
LINE
  5
2F3
100
AcDbEntity
  8
RUNDUNGEN
100
AcDbLine
 62
7
  6
CONTINUOUS
 10
98.8173326026
 20
96.203125
 11
97.8173326026
 21
96.3347774976
  0
SPLINE
  5
2F4
100
AcDbEntity
  8
RUNDUNGEN
100
AcDbSpline
 62
7
  6
CONTINUOUS
 70
0
 71
3
 72
13
 73
9
 74
0
 42
0.0000001
 43
0.0000001
 44
0.0000000001
 40
0.0
 40
0.0
 40
0.0
 40
0.0
 40
0.1056260949
 40
0.213134782
 40
0.3243658383
 40
0.4412375192
 40
0.6986455831
 40
1.0
 40
1.0
 40
1.0
 40
1.0
 10
72.9454981559
 20
43.703125
 30
0.0
 10
72.7360118933
 20
43.7031690626
 30
0.0
 10
72.3123299552
 20
43.7417567488
 30
0.0
 10
71.6895032506
 20
43.9155787512
 30
0.0
 10
71.0874342459
 20
44.2078316477
 30
0.0
 10
70.3050223983
 20
44.7768129363
 30
0.0
 10
69.4537254911
 20
45.8481606726
 30
0.0
 10
69.0965863774
 20
46.9262497623
 30
0.0
 10
69.0062671438
 20
47.5170564877
 30
0.0
  0
LINE
  5
2F5
100
AcDbEntity
  8
RUNDUNGEN
100
AcDbLine
 62
7
  6
CONTINUOUS
 10
69.0062671438
 20
47.5170564877
 11
68.4429311661
 21
51.2034083599
  0
LINE
  5
2F6
100
AcDbEntity
  8
RUNDUNGEN
100
AcDbLine
 62
7
  6
CONTINUOUS
 10
85.7243850155
 20
51.2033075812
 11
84.7770683653
 21
47.1239601764
  0
SPLINE
  5
2F7
100
AcDbEntity
  8
RUNDUNGEN
100
AcDbSpline
 62
7
  6
CONTINUOUS
 70
0
 71
3
 72
13
 73
9
 74
0
 42
0.0000001
 43
0.0000001
 44
0.0000000001
 40
0.0
 40
0.0
 40
0.0
 40
0.0
 40
0.2972884509
 40
0.5538960148
 40
0.6714062336
 40
0.7837684165
 40
0.8927505433
 40
1.0
 40
1.0
 40
1.0
 40
1.0
 10
84.7770683653
 20
47.1239601764
 30
0.0
 10
84.652566383
 20
46.5879423655
 30
0.0
 10
84.2586007215
 20
45.6171789703
 30
0.0
 10
83.4254002214
 20
44.6632762892
 30
0.0
 10
82.6771643857
 20
44.1554754279
 30
0.0
 10
82.1038242848
 20
43.8935870709
 30
0.0
 10
81.5129603007
 20
43.7377948204
 30
0.0
 10
81.1118860026
 20
43.7031952924
 30
0.0
 10
80.9133650601
 20
43.703125
 30
0.0
  0
SPLINE
  5
2F8
100
AcDbEntity
  8
RUNDUNGEN
100
AcDbSpline
 62
7
  6
CONTINUOUS
 70
0
 71
3
 72
13
 73
9
 74
0
 42
0.0000001
 43
0.0000001
 44
0.0000000001
 40
0.0
 40
0.0
 40
0.0
 40
0.0
 40
0.0878597621
 40
0.1825701273
 40
0.2884781055
 40
0.4076955033
 40
0.6847865993
 40
1.0
 40
1.0
 40
1.0
 40
1.0
 10
85.7429891829
 20
47.4090311168
 30
0.0
 10
85.734749536
 20
47.3782826903
 30
0.0
 10
85.7060950455
 20
47.3170695241
 30
0.0
 10
85.6337279786
 20
47.2397830258
 30
0.0
 10
85.5346896646
 20
47.1776784944
 30
0.0
 10
85.3636305626
 20
47.1130620325
 30
0.0
 10
85.1042764031
 20
47.0821113703
 30
0.0
 10
84.8892960058
 20
47.1027912443
 30
0.0
 10
84.7770683655
 20
47.1239665159
 30
0.0
  0
SPLINE
  5
2F9
100
AcDbEntity
  8
RUNDUNGEN
100
AcDbSpline
 62
7
  6
CONTINUOUS
 70
0
 71
3
 72
13
 73
9
 74
0
 42
0.0000001
 43
0.0000001
 44
0.0000000001
 40
0.0
 40
0.0
 40
0.0
 40
0.0
 40
0.0819058789
 40
0.1721637808
 40
0.2759637841
 40
0.3954856851
 40
0.6777616886
 40
1.0
 40
1.0
 40
1.0
 40
1.0
 10
68.0214593909
 20
47.8348841117
 30
0.0
 10
68.0267415934
 20
47.804930961
 30
0.0
 10
68.050824777
 20
47.743796312
 30
0.0
 10
68.1199481786
 20
47.6660763451
 30
0.0
 10
68.2182752091
 20
47.6018215962
 30
0.0
 10
68.393326337
 20
47.5315694606
 30
0.0
 10
68.6622039196
 20
47.4905304343
 30
0.0
 10
68.8876615026
 20
47.5012000162
 30
0.0
 10
69.006267144
 20
47.5170618616
 30
0.0
  0
LINE
  5
2FA
100
AcDbEntity
  8
RUNDUNGEN
100
AcDbLine
 62
7
  6
CONTINUOUS
 10
62.8228434616
 20
83.0764706016
 11
61.8732477524
 21
82.703125
  0
LINE
  5
2FB
100
AcDbEntity
  8
RUNDUNGEN
100
AcDbLine
 62
7
  6
CONTINUOUS
 10
54.75
 20
93.703125
 11
55.75
 21
93.9986343086
  0
SPLINE
  5
2FC
100
AcDbEntity
  8
RUNDUNGEN
100
AcDbSpline
 62
7
  6
CONTINUOUS
 70
0
 71
3
 72
9
 73
5
 74
0
 42
0.0000001
 43
0.0000001
 44
0.0000000001
 40
0.0
 40
0.0
 40
0.0
 40
0.0
 40
0.2418139031
 40
1.0
 40
1.0
 40
1.0
 40
1.0
 10
100.7491842552
 20
97.3734107183
 30
0.0
 10
100.759946671
 20
97.4051100474
 30
0.0
 10
100.7995059853
 20
97.5378140373
 30
0.0
 10
100.8173337467
 20
97.6771097176
 30
0.0
 10
100.8173326026
 20
97.7820723684
 30
0.0
  0
SPLINE
  5
2FD
100
AcDbEntity
  8
RUNDUNGEN
100
AcDbSpline
 62
7
  6
CONTINUOUS
 70
0
 71
3
 72
12
 73
8
 74
0
 42
0.0000001
 43
0.0000001
 44
0.0000000001
 40
0.0
 40
0.0
 40
0.0
 40
0.0
 40
0.2494549784
 40
0.3745352218
 40
0.4996330527
 40
0.749773937
 40
1.0
 40
1.0
 40
1.0
 40
1.0
 10
97.8173326026
 20
96.7749217697
 30
0.0
 10
97.8173320615
 20
97.4116971656
 30
0.0
 10
97.9798248217
 20
98.3705296032
 30
0.0
 10
98.4015868443
 20
99.5744094016
 30
0.0
 10
98.9308515793
 20
100.7387136767
 30
0.0
 10
99.7406106575
 20
102.1183296726
 30
0.0
 10
100.4583822686
 20
103.1747802313
 30
0.0
 10
100.8173326026
 20
103.703125
 30
0.0
  0
LINE
  5
2FE
100
AcDbEntity
  8
RUNDUNGEN
100
AcDbLine
 62
7
  6
CONTINUOUS
 10
98.3279025005
 20
110.7741895803
 11
96.6857650016
 21
103.7027706424
  0
SPLINE
  5
2FF
100
AcDbEntity
  8
RUNDUNGEN
100
AcDbSpline
 62
7
  6
CONTINUOUS
 70
0
 71
3
 72
11
 73
7
 74
0
 42
0.0000001
 43
0.0000001
 44
0.0000000001
 40
0.0
 40
0.0
 40
0.0
 40
0.0
 40
0.2501708193
 40
0.5002389346
 40
0.7501602573
 40
1.0
 40
1.0
 40
1.0
 40
1.0
 10
97.3276161525
 20
109.9619440451
 30
0.0
 10
97.3573817841
 20
110.0730240495
 30
0.0
 10
97.4499290007
 20
110.2878730406
 30
0.0
 10
97.6790503591
 20
110.5529989504
 30
0.0
 10
97.9813493279
 20
110.7314628912
 30
0.0
 10
98.213055733
 20
110.7741637307
 30
0.0
 10
98.3279025005
 20
110.7741637307
 30
0.0
  0
LINE
  5
300
100
AcDbEntity
  8
RUNDUNGEN
100
AcDbLine
 62
7
  6
CONTINUOUS
 10
100.3519908076
 20
96.2031401493
 11
100.7491842552
 21
97.3734107183
  0
SPLINE
  5
301
100
AcDbEntity
  8
RUNDUNGEN
100
AcDbSpline
 62
7
  6
CONTINUOUS
 70
0
 71
3
 72
13
 73
9
 74
0
 42
0.0000001
 43
0.0000001
 44
0.0000000001
 40
0.0
 40
0.0
 40
0.0
 40
0.0
 40
0.1237969814
 40
0.2476761067
 40
0.3718490515
 40
0.4964855643
 40
0.7474043857
 40
1.0
 40
1.0
 40
1.0
 40
1.0
 10
98.8173326026
 20
96.7749231869
 30
0.0
 10
98.8173325664
 20
97.0740112794
 30
0.0
 10
98.8638878571
 20
97.6726818929
 30
0.0
 10
99.0293329832
 20
98.5566476329
 30
0.0
 10
99.2593124651
 20
99.4277718739
 30
0.0
 10
99.6244244183
 20
100.5788628256
 30
0.0
 10
100.1499001009
 20
102.0031171813
 30
0.0
 10
100.5945082614
 20
103.1353541026
 30
0.0
 10
100.8174536216
 20
103.7034320728
 30
0.0
  0
SPLINE
  5
302
100
AcDbEntity
  8
RUNDUNGEN
100
AcDbSpline
 62
7
  6
CONTINUOUS
 70
0
 71
3
 72
11
 73
7
 74
0
 42
0.0000001
 43
0.0000001
 44
0.0000000001
 40
0.0
 40
0.0
 40
0.0
 40
0.0
 40
0.2707420536
 40
0.5311538446
 40
0.7744173245
 40
1.0
 40
1.0
 40
1.0
 40
1.0
 10
100.8173326026
 20
97.7820723684
 30
0.0
 10
100.6012086963
 20
97.7820723684
 30
0.0
 10
100.1750555515
 20
97.7278408902
 30
0.0
 10
99.5965576667
 20
97.4887377587
 30
0.0
 10
99.1389699933
 20
97.1137244174
 30
0.0
 10
98.9433168444
 20
96.7823224168
 30
0.0
 10
98.8854814149
 20
96.6117880198
 30
0.0
  0
SPLINE
  5
303
100
AcDbEntity
  8
RUNDUNGEN
100
AcDbSpline
 62
7
  6
CONTINUOUS
 70
0
 71
3
 72
9
 73
5
 74
0
 42
0.0000001
 43
0.0000001
 44
0.0000000001
 40
0.0
 40
0.0
 40
0.0
 40
0.0
 40
0.2528348027
 40
1.0
 40
1.0
 40
1.0
 40
1.0
 10
98.8854814149
 20
96.6117880198
 30
0.0
 10
98.8742389122
 20
96.5786382112
 30
0.0
 10
98.8350004965
 20
96.4458178484
 30
0.0
 10
98.8173326026
 20
96.3065681289
 30
0.0
 10
98.8173326026
 20
96.203125
 30
0.0
  0
ELLIPSE
  5
304
100
AcDbEntity
  8
RUNDUNGEN
100
AcDbEllipse
 62
7
  6
CONTINUOUS
 10
55.7652081941
 20
158.6406245093
 30
0.0
 11
1.0152081941
 21
-0.0
 31
0.0
 40
0.9850196303
 41
-3.1415926509
 42
-1.5707963268
  0
ENDSEC
  0
SECTION
  2
OBJECTS
  0
DICTIONARY
  5
C
100
AcDbDictionary
280
0
281
1
  3
ACAD_GROUP
350
D
  3
ACAD_MLINESTYLE
350
17
  3
ACAD_LAYOUT
350
1A
  3
ACAD_PLOTSETTINGS
350
19
  3
ACAD_PLOTSTYLENAME
350
E
  0
DICTIONARY
  5
D
102
{ACAD_REACTORS
330
C
102
}
100
AcDbDictionary
280
0
281
1
  0
ACDBDICTIONARYWDFLT
  5
E
102
{ACAD_REACTORS
330
C
102
}
100
AcDbDictionary
281
1
  3
Normal
350
F
100
AcDbDictionaryWithDefault
340
F
  0
DICTIONARY
  5
17
102
{ACAD_REACTORS
330
C
102
}
100
AcDbDictionary
280
0
281
1
  3
Standard
350
18
  0
DICTIONARY
  5
19
102
{ACAD_REACTORS
330
C
102
}
100
AcDbDictionary
281
1
  0
DICTIONARY
  5
1A
102
{ACAD_REACTORS
330
C
102
}
100
AcDbDictionary
281
1
  3
Model
350
305
  3
Layout1
350
306
  0
ACDBPLACEHOLDER
  5
F
102
{ACAD_REACTORS
330
E
102
}
  0
MLINESTYLE
  5
18
102
{ACAD_REACTORS
330
17
102
}
100
AcDbMlineStyle
  2
STANDARD
 70
0
  3

 62
256
 51
90.0
 52
90.0
 71
2
 49
0.5
 62
256
  6
BYLAYER
 49
-0.5
 62
256
  6
BYLAYER
  0
LAYOUT
  5
305
102
{ACAD_REACTORS
330
1A
102
}
100
AcDbPlotSettings
  1

  2
none_device
  4
ISO_A4_(297.00_x_210.00_MM)
  6

 40
0.0
 41
0.0
 42
0.0
 43
0.0
 44
297.0
 45
210.0
 46
0.0
 47
0.0
 48
0.0
 49
0.0
140
0.0
141
0.0
142
1.0
143
1.0
 70
1024
 72
1
 73
0
 74
0
  7

 75
0
147
1.0
148
0.0
149
0.0
100
AcDbLayout
  1
Model
 70
0
 71
0
 10
0.0
 20
0.0
 11
297.0
 21
210.0
 12
0.0
 22
0.0
 32
0.0
 14
0.0
 24
0.0
 34
0.0
 15
0.0
 25
0.0
 35
0.0
146
0.0
 13
0.0
 23
0.0
 33
0.0
 16
1.0
 26
0.0
 36
0.0
 17
0.0
 27
1.0
 37
0.0
 76
0
330
212
345
0
346
0
  0
LAYOUT
  5
306
102
{ACAD_REACTORS
330
1A
102
}
100
AcDbPlotSettings
  1

  2
none_device
  4
ISO_A4_(297.00_x_210.00_MM)
  6

 40
0.0
 41
0.0
 42
0.0
 43
0.0
 44
297.0
 45
210.0
 46
0.0
 47
0.0
 48
0.0
 49
0.0
140
0.0
141
0.0
142
1.0
143
1.0
 70
0
 72
1
 73
0
 74
0
  7

 75
0
147
1.0
148
0.0
149
0.0
100
AcDbLayout
  1
Layout1
 70
0
 71
1
 10
0.0
 20
0.0
 11
297.0
 21
210.0
 12
0.0
 22
0.0
 32
0.0
 14
0.0
 24
0.0
 34
0.0
 15
0.0
 25
0.0
 35
0.0
146
0.0
 13
0.0
 23
0.0
 33
0.0
 16
1.0
 26
0.0
 36
0.0
 17
0.0
 27
1.0
 37
0.0
 76
0
330
213
345
0
346
0
  0
ENDSEC
  0
EOF
