999
DXF file: S:\Prolink\03_Konstruktion\CAD-Plots\Internet\2D_neu\S9\s9-57_grt_smr_f7_w50.dxf
999
Pro/ENGINEER 2012230 by Parametric Technology Corporation
  0
SECTION
  2
HEADER
  9
$ACADVER
  1
AC1021
  9
$DWGCODEPAGE
  3
ANSI_1252
  9
$EXTMAX
 10
297.0
 20
210.0
 30
0.0
  9
$EXTMIN
 10
0.0
 20
0.0
 30
0.0
  9
$LIMMIN
 10
0.0
 20
0.0
  9
$LIMMAX
 10
297.0
 20
210.0
  9
$VIEWCTR
 10
148.5
 20
105.0
  9
$VIEWSIZE
 40
210.0
  9
$CLAYER
  8
0
  9
$LTSCALE
 40
16.335
  9
$CELTYPE
  6
BYLAYER
  9
$DIMSCALE
 40
1.0
  9
$DIMASZ
 40
3.5
  9
$DIMEXO
 40
0.0
  9
$DIMDLI
 40
11.286
  9
$DIMEXE
 40
1.5
  9
$DIMCEN
 40
2.673
  9
$DIMLFAC
 40
1.0
  9
$DIMBLK
  1
_FILLED
  9
$DIMTXT
 40
3.5
  9
$DIMTOL
 70
1
  9
$DIMLIM
 70
0
  9
$DIMTFAC
 40
1.0
  9
$DIMTP
 40
0.005
  9
$DIMTM
 40
0.005
  9
$DIMGAP
 40
0.625
  9
$DIMDSEP
 70
46
  9
$PDMODE
 70
3
  9
$PDSIZE
 40
0.3125
  9
$HANDSEED
  5
370
  9
$TILEMODE
 70
1
  9
$MEASUREMENT
 70
1
  9
$INSUNITS
 70
4
  0
ENDSEC
  0
SECTION
  2
CLASSES
  0
CLASS
  1
ACDBDICTIONARYWDFLT
  2
AcDbDictionaryWithDefault
  3
AutoCAD 2000
 90
0
 91
1
280
0
281
0
  0
CLASS
  1
ACDBPLACEHOLDER
  2
AcDbPlaceHolder
  3
AutoCAD 2000
 90
0
 91
1
280
0
281
0
  0
CLASS
  1
LAYOUT
  2
AcDbLayout
  3
AutoCAD 2000
 90
0
 91
0
280
0
281
0
  0
ENDSEC
  0
SECTION
  2
TABLES
  0
TABLE
  2
VPORT
  5
8
100
AcDbSymbolTable
 70
2
  0
VPORT
  5
1F4
100
AcDbSymbolTableRecord
100
AcDbViewportTableRecord
  2
*ACTIVE
 70
0
 10
0.0
 20
0.0
 11
1.0
 21
1.0
 12
148.5
 22
105.0
 13
0.0
 23
0.0
 14
1.0
 24
1.0
 15
0.0
 25
0.0
 16
0.0
 26
0.0
 36
1.0
 17
0.0
 27
0.0
 37
0.0
 40
210.0
 41
1.4142857143
 42
50.0
 43
0.0
 44
0.0
 50
0.0
 51
0.0
 71
0
 72
100
 73
1
 74
1
 75
0
 76
0
 77
0
 78
0
  0
ENDTAB
  0
TABLE
  2
LTYPE
  5
5
100
AcDbSymbolTable
 70
6
  0
LTYPE
  5
14
100
AcDbSymbolTableRecord
100
AcDbLinetypeTableRecord
  2
BYBLOCK
 70
0
  3

 72
65
 73
0
 40
0.0
  0
LTYPE
  5
15
100
AcDbSymbolTableRecord
100
AcDbLinetypeTableRecord
  2
BYLAYER
 70
0
  3

 72
65
 73
0
 40
0.0
  0
LTYPE
  5
16
100
AcDbSymbolTableRecord
100
AcDbLinetypeTableRecord
  2
CONTINUOUS
 70
64
  3
Solid line
 72
65
 73
0
 40
0.0
  0
LTYPE
  5
1F5
100
AcDbSymbolTableRecord
100
AcDbLinetypeTableRecord
  2
CENTER
 70
64
  3
____ _ ____ _ ____ _ ____ _ ____ _ ____ _ ____
 72
65
 73
4
 40
0.6
 49
0.375
 74
0
 49
-0.075
 74
0
 49
0.075
 74
0
 49
-0.075
 74
0
  0
LTYPE
  5
1F6
100
AcDbSymbolTableRecord
100
AcDbLinetypeTableRecord
  2
HIDDEN
 70
64
  3
- - - - - - - - - - - - - - - - - - - -
 72
65
 73
2
 40
0.2
 49
0.1
 74
0
 49
-0.1
 74
0
  0
LTYPE
  5
1F7
100
AcDbSymbolTableRecord
100
AcDbLinetypeTableRecord
  2
PHANTOM
 70
64
  3
_____ _ _ _____ _ _ _____ _ _ _____
 72
65
 73
6
 40
0.8
 49
0.45
 74
0
 49
-0.05
 74
0
 49
0.1
 74
0
 49
-0.05
 74
0
 49
0.1
 74
0
 49
-0.05
 74
0
  0
LTYPE
  5
1F8
100
AcDbSymbolTableRecord
100
AcDbLinetypeTableRecord
  2
DOT
 70
64
  3
. . . . . . . . . . . . . . . . . . . .
 72
65
 73
2
 40
0.2
 49
0.1
 74
0
 49
-0.1
 74
0
  0
LTYPE
  5
1F9
100
AcDbSymbolTableRecord
100
AcDbLinetypeTableRecord
  2
DASHED
 70
64
  3
- - - - - - - - - - - - - - - - - - - -
 72
65
 73
2
 40
0.2
 49
0.1
 74
0
 49
-0.1
 74
0
  0
ENDTAB
  0
TABLE
  2
LAYER
  5
2
100
AcDbSymbolTable
 70
36
  0
LAYER
  5
10
100
AcDbSymbolTableRecord
100
AcDbLayerTableRecord
  2
0
 70
0
 62
7
  6
CONTINUOUS
370
-3
390
F
  0
LAYER
  5
1FA
100
AcDbSymbolTableRecord
100
AcDbLayerTableRecord
  2
DEFAULT_1
 70
0
 62
7
  6
CENTER
370
-3
390
F
  0
LAYER
  5
1FB
100
AcDbSymbolTableRecord
100
AcDbLayerTableRecord
  2
DEFAULT_2
 70
0
 62
8
  6
HIDDEN
370
-3
390
F
  0
LAYER
  5
1FC
100
AcDbSymbolTableRecord
100
AcDbLayerTableRecord
  2
DEFAULT_3
 70
0
 62
7
  6
PHANTOM
370
-3
390
F
  0
LAYER
  5
1FD
100
AcDbSymbolTableRecord
100
AcDbLayerTableRecord
  2
01___PRT_ALL_DTM_PLN
 70
0
 62
7
  6
CONTINUOUS
370
-3
390
F
  0
LAYER
  5
1FE
100
AcDbSymbolTableRecord
100
AcDbLayerTableRecord
  2
01___PRT_DEF_DTM_PLN
 70
0
 62
7
  6
CONTINUOUS
370
-3
390
F
  0
LAYER
  5
1FF
100
AcDbSymbolTableRecord
100
AcDbLayerTableRecord
  2
02___PRT_ALL_AXES
 70
0
 62
7
  6
CONTINUOUS
370
-3
390
F
  0
LAYER
  5
200
100
AcDbSymbolTableRecord
100
AcDbLayerTableRecord
  2
03___PRT_ALL_CURVES
 70
0
 62
7
  6
CONTINUOUS
370
-3
390
F
  0
LAYER
  5
201
100
AcDbSymbolTableRecord
100
AcDbLayerTableRecord
  2
04___PRT_ALL_DTM_PNT
 70
0
 62
7
  6
CONTINUOUS
370
-3
390
F
  0
LAYER
  5
202
100
AcDbSymbolTableRecord
100
AcDbLayerTableRecord
  2
05___PRT_ALL_DTM_CSYS
 70
0
 62
7
  6
CONTINUOUS
370
-3
390
F
  0
LAYER
  5
203
100
AcDbSymbolTableRecord
100
AcDbLayerTableRecord
  2
05___PRT_DEF_DTM_CSYS
 70
0
 62
7
  6
CONTINUOUS
370
-3
390
F
  0
LAYER
  5
204
100
AcDbSymbolTableRecord
100
AcDbLayerTableRecord
  2
06___PRT_ALL_SURFS
 70
0
 62
7
  6
CONTINUOUS
370
-3
390
F
  0
LAYER
  5
205
100
AcDbSymbolTableRecord
100
AcDbLayerTableRecord
  2
ALLE
 70
0
 62
7
  6
CONTINUOUS
370
-3
390
F
  0
LAYER
  5
206
100
AcDbSymbolTableRecord
100
AcDbLayerTableRecord
  2
AUSFORMSCHRAEGEN
 70
0
 62
7
  6
CONTINUOUS
370
-3
390
F
  0
LAYER
  5
207
100
AcDbSymbolTableRecord
100
AcDbLayerTableRecord
  2
BEZUGSACHSEN
 70
0
 62
7
  6
CONTINUOUS
370
-3
390
F
  0
LAYER
  5
208
100
AcDbSymbolTableRecord
100
AcDbLayerTableRecord
  2
BEZUGSEBENE
 70
0
 62
7
  6
CONTINUOUS
370
-3
390
F
  0
LAYER
  5
209
100
AcDbSymbolTableRecord
100
AcDbLayerTableRecord
  2
BEZUGSEBENEN
 70
0
 62
7
  6
CONTINUOUS
370
-3
390
F
  0
LAYER
  5
20A
100
AcDbSymbolTableRecord
100
AcDbLayerTableRecord
  2
BEZUGSEBENEN-KES
 70
0
 62
7
  6
CONTINUOUS
370
-3
390
F
  0
LAYER
  5
20B
100
AcDbSymbolTableRecord
100
AcDbLayerTableRecord
  2
FLAECHEN
 70
0
 62
7
  6
CONTINUOUS
370
-3
390
F
  0
LAYER
  5
20C
100
AcDbSymbolTableRecord
100
AcDbLayerTableRecord
  2
KURVEN
 70
0
 62
7
  6
CONTINUOUS
370
-3
390
F
  0
LAYER
  5
20D
100
AcDbSymbolTableRecord
100
AcDbLayerTableRecord
  2
PARAMETER-BEMAßUNGEN
 70
0
 62
7
  6
CONTINUOUS
370
-3
390
F
  0
LAYER
  5
20E
100
AcDbSymbolTableRecord
100
AcDbLayerTableRecord
  2
RUNDUNGEN
 70
0
 62
7
  6
CONTINUOUS
370
-3
390
F
  0
LAYER
  5
20F
100
AcDbSymbolTableRecord
100
AcDbLayerTableRecord
  2
SAMMELFLÄCHEN
 70
0
 62
7
  6
CONTINUOUS
370
-3
390
F
  0
ENDTAB
  0
TABLE
  2
STYLE
  5
3
100
AcDbSymbolTable
 70
1
  0
STYLE
  5
11
100
AcDbSymbolTableRecord
100
AcDbTextStyleTableRecord
  2
STANDARD
 70
0
 40
0.0
 41
0.7
 50
0.0
 71
0
 42
0.2
  3
txt
  4

  0
STYLE
  5
210
100
AcDbSymbolTableRecord
100
AcDbTextStyleTableRecord
  2
TEXTSTYLE_1
 70
0
 40
0.0
 41
0.8
 50
0.0
 71
0
 42
0.2
  3
gdt
  4

  0
ENDTAB
  0
TABLE
  2
VIEW
  5
6
100
AcDbSymbolTable
 70
0
  0
ENDTAB
  0
TABLE
  2
UCS
  5
7
100
AcDbSymbolTable
 70
0
  0
ENDTAB
  0
TABLE
  2
APPID
  5
9
100
AcDbSymbolTable
 70
1
  0
APPID
  5
211
100
AcDbSymbolTableRecord
100
AcDbRegAppTableRecord
  2
ACAD
 70
0
  0
ENDTAB
  0
TABLE
  2
BLOCK_RECORD
  5
1
100
AcDbSymbolTable
 70
0
  0
BLOCK_RECORD
  5
212
100
AcDbSymbolTableRecord
100
AcDbBlockTableRecord
  2
*Model_Space
  0
BLOCK_RECORD
  5
213
100
AcDbSymbolTableRecord
100
AcDbBlockTableRecord
  2
*Paper_Space
  0
ENDTAB
  0
TABLE
  2
DIMSTYLE
  5
A
100
AcDbSymbolTable
 70
1
100
AcDbDimStyleTable
 71
0
  0
DIMSTYLE
105
214
100
AcDbSymbolTableRecord
100
AcDbDimStyleTableRecord
  2
STANDARD
 70
0
  3

  4

 40
1.0
 41
3.5
 42
0.0
 43
0.38
 44
1.5
 45
0.0
 46
0.0
 47
0.005
 48
0.005
140
3.5
141
0.09
142
0.0
143
25.4
144
1.0
145
0.0
146
1.0
147
0.625
 71
1.0
 72
0.0
 73
0
 74
0
 75
0
 76
0
 77
1
 78
8
170
0
171
2
172
0
173
0
174
0
175
0
176
0
177
0
178
5
270
2
271
3
272
3
273
2
274
2
275
0
280
0
281
0
282
0
283
1
284
8
285
0
286
0
287
3
288
0
340
11
278
46
  0
ENDTAB
  0
ENDSEC
  0
SECTION
  2
BLOCKS
  0
BLOCK
  5
20
100
AcDbEntity
  8
0
100
AcDbBlockBegin
  2
*Model_Space
 70
0
 10
0.0
 20
0.0
 30
0.0
  3
*Model_Space
  1

  0
ENDBLK
  5
21
100
AcDbEntity
  8
0
100
AcDbBlockEnd
  0
BLOCK
  5
1C
100
AcDbEntity
  8
0
100
AcDbBlockBegin
  2
*Paper_Space
 70
0
 10
0.0
 20
0.0
 30
0.0
  3
*Paper_Space
  1

  0
ENDBLK
  5
1D
100
AcDbEntity
  8
0
100
AcDbBlockEnd
  0
ENDSEC
  0
SECTION
  2
ENTITIES
  0
LINE
  5
215
100
AcDbEntity
  8
0
100
AcDbLine
 62
7
  6
CONTINUOUS
 10
0.0
 20
0.0
 11
0.0
 21
210.0
  0
LINE
  5
216
100
AcDbEntity
  8
0
100
AcDbLine
 62
7
  6
CONTINUOUS
 10
0.0
 20
0.0
 11
297.0
 21
0.0
  0
LINE
  5
217
100
AcDbEntity
  8
0
100
AcDbLine
 62
7
  6
CONTINUOUS
 10
0.0
 20
210.0
 11
297.0
 21
210.0
  0
LINE
  5
218
100
AcDbEntity
  8
0
100
AcDbLine
 62
7
  6
CONTINUOUS
 10
297.0
 20
0.0
 11
297.0
 21
210.0
  0
LINE
  5
219
100
AcDbEntity
  8
RUNDUNGEN
100
AcDbLine
 62
7
  6
CONTINUOUS
 10
54.75
 20
152.6406250228
 11
54.75
 21
165.6406250228
  0
LINE
  5
21A
100
AcDbEntity
  8
RUNDUNGEN
100
AcDbLine
 62
7
  6
CONTINUOUS
 10
55.7499998889
 20
151.8004926203
 11
55.7500004971
 21
166.4807149554
  0
LINE
  5
21B
100
AcDbEntity
  8
RUNDUNGEN
100
AcDbLine
 62
7
  6
CONTINUOUS
 10
67.8625635925
 20
159.3085397633
 11
67.8630712849
 21
159.1411257031
  0
LINE
  5
21C
100
AcDbEntity
  8
RUNDUNGEN
100
AcDbLine
 62
7
  6
CONTINUOUS
 10
68.0214115054
 20
164.8015420321
 11
68.0214222925
 21
153.4797359499
  0
LINE
  5
21D
100
AcDbEntity
  8
RUNDUNGEN
100
AcDbLine
 62
7
  6
CONTINUOUS
 10
67.8630712855
 20
159.1411257029
 11
67.8626580318
 21
158.9890874738
  0
LWPOLYLINE
  5
21E
100
AcDbEntity
  8
RUNDUNGEN
100
AcDbPolyline
 62
7
  6
CONTINUOUS
 90
11
 70
0
 10
67.8626580318
 20
158.9890874738
 10
67.8586111233
 20
158.6453719147
 10
67.8503655316
 20
158.3084451358
 10
67.83818003
 20
157.9803875114
 10
67.8222920385
 20
157.6630572695
 10
67.8029534097
 20
157.3582105313
 10
67.7805151975
 20
157.0673954794
 10
67.7553184999
 20
156.7921835289
 10
67.7277208143
 20
156.5338912339
 10
67.698190507
 20
156.293834708
 10
67.6671933617
 20
156.0731056492
  0
LINE
  5
21F
100
AcDbEntity
  8
RUNDUNGEN
100
AcDbLine
 62
7
  6
CONTINUOUS
 10
67.6671933617
 20
156.0731056492
 11
67.6473290495
 21
155.9456250228
  0
LINE
  5
220
100
AcDbEntity
  8
RUNDUNGEN
100
AcDbLine
 62
7
  6
CONTINUOUS
 10
67.6473279529
 20
162.3356250228
 11
67.6660829583
 21
162.2155362901
  0
LWPOLYLINE
  5
221
100
AcDbEntity
  8
RUNDUNGEN
100
AcDbPolyline
 62
7
  6
CONTINUOUS
 90
11
 70
0
 10
67.6660829583
 20
162.2155362901
 10
67.6970995341
 20
161.9956916161
 10
67.7266644564
 20
161.7565239098
 10
67.754317906
 20
161.4991230058
 10
67.7795889073
 20
161.224813476
 10
67.8021155138
 20
160.9349081294
 10
67.821563145
 20
160.6309696739
 10
67.8375802638
 20
160.3145474862
 10
67.8499111425
 20
159.9873974226
 10
67.8583253867
 20
159.6513696854
 10
67.8625635925
 20
159.3085397633
  0
LINE
  5
222
100
AcDbEntity
  8
RUNDUNGEN
100
AcDbLine
 62
7
  6
CONTINUOUS
 10
72.229431608
 20
162.5497159319
 11
72.2294326472
 21
160.1954137587
  0
LINE
  5
223
100
AcDbEntity
  8
RUNDUNGEN
100
AcDbLine
 62
7
  6
CONTINUOUS
 10
72.229432715
 20
158.0858291413
 11
72.229431608
 21
155.7315341137
  0
LINE
  5
224
100
AcDbEntity
  8
RUNDUNGEN
100
AcDbLine
 62
7
  6
CONTINUOUS
 10
72.256972262
 20
159.8435302571
 11
72.2569725842
 21
158.4377354517
  0
LINE
  5
225
100
AcDbEntity
  8
RUNDUNGEN
100
AcDbLine
 62
7
  6
CONTINUOUS
 10
72.429431608
 20
155.6406250228
 11
72.429431608
 21
162.6406250228
  0
LINE
  5
226
100
AcDbEntity
  8
RUNDUNGEN
100
AcDbLine
 62
7
  6
CONTINUOUS
 10
72.5661963139
 20
155.6406250228
 11
72.5661963139
 21
162.6406250228
  0
LINE
  5
227
100
AcDbEntity
  8
0
100
AcDbLine
 62
7
  6
CONTINUOUS
 10
103.75
 20
151.6406250228
 11
102.8975039373
 21
151.6406250228
  0
LINE
  5
228
100
AcDbEntity
  8
0
100
AcDbLine
 62
7
  6
CONTINUOUS
 10
55.75
 20
151.6406250228
 11
57.45
 21
151.6406250228
  0
LINE
  5
229
100
AcDbEntity
  8
0
100
AcDbLine
 62
7
  6
CONTINUOUS
 10
68.4429742566
 20
151.6406250228
 11
85.7243427628
 21
151.6406250228
  0
LINE
  5
22A
100
AcDbEntity
  8
RUNDUNGEN
100
AcDbLine
 62
7
  6
CONTINUOUS
 10
55.7500061358
 20
151.6406250228
 11
102.8975039373
 21
151.6406250228
  0
LINE
  5
22B
100
AcDbEntity
  8
RUNDUNGEN
100
AcDbLine
 62
7
  6
CONTINUOUS
 10
73.429431608
 20
163.7185471008
 11
73.429431608
 21
163.6406250228
  0
LINE
  5
22C
100
AcDbEntity
  8
RUNDUNGEN
100
AcDbLine
 62
7
  6
CONTINUOUS
 10
73.429431608
 20
154.5627029449
 11
73.429431608
 21
154.6406250228
  0
LINE
  5
22D
100
AcDbEntity
  8
RUNDUNGEN
100
AcDbLine
 62
7
  6
CONTINUOUS
 10
86.6902685891
 20
152.6406250228
 11
99.1092499401
 21
152.640624121
  0
LINE
  5
22E
100
AcDbEntity
  8
RUNDUNGEN
100
AcDbLine
 62
7
  6
CONTINUOUS
 10
62.1040449409
 20
152.6406230738
 11
67.4581665036
 21
152.6406250228
  0
LINE
  5
22F
100
AcDbEntity
  8
RUNDUNGEN
100
AcDbLine
 62
7
  6
CONTINUOUS
 10
73.429431608
 20
154.5627029449
 11
80.429431608
 21
154.5627029449
  0
LINE
  5
230
100
AcDbEntity
  8
RUNDUNGEN
100
AcDbLine
 62
7
  6
CONTINUOUS
 10
80.429431608
 20
154.6406250228
 11
73.429431608
 21
154.6406250228
  0
LINE
  5
231
100
AcDbEntity
  8
RUNDUNGEN
100
AcDbLine
 62
7
  6
CONTINUOUS
 10
80.4809021962
 20
154.8406250228
 11
73.3779610198
 21
154.8406250228
  0
LINE
  5
232
100
AcDbEntity
  8
RUNDUNGEN
100
AcDbLine
 62
7
  6
CONTINUOUS
 10
81.429431608
 20
155.6406250228
 11
81.2926669031
 21
155.6406250229
  0
LINE
  5
233
100
AcDbEntity
  8
RUNDUNGEN
100
AcDbLine
 62
7
  6
CONTINUOUS
 10
72.429431608
 20
155.6406250228
 11
72.5661963139
 21
155.6406250228
  0
LINE
  5
234
100
AcDbEntity
  8
RUNDUNGEN
100
AcDbLine
 62
7
  6
CONTINUOUS
 10
67.6997459916
 20
155.9456250228
 11
63.8833753324
 21
155.9456250228
  0
LINE
  5
235
100
AcDbEntity
  8
0
100
AcDbLine
 62
7
  6
CONTINUOUS
 10
87.5366716013
 20
155.9456250228
 11
92.1453977111
 21
155.9456250228
  0
LINE
  5
236
100
AcDbEntity
  8
RUNDUNGEN
100
AcDbLine
 62
7
  6
CONTINUOUS
 10
81.6018931874
 20
158.4378190862
 11
81.429431608
 21
158.4378221306
  0
LINE
  5
237
100
AcDbEntity
  8
RUNDUNGEN
100
AcDbLine
 62
7
  6
CONTINUOUS
 10
72.2569725842
 20
158.4378229923
 11
72.429431608
 21
158.4378237357
  0
LINE
  5
238
100
AcDbEntity
  8
RUNDUNGEN
100
AcDbLine
 62
7
  6
CONTINUOUS
 10
80.429431608
 20
163.7185471008
 11
80.429431608
 21
163.6406250228
  0
LINE
  5
239
100
AcDbEntity
  8
RUNDUNGEN
100
AcDbLine
 62
7
  6
CONTINUOUS
 10
80.429431608
 20
154.5627029449
 11
80.429431608
 21
154.6406250228
  0
LINE
  5
23A
100
AcDbEntity
  8
RUNDUNGEN
100
AcDbLine
 62
7
  6
CONTINUOUS
 10
81.2926669021
 20
162.6406250228
 11
81.2926669021
 21
155.6406250228
  0
LINE
  5
23B
100
AcDbEntity
  8
RUNDUNGEN
100
AcDbLine
 62
7
  6
CONTINUOUS
 10
81.429431608
 20
162.6406250228
 11
81.429431608
 21
155.6406250228
  0
LINE
  5
23C
100
AcDbEntity
  8
RUNDUNGEN
100
AcDbLine
 62
7
  6
CONTINUOUS
 10
81.6018931872
 20
158.4376463213
 11
81.6018946524
 21
159.8436460584
  0
LINE
  5
23D
100
AcDbEntity
  8
RUNDUNGEN
100
AcDbLine
 62
7
  6
CONTINUOUS
 10
81.629431608
 20
155.7315341137
 11
81.6294314065
 21
158.0857614521
  0
LINE
  5
23E
100
AcDbEntity
  8
RUNDUNGEN
100
AcDbLine
 62
7
  6
CONTINUOUS
 10
81.6294320674
 20
160.195540162
 11
81.629431608
 21
162.5497159319
  0
LINE
  5
23F
100
AcDbEntity
  8
RUNDUNGEN
100
AcDbLine
 62
7
  6
CONTINUOUS
 10
72.256972262
 20
159.8434273779
 11
72.429431608
 21
159.8434263079
  0
LINE
  5
240
100
AcDbEntity
  8
RUNDUNGEN
100
AcDbLine
 62
7
  6
CONTINUOUS
 10
81.6018946521
 20
159.8434335878
 11
81.429431608
 21
159.8434295138
  0
LINE
  5
241
100
AcDbEntity
  8
0
100
AcDbLine
 62
7
  6
CONTINUOUS
 10
92.1453977111
 20
162.3356250228
 11
87.5366716013
 21
162.3356250228
  0
LINE
  5
242
100
AcDbEntity
  8
RUNDUNGEN
100
AcDbLine
 62
7
  6
CONTINUOUS
 10
63.8833753324
 20
162.3356250228
 11
67.6997444978
 21
162.3356250228
  0
LINE
  5
243
100
AcDbEntity
  8
RUNDUNGEN
100
AcDbLine
 62
7
  6
CONTINUOUS
 10
81.429431608
 20
162.6406250228
 11
81.2926669021
 21
162.6406250228
  0
LINE
  5
244
100
AcDbEntity
  8
RUNDUNGEN
100
AcDbLine
 62
7
  6
CONTINUOUS
 10
72.429431608
 20
162.6406250228
 11
72.5661963129
 21
162.6406250228
  0
LINE
  5
245
100
AcDbEntity
  8
RUNDUNGEN
100
AcDbLine
 62
7
  6
CONTINUOUS
 10
73.3779610198
 20
163.4406250228
 11
80.4809021962
 21
163.4406250228
  0
LINE
  5
246
100
AcDbEntity
  8
RUNDUNGEN
100
AcDbLine
 62
7
  6
CONTINUOUS
 10
73.429431608
 20
163.6406250228
 11
80.4294316079
 21
163.6406250228
  0
LINE
  5
247
100
AcDbEntity
  8
RUNDUNGEN
100
AcDbLine
 62
7
  6
CONTINUOUS
 10
80.429431608
 20
163.7185471008
 11
73.429431608
 21
163.7185471008
  0
LINE
  5
248
100
AcDbEntity
  8
RUNDUNGEN
100
AcDbLine
 62
7
  6
CONTINUOUS
 10
85.7430317543
 20
164.5952253645
 11
85.7430313858
 21
153.6860254393
  0
LINE
  5
249
100
AcDbEntity
  8
RUNDUNGEN
100
AcDbLine
 62
7
  6
CONTINUOUS
 10
62.1040472031
 20
165.6406276063
 11
67.4581665036
 21
165.6406250228
  0
LINE
  5
24A
100
AcDbEntity
  8
RUNDUNGEN
100
AcDbLine
 62
7
  6
CONTINUOUS
 10
99.1092596816
 20
165.6406279238
 11
86.6902685891
 21
165.6406250228
  0
LINE
  5
24B
100
AcDbEntity
  8
0
100
AcDbLine
 62
7
  6
CONTINUOUS
 10
63.0888381325
 20
166.6406250228
 11
55.75
 21
166.6406250228
  0
LINE
  5
24C
100
AcDbEntity
  8
RUNDUNGEN
100
AcDbLine
 62
7
  6
CONTINUOUS
 10
55.7500087466
 20
166.6406250228
 11
102.8975031667
 21
166.6406250228
  0
LINE
  5
24D
100
AcDbEntity
  8
0
100
AcDbLine
 62
7
  6
CONTINUOUS
 10
68.4429742566
 20
166.6406250228
 11
85.7243427628
 21
166.6406250228
  0
LINE
  5
24E
100
AcDbEntity
  8
0
100
AcDbLine
 62
7
  6
CONTINUOUS
 10
100.8269515621
 20
166.6406250228
 11
103.75
 21
166.6406250228
  0
LINE
  5
24F
100
AcDbEntity
  8
RUNDUNGEN
100
AcDbLine
 62
7
  6
CONTINUOUS
 10
103.75
 20
166.6406250228
 11
103.75
 21
151.6406250228
  0
LINE
  5
250
100
AcDbEntity
  8
RUNDUNGEN
100
AcDbLine
 62
7
  6
CONTINUOUS
 10
104.75
 20
165.6406250228
 11
104.75
 21
152.6406250229
  0
LINE
  5
251
100
AcDbEntity
  8
RUNDUNGEN
100
AcDbLine
 62
7
  6
CONTINUOUS
 10
188.31875
 20
152.6406250228
 11
188.31875
 21
151.6406250228
  0
LINE
  5
252
100
AcDbEntity
  8
RUNDUNGEN
100
AcDbLine
 62
7
  6
CONTINUOUS
 10
188.31875
 20
165.6406250228
 11
188.3187500008
 21
166.6406250228
  0
LINE
  5
253
100
AcDbEntity
  8
RUNDUNGEN
100
AcDbLine
 62
7
  6
CONTINUOUS
 10
201.1598645984
 20
152.6406250228
 11
201.2300136256
 21
151.645662835
  0
LINE
  5
254
100
AcDbEntity
  8
RUNDUNGEN
100
AcDbLine
 62
7
  6
CONTINUOUS
 10
201.1598645984
 20
152.6406250228
 11
201.1598645984
 21
151.6406250229
  0
LINE
  5
255
100
AcDbEntity
  8
RUNDUNGEN
100
AcDbLine
 62
7
  6
CONTINUOUS
 10
201.1598743284
 20
165.6406250228
 11
201.1598743284
 21
166.6406250228
  0
LINE
  5
256
100
AcDbEntity
  8
RUNDUNGEN
100
AcDbLine
 62
7
  6
CONTINUOUS
 10
201.1598743284
 20
165.6406250228
 11
201.2300219606
 21
166.6356916791
  0
LINE
  5
257
100
AcDbEntity
  8
RUNDUNGEN
100
AcDbLine
 62
7
  6
CONTINUOUS
 10
202.1536973231
 20
165.5020646516
 11
202.3590774458
 21
166.480747049
  0
LINE
  5
258
100
AcDbEntity
  8
RUNDUNGEN
100
AcDbLine
 62
7
  6
CONTINUOUS
 10
202.1536862434
 20
152.7791838696
 11
202.359060807
 21
151.800499505
  0
LINE
  5
259
100
AcDbEntity
  8
RUNDUNGEN
100
AcDbLine
 62
7
  6
CONTINUOUS
 10
188.31875
 20
151.6406250228
 11
240.8184062887
 21
151.6406250228
  0
LINE
  5
25A
100
AcDbEntity
  8
RUNDUNGEN
100
AcDbLine
 62
7
  6
CONTINUOUS
 10
210.6276658995
 20
152.6406230738
 11
240.9923981777
 21
152.6406250228
  0
LINE
  5
25B
100
AcDbEntity
  8
RUNDUNGEN
100
AcDbLine
 62
7
  6
CONTINUOUS
 10
188.31875
 20
152.6406250228
 11
201.1598645984
 21
152.6406250228
  0
LINE
  5
25C
100
AcDbEntity
  8
RUNDUNGEN
100
AcDbLine
 62
7
  6
CONTINUOUS
 10
248.2441934397
 20
160.1955135116
 11
248.4422085104
 21
160.2236458798
  0
LINE
  5
25D
100
AcDbEntity
  8
RUNDUNGEN
100
AcDbLine
 62
7
  6
CONTINUOUS
 10
256.9187500003
 20
154.6406250228
 11
246.9179302728
 21
154.6406250228
  0
LINE
  5
25E
100
AcDbEntity
  8
RUNDUNGEN
100
AcDbLine
 62
7
  6
CONTINUOUS
 10
257.11875
 20
154.8406250228
 11
256.6539311634
 21
154.8406250228
  0
LINE
  5
25F
100
AcDbEntity
  8
RUNDUNGEN
100
AcDbLine
 62
7
  6
CONTINUOUS
 10
247.6772759057
 20
155.6405225056
 11
256.4108154508
 21
155.6406250228
  0
LINE
  5
260
100
AcDbEntity
  8
RUNDUNGEN
100
AcDbLine
 62
7
  6
CONTINUOUS
 10
242.3624635364
 20
155.9456250228
 11
220.71875
 21
155.9456250228
  0
LINE
  5
261
100
AcDbEntity
  8
RUNDUNGEN
100
AcDbLine
 62
7
  6
CONTINUOUS
 10
248.2711163573
 20
158.4378229923
 11
248.4692159064
 21
158.4378237357
  0
LINE
  5
262
100
AcDbEntity
  8
RUNDUNGEN
100
AcDbLine
 62
7
  6
CONTINUOUS
 10
248.2711163125
 20
159.8434273779
 11
248.4692157484
 21
159.8434263079
  0
LINE
  5
263
100
AcDbEntity
  8
RUNDUNGEN
100
AcDbLine
 62
7
  6
CONTINUOUS
 10
220.71875
 20
162.3356250228
 11
242.3624550643
 21
162.3356250228
  0
LINE
  5
264
100
AcDbEntity
  8
RUNDUNGEN
100
AcDbLine
 62
7
  6
CONTINUOUS
 10
247.6772760717
 20
162.640727165
 11
256.4108154505
 21
162.6406250228
  0
LINE
  5
265
100
AcDbEntity
  8
RUNDUNGEN
100
AcDbLine
 62
7
  6
CONTINUOUS
 10
256.6539311634
 20
163.4406250228
 11
257.11875
 21
163.4406250228
  0
LINE
  5
266
100
AcDbEntity
  8
RUNDUNGEN
100
AcDbLine
 62
7
  6
CONTINUOUS
 10
246.9179302728
 20
163.6406250228
 11
256.9187500003
 21
163.6406250228
  0
LINE
  5
267
100
AcDbEntity
  8
RUNDUNGEN
100
AcDbLine
 62
7
  6
CONTINUOUS
 10
248.2441933162
 20
158.0857356648
 11
248.442207873
 21
158.0576032452
  0
LINE
  5
268
100
AcDbEntity
  8
RUNDUNGEN
100
AcDbLine
 62
7
  6
CONTINUOUS
 10
201.1598843903
 20
165.6406250228
 11
188.31875
 21
165.6406250228
  0
LINE
  5
269
100
AcDbEntity
  8
RUNDUNGEN
100
AcDbLine
 62
7
  6
CONTINUOUS
 10
210.6276787289
 20
165.6406276063
 11
240.9923981777
 21
165.6406250228
  0
LINE
  5
26A
100
AcDbEntity
  8
RUNDUNGEN
100
AcDbLine
 62
7
  6
CONTINUOUS
 10
188.31875
 20
166.6406250228
 11
240.8184671085
 21
166.6406250228
  0
LINE
  5
26B
100
AcDbEntity
  8
RUNDUNGEN
100
AcDbLine
 62
7
  6
CONTINUOUS
 10
247.499176571
 20
162.5497159324
 11
247.6773212798
 21
162.6406250228
  0
LINE
  5
26C
100
AcDbEntity
  8
RUNDUNGEN
100
AcDbLine
 62
7
  6
CONTINUOUS
 10
247.4991765707
 20
155.7315341127
 11
247.6773212797
 21
155.6406250229
  0
LINE
  5
26D
100
AcDbEntity
  8
RUNDUNGEN
100
AcDbLine
 62
7
  6
CONTINUOUS
 10
244.1867193167
 20
164.8015420321
 11
244.1867804932
 21
153.4797359499
  0
LINE
  5
26E
100
AcDbEntity
  8
RUNDUNGEN
100
AcDbLine
 62
7
  6
CONTINUOUS
 10
248.2711163125
 20
159.8435302571
 11
248.2711163573
 21
158.4377354517
  0
LINE
  5
26F
100
AcDbEntity
  8
RUNDUNGEN
100
AcDbLine
 62
7
  6
CONTINUOUS
 10
248.4692157484
 20
159.8434263079
 11
248.4692159064
 21
158.4378237357
  0
LINE
  5
270
100
AcDbEntity
  8
RUNDUNGEN
100
AcDbLine
 62
7
  6
CONTINUOUS
 10
256.2210753718
 20
155.6406250226
 11
256.2210753718
 21
162.640625023
  0
LINE
  5
271
100
AcDbEntity
  8
RUNDUNGEN
100
AcDbLine
 62
7
  6
CONTINUOUS
 10
256.4108154508
 20
155.6406250228
 11
256.4108154508
 21
162.6406250228
  0
LINE
  5
272
100
AcDbEntity
  8
0
100
AcDbLine
 62
7
  6
CONTINUOUS
 10
257.11875
 20
163.4406250228
 11
257.11875
 21
154.8406250228
  0
LINE
  5
273
100
AcDbEntity
  8
RUNDUNGEN
100
AcDbLine
 62
7
  6
CONTINUOUS
 10
55.75
 20
96.5120006716
 11
55.6969627729
 21
96.4417789103
  0
LINE
  5
274
100
AcDbEntity
  8
RUNDUNGEN
100
AcDbLine
 62
7
  6
CONTINUOUS
 10
80.4295764329
 20
50.7539447272
 11
73.4292868784
 21
50.7539447272
  0
LINE
  5
275
100
AcDbEntity
  8
RUNDUNGEN
100
AcDbLine
 62
7
  6
CONTINUOUS
 10
80.429431608
 20
50.912364994
 11
73.429431608
 21
50.912364994
  0
LINE
  5
276
100
AcDbEntity
  8
RUNDUNGEN
100
AcDbLine
 62
7
  6
CONTINUOUS
 10
54.75
 20
90.353125
 11
54.75
 21
115.853125
  0
LINE
  5
277
100
AcDbEntity
  8
RUNDUNGEN
100
AcDbLine
 62
7
  6
CONTINUOUS
 10
55.75
 20
89.353125
 11
55.7500004971
 21
95.3126446263
  0
LINE
  5
278
100
AcDbEntity
  8
RUNDUNGEN
100
AcDbLine
 62
7
  6
CONTINUOUS
 10
55.7500087466
 20
96.5119839476
 11
55.75
 21
116.853125
  0
LINE
  5
279
100
AcDbEntity
  8
RUNDUNGEN
100
AcDbLine
 62
7
  6
CONTINUOUS
 10
68.4429243752
 20
56.8534078915
 11
85.7243910686
 21
56.8533052796
  0
LINE
  5
27A
100
AcDbEntity
  8
RUNDUNGEN
100
AcDbLine
 62
7
  6
CONTINUOUS
 10
68.4429742566
 20
56.853125
 11
67.4581665036
 21
56.6794768223
  0
LINE
  5
27B
100
AcDbEntity
  8
RUNDUNGEN
100
AcDbLine
 62
7
  6
CONTINUOUS
 10
86.6902685891
 20
56.5943059549
 11
85.7243427629
 21
56.8531250002
  0
LINE
  5
27C
100
AcDbEntity
  8
RUNDUNGEN
100
AcDbLine
 62
7
  6
CONTINUOUS
 10
62.1040472031
 20
87.0441962711
 11
68.0214115054
 21
53.4851556833
  0
LINE
  5
27D
100
AcDbEntity
  8
RUNDUNGEN
100
AcDbLine
 62
7
  6
CONTINUOUS
 10
63.0888381325
 20
87.2179373987
 11
68.4429243752
 21
56.8534078915
  0
LINE
  5
27E
100
AcDbEntity
  8
RUNDUNGEN
100
AcDbLine
 62
7
  6
CONTINUOUS
 10
80.429431608
 20
41.2112073317
 11
80.4809021961
 21
41.0179438366
  0
LINE
  5
27F
100
AcDbEntity
  8
RUNDUNGEN
100
AcDbLine
 62
7
  6
CONTINUOUS
 10
63.6131248174
 20
109.3528016226
 11
67.8523015067
 21
85.311235934
  0
LINE
  5
280
100
AcDbEntity
  8
RUNDUNGEN
100
AcDbLine
 62
7
  6
CONTINUOUS
 10
63.4517772406
 20
116.0266196842
 11
68.8371092597
 21
85.4848841117
  0
LINE
  5
281
100
AcDbEntity
  8
RUNDUNGEN
100
AcDbLine
 62
7
  6
CONTINUOUS
 10
72.229431608
 20
50.1726984288
 11
72.2294326472
 21
49.4276673897
  0
LINE
  5
282
100
AcDbEntity
  8
RUNDUNGEN
100
AcDbLine
 62
7
  6
CONTINUOUS
 10
72.429431608
 20
49.9945989283
 11
72.429431608
 21
41.4507996282
  0
LINE
  5
283
100
AcDbEntity
  8
RUNDUNGEN
100
AcDbLine
 62
7
  6
CONTINUOUS
 10
73.429431608
 20
50.912364994
 11
73.429431608
 21
41.2112073317
  0
LINE
  5
284
100
AcDbEntity
  8
RUNDUNGEN
100
AcDbLine
 62
7
  6
CONTINUOUS
 10
73.7611480248
 20
81.353125
 11
73.7611480248
 21
80.353125
  0
LINE
  5
285
100
AcDbEntity
  8
RUNDUNGEN
100
AcDbLine
 62
7
  6
CONTINUOUS
 10
80.4294316079
 20
41.2112073317
 11
80.429431608
 21
50.912364994
  0
LINE
  5
286
100
AcDbEntity
  8
RUNDUNGEN
100
AcDbLine
 62
7
  6
CONTINUOUS
 10
81.429431608
 20
41.4507996282
 11
81.429431608
 21
49.9945990943
  0
LINE
  5
287
100
AcDbEntity
  8
RUNDUNGEN
100
AcDbLine
 62
7
  6
CONTINUOUS
 10
81.6294320674
 20
49.4276853464
 11
81.629431608
 21
50.1726984288
  0
LINE
  5
288
100
AcDbEntity
  8
RUNDUNGEN
100
AcDbLine
 62
7
  6
CONTINUOUS
 10
73.7611480248
 20
80.353125
 11
84.3113583159
 21
80.353125
  0
LINE
  5
289
100
AcDbEntity
  8
RUNDUNGEN
100
AcDbLine
 62
7
  6
CONTINUOUS
 10
73.7611480248
 20
81.353125
 11
84.3113583159
 21
81.353125
  0
LINE
  5
28A
100
AcDbEntity
  8
RUNDUNGEN
100
AcDbLine
 62
7
  6
CONTINUOUS
 10
84.3113583159
 20
81.353125
 11
84.3113583157
 21
80.353125
  0
LINE
  5
28B
100
AcDbEntity
  8
RUNDUNGEN
100
AcDbLine
 62
7
  6
CONTINUOUS
 10
73.429431608
 20
41.2112073317
 11
73.3779610197
 21
41.0179438366
  0
LINE
  5
28C
100
AcDbEntity
  8
RUNDUNGEN
100
AcDbLine
 62
7
  6
CONTINUOUS
 10
89.1409874473
 20
85.0590297745
 11
97.4615881405
 21
116.1119343109
  0
LINE
  5
28D
100
AcDbEntity
  8
RUNDUNGEN
100
AcDbLine
 62
7
  6
CONTINUOUS
 10
90.1069132736
 20
84.8002107294
 11
96.685761216
 21
109.3528055058
  0
LINE
  5
28E
100
AcDbEntity
  8
RUNDUNGEN
100
AcDbLine
 62
7
  6
CONTINUOUS
 10
68.8371092597
 20
85.4848841117
 11
67.8523015067
 21
85.311235934
  0
LINE
  5
28F
100
AcDbEntity
  8
RUNDUNGEN
100
AcDbLine
 62
7
  6
CONTINUOUS
 10
89.1409874473
 20
85.0590297745
 11
90.1069132736
 21
84.8002107294
  0
LINE
  5
290
100
AcDbEntity
  8
RUNDUNGEN
100
AcDbLine
 62
7
  6
CONTINUOUS
 10
98.1433224674
 20
103.2013848114
 11
85.7243910686
 21
56.8533052796
  0
LINE
  5
291
100
AcDbEntity
  8
RUNDUNGEN
100
AcDbLine
 62
7
  6
CONTINUOUS
 10
99.1092596816
 20
102.9426116907
 11
85.7430317543
 21
53.0591699604
  0
LINE
  5
292
100
AcDbEntity
  8
RUNDUNGEN
100
AcDbLine
 62
7
  6
CONTINUOUS
 10
63.0888381325
 20
87.2179373987
 11
62.1040305267
 21
87.0442908474
  0
LINE
  5
293
100
AcDbEntity
  8
0
100
AcDbLine
 62
7
  6
CONTINUOUS
 10
57.5014124396
 20
89.353125
 11
55.75
 21
89.353125
  0
LINE
  5
294
100
AcDbEntity
  8
RUNDUNGEN
100
AcDbLine
 62
7
  6
CONTINUOUS
 10
54.75
 20
96.5120006716
 11
55.7500087465
 21
96.5120006716
  0
LINE
  5
295
100
AcDbEntity
  8
RUNDUNGEN
100
AcDbLine
 62
7
  6
CONTINUOUS
 10
103.75
 20
116.853125
 11
103.75
 21
101.853125
  0
LINE
  5
296
100
AcDbEntity
  8
RUNDUNGEN
100
AcDbLine
 62
7
  6
CONTINUOUS
 10
103.75
 20
101.853125
 11
100.3519865786
 21
101.853125
  0
LINE
  5
297
100
AcDbEntity
  8
RUNDUNGEN
100
AcDbLine
 62
7
  6
CONTINUOUS
 10
104.75
 20
115.853125
 11
104.75
 21
102.853125
  0
LINE
  5
298
100
AcDbEntity
  8
RUNDUNGEN
100
AcDbLine
 62
7
  6
CONTINUOUS
 10
102.8975031667
 20
109.353125
 11
96.685761216
 21
109.3528055058
  0
LINE
  5
299
100
AcDbEntity
  8
RUNDUNGEN
100
AcDbLine
 62
7
  6
CONTINUOUS
 10
54.75
 20
109.353125
 11
63.6131248174
 21
109.3528016226
  0
LINE
  5
29A
100
AcDbEntity
  8
RUNDUNGEN
100
AcDbLine
 62
7
  6
CONTINUOUS
 10
99.1092481624
 20
102.9425687006
 11
98.1433224674
 21
103.2013848114
  0
LINE
  5
29B
100
AcDbEntity
  8
RUNDUNGEN
100
AcDbLine
 62
7
  6
CONTINUOUS
 10
64.5978755502
 20
109.5267731777
 11
63.6130677972
 21
109.353125
  0
LINE
  5
29C
100
AcDbEntity
  8
RUNDUNGEN
100
AcDbLine
 62
7
  6
CONTINUOUS
 10
95.7199209979
 20
109.6119440451
 11
96.685846824
 21
109.3531249993
  0
LINE
  5
29D
100
AcDbEntity
  8
RUNDUNGEN
100
AcDbLine
 62
7
  6
CONTINUOUS
 10
103.75
 20
116.853125
 11
102.8365704891
 21
116.853125
  0
LINE
  5
29E
100
AcDbEntity
  8
0
100
AcDbLine
 62
7
  6
CONTINUOUS
 10
62.4717635543
 20
116.853125
 11
55.75
 21
116.853125
  0
LINE
  5
29F
100
AcDbEntity
  8
0
100
AcDbLine
 62
7
  6
CONTINUOUS
 10
98.4208128436
 20
116.853125
 11
103.75
 21
116.853125
  0
ARC
  5
2A0
100
AcDbEntity
  8
RUNDUNGEN
100
AcDbCircle
 62
7
  6
CONTINUOUS
 10
73.4294531768
 20
155.7864992937
 40
1.223796349
100
AcDbArc
 50
263.6700935302
 51
269.9989901918
  0
ARC
  5
2A1
100
AcDbEntity
  8
RUNDUNGEN
100
AcDbCircle
 62
7
  6
CONTINUOUS
 10
80.4294100392
 20
162.494750752
 40
1.223796349
100
AcDbArc
 50
83.6700935302
 51
89.9989901918
  0
ARC
  5
2A2
100
AcDbEntity
  8
RUNDUNGEN
100
AcDbCircle
 62
7
  6
CONTINUOUS
 10
80.4294035706
 20
155.7864967273
 40
1.2237937827
100
AcDbArc
 50
270.0013126608
 51
276.356555098
  0
ARC
  5
2A3
100
AcDbEntity
  8
RUNDUNGEN
100
AcDbCircle
 62
7
  6
CONTINUOUS
 10
73.4294596454
 20
162.4947533184
 40
1.2237937827
100
AcDbArc
 50
90.0013126608
 51
96.356555098
  0
ARC
  5
2A4
100
AcDbEntity
  8
RUNDUNGEN
100
AcDbCircle
 62
7
  6
CONTINUOUS
 10
103.75
 20
165.6406250228
 40
1.0
100
AcDbArc
 50
0.0
 51
90.0
  0
ARC
  5
2A5
100
AcDbEntity
  8
RUNDUNGEN
100
AcDbCircle
 62
7
  6
CONTINUOUS
 10
103.75
 20
152.6406250228
 40
1.0
100
AcDbArc
 50
270.0
 51
360.0
  0
ARC
  5
2A6
100
AcDbEntity
  8
RUNDUNGEN
100
AcDbCircle
 62
7
  6
CONTINUOUS
 10
73.429431608
 20
155.6406250228
 40
1.0
100
AcDbArc
 50
180.0058738204
 51
269.9917021597
  0
ARC
  5
2A7
100
AcDbEntity
  8
RUNDUNGEN
100
AcDbCircle
 62
7
  6
CONTINUOUS
 10
80.429431608
 20
155.6406250228
 40
1.0
100
AcDbArc
 50
270.0082923795
 51
359.9941476696
  0
ARC
  5
2A8
100
AcDbEntity
  8
RUNDUNGEN
100
AcDbCircle
 62
7
  6
CONTINUOUS
 10
73.429431608
 20
162.6406250228
 40
1.0
100
AcDbArc
 50
90.0082923795
 51
179.9941476696
  0
ARC
  5
2A9
100
AcDbEntity
  8
RUNDUNGEN
100
AcDbCircle
 62
7
  6
CONTINUOUS
 10
80.429431608
 20
162.6406250228
 40
1.0
100
AcDbArc
 50
0.0058738204
 51
89.9917021597
  0
ARC
  5
2AA
100
AcDbEntity
  8
RUNDUNGEN
100
AcDbCircle
 62
7
  6
CONTINUOUS
 10
55.7485270485
 20
165.639394391
 40
0.9986040438
100
AcDbArc
 50
89.9994988597
 51
179.9293860157
  0
ARC
  5
2AB
100
AcDbEntity
  8
RUNDUNGEN
100
AcDbCircle
 62
7
  6
CONTINUOUS
 10
55.7485252593
 20
152.6418544305
 40
0.9986021724
100
AcDbArc
 50
180.07054387
 51
270.0
  0
ARC
  5
2AC
100
AcDbEntity
  8
RUNDUNGEN
100
AcDbCircle
 62
7
  6
CONTINUOUS
 10
55.7093264261
 20
152.7796483601
 40
0.959326539
100
AcDbArc
 50
180.0277942124
 51
189.2107427942
  0
ARC
  5
2AD
100
AcDbEntity
  8
RUNDUNGEN
100
AcDbCircle
 62
7
  6
CONTINUOUS
 10
55.7093238141
 20
165.5015994011
 40
0.9593239269
100
AcDbArc
 50
170.7892202562
 51
179.9722061191
  0
ARC
  5
2AE
100
AcDbEntity
  8
RUNDUNGEN
100
AcDbCircle
 62
7
  6
CONTINUOUS
 10
55.7501388691
 20
152.0069163681
 40
0.3662913715
100
AcDbArc
 50
261.6528738355
 51
269.9782779178
  0
ARC
  5
2AF
100
AcDbEntity
  8
RUNDUNGEN
100
AcDbCircle
 62
7
  6
CONTINUOUS
 10
55.7501269907
 20
166.2744136103
 40
0.3662114346
100
AcDbArc
 50
90.0198683927
 51
98.3473298183
  0
ARC
  5
2B0
100
AcDbEntity
  8
RUNDUNGEN
100
AcDbCircle
 62
7
  6
CONTINUOUS
 10
199.948872186
 20
159.1409531506
 40
12.5016369442
100
AcDbArc
 50
328.6705446264
 51
31.3293567904
  0
ARC
  5
2B1
100
AcDbEntity
  8
RUNDUNGEN
100
AcDbCircle
 62
7
  6
CONTINUOUS
 10
200.6723461348
 20
158.4370183985
 40
8.2186756152
100
AcDbArc
 50
78.1556423986
 51
86.1085791442
  0
ARC
  5
2B2
100
AcDbEntity
  8
RUNDUNGEN
100
AcDbCircle
 62
7
  6
CONTINUOUS
 10
200.6724481888
 20
159.8433513676
 40
8.2177915989
100
AcDbArc
 50
273.891174245
 51
281.8432172837
  0
ARC
  5
2B3
100
AcDbEntity
  8
RUNDUNGEN
100
AcDbCircle
 62
7
  6
CONTINUOUS
 10
200.81875
 20
159.1406250228
 40
7.5
100
AcDbArc
 50
281.851182757
 51
78.1472375354
  0
ARC
  5
2B4
100
AcDbEntity
  8
0
100
AcDbCircle
 62
7
  6
CONTINUOUS
 10
188.31875
 20
159.1406250228
 40
7.5
100
AcDbArc
 50
248.585771761
 51
252.4510591157
  0
ARC
  5
2B5
100
AcDbEntity
  8
0
100
AcDbCircle
 62
7
  6
CONTINUOUS
 10
188.31875
 20
159.1406250228
 40
7.5
100
AcDbArc
 50
259.6051648575
 51
263.1690191352
  0
ARC
  5
2B6
100
AcDbEntity
  8
RUNDUNGEN
100
AcDbCircle
 62
7
  6
CONTINUOUS
 10
188.31875
 20
159.1406250228
 40
7.5
100
AcDbArc
 50
90.0
 51
270.0
  0
ARC
  5
2B7
100
AcDbEntity
  8
RUNDUNGEN
100
AcDbCircle
 62
7
  6
CONTINUOUS
 10
200.6419252401
 20
158.2923041847
 40
7.3665528452
100
AcDbArc
 50
78.157557626
 51
85.9680760742
  0
ARC
  5
2B8
100
AcDbEntity
  8
RUNDUNGEN
100
AcDbCircle
 62
7
  6
CONTINUOUS
 10
200.6420564687
 20
159.988037035
 40
7.3656356505
100
AcDbArc
 50
274.0312491532
 51
281.8428073401
  0
ARC
  5
2B9
100
AcDbEntity
  8
RUNDUNGEN
100
AcDbCircle
 62
7
  6
CONTINUOUS
 10
188.31875
 20
159.1406250228
 40
6.5
100
AcDbArc
 50
90.0
 51
270.0
  0
ARC
  5
2BA
100
AcDbEntity
  8
RUNDUNGEN
100
AcDbCircle
 62
7
  6
CONTINUOUS
 10
200.81875
 20
159.1406250228
 40
6.5
100
AcDbArc
 50
281.8514424116
 51
78.1484592463
  0
CIRCLE
  5
2BB
100
AcDbEntity
  8
RUNDUNGEN
100
AcDbCircle
 62
7
  6
CONTINUOUS
 10
200.81875
 20
159.1406250228
 40
6.0
  0
CIRCLE
  5
2BC
100
AcDbEntity
  8
RUNDUNGEN
100
AcDbCircle
 62
7
  6
CONTINUOUS
 10
200.81875
 20
159.1406250228
 40
5.0
  0
ARC
  5
2BD
100
AcDbEntity
  8
0
100
AcDbCircle
 62
7
  6
CONTINUOUS
 10
220.71875
 20
159.1406250228
 40
3.195
100
AcDbArc
 50
90.0
 51
270.0
  0
CIRCLE
  5
2BE
100
AcDbEntity
  8
0
100
AcDbCircle
 62
7
  6
CONTINUOUS
 10
188.31875
 20
159.1406250228
 40
3.19
  0
ARC
  5
2BF
100
AcDbEntity
  8
RUNDUNGEN
100
AcDbCircle
 62
7
  6
CONTINUOUS
 10
201.1598093135
 20
152.2791725436
 40
0.6385475231
100
AcDbArc
 50
270.0049606178
 51
276.3195827549
  0
ARC
  5
2C0
100
AcDbEntity
  8
RUNDUNGEN
100
AcDbCircle
 62
7
  6
CONTINUOUS
 10
200.7903514341
 20
174.6740393634
 40
23.03373399
100
AcDbArc
 50
271.0939805217
 51
273.9235019749
  0
ARC
  5
2C1
100
AcDbEntity
  8
RUNDUNGEN
100
AcDbCircle
 62
7
  6
CONTINUOUS
 10
201.1598100955
 20
166.0019979264
 40
0.6386270997
100
AcDbArc
 50
83.681343419
 51
89.9942372126
  0
ARC
  5
2C2
100
AcDbEntity
  8
RUNDUNGEN
100
AcDbCircle
 62
7
  6
CONTINUOUS
 10
242.61352404
 20
158.7407779342
 40
5.9374203248
100
AcDbArc
 50
328.3378923531
 51
328.5230645876
  0
ARC
  5
2C3
100
AcDbEntity
  8
RUNDUNGEN
100
AcDbCircle
 62
7
  6
CONTINUOUS
 10
245.5587434092
 20
158.4681840504
 40
2.712552354
100
AcDbArc
 50
351.8970141467
 51
359.3566540576
  0
ARC
  5
2C4
100
AcDbEntity
  8
RUNDUNGEN
100
AcDbCircle
 62
7
  6
CONTINUOUS
 10
245.7642930501
 20
158.4388918504
 40
2.7049230671
100
AcDbArc
 50
351.8965422027
 51
359.9773751557
  0
ARC
  5
2C5
100
AcDbEntity
  8
RUNDUNGEN
100
AcDbCircle
 62
7
  6
CONTINUOUS
 10
246.9179792886
 20
154.4406774048
 40
0.1999912697
100
AcDbArc
 50
90.0140456652
 51
142.3823203336
  0
ARC
  5
2C6
100
AcDbEntity
  8
RUNDUNGEN
100
AcDbCircle
 62
7
  6
CONTINUOUS
 10
240.81875
 20
159.1406250228
 40
7.7
100
AcDbArc
 50
8.0855761621
 51
27.0365216815
  0
ARC
  5
2C7
100
AcDbEntity
  8
RUNDUNGEN
100
AcDbCircle
 62
7
  6
CONTINUOUS
 10
240.81875
 20
159.1406250228
 40
7.7
100
AcDbArc
 50
332.963475271
 51
351.9144163885
  0
ARC
  5
2C8
100
AcDbEntity
  8
RUNDUNGEN
100
AcDbCircle
 62
7
  6
CONTINUOUS
 10
240.81875
 20
159.1406250228
 40
7.5
100
AcDbArc
 50
269.9973742396
 51
351.9151498082
  0
ARC
  5
2C9
100
AcDbEntity
  8
RUNDUNGEN
100
AcDbCircle
 62
7
  6
CONTINUOUS
 10
240.81875
 20
159.1406250228
 40
7.5
100
AcDbArc
 50
8.0847950551
 51
90.001377235
  0
ARC
  5
2CA
100
AcDbEntity
  8
RUNDUNGEN
100
AcDbCircle
 62
7
  6
CONTINUOUS
 10
240.9926652718
 20
159.1394553756
 40
6.4988303582
100
AcDbArc
 50
269.9976452119
 51
299.4386135941
  0
ARC
  5
2CB
100
AcDbEntity
  8
RUNDUNGEN
100
AcDbCircle
 62
7
  6
CONTINUOUS
 10
240.9926639659
 20
159.1418341408
 40
6.4987908874
100
AcDbArc
 50
60.5617961139
 51
90.0023432891
  0
ARC
  5
2CC
100
AcDbEntity
  8
RUNDUNGEN
100
AcDbCircle
 62
7
  6
CONTINUOUS
 10
238.2652527567
 20
159.1404412097
 40
5.1957931396
100
AcDbArc
 50
322.0517352853
 51
37.9487183073
  0
ARC
  5
2CD
100
AcDbEntity
  8
RUNDUNGEN
100
AcDbCircle
 62
7
  6
CONTINUOUS
 10
237.91875
 20
159.1406250228
 40
3.195
100
AcDbArc
 50
269.9971116187
 51
90.0033829179
  0
ARC
  5
2CE
100
AcDbEntity
  8
RUNDUNGEN
100
AcDbCircle
 62
7
  6
CONTINUOUS
 10
242.9925708194
 20
159.1587672991
 40
5.3276539461
100
AcDbArc
 50
346.9987596242
 51
348.4569030233
  0
ARC
  5
2CF
100
AcDbEntity
  8
RUNDUNGEN
100
AcDbCircle
 62
7
  6
CONTINUOUS
 10
242.9926909031
 20
159.122492132
 40
5.3275372335
100
AcDbArc
 50
11.5431167363
 51
13.0309818314
  0
ARC
  5
2D0
100
AcDbEntity
  8
RUNDUNGEN
100
AcDbCircle
 62
7
  6
CONTINUOUS
 10
243.0404920133
 20
159.1492218879
 40
5.2787919051
100
AcDbArc
 50
348.4543315205
 51
352.2539824538
  0
ARC
  5
2D1
100
AcDbEntity
  8
RUNDUNGEN
100
AcDbCircle
 62
7
  6
CONTINUOUS
 10
243.0412339603
 20
159.132165781
 40
5.2780402458
100
AcDbArc
 50
7.7457913168
 51
11.5456756974
  0
ARC
  5
2D2
100
AcDbEntity
  8
RUNDUNGEN
100
AcDbCircle
 62
7
  6
CONTINUOUS
 10
242.6140401887
 20
159.5407869669
 40
5.9368157262
100
AcDbArc
 50
31.4769406621
 51
31.6623398154
  0
ARC
  5
2D3
100
AcDbEntity
  8
RUNDUNGEN
100
AcDbCircle
 62
7
  6
CONTINUOUS
 10
245.5590084768
 20
159.8130970132
 40
2.7122865611
100
AcDbArc
 50
0.6431208204
 51
8.1029590167
  0
ARC
  5
2D4
100
AcDbEntity
  8
RUNDUNGEN
100
AcDbCircle
 62
7
  6
CONTINUOUS
 10
245.7645398819
 20
159.8423804177
 40
2.7046760686
100
AcDbArc
 50
0.0221561074
 51
8.1037075954
  0
ARC
  5
2D5
100
AcDbEntity
  8
RUNDUNGEN
100
AcDbCircle
 62
7
  6
CONTINUOUS
 10
256.91875
 20
154.8406250228
 40
0.2
100
AcDbArc
 50
270.0
 51
360.0
  0
ARC
  5
2D6
100
AcDbEntity
  8
RUNDUNGEN
100
AcDbCircle
 62
7
  6
CONTINUOUS
 10
256.91875
 20
163.4406250228
 40
0.2
100
AcDbArc
 50
0.0
 51
90.0
  0
ARC
  5
2D7
100
AcDbEntity
  8
RUNDUNGEN
100
AcDbCircle
 62
7
  6
CONTINUOUS
 10
246.9179792886
 20
163.8405726408
 40
0.1999912697
100
AcDbArc
 50
217.5972227439
 51
269.9859543349
  0
ARC
  5
2D8
100
AcDbEntity
  8
RUNDUNGEN
100
AcDbCircle
 62
7
  6
CONTINUOUS
 10
76.1699617327
 20
61.2008620601
 40
20.4384289949
100
AcDbArc
 50
282.0288948956
 51
284.0825744745
  0
ARC
  5
2D9
100
AcDbEntity
  8
RUNDUNGEN
100
AcDbCircle
 62
7
  6
CONTINUOUS
 10
77.6643113707
 20
61.0948245551
 40
20.3295951876
100
AcDbArc
 50
255.9120102435
 51
257.9766049235
  0
ARC
  5
2DA
100
AcDbEntity
  8
RUNDUNGEN
100
AcDbCircle
 62
7
  6
CONTINUOUS
 10
76.929431608
 20
54.353125
 40
13.8
100
AcDbArc
 50
251.5681491394
 51
288.4318508606
  0
ARC
  5
2DB
100
AcDbEntity
  8
RUNDUNGEN
100
AcDbCircle
 62
7
  6
CONTINUOUS
 10
76.929431608
 20
54.353125
 40
13.6
100
AcDbArc
 50
255.0869471782
 51
284.9130528218
  0
ARC
  5
2DC
100
AcDbEntity
  8
RUNDUNGEN
100
AcDbCircle
 62
7
  6
CONTINUOUS
 10
72.9454981559
 20
54.353125
 40
5.0
100
AcDbArc
 50
189.9968400099
 51
262.084923487
  0
ARC
  5
2DD
100
AcDbEntity
  8
RUNDUNGEN
100
AcDbCircle
 62
7
  6
CONTINUOUS
 10
72.629431608
 20
41.4507996282
 40
0.2
100
AcDbArc
 50
180.0
 51
251.5681491394
  0
ARC
  5
2DE
100
AcDbEntity
  8
RUNDUNGEN
100
AcDbCircle
 62
7
  6
CONTINUOUS
 10
72.229431608
 20
49.2026639819
 40
0.2
100
AcDbArc
 50
7.69887461
 51
82.0850338947
  0
ARC
  5
2DF
100
AcDbEntity
  8
RUNDUNGEN
100
AcDbCircle
 62
7
  6
CONTINUOUS
 10
73.7611480248
 20
86.353125
 40
6.0
100
AcDbArc
 50
190.0
 51
270.0
  0
ARC
  5
2E0
100
AcDbEntity
  8
RUNDUNGEN
100
AcDbCircle
 62
7
  6
CONTINUOUS
 10
73.7611480248
 20
86.353125
 40
5.0
100
AcDbArc
 50
190.0
 51
270.0
  0
ARC
  5
2E1
100
AcDbEntity
  8
RUNDUNGEN
100
AcDbCircle
 62
7
  6
CONTINUOUS
 10
57.5014226105
 20
84.35312503
 40
4.9999999963
100
AcDbArc
 50
9.9999999492
 51
89.9999999912
  0
ARC
  5
2E2
100
AcDbEntity
  8
RUNDUNGEN
100
AcDbCircle
 62
7
  6
CONTINUOUS
 10
55.75
 20
115.853125
 40
1.0
100
AcDbArc
 50
90.0
 51
180.0
  0
ARC
  5
2E3
100
AcDbEntity
  8
RUNDUNGEN
100
AcDbCircle
 62
7
  6
CONTINUOUS
 10
55.75
 20
90.353125
 40
1.0
100
AcDbArc
 50
180.0
 51
270.0
  0
ARC
  5
2E4
100
AcDbEntity
  8
RUNDUNGEN
100
AcDbCircle
 62
7
  6
CONTINUOUS
 10
62.4669464565
 20
115.8531021226
 40
1.0
100
AcDbArc
 50
10.0
 51
89.9999095413
  0
ARC
  5
2E5
100
AcDbEntity
  8
RUNDUNGEN
100
AcDbCircle
 62
7
  6
CONTINUOUS
 10
80.9133650601
 20
54.353125
 40
5.0
100
AcDbArc
 50
277.9151193008
 51
345.0016630803
  0
ARC
  5
2E6
100
AcDbEntity
  8
RUNDUNGEN
100
AcDbCircle
 62
7
  6
CONTINUOUS
 10
81.229431608
 20
41.4507996282
 40
0.2
100
AcDbArc
 50
288.4318508606
 51
360.0
  0
ARC
  5
2E7
100
AcDbEntity
  8
RUNDUNGEN
100
AcDbCircle
 62
7
  6
CONTINUOUS
 10
81.629431608
 20
49.2026639819
 40
0.2
100
AcDbArc
 50
97.9143201322
 51
172.3023724142
  0
ARC
  5
2E8
100
AcDbEntity
  8
RUNDUNGEN
100
AcDbCircle
 62
7
  6
CONTINUOUS
 10
84.3113583159
 20
86.353125
 40
6.0
100
AcDbArc
 50
270.0
 51
345.0
  0
ARC
  5
2E9
100
AcDbEntity
  8
RUNDUNGEN
100
AcDbCircle
 62
7
  6
CONTINUOUS
 10
84.3113583159
 20
86.353125
 40
5.0
100
AcDbArc
 50
269.9999999853
 51
345.0000000169
  0
ARC
  5
2EA
100
AcDbEntity
  8
RUNDUNGEN
100
AcDbCircle
 62
7
  6
CONTINUOUS
 10
100.3519910891
 20
99.8531418333
 40
1.9999964561
100
AcDbArc
 50
90.0001292165
 51
165.0004992499
  0
ARC
  5
2EB
100
AcDbEntity
  8
RUNDUNGEN
100
AcDbCircle
 62
7
  6
CONTINUOUS
 10
103.75
 20
102.853125
 40
1.0
100
AcDbArc
 50
270.0
 51
360.0
  0
ARC
  5
2EC
100
AcDbEntity
  8
RUNDUNGEN
100
AcDbCircle
 62
7
  6
CONTINUOUS
 10
103.75
 20
115.853125
 40
1.0
100
AcDbArc
 50
0.0
 51
90.0
  0
ARC
  5
2ED
100
AcDbEntity
  8
RUNDUNGEN
100
AcDbCircle
 62
7
  6
CONTINUOUS
 10
98.4275128435
 20
115.8531110737
 40
1.0
100
AcDbArc
 50
90.0001031529
 51
164.9999999974
  0
SPLINE
  5
2EE
100
AcDbEntity
  8
RUNDUNGEN
100
AcDbSpline
 62
7
  6
CONTINUOUS
 70
0
 71
3
 72
9
 73
5
 74
0
 42
0.0000001
 43
0.0000001
 44
0.0000000001
 40
0.0
 40
0.0
 40
0.0
 40
0.0
 40
0.4807937849
 40
1.0
 40
1.0
 40
1.0
 40
1.0
 10
62.1040449409
 20
152.6406230738
 30
0.0
 10
62.2153834244
 20
153.6778977062
 30
0.0
 10
62.3744836109
 20
155.8432357685
 30
0.0
 10
62.4254519215
 20
158.0133219616
 30
0.0
 10
62.4254613763
 20
159.1399026947
 30
0.0
  0
SPLINE
  5
2EF
100
AcDbEntity
  8
RUNDUNGEN
100
AcDbSpline
 62
7
  6
CONTINUOUS
 70
0
 71
3
 72
9
 73
5
 74
0
 42
0.0000001
 43
0.0000001
 44
0.0000000001
 40
0.0
 40
0.0
 40
0.0
 40
0.0
 40
0.519226392
 40
1.0
 40
1.0
 40
1.0
 40
1.0
 10
62.4254613763
 20
159.1399026947
 30
0.0
 10
62.4254563983
 20
160.2667772452
 30
0.0
 10
62.3745353191
 20
162.4373462561
 30
0.0
 10
62.2154037585
 20
164.6031660956
 30
0.0
 10
62.1040472031
 20
165.6406276063
 30
0.0
  0
SPLINE
  5
2F0
100
AcDbEntity
  8
RUNDUNGEN
100
AcDbSpline
 62
7
  6
CONTINUOUS
 70
0
 71
3
 72
10
 73
6
 74
0
 42
0.0000001
 43
0.0000001
 44
0.0000000001
 40
0.0
 40
0.0
 40
0.0
 40
0.0
 40
0.5284316167
 40
0.7746339897
 40
1.0
 40
1.0
 40
1.0
 40
1.0
 10
67.8934556934
 20
159.1411621606
 30
0.0
 10
67.8934657911
 20
158.5769030709
 30
0.0
 10
67.8705062121
 20
157.7493811625
 30
0.0
 10
67.7892538155
 20
156.6845416596
 30
0.0
 10
67.7325284462
 20
156.1840273824
 30
0.0
 10
67.6997459916
 20
155.9456250228
 30
0.0
  0
SPLINE
  5
2F1
100
AcDbEntity
  8
RUNDUNGEN
100
AcDbSpline
 62
7
  6
CONTINUOUS
 70
0
 71
3
 72
10
 73
6
 74
0
 42
0.0000001
 43
0.0000001
 44
0.0000000001
 40
0.0
 40
0.0
 40
0.0
 40
0.0
 40
0.2253655816
 40
0.4715644998
 40
1.0
 40
1.0
 40
1.0
 40
1.0
 10
67.6997444978
 20
162.3356250228
 30
0.0
 10
67.7325162662
 20
162.0973030804
 30
0.0
 10
67.7892278144
 20
161.5969614373
 30
0.0
 10
67.8704702542
 20
160.5324802119
 30
0.0
 10
67.8934454163
 20
159.7052362534
 30
0.0
 10
67.8934556934
 20
159.1411621606
 30
0.0
  0
LINE
  5
2F2
100
AcDbEntity
  8
RUNDUNGEN
100
AcDbLine
 62
7
  6
CONTINUOUS
 10
55.6969728593
 20
166.6367454615
 11
55.7498970151
 21
166.6356503824
  0
SPLINE
  5
2F3
100
AcDbEntity
  8
RUNDUNGEN
100
AcDbSpline
 62
7
  6
CONTINUOUS
 70
0
 71
3
 72
17
 73
13
 74
0
 42
0.0000001
 43
0.0000001
 44
0.0000000001
 40
0.0
 40
0.0
 40
0.0
 40
0.0
 40
0.1548715056
 40
0.3078644194
 40
0.457052906
 40
0.5995714745
 40
0.731326532
 40
0.8467868143
 40
0.8962769486
 40
0.9389796098
 40
0.973878287
 40
1.0
 40
1.0
 40
1.0
 40
1.0
 10
55.7498970151
 20
166.6356503824
 30
0.0
 10
56.0828528669
 20
166.6283339808
 30
0.0
 10
56.7444718857
 20
166.5977460304
 30
0.0
 10
57.7235097851
 20
166.5082508144
 30
0.0
 10
58.6719718144
 20
166.3846812266
 30
0.0
 10
59.5710032153
 20
166.2391520456
 30
0.0
 10
60.3947525135
 20
166.0844799429
 30
0.0
 10
61.019029621
 20
165.9521580108
 30
0.0
 10
61.453254853
 20
165.847980747
 30
0.0
 10
61.7174574198
 20
165.7777341836
 30
0.0
 10
61.9305705514
 20
165.7120150614
 30
0.0
 10
62.0535666236
 20
165.6652547751
 30
0.0
 10
62.1040474933
 20
165.6406173961
 30
0.0
  0
SPLINE
  5
2F4
100
AcDbEntity
  8
RUNDUNGEN
100
AcDbSpline
 62
7
  6
CONTINUOUS
 70
0
 71
3
 72
9
 73
5
 74
0
 42
0.0000001
 43
0.0000001
 44
0.0000000001
 40
0.0
 40
0.0
 40
0.0
 40
0.0
 40
0.5831901314
 40
1.0
 40
1.0
 40
1.0
 40
1.0
 10
55.7500093053
 20
166.4807083618
 30
0.0
 10
55.7438771929
 20
166.5080662663
 30
0.0
 10
55.7322172917
 20
166.5546901609
 30
0.0
 10
55.7163628934
 20
166.6003328263
 30
0.0
 10
55.7075378164
 20
166.6183228434
 30
0.0
  0
SPLINE
  5
2F5
100
AcDbEntity
  8
RUNDUNGEN
100
AcDbSpline
 62
7
  6
CONTINUOUS
 70
0
 71
3
 72
9
 73
5
 74
0
 42
0.0000001
 43
0.0000001
 44
0.0000000001
 40
0.0
 40
0.0
 40
0.0
 40
0.0
 40
0.2738707258
 40
1.0
 40
1.0
 40
1.0
 40
1.0
 10
55.7075378164
 20
166.6183228434
 30
0.0
 10
55.7066835658
 20
166.6200642429
 30
0.0
 10
55.7034756846
 20
166.6263770526
 30
0.0
 10
55.6998932473
 20
166.6325124274
 30
0.0
 10
55.6969728593
 20
166.6367454615
 30
0.0
  0
LINE
  5
2F6
100
AcDbEntity
  8
RUNDUNGEN
100
AcDbLine
 62
7
  6
CONTINUOUS
 10
55.6969732294
 20
151.6445038822
 11
55.7498904188
 21
151.6455990556
  0
SPLINE
  5
2F7
100
AcDbEntity
  8
RUNDUNGEN
100
AcDbSpline
 62
7
  6
CONTINUOUS
 70
0
 71
3
 72
17
 73
13
 74
0
 42
0.0000001
 43
0.0000001
 44
0.0000000001
 40
0.0
 40
0.0
 40
0.0
 40
0.0
 40
0.154870797
 40
0.307865318
 40
0.4570526777
 40
0.5995716172
 40
0.7313265457
 40
0.8467870109
 40
0.8962770659
 40
0.938980178
 40
0.9738784635
 40
1.0
 40
1.0
 40
1.0
 40
1.0
 10
55.7498904188
 20
151.6455990556
 30
0.0
 10
56.0828447144
 20
151.6529169423
 30
0.0
 10
56.744465216
 20
151.6835100357
 30
0.0
 10
57.7235040214
 20
151.772991004
 30
0.0
 10
58.6719662477
 20
151.896574134
 30
0.0
 10
59.5709968255
 20
152.0420949943
 30
0.0
 10
60.394747689
 20
152.196765668
 30
0.0
 10
61.0190223463
 20
152.3290963426
 30
0.0
 10
61.4532524785
 20
152.4332603598
 30
0.0
 10
61.7174482163
 20
152.5035304704
 30
0.0
 10
61.9305717109
 20
152.569214827
 30
0.0
 10
62.0535629677
 20
152.6159877138
 30
0.0
 10
62.1040393605
 20
152.6406333985
 30
0.0
  0
SPLINE
  5
2F8
100
AcDbEntity
  8
RUNDUNGEN
100
AcDbSpline
 62
7
  6
CONTINUOUS
 70
0
 71
3
 72
9
 73
5
 74
0
 42
0.0000001
 43
0.0000001
 44
0.0000000001
 40
0.0
 40
0.0
 40
0.0
 40
0.0
 40
0.1997447145
 40
1.0
 40
1.0
 40
1.0
 40
1.0
 10
55.6969732294
 20
151.6445038822
 30
0.0
 10
55.6993327721
 20
151.6479235515
 30
0.0
 10
55.7100572103
 20
151.665790832
 30
0.0
 10
55.7175667303
 20
151.6853638009
 30
0.0
 10
55.7229816877
 20
151.7011037712
 30
0.0
  0
SPLINE
  5
2F9
100
AcDbEntity
  8
RUNDUNGEN
100
AcDbSpline
 62
7
  6
CONTINUOUS
 70
0
 71
3
 72
9
 73
5
 74
0
 42
0.0000001
 43
0.0000001
 44
0.0000000001
 40
0.0
 40
0.0
 40
0.0
 40
0.0
 40
0.2305592439
 40
1.0
 40
1.0
 40
1.0
 40
1.0
 10
55.7229816877
 20
151.7011037712
 30
0.0
 10
55.724132297
 20
151.7044483139
 30
0.0
 10
55.7289726522
 20
151.7190061836
 30
0.0
 10
55.7332717159
 20
151.7337402978
 30
0.0
 10
55.7363752769
 20
151.7451287036
 30
0.0
  0
SPLINE
  5
2FA
100
AcDbEntity
  8
RUNDUNGEN
100
AcDbSpline
 62
7
  6
CONTINUOUS
 70
0
 71
3
 72
9
 73
5
 74
0
 42
0.0000001
 43
0.0000001
 44
0.0000000001
 40
0.0
 40
0.0
 40
0.0
 40
0.0
 40
0.2334107054
 40
1.0
 40
1.0
 40
1.0
 40
1.0
 10
55.7363752769
 20
151.7451287036
 30
0.0
 10
55.7375417021
 20
151.7494088592
 30
0.0
 10
55.7424111866
 20
151.7677811177
 30
0.0
 10
55.746811865
 20
151.7862757365
 30
0.0
 10
55.7499980163
 20
151.8004930305
 30
0.0
  0
SPLINE
  5
2FB
100
AcDbEntity
  8
RUNDUNGEN
100
AcDbSpline
 62
7
  6
CONTINUOUS
 70
0
 71
3
 72
15
 73
11
 74
0
 42
0.0000001
 43
0.0000001
 44
0.0000000001
 40
0.0
 40
0.0
 40
0.0
 40
0.0
 40
0.0402985659
 40
0.0852717005
 40
0.1876208199
 40
0.303779896
 40
0.430646854
 40
0.5656308102
 40
0.7066175615
 40
1.0
 40
1.0
 40
1.0
 40
1.0
 10
69.0062671438
 20
165.6723092561
 30
0.0
 10
69.0286459952
 20
165.5896942279
 30
0.0
 10
69.084750606
 20
165.4172360023
 30
0.0
 10
69.2330274129
 20
165.0471668292
 30
0.0
 10
69.4791083423
 20
164.5438600926
 30
0.0
 10
69.8355023056
 20
163.9025584684
 30
0.0
 10
70.2489355296
 20
163.2141713841
 30
0.0
 10
70.7053671041
 20
162.4904315917
 30
0.0
 10
71.365487415
 20
161.4771816995
 30
0.0
 10
71.8802283709
 20
160.7115039788
 30
0.0
 10
72.2294326472
 20
160.1954137587
 30
0.0
  0
SPLINE
  5
2FC
100
AcDbEntity
  8
RUNDUNGEN
100
AcDbSpline
 62
7
  6
CONTINUOUS
 70
0
 71
3
 72
13
 73
9
 74
0
 42
0.0000001
 43
0.0000001
 44
0.0000000001
 40
0.0
 40
0.0
 40
0.0
 40
0.0
 40
0.091350046
 40
0.1971423892
 40
0.3145099844
 40
0.4409354979
 40
0.7128426074
 40
1.0
 40
1.0
 40
1.0
 40
1.0
 10
84.7770683653
 20
165.4343055313
 30
0.0
 10
84.7141871979
 20
165.2588174844
 30
0.0
 10
84.5533831362
 20
164.8892158885
 30
0.0
 10
84.2582888007
 20
164.3191079752
 30
0.0
 10
83.9037685379
 20
163.6998502065
 30
0.0
 10
83.3558238312
 20
162.801309209
 30
0.0
 10
82.5943829476
 20
161.6276163207
 30
0.0
 10
81.9578146775
 20
160.6808726317
 30
0.0
 10
81.6294320674
 20
160.195540162
 30
0.0
  0
SPLINE
  5
2FD
100
AcDbEntity
  8
RUNDUNGEN
100
AcDbSpline
 62
7
  6
CONTINUOUS
 70
0
 71
3
 72
19
 73
15
 74
0
 42
0.0000001
 43
0.0000001
 44
0.0000000001
 40
0.0
 40
0.0
 40
0.0
 40
0.0
 40
0.0293182772
 40
0.0605863426
 40
0.0954288756
 40
0.1349459224
 40
0.1798064456
 40
0.2303548715
 40
0.2867006065
 40
0.3487720332
 40
0.4890270422
 40
0.6478962771
 40
0.8203406824
 40
1.0
 40
1.0
 40
1.0
 40
1.0
 10
102.8976805905
 20
166.6406250228
 30
0.0
 10
102.81585276
 20
166.640633192
 30
0.0
 10
102.6459355324
 20
166.6158931733
 30
0.0
 10
102.3997621881
 20
166.5077230497
 30
0.0
 10
102.1608455508
 20
166.3317807641
 30
0.0
 10
101.9300696288
 20
166.0903196193
 30
0.0
 10
101.7082566897
 20
165.7849023467
 30
0.0
 10
101.4968559213
 20
165.4171521374
 30
0.0
 10
101.2975635601
 20
164.9892175361
 30
0.0
 10
101.0400651565
 20
164.3142185926
 30
0.0
 10
100.7691241502
 20
163.3409845034
 30
0.0
 10
100.53257369
 20
162.0448775805
 30
0.0
 10
100.3851546652
 20
160.6251234464
 30
0.0
 10
100.3520073059
 20
159.6420573598
 30
0.0
 10
100.3519865786
 20
159.1406250228
 30
0.0
  0
SPLINE
  5
2FE
100
AcDbEntity
  8
RUNDUNGEN
100
AcDbSpline
 62
7
  6
CONTINUOUS
 70
0
 71
3
 72
15
 73
11
 74
0
 42
0.0000001
 43
0.0000001
 44
0.0000000001
 40
0.0
 40
0.0
 40
0.0
 40
0.0
 40
0.0416695545
 40
0.0893743562
 40
0.1986284137
 40
0.3207198379
 40
0.4507175887
 40
0.5853659697
 40
0.7225897006
 40
1.0
 40
1.0
 40
1.0
 40
1.0
 10
99.1092511612
 20
152.6406190063
 30
0.0
 10
99.152755586
 20
152.6068238061
 30
0.0
 10
99.250904491
 20
152.5405916133
 30
0.0
 10
99.4793377109
 20
152.4108338435
 30
0.0
 10
99.8146827674
 20
152.2556939203
 30
0.0
 10
100.2613357523
 20
152.0855511693
 30
0.0
 10
100.7498317026
 20
151.9334940852
 30
0.0
 10
101.2662577438
 20
151.8070942076
 30
0.0
 10
101.9816217273
 20
151.6803426112
 30
0.0
 10
102.5307580761
 20
151.64062512
 30
0.0
 10
102.8975039373
 20
151.6406266287
 30
0.0
  0
SPLINE
  5
2FF
100
AcDbEntity
  8
RUNDUNGEN
100
AcDbSpline
 62
7
  6
CONTINUOUS
 70
0
 71
3
 72
15
 73
11
 74
0
 42
0.0000001
 43
0.0000001
 44
0.0000000001
 40
0.0
 40
0.0
 40
0.0
 40
0.0
 40
0.2774074412
 40
0.4146311545
 40
0.549279485
 40
0.6792773736
 40
0.8013698215
 40
0.9106253049
 40
0.9583306843
 40
1.0
 40
1.0
 40
1.0
 40
1.0
 10
102.8978383593
 20
166.6406246199
 30
0.0
 10
102.5310670504
 20
166.6406420283
 30
0.0
 10
101.9818892344
 20
166.6009400256
 30
0.0
 10
101.2664674946
 20
166.4742038005
 30
0.0
 10
100.7499984887
 20
166.3478004729
 30
0.0
 10
100.2614585057
 20
166.1957432023
 30
0.0
 10
99.8147631391
 20
166.0255943846
 30
0.0
 10
99.4793884226
 20
165.8704386581
 30
0.0
 10
99.2509321331
 20
165.7406754716
 30
0.0
 10
99.1527706504
 20
165.6744433789
 30
0.0
 10
99.1092650296
 20
165.640643077
 30
0.0
  0
SPLINE
  5
300
100
AcDbEntity
  8
RUNDUNGEN
100
AcDbSpline
 62
7
  6
CONTINUOUS
 70
0
 71
3
 72
19
 73
15
 74
0
 42
0.0000001
 43
0.0000001
 44
0.0000000001
 40
0.0
 40
0.0
 40
0.0
 40
0.0
 40
0.1796641455
 40
0.3521215374
 40
0.5110100924
 40
0.6512588976
 40
0.7133243181
 40
0.7696657873
 40
0.820212633
 40
0.8650728216
 40
0.9045899804
 40
0.9394319273
 40
0.9707017267
 40
1.0
 40
1.0
 40
1.0
 40
1.0
 10
100.3519865786
 20
159.1406250228
 30
0.0
 10
100.3520042571
 20
158.6391897111
 30
0.0
 10
100.3851515649
 20
157.6560940514
 30
0.0
 10
100.5325885567
 20
156.2362679596
 30
0.0
 10
100.7691471154
 20
154.9401154273
 30
0.0
 10
101.0401179908
 20
153.9668910477
 30
0.0
 10
101.2976006435
 20
153.2919518334
 30
0.0
 10
101.4968784235
 20
152.8640577395
 30
0.0
 10
101.7082685615
 20
152.4963319902
 30
0.0
 10
101.9300727373
 20
152.1909236103
 30
0.0
 10
102.1608463027
 20
151.9494745446
 30
0.0
 10
102.399755079
 20
151.773523711
 30
0.0
 10
102.64587901
 20
151.6653913914
 30
0.0
 10
102.8157336499
 20
151.6406250516
 30
0.0
 10
102.8975039373
 20
151.6406250228
 30
0.0
  0
SPLINE
  5
301
100
AcDbEntity
  8
RUNDUNGEN
100
AcDbSpline
 62
7
  6
CONTINUOUS
 70
0
 71
3
 72
11
 73
7
 74
0
 42
0.0000001
 43
0.0000001
 44
0.0000000001
 40
0.0
 40
0.0
 40
0.0
 40
0.0
 40
0.2184837422
 40
0.4632881237
 40
0.7267657576
 40
1.0
 40
1.0
 40
1.0
 40
1.0
 10
99.1092596816
 20
165.6406279238
 30
0.0
 10
98.9929575179
 20
165.1779511935
 30
0.0
 10
98.7915441514
 20
164.1853625059
 30
0.0
 10
98.5803001374
 20
162.6116860485
 30
0.0
 10
98.4494562169
 20
160.9094032748
 30
0.0
 10
98.4201670651
 20
159.7372456493
 30
0.0
 10
98.420134926
 20
159.1406250228
 30
0.0
  0
SPLINE
  5
302
100
AcDbEntity
  8
RUNDUNGEN
100
AcDbSpline
 62
7
  6
CONTINUOUS
 70
0
 71
3
 72
11
 73
7
 74
0
 42
0.0000001
 43
0.0000001
 44
0.0000000001
 40
0.0
 40
0.0
 40
0.0
 40
0.0
 40
0.2732036169
 40
0.5366877534
 40
0.7815128151
 40
1.0
 40
1.0
 40
1.0
 40
1.0
 10
98.420134926
 20
159.1406250228
 30
0.0
 10
98.4201623813
 20
158.5440716778
 30
0.0
 10
98.4494618299
 20
157.3719681521
 30
0.0
 10
98.5802782182
 20
155.6696914991
 30
0.0
 10
98.7915496088
 20
154.0959531584
 30
0.0
 10
98.9929396733
 20
153.103306228
 30
0.0
 10
99.1092499401
 20
152.640624121
 30
0.0
  0
SPLINE
  5
303
100
AcDbEntity
  8
RUNDUNGEN
100
AcDbSpline
 62
7
  6
CONTINUOUS
 70
0
 71
3
 72
13
 73
9
 74
0
 42
0.0000001
 43
0.0000001
 44
0.0000000001
 40
0.0
 40
0.0
 40
0.0
 40
0.0
 40
0.3393912925
 40
0.6115727431
 40
0.7246787124
 40
0.8248059958
 40
0.9151123867
 40
1.0
 40
1.0
 40
1.0
 40
1.0
 10
85.7430313858
 20
153.6860254393
 30
0.0
 10
85.8070589131
 20
153.5311709194
 30
0.0
 10
85.9360975838
 20
153.2574653078
 30
0.0
 10
86.1387054166
 20
152.9589488989
 30
0.0
 10
86.3108425057
 20
152.7909762246
 30
0.0
 10
86.4348251725
 20
152.7051816725
 30
0.0
 10
86.5614836521
 20
152.6526535327
 30
0.0
 10
86.648356637
 20
152.6406339852
 30
0.0
 10
86.6902685891
 20
152.6406250228
 30
0.0
  0
SPLINE
  5
304
100
AcDbEntity
  8
RUNDUNGEN
100
AcDbSpline
 62
7
  6
CONTINUOUS
 70
0
 71
3
 72
14
 73
10
 74
0
 42
0.0000001
 43
0.0000001
 44
0.0000000001
 40
0.0
 40
0.0
 40
0.0
 40
0.0
 40
0.0641384632
 40
0.138129373
 40
0.2284783697
 40
0.3386939885
 40
0.4704940876
 40
0.6246800628
 40
1.0
 40
1.0
 40
1.0
 40
1.0
 10
68.4429745531
 20
151.6406250465
 30
0.0
 10
68.4679943292
 20
151.6406363479
 30
0.0
 10
68.5222144191
 20
151.6530660783
 30
0.0
 10
68.5971400824
 20
151.7036357362
 30
0.0
 10
68.6695548707
 20
151.7834223051
 30
0.0
 10
68.7404551137
 20
151.8924059253
 30
0.0
 10
68.8101830624
 20
152.0305792263
 30
0.0
 10
68.907767041
 20
152.2695757745
 30
0.0
 10
68.9679955256
 20
152.4676228594
 30
0.0
 10
69.0062671438
 20
152.6089407896
 30
0.0
  0
SPLINE
  5
305
100
AcDbEntity
  8
RUNDUNGEN
100
AcDbSpline
 62
7
  6
CONTINUOUS
 70
0
 71
3
 72
14
 73
10
 74
0
 42
0.0000001
 43
0.0000001
 44
0.0000000001
 40
0.0
 40
0.0
 40
0.0
 40
0.0
 40
0.0783486297
 40
0.1633595771
 40
0.2601764338
 40
0.3721871745
 40
0.5014101887
 40
0.6489318196
 40
1.0
 40
1.0
 40
1.0
 40
1.0
 10
85.7243425817
 20
166.6406250163
 30
0.0
 10
85.6822721859
 20
166.640618469
 30
0.0
 10
85.5940904357
 20
166.6263579735
 30
0.0
 10
85.4669812017
 20
166.5649129535
 30
0.0
 10
85.3432050094
 20
166.4654394969
 30
0.0
 10
85.222416684
 20
166.3291142229
 30
0.0
 10
85.1044534238
 20
166.1563842329
 30
0.0
 10
84.9418269986
 20
165.8606808955
 30
0.0
 10
84.840656673
 20
165.6117679759
 30
0.0
 10
84.7770683653
 20
165.4343055313
 30
0.0
  0
SPLINE
  5
306
100
AcDbEntity
  8
RUNDUNGEN
100
AcDbSpline
 62
7
  6
CONTINUOUS
 70
0
 71
3
 72
12
 73
8
 74
0
 42
0.0000001
 43
0.0000001
 44
0.0000000001
 40
0.0
 40
0.0
 40
0.0
 40
0.0
 40
0.1163722949
 40
0.2121420121
 40
0.3339424022
 40
0.6422267217
 40
1.0
 40
1.0
 40
1.0
 40
1.0
 10
73.429431608
 20
154.6406250228
 30
0.0
 10
73.4211331667
 20
154.6406250228
 30
0.0
 10
73.4090657359
 20
154.6547699681
 30
0.0
 10
73.399836983
 20
154.675678336
 30
0.0
 10
73.3887327998
 20
154.7120328793
 30
0.0
 10
73.3803601836
 20
154.7675329724
 30
0.0
 10
73.3779612804
 20
154.8151124164
 30
0.0
 10
73.3779610199
 20
154.8406250228
 30
0.0
  0
SPLINE
  5
307
100
AcDbEntity
  8
RUNDUNGEN
100
AcDbSpline
 62
7
  6
CONTINUOUS
 70
0
 71
3
 72
12
 73
8
 74
0
 42
0.0000001
 43
0.0000001
 44
0.0000000001
 40
0.0
 40
0.0
 40
0.0
 40
0.0
 40
0.1163740025
 40
0.2121436192
 40
0.3339435516
 40
0.6422272718
 40
1.0
 40
1.0
 40
1.0
 40
1.0
 10
80.429431608
 20
154.6406250228
 30
0.0
 10
80.4377301906
 20
154.6406250228
 30
0.0
 10
80.449798044
 20
154.6547696958
 30
0.0
 10
80.45902696
 20
154.6756782348
 30
0.0
 10
80.4701312414
 20
154.7120327169
 30
0.0
 10
80.4785036298
 20
154.7675329097
 30
0.0
 10
80.4809021962
 20
154.8151123958
 30
0.0
 10
80.4809021963
 20
154.8406250228
 30
0.0
  0
SPLINE
  5
308
100
AcDbEntity
  8
RUNDUNGEN
100
AcDbSpline
 62
7
  6
CONTINUOUS
 70
0
 71
3
 72
14
 73
10
 74
0
 42
0.0000001
 43
0.0000001
 44
0.0000000001
 40
0.0
 40
0.0
 40
0.0
 40
0.0
 40
0.0641375695
 40
0.1381291993
 40
0.2284794148
 40
0.3386952011
 40
0.470494753
 40
0.6246800949
 40
1.0
 40
1.0
 40
1.0
 40
1.0
 10
68.4429744992
 20
166.6406250068
 30
0.0
 10
68.4679939506
 20
166.6406156995
 30
0.0
 10
68.5222149202
 20
166.6281868866
 30
0.0
 10
68.5971398966
 20
166.5776152949
 30
0.0
 10
68.6695545904
 20
166.497827564
 30
0.0
 10
68.7404551669
 20
166.388843633
 30
0.0
 10
68.8101832156
 20
166.2506706665
 30
0.0
 10
68.9077674467
 20
166.0116744717
 30
0.0
 10
68.9679958184
 20
165.8136273931
 30
0.0
 10
69.0062671438
 20
165.6723092561
 30
0.0
  0
LINE
  5
309
100
AcDbEntity
  8
RUNDUNGEN
100
AcDbLine
 62
7
  6
CONTINUOUS
 10
81.6019169137
 20
159.8436693434
 11
81.6294355865
 21
160.1955466428
  0
SPLINE
  5
30A
100
AcDbEntity
  8
RUNDUNGEN
100
AcDbSpline
 62
7
  6
CONTINUOUS
 70
0
 71
3
 72
11
 73
7
 74
0
 42
0.0000001
 43
0.0000001
 44
0.0000000001
 40
0.0
 40
0.0
 40
0.0
 40
0.0
 40
0.2320957382
 40
0.4805100529
 40
0.7397855553
 40
1.0
 40
1.0
 40
1.0
 40
1.0
 10
85.7429894858
 20
164.5951481302
 30
0.0
 10
85.7261437904
 20
164.699105365
 30
0.0
 10
85.6461905538
 20
164.9083467283
 30
0.0
 10
85.4241293523
 20
165.1672690591
 30
0.0
 10
85.1251284988
 20
165.3553714188
 30
0.0
 10
84.8942672668
 20
165.4199630808
 30
0.0
 10
84.7770683655
 20
165.4342962707
 30
0.0
  0
SPLINE
  5
30B
100
AcDbEntity
  8
RUNDUNGEN
100
AcDbSpline
 62
7
  6
CONTINUOUS
 70
0
 71
3
 72
11
 73
7
 74
0
 42
0.0000001
 43
0.0000001
 44
0.0000000001
 40
0.0
 40
0.0
 40
0.0
 40
0.0
 40
0.2540212457
 40
0.5056597483
 40
0.753985455
 40
1.0
 40
1.0
 40
1.0
 40
1.0
 10
86.6902685891
 20
165.6406250228
 30
0.0
 10
86.6902685885
 20
165.770534485
 30
0.0
 10
86.640613229
 20
166.0318498037
 30
0.0
 10
86.4268496981
 20
166.3640144908
 30
0.0
 10
86.1058812642
 20
166.5879582209
 30
0.0
 10
85.8501575038
 20
166.6406250228
 30
0.0
 10
85.7243427629
 20
166.6406250228
 30
0.0
  0
SPLINE
  5
30C
100
AcDbEntity
  8
RUNDUNGEN
100
AcDbSpline
 62
7
  6
CONTINUOUS
 70
0
 71
3
 72
11
 73
7
 74
0
 42
0.0000001
 43
0.0000001
 44
0.0000000001
 40
0.0
 40
0.0
 40
0.0
 40
0.0
 40
0.2540211942
 40
0.5056596798
 40
0.753985409
 40
1.0
 40
1.0
 40
1.0
 40
1.0
 10
99.1092481624
 20
165.6406279238
 30
0.0
 10
99.1092477384
 20
165.7705370865
 30
0.0
 10
99.0595917577
 20
166.031851645
 30
0.0
 10
98.8458280893
 20
166.3640151698
 30
0.0
 10
98.5248601607
 20
166.5879581359
 30
0.0
 10
98.2691369674
 20
166.6406249074
 30
0.0
 10
98.1433224674
 20
166.6406250228
 30
0.0
  0
SPLINE
  5
30D
100
AcDbEntity
  8
RUNDUNGEN
100
AcDbSpline
 62
7
  6
CONTINUOUS
 70
0
 71
3
 72
11
 73
7
 74
0
 42
0.0000001
 43
0.0000001
 44
0.0000000001
 40
0.0
 40
0.0
 40
0.0
 40
0.0
 40
0.2540211637
 40
0.5056596397
 40
0.7539853717
 40
1.0
 40
1.0
 40
1.0
 40
1.0
 10
99.1092459922
 20
152.640624121
 30
0.0
 10
99.1092460415
 20
152.5107147444
 30
0.0
 10
99.0595906552
 20
152.249399535
 30
0.0
 10
98.8458268785
 20
151.9172352087
 30
0.0
 10
98.5248584009
 20
151.6932917369
 30
0.0
 10
98.2691346686
 20
151.6406250214
 30
0.0
 10
98.1433199273
 20
151.6406250228
 30
0.0
  0
SPLINE
  5
30E
100
AcDbEntity
  8
RUNDUNGEN
100
AcDbSpline
 62
7
  6
CONTINUOUS
 70
0
 71
3
 72
11
 73
7
 74
0
 42
0.0000001
 43
0.0000001
 44
0.0000000001
 40
0.0
 40
0.0
 40
0.0
 40
0.0
 40
0.2540212502
 40
0.505659753
 40
0.7539854579
 40
1.0
 40
1.0
 40
1.0
 40
1.0
 10
86.6902685891
 20
152.6406250228
 30
0.0
 10
86.6902685891
 20
152.5107155583
 30
0.0
 10
86.6406132294
 20
152.2494002364
 30
0.0
 10
86.4268496947
 20
151.9172355493
 30
0.0
 10
86.1058812604
 20
151.6932918233
 30
0.0
 10
85.8501575024
 20
151.6406250228
 30
0.0
 10
85.7243427628
 20
151.6406250228
 30
0.0
  0
SPLINE
  5
30F
100
AcDbEntity
  8
RUNDUNGEN
100
AcDbSpline
 62
7
  6
CONTINUOUS
 70
0
 71
3
 72
11
 73
7
 74
0
 42
0.0000001
 43
0.0000001
 44
0.0000000001
 40
0.0
 40
0.0
 40
0.0
 40
0.0
 40
0.2320955774
 40
0.4805099236
 40
0.7397855526
 40
1.0
 40
1.0
 40
1.0
 40
1.0
 10
85.7429941915
 20
153.6861019155
 30
0.0
 10
85.7261486061
 20
153.5821442286
 30
0.0
 10
85.6461952605
 20
153.3729018034
 30
0.0
 10
85.424133089
 20
153.113978118
 30
0.0
 10
85.1251305444
 20
152.9258750468
 30
0.0
 10
84.8942678924
 20
152.8612837216
 30
0.0
 10
84.7770683652
 20
152.8469510058
 30
0.0
  0
LINE
  5
310
100
AcDbEntity
  8
RUNDUNGEN
100
AcDbLine
 62
7
  6
CONTINUOUS
 10
81.6294295219
 20
158.0857627938
 11
81.6019119635
 21
158.4376276543
  0
LINE
  5
311
100
AcDbEntity
  8
RUNDUNGEN
100
AcDbLine
 62
7
  6
CONTINUOUS
 10
72.2294423968
 20
160.195400208
 11
72.2569607905
 21
159.84354064
  0
SPLINE
  5
312
100
AcDbEntity
  8
RUNDUNGEN
100
AcDbSpline
 62
7
  6
CONTINUOUS
 70
0
 71
3
 72
11
 73
7
 74
0
 42
0.0000001
 43
0.0000001
 44
0.0000000001
 40
0.0
 40
0.0
 40
0.0
 40
0.0
 40
0.2604814347
 40
0.5182469616
 40
0.7656685926
 40
1.0
 40
1.0
 40
1.0
 40
1.0
 10
69.0062671437
 20
165.6722938676
 30
0.0
 10
68.8836306757
 20
165.6630373416
 30
0.0
 10
68.6409935799
 20
165.6044591004
 30
0.0
 10
68.3284654005
 20
165.4109240703
 30
0.0
 10
68.1032866602
 20
165.1350485603
 30
0.0
 10
68.0321025769
 20
164.911544886
 30
0.0
 10
68.0214728522
 20
164.8014180255
 30
0.0
  0
SPLINE
  5
313
100
AcDbEntity
  8
RUNDUNGEN
100
AcDbSpline
 62
7
  6
CONTINUOUS
 70
0
 71
3
 72
11
 73
7
 74
0
 42
0.0000001
 43
0.0000001
 44
0.0000000001
 40
0.0
 40
0.0
 40
0.0
 40
0.0
 40
0.2482605022
 40
0.4975003067
 40
0.7482033348
 40
1.0
 40
1.0
 40
1.0
 40
1.0
 10
68.4429742566
 20
166.6406250228
 30
0.0
 10
68.3147992249
 20
166.6406250228
 30
0.0
 10
68.055055286
 20
166.5883286019
 30
0.0
 10
67.7278002284
 20
166.3651091705
 30
0.0
 10
67.5091208161
 20
166.0328624483
 30
0.0
 10
67.4581665048
 20
165.7706257489
 30
0.0
 10
67.4581665036
 20
165.6406250228
 30
0.0
  0
SPLINE
  5
314
100
AcDbEntity
  8
RUNDUNGEN
100
AcDbSpline
 62
7
  6
CONTINUOUS
 70
0
 71
3
 72
11
 73
7
 74
0
 42
0.0000001
 43
0.0000001
 44
0.0000000001
 40
0.0
 40
0.0
 40
0.0
 40
0.0
 40
0.248260517
 40
0.4975003281
 40
0.7482033501
 40
1.0
 40
1.0
 40
1.0
 40
1.0
 10
63.0888381325
 20
166.6406250228
 30
0.0
 10
62.9606633225
 20
166.6406249672
 30
0.0
 10
62.7009198716
 20
166.5883286409
 30
0.0
 10
62.37366524
 20
166.3651099008
 30
0.0
 10
62.1549857103
 20
166.0328641624
 30
0.0
 10
62.1040308802
 20
165.7706280919
 30
0.0
 10
62.1040305267
 20
165.6406276063
 30
0.0
  0
LINE
  5
315
100
AcDbEntity
  8
RUNDUNGEN
100
AcDbLine
 62
7
  6
CONTINUOUS
 10
72.2569627548
 20
158.4377267829
 11
72.2294419863
 21
158.0858421336
  0
SPLINE
  5
316
100
AcDbEntity
  8
RUNDUNGEN
100
AcDbSpline
 62
7
  6
CONTINUOUS
 70
0
 71
3
 72
11
 73
7
 74
0
 42
0.0000001
 43
0.0000001
 44
0.0000000001
 40
0.0
 40
0.0
 40
0.0
 40
0.0
 40
0.2343311682
 40
0.4817528068
 40
0.7395184821
 40
1.0
 40
1.0
 40
1.0
 40
1.0
 10
68.0214660535
 20
153.4798320205
 30
0.0
 10
68.0320951204
 20
153.3697042789
 30
0.0
 10
68.1032788248
 20
153.1461983994
 30
0.0
 10
68.3284591201
 20
152.8703202403
 30
0.0
 10
68.6409901614
 20
152.6767836491
 30
0.0
 10
68.8836295793
 20
152.6182053937
 30
0.0
 10
69.0062671437
 20
152.6089491844
 30
0.0
  0
SPLINE
  5
317
100
AcDbEntity
  8
RUNDUNGEN
100
AcDbSpline
 62
7
  6
CONTINUOUS
 70
0
 71
3
 72
11
 73
7
 74
0
 42
0.0000001
 43
0.0000001
 44
0.0000000001
 40
0.0
 40
0.0
 40
0.0
 40
0.0
 40
0.2517966613
 40
0.502499689
 40
0.7517394951
 40
1.0
 40
1.0
 40
1.0
 40
1.0
 10
67.4581665036
 20
152.6406250228
 30
0.0
 10
67.4581665052
 20
152.5106242989
 30
0.0
 10
67.509120816
 20
152.2483876022
 30
0.0
 10
67.7278002248
 20
151.91614088
 30
0.0
 10
68.0550552823
 20
151.692921445
 30
0.0
 10
68.3147992234
 20
151.6406250228
 30
0.0
 10
68.4429742564
 20
151.6406250228
 30
0.0
  0
SPLINE
  5
318
100
AcDbEntity
  8
RUNDUNGEN
100
AcDbSpline
 62
7
  6
CONTINUOUS
 70
0
 71
3
 72
11
 73
7
 74
0
 42
0.0000001
 43
0.0000001
 44
0.0000000001
 40
0.0
 40
0.0
 40
0.0
 40
0.0
 40
0.2517966515
 40
0.5024996754
 40
0.7517394874
 40
1.0
 40
1.0
 40
1.0
 40
1.0
 10
62.1040289343
 20
152.6406230738
 30
0.0
 10
62.1040292009
 20
152.5106227806
 30
0.0
 10
62.1549837017
 20
152.2483870723
 30
0.0
 10
62.3736623781
 20
151.9161415128
 30
0.0
 10
62.700916021
 20
151.6929224238
 30
0.0
 10
62.9606589165
 20
151.6406254669
 30
0.0
 10
63.0888335338
 20
151.6406250228
 30
0.0
  0
SPLINE
  5
319
100
AcDbEntity
  8
RUNDUNGEN
100
AcDbSpline
 62
7
  6
CONTINUOUS
 70
0
 71
3
 72
14
 73
10
 74
0
 42
0.0000001
 43
0.0000001
 44
0.0000000001
 40
0.0
 40
0.0
 40
0.0
 40
0.0
 40
0.0850138194
 40
0.187132552
 40
0.3031167349
 40
0.4299557752
 40
0.5650505904
 40
0.7062397459
 40
1.0
 40
1.0
 40
1.0
 40
1.0
 10
85.7430317522
 20
164.5952298366
 30
0.0
 10
85.6608641833
 20
164.4362058407
 30
0.0
 10
85.4495400389
 20
164.1022258136
 30
0.0
 10
85.0658936557
 20
163.5920235673
 30
0.0
 10
84.6014199899
 20
163.0333512905
 30
0.0
 10
84.0740842569
 20
162.4373999649
 30
0.0
 10
83.4987179501
 20
161.813333841
 30
0.0
 10
82.6732651418
 20
160.9419888897
 30
0.0
 10
82.0343371087
 20
160.2858622594
 30
0.0
 10
81.6018946524
 20
159.8436460584
 30
0.0
  0
SPLINE
  5
31A
100
AcDbEntity
  8
RUNDUNGEN
100
AcDbSpline
 62
7
  6
CONTINUOUS
 70
0
 71
3
 72
14
 73
10
 74
0
 42
0.0000001
 43
0.0000001
 44
0.0000000001
 40
0.0
 40
0.0
 40
0.0
 40
0.0
 40
0.2937539804
 40
0.4349443262
 40
0.5700407598
 40
0.6968809094
 40
0.812865891
 40
0.9149854908
 40
1.0
 40
1.0
 40
1.0
 40
1.0
 10
81.6018931872
 20
158.4376463213
 30
0.0
 10
82.0343283886
 20
157.9954373007
 30
0.0
 10
82.6732243433
 20
157.3392883237
 30
0.0
 10
83.4986859981
 20
156.4679539221
 30
0.0
 10
84.0740614893
 20
155.8438793353
 30
0.0
 10
84.6014032426
 20
155.2479183169
 30
0.0
 10
85.0658842781
 20
154.6892399338
 30
0.0
 10
85.4495349323
 20
154.1790309141
 30
0.0
 10
85.6608632371
 20
153.8450472574
 30
0.0
 10
85.7430313839
 20
153.6860209469
 30
0.0
  0
SPLINE
  5
31B
100
AcDbEntity
  8
RUNDUNGEN
100
AcDbSpline
 62
7
  6
CONTINUOUS
 70
0
 71
3
 72
11
 73
7
 74
0
 42
0.0000001
 43
0.0000001
 44
0.0000000001
 40
0.0
 40
0.0
 40
0.0
 40
0.0
 40
0.2465361154
 40
0.4941977341
 40
0.7453882815
 40
1.0
 40
1.0
 40
1.0
 40
1.0
 10
73.3779610198
 20
154.8406250228
 30
0.0
 10
73.2745998939
 20
154.840631746
 30
0.0
 10
73.0652789248
 20
154.8804872127
 30
0.0
 10
72.796084161
 20
155.0536469466
 30
0.0
 10
72.6105360515
 20
155.3193198979
 30
0.0
 10
72.5662124959
 20
155.5338781732
 30
0.0
 10
72.5661963139
 20
155.6406250228
 30
0.0
  0
SPLINE
  5
31C
100
AcDbEntity
  8
RUNDUNGEN
100
AcDbSpline
 62
7
  6
CONTINUOUS
 70
0
 71
3
 72
11
 73
7
 74
0
 42
0.0000001
 43
0.0000001
 44
0.0000000001
 40
0.0
 40
0.0
 40
0.0
 40
0.0
 40
0.254612033
 40
0.5058024376
 40
0.7534639714
 40
1.0
 40
1.0
 40
1.0
 40
1.0
 10
72.5661963139
 20
162.6406250228
 30
0.0
 10
72.5662128992
 20
162.7473720129
 30
0.0
 10
72.6105354806
 20
162.9619305171
 30
0.0
 10
72.7960844552
 20
163.2276031818
 30
0.0
 10
73.065278977
 20
163.4007628026
 30
0.0
 10
73.2745999219
 20
163.4406183593
 30
0.0
 10
73.3779610198
 20
163.4406250228
 30
0.0
  0
SPLINE
  5
31D
100
AcDbEntity
  8
RUNDUNGEN
100
AcDbSpline
 62
7
  6
CONTINUOUS
 70
0
 71
3
 72
11
 73
7
 74
0
 42
0.0000001
 43
0.0000001
 44
0.0000000001
 40
0.0
 40
0.0
 40
0.0
 40
0.0
 40
0.2465361154
 40
0.4941977341
 40
0.7453882815
 40
1.0
 40
1.0
 40
1.0
 40
1.0
 10
80.4809021962
 20
163.4406250228
 30
0.0
 10
80.5842633221
 20
163.4406182997
 30
0.0
 10
80.7935842912
 20
163.4007628329
 30
0.0
 10
81.062779055
 20
163.2276030991
 30
0.0
 10
81.2483271645
 20
162.9619301478
 30
0.0
 10
81.29265072
 20
162.7473718724
 30
0.0
 10
81.2926669021
 20
162.6406250228
 30
0.0
  0
SPLINE
  5
31E
100
AcDbEntity
  8
RUNDUNGEN
100
AcDbSpline
 62
7
  6
CONTINUOUS
 70
0
 71
3
 72
11
 73
7
 74
0
 42
0.0000001
 43
0.0000001
 44
0.0000000001
 40
0.0
 40
0.0
 40
0.0
 40
0.0
 40
0.254612033
 40
0.5058024376
 40
0.7534639714
 40
1.0
 40
1.0
 40
1.0
 40
1.0
 10
81.2926669021
 20
155.6406250228
 30
0.0
 10
81.2926503168
 20
155.5338780328
 30
0.0
 10
81.2483277354
 20
155.3193195286
 30
0.0
 10
81.0627787608
 20
155.0536468639
 30
0.0
 10
80.793584239
 20
154.8804872431
 30
0.0
 10
80.5842632941
 20
154.8406316863
 30
0.0
 10
80.4809021962
 20
154.8406250228
 30
0.0
  0
SPLINE
  5
31F
100
AcDbEntity
  8
RUNDUNGEN
100
AcDbSpline
 62
7
  6
CONTINUOUS
 70
0
 71
3
 72
15
 73
11
 74
0
 42
0.0000001
 43
0.0000001
 44
0.0000000001
 40
0.0
 40
0.0
 40
0.0
 40
0.0
 40
0.0362770812
 40
0.0779366652
 40
0.1758857332
 40
0.2903513683
 40
0.4176729843
 40
0.5546939731
 40
0.698799362
 40
1.0
 40
1.0
 40
1.0
 40
1.0
 10
68.021422297
 20
153.4797247701
 30
0.0
 10
68.0502081256
 20
153.5534307447
 30
0.0
 10
68.1229365218
 20
153.7075278897
 30
0.0
 10
68.31593851
 20
154.0393772861
 30
0.0
 10
68.6378543712
 20
154.4916133501
 30
0.0
 10
69.1034699565
 20
155.0682432949
 30
0.0
 10
69.646671909
 20
155.6910675439
 30
0.0
 10
70.2481175079
 20
156.348370851
 30
0.0
 10
71.1201541377
 20
157.2719456244
 30
0.0
 10
71.7976392462
 20
157.9680167995
 30
0.0
 10
72.2569725842
 20
158.4377354517
 30
0.0
  0
SPLINE
  5
320
100
AcDbEntity
  8
RUNDUNGEN
100
AcDbSpline
 62
7
  6
CONTINUOUS
 70
0
 71
3
 72
15
 73
11
 74
0
 42
0.0000001
 43
0.0000001
 44
0.0000000001
 40
0.0
 40
0.0
 40
0.0
 40
0.0
 40
0.0362773708
 40
0.077935964
 40
0.175884276
 40
0.2903491609
 40
0.4176707186
 40
0.5546916657
 40
0.698796903
 40
1.0
 40
1.0
 40
1.0
 40
1.0
 10
68.0214115129
 20
164.801556456
 30
0.0
 10
68.0501968136
 20
164.7278493228
 30
0.0
 10
68.1229217942
 20
164.573751667
 30
0.0
 10
68.3159192892
 20
164.2419018198
 30
0.0
 10
68.6378296596
 20
163.78966618
 30
0.0
 10
69.1034472563
 20
163.2130391283
 30
0.0
 10
69.6466471788
 20
162.5902120949
 30
0.0
 10
70.2480949942
 20
161.9329076567
 30
0.0
 10
71.1201305565
 20
161.0093194116
 30
0.0
 10
71.7976333328
 20
160.3132539102
 30
0.0
 10
72.256972262
 20
159.8435302571
 30
0.0
  0
SPLINE
  5
321
100
AcDbEntity
  8
RUNDUNGEN
100
AcDbSpline
 62
7
  6
CONTINUOUS
 70
0
 71
3
 72
11
 73
7
 74
0
 42
0.0000001
 43
0.0000001
 44
0.0000000001
 40
0.0
 40
0.0
 40
0.0
 40
0.0
 40
0.2666896474
 40
0.517805779
 40
0.7590072739
 40
1.0
 40
1.0
 40
1.0
 40
1.0
 10
80.564896351
 20
154.5702266384
 30
0.0
 10
80.716443742
 20
154.5870643639
 30
0.0
 10
81.0076411646
 20
154.6756995781
 30
0.0
 10
81.3560570807
 20
154.9496548543
 30
0.0
 10
81.5782262578
 20
155.3154595166
 30
0.0
 10
81.629462025
 20
155.5937464385
 30
0.0
 10
81.629431608
 20
155.7315341137
 30
0.0
  0
SPLINE
  5
322
100
AcDbEntity
  8
RUNDUNGEN
100
AcDbSpline
 62
7
  6
CONTINUOUS
 70
0
 71
3
 72
11
 73
7
 74
0
 42
0.0000001
 43
0.0000001
 44
0.0000000001
 40
0.0
 40
0.0
 40
0.0
 40
0.0
 40
0.2477101266
 40
0.496836802
 40
0.7477927309
 40
1.0
 40
1.0
 40
1.0
 40
1.0
 10
54.7623692494
 20
165.6551554146
 30
0.0
 10
54.7807554457
 20
165.7687031311
 30
0.0
 10
54.8597283219
 20
165.9917667104
 30
0.0
 10
55.0881267331
 20
166.2627096818
 30
0.0
 10
55.3972143242
 20
166.4398732641
 30
0.0
 10
55.6328850311
 20
166.4807470271
 30
0.0
 10
55.75
 20
166.480747049
 30
0.0
  0
SPLINE
  5
323
100
AcDbEntity
  8
RUNDUNGEN
100
AcDbSpline
 62
7
  6
CONTINUOUS
 70
0
 71
3
 72
13
 73
9
 74
0
 42
0.0000001
 43
0.0000001
 44
0.0000000001
 40
0.0
 40
0.0
 40
0.0
 40
0.0
 40
0.287153586
 40
0.5590625312
 40
0.6854887069
 40
0.8028567211
 40
0.9086495155
 40
1.0
 40
1.0
 40
1.0
 40
1.0
 10
81.6294314065
 20
158.0857614521
 30
0.0
 10
81.9578132618
 20
157.6004328589
 30
0.0
 10
82.5943422919
 20
156.6536580909
 30
0.0
 10
83.3558083285
 20
155.4799731755
 30
0.0
 10
83.9037577646
 20
154.5814192938
 30
0.0
 10
84.2582832143
 20
153.962155075
 30
0.0
 10
84.5533789162
 20
153.3920398027
 30
0.0
 10
84.7141863215
 20
153.0224345949
 30
0.0
 10
84.7770683653
 20
152.8469445144
 30
0.0
  0
SPLINE
  5
324
100
AcDbEntity
  8
RUNDUNGEN
100
AcDbSpline
 62
7
  6
CONTINUOUS
 70
0
 71
3
 72
11
 73
7
 74
0
 42
0.0000001
 43
0.0000001
 44
0.0000000001
 40
0.0
 40
0.0
 40
0.0
 40
0.0
 40
0.2477102817
 40
0.4968370016
 40
0.7477928605
 40
1.0
 40
1.0
 40
1.0
 40
1.0
 10
54.7623691841
 20
152.6260925392
 30
0.0
 10
54.7807553345
 20
152.5125446448
 30
0.0
 10
54.8597281155
 20
152.2894807299
 30
0.0
 10
55.0881264992
 20
152.0185372629
 30
0.0
 10
55.397214172
 20
151.8413733402
 30
0.0
 10
55.6328849933
 20
151.8004995131
 30
0.0
 10
55.75
 20
151.800499505
 30
0.0
  0
SPLINE
  5
325
100
AcDbEntity
  8
RUNDUNGEN
100
AcDbSpline
 62
7
  6
CONTINUOUS
 70
0
 71
3
 72
14
 73
10
 74
0
 42
0.0000001
 43
0.0000001
 44
0.0000000001
 40
0.0
 40
0.0
 40
0.0
 40
0.0
 40
0.3510682394
 40
0.4985898707
 40
0.6278129165
 40
0.7398238121
 40
0.8366405999
 40
0.9216511547
 40
1.0
 40
1.0
 40
1.0
 40
1.0
 10
84.7770683653
 20
152.8469445144
 30
0.0
 10
84.840656798
 20
152.6694821078
 30
0.0
 10
84.9418271271
 20
152.4205692068
 30
0.0
 10
85.1044534783
 20
152.1248658241
 30
0.0
 10
85.2224168024
 20
151.9521357815
 30
0.0
 10
85.3432051991
 20
151.8158105333
 30
0.0
 10
85.4669812095
 20
151.716337122
 30
0.0
 10
85.594090564
 20
151.6548925824
 30
0.0
 10
85.6822720595
 20
151.6406321601
 30
0.0
 10
85.7243425654
 20
151.6406250306
 30
0.0
  0
SPLINE
  5
326
100
AcDbEntity
  8
RUNDUNGEN
100
AcDbSpline
 62
7
  6
CONTINUOUS
 70
0
 71
3
 72
13
 73
9
 74
0
 42
0.0000001
 43
0.0000001
 44
0.0000000001
 40
0.0
 40
0.0
 40
0.0
 40
0.0
 40
0.0848876131
 40
0.1751942766
 40
0.2753215916
 40
0.3884273528
 40
0.6606086913
 40
1.0
 40
1.0
 40
1.0
 40
1.0
 10
86.6902685891
 20
165.6406250228
 30
0.0
 10
86.6483566621
 20
165.640616718
 30
0.0
 10
86.5614834181
 20
165.6285970018
 30
0.0
 10
86.4348254106
 20
165.5760677356
 30
0.0
 10
86.3108426572
 20
165.4902735137
 30
0.0
 10
86.1387053628
 20
165.3223013956
 30
0.0
 10
85.9360979658
 20
165.0237851166
 30
0.0
 10
85.8070590039
 20
164.7500798992
 30
0.0
 10
85.7430317543
 20
164.5952253645
 30
0.0
  0
SPLINE
  5
327
100
AcDbEntity
  8
RUNDUNGEN
100
AcDbSpline
 62
7
  6
CONTINUOUS
 70
0
 71
3
 72
15
 73
11
 74
0
 42
0.0000001
 43
0.0000001
 44
0.0000000001
 40
0.0
 40
0.0
 40
0.0
 40
0.0
 40
0.0402984099
 40
0.0852718066
 40
0.1876207544
 40
0.3037800196
 40
0.4306470534
 40
0.5656312238
 40
0.7066183441
 40
1.0
 40
1.0
 40
1.0
 40
1.0
 10
69.0062671438
 20
152.6089407896
 30
0.0
 10
69.0286440029
 20
152.6915559274
 30
0.0
 10
69.084753021
 20
152.8640130474
 30
0.0
 10
69.2330354534
 20
153.2340789857
 30
0.0
 10
69.4791011911
 20
153.7373930285
 30
0.0
 10
69.8355020083
 20
154.378690706
 30
0.0
 10
70.2489340469
 20
155.0670785551
 30
0.0
 10
70.7053688556
 20
155.7908170467
 30
0.0
 10
71.3654864117
 20
156.8040667637
 30
0.0
 10
71.8802281196
 20
157.5697418817
 30
0.0
 10
72.229432715
 20
158.0858291413
 30
0.0
  0
SPLINE
  5
328
100
AcDbEntity
  8
RUNDUNGEN
100
AcDbSpline
 62
7
  6
CONTINUOUS
 70
0
 71
3
 72
16
 73
12
 74
0
 42
0.0000001
 43
0.0000001
 44
0.0000000001
 40
0.0
 40
0.0
 40
0.0
 40
0.0
 40
0.1681140325
 40
0.3311830113
 40
0.4845481659
 40
0.6241964188
 40
0.7469843385
 40
0.8507718453
 40
0.895248707
 40
0.9347976359
 40
1.0
 40
1.0
 40
1.0
 40
1.0
 10
57.5014226112
 20
159.1401916129
 30
0.0
 10
57.5014262733
 20
159.572197656
 30
0.0
 10
57.4799783663
 20
160.4234113608
 30
0.0
 10
57.3842077584
 20
161.6654485715
 30
0.0
 10
57.2288603899
 20
162.8277953297
 30
0.0
 10
57.0198967053
 20
163.8765778841
 30
0.0
 10
56.7646471671
 20
164.7834895394
 30
0.0
 10
56.5091587736
 20
165.4334796714
 30
0.0
 10
56.2820568019
 20
165.8602990097
 30
0.0
 10
56.0716527978
 20
166.1805165718
 30
0.0
 10
55.8863469749
 20
166.3833329407
 30
0.0
 10
55.7500004971
 20
166.4807149554
 30
0.0
  0
SPLINE
  5
329
100
AcDbEntity
  8
RUNDUNGEN
100
AcDbSpline
 62
7
  6
CONTINUOUS
 70
0
 71
3
 72
17
 73
13
 74
0
 42
0.0000001
 43
0.0000001
 44
0.0000000001
 40
0.0
 40
0.0
 40
0.0
 40
0.0
 40
0.0305459265
 40
0.0653742571
 40
0.1049162636
 40
0.1493842764
 40
0.2531512121
 40
0.3759152081
 40
0.5155474345
 40
0.668897168
 40
0.8319343237
 40
1.0
 40
1.0
 40
1.0
 40
1.0
 10
55.7499998889
 20
151.8004926203
 30
0.0
 10
55.8138878945
 20
151.8461073816
 30
0.0
 10
55.9405760527
 20
151.9579959256
 30
0.0
 10
56.1141006126
 20
152.1652434765
 30
0.0
 10
56.2820697343
 20
152.4209860573
 30
0.0
 10
56.5090005974
 20
152.8474551566
 30
0.0
 10
56.7645874849
 20
153.4975310154
 30
0.0
 10
57.0198020507
 20
154.4042915217
 30
0.0
 10
57.2287940071
 20
155.4530364269
 30
0.0
 10
57.3841435226
 20
156.6153075022
 30
0.0
 10
57.4799331476
 20
157.8571995317
 30
0.0
 10
57.501415685
 20
158.7082748156
 30
0.0
 10
57.5014226112
 20
159.1401916129
 30
0.0
  0
SPLINE
  5
32A
100
AcDbEntity
  8
RUNDUNGEN
100
AcDbSpline
 62
7
  6
CONTINUOUS
 70
0
 71
3
 72
11
 73
7
 74
0
 42
0.0000001
 43
0.0000001
 44
0.0000000001
 40
0.0
 40
0.0
 40
0.0
 40
0.0
 40
0.2409805031
 40
0.482175785
 40
0.7333028454
 40
1.0
 40
1.0
 40
1.0
 40
1.0
 10
72.229431608
 20
155.7315341137
 30
0.0
 10
72.2294011146
 20
155.5937089663
 30
0.0
 10
72.2806685121
 20
155.3153425623
 30
0.0
 10
72.5029605826
 20
154.949449588
 30
0.0
 10
72.8515775054
 20
154.6754963656
 30
0.0
 10
73.1429175056
 20
154.5869374477
 30
0.0
 10
73.2945258229
 20
154.5701637672
 30
0.0
  0
SPLINE
  5
32B
100
AcDbEntity
  8
RUNDUNGEN
100
AcDbSpline
 62
7
  6
CONTINUOUS
 70
0
 71
3
 72
11
 73
7
 74
0
 42
0.0000001
 43
0.0000001
 44
0.0000000001
 40
0.0
 40
0.0
 40
0.0
 40
0.0
 40
0.2409805031
 40
0.482175785
 40
0.7333028454
 40
1.0
 40
1.0
 40
1.0
 40
1.0
 10
81.629431608
 20
162.5497159319
 30
0.0
 10
81.6294621013
 20
162.6875410794
 30
0.0
 10
81.5781947039
 20
162.9659074833
 30
0.0
 10
81.3559026334
 20
163.3318004577
 30
0.0
 10
81.0072857106
 20
163.6057536801
 30
0.0
 10
80.7159457104
 20
163.694312598
 30
0.0
 10
80.5643373931
 20
163.7110862784
 30
0.0
  0
SPLINE
  5
32C
100
AcDbEntity
  8
RUNDUNGEN
100
AcDbSpline
 62
7
  6
CONTINUOUS
 70
0
 71
3
 72
11
 73
7
 74
0
 42
0.0000001
 43
0.0000001
 44
0.0000000001
 40
0.0
 40
0.0
 40
0.0
 40
0.0
 40
0.2666896474
 40
0.517805779
 40
0.7590072739
 40
1.0
 40
1.0
 40
1.0
 40
1.0
 10
73.293966865
 20
163.7110234072
 30
0.0
 10
73.142419474
 20
163.6941856818
 30
0.0
 10
72.8512220514
 20
163.6055504675
 30
0.0
 10
72.5028061353
 20
163.3315951914
 30
0.0
 10
72.2806369582
 20
162.9657905291
 30
0.0
 10
72.229401191
 20
162.6875036072
 30
0.0
 10
72.229431608
 20
162.5497159319
 30
0.0
  0
SPLINE
  5
32D
100
AcDbEntity
  8
RUNDUNGEN
100
AcDbSpline
 62
7
  6
CONTINUOUS
 70
0
 71
3
 72
13
 73
9
 74
0
 42
0.0000001
 43
0.0000001
 44
0.0000000001
 40
0.0
 40
0.0
 40
0.0
 40
0.0
 40
0.0705184044
 40
0.1493412674
 40
0.2424014851
 40
0.3532543317
 40
0.634841438
 40
1.0
 40
1.0
 40
1.0
 40
1.0
 10
67.4581665036
 20
165.6406250228
 30
0.0
 10
67.4830440014
 20
165.6406136614
 30
0.0
 10
67.536049837
 20
165.6302994761
 30
0.0
 10
67.6110550863
 20
165.5870371553
 30
0.0
 10
67.6838672572
 20
165.5179292258
 30
0.0
 10
67.787078537
 20
165.3805738065
 30
0.0
 10
67.906910032
 20
165.1398006576
 30
0.0
 10
67.9829856063
 20
164.9244982461
 30
0.0
 10
68.0214115054
 20
164.8015420321
 30
0.0
  0
SPLINE
  5
32E
100
AcDbEntity
  8
RUNDUNGEN
100
AcDbSpline
 62
7
  6
CONTINUOUS
 70
0
 71
3
 72
11
 73
7
 74
0
 42
0.0000001
 43
0.0000001
 44
0.0000000001
 40
0.0
 40
0.0
 40
0.0
 40
0.0
 40
0.3311755637
 40
0.4852043646
 40
0.624759007
 40
1.0
 40
1.0
 40
1.0
 40
1.0
 10
81.629431608
 20
155.7315341127
 30
0.0
 10
81.6038479145
 20
155.7315341128
 30
0.0
 10
81.5663773743
 20
155.7283985892
 30
0.0
 10
81.5189520263
 20
155.717021388
 30
0.0
 10
81.4718439634
 20
155.7003630453
 30
0.0
 10
81.429431608
 20
155.6696128215
 30
0.0
 10
81.429431608
 20
155.6406250229
 30
0.0
  0
SPLINE
  5
32F
100
AcDbEntity
  8
RUNDUNGEN
100
AcDbSpline
 62
7
  6
CONTINUOUS
 70
0
 71
3
 72
12
 73
8
 74
0
 42
0.0000001
 43
0.0000001
 44
0.0000000001
 40
0.0
 40
0.0
 40
0.0
 40
0.0
 40
0.3725506261
 40
0.6906299059
 40
0.9062422969
 40
0.9673589261
 40
1.0
 40
1.0
 40
1.0
 40
1.0
 10
81.6294314065
 20
158.0857421707
 30
0.0
 10
81.6039419569
 20
158.085742292
 30
0.0
 10
81.5565753028
 20
158.0844456622
 30
0.0
 10
81.4951143721
 20
158.0793745738
 30
0.0
 10
81.4542257145
 20
158.0719808311
 30
0.0
 10
81.4349547567
 20
158.065008236
 30
0.0
 10
81.4294311934
 20
158.0598441947
 30
0.0
 10
81.4294316081
 20
158.0576109332
 30
0.0
  0
SPLINE
  5
330
100
AcDbEntity
  8
RUNDUNGEN
100
AcDbSpline
 62
7
  6
CONTINUOUS
 70
0
 71
3
 72
12
 73
8
 74
0
 42
0.0000001
 43
0.0000001
 44
0.0000000001
 40
0.0
 40
0.0
 40
0.0
 40
0.0
 40
0.3725503489
 40
0.6906296604
 40
0.9062425779
 40
0.9673594173
 40
1.0
 40
1.0
 40
1.0
 40
1.0
 10
81.629431608
 20
160.195505117
 30
0.0
 10
81.603942216
 20
160.195505064
 30
0.0
 10
81.5565756403
 20
160.1968017464
 30
0.0
 10
81.4951148283
 20
160.2018726203
 30
0.0
 10
81.4542260129
 20
160.2092659473
 30
0.0
 10
81.4349550829
 20
160.2162382225
 30
0.0
 10
81.4294312644
 20
160.2214019669
 30
0.0
 10
81.429431608
 20
160.2236351914
 30
0.0
  0
SPLINE
  5
331
100
AcDbEntity
  8
RUNDUNGEN
100
AcDbSpline
 62
7
  6
CONTINUOUS
 70
0
 71
3
 72
11
 73
7
 74
0
 42
0.0000001
 43
0.0000001
 44
0.0000000001
 40
0.0
 40
0.0
 40
0.0
 40
0.0
 40
0.3311763933
 40
0.4852057201
 40
0.6247605268
 40
1.0
 40
1.0
 40
1.0
 40
1.0
 10
81.629431608
 20
162.5497159324
 30
0.0
 10
81.603847877
 20
162.5497160669
 30
0.0
 10
81.5663773
 20
162.552851787
 30
0.0
 10
81.5189518977
 20
162.5642290805
 30
0.0
 10
81.471844004
 20
162.5808874724
 30
0.0
 10
81.429431608
 20
162.6116373717
 30
0.0
 10
81.429431608
 20
162.6406250228
 30
0.0
  0
SPLINE
  5
332
100
AcDbEntity
  8
RUNDUNGEN
100
AcDbSpline
 62
7
  6
CONTINUOUS
 70
0
 71
3
 72
11
 73
7
 74
0
 42
0.0000001
 43
0.0000001
 44
0.0000000001
 40
0.0
 40
0.0
 40
0.0
 40
0.0
 40
0.3311756267
 40
0.4852044841
 40
0.6247591334
 40
1.0
 40
1.0
 40
1.0
 40
1.0
 10
72.229431608
 20
162.5497159324
 30
0.0
 10
72.2550153065
 20
162.5497159324
 30
0.0
 10
72.2924858556
 20
162.5528514629
 30
0.0
 10
72.3399112142
 20
162.5642286638
 30
0.0
 10
72.3870192708
 20
162.5808870129
 30
0.0
 10
72.429431608
 20
162.6116372338
 30
0.0
 10
72.429431608
 20
162.6406250228
 30
0.0
  0
SPLINE
  5
333
100
AcDbEntity
  8
RUNDUNGEN
100
AcDbSpline
 62
7
  6
CONTINUOUS
 70
0
 71
3
 72
12
 73
8
 74
0
 42
0.0000001
 43
0.0000001
 44
0.0000000001
 40
0.0
 40
0.0
 40
0.0
 40
0.0
 40
0.3725475195
 40
0.6906246416
 40
0.9062375802
 40
0.9673558988
 40
1.0
 40
1.0
 40
1.0
 40
1.0
 10
72.2294326471
 20
160.1955135116
 30
0.0
 10
72.2549218693
 20
160.1955128899
 30
0.0
 10
72.302288138
 20
160.1968087947
 30
0.0
 10
72.3637488277
 20
160.2018801322
 30
0.0
 10
72.4046371493
 20
160.2092745348
 30
0.0
 10
72.4239084369
 20
160.2162480328
 30
0.0
 10
72.4294318855
 20
160.2214124124
 30
0.0
 10
72.429431608
 20
160.2236458798
 30
0.0
  0
SPLINE
  5
334
100
AcDbEntity
  8
RUNDUNGEN
100
AcDbSpline
 62
7
  6
CONTINUOUS
 70
0
 71
3
 72
12
 73
8
 74
0
 42
0.0000001
 43
0.0000001
 44
0.0000000001
 40
0.0
 40
0.0
 40
0.0
 40
0.0
 40
0.372548098
 40
0.6906261312
 40
0.9062395523
 40
0.9673575916
 40
1.0
 40
1.0
 40
1.0
 40
1.0
 10
72.229431608
 20
158.0857356648
 30
0.0
 10
72.2549209041
 20
158.0857355371
 30
0.0
 10
72.302287325
 20
158.0844385344
 30
0.0
 10
72.3637480726
 20
158.0793670733
 30
0.0
 10
72.4046368528
 20
158.0719733779
 30
0.0
 10
72.4239080165
 20
158.0650005029
 30
0.0
 10
72.4294318457
 20
158.0598365998
 30
0.0
 10
72.429431608
 20
158.0576032452
 30
0.0
  0
SPLINE
  5
335
100
AcDbEntity
  8
RUNDUNGEN
100
AcDbSpline
 62
7
  6
CONTINUOUS
 70
0
 71
3
 72
11
 73
7
 74
0
 42
0.0000001
 43
0.0000001
 44
0.0000000001
 40
0.0
 40
0.0
 40
0.0
 40
0.0
 40
0.3311763935
 40
0.4852057203
 40
0.6247605269
 40
1.0
 40
1.0
 40
1.0
 40
1.0
 10
72.229431608
 20
155.7315341127
 30
0.0
 10
72.255015339
 20
155.7315339782
 30
0.0
 10
72.292485916
 20
155.7283982582
 30
0.0
 10
72.3399113183
 20
155.7170209649
 30
0.0
 10
72.387019212
 20
155.7003625732
 30
0.0
 10
72.429431608
 20
155.6696126739
 30
0.0
 10
72.429431608
 20
155.6406250229
 30
0.0
  0
SPLINE
  5
336
100
AcDbEntity
  8
RUNDUNGEN
100
AcDbSpline
 62
7
  6
CONTINUOUS
 70
0
 71
3
 72
13
 73
9
 74
0
 42
0.0000001
 43
0.0000001
 44
0.0000000001
 40
0.0
 40
0.0
 40
0.0
 40
0.0
 40
0.0705182944
 40
0.1493396724
 40
0.242398516
 40
0.3532522933
 40
0.6348433683
 40
1.0
 40
1.0
 40
1.0
 40
1.0
 10
67.4581665036
 20
152.6406250228
 30
0.0
 10
67.4830446577
 20
152.6406386756
 30
0.0
 10
67.5360504933
 20
152.650953901
 30
0.0
 10
67.6110583934
 20
152.6942144041
 30
0.0
 10
67.6838725651
 20
152.7633236766
 30
0.0
 10
67.7870849831
 20
152.9006858635
 30
0.0
 10
67.9069170119
 20
153.1414681141
 30
0.0
 10
67.9829950792
 20
153.3567770827
 30
0.0
 10
68.0214222925
 20
153.4797359499
 30
0.0
  0
SPLINE
  5
337
100
AcDbEntity
  8
RUNDUNGEN
100
AcDbSpline
 62
7
  6
CONTINUOUS
 70
0
 71
3
 72
12
 73
8
 74
0
 42
0.0000001
 43
0.0000001
 44
0.0000000001
 40
0.0
 40
0.0
 40
0.0
 40
0.0
 40
0.1163739984
 40
0.2121436131
 40
0.3339435437
 40
0.6422272677
 40
1.0
 40
1.0
 40
1.0
 40
1.0
 10
73.429431608
 20
163.6406250228
 30
0.0
 10
73.4211330257
 20
163.6406250228
 30
0.0
 10
73.4090651721
 20
163.6264803509
 30
0.0
 10
73.3998362567
 20
163.6055718121
 30
0.0
 10
73.3887319748
 20
163.5692173302
 30
0.0
 10
73.3803595865
 20
163.5137171368
 30
0.0
 10
73.3779610198
 20
163.4661376502
 30
0.0
 10
73.3779610197
 20
163.4406250228
 30
0.0
  0
SPLINE
  5
338
100
AcDbEntity
  8
RUNDUNGEN
100
AcDbSpline
 62
7
  6
CONTINUOUS
 70
0
 71
3
 72
12
 73
8
 74
0
 42
0.0000001
 43
0.0000001
 44
0.0000000001
 40
0.0
 40
0.0
 40
0.0
 40
0.0
 40
0.1163722951
 40
0.2121420123
 40
0.3339424023
 40
0.6422267218
 40
1.0
 40
1.0
 40
1.0
 40
1.0
 10
80.429431608
 20
163.6406250228
 30
0.0
 10
80.4377300493
 20
163.6406250228
 30
0.0
 10
80.4497974802
 20
163.6264800776
 30
0.0
 10
80.4590262331
 20
163.6055717097
 30
0.0
 10
80.4701304162
 20
163.5692171663
 30
0.0
 10
80.4785030325
 20
163.5137170732
 30
0.0
 10
80.4809019356
 20
163.4661376292
 30
0.0
 10
80.4809021961
 20
163.4406250228
 30
0.0
  0
SPLINE
  5
339
100
AcDbEntity
  8
RUNDUNGEN
100
AcDbSpline
 62
7
  6
CONTINUOUS
 70
0
 71
3
 72
11
 73
7
 74
0
 42
0.0000001
 43
0.0000001
 44
0.0000000001
 40
0.0
 40
0.0
 40
0.0
 40
0.0
 40
0.2834921165
 40
0.5428343784
 40
0.7794325513
 40
1.0
 40
1.0
 40
1.0
 40
1.0
 10
244.1867804925
 20
153.4797247701
 30
0.0
 10
244.7213510066
 20
153.7211051036
 30
0.0
 10
245.703008034
 20
154.2867650748
 30
0.0
 10
246.9031946775
 20
155.3835337917
 30
0.0
 10
247.7477311057
 20
156.6181025034
 30
0.0
 10
248.0809906602
 20
157.5155401184
 30
0.0
 10
248.1836513937
 20
157.9601935466
 30
0.0
  0
SPLINE
  5
33A
100
AcDbEntity
  8
RUNDUNGEN
100
AcDbSpline
 62
7
  6
CONTINUOUS
 70
0
 71
3
 72
11
 73
7
 74
0
 42
0.0000001
 43
0.0000001
 44
0.0000000001
 40
0.0
 40
0.0
 40
0.0
 40
0.0
 40
0.2834781168
 40
0.5428208301
 40
0.7794269763
 40
1.0
 40
1.0
 40
1.0
 40
1.0
 10
244.1867193153
 20
164.801556456
 30
0.0
 10
244.721028306
 20
164.5602774472
 30
0.0
 10
245.7022701597
 20
163.9949520163
 30
0.0
 10
246.9021126569
 20
162.8988727494
 30
0.0
 10
247.7466635012
 20
161.665073992
 30
0.0
 10
248.0801850818
 20
160.7681550647
 30
0.0
 10
248.1830349078
 20
160.3237340257
 30
0.0
  0
SPLINE
  5
33B
100
AcDbEntity
  8
RUNDUNGEN
100
AcDbSpline
 62
7
  6
CONTINUOUS
 70
0
 71
3
 72
22
 73
18
 74
0
 42
0.0000001
 43
0.0000001
 44
0.0000000001
 40
0.0
 40
0.0
 40
0.0
 40
0.0
 40
0.0016637553
 40
0.0066078553
 40
0.0147241526
 40
0.0259045471
 40
0.0400336941
 40
0.0569427454
 40
0.0983303156
 40
0.1485405278
 40
0.2062333442
 40
0.2702147358
 40
0.3393714434
 40
0.4901165886
 40
0.6531041795
 40
0.8244223259
 40
1.0
 40
1.0
 40
1.0
 40
1.0
 10
246.9179454204
 20
163.6406250124
 30
0.0
 10
246.9172730583
 20
163.6407648265
 30
0.0
 10
246.9218773765
 20
163.6371986446
 30
0.0
 10
246.9233762205
 20
163.6342339453
 30
0.0
 10
246.9316316013
 20
163.6260392833
 30
0.0
 10
246.9403244513
 20
163.6162378358
 30
0.0
 10
246.9523192417
 20
163.603234904
 30
0.0
 10
246.9723065067
 20
163.5811659038
 30
0.0
 10
247.0022990158
 20
163.547801272
 30
0.0
 10
247.0430473453
 20
163.5016141407
 30
0.0
 10
247.0894741117
 20
163.4479499899
 30
0.0
 10
247.1403335049
 20
163.3878026991
 30
0.0
 10
247.2148442147
 20
163.2973608466
 30
0.0
 10
247.3128094693
 20
163.1733119541
 30
0.0
 10
247.4320578596
 20
163.0124423389
 30
0.0
 10
247.5517981328
 20
162.839314784
 30
0.0
 10
247.6291566354
 20
162.7187804172
 30
0.0
 10
247.6671983855
 20
162.6570945904
 30
0.0
  0
SPLINE
  5
33C
100
AcDbEntity
  8
RUNDUNGEN
100
AcDbSpline
 62
7
  6
CONTINUOUS
 70
0
 71
3
 72
11
 73
7
 74
0
 42
0.0000001
 43
0.0000001
 44
0.0000000001
 40
0.0
 40
0.0
 40
0.0
 40
0.0
 40
0.2457826383
 40
0.4943999571
 40
0.7463190008
 40
1.0
 40
1.0
 40
1.0
 40
1.0
 10
256.4606676683
 20
154.6406250228
 30
0.0
 10
256.4858084698
 20
154.6406250228
 30
0.0
 10
256.5369056905
 20
154.6512829654
 30
0.0
 10
256.6013202259
 20
154.6958487809
 30
0.0
 10
256.6438687426
 20
154.7624705823
 30
0.0
 10
256.653931234
 20
154.8146763077
 30
0.0
 10
256.6539311634
 20
154.8406250228
 30
0.0
  0
SPLINE
  5
33D
100
AcDbEntity
  8
RUNDUNGEN
100
AcDbSpline
 62
7
  6
CONTINUOUS
 70
0
 71
3
 72
16
 73
12
 74
0
 42
0.0000001
 43
0.0000001
 44
0.0000000001
 40
0.0
 40
0.0
 40
0.0
 40
0.0
 40
0.1861683543
 40
0.3651814749
 40
0.5300904714
 40
0.6753360427
 40
0.7963705186
 40
0.8902326982
 40
0.9267126024
 40
0.9565060309
 40
1.0
 40
1.0
 40
1.0
 40
1.0
 10
256.2210753718
 20
162.640625023
 30
0.0
 10
256.2210807527
 20
162.7065191048
 30
0.0
 10
256.224478215
 20
162.8358006279
 30
0.0
 10
256.2394030153
 20
163.0229247498
 30
0.0
 10
256.2631234406
 20
163.1945348462
 30
0.0
 10
256.2938858343
 20
163.3441756385
 30
0.0
 10
256.3299594733
 20
163.4665925363
 30
0.0
 10
256.3645588607
 20
163.5489435957
 30
0.0
 10
256.3951804552
 20
163.5970488376
 30
0.0
 10
256.4202894515
 20
163.6262473113
 30
0.0
 10
256.4452730266
 20
163.6406221323
 30
0.0
 10
256.4606676683
 20
163.6406250228
 30
0.0
  0
SPLINE
  5
33E
100
AcDbEntity
  8
RUNDUNGEN
100
AcDbSpline
 62
7
  6
CONTINUOUS
 70
0
 71
3
 72
9
 73
5
 74
0
 42
0.0000001
 43
0.0000001
 44
0.0000000001
 40
0.0
 40
0.0
 40
0.0
 40
0.0
 40
0.2489606709
 40
1.0
 40
1.0
 40
1.0
 40
1.0
 10
201.2301139714
 20
166.6367454615
 30
0.0
 10
201.341922778
 20
166.63463953
 30
0.0
 10
201.7909581949
 20
166.6227576217
 30
0.0
 10
202.2396037649
 20
166.5973965317
 30
0.0
 10
202.5759952419
 20
166.5719401756
 30
0.0
  0
SPLINE
  5
33F
100
AcDbEntity
  8
RUNDUNGEN
100
AcDbSpline
 62
7
  6
CONTINUOUS
 70
0
 71
3
 72
11
 73
7
 74
0
 42
0.0000001
 43
0.0000001
 44
0.0000000001
 40
0.0
 40
0.0
 40
0.0
 40
0.0
 40
0.2219591869
 40
0.457636105
 40
0.715681209
 40
1.0
 40
1.0
 40
1.0
 40
1.0
 10
202.5759952419
 20
166.5719401756
 30
0.0
 10
203.1740320736
 20
166.5266838608
 30
0.0
 10
204.4037703672
 20
166.3912086229
 30
0.0
 10
206.3187503768
 20
166.1227629247
 30
0.0
 10
208.4037740614
 20
165.8524052993
 30
0.0
 10
209.8622684567
 20
165.7064892
 30
0.0
 10
210.6276853045
 20
165.6406173961
 30
0.0
  0
SPLINE
  5
340
100
AcDbEntity
  8
RUNDUNGEN
100
AcDbSpline
 62
7
  6
CONTINUOUS
 70
0
 71
3
 72
11
 73
7
 74
0
 42
0.0000001
 43
0.0000001
 44
0.0000000001
 40
0.0
 40
0.0
 40
0.0
 40
0.0
 40
0.2218550362
 40
0.4571159033
 40
0.7149927475
 40
1.0
 40
1.0
 40
1.0
 40
1.0
 10
202.3664236698
 20
151.6942896296
 30
0.0
 10
202.9800204116
 20
151.7357815716
 30
0.0
 10
204.2410375893
 20
151.8680523259
 30
0.0
 10
206.2038454568
 20
152.142513536
 30
0.0
 10
208.342844068
 20
152.4224295962
 30
0.0
 10
209.8405251239
 20
152.5728626072
 30
0.0
 10
210.627673549
 20
152.6406333985
 30
0.0
  0
SPLINE
  5
341
100
AcDbEntity
  8
RUNDUNGEN
100
AcDbSpline
 62
7
  6
CONTINUOUS
 70
0
 71
3
 72
22
 73
18
 74
0
 42
0.0000001
 43
0.0000001
 44
0.0000000001
 40
0.0
 40
0.0
 40
0.0
 40
0.0
 40
0.1755750578
 40
0.3468877568
 40
0.5098741619
 40
0.6606201946
 40
0.7297794712
 40
0.7937641279
 40
0.8514586248
 40
0.9016696173
 40
0.9430579078
 40
0.9599673826
 40
0.9740969974
 40
0.9852773383
 40
0.9933930885
 40
0.9983365554
 40
1.0
 40
1.0
 40
1.0
 40
1.0
 10
247.6672094736
 20
155.6241734274
 30
0.0
 10
247.6291678901
 20
155.5624873127
 30
0.0
 10
247.5518105001
 20
155.4419532794
 30
0.0
 10
247.4320709218
 20
155.268825519
 30
0.0
 10
247.3128226269
 20
155.1079545187
 30
0.0
 10
247.2148547704
 20
154.9839030404
 30
0.0
 10
247.1403410021
 20
154.8934575231
 30
0.0
 10
247.0894790406
 20
154.8333065841
 30
0.0
 10
247.0430506511
 20
154.7796391098
 30
0.0
 10
247.0023010363
 20
154.7334499572
 30
0.0
 10
246.9723071453
 20
154.7000844615
 30
0.0
 10
246.9523187937
 20
154.6780148733
 30
0.0
 10
246.9403233594
 20
154.6650116285
 30
0.0
 10
246.9316303998
 20
154.6552100717
 30
0.0
 10
246.9233753673
 20
154.6470156353
 30
0.0
 10
246.9218767308
 20
154.6440510029
 30
0.0
 10
246.9172731256
 20
154.6404853063
 30
0.0
 10
246.9179453868
 20
154.6406250333
 30
0.0
  0
SPLINE
  5
342
100
AcDbEntity
  8
RUNDUNGEN
100
AcDbSpline
 62
7
  6
CONTINUOUS
 70
0
 71
3
 72
16
 73
12
 74
0
 42
0.0000001
 43
0.0000001
 44
0.0000000001
 40
0.0
 40
0.0
 40
0.0
 40
0.0
 40
0.0434939921
 40
0.0732874257
 40
0.1097673455
 40
0.2036295964
 40
0.3246641209
 40
0.4699095471
 40
0.6348190506
 40
0.8138321678
 40
1.0
 40
1.0
 40
1.0
 40
1.0
 10
256.4606676683
 20
154.6406250228
 30
0.0
 10
256.4452730186
 20
154.6406279327
 30
0.0
 10
256.4202894439
 20
154.6550027527
 30
0.0
 10
256.3951804261
 20
154.6842012321
 30
0.0
 10
256.3645588301
 20
154.7323065113
 30
0.0
 10
256.329959459
 20
154.8146576286
 30
0.0
 10
256.2938858085
 20
154.9370745065
 30
0.0
 10
256.2631232264
 20
155.0867154139
 30
0.0
 10
256.2394032212
 20
155.2583256989
 30
0.0
 10
256.2244782976
 20
155.4454497869
 30
0.0
 10
256.221080642
 20
155.5747311263
 30
0.0
 10
256.2210753718
 20
155.6406250226
 30
0.0
  0
SPLINE
  5
343
100
AcDbEntity
  8
RUNDUNGEN
100
AcDbSpline
 62
7
  6
CONTINUOUS
 70
0
 71
3
 72
13
 73
9
 74
0
 42
0.0000001
 43
0.0000001
 44
0.0000000001
 40
0.0
 40
0.0
 40
0.0
 40
0.0
 40
0.3612561079
 40
0.5238805398
 40
0.6669990107
 40
0.7868669835
 40
0.8815944414
 40
1.0
 40
1.0
 40
1.0
 40
1.0
 10
256.4108154508
 20
162.6406250228
 30
0.0
 10
256.4108215466
 20
162.7453968882
 30
0.0
 10
256.4205404621
 20
162.8976399452
 30
0.0
 10
256.4545090155
 20
163.0883750672
 30
0.0
 10
256.48586838
 20
163.207564256
 30
0.0
 10
256.5234509074
 20
163.3057043317
 30
0.0
 10
256.5674845549
 20
163.3881055037
 30
0.0
 10
256.6195910633
 20
163.4406167104
 30
0.0
 10
256.6539311634
 20
163.4406250228
 30
0.0
  0
SPLINE
  5
344
100
AcDbEntity
  8
RUNDUNGEN
100
AcDbSpline
 62
7
  6
CONTINUOUS
 70
0
 71
3
 72
11
 73
7
 74
0
 42
0.0000001
 43
0.0000001
 44
0.0000000001
 40
0.0
 40
0.0
 40
0.0
 40
0.0
 40
0.2457819719
 40
0.4943989179
 40
0.7463184375
 40
1.0
 40
1.0
 40
1.0
 40
1.0
 10
256.4606676683
 20
163.6406250228
 30
0.0
 10
256.48580839
 20
163.6406250228
 30
0.0
 10
256.5369054827
 20
163.6299671258
 30
0.0
 10
256.6013199348
 20
163.5854013474
 30
0.0
 10
256.6438684633
 20
163.5187795428
 30
0.0
 10
256.6539311634
 20
163.4665737835
 30
0.0
 10
256.6539311634
 20
163.4406250228
 30
0.0
  0
SPLINE
  5
345
100
AcDbEntity
  8
RUNDUNGEN
100
AcDbSpline
 62
7
  6
CONTINUOUS
 70
0
 71
3
 72
13
 73
9
 74
0
 42
0.0000001
 43
0.0000001
 44
0.0000000001
 40
0.0
 40
0.0
 40
0.0
 40
0.0
 40
0.1184055882
 40
0.2131331334
 40
0.3330011344
 40
0.476119394
 40
0.6387444055
 40
1.0
 40
1.0
 40
1.0
 40
1.0
 10
256.6539311634
 20
154.8406250228
 30
0.0
 10
256.6195910549
 20
154.8406334097
 30
0.0
 10
256.5674845016
 20
154.893144528
 30
0.0
 10
256.5234508942
 20
154.9755458077
 30
0.0
 10
256.4858683922
 20
155.0736858416
 30
0.0
 10
256.4545088376
 20
155.1928751114
 30
0.0
 10
256.4205407662
 20
155.3836102711
 30
0.0
 10
256.4108214016
 20
155.5358533066
 30
0.0
 10
256.4108154508
 20
155.6406250228
 30
0.0
  0
SPLINE
  5
346
100
AcDbEntity
  8
RUNDUNGEN
100
AcDbSpline
 62
7
  6
CONTINUOUS
 70
0
 71
3
 72
15
 73
11
 74
0
 42
0.0000001
 43
0.0000001
 44
0.0000000001
 40
0.0
 40
0.0
 40
0.0
 40
0.0
 40
0.3687292272
 40
0.535877882
 40
0.6832168293
 40
0.805637672
 40
0.8991836975
 40
0.934579465
 40
0.9625125057
 40
1.0
 40
1.0
 40
1.0
 40
1.0
 10
210.6275751216
 20
152.6406230738
 30
0.0
 10
210.6275751735
 20
152.512971531
 30
0.0
 10
210.6217133088
 20
152.3273324677
 30
0.0
 10
210.6003638608
 20
152.091718153
 30
0.0
 10
210.5796550949
 20
151.9418132724
 30
0.0
 10
210.554469963
 20
151.8184611415
 30
0.0
 10
210.5295667026
 20
151.7349335568
 30
0.0
 10
210.5061251635
 20
151.6854543952
 30
0.0
 10
210.487603815
 20
151.6566465645
 30
0.0
 10
210.4669066199
 20
151.6406252778
 30
0.0
 10
210.4539287051
 20
151.6406250228
 30
0.0
  0
SPLINE
  5
347
100
AcDbEntity
  8
RUNDUNGEN
100
AcDbSpline
 62
7
  6
CONTINUOUS
 70
0
 71
3
 72
15
 73
11
 74
0
 42
0.0000001
 43
0.0000001
 44
0.0000000001
 40
0.0
 40
0.0
 40
0.0
 40
0.0
 40
0.0347591176
 40
0.0615856564
 40
0.0959647061
 40
0.1876929653
 40
0.3087129156
 40
0.4554720758
 40
0.6233821187
 40
1.0
 40
1.0
 40
1.0
 40
1.0
 10
244.5048098256
 20
165.6722938676
 30
0.0
 10
244.5143493231
 20
165.6669095164
 30
0.0
 10
244.5220711198
 20
165.6455238582
 30
0.0
 10
244.5227053606
 20
165.61601071
 30
0.0
 10
244.5178829944
 20
165.5676097784
 30
0.0
 10
244.4991368988
 20
165.4919770351
 30
0.0
 10
244.4631199946
 20
165.3844311052
 30
0.0
 10
244.4119873734
 20
165.2569548052
 30
0.0
 10
244.3225103327
 20
165.0582738273
 30
0.0
 10
244.2439719541
 20
164.9055332249
 30
0.0
 10
244.1869885134
 20
164.8014180255
 30
0.0
  0
SPLINE
  5
348
100
AcDbEntity
  8
RUNDUNGEN
100
AcDbSpline
 62
7
  6
CONTINUOUS
 70
0
 71
3
 72
15
 73
11
 74
0
 42
0.0000001
 43
0.0000001
 44
0.0000000001
 40
0.0
 40
0.0
 40
0.0
 40
0.0
 40
0.0374873734
 40
0.0654202878
 40
0.1008159387
 40
0.1943618085
 40
0.316782618
 40
0.4641216406
 40
0.6312704436
 40
1.0
 40
1.0
 40
1.0
 40
1.0
 10
240.81875
 20
166.6406250228
 30
0.0
 10
240.8317279083
 20
166.6406250228
 30
0.0
 10
240.8524254039
 20
166.6246040565
 30
0.0
 10
240.8709469022
 20
166.5957963482
 30
0.0
 10
240.8943886764
 20
166.5463172866
 30
0.0
 10
240.9192921579
 20
166.462789617
 30
0.0
 10
240.9444775366
 20
166.3394372295
 30
0.0
 10
240.9651865159
 20
166.1895318928
 30
0.0
 10
240.9865362118
 20
165.9539167613
 30
0.0
 10
240.9923981845
 20
165.7682770275
 30
0.0
 10
240.9923981777
 20
165.6406250228
 30
0.0
  0
SPLINE
  5
349
100
AcDbEntity
  8
RUNDUNGEN
100
AcDbSpline
 62
7
  6
CONTINUOUS
 70
0
 71
3
 72
15
 73
11
 74
0
 42
0.0000001
 43
0.0000001
 44
0.0000000001
 40
0.0
 40
0.0
 40
0.0
 40
0.0
 40
0.0374872641
 40
0.0654201488
 40
0.1008157759
 40
0.1943616041
 40
0.3167823791
 40
0.4641213843
 40
0.6312702072
 40
1.0
 40
1.0
 40
1.0
 40
1.0
 10
210.4539376013
 20
166.6406250228
 30
0.0
 10
210.4669154332
 20
166.6406249909
 30
0.0
 10
210.4876127568
 20
166.6246040059
 30
0.0
 10
210.50613409
 20
166.5957963889
 30
0.0
 10
210.5295756755
 20
166.5463174518
 30
0.0
 10
210.5544789489
 20
166.4627900322
 30
0.0
 10
210.579664111
 20
166.3394380141
 30
0.0
 10
210.6003728973
 20
166.1895331168
 30
0.0
 10
210.6217223691
 20
165.9539185873
 30
0.0
 10
210.6275842215
 20
165.7682793137
 30
0.0
 10
210.6275841526
 20
165.6406276063
 30
0.0
  0
SPLINE
  5
34A
100
AcDbEntity
  8
RUNDUNGEN
100
AcDbSpline
 62
7
  6
CONTINUOUS
 70
0
 71
3
 72
15
 73
11
 74
0
 42
0.0000001
 43
0.0000001
 44
0.0000000001
 40
0.0
 40
0.0
 40
0.0
 40
0.0
 40
0.3766182732
 40
0.5445285394
 40
0.6912878234
 40
0.8123077409
 40
0.9040357851
 40
0.938414671
 40
0.9652410325
 40
1.0
 40
1.0
 40
1.0
 40
1.0
 10
244.186989713
 20
153.4798320205
 30
0.0
 10
244.2439740583
 20
153.3757159556
 30
0.0
 10
244.3225136151
 20
153.2229739916
 30
0.0
 10
244.4119918357
 20
153.0242911349
 30
0.0
 10
244.4631250338
 20
152.8968136201
 30
0.0
 10
244.499142183
 20
152.7892667393
 30
0.0
 10
244.5178882757
 20
152.7136333852
 30
0.0
 10
244.5227103655
 20
152.6652321638
 30
0.0
 10
244.5220759031
 20
152.6357188933
 30
0.0
 10
244.514353481
 20
152.6143332685
 30
0.0
 10
244.5048137736
 20
152.6089491844
 30
0.0
  0
SPLINE
  5
34B
100
AcDbEntity
  8
RUNDUNGEN
100
AcDbSpline
 62
7
  6
CONTINUOUS
 70
0
 71
3
 72
15
 73
11
 74
0
 42
0.0000001
 43
0.0000001
 44
0.0000000001
 40
0.0
 40
0.0
 40
0.0
 40
0.0
 40
0.368729549
 40
0.5358783506
 40
0.6832173739
 40
0.8056381844
 40
0.8991840562
 40
0.9345797081
 40
0.9625126237
 40
1.0
 40
1.0
 40
1.0
 40
1.0
 10
240.9923981777
 20
152.6406250228
 30
0.0
 10
240.9923981866
 20
152.5129730203
 30
0.0
 10
240.9865362162
 20
152.3273332886
 30
0.0
 10
240.9651865227
 20
152.0917181589
 30
0.0
 10
240.944477544
 20
151.9418128214
 30
0.0
 10
240.9192921647
 20
151.8184604323
 30
0.0
 10
240.8943886822
 20
151.7349327611
 30
0.0
 10
240.8709469062
 20
151.6854536986
 30
0.0
 10
240.8524254057
 20
151.6566459893
 30
0.0
 10
240.8317279084
 20
151.6406250228
 30
0.0
 10
240.818749999
 20
151.6406250228
 30
0.0
  0
SPLINE
  5
34C
100
AcDbEntity
  8
RUNDUNGEN
100
AcDbSpline
 62
7
  6
CONTINUOUS
 70
0
 71
3
 72
13
 73
9
 74
0
 42
0.0000001
 43
0.0000001
 44
0.0000000001
 40
0.0
 40
0.0
 40
0.0
 40
0.0
 40
0.2500967348
 40
0.5000307214
 40
0.6250530159
 40
0.7500563233
 40
0.875033287
 40
1.0
 40
1.0
 40
1.0
 40
1.0
 10
55.7500087466
 20
96.5119839476
 30
0.0
 10
56.5570037916
 20
95.9025348561
 30
0.0
 10
58.1617172095
 20
94.6721939133
 30
0.0
 10
60.015346982
 20
92.939442478
 30
0.0
 10
61.2894220348
 20
91.3652495321
 30
0.0
 10
62.1036455466
 20
90.0811664772
 30
0.0
 10
62.7338276626
 20
88.6964737556
 30
0.0
 10
63.00107662
 20
87.7155631945
 30
0.0
 10
63.0888381325
 20
87.2179373987
 30
0.0
  0
SPLINE
  5
34D
100
AcDbEntity
  8
RUNDUNGEN
100
AcDbSpline
 62
7
  6
CONTINUOUS
 70
0
 71
3
 72
14
 73
10
 74
0
 42
0.0000001
 43
0.0000001
 44
0.0000000001
 40
0.0
 40
0.0
 40
0.0
 40
0.0
 40
0.250781648
 40
0.3758629961
 40
0.5007476078
 40
0.6255184284
 40
0.7502736371
 40
0.8750843605
 40
1.0
 40
1.0
 40
1.0
 40
1.0
 10
55.6969728593
 20
96.4417610286
 30
0.0
 10
56.3687012396
 20
95.7496216431
 30
0.0
 10
57.3732466941
 20
94.7097523198
 30
0.0
 10
58.6614206821
 20
93.2776940437
 30
0.0
 10
59.5813945217
 20
92.1674931558
 30
0.0
 10
60.4305010948
 20
91.0029040549
 30
0.0
 10
61.1735131643
 20
89.7666612213
 30
0.0
 10
61.7645874375
 20
88.4488814787
 30
0.0
 10
62.0206194942
 20
87.5173169468
 30
0.0
 10
62.1040474933
 20
87.0441896955
 30
0.0
  0
LINE
  5
34E
100
AcDbEntity
  8
RUNDUNGEN
100
AcDbLine
 62
7
  6
CONTINUOUS
 10
55.7500093053
 20
95.3126143319
 11
55.6969728593
 21
96.4417610286
  0
LINE
  5
34F
100
AcDbEntity
  8
RUNDUNGEN
100
AcDbLine
 62
7
  6
CONTINUOUS
 10
62.4669462203
 20
116.8531003935
 11
63.6131169301
 21
109.352801623
  0
SPLINE
  5
350
100
AcDbEntity
  8
RUNDUNGEN
100
AcDbSpline
 62
7
  6
CONTINUOUS
 70
0
 71
3
 72
16
 73
12
 74
0
 42
0.0000001
 43
0.0000001
 44
0.0000000001
 40
0.0
 40
0.0
 40
0.0
 40
0.0
 40
0.0422510338
 40
0.0715847584
 40
0.107859807
 40
0.2020208131
 40
0.323994018
 40
0.470134162
 40
0.63554909
 40
0.8145400774
 40
1.0
 40
1.0
 40
1.0
 40
1.0
 10
54.75
 20
95.5181776533
 30
0.0
 10
54.7500000001
 20
95.5033721127
 30
0.0
 10
54.7648782507
 20
95.4793892999
 30
0.0
 10
54.7945421543
 20
95.4565835489
 30
0.0
 10
54.843702835
 20
95.4290418272
 30
0.0
 10
54.9273603848
 20
95.399348784
 30
0.0
 10
55.0508816938
 20
95.3695468806
 30
0.0
 10
55.2009193923
 20
95.3450044475
 30
0.0
 10
55.3718986201
 20
95.3266441063
 30
0.0
 10
55.5572865529
 20
95.3153545133
 30
0.0
 10
55.6850114262
 20
95.3127974962
 30
0.0
 10
55.75
 20
95.3127975542
 30
0.0
  0
LINE
  5
351
100
AcDbEntity
  8
RUNDUNGEN
100
AcDbLine
 62
7
  6
CONTINUOUS
 10
102.8976805907
 20
109.3531250003
 11
100.3519865643
 21
101.8531249888
  0
SPLINE
  5
352
100
AcDbEntity
  8
RUNDUNGEN
100
AcDbSpline
 62
7
  6
CONTINUOUS
 70
0
 71
3
 72
8
 73
4
 74
0
 42
0.0000001
 43
0.0000001
 44
0.0000000001
 40
0.0
 40
0.0
 40
0.0
 40
0.0
 40
1.0
 40
1.0
 40
1.0
 40
1.0
 10
72.2294326471
 20
49.4276815603
 30
0.0
 10
72.2639198133
 20
49.4276812598
 30
0.0
 10
72.2994586096
 20
49.4182038334
 30
0.0
 10
72.3294347119
 20
49.4011510351
 30
0.0
  0
SPLINE
  5
353
100
AcDbEntity
  8
RUNDUNGEN
100
AcDbSpline
 62
7
  6
CONTINUOUS
 70
0
 71
3
 72
9
 73
5
 74
0
 42
0.0000001
 43
0.0000001
 44
0.0000000001
 40
0.0
 40
0.0
 40
0.0
 40
0.0
 40
0.5010865525
 40
1.0
 40
1.0
 40
1.0
 40
1.0
 10
72.3294347119
 20
49.4011510351
 30
0.0
 10
72.3592812079
 20
49.3841719671
 30
0.0
 10
72.4107678573
 20
49.3335928344
 30
0.0
 10
72.4294322116
 20
49.2638556286
 30
0.0
 10
72.429431608
 20
49.2296664896
 30
0.0
  0
SPLINE
  5
354
100
AcDbEntity
  8
RUNDUNGEN
100
AcDbSpline
 62
7
  6
CONTINUOUS
 70
0
 71
3
 72
13
 73
9
 74
0
 42
0.0000001
 43
0.0000001
 44
0.0000000001
 40
0.0
 40
0.0
 40
0.0
 40
0.0
 40
0.2524765812
 40
0.5034283088
 40
0.6281184099
 40
0.7523361909
 40
0.8762291222
 40
1.0
 40
1.0
 40
1.0
 40
1.0
 10
102.8978383593
 20
109.353589859
 30
0.0
 10
102.5302829649
 20
108.8423702145
 30
0.0
 10
101.7973108216
 20
107.8231501245
 30
0.0
 10
100.9086556268
 20
106.5325942549
 30
0.0
 10
100.2476811391
 20
105.4753727971
 30
0.0
 10
99.7918875136
 20
104.6644410635
 30
0.0
 10
99.3947324469
 20
103.8253876147
 30
0.0
 10
99.1891514868
 20
103.2407728739
 30
0.0
 10
99.1092650296
 20
102.9426248026
 30
0.0
  0
SPLINE
  5
355
100
AcDbEntity
  8
RUNDUNGEN
100
AcDbSpline
 62
7
  6
CONTINUOUS
 70
0
 71
3
 72
10
 73
6
 74
0
 42
0.0000001
 43
0.0000001
 44
0.0000000001
 40
0.0
 40
0.0
 40
0.0
 40
0.0
 40
0.5148170015
 40
0.761723411
 40
1.0
 40
1.0
 40
1.0
 40
1.0
 10
72.229431608
 20
50.172698429
 30
0.0
 10
72.2796820023
 20
50.172698429
 30
0.0
 10
72.3581933934
 20
50.1453847924
 30
0.0
 10
72.4183375088
 20
50.0657243415
 30
0.0
 10
72.429431608
 20
50.0178114847
 30
0.0
 10
72.429431608
 20
49.9945537202
 30
0.0
  0
SPLINE
  5
356
100
AcDbEntity
  8
RUNDUNGEN
100
AcDbSpline
 62
7
  6
CONTINUOUS
 70
0
 71
3
 72
10
 73
6
 74
0
 42
0.0000001
 43
0.0000001
 44
0.0000000001
 40
0.0
 40
0.0
 40
0.0
 40
0.0
 40
0.5148169745
 40
0.7617231632
 40
1.0
 40
1.0
 40
1.0
 40
1.0
 10
81.629431608
 20
50.172698429
 30
0.0
 10
81.5791811941
 20
50.1726985639
 30
0.0
 10
81.5006697008
 20
50.1453849679
 30
0.0
 10
81.440525632
 20
50.0657244111
 30
0.0
 10
81.429431608
 20
50.0178115191
 30
0.0
 10
81.429431608
 20
49.9945537202
 30
0.0
  0
SPLINE
  5
357
100
AcDbEntity
  8
RUNDUNGEN
100
AcDbSpline
 62
7
  6
CONTINUOUS
 70
0
 71
3
 72
8
 73
4
 74
0
 42
0.0000001
 43
0.0000001
 44
0.0000000001
 40
0.0
 40
0.0
 40
0.0
 40
0.0
 40
1.0
 40
1.0
 40
1.0
 40
1.0
 10
81.629431608
 20
49.4276803677
 30
0.0
 10
81.5949451549
 20
49.4276803575
 30
0.0
 10
81.5594070375
 20
49.4182035789
 30
0.0
 10
81.5294312912
 20
49.401151597
 30
0.0
  0
SPLINE
  5
358
100
AcDbEntity
  8
RUNDUNGEN
100
AcDbSpline
 62
7
  6
CONTINUOUS
 70
0
 71
3
 72
9
 73
5
 74
0
 42
0.0000001
 43
0.0000001
 44
0.0000000001
 40
0.0
 40
0.0
 40
0.0
 40
0.0
 40
0.5010860953
 40
1.0
 40
1.0
 40
1.0
 40
1.0
 10
81.5294312912
 20
49.401151597
 30
0.0
 10
81.4995839311
 20
49.3841726489
 30
0.0
 10
81.4480956328
 20
49.3335928119
 30
0.0
 10
81.4294308606
 20
49.2638540201
 30
0.0
 10
81.429431608
 20
49.2296641298
 30
0.0
  0
SPLINE
  5
359
100
AcDbEntity
  8
RUNDUNGEN
100
AcDbSpline
 62
7
  6
CONTINUOUS
 70
0
 71
3
 72
12
 73
8
 74
0
 42
0.0000001
 43
0.0000001
 44
0.0000000001
 40
0.0
 40
0.0
 40
0.0
 40
0.0
 40
0.1835228881
 40
0.2915407689
 40
0.4113444702
 40
0.6859390991
 40
1.0
 40
1.0
 40
1.0
 40
1.0
 10
81.4294316027
 20
49.9946194911
 30
0.0
 10
81.4294385078
 20
50.0778157449
 30
0.0
 10
81.38501371
 20
50.2097943814
 30
0.0
 10
81.2789897628
 20
50.3631219603
 30
0.0
 10
81.1194415443
 20
50.5273137267
 30
0.0
 10
80.8412556653
 20
50.699082011
 30
0.0
 10
80.5719493501
 20
50.7539781626
 30
0.0
 10
80.4295764326
 20
50.7539296132
 30
0.0
  0
SPLINE
  5
35A
100
AcDbEntity
  8
RUNDUNGEN
100
AcDbSpline
 62
7
  6
CONTINUOUS
 70
0
 71
3
 72
16
 73
12
 74
0
 42
0.0000001
 43
0.0000001
 44
0.0000000001
 40
0.0
 40
0.0
 40
0.0
 40
0.0
 40
0.4219071404
 40
0.5940918242
 40
0.7377934623
 40
0.8514554828
 40
0.9335988415
 40
0.9625367009
 40
0.98329388
 40
0.9958038299
 40
1.0
 40
1.0
 40
1.0
 40
1.0
 10
81.1430409019
 20
41.3766883483
 30
0.0
 10
81.1833932784
 20
41.3868157525
 30
0.0
 10
81.2401716277
 20
41.4012500736
 30
0.0
 10
81.3105981099
 20
41.4194919932
 30
0.0
 10
81.3515900118
 20
41.4301807409
 30
0.0
 10
81.3839376555
 20
41.4387557909
 30
0.0
 10
81.4054170084
 20
41.444328099
 30
0.0
 10
81.4179053724
 20
41.4478036191
 30
0.0
 10
81.4239588865
 20
41.4491549905
 30
0.0
 10
81.427304093
 20
41.4505114099
 30
0.0
 10
81.4291283844
 20
41.4505180801
 30
0.0
 10
81.429431608
 20
41.4507996282
 30
0.0
  0
SPLINE
  5
35B
100
AcDbEntity
  8
RUNDUNGEN
100
AcDbSpline
 62
7
  6
CONTINUOUS
 70
0
 71
3
 72
12
 73
8
 74
0
 42
0.0000001
 43
0.0000001
 44
0.0000000001
 40
0.0
 40
0.0
 40
0.0
 40
0.0
 40
0.3140626253
 40
0.5886492506
 40
0.7084535209
 40
0.8164731401
 40
1.0
 40
1.0
 40
1.0
 40
1.0
 10
73.4292868787
 20
50.7539295796
 30
0.0
 10
73.2869131108
 20
50.7539780711
 30
0.0
 10
73.0176084418
 20
50.6990845658
 30
0.0
 10
72.7394271161
 20
50.5273148379
 30
0.0
 10
72.5798773946
 20
50.3631281126
 30
0.0
 10
72.4738509108
 20
50.2097985731
 30
0.0
 10
72.4294247338
 20
50.0778173531
 30
0.0
 10
72.4294316132
 20
49.9946192586
 30
0.0
  0
SPLINE
  5
35C
100
AcDbEntity
  8
RUNDUNGEN
100
AcDbSpline
 62
7
  6
CONTINUOUS
 70
0
 71
3
 72
16
 73
12
 74
0
 42
0.0000001
 43
0.0000001
 44
0.0000000001
 40
0.0
 40
0.0
 40
0.0
 40
0.0
 40
0.0041965548
 40
0.0167068691
 40
0.0374643465
 40
0.0664023921
 40
0.1485456973
 40
0.2622078069
 40
0.4059096536
 40
0.5780943673
 40
1.0
 40
1.0
 40
1.0
 40
1.0
 10
72.429431608
 20
41.4507996282
 30
0.0
 10
72.4297351017
 20
41.4505182568
 30
0.0
 10
72.4315591205
 20
41.4505109746
 30
0.0
 10
72.4349052654
 20
41.4491550126
 30
0.0
 10
72.4409591693
 20
41.4478032076
 30
0.0
 10
72.4534489782
 20
41.4443276365
 30
0.0
 10
72.4749303072
 20
41.4387546863
 30
0.0
 10
72.5072811327
 20
41.430178791
 30
0.0
 10
72.5482769698
 20
41.4194888808
 30
0.0
 10
72.6187101269
 20
41.4012452243
 30
0.0
 10
72.6754938325
 20
41.3868096502
 30
0.0
 10
72.7158499742
 20
41.3766813794
 30
0.0
  0
SPLINE
  5
35D
100
AcDbEntity
  8
RUNDUNGEN
100
AcDbSpline
 62
7
  6
CONTINUOUS
 70
0
 71
3
 72
12
 73
8
 74
0
 42
0.0000001
 43
0.0000001
 44
0.0000000001
 40
0.0
 40
0.0
 40
0.0
 40
0.0
 40
0.1682122067
 40
0.2733592401
 40
0.3935473291
 40
0.6759678301
 40
1.0
 40
1.0
 40
1.0
 40
1.0
 10
81.629431608
 20
50.1726984288
 30
0.0
 10
81.6294684477
 20
50.2576589834
 30
0.0
 10
81.5691522136
 20
50.3937701138
 30
0.0
 10
81.4381071896
 20
50.5422956348
 30
0.0
 10
81.2375640594
 20
50.704681792
 30
0.0
 10
80.9012709938
 20
50.8644175828
 30
0.0
 10
80.5930936504
 20
50.9124299914
 30
0.0
 10
80.429431608
 20
50.912364994
 30
0.0
  0
SPLINE
  5
35E
100
AcDbEntity
  8
RUNDUNGEN
100
AcDbSpline
 62
7
  6
CONTINUOUS
 70
0
 71
3
 72
16
 73
12
 74
0
 42
0.0000001
 43
0.0000001
 44
0.0000000001
 40
0.0
 40
0.0
 40
0.0
 40
0.0
 40
0.008411773
 40
0.0240927144
 40
0.0813518721
 40
0.1727601633
 40
0.2954579223
 40
0.4452019833
 40
0.6167037869
 40
0.8038526571
 40
1.0
 40
1.0
 40
1.0
 40
1.0
 10
54.75
 20
96.5120006716
 30
0.0
 10
54.7500000135
 20
96.5093220857
 30
0.0
 10
54.7563255569
 20
96.5029771895
 30
0.0
 10
54.7798998833
 20
96.4940046516
 30
0.0
 10
54.8320139381
 20
96.4830868598
 30
0.0
 10
54.9173524535
 20
96.4724107293
 30
0.0
 10
55.0329819784
 20
96.4623825356
 30
0.0
 10
55.1740467315
 20
96.4540209206
 30
0.0
 10
55.3358360289
 20
96.4475382125
 30
0.0
 10
55.5124497191
 20
96.443262092
 30
0.0
 10
55.6345034254
 20
96.44201217
 30
0.0
 10
55.6969627729
 20
96.4417789103
 30
0.0
  0
LINE
  5
35F
100
AcDbEntity
  8
RUNDUNGEN
100
AcDbLine
 62
7
  6
CONTINUOUS
 10
57.5014226111
 20
89.3531250055
 11
55.7500004971
 21
95.3126446263
  0
SPLINE
  5
360
100
AcDbEntity
  8
RUNDUNGEN
100
AcDbSpline
 62
7
  6
CONTINUOUS
 70
0
 71
3
 72
12
 73
8
 74
0
 42
0.0000001
 43
0.0000001
 44
0.0000000001
 40
0.0
 40
0.0
 40
0.0
 40
0.0
 40
0.324034088
 40
0.6064455394
 40
0.7266348097
 40
0.8317838528
 40
1.0
 40
1.0
 40
1.0
 40
1.0
 10
73.429431608
 20
50.912364994
 30
0.0
 10
73.265768562
 20
50.9124298644
 30
0.0
 10
72.9575934705
 20
50.8644209317
 30
0.0
 10
72.6213064614
 20
50.7046813245
 30
0.0
 10
72.4207616486
 20
50.5423022161
 30
0.0
 10
72.289712274
 20
50.393775356
 30
0.0
 10
72.2293948496
 20
50.2576609918
 30
0.0
 10
72.229431608
 20
50.1726984288
 30
0.0
  0
SPLINE
  5
361
100
AcDbEntity
  8
RUNDUNGEN
100
AcDbSpline
 62
7
  6
CONTINUOUS
 70
0
 71
3
 72
9
 73
5
 74
0
 42
0.0000001
 43
0.0000001
 44
0.0000000001
 40
0.0
 40
0.0
 40
0.0
 40
0.0
 40
0.18522801
 40
1.0
 40
1.0
 40
1.0
 40
1.0
 10
81.6019169137
 20
49.4007669351
 30
0.0
 10
81.6043217357
 20
49.4010997994
 30
0.0
 10
81.6168540171
 20
49.4060356542
 30
0.0
 10
81.6242575943
 20
49.4183377758
 30
0.0
 10
81.6294355865
 20
49.4276775222
 30
0.0
  0
SPLINE
  5
362
100
AcDbEntity
  8
RUNDUNGEN
100
AcDbSpline
 62
7
  6
CONTINUOUS
 70
0
 71
3
 72
13
 73
9
 74
0
 42
0.0000001
 43
0.0000001
 44
0.0000000001
 40
0.0
 40
0.0
 40
0.0
 40
0.0
 40
0.0878597733
 40
0.1825701318
 40
0.2884780963
 40
0.4076954822
 40
0.6847865759
 40
1.0
 40
1.0
 40
1.0
 40
1.0
 10
85.7429894858
 20
53.0590310356
 30
0.0
 10
85.7347498641
 20
53.0282825815
 30
0.0
 10
85.7060954178
 20
52.9670693535
 30
0.0
 10
85.6337283714
 20
52.8897827633
 30
0.0
 10
85.5346900438
 20
52.8276781601
 30
0.0
 10
85.3636308787
 20
52.7630616266
 30
0.0
 10
85.1042765781
 20
52.7321109476
 30
0.0
 10
84.8892960659
 20
52.7527908696
 30
0.0
 10
84.7770683655
 20
52.77396618
 30
0.0
  0
SPLINE
  5
363
100
AcDbEntity
  8
RUNDUNGEN
100
AcDbSpline
 62
7
  6
CONTINUOUS
 70
0
 71
3
 72
13
 73
9
 74
0
 42
0.0000001
 43
0.0000001
 44
0.0000000001
 40
0.0
 40
0.0
 40
0.0
 40
0.0
 40
0.2971975164
 40
0.5562442705
 40
0.6745984057
 40
0.787091743
 40
0.8951186243
 40
1.0
 40
1.0
 40
1.0
 40
1.0
 10
69.0062671438
 20
53.1670564877
 30
0.0
 10
69.0846618341
 20
52.6543042663
 30
0.0
 10
69.3750392145
 20
51.7092882369
 30
0.0
 10
70.0498667268
 20
50.7222489708
 30
0.0
 10
70.6828335895
 20
50.1431553875
 30
0.0
 10
71.1759716179
 20
49.8124090289
 30
0.0
 10
71.6920158452
 20
49.5702765045
 30
0.0
 10
72.0502852057
 20
49.4652813148
 30
0.0
 10
72.2294326472
 20
49.4276673897
 30
0.0
  0
SPLINE
  5
364
100
AcDbEntity
  8
RUNDUNGEN
100
AcDbSpline
 62
7
  6
CONTINUOUS
 70
0
 71
3
 72
9
 73
5
 74
0
 42
0.0000001
 43
0.0000001
 44
0.0000000001
 40
0.0
 40
0.0
 40
0.0
 40
0.0
 40
0.3326215443
 40
1.0
 40
1.0
 40
1.0
 40
1.0
 10
72.2294423968
 20
49.4276584015
 30
0.0
 10
72.2315409493
 20
49.4238736232
 30
0.0
 10
72.2381313521
 20
49.4130716084
 30
0.0
 10
72.2483601076
 20
49.4019440693
 30
0.0
 10
72.2569607905
 20
49.4007508223
 30
0.0
  0
SPLINE
  5
365
100
AcDbEntity
  8
RUNDUNGEN
100
AcDbSpline
 62
7
  6
CONTINUOUS
 70
0
 71
3
 72
13
 73
9
 74
0
 42
0.0000001
 43
0.0000001
 44
0.0000000001
 40
0.0
 40
0.0
 40
0.0
 40
0.0
 40
0.3222385666
 40
0.604514562
 40
0.7240364794
 40
0.8278365156
 40
0.91809438
 40
1.0
 40
1.0
 40
1.0
 40
1.0
 10
69.0062671437
 20
53.1670651744
 30
0.0
 10
68.8876629999
 20
53.1512045468
 30
0.0
 10
68.662208551
 20
53.1405367774
 30
0.0
 10
68.3933350707
 20
53.1815766499
 30
0.0
 10
68.2182866799
 20
53.2518282215
 30
0.0
 10
68.119961099
 20
53.3160820212
 30
0.0
 10
68.0508384949
 20
53.3938004777
 30
0.0
 10
68.026755217
 20
53.4549339114
 30
0.0
 10
68.0214728522
 20
53.4848864866
 30
0.0
  0
LINE
  5
366
100
AcDbEntity
  8
RUNDUNGEN
100
AcDbLine
 62
7
  6
CONTINUOUS
 10
68.4429312372
 20
56.8534078914
 11
69.0062671438
 21
53.1670564877
  0
LINE
  5
367
100
AcDbEntity
  8
RUNDUNGEN
100
AcDbLine
 62
7
  6
CONTINUOUS
 10
85.7243844829
 20
56.8533052796
 11
84.7770683653
 21
52.7739601764
  0
SPLINE
  5
368
100
AcDbEntity
  8
RUNDUNGEN
100
AcDbSpline
 62
7
  6
CONTINUOUS
 70
0
 71
3
 72
13
 73
9
 74
0
 42
0.0000001
 43
0.0000001
 44
0.0000000001
 40
0.0
 40
0.0
 40
0.0
 40
0.0
 40
0.2933766845
 40
0.5515543075
 40
0.6704601608
 40
0.7840100908
 40
0.8934741826
 40
1.0
 40
1.0
 40
1.0
 40
1.0
 10
84.7770683653
 20
52.7739601764
 30
0.0
 10
84.6700202536
 20
52.3130829836
 30
0.0
 10
84.3484726088
 20
51.4686626383
 30
0.0
 10
83.6886181782
 20
50.5934303214
 30
0.0
 10
83.0861598664
 20
50.076836951
 30
0.0
 10
82.6195612579
 20
49.7793597337
 30
0.0
 10
82.133700167
 20
49.559729564
 30
0.0
 10
81.7975666403
 20
49.4629865388
 30
0.0
 10
81.6294320674
 20
49.4276853464
 30
0.0
  0
SPLINE
  5
369
100
AcDbEntity
  8
RUNDUNGEN
100
AcDbSpline
 62
7
  6
CONTINUOUS
 70
0
 71
3
 72
11
 73
7
 74
0
 42
0.0000001
 43
0.0000001
 44
0.0000000001
 40
0.0
 40
0.0
 40
0.0
 40
0.0
 40
0.2510258895
 40
0.3765399086
 40
0.5020482612
 40
1.0
 40
1.0
 40
1.0
 40
1.0
 10
102.8975031667
 20
109.353125
 30
0.0
 10
102.4102585637
 20
108.9125126632
 30
0.0
 10
101.6793951153
 20
108.2518251897
 30
0.0
 10
100.7450893881
 20
107.3259882397
 30
0.0
 10
99.4227593027
 20
105.8873785714
 30
0.0
 10
98.4805809614
 20
104.4601000041
 30
0.0
 10
98.1433224674
 20
103.2013848114
 30
0.0
  0
LINE
  5
36A
100
AcDbEntity
  8
RUNDUNGEN
100
AcDbLine
 62
7
  6
CONTINUOUS
 10
96.6857730803
 20
109.3528055067
 11
98.4275097605
 21
116.8531026845
  0
ELLIPSE
  5
36B
100
AcDbEntity
  8
0
100
AcDbEllipse
 62
7
  6
CONTINUOUS
 10
87.5366716013
 20
159.1406250228
 30
0.0
 11
0.0
 21
3.195
 31
0.0
 40
0.2679491924
 41
0.0
 42
3.1415926536
  0
ELLIPSE
  5
36C
100
AcDbEntity
  8
0
100
AcDbEllipse
 62
7
  6
CONTINUOUS
 10
92.1453977111
 20
159.1406250228
 30
0.0
 11
-0.0
 21
3.195
 31
0.0
 40
0.2679491924
 41
-3.1415926536
 42
0.0
  0
ELLIPSE
  5
36D
100
AcDbEntity
  8
0
100
AcDbEllipse
 62
7
  6
CONTINUOUS
 10
63.8833753324
 20
159.1406250228
 30
0.0
 11
-0.0
 21
3.195
 31
0.0
 40
0.1763269807
 41
0.0
 42
3.1415926536
  0
ENDSEC
  0
SECTION
  2
OBJECTS
  0
DICTIONARY
  5
C
100
AcDbDictionary
280
0
281
1
  3
ACAD_GROUP
350
D
  3
ACAD_MLINESTYLE
350
17
  3
ACAD_LAYOUT
350
1A
  3
ACAD_PLOTSETTINGS
350
19
  3
ACAD_PLOTSTYLENAME
350
E
  0
DICTIONARY
  5
D
102
{ACAD_REACTORS
330
C
102
}
100
AcDbDictionary
280
0
281
1
  0
ACDBDICTIONARYWDFLT
  5
E
102
{ACAD_REACTORS
330
C
102
}
100
AcDbDictionary
281
1
  3
Normal
350
F
100
AcDbDictionaryWithDefault
340
F
  0
DICTIONARY
  5
17
102
{ACAD_REACTORS
330
C
102
}
100
AcDbDictionary
280
0
281
1
  3
Standard
350
18
  0
DICTIONARY
  5
19
102
{ACAD_REACTORS
330
C
102
}
100
AcDbDictionary
281
1
  0
DICTIONARY
  5
1A
102
{ACAD_REACTORS
330
C
102
}
100
AcDbDictionary
281
1
  3
Model
350
36E
  3
Layout1
350
36F
  0
ACDBPLACEHOLDER
  5
F
102
{ACAD_REACTORS
330
E
102
}
  0
MLINESTYLE
  5
18
102
{ACAD_REACTORS
330
17
102
}
100
AcDbMlineStyle
  2
STANDARD
 70
0
  3

 62
256
 51
90.0
 52
90.0
 71
2
 49
0.5
 62
256
  6
BYLAYER
 49
-0.5
 62
256
  6
BYLAYER
  0
LAYOUT
  5
36E
102
{ACAD_REACTORS
330
1A
102
}
100
AcDbPlotSettings
  1

  2
none_device
  4
ISO_A4_(297.00_x_210.00_MM)
  6

 40
0.0
 41
0.0
 42
0.0
 43
0.0
 44
297.0
 45
210.0
 46
0.0
 47
0.0
 48
0.0
 49
0.0
140
0.0
141
0.0
142
1.0
143
1.0
 70
1024
 72
1
 73
0
 74
0
  7

 75
0
147
1.0
148
0.0
149
0.0
100
AcDbLayout
  1
Model
 70
0
 71
0
 10
0.0
 20
0.0
 11
297.0
 21
210.0
 12
0.0
 22
0.0
 32
0.0
 14
0.0
 24
0.0
 34
0.0
 15
0.0
 25
0.0
 35
0.0
146
0.0
 13
0.0
 23
0.0
 33
0.0
 16
1.0
 26
0.0
 36
0.0
 17
0.0
 27
1.0
 37
0.0
 76
0
330
212
345
0
346
0
  0
LAYOUT
  5
36F
102
{ACAD_REACTORS
330
1A
102
}
100
AcDbPlotSettings
  1

  2
none_device
  4
ISO_A4_(297.00_x_210.00_MM)
  6

 40
0.0
 41
0.0
 42
0.0
 43
0.0
 44
297.0
 45
210.0
 46
0.0
 47
0.0
 48
0.0
 49
0.0
140
0.0
141
0.0
142
1.0
143
1.0
 70
0
 72
1
 73
0
 74
0
  7

 75
0
147
1.0
148
0.0
149
0.0
100
AcDbLayout
  1
Layout1
 70
0
 71
1
 10
0.0
 20
0.0
 11
297.0
 21
210.0
 12
0.0
 22
0.0
 32
0.0
 14
0.0
 24
0.0
 34
0.0
 15
0.0
 25
0.0
 35
0.0
146
0.0
 13
0.0
 23
0.0
 33
0.0
 16
1.0
 26
0.0
 36
0.0
 17
0.0
 27
1.0
 37
0.0
 76
0
330
213
345
0
346
0
  0
ENDSEC
  0
EOF
