999
DXF file: S:\Prolink\03_Konstruktion\CAD-Plots\Internet\2D_neu\S9\s9-57_grt_smr_f4_w50.dxf
999
Pro/ENGINEER 2012230 by Parametric Technology Corporation
  0
SECTION
  2
HEADER
  9
$ACADVER
  1
AC1021
  9
$DWGCODEPAGE
  3
ANSI_1252
  9
$EXTMAX
 10
297.0
 20
210.0
 30
0.0
  9
$EXTMIN
 10
0.0
 20
0.0
 30
0.0
  9
$LIMMIN
 10
0.0
 20
0.0
  9
$LIMMAX
 10
297.0
 20
210.0
  9
$VIEWCTR
 10
148.5
 20
105.0
  9
$VIEWSIZE
 40
210.0
  9
$CLAYER
  8
0
  9
$LTSCALE
 40
16.335
  9
$CELTYPE
  6
BYLAYER
  9
$DIMSCALE
 40
1.0
  9
$DIMASZ
 40
3.5
  9
$DIMEXO
 40
0.0
  9
$DIMDLI
 40
11.286
  9
$DIMEXE
 40
1.5
  9
$DIMCEN
 40
2.673
  9
$DIMLFAC
 40
1.0
  9
$DIMBLK
  1
_FILLED
  9
$DIMTXT
 40
3.5
  9
$DIMTOL
 70
1
  9
$DIMLIM
 70
0
  9
$DIMTFAC
 40
1.0
  9
$DIMTP
 40
0.005
  9
$DIMTM
 40
0.005
  9
$DIMGAP
 40
0.625
  9
$DIMDSEP
 70
46
  9
$PDMODE
 70
3
  9
$PDSIZE
 40
0.3125
  9
$HANDSEED
  5
36E
  9
$TILEMODE
 70
1
  9
$MEASUREMENT
 70
1
  9
$INSUNITS
 70
4
  0
ENDSEC
  0
SECTION
  2
CLASSES
  0
CLASS
  1
ACDBDICTIONARYWDFLT
  2
AcDbDictionaryWithDefault
  3
AutoCAD 2000
 90
0
 91
1
280
0
281
0
  0
CLASS
  1
ACDBPLACEHOLDER
  2
AcDbPlaceHolder
  3
AutoCAD 2000
 90
0
 91
1
280
0
281
0
  0
CLASS
  1
LAYOUT
  2
AcDbLayout
  3
AutoCAD 2000
 90
0
 91
0
280
0
281
0
  0
ENDSEC
  0
SECTION
  2
TABLES
  0
TABLE
  2
VPORT
  5
8
100
AcDbSymbolTable
 70
2
  0
VPORT
  5
1F4
100
AcDbSymbolTableRecord
100
AcDbViewportTableRecord
  2
*ACTIVE
 70
0
 10
0.0
 20
0.0
 11
1.0
 21
1.0
 12
148.5
 22
105.0
 13
0.0
 23
0.0
 14
1.0
 24
1.0
 15
0.0
 25
0.0
 16
0.0
 26
0.0
 36
1.0
 17
0.0
 27
0.0
 37
0.0
 40
210.0
 41
1.4142857143
 42
50.0
 43
0.0
 44
0.0
 50
0.0
 51
0.0
 71
0
 72
100
 73
1
 74
1
 75
0
 76
0
 77
0
 78
0
  0
ENDTAB
  0
TABLE
  2
LTYPE
  5
5
100
AcDbSymbolTable
 70
6
  0
LTYPE
  5
14
100
AcDbSymbolTableRecord
100
AcDbLinetypeTableRecord
  2
BYBLOCK
 70
0
  3

 72
65
 73
0
 40
0.0
  0
LTYPE
  5
15
100
AcDbSymbolTableRecord
100
AcDbLinetypeTableRecord
  2
BYLAYER
 70
0
  3

 72
65
 73
0
 40
0.0
  0
LTYPE
  5
16
100
AcDbSymbolTableRecord
100
AcDbLinetypeTableRecord
  2
CONTINUOUS
 70
64
  3
Solid line
 72
65
 73
0
 40
0.0
  0
LTYPE
  5
1F5
100
AcDbSymbolTableRecord
100
AcDbLinetypeTableRecord
  2
CENTER
 70
64
  3
____ _ ____ _ ____ _ ____ _ ____ _ ____ _ ____
 72
65
 73
4
 40
0.6
 49
0.375
 74
0
 49
-0.075
 74
0
 49
0.075
 74
0
 49
-0.075
 74
0
  0
LTYPE
  5
1F6
100
AcDbSymbolTableRecord
100
AcDbLinetypeTableRecord
  2
HIDDEN
 70
64
  3
- - - - - - - - - - - - - - - - - - - -
 72
65
 73
2
 40
0.2
 49
0.1
 74
0
 49
-0.1
 74
0
  0
LTYPE
  5
1F7
100
AcDbSymbolTableRecord
100
AcDbLinetypeTableRecord
  2
PHANTOM
 70
64
  3
_____ _ _ _____ _ _ _____ _ _ _____
 72
65
 73
6
 40
0.8
 49
0.45
 74
0
 49
-0.05
 74
0
 49
0.1
 74
0
 49
-0.05
 74
0
 49
0.1
 74
0
 49
-0.05
 74
0
  0
LTYPE
  5
1F8
100
AcDbSymbolTableRecord
100
AcDbLinetypeTableRecord
  2
DOT
 70
64
  3
. . . . . . . . . . . . . . . . . . . .
 72
65
 73
2
 40
0.2
 49
0.1
 74
0
 49
-0.1
 74
0
  0
LTYPE
  5
1F9
100
AcDbSymbolTableRecord
100
AcDbLinetypeTableRecord
  2
DASHED
 70
64
  3
- - - - - - - - - - - - - - - - - - - -
 72
65
 73
2
 40
0.2
 49
0.1
 74
0
 49
-0.1
 74
0
  0
ENDTAB
  0
TABLE
  2
LAYER
  5
2
100
AcDbSymbolTable
 70
36
  0
LAYER
  5
10
100
AcDbSymbolTableRecord
100
AcDbLayerTableRecord
  2
0
 70
0
 62
7
  6
CONTINUOUS
370
-3
390
F
  0
LAYER
  5
1FA
100
AcDbSymbolTableRecord
100
AcDbLayerTableRecord
  2
DEFAULT_1
 70
0
 62
7
  6
CENTER
370
-3
390
F
  0
LAYER
  5
1FB
100
AcDbSymbolTableRecord
100
AcDbLayerTableRecord
  2
DEFAULT_2
 70
0
 62
8
  6
HIDDEN
370
-3
390
F
  0
LAYER
  5
1FC
100
AcDbSymbolTableRecord
100
AcDbLayerTableRecord
  2
DEFAULT_3
 70
0
 62
7
  6
PHANTOM
370
-3
390
F
  0
LAYER
  5
1FD
100
AcDbSymbolTableRecord
100
AcDbLayerTableRecord
  2
01___PRT_ALL_DTM_PLN
 70
0
 62
7
  6
CONTINUOUS
370
-3
390
F
  0
LAYER
  5
1FE
100
AcDbSymbolTableRecord
100
AcDbLayerTableRecord
  2
01___PRT_DEF_DTM_PLN
 70
0
 62
7
  6
CONTINUOUS
370
-3
390
F
  0
LAYER
  5
1FF
100
AcDbSymbolTableRecord
100
AcDbLayerTableRecord
  2
02___PRT_ALL_AXES
 70
0
 62
7
  6
CONTINUOUS
370
-3
390
F
  0
LAYER
  5
200
100
AcDbSymbolTableRecord
100
AcDbLayerTableRecord
  2
03___PRT_ALL_CURVES
 70
0
 62
7
  6
CONTINUOUS
370
-3
390
F
  0
LAYER
  5
201
100
AcDbSymbolTableRecord
100
AcDbLayerTableRecord
  2
04___PRT_ALL_DTM_PNT
 70
0
 62
7
  6
CONTINUOUS
370
-3
390
F
  0
LAYER
  5
202
100
AcDbSymbolTableRecord
100
AcDbLayerTableRecord
  2
05___PRT_ALL_DTM_CSYS
 70
0
 62
7
  6
CONTINUOUS
370
-3
390
F
  0
LAYER
  5
203
100
AcDbSymbolTableRecord
100
AcDbLayerTableRecord
  2
05___PRT_DEF_DTM_CSYS
 70
0
 62
7
  6
CONTINUOUS
370
-3
390
F
  0
LAYER
  5
204
100
AcDbSymbolTableRecord
100
AcDbLayerTableRecord
  2
06___PRT_ALL_SURFS
 70
0
 62
7
  6
CONTINUOUS
370
-3
390
F
  0
LAYER
  5
205
100
AcDbSymbolTableRecord
100
AcDbLayerTableRecord
  2
ALLE
 70
0
 62
7
  6
CONTINUOUS
370
-3
390
F
  0
LAYER
  5
206
100
AcDbSymbolTableRecord
100
AcDbLayerTableRecord
  2
AUSFORMSCHRAEGEN
 70
0
 62
7
  6
CONTINUOUS
370
-3
390
F
  0
LAYER
  5
207
100
AcDbSymbolTableRecord
100
AcDbLayerTableRecord
  2
BEZUGSACHSEN
 70
0
 62
7
  6
CONTINUOUS
370
-3
390
F
  0
LAYER
  5
208
100
AcDbSymbolTableRecord
100
AcDbLayerTableRecord
  2
BEZUGSEBENE
 70
0
 62
7
  6
CONTINUOUS
370
-3
390
F
  0
LAYER
  5
209
100
AcDbSymbolTableRecord
100
AcDbLayerTableRecord
  2
BEZUGSEBENEN
 70
0
 62
7
  6
CONTINUOUS
370
-3
390
F
  0
LAYER
  5
20A
100
AcDbSymbolTableRecord
100
AcDbLayerTableRecord
  2
BEZUGSEBENEN-KES
 70
0
 62
7
  6
CONTINUOUS
370
-3
390
F
  0
LAYER
  5
20B
100
AcDbSymbolTableRecord
100
AcDbLayerTableRecord
  2
FLAECHEN
 70
0
 62
7
  6
CONTINUOUS
370
-3
390
F
  0
LAYER
  5
20C
100
AcDbSymbolTableRecord
100
AcDbLayerTableRecord
  2
KURVEN
 70
0
 62
7
  6
CONTINUOUS
370
-3
390
F
  0
LAYER
  5
20D
100
AcDbSymbolTableRecord
100
AcDbLayerTableRecord
  2
PARAMETER-BEMAßUNGEN
 70
0
 62
7
  6
CONTINUOUS
370
-3
390
F
  0
LAYER
  5
20E
100
AcDbSymbolTableRecord
100
AcDbLayerTableRecord
  2
RUNDUNGEN
 70
0
 62
7
  6
CONTINUOUS
370
-3
390
F
  0
LAYER
  5
20F
100
AcDbSymbolTableRecord
100
AcDbLayerTableRecord
  2
SAMMELFLÄCHEN
 70
0
 62
7
  6
CONTINUOUS
370
-3
390
F
  0
ENDTAB
  0
TABLE
  2
STYLE
  5
3
100
AcDbSymbolTable
 70
1
  0
STYLE
  5
11
100
AcDbSymbolTableRecord
100
AcDbTextStyleTableRecord
  2
STANDARD
 70
0
 40
0.0
 41
0.7
 50
0.0
 71
0
 42
0.2
  3
txt
  4

  0
STYLE
  5
210
100
AcDbSymbolTableRecord
100
AcDbTextStyleTableRecord
  2
TEXTSTYLE_1
 70
0
 40
0.0
 41
0.8
 50
0.0
 71
0
 42
0.2
  3
gdt
  4

  0
ENDTAB
  0
TABLE
  2
VIEW
  5
6
100
AcDbSymbolTable
 70
0
  0
ENDTAB
  0
TABLE
  2
UCS
  5
7
100
AcDbSymbolTable
 70
0
  0
ENDTAB
  0
TABLE
  2
APPID
  5
9
100
AcDbSymbolTable
 70
1
  0
APPID
  5
211
100
AcDbSymbolTableRecord
100
AcDbRegAppTableRecord
  2
ACAD
 70
0
  0
ENDTAB
  0
TABLE
  2
BLOCK_RECORD
  5
1
100
AcDbSymbolTable
 70
0
  0
BLOCK_RECORD
  5
212
100
AcDbSymbolTableRecord
100
AcDbBlockTableRecord
  2
*Model_Space
  0
BLOCK_RECORD
  5
213
100
AcDbSymbolTableRecord
100
AcDbBlockTableRecord
  2
*Paper_Space
  0
ENDTAB
  0
TABLE
  2
DIMSTYLE
  5
A
100
AcDbSymbolTable
 70
1
100
AcDbDimStyleTable
 71
0
  0
DIMSTYLE
105
214
100
AcDbSymbolTableRecord
100
AcDbDimStyleTableRecord
  2
STANDARD
 70
0
  3

  4

 40
1.0
 41
3.5
 42
0.0
 43
0.38
 44
1.5
 45
0.0
 46
0.0
 47
0.005
 48
0.005
140
3.5
141
0.09
142
0.0
143
25.4
144
1.0
145
0.0
146
1.0
147
0.625
 71
1.0
 72
0.0
 73
0
 74
0
 75
0
 76
0
 77
1
 78
8
170
0
171
2
172
0
173
0
174
0
175
0
176
0
177
0
178
5
270
2
271
3
272
3
273
2
274
2
275
0
280
0
281
0
282
0
283
1
284
8
285
0
286
0
287
3
288
0
340
11
278
46
  0
ENDTAB
  0
ENDSEC
  0
SECTION
  2
BLOCKS
  0
BLOCK
  5
20
100
AcDbEntity
  8
0
100
AcDbBlockBegin
  2
*Model_Space
 70
0
 10
0.0
 20
0.0
 30
0.0
  3
*Model_Space
  1

  0
ENDBLK
  5
21
100
AcDbEntity
  8
0
100
AcDbBlockEnd
  0
BLOCK
  5
1C
100
AcDbEntity
  8
0
100
AcDbBlockBegin
  2
*Paper_Space
 70
0
 10
0.0
 20
0.0
 30
0.0
  3
*Paper_Space
  1

  0
ENDBLK
  5
1D
100
AcDbEntity
  8
0
100
AcDbBlockEnd
  0
ENDSEC
  0
SECTION
  2
ENTITIES
  0
LINE
  5
215
100
AcDbEntity
  8
0
100
AcDbLine
 62
7
  6
CONTINUOUS
 10
0.0
 20
0.0
 11
0.0
 21
210.0
  0
LINE
  5
216
100
AcDbEntity
  8
0
100
AcDbLine
 62
7
  6
CONTINUOUS
 10
0.0
 20
0.0
 11
297.0
 21
0.0
  0
LINE
  5
217
100
AcDbEntity
  8
0
100
AcDbLine
 62
7
  6
CONTINUOUS
 10
0.0
 20
210.0
 11
297.0
 21
210.0
  0
LINE
  5
218
100
AcDbEntity
  8
0
100
AcDbLine
 62
7
  6
CONTINUOUS
 10
297.0
 20
0.0
 11
297.0
 21
210.0
  0
LINE
  5
219
100
AcDbEntity
  8
RUNDUNGEN
100
AcDbLine
 62
7
  6
CONTINUOUS
 10
54.75
 20
152.6406250228
 11
54.75
 21
165.6406250228
  0
LINE
  5
21A
100
AcDbEntity
  8
RUNDUNGEN
100
AcDbLine
 62
7
  6
CONTINUOUS
 10
55.7499998889
 20
151.8004926203
 11
55.7500004971
 21
166.4807149554
  0
LINE
  5
21B
100
AcDbEntity
  8
RUNDUNGEN
100
AcDbLine
 62
7
  6
CONTINUOUS
 10
67.8625216891
 20
159.3153130826
 11
67.8630712849
 21
159.1411257032
  0
LINE
  5
21C
100
AcDbEntity
  8
RUNDUNGEN
100
AcDbLine
 62
7
  6
CONTINUOUS
 10
68.0214115054
 20
164.8015420321
 11
68.0214222925
 21
153.4797359499
  0
LINE
  5
21D
100
AcDbEntity
  8
RUNDUNGEN
100
AcDbLine
 62
7
  6
CONTINUOUS
 10
67.8630712855
 20
159.1411257029
 11
67.862616635
 21
158.9816972007
  0
LWPOLYLINE
  5
21E
100
AcDbEntity
  8
RUNDUNGEN
100
AcDbPolyline
 62
7
  6
CONTINUOUS
 90
11
 70
0
 10
67.862616635
 20
158.9816972007
 10
67.8584857587
 20
158.6385088682
 10
67.8501709478
 20
158.302161418
 10
67.8379324846
 20
157.9747191698
 10
67.8220060174
 20
157.6580254065
 10
67.8026445752
 20
157.3538231508
 10
67.7801990462
 20
157.063648028
 10
67.7550083037
 20
156.7890573445
 10
67.7274293615
 20
156.53135599
 10
67.6979292045
 20
156.2918500218
 10
67.6669709407
 20
156.0716217689
  0
LINE
  5
21F
100
AcDbEntity
  8
RUNDUNGEN
100
AcDbLine
 62
7
  6
CONTINUOUS
 10
67.6669709407
 20
156.0716217689
 11
67.6473290495
 21
155.9456250228
  0
LINE
  5
220
100
AcDbEntity
  8
RUNDUNGEN
100
AcDbLine
 62
7
  6
CONTINUOUS
 10
67.6473279529
 20
162.3356250228
 11
67.6659020929
 21
162.2167375986
  0
LWPOLYLINE
  5
221
100
AcDbEntity
  8
RUNDUNGEN
100
AcDbPolyline
 62
7
  6
CONTINUOUS
 90
11
 70
0
 10
67.6659020929
 20
162.2167375986
 10
67.6968788209
 20
161.9973601954
 10
67.7264118977
 20
161.7587098227
 10
67.7540440895
 20
161.5018667581
 10
67.7793060104
 20
161.2281450084
 10
67.8018362347
 20
160.93884584
 10
67.8213021395
 20
160.6355180935
 10
67.8373525252
 20
160.3196985983
 10
67.8497305006
 20
159.9931302607
 10
67.8582071225
 20
159.6576485782
 10
67.8625216891
 20
159.3153130826
  0
LINE
  5
222
100
AcDbEntity
  8
RUNDUNGEN
100
AcDbLine
 62
7
  6
CONTINUOUS
 10
72.229431608
 20
162.5497159319
 11
72.2294326472
 21
160.1954192936
  0
LINE
  5
223
100
AcDbEntity
  8
RUNDUNGEN
100
AcDbLine
 62
7
  6
CONTINUOUS
 10
72.229432715
 20
158.0858258394
 11
72.229431608
 21
155.7315341137
  0
LINE
  5
224
100
AcDbEntity
  8
RUNDUNGEN
100
AcDbLine
 62
7
  6
CONTINUOUS
 10
72.256972262
 20
159.8435278604
 11
72.2569725842
 21
158.43773793
  0
LINE
  5
225
100
AcDbEntity
  8
RUNDUNGEN
100
AcDbLine
 62
7
  6
CONTINUOUS
 10
72.429431608
 20
155.6406250228
 11
72.429431608
 21
162.6406250228
  0
LINE
  5
226
100
AcDbEntity
  8
RUNDUNGEN
100
AcDbLine
 62
7
  6
CONTINUOUS
 10
72.5328023945
 20
155.6406250228
 11
72.5328023945
 21
162.6406250228
  0
LINE
  5
227
100
AcDbEntity
  8
0
100
AcDbLine
 62
7
  6
CONTINUOUS
 10
103.75
 20
151.6406250228
 11
102.8975039373
 21
151.6406250228
  0
LINE
  5
228
100
AcDbEntity
  8
0
100
AcDbLine
 62
7
  6
CONTINUOUS
 10
55.75
 20
151.6406250228
 11
57.45
 21
151.6406250228
  0
LINE
  5
229
100
AcDbEntity
  8
0
100
AcDbLine
 62
7
  6
CONTINUOUS
 10
68.4429742566
 20
151.6406250228
 11
85.7243427628
 21
151.6406250228
  0
LINE
  5
22A
100
AcDbEntity
  8
RUNDUNGEN
100
AcDbLine
 62
7
  6
CONTINUOUS
 10
55.7500061358
 20
151.6406250228
 11
102.8975039373
 21
151.6406250228
  0
LINE
  5
22B
100
AcDbEntity
  8
RUNDUNGEN
100
AcDbLine
 62
7
  6
CONTINUOUS
 10
73.429431608
 20
163.7185471008
 11
73.429431608
 21
163.6406250228
  0
LINE
  5
22C
100
AcDbEntity
  8
RUNDUNGEN
100
AcDbLine
 62
7
  6
CONTINUOUS
 10
73.429431608
 20
154.5627029449
 11
73.429431608
 21
154.6406250228
  0
LINE
  5
22D
100
AcDbEntity
  8
RUNDUNGEN
100
AcDbLine
 62
7
  6
CONTINUOUS
 10
86.6902685891
 20
152.6406250228
 11
99.1092499401
 21
152.640624121
  0
LINE
  5
22E
100
AcDbEntity
  8
RUNDUNGEN
100
AcDbLine
 62
7
  6
CONTINUOUS
 10
62.1040449409
 20
152.6406230738
 11
67.4581665036
 21
152.6406250228
  0
LINE
  5
22F
100
AcDbEntity
  8
RUNDUNGEN
100
AcDbLine
 62
7
  6
CONTINUOUS
 10
73.429431608
 20
154.5627029449
 11
80.429431608
 21
154.5627029449
  0
LINE
  5
230
100
AcDbEntity
  8
RUNDUNGEN
100
AcDbLine
 62
7
  6
CONTINUOUS
 10
80.429431608
 20
154.6406250228
 11
73.429431608
 21
154.6406250228
  0
LINE
  5
231
100
AcDbEntity
  8
RUNDUNGEN
100
AcDbLine
 62
7
  6
CONTINUOUS
 10
80.5080832934
 20
154.8406250228
 11
73.3507799226
 21
154.8406250228
  0
LINE
  5
232
100
AcDbEntity
  8
RUNDUNGEN
100
AcDbLine
 62
7
  6
CONTINUOUS
 10
81.429431608
 20
155.6406250228
 11
81.3260608232
 21
155.6406250229
  0
LINE
  5
233
100
AcDbEntity
  8
RUNDUNGEN
100
AcDbLine
 62
7
  6
CONTINUOUS
 10
72.429431608
 20
155.6406250228
 11
72.5328023945
 21
155.6406250228
  0
LINE
  5
234
100
AcDbEntity
  8
RUNDUNGEN
100
AcDbLine
 62
7
  6
CONTINUOUS
 10
67.6997459916
 20
155.9456250228
 11
63.8833753324
 21
155.9456250228
  0
LINE
  5
235
100
AcDbEntity
  8
0
100
AcDbLine
 62
7
  6
CONTINUOUS
 10
87.5366716013
 20
155.9456250228
 11
92.1453977111
 21
155.9456250228
  0
LINE
  5
236
100
AcDbEntity
  8
RUNDUNGEN
100
AcDbLine
 62
7
  6
CONTINUOUS
 10
81.6018931874
 20
158.4378190862
 11
81.429431608
 21
158.4378221306
  0
LINE
  5
237
100
AcDbEntity
  8
RUNDUNGEN
100
AcDbLine
 62
7
  6
CONTINUOUS
 10
72.2569725842
 20
158.4378229923
 11
72.429431608
 21
158.4378237357
  0
LINE
  5
238
100
AcDbEntity
  8
RUNDUNGEN
100
AcDbLine
 62
7
  6
CONTINUOUS
 10
80.429431608
 20
163.7185471008
 11
80.429431608
 21
163.6406250228
  0
LINE
  5
239
100
AcDbEntity
  8
RUNDUNGEN
100
AcDbLine
 62
7
  6
CONTINUOUS
 10
80.429431608
 20
154.5627029449
 11
80.429431608
 21
154.6406250228
  0
LINE
  5
23A
100
AcDbEntity
  8
RUNDUNGEN
100
AcDbLine
 62
7
  6
CONTINUOUS
 10
81.3260608215
 20
162.6406250228
 11
81.3260608215
 21
155.6406250228
  0
LINE
  5
23B
100
AcDbEntity
  8
RUNDUNGEN
100
AcDbLine
 62
7
  6
CONTINUOUS
 10
81.429431608
 20
162.6406250236
 11
81.429431608
 21
155.640625022
  0
LINE
  5
23C
100
AcDbEntity
  8
RUNDUNGEN
100
AcDbLine
 62
7
  6
CONTINUOUS
 10
81.6018931872
 20
158.4376487329
 11
81.6018946524
 21
159.8436435319
  0
LINE
  5
23D
100
AcDbEntity
  8
RUNDUNGEN
100
AcDbLine
 62
7
  6
CONTINUOUS
 10
81.629431608
 20
155.7315341137
 11
81.6294314065
 21
158.0857578176
  0
LINE
  5
23E
100
AcDbEntity
  8
RUNDUNGEN
100
AcDbLine
 62
7
  6
CONTINUOUS
 10
81.6294320674
 20
160.1955437698
 11
81.629431608
 21
162.5497159319
  0
LINE
  5
23F
100
AcDbEntity
  8
RUNDUNGEN
100
AcDbLine
 62
7
  6
CONTINUOUS
 10
72.256972262
 20
159.8434273779
 11
72.429431608
 21
159.8434263079
  0
LINE
  5
240
100
AcDbEntity
  8
RUNDUNGEN
100
AcDbLine
 62
7
  6
CONTINUOUS
 10
81.6018946521
 20
159.8434335878
 11
81.429431608
 21
159.8434295138
  0
LINE
  5
241
100
AcDbEntity
  8
0
100
AcDbLine
 62
7
  6
CONTINUOUS
 10
92.1453977111
 20
162.3356250228
 11
87.5366716013
 21
162.3356250228
  0
LINE
  5
242
100
AcDbEntity
  8
RUNDUNGEN
100
AcDbLine
 62
7
  6
CONTINUOUS
 10
63.8833753324
 20
162.3356250228
 11
67.6997444978
 21
162.3356250228
  0
LINE
  5
243
100
AcDbEntity
  8
RUNDUNGEN
100
AcDbLine
 62
7
  6
CONTINUOUS
 10
81.429431608
 20
162.6406250228
 11
81.3260608215
 21
162.6406250228
  0
LINE
  5
244
100
AcDbEntity
  8
RUNDUNGEN
100
AcDbLine
 62
7
  6
CONTINUOUS
 10
72.429431608
 20
162.6406250228
 11
72.5328023928
 21
162.6406250227
  0
LINE
  5
245
100
AcDbEntity
  8
RUNDUNGEN
100
AcDbLine
 62
7
  6
CONTINUOUS
 10
73.3507799226
 20
163.4406250228
 11
80.5080832934
 21
163.4406250228
  0
LINE
  5
246
100
AcDbEntity
  8
RUNDUNGEN
100
AcDbLine
 62
7
  6
CONTINUOUS
 10
80.429431608
 20
163.6406250228
 11
73.429431608
 21
163.6406250228
  0
LINE
  5
247
100
AcDbEntity
  8
RUNDUNGEN
100
AcDbLine
 62
7
  6
CONTINUOUS
 10
80.429431608
 20
163.7185471008
 11
73.429431608
 21
163.7185471008
  0
LINE
  5
248
100
AcDbEntity
  8
RUNDUNGEN
100
AcDbLine
 62
7
  6
CONTINUOUS
 10
85.7430317543
 20
164.5952253645
 11
85.7430313858
 21
153.6860254393
  0
LINE
  5
249
100
AcDbEntity
  8
RUNDUNGEN
100
AcDbLine
 62
7
  6
CONTINUOUS
 10
62.1040472031
 20
165.6406276063
 11
67.4581665036
 21
165.6406250228
  0
LINE
  5
24A
100
AcDbEntity
  8
RUNDUNGEN
100
AcDbLine
 62
7
  6
CONTINUOUS
 10
99.1092596816
 20
165.6406279238
 11
86.6902685891
 21
165.6406250228
  0
LINE
  5
24B
100
AcDbEntity
  8
0
100
AcDbLine
 62
7
  6
CONTINUOUS
 10
63.0888381325
 20
166.6406250228
 11
55.75
 21
166.6406250228
  0
LINE
  5
24C
100
AcDbEntity
  8
RUNDUNGEN
100
AcDbLine
 62
7
  6
CONTINUOUS
 10
55.7500087466
 20
166.6406250228
 11
102.8975031667
 21
166.6406250228
  0
LINE
  5
24D
100
AcDbEntity
  8
0
100
AcDbLine
 62
7
  6
CONTINUOUS
 10
68.4429742566
 20
166.6406250228
 11
85.7243427628
 21
166.6406250228
  0
LINE
  5
24E
100
AcDbEntity
  8
0
100
AcDbLine
 62
7
  6
CONTINUOUS
 10
100.8269515621
 20
166.6406250228
 11
103.75
 21
166.6406250228
  0
LINE
  5
24F
100
AcDbEntity
  8
RUNDUNGEN
100
AcDbLine
 62
7
  6
CONTINUOUS
 10
103.75
 20
166.6406250228
 11
103.75
 21
151.6406250228
  0
LINE
  5
250
100
AcDbEntity
  8
RUNDUNGEN
100
AcDbLine
 62
7
  6
CONTINUOUS
 10
104.75
 20
165.6406250228
 11
104.75
 21
152.6406250229
  0
LINE
  5
251
100
AcDbEntity
  8
RUNDUNGEN
100
AcDbLine
 62
7
  6
CONTINUOUS
 10
190.6836072739
 20
152.6406250228
 11
190.6836072739
 21
151.6406250228
  0
LINE
  5
252
100
AcDbEntity
  8
RUNDUNGEN
100
AcDbLine
 62
7
  6
CONTINUOUS
 10
190.6836072739
 20
165.6406250228
 11
190.6836072747
 21
166.6406250228
  0
LINE
  5
253
100
AcDbEntity
  8
RUNDUNGEN
100
AcDbLine
 62
7
  6
CONTINUOUS
 10
203.5247218723
 20
152.6406250228
 11
203.5948708995
 21
151.645662835
  0
LINE
  5
254
100
AcDbEntity
  8
RUNDUNGEN
100
AcDbLine
 62
7
  6
CONTINUOUS
 10
203.5247218723
 20
152.6406250228
 11
203.5247218723
 21
151.6406250229
  0
LINE
  5
255
100
AcDbEntity
  8
RUNDUNGEN
100
AcDbLine
 62
7
  6
CONTINUOUS
 10
203.5247316022
 20
165.6406250228
 11
203.5247316022
 21
166.6406250228
  0
LINE
  5
256
100
AcDbEntity
  8
RUNDUNGEN
100
AcDbLine
 62
7
  6
CONTINUOUS
 10
203.5247316022
 20
165.6406250228
 11
203.5948792345
 21
166.6356916791
  0
LINE
  5
257
100
AcDbEntity
  8
RUNDUNGEN
100
AcDbLine
 62
7
  6
CONTINUOUS
 10
204.5185545969
 20
165.5020646516
 11
204.7239347197
 21
166.480747049
  0
LINE
  5
258
100
AcDbEntity
  8
RUNDUNGEN
100
AcDbLine
 62
7
  6
CONTINUOUS
 10
204.5185435173
 20
152.7791838696
 11
204.7239180809
 21
151.800499505
  0
LINE
  5
259
100
AcDbEntity
  8
RUNDUNGEN
100
AcDbLine
 62
7
  6
CONTINUOUS
 10
190.6836072739
 20
151.6406250228
 11
243.1832635626
 21
151.6406250228
  0
LINE
  5
25A
100
AcDbEntity
  8
RUNDUNGEN
100
AcDbLine
 62
7
  6
CONTINUOUS
 10
212.9925231734
 20
152.6406230738
 11
243.3572554515
 21
152.6406250228
  0
LINE
  5
25B
100
AcDbEntity
  8
RUNDUNGEN
100
AcDbLine
 62
7
  6
CONTINUOUS
 10
190.6836072739
 20
152.6406250228
 11
203.5247218723
 21
152.6406250228
  0
LINE
  5
25C
100
AcDbEntity
  8
RUNDUNGEN
100
AcDbLine
 62
7
  6
CONTINUOUS
 10
250.6090507136
 20
160.1955135116
 11
250.8070657842
 21
160.2236458798
  0
LINE
  5
25D
100
AcDbEntity
  8
RUNDUNGEN
100
AcDbLine
 62
7
  6
CONTINUOUS
 10
254.5835133701
 20
154.6406250228
 11
249.2827875467
 21
154.6406250228
  0
LINE
  5
25E
100
AcDbEntity
  8
RUNDUNGEN
100
AcDbLine
 62
7
  6
CONTINUOUS
 10
254.7836072739
 20
154.8406250228
 11
254.050401888
 21
154.8406250228
  0
LINE
  5
25F
100
AcDbEntity
  8
RUNDUNGEN
100
AcDbLine
 62
7
  6
CONTINUOUS
 10
250.0421412843
 20
155.6405408447
 11
253.6510191221
 21
155.6406250228
  0
LINE
  5
260
100
AcDbEntity
  8
RUNDUNGEN
100
AcDbLine
 62
7
  6
CONTINUOUS
 10
244.7273208103
 20
155.9456250228
 11
223.0836072739
 21
155.9456250228
  0
LINE
  5
261
100
AcDbEntity
  8
RUNDUNGEN
100
AcDbLine
 62
7
  6
CONTINUOUS
 10
250.6359736312
 20
158.4378229923
 11
250.8340731802
 21
158.4378237357
  0
LINE
  5
262
100
AcDbEntity
  8
RUNDUNGEN
100
AcDbLine
 62
7
  6
CONTINUOUS
 10
250.6359735864
 20
159.8434273779
 11
250.8340730222
 21
159.8434263079
  0
LINE
  5
263
100
AcDbEntity
  8
RUNDUNGEN
100
AcDbLine
 62
7
  6
CONTINUOUS
 10
223.0836072739
 20
162.3356250228
 11
244.7273123381
 21
162.3356250228
  0
LINE
  5
264
100
AcDbEntity
  8
RUNDUNGEN
100
AcDbLine
 62
7
  6
CONTINUOUS
 10
250.0421414761
 20
162.6407087704
 11
253.6510191212
 21
162.6406250227
  0
LINE
  5
265
100
AcDbEntity
  8
RUNDUNGEN
100
AcDbLine
 62
7
  6
CONTINUOUS
 10
254.050401888
 20
163.4406250228
 11
254.7836072739
 21
163.4406250228
  0
LINE
  5
266
100
AcDbEntity
  8
RUNDUNGEN
100
AcDbLine
 62
7
  6
CONTINUOUS
 10
249.2827875467
 20
163.6406250228
 11
254.58351337
 21
163.6406250228
  0
LINE
  5
267
100
AcDbEntity
  8
RUNDUNGEN
100
AcDbLine
 62
7
  6
CONTINUOUS
 10
250.6090505901
 20
158.0857356648
 11
250.8070651469
 21
158.0576032452
  0
LINE
  5
268
100
AcDbEntity
  8
RUNDUNGEN
100
AcDbLine
 62
7
  6
CONTINUOUS
 10
203.5247416641
 20
165.6406250228
 11
190.6836072739
 21
165.6406250228
  0
LINE
  5
269
100
AcDbEntity
  8
RUNDUNGEN
100
AcDbLine
 62
7
  6
CONTINUOUS
 10
212.9925360028
 20
165.6406276063
 11
243.3572554515
 21
165.6406250228
  0
LINE
  5
26A
100
AcDbEntity
  8
RUNDUNGEN
100
AcDbLine
 62
7
  6
CONTINUOUS
 10
190.6836072739
 20
166.6406250228
 11
243.1833243824
 21
166.6406250228
  0
LINE
  5
26B
100
AcDbEntity
  8
RUNDUNGEN
100
AcDbLine
 62
7
  6
CONTINUOUS
 10
249.8640338449
 20
162.5497159324
 11
250.0421785537
 21
162.6406250228
  0
LINE
  5
26C
100
AcDbEntity
  8
RUNDUNGEN
100
AcDbLine
 62
7
  6
CONTINUOUS
 10
249.8640338446
 20
155.7315341128
 11
250.0421785536
 21
155.6406250229
  0
LINE
  5
26D
100
AcDbEntity
  8
RUNDUNGEN
100
AcDbLine
 62
7
  6
CONTINUOUS
 10
246.5515765906
 20
164.8015420321
 11
246.5516377671
 21
153.4797359499
  0
LINE
  5
26E
100
AcDbEntity
  8
RUNDUNGEN
100
AcDbLine
 62
7
  6
CONTINUOUS
 10
250.6359735864
 20
159.8435278604
 11
250.6359736312
 21
158.43773793
  0
LINE
  5
26F
100
AcDbEntity
  8
RUNDUNGEN
100
AcDbLine
 62
7
  6
CONTINUOUS
 10
250.8340730222
 20
159.8434263079
 11
250.8340731802
 21
158.4378237357
  0
LINE
  5
270
100
AcDbEntity
  8
RUNDUNGEN
100
AcDbLine
 62
7
  6
CONTINUOUS
 10
253.4759111694
 20
155.640625022
 11
253.4759111694
 21
162.6406250237
  0
LINE
  5
271
100
AcDbEntity
  8
RUNDUNGEN
100
AcDbLine
 62
7
  6
CONTINUOUS
 10
253.6510191221
 20
155.6406250228
 11
253.6510191221
 21
162.6406250228
  0
LINE
  5
272
100
AcDbEntity
  8
0
100
AcDbLine
 62
7
  6
CONTINUOUS
 10
254.7836072739
 20
163.4406250228
 11
254.7836072739
 21
154.8406250228
  0
LINE
  5
273
100
AcDbEntity
  8
RUNDUNGEN
100
AcDbLine
 62
7
  6
CONTINUOUS
 10
80.4295474851
 20
48.3890874533
 11
73.4293160284
 21
48.3890874533
  0
LINE
  5
274
100
AcDbEntity
  8
RUNDUNGEN
100
AcDbLine
 62
7
  6
CONTINUOUS
 10
80.429431608
 20
48.5475077202
 11
73.429431608
 21
48.5475077202
  0
LINE
  5
275
100
AcDbEntity
  8
RUNDUNGEN
100
AcDbLine
 62
7
  6
CONTINUOUS
 10
55.75
 20
94.1471433978
 11
55.6969627729
 21
94.0769216364
  0
LINE
  5
276
100
AcDbEntity
  8
RUNDUNGEN
100
AcDbLine
 62
7
  6
CONTINUOUS
 10
54.75
 20
87.9882677261
 11
54.75
 21
113.4882677261
  0
LINE
  5
277
100
AcDbEntity
  8
RUNDUNGEN
100
AcDbLine
 62
7
  6
CONTINUOUS
 10
55.75
 20
86.9882677261
 11
55.7500004971
 21
92.9477873524
  0
LINE
  5
278
100
AcDbEntity
  8
RUNDUNGEN
100
AcDbLine
 62
7
  6
CONTINUOUS
 10
55.7500087466
 20
94.1471266737
 11
55.75
 21
114.4882677261
  0
LINE
  5
279
100
AcDbEntity
  8
RUNDUNGEN
100
AcDbLine
 62
7
  6
CONTINUOUS
 10
68.4429243752
 20
54.4885506176
 11
85.7243910686
 21
54.4884480057
  0
LINE
  5
27A
100
AcDbEntity
  8
RUNDUNGEN
100
AcDbLine
 62
7
  6
CONTINUOUS
 10
68.4429742566
 20
54.4882677261
 11
67.4581665036
 21
54.3146195485
  0
LINE
  5
27B
100
AcDbEntity
  8
RUNDUNGEN
100
AcDbLine
 62
7
  6
CONTINUOUS
 10
86.6902685891
 20
54.229448681
 11
85.7243427629
 21
54.4882677264
  0
LINE
  5
27C
100
AcDbEntity
  8
RUNDUNGEN
100
AcDbLine
 62
7
  6
CONTINUOUS
 10
62.1040472031
 20
84.6793389972
 11
68.0214115054
 21
51.1202984094
  0
LINE
  5
27D
100
AcDbEntity
  8
RUNDUNGEN
100
AcDbLine
 62
7
  6
CONTINUOUS
 10
63.0888381325
 20
84.8530801248
 11
68.4429243752
 21
54.4885506176
  0
LINE
  5
27E
100
AcDbEntity
  8
RUNDUNGEN
100
AcDbLine
 62
7
  6
CONTINUOUS
 10
80.429431608
 20
43.8053587079
 11
80.5080832929
 21
43.6214731118
  0
LINE
  5
27F
100
AcDbEntity
  8
RUNDUNGEN
100
AcDbLine
 62
7
  6
CONTINUOUS
 10
63.6131248174
 20
106.9879443488
 11
67.8523015067
 21
82.9463786601
  0
LINE
  5
280
100
AcDbEntity
  8
RUNDUNGEN
100
AcDbLine
 62
7
  6
CONTINUOUS
 10
63.4517772406
 20
113.6617624103
 11
68.8371092597
 21
83.1200268378
  0
LINE
  5
281
100
AcDbEntity
  8
RUNDUNGEN
100
AcDbLine
 62
7
  6
CONTINUOUS
 10
72.229431608
 20
47.8078411549
 11
72.2294326472
 21
47.062810902
  0
LINE
  5
282
100
AcDbEntity
  8
RUNDUNGEN
100
AcDbLine
 62
7
  6
CONTINUOUS
 10
72.429431608
 20
47.6297335239
 11
72.429431608
 21
44.1959638306
  0
LINE
  5
283
100
AcDbEntity
  8
RUNDUNGEN
100
AcDbLine
 62
7
  6
CONTINUOUS
 10
73.429431608
 20
48.5475077202
 11
73.4294316081
 21
43.8053587079
  0
LINE
  5
284
100
AcDbEntity
  8
RUNDUNGEN
100
AcDbLine
 62
7
  6
CONTINUOUS
 10
73.7611480248
 20
78.9882677261
 11
73.7611480248
 21
77.9882677261
  0
LINE
  5
285
100
AcDbEntity
  8
RUNDUNGEN
100
AcDbLine
 62
7
  6
CONTINUOUS
 10
73.7611480248
 20
77.9882677261
 11
84.3113583159
 21
77.9882677261
  0
LINE
  5
286
100
AcDbEntity
  8
RUNDUNGEN
100
AcDbLine
 62
7
  6
CONTINUOUS
 10
73.7611480248
 20
78.9882677261
 11
84.3113583159
 21
78.9882677261
  0
LINE
  5
287
100
AcDbEntity
  8
RUNDUNGEN
100
AcDbLine
 62
7
  6
CONTINUOUS
 10
80.4294316079
 20
43.8053587079
 11
80.429431608
 21
48.5475077202
  0
LINE
  5
288
100
AcDbEntity
  8
RUNDUNGEN
100
AcDbLine
 62
7
  6
CONTINUOUS
 10
81.429431608
 20
44.1959638306
 11
81.429431608
 21
47.6297337146
  0
LINE
  5
289
100
AcDbEntity
  8
RUNDUNGEN
100
AcDbLine
 62
7
  6
CONTINUOUS
 10
81.6294320674
 20
47.0628285851
 11
81.629431608
 21
47.8078411549
  0
LINE
  5
28A
100
AcDbEntity
  8
RUNDUNGEN
100
AcDbLine
 62
7
  6
CONTINUOUS
 10
84.3113583159
 20
78.9882677261
 11
84.3113583157
 21
77.9882677262
  0
LINE
  5
28B
100
AcDbEntity
  8
RUNDUNGEN
100
AcDbLine
 62
7
  6
CONTINUOUS
 10
89.1409874473
 20
82.6941725006
 11
97.4615881405
 21
113.7470770371
  0
LINE
  5
28C
100
AcDbEntity
  8
RUNDUNGEN
100
AcDbLine
 62
7
  6
CONTINUOUS
 10
90.1069132736
 20
82.4353534555
 11
96.685761216
 21
106.9879482319
  0
LINE
  5
28D
100
AcDbEntity
  8
RUNDUNGEN
100
AcDbLine
 62
7
  6
CONTINUOUS
 10
73.429431608
 20
43.8053587079
 11
73.3507799221
 21
43.6214731122
  0
LINE
  5
28E
100
AcDbEntity
  8
RUNDUNGEN
100
AcDbLine
 62
7
  6
CONTINUOUS
 10
68.8371092597
 20
83.1200268378
 11
67.8523015067
 21
82.9463786601
  0
LINE
  5
28F
100
AcDbEntity
  8
RUNDUNGEN
100
AcDbLine
 62
7
  6
CONTINUOUS
 10
63.0888381325
 20
84.8530801248
 11
62.1040305267
 21
84.6794335735
  0
LINE
  5
290
100
AcDbEntity
  8
0
100
AcDbLine
 62
7
  6
CONTINUOUS
 10
57.5014124396
 20
86.9882677261
 11
55.75
 21
86.9882677261
  0
LINE
  5
291
100
AcDbEntity
  8
RUNDUNGEN
100
AcDbLine
 62
7
  6
CONTINUOUS
 10
89.1409874473
 20
82.6941725006
 11
90.1069132736
 21
82.4353534555
  0
LINE
  5
292
100
AcDbEntity
  8
RUNDUNGEN
100
AcDbLine
 62
7
  6
CONTINUOUS
 10
98.1433224674
 20
100.8365275375
 11
85.7243910686
 21
54.4884480057
  0
LINE
  5
293
100
AcDbEntity
  8
RUNDUNGEN
100
AcDbLine
 62
7
  6
CONTINUOUS
 10
99.1092596816
 20
100.5777544168
 11
85.7430317543
 21
50.6943126865
  0
LINE
  5
294
100
AcDbEntity
  8
RUNDUNGEN
100
AcDbLine
 62
7
  6
CONTINUOUS
 10
54.75
 20
94.1471433978
 11
55.7500087465
 21
94.1471433978
  0
LINE
  5
295
100
AcDbEntity
  8
RUNDUNGEN
100
AcDbLine
 62
7
  6
CONTINUOUS
 10
103.75
 20
99.4882677261
 11
100.3519865786
 21
99.4882677261
  0
LINE
  5
296
100
AcDbEntity
  8
RUNDUNGEN
100
AcDbLine
 62
7
  6
CONTINUOUS
 10
103.75
 20
114.4882677261
 11
103.75
 21
99.4882677261
  0
LINE
  5
297
100
AcDbEntity
  8
RUNDUNGEN
100
AcDbLine
 62
7
  6
CONTINUOUS
 10
104.75
 20
113.4882677261
 11
104.75
 21
100.4882677261
  0
LINE
  5
298
100
AcDbEntity
  8
RUNDUNGEN
100
AcDbLine
 62
7
  6
CONTINUOUS
 10
99.1092481624
 20
100.5777114267
 11
98.1433224674
 21
100.8365275375
  0
LINE
  5
299
100
AcDbEntity
  8
RUNDUNGEN
100
AcDbLine
 62
7
  6
CONTINUOUS
 10
102.8975031667
 20
106.9882677261
 11
96.685761216
 21
106.9879482319
  0
LINE
  5
29A
100
AcDbEntity
  8
RUNDUNGEN
100
AcDbLine
 62
7
  6
CONTINUOUS
 10
54.75
 20
106.9882677261
 11
63.6131248174
 21
106.9879443488
  0
LINE
  5
29B
100
AcDbEntity
  8
RUNDUNGEN
100
AcDbLine
 62
7
  6
CONTINUOUS
 10
64.5978755502
 20
107.1619159038
 11
63.6130677972
 21
106.9882677261
  0
LINE
  5
29C
100
AcDbEntity
  8
RUNDUNGEN
100
AcDbLine
 62
7
  6
CONTINUOUS
 10
95.7199209979
 20
107.2470867712
 11
96.685846824
 21
106.9882677254
  0
LINE
  5
29D
100
AcDbEntity
  8
RUNDUNGEN
100
AcDbLine
 62
7
  6
CONTINUOUS
 10
103.75
 20
114.4882677261
 11
102.8365704891
 21
114.4882677261
  0
LINE
  5
29E
100
AcDbEntity
  8
0
100
AcDbLine
 62
7
  6
CONTINUOUS
 10
62.4717635543
 20
114.4882677261
 11
55.75
 21
114.4882677261
  0
LINE
  5
29F
100
AcDbEntity
  8
0
100
AcDbLine
 62
7
  6
CONTINUOUS
 10
98.4208128436
 20
114.4882677261
 11
103.75
 21
114.4882677261
  0
ARC
  5
2A0
100
AcDbEntity
  8
RUNDUNGEN
100
AcDbCircle
 62
7
  6
CONTINUOUS
 10
73.4295314099
 20
155.7876108334
 40
1.2249078925
100
AcDbArc
 50
263.6762130419
 51
269.9953317086
  0
ARC
  5
2A1
100
AcDbEntity
  8
RUNDUNGEN
100
AcDbCircle
 62
7
  6
CONTINUOUS
 10
73.429431608
 20
155.6406250228
 40
1.0
100
AcDbArc
 50
180.0048230751
 51
269.9933607491
  0
ARC
  5
2A2
100
AcDbEntity
  8
RUNDUNGEN
100
AcDbCircle
 62
7
  6
CONTINUOUS
 10
55.7485252593
 20
152.6418544305
 40
0.9986021724
100
AcDbArc
 50
180.07054387
 51
270.0
  0
ARC
  5
2A3
100
AcDbEntity
  8
RUNDUNGEN
100
AcDbCircle
 62
7
  6
CONTINUOUS
 10
55.7093264261
 20
152.7796483601
 40
0.959326539
100
AcDbArc
 50
180.0277942124
 51
189.2107427942
  0
ARC
  5
2A4
100
AcDbEntity
  8
RUNDUNGEN
100
AcDbCircle
 62
7
  6
CONTINUOUS
 10
55.7501388691
 20
152.0069163681
 40
0.3662913715
100
AcDbArc
 50
261.6528738355
 51
269.9782779178
  0
ARC
  5
2A5
100
AcDbEntity
  8
RUNDUNGEN
100
AcDbCircle
 62
7
  6
CONTINUOUS
 10
73.4295385212
 20
162.4936330073
 40
1.2249140981
100
AcDbArc
 50
90.0050009003
 51
96.3512213102
  0
ARC
  5
2A6
100
AcDbEntity
  8
RUNDUNGEN
100
AcDbCircle
 62
7
  6
CONTINUOUS
 10
73.429431608
 20
162.6406250228
 40
1.0
100
AcDbArc
 50
90.0066222059
 51
179.9952015976
  0
ARC
  5
2A7
100
AcDbEntity
  8
RUNDUNGEN
100
AcDbCircle
 62
7
  6
CONTINUOUS
 10
55.7485270485
 20
165.639394391
 40
0.9986040438
100
AcDbArc
 50
89.9994988597
 51
179.9293860157
  0
ARC
  5
2A8
100
AcDbEntity
  8
RUNDUNGEN
100
AcDbCircle
 62
7
  6
CONTINUOUS
 10
55.7093238141
 20
165.5015994011
 40
0.9593239269
100
AcDbArc
 50
170.7892202562
 51
179.9722061191
  0
ARC
  5
2A9
100
AcDbEntity
  8
RUNDUNGEN
100
AcDbCircle
 62
7
  6
CONTINUOUS
 10
55.7501269907
 20
166.2744136103
 40
0.3662114346
100
AcDbArc
 50
90.0198683927
 51
98.3473298183
  0
ARC
  5
2AA
100
AcDbEntity
  8
RUNDUNGEN
100
AcDbCircle
 62
7
  6
CONTINUOUS
 10
80.4293246948
 20
155.7876170384
 40
1.2249140981
100
AcDbArc
 50
270.0050009003
 51
276.3512213102
  0
ARC
  5
2AB
100
AcDbEntity
  8
RUNDUNGEN
100
AcDbCircle
 62
7
  6
CONTINUOUS
 10
103.75
 20
152.6406250228
 40
1.0
100
AcDbArc
 50
270.0
 51
360.0
  0
ARC
  5
2AC
100
AcDbEntity
  8
RUNDUNGEN
100
AcDbCircle
 62
7
  6
CONTINUOUS
 10
80.429431608
 20
155.6406250228
 40
1.0
100
AcDbArc
 50
270.0066222059
 51
359.9952015976
  0
ARC
  5
2AD
100
AcDbEntity
  8
RUNDUNGEN
100
AcDbCircle
 62
7
  6
CONTINUOUS
 10
80.4293318061
 20
162.4936392123
 40
1.2249078925
100
AcDbArc
 50
83.6762130419
 51
89.9953317086
  0
ARC
  5
2AE
100
AcDbEntity
  8
RUNDUNGEN
100
AcDbCircle
 62
7
  6
CONTINUOUS
 10
103.75
 20
165.6406250228
 40
1.0
100
AcDbArc
 50
0.0
 51
90.0
  0
ARC
  5
2AF
100
AcDbEntity
  8
RUNDUNGEN
100
AcDbCircle
 62
7
  6
CONTINUOUS
 10
80.429431608
 20
162.6406250228
 40
1.0
100
AcDbArc
 50
0.0048230751
 51
89.9933607491
  0
ARC
  5
2B0
100
AcDbEntity
  8
RUNDUNGEN
100
AcDbCircle
 62
7
  6
CONTINUOUS
 10
202.3137319127
 20
159.1409710109
 40
12.5016369442
100
AcDbArc
 50
328.6704688618
 51
31.3293567904
  0
ARC
  5
2B1
100
AcDbEntity
  8
RUNDUNGEN
100
AcDbCircle
 62
7
  6
CONTINUOUS
 10
203.0372034087
 20
158.4370183985
 40
8.2186756152
100
AcDbArc
 50
78.1556423986
 51
86.1085791442
  0
ARC
  5
2B2
100
AcDbEntity
  8
RUNDUNGEN
100
AcDbCircle
 62
7
  6
CONTINUOUS
 10
203.0373054627
 20
159.8433513676
 40
8.2177915989
100
AcDbArc
 50
273.891174245
 51
281.8432172837
  0
ARC
  5
2B3
100
AcDbEntity
  8
RUNDUNGEN
100
AcDbCircle
 62
7
  6
CONTINUOUS
 10
203.1836072739
 20
159.1406250228
 40
7.5
100
AcDbArc
 50
281.851182757
 51
78.1472375354
  0
ARC
  5
2B4
100
AcDbEntity
  8
0
100
AcDbCircle
 62
7
  6
CONTINUOUS
 10
190.6836072739
 20
159.1406250228
 40
7.5
100
AcDbArc
 50
248.5855299854
 51
252.4511973178
  0
ARC
  5
2B5
100
AcDbEntity
  8
0
100
AcDbCircle
 62
7
  6
CONTINUOUS
 10
190.6836072739
 20
159.1406250228
 40
7.5
100
AcDbArc
 50
259.6053823064
 51
263.1694467255
  0
ARC
  5
2B6
100
AcDbEntity
  8
RUNDUNGEN
100
AcDbCircle
 62
7
  6
CONTINUOUS
 10
190.6836072739
 20
159.1406250228
 40
7.5
100
AcDbArc
 50
90.0
 51
270.0
  0
ARC
  5
2B7
100
AcDbEntity
  8
RUNDUNGEN
100
AcDbCircle
 62
7
  6
CONTINUOUS
 10
203.0067825139
 20
158.2923041847
 40
7.3665528452
100
AcDbArc
 50
78.157557626
 51
85.9680760742
  0
ARC
  5
2B8
100
AcDbEntity
  8
RUNDUNGEN
100
AcDbCircle
 62
7
  6
CONTINUOUS
 10
203.0069137426
 20
159.988037035
 40
7.3656356505
100
AcDbArc
 50
274.0312491532
 51
281.8428073401
  0
ARC
  5
2B9
100
AcDbEntity
  8
RUNDUNGEN
100
AcDbCircle
 62
7
  6
CONTINUOUS
 10
190.6836072739
 20
159.1406250228
 40
6.5
100
AcDbArc
 50
90.0
 51
270.0
  0
ARC
  5
2BA
100
AcDbEntity
  8
RUNDUNGEN
100
AcDbCircle
 62
7
  6
CONTINUOUS
 10
203.1836072739
 20
159.1406250228
 40
6.5
100
AcDbArc
 50
281.8514424116
 51
78.1484592463
  0
CIRCLE
  5
2BB
100
AcDbEntity
  8
RUNDUNGEN
100
AcDbCircle
 62
7
  6
CONTINUOUS
 10
203.1836072739
 20
159.1406250228
 40
6.0
  0
CIRCLE
  5
2BC
100
AcDbEntity
  8
RUNDUNGEN
100
AcDbCircle
 62
7
  6
CONTINUOUS
 10
203.1836072739
 20
159.1406250228
 40
5.0
  0
CIRCLE
  5
2BD
100
AcDbEntity
  8
0
100
AcDbCircle
 62
7
  6
CONTINUOUS
 10
190.6836072739
 20
159.1406250228
 40
3.19
  0
ARC
  5
2BE
100
AcDbEntity
  8
RUNDUNGEN
100
AcDbCircle
 62
7
  6
CONTINUOUS
 10
203.5246665874
 20
152.2791725436
 40
0.6385475231
100
AcDbArc
 50
270.0049606178
 51
276.3195827549
  0
ARC
  5
2BF
100
AcDbEntity
  8
RUNDUNGEN
100
AcDbCircle
 62
7
  6
CONTINUOUS
 10
203.155208708
 20
174.6740393635
 40
23.0337339901
100
AcDbArc
 50
271.0939805217
 51
273.9235019749
  0
ARC
  5
2C0
100
AcDbEntity
  8
RUNDUNGEN
100
AcDbCircle
 62
7
  6
CONTINUOUS
 10
203.5246673694
 20
166.0019979264
 40
0.6386270997
100
AcDbArc
 50
83.681343419
 51
89.9942372126
  0
ARC
  5
2C1
100
AcDbEntity
  8
0
100
AcDbCircle
 62
7
  6
CONTINUOUS
 10
223.0836072739
 20
159.1406250228
 40
3.195
100
AcDbArc
 50
90.0
 51
270.0
  0
ARC
  5
2C2
100
AcDbEntity
  8
RUNDUNGEN
100
AcDbCircle
 62
7
  6
CONTINUOUS
 10
247.923537272
 20
158.4681888923
 40
2.7126158157
100
AcDbArc
 50
351.8970221558
 51
359.3566239229
  0
ARC
  5
2C3
100
AcDbEntity
  8
RUNDUNGEN
100
AcDbCircle
 62
7
  6
CONTINUOUS
 10
248.1290733184
 20
158.4388973203
 40
2.7050000749
100
AcDbArc
 50
351.8966574191
 51
359.9772599394
  0
ARC
  5
2C4
100
AcDbEntity
  8
RUNDUNGEN
100
AcDbCircle
 62
7
  6
CONTINUOUS
 10
254.5836072739
 20
154.8406250228
 40
0.2
100
AcDbArc
 50
270.0
 51
360.0
  0
ARC
  5
2C5
100
AcDbEntity
  8
RUNDUNGEN
100
AcDbCircle
 62
7
  6
CONTINUOUS
 10
249.2828366398
 20
154.4406774251
 40
0.1999912663
100
AcDbArc
 50
90.0140678468
 51
142.3823203336
  0
ARC
  5
2C6
100
AcDbEntity
  8
RUNDUNGEN
100
AcDbCircle
 62
7
  6
CONTINUOUS
 10
243.1836072739
 20
159.1406250228
 40
7.7
100
AcDbArc
 50
8.0855761621
 51
27.0363722643
  0
ARC
  5
2C7
100
AcDbEntity
  8
RUNDUNGEN
100
AcDbCircle
 62
7
  6
CONTINUOUS
 10
243.1836072739
 20
159.1406250228
 40
7.7
100
AcDbArc
 50
332.963624233
 51
351.9144163885
  0
ARC
  5
2C8
100
AcDbEntity
  8
RUNDUNGEN
100
AcDbCircle
 62
7
  6
CONTINUOUS
 10
243.1836072739
 20
159.1406250228
 40
7.5
100
AcDbArc
 50
269.9973742396
 51
351.91512433
  0
ARC
  5
2C9
100
AcDbEntity
  8
RUNDUNGEN
100
AcDbCircle
 62
7
  6
CONTINUOUS
 10
243.1836072739
 20
159.1406250228
 40
7.5
100
AcDbArc
 50
8.0848377633
 51
90.001377235
  0
ARC
  5
2CA
100
AcDbEntity
  8
RUNDUNGEN
100
AcDbCircle
 62
7
  6
CONTINUOUS
 10
243.3575225457
 20
159.1394553756
 40
6.4988303582
100
AcDbArc
 50
269.9976452119
 51
299.4386135941
  0
ARC
  5
2CB
100
AcDbEntity
  8
RUNDUNGEN
100
AcDbCircle
 62
7
  6
CONTINUOUS
 10
243.3575212398
 20
159.1418341408
 40
6.4987908874
100
AcDbArc
 50
60.5617961139
 51
90.0023432891
  0
ARC
  5
2CC
100
AcDbEntity
  8
RUNDUNGEN
100
AcDbCircle
 62
7
  6
CONTINUOUS
 10
245.357386831
 20
159.1587740829
 40
5.3276953791
100
AcDbArc
 50
346.9988087205
 51
348.4568869074
  0
ARC
  5
2CD
100
AcDbEntity
  8
RUNDUNGEN
100
AcDbCircle
 62
7
  6
CONTINUOUS
 10
245.3575082071
 20
159.1224855334
 40
5.3275773741
100
AcDbArc
 50
11.5431580373
 51
13.0309344204
  0
ARC
  5
2CE
100
AcDbEntity
  8
RUNDUNGEN
100
AcDbCircle
 62
7
  6
CONTINUOUS
 10
245.4052912165
 20
159.1492320332
 40
5.2788504793
100
AcDbArc
 50
348.4543160431
 51
352.2539849482
  0
ARC
  5
2CF
100
AcDbEntity
  8
RUNDUNGEN
100
AcDbCircle
 62
7
  6
CONTINUOUS
 10
245.4060351289
 20
159.1321559693
 40
5.2780968385
100
AcDbArc
 50
7.7457889887
 51
11.5457164824
  0
ARC
  5
2D0
100
AcDbEntity
  8
RUNDUNGEN
100
AcDbCircle
 62
7
  6
CONTINUOUS
 10
240.6301100305
 20
159.1404412097
 40
5.1957931396
100
AcDbArc
 50
322.0517352853
 51
37.9487183073
  0
ARC
  5
2D1
100
AcDbEntity
  8
RUNDUNGEN
100
AcDbCircle
 62
7
  6
CONTINUOUS
 10
240.2836072739
 20
159.1406250228
 40
3.195
100
AcDbArc
 50
269.9971116187
 51
90.0033829179
  0
ARC
  5
2D2
100
AcDbEntity
  8
RUNDUNGEN
100
AcDbCircle
 62
7
  6
CONTINUOUS
 10
247.9237817093
 20
159.8130906
 40
2.7123706694
100
AcDbArc
 50
0.6431811383
 51
8.1029762251
  0
ARC
  5
2D3
100
AcDbEntity
  8
RUNDUNGEN
100
AcDbCircle
 62
7
  6
CONTINUOUS
 10
248.1292980365
 20
159.8423733772
 40
2.7047751907
100
AcDbArc
 50
0.022304436
 51
8.1035592669
  0
ARC
  5
2D4
100
AcDbEntity
  8
RUNDUNGEN
100
AcDbCircle
 62
7
  6
CONTINUOUS
 10
254.5836072739
 20
163.4406250228
 40
0.2
100
AcDbArc
 50
0.0
 51
90.0
  0
ARC
  5
2D5
100
AcDbEntity
  8
RUNDUNGEN
100
AcDbCircle
 62
7
  6
CONTINUOUS
 10
249.2828366398
 20
163.8405726206
 40
0.1999912663
100
AcDbArc
 50
217.5972046185
 51
269.9859321532
  0
ARC
  5
2D6
100
AcDbEntity
  8
RUNDUNGEN
100
AcDbCircle
 62
7
  6
CONTINUOUS
 10
76.3405225731
 20
55.7551878601
 40
12.6300274687
100
AcDbArc
 50
288.8895623213
 51
292.4011808831
  0
ARC
  5
2D7
100
AcDbEntity
  8
RUNDUNGEN
100
AcDbCircle
 62
7
  6
CONTINUOUS
 10
77.4842070914
 20
55.664607458
 40
12.5332751162
100
AcDbArc
 50
247.5870463521
 51
251.1240164254
  0
ARC
  5
2D8
100
AcDbEntity
  8
RUNDUNGEN
100
AcDbCircle
 62
7
  6
CONTINUOUS
 10
76.929431608
 20
51.9882677261
 40
9.1
100
AcDbArc
 50
241.108920963
 51
298.891079037
  0
ARC
  5
2D9
100
AcDbEntity
  8
RUNDUNGEN
100
AcDbCircle
 62
7
  6
CONTINUOUS
 10
76.929431608
 20
51.9882677261
 40
8.9
100
AcDbArc
 50
246.8425992061
 51
293.1574007939
  0
ARC
  5
2DA
100
AcDbEntity
  8
RUNDUNGEN
100
AcDbCircle
 62
7
  6
CONTINUOUS
 10
72.9454981559
 20
51.9882677261
 40
5.0
100
AcDbArc
 50
189.9968400099
 51
262.084923487
  0
ARC
  5
2DB
100
AcDbEntity
  8
RUNDUNGEN
100
AcDbCircle
 62
7
  6
CONTINUOUS
 10
72.629431608
 20
44.1959638306
 40
0.2
100
AcDbArc
 50
180.0
 51
241.108920963
  0
ARC
  5
2DC
100
AcDbEntity
  8
RUNDUNGEN
100
AcDbCircle
 62
7
  6
CONTINUOUS
 10
72.229431608
 20
46.837806708
 40
0.2
100
AcDbArc
 50
7.69887461
 51
82.0850338947
  0
ARC
  5
2DD
100
AcDbEntity
  8
RUNDUNGEN
100
AcDbCircle
 62
7
  6
CONTINUOUS
 10
73.7611480248
 20
83.9882677261
 40
6.0
100
AcDbArc
 50
190.0
 51
270.0
  0
ARC
  5
2DE
100
AcDbEntity
  8
RUNDUNGEN
100
AcDbCircle
 62
7
  6
CONTINUOUS
 10
73.7611480248
 20
83.9882677261
 40
5.0
100
AcDbArc
 50
190.0
 51
270.0
  0
ARC
  5
2DF
100
AcDbEntity
  8
RUNDUNGEN
100
AcDbCircle
 62
7
  6
CONTINUOUS
 10
57.5014226105
 20
81.9882677562
 40
4.9999999963
100
AcDbArc
 50
9.9999999492
 51
89.9999999912
  0
ARC
  5
2E0
100
AcDbEntity
  8
RUNDUNGEN
100
AcDbCircle
 62
7
  6
CONTINUOUS
 10
55.75
 20
113.4882677261
 40
1.0
100
AcDbArc
 50
90.0
 51
180.0
  0
ARC
  5
2E1
100
AcDbEntity
  8
RUNDUNGEN
100
AcDbCircle
 62
7
  6
CONTINUOUS
 10
55.75
 20
87.9882677261
 40
1.0
100
AcDbArc
 50
180.0
 51
270.0
  0
ARC
  5
2E2
100
AcDbEntity
  8
RUNDUNGEN
100
AcDbCircle
 62
7
  6
CONTINUOUS
 10
62.4669464565
 20
113.4882448487
 40
1.0
100
AcDbArc
 50
10.0
 51
89.9999095413
  0
ARC
  5
2E3
100
AcDbEntity
  8
RUNDUNGEN
100
AcDbCircle
 62
7
  6
CONTINUOUS
 10
80.9133650601
 20
51.9882677261
 40
5.0
100
AcDbArc
 50
277.9151193008
 51
345.0016630803
  0
ARC
  5
2E4
100
AcDbEntity
  8
RUNDUNGEN
100
AcDbCircle
 62
7
  6
CONTINUOUS
 10
81.229431608
 20
44.1959638306
 40
0.2
100
AcDbArc
 50
298.891079037
 51
360.0
  0
ARC
  5
2E5
100
AcDbEntity
  8
RUNDUNGEN
100
AcDbCircle
 62
7
  6
CONTINUOUS
 10
81.629431608
 20
46.837806708
 40
0.2
100
AcDbArc
 50
97.9143201322
 51
172.3023823607
  0
ARC
  5
2E6
100
AcDbEntity
  8
RUNDUNGEN
100
AcDbCircle
 62
7
  6
CONTINUOUS
 10
84.3113583159
 20
83.9882677261
 40
6.0
100
AcDbArc
 50
270.0
 51
345.0
  0
ARC
  5
2E7
100
AcDbEntity
  8
RUNDUNGEN
100
AcDbCircle
 62
7
  6
CONTINUOUS
 10
84.3113583159
 20
83.9882677261
 40
5.0
100
AcDbArc
 50
269.9999999853
 51
345.0000000169
  0
ARC
  5
2E8
100
AcDbEntity
  8
RUNDUNGEN
100
AcDbCircle
 62
7
  6
CONTINUOUS
 10
100.3519910891
 20
97.4882845594
 40
1.9999964561
100
AcDbArc
 50
90.0001292165
 51
165.0004992499
  0
ARC
  5
2E9
100
AcDbEntity
  8
RUNDUNGEN
100
AcDbCircle
 62
7
  6
CONTINUOUS
 10
103.75
 20
100.4882677261
 40
1.0
100
AcDbArc
 50
270.0
 51
360.0
  0
ARC
  5
2EA
100
AcDbEntity
  8
RUNDUNGEN
100
AcDbCircle
 62
7
  6
CONTINUOUS
 10
103.75
 20
113.4882677261
 40
1.0
100
AcDbArc
 50
0.0
 51
90.0
  0
ARC
  5
2EB
100
AcDbEntity
  8
RUNDUNGEN
100
AcDbCircle
 62
7
  6
CONTINUOUS
 10
98.4275128435
 20
113.4882537998
 40
1.0
100
AcDbArc
 50
90.0001031529
 51
164.9999999974
  0
SPLINE
  5
2EC
100
AcDbEntity
  8
RUNDUNGEN
100
AcDbSpline
 62
7
  6
CONTINUOUS
 70
0
 71
3
 72
9
 73
5
 74
0
 42
0.0000001
 43
0.0000001
 44
0.0000000001
 40
0.0
 40
0.0
 40
0.0
 40
0.0
 40
0.4807937849
 40
1.0
 40
1.0
 40
1.0
 40
1.0
 10
62.1040449409
 20
152.6406230738
 30
0.0
 10
62.2153834244
 20
153.6778977062
 30
0.0
 10
62.3744836109
 20
155.8432357685
 30
0.0
 10
62.4254519215
 20
158.0133219616
 30
0.0
 10
62.4254613763
 20
159.1399026947
 30
0.0
  0
SPLINE
  5
2ED
100
AcDbEntity
  8
RUNDUNGEN
100
AcDbSpline
 62
7
  6
CONTINUOUS
 70
0
 71
3
 72
9
 73
5
 74
0
 42
0.0000001
 43
0.0000001
 44
0.0000000001
 40
0.0
 40
0.0
 40
0.0
 40
0.0
 40
0.519226392
 40
1.0
 40
1.0
 40
1.0
 40
1.0
 10
62.4254613763
 20
159.1399026947
 30
0.0
 10
62.4254563983
 20
160.2667772452
 30
0.0
 10
62.3745353191
 20
162.4373462561
 30
0.0
 10
62.2154037585
 20
164.6031660956
 30
0.0
 10
62.1040472031
 20
165.6406276063
 30
0.0
  0
SPLINE
  5
2EE
100
AcDbEntity
  8
RUNDUNGEN
100
AcDbSpline
 62
7
  6
CONTINUOUS
 70
0
 71
3
 72
10
 73
6
 74
0
 42
0.0000001
 43
0.0000001
 44
0.0000000001
 40
0.0
 40
0.0
 40
0.0
 40
0.0
 40
0.5284316167
 40
0.7746339897
 40
1.0
 40
1.0
 40
1.0
 40
1.0
 10
67.8934556934
 20
159.1411621606
 30
0.0
 10
67.8934657911
 20
158.5769030709
 30
0.0
 10
67.8705062121
 20
157.7493811625
 30
0.0
 10
67.7892538155
 20
156.6845416596
 30
0.0
 10
67.7325284462
 20
156.1840273824
 30
0.0
 10
67.6997459916
 20
155.9456250228
 30
0.0
  0
SPLINE
  5
2EF
100
AcDbEntity
  8
RUNDUNGEN
100
AcDbSpline
 62
7
  6
CONTINUOUS
 70
0
 71
3
 72
10
 73
6
 74
0
 42
0.0000001
 43
0.0000001
 44
0.0000000001
 40
0.0
 40
0.0
 40
0.0
 40
0.0
 40
0.2253655816
 40
0.4715644998
 40
1.0
 40
1.0
 40
1.0
 40
1.0
 10
67.6997444978
 20
162.3356250228
 30
0.0
 10
67.7325162662
 20
162.0973030804
 30
0.0
 10
67.7892278144
 20
161.5969614373
 30
0.0
 10
67.8704702542
 20
160.5324802119
 30
0.0
 10
67.8934454163
 20
159.7052362534
 30
0.0
 10
67.8934556934
 20
159.1411621606
 30
0.0
  0
LINE
  5
2F0
100
AcDbEntity
  8
RUNDUNGEN
100
AcDbLine
 62
7
  6
CONTINUOUS
 10
55.6969728593
 20
166.6367454615
 11
55.7498970151
 21
166.6356503824
  0
SPLINE
  5
2F1
100
AcDbEntity
  8
RUNDUNGEN
100
AcDbSpline
 62
7
  6
CONTINUOUS
 70
0
 71
3
 72
17
 73
13
 74
0
 42
0.0000001
 43
0.0000001
 44
0.0000000001
 40
0.0
 40
0.0
 40
0.0
 40
0.0
 40
0.1548715056
 40
0.3078644194
 40
0.457052906
 40
0.5995714745
 40
0.731326532
 40
0.8467868143
 40
0.8962769486
 40
0.9389796098
 40
0.973878287
 40
1.0
 40
1.0
 40
1.0
 40
1.0
 10
55.7498970151
 20
166.6356503824
 30
0.0
 10
56.0828528669
 20
166.6283339808
 30
0.0
 10
56.7444718857
 20
166.5977460304
 30
0.0
 10
57.7235097851
 20
166.5082508144
 30
0.0
 10
58.6719718144
 20
166.3846812266
 30
0.0
 10
59.5710032153
 20
166.2391520456
 30
0.0
 10
60.3947525135
 20
166.0844799429
 30
0.0
 10
61.019029621
 20
165.9521580108
 30
0.0
 10
61.453254853
 20
165.847980747
 30
0.0
 10
61.7174574198
 20
165.7777341836
 30
0.0
 10
61.9305705514
 20
165.7120150614
 30
0.0
 10
62.0535666236
 20
165.6652547751
 30
0.0
 10
62.1040474933
 20
165.6406173961
 30
0.0
  0
SPLINE
  5
2F2
100
AcDbEntity
  8
RUNDUNGEN
100
AcDbSpline
 62
7
  6
CONTINUOUS
 70
0
 71
3
 72
9
 73
5
 74
0
 42
0.0000001
 43
0.0000001
 44
0.0000000001
 40
0.0
 40
0.0
 40
0.0
 40
0.0
 40
0.5831901314
 40
1.0
 40
1.0
 40
1.0
 40
1.0
 10
55.7500093053
 20
166.4807083618
 30
0.0
 10
55.7438771929
 20
166.5080662663
 30
0.0
 10
55.7322172917
 20
166.5546901609
 30
0.0
 10
55.7163628934
 20
166.6003328263
 30
0.0
 10
55.7075378164
 20
166.6183228434
 30
0.0
  0
SPLINE
  5
2F3
100
AcDbEntity
  8
RUNDUNGEN
100
AcDbSpline
 62
7
  6
CONTINUOUS
 70
0
 71
3
 72
9
 73
5
 74
0
 42
0.0000001
 43
0.0000001
 44
0.0000000001
 40
0.0
 40
0.0
 40
0.0
 40
0.0
 40
0.2738707258
 40
1.0
 40
1.0
 40
1.0
 40
1.0
 10
55.7075378164
 20
166.6183228434
 30
0.0
 10
55.7066835658
 20
166.6200642429
 30
0.0
 10
55.7034756846
 20
166.6263770526
 30
0.0
 10
55.6998932473
 20
166.6325124274
 30
0.0
 10
55.6969728593
 20
166.6367454615
 30
0.0
  0
LINE
  5
2F4
100
AcDbEntity
  8
RUNDUNGEN
100
AcDbLine
 62
7
  6
CONTINUOUS
 10
55.6969732294
 20
151.6445038822
 11
55.7498904188
 21
151.6455990556
  0
SPLINE
  5
2F5
100
AcDbEntity
  8
RUNDUNGEN
100
AcDbSpline
 62
7
  6
CONTINUOUS
 70
0
 71
3
 72
17
 73
13
 74
0
 42
0.0000001
 43
0.0000001
 44
0.0000000001
 40
0.0
 40
0.0
 40
0.0
 40
0.0
 40
0.154870797
 40
0.307865318
 40
0.4570526777
 40
0.5995716172
 40
0.7313265457
 40
0.8467870109
 40
0.8962770659
 40
0.938980178
 40
0.9738784635
 40
1.0
 40
1.0
 40
1.0
 40
1.0
 10
55.7498904188
 20
151.6455990556
 30
0.0
 10
56.0828447144
 20
151.6529169423
 30
0.0
 10
56.744465216
 20
151.6835100357
 30
0.0
 10
57.7235040214
 20
151.772991004
 30
0.0
 10
58.6719662477
 20
151.896574134
 30
0.0
 10
59.5709968255
 20
152.0420949943
 30
0.0
 10
60.394747689
 20
152.196765668
 30
0.0
 10
61.0190223463
 20
152.3290963426
 30
0.0
 10
61.4532524785
 20
152.4332603598
 30
0.0
 10
61.7174482163
 20
152.5035304704
 30
0.0
 10
61.9305717109
 20
152.569214827
 30
0.0
 10
62.0535629677
 20
152.6159877138
 30
0.0
 10
62.1040393605
 20
152.6406333985
 30
0.0
  0
SPLINE
  5
2F6
100
AcDbEntity
  8
RUNDUNGEN
100
AcDbSpline
 62
7
  6
CONTINUOUS
 70
0
 71
3
 72
9
 73
5
 74
0
 42
0.0000001
 43
0.0000001
 44
0.0000000001
 40
0.0
 40
0.0
 40
0.0
 40
0.0
 40
0.1997447145
 40
1.0
 40
1.0
 40
1.0
 40
1.0
 10
55.6969732294
 20
151.6445038822
 30
0.0
 10
55.6993327721
 20
151.6479235515
 30
0.0
 10
55.7100572103
 20
151.665790832
 30
0.0
 10
55.7175667303
 20
151.6853638009
 30
0.0
 10
55.7229816877
 20
151.7011037712
 30
0.0
  0
SPLINE
  5
2F7
100
AcDbEntity
  8
RUNDUNGEN
100
AcDbSpline
 62
7
  6
CONTINUOUS
 70
0
 71
3
 72
9
 73
5
 74
0
 42
0.0000001
 43
0.0000001
 44
0.0000000001
 40
0.0
 40
0.0
 40
0.0
 40
0.0
 40
0.2305592439
 40
1.0
 40
1.0
 40
1.0
 40
1.0
 10
55.7229816877
 20
151.7011037712
 30
0.0
 10
55.724132297
 20
151.7044483139
 30
0.0
 10
55.7289726522
 20
151.7190061836
 30
0.0
 10
55.7332717159
 20
151.7337402978
 30
0.0
 10
55.7363752769
 20
151.7451287036
 30
0.0
  0
SPLINE
  5
2F8
100
AcDbEntity
  8
RUNDUNGEN
100
AcDbSpline
 62
7
  6
CONTINUOUS
 70
0
 71
3
 72
9
 73
5
 74
0
 42
0.0000001
 43
0.0000001
 44
0.0000000001
 40
0.0
 40
0.0
 40
0.0
 40
0.0
 40
0.2334107054
 40
1.0
 40
1.0
 40
1.0
 40
1.0
 10
55.7363752769
 20
151.7451287036
 30
0.0
 10
55.7375417021
 20
151.7494088592
 30
0.0
 10
55.7424111866
 20
151.7677811177
 30
0.0
 10
55.746811865
 20
151.7862757365
 30
0.0
 10
55.7499980163
 20
151.8004930305
 30
0.0
  0
SPLINE
  5
2F9
100
AcDbEntity
  8
RUNDUNGEN
100
AcDbSpline
 62
7
  6
CONTINUOUS
 70
0
 71
3
 72
15
 73
11
 74
0
 42
0.0000001
 43
0.0000001
 44
0.0000000001
 40
0.0
 40
0.0
 40
0.0
 40
0.0
 40
0.0402985689
 40
0.0852717045
 40
0.1876208211
 40
0.3037798918
 40
0.4306468441
 40
0.5656307961
 40
0.7066175459
 40
1.0
 40
1.0
 40
1.0
 40
1.0
 10
69.0062671438
 20
165.6723092561
 30
0.0
 10
69.0286459808
 20
165.5896942813
 30
0.0
 10
69.0847505487
 20
165.4172361707
 30
0.0
 10
69.2330272278
 20
165.0471672534
 30
0.0
 10
69.4791079369
 20
164.5438608754
 30
0.0
 10
69.8355016007
 20
163.9025597261
 30
0.0
 10
70.2489343678
 20
163.2141730758
 30
0.0
 10
70.7053659907
 20
162.4904340806
 30
0.0
 10
71.3654841415
 20
161.4771837864
 30
0.0
 10
71.8802286056
 20
160.7115091699
 30
0.0
 10
72.2294326472
 20
160.1954192936
 30
0.0
  0
SPLINE
  5
2FA
100
AcDbEntity
  8
RUNDUNGEN
100
AcDbSpline
 62
7
  6
CONTINUOUS
 70
0
 71
3
 72
13
 73
9
 74
0
 42
0.0000001
 43
0.0000001
 44
0.0000000001
 40
0.0
 40
0.0
 40
0.0
 40
0.0
 40
0.0913500488
 40
0.1971423906
 40
0.3145099829
 40
0.4409354927
 40
0.7128425983
 40
1.0
 40
1.0
 40
1.0
 40
1.0
 10
84.7770683653
 20
165.4343055313
 30
0.0
 10
84.7141872268
 20
165.258817565
 30
0.0
 10
84.5533832569
 20
164.8892161408
 30
0.0
 10
84.2582890676
 20
164.3191085102
 30
0.0
 10
83.9037690819
 20
163.6998510007
 30
0.0
 10
83.3558244125
 20
162.8013106159
 30
0.0
 10
82.5943853236
 20
161.6276173602
 30
0.0
 10
81.9578145264
 20
160.6808760181
 30
0.0
 10
81.6294320674
 20
160.1955437698
 30
0.0
  0
SPLINE
  5
2FB
100
AcDbEntity
  8
RUNDUNGEN
100
AcDbSpline
 62
7
  6
CONTINUOUS
 70
0
 71
3
 72
19
 73
15
 74
0
 42
0.0000001
 43
0.0000001
 44
0.0000000001
 40
0.0
 40
0.0
 40
0.0
 40
0.0
 40
0.0293182772
 40
0.0605863426
 40
0.0954288756
 40
0.1349459224
 40
0.1798064456
 40
0.2303548715
 40
0.2867006065
 40
0.3487720332
 40
0.4890270422
 40
0.6478962771
 40
0.8203406824
 40
1.0
 40
1.0
 40
1.0
 40
1.0
 10
102.8976805905
 20
166.6406250228
 30
0.0
 10
102.81585276
 20
166.640633192
 30
0.0
 10
102.6459355324
 20
166.6158931733
 30
0.0
 10
102.3997621881
 20
166.5077230497
 30
0.0
 10
102.1608455508
 20
166.3317807641
 30
0.0
 10
101.9300696288
 20
166.0903196193
 30
0.0
 10
101.7082566897
 20
165.7849023467
 30
0.0
 10
101.4968559213
 20
165.4171521374
 30
0.0
 10
101.2975635601
 20
164.9892175361
 30
0.0
 10
101.0400651565
 20
164.3142185926
 30
0.0
 10
100.7691241502
 20
163.3409845034
 30
0.0
 10
100.53257369
 20
162.0448775805
 30
0.0
 10
100.3851546652
 20
160.6251234464
 30
0.0
 10
100.3520073059
 20
159.6420573598
 30
0.0
 10
100.3519865786
 20
159.1406250228
 30
0.0
  0
SPLINE
  5
2FC
100
AcDbEntity
  8
RUNDUNGEN
100
AcDbSpline
 62
7
  6
CONTINUOUS
 70
0
 71
3
 72
15
 73
11
 74
0
 42
0.0000001
 43
0.0000001
 44
0.0000000001
 40
0.0
 40
0.0
 40
0.0
 40
0.0
 40
0.0416695545
 40
0.0893743562
 40
0.1986284137
 40
0.3207198379
 40
0.4507175887
 40
0.5853659697
 40
0.7225897006
 40
1.0
 40
1.0
 40
1.0
 40
1.0
 10
99.1092511612
 20
152.6406190063
 30
0.0
 10
99.152755586
 20
152.6068238061
 30
0.0
 10
99.250904491
 20
152.5405916133
 30
0.0
 10
99.4793377109
 20
152.4108338435
 30
0.0
 10
99.8146827674
 20
152.2556939203
 30
0.0
 10
100.2613357523
 20
152.0855511693
 30
0.0
 10
100.7498317026
 20
151.9334940852
 30
0.0
 10
101.2662577438
 20
151.8070942076
 30
0.0
 10
101.9816217273
 20
151.6803426112
 30
0.0
 10
102.5307580761
 20
151.64062512
 30
0.0
 10
102.8975039373
 20
151.6406266287
 30
0.0
  0
SPLINE
  5
2FD
100
AcDbEntity
  8
RUNDUNGEN
100
AcDbSpline
 62
7
  6
CONTINUOUS
 70
0
 71
3
 72
15
 73
11
 74
0
 42
0.0000001
 43
0.0000001
 44
0.0000000001
 40
0.0
 40
0.0
 40
0.0
 40
0.0
 40
0.2774074412
 40
0.4146311545
 40
0.549279485
 40
0.6792773736
 40
0.8013698215
 40
0.9106253049
 40
0.9583306843
 40
1.0
 40
1.0
 40
1.0
 40
1.0
 10
102.8978383593
 20
166.6406246199
 30
0.0
 10
102.5310670504
 20
166.6406420283
 30
0.0
 10
101.9818892344
 20
166.6009400256
 30
0.0
 10
101.2664674946
 20
166.4742038005
 30
0.0
 10
100.7499984887
 20
166.3478004729
 30
0.0
 10
100.2614585057
 20
166.1957432023
 30
0.0
 10
99.8147631391
 20
166.0255943846
 30
0.0
 10
99.4793884226
 20
165.8704386581
 30
0.0
 10
99.2509321331
 20
165.7406754716
 30
0.0
 10
99.1527706504
 20
165.6744433789
 30
0.0
 10
99.1092650296
 20
165.640643077
 30
0.0
  0
SPLINE
  5
2FE
100
AcDbEntity
  8
RUNDUNGEN
100
AcDbSpline
 62
7
  6
CONTINUOUS
 70
0
 71
3
 72
19
 73
15
 74
0
 42
0.0000001
 43
0.0000001
 44
0.0000000001
 40
0.0
 40
0.0
 40
0.0
 40
0.0
 40
0.1796641455
 40
0.3521215374
 40
0.5110100924
 40
0.6512588976
 40
0.7133243181
 40
0.7696657873
 40
0.820212633
 40
0.8650728216
 40
0.9045899804
 40
0.9394319273
 40
0.9707017267
 40
1.0
 40
1.0
 40
1.0
 40
1.0
 10
100.3519865786
 20
159.1406250228
 30
0.0
 10
100.3520042571
 20
158.6391897111
 30
0.0
 10
100.3851515649
 20
157.6560940514
 30
0.0
 10
100.5325885567
 20
156.2362679596
 30
0.0
 10
100.7691471154
 20
154.9401154273
 30
0.0
 10
101.0401179908
 20
153.9668910477
 30
0.0
 10
101.2976006435
 20
153.2919518334
 30
0.0
 10
101.4968784235
 20
152.8640577395
 30
0.0
 10
101.7082685615
 20
152.4963319902
 30
0.0
 10
101.9300727373
 20
152.1909236103
 30
0.0
 10
102.1608463027
 20
151.9494745446
 30
0.0
 10
102.399755079
 20
151.773523711
 30
0.0
 10
102.64587901
 20
151.6653913914
 30
0.0
 10
102.8157336499
 20
151.6406250516
 30
0.0
 10
102.8975039373
 20
151.6406250228
 30
0.0
  0
SPLINE
  5
2FF
100
AcDbEntity
  8
RUNDUNGEN
100
AcDbSpline
 62
7
  6
CONTINUOUS
 70
0
 71
3
 72
11
 73
7
 74
0
 42
0.0000001
 43
0.0000001
 44
0.0000000001
 40
0.0
 40
0.0
 40
0.0
 40
0.0
 40
0.2184837422
 40
0.4632881237
 40
0.7267657576
 40
1.0
 40
1.0
 40
1.0
 40
1.0
 10
99.1092596816
 20
165.6406279238
 30
0.0
 10
98.9929575179
 20
165.1779511935
 30
0.0
 10
98.7915441514
 20
164.1853625059
 30
0.0
 10
98.5803001374
 20
162.6116860485
 30
0.0
 10
98.4494562169
 20
160.9094032748
 30
0.0
 10
98.4201670651
 20
159.7372456493
 30
0.0
 10
98.420134926
 20
159.1406250228
 30
0.0
  0
SPLINE
  5
300
100
AcDbEntity
  8
RUNDUNGEN
100
AcDbSpline
 62
7
  6
CONTINUOUS
 70
0
 71
3
 72
11
 73
7
 74
0
 42
0.0000001
 43
0.0000001
 44
0.0000000001
 40
0.0
 40
0.0
 40
0.0
 40
0.0
 40
0.2732036169
 40
0.5366877534
 40
0.7815128151
 40
1.0
 40
1.0
 40
1.0
 40
1.0
 10
98.420134926
 20
159.1406250228
 30
0.0
 10
98.4201623813
 20
158.5440716778
 30
0.0
 10
98.4494618299
 20
157.3719681521
 30
0.0
 10
98.5802782182
 20
155.6696914991
 30
0.0
 10
98.7915496088
 20
154.0959531584
 30
0.0
 10
98.9929396733
 20
153.103306228
 30
0.0
 10
99.1092499401
 20
152.640624121
 30
0.0
  0
SPLINE
  5
301
100
AcDbEntity
  8
RUNDUNGEN
100
AcDbSpline
 62
7
  6
CONTINUOUS
 70
0
 71
3
 72
13
 73
9
 74
0
 42
0.0000001
 43
0.0000001
 44
0.0000000001
 40
0.0
 40
0.0
 40
0.0
 40
0.0
 40
0.3393912925
 40
0.6115727431
 40
0.7246787124
 40
0.8248059958
 40
0.9151123867
 40
1.0
 40
1.0
 40
1.0
 40
1.0
 10
85.7430313858
 20
153.6860254393
 30
0.0
 10
85.8070589131
 20
153.5311709194
 30
0.0
 10
85.9360975838
 20
153.2574653078
 30
0.0
 10
86.1387054166
 20
152.9589488989
 30
0.0
 10
86.3108425057
 20
152.7909762246
 30
0.0
 10
86.4348251725
 20
152.7051816725
 30
0.0
 10
86.5614836521
 20
152.6526535327
 30
0.0
 10
86.648356637
 20
152.6406339852
 30
0.0
 10
86.6902685891
 20
152.6406250228
 30
0.0
  0
SPLINE
  5
302
100
AcDbEntity
  8
RUNDUNGEN
100
AcDbSpline
 62
7
  6
CONTINUOUS
 70
0
 71
3
 72
14
 73
10
 74
0
 42
0.0000001
 43
0.0000001
 44
0.0000000001
 40
0.0
 40
0.0
 40
0.0
 40
0.0
 40
0.0641384632
 40
0.138129373
 40
0.2284783697
 40
0.3386939885
 40
0.4704940876
 40
0.6246800628
 40
1.0
 40
1.0
 40
1.0
 40
1.0
 10
68.4429745531
 20
151.6406250465
 30
0.0
 10
68.4679943292
 20
151.6406363479
 30
0.0
 10
68.5222144191
 20
151.6530660783
 30
0.0
 10
68.5971400824
 20
151.7036357362
 30
0.0
 10
68.6695548707
 20
151.7834223051
 30
0.0
 10
68.7404551137
 20
151.8924059253
 30
0.0
 10
68.8101830624
 20
152.0305792263
 30
0.0
 10
68.907767041
 20
152.2695757745
 30
0.0
 10
68.9679955256
 20
152.4676228594
 30
0.0
 10
69.0062671438
 20
152.6089407896
 30
0.0
  0
SPLINE
  5
303
100
AcDbEntity
  8
RUNDUNGEN
100
AcDbSpline
 62
7
  6
CONTINUOUS
 70
0
 71
3
 72
14
 73
10
 74
0
 42
0.0000001
 43
0.0000001
 44
0.0000000001
 40
0.0
 40
0.0
 40
0.0
 40
0.0
 40
0.0783486297
 40
0.1633595771
 40
0.2601764338
 40
0.3721871745
 40
0.5014101887
 40
0.6489318196
 40
1.0
 40
1.0
 40
1.0
 40
1.0
 10
85.7243425817
 20
166.6406250163
 30
0.0
 10
85.6822721859
 20
166.640618469
 30
0.0
 10
85.5940904357
 20
166.6263579735
 30
0.0
 10
85.4669812017
 20
166.5649129535
 30
0.0
 10
85.3432050094
 20
166.4654394969
 30
0.0
 10
85.222416684
 20
166.3291142229
 30
0.0
 10
85.1044534238
 20
166.1563842329
 30
0.0
 10
84.9418269986
 20
165.8606808955
 30
0.0
 10
84.840656673
 20
165.6117679759
 30
0.0
 10
84.7770683653
 20
165.4343055313
 30
0.0
  0
SPLINE
  5
304
100
AcDbEntity
  8
RUNDUNGEN
100
AcDbSpline
 62
7
  6
CONTINUOUS
 70
0
 71
3
 72
12
 73
8
 74
0
 42
0.0000001
 43
0.0000001
 44
0.0000000001
 40
0.0
 40
0.0
 40
0.0
 40
0.0
 40
0.1477963636
 40
0.248368258
 40
0.369244977
 40
0.6638491898
 40
1.0
 40
1.0
 40
1.0
 40
1.0
 10
73.429431608
 20
163.6406250228
 30
0.0
 10
73.4181947043
 20
163.6406250228
 30
0.0
 10
73.4001809898
 20
163.6288932668
 30
0.0
 10
73.3843841863
 20
163.606008227
 30
0.0
 10
73.3676582026
 20
163.5701822465
 30
0.0
 10
73.3544191237
 20
163.5141893084
 30
0.0
 10
73.3507799226
 20
163.4661824465
 30
0.0
 10
73.3507799221
 20
163.4406250228
 30
0.0
  0
SPLINE
  5
305
100
AcDbEntity
  8
RUNDUNGEN
100
AcDbSpline
 62
7
  6
CONTINUOUS
 70
0
 71
3
 72
12
 73
8
 74
0
 42
0.0000001
 43
0.0000001
 44
0.0000000001
 40
0.0
 40
0.0
 40
0.0
 40
0.0
 40
0.1477928981
 40
0.248364667
 40
0.3692419254
 40
0.6638476453
 40
1.0
 40
1.0
 40
1.0
 40
1.0
 10
73.429431608
 20
154.6406250228
 30
0.0
 10
73.418195018
 20
154.6406250228
 30
0.0
 10
73.4001818887
 20
154.6523571173
 30
0.0
 10
73.3843855407
 20
154.6752419434
 30
0.0
 10
73.3676596979
 20
154.7110679733
 30
0.0
 10
73.3544202586
 20
154.7670607783
 30
0.0
 10
73.3507804025
 20
154.8150675959
 30
0.0
 10
73.3507799231
 20
154.8406250228
 30
0.0
  0
SPLINE
  5
306
100
AcDbEntity
  8
RUNDUNGEN
100
AcDbSpline
 62
7
  6
CONTINUOUS
 70
0
 71
3
 72
12
 73
8
 74
0
 42
0.0000001
 43
0.0000001
 44
0.0000000001
 40
0.0
 40
0.0
 40
0.0
 40
0.0
 40
0.1477963708
 40
0.2483682693
 40
0.3692449911
 40
0.663849197
 40
1.0
 40
1.0
 40
1.0
 40
1.0
 10
80.429431608
 20
154.6406250228
 30
0.0
 10
80.4406685122
 20
154.6406250228
 30
0.0
 10
80.4586822267
 20
154.6523567809
 30
0.0
 10
80.4744790313
 20
154.6752418209
 30
0.0
 10
80.4912050141
 20
154.7110678019
 30
0.0
 10
80.504444093
 20
154.7670607389
 30
0.0
 10
80.5080832934
 20
154.8150675998
 30
0.0
 10
80.5080832938
 20
154.8406250228
 30
0.0
  0
SPLINE
  5
307
100
AcDbEntity
  8
RUNDUNGEN
100
AcDbSpline
 62
7
  6
CONTINUOUS
 70
0
 71
3
 72
14
 73
10
 74
0
 42
0.0000001
 43
0.0000001
 44
0.0000000001
 40
0.0
 40
0.0
 40
0.0
 40
0.0
 40
0.0641375695
 40
0.1381291993
 40
0.2284794148
 40
0.3386952011
 40
0.470494753
 40
0.6246800949
 40
1.0
 40
1.0
 40
1.0
 40
1.0
 10
68.4429744992
 20
166.6406250068
 30
0.0
 10
68.4679939506
 20
166.6406156995
 30
0.0
 10
68.5222149202
 20
166.6281868866
 30
0.0
 10
68.5971398966
 20
166.5776152949
 30
0.0
 10
68.6695545904
 20
166.497827564
 30
0.0
 10
68.7404551669
 20
166.388843633
 30
0.0
 10
68.8101832156
 20
166.2506706665
 30
0.0
 10
68.9077674467
 20
166.0116744717
 30
0.0
 10
68.9679958184
 20
165.8136273931
 30
0.0
 10
69.0062671438
 20
165.6723092561
 30
0.0
  0
SPLINE
  5
308
100
AcDbEntity
  8
RUNDUNGEN
100
AcDbSpline
 62
7
  6
CONTINUOUS
 70
0
 71
3
 72
12
 73
8
 74
0
 42
0.0000001
 43
0.0000001
 44
0.0000000001
 40
0.0
 40
0.0
 40
0.0
 40
0.0
 40
0.1477928982
 40
0.2483646671
 40
0.3692419255
 40
0.6638476453
 40
1.0
 40
1.0
 40
1.0
 40
1.0
 10
80.429431608
 20
163.6406250228
 30
0.0
 10
80.440668198
 20
163.6406250228
 30
0.0
 10
80.4586813273
 20
163.6288929283
 30
0.0
 10
80.4744776753
 20
163.6060081023
 30
0.0
 10
80.4912035181
 20
163.5701820724
 30
0.0
 10
80.5044429574
 20
163.5141892674
 30
0.0
 10
80.5080828134
 20
163.4661824498
 30
0.0
 10
80.5080832929
 20
163.4406250228
 30
0.0
  0
LINE
  5
309
100
AcDbEntity
  8
RUNDUNGEN
100
AcDbLine
 62
7
  6
CONTINUOUS
 10
81.6019166898
 20
159.843666588
 11
81.6294359009
 21
160.1955507154
  0
SPLINE
  5
30A
100
AcDbEntity
  8
RUNDUNGEN
100
AcDbSpline
 62
7
  6
CONTINUOUS
 70
0
 71
3
 72
11
 73
7
 74
0
 42
0.0000001
 43
0.0000001
 44
0.0000000001
 40
0.0
 40
0.0
 40
0.0
 40
0.0
 40
0.2320957382
 40
0.4805100529
 40
0.7397855553
 40
1.0
 40
1.0
 40
1.0
 40
1.0
 10
85.7429894858
 20
164.5951481302
 30
0.0
 10
85.7261437904
 20
164.699105365
 30
0.0
 10
85.6461905538
 20
164.9083467283
 30
0.0
 10
85.4241293523
 20
165.1672690591
 30
0.0
 10
85.1251284988
 20
165.3553714188
 30
0.0
 10
84.8942672668
 20
165.4199630808
 30
0.0
 10
84.7770683655
 20
165.4342962707
 30
0.0
  0
SPLINE
  5
30B
100
AcDbEntity
  8
RUNDUNGEN
100
AcDbSpline
 62
7
  6
CONTINUOUS
 70
0
 71
3
 72
11
 73
7
 74
0
 42
0.0000001
 43
0.0000001
 44
0.0000000001
 40
0.0
 40
0.0
 40
0.0
 40
0.0
 40
0.2540212457
 40
0.5056597483
 40
0.753985455
 40
1.0
 40
1.0
 40
1.0
 40
1.0
 10
86.6902685891
 20
165.6406250228
 30
0.0
 10
86.6902685885
 20
165.770534485
 30
0.0
 10
86.640613229
 20
166.0318498037
 30
0.0
 10
86.4268496981
 20
166.3640144908
 30
0.0
 10
86.1058812642
 20
166.5879582209
 30
0.0
 10
85.8501575038
 20
166.6406250228
 30
0.0
 10
85.7243427629
 20
166.6406250228
 30
0.0
  0
SPLINE
  5
30C
100
AcDbEntity
  8
RUNDUNGEN
100
AcDbSpline
 62
7
  6
CONTINUOUS
 70
0
 71
3
 72
11
 73
7
 74
0
 42
0.0000001
 43
0.0000001
 44
0.0000000001
 40
0.0
 40
0.0
 40
0.0
 40
0.0
 40
0.2540211942
 40
0.5056596798
 40
0.753985409
 40
1.0
 40
1.0
 40
1.0
 40
1.0
 10
99.1092481624
 20
165.6406279238
 30
0.0
 10
99.1092477384
 20
165.7705370865
 30
0.0
 10
99.0595917577
 20
166.031851645
 30
0.0
 10
98.8458280893
 20
166.3640151698
 30
0.0
 10
98.5248601607
 20
166.5879581359
 30
0.0
 10
98.2691369674
 20
166.6406249074
 30
0.0
 10
98.1433224674
 20
166.6406250228
 30
0.0
  0
SPLINE
  5
30D
100
AcDbEntity
  8
RUNDUNGEN
100
AcDbSpline
 62
7
  6
CONTINUOUS
 70
0
 71
3
 72
11
 73
7
 74
0
 42
0.0000001
 43
0.0000001
 44
0.0000000001
 40
0.0
 40
0.0
 40
0.0
 40
0.0
 40
0.2540211637
 40
0.5056596397
 40
0.7539853717
 40
1.0
 40
1.0
 40
1.0
 40
1.0
 10
99.1092459922
 20
152.640624121
 30
0.0
 10
99.1092460415
 20
152.5107147444
 30
0.0
 10
99.0595906552
 20
152.249399535
 30
0.0
 10
98.8458268785
 20
151.9172352087
 30
0.0
 10
98.5248584009
 20
151.6932917369
 30
0.0
 10
98.2691346686
 20
151.6406250214
 30
0.0
 10
98.1433199273
 20
151.6406250228
 30
0.0
  0
SPLINE
  5
30E
100
AcDbEntity
  8
RUNDUNGEN
100
AcDbSpline
 62
7
  6
CONTINUOUS
 70
0
 71
3
 72
11
 73
7
 74
0
 42
0.0000001
 43
0.0000001
 44
0.0000000001
 40
0.0
 40
0.0
 40
0.0
 40
0.0
 40
0.2540212502
 40
0.505659753
 40
0.7539854579
 40
1.0
 40
1.0
 40
1.0
 40
1.0
 10
86.6902685891
 20
152.6406250228
 30
0.0
 10
86.6902685891
 20
152.5107155583
 30
0.0
 10
86.6406132294
 20
152.2494002364
 30
0.0
 10
86.4268496947
 20
151.9172355493
 30
0.0
 10
86.1058812604
 20
151.6932918233
 30
0.0
 10
85.8501575024
 20
151.6406250228
 30
0.0
 10
85.7243427628
 20
151.6406250228
 30
0.0
  0
SPLINE
  5
30F
100
AcDbEntity
  8
RUNDUNGEN
100
AcDbSpline
 62
7
  6
CONTINUOUS
 70
0
 71
3
 72
11
 73
7
 74
0
 42
0.0000001
 43
0.0000001
 44
0.0000000001
 40
0.0
 40
0.0
 40
0.0
 40
0.0
 40
0.2320955774
 40
0.4805099236
 40
0.7397855526
 40
1.0
 40
1.0
 40
1.0
 40
1.0
 10
85.7429941915
 20
153.6861019155
 30
0.0
 10
85.7261486061
 20
153.5821442286
 30
0.0
 10
85.6461952605
 20
153.3729018034
 30
0.0
 10
85.424133089
 20
153.113978118
 30
0.0
 10
85.1251305444
 20
152.9258750468
 30
0.0
 10
84.8942678924
 20
152.8612837216
 30
0.0
 10
84.7770683652
 20
152.8469510058
 30
0.0
  0
LINE
  5
310
100
AcDbEntity
  8
RUNDUNGEN
100
AcDbLine
 62
7
  6
CONTINUOUS
 10
81.6294298388
 20
158.0857586909
 11
81.6019117498
 21
158.4376302844
  0
LINE
  5
311
100
AcDbEntity
  8
RUNDUNGEN
100
AcDbLine
 62
7
  6
CONTINUOUS
 10
72.229441914
 20
160.1954064566
 11
72.2569610028
 21
159.8435380262
  0
SPLINE
  5
312
100
AcDbEntity
  8
RUNDUNGEN
100
AcDbSpline
 62
7
  6
CONTINUOUS
 70
0
 71
3
 72
11
 73
7
 74
0
 42
0.0000001
 43
0.0000001
 44
0.0000000001
 40
0.0
 40
0.0
 40
0.0
 40
0.0
 40
0.2604814347
 40
0.5182469616
 40
0.7656685926
 40
1.0
 40
1.0
 40
1.0
 40
1.0
 10
69.0062671437
 20
165.6722938676
 30
0.0
 10
68.8836306757
 20
165.6630373416
 30
0.0
 10
68.6409935799
 20
165.6044591004
 30
0.0
 10
68.3284654005
 20
165.4109240703
 30
0.0
 10
68.1032866602
 20
165.1350485603
 30
0.0
 10
68.0321025769
 20
164.911544886
 30
0.0
 10
68.0214728522
 20
164.8014180255
 30
0.0
  0
SPLINE
  5
313
100
AcDbEntity
  8
RUNDUNGEN
100
AcDbSpline
 62
7
  6
CONTINUOUS
 70
0
 71
3
 72
11
 73
7
 74
0
 42
0.0000001
 43
0.0000001
 44
0.0000000001
 40
0.0
 40
0.0
 40
0.0
 40
0.0
 40
0.2482605022
 40
0.4975003067
 40
0.7482033348
 40
1.0
 40
1.0
 40
1.0
 40
1.0
 10
68.4429742566
 20
166.6406250228
 30
0.0
 10
68.3147992249
 20
166.6406250228
 30
0.0
 10
68.055055286
 20
166.5883286019
 30
0.0
 10
67.7278002284
 20
166.3651091705
 30
0.0
 10
67.5091208161
 20
166.0328624483
 30
0.0
 10
67.4581665048
 20
165.7706257489
 30
0.0
 10
67.4581665036
 20
165.6406250228
 30
0.0
  0
SPLINE
  5
314
100
AcDbEntity
  8
RUNDUNGEN
100
AcDbSpline
 62
7
  6
CONTINUOUS
 70
0
 71
3
 72
11
 73
7
 74
0
 42
0.0000001
 43
0.0000001
 44
0.0000000001
 40
0.0
 40
0.0
 40
0.0
 40
0.0
 40
0.248260517
 40
0.4975003281
 40
0.7482033501
 40
1.0
 40
1.0
 40
1.0
 40
1.0
 10
63.0888381325
 20
166.6406250228
 30
0.0
 10
62.9606633225
 20
166.6406249672
 30
0.0
 10
62.7009198716
 20
166.5883286409
 30
0.0
 10
62.37366524
 20
166.3651099008
 30
0.0
 10
62.1549857103
 20
166.0328641624
 30
0.0
 10
62.1040308802
 20
165.7706280919
 30
0.0
 10
62.1040305267
 20
165.6406276063
 30
0.0
  0
LINE
  5
315
100
AcDbEntity
  8
RUNDUNGEN
100
AcDbLine
 62
7
  6
CONTINUOUS
 10
72.2569629743
 20
158.4377294857
 11
72.2294416982
 21
158.0858384059
  0
SPLINE
  5
316
100
AcDbEntity
  8
RUNDUNGEN
100
AcDbSpline
 62
7
  6
CONTINUOUS
 70
0
 71
3
 72
11
 73
7
 74
0
 42
0.0000001
 43
0.0000001
 44
0.0000000001
 40
0.0
 40
0.0
 40
0.0
 40
0.0
 40
0.2343311682
 40
0.4817528068
 40
0.7395184821
 40
1.0
 40
1.0
 40
1.0
 40
1.0
 10
68.0214660535
 20
153.4798320205
 30
0.0
 10
68.0320951204
 20
153.3697042789
 30
0.0
 10
68.1032788248
 20
153.1461983994
 30
0.0
 10
68.3284591201
 20
152.8703202403
 30
0.0
 10
68.6409901614
 20
152.6767836491
 30
0.0
 10
68.8836295793
 20
152.6182053937
 30
0.0
 10
69.0062671437
 20
152.6089491844
 30
0.0
  0
SPLINE
  5
317
100
AcDbEntity
  8
RUNDUNGEN
100
AcDbSpline
 62
7
  6
CONTINUOUS
 70
0
 71
3
 72
11
 73
7
 74
0
 42
0.0000001
 43
0.0000001
 44
0.0000000001
 40
0.0
 40
0.0
 40
0.0
 40
0.0
 40
0.2517966613
 40
0.502499689
 40
0.7517394951
 40
1.0
 40
1.0
 40
1.0
 40
1.0
 10
67.4581665036
 20
152.6406250228
 30
0.0
 10
67.4581665052
 20
152.5106242989
 30
0.0
 10
67.509120816
 20
152.2483876022
 30
0.0
 10
67.7278002248
 20
151.91614088
 30
0.0
 10
68.0550552823
 20
151.692921445
 30
0.0
 10
68.3147992234
 20
151.6406250228
 30
0.0
 10
68.4429742564
 20
151.6406250228
 30
0.0
  0
SPLINE
  5
318
100
AcDbEntity
  8
RUNDUNGEN
100
AcDbSpline
 62
7
  6
CONTINUOUS
 70
0
 71
3
 72
11
 73
7
 74
0
 42
0.0000001
 43
0.0000001
 44
0.0000000001
 40
0.0
 40
0.0
 40
0.0
 40
0.0
 40
0.2517966515
 40
0.5024996754
 40
0.7517394874
 40
1.0
 40
1.0
 40
1.0
 40
1.0
 10
62.1040289343
 20
152.6406230738
 30
0.0
 10
62.1040292009
 20
152.5106227806
 30
0.0
 10
62.1549837017
 20
152.2483870723
 30
0.0
 10
62.3736623781
 20
151.9161415128
 30
0.0
 10
62.700916021
 20
151.6929224238
 30
0.0
 10
62.9606589165
 20
151.6406254669
 30
0.0
 10
63.0888335338
 20
151.6406250228
 30
0.0
  0
SPLINE
  5
319
100
AcDbEntity
  8
RUNDUNGEN
100
AcDbSpline
 62
7
  6
CONTINUOUS
 70
0
 71
3
 72
14
 73
10
 74
0
 42
0.0000001
 43
0.0000001
 44
0.0000000001
 40
0.0
 40
0.0
 40
0.0
 40
0.0
 40
0.0850138173
 40
0.1871325501
 40
0.3031167342
 40
0.4299557764
 40
0.5650505919
 40
0.7062397459
 40
1.0
 40
1.0
 40
1.0
 40
1.0
 10
85.7430317522
 20
164.5952298366
 30
0.0
 10
85.6608641618
 20
164.4362057991
 30
0.0
 10
85.4495399498
 20
164.1022256851
 30
0.0
 10
85.0658934558
 20
163.5920232945
 30
0.0
 10
84.6014196054
 20
163.0333508907
 30
0.0
 10
84.0740837634
 20
162.4373993498
 30
0.0
 10
83.4987173057
 20
161.8133330262
 30
0.0
 10
82.6732636226
 20
160.9419884418
 30
0.0
 10
82.0343372257
 20
160.2858598666
 30
0.0
 10
81.6018946524
 20
159.8436435319
 30
0.0
  0
SPLINE
  5
31A
100
AcDbEntity
  8
RUNDUNGEN
100
AcDbSpline
 62
7
  6
CONTINUOUS
 70
0
 71
3
 72
14
 73
10
 74
0
 42
0.0000001
 43
0.0000001
 44
0.0000000001
 40
0.0
 40
0.0
 40
0.0
 40
0.0
 40
0.2937539804
 40
0.4349443247
 40
0.5700407586
 40
0.6968809101
 40
0.8128658927
 40
0.9149854928
 40
1.0
 40
1.0
 40
1.0
 40
1.0
 10
81.6018931872
 20
158.4376487329
 30
0.0
 10
82.0343285003
 20
157.9954395847
 30
0.0
 10
82.6732228765
 20
157.3392887354
 30
0.0
 10
83.4986853902
 20
156.4679547067
 30
0.0
 10
84.0740610165
 20
155.8438799211
 30
0.0
 10
84.6014028756
 20
155.2479186986
 30
0.0
 10
85.0658840874
 20
154.6892401944
 30
0.0
 10
85.4495348472
 20
154.1790310368
 30
0.0
 10
85.6608632166
 20
153.8450472971
 30
0.0
 10
85.7430313839
 20
153.6860209469
 30
0.0
  0
SPLINE
  5
31B
100
AcDbEntity
  8
RUNDUNGEN
100
AcDbSpline
 62
7
  6
CONTINUOUS
 70
0
 71
3
 72
11
 73
7
 74
0
 42
0.0000001
 43
0.0000001
 44
0.0000000001
 40
0.0
 40
0.0
 40
0.0
 40
0.0
 40
0.2419248807
 40
0.4859332148
 40
0.7382694797
 40
1.0
 40
1.0
 40
1.0
 40
1.0
 10
73.3507799226
 20
154.8406250228
 30
0.0
 10
73.248962221
 20
154.8406368118
 30
0.0
 10
73.0424616831
 20
154.8786918675
 30
0.0
 10
72.7724206147
 20
155.0464758666
 30
0.0
 10
72.5800140634
 20
155.3113588935
 30
0.0
 10
72.5328200495
 20
155.5304718225
 30
0.0
 10
72.5328023945
 20
155.6406250228
 30
0.0
  0
SPLINE
  5
31C
100
AcDbEntity
  8
RUNDUNGEN
100
AcDbSpline
 62
7
  6
CONTINUOUS
 70
0
 71
3
 72
11
 73
7
 74
0
 42
0.0000001
 43
0.0000001
 44
0.0000000001
 40
0.0
 40
0.0
 40
0.0
 40
0.0
 40
0.2617335917
 40
0.514068744
 40
0.7580759379
 40
1.0
 40
1.0
 40
1.0
 40
1.0
 10
72.5328023945
 20
162.6406250228
 30
0.0
 10
72.5328237588
 20
162.7507795752
 30
0.0
 10
72.5800104547
 20
162.969894296
 30
0.0
 10
72.7724230624
 20
163.2347756104
 30
0.0
 10
73.0424625777
 20
163.4025578843
 30
0.0
 10
73.2489625099
 20
163.4406135364
 30
0.0
 10
73.3507799226
 20
163.4406250228
 30
0.0
  0
SPLINE
  5
31D
100
AcDbEntity
  8
RUNDUNGEN
100
AcDbSpline
 62
7
  6
CONTINUOUS
 70
0
 71
3
 72
11
 73
7
 74
0
 42
0.0000001
 43
0.0000001
 44
0.0000000001
 40
0.0
 40
0.0
 40
0.0
 40
0.0
 40
0.2419248807
 40
0.4859332148
 40
0.7382694797
 40
1.0
 40
1.0
 40
1.0
 40
1.0
 10
80.5080832934
 20
163.4406250228
 30
0.0
 10
80.609900995
 20
163.4406132339
 30
0.0
 10
80.8164015329
 20
163.4025581782
 30
0.0
 10
81.0864426013
 20
163.2347741791
 30
0.0
 10
81.2788491526
 20
162.9698911522
 30
0.0
 10
81.3260431665
 20
162.7507782232
 30
0.0
 10
81.3260608215
 20
162.6406250228
 30
0.0
  0
SPLINE
  5
31E
100
AcDbEntity
  8
RUNDUNGEN
100
AcDbSpline
 62
7
  6
CONTINUOUS
 70
0
 71
3
 72
11
 73
7
 74
0
 42
0.0000001
 43
0.0000001
 44
0.0000000001
 40
0.0
 40
0.0
 40
0.0
 40
0.0
 40
0.2617335917
 40
0.514068744
 40
0.7580759379
 40
1.0
 40
1.0
 40
1.0
 40
1.0
 10
81.3260608215
 20
155.6406250228
 30
0.0
 10
81.3260394572
 20
155.5304704704
 30
0.0
 10
81.2788527613
 20
155.3113557496
 30
0.0
 10
81.0864401536
 20
155.0464744353
 30
0.0
 10
80.8164006383
 20
154.8786921614
 30
0.0
 10
80.6099007061
 20
154.8406365093
 30
0.0
 10
80.5080832934
 20
154.8406250228
 30
0.0
  0
SPLINE
  5
31F
100
AcDbEntity
  8
RUNDUNGEN
100
AcDbSpline
 62
7
  6
CONTINUOUS
 70
0
 71
3
 72
15
 73
11
 74
0
 42
0.0000001
 43
0.0000001
 44
0.0000000001
 40
0.0
 40
0.0
 40
0.0
 40
0.0
 40
0.0362770798
 40
0.0779366633
 40
0.175885732
 40
0.2903513688
 40
0.4176729865
 40
0.5546939765
 40
0.6987993633
 40
1.0
 40
1.0
 40
1.0
 40
1.0
 10
68.021422297
 20
153.4797247701
 30
0.0
 10
68.0502081324
 20
153.553430762
 30
0.0
 10
68.1229365488
 20
153.7075279442
 30
0.0
 10
68.3159385971
 20
154.0393774235
 30
0.0
 10
68.6378545625
 20
154.4916136031
 30
0.0
 10
69.1034702871
 20
155.0682437072
 30
0.0
 10
69.6466724618
 20
155.69106807
 30
0.0
 10
70.2481180228
 20
156.3483717473
 30
0.0
 10
71.1201557086
 20
157.2719459851
 30
0.0
 10
71.7976391306
 20
157.968019145
 30
0.0
 10
72.2569725842
 20
158.43773793
 30
0.0
  0
SPLINE
  5
320
100
AcDbEntity
  8
RUNDUNGEN
100
AcDbSpline
 62
7
  6
CONTINUOUS
 70
0
 71
3
 72
15
 73
11
 74
0
 42
0.0000001
 43
0.0000001
 44
0.0000000001
 40
0.0
 40
0.0
 40
0.0
 40
0.0
 40
0.0362773695
 40
0.0779359622
 40
0.1758842749
 40
0.2903491615
 40
0.4176707207
 40
0.554691669
 40
0.6987969043
 40
1.0
 40
1.0
 40
1.0
 40
1.0
 10
68.0214115129
 20
164.801556456
 30
0.0
 10
68.0501968201
 20
164.7278493061
 30
0.0
 10
68.1229218203
 20
164.5737516143
 30
0.0
 10
68.3159193734
 20
164.241901687
 30
0.0
 10
68.6378298446
 20
163.7896659354
 30
0.0
 10
69.1034475762
 20
163.2130387297
 30
0.0
 10
69.6466477129
 20
162.5902115857
 30
0.0
 10
70.2480954933
 20
161.9329067909
 30
0.0
 10
71.1201320739
 20
161.0093190612
 30
0.0
 10
71.797633221
 20
160.313251642
 30
0.0
 10
72.256972262
 20
159.8435278604
 30
0.0
  0
SPLINE
  5
321
100
AcDbEntity
  8
RUNDUNGEN
100
AcDbSpline
 62
7
  6
CONTINUOUS
 70
0
 71
3
 72
11
 73
7
 74
0
 42
0.0000001
 43
0.0000001
 44
0.0000000001
 40
0.0
 40
0.0
 40
0.0
 40
0.0
 40
0.2666890948
 40
0.5178068063
 40
0.7590089422
 40
1.0
 40
1.0
 40
1.0
 40
1.0
 10
80.564828182
 20
154.570220902
 30
0.0
 10
80.716382591
 20
154.5870464803
 30
0.0
 10
81.007597458
 20
154.675675033
 30
0.0
 10
81.3560349877
 20
154.9496302605
 30
0.0
 10
81.5782273902
 20
155.3154440032
 30
0.0
 10
81.6294568529
 20
155.5937420144
 30
0.0
 10
81.629431608
 20
155.7315341137
 30
0.0
  0
SPLINE
  5
322
100
AcDbEntity
  8
RUNDUNGEN
100
AcDbSpline
 62
7
  6
CONTINUOUS
 70
0
 71
3
 72
11
 73
7
 74
0
 42
0.0000001
 43
0.0000001
 44
0.0000000001
 40
0.0
 40
0.0
 40
0.0
 40
0.0
 40
0.2477101266
 40
0.496836802
 40
0.7477927309
 40
1.0
 40
1.0
 40
1.0
 40
1.0
 10
54.7623692494
 20
165.6551554146
 30
0.0
 10
54.7807554457
 20
165.7687031311
 30
0.0
 10
54.8597283219
 20
165.9917667104
 30
0.0
 10
55.0881267331
 20
166.2627096818
 30
0.0
 10
55.3972143242
 20
166.4398732641
 30
0.0
 10
55.6328850311
 20
166.4807470271
 30
0.0
 10
55.75
 20
166.480747049
 30
0.0
  0
SPLINE
  5
323
100
AcDbEntity
  8
RUNDUNGEN
100
AcDbSpline
 62
7
  6
CONTINUOUS
 70
0
 71
3
 72
13
 73
9
 74
0
 42
0.0000001
 43
0.0000001
 44
0.0000000001
 40
0.0
 40
0.0
 40
0.0
 40
0.0
 40
0.2871535951
 40
0.5590625365
 40
0.6854887084
 40
0.8028567197
 40
0.9086495127
 40
1.0
 40
1.0
 40
1.0
 40
1.0
 10
81.6294314065
 20
158.0857578176
 30
0.0
 10
81.9578131096
 20
157.6004294474
 30
0.0
 10
82.5943446995
 20
156.6536570529
 30
0.0
 10
83.3558089118
 20
155.4799717568
 30
0.0
 10
83.9037583133
 20
154.5814184942
 30
0.0
 10
84.2582834829
 20
153.9621545358
 30
0.0
 10
84.5533790379
 20
153.3920395486
 30
0.0
 10
84.7141863506
 20
153.0224345137
 30
0.0
 10
84.7770683653
 20
152.8469445144
 30
0.0
  0
SPLINE
  5
324
100
AcDbEntity
  8
RUNDUNGEN
100
AcDbSpline
 62
7
  6
CONTINUOUS
 70
0
 71
3
 72
11
 73
7
 74
0
 42
0.0000001
 43
0.0000001
 44
0.0000000001
 40
0.0
 40
0.0
 40
0.0
 40
0.0
 40
0.2477102817
 40
0.4968370016
 40
0.7477928605
 40
1.0
 40
1.0
 40
1.0
 40
1.0
 10
54.7623691841
 20
152.6260925392
 30
0.0
 10
54.7807553345
 20
152.5125446448
 30
0.0
 10
54.8597281155
 20
152.2894807299
 30
0.0
 10
55.0881264992
 20
152.0185372629
 30
0.0
 10
55.397214172
 20
151.8413733402
 30
0.0
 10
55.6328849933
 20
151.8004995131
 30
0.0
 10
55.75
 20
151.800499505
 30
0.0
  0
SPLINE
  5
325
100
AcDbEntity
  8
RUNDUNGEN
100
AcDbSpline
 62
7
  6
CONTINUOUS
 70
0
 71
3
 72
14
 73
10
 74
0
 42
0.0000001
 43
0.0000001
 44
0.0000000001
 40
0.0
 40
0.0
 40
0.0
 40
0.0
 40
0.3510682394
 40
0.4985898707
 40
0.6278129165
 40
0.7398238121
 40
0.8366405999
 40
0.9216511547
 40
1.0
 40
1.0
 40
1.0
 40
1.0
 10
84.7770683653
 20
152.8469445144
 30
0.0
 10
84.840656798
 20
152.6694821078
 30
0.0
 10
84.9418271271
 20
152.4205692068
 30
0.0
 10
85.1044534783
 20
152.1248658241
 30
0.0
 10
85.2224168024
 20
151.9521357815
 30
0.0
 10
85.3432051991
 20
151.8158105333
 30
0.0
 10
85.4669812095
 20
151.716337122
 30
0.0
 10
85.594090564
 20
151.6548925824
 30
0.0
 10
85.6822720595
 20
151.6406321601
 30
0.0
 10
85.7243425654
 20
151.6406250306
 30
0.0
  0
SPLINE
  5
326
100
AcDbEntity
  8
RUNDUNGEN
100
AcDbSpline
 62
7
  6
CONTINUOUS
 70
0
 71
3
 72
13
 73
9
 74
0
 42
0.0000001
 43
0.0000001
 44
0.0000000001
 40
0.0
 40
0.0
 40
0.0
 40
0.0
 40
0.0848876131
 40
0.1751942766
 40
0.2753215916
 40
0.3884273528
 40
0.6606086913
 40
1.0
 40
1.0
 40
1.0
 40
1.0
 10
86.6902685891
 20
165.6406250228
 30
0.0
 10
86.6483566621
 20
165.640616718
 30
0.0
 10
86.5614834181
 20
165.6285970018
 30
0.0
 10
86.4348254106
 20
165.5760677356
 30
0.0
 10
86.3108426572
 20
165.4902735137
 30
0.0
 10
86.1387053628
 20
165.3223013956
 30
0.0
 10
85.9360979658
 20
165.0237851166
 30
0.0
 10
85.8070590039
 20
164.7500798992
 30
0.0
 10
85.7430317543
 20
164.5952253645
 30
0.0
  0
SPLINE
  5
327
100
AcDbEntity
  8
RUNDUNGEN
100
AcDbSpline
 62
7
  6
CONTINUOUS
 70
0
 71
3
 72
15
 73
11
 74
0
 42
0.0000001
 43
0.0000001
 44
0.0000000001
 40
0.0
 40
0.0
 40
0.0
 40
0.0
 40
0.0402984117
 40
0.0852718089
 40
0.1876207552
 40
0.3037800171
 40
0.4306470475
 40
0.5656312153
 40
0.7066183347
 40
1.0
 40
1.0
 40
1.0
 40
1.0
 10
69.0062671438
 20
152.6089407896
 30
0.0
 10
69.0286439943
 20
152.6915558955
 30
0.0
 10
69.0847529869
 20
152.8640129469
 30
0.0
 10
69.233035343
 20
153.2340787326
 30
0.0
 10
69.4791009493
 20
153.7373925616
 30
0.0
 10
69.8355015879
 20
154.3786899557
 30
0.0
 10
70.2489333534
 20
155.0670775462
 30
0.0
 10
70.7053681925
 20
155.7908155612
 30
0.0
 10
71.3654844569
 20
156.80406552
 30
0.0
 10
71.8802282595
 20
157.5697387849
 30
0.0
 10
72.229432715
 20
158.0858258394
 30
0.0
  0
SPLINE
  5
328
100
AcDbEntity
  8
RUNDUNGEN
100
AcDbSpline
 62
7
  6
CONTINUOUS
 70
0
 71
3
 72
16
 73
12
 74
0
 42
0.0000001
 43
0.0000001
 44
0.0000000001
 40
0.0
 40
0.0
 40
0.0
 40
0.0
 40
0.1681140325
 40
0.3311830113
 40
0.4845481659
 40
0.6241964188
 40
0.7469843385
 40
0.8507718453
 40
0.895248707
 40
0.9347976359
 40
1.0
 40
1.0
 40
1.0
 40
1.0
 10
57.5014226112
 20
159.1401916129
 30
0.0
 10
57.5014262733
 20
159.572197656
 30
0.0
 10
57.4799783663
 20
160.4234113608
 30
0.0
 10
57.3842077584
 20
161.6654485715
 30
0.0
 10
57.2288603899
 20
162.8277953297
 30
0.0
 10
57.0198967053
 20
163.8765778841
 30
0.0
 10
56.7646471671
 20
164.7834895394
 30
0.0
 10
56.5091587736
 20
165.4334796714
 30
0.0
 10
56.2820568019
 20
165.8602990097
 30
0.0
 10
56.0716527978
 20
166.1805165718
 30
0.0
 10
55.8863469749
 20
166.3833329407
 30
0.0
 10
55.7500004971
 20
166.4807149554
 30
0.0
  0
SPLINE
  5
329
100
AcDbEntity
  8
RUNDUNGEN
100
AcDbSpline
 62
7
  6
CONTINUOUS
 70
0
 71
3
 72
17
 73
13
 74
0
 42
0.0000001
 43
0.0000001
 44
0.0000000001
 40
0.0
 40
0.0
 40
0.0
 40
0.0
 40
0.0305459265
 40
0.0653742571
 40
0.1049162636
 40
0.1493842764
 40
0.2531512121
 40
0.3759152081
 40
0.5155474345
 40
0.668897168
 40
0.8319343237
 40
1.0
 40
1.0
 40
1.0
 40
1.0
 10
55.7499998889
 20
151.8004926203
 30
0.0
 10
55.8138878945
 20
151.8461073816
 30
0.0
 10
55.9405760527
 20
151.9579959256
 30
0.0
 10
56.1141006126
 20
152.1652434765
 30
0.0
 10
56.2820697343
 20
152.4209860573
 30
0.0
 10
56.5090005974
 20
152.8474551566
 30
0.0
 10
56.7645874849
 20
153.4975310154
 30
0.0
 10
57.0198020507
 20
154.4042915217
 30
0.0
 10
57.2287940071
 20
155.4530364269
 30
0.0
 10
57.3841435226
 20
156.6153075022
 30
0.0
 10
57.4799331476
 20
157.8571995317
 30
0.0
 10
57.501415685
 20
158.7082748156
 30
0.0
 10
57.5014226112
 20
159.1401916129
 30
0.0
  0
SPLINE
  5
32A
100
AcDbEntity
  8
RUNDUNGEN
100
AcDbSpline
 62
7
  6
CONTINUOUS
 70
0
 71
3
 72
11
 73
7
 74
0
 42
0.0000001
 43
0.0000001
 44
0.0000000001
 40
0.0
 40
0.0
 40
0.0
 40
0.0
 40
0.2409787295
 40
0.4821740827
 40
0.7333027771
 40
1.0
 40
1.0
 40
1.0
 40
1.0
 10
72.229431608
 20
155.7315341137
 30
0.0
 10
72.229406269
 20
155.5937032094
 30
0.0
 10
72.2806683562
 20
155.315323231
 30
0.0
 10
72.5029876268
 20
154.9494188293
 30
0.0
 10
72.8516320277
 20
154.6754654331
 30
0.0
 10
73.1429940886
 20
154.5869157732
 30
0.0
 10
73.2946115351
 20
154.5701561227
 30
0.0
  0
SPLINE
  5
32B
100
AcDbEntity
  8
RUNDUNGEN
100
AcDbSpline
 62
7
  6
CONTINUOUS
 70
0
 71
3
 72
11
 73
7
 74
0
 42
0.0000001
 43
0.0000001
 44
0.0000000001
 40
0.0
 40
0.0
 40
0.0
 40
0.0
 40
0.2409787295
 40
0.4821740827
 40
0.7333027771
 40
1.0
 40
1.0
 40
1.0
 40
1.0
 10
81.629431608
 20
162.5497159319
 30
0.0
 10
81.629456947
 20
162.6875468362
 30
0.0
 10
81.5781948598
 20
162.9659268147
 30
0.0
 10
81.3558755892
 20
163.3318312163
 30
0.0
 10
81.0072311882
 20
163.6057846126
 30
0.0
 10
80.7158691274
 20
163.6943342725
 30
0.0
 10
80.5642516809
 20
163.711093923
 30
0.0
  0
SPLINE
  5
32C
100
AcDbEntity
  8
RUNDUNGEN
100
AcDbSpline
 62
7
  6
CONTINUOUS
 70
0
 71
3
 72
11
 73
7
 74
0
 42
0.0000001
 43
0.0000001
 44
0.0000000001
 40
0.0
 40
0.0
 40
0.0
 40
0.0
 40
0.2666890948
 40
0.5178068063
 40
0.7590089422
 40
1.0
 40
1.0
 40
1.0
 40
1.0
 10
73.294035034
 20
163.7110291436
 30
0.0
 10
73.142480625
 20
163.6942035653
 30
0.0
 10
72.8512657579
 20
163.6055750127
 30
0.0
 10
72.5028282283
 20
163.3316197852
 30
0.0
 10
72.2806358258
 20
162.9658060425
 30
0.0
 10
72.2294063631
 20
162.6875080313
 30
0.0
 10
72.229431608
 20
162.5497159319
 30
0.0
  0
SPLINE
  5
32D
100
AcDbEntity
  8
RUNDUNGEN
100
AcDbSpline
 62
7
  6
CONTINUOUS
 70
0
 71
3
 72
13
 73
9
 74
0
 42
0.0000001
 43
0.0000001
 44
0.0000000001
 40
0.0
 40
0.0
 40
0.0
 40
0.0
 40
0.0705184044
 40
0.1493412674
 40
0.2424014851
 40
0.3532543317
 40
0.634841438
 40
1.0
 40
1.0
 40
1.0
 40
1.0
 10
67.4581665036
 20
165.6406250228
 30
0.0
 10
67.4830440014
 20
165.6406136614
 30
0.0
 10
67.536049837
 20
165.6302994761
 30
0.0
 10
67.6110550863
 20
165.5870371553
 30
0.0
 10
67.6838672572
 20
165.5179292258
 30
0.0
 10
67.787078537
 20
165.3805738065
 30
0.0
 10
67.906910032
 20
165.1398006576
 30
0.0
 10
67.9829856063
 20
164.9244982461
 30
0.0
 10
68.0214115054
 20
164.8015420321
 30
0.0
  0
SPLINE
  5
32E
100
AcDbEntity
  8
RUNDUNGEN
100
AcDbSpline
 62
7
  6
CONTINUOUS
 70
0
 71
3
 72
11
 73
7
 74
0
 42
0.0000001
 43
0.0000001
 44
0.0000000001
 40
0.0
 40
0.0
 40
0.0
 40
0.0
 40
0.3311755706
 40
0.4852043776
 40
0.6247590208
 40
1.0
 40
1.0
 40
1.0
 40
1.0
 10
81.629431608
 20
155.7315341128
 30
0.0
 10
81.603847914
 20
155.7315341128
 30
0.0
 10
81.5663773728
 20
155.7283985885
 30
0.0
 10
81.5189520236
 20
155.7170213873
 30
0.0
 10
81.4718439614
 20
155.7003630439
 30
0.0
 10
81.429431608
 20
155.6696128204
 30
0.0
 10
81.429431608
 20
155.6406250229
 30
0.0
  0
SPLINE
  5
32F
100
AcDbEntity
  8
RUNDUNGEN
100
AcDbSpline
 62
7
  6
CONTINUOUS
 70
0
 71
3
 72
12
 73
8
 74
0
 42
0.0000001
 43
0.0000001
 44
0.0000000001
 40
0.0
 40
0.0
 40
0.0
 40
0.0
 40
0.3725506272
 40
0.690629908
 40
0.9062422982
 40
0.9673589267
 40
1.0
 40
1.0
 40
1.0
 40
1.0
 10
81.6294314065
 20
158.0857421707
 30
0.0
 10
81.6039419568
 20
158.085742292
 30
0.0
 10
81.5565753026
 20
158.084445662
 30
0.0
 10
81.4951143719
 20
158.0793745735
 30
0.0
 10
81.4542257144
 20
158.0719808309
 30
0.0
 10
81.4349547566
 20
158.0650082359
 30
0.0
 10
81.4294311934
 20
158.0598441947
 30
0.0
 10
81.4294316081
 20
158.0576109332
 30
0.0
  0
SPLINE
  5
330
100
AcDbEntity
  8
RUNDUNGEN
100
AcDbSpline
 62
7
  6
CONTINUOUS
 70
0
 71
3
 72
12
 73
8
 74
0
 42
0.0000001
 43
0.0000001
 44
0.0000000001
 40
0.0
 40
0.0
 40
0.0
 40
0.0
 40
0.3725503492
 40
0.6906296612
 40
0.9062425783
 40
0.9673594174
 40
1.0
 40
1.0
 40
1.0
 40
1.0
 10
81.629431608
 20
160.195505117
 30
0.0
 10
81.603942216
 20
160.195505064
 30
0.0
 10
81.5565756402
 20
160.1968017464
 30
0.0
 10
81.4951148282
 20
160.2018726203
 30
0.0
 10
81.4542260129
 20
160.2092659473
 30
0.0
 10
81.4349550829
 20
160.2162382225
 30
0.0
 10
81.4294312644
 20
160.2214019669
 30
0.0
 10
81.429431608
 20
160.2236351914
 30
0.0
  0
SPLINE
  5
331
100
AcDbEntity
  8
RUNDUNGEN
100
AcDbSpline
 62
7
  6
CONTINUOUS
 70
0
 71
3
 72
11
 73
7
 74
0
 42
0.0000001
 43
0.0000001
 44
0.0000000001
 40
0.0
 40
0.0
 40
0.0
 40
0.0
 40
0.3311764217
 40
0.4852057606
 40
0.6247605798
 40
1.0
 40
1.0
 40
1.0
 40
1.0
 10
81.629431608
 20
162.5497159324
 30
0.0
 10
81.6038478768
 20
162.5497160766
 30
0.0
 10
81.5663773013
 20
162.5528518072
 30
0.0
 10
81.5189518998
 20
162.5642291078
 30
0.0
 10
81.4718440153
 20
162.5808875006
 30
0.0
 10
81.429431608
 20
162.6116373781
 30
0.0
 10
81.429431608
 20
162.6406250228
 30
0.0
  0
SPLINE
  5
332
100
AcDbEntity
  8
RUNDUNGEN
100
AcDbSpline
 62
7
  6
CONTINUOUS
 70
0
 71
3
 72
11
 73
7
 74
0
 42
0.0000001
 43
0.0000001
 44
0.0000000001
 40
0.0
 40
0.0
 40
0.0
 40
0.0
 40
0.3311756302
 40
0.4852044908
 40
0.6247591404
 40
1.0
 40
1.0
 40
1.0
 40
1.0
 10
72.229431608
 20
162.5497159324
 30
0.0
 10
72.2550153068
 20
162.5497159323
 30
0.0
 10
72.2924858563
 20
162.5528514632
 30
0.0
 10
72.3399112156
 20
162.5642286641
 30
0.0
 10
72.3870192718
 20
162.5808870136
 30
0.0
 10
72.429431608
 20
162.6116372343
 30
0.0
 10
72.429431608
 20
162.6406250228
 30
0.0
  0
SPLINE
  5
333
100
AcDbEntity
  8
RUNDUNGEN
100
AcDbSpline
 62
7
  6
CONTINUOUS
 70
0
 71
3
 72
12
 73
8
 74
0
 42
0.0000001
 43
0.0000001
 44
0.0000000001
 40
0.0
 40
0.0
 40
0.0
 40
0.0
 40
0.3725475177
 40
0.690624638
 40
0.9062375755
 40
0.9673558949
 40
1.0
 40
1.0
 40
1.0
 40
1.0
 10
72.2294326471
 20
160.1955135116
 30
0.0
 10
72.2549218693
 20
160.1955128891
 30
0.0
 10
72.3022881381
 20
160.1968087928
 30
0.0
 10
72.3637488281
 20
160.2018801297
 30
0.0
 10
72.4046371493
 20
160.2092745324
 30
0.0
 10
72.4239084375
 20
160.2162480316
 30
0.0
 10
72.4294318855
 20
160.2214124121
 30
0.0
 10
72.429431608
 20
160.2236458798
 30
0.0
  0
SPLINE
  5
334
100
AcDbEntity
  8
RUNDUNGEN
100
AcDbSpline
 62
7
  6
CONTINUOUS
 70
0
 71
3
 72
12
 73
8
 74
0
 42
0.0000001
 43
0.0000001
 44
0.0000000001
 40
0.0
 40
0.0
 40
0.0
 40
0.0
 40
0.3725481003
 40
0.6906261354
 40
0.9062395545
 40
0.9673575923
 40
1.0
 40
1.0
 40
1.0
 40
1.0
 10
72.229431608
 20
158.0857356648
 30
0.0
 10
72.2549209042
 20
158.0857355371
 30
0.0
 10
72.3022873254
 20
158.0844385344
 30
0.0
 10
72.3637480733
 20
158.0793670732
 30
0.0
 10
72.4046368533
 20
158.0719733778
 30
0.0
 10
72.4239080168
 20
158.0650005029
 30
0.0
 10
72.4294318457
 20
158.0598365998
 30
0.0
 10
72.429431608
 20
158.0576032452
 30
0.0
  0
SPLINE
  5
335
100
AcDbEntity
  8
RUNDUNGEN
100
AcDbSpline
 62
7
  6
CONTINUOUS
 70
0
 71
3
 72
11
 73
7
 74
0
 42
0.0000001
 43
0.0000001
 44
0.0000000001
 40
0.0
 40
0.0
 40
0.0
 40
0.0
 40
0.3311764218
 40
0.4852057608
 40
0.6247605799
 40
1.0
 40
1.0
 40
1.0
 40
1.0
 10
72.229431608
 20
155.7315341128
 30
0.0
 10
72.2550153392
 20
155.7315339686
 30
0.0
 10
72.2924859147
 20
155.7283982381
 30
0.0
 10
72.3399113161
 20
155.7170209376
 30
0.0
 10
72.3870192007
 20
155.7003625451
 30
0.0
 10
72.429431608
 20
155.6696126676
 30
0.0
 10
72.429431608
 20
155.6406250229
 30
0.0
  0
SPLINE
  5
336
100
AcDbEntity
  8
RUNDUNGEN
100
AcDbSpline
 62
7
  6
CONTINUOUS
 70
0
 71
3
 72
13
 73
9
 74
0
 42
0.0000001
 43
0.0000001
 44
0.0000000001
 40
0.0
 40
0.0
 40
0.0
 40
0.0
 40
0.0705182944
 40
0.1493396724
 40
0.242398516
 40
0.3532522933
 40
0.6348433683
 40
1.0
 40
1.0
 40
1.0
 40
1.0
 10
67.4581665036
 20
152.6406250228
 30
0.0
 10
67.4830446577
 20
152.6406386756
 30
0.0
 10
67.5360504933
 20
152.650953901
 30
0.0
 10
67.6110583934
 20
152.6942144041
 30
0.0
 10
67.6838725651
 20
152.7633236766
 30
0.0
 10
67.7870849831
 20
152.9006858635
 30
0.0
 10
67.9069170119
 20
153.1414681141
 30
0.0
 10
67.9829950792
 20
153.3567770827
 30
0.0
 10
68.0214222925
 20
153.4797359499
 30
0.0
  0
SPLINE
  5
337
100
AcDbEntity
  8
RUNDUNGEN
100
AcDbSpline
 62
7
  6
CONTINUOUS
 70
0
 71
3
 72
11
 73
7
 74
0
 42
0.0000001
 43
0.0000001
 44
0.0000000001
 40
0.0
 40
0.0
 40
0.0
 40
0.0
 40
0.2834920929
 40
0.5428343266
 40
0.7794324673
 40
1.0
 40
1.0
 40
1.0
 40
1.0
 10
246.5516377663
 20
153.4797247701
 30
0.0
 10
247.0862083954
 20
153.7211051554
 30
0.0
 10
248.0678656173
 20
154.2867652618
 30
0.0
 10
249.2680523989
 20
155.3835342869
 30
0.0
 10
250.1125890293
 20
156.6181034625
 30
0.0
 10
250.4458483783
 20
157.5155416402
 30
0.0
 10
250.5485088033
 20
157.9601954574
 30
0.0
  0
SPLINE
  5
338
100
AcDbEntity
  8
RUNDUNGEN
100
AcDbSpline
 62
7
  6
CONTINUOUS
 70
0
 71
3
 72
11
 73
7
 74
0
 42
0.0000001
 43
0.0000001
 44
0.0000000001
 40
0.0
 40
0.0
 40
0.0
 40
0.0
 40
0.2834780941
 40
0.5428207801
 40
0.7794268952
 40
1.0
 40
1.0
 40
1.0
 40
1.0
 10
246.5515765892
 20
164.801556456
 30
0.0
 10
247.0858856906
 20
164.5602773972
 30
0.0
 10
248.0671277319
 20
163.9949518361
 30
0.0
 10
249.266970362
 20
162.898872272
 30
0.0
 10
250.1115214023
 20
161.6650730679
 30
0.0
 10
250.445042784
 20
160.7681535975
 30
0.0
 10
250.5478923127
 20
160.323732183
 30
0.0
  0
SPLINE
  5
339
100
AcDbEntity
  8
RUNDUNGEN
100
AcDbSpline
 62
7
  6
CONTINUOUS
 70
0
 71
3
 72
11
 73
7
 74
0
 42
0.0000001
 43
0.0000001
 44
0.0000000001
 40
0.0
 40
0.0
 40
0.0
 40
0.0
 40
0.2399940622
 40
0.4862846771
 40
0.7406591875
 40
1.0
 40
1.0
 40
1.0
 40
1.0
 10
253.8665162921
 20
154.6406250228
 30
0.0
 10
253.8904884095
 20
154.6406250228
 30
0.0
 10
253.9395957422
 20
154.6514836182
 30
0.0
 10
254.0008545222
 20
154.6964189278
 30
0.0
 10
254.0409712873
 20
154.762959526
 30
0.0
 10
254.050402096
 20
154.8147204302
 30
0.0
 10
254.0504018882
 20
154.8406250228
 30
0.0
  0
SPLINE
  5
33A
100
AcDbEntity
  8
RUNDUNGEN
100
AcDbSpline
 62
7
  6
CONTINUOUS
 70
0
 71
3
 72
22
 73
18
 74
0
 42
0.0000001
 43
0.0000001
 44
0.0000000001
 40
0.0
 40
0.0
 40
0.0
 40
0.0
 40
0.0016755813
 40
0.0066494994
 40
0.0148127478
 40
0.0260563706
 40
0.0402625291
 40
0.057256893
 40
0.0988253467
 40
0.1492097207
 40
0.207058452
 40
0.271158049
 40
0.3403948171
 40
0.4911867107
 40
0.6540539257
 40
0.8250598174
 40
1.0
 40
1.0
 40
1.0
 40
1.0
 10
249.2827996383
 20
163.6406250162
 30
0.0
 10
249.2821119175
 20
163.6407677101
 30
0.0
 10
249.2868205684
 20
163.6371263597
 30
0.0
 10
249.2883499482
 20
163.6340943962
 30
0.0
 10
249.2967820683
 20
163.6257254826
 30
0.0
 10
249.3056577083
 20
163.6157140699
 30
0.0
 10
249.3179021534
 20
163.6024372649
 30
0.0
 10
249.3382916191
 20
163.5799151711
 30
0.0
 10
249.3688638165
 20
163.54588614
 30
0.0
 10
249.410365198
 20
163.4988020944
 30
0.0
 10
249.4576013555
 20
163.4441323293
 30
0.0
 10
249.5092931504
 20
163.3828922861
 30
0.0
 10
249.5849260586
 20
163.2908837555
 30
0.0
 10
249.6842335527
 20
163.1647624025
 30
0.0
 10
249.804925108
 20
163.0012914912
 30
0.0
 10
249.9258378301
 20
162.8255447038
 30
0.0
 10
250.0038336002
 20
162.7032487947
 30
0.0
 10
250.0421248189
 20
162.6407087708
 30
0.0
  0
SPLINE
  5
33B
100
AcDbEntity
  8
RUNDUNGEN
100
AcDbSpline
 62
7
  6
CONTINUOUS
 70
0
 71
3
 72
14
 73
10
 74
0
 42
0.0000001
 43
0.0000001
 44
0.0000000001
 40
0.0
 40
0.0
 40
0.0
 40
0.0
 40
0.3483944139
 40
0.5059404549
 40
0.6457894035
 40
0.7649743935
 40
0.8622763621
 40
0.9388053586
 40
1.0
 40
1.0
 40
1.0
 40
1.0
 10
253.4759111694
 20
162.6406250237
 30
0.0
 10
253.4759366559
 20
162.7724535967
 30
0.0
 10
253.4922530465
 20
162.9646358392
 30
0.0
 10
253.5476659403
 20
163.2029364767
 30
0.0
 10
253.5992776866
 20
163.3522350561
 30
0.0
 10
253.6588279822
 20
163.473693699
 30
0.0
 10
253.7234973549
 20
163.5645388172
 30
0.0
 10
253.7912951835
 20
163.6239738793
 30
0.0
 10
253.8433609201
 20
163.640620736
 30
0.0
 10
253.8665162921
 20
163.6406250228
 30
0.0
  0
SPLINE
  5
33C
100
AcDbEntity
  8
RUNDUNGEN
100
AcDbSpline
 62
7
  6
CONTINUOUS
 70
0
 71
3
 72
22
 73
18
 74
0
 42
0.0000001
 43
0.0000001
 44
0.0000000001
 40
0.0
 40
0.0
 40
0.0
 40
0.0
 40
0.1749386141
 40
0.3459395549
 40
0.5088051272
 40
0.6595974824
 40
0.7288364561
 40
0.7929394091
 40
0.8507897599
 40
0.9011748666
 40
0.9427439639
 40
0.959738706
 40
0.9739452978
 40
0.9851888524
 40
0.9933515163
 40
0.998324759
 40
1.0
 40
1.0
 40
1.0
 40
1.0
 10
250.0421245491
 20
155.6405408443
 30
0.0
 10
250.0038337084
 20
155.5780013938
 30
0.0
 10
249.9258397092
 20
155.455707662
 30
0.0
 10
249.8049289365
 20
155.2799637971
 30
0.0
 10
249.6842395818
 20
155.1164945471
 30
0.0
 10
249.5849312198
 20
154.9903734033
 30
0.0
 10
249.5092966285
 20
154.8983630519
 30
0.0
 10
249.4576030577
 20
154.8371206136
 30
0.0
 10
249.4103660695
 20
154.7824484423
 30
0.0
 10
249.3688641896
 20
154.7353631931
 30
0.0
 10
249.3382911851
 20
154.7013339149
 30
0.0
 10
249.3179010125
 20
154.6788116655
 30
0.0
 10
249.3056561421
 20
154.6655348136
 30
0.0
 10
249.2967805524
 20
154.6555235033
 30
0.0
 10
249.288348956
 20
154.6471550106
 30
0.0
 10
249.2868198176
 20
154.6441231803
 30
0.0
 10
249.2821120375
 20
154.6404824408
 30
0.0
 10
249.2827996341
 20
154.6406250296
 30
0.0
  0
SPLINE
  5
33D
100
AcDbEntity
  8
RUNDUNGEN
100
AcDbSpline
 62
7
  6
CONTINUOUS
 70
0
 71
3
 72
9
 73
5
 74
0
 42
0.0000001
 43
0.0000001
 44
0.0000000001
 40
0.0
 40
0.0
 40
0.0
 40
0.0
 40
0.2489606709
 40
1.0
 40
1.0
 40
1.0
 40
1.0
 10
203.5949712453
 20
166.6367454615
 30
0.0
 10
203.7067800519
 20
166.63463953
 30
0.0
 10
204.1558154688
 20
166.6227576217
 30
0.0
 10
204.6044610388
 20
166.5973965317
 30
0.0
 10
204.9408525158
 20
166.5719401756
 30
0.0
  0
SPLINE
  5
33E
100
AcDbEntity
  8
RUNDUNGEN
100
AcDbSpline
 62
7
  6
CONTINUOUS
 70
0
 71
3
 72
11
 73
7
 74
0
 42
0.0000001
 43
0.0000001
 44
0.0000000001
 40
0.0
 40
0.0
 40
0.0
 40
0.0
 40
0.2219591869
 40
0.457636105
 40
0.715681209
 40
1.0
 40
1.0
 40
1.0
 40
1.0
 10
204.9408525158
 20
166.5719401756
 30
0.0
 10
205.5388893475
 20
166.5266838608
 30
0.0
 10
206.7686276411
 20
166.3912086229
 30
0.0
 10
208.6836076507
 20
166.1227629247
 30
0.0
 10
210.7686313352
 20
165.8524052993
 30
0.0
 10
212.2271257305
 20
165.7064892
 30
0.0
 10
212.9925425784
 20
165.6406173961
 30
0.0
  0
SPLINE
  5
33F
100
AcDbEntity
  8
RUNDUNGEN
100
AcDbSpline
 62
7
  6
CONTINUOUS
 70
0
 71
3
 72
11
 73
7
 74
0
 42
0.0000001
 43
0.0000001
 44
0.0000000001
 40
0.0
 40
0.0
 40
0.0
 40
0.0
 40
0.2218550362
 40
0.4571159033
 40
0.7149927475
 40
1.0
 40
1.0
 40
1.0
 40
1.0
 10
204.7312809437
 20
151.6942896296
 30
0.0
 10
205.3448776855
 20
151.7357815716
 30
0.0
 10
206.6058948632
 20
151.8680523259
 30
0.0
 10
208.5687027307
 20
152.142513536
 30
0.0
 10
210.7077013418
 20
152.4224295962
 30
0.0
 10
212.2053823978
 20
152.5728626072
 30
0.0
 10
212.9925308228
 20
152.6406333985
 30
0.0
  0
SPLINE
  5
340
100
AcDbEntity
  8
RUNDUNGEN
100
AcDbSpline
 62
7
  6
CONTINUOUS
 70
0
 71
3
 72
14
 73
10
 74
0
 42
0.0000001
 43
0.0000001
 44
0.0000000001
 40
0.0
 40
0.0
 40
0.0
 40
0.0
 40
0.0611948878
 40
0.1377241641
 40
0.2350266685
 40
0.3542125378
 40
0.4940610498
 40
0.651610126
 40
1.0
 40
1.0
 40
1.0
 40
1.0
 10
253.8665162921
 20
154.6406250228
 30
0.0
 10
253.8433608294
 20
154.6406294033
 30
0.0
 10
253.7912949621
 20
154.6572763657
 30
0.0
 10
253.7234967309
 20
154.7167116122
 30
0.0
 10
253.6588275201
 20
154.8075576955
 30
0.0
 10
253.5992775581
 20
154.9290167133
 30
0.0
 10
253.5476623372
 20
155.07831566
 30
0.0
 10
253.4922583005
 20
155.3166174449
 30
0.0
 10
253.4759329847
 20
155.5087981805
 30
0.0
 10
253.4759111694
 20
155.640625022
 30
0.0
  0
SPLINE
  5
341
100
AcDbEntity
  8
RUNDUNGEN
100
AcDbSpline
 62
7
  6
CONTINUOUS
 70
0
 71
3
 72
13
 73
9
 74
0
 42
0.0000001
 43
0.0000001
 44
0.0000000001
 40
0.0
 40
0.0
 40
0.0
 40
0.0
 40
0.339529007
 40
0.6279550544
 40
0.7457505492
 40
0.8453010909
 40
0.9284959326
 40
1.0
 40
1.0
 40
1.0
 40
1.0
 10
253.6510191221
 20
162.6406250228
 30
0.0
 10
253.6510319723
 20
162.7490485774
 30
0.0
 10
253.6738406258
 20
162.950232081
 30
0.0
 10
253.7552394136
 20
163.177205213
 30
0.0
 10
253.8430387813
 20
163.3135511179
 30
0.0
 10
253.9091172209
 20
163.384084957
 30
0.0
 10
253.9779722915
 20
163.4290213678
 30
0.0
 10
254.0275681248
 20
163.4406190005
 30
0.0
 10
254.050401888
 20
163.4406250228
 30
0.0
  0
SPLINE
  5
342
100
AcDbEntity
  8
RUNDUNGEN
100
AcDbSpline
 62
7
  6
CONTINUOUS
 70
0
 71
3
 72
13
 73
9
 74
0
 42
0.0000001
 43
0.0000001
 44
0.0000000001
 40
0.0
 40
0.0
 40
0.0
 40
0.0
 40
0.0715042128
 40
0.1546993626
 40
0.2542506102
 40
0.3720469201
 40
0.6604751944
 40
1.0
 40
1.0
 40
1.0
 40
1.0
 10
254.050401888
 20
154.8406250228
 30
0.0
 10
254.0275680844
 20
154.8406312037
 30
0.0
 10
253.9779721639
 20
154.8522286968
 30
0.0
 10
253.9091165818
 20
154.897165137
 30
0.0
 10
253.8430383544
 20
154.9676999378
 30
0.0
 10
253.7552382223
 20
155.1040467848
 30
0.0
 10
253.6738430424
 20
155.3310204181
 30
0.0
 10
253.6510297688
 20
155.532202838
 30
0.0
 10
253.6510191221
 20
155.6406250228
 30
0.0
  0
SPLINE
  5
343
100
AcDbEntity
  8
RUNDUNGEN
100
AcDbSpline
 62
7
  6
CONTINUOUS
 70
0
 71
3
 72
15
 73
11
 74
0
 42
0.0000001
 43
0.0000001
 44
0.0000000001
 40
0.0
 40
0.0
 40
0.0
 40
0.0
 40
0.3687292272
 40
0.535877882
 40
0.6832168293
 40
0.805637672
 40
0.8991836975
 40
0.934579465
 40
0.9625125057
 40
1.0
 40
1.0
 40
1.0
 40
1.0
 10
212.9924323955
 20
152.6406230738
 30
0.0
 10
212.9924324474
 20
152.512971531
 30
0.0
 10
212.9865705827
 20
152.3273324677
 30
0.0
 10
212.9652211347
 20
152.091718153
 30
0.0
 10
212.9445123688
 20
151.9418132724
 30
0.0
 10
212.9193272369
 20
151.8184611415
 30
0.0
 10
212.8944239765
 20
151.7349335568
 30
0.0
 10
212.8709824374
 20
151.6854543952
 30
0.0
 10
212.8524610889
 20
151.6566465645
 30
0.0
 10
212.8317638938
 20
151.6406252778
 30
0.0
 10
212.818785979
 20
151.6406250228
 30
0.0
  0
SPLINE
  5
344
100
AcDbEntity
  8
RUNDUNGEN
100
AcDbSpline
 62
7
  6
CONTINUOUS
 70
0
 71
3
 72
11
 73
7
 74
0
 42
0.0000001
 43
0.0000001
 44
0.0000000001
 40
0.0
 40
0.0
 40
0.0
 40
0.0
 40
0.2399926484
 40
0.4862828997
 40
0.740658257
 40
1.0
 40
1.0
 40
1.0
 40
1.0
 10
253.8665162921
 20
163.6406250228
 30
0.0
 10
253.8904882346
 20
163.6406250228
 30
0.0
 10
253.9395953133
 20
163.6297664065
 30
0.0
 10
254.0008538419
 20
163.5848311193
 30
0.0
 10
254.0409706829
 20
163.5182905813
 30
0.0
 10
254.050401888
 20
163.466529672
 30
0.0
 10
254.0504018878
 20
163.4406250228
 30
0.0
  0
SPLINE
  5
345
100
AcDbEntity
  8
RUNDUNGEN
100
AcDbSpline
 62
7
  6
CONTINUOUS
 70
0
 71
3
 72
15
 73
11
 74
0
 42
0.0000001
 43
0.0000001
 44
0.0000000001
 40
0.0
 40
0.0
 40
0.0
 40
0.0
 40
0.0347591176
 40
0.0615856564
 40
0.0959647061
 40
0.1876929653
 40
0.3087129156
 40
0.4554720758
 40
0.6233821187
 40
1.0
 40
1.0
 40
1.0
 40
1.0
 10
246.8696670995
 20
165.6722938676
 30
0.0
 10
246.8792065969
 20
165.6669095164
 30
0.0
 10
246.8869283937
 20
165.6455238582
 30
0.0
 10
246.8875626344
 20
165.61601071
 30
0.0
 10
246.8827402683
 20
165.5676097784
 30
0.0
 10
246.8639941727
 20
165.4919770351
 30
0.0
 10
246.8279772684
 20
165.3844311052
 30
0.0
 10
246.7768446473
 20
165.2569548052
 30
0.0
 10
246.6873676066
 20
165.0582738273
 30
0.0
 10
246.608829228
 20
164.9055332249
 30
0.0
 10
246.5518457873
 20
164.8014180255
 30
0.0
  0
SPLINE
  5
346
100
AcDbEntity
  8
RUNDUNGEN
100
AcDbSpline
 62
7
  6
CONTINUOUS
 70
0
 71
3
 72
15
 73
11
 74
0
 42
0.0000001
 43
0.0000001
 44
0.0000000001
 40
0.0
 40
0.0
 40
0.0
 40
0.0
 40
0.0374873734
 40
0.0654202878
 40
0.1008159387
 40
0.1943618085
 40
0.316782618
 40
0.4641216406
 40
0.6312704436
 40
1.0
 40
1.0
 40
1.0
 40
1.0
 10
243.1836072739
 20
166.6406250228
 30
0.0
 10
243.1965851821
 20
166.6406250228
 30
0.0
 10
243.2172826777
 20
166.6246040565
 30
0.0
 10
243.2358041761
 20
166.5957963482
 30
0.0
 10
243.2592459502
 20
166.5463172866
 30
0.0
 10
243.2841494318
 20
166.462789617
 30
0.0
 10
243.3093348105
 20
166.3394372295
 30
0.0
 10
243.3300437898
 20
166.1895318928
 30
0.0
 10
243.3513934856
 20
165.9539167613
 30
0.0
 10
243.3572554584
 20
165.7682770275
 30
0.0
 10
243.3572554515
 20
165.6406250228
 30
0.0
  0
SPLINE
  5
347
100
AcDbEntity
  8
RUNDUNGEN
100
AcDbSpline
 62
7
  6
CONTINUOUS
 70
0
 71
3
 72
15
 73
11
 74
0
 42
0.0000001
 43
0.0000001
 44
0.0000000001
 40
0.0
 40
0.0
 40
0.0
 40
0.0
 40
0.0374872641
 40
0.0654201488
 40
0.1008157759
 40
0.1943616041
 40
0.3167823791
 40
0.4641213843
 40
0.6312702072
 40
1.0
 40
1.0
 40
1.0
 40
1.0
 10
212.8187948752
 20
166.6406250228
 30
0.0
 10
212.8317727071
 20
166.6406249909
 30
0.0
 10
212.8524700307
 20
166.6246040059
 30
0.0
 10
212.8709913639
 20
166.5957963889
 30
0.0
 10
212.8944329494
 20
166.5463174518
 30
0.0
 10
212.9193362228
 20
166.4627900322
 30
0.0
 10
212.9445213849
 20
166.3394380141
 30
0.0
 10
212.9652301712
 20
166.1895331168
 30
0.0
 10
212.9865796429
 20
165.9539185873
 30
0.0
 10
212.9924414954
 20
165.7682793137
 30
0.0
 10
212.9924414265
 20
165.6406276063
 30
0.0
  0
SPLINE
  5
348
100
AcDbEntity
  8
RUNDUNGEN
100
AcDbSpline
 62
7
  6
CONTINUOUS
 70
0
 71
3
 72
15
 73
11
 74
0
 42
0.0000001
 43
0.0000001
 44
0.0000000001
 40
0.0
 40
0.0
 40
0.0
 40
0.0
 40
0.3766182732
 40
0.5445285394
 40
0.6912878234
 40
0.8123077409
 40
0.9040357851
 40
0.938414671
 40
0.9652410325
 40
1.0
 40
1.0
 40
1.0
 40
1.0
 10
246.5518469869
 20
153.4798320205
 30
0.0
 10
246.6088313322
 20
153.3757159556
 30
0.0
 10
246.687370889
 20
153.2229739916
 30
0.0
 10
246.7768491096
 20
153.0242911349
 30
0.0
 10
246.8279823077
 20
152.8968136201
 30
0.0
 10
246.8639994569
 20
152.7892667393
 30
0.0
 10
246.8827455496
 20
152.7136333852
 30
0.0
 10
246.8875676393
 20
152.6652321638
 30
0.0
 10
246.886933177
 20
152.6357188933
 30
0.0
 10
246.8792107549
 20
152.6143332685
 30
0.0
 10
246.8696710475
 20
152.6089491844
 30
0.0
  0
SPLINE
  5
349
100
AcDbEntity
  8
RUNDUNGEN
100
AcDbSpline
 62
7
  6
CONTINUOUS
 70
0
 71
3
 72
15
 73
11
 74
0
 42
0.0000001
 43
0.0000001
 44
0.0000000001
 40
0.0
 40
0.0
 40
0.0
 40
0.0
 40
0.368729549
 40
0.5358783506
 40
0.6832173739
 40
0.8056381844
 40
0.8991840562
 40
0.9345797081
 40
0.9625126237
 40
1.0
 40
1.0
 40
1.0
 40
1.0
 10
243.3572554515
 20
152.6406250228
 30
0.0
 10
243.3572554605
 20
152.5129730203
 30
0.0
 10
243.3513934901
 20
152.3273332886
 30
0.0
 10
243.3300437965
 20
152.0917181589
 30
0.0
 10
243.3093348179
 20
151.9418128214
 30
0.0
 10
243.2841494386
 20
151.8184604323
 30
0.0
 10
243.2592459561
 20
151.7349327611
 30
0.0
 10
243.23580418
 20
151.6854536986
 30
0.0
 10
243.2172826796
 20
151.6566459893
 30
0.0
 10
243.1965851822
 20
151.6406250228
 30
0.0
 10
243.1836072729
 20
151.6406250228
 30
0.0
  0
SPLINE
  5
34A
100
AcDbEntity
  8
RUNDUNGEN
100
AcDbSpline
 62
7
  6
CONTINUOUS
 70
0
 71
3
 72
13
 73
9
 74
0
 42
0.0000001
 43
0.0000001
 44
0.0000000001
 40
0.0
 40
0.0
 40
0.0
 40
0.0
 40
0.2500967348
 40
0.5000307214
 40
0.6250530159
 40
0.7500563233
 40
0.875033287
 40
1.0
 40
1.0
 40
1.0
 40
1.0
 10
55.7500087466
 20
94.1471266737
 30
0.0
 10
56.5570037916
 20
93.5376775822
 30
0.0
 10
58.1617172095
 20
92.3073366394
 30
0.0
 10
60.015346982
 20
90.5745852041
 30
0.0
 10
61.2894220348
 20
89.0003922583
 30
0.0
 10
62.1036455466
 20
87.7163092034
 30
0.0
 10
62.7338276626
 20
86.3316164817
 30
0.0
 10
63.00107662
 20
85.3507059206
 30
0.0
 10
63.0888381325
 20
84.8530801248
 30
0.0
  0
SPLINE
  5
34B
100
AcDbEntity
  8
RUNDUNGEN
100
AcDbSpline
 62
7
  6
CONTINUOUS
 70
0
 71
3
 72
14
 73
10
 74
0
 42
0.0000001
 43
0.0000001
 44
0.0000000001
 40
0.0
 40
0.0
 40
0.0
 40
0.0
 40
0.250781648
 40
0.3758629961
 40
0.5007476078
 40
0.6255184284
 40
0.7502736371
 40
0.8750843605
 40
1.0
 40
1.0
 40
1.0
 40
1.0
 10
55.6969728593
 20
94.0769037547
 30
0.0
 10
56.3687012396
 20
93.3847643692
 30
0.0
 10
57.3732466941
 20
92.344895046
 30
0.0
 10
58.6614206821
 20
90.9128367699
 30
0.0
 10
59.5813945217
 20
89.802635882
 30
0.0
 10
60.4305010948
 20
88.638046781
 30
0.0
 10
61.1735131643
 20
87.4018039474
 30
0.0
 10
61.7645874375
 20
86.0840242048
 30
0.0
 10
62.0206194942
 20
85.152459673
 30
0.0
 10
62.1040474933
 20
84.6793324216
 30
0.0
  0
LINE
  5
34C
100
AcDbEntity
  8
RUNDUNGEN
100
AcDbLine
 62
7
  6
CONTINUOUS
 10
55.7500093053
 20
92.947757058
 11
55.6969728593
 21
94.0769037547
  0
LINE
  5
34D
100
AcDbEntity
  8
RUNDUNGEN
100
AcDbLine
 62
7
  6
CONTINUOUS
 10
62.4669462203
 20
114.4882431196
 11
63.6131169301
 21
106.9879443491
  0
SPLINE
  5
34E
100
AcDbEntity
  8
RUNDUNGEN
100
AcDbSpline
 62
7
  6
CONTINUOUS
 70
0
 71
3
 72
16
 73
12
 74
0
 42
0.0000001
 43
0.0000001
 44
0.0000000001
 40
0.0
 40
0.0
 40
0.0
 40
0.0
 40
0.0422510338
 40
0.0715847584
 40
0.107859807
 40
0.2020208131
 40
0.323994018
 40
0.470134162
 40
0.63554909
 40
0.8145400774
 40
1.0
 40
1.0
 40
1.0
 40
1.0
 10
54.75
 20
93.1533203795
 30
0.0
 10
54.7500000001
 20
93.1385148388
 30
0.0
 10
54.7648782507
 20
93.114532026
 30
0.0
 10
54.7945421543
 20
93.091726275
 30
0.0
 10
54.843702835
 20
93.0641845533
 30
0.0
 10
54.9273603848
 20
93.0344915101
 30
0.0
 10
55.0508816938
 20
93.0046896067
 30
0.0
 10
55.2009193923
 20
92.9801471736
 30
0.0
 10
55.3718986201
 20
92.9617868325
 30
0.0
 10
55.5572865529
 20
92.9504972394
 30
0.0
 10
55.6850114262
 20
92.9479402223
 30
0.0
 10
55.75
 20
92.9479402803
 30
0.0
  0
LINE
  5
34F
100
AcDbEntity
  8
RUNDUNGEN
100
AcDbLine
 62
7
  6
CONTINUOUS
 10
102.8976805907
 20
106.9882677265
 11
100.3519865643
 21
99.488267715
  0
SPLINE
  5
350
100
AcDbEntity
  8
RUNDUNGEN
100
AcDbSpline
 62
7
  6
CONTINUOUS
 70
0
 71
3
 72
8
 73
4
 74
0
 42
0.0000001
 43
0.0000001
 44
0.0000000001
 40
0.0
 40
0.0
 40
0.0
 40
0.0
 40
1.0
 40
1.0
 40
1.0
 40
1.0
 10
72.2294326471
 20
47.0628242864
 30
0.0
 10
72.263919817
 20
47.0628239858
 30
0.0
 10
72.2994586173
 20
47.0533465571
 30
0.0
 10
72.3294347218
 20
47.0362937552
 30
0.0
  0
SPLINE
  5
351
100
AcDbEntity
  8
RUNDUNGEN
100
AcDbSpline
 62
7
  6
CONTINUOUS
 70
0
 71
3
 72
9
 73
5
 74
0
 42
0.0000001
 43
0.0000001
 44
0.0000000001
 40
0.0
 40
0.0
 40
0.0
 40
0.0
 40
0.5010865537
 40
1.0
 40
1.0
 40
1.0
 40
1.0
 10
72.3294347218
 20
47.0362937552
 30
0.0
 10
72.3592812153
 20
47.0193146864
 30
0.0
 10
72.4107678593
 20
46.9687355545
 30
0.0
 10
72.4294322116
 20
46.8989983528
 30
0.0
 10
72.429431608
 20
46.8648092158
 30
0.0
  0
SPLINE
  5
352
100
AcDbEntity
  8
RUNDUNGEN
100
AcDbSpline
 62
7
  6
CONTINUOUS
 70
0
 71
3
 72
13
 73
9
 74
0
 42
0.0000001
 43
0.0000001
 44
0.0000000001
 40
0.0
 40
0.0
 40
0.0
 40
0.0
 40
0.2524765812
 40
0.5034283088
 40
0.6281184099
 40
0.7523361909
 40
0.8762291222
 40
1.0
 40
1.0
 40
1.0
 40
1.0
 10
102.8978383593
 20
106.9887325851
 30
0.0
 10
102.5302829649
 20
106.4775129406
 30
0.0
 10
101.7973108216
 20
105.4582928507
 30
0.0
 10
100.9086556268
 20
104.167736981
 30
0.0
 10
100.2476811391
 20
103.1105155233
 30
0.0
 10
99.7918875136
 20
102.2995837896
 30
0.0
 10
99.3947324469
 20
101.4605303408
 30
0.0
 10
99.1891514868
 20
100.8759156
 30
0.0
 10
99.1092650296
 20
100.5777675287
 30
0.0
  0
SPLINE
  5
353
100
AcDbEntity
  8
RUNDUNGEN
100
AcDbSpline
 62
7
  6
CONTINUOUS
 70
0
 71
3
 72
10
 73
6
 74
0
 42
0.0000001
 43
0.0000001
 44
0.0000000001
 40
0.0
 40
0.0
 40
0.0
 40
0.0
 40
0.5148170082
 40
0.7617234147
 40
1.0
 40
1.0
 40
1.0
 40
1.0
 10
72.229431608
 20
47.8078411551
 30
0.0
 10
72.2796820029
 20
47.8078411551
 30
0.0
 10
72.3581933941
 20
47.7805275175
 30
0.0
 10
72.4183375099
 20
47.7008670668
 30
0.0
 10
72.429431608
 20
47.6529542104
 30
0.0
 10
72.429431608
 20
47.6296964463
 30
0.0
  0
SPLINE
  5
354
100
AcDbEntity
  8
RUNDUNGEN
100
AcDbSpline
 62
7
  6
CONTINUOUS
 70
0
 71
3
 72
10
 73
6
 74
0
 42
0.0000001
 43
0.0000001
 44
0.0000000001
 40
0.0
 40
0.0
 40
0.0
 40
0.0
 40
0.5148169306
 40
0.7617231274
 40
1.0
 40
1.0
 40
1.0
 40
1.0
 10
81.629431608
 20
47.8078411551
 30
0.0
 10
81.5791811969
 20
47.8078412997
 30
0.0
 10
81.5006696977
 20
47.7805277106
 30
0.0
 10
81.4405256321
 20
47.700867147
 30
0.0
 10
81.429431608
 20
47.6529542494
 30
0.0
 10
81.429431608
 20
47.6296964463
 30
0.0
  0
SPLINE
  5
355
100
AcDbEntity
  8
RUNDUNGEN
100
AcDbSpline
 62
7
  6
CONTINUOUS
 70
0
 71
3
 72
8
 73
4
 74
0
 42
0.0000001
 43
0.0000001
 44
0.0000000001
 40
0.0
 40
0.0
 40
0.0
 40
0.0
 40
1.0
 40
1.0
 40
1.0
 40
1.0
 10
81.629431608
 20
47.0628230939
 30
0.0
 10
81.5949451524
 20
47.0628230837
 30
0.0
 10
81.5594070322
 20
47.0533463035
 30
0.0
 10
81.5294312844
 20
47.0362943193
 30
0.0
  0
SPLINE
  5
356
100
AcDbEntity
  8
RUNDUNGEN
100
AcDbSpline
 62
7
  6
CONTINUOUS
 70
0
 71
3
 72
9
 73
5
 74
0
 42
0.0000001
 43
0.0000001
 44
0.0000000001
 40
0.0
 40
0.0
 40
0.0
 40
0.0
 40
0.5010860957
 40
1.0
 40
1.0
 40
1.0
 40
1.0
 10
81.5294312844
 20
47.0362943193
 30
0.0
 10
81.4995839261
 20
47.0193153706
 30
0.0
 10
81.4480956313
 20
46.968735534
 30
0.0
 10
81.4294308606
 20
46.8989967449
 30
0.0
 10
81.429431608
 20
46.8648068559
 30
0.0
  0
SPLINE
  5
357
100
AcDbEntity
  8
RUNDUNGEN
100
AcDbSpline
 62
7
  6
CONTINUOUS
 70
0
 71
3
 72
12
 73
8
 74
0
 42
0.0000001
 43
0.0000001
 44
0.0000000001
 40
0.0
 40
0.0
 40
0.0
 40
0.0
 40
0.1835210644
 40
0.2915385237
 40
0.4113422081
 40
0.6859386651
 40
1.0
 40
1.0
 40
1.0
 40
1.0
 10
81.4294316045
 20
47.6297504509
 30
0.0
 10
81.429437273
 20
47.712948375
 30
0.0
 10
81.3850187565
 20
47.8449314089
 30
0.0
 10
81.2789910962
 20
47.9982630082
 30
0.0
 10
81.1194376927
 20
48.1624592009
 30
0.0
 10
80.8412416293
 20
48.3342383293
 30
0.0
 10
80.5719248749
 20
48.3891142742
 30
0.0
 10
80.4295474848
 20
48.3890753659
 30
0.0
  0
SPLINE
  5
358
100
AcDbEntity
  8
RUNDUNGEN
100
AcDbSpline
 62
7
  6
CONTINUOUS
 70
0
 71
3
 72
18
 73
14
 74
0
 42
0.0000001
 43
0.0000001
 44
0.0000000001
 40
0.0
 40
0.0
 40
0.0
 40
0.0
 40
0.2203351696
 40
0.4177028145
 40
0.5897222887
 40
0.7341424543
 40
0.8489865602
 40
0.8947102723
 40
0.9323467115
 40
0.9617865473
 40
0.9829371441
 40
0.9957058479
 40
1.0
 40
1.0
 40
1.0
 40
1.0
 10
81.1536925603
 20
44.0782452578
 30
0.0
 10
81.1740484106
 20
44.0866442833
 30
0.0
 10
81.212594817
 20
44.1026724775
 30
0.0
 10
81.266898645
 20
44.1255791785
 30
0.0
 10
81.3141260473
 20
44.1457419319
 30
0.0
 10
81.353700493
 20
44.1628167477
 30
0.0
 10
81.381661421
 20
44.1749650085
 30
0.0
 10
81.3997921678
 20
44.1829245111
 30
0.0
 10
81.4101521859
 20
44.1874117319
 30
0.0
 10
81.4181289634
 20
44.1910698933
 30
0.0
 10
81.4241376862
 20
44.1933795985
 30
0.0
 10
81.4272497687
 20
44.1953599879
 30
0.0
 10
81.4292042221
 20
44.1955998581
 30
0.0
 10
81.429431608
 20
44.1959638306
 30
0.0
  0
SPLINE
  5
359
100
AcDbEntity
  8
RUNDUNGEN
100
AcDbSpline
 62
7
  6
CONTINUOUS
 70
0
 71
3
 72
12
 73
8
 74
0
 42
0.0000001
 43
0.0000001
 44
0.0000000001
 40
0.0
 40
0.0
 40
0.0
 40
0.0
 40
0.314062805
 40
0.5886511471
 40
0.7084557466
 40
0.8164750654
 40
1.0
 40
1.0
 40
1.0
 40
1.0
 10
73.4293160287
 20
48.3890753617
 30
0.0
 10
73.2869378721
 20
48.3891141453
 30
0.0
 10
73.0176228823
 20
48.3342410985
 30
0.0
 10
72.7394311607
 20
48.1624606629
 30
0.0
 10
72.5798761638
 20
47.9982693014
 30
0.0
 10
72.4738458242
 20
47.8449355867
 30
0.0
 10
72.4294259722
 20
47.7129499182
 30
0.0
 10
72.4294316115
 20
47.6297501811
 30
0.0
  0
SPLINE
  5
35A
100
AcDbEntity
  8
RUNDUNGEN
100
AcDbSpline
 62
7
  6
CONTINUOUS
 70
0
 71
3
 72
18
 73
14
 74
0
 42
0.0000001
 43
0.0000001
 44
0.0000000001
 40
0.0
 40
0.0
 40
0.0
 40
0.0
 40
0.0042983713
 40
0.017070584
 40
0.0382238935
 40
0.0676655511
 40
0.1053028233
 40
0.1510274839
 40
0.2658775304
 40
0.4103036978
 40
0.5823233742
 40
0.7796828798
 40
1.0
 40
1.0
 40
1.0
 40
1.0
 10
72.429431608
 20
44.1959638306
 30
0.0
 10
72.4296612619
 20
44.1956001312
 30
0.0
 10
72.4316145469
 20
44.1953563936
 30
0.0
 10
72.4347361807
 20
44.1933768117
 30
0.0
 10
72.4407512047
 20
44.1910626711
 30
0.0
 10
72.448740248
 20
44.1874013081
 30
0.0
 10
72.4591138034
 20
44.1829085003
 30
0.0
 10
72.4772688812
 20
44.1749387428
 30
0.0
 10
72.5052663881
 20
44.1627730955
 30
0.0
 10
72.54489242
 20
44.1456745419
 30
0.0
 10
72.5921805611
 20
44.1254861126
 30
0.0
 10
72.6465526089
 20
44.1025524834
 30
0.0
 10
72.6851468562
 20
44.0865061161
 30
0.0
 10
72.7055275817
 20
44.0780977471
 30
0.0
  0
SPLINE
  5
35B
100
AcDbEntity
  8
RUNDUNGEN
100
AcDbSpline
 62
7
  6
CONTINUOUS
 70
0
 71
3
 72
12
 73
8
 74
0
 42
0.0000001
 43
0.0000001
 44
0.0000000001
 40
0.0
 40
0.0
 40
0.0
 40
0.0
 40
0.168211314
 40
0.2733587606
 40
0.39354746
 40
0.6759686879
 40
1.0
 40
1.0
 40
1.0
 40
1.0
 10
81.629431608
 20
47.8078411549
 30
0.0
 10
81.629462219
 20
47.8928012932
 30
0.0
 10
81.5691559298
 20
48.0289129799
 30
0.0
 10
81.4381070534
 20
48.1774376868
 30
0.0
 10
81.2375633879
 20
48.3398227409
 30
0.0
 10
80.9012714001
 20
48.4995692266
 30
0.0
 10
80.5930932836
 20
48.5475591936
 30
0.0
 10
80.429431608
 20
48.5475077202
 30
0.0
  0
SPLINE
  5
35C
100
AcDbEntity
  8
RUNDUNGEN
100
AcDbSpline
 62
7
  6
CONTINUOUS
 70
0
 71
3
 72
16
 73
12
 74
0
 42
0.0000001
 43
0.0000001
 44
0.0000000001
 40
0.0
 40
0.0
 40
0.0
 40
0.0
 40
0.008411773
 40
0.0240927144
 40
0.0813518721
 40
0.1727601633
 40
0.2954579223
 40
0.4452019833
 40
0.6167037869
 40
0.8038526571
 40
1.0
 40
1.0
 40
1.0
 40
1.0
 10
54.75
 20
94.1471433978
 30
0.0
 10
54.7500000135
 20
94.1444648118
 30
0.0
 10
54.7563255569
 20
94.1381199156
 30
0.0
 10
54.7798998833
 20
94.1291473777
 30
0.0
 10
54.8320139381
 20
94.118229586
 30
0.0
 10
54.9173524535
 20
94.1075534554
 30
0.0
 10
55.0329819784
 20
94.0975252617
 30
0.0
 10
55.1740467315
 20
94.0891636468
 30
0.0
 10
55.3358360289
 20
94.0826809386
 30
0.0
 10
55.5124497191
 20
94.0784048182
 30
0.0
 10
55.6345034254
 20
94.0771548961
 30
0.0
 10
55.6969627729
 20
94.0769216364
 30
0.0
  0
LINE
  5
35D
100
AcDbEntity
  8
RUNDUNGEN
100
AcDbLine
 62
7
  6
CONTINUOUS
 10
57.5014226111
 20
86.9882677316
 11
55.7500004971
 21
92.9477873524
  0
SPLINE
  5
35E
100
AcDbEntity
  8
RUNDUNGEN
100
AcDbSpline
 62
7
  6
CONTINUOUS
 70
0
 71
3
 72
12
 73
8
 74
0
 42
0.0000001
 43
0.0000001
 44
0.0000000001
 40
0.0
 40
0.0
 40
0.0
 40
0.0
 40
0.3240329894
 40
0.6064450138
 40
0.7266352654
 40
0.8317848372
 40
1.0
 40
1.0
 40
1.0
 40
1.0
 10
73.429431608
 20
48.5475077202
 30
0.0
 10
73.2657690441
 20
48.5475589694
 30
0.0
 10
72.9575933507
 20
48.4995727945
 30
0.0
 10
72.6213073931
 20
48.3398224949
 30
0.0
 10
72.420761864
 20
48.1774444287
 30
0.0
 10
72.2897085164
 20
48.0289181987
 30
0.0
 10
72.2294011014
 20
47.8928032585
 30
0.0
 10
72.229431608
 20
47.8078411549
 30
0.0
  0
SPLINE
  5
35F
100
AcDbEntity
  8
RUNDUNGEN
100
AcDbSpline
 62
7
  6
CONTINUOUS
 70
0
 71
3
 72
9
 73
5
 74
0
 42
0.0000001
 43
0.0000001
 44
0.0000000001
 40
0.0
 40
0.0
 40
0.0
 40
0.0
 40
0.4005121485
 40
1.0
 40
1.0
 40
1.0
 40
1.0
 10
81.6019166898
 20
47.03590963
 30
0.0
 10
81.6071253114
 20
47.0366306175
 30
0.0
 10
81.6187387347
 20
47.044773495
 30
0.0
 10
81.625619667
 20
47.0559372972
 30
0.0
 10
81.6294359009
 20
47.0628208269
 30
0.0
  0
SPLINE
  5
360
100
AcDbEntity
  8
RUNDUNGEN
100
AcDbSpline
 62
7
  6
CONTINUOUS
 70
0
 71
3
 72
13
 73
9
 74
0
 42
0.0000001
 43
0.0000001
 44
0.0000000001
 40
0.0
 40
0.0
 40
0.0
 40
0.0
 40
0.0878597733
 40
0.1825701318
 40
0.2884780963
 40
0.4076954822
 40
0.6847865759
 40
1.0
 40
1.0
 40
1.0
 40
1.0
 10
85.7429894858
 20
50.6941737617
 30
0.0
 10
85.7347498641
 20
50.6634253076
 30
0.0
 10
85.7060954178
 20
50.6022120796
 30
0.0
 10
85.6337283714
 20
50.5249254894
 30
0.0
 10
85.5346900438
 20
50.4628208862
 30
0.0
 10
85.3636308787
 20
50.3982043527
 30
0.0
 10
85.1042765781
 20
50.3672536737
 30
0.0
 10
84.8892960659
 20
50.3879335957
 30
0.0
 10
84.7770683655
 20
50.4091089062
 30
0.0
  0
SPLINE
  5
361
100
AcDbEntity
  8
RUNDUNGEN
100
AcDbSpline
 62
7
  6
CONTINUOUS
 70
0
 71
3
 72
13
 73
9
 74
0
 42
0.0000001
 43
0.0000001
 44
0.0000000001
 40
0.0
 40
0.0
 40
0.0
 40
0.0
 40
0.2971973623
 40
0.5562440016
 40
0.6745980973
 40
0.7870913302
 40
0.8951183432
 40
1.0
 40
1.0
 40
1.0
 40
1.0
 10
69.0062671438
 20
50.8021992138
 30
0.0
 10
69.0846617899
 20
50.2894472815
 30
0.0
 10
69.3750389708
 20
49.344431796
 30
0.0
 10
70.049865754
 20
48.3573927111
 30
0.0
 10
70.682832218
 20
47.7782994782
 30
0.0
 10
71.1759696794
 20
47.4475523623
 30
0.0
 10
71.6920146296
 20
47.2054199603
 30
0.0
 10
72.0502847769
 20
47.1004251318
 30
0.0
 10
72.2294326472
 20
47.062810902
 30
0.0
  0
SPLINE
  5
362
100
AcDbEntity
  8
RUNDUNGEN
100
AcDbSpline
 62
7
  6
CONTINUOUS
 70
0
 71
3
 72
9
 73
5
 74
0
 42
0.0000001
 43
0.0000001
 44
0.0000000001
 40
0.0
 40
0.0
 40
0.0
 40
0.0
 40
0.5995252704
 40
1.0
 40
1.0
 40
1.0
 40
1.0
 10
72.229441914
 20
47.0628020153
 30
0.0
 10
72.2332584448
 20
47.055918782
 30
0.0
 10
72.2401426013
 20
47.0447579842
 30
0.0
 10
72.2517534978
 20
47.0366160333
 30
0.0
 10
72.2569610028
 20
47.0358935189
 30
0.0
  0
SPLINE
  5
363
100
AcDbEntity
  8
RUNDUNGEN
100
AcDbSpline
 62
7
  6
CONTINUOUS
 70
0
 71
3
 72
13
 73
9
 74
0
 42
0.0000001
 43
0.0000001
 44
0.0000000001
 40
0.0
 40
0.0
 40
0.0
 40
0.0
 40
0.3222385666
 40
0.604514562
 40
0.7240364794
 40
0.8278365156
 40
0.91809438
 40
1.0
 40
1.0
 40
1.0
 40
1.0
 10
69.0062671437
 20
50.8022079005
 30
0.0
 10
68.8876629999
 20
50.7863472729
 30
0.0
 10
68.662208551
 20
50.7756795035
 30
0.0
 10
68.3933350707
 20
50.8167193761
 30
0.0
 10
68.2182866799
 20
50.8869709476
 30
0.0
 10
68.119961099
 20
50.9512247474
 30
0.0
 10
68.0508384949
 20
51.0289432038
 30
0.0
 10
68.026755217
 20
51.0900766375
 30
0.0
 10
68.0214728522
 20
51.1200292127
 30
0.0
  0
LINE
  5
364
100
AcDbEntity
  8
RUNDUNGEN
100
AcDbLine
 62
7
  6
CONTINUOUS
 10
68.4429312372
 20
54.4885506176
 11
69.0062671438
 21
50.8021992138
  0
LINE
  5
365
100
AcDbEntity
  8
RUNDUNGEN
100
AcDbLine
 62
7
  6
CONTINUOUS
 10
85.7243844829
 20
54.4884480058
 11
84.7770683653
 21
50.4091029026
  0
SPLINE
  5
366
100
AcDbEntity
  8
RUNDUNGEN
100
AcDbSpline
 62
7
  6
CONTINUOUS
 70
0
 71
3
 72
13
 73
9
 74
0
 42
0.0000001
 43
0.0000001
 44
0.0000000001
 40
0.0
 40
0.0
 40
0.0
 40
0.0
 40
0.2933765793
 40
0.5515541257
 40
0.6704599354
 40
0.7840098043
 40
0.8934740267
 40
1.0
 40
1.0
 40
1.0
 40
1.0
 10
84.7770683653
 20
50.4091029026
 30
0.0
 10
84.6700202957
 20
49.948225891
 30
0.0
 10
84.3484728258
 20
49.1038058455
 30
0.0
 10
83.6886187577
 20
48.2285737614
 30
0.0
 10
83.0861608377
 20
47.7119804684
 30
0.0
 10
82.6195624785
 20
47.4145027869
 30
0.0
 10
82.133700835
 20
47.194872904
 30
0.0
 10
81.797566854
 20
47.0981299537
 30
0.0
 10
81.6294320674
 20
47.0628285851
 30
0.0
  0
SPLINE
  5
367
100
AcDbEntity
  8
RUNDUNGEN
100
AcDbSpline
 62
7
  6
CONTINUOUS
 70
0
 71
3
 72
12
 73
8
 74
0
 42
0.0000001
 43
0.0000001
 44
0.0000000001
 40
0.0
 40
0.0
 40
0.0
 40
0.0
 40
0.2502160441
 40
0.5003583074
 40
0.6254524339
 40
0.7505297855
 40
1.0
 40
1.0
 40
1.0
 40
1.0
 10
102.8975031667
 20
106.9882677261
 30
0.0
 10
102.4102585637
 20
106.5476553893
 30
0.0
 10
101.4359699197
 20
105.6665902213
 30
0.0
 10
100.2847825783
 20
104.4917947369
 30
0.0
 10
99.4602888215
 20
103.4670627575
 30
0.0
 10
98.7282731718
 20
102.3784407971
 30
0.0
 10
98.3128333967
 20
101.4691757459
 30
0.0
 10
98.1433224674
 20
100.8365275375
 30
0.0
  0
LINE
  5
368
100
AcDbEntity
  8
RUNDUNGEN
100
AcDbLine
 62
7
  6
CONTINUOUS
 10
96.6857730803
 20
106.9879482328
 11
98.4275097605
 21
114.4882454107
  0
ELLIPSE
  5
369
100
AcDbEntity
  8
0
100
AcDbEllipse
 62
7
  6
CONTINUOUS
 10
87.5366716013
 20
159.1406250228
 30
0.0
 11
0.0
 21
3.195
 31
0.0
 40
0.2679491924
 41
0.0
 42
3.1415926536
  0
ELLIPSE
  5
36A
100
AcDbEntity
  8
0
100
AcDbEllipse
 62
7
  6
CONTINUOUS
 10
92.1453977111
 20
159.1406250228
 30
0.0
 11
-0.0
 21
3.195
 31
0.0
 40
0.2679491924
 41
-3.1415926536
 42
0.0
  0
ELLIPSE
  5
36B
100
AcDbEntity
  8
0
100
AcDbEllipse
 62
7
  6
CONTINUOUS
 10
63.8833753324
 20
159.1406250228
 30
0.0
 11
-0.0
 21
3.195
 31
0.0
 40
0.1763269807
 41
0.0
 42
3.1415926536
  0
ENDSEC
  0
SECTION
  2
OBJECTS
  0
DICTIONARY
  5
C
100
AcDbDictionary
280
0
281
1
  3
ACAD_GROUP
350
D
  3
ACAD_MLINESTYLE
350
17
  3
ACAD_LAYOUT
350
1A
  3
ACAD_PLOTSETTINGS
350
19
  3
ACAD_PLOTSTYLENAME
350
E
  0
DICTIONARY
  5
D
102
{ACAD_REACTORS
330
C
102
}
100
AcDbDictionary
280
0
281
1
  0
ACDBDICTIONARYWDFLT
  5
E
102
{ACAD_REACTORS
330
C
102
}
100
AcDbDictionary
281
1
  3
Normal
350
F
100
AcDbDictionaryWithDefault
340
F
  0
DICTIONARY
  5
17
102
{ACAD_REACTORS
330
C
102
}
100
AcDbDictionary
280
0
281
1
  3
Standard
350
18
  0
DICTIONARY
  5
19
102
{ACAD_REACTORS
330
C
102
}
100
AcDbDictionary
281
1
  0
DICTIONARY
  5
1A
102
{ACAD_REACTORS
330
C
102
}
100
AcDbDictionary
281
1
  3
Model
350
36C
  3
Layout1
350
36D
  0
ACDBPLACEHOLDER
  5
F
102
{ACAD_REACTORS
330
E
102
}
  0
MLINESTYLE
  5
18
102
{ACAD_REACTORS
330
17
102
}
100
AcDbMlineStyle
  2
STANDARD
 70
0
  3

 62
256
 51
90.0
 52
90.0
 71
2
 49
0.5
 62
256
  6
BYLAYER
 49
-0.5
 62
256
  6
BYLAYER
  0
LAYOUT
  5
36C
102
{ACAD_REACTORS
330
1A
102
}
100
AcDbPlotSettings
  1

  2
none_device
  4
ISO_A4_(297.00_x_210.00_MM)
  6

 40
0.0
 41
0.0
 42
0.0
 43
0.0
 44
297.0
 45
210.0
 46
0.0
 47
0.0
 48
0.0
 49
0.0
140
0.0
141
0.0
142
1.0
143
1.0
 70
1024
 72
1
 73
0
 74
0
  7

 75
0
147
1.0
148
0.0
149
0.0
100
AcDbLayout
  1
Model
 70
0
 71
0
 10
0.0
 20
0.0
 11
297.0
 21
210.0
 12
0.0
 22
0.0
 32
0.0
 14
0.0
 24
0.0
 34
0.0
 15
0.0
 25
0.0
 35
0.0
146
0.0
 13
0.0
 23
0.0
 33
0.0
 16
1.0
 26
0.0
 36
0.0
 17
0.0
 27
1.0
 37
0.0
 76
0
330
212
345
0
346
0
  0
LAYOUT
  5
36D
102
{ACAD_REACTORS
330
1A
102
}
100
AcDbPlotSettings
  1

  2
none_device
  4
ISO_A4_(297.00_x_210.00_MM)
  6

 40
0.0
 41
0.0
 42
0.0
 43
0.0
 44
297.0
 45
210.0
 46
0.0
 47
0.0
 48
0.0
 49
0.0
140
0.0
141
0.0
142
1.0
143
1.0
 70
0
 72
1
 73
0
 74
0
  7

 75
0
147
1.0
148
0.0
149
0.0
100
AcDbLayout
  1
Layout1
 70
0
 71
1
 10
0.0
 20
0.0
 11
297.0
 21
210.0
 12
0.0
 22
0.0
 32
0.0
 14
0.0
 24
0.0
 34
0.0
 15
0.0
 25
0.0
 35
0.0
146
0.0
 13
0.0
 23
0.0
 33
0.0
 16
1.0
 26
0.0
 36
0.0
 17
0.0
 27
1.0
 37
0.0
 76
0
330
213
345
0
346
0
  0
ENDSEC
  0
EOF
