999
DXF file: S:\Prolink\03_Konstruktion\CAD-Plots\Internet\2D_neu\S9\s9-57_grt_smr_f3_w50.dxf
999
Pro/ENGINEER 2012230 by Parametric Technology Corporation
  0
SECTION
  2
HEADER
  9
$ACADVER
  1
AC1021
  9
$DWGCODEPAGE
  3
ANSI_1252
  9
$EXTMAX
 10
297.0
 20
210.0
 30
0.0
  9
$EXTMIN
 10
0.0
 20
0.0
 30
0.0
  9
$LIMMIN
 10
0.0
 20
0.0
  9
$LIMMAX
 10
297.0
 20
210.0
  9
$VIEWCTR
 10
148.5
 20
105.0
  9
$VIEWSIZE
 40
210.0
  9
$CLAYER
  8
0
  9
$LTSCALE
 40
16.335
  9
$CELTYPE
  6
BYLAYER
  9
$DIMSCALE
 40
1.0
  9
$DIMASZ
 40
3.5
  9
$DIMEXO
 40
0.0
  9
$DIMDLI
 40
11.286
  9
$DIMEXE
 40
1.5
  9
$DIMCEN
 40
2.673
  9
$DIMLFAC
 40
1.0
  9
$DIMBLK
  1
_FILLED
  9
$DIMTXT
 40
3.5
  9
$DIMTOL
 70
1
  9
$DIMLIM
 70
0
  9
$DIMTFAC
 40
1.0
  9
$DIMTP
 40
0.005
  9
$DIMTM
 40
0.005
  9
$DIMGAP
 40
0.625
  9
$DIMDSEP
 70
46
  9
$PDMODE
 70
3
  9
$PDSIZE
 40
0.3125
  9
$HANDSEED
  5
36E
  9
$TILEMODE
 70
1
  9
$MEASUREMENT
 70
1
  9
$INSUNITS
 70
4
  0
ENDSEC
  0
SECTION
  2
CLASSES
  0
CLASS
  1
ACDBDICTIONARYWDFLT
  2
AcDbDictionaryWithDefault
  3
AutoCAD 2000
 90
0
 91
1
280
0
281
0
  0
CLASS
  1
ACDBPLACEHOLDER
  2
AcDbPlaceHolder
  3
AutoCAD 2000
 90
0
 91
1
280
0
281
0
  0
CLASS
  1
LAYOUT
  2
AcDbLayout
  3
AutoCAD 2000
 90
0
 91
0
280
0
281
0
  0
ENDSEC
  0
SECTION
  2
TABLES
  0
TABLE
  2
VPORT
  5
8
100
AcDbSymbolTable
 70
2
  0
VPORT
  5
1F4
100
AcDbSymbolTableRecord
100
AcDbViewportTableRecord
  2
*ACTIVE
 70
0
 10
0.0
 20
0.0
 11
1.0
 21
1.0
 12
148.5
 22
105.0
 13
0.0
 23
0.0
 14
1.0
 24
1.0
 15
0.0
 25
0.0
 16
0.0
 26
0.0
 36
1.0
 17
0.0
 27
0.0
 37
0.0
 40
210.0
 41
1.4142857143
 42
50.0
 43
0.0
 44
0.0
 50
0.0
 51
0.0
 71
0
 72
100
 73
1
 74
1
 75
0
 76
0
 77
0
 78
0
  0
ENDTAB
  0
TABLE
  2
LTYPE
  5
5
100
AcDbSymbolTable
 70
6
  0
LTYPE
  5
14
100
AcDbSymbolTableRecord
100
AcDbLinetypeTableRecord
  2
BYBLOCK
 70
0
  3

 72
65
 73
0
 40
0.0
  0
LTYPE
  5
15
100
AcDbSymbolTableRecord
100
AcDbLinetypeTableRecord
  2
BYLAYER
 70
0
  3

 72
65
 73
0
 40
0.0
  0
LTYPE
  5
16
100
AcDbSymbolTableRecord
100
AcDbLinetypeTableRecord
  2
CONTINUOUS
 70
64
  3
Solid line
 72
65
 73
0
 40
0.0
  0
LTYPE
  5
1F5
100
AcDbSymbolTableRecord
100
AcDbLinetypeTableRecord
  2
CENTER
 70
64
  3
____ _ ____ _ ____ _ ____ _ ____ _ ____ _ ____
 72
65
 73
4
 40
0.6
 49
0.375
 74
0
 49
-0.075
 74
0
 49
0.075
 74
0
 49
-0.075
 74
0
  0
LTYPE
  5
1F6
100
AcDbSymbolTableRecord
100
AcDbLinetypeTableRecord
  2
HIDDEN
 70
64
  3
- - - - - - - - - - - - - - - - - - - -
 72
65
 73
2
 40
0.2
 49
0.1
 74
0
 49
-0.1
 74
0
  0
LTYPE
  5
1F7
100
AcDbSymbolTableRecord
100
AcDbLinetypeTableRecord
  2
PHANTOM
 70
64
  3
_____ _ _ _____ _ _ _____ _ _ _____
 72
65
 73
6
 40
0.8
 49
0.45
 74
0
 49
-0.05
 74
0
 49
0.1
 74
0
 49
-0.05
 74
0
 49
0.1
 74
0
 49
-0.05
 74
0
  0
LTYPE
  5
1F8
100
AcDbSymbolTableRecord
100
AcDbLinetypeTableRecord
  2
DOT
 70
64
  3
. . . . . . . . . . . . . . . . . . . .
 72
65
 73
2
 40
0.2
 49
0.1
 74
0
 49
-0.1
 74
0
  0
LTYPE
  5
1F9
100
AcDbSymbolTableRecord
100
AcDbLinetypeTableRecord
  2
DASHED
 70
64
  3
- - - - - - - - - - - - - - - - - - - -
 72
65
 73
2
 40
0.2
 49
0.1
 74
0
 49
-0.1
 74
0
  0
ENDTAB
  0
TABLE
  2
LAYER
  5
2
100
AcDbSymbolTable
 70
36
  0
LAYER
  5
10
100
AcDbSymbolTableRecord
100
AcDbLayerTableRecord
  2
0
 70
0
 62
7
  6
CONTINUOUS
370
-3
390
F
  0
LAYER
  5
1FA
100
AcDbSymbolTableRecord
100
AcDbLayerTableRecord
  2
DEFAULT_1
 70
0
 62
7
  6
CENTER
370
-3
390
F
  0
LAYER
  5
1FB
100
AcDbSymbolTableRecord
100
AcDbLayerTableRecord
  2
DEFAULT_2
 70
0
 62
8
  6
HIDDEN
370
-3
390
F
  0
LAYER
  5
1FC
100
AcDbSymbolTableRecord
100
AcDbLayerTableRecord
  2
DEFAULT_3
 70
0
 62
7
  6
PHANTOM
370
-3
390
F
  0
LAYER
  5
1FD
100
AcDbSymbolTableRecord
100
AcDbLayerTableRecord
  2
01___PRT_ALL_DTM_PLN
 70
0
 62
7
  6
CONTINUOUS
370
-3
390
F
  0
LAYER
  5
1FE
100
AcDbSymbolTableRecord
100
AcDbLayerTableRecord
  2
01___PRT_DEF_DTM_PLN
 70
0
 62
7
  6
CONTINUOUS
370
-3
390
F
  0
LAYER
  5
1FF
100
AcDbSymbolTableRecord
100
AcDbLayerTableRecord
  2
02___PRT_ALL_AXES
 70
0
 62
7
  6
CONTINUOUS
370
-3
390
F
  0
LAYER
  5
200
100
AcDbSymbolTableRecord
100
AcDbLayerTableRecord
  2
03___PRT_ALL_CURVES
 70
0
 62
7
  6
CONTINUOUS
370
-3
390
F
  0
LAYER
  5
201
100
AcDbSymbolTableRecord
100
AcDbLayerTableRecord
  2
04___PRT_ALL_DTM_PNT
 70
0
 62
7
  6
CONTINUOUS
370
-3
390
F
  0
LAYER
  5
202
100
AcDbSymbolTableRecord
100
AcDbLayerTableRecord
  2
05___PRT_ALL_DTM_CSYS
 70
0
 62
7
  6
CONTINUOUS
370
-3
390
F
  0
LAYER
  5
203
100
AcDbSymbolTableRecord
100
AcDbLayerTableRecord
  2
05___PRT_DEF_DTM_CSYS
 70
0
 62
7
  6
CONTINUOUS
370
-3
390
F
  0
LAYER
  5
204
100
AcDbSymbolTableRecord
100
AcDbLayerTableRecord
  2
06___PRT_ALL_SURFS
 70
0
 62
7
  6
CONTINUOUS
370
-3
390
F
  0
LAYER
  5
205
100
AcDbSymbolTableRecord
100
AcDbLayerTableRecord
  2
ALLE
 70
0
 62
7
  6
CONTINUOUS
370
-3
390
F
  0
LAYER
  5
206
100
AcDbSymbolTableRecord
100
AcDbLayerTableRecord
  2
AUSFORMSCHRAEGEN
 70
0
 62
7
  6
CONTINUOUS
370
-3
390
F
  0
LAYER
  5
207
100
AcDbSymbolTableRecord
100
AcDbLayerTableRecord
  2
BEZUGSACHSEN
 70
0
 62
7
  6
CONTINUOUS
370
-3
390
F
  0
LAYER
  5
208
100
AcDbSymbolTableRecord
100
AcDbLayerTableRecord
  2
BEZUGSEBENE
 70
0
 62
7
  6
CONTINUOUS
370
-3
390
F
  0
LAYER
  5
209
100
AcDbSymbolTableRecord
100
AcDbLayerTableRecord
  2
BEZUGSEBENEN
 70
0
 62
7
  6
CONTINUOUS
370
-3
390
F
  0
LAYER
  5
20A
100
AcDbSymbolTableRecord
100
AcDbLayerTableRecord
  2
BEZUGSEBENEN-KES
 70
0
 62
7
  6
CONTINUOUS
370
-3
390
F
  0
LAYER
  5
20B
100
AcDbSymbolTableRecord
100
AcDbLayerTableRecord
  2
FLAECHEN
 70
0
 62
7
  6
CONTINUOUS
370
-3
390
F
  0
LAYER
  5
20C
100
AcDbSymbolTableRecord
100
AcDbLayerTableRecord
  2
KURVEN
 70
0
 62
7
  6
CONTINUOUS
370
-3
390
F
  0
LAYER
  5
20D
100
AcDbSymbolTableRecord
100
AcDbLayerTableRecord
  2
PARAMETER-BEMAßUNGEN
 70
0
 62
7
  6
CONTINUOUS
370
-3
390
F
  0
LAYER
  5
20E
100
AcDbSymbolTableRecord
100
AcDbLayerTableRecord
  2
RUNDUNGEN
 70
0
 62
7
  6
CONTINUOUS
370
-3
390
F
  0
LAYER
  5
20F
100
AcDbSymbolTableRecord
100
AcDbLayerTableRecord
  2
SAMMELFLÄCHEN
 70
0
 62
7
  6
CONTINUOUS
370
-3
390
F
  0
ENDTAB
  0
TABLE
  2
STYLE
  5
3
100
AcDbSymbolTable
 70
1
  0
STYLE
  5
11
100
AcDbSymbolTableRecord
100
AcDbTextStyleTableRecord
  2
STANDARD
 70
0
 40
0.0
 41
0.7
 50
0.0
 71
0
 42
0.2
  3
txt
  4

  0
STYLE
  5
210
100
AcDbSymbolTableRecord
100
AcDbTextStyleTableRecord
  2
TEXTSTYLE_1
 70
0
 40
0.0
 41
0.8
 50
0.0
 71
0
 42
0.2
  3
gdt
  4

  0
ENDTAB
  0
TABLE
  2
VIEW
  5
6
100
AcDbSymbolTable
 70
0
  0
ENDTAB
  0
TABLE
  2
UCS
  5
7
100
AcDbSymbolTable
 70
0
  0
ENDTAB
  0
TABLE
  2
APPID
  5
9
100
AcDbSymbolTable
 70
1
  0
APPID
  5
211
100
AcDbSymbolTableRecord
100
AcDbRegAppTableRecord
  2
ACAD
 70
0
  0
ENDTAB
  0
TABLE
  2
BLOCK_RECORD
  5
1
100
AcDbSymbolTable
 70
0
  0
BLOCK_RECORD
  5
212
100
AcDbSymbolTableRecord
100
AcDbBlockTableRecord
  2
*Model_Space
  0
BLOCK_RECORD
  5
213
100
AcDbSymbolTableRecord
100
AcDbBlockTableRecord
  2
*Paper_Space
  0
ENDTAB
  0
TABLE
  2
DIMSTYLE
  5
A
100
AcDbSymbolTable
 70
1
100
AcDbDimStyleTable
 71
0
  0
DIMSTYLE
105
214
100
AcDbSymbolTableRecord
100
AcDbDimStyleTableRecord
  2
STANDARD
 70
0
  3

  4

 40
1.0
 41
3.5
 42
0.0
 43
0.38
 44
1.5
 45
0.0
 46
0.0
 47
0.005
 48
0.005
140
3.5
141
0.09
142
0.0
143
25.4
144
1.0
145
0.0
146
1.0
147
0.625
 71
1.0
 72
0.0
 73
0
 74
0
 75
0
 76
0
 77
1
 78
8
170
0
171
2
172
0
173
0
174
0
175
0
176
0
177
0
178
5
270
2
271
3
272
3
273
2
274
2
275
0
280
0
281
0
282
0
283
1
284
8
285
0
286
0
287
3
288
0
340
11
278
46
  0
ENDTAB
  0
ENDSEC
  0
SECTION
  2
BLOCKS
  0
BLOCK
  5
20
100
AcDbEntity
  8
0
100
AcDbBlockBegin
  2
*Model_Space
 70
0
 10
0.0
 20
0.0
 30
0.0
  3
*Model_Space
  1

  0
ENDBLK
  5
21
100
AcDbEntity
  8
0
100
AcDbBlockEnd
  0
BLOCK
  5
1C
100
AcDbEntity
  8
0
100
AcDbBlockBegin
  2
*Paper_Space
 70
0
 10
0.0
 20
0.0
 30
0.0
  3
*Paper_Space
  1

  0
ENDBLK
  5
1D
100
AcDbEntity
  8
0
100
AcDbBlockEnd
  0
ENDSEC
  0
SECTION
  2
ENTITIES
  0
LINE
  5
215
100
AcDbEntity
  8
0
100
AcDbLine
 62
7
  6
CONTINUOUS
 10
0.0
 20
0.0
 11
0.0
 21
210.0
  0
LINE
  5
216
100
AcDbEntity
  8
0
100
AcDbLine
 62
7
  6
CONTINUOUS
 10
0.0
 20
0.0
 11
297.0
 21
0.0
  0
LINE
  5
217
100
AcDbEntity
  8
0
100
AcDbLine
 62
7
  6
CONTINUOUS
 10
0.0
 20
210.0
 11
297.0
 21
210.0
  0
LINE
  5
218
100
AcDbEntity
  8
0
100
AcDbLine
 62
7
  6
CONTINUOUS
 10
297.0
 20
0.0
 11
297.0
 21
210.0
  0
LINE
  5
219
100
AcDbEntity
  8
RUNDUNGEN
100
AcDbLine
 62
7
  6
CONTINUOUS
 10
54.75
 20
152.6406250228
 11
54.75
 21
165.6406250228
  0
LINE
  5
21A
100
AcDbEntity
  8
RUNDUNGEN
100
AcDbLine
 62
7
  6
CONTINUOUS
 10
55.7499998889
 20
151.8004926203
 11
55.7500004971
 21
166.4807149554
  0
LINE
  5
21B
100
AcDbEntity
  8
RUNDUNGEN
100
AcDbLine
 62
7
  6
CONTINUOUS
 10
67.8625158661
 20
159.3162334849
 11
67.8630712849
 21
159.1411257032
  0
LINE
  5
21C
100
AcDbEntity
  8
RUNDUNGEN
100
AcDbLine
 62
7
  6
CONTINUOUS
 10
68.0214115054
 20
164.8015420321
 11
68.0214222925
 21
153.4797359499
  0
LINE
  5
21D
100
AcDbEntity
  8
RUNDUNGEN
100
AcDbLine
 62
7
  6
CONTINUOUS
 10
67.8630712855
 20
159.1411257029
 11
67.8626108565
 21
158.9806929502
  0
LWPOLYLINE
  5
21E
100
AcDbEntity
  8
RUNDUNGEN
100
AcDbPolyline
 62
7
  6
CONTINUOUS
 90
11
 70
0
 10
67.8626108565
 20
158.9806929502
 10
67.8584685892
 20
158.6375763591
 10
67.8501443953
 20
158.3013076957
 10
67.8378987551
 20
157.9739491015
 10
67.8219670777
 20
157.6573418329
 10
67.8026025528
 20
157.3532271398
 10
67.7801560428
 20
157.0631389474
 10
67.75496612
 20
156.7886326501
 10
67.727389733
 20
156.5310115562
 10
67.6978936781
 20
156.2915803612
 10
67.6669407007
 20
156.0714201252
  0
LINE
  5
21F
100
AcDbEntity
  8
RUNDUNGEN
100
AcDbLine
 62
7
  6
CONTINUOUS
 10
67.6669407007
 20
156.0714201252
 11
67.6473290495
 21
155.9456250228
  0
LINE
  5
220
100
AcDbEntity
  8
RUNDUNGEN
100
AcDbLine
 62
7
  6
CONTINUOUS
 10
67.6473279529
 20
162.3356250228
 11
67.6658775017
 21
162.2169008662
  0
LWPOLYLINE
  5
221
100
AcDbEntity
  8
RUNDUNGEN
100
AcDbPolyline
 62
7
  6
CONTINUOUS
 90
11
 70
0
 10
67.6658775017
 20
162.2169008662
 10
67.6968488139
 20
161.9975869232
 10
67.7263775603
 20
161.7590068077
 10
67.7540068573
 20
161.5022395035
 10
67.7792675359
 20
161.2285975867
 10
67.8017982409
 20
160.9393807589
 10
67.8212666139
 20
160.6361359818
 10
67.8373215042
 20
160.3203983859
 10
67.849705862
 20
159.9939091246
 10
67.85819094
 20
159.6585017019
 10
67.8625158661
 20
159.3162334849
  0
LINE
  5
222
100
AcDbEntity
  8
RUNDUNGEN
100
AcDbLine
 62
7
  6
CONTINUOUS
 10
72.229431608
 20
162.5497159319
 11
72.2294326472
 21
160.1954199805
  0
LINE
  5
223
100
AcDbEntity
  8
RUNDUNGEN
100
AcDbLine
 62
7
  6
CONTINUOUS
 10
72.229432715
 20
158.0858254366
 11
72.229431608
 21
155.7315341137
  0
LINE
  5
224
100
AcDbEntity
  8
RUNDUNGEN
100
AcDbLine
 62
7
  6
CONTINUOUS
 10
72.256972262
 20
159.8435275323
 11
72.2569725842
 21
158.4377382664
  0
LINE
  5
225
100
AcDbEntity
  8
RUNDUNGEN
100
AcDbLine
 62
7
  6
CONTINUOUS
 10
72.429431608
 20
155.6406250228
 11
72.429431608
 21
162.6406250228
  0
LINE
  5
226
100
AcDbEntity
  8
RUNDUNGEN
100
AcDbLine
 62
7
  6
CONTINUOUS
 10
72.5251891838
 20
155.6406250228
 11
72.5251891838
 21
162.6406250228
  0
LINE
  5
227
100
AcDbEntity
  8
0
100
AcDbLine
 62
7
  6
CONTINUOUS
 10
103.75
 20
151.6406250228
 11
102.8975039373
 21
151.6406250228
  0
LINE
  5
228
100
AcDbEntity
  8
0
100
AcDbLine
 62
7
  6
CONTINUOUS
 10
55.75
 20
151.6406250228
 11
57.45
 21
151.6406250228
  0
LINE
  5
229
100
AcDbEntity
  8
0
100
AcDbLine
 62
7
  6
CONTINUOUS
 10
68.4429742566
 20
151.6406250228
 11
85.7243427628
 21
151.6406250228
  0
LINE
  5
22A
100
AcDbEntity
  8
RUNDUNGEN
100
AcDbLine
 62
7
  6
CONTINUOUS
 10
55.7500061358
 20
151.6406250228
 11
102.8975039373
 21
151.6406250228
  0
LINE
  5
22B
100
AcDbEntity
  8
RUNDUNGEN
100
AcDbLine
 62
7
  6
CONTINUOUS
 10
73.429431608
 20
163.7185471008
 11
73.429431608
 21
163.6406250228
  0
LINE
  5
22C
100
AcDbEntity
  8
RUNDUNGEN
100
AcDbLine
 62
7
  6
CONTINUOUS
 10
73.429431608
 20
154.5627029449
 11
73.429431608
 21
154.6406250228
  0
LINE
  5
22D
100
AcDbEntity
  8
RUNDUNGEN
100
AcDbLine
 62
7
  6
CONTINUOUS
 10
86.6902685891
 20
152.6406250228
 11
99.1092499401
 21
152.640624121
  0
LINE
  5
22E
100
AcDbEntity
  8
RUNDUNGEN
100
AcDbLine
 62
7
  6
CONTINUOUS
 10
62.1040449409
 20
152.6406230738
 11
67.4581665036
 21
152.6406250228
  0
LINE
  5
22F
100
AcDbEntity
  8
RUNDUNGEN
100
AcDbLine
 62
7
  6
CONTINUOUS
 10
73.429431608
 20
154.5627029449
 11
80.429431608
 21
154.5627029449
  0
LINE
  5
230
100
AcDbEntity
  8
RUNDUNGEN
100
AcDbLine
 62
7
  6
CONTINUOUS
 10
80.429431608
 20
154.6406250228
 11
73.429431608
 21
154.6406250228
  0
LINE
  5
231
100
AcDbEntity
  8
RUNDUNGEN
100
AcDbLine
 62
7
  6
CONTINUOUS
 10
80.5142800928
 20
154.8406250228
 11
73.3445831231
 21
154.8406250228
  0
LINE
  5
232
100
AcDbEntity
  8
RUNDUNGEN
100
AcDbLine
 62
7
  6
CONTINUOUS
 10
81.429431608
 20
155.6406250228
 11
81.3336740341
 21
155.640625023
  0
LINE
  5
233
100
AcDbEntity
  8
RUNDUNGEN
100
AcDbLine
 62
7
  6
CONTINUOUS
 10
72.429431608
 20
155.6406250228
 11
72.5251891838
 21
155.6406250228
  0
LINE
  5
234
100
AcDbEntity
  8
RUNDUNGEN
100
AcDbLine
 62
7
  6
CONTINUOUS
 10
67.6997459916
 20
155.9456250228
 11
63.8833753324
 21
155.9456250228
  0
LINE
  5
235
100
AcDbEntity
  8
0
100
AcDbLine
 62
7
  6
CONTINUOUS
 10
87.5366716013
 20
155.9456250228
 11
92.1453977111
 21
155.9456250228
  0
LINE
  5
236
100
AcDbEntity
  8
RUNDUNGEN
100
AcDbLine
 62
7
  6
CONTINUOUS
 10
81.6018931874
 20
158.4378190862
 11
81.429431608
 21
158.4378221306
  0
LINE
  5
237
100
AcDbEntity
  8
RUNDUNGEN
100
AcDbLine
 62
7
  6
CONTINUOUS
 10
72.2569725842
 20
158.4378229923
 11
72.429431608
 21
158.4378237357
  0
LINE
  5
238
100
AcDbEntity
  8
RUNDUNGEN
100
AcDbLine
 62
7
  6
CONTINUOUS
 10
80.429431608
 20
163.7185471008
 11
80.429431608
 21
163.6406250228
  0
LINE
  5
239
100
AcDbEntity
  8
RUNDUNGEN
100
AcDbLine
 62
7
  6
CONTINUOUS
 10
80.429431608
 20
154.5627029449
 11
80.429431608
 21
154.6406250228
  0
LINE
  5
23A
100
AcDbEntity
  8
RUNDUNGEN
100
AcDbLine
 62
7
  6
CONTINUOUS
 10
81.3336740322
 20
162.6406250228
 11
81.3336740322
 21
155.6406250228
  0
LINE
  5
23B
100
AcDbEntity
  8
RUNDUNGEN
100
AcDbLine
 62
7
  6
CONTINUOUS
 10
81.429431608
 20
162.6406250228
 11
81.429431608
 21
155.6406250228
  0
LINE
  5
23C
100
AcDbEntity
  8
RUNDUNGEN
100
AcDbLine
 62
7
  6
CONTINUOUS
 10
81.6018931872
 20
158.4376490603
 11
81.6018946524
 21
159.8436431896
  0
LINE
  5
23D
100
AcDbEntity
  8
RUNDUNGEN
100
AcDbLine
 62
7
  6
CONTINUOUS
 10
81.629431608
 20
155.7315341137
 11
81.6294314065
 21
158.0857573742
  0
LINE
  5
23E
100
AcDbEntity
  8
RUNDUNGEN
100
AcDbLine
 62
7
  6
CONTINUOUS
 10
81.6294320674
 20
160.19554421
 11
81.629431608
 21
162.5497159319
  0
LINE
  5
23F
100
AcDbEntity
  8
RUNDUNGEN
100
AcDbLine
 62
7
  6
CONTINUOUS
 10
72.256972262
 20
159.8434273779
 11
72.429431608
 21
159.8434263079
  0
LINE
  5
240
100
AcDbEntity
  8
RUNDUNGEN
100
AcDbLine
 62
7
  6
CONTINUOUS
 10
81.6018946521
 20
159.8434335878
 11
81.429431608
 21
159.8434295138
  0
LINE
  5
241
100
AcDbEntity
  8
0
100
AcDbLine
 62
7
  6
CONTINUOUS
 10
92.1453977111
 20
162.3356250228
 11
87.5366716013
 21
162.3356250228
  0
LINE
  5
242
100
AcDbEntity
  8
RUNDUNGEN
100
AcDbLine
 62
7
  6
CONTINUOUS
 10
63.8833753324
 20
162.3356250228
 11
67.6997444978
 21
162.3356250228
  0
LINE
  5
243
100
AcDbEntity
  8
RUNDUNGEN
100
AcDbLine
 62
7
  6
CONTINUOUS
 10
81.429431608
 20
162.6406250228
 11
81.3336740322
 21
162.6406250228
  0
LINE
  5
244
100
AcDbEntity
  8
RUNDUNGEN
100
AcDbLine
 62
7
  6
CONTINUOUS
 10
72.429431608
 20
162.6406250228
 11
72.5251891818
 21
162.6406250227
  0
LINE
  5
245
100
AcDbEntity
  8
RUNDUNGEN
100
AcDbLine
 62
7
  6
CONTINUOUS
 10
73.3445831231
 20
163.4406250228
 11
80.5142800928
 21
163.4406250228
  0
LINE
  5
246
100
AcDbEntity
  8
RUNDUNGEN
100
AcDbLine
 62
7
  6
CONTINUOUS
 10
80.429431608
 20
163.6406250228
 11
73.429431608
 21
163.6406250228
  0
LINE
  5
247
100
AcDbEntity
  8
RUNDUNGEN
100
AcDbLine
 62
7
  6
CONTINUOUS
 10
80.429431608
 20
163.7185471008
 11
73.429431608
 21
163.7185471008
  0
LINE
  5
248
100
AcDbEntity
  8
RUNDUNGEN
100
AcDbLine
 62
7
  6
CONTINUOUS
 10
85.7430317543
 20
164.5952253645
 11
85.7430313858
 21
153.6860254393
  0
LINE
  5
249
100
AcDbEntity
  8
RUNDUNGEN
100
AcDbLine
 62
7
  6
CONTINUOUS
 10
62.1040472031
 20
165.6406276063
 11
67.4581665036
 21
165.6406250228
  0
LINE
  5
24A
100
AcDbEntity
  8
RUNDUNGEN
100
AcDbLine
 62
7
  6
CONTINUOUS
 10
99.1092596816
 20
165.6406279238
 11
86.6902685891
 21
165.6406250228
  0
LINE
  5
24B
100
AcDbEntity
  8
0
100
AcDbLine
 62
7
  6
CONTINUOUS
 10
63.0888381325
 20
166.6406250228
 11
55.75
 21
166.6406250228
  0
LINE
  5
24C
100
AcDbEntity
  8
RUNDUNGEN
100
AcDbLine
 62
7
  6
CONTINUOUS
 10
55.7500087466
 20
166.6406250228
 11
102.8975031667
 21
166.6406250228
  0
LINE
  5
24D
100
AcDbEntity
  8
0
100
AcDbLine
 62
7
  6
CONTINUOUS
 10
68.4429742566
 20
166.6406250228
 11
85.7243427628
 21
166.6406250228
  0
LINE
  5
24E
100
AcDbEntity
  8
0
100
AcDbLine
 62
7
  6
CONTINUOUS
 10
100.8269515621
 20
166.6406250228
 11
103.75
 21
166.6406250228
  0
LINE
  5
24F
100
AcDbEntity
  8
RUNDUNGEN
100
AcDbLine
 62
7
  6
CONTINUOUS
 10
103.75
 20
166.6406250228
 11
103.75
 21
151.6406250228
  0
LINE
  5
250
100
AcDbEntity
  8
RUNDUNGEN
100
AcDbLine
 62
7
  6
CONTINUOUS
 10
104.75
 20
165.6406250228
 11
104.75
 21
152.6406250229
  0
LINE
  5
251
100
AcDbEntity
  8
RUNDUNGEN
100
AcDbLine
 62
7
  6
CONTINUOUS
 10
191.0099596986
 20
152.6406250228
 11
191.0099596986
 21
151.6406250228
  0
LINE
  5
252
100
AcDbEntity
  8
RUNDUNGEN
100
AcDbLine
 62
7
  6
CONTINUOUS
 10
191.0099596986
 20
165.6406250228
 11
191.0099596994
 21
166.6406250228
  0
LINE
  5
253
100
AcDbEntity
  8
RUNDUNGEN
100
AcDbLine
 62
7
  6
CONTINUOUS
 10
203.851074297
 20
152.6406250228
 11
203.9212233242
 21
151.645662835
  0
LINE
  5
254
100
AcDbEntity
  8
RUNDUNGEN
100
AcDbLine
 62
7
  6
CONTINUOUS
 10
203.851074297
 20
152.6406250228
 11
203.851074297
 21
151.6406250229
  0
LINE
  5
255
100
AcDbEntity
  8
RUNDUNGEN
100
AcDbLine
 62
7
  6
CONTINUOUS
 10
203.8510840269
 20
165.6406250228
 11
203.8510840269
 21
166.6406250228
  0
LINE
  5
256
100
AcDbEntity
  8
RUNDUNGEN
100
AcDbLine
 62
7
  6
CONTINUOUS
 10
203.8510840269
 20
165.6406250228
 11
203.9212316592
 21
166.6356916791
  0
LINE
  5
257
100
AcDbEntity
  8
RUNDUNGEN
100
AcDbLine
 62
7
  6
CONTINUOUS
 10
204.8449070216
 20
165.5020646516
 11
205.0502871444
 21
166.480747049
  0
LINE
  5
258
100
AcDbEntity
  8
RUNDUNGEN
100
AcDbLine
 62
7
  6
CONTINUOUS
 10
204.844895942
 20
152.7791838696
 11
205.0502705056
 21
151.800499505
  0
LINE
  5
259
100
AcDbEntity
  8
RUNDUNGEN
100
AcDbLine
 62
7
  6
CONTINUOUS
 10
191.0099596986
 20
151.6406250228
 11
243.5096159873
 21
151.6406250228
  0
LINE
  5
25A
100
AcDbEntity
  8
RUNDUNGEN
100
AcDbLine
 62
7
  6
CONTINUOUS
 10
213.3188755981
 20
152.6406230738
 11
243.6836078762
 21
152.6406250228
  0
LINE
  5
25B
100
AcDbEntity
  8
RUNDUNGEN
100
AcDbLine
 62
7
  6
CONTINUOUS
 10
191.0099596986
 20
152.6406250228
 11
203.851074297
 21
152.6406250228
  0
LINE
  5
25C
100
AcDbEntity
  8
RUNDUNGEN
100
AcDbLine
 62
7
  6
CONTINUOUS
 10
250.9354031383
 20
160.1955135116
 11
251.133418209
 21
160.2236458798
  0
LINE
  5
25D
100
AcDbEntity
  8
RUNDUNGEN
100
AcDbLine
 62
7
  6
CONTINUOUS
 10
254.2598394565
 20
154.6406250228
 11
249.6091399714
 21
154.6406250228
  0
LINE
  5
25E
100
AcDbEntity
  8
RUNDUNGEN
100
AcDbLine
 62
7
  6
CONTINUOUS
 10
254.4599596986
 20
154.8406250228
 11
253.6618458282
 21
154.8406250228
  0
LINE
  5
25F
100
AcDbEntity
  8
RUNDUNGEN
100
AcDbLine
 62
7
  6
CONTINUOUS
 10
250.3684948032
 20
155.6405433159
 11
253.2214192366
 21
155.6406250228
  0
LINE
  5
260
100
AcDbEntity
  8
RUNDUNGEN
100
AcDbLine
 62
7
  6
CONTINUOUS
 10
245.053673235
 20
155.9456250228
 11
223.4099596986
 21
155.9456250228
  0
LINE
  5
261
100
AcDbEntity
  8
RUNDUNGEN
100
AcDbLine
 62
7
  6
CONTINUOUS
 10
250.9623260559
 20
158.4378229923
 11
251.1604256049
 21
158.4378237357
  0
LINE
  5
262
100
AcDbEntity
  8
RUNDUNGEN
100
AcDbLine
 62
7
  6
CONTINUOUS
 10
250.9623260111
 20
159.8434273779
 11
251.1604254469
 21
159.8434263079
  0
LINE
  5
263
100
AcDbEntity
  8
RUNDUNGEN
100
AcDbLine
 62
7
  6
CONTINUOUS
 10
223.4099596986
 20
162.3356250228
 11
245.0536647628
 21
162.3356250228
  0
LINE
  5
264
100
AcDbEntity
  8
RUNDUNGEN
100
AcDbLine
 62
7
  6
CONTINUOUS
 10
250.3684949959
 20
162.6407062968
 11
253.2214192354
 21
162.6406250227
  0
LINE
  5
265
100
AcDbEntity
  8
RUNDUNGEN
100
AcDbLine
 62
7
  6
CONTINUOUS
 10
253.6618458282
 20
163.4406250228
 11
254.4599596986
 21
163.4406250228
  0
LINE
  5
266
100
AcDbEntity
  8
RUNDUNGEN
100
AcDbLine
 62
7
  6
CONTINUOUS
 10
249.6091399714
 20
163.6406250228
 11
254.2598394565
 21
163.6406250228
  0
LINE
  5
267
100
AcDbEntity
  8
RUNDUNGEN
100
AcDbLine
 62
7
  6
CONTINUOUS
 10
250.9354030148
 20
158.0857356648
 11
251.1334175716
 21
158.0576032452
  0
LINE
  5
268
100
AcDbEntity
  8
RUNDUNGEN
100
AcDbLine
 62
7
  6
CONTINUOUS
 10
203.8510940889
 20
165.6406250228
 11
191.0099596986
 21
165.6406250228
  0
LINE
  5
269
100
AcDbEntity
  8
RUNDUNGEN
100
AcDbLine
 62
7
  6
CONTINUOUS
 10
213.3188884275
 20
165.6406276063
 11
243.6836078762
 21
165.6406250228
  0
LINE
  5
26A
100
AcDbEntity
  8
RUNDUNGEN
100
AcDbLine
 62
7
  6
CONTINUOUS
 10
191.0099596986
 20
166.6406250228
 11
243.5096768071
 21
166.6406250228
  0
LINE
  5
26B
100
AcDbEntity
  8
RUNDUNGEN
100
AcDbLine
 62
7
  6
CONTINUOUS
 10
250.1903862696
 20
162.5497159324
 11
250.3685309784
 21
162.6406250228
  0
LINE
  5
26C
100
AcDbEntity
  8
RUNDUNGEN
100
AcDbLine
 62
7
  6
CONTINUOUS
 10
250.1903862693
 20
155.7315341128
 11
250.3685309783
 21
155.6406250229
  0
LINE
  5
26D
100
AcDbEntity
  8
RUNDUNGEN
100
AcDbLine
 62
7
  6
CONTINUOUS
 10
246.8779290153
 20
164.8015420321
 11
246.8779901918
 21
153.4797359499
  0
LINE
  5
26E
100
AcDbEntity
  8
RUNDUNGEN
100
AcDbLine
 62
7
  6
CONTINUOUS
 10
250.9623260111
 20
159.8435275323
 11
250.9623260559
 21
158.4377382664
  0
LINE
  5
26F
100
AcDbEntity
  8
RUNDUNGEN
100
AcDbLine
 62
7
  6
CONTINUOUS
 10
251.1604254469
 20
159.8434263079
 11
251.1604256049
 21
158.4378237357
  0
LINE
  5
270
100
AcDbEntity
  8
RUNDUNGEN
100
AcDbLine
 62
7
  6
CONTINUOUS
 10
253.0507338037
 20
155.6406250217
 11
253.0507338037
 21
162.640625024
  0
LINE
  5
271
100
AcDbEntity
  8
RUNDUNGEN
100
AcDbLine
 62
7
  6
CONTINUOUS
 10
253.2214192366
 20
155.6406250228
 11
253.2214192366
 21
162.6406250228
  0
LINE
  5
272
100
AcDbEntity
  8
0
100
AcDbLine
 62
7
  6
CONTINUOUS
 10
254.4599596986
 20
163.4406250228
 11
254.4599596986
 21
154.8406250228
  0
LINE
  5
273
100
AcDbEntity
  8
RUNDUNGEN
100
AcDbLine
 62
7
  6
CONTINUOUS
 10
80.4295435145
 20
48.0627350286
 11
73.4293200229
 21
48.0627350286
  0
LINE
  5
274
100
AcDbEntity
  8
RUNDUNGEN
100
AcDbLine
 62
7
  6
CONTINUOUS
 10
80.429431608
 20
48.2211552955
 11
73.429431608
 21
48.2211552955
  0
LINE
  5
275
100
AcDbEntity
  8
RUNDUNGEN
100
AcDbLine
 62
7
  6
CONTINUOUS
 10
55.75
 20
93.8207909731
 11
55.6969627729
 21
93.7505692117
  0
LINE
  5
276
100
AcDbEntity
  8
RUNDUNGEN
100
AcDbLine
 62
7
  6
CONTINUOUS
 10
54.75
 20
87.6619153014
 11
54.75
 21
113.1619153014
  0
LINE
  5
277
100
AcDbEntity
  8
RUNDUNGEN
100
AcDbLine
 62
7
  6
CONTINUOUS
 10
55.75
 20
86.6619153014
 11
55.7500004971
 21
92.6214349277
  0
LINE
  5
278
100
AcDbEntity
  8
RUNDUNGEN
100
AcDbLine
 62
7
  6
CONTINUOUS
 10
55.7500087466
 20
93.820774249
 11
55.75
 21
114.1619153014
  0
LINE
  5
279
100
AcDbEntity
  8
RUNDUNGEN
100
AcDbLine
 62
7
  6
CONTINUOUS
 10
68.4429243752
 20
54.1621981929
 11
85.7243910686
 21
54.162095581
  0
LINE
  5
27A
100
AcDbEntity
  8
RUNDUNGEN
100
AcDbLine
 62
7
  6
CONTINUOUS
 10
68.4429742566
 20
54.1619153014
 11
67.4581665036
 21
53.9882671238
  0
LINE
  5
27B
100
AcDbEntity
  8
RUNDUNGEN
100
AcDbLine
 62
7
  6
CONTINUOUS
 10
86.6902685891
 20
53.9030962563
 11
85.7243427629
 21
54.1619153017
  0
LINE
  5
27C
100
AcDbEntity
  8
RUNDUNGEN
100
AcDbLine
 62
7
  6
CONTINUOUS
 10
62.1040472031
 20
84.3529865725
 11
68.0214115054
 21
50.7939459847
  0
LINE
  5
27D
100
AcDbEntity
  8
RUNDUNGEN
100
AcDbLine
 62
7
  6
CONTINUOUS
 10
63.0888381325
 20
84.5267277001
 11
68.4429243752
 21
54.1621981929
  0
LINE
  5
27E
100
AcDbEntity
  8
RUNDUNGEN
100
AcDbLine
 62
7
  6
CONTINUOUS
 10
80.429431608
 20
44.1911389027
 11
80.5142800922
 21
44.0100291715
  0
LINE
  5
27F
100
AcDbEntity
  8
RUNDUNGEN
100
AcDbLine
 62
7
  6
CONTINUOUS
 10
63.6131248174
 20
106.6615919241
 11
67.8523015067
 21
82.6200262354
  0
LINE
  5
280
100
AcDbEntity
  8
RUNDUNGEN
100
AcDbLine
 62
7
  6
CONTINUOUS
 10
63.4517772406
 20
113.3354099856
 11
68.8371092597
 21
82.7936744131
  0
LINE
  5
281
100
AcDbEntity
  8
RUNDUNGEN
100
AcDbLine
 62
7
  6
CONTINUOUS
 10
72.229431608
 20
47.4814887302
 11
72.2294326472
 21
46.7364585749
  0
LINE
  5
282
100
AcDbEntity
  8
RUNDUNGEN
100
AcDbLine
 62
7
  6
CONTINUOUS
 10
72.429431608
 20
47.3033800041
 11
72.429431608
 21
44.6211411963
  0
LINE
  5
283
100
AcDbEntity
  8
RUNDUNGEN
100
AcDbLine
 62
7
  6
CONTINUOUS
 10
73.429431608
 20
48.2211552955
 11
73.4294316082
 21
44.1911389026
  0
LINE
  5
284
100
AcDbEntity
  8
RUNDUNGEN
100
AcDbLine
 62
7
  6
CONTINUOUS
 10
73.7611480248
 20
78.6619153014
 11
73.7611480248
 21
77.6619153014
  0
LINE
  5
285
100
AcDbEntity
  8
RUNDUNGEN
100
AcDbLine
 62
7
  6
CONTINUOUS
 10
73.7611480248
 20
77.6619153014
 11
84.3113583159
 21
77.6619153014
  0
LINE
  5
286
100
AcDbEntity
  8
RUNDUNGEN
100
AcDbLine
 62
7
  6
CONTINUOUS
 10
73.7611480248
 20
78.6619153014
 11
84.3113583159
 21
78.6619153014
  0
LINE
  5
287
100
AcDbEntity
  8
RUNDUNGEN
100
AcDbLine
 62
7
  6
CONTINUOUS
 10
80.4294316078
 20
44.1911389026
 11
80.429431608
 21
48.2211552955
  0
LINE
  5
288
100
AcDbEntity
  8
RUNDUNGEN
100
AcDbLine
 62
7
  6
CONTINUOUS
 10
81.429431608
 20
44.6211411963
 11
81.429431608
 21
47.3033801958
  0
LINE
  5
289
100
AcDbEntity
  8
RUNDUNGEN
100
AcDbLine
 62
7
  6
CONTINUOUS
 10
81.6294320674
 20
46.7364762229
 11
81.629431608
 21
47.4814887302
  0
LINE
  5
28A
100
AcDbEntity
  8
RUNDUNGEN
100
AcDbLine
 62
7
  6
CONTINUOUS
 10
84.3113583159
 20
78.6619153014
 11
84.3113583157
 21
77.6619153015
  0
LINE
  5
28B
100
AcDbEntity
  8
RUNDUNGEN
100
AcDbLine
 62
7
  6
CONTINUOUS
 10
68.8371092597
 20
82.7936744131
 11
67.8523015067
 21
82.6200262354
  0
LINE
  5
28C
100
AcDbEntity
  8
RUNDUNGEN
100
AcDbLine
 62
7
  6
CONTINUOUS
 10
89.1409874473
 20
82.3678200759
 11
90.1069132736
 21
82.1090010308
  0
LINE
  5
28D
100
AcDbEntity
  8
RUNDUNGEN
100
AcDbLine
 62
7
  6
CONTINUOUS
 10
89.1409874473
 20
82.3678200759
 11
97.4615881405
 21
113.4207246124
  0
LINE
  5
28E
100
AcDbEntity
  8
RUNDUNGEN
100
AcDbLine
 62
7
  6
CONTINUOUS
 10
73.429431608
 20
44.1911389027
 11
73.3445831223
 21
44.0100291722
  0
LINE
  5
28F
100
AcDbEntity
  8
RUNDUNGEN
100
AcDbLine
 62
7
  6
CONTINUOUS
 10
63.0888381325
 20
84.5267277001
 11
62.1040305267
 21
84.3530811488
  0
LINE
  5
290
100
AcDbEntity
  8
0
100
AcDbLine
 62
7
  6
CONTINUOUS
 10
57.5014124396
 20
86.6619153014
 11
55.75
 21
86.6619153014
  0
LINE
  5
291
100
AcDbEntity
  8
RUNDUNGEN
100
AcDbLine
 62
7
  6
CONTINUOUS
 10
90.1069132736
 20
82.1090010308
 11
96.685761216
 21
106.6615958072
  0
LINE
  5
292
100
AcDbEntity
  8
RUNDUNGEN
100
AcDbLine
 62
7
  6
CONTINUOUS
 10
98.1433224674
 20
100.5101751128
 11
85.7243910686
 21
54.162095581
  0
LINE
  5
293
100
AcDbEntity
  8
RUNDUNGEN
100
AcDbLine
 62
7
  6
CONTINUOUS
 10
99.1092596816
 20
100.2514019921
 11
85.7430317543
 21
50.3679602618
  0
LINE
  5
294
100
AcDbEntity
  8
RUNDUNGEN
100
AcDbLine
 62
7
  6
CONTINUOUS
 10
54.75
 20
93.8207909731
 11
55.7500087465
 21
93.8207909731
  0
LINE
  5
295
100
AcDbEntity
  8
RUNDUNGEN
100
AcDbLine
 62
7
  6
CONTINUOUS
 10
103.75
 20
99.1619153014
 11
100.3519865786
 21
99.1619153014
  0
LINE
  5
296
100
AcDbEntity
  8
RUNDUNGEN
100
AcDbLine
 62
7
  6
CONTINUOUS
 10
103.75
 20
114.1619153014
 11
103.75
 21
99.1619153014
  0
LINE
  5
297
100
AcDbEntity
  8
RUNDUNGEN
100
AcDbLine
 62
7
  6
CONTINUOUS
 10
104.75
 20
113.1619153014
 11
104.75
 21
100.1619153014
  0
LINE
  5
298
100
AcDbEntity
  8
RUNDUNGEN
100
AcDbLine
 62
7
  6
CONTINUOUS
 10
99.1092481624
 20
100.251359002
 11
98.1433224674
 21
100.5101751128
  0
LINE
  5
299
100
AcDbEntity
  8
RUNDUNGEN
100
AcDbLine
 62
7
  6
CONTINUOUS
 10
102.8975031667
 20
106.6619153014
 11
96.685761216
 21
106.6615958072
  0
LINE
  5
29A
100
AcDbEntity
  8
RUNDUNGEN
100
AcDbLine
 62
7
  6
CONTINUOUS
 10
54.75
 20
106.6619153014
 11
63.6131248174
 21
106.6615919241
  0
LINE
  5
29B
100
AcDbEntity
  8
RUNDUNGEN
100
AcDbLine
 62
7
  6
CONTINUOUS
 10
64.5978755502
 20
106.8355634791
 11
63.6130677972
 21
106.6619153014
  0
LINE
  5
29C
100
AcDbEntity
  8
RUNDUNGEN
100
AcDbLine
 62
7
  6
CONTINUOUS
 10
95.7199209979
 20
106.9207343465
 11
96.685846824
 21
106.6619153007
  0
LINE
  5
29D
100
AcDbEntity
  8
RUNDUNGEN
100
AcDbLine
 62
7
  6
CONTINUOUS
 10
103.75
 20
114.1619153014
 11
102.8365704891
 21
114.1619153014
  0
LINE
  5
29E
100
AcDbEntity
  8
0
100
AcDbLine
 62
7
  6
CONTINUOUS
 10
62.4717635543
 20
114.1619153014
 11
55.75
 21
114.1619153014
  0
LINE
  5
29F
100
AcDbEntity
  8
0
100
AcDbLine
 62
7
  6
CONTINUOUS
 10
98.4208128436
 20
114.1619153014
 11
103.75
 21
114.1619153014
  0
ARC
  5
2A0
100
AcDbEntity
  8
RUNDUNGEN
100
AcDbCircle
 62
7
  6
CONTINUOUS
 10
73.4295421644
 20
155.7877634904
 40
1.2250605505
100
AcDbArc
 50
263.6769738644
 51
269.994829302
  0
ARC
  5
2A1
100
AcDbEntity
  8
RUNDUNGEN
100
AcDbCircle
 62
7
  6
CONTINUOUS
 10
73.429431608
 20
155.6406250228
 40
1.0
100
AcDbArc
 50
180.0046814912
 51
269.9935882501
  0
ARC
  5
2A2
100
AcDbEntity
  8
RUNDUNGEN
100
AcDbCircle
 62
7
  6
CONTINUOUS
 10
55.7485252593
 20
152.6418544305
 40
0.9986021724
100
AcDbArc
 50
180.07054387
 51
270.0
  0
ARC
  5
2A3
100
AcDbEntity
  8
RUNDUNGEN
100
AcDbCircle
 62
7
  6
CONTINUOUS
 10
55.7093264261
 20
152.7796483601
 40
0.959326539
100
AcDbArc
 50
180.0277942124
 51
189.2107427942
  0
ARC
  5
2A4
100
AcDbEntity
  8
RUNDUNGEN
100
AcDbCircle
 62
7
  6
CONTINUOUS
 10
55.7501388691
 20
152.0069163681
 40
0.3662913715
100
AcDbArc
 50
261.6528738355
 51
269.9782779178
  0
ARC
  5
2A5
100
AcDbEntity
  8
RUNDUNGEN
100
AcDbCircle
 62
7
  6
CONTINUOUS
 10
73.4295493359
 20
162.4934793322
 40
1.2250677742
100
AcDbArc
 50
90.0055060731
 51
96.3504781435
  0
ARC
  5
2A6
100
AcDbEntity
  8
RUNDUNGEN
100
AcDbCircle
 62
7
  6
CONTINUOUS
 10
73.429431608
 20
162.6406250228
 40
1.0
100
AcDbArc
 50
90.0063933363
 51
179.9953433179
  0
ARC
  5
2A7
100
AcDbEntity
  8
RUNDUNGEN
100
AcDbCircle
 62
7
  6
CONTINUOUS
 10
55.7485270485
 20
165.639394391
 40
0.9986040438
100
AcDbArc
 50
89.9994988597
 51
179.9293860157
  0
ARC
  5
2A8
100
AcDbEntity
  8
RUNDUNGEN
100
AcDbCircle
 62
7
  6
CONTINUOUS
 10
55.7093238141
 20
165.5015994011
 40
0.9593239269
100
AcDbArc
 50
170.7892202562
 51
179.9722061191
  0
ARC
  5
2A9
100
AcDbEntity
  8
RUNDUNGEN
100
AcDbCircle
 62
7
  6
CONTINUOUS
 10
55.7501269907
 20
166.2744136103
 40
0.3662114346
100
AcDbArc
 50
90.0198683927
 51
98.3473298183
  0
ARC
  5
2AA
100
AcDbEntity
  8
RUNDUNGEN
100
AcDbCircle
 62
7
  6
CONTINUOUS
 10
80.4293138801
 20
155.7877707135
 40
1.2250677742
100
AcDbArc
 50
270.0055060731
 51
276.3504781435
  0
ARC
  5
2AB
100
AcDbEntity
  8
RUNDUNGEN
100
AcDbCircle
 62
7
  6
CONTINUOUS
 10
103.75
 20
152.6406250228
 40
1.0
100
AcDbArc
 50
270.0
 51
360.0
  0
ARC
  5
2AC
100
AcDbEntity
  8
RUNDUNGEN
100
AcDbCircle
 62
7
  6
CONTINUOUS
 10
80.429431608
 20
155.6406250228
 40
1.0
100
AcDbArc
 50
270.0063933363
 51
359.9953433179
  0
ARC
  5
2AD
100
AcDbEntity
  8
RUNDUNGEN
100
AcDbCircle
 62
7
  6
CONTINUOUS
 10
80.4293210515
 20
162.4934865552
 40
1.2250605505
100
AcDbArc
 50
83.6769738645
 51
89.994829302
  0
ARC
  5
2AE
100
AcDbEntity
  8
RUNDUNGEN
100
AcDbCircle
 62
7
  6
CONTINUOUS
 10
103.75
 20
165.6406250228
 40
1.0
100
AcDbArc
 50
0.0
 51
90.0
  0
ARC
  5
2AF
100
AcDbEntity
  8
RUNDUNGEN
100
AcDbCircle
 62
7
  6
CONTINUOUS
 10
80.429431608
 20
162.6406250228
 40
1.0
100
AcDbArc
 50
0.0046814912
 51
89.9935882501
  0
ARC
  5
2B0
100
AcDbEntity
  8
RUNDUNGEN
100
AcDbCircle
 62
7
  6
CONTINUOUS
 10
202.6399864678
 20
159.1402568209
 40
12.5017395203
100
AcDbArc
 50
359.9983770302
 51
31.3293567904
  0
ARC
  5
2B1
100
AcDbEntity
  8
RUNDUNGEN
100
AcDbCircle
 62
7
  6
CONTINUOUS
 10
203.3635558334
 20
158.4370183985
 40
8.2186756152
100
AcDbArc
 50
78.1556423986
 51
86.1085791442
  0
ARC
  5
2B2
100
AcDbEntity
  8
RUNDUNGEN
100
AcDbCircle
 62
7
  6
CONTINUOUS
 10
203.3331349386
 20
158.2923041847
 40
7.3665528452
100
AcDbArc
 50
78.157557626
 51
85.9680760742
  0
ARC
  5
2B3
100
AcDbEntity
  8
RUNDUNGEN
100
AcDbCircle
 62
7
  6
CONTINUOUS
 10
203.8510190121
 20
152.2791725436
 40
0.6385475231
100
AcDbArc
 50
270.0049606178
 51
276.3195827549
  0
ARC
  5
2B4
100
AcDbEntity
  8
RUNDUNGEN
100
AcDbCircle
 62
7
  6
CONTINUOUS
 10
202.6400843374
 20
159.1409710109
 40
12.5016369442
100
AcDbArc
 50
328.6704688618
 51
359.9951038394
  0
ARC
  5
2B5
100
AcDbEntity
  8
RUNDUNGEN
100
AcDbCircle
 62
7
  6
CONTINUOUS
 10
203.3636578874
 20
159.8433513676
 40
8.2177915989
100
AcDbArc
 50
273.891174245
 51
281.8432172837
  0
ARC
  5
2B6
100
AcDbEntity
  8
RUNDUNGEN
100
AcDbCircle
 62
7
  6
CONTINUOUS
 10
203.5099596986
 20
159.1406250228
 40
7.5
100
AcDbArc
 50
281.851182757
 51
78.1472375354
  0
ARC
  5
2B7
100
AcDbEntity
  8
0
100
AcDbCircle
 62
7
  6
CONTINUOUS
 10
191.0099596986
 20
159.1406250228
 40
7.5
100
AcDbArc
 50
248.5854998685
 51
252.451214463
  0
ARC
  5
2B8
100
AcDbEntity
  8
0
100
AcDbCircle
 62
7
  6
CONTINUOUS
 10
191.0099596986
 20
159.1406250228
 40
7.5
100
AcDbArc
 50
259.6054082018
 51
263.1694976407
  0
ARC
  5
2B9
100
AcDbEntity
  8
RUNDUNGEN
100
AcDbCircle
 62
7
  6
CONTINUOUS
 10
191.0099596986
 20
159.1406250228
 40
7.5
100
AcDbArc
 50
90.0
 51
270.0
  0
ARC
  5
2BA
100
AcDbEntity
  8
RUNDUNGEN
100
AcDbCircle
 62
7
  6
CONTINUOUS
 10
203.3332661673
 20
159.988037035
 40
7.3656356505
100
AcDbArc
 50
274.0312491532
 51
281.8428073401
  0
ARC
  5
2BB
100
AcDbEntity
  8
RUNDUNGEN
100
AcDbCircle
 62
7
  6
CONTINUOUS
 10
191.0099596986
 20
159.1406250228
 40
6.5
100
AcDbArc
 50
90.0
 51
270.0
  0
ARC
  5
2BC
100
AcDbEntity
  8
RUNDUNGEN
100
AcDbCircle
 62
7
  6
CONTINUOUS
 10
203.5099596986
 20
159.1406250228
 40
6.5
100
AcDbArc
 50
281.8514424116
 51
78.1484592463
  0
CIRCLE
  5
2BD
100
AcDbEntity
  8
RUNDUNGEN
100
AcDbCircle
 62
7
  6
CONTINUOUS
 10
203.5099596986
 20
159.1406250228
 40
6.0
  0
CIRCLE
  5
2BE
100
AcDbEntity
  8
RUNDUNGEN
100
AcDbCircle
 62
7
  6
CONTINUOUS
 10
203.5099596986
 20
159.1406250228
 40
5.0
  0
CIRCLE
  5
2BF
100
AcDbEntity
  8
0
100
AcDbCircle
 62
7
  6
CONTINUOUS
 10
191.0099596986
 20
159.1406250228
 40
3.19
  0
ARC
  5
2C0
100
AcDbEntity
  8
RUNDUNGEN
100
AcDbCircle
 62
7
  6
CONTINUOUS
 10
203.8510197941
 20
166.0019979264
 40
0.6386270997
100
AcDbArc
 50
83.681343419
 51
89.9942372126
  0
ARC
  5
2C1
100
AcDbEntity
  8
RUNDUNGEN
100
AcDbCircle
 62
7
  6
CONTINUOUS
 10
243.6838749704
 20
159.1394553756
 40
6.4988303582
100
AcDbArc
 50
269.9976452119
 51
299.4386135941
  0
ARC
  5
2C2
100
AcDbEntity
  8
RUNDUNGEN
100
AcDbCircle
 62
7
  6
CONTINUOUS
 10
245.6838551694
 20
159.1224846321
 40
5.3275828596
100
AcDbArc
 50
11.5431629204
 51
13.0309279322
  0
ARC
  5
2C3
100
AcDbEntity
  8
RUNDUNGEN
100
AcDbCircle
 62
7
  6
CONTINUOUS
 10
245.7288993184
 20
159.131563075
 40
5.2816331126
100
AcDbArc
 50
7.7470584562
 51
11.5444515044
  0
ARC
  5
2C4
100
AcDbEntity
  8
RUNDUNGEN
100
AcDbCircle
 62
7
  6
CONTINUOUS
 10
240.9564624552
 20
159.1404412097
 40
5.1957931396
100
AcDbArc
 50
0.0079501713
 51
37.9487183073
  0
ARC
  5
2C5
100
AcDbEntity
  8
RUNDUNGEN
100
AcDbCircle
 62
7
  6
CONTINUOUS
 10
248.249881534
 20
158.4681895157
 40
2.7126239849
100
AcDbArc
 50
351.897023721
 51
359.3566204441
  0
ARC
  5
2C6
100
AcDbEntity
  8
RUNDUNGEN
100
AcDbCircle
 62
7
  6
CONTINUOUS
 10
248.4554157891
 20
158.4388980273
 40
2.7050100291
100
AcDbArc
 50
351.8966723118
 51
359.9772450467
  0
ARC
  5
2C7
100
AcDbEntity
  8
RUNDUNGEN
100
AcDbCircle
 62
7
  6
CONTINUOUS
 10
254.2599596986
 20
154.8406250228
 40
0.2
100
AcDbArc
 50
270.0
 51
360.0
  0
ARC
  5
2C8
100
AcDbEntity
  8
RUNDUNGEN
100
AcDbCircle
 62
7
  6
CONTINUOUS
 10
249.6091890491
 20
154.4406774008
 40
0.1999912703
100
AcDbArc
 50
90.0140634064
 51
142.3823203336
  0
ARC
  5
2C9
100
AcDbEntity
  8
0
100
AcDbCircle
 62
7
  6
CONTINUOUS
 10
223.4099596986
 20
159.1406250228
 40
3.195
100
AcDbArc
 50
90.0
 51
270.0
  0
ARC
  5
2CA
100
AcDbEntity
  8
RUNDUNGEN
100
AcDbCircle
 62
7
  6
CONTINUOUS
 10
243.5099596986
 20
159.1406250228
 40
7.7
100
AcDbArc
 50
8.0855761621
 51
27.0363521658
  0
ARC
  5
2CB
100
AcDbEntity
  8
RUNDUNGEN
100
AcDbCircle
 62
7
  6
CONTINUOUS
 10
243.5099596986
 20
159.1406250228
 40
7.7
100
AcDbArc
 50
332.9636443124
 51
351.9144163885
  0
ARC
  5
2CC
100
AcDbEntity
  8
RUNDUNGEN
100
AcDbCircle
 62
7
  6
CONTINUOUS
 10
243.5099596986
 20
159.1406250228
 40
7.5
100
AcDbArc
 50
269.9973742396
 51
351.915121222
  0
ARC
  5
2CD
100
AcDbEntity
  8
RUNDUNGEN
100
AcDbCircle
 62
7
  6
CONTINUOUS
 10
243.5099596986
 20
159.1406250228
 40
7.5
100
AcDbArc
 50
8.0848430632
 51
90.001377235
  0
ARC
  5
2CE
100
AcDbEntity
  8
RUNDUNGEN
100
AcDbCircle
 62
7
  6
CONTINUOUS
 10
243.6838736645
 20
159.1418341408
 40
6.4987908874
100
AcDbArc
 50
60.5617961139
 51
90.0023432891
  0
ARC
  5
2CF
100
AcDbEntity
  8
RUNDUNGEN
100
AcDbCircle
 62
7
  6
CONTINUOUS
 10
240.9563830347
 20
159.1408252152
 40
5.195872521
100
AcDbArc
 50
322.0517352853
 51
0.0037155546
  0
ARC
  5
2D0
100
AcDbEntity
  8
RUNDUNGEN
100
AcDbCircle
 62
7
  6
CONTINUOUS
 10
240.6099596986
 20
159.1406250228
 40
3.195
100
AcDbArc
 50
269.9971116187
 51
90.0033829179
  0
ARC
  5
2D1
100
AcDbEntity
  8
RUNDUNGEN
100
AcDbCircle
 62
7
  6
CONTINUOUS
 10
245.6837336583
 20
159.1587750029
 40
5.3277009996
100
AcDbArc
 50
346.9988153856
 51
348.4568852146
  0
ARC
  5
2D2
100
AcDbEntity
  8
RUNDUNGEN
100
AcDbCircle
 62
7
  6
CONTINUOUS
 10
245.7281871714
 20
159.1498195343
 40
5.2823545503
100
AcDbArc
 50
348.4555723042
 51
352.2527274226
  0
ARC
  5
2D3
100
AcDbEntity
  8
RUNDUNGEN
100
AcDbCircle
 62
7
  6
CONTINUOUS
 10
248.250123324
 20
159.813089775
 40
2.712381488
100
AcDbArc
 50
0.6431884435
 51
8.1029778365
  0
ARC
  5
2D4
100
AcDbEntity
  8
RUNDUNGEN
100
AcDbCircle
 62
7
  6
CONTINUOUS
 10
248.4556376744
 20
159.8423724689
 40
2.7047879779
100
AcDbArc
 50
0.0223235702
 51
8.1035401327
  0
ARC
  5
2D5
100
AcDbEntity
  8
RUNDUNGEN
100
AcDbCircle
 62
7
  6
CONTINUOUS
 10
254.2599596986
 20
163.4406250228
 40
0.2
100
AcDbArc
 50
0.0
 51
90.0
  0
ARC
  5
2D6
100
AcDbEntity
  8
RUNDUNGEN
100
AcDbCircle
 62
7
  6
CONTINUOUS
 10
249.6091890491
 20
163.8405726449
 40
0.1999912703
100
AcDbArc
 50
217.5972128415
 51
269.9859365936
  0
ARC
  5
2D7
100
AcDbEntity
  8
RUNDUNGEN
100
AcDbCircle
 62
7
  6
CONTINUOUS
 10
76.3898722323
 20
54.9698910344
 40
11.5108443421
100
AcDbArc
 50
290.5445210176
 51
294.4659396481
  0
ARC
  5
2D8
100
AcDbEntity
  8
RUNDUNGEN
100
AcDbCircle
 62
7
  6
CONTINUOUS
 10
77.4318958668
 20
54.8803713547
 40
11.4140006376
100
AcDbArc
 50
245.5195478865
 51
249.4721459652
  0
ARC
  5
2D9
100
AcDbEntity
  8
RUNDUNGEN
100
AcDbCircle
 62
7
  6
CONTINUOUS
 10
76.929431608
 20
51.6619153014
 40
8.45
100
AcDbArc
 50
238.5864066361
 51
301.4135933639
  0
ARC
  5
2DA
100
AcDbEntity
  8
RUNDUNGEN
100
AcDbCircle
 62
7
  6
CONTINUOUS
 10
76.929431608
 20
51.6619153014
 40
8.25
100
AcDbArc
 50
244.8972792454
 51
295.1027207546
  0
ARC
  5
2DB
100
AcDbEntity
  8
RUNDUNGEN
100
AcDbCircle
 62
7
  6
CONTINUOUS
 10
72.9454981559
 20
51.6619153014
 40
5.0
100
AcDbArc
 50
189.9968400099
 51
262.084923487
  0
ARC
  5
2DC
100
AcDbEntity
  8
RUNDUNGEN
100
AcDbCircle
 62
7
  6
CONTINUOUS
 10
72.629431608
 20
44.6211411963
 40
0.2
100
AcDbArc
 50
180.0
 51
238.5864066361
  0
ARC
  5
2DD
100
AcDbEntity
  8
RUNDUNGEN
100
AcDbCircle
 62
7
  6
CONTINUOUS
 10
72.229431608
 20
46.5114542833
 40
0.2
100
AcDbArc
 50
7.69887461
 51
82.0850338947
  0
ARC
  5
2DE
100
AcDbEntity
  8
RUNDUNGEN
100
AcDbCircle
 62
7
  6
CONTINUOUS
 10
73.7611480248
 20
83.6619153014
 40
6.0
100
AcDbArc
 50
190.0
 51
270.0
  0
ARC
  5
2DF
100
AcDbEntity
  8
RUNDUNGEN
100
AcDbCircle
 62
7
  6
CONTINUOUS
 10
73.7611480248
 20
83.6619153014
 40
5.0
100
AcDbArc
 50
190.0
 51
270.0
  0
ARC
  5
2E0
100
AcDbEntity
  8
RUNDUNGEN
100
AcDbCircle
 62
7
  6
CONTINUOUS
 10
57.5014226105
 20
81.6619153315
 40
4.9999999963
100
AcDbArc
 50
9.9999999492
 51
89.9999999912
  0
ARC
  5
2E1
100
AcDbEntity
  8
RUNDUNGEN
100
AcDbCircle
 62
7
  6
CONTINUOUS
 10
55.75
 20
113.1619153014
 40
1.0
100
AcDbArc
 50
90.0
 51
180.0
  0
ARC
  5
2E2
100
AcDbEntity
  8
RUNDUNGEN
100
AcDbCircle
 62
7
  6
CONTINUOUS
 10
55.75
 20
87.6619153014
 40
1.0
100
AcDbArc
 50
180.0
 51
270.0
  0
ARC
  5
2E3
100
AcDbEntity
  8
RUNDUNGEN
100
AcDbCircle
 62
7
  6
CONTINUOUS
 10
62.4669464565
 20
113.161892424
 40
1.0
100
AcDbArc
 50
10.0
 51
89.9999095413
  0
ARC
  5
2E4
100
AcDbEntity
  8
RUNDUNGEN
100
AcDbCircle
 62
7
  6
CONTINUOUS
 10
80.9133650601
 20
51.6619153014
 40
5.0
100
AcDbArc
 50
277.9151193008
 51
345.0016630803
  0
ARC
  5
2E5
100
AcDbEntity
  8
RUNDUNGEN
100
AcDbCircle
 62
7
  6
CONTINUOUS
 10
81.229431608
 20
44.6211411963
 40
0.2
100
AcDbArc
 50
301.4135933639
 51
360.0
  0
ARC
  5
2E6
100
AcDbEntity
  8
RUNDUNGEN
100
AcDbCircle
 62
7
  6
CONTINUOUS
 10
81.629431608
 20
46.5114542833
 40
0.2
100
AcDbArc
 50
97.9143201322
 51
172.3023837857
  0
ARC
  5
2E7
100
AcDbEntity
  8
RUNDUNGEN
100
AcDbCircle
 62
7
  6
CONTINUOUS
 10
84.3113583159
 20
83.6619153014
 40
6.0
100
AcDbArc
 50
270.0
 51
345.0
  0
ARC
  5
2E8
100
AcDbEntity
  8
RUNDUNGEN
100
AcDbCircle
 62
7
  6
CONTINUOUS
 10
84.3113583159
 20
83.6619153014
 40
5.0
100
AcDbArc
 50
269.9999999853
 51
345.0000000169
  0
ARC
  5
2E9
100
AcDbEntity
  8
RUNDUNGEN
100
AcDbCircle
 62
7
  6
CONTINUOUS
 10
100.3519910891
 20
97.1619321347
 40
1.9999964561
100
AcDbArc
 50
90.0001292165
 51
165.0004992499
  0
ARC
  5
2EA
100
AcDbEntity
  8
RUNDUNGEN
100
AcDbCircle
 62
7
  6
CONTINUOUS
 10
103.75
 20
100.1619153014
 40
1.0
100
AcDbArc
 50
270.0
 51
360.0
  0
ARC
  5
2EB
100
AcDbEntity
  8
RUNDUNGEN
100
AcDbCircle
 62
7
  6
CONTINUOUS
 10
103.75
 20
113.1619153014
 40
1.0
100
AcDbArc
 50
0.0
 51
90.0
  0
ARC
  5
2EC
100
AcDbEntity
  8
RUNDUNGEN
100
AcDbCircle
 62
7
  6
CONTINUOUS
 10
98.4275128435
 20
113.1619013751
 40
1.0
100
AcDbArc
 50
90.0001031529
 51
164.9999999974
  0
SPLINE
  5
2ED
100
AcDbEntity
  8
RUNDUNGEN
100
AcDbSpline
 62
7
  6
CONTINUOUS
 70
0
 71
3
 72
9
 73
5
 74
0
 42
0.0000001
 43
0.0000001
 44
0.0000000001
 40
0.0
 40
0.0
 40
0.0
 40
0.0
 40
0.4807937849
 40
1.0
 40
1.0
 40
1.0
 40
1.0
 10
62.1040449409
 20
152.6406230738
 30
0.0
 10
62.2153834244
 20
153.6778977062
 30
0.0
 10
62.3744836109
 20
155.8432357685
 30
0.0
 10
62.4254519215
 20
158.0133219616
 30
0.0
 10
62.4254613763
 20
159.1399026947
 30
0.0
  0
SPLINE
  5
2EE
100
AcDbEntity
  8
RUNDUNGEN
100
AcDbSpline
 62
7
  6
CONTINUOUS
 70
0
 71
3
 72
9
 73
5
 74
0
 42
0.0000001
 43
0.0000001
 44
0.0000000001
 40
0.0
 40
0.0
 40
0.0
 40
0.0
 40
0.519226392
 40
1.0
 40
1.0
 40
1.0
 40
1.0
 10
62.4254613763
 20
159.1399026947
 30
0.0
 10
62.4254563983
 20
160.2667772452
 30
0.0
 10
62.3745353191
 20
162.4373462561
 30
0.0
 10
62.2154037585
 20
164.6031660956
 30
0.0
 10
62.1040472031
 20
165.6406276063
 30
0.0
  0
SPLINE
  5
2EF
100
AcDbEntity
  8
RUNDUNGEN
100
AcDbSpline
 62
7
  6
CONTINUOUS
 70
0
 71
3
 72
10
 73
6
 74
0
 42
0.0000001
 43
0.0000001
 44
0.0000000001
 40
0.0
 40
0.0
 40
0.0
 40
0.0
 40
0.5284316167
 40
0.7746339897
 40
1.0
 40
1.0
 40
1.0
 40
1.0
 10
67.8934556934
 20
159.1411621606
 30
0.0
 10
67.8934657911
 20
158.5769030709
 30
0.0
 10
67.8705062121
 20
157.7493811625
 30
0.0
 10
67.7892538155
 20
156.6845416596
 30
0.0
 10
67.7325284462
 20
156.1840273824
 30
0.0
 10
67.6997459916
 20
155.9456250228
 30
0.0
  0
SPLINE
  5
2F0
100
AcDbEntity
  8
RUNDUNGEN
100
AcDbSpline
 62
7
  6
CONTINUOUS
 70
0
 71
3
 72
10
 73
6
 74
0
 42
0.0000001
 43
0.0000001
 44
0.0000000001
 40
0.0
 40
0.0
 40
0.0
 40
0.0
 40
0.2253655816
 40
0.4715644998
 40
1.0
 40
1.0
 40
1.0
 40
1.0
 10
67.6997444978
 20
162.3356250228
 30
0.0
 10
67.7325162662
 20
162.0973030804
 30
0.0
 10
67.7892278144
 20
161.5969614373
 30
0.0
 10
67.8704702542
 20
160.5324802119
 30
0.0
 10
67.8934454163
 20
159.7052362534
 30
0.0
 10
67.8934556934
 20
159.1411621606
 30
0.0
  0
SPLINE
  5
2F1
100
AcDbEntity
  8
RUNDUNGEN
100
AcDbSpline
 62
7
  6
CONTINUOUS
 70
0
 71
3
 72
11
 73
7
 74
0
 42
0.0000001
 43
0.0000001
 44
0.0000000001
 40
0.0
 40
0.0
 40
0.0
 40
0.0
 40
0.2666890226
 40
0.5178069558
 40
0.7590091746
 40
1.0
 40
1.0
 40
1.0
 40
1.0
 10
73.2940446412
 20
163.7110299591
 30
0.0
 10
73.1424892419
 20
163.694206075
 30
0.0
 10
72.8512719207
 20
163.605578469
 30
0.0
 10
72.5028313217
 20
163.3316232602
 30
0.0
 10
72.2806357088
 20
162.9658082193
 30
0.0
 10
72.2294070606
 20
162.6875086562
 30
0.0
 10
72.229431608
 20
162.5497159319
 30
0.0
  0
LINE
  5
2F2
100
AcDbEntity
  8
RUNDUNGEN
100
AcDbLine
 62
7
  6
CONTINUOUS
 10
55.6969728593
 20
166.6367454615
 11
55.7498970151
 21
166.6356503824
  0
SPLINE
  5
2F3
100
AcDbEntity
  8
RUNDUNGEN
100
AcDbSpline
 62
7
  6
CONTINUOUS
 70
0
 71
3
 72
17
 73
13
 74
0
 42
0.0000001
 43
0.0000001
 44
0.0000000001
 40
0.0
 40
0.0
 40
0.0
 40
0.0
 40
0.1548715056
 40
0.3078644194
 40
0.457052906
 40
0.5995714745
 40
0.731326532
 40
0.8467868143
 40
0.8962769486
 40
0.9389796098
 40
0.973878287
 40
1.0
 40
1.0
 40
1.0
 40
1.0
 10
55.7498970151
 20
166.6356503824
 30
0.0
 10
56.0828528669
 20
166.6283339808
 30
0.0
 10
56.7444718857
 20
166.5977460304
 30
0.0
 10
57.7235097851
 20
166.5082508144
 30
0.0
 10
58.6719718144
 20
166.3846812266
 30
0.0
 10
59.5710032153
 20
166.2391520456
 30
0.0
 10
60.3947525135
 20
166.0844799429
 30
0.0
 10
61.019029621
 20
165.9521580108
 30
0.0
 10
61.453254853
 20
165.847980747
 30
0.0
 10
61.7174574198
 20
165.7777341836
 30
0.0
 10
61.9305705514
 20
165.7120150614
 30
0.0
 10
62.0535666236
 20
165.6652547751
 30
0.0
 10
62.1040474933
 20
165.6406173961
 30
0.0
  0
SPLINE
  5
2F4
100
AcDbEntity
  8
RUNDUNGEN
100
AcDbSpline
 62
7
  6
CONTINUOUS
 70
0
 71
3
 72
9
 73
5
 74
0
 42
0.0000001
 43
0.0000001
 44
0.0000000001
 40
0.0
 40
0.0
 40
0.0
 40
0.0
 40
0.5831901314
 40
1.0
 40
1.0
 40
1.0
 40
1.0
 10
55.7500093053
 20
166.4807083618
 30
0.0
 10
55.7438771929
 20
166.5080662663
 30
0.0
 10
55.7322172917
 20
166.5546901609
 30
0.0
 10
55.7163628934
 20
166.6003328263
 30
0.0
 10
55.7075378164
 20
166.6183228434
 30
0.0
  0
SPLINE
  5
2F5
100
AcDbEntity
  8
RUNDUNGEN
100
AcDbSpline
 62
7
  6
CONTINUOUS
 70
0
 71
3
 72
9
 73
5
 74
0
 42
0.0000001
 43
0.0000001
 44
0.0000000001
 40
0.0
 40
0.0
 40
0.0
 40
0.0
 40
0.2738707258
 40
1.0
 40
1.0
 40
1.0
 40
1.0
 10
55.7075378164
 20
166.6183228434
 30
0.0
 10
55.7066835658
 20
166.6200642429
 30
0.0
 10
55.7034756846
 20
166.6263770526
 30
0.0
 10
55.6998932473
 20
166.6325124274
 30
0.0
 10
55.6969728593
 20
166.6367454615
 30
0.0
  0
LINE
  5
2F6
100
AcDbEntity
  8
RUNDUNGEN
100
AcDbLine
 62
7
  6
CONTINUOUS
 10
55.6969732294
 20
151.6445038822
 11
55.7498904188
 21
151.6455990556
  0
SPLINE
  5
2F7
100
AcDbEntity
  8
RUNDUNGEN
100
AcDbSpline
 62
7
  6
CONTINUOUS
 70
0
 71
3
 72
17
 73
13
 74
0
 42
0.0000001
 43
0.0000001
 44
0.0000000001
 40
0.0
 40
0.0
 40
0.0
 40
0.0
 40
0.154870797
 40
0.307865318
 40
0.4570526777
 40
0.5995716172
 40
0.7313265457
 40
0.8467870109
 40
0.8962770659
 40
0.938980178
 40
0.9738784635
 40
1.0
 40
1.0
 40
1.0
 40
1.0
 10
55.7498904188
 20
151.6455990556
 30
0.0
 10
56.0828447144
 20
151.6529169423
 30
0.0
 10
56.744465216
 20
151.6835100357
 30
0.0
 10
57.7235040214
 20
151.772991004
 30
0.0
 10
58.6719662477
 20
151.896574134
 30
0.0
 10
59.5709968255
 20
152.0420949943
 30
0.0
 10
60.394747689
 20
152.196765668
 30
0.0
 10
61.0190223463
 20
152.3290963426
 30
0.0
 10
61.4532524785
 20
152.4332603598
 30
0.0
 10
61.7174482163
 20
152.5035304704
 30
0.0
 10
61.9305717109
 20
152.569214827
 30
0.0
 10
62.0535629677
 20
152.6159877138
 30
0.0
 10
62.1040393605
 20
152.6406333985
 30
0.0
  0
SPLINE
  5
2F8
100
AcDbEntity
  8
RUNDUNGEN
100
AcDbSpline
 62
7
  6
CONTINUOUS
 70
0
 71
3
 72
9
 73
5
 74
0
 42
0.0000001
 43
0.0000001
 44
0.0000000001
 40
0.0
 40
0.0
 40
0.0
 40
0.0
 40
0.1997447145
 40
1.0
 40
1.0
 40
1.0
 40
1.0
 10
55.6969732294
 20
151.6445038822
 30
0.0
 10
55.6993327721
 20
151.6479235515
 30
0.0
 10
55.7100572103
 20
151.665790832
 30
0.0
 10
55.7175667303
 20
151.6853638009
 30
0.0
 10
55.7229816877
 20
151.7011037712
 30
0.0
  0
SPLINE
  5
2F9
100
AcDbEntity
  8
RUNDUNGEN
100
AcDbSpline
 62
7
  6
CONTINUOUS
 70
0
 71
3
 72
9
 73
5
 74
0
 42
0.0000001
 43
0.0000001
 44
0.0000000001
 40
0.0
 40
0.0
 40
0.0
 40
0.0
 40
0.2305592439
 40
1.0
 40
1.0
 40
1.0
 40
1.0
 10
55.7229816877
 20
151.7011037712
 30
0.0
 10
55.724132297
 20
151.7044483139
 30
0.0
 10
55.7289726522
 20
151.7190061836
 30
0.0
 10
55.7332717159
 20
151.7337402978
 30
0.0
 10
55.7363752769
 20
151.7451287036
 30
0.0
  0
SPLINE
  5
2FA
100
AcDbEntity
  8
RUNDUNGEN
100
AcDbSpline
 62
7
  6
CONTINUOUS
 70
0
 71
3
 72
9
 73
5
 74
0
 42
0.0000001
 43
0.0000001
 44
0.0000000001
 40
0.0
 40
0.0
 40
0.0
 40
0.0
 40
0.2334107054
 40
1.0
 40
1.0
 40
1.0
 40
1.0
 10
55.7363752769
 20
151.7451287036
 30
0.0
 10
55.7375417021
 20
151.7494088592
 30
0.0
 10
55.7424111866
 20
151.7677811177
 30
0.0
 10
55.746811865
 20
151.7862757365
 30
0.0
 10
55.7499980163
 20
151.8004930305
 30
0.0
  0
SPLINE
  5
2FB
100
AcDbEntity
  8
RUNDUNGEN
100
AcDbSpline
 62
7
  6
CONTINUOUS
 70
0
 71
3
 72
15
 73
11
 74
0
 42
0.0000001
 43
0.0000001
 44
0.0000000001
 40
0.0
 40
0.0
 40
0.0
 40
0.0
 40
0.0402985693
 40
0.085271705
 40
0.1876208213
 40
0.3037798913
 40
0.4306468429
 40
0.5656307944
 40
0.7066175439
 40
1.0
 40
1.0
 40
1.0
 40
1.0
 10
69.0062671438
 20
165.6723092561
 30
0.0
 10
69.028645979
 20
165.5896942879
 30
0.0
 10
69.0847505416
 20
165.4172361916
 30
0.0
 10
69.2330272049
 20
165.0471673061
 30
0.0
 10
69.4791078866
 20
164.5438609725
 30
0.0
 10
69.8355015133
 20
163.9025598821
 30
0.0
 10
70.2489342236
 20
163.2141732857
 30
0.0
 10
70.7053658525
 20
162.4904343895
 30
0.0
 10
71.3654837353
 20
161.4771840454
 30
0.0
 10
71.8802286347
 20
160.7115098141
 30
0.0
 10
72.2294326472
 20
160.1954199805
 30
0.0
  0
SPLINE
  5
2FC
100
AcDbEntity
  8
RUNDUNGEN
100
AcDbSpline
 62
7
  6
CONTINUOUS
 70
0
 71
3
 72
13
 73
9
 74
0
 42
0.0000001
 43
0.0000001
 44
0.0000000001
 40
0.0
 40
0.0
 40
0.0
 40
0.0
 40
0.0913500491
 40
0.1971423908
 40
0.3145099827
 40
0.4409354921
 40
0.7128425972
 40
1.0
 40
1.0
 40
1.0
 40
1.0
 10
84.7770683653
 20
165.4343055313
 30
0.0
 10
84.7141872303
 20
165.2588175748
 30
0.0
 10
84.5533832716
 20
164.8892161716
 30
0.0
 10
84.2582891002
 20
164.3191085755
 30
0.0
 10
83.9037691482
 20
163.6998510976
 30
0.0
 10
83.3558244834
 20
162.8013107876
 30
0.0
 10
82.5943856135
 20
161.627617487
 30
0.0
 10
81.9578145079
 20
160.6808764313
 30
0.0
 10
81.6294320674
 20
160.19554421
 30
0.0
  0
SPLINE
  5
2FD
100
AcDbEntity
  8
RUNDUNGEN
100
AcDbSpline
 62
7
  6
CONTINUOUS
 70
0
 71
3
 72
15
 73
11
 74
0
 42
0.0000001
 43
0.0000001
 44
0.0000000001
 40
0.0
 40
0.0
 40
0.0
 40
0.0
 40
0.0416695545
 40
0.0893743562
 40
0.1986284137
 40
0.3207198379
 40
0.4507175887
 40
0.5853659697
 40
0.7225897006
 40
1.0
 40
1.0
 40
1.0
 40
1.0
 10
99.1092511612
 20
152.6406190063
 30
0.0
 10
99.152755586
 20
152.6068238061
 30
0.0
 10
99.250904491
 20
152.5405916133
 30
0.0
 10
99.4793377109
 20
152.4108338435
 30
0.0
 10
99.8146827674
 20
152.2556939203
 30
0.0
 10
100.2613357523
 20
152.0855511693
 30
0.0
 10
100.7498317026
 20
151.9334940852
 30
0.0
 10
101.2662577438
 20
151.8070942076
 30
0.0
 10
101.9816217273
 20
151.6803426112
 30
0.0
 10
102.5307580761
 20
151.64062512
 30
0.0
 10
102.8975039373
 20
151.6406266287
 30
0.0
  0
SPLINE
  5
2FE
100
AcDbEntity
  8
RUNDUNGEN
100
AcDbSpline
 62
7
  6
CONTINUOUS
 70
0
 71
3
 72
15
 73
11
 74
0
 42
0.0000001
 43
0.0000001
 44
0.0000000001
 40
0.0
 40
0.0
 40
0.0
 40
0.0
 40
0.2774074412
 40
0.4146311545
 40
0.549279485
 40
0.6792773736
 40
0.8013698215
 40
0.9106253049
 40
0.9583306843
 40
1.0
 40
1.0
 40
1.0
 40
1.0
 10
102.8978383593
 20
166.6406246199
 30
0.0
 10
102.5310670504
 20
166.6406420283
 30
0.0
 10
101.9818892344
 20
166.6009400256
 30
0.0
 10
101.2664674946
 20
166.4742038005
 30
0.0
 10
100.7499984887
 20
166.3478004729
 30
0.0
 10
100.2614585057
 20
166.1957432023
 30
0.0
 10
99.8147631391
 20
166.0255943846
 30
0.0
 10
99.4793884226
 20
165.8704386581
 30
0.0
 10
99.2509321331
 20
165.7406754716
 30
0.0
 10
99.1527706504
 20
165.6744433789
 30
0.0
 10
99.1092650296
 20
165.640643077
 30
0.0
  0
SPLINE
  5
2FF
100
AcDbEntity
  8
RUNDUNGEN
100
AcDbSpline
 62
7
  6
CONTINUOUS
 70
0
 71
3
 72
19
 73
15
 74
0
 42
0.0000001
 43
0.0000001
 44
0.0000000001
 40
0.0
 40
0.0
 40
0.0
 40
0.0
 40
0.1796641455
 40
0.3521215374
 40
0.5110100924
 40
0.6512588976
 40
0.7133243181
 40
0.7696657873
 40
0.820212633
 40
0.8650728216
 40
0.9045899804
 40
0.9394319273
 40
0.9707017267
 40
1.0
 40
1.0
 40
1.0
 40
1.0
 10
100.3519865786
 20
159.1406250228
 30
0.0
 10
100.3520042571
 20
158.6391897111
 30
0.0
 10
100.3851515649
 20
157.6560940514
 30
0.0
 10
100.5325885567
 20
156.2362679596
 30
0.0
 10
100.7691471154
 20
154.9401154273
 30
0.0
 10
101.0401179908
 20
153.9668910477
 30
0.0
 10
101.2976006435
 20
153.2919518334
 30
0.0
 10
101.4968784235
 20
152.8640577395
 30
0.0
 10
101.7082685615
 20
152.4963319902
 30
0.0
 10
101.9300727373
 20
152.1909236103
 30
0.0
 10
102.1608463027
 20
151.9494745446
 30
0.0
 10
102.399755079
 20
151.773523711
 30
0.0
 10
102.64587901
 20
151.6653913914
 30
0.0
 10
102.8157336499
 20
151.6406250516
 30
0.0
 10
102.8975039373
 20
151.6406250228
 30
0.0
  0
SPLINE
  5
300
100
AcDbEntity
  8
RUNDUNGEN
100
AcDbSpline
 62
7
  6
CONTINUOUS
 70
0
 71
3
 72
19
 73
15
 74
0
 42
0.0000001
 43
0.0000001
 44
0.0000000001
 40
0.0
 40
0.0
 40
0.0
 40
0.0
 40
0.0293182772
 40
0.0605863426
 40
0.0954288756
 40
0.1349459224
 40
0.1798064456
 40
0.2303548715
 40
0.2867006065
 40
0.3487720332
 40
0.4890270422
 40
0.6478962771
 40
0.8203406824
 40
1.0
 40
1.0
 40
1.0
 40
1.0
 10
102.8976805905
 20
166.6406250228
 30
0.0
 10
102.81585276
 20
166.640633192
 30
0.0
 10
102.6459355324
 20
166.6158931733
 30
0.0
 10
102.3997621881
 20
166.5077230497
 30
0.0
 10
102.1608455508
 20
166.3317807641
 30
0.0
 10
101.9300696288
 20
166.0903196193
 30
0.0
 10
101.7082566897
 20
165.7849023467
 30
0.0
 10
101.4968559213
 20
165.4171521374
 30
0.0
 10
101.2975635601
 20
164.9892175361
 30
0.0
 10
101.0400651565
 20
164.3142185926
 30
0.0
 10
100.7691241502
 20
163.3409845034
 30
0.0
 10
100.53257369
 20
162.0448775805
 30
0.0
 10
100.3851546652
 20
160.6251234464
 30
0.0
 10
100.3520073059
 20
159.6420573598
 30
0.0
 10
100.3519865786
 20
159.1406250228
 30
0.0
  0
SPLINE
  5
301
100
AcDbEntity
  8
RUNDUNGEN
100
AcDbSpline
 62
7
  6
CONTINUOUS
 70
0
 71
3
 72
11
 73
7
 74
0
 42
0.0000001
 43
0.0000001
 44
0.0000000001
 40
0.0
 40
0.0
 40
0.0
 40
0.0
 40
0.2184837422
 40
0.4632881237
 40
0.7267657576
 40
1.0
 40
1.0
 40
1.0
 40
1.0
 10
99.1092596816
 20
165.6406279238
 30
0.0
 10
98.9929575179
 20
165.1779511935
 30
0.0
 10
98.7915441514
 20
164.1853625059
 30
0.0
 10
98.5803001374
 20
162.6116860485
 30
0.0
 10
98.4494562169
 20
160.9094032748
 30
0.0
 10
98.4201670651
 20
159.7372456493
 30
0.0
 10
98.420134926
 20
159.1406250228
 30
0.0
  0
SPLINE
  5
302
100
AcDbEntity
  8
RUNDUNGEN
100
AcDbSpline
 62
7
  6
CONTINUOUS
 70
0
 71
3
 72
11
 73
7
 74
0
 42
0.0000001
 43
0.0000001
 44
0.0000000001
 40
0.0
 40
0.0
 40
0.0
 40
0.0
 40
0.2732036169
 40
0.5366877534
 40
0.7815128151
 40
1.0
 40
1.0
 40
1.0
 40
1.0
 10
98.420134926
 20
159.1406250228
 30
0.0
 10
98.4201623813
 20
158.5440716778
 30
0.0
 10
98.4494618299
 20
157.3719681521
 30
0.0
 10
98.5802782182
 20
155.6696914991
 30
0.0
 10
98.7915496088
 20
154.0959531584
 30
0.0
 10
98.9929396733
 20
153.103306228
 30
0.0
 10
99.1092499401
 20
152.640624121
 30
0.0
  0
SPLINE
  5
303
100
AcDbEntity
  8
RUNDUNGEN
100
AcDbSpline
 62
7
  6
CONTINUOUS
 70
0
 71
3
 72
13
 73
9
 74
0
 42
0.0000001
 43
0.0000001
 44
0.0000000001
 40
0.0
 40
0.0
 40
0.0
 40
0.0
 40
0.3393912925
 40
0.6115727431
 40
0.7246787124
 40
0.8248059958
 40
0.9151123867
 40
1.0
 40
1.0
 40
1.0
 40
1.0
 10
85.7430313858
 20
153.6860254393
 30
0.0
 10
85.8070589131
 20
153.5311709194
 30
0.0
 10
85.9360975838
 20
153.2574653078
 30
0.0
 10
86.1387054166
 20
152.9589488989
 30
0.0
 10
86.3108425057
 20
152.7909762246
 30
0.0
 10
86.4348251725
 20
152.7051816725
 30
0.0
 10
86.5614836521
 20
152.6526535327
 30
0.0
 10
86.648356637
 20
152.6406339852
 30
0.0
 10
86.6902685891
 20
152.6406250228
 30
0.0
  0
SPLINE
  5
304
100
AcDbEntity
  8
RUNDUNGEN
100
AcDbSpline
 62
7
  6
CONTINUOUS
 70
0
 71
3
 72
11
 73
7
 74
0
 42
0.0000001
 43
0.0000001
 44
0.0000000001
 40
0.0
 40
0.0
 40
0.0
 40
0.0
 40
0.3673945374
 40
0.5079963649
 40
0.6638598676
 40
1.0
 40
1.0
 40
1.0
 40
1.0
 10
73.429431608
 20
154.6406250228
 30
0.0
 10
73.4014838271
 20
154.6406250228
 30
0.0
 10
73.3733904645
 20
154.6840520579
 30
0.0
 10
73.3581148369
 20
154.7301742377
 30
0.0
 10
73.3474944838
 20
154.7776856657
 30
0.0
 10
73.3445836477
 20
154.8150547713
 30
0.0
 10
73.3445831237
 20
154.8406250228
 30
0.0
  0
SPLINE
  5
305
100
AcDbEntity
  8
RUNDUNGEN
100
AcDbSpline
 62
7
  6
CONTINUOUS
 70
0
 71
3
 72
11
 73
7
 74
0
 42
0.0000001
 43
0.0000001
 44
0.0000000001
 40
0.0
 40
0.0
 40
0.0
 40
0.0
 40
0.3673975666
 40
0.507998626
 40
0.6638614176
 40
1.0
 40
1.0
 40
1.0
 40
1.0
 10
80.429431608
 20
154.6406250228
 30
0.0
 10
80.4573797369
 20
154.6406250228
 30
0.0
 10
80.4854743634
 20
154.6840514448
 30
0.0
 10
80.5007498708
 20
154.7301741449
 30
0.0
 10
80.511369821
 20
154.7776856034
 30
0.0
 10
80.5142800929
 20
154.8150547816
 30
0.0
 10
80.5142800936
 20
154.8406250228
 30
0.0
  0
SPLINE
  5
306
100
AcDbEntity
  8
RUNDUNGEN
100
AcDbSpline
 62
7
  6
CONTINUOUS
 70
0
 71
3
 72
14
 73
10
 74
0
 42
0.0000001
 43
0.0000001
 44
0.0000000001
 40
0.0
 40
0.0
 40
0.0
 40
0.0
 40
0.0641384632
 40
0.138129373
 40
0.2284783697
 40
0.3386939885
 40
0.4704940876
 40
0.6246800628
 40
1.0
 40
1.0
 40
1.0
 40
1.0
 10
68.4429745531
 20
151.6406250465
 30
0.0
 10
68.4679943292
 20
151.6406363479
 30
0.0
 10
68.5222144191
 20
151.6530660783
 30
0.0
 10
68.5971400824
 20
151.7036357362
 30
0.0
 10
68.6695548707
 20
151.7834223051
 30
0.0
 10
68.7404551137
 20
151.8924059253
 30
0.0
 10
68.8101830624
 20
152.0305792263
 30
0.0
 10
68.907767041
 20
152.2695757745
 30
0.0
 10
68.9679955256
 20
152.4676228594
 30
0.0
 10
69.0062671438
 20
152.6089407896
 30
0.0
  0
LINE
  5
307
100
AcDbEntity
  8
RUNDUNGEN
100
AcDbLine
 62
7
  6
CONTINUOUS
 10
81.6019166595
 20
159.8436662146
 11
81.6294359393
 21
160.1955512123
  0
SPLINE
  5
308
100
AcDbEntity
  8
RUNDUNGEN
100
AcDbSpline
 62
7
  6
CONTINUOUS
 70
0
 71
3
 72
11
 73
7
 74
0
 42
0.0000001
 43
0.0000001
 44
0.0000000001
 40
0.0
 40
0.0
 40
0.0
 40
0.0
 40
0.2320957382
 40
0.4805100529
 40
0.7397855553
 40
1.0
 40
1.0
 40
1.0
 40
1.0
 10
85.7429894858
 20
164.5951481302
 30
0.0
 10
85.7261437904
 20
164.699105365
 30
0.0
 10
85.6461905538
 20
164.9083467283
 30
0.0
 10
85.4241293523
 20
165.1672690591
 30
0.0
 10
85.1251284988
 20
165.3553714188
 30
0.0
 10
84.8942672668
 20
165.4199630808
 30
0.0
 10
84.7770683655
 20
165.4342962707
 30
0.0
  0
SPLINE
  5
309
100
AcDbEntity
  8
RUNDUNGEN
100
AcDbSpline
 62
7
  6
CONTINUOUS
 70
0
 71
3
 72
11
 73
7
 74
0
 42
0.0000001
 43
0.0000001
 44
0.0000000001
 40
0.0
 40
0.0
 40
0.0
 40
0.0
 40
0.2540212457
 40
0.5056597483
 40
0.753985455
 40
1.0
 40
1.0
 40
1.0
 40
1.0
 10
86.6902685891
 20
165.6406250228
 30
0.0
 10
86.6902685885
 20
165.770534485
 30
0.0
 10
86.640613229
 20
166.0318498037
 30
0.0
 10
86.4268496981
 20
166.3640144908
 30
0.0
 10
86.1058812642
 20
166.5879582209
 30
0.0
 10
85.8501575038
 20
166.6406250228
 30
0.0
 10
85.7243427629
 20
166.6406250228
 30
0.0
  0
SPLINE
  5
30A
100
AcDbEntity
  8
RUNDUNGEN
100
AcDbSpline
 62
7
  6
CONTINUOUS
 70
0
 71
3
 72
11
 73
7
 74
0
 42
0.0000001
 43
0.0000001
 44
0.0000000001
 40
0.0
 40
0.0
 40
0.0
 40
0.0
 40
0.2540211942
 40
0.5056596798
 40
0.753985409
 40
1.0
 40
1.0
 40
1.0
 40
1.0
 10
99.1092481624
 20
165.6406279238
 30
0.0
 10
99.1092477384
 20
165.7705370865
 30
0.0
 10
99.0595917577
 20
166.031851645
 30
0.0
 10
98.8458280893
 20
166.3640151698
 30
0.0
 10
98.5248601607
 20
166.5879581359
 30
0.0
 10
98.2691369674
 20
166.6406249074
 30
0.0
 10
98.1433224674
 20
166.6406250228
 30
0.0
  0
SPLINE
  5
30B
100
AcDbEntity
  8
RUNDUNGEN
100
AcDbSpline
 62
7
  6
CONTINUOUS
 70
0
 71
3
 72
11
 73
7
 74
0
 42
0.0000001
 43
0.0000001
 44
0.0000000001
 40
0.0
 40
0.0
 40
0.0
 40
0.0
 40
0.2540211637
 40
0.5056596397
 40
0.7539853717
 40
1.0
 40
1.0
 40
1.0
 40
1.0
 10
99.1092459922
 20
152.640624121
 30
0.0
 10
99.1092460415
 20
152.5107147444
 30
0.0
 10
99.0595906552
 20
152.249399535
 30
0.0
 10
98.8458268785
 20
151.9172352087
 30
0.0
 10
98.5248584009
 20
151.6932917369
 30
0.0
 10
98.2691346686
 20
151.6406250214
 30
0.0
 10
98.1433199273
 20
151.6406250228
 30
0.0
  0
SPLINE
  5
30C
100
AcDbEntity
  8
RUNDUNGEN
100
AcDbSpline
 62
7
  6
CONTINUOUS
 70
0
 71
3
 72
11
 73
7
 74
0
 42
0.0000001
 43
0.0000001
 44
0.0000000001
 40
0.0
 40
0.0
 40
0.0
 40
0.0
 40
0.2540212502
 40
0.505659753
 40
0.7539854579
 40
1.0
 40
1.0
 40
1.0
 40
1.0
 10
86.6902685891
 20
152.6406250228
 30
0.0
 10
86.6902685891
 20
152.5107155583
 30
0.0
 10
86.6406132294
 20
152.2494002364
 30
0.0
 10
86.4268496947
 20
151.9172355493
 30
0.0
 10
86.1058812604
 20
151.6932918233
 30
0.0
 10
85.8501575024
 20
151.6406250228
 30
0.0
 10
85.7243427628
 20
151.6406250228
 30
0.0
  0
SPLINE
  5
30D
100
AcDbEntity
  8
RUNDUNGEN
100
AcDbSpline
 62
7
  6
CONTINUOUS
 70
0
 71
3
 72
11
 73
7
 74
0
 42
0.0000001
 43
0.0000001
 44
0.0000000001
 40
0.0
 40
0.0
 40
0.0
 40
0.0
 40
0.2320955774
 40
0.4805099236
 40
0.7397855526
 40
1.0
 40
1.0
 40
1.0
 40
1.0
 10
85.7429941915
 20
153.6861019155
 30
0.0
 10
85.7261486061
 20
153.5821442286
 30
0.0
 10
85.6461952605
 20
153.3729018034
 30
0.0
 10
85.424133089
 20
153.113978118
 30
0.0
 10
85.1251305444
 20
152.9258750468
 30
0.0
 10
84.8942678924
 20
152.8612837216
 30
0.0
 10
84.7770683652
 20
152.8469510058
 30
0.0
  0
LINE
  5
30E
100
AcDbEntity
  8
RUNDUNGEN
100
AcDbLine
 62
7
  6
CONTINUOUS
 10
81.6294298774
 20
158.0857581905
 11
81.6019117208
 21
158.4376306415
  0
LINE
  5
30F
100
AcDbEntity
  8
RUNDUNGEN
100
AcDbLine
 62
7
  6
CONTINUOUS
 10
72.2294418541
 20
160.195407232
 11
72.2569610318
 21
159.8435376684
  0
SPLINE
  5
310
100
AcDbEntity
  8
RUNDUNGEN
100
AcDbSpline
 62
7
  6
CONTINUOUS
 70
0
 71
3
 72
11
 73
7
 74
0
 42
0.0000001
 43
0.0000001
 44
0.0000000001
 40
0.0
 40
0.0
 40
0.0
 40
0.0
 40
0.2604814347
 40
0.5182469616
 40
0.7656685926
 40
1.0
 40
1.0
 40
1.0
 40
1.0
 10
69.0062671437
 20
165.6722938676
 30
0.0
 10
68.8836306757
 20
165.6630373416
 30
0.0
 10
68.6409935799
 20
165.6044591004
 30
0.0
 10
68.3284654005
 20
165.4109240703
 30
0.0
 10
68.1032866602
 20
165.1350485603
 30
0.0
 10
68.0321025769
 20
164.911544886
 30
0.0
 10
68.0214728522
 20
164.8014180255
 30
0.0
  0
SPLINE
  5
311
100
AcDbEntity
  8
RUNDUNGEN
100
AcDbSpline
 62
7
  6
CONTINUOUS
 70
0
 71
3
 72
11
 73
7
 74
0
 42
0.0000001
 43
0.0000001
 44
0.0000000001
 40
0.0
 40
0.0
 40
0.0
 40
0.0
 40
0.2482605022
 40
0.4975003067
 40
0.7482033348
 40
1.0
 40
1.0
 40
1.0
 40
1.0
 10
68.4429742566
 20
166.6406250228
 30
0.0
 10
68.3147992249
 20
166.6406250228
 30
0.0
 10
68.055055286
 20
166.5883286019
 30
0.0
 10
67.7278002284
 20
166.3651091705
 30
0.0
 10
67.5091208161
 20
166.0328624483
 30
0.0
 10
67.4581665048
 20
165.7706257489
 30
0.0
 10
67.4581665036
 20
165.6406250228
 30
0.0
  0
SPLINE
  5
312
100
AcDbEntity
  8
RUNDUNGEN
100
AcDbSpline
 62
7
  6
CONTINUOUS
 70
0
 71
3
 72
11
 73
7
 74
0
 42
0.0000001
 43
0.0000001
 44
0.0000000001
 40
0.0
 40
0.0
 40
0.0
 40
0.0
 40
0.248260517
 40
0.4975003281
 40
0.7482033501
 40
1.0
 40
1.0
 40
1.0
 40
1.0
 10
63.0888381325
 20
166.6406250228
 30
0.0
 10
62.9606633225
 20
166.6406249672
 30
0.0
 10
62.7009198716
 20
166.5883286409
 30
0.0
 10
62.37366524
 20
166.3651099008
 30
0.0
 10
62.1549857103
 20
166.0328641624
 30
0.0
 10
62.1040308802
 20
165.7706280919
 30
0.0
 10
62.1040305267
 20
165.6406276063
 30
0.0
  0
LINE
  5
313
100
AcDbEntity
  8
RUNDUNGEN
100
AcDbLine
 62
7
  6
CONTINUOUS
 10
72.2569630041
 20
158.4377298527
 11
72.2294416631
 21
158.0858379511
  0
SPLINE
  5
314
100
AcDbEntity
  8
RUNDUNGEN
100
AcDbSpline
 62
7
  6
CONTINUOUS
 70
0
 71
3
 72
11
 73
7
 74
0
 42
0.0000001
 43
0.0000001
 44
0.0000000001
 40
0.0
 40
0.0
 40
0.0
 40
0.0
 40
0.2343311682
 40
0.4817528068
 40
0.7395184821
 40
1.0
 40
1.0
 40
1.0
 40
1.0
 10
68.0214660535
 20
153.4798320205
 30
0.0
 10
68.0320951204
 20
153.3697042789
 30
0.0
 10
68.1032788248
 20
153.1461983994
 30
0.0
 10
68.3284591201
 20
152.8703202403
 30
0.0
 10
68.6409901614
 20
152.6767836491
 30
0.0
 10
68.8836295793
 20
152.6182053937
 30
0.0
 10
69.0062671437
 20
152.6089491844
 30
0.0
  0
SPLINE
  5
315
100
AcDbEntity
  8
RUNDUNGEN
100
AcDbSpline
 62
7
  6
CONTINUOUS
 70
0
 71
3
 72
11
 73
7
 74
0
 42
0.0000001
 43
0.0000001
 44
0.0000000001
 40
0.0
 40
0.0
 40
0.0
 40
0.0
 40
0.2517966613
 40
0.502499689
 40
0.7517394951
 40
1.0
 40
1.0
 40
1.0
 40
1.0
 10
67.4581665036
 20
152.6406250228
 30
0.0
 10
67.4581665052
 20
152.5106242989
 30
0.0
 10
67.509120816
 20
152.2483876022
 30
0.0
 10
67.7278002248
 20
151.91614088
 30
0.0
 10
68.0550552823
 20
151.692921445
 30
0.0
 10
68.3147992234
 20
151.6406250228
 30
0.0
 10
68.4429742564
 20
151.6406250228
 30
0.0
  0
SPLINE
  5
316
100
AcDbEntity
  8
RUNDUNGEN
100
AcDbSpline
 62
7
  6
CONTINUOUS
 70
0
 71
3
 72
11
 73
7
 74
0
 42
0.0000001
 43
0.0000001
 44
0.0000000001
 40
0.0
 40
0.0
 40
0.0
 40
0.0
 40
0.2517966515
 40
0.5024996754
 40
0.7517394874
 40
1.0
 40
1.0
 40
1.0
 40
1.0
 10
62.1040289343
 20
152.6406230738
 30
0.0
 10
62.1040292009
 20
152.5106227806
 30
0.0
 10
62.1549837017
 20
152.2483870723
 30
0.0
 10
62.3736623781
 20
151.9161415128
 30
0.0
 10
62.700916021
 20
151.6929224238
 30
0.0
 10
62.9606589165
 20
151.6406254669
 30
0.0
 10
63.0888335338
 20
151.6406250228
 30
0.0
  0
SPLINE
  5
317
100
AcDbEntity
  8
RUNDUNGEN
100
AcDbSpline
 62
7
  6
CONTINUOUS
 70
0
 71
3
 72
14
 73
10
 74
0
 42
0.0000001
 43
0.0000001
 44
0.0000000001
 40
0.0
 40
0.0
 40
0.0
 40
0.0
 40
0.0783486297
 40
0.1633595771
 40
0.2601764338
 40
0.3721871745
 40
0.5014101887
 40
0.6489318196
 40
1.0
 40
1.0
 40
1.0
 40
1.0
 10
85.7243425817
 20
166.6406250163
 30
0.0
 10
85.6822721859
 20
166.640618469
 30
0.0
 10
85.5940904357
 20
166.6263579735
 30
0.0
 10
85.4669812017
 20
166.5649129535
 30
0.0
 10
85.3432050094
 20
166.4654394969
 30
0.0
 10
85.222416684
 20
166.3291142229
 30
0.0
 10
85.1044534238
 20
166.1563842329
 30
0.0
 10
84.9418269986
 20
165.8606808955
 30
0.0
 10
84.840656673
 20
165.6117679759
 30
0.0
 10
84.7770683653
 20
165.4343055313
 30
0.0
  0
SPLINE
  5
318
100
AcDbEntity
  8
RUNDUNGEN
100
AcDbSpline
 62
7
  6
CONTINUOUS
 70
0
 71
3
 72
11
 73
7
 74
0
 42
0.0000001
 43
0.0000001
 44
0.0000000001
 40
0.0
 40
0.0
 40
0.0
 40
0.0
 40
0.3673975475
 40
0.5079986079
 40
0.663861408
 40
1.0
 40
1.0
 40
1.0
 40
1.0
 10
73.429431608
 20
163.6406250228
 30
0.0
 10
73.4014834805
 20
163.6406250228
 30
0.0
 10
73.3733888544
 20
163.5971986036
 30
0.0
 10
73.3581133461
 20
163.5510759044
 30
0.0
 10
73.3474933959
 20
163.5035644443
 30
0.0
 10
73.344583123
 20
163.4661952649
 30
0.0
 10
73.3445831223
 20
163.4406250228
 30
0.0
  0
SPLINE
  5
319
100
AcDbEntity
  8
RUNDUNGEN
100
AcDbSpline
 62
7
  6
CONTINUOUS
 70
0
 71
3
 72
11
 73
7
 74
0
 42
0.0000001
 43
0.0000001
 44
0.0000000001
 40
0.0
 40
0.0
 40
0.0
 40
0.0
 40
0.3673945375
 40
0.5079963649
 40
0.6638598676
 40
1.0
 40
1.0
 40
1.0
 40
1.0
 10
80.429431608
 20
163.6406250228
 30
0.0
 10
80.4573793888
 20
163.6406250228
 30
0.0
 10
80.4854727515
 20
163.5971979877
 30
0.0
 10
80.500748379
 20
163.551075808
 30
0.0
 10
80.5113687321
 20
163.5035643799
 30
0.0
 10
80.5142795683
 20
163.4661952744
 30
0.0
 10
80.5142800922
 20
163.4406250228
 30
0.0
  0
SPLINE
  5
31A
100
AcDbEntity
  8
RUNDUNGEN
100
AcDbSpline
 62
7
  6
CONTINUOUS
 70
0
 71
3
 72
14
 73
10
 74
0
 42
0.0000001
 43
0.0000001
 44
0.0000000001
 40
0.0
 40
0.0
 40
0.0
 40
0.0
 40
0.0641375695
 40
0.1381291993
 40
0.2284794148
 40
0.3386952011
 40
0.470494753
 40
0.6246800949
 40
1.0
 40
1.0
 40
1.0
 40
1.0
 10
68.4429744992
 20
166.6406250068
 30
0.0
 10
68.4679939506
 20
166.6406156995
 30
0.0
 10
68.5222149202
 20
166.6281868866
 30
0.0
 10
68.5971398966
 20
166.5776152949
 30
0.0
 10
68.6695545904
 20
166.497827564
 30
0.0
 10
68.7404551669
 20
166.388843633
 30
0.0
 10
68.8101832156
 20
166.2506706665
 30
0.0
 10
68.9077674467
 20
166.0116744717
 30
0.0
 10
68.9679958184
 20
165.8136273931
 30
0.0
 10
69.0062671438
 20
165.6723092561
 30
0.0
  0
SPLINE
  5
31B
100
AcDbEntity
  8
RUNDUNGEN
100
AcDbSpline
 62
7
  6
CONTINUOUS
 70
0
 71
3
 72
14
 73
10
 74
0
 42
0.0000001
 43
0.0000001
 44
0.0000000001
 40
0.0
 40
0.0
 40
0.0
 40
0.0
 40
0.085013817
 40
0.1871325499
 40
0.3031167341
 40
0.4299557766
 40
0.5650505921
 40
0.7062397459
 40
1.0
 40
1.0
 40
1.0
 40
1.0
 10
85.7430317522
 20
164.5952298366
 30
0.0
 10
85.6608641589
 20
164.4362057935
 30
0.0
 10
85.4495399378
 20
164.1022256677
 30
0.0
 10
85.0658934288
 20
163.5920232575
 30
0.0
 10
84.6014195534
 20
163.0333508365
 30
0.0
 10
84.0740836965
 20
162.4373992664
 30
0.0
 10
83.4987172184
 20
161.8133329158
 30
0.0
 10
82.6732634167
 20
160.9419883812
 30
0.0
 10
82.0343372416
 20
160.2858595424
 30
0.0
 10
81.6018946524
 20
159.8436431896
 30
0.0
  0
SPLINE
  5
31C
100
AcDbEntity
  8
RUNDUNGEN
100
AcDbSpline
 62
7
  6
CONTINUOUS
 70
0
 71
3
 72
14
 73
10
 74
0
 42
0.0000001
 43
0.0000001
 44
0.0000000001
 40
0.0
 40
0.0
 40
0.0
 40
0.0
 40
0.2937539804
 40
0.4349443245
 40
0.5700407584
 40
0.6968809102
 40
0.8128658929
 40
0.9149854931
 40
1.0
 40
1.0
 40
1.0
 40
1.0
 10
81.6018931872
 20
158.4376490603
 30
0.0
 10
82.0343285155
 20
157.9954398948
 30
0.0
 10
82.6732226773
 20
157.3392887913
 30
0.0
 10
83.4986853076
 20
156.4679548132
 30
0.0
 10
84.0740609523
 20
155.8438800006
 30
0.0
 10
84.6014028258
 20
155.2479187504
 30
0.0
 10
85.0658840615
 20
154.6892402298
 30
0.0
 10
85.4495348357
 20
154.1790310534
 30
0.0
 10
85.6608632138
 20
153.8450473025
 30
0.0
 10
85.7430313839
 20
153.6860209469
 30
0.0
  0
SPLINE
  5
31D
100
AcDbEntity
  8
RUNDUNGEN
100
AcDbSpline
 62
7
  6
CONTINUOUS
 70
0
 71
3
 72
11
 73
7
 74
0
 42
0.0000001
 43
0.0000001
 44
0.0000000001
 40
0.0
 40
0.0
 40
0.0
 40
0.0
 40
0.2406280177
 40
0.4834745399
 40
0.7360023368
 40
1.0
 40
1.0
 40
1.0
 40
1.0
 10
73.3445831231
 20
154.8406250228
 30
0.0
 10
73.2432232758
 20
154.8406375323
 30
0.0
 10
73.0376168282
 20
154.878205002
 30
0.0
 10
72.7675554009
 20
155.0444447933
 30
0.0
 10
72.5732553743
 20
155.3090033343
 30
0.0
 10
72.5252058992
 20
155.5294211697
 30
0.0
 10
72.5251891838
 20
155.6406250228
 30
0.0
  0
SPLINE
  5
31E
100
AcDbEntity
  8
RUNDUNGEN
100
AcDbSpline
 62
7
  6
CONTINUOUS
 70
0
 71
3
 72
11
 73
7
 74
0
 42
0.0000001
 43
0.0000001
 44
0.0000000001
 40
0.0
 40
0.0
 40
0.0
 40
0.0
 40
0.2640005508
 40
0.5165275639
 40
0.7593727956
 40
1.0
 40
1.0
 40
1.0
 40
1.0
 10
72.5251891838
 20
162.6406250228
 30
0.0
 10
72.52521053
 20
162.751830159
 30
0.0
 10
72.5732512848
 20
162.972249847
 30
0.0
 10
72.7675577391
 20
163.2368068844
 30
0.0
 10
73.0376178022
 20
163.4030445655
 30
0.0
 10
73.2432235568
 20
163.4406128629
 30
0.0
 10
73.3445831231
 20
163.4406250228
 30
0.0
  0
SPLINE
  5
31F
100
AcDbEntity
  8
RUNDUNGEN
100
AcDbSpline
 62
7
  6
CONTINUOUS
 70
0
 71
3
 72
11
 73
7
 74
0
 42
0.0000001
 43
0.0000001
 44
0.0000000001
 40
0.0
 40
0.0
 40
0.0
 40
0.0
 40
0.2406280177
 40
0.4834745399
 40
0.7360023368
 40
1.0
 40
1.0
 40
1.0
 40
1.0
 10
80.5142800928
 20
163.4406250228
 30
0.0
 10
80.6156399402
 20
163.4406125134
 30
0.0
 10
80.8212463878
 20
163.4030450437
 30
0.0
 10
81.0913078151
 20
163.2368052523
 30
0.0
 10
81.2856078417
 20
162.9722467113
 30
0.0
 10
81.3336573167
 20
162.751828876
 30
0.0
 10
81.3336740322
 20
162.6406250228
 30
0.0
  0
SPLINE
  5
320
100
AcDbEntity
  8
RUNDUNGEN
100
AcDbSpline
 62
7
  6
CONTINUOUS
 70
0
 71
3
 72
11
 73
7
 74
0
 42
0.0000001
 43
0.0000001
 44
0.0000000001
 40
0.0
 40
0.0
 40
0.0
 40
0.0
 40
0.2640005508
 40
0.5165275639
 40
0.7593727956
 40
1.0
 40
1.0
 40
1.0
 40
1.0
 10
81.3336740322
 20
155.6406250228
 30
0.0
 10
81.333652686
 20
155.5294198866
 30
0.0
 10
81.2856119312
 20
155.3090001987
 30
0.0
 10
81.0913054769
 20
155.0444431613
 30
0.0
 10
80.8212454137
 20
154.8782054802
 30
0.0
 10
80.6156396592
 20
154.8406371827
 30
0.0
 10
80.5142800928
 20
154.8406250228
 30
0.0
  0
SPLINE
  5
321
100
AcDbEntity
  8
RUNDUNGEN
100
AcDbSpline
 62
7
  6
CONTINUOUS
 70
0
 71
3
 72
15
 73
11
 74
0
 42
0.0000001
 43
0.0000001
 44
0.0000000001
 40
0.0
 40
0.0
 40
0.0
 40
0.0
 40
0.0362770796
 40
0.0779366631
 40
0.1758857319
 40
0.2903513689
 40
0.4176729868
 40
0.5546939769
 40
0.6987993634
 40
1.0
 40
1.0
 40
1.0
 40
1.0
 10
68.021422297
 20
153.4797247701
 30
0.0
 10
68.0502081333
 20
153.5534307644
 30
0.0
 10
68.1229365524
 20
153.7075279516
 30
0.0
 10
68.3159386089
 20
154.0393774421
 30
0.0
 10
68.6378545885
 20
154.4916136374
 30
0.0
 10
69.103470332
 20
155.0682437632
 30
0.0
 10
69.6466725368
 20
155.6910681414
 30
0.0
 10
70.2481180927
 20
156.348371869
 30
0.0
 10
71.1201559219
 20
157.2719460341
 30
0.0
 10
71.7976391149
 20
157.9680194634
 30
0.0
 10
72.2569725842
 20
158.4377382664
 30
0.0
  0
SPLINE
  5
322
100
AcDbEntity
  8
RUNDUNGEN
100
AcDbSpline
 62
7
  6
CONTINUOUS
 70
0
 71
3
 72
15
 73
11
 74
0
 42
0.0000001
 43
0.0000001
 44
0.0000000001
 40
0.0
 40
0.0
 40
0.0
 40
0.0
 40
0.0362773693
 40
0.077935962
 40
0.1758842747
 40
0.2903491615
 40
0.417670721
 40
0.5546916695
 40
0.6987969044
 40
1.0
 40
1.0
 40
1.0
 40
1.0
 10
68.0214115129
 20
164.801556456
 30
0.0
 10
68.050196821
 20
164.7278493038
 30
0.0
 10
68.1229218238
 20
164.5737516071
 30
0.0
 10
68.3159193849
 20
164.2419016688
 30
0.0
 10
68.6378298699
 20
163.7896659019
 30
0.0
 10
69.10344762
 20
163.2130386751
 30
0.0
 10
69.646647786
 20
162.590211516
 30
0.0
 10
70.2480955616
 20
161.9329066724
 30
0.0
 10
71.1201322816
 20
161.0093190132
 30
0.0
 10
71.7976332057
 20
160.3132513315
 30
0.0
 10
72.256972262
 20
159.8435275323
 30
0.0
  0
SPLINE
  5
323
100
AcDbEntity
  8
RUNDUNGEN
100
AcDbSpline
 62
7
  6
CONTINUOUS
 70
0
 71
3
 72
11
 73
7
 74
0
 42
0.0000001
 43
0.0000001
 44
0.0000000001
 40
0.0
 40
0.0
 40
0.0
 40
0.0
 40
0.2666890226
 40
0.5178069558
 40
0.7590091746
 40
1.0
 40
1.0
 40
1.0
 40
1.0
 10
80.5648185748
 20
154.5702200865
 30
0.0
 10
80.7163739741
 20
154.5870439707
 30
0.0
 10
81.0075912953
 20
154.6756715766
 30
0.0
 10
81.3560318943
 20
154.9496267855
 30
0.0
 10
81.5782275072
 20
155.3154418264
 30
0.0
 10
81.6294561554
 20
155.5937413895
 30
0.0
 10
81.629431608
 20
155.7315341137
 30
0.0
  0
SPLINE
  5
324
100
AcDbEntity
  8
RUNDUNGEN
100
AcDbSpline
 62
7
  6
CONTINUOUS
 70
0
 71
3
 72
13
 73
9
 74
0
 42
0.0000001
 43
0.0000001
 44
0.0000000001
 40
0.0
 40
0.0
 40
0.0
 40
0.0
 40
0.2871535962
 40
0.5590625371
 40
0.6854887086
 40
0.8028567195
 40
0.9086495124
 40
1.0
 40
1.0
 40
1.0
 40
1.0
 10
81.6294314065
 20
158.0857573742
 30
0.0
 10
81.957813091
 20
157.6004290313
 30
0.0
 10
82.5943449932
 20
156.6536569263
 30
0.0
 10
83.355808983
 20
155.4799715838
 30
0.0
 10
83.9037583803
 20
154.5814183966
 30
0.0
 10
84.2582835156
 20
153.96215447
 30
0.0
 10
84.5533790527
 20
153.3920395176
 30
0.0
 10
84.7141863541
 20
153.0224345038
 30
0.0
 10
84.7770683653
 20
152.8469445144
 30
0.0
  0
SPLINE
  5
325
100
AcDbEntity
  8
RUNDUNGEN
100
AcDbSpline
 62
7
  6
CONTINUOUS
 70
0
 71
3
 72
14
 73
10
 74
0
 42
0.0000001
 43
0.0000001
 44
0.0000000001
 40
0.0
 40
0.0
 40
0.0
 40
0.0
 40
0.3510682394
 40
0.4985898707
 40
0.6278129165
 40
0.7398238121
 40
0.8366405999
 40
0.9216511547
 40
1.0
 40
1.0
 40
1.0
 40
1.0
 10
84.7770683653
 20
152.8469445144
 30
0.0
 10
84.840656798
 20
152.6694821078
 30
0.0
 10
84.9418271271
 20
152.4205692068
 30
0.0
 10
85.1044534783
 20
152.1248658241
 30
0.0
 10
85.2224168024
 20
151.9521357815
 30
0.0
 10
85.3432051991
 20
151.8158105333
 30
0.0
 10
85.4669812095
 20
151.716337122
 30
0.0
 10
85.594090564
 20
151.6548925824
 30
0.0
 10
85.6822720595
 20
151.6406321601
 30
0.0
 10
85.7243425654
 20
151.6406250306
 30
0.0
  0
SPLINE
  5
326
100
AcDbEntity
  8
RUNDUNGEN
100
AcDbSpline
 62
7
  6
CONTINUOUS
 70
0
 71
3
 72
13
 73
9
 74
0
 42
0.0000001
 43
0.0000001
 44
0.0000000001
 40
0.0
 40
0.0
 40
0.0
 40
0.0
 40
0.0848876131
 40
0.1751942766
 40
0.2753215916
 40
0.3884273528
 40
0.6606086913
 40
1.0
 40
1.0
 40
1.0
 40
1.0
 10
86.6902685891
 20
165.6406250228
 30
0.0
 10
86.6483566621
 20
165.640616718
 30
0.0
 10
86.5614834181
 20
165.6285970018
 30
0.0
 10
86.4348254106
 20
165.5760677356
 30
0.0
 10
86.3108426572
 20
165.4902735137
 30
0.0
 10
86.1387053628
 20
165.3223013956
 30
0.0
 10
85.9360979658
 20
165.0237851166
 30
0.0
 10
85.8070590039
 20
164.7500798992
 30
0.0
 10
85.7430317543
 20
164.5952253645
 30
0.0
  0
SPLINE
  5
327
100
AcDbEntity
  8
RUNDUNGEN
100
AcDbSpline
 62
7
  6
CONTINUOUS
 70
0
 71
3
 72
11
 73
7
 74
0
 42
0.0000001
 43
0.0000001
 44
0.0000000001
 40
0.0
 40
0.0
 40
0.0
 40
0.0
 40
0.2477101266
 40
0.496836802
 40
0.7477927309
 40
1.0
 40
1.0
 40
1.0
 40
1.0
 10
54.7623692494
 20
165.6551554146
 30
0.0
 10
54.7807554457
 20
165.7687031311
 30
0.0
 10
54.8597283219
 20
165.9917667104
 30
0.0
 10
55.0881267331
 20
166.2627096818
 30
0.0
 10
55.3972143242
 20
166.4398732641
 30
0.0
 10
55.6328850311
 20
166.4807470271
 30
0.0
 10
55.75
 20
166.480747049
 30
0.0
  0
SPLINE
  5
328
100
AcDbEntity
  8
RUNDUNGEN
100
AcDbSpline
 62
7
  6
CONTINUOUS
 70
0
 71
3
 72
16
 73
12
 74
0
 42
0.0000001
 43
0.0000001
 44
0.0000000001
 40
0.0
 40
0.0
 40
0.0
 40
0.0
 40
0.1681140325
 40
0.3311830113
 40
0.4845481659
 40
0.6241964188
 40
0.7469843385
 40
0.8507718453
 40
0.895248707
 40
0.9347976359
 40
1.0
 40
1.0
 40
1.0
 40
1.0
 10
57.5014226112
 20
159.1401916129
 30
0.0
 10
57.5014262733
 20
159.572197656
 30
0.0
 10
57.4799783663
 20
160.4234113608
 30
0.0
 10
57.3842077584
 20
161.6654485715
 30
0.0
 10
57.2288603899
 20
162.8277953297
 30
0.0
 10
57.0198967053
 20
163.8765778841
 30
0.0
 10
56.7646471671
 20
164.7834895394
 30
0.0
 10
56.5091587736
 20
165.4334796714
 30
0.0
 10
56.2820568019
 20
165.8602990097
 30
0.0
 10
56.0716527978
 20
166.1805165718
 30
0.0
 10
55.8863469749
 20
166.3833329407
 30
0.0
 10
55.7500004971
 20
166.4807149554
 30
0.0
  0
SPLINE
  5
329
100
AcDbEntity
  8
RUNDUNGEN
100
AcDbSpline
 62
7
  6
CONTINUOUS
 70
0
 71
3
 72
17
 73
13
 74
0
 42
0.0000001
 43
0.0000001
 44
0.0000000001
 40
0.0
 40
0.0
 40
0.0
 40
0.0
 40
0.0305459265
 40
0.0653742571
 40
0.1049162636
 40
0.1493842764
 40
0.2531512121
 40
0.3759152081
 40
0.5155474345
 40
0.668897168
 40
0.8319343237
 40
1.0
 40
1.0
 40
1.0
 40
1.0
 10
55.7499998889
 20
151.8004926203
 30
0.0
 10
55.8138878945
 20
151.8461073816
 30
0.0
 10
55.9405760527
 20
151.9579959256
 30
0.0
 10
56.1141006126
 20
152.1652434765
 30
0.0
 10
56.2820697343
 20
152.4209860573
 30
0.0
 10
56.5090005974
 20
152.8474551566
 30
0.0
 10
56.7645874849
 20
153.4975310154
 30
0.0
 10
57.0198020507
 20
154.4042915217
 30
0.0
 10
57.2287940071
 20
155.4530364269
 30
0.0
 10
57.3841435226
 20
156.6153075022
 30
0.0
 10
57.4799331476
 20
157.8571995317
 30
0.0
 10
57.501415685
 20
158.7082748156
 30
0.0
 10
57.5014226112
 20
159.1401916129
 30
0.0
  0
SPLINE
  5
32A
100
AcDbEntity
  8
RUNDUNGEN
100
AcDbSpline
 62
7
  6
CONTINUOUS
 70
0
 71
3
 72
11
 73
7
 74
0
 42
0.0000001
 43
0.0000001
 44
0.0000000001
 40
0.0
 40
0.0
 40
0.0
 40
0.0
 40
0.2477102817
 40
0.4968370016
 40
0.7477928605
 40
1.0
 40
1.0
 40
1.0
 40
1.0
 10
54.7623691841
 20
152.6260925392
 30
0.0
 10
54.7807553345
 20
152.5125446448
 30
0.0
 10
54.8597281155
 20
152.2894807299
 30
0.0
 10
55.0881264992
 20
152.0185372629
 30
0.0
 10
55.397214172
 20
151.8413733402
 30
0.0
 10
55.6328849933
 20
151.8004995131
 30
0.0
 10
55.75
 20
151.800499505
 30
0.0
  0
SPLINE
  5
32B
100
AcDbEntity
  8
RUNDUNGEN
100
AcDbSpline
 62
7
  6
CONTINUOUS
 70
0
 71
3
 72
15
 73
11
 74
0
 42
0.0000001
 43
0.0000001
 44
0.0000000001
 40
0.0
 40
0.0
 40
0.0
 40
0.0
 40
0.0402984119
 40
0.0852718092
 40
0.1876207553
 40
0.3037800168
 40
0.4306470468
 40
0.5656312143
 40
0.7066183336
 40
1.0
 40
1.0
 40
1.0
 40
1.0
 10
69.0062671438
 20
152.6089407896
 30
0.0
 10
69.0286439932
 20
152.6915558916
 30
0.0
 10
69.0847529827
 20
152.8640129347
 30
0.0
 10
69.2330353295
 20
153.2340787017
 30
0.0
 10
69.4791009198
 20
153.7373925046
 30
0.0
 10
69.8355015366
 20
154.3786898641
 30
0.0
 10
70.2489332688
 20
155.0670774231
 30
0.0
 10
70.7053681117
 20
155.79081538
 30
0.0
 10
71.3654842185
 20
156.8040653682
 30
0.0
 10
71.8802282766
 20
157.5697384071
 30
0.0
 10
72.229432715
 20
158.0858254366
 30
0.0
  0
SPLINE
  5
32C
100
AcDbEntity
  8
RUNDUNGEN
100
AcDbSpline
 62
7
  6
CONTINUOUS
 70
0
 71
3
 72
11
 73
7
 74
0
 42
0.0000001
 43
0.0000001
 44
0.0000000001
 40
0.0
 40
0.0
 40
0.0
 40
0.0
 40
0.2409785302
 40
0.4821738841
 40
0.7333027598
 40
1.0
 40
1.0
 40
1.0
 40
1.0
 10
72.229431608
 20
155.7315341137
 30
0.0
 10
72.2294069655
 20
155.5937025262
 30
0.0
 10
72.2806682663
 20
155.3153209376
 30
0.0
 10
72.5029908585
 20
154.9494152303
 30
0.0
 10
72.8516384362
 20
154.6754618091
 30
0.0
 10
73.1430031076
 20
154.5869131759
 30
0.0
 10
73.2946216433
 20
154.5701552589
 30
0.0
  0
SPLINE
  5
32D
100
AcDbEntity
  8
RUNDUNGEN
100
AcDbSpline
 62
7
  6
CONTINUOUS
 70
0
 71
3
 72
11
 73
7
 74
0
 42
0.0000001
 43
0.0000001
 44
0.0000000001
 40
0.0
 40
0.0
 40
0.0
 40
0.0
 40
0.2409785302
 40
0.4821738841
 40
0.7333027598
 40
1.0
 40
1.0
 40
1.0
 40
1.0
 10
81.629431608
 20
162.5497159319
 30
0.0
 10
81.6294562505
 20
162.6875475195
 30
0.0
 10
81.5781949497
 20
162.9659291081
 30
0.0
 10
81.3558723575
 20
163.3318348154
 30
0.0
 10
81.0072247798
 20
163.6057882366
 30
0.0
 10
80.7158601084
 20
163.6943368698
 30
0.0
 10
80.5642415727
 20
163.7110947867
 30
0.0
  0
SPLINE
  5
32E
100
AcDbEntity
  8
RUNDUNGEN
100
AcDbSpline
 62
7
  6
CONTINUOUS
 70
0
 71
3
 72
13
 73
9
 74
0
 42
0.0000001
 43
0.0000001
 44
0.0000000001
 40
0.0
 40
0.0
 40
0.0
 40
0.0
 40
0.0705184044
 40
0.1493412674
 40
0.2424014851
 40
0.3532543317
 40
0.634841438
 40
1.0
 40
1.0
 40
1.0
 40
1.0
 10
67.4581665036
 20
165.6406250228
 30
0.0
 10
67.4830440014
 20
165.6406136614
 30
0.0
 10
67.536049837
 20
165.6302994761
 30
0.0
 10
67.6110550863
 20
165.5870371553
 30
0.0
 10
67.6838672572
 20
165.5179292258
 30
0.0
 10
67.787078537
 20
165.3805738065
 30
0.0
 10
67.906910032
 20
165.1398006576
 30
0.0
 10
67.9829856063
 20
164.9244982461
 30
0.0
 10
68.0214115054
 20
164.8015420321
 30
0.0
  0
SPLINE
  5
32F
100
AcDbEntity
  8
RUNDUNGEN
100
AcDbSpline
 62
7
  6
CONTINUOUS
 70
0
 71
3
 72
11
 73
7
 74
0
 42
0.0000001
 43
0.0000001
 44
0.0000000001
 40
0.0
 40
0.0
 40
0.0
 40
0.0
 40
0.3311755715
 40
0.4852043794
 40
0.6247590226
 40
1.0
 40
1.0
 40
1.0
 40
1.0
 10
81.629431608
 20
155.7315341128
 30
0.0
 10
81.6038479139
 20
155.7315341128
 30
0.0
 10
81.5663773726
 20
155.7283985884
 30
0.0
 10
81.5189520233
 20
155.7170213872
 30
0.0
 10
81.4718439612
 20
155.7003630437
 30
0.0
 10
81.429431608
 20
155.6696128203
 30
0.0
 10
81.429431608
 20
155.6406250229
 30
0.0
  0
SPLINE
  5
330
100
AcDbEntity
  8
RUNDUNGEN
100
AcDbSpline
 62
7
  6
CONTINUOUS
 70
0
 71
3
 72
12
 73
8
 74
0
 42
0.0000001
 43
0.0000001
 44
0.0000000001
 40
0.0
 40
0.0
 40
0.0
 40
0.0
 40
0.3725506274
 40
0.6906299083
 40
0.9062422984
 40
0.9673589268
 40
1.0
 40
1.0
 40
1.0
 40
1.0
 10
81.6294314065
 20
158.0857421707
 30
0.0
 10
81.6039419568
 20
158.085742292
 30
0.0
 10
81.5565753026
 20
158.0844456619
 30
0.0
 10
81.4951143718
 20
158.0793745735
 30
0.0
 10
81.4542257143
 20
158.0719808308
 30
0.0
 10
81.4349547566
 20
158.0650082359
 30
0.0
 10
81.4294311934
 20
158.0598441947
 30
0.0
 10
81.4294316081
 20
158.0576109332
 30
0.0
  0
SPLINE
  5
331
100
AcDbEntity
  8
RUNDUNGEN
100
AcDbSpline
 62
7
  6
CONTINUOUS
 70
0
 71
3
 72
12
 73
8
 74
0
 42
0.0000001
 43
0.0000001
 44
0.0000000001
 40
0.0
 40
0.0
 40
0.0
 40
0.0
 40
0.3725503493
 40
0.6906296613
 40
0.9062425784
 40
0.9673594174
 40
1.0
 40
1.0
 40
1.0
 40
1.0
 10
81.629431608
 20
160.195505117
 30
0.0
 10
81.603942216
 20
160.195505064
 30
0.0
 10
81.5565756402
 20
160.1968017464
 30
0.0
 10
81.4951148282
 20
160.2018726203
 30
0.0
 10
81.4542260129
 20
160.2092659473
 30
0.0
 10
81.4349550829
 20
160.2162382225
 30
0.0
 10
81.4294312644
 20
160.2214019669
 30
0.0
 10
81.429431608
 20
160.2236351914
 30
0.0
  0
SPLINE
  5
332
100
AcDbEntity
  8
RUNDUNGEN
100
AcDbSpline
 62
7
  6
CONTINUOUS
 70
0
 71
3
 72
11
 73
7
 74
0
 42
0.0000001
 43
0.0000001
 44
0.0000000001
 40
0.0
 40
0.0
 40
0.0
 40
0.0
 40
0.331176425
 40
0.4852057653
 40
0.6247605861
 40
1.0
 40
1.0
 40
1.0
 40
1.0
 10
81.629431608
 20
162.5497159324
 30
0.0
 10
81.6038478768
 20
162.5497160778
 30
0.0
 10
81.5663773015
 20
162.5528518097
 30
0.0
 10
81.5189519002
 20
162.5642291112
 30
0.0
 10
81.4718440168
 20
162.580887504
 30
0.0
 10
81.429431608
 20
162.6116373788
 30
0.0
 10
81.429431608
 20
162.6406250228
 30
0.0
  0
SPLINE
  5
333
100
AcDbEntity
  8
RUNDUNGEN
100
AcDbSpline
 62
7
  6
CONTINUOUS
 70
0
 71
3
 72
11
 73
7
 74
0
 42
0.0000001
 43
0.0000001
 44
0.0000000001
 40
0.0
 40
0.0
 40
0.0
 40
0.0
 40
0.3311756307
 40
0.4852044917
 40
0.6247591414
 40
1.0
 40
1.0
 40
1.0
 40
1.0
 10
72.229431608
 20
162.5497159324
 30
0.0
 10
72.2550153069
 20
162.5497159323
 30
0.0
 10
72.2924858564
 20
162.5528514633
 30
0.0
 10
72.3399112157
 20
162.5642286642
 30
0.0
 10
72.3870192719
 20
162.5808870137
 30
0.0
 10
72.429431608
 20
162.6116372344
 30
0.0
 10
72.429431608
 20
162.6406250228
 30
0.0
  0
SPLINE
  5
334
100
AcDbEntity
  8
RUNDUNGEN
100
AcDbSpline
 62
7
  6
CONTINUOUS
 70
0
 71
3
 72
12
 73
8
 74
0
 42
0.0000001
 43
0.0000001
 44
0.0000000001
 40
0.0
 40
0.0
 40
0.0
 40
0.0
 40
0.3725475173
 40
0.6906246372
 40
0.9062375745
 40
0.9673558941
 40
1.0
 40
1.0
 40
1.0
 40
1.0
 10
72.2294326471
 20
160.1955135116
 30
0.0
 10
72.2549218693
 20
160.1955128889
 30
0.0
 10
72.3022881381
 20
160.1968087924
 30
0.0
 10
72.3637488282
 20
160.2018801291
 30
0.0
 10
72.4046371493
 20
160.209274532
 30
0.0
 10
72.4239084376
 20
160.2162480313
 30
0.0
 10
72.4294318855
 20
160.2214124121
 30
0.0
 10
72.429431608
 20
160.2236458798
 30
0.0
  0
SPLINE
  5
335
100
AcDbEntity
  8
RUNDUNGEN
100
AcDbSpline
 62
7
  6
CONTINUOUS
 70
0
 71
3
 72
12
 73
8
 74
0
 42
0.0000001
 43
0.0000001
 44
0.0000000001
 40
0.0
 40
0.0
 40
0.0
 40
0.0
 40
0.3725481006
 40
0.690626136
 40
0.9062395549
 40
0.9673575924
 40
1.0
 40
1.0
 40
1.0
 40
1.0
 10
72.229431608
 20
158.0857356648
 30
0.0
 10
72.2549209042
 20
158.0857355371
 30
0.0
 10
72.3022873255
 20
158.0844385344
 30
0.0
 10
72.3637480734
 20
158.0793670732
 30
0.0
 10
72.4046368533
 20
158.0719733778
 30
0.0
 10
72.4239080169
 20
158.0650005029
 30
0.0
 10
72.4294318457
 20
158.0598365998
 30
0.0
 10
72.429431608
 20
158.0576032452
 30
0.0
  0
SPLINE
  5
336
100
AcDbEntity
  8
RUNDUNGEN
100
AcDbSpline
 62
7
  6
CONTINUOUS
 70
0
 71
3
 72
11
 73
7
 74
0
 42
0.0000001
 43
0.0000001
 44
0.0000000001
 40
0.0
 40
0.0
 40
0.0
 40
0.0
 40
0.3311764251
 40
0.4852057654
 40
0.6247605862
 40
1.0
 40
1.0
 40
1.0
 40
1.0
 10
72.229431608
 20
155.7315341128
 30
0.0
 10
72.2550153392
 20
155.7315339674
 30
0.0
 10
72.2924859145
 20
155.7283982357
 30
0.0
 10
72.3399113158
 20
155.7170209342
 30
0.0
 10
72.3870191992
 20
155.7003625416
 30
0.0
 10
72.429431608
 20
155.6696126668
 30
0.0
 10
72.429431608
 20
155.6406250229
 30
0.0
  0
SPLINE
  5
337
100
AcDbEntity
  8
RUNDUNGEN
100
AcDbSpline
 62
7
  6
CONTINUOUS
 70
0
 71
3
 72
13
 73
9
 74
0
 42
0.0000001
 43
0.0000001
 44
0.0000000001
 40
0.0
 40
0.0
 40
0.0
 40
0.0
 40
0.0705182944
 40
0.1493396724
 40
0.242398516
 40
0.3532522933
 40
0.6348433683
 40
1.0
 40
1.0
 40
1.0
 40
1.0
 10
67.4581665036
 20
152.6406250228
 30
0.0
 10
67.4830446577
 20
152.6406386756
 30
0.0
 10
67.5360504933
 20
152.650953901
 30
0.0
 10
67.6110583934
 20
152.6942144041
 30
0.0
 10
67.6838725651
 20
152.7633236766
 30
0.0
 10
67.7870849831
 20
152.9006858635
 30
0.0
 10
67.9069170119
 20
153.1414681141
 30
0.0
 10
67.9829950792
 20
153.3567770827
 30
0.0
 10
68.0214222925
 20
153.4797359499
 30
0.0
  0
SPLINE
  5
338
100
AcDbEntity
  8
RUNDUNGEN
100
AcDbSpline
 62
7
  6
CONTINUOUS
 70
0
 71
3
 72
11
 73
7
 74
0
 42
0.0000001
 43
0.0000001
 44
0.0000000001
 40
0.0
 40
0.0
 40
0.0
 40
0.0
 40
0.2834920898
 40
0.5428343195
 40
0.7794324559
 40
1.0
 40
1.0
 40
1.0
 40
1.0
 10
246.877990191
 20
153.4797247701
 30
0.0
 10
247.4125608356
 20
153.7211051625
 30
0.0
 10
248.394218084
 20
154.2867652872
 30
0.0
 10
249.5944048844
 20
155.3835343541
 30
0.0
 10
250.4389415422
 20
156.6181035927
 30
0.0
 10
250.7722008633
 20
157.5155418468
 30
0.0
 10
250.8748612464
 20
157.9601957168
 30
0.0
  0
SPLINE
  5
339
100
AcDbEntity
  8
RUNDUNGEN
100
AcDbSpline
 62
7
  6
CONTINUOUS
 70
0
 71
3
 72
11
 73
7
 74
0
 42
0.0000001
 43
0.0000001
 44
0.0000000001
 40
0.0
 40
0.0
 40
0.0
 40
0.0
 40
0.283478091
 40
0.5428207732
 40
0.7794268841
 40
1.0
 40
1.0
 40
1.0
 40
1.0
 10
246.8779290139
 20
164.801556456
 30
0.0
 10
247.4122381305
 20
164.5602773904
 30
0.0
 10
248.3934801975
 20
163.9949518115
 30
0.0
 10
249.5933228457
 20
162.8988722067
 30
0.0
 10
250.4378739129
 20
161.6650729414
 30
0.0
 10
250.7713952674
 20
160.7681533967
 30
0.0
 10
250.8742447553
 20
160.3237319308
 30
0.0
  0
SPLINE
  5
33A
100
AcDbEntity
  8
RUNDUNGEN
100
AcDbSpline
 62
7
  6
CONTINUOUS
 70
0
 71
3
 72
11
 73
7
 74
0
 42
0.0000001
 43
0.0000001
 44
0.0000000001
 40
0.0
 40
0.0
 40
0.0
 40
0.0
 40
0.2382172084
 40
0.4838096836
 40
0.7389432411
 40
1.0
 40
1.0
 40
1.0
 40
1.0
 10
253.4807360973
 20
154.6406250228
 30
0.0
 10
253.5043627812
 20
154.6406250228
 30
0.0
 10
253.5528830537
 20
154.6515490711
 30
0.0
 10
253.6131980647
 20
154.696593464
 30
0.0
 10
253.652597759
 20
154.763101134
 30
0.0
 10
253.661846077
 20
154.8147330834
 30
0.0
 10
253.6618458284
 20
154.8406250228
 30
0.0
  0
SPLINE
  5
33B
100
AcDbEntity
  8
RUNDUNGEN
100
AcDbSpline
 62
7
  6
CONTINUOUS
 70
0
 71
3
 72
22
 73
18
 74
0
 42
0.0000001
 43
0.0000001
 44
0.0000000001
 40
0.0
 40
0.0
 40
0.0
 40
0.0
 40
0.0016757225
 40
0.0066494776
 40
0.0148124022
 40
0.0260556843
 40
0.0402616057
 40
0.0572558391
 40
0.098824222
 40
0.1492085902
 40
0.2070573348
 40
0.2711569731
 40
0.3403938265
 40
0.4911860194
 40
0.6540535044
 40
0.8250595815
 40
1.0
 40
1.0
 40
1.0
 40
1.0
 10
249.6091516444
 20
163.6406250166
 30
0.0
 10
249.6084638547
 20
163.6407676788
 30
0.0
 10
249.6131729288
 20
163.6371267424
 30
0.0
 10
249.6147020442
 20
163.6340944452
 30
0.0
 10
249.6231339833
 20
163.6257259841
 30
0.0
 10
249.6320092998
 20
163.6157146692
 30
0.0
 10
249.644253582
 20
163.602438076
 30
0.0
 10
249.6646429913
 20
163.5799160671
 30
0.0
 10
249.6952153028
 20
163.5458871016
 30
0.0
 10
249.7367168488
 20
163.4988030204
 30
0.0
 10
249.7839531838
 20
163.4441331371
 30
0.0
 10
249.8356451607
 20
163.3828929018
 30
0.0
 10
249.9112783554
 20
163.2908839807
 30
0.0
 10
250.0105862436
 20
163.1647620663
 30
0.0
 10
250.1312783182
 20
163.0012904971
 30
0.0
 10
250.2521913269
 20
162.8255428875
 30
0.0
 10
250.3301873151
 20
162.7032464755
 30
0.0
 10
250.3684788307
 20
162.6407062973
 30
0.0
  0
SPLINE
  5
33C
100
AcDbEntity
  8
RUNDUNGEN
100
AcDbSpline
 62
7
  6
CONTINUOUS
 70
0
 71
3
 72
14
 73
10
 74
0
 42
0.0000001
 43
0.0000001
 44
0.0000000001
 40
0.0
 40
0.0
 40
0.0
 40
0.0
 40
0.3440907063
 40
0.499769519
 40
0.6383330642
 40
0.757229183
 40
0.8556154245
 40
0.9348302549
 40
1.0
 40
1.0
 40
1.0
 40
1.0
 10
253.0507338038
 20
162.640625024
 30
0.0
 10
253.0507632569
 20
162.7733190388
 30
0.0
 10
253.0691433331
 20
162.9669531147
 30
0.0
 10
253.1309129037
 20
163.2056098824
 30
0.0
 10
253.1881732682
 20
163.354718799
 30
0.0
 10
253.253990033
 20
163.4756897911
 30
0.0
 10
253.3252286306
 20
163.5660436469
 30
0.0
 10
253.3998355551
 20
163.6246842011
 30
0.0
 10
253.4556042498
 20
163.6406205901
 30
0.0
 10
253.4807360974
 20
163.6406250228
 30
0.0
  0
SPLINE
  5
33D
100
AcDbEntity
  8
RUNDUNGEN
100
AcDbSpline
 62
7
  6
CONTINUOUS
 70
0
 71
3
 72
22
 73
18
 74
0
 42
0.0000001
 43
0.0000001
 44
0.0000000001
 40
0.0
 40
0.0
 40
0.0
 40
0.0
 40
0.1749388634
 40
0.3459400185
 40
0.5088058294
 40
0.6595983968
 40
0.7288374481
 40
0.7929404486
 40
0.8507908123
 40
0.9011759379
 40
0.9427449918
 40
0.9597396136
 40
0.9739459756
 40
0.9851891947
 40
0.9933515381
 40
0.9983246188
 40
1.0
 40
1.0
 40
1.0
 40
1.0
 10
250.3684785592
 20
155.6405433154
 30
0.0
 10
250.3301874204
 20
155.5780037051
 30
0.0
 10
250.2521931869
 20
155.4557094603
 30
0.0
 10
250.1312821287
 20
155.2799647682
 30
0.0
 10
250.010592278
 20
155.116494891
 30
0.0
 10
249.9112835668
 20
154.9903732187
 30
0.0
 10
249.8356487062
 20
154.898362511
 30
0.0
 10
249.7839549501
 20
154.837119885
 30
0.0
 10
249.7367177796
 20
154.7824475835
 30
0.0
 10
249.6952157232
 20
154.7353622805
 30
0.0
 10
249.6646425893
 20
154.7013330468
 30
0.0
 10
249.6442524612
 20
154.6788108676
 30
0.0
 10
249.6320077468
 20
154.6655342213
 30
0.0
 10
249.6231324756
 20
154.6555230039
 30
0.0
 10
249.6147010558
 20
154.6471549639
 30
0.0
 10
249.6131721811
 20
154.6441227954
 30
0.0
 10
249.6084639784
 20
154.6404824748
 30
0.0
 10
249.609151644
 20
154.6406250291
 30
0.0
  0
SPLINE
  5
33E
100
AcDbEntity
  8
RUNDUNGEN
100
AcDbSpline
 62
7
  6
CONTINUOUS
 70
0
 71
3
 72
13
 73
9
 74
0
 42
0.0000001
 43
0.0000001
 44
0.0000000001
 40
0.0
 40
0.0
 40
0.0
 40
0.0
 40
0.1103240791
 40
0.2221281202
 40
0.4553743727
 40
0.5799471462
 40
0.7119065763
 40
1.0
 40
1.0
 40
1.0
 40
1.0
 10
203.92132367
 20
166.6367454615
 30
0.0
 10
204.2689190142
 20
166.6301984638
 30
0.0
 10
204.9685420835
 20
166.6002563736
 30
0.0
 10
206.3986743975
 20
166.4782418732
 30
0.0
 10
207.8660136918
 20
166.2825868226
 30
0.0
 10
209.395040565
 20
166.0729157102
 30
0.0
 10
211.0973589125
 20
165.8543844612
 30
0.0
 10
212.4143885519
 20
165.7184592567
 30
0.0
 10
213.3188950031
 20
165.6406173961
 30
0.0
  0
SPLINE
  5
33F
100
AcDbEntity
  8
RUNDUNGEN
100
AcDbSpline
 62
7
  6
CONTINUOUS
 70
0
 71
3
 72
13
 73
9
 74
0
 42
0.0000001
 43
0.0000001
 44
0.0000000001
 40
0.0
 40
0.0
 40
0.0
 40
0.0
 40
0.1103245884
 40
0.2221275015
 40
0.4553739938
 40
0.5799468057
 40
0.7119063528
 40
1.0
 40
1.0
 40
1.0
 40
1.0
 10
203.9213304402
 20
151.6445038822
 30
0.0
 10
204.2689266867
 20
151.651052402
 30
0.0
 10
204.968546179
 20
151.6809981576
 30
0.0
 10
206.3986753899
 20
151.8030018138
 30
0.0
 10
207.8660085092
 20
151.9986633607
 30
0.0
 10
209.3950339613
 20
152.2083309546
 30
0.0
 10
211.0973492058
 20
152.4268722261
 30
0.0
 10
212.4143806735
 20
152.5627588158
 30
0.0
 10
213.3188832475
 20
152.6406333985
 30
0.0
  0
SPLINE
  5
340
100
AcDbEntity
  8
RUNDUNGEN
100
AcDbSpline
 62
7
  6
CONTINUOUS
 70
0
 71
3
 72
14
 73
10
 74
0
 42
0.0000001
 43
0.0000001
 44
0.0000000001
 40
0.0
 40
0.0
 40
0.0
 40
0.0
 40
0.0651700211
 40
0.1443851215
 40
0.2427718806
 40
0.3616689946
 40
0.5002317096
 40
0.6559136918
 40
1.0
 40
1.0
 40
1.0
 40
1.0
 10
253.4807360974
 20
154.6406250228
 30
0.0
 10
253.4556041463
 20
154.6406295623
 30
0.0
 10
253.3998353146
 20
154.6565660516
 30
0.0
 10
253.3252279209
 20
154.7152067124
 30
0.0
 10
253.2539895171
 20
154.8055617109
 30
0.0
 10
253.1881735237
 20
154.9265331158
 30
0.0
 10
253.1309080048
 20
155.0756416852
 30
0.0
 10
253.0691502643
 20
155.3143004916
 30
0.0
 10
253.0507581108
 20
155.5079327172
 30
0.0
 10
253.0507338038
 20
155.6406250217
 30
0.0
  0
SPLINE
  5
341
100
AcDbEntity
  8
RUNDUNGEN
100
AcDbSpline
 62
7
  6
CONTINUOUS
 70
0
 71
3
 72
13
 73
9
 74
0
 42
0.0000001
 43
0.0000001
 44
0.0000000001
 40
0.0
 40
0.0
 40
0.0
 40
0.0
 40
0.3344102564
 40
0.6191633742
 40
0.7368556663
 40
0.8379054377
 40
0.9242385471
 40
1.0
 40
1.0
 40
1.0
 40
1.0
 10
253.2214192366
 20
162.6406250228
 30
0.0
 10
253.2214334162
 20
162.7502140773
 30
0.0
 10
253.2474035285
 20
162.9539957717
 30
0.0
 10
253.3390243119
 20
163.1811552458
 30
0.0
 10
253.4356839253
 20
163.3157579791
 30
0.0
 10
253.5083663268
 20
163.3854434151
 30
0.0
 10
253.5836794297
 20
163.4294602201
 30
0.0
 10
253.6370181633
 20
163.4406186654
 30
0.0
 10
253.6618458282
 20
163.4406250228
 30
0.0
  0
SPLINE
  5
342
100
AcDbEntity
  8
RUNDUNGEN
100
AcDbSpline
 62
7
  6
CONTINUOUS
 70
0
 71
3
 72
13
 73
9
 74
0
 42
0.0000001
 43
0.0000001
 44
0.0000000001
 40
0.0
 40
0.0
 40
0.0
 40
0.0
 40
0.0757616023
 40
0.1620950264
 40
0.2631455623
 40
0.3808388083
 40
0.6655936116
 40
1.0
 40
1.0
 40
1.0
 40
1.0
 10
253.6618458282
 20
154.8406250228
 30
0.0
 10
253.6370181229
 20
154.840631563
 30
0.0
 10
253.5836793049
 20
154.8517898225
 30
0.0
 10
253.508365609
 20
154.8958065721
 30
0.0
 10
253.4356834443
 20
154.9654931691
 30
0.0
 10
253.3390231361
 20
155.1000967978
 30
0.0
 10
253.2474064506
 20
155.3272568314
 30
0.0
 10
253.2214303778
 20
155.5310372729
 30
0.0
 10
253.2214192366
 20
155.6406250228
 30
0.0
  0
SPLINE
  5
343
100
AcDbEntity
  8
RUNDUNGEN
100
AcDbSpline
 62
7
  6
CONTINUOUS
 70
0
 71
3
 72
15
 73
11
 74
0
 42
0.0000001
 43
0.0000001
 44
0.0000000001
 40
0.0
 40
0.0
 40
0.0
 40
0.0
 40
0.3687292272
 40
0.535877882
 40
0.6832168293
 40
0.805637672
 40
0.8991836975
 40
0.934579465
 40
0.9625125057
 40
1.0
 40
1.0
 40
1.0
 40
1.0
 10
213.3187848202
 20
152.6406230738
 30
0.0
 10
213.3187848721
 20
152.512971531
 30
0.0
 10
213.3129230074
 20
152.3273324677
 30
0.0
 10
213.2915735594
 20
152.091718153
 30
0.0
 10
213.2708647935
 20
151.9418132724
 30
0.0
 10
213.2456796616
 20
151.8184611415
 30
0.0
 10
213.2207764012
 20
151.7349335568
 30
0.0
 10
213.1973348621
 20
151.6854543952
 30
0.0
 10
213.1788135136
 20
151.6566465645
 30
0.0
 10
213.1581163185
 20
151.6406252778
 30
0.0
 10
213.1451384037
 20
151.6406250228
 30
0.0
  0
SPLINE
  5
344
100
AcDbEntity
  8
RUNDUNGEN
100
AcDbSpline
 62
7
  6
CONTINUOUS
 70
0
 71
3
 72
11
 73
7
 74
0
 42
0.0000001
 43
0.0000001
 44
0.0000000001
 40
0.0
 40
0.0
 40
0.0
 40
0.0
 40
0.2382155585
 40
0.4838076683
 40
0.7389421923
 40
1.0
 40
1.0
 40
1.0
 40
1.0
 10
253.4807360973
 20
163.6406250228
 30
0.0
 10
253.5043625775
 20
163.6406250228
 30
0.0
 10
253.5528825569
 20
163.6297009342
 30
0.0
 10
253.613197265
 20
163.584656561
 30
0.0
 10
253.6525970568
 20
163.5181489702
 30
0.0
 10
253.6618458282
 20
163.4665170223
 30
0.0
 10
253.6618458278
 20
163.4406250228
 30
0.0
  0
SPLINE
  5
345
100
AcDbEntity
  8
RUNDUNGEN
100
AcDbSpline
 62
7
  6
CONTINUOUS
 70
0
 71
3
 72
15
 73
11
 74
0
 42
0.0000001
 43
0.0000001
 44
0.0000000001
 40
0.0
 40
0.0
 40
0.0
 40
0.0
 40
0.0347591176
 40
0.0615856564
 40
0.0959647061
 40
0.1876929653
 40
0.3087129156
 40
0.4554720758
 40
0.6233821187
 40
1.0
 40
1.0
 40
1.0
 40
1.0
 10
247.1960195242
 20
165.6722938676
 30
0.0
 10
247.2055590216
 20
165.6669095164
 30
0.0
 10
247.2132808184
 20
165.6455238582
 30
0.0
 10
247.2139150591
 20
165.61601071
 30
0.0
 10
247.209092693
 20
165.5676097784
 30
0.0
 10
247.1903465974
 20
165.4919770351
 30
0.0
 10
247.1543296931
 20
165.3844311052
 30
0.0
 10
247.103197072
 20
165.2569548052
 30
0.0
 10
247.0137200313
 20
165.0582738273
 30
0.0
 10
246.9351816527
 20
164.9055332249
 30
0.0
 10
246.878198212
 20
164.8014180255
 30
0.0
  0
SPLINE
  5
346
100
AcDbEntity
  8
RUNDUNGEN
100
AcDbSpline
 62
7
  6
CONTINUOUS
 70
0
 71
3
 72
15
 73
11
 74
0
 42
0.0000001
 43
0.0000001
 44
0.0000000001
 40
0.0
 40
0.0
 40
0.0
 40
0.0
 40
0.0374873734
 40
0.0654202878
 40
0.1008159387
 40
0.1943618085
 40
0.316782618
 40
0.4641216406
 40
0.6312704436
 40
1.0
 40
1.0
 40
1.0
 40
1.0
 10
243.5099596986
 20
166.6406250228
 30
0.0
 10
243.5229376068
 20
166.6406250228
 30
0.0
 10
243.5436351024
 20
166.6246040565
 30
0.0
 10
243.5621566008
 20
166.5957963482
 30
0.0
 10
243.5855983749
 20
166.5463172866
 30
0.0
 10
243.6105018565
 20
166.462789617
 30
0.0
 10
243.6356872352
 20
166.3394372295
 30
0.0
 10
243.6563962145
 20
166.1895318928
 30
0.0
 10
243.6777459103
 20
165.9539167613
 30
0.0
 10
243.6836078831
 20
165.7682770275
 30
0.0
 10
243.6836078762
 20
165.6406250228
 30
0.0
  0
SPLINE
  5
347
100
AcDbEntity
  8
RUNDUNGEN
100
AcDbSpline
 62
7
  6
CONTINUOUS
 70
0
 71
3
 72
15
 73
11
 74
0
 42
0.0000001
 43
0.0000001
 44
0.0000000001
 40
0.0
 40
0.0
 40
0.0
 40
0.0
 40
0.0374872641
 40
0.0654201488
 40
0.1008157759
 40
0.1943616041
 40
0.3167823791
 40
0.4641213843
 40
0.6312702072
 40
1.0
 40
1.0
 40
1.0
 40
1.0
 10
213.1451472999
 20
166.6406250228
 30
0.0
 10
213.1581251318
 20
166.6406249909
 30
0.0
 10
213.1788224554
 20
166.6246040059
 30
0.0
 10
213.1973437886
 20
166.5957963889
 30
0.0
 10
213.2207853741
 20
166.5463174518
 30
0.0
 10
213.2456886475
 20
166.4627900322
 30
0.0
 10
213.2708738096
 20
166.3394380141
 30
0.0
 10
213.2915825959
 20
166.1895331168
 30
0.0
 10
213.3129320677
 20
165.9539185873
 30
0.0
 10
213.3187939201
 20
165.7682793137
 30
0.0
 10
213.3187938512
 20
165.6406276063
 30
0.0
  0
SPLINE
  5
348
100
AcDbEntity
  8
RUNDUNGEN
100
AcDbSpline
 62
7
  6
CONTINUOUS
 70
0
 71
3
 72
15
 73
11
 74
0
 42
0.0000001
 43
0.0000001
 44
0.0000000001
 40
0.0
 40
0.0
 40
0.0
 40
0.0
 40
0.3766182732
 40
0.5445285394
 40
0.6912878234
 40
0.8123077409
 40
0.9040357851
 40
0.938414671
 40
0.9652410325
 40
1.0
 40
1.0
 40
1.0
 40
1.0
 10
246.8781994116
 20
153.4798320205
 30
0.0
 10
246.9351837569
 20
153.3757159556
 30
0.0
 10
247.0137233137
 20
153.2229739916
 30
0.0
 10
247.1032015343
 20
153.0242911349
 30
0.0
 10
247.1543347324
 20
152.8968136201
 30
0.0
 10
247.1903518816
 20
152.7892667393
 30
0.0
 10
247.2090979743
 20
152.7136333852
 30
0.0
 10
247.213920064
 20
152.6652321638
 30
0.0
 10
247.2132856017
 20
152.6357188933
 30
0.0
 10
247.2055631796
 20
152.6143332685
 30
0.0
 10
247.1960234722
 20
152.6089491844
 30
0.0
  0
SPLINE
  5
349
100
AcDbEntity
  8
RUNDUNGEN
100
AcDbSpline
 62
7
  6
CONTINUOUS
 70
0
 71
3
 72
15
 73
11
 74
0
 42
0.0000001
 43
0.0000001
 44
0.0000000001
 40
0.0
 40
0.0
 40
0.0
 40
0.0
 40
0.368729549
 40
0.5358783506
 40
0.6832173739
 40
0.8056381844
 40
0.8991840562
 40
0.9345797081
 40
0.9625126237
 40
1.0
 40
1.0
 40
1.0
 40
1.0
 10
243.6836078762
 20
152.6406250228
 30
0.0
 10
243.6836078852
 20
152.5129730203
 30
0.0
 10
243.6777459148
 20
152.3273332886
 30
0.0
 10
243.6563962212
 20
152.0917181589
 30
0.0
 10
243.6356872426
 20
151.9418128214
 30
0.0
 10
243.6105018633
 20
151.8184604323
 30
0.0
 10
243.5855983808
 20
151.7349327611
 30
0.0
 10
243.5621566047
 20
151.6854536986
 30
0.0
 10
243.5436351043
 20
151.6566459893
 30
0.0
 10
243.5229376069
 20
151.6406250228
 30
0.0
 10
243.5099596976
 20
151.6406250228
 30
0.0
  0
SPLINE
  5
34A
100
AcDbEntity
  8
RUNDUNGEN
100
AcDbSpline
 62
7
  6
CONTINUOUS
 70
0
 71
3
 72
13
 73
9
 74
0
 42
0.0000001
 43
0.0000001
 44
0.0000000001
 40
0.0
 40
0.0
 40
0.0
 40
0.0
 40
0.2500967348
 40
0.5000307214
 40
0.6250530159
 40
0.7500563233
 40
0.875033287
 40
1.0
 40
1.0
 40
1.0
 40
1.0
 10
55.7500087466
 20
93.820774249
 30
0.0
 10
56.5570037916
 20
93.2113251575
 30
0.0
 10
58.1617172095
 20
91.9809842147
 30
0.0
 10
60.015346982
 20
90.2482327794
 30
0.0
 10
61.2894220348
 20
88.6740398335
 30
0.0
 10
62.1036455466
 20
87.3899567787
 30
0.0
 10
62.7338276626
 20
86.005264057
 30
0.0
 10
63.00107662
 20
85.0243534959
 30
0.0
 10
63.0888381325
 20
84.5267277001
 30
0.0
  0
SPLINE
  5
34B
100
AcDbEntity
  8
RUNDUNGEN
100
AcDbSpline
 62
7
  6
CONTINUOUS
 70
0
 71
3
 72
14
 73
10
 74
0
 42
0.0000001
 43
0.0000001
 44
0.0000000001
 40
0.0
 40
0.0
 40
0.0
 40
0.0
 40
0.250781648
 40
0.3758629961
 40
0.5007476078
 40
0.6255184284
 40
0.7502736371
 40
0.8750843605
 40
1.0
 40
1.0
 40
1.0
 40
1.0
 10
55.6969728593
 20
93.75055133
 30
0.0
 10
56.3687012396
 20
93.0584119445
 30
0.0
 10
57.3732466941
 20
92.0185426213
 30
0.0
 10
58.6614206821
 20
90.5864843452
 30
0.0
 10
59.5813945217
 20
89.4762834572
 30
0.0
 10
60.4305010948
 20
88.3116943563
 30
0.0
 10
61.1735131643
 20
87.0754515227
 30
0.0
 10
61.7645874375
 20
85.7576717801
 30
0.0
 10
62.0206194942
 20
84.8261072483
 30
0.0
 10
62.1040474933
 20
84.3529799969
 30
0.0
  0
LINE
  5
34C
100
AcDbEntity
  8
RUNDUNGEN
100
AcDbLine
 62
7
  6
CONTINUOUS
 10
55.7500093053
 20
92.6214046333
 11
55.6969728593
 21
93.75055133
  0
LINE
  5
34D
100
AcDbEntity
  8
RUNDUNGEN
100
AcDbLine
 62
7
  6
CONTINUOUS
 10
62.4669462203
 20
114.1618906949
 11
63.6131169301
 21
106.6615919244
  0
SPLINE
  5
34E
100
AcDbEntity
  8
RUNDUNGEN
100
AcDbSpline
 62
7
  6
CONTINUOUS
 70
0
 71
3
 72
16
 73
12
 74
0
 42
0.0000001
 43
0.0000001
 44
0.0000000001
 40
0.0
 40
0.0
 40
0.0
 40
0.0
 40
0.0422510338
 40
0.0715847584
 40
0.107859807
 40
0.2020208131
 40
0.323994018
 40
0.470134162
 40
0.63554909
 40
0.8145400774
 40
1.0
 40
1.0
 40
1.0
 40
1.0
 10
54.75
 20
92.8269679548
 30
0.0
 10
54.7500000001
 20
92.8121624141
 30
0.0
 10
54.7648782507
 20
92.7881796013
 30
0.0
 10
54.7945421543
 20
92.7653738503
 30
0.0
 10
54.843702835
 20
92.7378321286
 30
0.0
 10
54.9273603848
 20
92.7081390854
 30
0.0
 10
55.0508816938
 20
92.678337182
 30
0.0
 10
55.2009193923
 20
92.6537947489
 30
0.0
 10
55.3718986201
 20
92.6354344078
 30
0.0
 10
55.5572865529
 20
92.6241448147
 30
0.0
 10
55.6850114262
 20
92.6215877976
 30
0.0
 10
55.75
 20
92.6215878556
 30
0.0
  0
LINE
  5
34F
100
AcDbEntity
  8
RUNDUNGEN
100
AcDbLine
 62
7
  6
CONTINUOUS
 10
102.8976805907
 20
106.6619153018
 11
100.3519865643
 21
99.1619152903
  0
SPLINE
  5
350
100
AcDbEntity
  8
RUNDUNGEN
100
AcDbSpline
 62
7
  6
CONTINUOUS
 70
0
 71
3
 72
8
 73
4
 74
0
 42
0.0000001
 43
0.0000001
 44
0.0000000001
 40
0.0
 40
0.0
 40
0.0
 40
0.0
 40
1.0
 40
1.0
 40
1.0
 40
1.0
 10
72.2294326471
 20
46.7364718617
 30
0.0
 10
72.2639198177
 20
46.7364715611
 30
0.0
 10
72.2994586186
 20
46.726994132
 30
0.0
 10
72.3294347234
 20
46.7099413295
 30
0.0
  0
SPLINE
  5
351
100
AcDbEntity
  8
RUNDUNGEN
100
AcDbSpline
 62
7
  6
CONTINUOUS
 70
0
 71
3
 72
9
 73
5
 74
0
 42
0.0000001
 43
0.0000001
 44
0.0000000001
 40
0.0
 40
0.0
 40
0.0
 40
0.0
 40
0.5010865539
 40
1.0
 40
1.0
 40
1.0
 40
1.0
 10
72.3294347234
 20
46.7099413295
 30
0.0
 10
72.3592812165
 20
46.6929622606
 30
0.0
 10
72.4107678596
 20
46.6423831288
 30
0.0
 10
72.4294322116
 20
46.5726459278
 30
0.0
 10
72.429431608
 20
46.538456791
 30
0.0
  0
SPLINE
  5
352
100
AcDbEntity
  8
RUNDUNGEN
100
AcDbSpline
 62
7
  6
CONTINUOUS
 70
0
 71
3
 72
13
 73
9
 74
0
 42
0.0000001
 43
0.0000001
 44
0.0000000001
 40
0.0
 40
0.0
 40
0.0
 40
0.0
 40
0.2524765812
 40
0.5034283088
 40
0.6281184099
 40
0.7523361909
 40
0.8762291222
 40
1.0
 40
1.0
 40
1.0
 40
1.0
 10
102.8978383593
 20
106.6623801604
 30
0.0
 10
102.5302829649
 20
106.1511605159
 30
0.0
 10
101.7973108216
 20
105.131940426
 30
0.0
 10
100.9086556268
 20
103.8413845563
 30
0.0
 10
100.2476811391
 20
102.7841630986
 30
0.0
 10
99.7918875136
 20
101.9732313649
 30
0.0
 10
99.3947324469
 20
101.1341779161
 30
0.0
 10
99.1891514868
 20
100.5495631753
 30
0.0
 10
99.1092650296
 20
100.251415104
 30
0.0
  0
SPLINE
  5
353
100
AcDbEntity
  8
RUNDUNGEN
100
AcDbSpline
 62
7
  6
CONTINUOUS
 70
0
 71
3
 72
10
 73
6
 74
0
 42
0.0000001
 43
0.0000001
 44
0.0000000001
 40
0.0
 40
0.0
 40
0.0
 40
0.0
 40
0.5148170091
 40
0.7617234152
 40
1.0
 40
1.0
 40
1.0
 40
1.0
 10
72.229431608
 20
47.4814887304
 30
0.0
 10
72.279682003
 20
47.4814887304
 30
0.0
 10
72.3581933942
 20
47.4541750927
 30
0.0
 10
72.4183375101
 20
47.374514642
 30
0.0
 10
72.429431608
 20
47.3266017857
 30
0.0
 10
72.429431608
 20
47.3033440216
 30
0.0
  0
SPLINE
  5
354
100
AcDbEntity
  8
RUNDUNGEN
100
AcDbSpline
 62
7
  6
CONTINUOUS
 70
0
 71
3
 72
10
 73
6
 74
0
 42
0.0000001
 43
0.0000001
 44
0.0000000001
 40
0.0
 40
0.0
 40
0.0
 40
0.0
 40
0.5148169248
 40
0.7617231228
 40
1.0
 40
1.0
 40
1.0
 40
1.0
 10
81.629431608
 20
47.4814887304
 30
0.0
 10
81.5791811973
 20
47.4814888762
 30
0.0
 10
81.5006696973
 20
47.454175288
 30
0.0
 10
81.4405256321
 20
47.3745147236
 30
0.0
 10
81.429431608
 20
47.3266018253
 30
0.0
 10
81.429431608
 20
47.3033440216
 30
0.0
  0
SPLINE
  5
355
100
AcDbEntity
  8
RUNDUNGEN
100
AcDbSpline
 62
7
  6
CONTINUOUS
 70
0
 71
3
 72
8
 73
4
 74
0
 42
0.0000001
 43
0.0000001
 44
0.0000000001
 40
0.0
 40
0.0
 40
0.0
 40
0.0
 40
1.0
 40
1.0
 40
1.0
 40
1.0
 10
81.629431608
 20
46.7364706692
 30
0.0
 10
81.594945152
 20
46.736470659
 30
0.0
 10
81.5594070315
 20
46.7269938786
 30
0.0
 10
81.5294312835
 20
46.7099418941
 30
0.0
  0
SPLINE
  5
356
100
AcDbEntity
  8
RUNDUNGEN
100
AcDbSpline
 62
7
  6
CONTINUOUS
 70
0
 71
3
 72
9
 73
5
 74
0
 42
0.0000001
 43
0.0000001
 44
0.0000000001
 40
0.0
 40
0.0
 40
0.0
 40
0.0
 40
0.5010860958
 40
1.0
 40
1.0
 40
1.0
 40
1.0
 10
81.5294312835
 20
46.7099418941
 30
0.0
 10
81.4995839254
 20
46.6929629453
 30
0.0
 10
81.4480956311
 20
46.6423831088
 30
0.0
 10
81.4294308606
 20
46.5726443201
 30
0.0
 10
81.429431608
 20
46.5384544312
 30
0.0
  0
SPLINE
  5
357
100
AcDbEntity
  8
RUNDUNGEN
100
AcDbSpline
 62
7
  6
CONTINUOUS
 70
0
 71
3
 72
12
 73
8
 74
0
 42
0.0000001
 43
0.0000001
 44
0.0000000001
 40
0.0
 40
0.0
 40
0.0
 40
0.0
 40
0.1835208292
 40
0.2915382298
 40
0.4113418954
 40
0.6859385788
 40
1.0
 40
1.0
 40
1.0
 40
1.0
 10
81.4294316047
 20
47.3033964408
 30
0.0
 10
81.4294371066
 20
47.3865945988
 30
0.0
 10
81.3850194252
 20
47.518578234
 30
0.0
 10
81.2789912581
 20
47.6719103774
 30
0.0
 10
81.1194371497
 20
47.8361071503
 30
0.0
 10
80.8412397091
 20
48.0078877641
 30
0.0
 10
80.5719215265
 20
48.0627609412
 30
0.0
 10
80.4295435141
 20
48.062723356
 30
0.0
  0
SPLINE
  5
358
100
AcDbEntity
  8
RUNDUNGEN
100
AcDbSpline
 62
7
  6
CONTINUOUS
 70
0
 71
3
 72
18
 73
14
 74
0
 42
0.0000001
 43
0.0000001
 44
0.0000000001
 40
0.0
 40
0.0
 40
0.0
 40
0.0
 40
0.2194171106
 40
0.4163274546
 40
0.5882796467
 40
0.7329262748
 40
0.8481565603
 40
0.8940905048
 40
0.9319234944
 40
0.9615330916
 40
0.9828171544
 40
0.9956735159
 40
1.0
 40
1.0
 40
1.0
 40
1.0
 10
81.1571140746
 20
44.4926326772
 30
0.0
 10
81.1771563436
 20
44.5017631591
 30
0.0
 10
81.2151327317
 20
44.5192028217
 30
0.0
 10
81.2686539716
 20
44.5441472076
 30
0.0
 10
81.3152692539
 20
44.5661439587
 30
0.0
 10
81.3543894835
 20
44.5848041385
 30
0.0
 10
81.3820619794
 20
44.5981006332
 30
0.0
 10
81.4000229571
 20
44.6068214542
 30
0.0
 10
81.4103000999
 20
44.6117497407
 30
0.0
 10
81.418205711
 20
44.6157542216
 30
0.0
 10
81.4241883767
 20
44.6183191096
 30
0.0
 10
81.4272443063
 20
44.6204474711
 30
0.0
 10
81.4292205117
 20
44.6207616829
 30
0.0
 10
81.429431608
 20
44.6211411962
 30
0.0
  0
SPLINE
  5
359
100
AcDbEntity
  8
RUNDUNGEN
100
AcDbSpline
 62
7
  6
CONTINUOUS
 70
0
 71
3
 72
12
 73
8
 74
0
 42
0.0000001
 43
0.0000001
 44
0.0000000001
 40
0.0
 40
0.0
 40
0.0
 40
0.0
 40
0.314062826
 40
0.5886514069
 40
0.708456053
 40
0.8164753316
 40
1.0
 40
1.0
 40
1.0
 40
1.0
 10
73.4293200232
 20
48.0627233556
 30
0.0
 10
73.2869412701
 20
48.0627608081
 30
0.0
 10
73.0176248745
 20
48.0078905637
 30
0.0
 10
72.7394317264
 20
47.8361086771
 30
0.0
 10
72.5798760086
 20
47.6719166801
 30
0.0
 10
72.4738451453
 20
47.5185823982
 30
0.0
 10
72.4294261387
 20
47.3865961284
 30
0.0
 10
72.4294316113
 20
47.3033961693
 30
0.0
  0
SPLINE
  5
35A
100
AcDbEntity
  8
RUNDUNGEN
100
AcDbSpline
 62
7
  6
CONTINUOUS
 70
0
 71
3
 72
18
 73
14
 74
0
 42
0.0000001
 43
0.0000001
 44
0.0000000001
 40
0.0
 40
0.0
 40
0.0
 40
0.0
 40
0.0043317944
 40
0.0171920426
 40
0.0384786889
 40
0.0680896736
 40
0.1059229569
 40
0.1518577202
 40
0.2670950378
 40
0.4117491775
 40
0.5837020002
 40
0.7806031539
 40
1.0
 40
1.0
 40
1.0
 40
1.0
 10
72.429431608
 20
44.6211411962
 30
0.0
 10
72.4296456753
 20
44.6207620426
 30
0.0
 10
72.4316193723
 20
44.620442941
 30
0.0
 10
72.4346870406
 20
44.6183159347
 30
0.0
 10
72.44067579
 20
44.6157458228
 30
0.0
 10
72.4485949285
 20
44.611737846
 30
0.0
 10
72.4588864409
 20
44.6068030456
 30
0.0
 10
72.4768734913
 20
44.598069992
 30
0.0
 10
72.5045849367
 20
44.5847525042
 30
0.0
 10
72.5437601934
 20
44.566063795
 30
0.0
 10
72.5904404043
 20
44.5440366698
 30
0.0
 10
72.644034523
 20
44.5190607861
 30
0.0
 10
72.6820619746
 20
44.5015999295
 30
0.0
 10
72.7021307513
 20
44.4924585466
 30
0.0
  0
SPLINE
  5
35B
100
AcDbEntity
  8
RUNDUNGEN
100
AcDbSpline
 62
7
  6
CONTINUOUS
 70
0
 71
3
 72
12
 73
8
 74
0
 42
0.0000001
 43
0.0000001
 44
0.0000000001
 40
0.0
 40
0.0
 40
0.0
 40
0.0
 40
0.1682112096
 40
0.2733587104
 40
0.3935474723
 40
0.675968778
 40
1.0
 40
1.0
 40
1.0
 40
1.0
 10
81.629431608
 20
47.4814887302
 30
0.0
 10
81.6294613774
 20
47.5664488201
 30
0.0
 10
81.5691564155
 20
47.702560585
 30
0.0
 10
81.43810702
 20
47.851085177
 30
0.0
 10
81.2375632992
 20
48.0134700665
 30
0.0
 10
80.9012714698
 20
48.1732180138
 30
0.0
 10
80.5930932464
 20
48.2212049134
 30
0.0
 10
80.429431608
 20
48.2211552955
 30
0.0
  0
SPLINE
  5
35C
100
AcDbEntity
  8
RUNDUNGEN
100
AcDbSpline
 62
7
  6
CONTINUOUS
 70
0
 71
3
 72
16
 73
12
 74
0
 42
0.0000001
 43
0.0000001
 44
0.0000000001
 40
0.0
 40
0.0
 40
0.0
 40
0.0
 40
0.008411773
 40
0.0240927144
 40
0.0813518721
 40
0.1727601633
 40
0.2954579223
 40
0.4452019833
 40
0.6167037869
 40
0.8038526571
 40
1.0
 40
1.0
 40
1.0
 40
1.0
 10
54.75
 20
93.8207909731
 30
0.0
 10
54.7500000135
 20
93.8181123871
 30
0.0
 10
54.7563255569
 20
93.8117674909
 30
0.0
 10
54.7798998833
 20
93.802794953
 30
0.0
 10
54.8320139381
 20
93.7918771613
 30
0.0
 10
54.9173524535
 20
93.7812010307
 30
0.0
 10
55.0329819784
 20
93.771172837
 30
0.0
 10
55.1740467315
 20
93.7628112221
 30
0.0
 10
55.3358360289
 20
93.7563285139
 30
0.0
 10
55.5124497191
 20
93.7520523935
 30
0.0
 10
55.6345034254
 20
93.7508024714
 30
0.0
 10
55.6969627729
 20
93.7505692117
 30
0.0
  0
LINE
  5
35D
100
AcDbEntity
  8
RUNDUNGEN
100
AcDbLine
 62
7
  6
CONTINUOUS
 10
57.5014226111
 20
86.6619153069
 11
55.7500004971
 21
92.6214349277
  0
SPLINE
  5
35E
100
AcDbEntity
  8
RUNDUNGEN
100
AcDbSpline
 62
7
  6
CONTINUOUS
 70
0
 71
3
 72
12
 73
8
 74
0
 42
0.0000001
 43
0.0000001
 44
0.0000000001
 40
0.0
 40
0.0
 40
0.0
 40
0.0
 40
0.3240328377
 40
0.6064449464
 40
0.7266353304
 40
0.8317849719
 40
1.0
 40
1.0
 40
1.0
 40
1.0
 10
73.429431608
 20
48.2211552955
 30
0.0
 10
73.2657691113
 20
48.2212046777
 30
0.0
 10
72.9575933364
 20
48.1732216136
 30
0.0
 10
72.6213075156
 20
48.0134698642
 30
0.0
 10
72.4207618923
 20
47.8510919316
 30
0.0
 10
72.289708019
 20
47.702565782
 30
0.0
 10
72.2294019444
 20
47.5664507706
 30
0.0
 10
72.229431608
 20
47.4814887302
 30
0.0
  0
SPLINE
  5
35F
100
AcDbEntity
  8
RUNDUNGEN
100
AcDbSpline
 62
7
  6
CONTINUOUS
 70
0
 71
3
 72
9
 73
5
 74
0
 42
0.0000001
 43
0.0000001
 44
0.0000000001
 40
0.0
 40
0.0
 40
0.0
 40
0.0
 40
0.4005120097
 40
1.0
 40
1.0
 40
1.0
 40
1.0
 10
81.6019166595
 20
46.7095572011
 30
0.0
 10
81.607125293
 20
46.7102781948
 30
0.0
 10
81.6187387614
 20
46.7184210685
 30
0.0
 10
81.6256196962
 20
46.7295849212
 30
0.0
 10
81.6294359393
 20
46.7364684728
 30
0.0
  0
SPLINE
  5
360
100
AcDbEntity
  8
RUNDUNGEN
100
AcDbSpline
 62
7
  6
CONTINUOUS
 70
0
 71
3
 72
13
 73
9
 74
0
 42
0.0000001
 43
0.0000001
 44
0.0000000001
 40
0.0
 40
0.0
 40
0.0
 40
0.0
 40
0.0878597733
 40
0.1825701318
 40
0.2884780963
 40
0.4076954822
 40
0.6847865759
 40
1.0
 40
1.0
 40
1.0
 40
1.0
 10
85.7429894858
 20
50.367821337
 30
0.0
 10
85.7347498641
 20
50.3370728829
 30
0.0
 10
85.7060954178
 20
50.2758596549
 30
0.0
 10
85.6337283714
 20
50.1985730647
 30
0.0
 10
85.5346900438
 20
50.1364684615
 30
0.0
 10
85.3636308787
 20
50.071851928
 30
0.0
 10
85.1042765781
 20
50.040901249
 30
0.0
 10
84.8892960659
 20
50.061581171
 30
0.0
 10
84.7770683655
 20
50.0827564815
 30
0.0
  0
SPLINE
  5
361
100
AcDbEntity
  8
RUNDUNGEN
100
AcDbSpline
 62
7
  6
CONTINUOUS
 70
0
 71
3
 72
13
 73
9
 74
0
 42
0.0000001
 43
0.0000001
 44
0.0000000001
 40
0.0
 40
0.0
 40
0.0
 40
0.0
 40
0.2971973432
 40
0.5562439682
 40
0.674598059
 40
0.787091279
 40
0.8951183083
 40
1.0
 40
1.0
 40
1.0
 40
1.0
 10
69.0062671438
 20
50.4758467891
 30
0.0
 10
69.0846617844
 20
49.9630948927
 30
0.0
 10
69.3750389406
 20
49.0180794747
 30
0.0
 10
70.0498656333
 20
48.0310404122
 30
0.0
 10
70.6828320478
 20
47.4519472229
 30
0.0
 10
71.1759694388
 20
47.121200013
 30
0.0
 10
71.6920144787
 20
46.8790676262
 30
0.0
 10
72.0502847236
 20
46.7740728425
 30
0.0
 10
72.2294326472
 20
46.7364585749
 30
0.0
  0
SPLINE
  5
362
100
AcDbEntity
  8
RUNDUNGEN
100
AcDbSpline
 62
7
  6
CONTINUOUS
 70
0
 71
3
 72
9
 73
5
 74
0
 42
0.0000001
 43
0.0000001
 44
0.0000000001
 40
0.0
 40
0.0
 40
0.0
 40
0.0
 40
0.5995254991
 40
1.0
 40
1.0
 40
1.0
 40
1.0
 10
72.2294418541
 20
46.7364497007
 30
0.0
 10
72.2332583983
 20
46.7295664367
 30
0.0
 10
72.2401425588
 20
46.7184055741
 30
0.0
 10
72.2517535103
 20
46.7102636113
 30
0.0
 10
72.2569610318
 20
46.7095410901
 30
0.0
  0
SPLINE
  5
363
100
AcDbEntity
  8
RUNDUNGEN
100
AcDbSpline
 62
7
  6
CONTINUOUS
 70
0
 71
3
 72
13
 73
9
 74
0
 42
0.0000001
 43
0.0000001
 44
0.0000000001
 40
0.0
 40
0.0
 40
0.0
 40
0.0
 40
0.3222385666
 40
0.604514562
 40
0.7240364794
 40
0.8278365156
 40
0.91809438
 40
1.0
 40
1.0
 40
1.0
 40
1.0
 10
69.0062671437
 20
50.4758554758
 30
0.0
 10
68.8876629999
 20
50.4599948482
 30
0.0
 10
68.662208551
 20
50.4493270788
 30
0.0
 10
68.3933350707
 20
50.4903669514
 30
0.0
 10
68.2182866799
 20
50.5606185229
 30
0.0
 10
68.119961099
 20
50.6248723227
 30
0.0
 10
68.0508384949
 20
50.7025907791
 30
0.0
 10
68.026755217
 20
50.7637242128
 30
0.0
 10
68.0214728522
 20
50.793676788
 30
0.0
  0
LINE
  5
364
100
AcDbEntity
  8
RUNDUNGEN
100
AcDbLine
 62
7
  6
CONTINUOUS
 10
68.4429312372
 20
54.1621981929
 11
69.0062671438
 21
50.4758467891
  0
LINE
  5
365
100
AcDbEntity
  8
RUNDUNGEN
100
AcDbLine
 62
7
  6
CONTINUOUS
 10
85.7243844829
 20
54.1620955811
 11
84.7770683653
 21
50.0827504779
  0
SPLINE
  5
366
100
AcDbEntity
  8
RUNDUNGEN
100
AcDbSpline
 62
7
  6
CONTINUOUS
 70
0
 71
3
 72
13
 73
9
 74
0
 42
0.0000001
 43
0.0000001
 44
0.0000000001
 40
0.0
 40
0.0
 40
0.0
 40
0.0
 40
0.2933765665
 40
0.5515541035
 40
0.6704599078
 40
0.7840097693
 40
0.8934740077
 40
1.0
 40
1.0
 40
1.0
 40
1.0
 10
84.7770683653
 20
50.0827504779
 30
0.0
 10
84.6700203008
 20
49.6218734884
 30
0.0
 10
84.3484728522
 20
48.7774534795
 30
0.0
 10
83.6886188284
 20
47.9022214239
 30
0.0
 10
83.0861609562
 20
47.3856281403
 30
0.0
 10
82.6195626274
 20
47.0881504021
 30
0.0
 10
82.1337009165
 20
46.8685205542
 30
0.0
 10
81.7975668801
 20
46.7717776131
 30
0.0
 10
81.6294320674
 20
46.7364762229
 30
0.0
  0
SPLINE
  5
367
100
AcDbEntity
  8
RUNDUNGEN
100
AcDbSpline
 62
7
  6
CONTINUOUS
 70
0
 71
3
 72
12
 73
8
 74
0
 42
0.0000001
 43
0.0000001
 44
0.0000000001
 40
0.0
 40
0.0
 40
0.0
 40
0.0
 40
0.2502160441
 40
0.5003583074
 40
0.6254524339
 40
0.7505297855
 40
1.0
 40
1.0
 40
1.0
 40
1.0
 10
102.8975031667
 20
106.6619153014
 30
0.0
 10
102.4102585637
 20
106.2213029646
 30
0.0
 10
101.4359699197
 20
105.3402377966
 30
0.0
 10
100.2847825783
 20
104.1654423122
 30
0.0
 10
99.4602888215
 20
103.1407103328
 30
0.0
 10
98.7282731718
 20
102.0520883724
 30
0.0
 10
98.3128333967
 20
101.1428233212
 30
0.0
 10
98.1433224674
 20
100.5101751128
 30
0.0
  0
LINE
  5
368
100
AcDbEntity
  8
RUNDUNGEN
100
AcDbLine
 62
7
  6
CONTINUOUS
 10
96.6857730803
 20
106.6615958081
 11
98.4275097605
 21
114.161892986
  0
ELLIPSE
  5
369
100
AcDbEntity
  8
0
100
AcDbEllipse
 62
7
  6
CONTINUOUS
 10
87.5366716013
 20
159.1406250228
 30
0.0
 11
0.0
 21
3.195
 31
0.0
 40
0.2679491924
 41
0.0
 42
3.1415926536
  0
ELLIPSE
  5
36A
100
AcDbEntity
  8
0
100
AcDbEllipse
 62
7
  6
CONTINUOUS
 10
92.1453977111
 20
159.1406250228
 30
0.0
 11
-0.0
 21
3.195
 31
0.0
 40
0.2679491924
 41
-3.1415926536
 42
0.0
  0
ELLIPSE
  5
36B
100
AcDbEntity
  8
0
100
AcDbEllipse
 62
7
  6
CONTINUOUS
 10
63.8833753324
 20
159.1406250228
 30
0.0
 11
-0.0
 21
3.195
 31
0.0
 40
0.1763269807
 41
0.0
 42
3.1415926536
  0
ENDSEC
  0
SECTION
  2
OBJECTS
  0
DICTIONARY
  5
C
100
AcDbDictionary
280
0
281
1
  3
ACAD_GROUP
350
D
  3
ACAD_MLINESTYLE
350
17
  3
ACAD_LAYOUT
350
1A
  3
ACAD_PLOTSETTINGS
350
19
  3
ACAD_PLOTSTYLENAME
350
E
  0
DICTIONARY
  5
D
102
{ACAD_REACTORS
330
C
102
}
100
AcDbDictionary
280
0
281
1
  0
ACDBDICTIONARYWDFLT
  5
E
102
{ACAD_REACTORS
330
C
102
}
100
AcDbDictionary
281
1
  3
Normal
350
F
100
AcDbDictionaryWithDefault
340
F
  0
DICTIONARY
  5
17
102
{ACAD_REACTORS
330
C
102
}
100
AcDbDictionary
280
0
281
1
  3
Standard
350
18
  0
DICTIONARY
  5
19
102
{ACAD_REACTORS
330
C
102
}
100
AcDbDictionary
281
1
  0
DICTIONARY
  5
1A
102
{ACAD_REACTORS
330
C
102
}
100
AcDbDictionary
281
1
  3
Model
350
36C
  3
Layout1
350
36D
  0
ACDBPLACEHOLDER
  5
F
102
{ACAD_REACTORS
330
E
102
}
  0
MLINESTYLE
  5
18
102
{ACAD_REACTORS
330
17
102
}
100
AcDbMlineStyle
  2
STANDARD
 70
0
  3

 62
256
 51
90.0
 52
90.0
 71
2
 49
0.5
 62
256
  6
BYLAYER
 49
-0.5
 62
256
  6
BYLAYER
  0
LAYOUT
  5
36C
102
{ACAD_REACTORS
330
1A
102
}
100
AcDbPlotSettings
  1

  2
none_device
  4
ISO_A4_(297.00_x_210.00_MM)
  6

 40
0.0
 41
0.0
 42
0.0
 43
0.0
 44
297.0
 45
210.0
 46
0.0
 47
0.0
 48
0.0
 49
0.0
140
0.0
141
0.0
142
1.0
143
1.0
 70
1024
 72
1
 73
0
 74
0
  7

 75
0
147
1.0
148
0.0
149
0.0
100
AcDbLayout
  1
Model
 70
0
 71
0
 10
0.0
 20
0.0
 11
297.0
 21
210.0
 12
0.0
 22
0.0
 32
0.0
 14
0.0
 24
0.0
 34
0.0
 15
0.0
 25
0.0
 35
0.0
146
0.0
 13
0.0
 23
0.0
 33
0.0
 16
1.0
 26
0.0
 36
0.0
 17
0.0
 27
1.0
 37
0.0
 76
0
330
212
345
0
346
0
  0
LAYOUT
  5
36D
102
{ACAD_REACTORS
330
1A
102
}
100
AcDbPlotSettings
  1

  2
none_device
  4
ISO_A4_(297.00_x_210.00_MM)
  6

 40
0.0
 41
0.0
 42
0.0
 43
0.0
 44
297.0
 45
210.0
 46
0.0
 47
0.0
 48
0.0
 49
0.0
140
0.0
141
0.0
142
1.0
143
1.0
 70
0
 72
1
 73
0
 74
0
  7

 75
0
147
1.0
148
0.0
149
0.0
100
AcDbLayout
  1
Layout1
 70
0
 71
1
 10
0.0
 20
0.0
 11
297.0
 21
210.0
 12
0.0
 22
0.0
 32
0.0
 14
0.0
 24
0.0
 34
0.0
 15
0.0
 25
0.0
 35
0.0
146
0.0
 13
0.0
 23
0.0
 33
0.0
 16
1.0
 26
0.0
 36
0.0
 17
0.0
 27
1.0
 37
0.0
 76
0
330
213
345
0
346
0
  0
ENDSEC
  0
EOF
