999
DXF file: S:\Prolink\03_Konstruktion\CAD-Plots\Internet\2D_neu\S9\s9-57_grt_smr_f2_w50.dxf
999
Pro/ENGINEER 2012230 by Parametric Technology Corporation
  0
SECTION
  2
HEADER
  9
$ACADVER
  1
AC1021
  9
$DWGCODEPAGE
  3
ANSI_1252
  9
$EXTMAX
 10
297.0
 20
210.0
 30
0.0
  9
$EXTMIN
 10
0.0
 20
0.0
 30
0.0
  9
$LIMMIN
 10
0.0
 20
0.0
  9
$LIMMAX
 10
297.0
 20
210.0
  9
$VIEWCTR
 10
148.5
 20
105.0
  9
$VIEWSIZE
 40
210.0
  9
$CLAYER
  8
0
  9
$LTSCALE
 40
16.335
  9
$CELTYPE
  6
BYLAYER
  9
$DIMSCALE
 40
1.0
  9
$DIMASZ
 40
3.5
  9
$DIMEXO
 40
0.0
  9
$DIMDLI
 40
11.286
  9
$DIMEXE
 40
1.5
  9
$DIMCEN
 40
2.673
  9
$DIMLFAC
 40
1.0
  9
$DIMBLK
  1
_FILLED
  9
$DIMTXT
 40
3.5
  9
$DIMTOL
 70
1
  9
$DIMLIM
 70
0
  9
$DIMTFAC
 40
1.0
  9
$DIMTP
 40
0.005
  9
$DIMTM
 40
0.005
  9
$DIMGAP
 40
0.625
  9
$DIMDSEP
 70
46
  9
$PDMODE
 70
3
  9
$PDSIZE
 40
0.3125
  9
$HANDSEED
  5
372
  9
$TILEMODE
 70
1
  9
$MEASUREMENT
 70
1
  9
$INSUNITS
 70
4
  0
ENDSEC
  0
SECTION
  2
CLASSES
  0
CLASS
  1
ACDBDICTIONARYWDFLT
  2
AcDbDictionaryWithDefault
  3
AutoCAD 2000
 90
0
 91
1
280
0
281
0
  0
CLASS
  1
ACDBPLACEHOLDER
  2
AcDbPlaceHolder
  3
AutoCAD 2000
 90
0
 91
1
280
0
281
0
  0
CLASS
  1
LAYOUT
  2
AcDbLayout
  3
AutoCAD 2000
 90
0
 91
0
280
0
281
0
  0
ENDSEC
  0
SECTION
  2
TABLES
  0
TABLE
  2
VPORT
  5
8
100
AcDbSymbolTable
 70
2
  0
VPORT
  5
1F4
100
AcDbSymbolTableRecord
100
AcDbViewportTableRecord
  2
*ACTIVE
 70
0
 10
0.0
 20
0.0
 11
1.0
 21
1.0
 12
148.5
 22
105.0
 13
0.0
 23
0.0
 14
1.0
 24
1.0
 15
0.0
 25
0.0
 16
0.0
 26
0.0
 36
1.0
 17
0.0
 27
0.0
 37
0.0
 40
210.0
 41
1.4142857143
 42
50.0
 43
0.0
 44
0.0
 50
0.0
 51
0.0
 71
0
 72
100
 73
1
 74
1
 75
0
 76
0
 77
0
 78
0
  0
ENDTAB
  0
TABLE
  2
LTYPE
  5
5
100
AcDbSymbolTable
 70
6
  0
LTYPE
  5
14
100
AcDbSymbolTableRecord
100
AcDbLinetypeTableRecord
  2
BYBLOCK
 70
0
  3

 72
65
 73
0
 40
0.0
  0
LTYPE
  5
15
100
AcDbSymbolTableRecord
100
AcDbLinetypeTableRecord
  2
BYLAYER
 70
0
  3

 72
65
 73
0
 40
0.0
  0
LTYPE
  5
16
100
AcDbSymbolTableRecord
100
AcDbLinetypeTableRecord
  2
CONTINUOUS
 70
64
  3
Solid line
 72
65
 73
0
 40
0.0
  0
LTYPE
  5
1F5
100
AcDbSymbolTableRecord
100
AcDbLinetypeTableRecord
  2
CENTER
 70
64
  3
____ _ ____ _ ____ _ ____ _ ____ _ ____ _ ____
 72
65
 73
4
 40
0.6
 49
0.375
 74
0
 49
-0.075
 74
0
 49
0.075
 74
0
 49
-0.075
 74
0
  0
LTYPE
  5
1F6
100
AcDbSymbolTableRecord
100
AcDbLinetypeTableRecord
  2
HIDDEN
 70
64
  3
- - - - - - - - - - - - - - - - - - - -
 72
65
 73
2
 40
0.2
 49
0.1
 74
0
 49
-0.1
 74
0
  0
LTYPE
  5
1F7
100
AcDbSymbolTableRecord
100
AcDbLinetypeTableRecord
  2
PHANTOM
 70
64
  3
_____ _ _ _____ _ _ _____ _ _ _____
 72
65
 73
6
 40
0.8
 49
0.45
 74
0
 49
-0.05
 74
0
 49
0.1
 74
0
 49
-0.05
 74
0
 49
0.1
 74
0
 49
-0.05
 74
0
  0
LTYPE
  5
1F8
100
AcDbSymbolTableRecord
100
AcDbLinetypeTableRecord
  2
DOT
 70
64
  3
. . . . . . . . . . . . . . . . . . . .
 72
65
 73
2
 40
0.2
 49
0.1
 74
0
 49
-0.1
 74
0
  0
LTYPE
  5
1F9
100
AcDbSymbolTableRecord
100
AcDbLinetypeTableRecord
  2
DASHED
 70
64
  3
- - - - - - - - - - - - - - - - - - - -
 72
65
 73
2
 40
0.2
 49
0.1
 74
0
 49
-0.1
 74
0
  0
ENDTAB
  0
TABLE
  2
LAYER
  5
2
100
AcDbSymbolTable
 70
36
  0
LAYER
  5
10
100
AcDbSymbolTableRecord
100
AcDbLayerTableRecord
  2
0
 70
0
 62
7
  6
CONTINUOUS
370
-3
390
F
  0
LAYER
  5
1FA
100
AcDbSymbolTableRecord
100
AcDbLayerTableRecord
  2
DEFAULT_1
 70
0
 62
7
  6
CENTER
370
-3
390
F
  0
LAYER
  5
1FB
100
AcDbSymbolTableRecord
100
AcDbLayerTableRecord
  2
DEFAULT_2
 70
0
 62
8
  6
HIDDEN
370
-3
390
F
  0
LAYER
  5
1FC
100
AcDbSymbolTableRecord
100
AcDbLayerTableRecord
  2
DEFAULT_3
 70
0
 62
7
  6
PHANTOM
370
-3
390
F
  0
LAYER
  5
1FD
100
AcDbSymbolTableRecord
100
AcDbLayerTableRecord
  2
01___PRT_ALL_DTM_PLN
 70
0
 62
7
  6
CONTINUOUS
370
-3
390
F
  0
LAYER
  5
1FE
100
AcDbSymbolTableRecord
100
AcDbLayerTableRecord
  2
01___PRT_DEF_DTM_PLN
 70
0
 62
7
  6
CONTINUOUS
370
-3
390
F
  0
LAYER
  5
1FF
100
AcDbSymbolTableRecord
100
AcDbLayerTableRecord
  2
02___PRT_ALL_AXES
 70
0
 62
7
  6
CONTINUOUS
370
-3
390
F
  0
LAYER
  5
200
100
AcDbSymbolTableRecord
100
AcDbLayerTableRecord
  2
03___PRT_ALL_CURVES
 70
0
 62
7
  6
CONTINUOUS
370
-3
390
F
  0
LAYER
  5
201
100
AcDbSymbolTableRecord
100
AcDbLayerTableRecord
  2
04___PRT_ALL_DTM_PNT
 70
0
 62
7
  6
CONTINUOUS
370
-3
390
F
  0
LAYER
  5
202
100
AcDbSymbolTableRecord
100
AcDbLayerTableRecord
  2
05___PRT_ALL_DTM_CSYS
 70
0
 62
7
  6
CONTINUOUS
370
-3
390
F
  0
LAYER
  5
203
100
AcDbSymbolTableRecord
100
AcDbLayerTableRecord
  2
05___PRT_DEF_DTM_CSYS
 70
0
 62
7
  6
CONTINUOUS
370
-3
390
F
  0
LAYER
  5
204
100
AcDbSymbolTableRecord
100
AcDbLayerTableRecord
  2
06___PRT_ALL_SURFS
 70
0
 62
7
  6
CONTINUOUS
370
-3
390
F
  0
LAYER
  5
205
100
AcDbSymbolTableRecord
100
AcDbLayerTableRecord
  2
ALLE
 70
0
 62
7
  6
CONTINUOUS
370
-3
390
F
  0
LAYER
  5
206
100
AcDbSymbolTableRecord
100
AcDbLayerTableRecord
  2
AUSFORMSCHRAEGEN
 70
0
 62
7
  6
CONTINUOUS
370
-3
390
F
  0
LAYER
  5
207
100
AcDbSymbolTableRecord
100
AcDbLayerTableRecord
  2
BEZUGSACHSEN
 70
0
 62
7
  6
CONTINUOUS
370
-3
390
F
  0
LAYER
  5
208
100
AcDbSymbolTableRecord
100
AcDbLayerTableRecord
  2
BEZUGSEBENE
 70
0
 62
7
  6
CONTINUOUS
370
-3
390
F
  0
LAYER
  5
209
100
AcDbSymbolTableRecord
100
AcDbLayerTableRecord
  2
BEZUGSEBENEN
 70
0
 62
7
  6
CONTINUOUS
370
-3
390
F
  0
LAYER
  5
20A
100
AcDbSymbolTableRecord
100
AcDbLayerTableRecord
  2
BEZUGSEBENEN-KES
 70
0
 62
7
  6
CONTINUOUS
370
-3
390
F
  0
LAYER
  5
20B
100
AcDbSymbolTableRecord
100
AcDbLayerTableRecord
  2
FLAECHEN
 70
0
 62
7
  6
CONTINUOUS
370
-3
390
F
  0
LAYER
  5
20C
100
AcDbSymbolTableRecord
100
AcDbLayerTableRecord
  2
KURVEN
 70
0
 62
7
  6
CONTINUOUS
370
-3
390
F
  0
LAYER
  5
20D
100
AcDbSymbolTableRecord
100
AcDbLayerTableRecord
  2
PARAMETER-BEMAßUNGEN
 70
0
 62
7
  6
CONTINUOUS
370
-3
390
F
  0
LAYER
  5
20E
100
AcDbSymbolTableRecord
100
AcDbLayerTableRecord
  2
RUNDUNGEN
 70
0
 62
7
  6
CONTINUOUS
370
-3
390
F
  0
LAYER
  5
20F
100
AcDbSymbolTableRecord
100
AcDbLayerTableRecord
  2
SAMMELFLÄCHEN
 70
0
 62
7
  6
CONTINUOUS
370
-3
390
F
  0
ENDTAB
  0
TABLE
  2
STYLE
  5
3
100
AcDbSymbolTable
 70
1
  0
STYLE
  5
11
100
AcDbSymbolTableRecord
100
AcDbTextStyleTableRecord
  2
STANDARD
 70
0
 40
0.0
 41
0.7
 50
0.0
 71
0
 42
0.2
  3
txt
  4

  0
STYLE
  5
210
100
AcDbSymbolTableRecord
100
AcDbTextStyleTableRecord
  2
TEXTSTYLE_1
 70
0
 40
0.0
 41
0.8
 50
0.0
 71
0
 42
0.2
  3
gdt
  4

  0
ENDTAB
  0
TABLE
  2
VIEW
  5
6
100
AcDbSymbolTable
 70
0
  0
ENDTAB
  0
TABLE
  2
UCS
  5
7
100
AcDbSymbolTable
 70
0
  0
ENDTAB
  0
TABLE
  2
APPID
  5
9
100
AcDbSymbolTable
 70
1
  0
APPID
  5
211
100
AcDbSymbolTableRecord
100
AcDbRegAppTableRecord
  2
ACAD
 70
0
  0
ENDTAB
  0
TABLE
  2
BLOCK_RECORD
  5
1
100
AcDbSymbolTable
 70
0
  0
BLOCK_RECORD
  5
212
100
AcDbSymbolTableRecord
100
AcDbBlockTableRecord
  2
*Model_Space
  0
BLOCK_RECORD
  5
213
100
AcDbSymbolTableRecord
100
AcDbBlockTableRecord
  2
*Paper_Space
  0
ENDTAB
  0
TABLE
  2
DIMSTYLE
  5
A
100
AcDbSymbolTable
 70
1
100
AcDbDimStyleTable
 71
0
  0
DIMSTYLE
105
214
100
AcDbSymbolTableRecord
100
AcDbDimStyleTableRecord
  2
STANDARD
 70
0
  3

  4

 40
1.0
 41
3.5
 42
0.0
 43
0.38
 44
1.5
 45
0.0
 46
0.0
 47
0.005
 48
0.005
140
3.5
141
0.09
142
0.0
143
25.4
144
1.0
145
0.0
146
1.0
147
0.625
 71
1.0
 72
0.0
 73
0
 74
0
 75
0
 76
0
 77
1
 78
8
170
0
171
2
172
0
173
0
174
0
175
0
176
0
177
0
178
5
270
2
271
3
272
3
273
2
274
2
275
0
280
0
281
0
282
0
283
1
284
8
285
0
286
0
287
3
288
0
340
11
278
46
  0
ENDTAB
  0
ENDSEC
  0
SECTION
  2
BLOCKS
  0
BLOCK
  5
20
100
AcDbEntity
  8
0
100
AcDbBlockBegin
  2
*Model_Space
 70
0
 10
0.0
 20
0.0
 30
0.0
  3
*Model_Space
  1

  0
ENDBLK
  5
21
100
AcDbEntity
  8
0
100
AcDbBlockEnd
  0
BLOCK
  5
1C
100
AcDbEntity
  8
0
100
AcDbBlockBegin
  2
*Paper_Space
 70
0
 10
0.0
 20
0.0
 30
0.0
  3
*Paper_Space
  1

  0
ENDBLK
  5
1D
100
AcDbEntity
  8
0
100
AcDbBlockEnd
  0
ENDSEC
  0
SECTION
  2
ENTITIES
  0
LINE
  5
215
100
AcDbEntity
  8
0
100
AcDbLine
 62
7
  6
CONTINUOUS
 10
0.0
 20
0.0
 11
0.0
 21
210.0
  0
LINE
  5
216
100
AcDbEntity
  8
0
100
AcDbLine
 62
7
  6
CONTINUOUS
 10
0.0
 20
0.0
 11
297.0
 21
0.0
  0
LINE
  5
217
100
AcDbEntity
  8
0
100
AcDbLine
 62
7
  6
CONTINUOUS
 10
0.0
 20
210.0
 11
297.0
 21
210.0
  0
LINE
  5
218
100
AcDbEntity
  8
0
100
AcDbLine
 62
7
  6
CONTINUOUS
 10
297.0
 20
0.0
 11
297.0
 21
210.0
  0
LINE
  5
219
100
AcDbEntity
  8
RUNDUNGEN
100
AcDbLine
 62
7
  6
CONTINUOUS
 10
54.75
 20
152.6406250228
 11
54.75
 21
165.6406250228
  0
LINE
  5
21A
100
AcDbEntity
  8
RUNDUNGEN
100
AcDbLine
 62
7
  6
CONTINUOUS
 10
55.7499998889
 20
151.8004926203
 11
55.7500004971
 21
166.4807149554
  0
LINE
  5
21B
100
AcDbEntity
  8
RUNDUNGEN
100
AcDbLine
 62
7
  6
CONTINUOUS
 10
67.8625090734
 20
159.3173010365
 11
67.8630712849
 21
159.1411257032
  0
LINE
  5
21C
100
AcDbEntity
  8
RUNDUNGEN
100
AcDbLine
 62
7
  6
CONTINUOUS
 10
68.0214115054
 20
164.8015420321
 11
68.0214222925
 21
153.4797359499
  0
LINE
  5
21D
100
AcDbEntity
  8
RUNDUNGEN
100
AcDbLine
 62
7
  6
CONTINUOUS
 10
67.8630712855
 20
159.1411257029
 11
67.8626041081
 21
158.9795281412
  0
LWPOLYLINE
  5
21E
100
AcDbEntity
  8
RUNDUNGEN
100
AcDbPolyline
 62
7
  6
CONTINUOUS
 90
11
 70
0
 10
67.8626041081
 20
158.9795281412
 10
67.8584486344
 20
158.6364947907
 10
67.8501135642
 20
158.3003175294
 10
67.8378596057
 20
157.9730559731
 10
67.8219218904
 20
157.6565490293
 10
67.8025537952
 20
157.3525358937
 10
67.7801061513
 20
157.0625485216
 10
67.7549171826
 20
156.788140091
 10
67.7273437618
 20
156.5306120775
 10
67.6978524664
 20
156.2912675979
 10
67.6669056212
 20
156.0711862424
  0
LINE
  5
21F
100
AcDbEntity
  8
RUNDUNGEN
100
AcDbLine
 62
7
  6
CONTINUOUS
 10
67.6669056212
 20
156.0711862424
 11
67.6473290495
 21
155.9456250228
  0
LINE
  5
220
100
AcDbEntity
  8
RUNDUNGEN
100
AcDbLine
 62
7
  6
CONTINUOUS
 10
67.6473279529
 20
162.3356250228
 11
67.6658489747
 21
162.217090244
  0
LWPOLYLINE
  5
221
100
AcDbEntity
  8
RUNDUNGEN
100
AcDbPolyline
 62
7
  6
CONTINUOUS
 90
11
 70
0
 10
67.6658489747
 20
162.217090244
 10
67.6968140049
 20
161.9978498963
 10
67.7263377277
 20
161.7593512581
 10
67.7539636655
 20
161.5026718137
 10
67.7792229005
 20
161.2291224816
 10
67.8017541597
 20
160.9400011495
 10
67.8212253911
 20
160.6368526012
 10
67.8372855014
 20
160.3212099987
 10
67.8496772569
 20
159.9948124644
 10
67.8581721367
 20
159.6594911911
 10
67.8625090734
 20
159.3173010365
  0
LINE
  5
222
100
AcDbEntity
  8
RUNDUNGEN
100
AcDbLine
 62
7
  6
CONTINUOUS
 10
72.229431608
 20
162.5497159319
 11
72.2294326472
 21
160.1954207584
  0
LINE
  5
223
100
AcDbEntity
  8
RUNDUNGEN
100
AcDbLine
 62
7
  6
CONTINUOUS
 10
72.229432715
 20
158.0858249826
 11
72.229431608
 21
155.7315341137
  0
LINE
  5
224
100
AcDbEntity
  8
RUNDUNGEN
100
AcDbLine
 62
7
  6
CONTINUOUS
 10
72.256972262
 20
159.8435271512
 11
72.2569725842
 21
158.4377386566
  0
LINE
  5
225
100
AcDbEntity
  8
RUNDUNGEN
100
AcDbLine
 62
7
  6
CONTINUOUS
 10
72.429431608
 20
155.6406250228
 11
72.429431608
 21
162.6406250228
  0
LINE
  5
226
100
AcDbEntity
  8
RUNDUNGEN
100
AcDbLine
 62
7
  6
CONTINUOUS
 10
72.5147649413
 20
155.6406250228
 11
72.5147649413
 21
162.6406250228
  0
LINE
  5
227
100
AcDbEntity
  8
0
100
AcDbLine
 62
7
  6
CONTINUOUS
 10
103.75
 20
151.6406250228
 11
102.8975039373
 21
151.6406250228
  0
LINE
  5
228
100
AcDbEntity
  8
0
100
AcDbLine
 62
7
  6
CONTINUOUS
 10
55.75
 20
151.6406250228
 11
57.45
 21
151.6406250228
  0
LINE
  5
229
100
AcDbEntity
  8
0
100
AcDbLine
 62
7
  6
CONTINUOUS
 10
68.4429742566
 20
151.6406250228
 11
85.7243427628
 21
151.6406250228
  0
LINE
  5
22A
100
AcDbEntity
  8
RUNDUNGEN
100
AcDbLine
 62
7
  6
CONTINUOUS
 10
55.7500061358
 20
151.6406250228
 11
102.8975039373
 21
151.6406250228
  0
LINE
  5
22B
100
AcDbEntity
  8
RUNDUNGEN
100
AcDbLine
 62
7
  6
CONTINUOUS
 10
73.429431608
 20
163.7185471008
 11
73.429431608
 21
163.6406250228
  0
LINE
  5
22C
100
AcDbEntity
  8
RUNDUNGEN
100
AcDbLine
 62
7
  6
CONTINUOUS
 10
73.429431608
 20
154.5627029449
 11
73.429431608
 21
154.6406250228
  0
LINE
  5
22D
100
AcDbEntity
  8
RUNDUNGEN
100
AcDbLine
 62
7
  6
CONTINUOUS
 10
86.6902685891
 20
152.6406250228
 11
99.1092499401
 21
152.640624121
  0
LINE
  5
22E
100
AcDbEntity
  8
RUNDUNGEN
100
AcDbLine
 62
7
  6
CONTINUOUS
 10
62.1040449409
 20
152.6406230738
 11
67.4581665036
 21
152.6406250228
  0
LINE
  5
22F
100
AcDbEntity
  8
RUNDUNGEN
100
AcDbLine
 62
7
  6
CONTINUOUS
 10
73.429431608
 20
154.5627029449
 11
80.429431608
 21
154.5627029449
  0
LINE
  5
230
100
AcDbEntity
  8
RUNDUNGEN
100
AcDbLine
 62
7
  6
CONTINUOUS
 10
80.429431608
 20
154.6406250228
 11
73.429431608
 21
154.6406250228
  0
LINE
  5
231
100
AcDbEntity
  8
RUNDUNGEN
100
AcDbLine
 62
7
  6
CONTINUOUS
 10
80.5227649413
 20
154.8406250228
 11
73.3360982747
 21
154.8406250228
  0
LINE
  5
232
100
AcDbEntity
  8
RUNDUNGEN
100
AcDbLine
 62
7
  6
CONTINUOUS
 10
81.429431608
 20
155.6406250228
 11
81.3440982768
 21
155.640625023
  0
LINE
  5
233
100
AcDbEntity
  8
RUNDUNGEN
100
AcDbLine
 62
7
  6
CONTINUOUS
 10
72.429431608
 20
155.6406250228
 11
72.5147649413
 21
155.6406250228
  0
LINE
  5
234
100
AcDbEntity
  8
RUNDUNGEN
100
AcDbLine
 62
7
  6
CONTINUOUS
 10
67.6997459916
 20
155.9456250228
 11
63.8833753324
 21
155.9456250228
  0
LINE
  5
235
100
AcDbEntity
  8
0
100
AcDbLine
 62
7
  6
CONTINUOUS
 10
87.5366716013
 20
155.9456250228
 11
92.1453977111
 21
155.9456250228
  0
LINE
  5
236
100
AcDbEntity
  8
RUNDUNGEN
100
AcDbLine
 62
7
  6
CONTINUOUS
 10
81.6018931874
 20
158.4378190862
 11
81.429431608
 21
158.4378221306
  0
LINE
  5
237
100
AcDbEntity
  8
RUNDUNGEN
100
AcDbLine
 62
7
  6
CONTINUOUS
 10
72.2569725842
 20
158.4378229923
 11
72.429431608
 21
158.4378237357
  0
LINE
  5
238
100
AcDbEntity
  8
RUNDUNGEN
100
AcDbLine
 62
7
  6
CONTINUOUS
 10
80.429431608
 20
163.7185471008
 11
80.429431608
 21
163.6406250228
  0
LINE
  5
239
100
AcDbEntity
  8
RUNDUNGEN
100
AcDbLine
 62
7
  6
CONTINUOUS
 10
80.429431608
 20
154.5627029449
 11
80.429431608
 21
154.6406250228
  0
LINE
  5
23A
100
AcDbEntity
  8
RUNDUNGEN
100
AcDbLine
 62
7
  6
CONTINUOUS
 10
81.3440982747
 20
162.6406250228
 11
81.3440982747
 21
155.6406250228
  0
LINE
  5
23B
100
AcDbEntity
  8
RUNDUNGEN
100
AcDbLine
 62
7
  6
CONTINUOUS
 10
81.429431608
 20
162.6406250228
 11
81.429431608
 21
155.6406250228
  0
LINE
  5
23C
100
AcDbEntity
  8
RUNDUNGEN
100
AcDbLine
 62
7
  6
CONTINUOUS
 10
81.6018931872
 20
158.43764944
 11
81.6018946524
 21
159.8436427928
  0
LINE
  5
23D
100
AcDbEntity
  8
RUNDUNGEN
100
AcDbLine
 62
7
  6
CONTINUOUS
 10
81.629431608
 20
155.7315341137
 11
81.6294314065
 21
158.0857568747
  0
LINE
  5
23E
100
AcDbEntity
  8
RUNDUNGEN
100
AcDbLine
 62
7
  6
CONTINUOUS
 10
81.6294320674
 20
160.1955447061
 11
81.629431608
 21
162.5497159319
  0
LINE
  5
23F
100
AcDbEntity
  8
RUNDUNGEN
100
AcDbLine
 62
7
  6
CONTINUOUS
 10
72.256972262
 20
159.8434273779
 11
72.429431608
 21
159.8434263079
  0
LINE
  5
240
100
AcDbEntity
  8
RUNDUNGEN
100
AcDbLine
 62
7
  6
CONTINUOUS
 10
81.6018946521
 20
159.8434335878
 11
81.429431608
 21
159.8434295138
  0
LINE
  5
241
100
AcDbEntity
  8
0
100
AcDbLine
 62
7
  6
CONTINUOUS
 10
92.1453977111
 20
162.3356250228
 11
87.5366716013
 21
162.3356250228
  0
LINE
  5
242
100
AcDbEntity
  8
RUNDUNGEN
100
AcDbLine
 62
7
  6
CONTINUOUS
 10
63.8833753324
 20
162.3356250228
 11
67.6997444978
 21
162.3356250228
  0
LINE
  5
243
100
AcDbEntity
  8
RUNDUNGEN
100
AcDbLine
 62
7
  6
CONTINUOUS
 10
81.429431608
 20
162.6406250228
 11
81.3440982747
 21
162.6406250228
  0
LINE
  5
244
100
AcDbEntity
  8
RUNDUNGEN
100
AcDbLine
 62
7
  6
CONTINUOUS
 10
72.429431608
 20
162.6406250228
 11
72.5147649392
 21
162.6406250227
  0
LINE
  5
245
100
AcDbEntity
  8
RUNDUNGEN
100
AcDbLine
 62
7
  6
CONTINUOUS
 10
73.3360982747
 20
163.4406250228
 11
80.5227649413
 21
163.4406250228
  0
LINE
  5
246
100
AcDbEntity
  8
RUNDUNGEN
100
AcDbLine
 62
7
  6
CONTINUOUS
 10
80.429431608
 20
163.6406250228
 11
73.429431608
 21
163.6406250228
  0
LINE
  5
247
100
AcDbEntity
  8
RUNDUNGEN
100
AcDbLine
 62
7
  6
CONTINUOUS
 10
80.429431608
 20
163.7185471008
 11
73.429431608
 21
163.7185471008
  0
LINE
  5
248
100
AcDbEntity
  8
RUNDUNGEN
100
AcDbLine
 62
7
  6
CONTINUOUS
 10
85.7430317543
 20
164.5952253645
 11
85.7430313858
 21
153.6860254393
  0
LINE
  5
249
100
AcDbEntity
  8
RUNDUNGEN
100
AcDbLine
 62
7
  6
CONTINUOUS
 10
62.1040472031
 20
165.6406276063
 11
67.4581665036
 21
165.6406250228
  0
LINE
  5
24A
100
AcDbEntity
  8
RUNDUNGEN
100
AcDbLine
 62
7
  6
CONTINUOUS
 10
99.1092596816
 20
165.6406279238
 11
86.6902685891
 21
165.6406250228
  0
LINE
  5
24B
100
AcDbEntity
  8
0
100
AcDbLine
 62
7
  6
CONTINUOUS
 10
63.0888381325
 20
166.6406250228
 11
55.75
 21
166.6406250228
  0
LINE
  5
24C
100
AcDbEntity
  8
RUNDUNGEN
100
AcDbLine
 62
7
  6
CONTINUOUS
 10
55.7500087466
 20
166.6406250228
 11
102.8975031667
 21
166.6406250228
  0
LINE
  5
24D
100
AcDbEntity
  8
0
100
AcDbLine
 62
7
  6
CONTINUOUS
 10
68.4429742566
 20
166.6406250228
 11
85.7243427628
 21
166.6406250228
  0
LINE
  5
24E
100
AcDbEntity
  8
0
100
AcDbLine
 62
7
  6
CONTINUOUS
 10
100.8269515621
 20
166.6406250228
 11
103.75
 21
166.6406250228
  0
LINE
  5
24F
100
AcDbEntity
  8
RUNDUNGEN
100
AcDbLine
 62
7
  6
CONTINUOUS
 10
103.75
 20
166.6406250228
 11
103.75
 21
151.6406250228
  0
LINE
  5
250
100
AcDbEntity
  8
RUNDUNGEN
100
AcDbLine
 62
7
  6
CONTINUOUS
 10
104.75
 20
165.6406250228
 11
104.75
 21
152.6406250229
  0
LINE
  5
251
100
AcDbEntity
  8
RUNDUNGEN
100
AcDbLine
 62
7
  6
CONTINUOUS
 10
191.3868867815
 20
152.6406250228
 11
191.3868867815
 21
151.6406250228
  0
LINE
  5
252
100
AcDbEntity
  8
RUNDUNGEN
100
AcDbLine
 62
7
  6
CONTINUOUS
 10
191.3868867815
 20
165.6406250228
 11
191.3868867823
 21
166.6406250228
  0
LINE
  5
253
100
AcDbEntity
  8
RUNDUNGEN
100
AcDbLine
 62
7
  6
CONTINUOUS
 10
204.2280013799
 20
152.6406250228
 11
204.2981504071
 21
151.645662835
  0
LINE
  5
254
100
AcDbEntity
  8
RUNDUNGEN
100
AcDbLine
 62
7
  6
CONTINUOUS
 10
204.2280013799
 20
152.6406250228
 11
204.2280013799
 21
151.6406250229
  0
LINE
  5
255
100
AcDbEntity
  8
RUNDUNGEN
100
AcDbLine
 62
7
  6
CONTINUOUS
 10
204.2280111099
 20
165.6406250228
 11
204.2280111099
 21
166.6406250228
  0
LINE
  5
256
100
AcDbEntity
  8
RUNDUNGEN
100
AcDbLine
 62
7
  6
CONTINUOUS
 10
204.2280111099
 20
165.6406250228
 11
204.2981587421
 21
166.6356916791
  0
LINE
  5
257
100
AcDbEntity
  8
RUNDUNGEN
100
AcDbLine
 62
7
  6
CONTINUOUS
 10
205.2218341046
 20
165.5020646516
 11
205.4272142273
 21
166.480747049
  0
LINE
  5
258
100
AcDbEntity
  8
RUNDUNGEN
100
AcDbLine
 62
7
  6
CONTINUOUS
 10
205.2218230249
 20
152.7791838696
 11
205.4271975885
 21
151.800499505
  0
LINE
  5
259
100
AcDbEntity
  8
RUNDUNGEN
100
AcDbLine
 62
7
  6
CONTINUOUS
 10
191.3868867815
 20
151.6406250228
 11
243.8865430702
 21
151.6406250228
  0
LINE
  5
25A
100
AcDbEntity
  8
RUNDUNGEN
100
AcDbLine
 62
7
  6
CONTINUOUS
 10
213.695802681
 20
152.6406230738
 11
244.0605349592
 21
152.6406250228
  0
LINE
  5
25B
100
AcDbEntity
  8
RUNDUNGEN
100
AcDbLine
 62
7
  6
CONTINUOUS
 10
191.3868867815
 20
152.6406250228
 11
204.2280013799
 21
152.6406250228
  0
LINE
  5
25C
100
AcDbEntity
  8
RUNDUNGEN
100
AcDbLine
 62
7
  6
CONTINUOUS
 10
253.8866854168
 20
154.6406250228
 11
249.9860670543
 21
154.6406250228
  0
LINE
  5
25D
100
AcDbEntity
  8
RUNDUNGEN
100
AcDbLine
 62
7
  6
CONTINUOUS
 10
251.3123302212
 20
160.1955135116
 11
251.5103452919
 21
160.2236458798
  0
LINE
  5
25E
100
AcDbEntity
  8
RUNDUNGEN
100
AcDbLine
 62
7
  6
CONTINUOUS
 10
254.0868867815
 20
154.8406250228
 11
253.1970230177
 21
154.8406250228
  0
LINE
  5
25F
100
AcDbEntity
  8
RUNDUNGEN
100
AcDbLine
 62
7
  6
CONTINUOUS
 10
250.7454231512
 20
155.6405461733
 11
252.6956678224
 21
155.6406250228
  0
LINE
  5
260
100
AcDbEntity
  8
RUNDUNGEN
100
AcDbLine
 62
7
  6
CONTINUOUS
 10
245.4306003179
 20
155.9456250228
 11
223.7868867815
 21
155.9456250228
  0
LINE
  5
261
100
AcDbEntity
  8
RUNDUNGEN
100
AcDbLine
 62
7
  6
CONTINUOUS
 10
251.3392531388
 20
158.4378229923
 11
251.5373526879
 21
158.4378237357
  0
LINE
  5
262
100
AcDbEntity
  8
RUNDUNGEN
100
AcDbLine
 62
7
  6
CONTINUOUS
 10
251.339253094
 20
159.8434273779
 11
251.5373525299
 21
159.8434263079
  0
LINE
  5
263
100
AcDbEntity
  8
RUNDUNGEN
100
AcDbLine
 62
7
  6
CONTINUOUS
 10
223.7868867815
 20
162.3356250228
 11
245.4305918458
 21
162.3356250228
  0
LINE
  5
264
100
AcDbEntity
  8
RUNDUNGEN
100
AcDbLine
 62
7
  6
CONTINUOUS
 10
250.7454233451
 20
162.6407034368
 11
252.6956678209
 21
162.6406250227
  0
LINE
  5
265
100
AcDbEntity
  8
RUNDUNGEN
100
AcDbLine
 62
7
  6
CONTINUOUS
 10
253.1970230177
 20
163.4406250228
 11
254.0868867815
 21
163.4406250228
  0
LINE
  5
266
100
AcDbEntity
  8
RUNDUNGEN
100
AcDbLine
 62
7
  6
CONTINUOUS
 10
249.9860670543
 20
163.6406250228
 11
253.8866854171
 21
163.6406250228
  0
LINE
  5
267
100
AcDbEntity
  8
RUNDUNGEN
100
AcDbLine
 62
7
  6
CONTINUOUS
 10
251.3123300977
 20
158.0857356648
 11
251.5103446545
 21
158.0576032452
  0
LINE
  5
268
100
AcDbEntity
  8
RUNDUNGEN
100
AcDbLine
 62
7
  6
CONTINUOUS
 10
204.2280211718
 20
165.6406250228
 11
191.3868867815
 21
165.6406250228
  0
LINE
  5
269
100
AcDbEntity
  8
RUNDUNGEN
100
AcDbLine
 62
7
  6
CONTINUOUS
 10
213.6958155104
 20
165.6406276063
 11
244.0605349592
 21
165.6406250228
  0
LINE
  5
26A
100
AcDbEntity
  8
RUNDUNGEN
100
AcDbLine
 62
7
  6
CONTINUOUS
 10
191.3868867815
 20
166.6406250228
 11
243.88660389
 21
166.6406250228
  0
LINE
  5
26B
100
AcDbEntity
  8
RUNDUNGEN
100
AcDbLine
 62
7
  6
CONTINUOUS
 10
250.5673133525
 20
162.5497159324
 11
250.7454580613
 21
162.6406250228
  0
LINE
  5
26C
100
AcDbEntity
  8
RUNDUNGEN
100
AcDbLine
 62
7
  6
CONTINUOUS
 10
250.5673133522
 20
155.7315341128
 11
250.7454580613
 21
155.6406250229
  0
LINE
  5
26D
100
AcDbEntity
  8
RUNDUNGEN
100
AcDbLine
 62
7
  6
CONTINUOUS
 10
247.2548560982
 20
164.8015420321
 11
247.2549172747
 21
153.4797359499
  0
LINE
  5
26E
100
AcDbEntity
  8
RUNDUNGEN
100
AcDbLine
 62
7
  6
CONTINUOUS
 10
251.339253094
 20
159.8435271512
 11
251.3392531388
 21
158.4377386566
  0
LINE
  5
26F
100
AcDbEntity
  8
RUNDUNGEN
100
AcDbLine
 62
7
  6
CONTINUOUS
 10
251.5373525299
 20
159.8434263079
 11
251.5373526879
 21
158.4378237357
  0
LINE
  5
270
100
AcDbEntity
  8
RUNDUNGEN
100
AcDbLine
 62
7
  6
CONTINUOUS
 10
252.5318033798
 20
155.6406250208
 11
252.5318033798
 21
162.640625025
  0
LINE
  5
271
100
AcDbEntity
  8
RUNDUNGEN
100
AcDbLine
 62
7
  6
CONTINUOUS
 10
252.6956678224
 20
155.6406250228
 11
252.6956678224
 21
162.6406250228
  0
LINE
  5
272
100
AcDbEntity
  8
0
100
AcDbLine
 62
7
  6
CONTINUOUS
 10
254.0868867815
 20
163.4406250228
 11
254.0868867815
 21
154.8406250228
  0
LINE
  5
273
100
AcDbEntity
  8
RUNDUNGEN
100
AcDbLine
 62
7
  6
CONTINUOUS
 10
80.4295389023
 20
47.6858079457
 11
73.4293246639
 21
47.6858079457
  0
LINE
  5
274
100
AcDbEntity
  8
RUNDUNGEN
100
AcDbLine
 62
7
  6
CONTINUOUS
 10
80.429431608
 20
47.8442282125
 11
73.429431608
 21
47.8442282125
  0
LINE
  5
275
100
AcDbEntity
  8
RUNDUNGEN
100
AcDbLine
 62
7
  6
CONTINUOUS
 10
55.75
 20
93.4438638901
 11
55.6969627729
 21
93.3736421287
  0
LINE
  5
276
100
AcDbEntity
  8
RUNDUNGEN
100
AcDbLine
 62
7
  6
CONTINUOUS
 10
54.75
 20
87.2849882185
 11
54.75
 21
112.7849882185
  0
LINE
  5
277
100
AcDbEntity
  8
RUNDUNGEN
100
AcDbLine
 62
7
  6
CONTINUOUS
 10
55.75
 20
86.2849882185
 11
55.7500004971
 21
92.2445078448
  0
LINE
  5
278
100
AcDbEntity
  8
RUNDUNGEN
100
AcDbLine
 62
7
  6
CONTINUOUS
 10
55.7500087466
 20
93.4438471661
 11
55.75
 21
113.7849882185
  0
LINE
  5
279
100
AcDbEntity
  8
RUNDUNGEN
100
AcDbLine
 62
7
  6
CONTINUOUS
 10
68.4429243752
 20
53.78527111
 11
85.7243910686
 21
53.7851684981
  0
LINE
  5
27A
100
AcDbEntity
  8
RUNDUNGEN
100
AcDbLine
 62
7
  6
CONTINUOUS
 10
68.4429742566
 20
53.7849882185
 11
67.4581665036
 21
53.6113400408
  0
LINE
  5
27B
100
AcDbEntity
  8
RUNDUNGEN
100
AcDbLine
 62
7
  6
CONTINUOUS
 10
86.6902685891
 20
53.5261691734
 11
85.7243427629
 21
53.7849882187
  0
LINE
  5
27C
100
AcDbEntity
  8
RUNDUNGEN
100
AcDbLine
 62
7
  6
CONTINUOUS
 10
80.429431608
 20
44.6517386378
 11
80.5227649404
 21
44.4748519818
  0
LINE
  5
27D
100
AcDbEntity
  8
RUNDUNGEN
100
AcDbLine
 62
7
  6
CONTINUOUS
 10
62.1040472031
 20
83.9760594896
 11
68.0214115054
 21
50.4170189018
  0
LINE
  5
27E
100
AcDbEntity
  8
RUNDUNGEN
100
AcDbLine
 62
7
  6
CONTINUOUS
 10
63.0888381325
 20
84.1498006172
 11
68.4429243752
 21
53.78527111
  0
LINE
  5
27F
100
AcDbEntity
  8
RUNDUNGEN
100
AcDbLine
 62
7
  6
CONTINUOUS
 10
63.6131248174
 20
106.2846648411
 11
67.8523015067
 21
82.2430991525
  0
LINE
  5
280
100
AcDbEntity
  8
RUNDUNGEN
100
AcDbLine
 62
7
  6
CONTINUOUS
 10
63.4517772406
 20
112.9584829027
 11
68.8371092597
 21
82.4167473302
  0
LINE
  5
281
100
AcDbEntity
  8
RUNDUNGEN
100
AcDbLine
 62
7
  6
CONTINUOUS
 10
72.229431608
 20
47.1045616473
 11
72.2294326472
 21
46.3595316025
  0
LINE
  5
282
100
AcDbEntity
  8
RUNDUNGEN
100
AcDbLine
 62
7
  6
CONTINUOUS
 10
72.429431608
 20
46.9264516549
 11
72.429431608
 21
45.1400716202
  0
LINE
  5
283
100
AcDbEntity
  8
RUNDUNGEN
100
AcDbLine
 62
7
  6
CONTINUOUS
 10
73.429431608
 20
47.8442282125
 11
73.4294316083
 21
44.6517386377
  0
LINE
  5
284
100
AcDbEntity
  8
RUNDUNGEN
100
AcDbLine
 62
7
  6
CONTINUOUS
 10
73.7611480248
 20
78.2849882185
 11
73.7611480248
 21
77.2849882185
  0
LINE
  5
285
100
AcDbEntity
  8
RUNDUNGEN
100
AcDbLine
 62
7
  6
CONTINUOUS
 10
73.7611480248
 20
77.2849882185
 11
84.3113583159
 21
77.2849882185
  0
LINE
  5
286
100
AcDbEntity
  8
RUNDUNGEN
100
AcDbLine
 62
7
  6
CONTINUOUS
 10
73.7611480248
 20
78.2849882185
 11
84.3113583159
 21
78.2849882185
  0
LINE
  5
287
100
AcDbEntity
  8
RUNDUNGEN
100
AcDbLine
 62
7
  6
CONTINUOUS
 10
80.4294316077
 20
44.6517386377
 11
80.429431608
 21
47.8442282125
  0
LINE
  5
288
100
AcDbEntity
  8
RUNDUNGEN
100
AcDbLine
 62
7
  6
CONTINUOUS
 10
81.429431608
 20
45.1400716202
 11
81.429431608
 21
46.9264518478
  0
LINE
  5
289
100
AcDbEntity
  8
RUNDUNGEN
100
AcDbLine
 62
7
  6
CONTINUOUS
 10
81.6294320674
 20
46.3595492105
 11
81.629431608
 21
47.1045616473
  0
LINE
  5
28A
100
AcDbEntity
  8
RUNDUNGEN
100
AcDbLine
 62
7
  6
CONTINUOUS
 10
84.3113583159
 20
78.2849882185
 11
84.3113583157
 21
77.2849882185
  0
LINE
  5
28B
100
AcDbEntity
  8
RUNDUNGEN
100
AcDbLine
 62
7
  6
CONTINUOUS
 10
68.8371092597
 20
82.4167473302
 11
67.8523015067
 21
82.2430991525
  0
LINE
  5
28C
100
AcDbEntity
  8
RUNDUNGEN
100
AcDbLine
 62
7
  6
CONTINUOUS
 10
89.1409874473
 20
81.990892993
 11
90.1069132736
 21
81.7320739479
  0
LINE
  5
28D
100
AcDbEntity
  8
RUNDUNGEN
100
AcDbLine
 62
7
  6
CONTINUOUS
 10
89.1409874473
 20
81.990892993
 11
97.4615881405
 21
113.0437975294
  0
LINE
  5
28E
100
AcDbEntity
  8
RUNDUNGEN
100
AcDbLine
 62
7
  6
CONTINUOUS
 10
63.0888381325
 20
84.1498006172
 11
62.1040305267
 21
83.9761540659
  0
LINE
  5
28F
100
AcDbEntity
  8
0
100
AcDbLine
 62
7
  6
CONTINUOUS
 10
57.5014124396
 20
86.2849882185
 11
55.75
 21
86.2849882185
  0
LINE
  5
290
100
AcDbEntity
  8
RUNDUNGEN
100
AcDbLine
 62
7
  6
CONTINUOUS
 10
90.1069132736
 20
81.7320739479
 11
96.685761216
 21
106.2846687243
  0
LINE
  5
291
100
AcDbEntity
  8
RUNDUNGEN
100
AcDbLine
 62
7
  6
CONTINUOUS
 10
73.429431608
 20
44.6517386378
 11
73.336098274
 21
44.4748519826
  0
LINE
  5
292
100
AcDbEntity
  8
RUNDUNGEN
100
AcDbLine
 62
7
  6
CONTINUOUS
 10
98.1433224674
 20
100.1332480299
 11
85.7243910686
 21
53.7851684981
  0
LINE
  5
293
100
AcDbEntity
  8
RUNDUNGEN
100
AcDbLine
 62
7
  6
CONTINUOUS
 10
99.1092596816
 20
99.8744749092
 11
85.7430317543
 21
49.9910331789
  0
LINE
  5
294
100
AcDbEntity
  8
RUNDUNGEN
100
AcDbLine
 62
7
  6
CONTINUOUS
 10
54.75
 20
93.4438638901
 11
55.7500087465
 21
93.4438638901
  0
LINE
  5
295
100
AcDbEntity
  8
RUNDUNGEN
100
AcDbLine
 62
7
  6
CONTINUOUS
 10
103.75
 20
98.7849882185
 11
100.3519865786
 21
98.7849882185
  0
LINE
  5
296
100
AcDbEntity
  8
RUNDUNGEN
100
AcDbLine
 62
7
  6
CONTINUOUS
 10
103.75
 20
113.7849882185
 11
103.75
 21
98.7849882185
  0
LINE
  5
297
100
AcDbEntity
  8
RUNDUNGEN
100
AcDbLine
 62
7
  6
CONTINUOUS
 10
104.75
 20
112.7849882185
 11
104.75
 21
99.7849882185
  0
LINE
  5
298
100
AcDbEntity
  8
RUNDUNGEN
100
AcDbLine
 62
7
  6
CONTINUOUS
 10
99.1092481624
 20
99.8744319191
 11
98.1433224674
 21
100.1332480299
  0
LINE
  5
299
100
AcDbEntity
  8
RUNDUNGEN
100
AcDbLine
 62
7
  6
CONTINUOUS
 10
102.8975031667
 20
106.2849882185
 11
96.685761216
 21
106.2846687243
  0
LINE
  5
29A
100
AcDbEntity
  8
RUNDUNGEN
100
AcDbLine
 62
7
  6
CONTINUOUS
 10
54.75
 20
106.2849882185
 11
63.6131248174
 21
106.2846648411
  0
LINE
  5
29B
100
AcDbEntity
  8
RUNDUNGEN
100
AcDbLine
 62
7
  6
CONTINUOUS
 10
64.5978755502
 20
106.4586363962
 11
63.6130677972
 21
106.2849882185
  0
LINE
  5
29C
100
AcDbEntity
  8
RUNDUNGEN
100
AcDbLine
 62
7
  6
CONTINUOUS
 10
95.7199209979
 20
106.5438072636
 11
96.685846824
 21
106.2849882178
  0
LINE
  5
29D
100
AcDbEntity
  8
RUNDUNGEN
100
AcDbLine
 62
7
  6
CONTINUOUS
 10
103.75
 20
113.7849882185
 11
102.8365704891
 21
113.7849882185
  0
LINE
  5
29E
100
AcDbEntity
  8
0
100
AcDbLine
 62
7
  6
CONTINUOUS
 10
62.4717635543
 20
113.7849882185
 11
55.75
 21
113.7849882185
  0
LINE
  5
29F
100
AcDbEntity
  8
0
100
AcDbLine
 62
7
  6
CONTINUOUS
 10
98.4208128436
 20
113.7849882185
 11
103.75
 21
113.7849882185
  0
ARC
  5
2A0
100
AcDbEntity
  8
RUNDUNGEN
100
AcDbCircle
 62
7
  6
CONTINUOUS
 10
73.4295546608
 20
155.7879408843
 40
1.2252379456
100
AcDbArc
 50
263.6778519964
 51
269.9942456846
  0
ARC
  5
2A1
100
AcDbEntity
  8
RUNDUNGEN
100
AcDbCircle
 62
7
  6
CONTINUOUS
 10
73.429431608
 20
155.6406250228
 40
1.0
100
AcDbArc
 50
180.0045177828
 51
269.9938525139
  0
ARC
  5
2A2
100
AcDbEntity
  8
RUNDUNGEN
100
AcDbCircle
 62
7
  6
CONTINUOUS
 10
55.7485252593
 20
152.6418544305
 40
0.9986021724
100
AcDbArc
 50
180.07054387
 51
270.0
  0
ARC
  5
2A3
100
AcDbEntity
  8
RUNDUNGEN
100
AcDbCircle
 62
7
  6
CONTINUOUS
 10
55.7093264261
 20
152.7796483601
 40
0.959326539
100
AcDbArc
 50
180.0277942124
 51
189.2107427942
  0
ARC
  5
2A4
100
AcDbEntity
  8
RUNDUNGEN
100
AcDbCircle
 62
7
  6
CONTINUOUS
 10
73.2997202536
 20
155.6413242671
 40
0.7849556237
100
AcDbArc
 50
180.0510395066
 51
193.93581015
  0
ARC
  5
2A5
100
AcDbEntity
  8
RUNDUNGEN
100
AcDbCircle
 62
7
  6
CONTINUOUS
 10
55.7501388691
 20
152.0069163681
 40
0.3662913715
100
AcDbArc
 50
261.6528738355
 51
269.9782779178
  0
ARC
  5
2A6
100
AcDbEntity
  8
RUNDUNGEN
100
AcDbCircle
 62
7
  6
CONTINUOUS
 10
73.4295619068
 20
162.4933007184
 40
1.2252463893
100
AcDbArc
 50
90.0060931171
 51
96.3496301971
  0
ARC
  5
2A7
100
AcDbEntity
  8
RUNDUNGEN
100
AcDbCircle
 62
7
  6
CONTINUOUS
 10
73.429431608
 20
162.6406250228
 40
1.0
100
AcDbArc
 50
90.0061274236
 51
179.995507174
  0
ARC
  5
2A8
100
AcDbEntity
  8
RUNDUNGEN
100
AcDbCircle
 62
7
  6
CONTINUOUS
 10
55.7485270485
 20
165.639394391
 40
0.9986040438
100
AcDbArc
 50
89.9994988597
 51
179.9293860157
  0
ARC
  5
2A9
100
AcDbEntity
  8
RUNDUNGEN
100
AcDbCircle
 62
7
  6
CONTINUOUS
 10
55.7093238141
 20
165.5015994011
 40
0.9593239269
100
AcDbArc
 50
170.7892202562
 51
179.9722061191
  0
ARC
  5
2AA
100
AcDbEntity
  8
RUNDUNGEN
100
AcDbCircle
 62
7
  6
CONTINUOUS
 10
73.2999668287
 20
162.639910452
 40
0.7852022126
100
AcDbArc
 50
166.020150223
 51
179.9478581451
  0
ARC
  5
2AB
100
AcDbEntity
  8
RUNDUNGEN
100
AcDbCircle
 62
7
  6
CONTINUOUS
 10
55.7501269907
 20
166.2744136103
 40
0.3662114346
100
AcDbArc
 50
90.0198683927
 51
98.3473298183
  0
ARC
  5
2AC
100
AcDbEntity
  8
RUNDUNGEN
100
AcDbCircle
 62
7
  6
CONTINUOUS
 10
80.4293013092
 20
155.7879493273
 40
1.2252463893
100
AcDbArc
 50
270.006093117
 51
276.3496301971
  0
ARC
  5
2AD
100
AcDbEntity
  8
RUNDUNGEN
100
AcDbCircle
 62
7
  6
CONTINUOUS
 10
103.75
 20
152.6406250228
 40
1.0
100
AcDbArc
 50
270.0
 51
360.0
  0
ARC
  5
2AE
100
AcDbEntity
  8
RUNDUNGEN
100
AcDbCircle
 62
7
  6
CONTINUOUS
 10
80.429431608
 20
155.6406250228
 40
1.0
100
AcDbArc
 50
270.0061274236
 51
359.995507174
  0
ARC
  5
2AF
100
AcDbEntity
  8
RUNDUNGEN
100
AcDbCircle
 62
7
  6
CONTINUOUS
 10
80.5588963873
 20
155.6413395937
 40
0.7852022126
100
AcDbArc
 50
346.020150223
 51
359.9478581452
  0
ARC
  5
2B0
100
AcDbEntity
  8
RUNDUNGEN
100
AcDbCircle
 62
7
  6
CONTINUOUS
 10
80.4293085552
 20
162.4933091613
 40
1.2252379456
100
AcDbArc
 50
83.6778519964
 51
89.9942456846
  0
ARC
  5
2B1
100
AcDbEntity
  8
RUNDUNGEN
100
AcDbCircle
 62
7
  6
CONTINUOUS
 10
103.75
 20
165.6406250228
 40
1.0
100
AcDbArc
 50
0.0
 51
90.0
  0
ARC
  5
2B2
100
AcDbEntity
  8
RUNDUNGEN
100
AcDbCircle
 62
7
  6
CONTINUOUS
 10
80.429431608
 20
162.6406250228
 40
1.0
100
AcDbArc
 50
0.0045177828
 51
89.9938525139
  0
ARC
  5
2B3
100
AcDbEntity
  8
RUNDUNGEN
100
AcDbCircle
 62
7
  6
CONTINUOUS
 10
80.5591429624
 20
162.6399257786
 40
0.7849556237
100
AcDbArc
 50
0.0510395066
 51
13.93581015
  0
ARC
  5
2B4
100
AcDbEntity
  8
RUNDUNGEN
100
AcDbCircle
 62
7
  6
CONTINUOUS
 10
203.0169135507
 20
159.1402568209
 40
12.5017395203
100
AcDbArc
 50
359.9983770302
 51
31.3293567904
  0
ARC
  5
2B5
100
AcDbEntity
  8
RUNDUNGEN
100
AcDbCircle
 62
7
  6
CONTINUOUS
 10
203.7404829163
 20
158.4370183985
 40
8.2186756152
100
AcDbArc
 50
78.1556423986
 51
86.1085791442
  0
ARC
  5
2B6
100
AcDbEntity
  8
RUNDUNGEN
100
AcDbCircle
 62
7
  6
CONTINUOUS
 10
203.7100620216
 20
158.2923041847
 40
7.3665528452
100
AcDbArc
 50
78.157557626
 51
85.9680760742
  0
ARC
  5
2B7
100
AcDbEntity
  8
RUNDUNGEN
100
AcDbCircle
 62
7
  6
CONTINUOUS
 10
204.227946095
 20
152.2791725436
 40
0.6385475231
100
AcDbArc
 50
270.0049606178
 51
276.3195827549
  0
ARC
  5
2B8
100
AcDbEntity
  8
RUNDUNGEN
100
AcDbCircle
 62
7
  6
CONTINUOUS
 10
203.0170114203
 20
159.1409710109
 40
12.5016369442
100
AcDbArc
 50
328.6704688618
 51
359.9951038394
  0
ARC
  5
2B9
100
AcDbEntity
  8
RUNDUNGEN
100
AcDbCircle
 62
7
  6
CONTINUOUS
 10
203.7405849703
 20
159.8433513676
 40
8.2177915989
100
AcDbArc
 50
273.891174245
 51
281.8432172837
  0
ARC
  5
2BA
100
AcDbEntity
  8
RUNDUNGEN
100
AcDbCircle
 62
7
  6
CONTINUOUS
 10
203.8868867815
 20
159.1406250228
 40
7.5
100
AcDbArc
 50
281.851182757
 51
78.1472375354
  0
ARC
  5
2BB
100
AcDbEntity
  8
0
100
AcDbCircle
 62
7
  6
CONTINUOUS
 10
191.3868867815
 20
159.1406250228
 40
7.5
100
AcDbArc
 50
248.5854658509
 51
252.4512338109
  0
ARC
  5
2BC
100
AcDbEntity
  8
0
100
AcDbCircle
 62
7
  6
CONTINUOUS
 10
191.3868867815
 20
159.1406250228
 40
7.5
100
AcDbArc
 50
259.6054371385
 51
263.1695545346
  0
ARC
  5
2BD
100
AcDbEntity
  8
RUNDUNGEN
100
AcDbCircle
 62
7
  6
CONTINUOUS
 10
191.3868867815
 20
159.1406250228
 40
7.5
100
AcDbArc
 50
90.0
 51
270.0
  0
ARC
  5
2BE
100
AcDbEntity
  8
RUNDUNGEN
100
AcDbCircle
 62
7
  6
CONTINUOUS
 10
203.7101932502
 20
159.988037035
 40
7.3656356505
100
AcDbArc
 50
274.0312491532
 51
281.8428073401
  0
ARC
  5
2BF
100
AcDbEntity
  8
RUNDUNGEN
100
AcDbCircle
 62
7
  6
CONTINUOUS
 10
191.3868867815
 20
159.1406250228
 40
6.5
100
AcDbArc
 50
90.0
 51
270.0
  0
ARC
  5
2C0
100
AcDbEntity
  8
RUNDUNGEN
100
AcDbCircle
 62
7
  6
CONTINUOUS
 10
203.8868867815
 20
159.1406250228
 40
6.5
100
AcDbArc
 50
281.8514424116
 51
78.1484592463
  0
CIRCLE
  5
2C1
100
AcDbEntity
  8
RUNDUNGEN
100
AcDbCircle
 62
7
  6
CONTINUOUS
 10
203.8868867815
 20
159.1406250228
 40
6.0
  0
CIRCLE
  5
2C2
100
AcDbEntity
  8
RUNDUNGEN
100
AcDbCircle
 62
7
  6
CONTINUOUS
 10
203.8868867815
 20
159.1406250228
 40
5.0
  0
CIRCLE
  5
2C3
100
AcDbEntity
  8
0
100
AcDbCircle
 62
7
  6
CONTINUOUS
 10
191.3868867815
 20
159.1406250228
 40
3.19
  0
ARC
  5
2C4
100
AcDbEntity
  8
RUNDUNGEN
100
AcDbCircle
 62
7
  6
CONTINUOUS
 10
204.227946877
 20
166.0019979264
 40
0.6386270997
100
AcDbArc
 50
83.681343419
 51
89.9942372126
  0
ARC
  5
2C5
100
AcDbEntity
  8
RUNDUNGEN
100
AcDbCircle
 62
7
  6
CONTINUOUS
 10
244.0608020533
 20
159.1394553756
 40
6.4988303582
100
AcDbArc
 50
269.9976452119
 51
299.4386135941
  0
ARC
  5
2C6
100
AcDbEntity
  8
RUNDUNGEN
100
AcDbCircle
 62
7
  6
CONTINUOUS
 10
246.0607759074
 20
159.1224835853
 40
5.3275892315
100
AcDbArc
 50
11.5431683743
 51
13.0309203933
  0
ARC
  5
2C7
100
AcDbEntity
  8
RUNDUNGEN
100
AcDbCircle
 62
7
  6
CONTINUOUS
 10
246.1058176403
 20
159.1315615418
 40
5.281641949
100
AcDbArc
 50
7.7470580278
 51
11.5444569283
  0
ARC
  5
2C8
100
AcDbEntity
  8
RUNDUNGEN
100
AcDbCircle
 62
7
  6
CONTINUOUS
 10
241.3333895382
 20
159.1404412097
 40
5.1957931396
100
AcDbArc
 50
0.0079501713
 51
37.9487183073
  0
ARC
  5
2C9
100
AcDbEntity
  8
RUNDUNGEN
100
AcDbCircle
 62
7
  6
CONTINUOUS
 10
248.6267992797
 20
158.4681902288
 40
2.7126333296
100
AcDbArc
 50
351.8970256733
 51
359.3566165859
  0
ARC
  5
2CA
100
AcDbEntity
  8
RUNDUNGEN
100
AcDbCircle
 62
7
  6
CONTINUOUS
 10
248.8323314733
 20
158.438898837
 40
2.7050214282
100
AcDbArc
 50
351.896689366
 51
359.9772279925
  0
ARC
  5
2CB
100
AcDbEntity
  8
RUNDUNGEN
100
AcDbCircle
 62
7
  6
CONTINUOUS
 10
253.8868867815
 20
154.8406250228
 40
0.2
100
AcDbArc
 50
270.0
 51
360.0
  0
ARC
  5
2CC
100
AcDbEntity
  8
RUNDUNGEN
100
AcDbCircle
 62
7
  6
CONTINUOUS
 10
249.9861161068
 20
154.4406773651
 40
0.1999912763
100
AcDbArc
 50
90.0140561757
 51
142.3823203336
  0
ARC
  5
2CD
100
AcDbEntity
  8
0
100
AcDbCircle
 62
7
  6
CONTINUOUS
 10
223.7868867815
 20
159.1406250228
 40
3.195
100
AcDbArc
 50
90.0
 51
270.0
  0
ARC
  5
2CE
100
AcDbEntity
  8
RUNDUNGEN
100
AcDbCircle
 62
7
  6
CONTINUOUS
 10
243.8868867815
 20
159.1406250228
 40
7.7
100
AcDbArc
 50
8.0855761621
 51
27.0363289272
  0
ARC
  5
2CF
100
AcDbEntity
  8
RUNDUNGEN
100
AcDbCircle
 62
7
  6
CONTINUOUS
 10
243.8868867815
 20
159.1406250228
 40
7.7
100
AcDbArc
 50
332.9636675302
 51
351.9144163885
  0
ARC
  5
2D0
100
AcDbEntity
  8
RUNDUNGEN
100
AcDbCircle
 62
7
  6
CONTINUOUS
 10
243.8868867815
 20
159.1406250228
 40
7.5
100
AcDbArc
 50
269.9973742396
 51
351.9151177188
  0
ARC
  5
2D1
100
AcDbEntity
  8
RUNDUNGEN
100
AcDbCircle
 62
7
  6
CONTINUOUS
 10
243.8868867815
 20
159.1406250228
 40
7.5
100
AcDbArc
 50
8.0848490657
 51
90.001377235
  0
ARC
  5
2D2
100
AcDbEntity
  8
RUNDUNGEN
100
AcDbCircle
 62
7
  6
CONTINUOUS
 10
244.0608007474
 20
159.1418341408
 40
6.4987908874
100
AcDbArc
 50
60.5617961139
 51
90.0023432891
  0
ARC
  5
2D3
100
AcDbEntity
  8
RUNDUNGEN
100
AcDbCircle
 62
7
  6
CONTINUOUS
 10
241.3333101177
 20
159.1408252152
 40
5.195872521
100
AcDbArc
 50
322.0517352853
 51
0.0037155546
  0
ARC
  5
2D4
100
AcDbEntity
  8
RUNDUNGEN
100
AcDbCircle
 62
7
  6
CONTINUOUS
 10
240.9868867815
 20
159.1406250228
 40
3.195
100
AcDbArc
 50
269.9971116187
 51
90.0033829179
  0
ARC
  5
2D5
100
AcDbEntity
  8
RUNDUNGEN
100
AcDbCircle
 62
7
  6
CONTINUOUS
 10
246.0606542528
 20
159.1587760692
 40
5.3277075147
100
AcDbArc
 50
346.9988231141
 51
348.456883394
  0
ARC
  5
2D6
100
AcDbEntity
  8
RUNDUNGEN
100
AcDbCircle
 62
7
  6
CONTINUOUS
 10
246.1051052792
 20
159.1498211032
 40
5.2823636023
100
AcDbArc
 50
348.4555705263
 51
352.252727877
  0
ARC
  5
2D7
100
AcDbEntity
  8
RUNDUNGEN
100
AcDbCircle
 62
7
  6
CONTINUOUS
 10
248.6270380441
 20
159.8130888315
 40
2.7123938607
100
AcDbArc
 50
0.6431966603
 51
8.1029794963
  0
ARC
  5
2D8
100
AcDbEntity
  8
RUNDUNGEN
100
AcDbCircle
 62
7
  6
CONTINUOUS
 10
248.8325501223
 20
159.8423714294
 40
2.7048026133
100
AcDbArc
 50
0.0223454698
 51
8.103518233
  0
ARC
  5
2D9
100
AcDbEntity
  8
RUNDUNGEN
100
AcDbCircle
 62
7
  6
CONTINUOUS
 10
253.8868867815
 20
163.4406250228
 40
0.2
100
AcDbArc
 50
0.0
 51
90.0
  0
ARC
  5
2DA
100
AcDbEntity
  8
RUNDUNGEN
100
AcDbCircle
 62
7
  6
CONTINUOUS
 10
249.9861161068
 20
163.8405726806
 40
0.1999912763
100
AcDbArc
 50
217.5972253584
 51
269.9859438243
  0
ARC
  5
2DB
100
AcDbEntity
  8
RUNDUNGEN
100
AcDbCircle
 62
7
  6
CONTINUOUS
 10
76.4639345269
 20
54.0475049825
 40
10.1983132088
100
AcDbArc
 50
292.8822484156
 51
297.4367059129
  0
ARC
  5
2DC
100
AcDbEntity
  8
RUNDUNGEN
100
AcDbCircle
 62
7
  6
CONTINUOUS
 10
77.3530197597
 20
53.9582903898
 40
10.099824231
100
AcDbArc
 50
242.5417789118
 51
247.1399945001
  0
ARC
  5
2DD
100
AcDbEntity
  8
RUNDUNGEN
100
AcDbCircle
 62
7
  6
CONTINUOUS
 10
76.929431608
 20
51.2849882185
 40
7.7
100
AcDbArc
 50
235.0170021308
 51
304.9829978692
  0
ARC
  5
2DE
100
AcDbEntity
  8
RUNDUNGEN
100
AcDbCircle
 62
7
  6
CONTINUOUS
 10
76.929431608
 20
51.2849882185
 40
7.5
100
AcDbArc
 50
242.1818607175
 51
297.8181392824
  0
ARC
  5
2DF
100
AcDbEntity
  8
RUNDUNGEN
100
AcDbCircle
 62
7
  6
CONTINUOUS
 10
72.9454981559
 20
51.2849882185
 40
5.0
100
AcDbArc
 50
189.9968400099
 51
262.084923487
  0
ARC
  5
2E0
100
AcDbEntity
  8
RUNDUNGEN
100
AcDbCircle
 62
7
  6
CONTINUOUS
 10
72.629431608
 20
45.1400716202
 40
0.2
100
AcDbArc
 50
180.0
 51
235.0170021308
  0
ARC
  5
2E1
100
AcDbEntity
  8
RUNDUNGEN
100
AcDbCircle
 62
7
  6
CONTINUOUS
 10
72.229431608
 20
46.1345272004
 40
0.2
100
AcDbArc
 50
7.69887461
 51
82.0850338947
  0
ARC
  5
2E2
100
AcDbEntity
  8
RUNDUNGEN
100
AcDbCircle
 62
7
  6
CONTINUOUS
 10
73.7611480248
 20
83.2849882185
 40
6.0
100
AcDbArc
 50
190.0
 51
270.0
  0
ARC
  5
2E3
100
AcDbEntity
  8
RUNDUNGEN
100
AcDbCircle
 62
7
  6
CONTINUOUS
 10
73.7611480248
 20
83.2849882185
 40
5.0
100
AcDbArc
 50
190.0
 51
270.0
  0
ARC
  5
2E4
100
AcDbEntity
  8
RUNDUNGEN
100
AcDbCircle
 62
7
  6
CONTINUOUS
 10
57.5014226105
 20
81.2849882485
 40
4.9999999963
100
AcDbArc
 50
9.9999999492
 51
89.9999999912
  0
ARC
  5
2E5
100
AcDbEntity
  8
RUNDUNGEN
100
AcDbCircle
 62
7
  6
CONTINUOUS
 10
55.75
 20
112.7849882185
 40
1.0
100
AcDbArc
 50
90.0
 51
180.0
  0
ARC
  5
2E6
100
AcDbEntity
  8
RUNDUNGEN
100
AcDbCircle
 62
7
  6
CONTINUOUS
 10
55.75
 20
87.2849882185
 40
1.0
100
AcDbArc
 50
180.0
 51
270.0
  0
ARC
  5
2E7
100
AcDbEntity
  8
RUNDUNGEN
100
AcDbCircle
 62
7
  6
CONTINUOUS
 10
62.4669464565
 20
112.7849653411
 40
1.0
100
AcDbArc
 50
10.0
 51
89.9999095413
  0
ARC
  5
2E8
100
AcDbEntity
  8
RUNDUNGEN
100
AcDbCircle
 62
7
  6
CONTINUOUS
 10
80.9133650601
 20
51.2849882185
 40
5.0
100
AcDbArc
 50
277.9151193008
 51
345.0016630803
  0
ARC
  5
2E9
100
AcDbEntity
  8
RUNDUNGEN
100
AcDbCircle
 62
7
  6
CONTINUOUS
 10
81.229431608
 20
45.1400716202
 40
0.2
100
AcDbArc
 50
304.9829978692
 51
360.0
  0
ARC
  5
2EA
100
AcDbEntity
  8
RUNDUNGEN
100
AcDbCircle
 62
7
  6
CONTINUOUS
 10
81.629431608
 20
46.1345272004
 40
0.2
100
AcDbArc
 50
97.9143201322
 51
172.3023854602
  0
ARC
  5
2EB
100
AcDbEntity
  8
RUNDUNGEN
100
AcDbCircle
 62
7
  6
CONTINUOUS
 10
84.3113583159
 20
83.2849882185
 40
6.0
100
AcDbArc
 50
270.0
 51
345.0
  0
ARC
  5
2EC
100
AcDbEntity
  8
RUNDUNGEN
100
AcDbCircle
 62
7
  6
CONTINUOUS
 10
84.3113583159
 20
83.2849882185
 40
5.0
100
AcDbArc
 50
269.9999999853
 51
345.0000000169
  0
ARC
  5
2ED
100
AcDbEntity
  8
RUNDUNGEN
100
AcDbCircle
 62
7
  6
CONTINUOUS
 10
100.3519910891
 20
96.7850050518
 40
1.9999964561
100
AcDbArc
 50
90.0001292165
 51
165.0004992499
  0
ARC
  5
2EE
100
AcDbEntity
  8
RUNDUNGEN
100
AcDbCircle
 62
7
  6
CONTINUOUS
 10
103.75
 20
99.7849882185
 40
1.0
100
AcDbArc
 50
270.0
 51
360.0
  0
ARC
  5
2EF
100
AcDbEntity
  8
RUNDUNGEN
100
AcDbCircle
 62
7
  6
CONTINUOUS
 10
103.75
 20
112.7849882185
 40
1.0
100
AcDbArc
 50
0.0
 51
90.0
  0
ARC
  5
2F0
100
AcDbEntity
  8
RUNDUNGEN
100
AcDbCircle
 62
7
  6
CONTINUOUS
 10
98.4275128435
 20
112.7849742922
 40
1.0
100
AcDbArc
 50
90.0001031529
 51
164.9999999974
  0
SPLINE
  5
2F1
100
AcDbEntity
  8
RUNDUNGEN
100
AcDbSpline
 62
7
  6
CONTINUOUS
 70
0
 71
3
 72
9
 73
5
 74
0
 42
0.0000001
 43
0.0000001
 44
0.0000000001
 40
0.0
 40
0.0
 40
0.0
 40
0.0
 40
0.519226392
 40
1.0
 40
1.0
 40
1.0
 40
1.0
 10
62.4254613763
 20
159.1399026947
 30
0.0
 10
62.4254563983
 20
160.2667772452
 30
0.0
 10
62.3745353191
 20
162.4373462561
 30
0.0
 10
62.2154037585
 20
164.6031660956
 30
0.0
 10
62.1040472031
 20
165.6406276063
 30
0.0
  0
SPLINE
  5
2F2
100
AcDbEntity
  8
RUNDUNGEN
100
AcDbSpline
 62
7
  6
CONTINUOUS
 70
0
 71
3
 72
10
 73
6
 74
0
 42
0.0000001
 43
0.0000001
 44
0.0000000001
 40
0.0
 40
0.0
 40
0.0
 40
0.0
 40
0.5284316167
 40
0.7746339897
 40
1.0
 40
1.0
 40
1.0
 40
1.0
 10
67.8934556934
 20
159.1411621606
 30
0.0
 10
67.8934657911
 20
158.5769030709
 30
0.0
 10
67.8705062121
 20
157.7493811625
 30
0.0
 10
67.7892538155
 20
156.6845416596
 30
0.0
 10
67.7325284462
 20
156.1840273824
 30
0.0
 10
67.6997459916
 20
155.9456250228
 30
0.0
  0
SPLINE
  5
2F3
100
AcDbEntity
  8
RUNDUNGEN
100
AcDbSpline
 62
7
  6
CONTINUOUS
 70
0
 71
3
 72
10
 73
6
 74
0
 42
0.0000001
 43
0.0000001
 44
0.0000000001
 40
0.0
 40
0.0
 40
0.0
 40
0.0
 40
0.2253655816
 40
0.4715644998
 40
1.0
 40
1.0
 40
1.0
 40
1.0
 10
67.6997444978
 20
162.3356250228
 30
0.0
 10
67.7325162662
 20
162.0973030804
 30
0.0
 10
67.7892278144
 20
161.5969614373
 30
0.0
 10
67.8704702542
 20
160.5324802119
 30
0.0
 10
67.8934454163
 20
159.7052362534
 30
0.0
 10
67.8934556934
 20
159.1411621606
 30
0.0
  0
SPLINE
  5
2F4
100
AcDbEntity
  8
RUNDUNGEN
100
AcDbSpline
 62
7
  6
CONTINUOUS
 70
0
 71
3
 72
11
 73
7
 74
0
 42
0.0000001
 43
0.0000001
 44
0.0000000001
 40
0.0
 40
0.0
 40
0.0
 40
0.0
 40
0.2666889369
 40
0.5178071207
 40
0.7590094369
 40
1.0
 40
1.0
 40
1.0
 40
1.0
 10
73.2940554772
 20
163.71103087
 30
0.0
 10
73.1424989617
 20
163.6942089168
 30
0.0
 10
72.8512788727
 20
163.6055823633
 30
0.0
 10
72.5028348217
 20
163.331627178
 30
0.0
 10
72.2806355615
 20
162.9658106774
 30
0.0
 10
72.2294078675
 20
162.6875093607
 30
0.0
 10
72.229431608
 20
162.5497159319
 30
0.0
  0
LINE
  5
2F5
100
AcDbEntity
  8
RUNDUNGEN
100
AcDbLine
 62
7
  6
CONTINUOUS
 10
55.6969728593
 20
166.6367454615
 11
55.7498970151
 21
166.6356503824
  0
SPLINE
  5
2F6
100
AcDbEntity
  8
RUNDUNGEN
100
AcDbSpline
 62
7
  6
CONTINUOUS
 70
0
 71
3
 72
17
 73
13
 74
0
 42
0.0000001
 43
0.0000001
 44
0.0000000001
 40
0.0
 40
0.0
 40
0.0
 40
0.0
 40
0.1548715056
 40
0.3078644194
 40
0.457052906
 40
0.5995714745
 40
0.731326532
 40
0.8467868143
 40
0.8962769486
 40
0.9389796098
 40
0.973878287
 40
1.0
 40
1.0
 40
1.0
 40
1.0
 10
55.7498970151
 20
166.6356503824
 30
0.0
 10
56.0828528669
 20
166.6283339808
 30
0.0
 10
56.7444718857
 20
166.5977460304
 30
0.0
 10
57.7235097851
 20
166.5082508144
 30
0.0
 10
58.6719718144
 20
166.3846812266
 30
0.0
 10
59.5710032153
 20
166.2391520456
 30
0.0
 10
60.3947525135
 20
166.0844799429
 30
0.0
 10
61.019029621
 20
165.9521580108
 30
0.0
 10
61.453254853
 20
165.847980747
 30
0.0
 10
61.7174574198
 20
165.7777341836
 30
0.0
 10
61.9305705514
 20
165.7120150614
 30
0.0
 10
62.0535666236
 20
165.6652547751
 30
0.0
 10
62.1040474933
 20
165.6406173961
 30
0.0
  0
SPLINE
  5
2F7
100
AcDbEntity
  8
RUNDUNGEN
100
AcDbSpline
 62
7
  6
CONTINUOUS
 70
0
 71
3
 72
9
 73
5
 74
0
 42
0.0000001
 43
0.0000001
 44
0.0000000001
 40
0.0
 40
0.0
 40
0.0
 40
0.0
 40
0.5831901314
 40
1.0
 40
1.0
 40
1.0
 40
1.0
 10
55.7500093053
 20
166.4807083618
 30
0.0
 10
55.7438771929
 20
166.5080662663
 30
0.0
 10
55.7322172917
 20
166.5546901609
 30
0.0
 10
55.7163628934
 20
166.6003328263
 30
0.0
 10
55.7075378164
 20
166.6183228434
 30
0.0
  0
SPLINE
  5
2F8
100
AcDbEntity
  8
RUNDUNGEN
100
AcDbSpline
 62
7
  6
CONTINUOUS
 70
0
 71
3
 72
9
 73
5
 74
0
 42
0.0000001
 43
0.0000001
 44
0.0000000001
 40
0.0
 40
0.0
 40
0.0
 40
0.0
 40
0.2738707258
 40
1.0
 40
1.0
 40
1.0
 40
1.0
 10
55.7075378164
 20
166.6183228434
 30
0.0
 10
55.7066835658
 20
166.6200642429
 30
0.0
 10
55.7034756846
 20
166.6263770526
 30
0.0
 10
55.6998932473
 20
166.6325124274
 30
0.0
 10
55.6969728593
 20
166.6367454615
 30
0.0
  0
LINE
  5
2F9
100
AcDbEntity
  8
RUNDUNGEN
100
AcDbLine
 62
7
  6
CONTINUOUS
 10
55.6969732294
 20
151.6445038822
 11
55.7498904188
 21
151.6455990556
  0
SPLINE
  5
2FA
100
AcDbEntity
  8
RUNDUNGEN
100
AcDbSpline
 62
7
  6
CONTINUOUS
 70
0
 71
3
 72
17
 73
13
 74
0
 42
0.0000001
 43
0.0000001
 44
0.0000000001
 40
0.0
 40
0.0
 40
0.0
 40
0.0
 40
0.154870797
 40
0.307865318
 40
0.4570526777
 40
0.5995716172
 40
0.7313265457
 40
0.8467870109
 40
0.8962770659
 40
0.938980178
 40
0.9738784635
 40
1.0
 40
1.0
 40
1.0
 40
1.0
 10
55.7498904188
 20
151.6455990556
 30
0.0
 10
56.0828447144
 20
151.6529169423
 30
0.0
 10
56.744465216
 20
151.6835100357
 30
0.0
 10
57.7235040214
 20
151.772991004
 30
0.0
 10
58.6719662477
 20
151.896574134
 30
0.0
 10
59.5709968255
 20
152.0420949943
 30
0.0
 10
60.394747689
 20
152.196765668
 30
0.0
 10
61.0190223463
 20
152.3290963426
 30
0.0
 10
61.4532524785
 20
152.4332603598
 30
0.0
 10
61.7174482163
 20
152.5035304704
 30
0.0
 10
61.9305717109
 20
152.569214827
 30
0.0
 10
62.0535629677
 20
152.6159877138
 30
0.0
 10
62.1040393605
 20
152.6406333985
 30
0.0
  0
SPLINE
  5
2FB
100
AcDbEntity
  8
RUNDUNGEN
100
AcDbSpline
 62
7
  6
CONTINUOUS
 70
0
 71
3
 72
9
 73
5
 74
0
 42
0.0000001
 43
0.0000001
 44
0.0000000001
 40
0.0
 40
0.0
 40
0.0
 40
0.0
 40
0.1997447145
 40
1.0
 40
1.0
 40
1.0
 40
1.0
 10
55.6969732294
 20
151.6445038822
 30
0.0
 10
55.6993327721
 20
151.6479235515
 30
0.0
 10
55.7100572103
 20
151.665790832
 30
0.0
 10
55.7175667303
 20
151.6853638009
 30
0.0
 10
55.7229816877
 20
151.7011037712
 30
0.0
  0
SPLINE
  5
2FC
100
AcDbEntity
  8
RUNDUNGEN
100
AcDbSpline
 62
7
  6
CONTINUOUS
 70
0
 71
3
 72
9
 73
5
 74
0
 42
0.0000001
 43
0.0000001
 44
0.0000000001
 40
0.0
 40
0.0
 40
0.0
 40
0.0
 40
0.2305592439
 40
1.0
 40
1.0
 40
1.0
 40
1.0
 10
55.7229816877
 20
151.7011037712
 30
0.0
 10
55.724132297
 20
151.7044483139
 30
0.0
 10
55.7289726522
 20
151.7190061836
 30
0.0
 10
55.7332717159
 20
151.7337402978
 30
0.0
 10
55.7363752769
 20
151.7451287036
 30
0.0
  0
SPLINE
  5
2FD
100
AcDbEntity
  8
RUNDUNGEN
100
AcDbSpline
 62
7
  6
CONTINUOUS
 70
0
 71
3
 72
9
 73
5
 74
0
 42
0.0000001
 43
0.0000001
 44
0.0000000001
 40
0.0
 40
0.0
 40
0.0
 40
0.0
 40
0.2334107054
 40
1.0
 40
1.0
 40
1.0
 40
1.0
 10
55.7363752769
 20
151.7451287036
 30
0.0
 10
55.7375417021
 20
151.7494088592
 30
0.0
 10
55.7424111866
 20
151.7677811177
 30
0.0
 10
55.746811865
 20
151.7862757365
 30
0.0
 10
55.7499980163
 20
151.8004930305
 30
0.0
  0
SPLINE
  5
2FE
100
AcDbEntity
  8
RUNDUNGEN
100
AcDbSpline
 62
7
  6
CONTINUOUS
 70
0
 71
3
 72
15
 73
11
 74
0
 42
0.0000001
 43
0.0000001
 44
0.0000000001
 40
0.0
 40
0.0
 40
0.0
 40
0.0
 40
0.0402985697
 40
0.0852717055
 40
0.1876208215
 40
0.3037798907
 40
0.4306468415
 40
0.5656307924
 40
0.7066175417
 40
1.0
 40
1.0
 40
1.0
 40
1.0
 10
69.0062671438
 20
165.6723092561
 30
0.0
 10
69.028645977
 20
165.5896942954
 30
0.0
 10
69.0847505336
 20
165.4172362153
 30
0.0
 10
69.2330271789
 20
165.0471673657
 30
0.0
 10
69.4791078297
 20
164.5438610825
 30
0.0
 10
69.8355014142
 20
163.9025600589
 30
0.0
 10
70.2489340603
 20
163.2141735234
 30
0.0
 10
70.7053656961
 20
162.4904347393
 30
0.0
 10
71.3654832752
 20
161.4771843387
 30
0.0
 10
71.8802286676
 20
160.7115105437
 30
0.0
 10
72.2294326472
 20
160.1954207584
 30
0.0
  0
SPLINE
  5
2FF
100
AcDbEntity
  8
RUNDUNGEN
100
AcDbSpline
 62
7
  6
CONTINUOUS
 70
0
 71
3
 72
13
 73
9
 74
0
 42
0.0000001
 43
0.0000001
 44
0.0000000001
 40
0.0
 40
0.0
 40
0.0
 40
0.0
 40
0.0913500495
 40
0.197142391
 40
0.3145099825
 40
0.4409354913
 40
0.712842596
 40
1.0
 40
1.0
 40
1.0
 40
1.0
 10
84.7770683653
 20
165.4343055313
 30
0.0
 10
84.7141872342
 20
165.2588175859
 30
0.0
 10
84.5533832882
 20
164.8892162063
 30
0.0
 10
84.2582891369
 20
164.3191086491
 30
0.0
 10
83.903769223
 20
163.6998512068
 30
0.0
 10
83.3558245633
 20
162.801310981
 30
0.0
 10
82.5943859401
 20
161.6276176299
 30
0.0
 10
81.9578144872
 20
160.6808768969
 30
0.0
 10
81.6294320674
 20
160.1955447061
 30
0.0
  0
SPLINE
  5
300
100
AcDbEntity
  8
RUNDUNGEN
100
AcDbSpline
 62
7
  6
CONTINUOUS
 70
0
 71
3
 72
15
 73
11
 74
0
 42
0.0000001
 43
0.0000001
 44
0.0000000001
 40
0.0
 40
0.0
 40
0.0
 40
0.0
 40
0.0416695545
 40
0.0893743562
 40
0.1986284137
 40
0.3207198379
 40
0.4507175887
 40
0.5853659697
 40
0.7225897006
 40
1.0
 40
1.0
 40
1.0
 40
1.0
 10
99.1092511612
 20
152.6406190063
 30
0.0
 10
99.152755586
 20
152.6068238061
 30
0.0
 10
99.250904491
 20
152.5405916133
 30
0.0
 10
99.4793377109
 20
152.4108338435
 30
0.0
 10
99.8146827674
 20
152.2556939203
 30
0.0
 10
100.2613357523
 20
152.0855511693
 30
0.0
 10
100.7498317026
 20
151.9334940852
 30
0.0
 10
101.2662577438
 20
151.8070942076
 30
0.0
 10
101.9816217273
 20
151.6803426112
 30
0.0
 10
102.5307580761
 20
151.64062512
 30
0.0
 10
102.8975039373
 20
151.6406266287
 30
0.0
  0
SPLINE
  5
301
100
AcDbEntity
  8
RUNDUNGEN
100
AcDbSpline
 62
7
  6
CONTINUOUS
 70
0
 71
3
 72
15
 73
11
 74
0
 42
0.0000001
 43
0.0000001
 44
0.0000000001
 40
0.0
 40
0.0
 40
0.0
 40
0.0
 40
0.2774074412
 40
0.4146311545
 40
0.549279485
 40
0.6792773736
 40
0.8013698215
 40
0.9106253049
 40
0.9583306843
 40
1.0
 40
1.0
 40
1.0
 40
1.0
 10
102.8978383593
 20
166.6406246199
 30
0.0
 10
102.5310670504
 20
166.6406420283
 30
0.0
 10
101.9818892344
 20
166.6009400256
 30
0.0
 10
101.2664674946
 20
166.4742038005
 30
0.0
 10
100.7499984887
 20
166.3478004729
 30
0.0
 10
100.2614585057
 20
166.1957432023
 30
0.0
 10
99.8147631391
 20
166.0255943846
 30
0.0
 10
99.4793884226
 20
165.8704386581
 30
0.0
 10
99.2509321331
 20
165.7406754716
 30
0.0
 10
99.1527706504
 20
165.6744433789
 30
0.0
 10
99.1092650296
 20
165.640643077
 30
0.0
  0
SPLINE
  5
302
100
AcDbEntity
  8
RUNDUNGEN
100
AcDbSpline
 62
7
  6
CONTINUOUS
 70
0
 71
3
 72
19
 73
15
 74
0
 42
0.0000001
 43
0.0000001
 44
0.0000000001
 40
0.0
 40
0.0
 40
0.0
 40
0.0
 40
0.1796641455
 40
0.3521215374
 40
0.5110100924
 40
0.6512588976
 40
0.7133243181
 40
0.7696657873
 40
0.820212633
 40
0.8650728216
 40
0.9045899804
 40
0.9394319273
 40
0.9707017267
 40
1.0
 40
1.0
 40
1.0
 40
1.0
 10
100.3519865786
 20
159.1406250228
 30
0.0
 10
100.3520042571
 20
158.6391897111
 30
0.0
 10
100.3851515649
 20
157.6560940514
 30
0.0
 10
100.5325885567
 20
156.2362679596
 30
0.0
 10
100.7691471154
 20
154.9401154273
 30
0.0
 10
101.0401179908
 20
153.9668910477
 30
0.0
 10
101.2976006435
 20
153.2919518334
 30
0.0
 10
101.4968784235
 20
152.8640577395
 30
0.0
 10
101.7082685615
 20
152.4963319902
 30
0.0
 10
101.9300727373
 20
152.1909236103
 30
0.0
 10
102.1608463027
 20
151.9494745446
 30
0.0
 10
102.399755079
 20
151.773523711
 30
0.0
 10
102.64587901
 20
151.6653913914
 30
0.0
 10
102.8157336499
 20
151.6406250516
 30
0.0
 10
102.8975039373
 20
151.6406250228
 30
0.0
  0
SPLINE
  5
303
100
AcDbEntity
  8
RUNDUNGEN
100
AcDbSpline
 62
7
  6
CONTINUOUS
 70
0
 71
3
 72
19
 73
15
 74
0
 42
0.0000001
 43
0.0000001
 44
0.0000000001
 40
0.0
 40
0.0
 40
0.0
 40
0.0
 40
0.0293182772
 40
0.0605863426
 40
0.0954288756
 40
0.1349459224
 40
0.1798064456
 40
0.2303548715
 40
0.2867006065
 40
0.3487720332
 40
0.4890270422
 40
0.6478962771
 40
0.8203406824
 40
1.0
 40
1.0
 40
1.0
 40
1.0
 10
102.8976805905
 20
166.6406250228
 30
0.0
 10
102.81585276
 20
166.640633192
 30
0.0
 10
102.6459355324
 20
166.6158931733
 30
0.0
 10
102.3997621881
 20
166.5077230497
 30
0.0
 10
102.1608455508
 20
166.3317807641
 30
0.0
 10
101.9300696288
 20
166.0903196193
 30
0.0
 10
101.7082566897
 20
165.7849023467
 30
0.0
 10
101.4968559213
 20
165.4171521374
 30
0.0
 10
101.2975635601
 20
164.9892175361
 30
0.0
 10
101.0400651565
 20
164.3142185926
 30
0.0
 10
100.7691241502
 20
163.3409845034
 30
0.0
 10
100.53257369
 20
162.0448775805
 30
0.0
 10
100.3851546652
 20
160.6251234464
 30
0.0
 10
100.3520073059
 20
159.6420573598
 30
0.0
 10
100.3519865786
 20
159.1406250228
 30
0.0
  0
SPLINE
  5
304
100
AcDbEntity
  8
RUNDUNGEN
100
AcDbSpline
 62
7
  6
CONTINUOUS
 70
0
 71
3
 72
11
 73
7
 74
0
 42
0.0000001
 43
0.0000001
 44
0.0000000001
 40
0.0
 40
0.0
 40
0.0
 40
0.0
 40
0.2184837422
 40
0.4632881237
 40
0.7267657576
 40
1.0
 40
1.0
 40
1.0
 40
1.0
 10
99.1092596816
 20
165.6406279238
 30
0.0
 10
98.9929575179
 20
165.1779511935
 30
0.0
 10
98.7915441514
 20
164.1853625059
 30
0.0
 10
98.5803001374
 20
162.6116860485
 30
0.0
 10
98.4494562169
 20
160.9094032748
 30
0.0
 10
98.4201670651
 20
159.7372456493
 30
0.0
 10
98.420134926
 20
159.1406250228
 30
0.0
  0
SPLINE
  5
305
100
AcDbEntity
  8
RUNDUNGEN
100
AcDbSpline
 62
7
  6
CONTINUOUS
 70
0
 71
3
 72
11
 73
7
 74
0
 42
0.0000001
 43
0.0000001
 44
0.0000000001
 40
0.0
 40
0.0
 40
0.0
 40
0.0
 40
0.2732036169
 40
0.5366877534
 40
0.7815128151
 40
1.0
 40
1.0
 40
1.0
 40
1.0
 10
98.420134926
 20
159.1406250228
 30
0.0
 10
98.4201623813
 20
158.5440716778
 30
0.0
 10
98.4494618299
 20
157.3719681521
 30
0.0
 10
98.5802782182
 20
155.6696914991
 30
0.0
 10
98.7915496088
 20
154.0959531584
 30
0.0
 10
98.9929396733
 20
153.103306228
 30
0.0
 10
99.1092499401
 20
152.640624121
 30
0.0
  0
SPLINE
  5
306
100
AcDbEntity
  8
RUNDUNGEN
100
AcDbSpline
 62
7
  6
CONTINUOUS
 70
0
 71
3
 72
13
 73
9
 74
0
 42
0.0000001
 43
0.0000001
 44
0.0000000001
 40
0.0
 40
0.0
 40
0.0
 40
0.0
 40
0.3393912925
 40
0.6115727431
 40
0.7246787124
 40
0.8248059958
 40
0.9151123867
 40
1.0
 40
1.0
 40
1.0
 40
1.0
 10
85.7430313858
 20
153.6860254393
 30
0.0
 10
85.8070589131
 20
153.5311709194
 30
0.0
 10
85.9360975838
 20
153.2574653078
 30
0.0
 10
86.1387054166
 20
152.9589488989
 30
0.0
 10
86.3108425057
 20
152.7909762246
 30
0.0
 10
86.4348251725
 20
152.7051816725
 30
0.0
 10
86.5614836521
 20
152.6526535327
 30
0.0
 10
86.648356637
 20
152.6406339852
 30
0.0
 10
86.6902685891
 20
152.6406250228
 30
0.0
  0
SPLINE
  5
307
100
AcDbEntity
  8
RUNDUNGEN
100
AcDbSpline
 62
7
  6
CONTINUOUS
 70
0
 71
3
 72
12
 73
8
 74
0
 42
0.0000001
 43
0.0000001
 44
0.0000000001
 40
0.0
 40
0.0
 40
0.0
 40
0.0
 40
0.1639509824
 40
0.387375115
 40
0.5245027837
 40
0.6755806701
 40
1.0
 40
1.0
 40
1.0
 40
1.0
 10
73.429431608
 20
154.6406250228
 30
0.0
 10
73.4164995693
 20
154.6406250228
 30
0.0
 10
73.3866941719
 20
154.6562968624
 30
0.0
 10
73.3651754403
 20
154.692583208
 30
0.0
 10
73.3508118066
 20
154.7303150385
 30
0.0
 10
73.3394569153
 20
154.7774010893
 30
0.0
 10
73.3360988536
 20
154.8150356469
 30
0.0
 10
73.3360982755
 20
154.8406250228
 30
0.0
  0
SPLINE
  5
308
100
AcDbEntity
  8
RUNDUNGEN
100
AcDbSpline
 62
7
  6
CONTINUOUS
 70
0
 71
3
 72
12
 73
8
 74
0
 42
0.0000001
 43
0.0000001
 44
0.0000000001
 40
0.0
 40
0.0
 40
0.0
 40
0.0
 40
0.1639551531
 40
0.3873789678
 40
0.5245057196
 40
0.6755826525
 40
1.0
 40
1.0
 40
1.0
 40
1.0
 10
80.429431608
 20
154.6406250228
 30
0.0
 10
80.4423640436
 20
154.6406250228
 30
0.0
 10
80.4721701928
 20
154.6562963059
 30
0.0
 10
80.4936895628
 20
154.6925830309
 30
0.0
 10
80.5080530698
 20
154.7303149366
 30
0.0
 10
80.5194075047
 20
154.7774010608
 30
0.0
 10
80.5227649415
 20
154.8150356689
 30
0.0
 10
80.5227649419
 20
154.8406250228
 30
0.0
  0
SPLINE
  5
309
100
AcDbEntity
  8
RUNDUNGEN
100
AcDbSpline
 62
7
  6
CONTINUOUS
 70
0
 71
3
 72
14
 73
10
 74
0
 42
0.0000001
 43
0.0000001
 44
0.0000000001
 40
0.0
 40
0.0
 40
0.0
 40
0.0
 40
0.0641384632
 40
0.138129373
 40
0.2284783697
 40
0.3386939885
 40
0.4704940876
 40
0.6246800628
 40
1.0
 40
1.0
 40
1.0
 40
1.0
 10
68.4429745531
 20
151.6406250465
 30
0.0
 10
68.4679943292
 20
151.6406363479
 30
0.0
 10
68.5222144191
 20
151.6530660783
 30
0.0
 10
68.5971400824
 20
151.7036357362
 30
0.0
 10
68.6695548707
 20
151.7834223051
 30
0.0
 10
68.7404551137
 20
151.8924059253
 30
0.0
 10
68.8101830624
 20
152.0305792263
 30
0.0
 10
68.907767041
 20
152.2695757745
 30
0.0
 10
68.9679955256
 20
152.4676228594
 30
0.0
 10
69.0062671438
 20
152.6089407896
 30
0.0
  0
LINE
  5
30A
100
AcDbEntity
  8
RUNDUNGEN
100
AcDbLine
 62
7
  6
CONTINUOUS
 10
81.6019166243
 20
159.8436657819
 11
81.6294359825
 21
160.1955517723
  0
SPLINE
  5
30B
100
AcDbEntity
  8
RUNDUNGEN
100
AcDbSpline
 62
7
  6
CONTINUOUS
 70
0
 71
3
 72
11
 73
7
 74
0
 42
0.0000001
 43
0.0000001
 44
0.0000000001
 40
0.0
 40
0.0
 40
0.0
 40
0.0
 40
0.2320957382
 40
0.4805100529
 40
0.7397855553
 40
1.0
 40
1.0
 40
1.0
 40
1.0
 10
85.7429894858
 20
164.5951481302
 30
0.0
 10
85.7261437904
 20
164.699105365
 30
0.0
 10
85.6461905538
 20
164.9083467283
 30
0.0
 10
85.4241293523
 20
165.1672690591
 30
0.0
 10
85.1251284988
 20
165.3553714188
 30
0.0
 10
84.8942672668
 20
165.4199630808
 30
0.0
 10
84.7770683655
 20
165.4342962707
 30
0.0
  0
SPLINE
  5
30C
100
AcDbEntity
  8
RUNDUNGEN
100
AcDbSpline
 62
7
  6
CONTINUOUS
 70
0
 71
3
 72
11
 73
7
 74
0
 42
0.0000001
 43
0.0000001
 44
0.0000000001
 40
0.0
 40
0.0
 40
0.0
 40
0.0
 40
0.2540212457
 40
0.5056597483
 40
0.753985455
 40
1.0
 40
1.0
 40
1.0
 40
1.0
 10
86.6902685891
 20
165.6406250228
 30
0.0
 10
86.6902685885
 20
165.770534485
 30
0.0
 10
86.640613229
 20
166.0318498037
 30
0.0
 10
86.4268496981
 20
166.3640144908
 30
0.0
 10
86.1058812642
 20
166.5879582209
 30
0.0
 10
85.8501575038
 20
166.6406250228
 30
0.0
 10
85.7243427629
 20
166.6406250228
 30
0.0
  0
SPLINE
  5
30D
100
AcDbEntity
  8
RUNDUNGEN
100
AcDbSpline
 62
7
  6
CONTINUOUS
 70
0
 71
3
 72
11
 73
7
 74
0
 42
0.0000001
 43
0.0000001
 44
0.0000000001
 40
0.0
 40
0.0
 40
0.0
 40
0.0
 40
0.2540211942
 40
0.5056596798
 40
0.753985409
 40
1.0
 40
1.0
 40
1.0
 40
1.0
 10
99.1092481624
 20
165.6406279238
 30
0.0
 10
99.1092477384
 20
165.7705370865
 30
0.0
 10
99.0595917577
 20
166.031851645
 30
0.0
 10
98.8458280893
 20
166.3640151698
 30
0.0
 10
98.5248601607
 20
166.5879581359
 30
0.0
 10
98.2691369674
 20
166.6406249074
 30
0.0
 10
98.1433224674
 20
166.6406250228
 30
0.0
  0
SPLINE
  5
30E
100
AcDbEntity
  8
RUNDUNGEN
100
AcDbSpline
 62
7
  6
CONTINUOUS
 70
0
 71
3
 72
11
 73
7
 74
0
 42
0.0000001
 43
0.0000001
 44
0.0000000001
 40
0.0
 40
0.0
 40
0.0
 40
0.0
 40
0.2540211637
 40
0.5056596397
 40
0.7539853717
 40
1.0
 40
1.0
 40
1.0
 40
1.0
 10
99.1092459922
 20
152.640624121
 30
0.0
 10
99.1092460415
 20
152.5107147444
 30
0.0
 10
99.0595906552
 20
152.249399535
 30
0.0
 10
98.8458268785
 20
151.9172352087
 30
0.0
 10
98.5248584009
 20
151.6932917369
 30
0.0
 10
98.2691346686
 20
151.6406250214
 30
0.0
 10
98.1433199273
 20
151.6406250228
 30
0.0
  0
SPLINE
  5
30F
100
AcDbEntity
  8
RUNDUNGEN
100
AcDbSpline
 62
7
  6
CONTINUOUS
 70
0
 71
3
 72
11
 73
7
 74
0
 42
0.0000001
 43
0.0000001
 44
0.0000000001
 40
0.0
 40
0.0
 40
0.0
 40
0.0
 40
0.2540212502
 40
0.505659753
 40
0.7539854579
 40
1.0
 40
1.0
 40
1.0
 40
1.0
 10
86.6902685891
 20
152.6406250228
 30
0.0
 10
86.6902685891
 20
152.5107155583
 30
0.0
 10
86.6406132294
 20
152.2494002364
 30
0.0
 10
86.4268496947
 20
151.9172355493
 30
0.0
 10
86.1058812604
 20
151.6932918233
 30
0.0
 10
85.8501575024
 20
151.6406250228
 30
0.0
 10
85.7243427628
 20
151.6406250228
 30
0.0
  0
SPLINE
  5
310
100
AcDbEntity
  8
RUNDUNGEN
100
AcDbSpline
 62
7
  6
CONTINUOUS
 70
0
 71
3
 72
11
 73
7
 74
0
 42
0.0000001
 43
0.0000001
 44
0.0000000001
 40
0.0
 40
0.0
 40
0.0
 40
0.0
 40
0.2320955774
 40
0.4805099236
 40
0.7397855526
 40
1.0
 40
1.0
 40
1.0
 40
1.0
 10
85.7429941915
 20
153.6861019155
 30
0.0
 10
85.7261486061
 20
153.5821442286
 30
0.0
 10
85.6461952605
 20
153.3729018034
 30
0.0
 10
85.424133089
 20
153.113978118
 30
0.0
 10
85.1251305444
 20
152.9258750468
 30
0.0
 10
84.8942678924
 20
152.8612837216
 30
0.0
 10
84.7770683652
 20
152.8469510058
 30
0.0
  0
LINE
  5
311
100
AcDbEntity
  8
RUNDUNGEN
100
AcDbLine
 62
7
  6
CONTINUOUS
 10
81.629429921
 20
158.0857576265
 11
81.6019116871
 21
158.4376310556
  0
LINE
  5
312
100
AcDbEntity
  8
RUNDUNGEN
100
AcDbLine
 62
7
  6
CONTINUOUS
 10
72.2294417862
 20
160.1954081103
 11
72.2569610656
 21
159.8435372527
  0
SPLINE
  5
313
100
AcDbEntity
  8
RUNDUNGEN
100
AcDbSpline
 62
7
  6
CONTINUOUS
 70
0
 71
3
 72
11
 73
7
 74
0
 42
0.0000001
 43
0.0000001
 44
0.0000000001
 40
0.0
 40
0.0
 40
0.0
 40
0.0
 40
0.2604814347
 40
0.5182469616
 40
0.7656685926
 40
1.0
 40
1.0
 40
1.0
 40
1.0
 10
69.0062671437
 20
165.6722938676
 30
0.0
 10
68.8836306757
 20
165.6630373416
 30
0.0
 10
68.6409935799
 20
165.6044591004
 30
0.0
 10
68.3284654005
 20
165.4109240703
 30
0.0
 10
68.1032866602
 20
165.1350485603
 30
0.0
 10
68.0321025769
 20
164.911544886
 30
0.0
 10
68.0214728522
 20
164.8014180255
 30
0.0
  0
SPLINE
  5
314
100
AcDbEntity
  8
RUNDUNGEN
100
AcDbSpline
 62
7
  6
CONTINUOUS
 70
0
 71
3
 72
11
 73
7
 74
0
 42
0.0000001
 43
0.0000001
 44
0.0000000001
 40
0.0
 40
0.0
 40
0.0
 40
0.0
 40
0.2482605022
 40
0.4975003067
 40
0.7482033348
 40
1.0
 40
1.0
 40
1.0
 40
1.0
 10
68.4429742566
 20
166.6406250228
 30
0.0
 10
68.3147992249
 20
166.6406250228
 30
0.0
 10
68.055055286
 20
166.5883286019
 30
0.0
 10
67.7278002284
 20
166.3651091705
 30
0.0
 10
67.5091208161
 20
166.0328624483
 30
0.0
 10
67.4581665048
 20
165.7706257489
 30
0.0
 10
67.4581665036
 20
165.6406250228
 30
0.0
  0
SPLINE
  5
315
100
AcDbEntity
  8
RUNDUNGEN
100
AcDbSpline
 62
7
  6
CONTINUOUS
 70
0
 71
3
 72
11
 73
7
 74
0
 42
0.0000001
 43
0.0000001
 44
0.0000000001
 40
0.0
 40
0.0
 40
0.0
 40
0.0
 40
0.248260517
 40
0.4975003281
 40
0.7482033501
 40
1.0
 40
1.0
 40
1.0
 40
1.0
 10
63.0888381325
 20
166.6406250228
 30
0.0
 10
62.9606633225
 20
166.6406249672
 30
0.0
 10
62.7009198716
 20
166.5883286409
 30
0.0
 10
62.37366524
 20
166.3651099008
 30
0.0
 10
62.1549857103
 20
166.0328641624
 30
0.0
 10
62.1040308802
 20
165.7706280919
 30
0.0
 10
62.1040305267
 20
165.6406276063
 30
0.0
  0
LINE
  5
316
100
AcDbEntity
  8
RUNDUNGEN
100
AcDbLine
 62
7
  6
CONTINUOUS
 10
72.2569630386
 20
158.4377302782
 11
72.2294416234
 21
158.0858374385
  0
SPLINE
  5
317
100
AcDbEntity
  8
RUNDUNGEN
100
AcDbSpline
 62
7
  6
CONTINUOUS
 70
0
 71
3
 72
11
 73
7
 74
0
 42
0.0000001
 43
0.0000001
 44
0.0000000001
 40
0.0
 40
0.0
 40
0.0
 40
0.0
 40
0.2343311682
 40
0.4817528068
 40
0.7395184821
 40
1.0
 40
1.0
 40
1.0
 40
1.0
 10
68.0214660535
 20
153.4798320205
 30
0.0
 10
68.0320951204
 20
153.3697042789
 30
0.0
 10
68.1032788248
 20
153.1461983994
 30
0.0
 10
68.3284591201
 20
152.8703202403
 30
0.0
 10
68.6409901614
 20
152.6767836491
 30
0.0
 10
68.8836295793
 20
152.6182053937
 30
0.0
 10
69.0062671437
 20
152.6089491844
 30
0.0
  0
SPLINE
  5
318
100
AcDbEntity
  8
RUNDUNGEN
100
AcDbSpline
 62
7
  6
CONTINUOUS
 70
0
 71
3
 72
11
 73
7
 74
0
 42
0.0000001
 43
0.0000001
 44
0.0000000001
 40
0.0
 40
0.0
 40
0.0
 40
0.0
 40
0.2517966613
 40
0.502499689
 40
0.7517394951
 40
1.0
 40
1.0
 40
1.0
 40
1.0
 10
67.4581665036
 20
152.6406250228
 30
0.0
 10
67.4581665052
 20
152.5106242989
 30
0.0
 10
67.509120816
 20
152.2483876022
 30
0.0
 10
67.7278002248
 20
151.91614088
 30
0.0
 10
68.0550552823
 20
151.692921445
 30
0.0
 10
68.3147992234
 20
151.6406250228
 30
0.0
 10
68.4429742564
 20
151.6406250228
 30
0.0
  0
SPLINE
  5
319
100
AcDbEntity
  8
RUNDUNGEN
100
AcDbSpline
 62
7
  6
CONTINUOUS
 70
0
 71
3
 72
11
 73
7
 74
0
 42
0.0000001
 43
0.0000001
 44
0.0000000001
 40
0.0
 40
0.0
 40
0.0
 40
0.0
 40
0.2517966515
 40
0.5024996754
 40
0.7517394874
 40
1.0
 40
1.0
 40
1.0
 40
1.0
 10
62.1040289343
 20
152.6406230738
 30
0.0
 10
62.1040292009
 20
152.5106227806
 30
0.0
 10
62.1549837017
 20
152.2483870723
 30
0.0
 10
62.3736623781
 20
151.9161415128
 30
0.0
 10
62.700916021
 20
151.6929224238
 30
0.0
 10
62.9606589165
 20
151.6406254669
 30
0.0
 10
63.0888335338
 20
151.6406250228
 30
0.0
  0
SPLINE
  5
31A
100
AcDbEntity
  8
RUNDUNGEN
100
AcDbSpline
 62
7
  6
CONTINUOUS
 70
0
 71
3
 72
14
 73
10
 74
0
 42
0.0000001
 43
0.0000001
 44
0.0000000001
 40
0.0
 40
0.0
 40
0.0
 40
0.0
 40
0.0783486297
 40
0.1633595771
 40
0.2601764338
 40
0.3721871745
 40
0.5014101887
 40
0.6489318196
 40
1.0
 40
1.0
 40
1.0
 40
1.0
 10
85.7243425817
 20
166.6406250163
 30
0.0
 10
85.6822721859
 20
166.640618469
 30
0.0
 10
85.5940904357
 20
166.6263579735
 30
0.0
 10
85.4669812017
 20
166.5649129535
 30
0.0
 10
85.3432050094
 20
166.4654394969
 30
0.0
 10
85.222416684
 20
166.3291142229
 30
0.0
 10
85.1044534238
 20
166.1563842329
 30
0.0
 10
84.9418269986
 20
165.8606808955
 30
0.0
 10
84.840656673
 20
165.6117679759
 30
0.0
 10
84.7770683653
 20
165.4343055313
 30
0.0
  0
SPLINE
  5
31B
100
AcDbEntity
  8
RUNDUNGEN
100
AcDbSpline
 62
7
  6
CONTINUOUS
 70
0
 71
3
 72
12
 73
8
 74
0
 42
0.0000001
 43
0.0000001
 44
0.0000000001
 40
0.0
 40
0.0
 40
0.0
 40
0.0
 40
0.1639551449
 40
0.387378952
 40
0.5245057047
 40
0.6755826447
 40
1.0
 40
1.0
 40
1.0
 40
1.0
 10
73.429431608
 20
163.6406250228
 30
0.0
 10
73.416499173
 20
163.6406250228
 30
0.0
 10
73.386693024
 20
163.6249537426
 30
0.0
 10
73.3651736551
 20
163.5886670176
 30
0.0
 10
73.350810147
 20
163.5509351124
 30
0.0
 10
73.3394557122
 20
163.5038489867
 30
0.0
 10
73.3360982744
 20
163.4662143775
 30
0.0
 10
73.336098274
 20
163.4406250228
 30
0.0
  0
SPLINE
  5
31C
100
AcDbEntity
  8
RUNDUNGEN
100
AcDbSpline
 62
7
  6
CONTINUOUS
 70
0
 71
3
 72
12
 73
8
 74
0
 42
0.0000001
 43
0.0000001
 44
0.0000000001
 40
0.0
 40
0.0
 40
0.0
 40
0.0
 40
0.1639509824
 40
0.387375115
 40
0.5245027837
 40
0.6755806701
 40
1.0
 40
1.0
 40
1.0
 40
1.0
 10
80.429431608
 20
163.6406250228
 30
0.0
 10
80.4423636467
 20
163.6406250228
 30
0.0
 10
80.4721690441
 20
163.6249531833
 30
0.0
 10
80.4936877757
 20
163.5886668377
 30
0.0
 10
80.5080514094
 20
163.5509350072
 30
0.0
 10
80.5194063006
 20
163.5038489564
 30
0.0
 10
80.5227643624
 20
163.4662143988
 30
0.0
 10
80.5227649404
 20
163.4406250228
 30
0.0
  0
SPLINE
  5
31D
100
AcDbEntity
  8
RUNDUNGEN
100
AcDbSpline
 62
7
  6
CONTINUOUS
 70
0
 71
3
 72
14
 73
10
 74
0
 42
0.0000001
 43
0.0000001
 44
0.0000000001
 40
0.0
 40
0.0
 40
0.0
 40
0.0
 40
0.0641375695
 40
0.1381291993
 40
0.2284794148
 40
0.3386952011
 40
0.470494753
 40
0.6246800949
 40
1.0
 40
1.0
 40
1.0
 40
1.0
 10
68.4429744992
 20
166.6406250068
 30
0.0
 10
68.4679939506
 20
166.6406156995
 30
0.0
 10
68.5222149202
 20
166.6281868866
 30
0.0
 10
68.5971398966
 20
166.5776152949
 30
0.0
 10
68.6695545904
 20
166.497827564
 30
0.0
 10
68.7404551669
 20
166.388843633
 30
0.0
 10
68.8101832156
 20
166.2506706665
 30
0.0
 10
68.9077674467
 20
166.0116744717
 30
0.0
 10
68.9679958184
 20
165.8136273931
 30
0.0
 10
69.0062671438
 20
165.6723092561
 30
0.0
  0
SPLINE
  5
31E
100
AcDbEntity
  8
RUNDUNGEN
100
AcDbSpline
 62
7
  6
CONTINUOUS
 70
0
 71
3
 72
14
 73
10
 74
0
 42
0.0000001
 43
0.0000001
 44
0.0000000001
 40
0.0
 40
0.0
 40
0.0
 40
0.0
 40
0.0850138166
 40
0.1871325496
 40
0.303116734
 40
0.4299557768
 40
0.5650505924
 40
0.7062397459
 40
1.0
 40
1.0
 40
1.0
 40
1.0
 10
85.7430317522
 20
164.5952298366
 30
0.0
 10
85.6608641555
 20
164.436205787
 30
0.0
 10
85.4495399238
 20
164.1022256475
 30
0.0
 10
85.0658933974
 20
163.5920232146
 30
0.0
 10
84.601419493
 20
163.0333507738
 30
0.0
 10
84.074083619
 20
162.4373991698
 30
0.0
 10
83.4987171172
 20
161.8133327878
 30
0.0
 10
82.6732631781
 20
160.9419883108
 30
0.0
 10
82.0343372599
 20
160.2858591667
 30
0.0
 10
81.6018946524
 20
159.8436427928
 30
0.0
  0
SPLINE
  5
31F
100
AcDbEntity
  8
RUNDUNGEN
100
AcDbSpline
 62
7
  6
CONTINUOUS
 70
0
 71
3
 72
14
 73
10
 74
0
 42
0.0000001
 43
0.0000001
 44
0.0000000001
 40
0.0
 40
0.0
 40
0.0
 40
0.0
 40
0.2937539804
 40
0.4349443243
 40
0.5700407582
 40
0.6968809103
 40
0.8128658932
 40
0.9149854934
 40
1.0
 40
1.0
 40
1.0
 40
1.0
 10
81.6018931872
 20
158.43764944
 30
0.0
 10
82.0343285331
 20
157.9954402544
 30
0.0
 10
82.6732224464
 20
157.3392888562
 30
0.0
 10
83.4986852119
 20
156.4679549368
 30
0.0
 10
84.0740608779
 20
155.8438800928
 30
0.0
 10
84.601402768
 20
155.2479188105
 30
0.0
 10
85.0658840315
 20
154.6892402708
 30
0.0
 10
85.4495348223
 20
154.1790310728
 30
0.0
 10
85.6608632106
 20
153.8450473087
 30
0.0
 10
85.7430313839
 20
153.6860209469
 30
0.0
  0
SPLINE
  5
320
100
AcDbEntity
  8
RUNDUNGEN
100
AcDbSpline
 62
7
  6
CONTINUOUS
 70
0
 71
3
 72
11
 73
7
 74
0
 42
0.0000001
 43
0.0000001
 44
0.0000000001
 40
0.0
 40
0.0
 40
0.0
 40
0.0
 40
0.2418682172
 40
0.4846423361
 40
0.735484337
 40
1.0
 40
1.0
 40
1.0
 40
1.0
 10
73.3360982747
 20
154.8406250228
 30
0.0
 10
73.2491689977
 20
154.8406366134
 30
0.0
 10
73.0737659358
 20
154.8678854177
 30
0.0
 10
72.8341263879
 20
154.9893091347
 30
0.0
 10
72.6394607355
 20
155.1869265483
 30
0.0
 10
72.5607766688
 20
155.3600119659
 30
0.0
 10
72.5378688973
 20
155.4522797163
 30
0.0
  0
SPLINE
  5
321
100
AcDbEntity
  8
RUNDUNGEN
100
AcDbSpline
 62
7
  6
CONTINUOUS
 70
0
 71
3
 72
11
 73
7
 74
0
 42
0.0000001
 43
0.0000001
 44
0.0000000001
 40
0.0
 40
0.0
 40
0.0
 40
0.0
 40
0.2644952595
 40
0.5153377397
 40
0.7581197829
 40
1.0
 40
1.0
 40
1.0
 40
1.0
 10
72.538021719
 20
162.8296001047
 30
0.0
 10
72.5609877746
 20
162.9217877689
 30
0.0
 10
72.639753586
 20
163.0946964527
 30
0.0
 10
72.8343771081
 20
163.2921072285
 30
0.0
 10
73.0739119869
 20
163.4133934445
 30
0.0
 10
73.2492161882
 20
163.4406137887
 30
0.0
 10
73.3360982747
 20
163.4406250228
 30
0.0
  0
SPLINE
  5
322
100
AcDbEntity
  8
RUNDUNGEN
100
AcDbSpline
 62
7
  6
CONTINUOUS
 70
0
 71
3
 72
11
 73
7
 74
0
 42
0.0000001
 43
0.0000001
 44
0.0000000001
 40
0.0
 40
0.0
 40
0.0
 40
0.0
 40
0.2418682172
 40
0.4846423361
 40
0.735484337
 40
1.0
 40
1.0
 40
1.0
 40
1.0
 10
80.5227649413
 20
163.4406250228
 30
0.0
 10
80.6096942183
 20
163.4406134323
 30
0.0
 10
80.7850972802
 20
163.413364628
 30
0.0
 10
81.0247368281
 20
163.291940911
 30
0.0
 10
81.2194024805
 20
163.0943234974
 30
0.0
 10
81.2980865472
 20
162.9212380798
 30
0.0
 10
81.3209943187
 20
162.8289703294
 30
0.0
  0
SPLINE
  5
323
100
AcDbEntity
  8
RUNDUNGEN
100
AcDbSpline
 62
7
  6
CONTINUOUS
 70
0
 71
3
 72
11
 73
7
 74
0
 42
0.0000001
 43
0.0000001
 44
0.0000000001
 40
0.0
 40
0.0
 40
0.0
 40
0.0
 40
0.2644952595
 40
0.5153377397
 40
0.7581197829
 40
1.0
 40
1.0
 40
1.0
 40
1.0
 10
81.320841497
 20
155.451649941
 30
0.0
 10
81.2978754414
 20
155.3594622768
 30
0.0
 10
81.21910963
 20
155.186553593
 30
0.0
 10
81.0244861079
 20
154.9891428172
 30
0.0
 10
80.7849512291
 20
154.8678566012
 30
0.0
 10
80.6096470278
 20
154.840636257
 30
0.0
 10
80.5227649413
 20
154.8406250228
 30
0.0
  0
SPLINE
  5
324
100
AcDbEntity
  8
RUNDUNGEN
100
AcDbSpline
 62
7
  6
CONTINUOUS
 70
0
 71
3
 72
15
 73
11
 74
0
 42
0.0000001
 43
0.0000001
 44
0.0000000001
 40
0.0
 40
0.0
 40
0.0
 40
0.0
 40
0.0362770794
 40
0.0779366628
 40
0.1758857317
 40
0.290351369
 40
0.4176729871
 40
0.5546939774
 40
0.6987993636
 40
1.0
 40
1.0
 40
1.0
 40
1.0
 10
68.021422297
 20
153.4797247701
 30
0.0
 10
68.0502081343
 20
153.5534307671
 30
0.0
 10
68.1229365567
 20
153.7075279602
 30
0.0
 10
68.3159386227
 20
154.0393774637
 30
0.0
 10
68.6378546186
 20
154.4916136772
 30
0.0
 10
69.1034703841
 20
155.0682438281
 30
0.0
 10
69.6466726238
 20
155.6910682242
 30
0.0
 10
70.2481181738
 20
156.3483720101
 30
0.0
 10
71.1201561692
 20
157.2719460908
 30
0.0
 10
71.7976390967
 20
157.9680198326
 30
0.0
 10
72.2569725842
 20
158.4377386566
 30
0.0
  0
SPLINE
  5
325
100
AcDbEntity
  8
RUNDUNGEN
100
AcDbSpline
 62
7
  6
CONTINUOUS
 70
0
 71
3
 72
15
 73
11
 74
0
 42
0.0000001
 43
0.0000001
 44
0.0000000001
 40
0.0
 40
0.0
 40
0.0
 40
0.0
 40
0.0362773691
 40
0.0779359617
 40
0.1758842745
 40
0.2903491616
 40
0.4176707213
 40
0.55469167
 40
0.6987969046
 40
1.0
 40
1.0
 40
1.0
 40
1.0
 10
68.0214115129
 20
164.801556456
 30
0.0
 10
68.050196822
 20
164.7278493011
 30
0.0
 10
68.122921828
 20
164.5737515987
 30
0.0
 10
68.3159193983
 20
164.2419016477
 30
0.0
 10
68.6378298993
 20
163.789665863
 30
0.0
 10
69.1034476708
 20
163.2130386117
 30
0.0
 10
69.6466478709
 20
162.590211435
 30
0.0
 10
70.2480956409
 20
161.9329065347
 30
0.0
 10
71.1201325229
 20
161.0093189575
 30
0.0
 10
71.7976331879
 20
160.3132509708
 30
0.0
 10
72.256972262
 20
159.8435271512
 30
0.0
  0
SPLINE
  5
326
100
AcDbEntity
  8
RUNDUNGEN
100
AcDbSpline
 62
7
  6
CONTINUOUS
 70
0
 71
3
 72
11
 73
7
 74
0
 42
0.0000001
 43
0.0000001
 44
0.0000000001
 40
0.0
 40
0.0
 40
0.0
 40
0.0
 40
0.2666889369
 40
0.5178071207
 40
0.7590094369
 40
1.0
 40
1.0
 40
1.0
 40
1.0
 10
80.5648077388
 20
154.5702191757
 30
0.0
 10
80.7163642543
 20
154.5870411289
 30
0.0
 10
81.0075843433
 20
154.6756676824
 30
0.0
 10
81.3560283943
 20
154.9496228676
 30
0.0
 10
81.5782276545
 20
155.3154393682
 30
0.0
 10
81.6294553485
 20
155.593740685
 30
0.0
 10
81.629431608
 20
155.7315341137
 30
0.0
  0
SPLINE
  5
327
100
AcDbEntity
  8
RUNDUNGEN
100
AcDbSpline
 62
7
  6
CONTINUOUS
 70
0
 71
3
 72
13
 73
9
 74
0
 42
0.0000001
 43
0.0000001
 44
0.0000000001
 40
0.0
 40
0.0
 40
0.0
 40
0.0
 40
0.2871535975
 40
0.5590625378
 40
0.6854887088
 40
0.8028567193
 40
0.908649512
 40
1.0
 40
1.0
 40
1.0
 40
1.0
 10
81.6294314065
 20
158.0857568747
 30
0.0
 10
81.9578130701
 20
157.6004285624
 30
0.0
 10
82.5943453241
 20
156.6536567836
 30
0.0
 10
83.3558090632
 20
155.4799713888
 30
0.0
 10
83.9037584557
 20
154.5814182867
 30
0.0
 10
84.2582835526
 20
153.9621543959
 30
0.0
 10
84.5533790695
 20
153.3920394826
 30
0.0
 10
84.7141863581
 20
153.0224344926
 30
0.0
 10
84.7770683653
 20
152.8469445144
 30
0.0
  0
SPLINE
  5
328
100
AcDbEntity
  8
RUNDUNGEN
100
AcDbSpline
 62
7
  6
CONTINUOUS
 70
0
 71
3
 72
14
 73
10
 74
0
 42
0.0000001
 43
0.0000001
 44
0.0000000001
 40
0.0
 40
0.0
 40
0.0
 40
0.0
 40
0.3510682394
 40
0.4985898707
 40
0.6278129165
 40
0.7398238121
 40
0.8366405999
 40
0.9216511547
 40
1.0
 40
1.0
 40
1.0
 40
1.0
 10
84.7770683653
 20
152.8469445144
 30
0.0
 10
84.840656798
 20
152.6694821078
 30
0.0
 10
84.9418271271
 20
152.4205692068
 30
0.0
 10
85.1044534783
 20
152.1248658241
 30
0.0
 10
85.2224168024
 20
151.9521357815
 30
0.0
 10
85.3432051991
 20
151.8158105333
 30
0.0
 10
85.4669812095
 20
151.716337122
 30
0.0
 10
85.594090564
 20
151.6548925824
 30
0.0
 10
85.6822720595
 20
151.6406321601
 30
0.0
 10
85.7243425654
 20
151.6406250306
 30
0.0
  0
SPLINE
  5
329
100
AcDbEntity
  8
RUNDUNGEN
100
AcDbSpline
 62
7
  6
CONTINUOUS
 70
0
 71
3
 72
13
 73
9
 74
0
 42
0.0000001
 43
0.0000001
 44
0.0000000001
 40
0.0
 40
0.0
 40
0.0
 40
0.0
 40
0.0848876131
 40
0.1751942766
 40
0.2753215916
 40
0.3884273528
 40
0.6606086913
 40
1.0
 40
1.0
 40
1.0
 40
1.0
 10
86.6902685891
 20
165.6406250228
 30
0.0
 10
86.6483566621
 20
165.640616718
 30
0.0
 10
86.5614834181
 20
165.6285970018
 30
0.0
 10
86.4348254106
 20
165.5760677356
 30
0.0
 10
86.3108426572
 20
165.4902735137
 30
0.0
 10
86.1387053628
 20
165.3223013956
 30
0.0
 10
85.9360979658
 20
165.0237851166
 30
0.0
 10
85.8070590039
 20
164.7500798992
 30
0.0
 10
85.7430317543
 20
164.5952253645
 30
0.0
  0
SPLINE
  5
32A
100
AcDbEntity
  8
RUNDUNGEN
100
AcDbSpline
 62
7
  6
CONTINUOUS
 70
0
 71
3
 72
11
 73
7
 74
0
 42
0.0000001
 43
0.0000001
 44
0.0000000001
 40
0.0
 40
0.0
 40
0.0
 40
0.0
 40
0.2477101266
 40
0.496836802
 40
0.7477927309
 40
1.0
 40
1.0
 40
1.0
 40
1.0
 10
54.7623692494
 20
165.6551554146
 30
0.0
 10
54.7807554457
 20
165.7687031311
 30
0.0
 10
54.8597283219
 20
165.9917667104
 30
0.0
 10
55.0881267331
 20
166.2627096818
 30
0.0
 10
55.3972143242
 20
166.4398732641
 30
0.0
 10
55.6328850311
 20
166.4807470271
 30
0.0
 10
55.75
 20
166.480747049
 30
0.0
  0
SPLINE
  5
32B
100
AcDbEntity
  8
RUNDUNGEN
100
AcDbSpline
 62
7
  6
CONTINUOUS
 70
0
 71
3
 72
16
 73
12
 74
0
 42
0.0000001
 43
0.0000001
 44
0.0000000001
 40
0.0
 40
0.0
 40
0.0
 40
0.0
 40
0.1681140325
 40
0.3311830113
 40
0.4845481659
 40
0.6241964188
 40
0.7469843385
 40
0.8507718453
 40
0.895248707
 40
0.9347976359
 40
1.0
 40
1.0
 40
1.0
 40
1.0
 10
57.5014226112
 20
159.1401916129
 30
0.0
 10
57.5014262733
 20
159.572197656
 30
0.0
 10
57.4799783663
 20
160.4234113608
 30
0.0
 10
57.3842077584
 20
161.6654485715
 30
0.0
 10
57.2288603899
 20
162.8277953297
 30
0.0
 10
57.0198967053
 20
163.8765778841
 30
0.0
 10
56.7646471671
 20
164.7834895394
 30
0.0
 10
56.5091587736
 20
165.4334796714
 30
0.0
 10
56.2820568019
 20
165.8602990097
 30
0.0
 10
56.0716527978
 20
166.1805165718
 30
0.0
 10
55.8863469749
 20
166.3833329407
 30
0.0
 10
55.7500004971
 20
166.4807149554
 30
0.0
  0
SPLINE
  5
32C
100
AcDbEntity
  8
RUNDUNGEN
100
AcDbSpline
 62
7
  6
CONTINUOUS
 70
0
 71
3
 72
17
 73
13
 74
0
 42
0.0000001
 43
0.0000001
 44
0.0000000001
 40
0.0
 40
0.0
 40
0.0
 40
0.0
 40
0.0305459265
 40
0.0653742571
 40
0.1049162636
 40
0.1493842764
 40
0.2531512121
 40
0.3759152081
 40
0.5155474345
 40
0.668897168
 40
0.8319343237
 40
1.0
 40
1.0
 40
1.0
 40
1.0
 10
55.7499998889
 20
151.8004926203
 30
0.0
 10
55.8138878945
 20
151.8461073816
 30
0.0
 10
55.9405760527
 20
151.9579959256
 30
0.0
 10
56.1141006126
 20
152.1652434765
 30
0.0
 10
56.2820697343
 20
152.4209860573
 30
0.0
 10
56.5090005974
 20
152.8474551566
 30
0.0
 10
56.7645874849
 20
153.4975310154
 30
0.0
 10
57.0198020507
 20
154.4042915217
 30
0.0
 10
57.2287940071
 20
155.4530364269
 30
0.0
 10
57.3841435226
 20
156.6153075022
 30
0.0
 10
57.4799331476
 20
157.8571995317
 30
0.0
 10
57.501415685
 20
158.7082748156
 30
0.0
 10
57.5014226112
 20
159.1401916129
 30
0.0
  0
SPLINE
  5
32D
100
AcDbEntity
  8
RUNDUNGEN
100
AcDbSpline
 62
7
  6
CONTINUOUS
 70
0
 71
3
 72
11
 73
7
 74
0
 42
0.0000001
 43
0.0000001
 44
0.0000000001
 40
0.0
 40
0.0
 40
0.0
 40
0.0
 40
0.2477102817
 40
0.4968370016
 40
0.7477928605
 40
1.0
 40
1.0
 40
1.0
 40
1.0
 10
54.7623691841
 20
152.6260925392
 30
0.0
 10
54.7807553345
 20
152.5125446448
 30
0.0
 10
54.8597281155
 20
152.2894807299
 30
0.0
 10
55.0881264992
 20
152.0185372629
 30
0.0
 10
55.397214172
 20
151.8413733402
 30
0.0
 10
55.6328849933
 20
151.8004995131
 30
0.0
 10
55.75
 20
151.800499505
 30
0.0
  0
SPLINE
  5
32E
100
AcDbEntity
  8
RUNDUNGEN
100
AcDbSpline
 62
7
  6
CONTINUOUS
 70
0
 71
3
 72
15
 73
11
 74
0
 42
0.0000001
 43
0.0000001
 44
0.0000000001
 40
0.0
 40
0.0
 40
0.0
 40
0.0
 40
0.0402984122
 40
0.0852718095
 40
0.1876207554
 40
0.3037800164
 40
0.430647046
 40
0.5656312131
 40
0.7066183323
 40
1.0
 40
1.0
 40
1.0
 40
1.0
 10
69.0062671438
 20
152.6089407896
 30
0.0
 10
69.028643992
 20
152.6915558872
 30
0.0
 10
69.084752978
 20
152.8640129208
 30
0.0
 10
69.2330353143
 20
153.2340786669
 30
0.0
 10
69.4791008865
 20
153.7373924404
 30
0.0
 10
69.8355014788
 20
154.378689761
 30
0.0
 10
70.2489331734
 20
155.0670772844
 30
0.0
 10
70.7053680205
 20
155.7908151758
 30
0.0
 10
71.3654839497
 20
156.8040651972
 30
0.0
 10
71.8802282958
 20
157.5697379813
 30
0.0
 10
72.229432715
 20
158.0858249826
 30
0.0
  0
SPLINE
  5
32F
100
AcDbEntity
  8
RUNDUNGEN
100
AcDbSpline
 62
7
  6
CONTINUOUS
 70
0
 71
3
 72
11
 73
7
 74
0
 42
0.0000001
 43
0.0000001
 44
0.0000000001
 40
0.0
 40
0.0
 40
0.0
 40
0.0
 40
0.2409783016
 40
0.4821736576
 40
0.7333027415
 40
1.0
 40
1.0
 40
1.0
 40
1.0
 10
72.229431608
 20
155.7315341137
 30
0.0
 10
72.2294077713
 20
155.5937017402
 30
0.0
 10
72.280668162
 20
155.3153182998
 30
0.0
 10
72.5029945777
 20
154.9494110908
 30
0.0
 10
72.8516458066
 20
154.6754576436
 30
0.0
 10
73.1430134788
 20
154.5869101857
 30
0.0
 10
73.2946332666
 20
154.5701542689
 30
0.0
  0
SPLINE
  5
330
100
AcDbEntity
  8
RUNDUNGEN
100
AcDbSpline
 62
7
  6
CONTINUOUS
 70
0
 71
3
 72
11
 73
7
 74
0
 42
0.0000001
 43
0.0000001
 44
0.0000000001
 40
0.0
 40
0.0
 40
0.0
 40
0.0
 40
0.2409783016
 40
0.4821736576
 40
0.7333027415
 40
1.0
 40
1.0
 40
1.0
 40
1.0
 10
81.629431608
 20
162.5497159319
 30
0.0
 10
81.6294554447
 20
162.6875483054
 30
0.0
 10
81.578195054
 20
162.9659317459
 30
0.0
 10
81.3558686383
 20
163.3318389549
 30
0.0
 10
81.0072174093
 20
163.6057924021
 30
0.0
 10
80.7158497372
 20
163.69433986
 30
0.0
 10
80.5642299494
 20
163.7110957768
 30
0.0
  0
SPLINE
  5
331
100
AcDbEntity
  8
RUNDUNGEN
100
AcDbSpline
 62
7
  6
CONTINUOUS
 70
0
 71
3
 72
13
 73
9
 74
0
 42
0.0000001
 43
0.0000001
 44
0.0000000001
 40
0.0
 40
0.0
 40
0.0
 40
0.0
 40
0.0705184044
 40
0.1493412674
 40
0.2424014851
 40
0.3532543317
 40
0.634841438
 40
1.0
 40
1.0
 40
1.0
 40
1.0
 10
67.4581665036
 20
165.6406250228
 30
0.0
 10
67.4830440014
 20
165.6406136614
 30
0.0
 10
67.536049837
 20
165.6302994761
 30
0.0
 10
67.6110550863
 20
165.5870371553
 30
0.0
 10
67.6838672572
 20
165.5179292258
 30
0.0
 10
67.787078537
 20
165.3805738065
 30
0.0
 10
67.906910032
 20
165.1398006576
 30
0.0
 10
67.9829856063
 20
164.9244982461
 30
0.0
 10
68.0214115054
 20
164.8015420321
 30
0.0
  0
SPLINE
  5
332
100
AcDbEntity
  8
RUNDUNGEN
100
AcDbSpline
 62
7
  6
CONTINUOUS
 70
0
 71
3
 72
13
 73
9
 74
0
 42
0.0000001
 43
0.0000001
 44
0.0000000001
 40
0.0
 40
0.0
 40
0.0
 40
0.0
 40
0.0705182944
 40
0.1493396724
 40
0.242398516
 40
0.3532522933
 40
0.6348433683
 40
1.0
 40
1.0
 40
1.0
 40
1.0
 10
67.4581665036
 20
152.6406250228
 30
0.0
 10
67.4830446577
 20
152.6406386756
 30
0.0
 10
67.5360504933
 20
152.650953901
 30
0.0
 10
67.6110583934
 20
152.6942144041
 30
0.0
 10
67.6838725651
 20
152.7633236766
 30
0.0
 10
67.7870849831
 20
152.9006858635
 30
0.0
 10
67.9069170119
 20
153.1414681141
 30
0.0
 10
67.9829950792
 20
153.3567770827
 30
0.0
 10
68.0214222925
 20
153.4797359499
 30
0.0
  0
SPLINE
  5
333
100
AcDbEntity
  8
RUNDUNGEN
100
AcDbSpline
 62
7
  6
CONTINUOUS
 70
0
 71
3
 72
11
 73
7
 74
0
 42
0.0000001
 43
0.0000001
 44
0.0000000001
 40
0.0
 40
0.0
 40
0.0
 40
0.0
 40
0.3311755726
 40
0.4852043814
 40
0.6247590248
 40
1.0
 40
1.0
 40
1.0
 40
1.0
 10
81.629431608
 20
155.7315341128
 30
0.0
 10
81.6038479138
 20
155.7315341129
 30
0.0
 10
81.5663773723
 20
155.7283985883
 30
0.0
 10
81.5189520229
 20
155.7170213871
 30
0.0
 10
81.4718439609
 20
155.7003630435
 30
0.0
 10
81.429431608
 20
155.6696128201
 30
0.0
 10
81.429431608
 20
155.6406250229
 30
0.0
  0
SPLINE
  5
334
100
AcDbEntity
  8
RUNDUNGEN
100
AcDbSpline
 62
7
  6
CONTINUOUS
 70
0
 71
3
 72
12
 73
8
 74
0
 42
0.0000001
 43
0.0000001
 44
0.0000000001
 40
0.0
 40
0.0
 40
0.0
 40
0.0
 40
0.3725506276
 40
0.6906299087
 40
0.9062422986
 40
0.9673589269
 40
1.0
 40
1.0
 40
1.0
 40
1.0
 10
81.6294314065
 20
158.0857421707
 30
0.0
 10
81.6039419568
 20
158.085742292
 30
0.0
 10
81.5565753026
 20
158.0844456619
 30
0.0
 10
81.4951143718
 20
158.0793745735
 30
0.0
 10
81.4542257143
 20
158.0719808308
 30
0.0
 10
81.4349547566
 20
158.0650082358
 30
0.0
 10
81.4294311934
 20
158.0598441947
 30
0.0
 10
81.4294316081
 20
158.0576109332
 30
0.0
  0
SPLINE
  5
335
100
AcDbEntity
  8
RUNDUNGEN
100
AcDbSpline
 62
7
  6
CONTINUOUS
 70
0
 71
3
 72
12
 73
8
 74
0
 42
0.0000001
 43
0.0000001
 44
0.0000000001
 40
0.0
 40
0.0
 40
0.0
 40
0.0
 40
0.3725503493
 40
0.6906296614
 40
0.9062425784
 40
0.9673594175
 40
1.0
 40
1.0
 40
1.0
 40
1.0
 10
81.629431608
 20
160.195505117
 30
0.0
 10
81.603942216
 20
160.195505064
 30
0.0
 10
81.5565756402
 20
160.1968017464
 30
0.0
 10
81.4951148282
 20
160.2018726203
 30
0.0
 10
81.4542260128
 20
160.2092659473
 30
0.0
 10
81.4349550829
 20
160.2162382225
 30
0.0
 10
81.4294312644
 20
160.2214019669
 30
0.0
 10
81.429431608
 20
160.2236351914
 30
0.0
  0
SPLINE
  5
336
100
AcDbEntity
  8
RUNDUNGEN
100
AcDbSpline
 62
7
  6
CONTINUOUS
 70
0
 71
3
 72
11
 73
7
 74
0
 42
0.0000001
 43
0.0000001
 44
0.0000000001
 40
0.0
 40
0.0
 40
0.0
 40
0.0
 40
0.3311764287
 40
0.4852057704
 40
0.624760593
 40
1.0
 40
1.0
 40
1.0
 40
1.0
 10
81.629431608
 20
162.5497159324
 30
0.0
 10
81.6038478768
 20
162.5497160792
 30
0.0
 10
81.5663773017
 20
162.5528518124
 30
0.0
 10
81.5189519006
 20
162.564229115
 30
0.0
 10
81.4718440184
 20
162.5808875079
 30
0.0
 10
81.429431608
 20
162.6116373797
 30
0.0
 10
81.429431608
 20
162.6406250228
 30
0.0
  0
SPLINE
  5
337
100
AcDbEntity
  8
RUNDUNGEN
100
AcDbSpline
 62
7
  6
CONTINUOUS
 70
0
 71
3
 72
11
 73
7
 74
0
 42
0.0000001
 43
0.0000001
 44
0.0000000001
 40
0.0
 40
0.0
 40
0.0
 40
0.0
 40
0.3311756312
 40
0.4852044927
 40
0.6247591425
 40
1.0
 40
1.0
 40
1.0
 40
1.0
 10
72.229431608
 20
162.5497159324
 30
0.0
 10
72.2550153069
 20
162.5497159323
 30
0.0
 10
72.2924858566
 20
162.5528514633
 30
0.0
 10
72.3399112159
 20
162.5642286642
 30
0.0
 10
72.3870192721
 20
162.5808870138
 30
0.0
 10
72.429431608
 20
162.6116372344
 30
0.0
 10
72.429431608
 20
162.6406250228
 30
0.0
  0
SPLINE
  5
338
100
AcDbEntity
  8
RUNDUNGEN
100
AcDbSpline
 62
7
  6
CONTINUOUS
 70
0
 71
3
 72
12
 73
8
 74
0
 42
0.0000001
 43
0.0000001
 44
0.0000000001
 40
0.0
 40
0.0
 40
0.0
 40
0.0
 40
0.3725475167
 40
0.6906246362
 40
0.9062375732
 40
0.9673558931
 40
1.0
 40
1.0
 40
1.0
 40
1.0
 10
72.2294326471
 20
160.1955135116
 30
0.0
 10
72.2549218693
 20
160.1955128887
 30
0.0
 10
72.3022881381
 20
160.1968087919
 30
0.0
 10
72.3637488283
 20
160.2018801285
 30
0.0
 10
72.4046371493
 20
160.2092745313
 30
0.0
 10
72.4239084378
 20
160.216248031
 30
0.0
 10
72.4294318855
 20
160.221412412
 30
0.0
 10
72.429431608
 20
160.2236458798
 30
0.0
  0
SPLINE
  5
339
100
AcDbEntity
  8
RUNDUNGEN
100
AcDbSpline
 62
7
  6
CONTINUOUS
 70
0
 71
3
 72
12
 73
8
 74
0
 42
0.0000001
 43
0.0000001
 44
0.0000000001
 40
0.0
 40
0.0
 40
0.0
 40
0.0
 40
0.3725481009
 40
0.6906261367
 40
0.9062395552
 40
0.9673575925
 40
1.0
 40
1.0
 40
1.0
 40
1.0
 10
72.229431608
 20
158.0857356648
 30
0.0
 10
72.2549209043
 20
158.0857355371
 30
0.0
 10
72.3022873256
 20
158.0844385344
 30
0.0
 10
72.3637480735
 20
158.0793670732
 30
0.0
 10
72.4046368534
 20
158.0719733778
 30
0.0
 10
72.4239080169
 20
158.0650005029
 30
0.0
 10
72.4294318457
 20
158.0598365998
 30
0.0
 10
72.429431608
 20
158.0576032452
 30
0.0
  0
SPLINE
  5
33A
100
AcDbEntity
  8
RUNDUNGEN
100
AcDbSpline
 62
7
  6
CONTINUOUS
 70
0
 71
3
 72
11
 73
7
 74
0
 42
0.0000001
 43
0.0000001
 44
0.0000000001
 40
0.0
 40
0.0
 40
0.0
 40
0.0
 40
0.3311764288
 40
0.4852057706
 40
0.6247605931
 40
1.0
 40
1.0
 40
1.0
 40
1.0
 10
72.229431608
 20
155.7315341128
 30
0.0
 10
72.2550153392
 20
155.7315339661
 30
0.0
 10
72.2924859143
 20
155.7283982329
 30
0.0
 10
72.3399113154
 20
155.7170209304
 30
0.0
 10
72.3870191976
 20
155.7003625377
 30
0.0
 10
72.429431608
 20
155.669612666
 30
0.0
 10
72.429431608
 20
155.6406250229
 30
0.0
  0
SPLINE
  5
33B
100
AcDbEntity
  8
RUNDUNGEN
100
AcDbSpline
 62
7
  6
CONTINUOUS
 70
0
 71
3
 72
9
 73
5
 74
0
 42
0.0000001
 43
0.0000001
 44
0.0000000001
 40
0.0
 40
0.0
 40
0.0
 40
0.0
 40
0.4807937849
 40
1.0
 40
1.0
 40
1.0
 40
1.0
 10
62.1040449409
 20
152.6406230738
 30
0.0
 10
62.2153834244
 20
153.6778977062
 30
0.0
 10
62.3744836109
 20
155.8432357685
 30
0.0
 10
62.4254519215
 20
158.0133219616
 30
0.0
 10
62.4254613763
 20
159.1399026947
 30
0.0
  0
SPLINE
  5
33C
100
AcDbEntity
  8
RUNDUNGEN
100
AcDbSpline
 62
7
  6
CONTINUOUS
 70
0
 71
3
 72
11
 73
7
 74
0
 42
0.0000001
 43
0.0000001
 44
0.0000000001
 40
0.0
 40
0.0
 40
0.0
 40
0.0
 40
0.2834920861
 40
0.5428343114
 40
0.7794324427
 40
1.0
 40
1.0
 40
1.0
 40
1.0
 10
247.254917274
 20
153.4797247701
 30
0.0
 10
247.7894879367
 20
153.7211051707
 30
0.0
 10
248.7711452157
 20
154.2867653166
 30
0.0
 10
249.9713320377
 20
155.3835344321
 30
0.0
 10
250.8158687274
 20
156.6181037437
 30
0.0
 10
251.1491280161
 20
157.5155420864
 30
0.0
 10
251.2517883507
 20
157.9601960177
 30
0.0
  0
SPLINE
  5
33D
100
AcDbEntity
  8
RUNDUNGEN
100
AcDbSpline
 62
7
  6
CONTINUOUS
 70
0
 71
3
 72
11
 73
7
 74
0
 42
0.0000001
 43
0.0000001
 44
0.0000000001
 40
0.0
 40
0.0
 40
0.0
 40
0.0
 40
0.2834780874
 40
0.5428207653
 40
0.7794268712
 40
1.0
 40
1.0
 40
1.0
 40
1.0
 10
247.2548560968
 20
164.801556456
 30
0.0
 10
247.789165231
 20
164.5602773825
 30
0.0
 10
248.7704073279
 20
163.9949517828
 30
0.0
 10
249.9702499972
 20
162.8988721308
 30
0.0
 10
250.8148010956
 20
161.6650727945
 30
0.0
 10
251.1483224184
 20
160.7681531633
 30
0.0
 10
251.2511718591
 20
160.3237316378
 30
0.0
  0
SPLINE
  5
33E
100
AcDbEntity
  8
RUNDUNGEN
100
AcDbSpline
 62
7
  6
CONTINUOUS
 70
0
 71
3
 72
10
 73
6
 74
0
 42
0.0000001
 43
0.0000001
 44
0.0000000001
 40
0.0
 40
0.0
 40
0.0
 40
0.0
 40
0.237425056
 40
0.4839923079
 40
1.0
 40
1.0
 40
1.0
 40
1.0
 10
253.0201363622
 20
154.6406250228
 30
0.0
 10
253.0432379918
 20
154.6406250228
 30
0.0
 10
253.0908861379
 20
154.6517478546
 30
0.0
 10
253.1700543677
 20
154.7120462985
 30
0.0
 10
253.1970236166
 20
154.7904171013
 30
0.0
 10
253.1970230182
 20
154.8406250228
 30
0.0
  0
SPLINE
  5
33F
100
AcDbEntity
  8
RUNDUNGEN
100
AcDbSpline
 62
7
  6
CONTINUOUS
 70
0
 71
3
 72
22
 73
18
 74
0
 42
0.0000001
 43
0.0000001
 44
0.0000000001
 40
0.0
 40
0.0
 40
0.0
 40
0.0
 40
0.0016758867
 40
0.0066494526
 40
0.0148120015
 40
0.0260548879
 40
0.0402605336
 40
0.0572546155
 40
0.0988229167
 40
0.1492072785
 40
0.2070560373
 40
0.2711557221
 40
0.3403926732
 40
0.4911852119
 40
0.6540530106
 40
0.825059306
 40
1.0
 40
1.0
 40
1.0
 40
1.0
 10
249.9860782411
 20
163.6406250171
 30
0.0
 10
249.985390371
 20
163.6407676407
 30
0.0
 10
249.9900999377
 20
163.6371271891
 30
0.0
 10
249.9916287454
 20
163.6340945004
 30
0.0
 10
250.0000604746
 20
163.6257265671
 30
0.0
 10
250.0089354151
 20
163.6157153648
 30
0.0
 10
250.0211795079
 20
163.6024390182
 30
0.0
 10
250.0415688518
 20
163.5799171081
 30
0.0
 10
250.0721412958
 20
163.5458882191
 30
0.0
 10
250.1136430323
 20
163.4988040969
 30
0.0
 10
250.1608795718
 20
163.4441340779
 30
0.0
 10
250.2125717583
 20
163.3828936215
 30
0.0
 10
250.2882052839
 20
163.2908842495
 30
0.0
 10
250.3875136283
 20
163.164761686
 30
0.0
 10
250.5082063061
 20
163.0012893553
 30
0.0
 10
250.6291196465
 20
162.8255407908
 30
0.0
 10
250.7071158878
 20
162.7032437943
 30
0.0
 10
250.7454077487
 20
162.6407034374
 30
0.0
  0
SPLINE
  5
340
100
AcDbEntity
  8
RUNDUNGEN
100
AcDbSpline
 62
7
  6
CONTINUOUS
 70
0
 71
3
 72
14
 73
10
 74
0
 42
0.0000001
 43
0.0000001
 44
0.0000000001
 40
0.0
 40
0.0
 40
0.0
 40
0.0
 40
0.3378973123
 40
0.4909314708
 40
0.6277491846
 40
0.7463768197
 40
0.8464373027
 40
0.92945632
 40
1.0
 40
1.0
 40
1.0
 40
1.0
 10
252.5318033799
 20
162.640625025
 30
0.0
 10
252.5318354517
 20
162.7747250613
 30
0.0
 10
252.5535179458
 20
162.9707367279
 30
0.0
 10
252.6250570953
 20
163.2098430417
 30
0.0
 10
252.6908499642
 20
163.3585510226
 30
0.0
 10
252.765946463
 20
163.4786534809
 30
0.0
 10
252.846777809
 20
163.5680850813
 30
0.0
 10
252.9310007253
 20
163.6254956589
 30
0.0
 10
252.9921399568
 20
163.6406204549
 30
0.0
 10
253.0201363623
 20
163.6406250228
 30
0.0
  0
SPLINE
  5
341
100
AcDbEntity
  8
RUNDUNGEN
100
AcDbSpline
 62
7
  6
CONTINUOUS
 70
0
 71
3
 72
22
 73
18
 74
0
 42
0.0000001
 43
0.0000001
 44
0.0000000001
 40
0.0
 40
0.0
 40
0.0
 40
0.0
 40
0.1749391535
 40
0.345940559
 40
0.5088066476
 40
0.6595994617
 40
0.7288386025
 40
0.7929416572
 40
0.8507920355
 40
0.9011771826
 40
0.942746186
 40
0.9597406678
 40
0.9739467629
 40
0.9851895923
 40
0.9933515633
 40
0.9983244559
 40
1.0
 40
1.0
 40
1.0
 40
1.0
 10
250.7454074752
 20
155.6405461727
 30
0.0
 10
250.7071159901
 20
155.5780063774
 30
0.0
 10
250.6291214855
 20
155.4557115373
 30
0.0
 10
250.5082100971
 20
155.2799658852
 30
0.0
 10
250.3875196701
 20
155.1164952817
 30
0.0
 10
250.2882105536
 20
154.9903729975
 30
0.0
 10
250.2125753815
 20
154.8983618777
 30
0.0
 10
250.1608814114
 20
154.8371190349
 30
0.0
 10
250.1136440302
 20
154.7824465833
 30
0.0
 10
250.0721417699
 20
154.7353612186
 30
0.0
 10
250.0415684861
 20
154.7013320374
 30
0.0
 10
250.0211784099
 20
154.6788099403
 30
0.0
 10
250.008933877
 20
154.6655335333
 30
0.0
 10
250.000058976
 20
154.6555224231
 30
0.0
 10
249.9916277611
 20
154.6471549113
 30
0.0
 10
249.9900991935
 20
154.6441223457
 30
0.0
 10
249.985390499
 20
154.6404825162
 30
0.0
 10
249.9860782452
 20
154.6406250286
 30
0.0
  0
SPLINE
  5
342
100
AcDbEntity
  8
RUNDUNGEN
100
AcDbSpline
 62
7
  6
CONTINUOUS
 70
0
 71
3
 72
13
 73
9
 74
0
 42
0.0000001
 43
0.0000001
 44
0.0000000001
 40
0.0
 40
0.0
 40
0.0
 40
0.0
 40
0.1103240791
 40
0.2221281202
 40
0.4553743727
 40
0.5799471462
 40
0.7119065763
 40
1.0
 40
1.0
 40
1.0
 40
1.0
 10
204.2982507529
 20
166.6367454615
 30
0.0
 10
204.6458460972
 20
166.6301984638
 30
0.0
 10
205.3454691664
 20
166.6002563736
 30
0.0
 10
206.7756014804
 20
166.4782418732
 30
0.0
 10
208.2429407747
 20
166.2825868226
 30
0.0
 10
209.771967648
 20
166.0729157102
 30
0.0
 10
211.4742859954
 20
165.8543844612
 30
0.0
 10
212.7913156348
 20
165.7184592567
 30
0.0
 10
213.695822086
 20
165.6406173961
 30
0.0
  0
SPLINE
  5
343
100
AcDbEntity
  8
RUNDUNGEN
100
AcDbSpline
 62
7
  6
CONTINUOUS
 70
0
 71
3
 72
13
 73
9
 74
0
 42
0.0000001
 43
0.0000001
 44
0.0000000001
 40
0.0
 40
0.0
 40
0.0
 40
0.0
 40
0.1103245884
 40
0.2221275015
 40
0.4553739938
 40
0.5799468057
 40
0.7119063528
 40
1.0
 40
1.0
 40
1.0
 40
1.0
 10
204.2982575231
 20
151.6445038822
 30
0.0
 10
204.6458537696
 20
151.651052402
 30
0.0
 10
205.3454732619
 20
151.6809981576
 30
0.0
 10
206.7756024728
 20
151.8030018138
 30
0.0
 10
208.2429355921
 20
151.9986633607
 30
0.0
 10
209.7719610442
 20
152.2083309546
 30
0.0
 10
211.4742762887
 20
152.4268722261
 30
0.0
 10
212.7913077564
 20
152.5627588158
 30
0.0
 10
213.6958103305
 20
152.6406333985
 30
0.0
  0
SPLINE
  5
344
100
AcDbEntity
  8
RUNDUNGEN
100
AcDbSpline
 62
7
  6
CONTINUOUS
 70
0
 71
3
 72
14
 73
10
 74
0
 42
0.0000001
 43
0.0000001
 44
0.0000000001
 40
0.0
 40
0.0
 40
0.0
 40
0.0
 40
0.0705440168
 40
0.1535631011
 40
0.2536236574
 40
0.3722517104
 40
0.5090663371
 40
0.6621022458
 40
1.0
 40
1.0
 40
1.0
 40
1.0
 10
253.0201363623
 20
154.6406250228
 30
0.0
 10
252.9921398257
 20
154.6406297133
 30
0.0
 10
252.9310005113
 20
154.655754599
 30
0.0
 10
252.8467772405
 20
154.7131650261
 30
0.0
 10
252.7659463944
 20
154.8025975729
 30
0.0
 10
252.6908518252
 20
154.9226995533
 30
0.0
 10
252.6250519039
 20
155.0714043263
 30
0.0
 10
252.5535261027
 20
155.3105141109
 30
0.0
 10
252.5318296898
 20
155.5065248201
 30
0.0
 10
252.5318033799
 20
155.6406250208
 30
0.0
  0
SPLINE
  5
345
100
AcDbEntity
  8
RUNDUNGEN
100
AcDbSpline
 62
7
  6
CONTINUOUS
 70
0
 71
3
 72
12
 73
8
 74
0
 42
0.0000001
 43
0.0000001
 44
0.0000000001
 40
0.0
 40
0.0
 40
0.0
 40
0.0
 40
0.1697304866
 40
0.3318869197
 40
0.4812855764
 40
0.6157776357
 40
1.0
 40
1.0
 40
1.0
 40
1.0
 10
252.6956678224
 20
162.6406250228
 30
0.0
 10
252.6956750375
 20
162.6977930356
 30
0.0
 10
252.7043633527
 20
162.8098216156
 30
0.0
 10
252.7411524085
 20
162.9680531999
 30
0.0
 10
252.7977406921
 20
163.1087795522
 30
0.0
 10
252.9088693506
 20
163.299960088
 30
0.0
 10
253.0676106242
 20
163.4405933111
 30
0.0
 10
253.1970230177
 20
163.4406250228
 30
0.0
  0
SPLINE
  5
346
100
AcDbEntity
  8
RUNDUNGEN
100
AcDbSpline
 62
7
  6
CONTINUOUS
 70
0
 71
3
 72
12
 73
8
 74
0
 42
0.0000001
 43
0.0000001
 44
0.0000000001
 40
0.0
 40
0.0
 40
0.0
 40
0.0
 40
0.3842233687
 40
0.5187113207
 40
0.6681119416
 40
0.830273572
 40
1.0
 40
1.0
 40
1.0
 40
1.0
 10
253.1970230177
 20
154.8406250228
 30
0.0
 10
253.0676103551
 20
154.8406577229
 30
0.0
 10
252.908873424
 20
154.9812915366
 30
0.0
 10
252.7977382917
 20
155.1724679621
 30
0.0
 10
252.7411536312
 20
155.3131972468
 30
0.0
 10
252.7043668677
 20
155.471429679
 30
0.0
 10
252.6956732742
 20
155.5834584074
 30
0.0
 10
252.6956678224
 20
155.6406250228
 30
0.0
  0
SPLINE
  5
347
100
AcDbEntity
  8
RUNDUNGEN
100
AcDbSpline
 62
7
  6
CONTINUOUS
 70
0
 71
3
 72
15
 73
11
 74
0
 42
0.0000001
 43
0.0000001
 44
0.0000000001
 40
0.0
 40
0.0
 40
0.0
 40
0.0
 40
0.3687292272
 40
0.535877882
 40
0.6832168293
 40
0.805637672
 40
0.8991836975
 40
0.934579465
 40
0.9625125057
 40
1.0
 40
1.0
 40
1.0
 40
1.0
 10
213.6957119031
 20
152.6406230738
 30
0.0
 10
213.695711955
 20
152.512971531
 30
0.0
 10
213.6898500903
 20
152.3273324677
 30
0.0
 10
213.6685006423
 20
152.091718153
 30
0.0
 10
213.6477918764
 20
151.9418132724
 30
0.0
 10
213.6226067445
 20
151.8184611415
 30
0.0
 10
213.5977034841
 20
151.7349335568
 30
0.0
 10
213.574261945
 20
151.6854543952
 30
0.0
 10
213.5557405965
 20
151.6566465645
 30
0.0
 10
213.5350434014
 20
151.6406252778
 30
0.0
 10
213.5220654866
 20
151.6406250228
 30
0.0
  0
SPLINE
  5
348
100
AcDbEntity
  8
RUNDUNGEN
100
AcDbSpline
 62
7
  6
CONTINUOUS
 70
0
 71
3
 72
10
 73
6
 74
0
 42
0.0000001
 43
0.0000001
 44
0.0000000001
 40
0.0
 40
0.0
 40
0.0
 40
0.0
 40
0.2374230075
 40
0.4839898532
 40
1.0
 40
1.0
 40
1.0
 40
1.0
 10
253.0201363622
 20
163.6406250228
 30
0.0
 10
253.0432377493
 20
163.6406250228
 30
0.0
 10
253.0908855536
 20
163.6295021167
 30
0.0
 10
253.1700533935
 20
163.5692035432
 30
0.0
 10
253.1970230177
 20
163.4908330893
 30
0.0
 10
253.1970230174
 20
163.4406250228
 30
0.0
  0
SPLINE
  5
349
100
AcDbEntity
  8
RUNDUNGEN
100
AcDbSpline
 62
7
  6
CONTINUOUS
 70
0
 71
3
 72
15
 73
11
 74
0
 42
0.0000001
 43
0.0000001
 44
0.0000000001
 40
0.0
 40
0.0
 40
0.0
 40
0.0
 40
0.0347591176
 40
0.0615856564
 40
0.0959647061
 40
0.1876929653
 40
0.3087129156
 40
0.4554720758
 40
0.6233821187
 40
1.0
 40
1.0
 40
1.0
 40
1.0
 10
247.5729466071
 20
165.6722938676
 30
0.0
 10
247.5824861046
 20
165.6669095164
 30
0.0
 10
247.5902079013
 20
165.6455238582
 30
0.0
 10
247.5908421421
 20
165.61601071
 30
0.0
 10
247.5860197759
 20
165.5676097784
 30
0.0
 10
247.5672736803
 20
165.4919770351
 30
0.0
 10
247.5312567761
 20
165.3844311052
 30
0.0
 10
247.4801241549
 20
165.2569548052
 30
0.0
 10
247.3906471142
 20
165.0582738273
 30
0.0
 10
247.3121087356
 20
164.9055332249
 30
0.0
 10
247.2551252949
 20
164.8014180255
 30
0.0
  0
SPLINE
  5
34A
100
AcDbEntity
  8
RUNDUNGEN
100
AcDbSpline
 62
7
  6
CONTINUOUS
 70
0
 71
3
 72
15
 73
11
 74
0
 42
0.0000001
 43
0.0000001
 44
0.0000000001
 40
0.0
 40
0.0
 40
0.0
 40
0.0
 40
0.0374873734
 40
0.0654202878
 40
0.1008159387
 40
0.1943618085
 40
0.316782618
 40
0.4641216406
 40
0.6312704436
 40
1.0
 40
1.0
 40
1.0
 40
1.0
 10
243.8868867815
 20
166.6406250228
 30
0.0
 10
243.8998646898
 20
166.6406250228
 30
0.0
 10
243.9205621854
 20
166.6246040565
 30
0.0
 10
243.9390836837
 20
166.5957963482
 30
0.0
 10
243.9625254579
 20
166.5463172866
 30
0.0
 10
243.9874289394
 20
166.462789617
 30
0.0
 10
244.0126143181
 20
166.3394372295
 30
0.0
 10
244.0333232974
 20
166.1895318928
 30
0.0
 10
244.0546729933
 20
165.9539167613
 30
0.0
 10
244.0605349661
 20
165.7682770275
 30
0.0
 10
244.0605349592
 20
165.6406250228
 30
0.0
  0
SPLINE
  5
34B
100
AcDbEntity
  8
RUNDUNGEN
100
AcDbSpline
 62
7
  6
CONTINUOUS
 70
0
 71
3
 72
15
 73
11
 74
0
 42
0.0000001
 43
0.0000001
 44
0.0000000001
 40
0.0
 40
0.0
 40
0.0
 40
0.0
 40
0.0374872641
 40
0.0654201488
 40
0.1008157759
 40
0.1943616041
 40
0.3167823791
 40
0.4641213843
 40
0.6312702072
 40
1.0
 40
1.0
 40
1.0
 40
1.0
 10
213.5220743828
 20
166.6406250228
 30
0.0
 10
213.5350522147
 20
166.6406249909
 30
0.0
 10
213.5557495383
 20
166.6246040059
 30
0.0
 10
213.5742708715
 20
166.5957963889
 30
0.0
 10
213.597712457
 20
166.5463174518
 30
0.0
 10
213.6226157304
 20
166.4627900322
 30
0.0
 10
213.6478008925
 20
166.3394380141
 30
0.0
 10
213.6685096788
 20
166.1895331168
 30
0.0
 10
213.6898591506
 20
165.9539185873
 30
0.0
 10
213.695721003
 20
165.7682793137
 30
0.0
 10
213.6957209341
 20
165.6406276063
 30
0.0
  0
SPLINE
  5
34C
100
AcDbEntity
  8
RUNDUNGEN
100
AcDbSpline
 62
7
  6
CONTINUOUS
 70
0
 71
3
 72
15
 73
11
 74
0
 42
0.0000001
 43
0.0000001
 44
0.0000000001
 40
0.0
 40
0.0
 40
0.0
 40
0.0
 40
0.3766182732
 40
0.5445285394
 40
0.6912878234
 40
0.8123077409
 40
0.9040357851
 40
0.938414671
 40
0.9652410325
 40
1.0
 40
1.0
 40
1.0
 40
1.0
 10
247.2551264945
 20
153.4798320205
 30
0.0
 10
247.3121108398
 20
153.3757159556
 30
0.0
 10
247.3906503966
 20
153.2229739916
 30
0.0
 10
247.4801286172
 20
153.0242911349
 30
0.0
 10
247.5312618153
 20
152.8968136201
 30
0.0
 10
247.5672789645
 20
152.7892667393
 30
0.0
 10
247.5860250572
 20
152.7136333852
 30
0.0
 10
247.590847147
 20
152.6652321638
 30
0.0
 10
247.5902126846
 20
152.6357188933
 30
0.0
 10
247.5824902625
 20
152.6143332685
 30
0.0
 10
247.5729505551
 20
152.6089491844
 30
0.0
  0
SPLINE
  5
34D
100
AcDbEntity
  8
RUNDUNGEN
100
AcDbSpline
 62
7
  6
CONTINUOUS
 70
0
 71
3
 72
15
 73
11
 74
0
 42
0.0000001
 43
0.0000001
 44
0.0000000001
 40
0.0
 40
0.0
 40
0.0
 40
0.0
 40
0.368729549
 40
0.5358783506
 40
0.6832173739
 40
0.8056381844
 40
0.8991840562
 40
0.9345797081
 40
0.9625126237
 40
1.0
 40
1.0
 40
1.0
 40
1.0
 10
244.0605349592
 20
152.6406250228
 30
0.0
 10
244.0605349681
 20
152.5129730203
 30
0.0
 10
244.0546729977
 20
152.3273332886
 30
0.0
 10
244.0333233042
 20
152.0917181589
 30
0.0
 10
244.0126143255
 20
151.9418128214
 30
0.0
 10
243.9874289462
 20
151.8184604323
 30
0.0
 10
243.9625254637
 20
151.7349327611
 30
0.0
 10
243.9390836877
 20
151.6854536986
 30
0.0
 10
243.9205621872
 20
151.6566459893
 30
0.0
 10
243.8998646899
 20
151.6406250228
 30
0.0
 10
243.8868867805
 20
151.6406250228
 30
0.0
  0
SPLINE
  5
34E
100
AcDbEntity
  8
RUNDUNGEN
100
AcDbSpline
 62
7
  6
CONTINUOUS
 70
0
 71
3
 72
13
 73
9
 74
0
 42
0.0000001
 43
0.0000001
 44
0.0000000001
 40
0.0
 40
0.0
 40
0.0
 40
0.0
 40
0.2500967348
 40
0.5000307214
 40
0.6250530159
 40
0.7500563233
 40
0.875033287
 40
1.0
 40
1.0
 40
1.0
 40
1.0
 10
55.7500087466
 20
93.4438471661
 30
0.0
 10
56.5570037916
 20
92.8343980746
 30
0.0
 10
58.1617172095
 20
91.6040571318
 30
0.0
 10
60.015346982
 20
89.8713056965
 30
0.0
 10
61.2894220348
 20
88.2971127506
 30
0.0
 10
62.1036455466
 20
87.0130296957
 30
0.0
 10
62.7338276626
 20
85.6283369741
 30
0.0
 10
63.00107662
 20
84.647426413
 30
0.0
 10
63.0888381325
 20
84.1498006172
 30
0.0
  0
SPLINE
  5
34F
100
AcDbEntity
  8
RUNDUNGEN
100
AcDbSpline
 62
7
  6
CONTINUOUS
 70
0
 71
3
 72
14
 73
10
 74
0
 42
0.0000001
 43
0.0000001
 44
0.0000000001
 40
0.0
 40
0.0
 40
0.0
 40
0.0
 40
0.250781648
 40
0.3758629961
 40
0.5007476078
 40
0.6255184284
 40
0.7502736371
 40
0.8750843605
 40
1.0
 40
1.0
 40
1.0
 40
1.0
 10
55.6969728593
 20
93.3736242471
 30
0.0
 10
56.3687012396
 20
92.6814848616
 30
0.0
 10
57.3732466941
 20
91.6416155383
 30
0.0
 10
58.6614206821
 20
90.2095572622
 30
0.0
 10
59.5813945217
 20
89.0993563743
 30
0.0
 10
60.4305010948
 20
87.9347672734
 30
0.0
 10
61.1735131643
 20
86.6985244398
 30
0.0
 10
61.7645874375
 20
85.3807446972
 30
0.0
 10
62.0206194942
 20
84.4491801653
 30
0.0
 10
62.1040474933
 20
83.976052914
 30
0.0
  0
LINE
  5
350
100
AcDbEntity
  8
RUNDUNGEN
100
AcDbLine
 62
7
  6
CONTINUOUS
 10
55.7500093053
 20
92.2444775504
 11
55.6969728593
 21
93.3736242471
  0
LINE
  5
351
100
AcDbEntity
  8
RUNDUNGEN
100
AcDbLine
 62
7
  6
CONTINUOUS
 10
62.4669462203
 20
113.784963612
 11
63.6131169301
 21
106.2846648415
  0
SPLINE
  5
352
100
AcDbEntity
  8
RUNDUNGEN
100
AcDbSpline
 62
7
  6
CONTINUOUS
 70
0
 71
3
 72
16
 73
12
 74
0
 42
0.0000001
 43
0.0000001
 44
0.0000000001
 40
0.0
 40
0.0
 40
0.0
 40
0.0
 40
0.0422510338
 40
0.0715847584
 40
0.107859807
 40
0.2020208131
 40
0.323994018
 40
0.470134162
 40
0.63554909
 40
0.8145400774
 40
1.0
 40
1.0
 40
1.0
 40
1.0
 10
54.75
 20
92.4500408718
 30
0.0
 10
54.7500000001
 20
92.4352353312
 30
0.0
 10
54.7648782507
 20
92.4112525184
 30
0.0
 10
54.7945421543
 20
92.3884467674
 30
0.0
 10
54.843702835
 20
92.3609050457
 30
0.0
 10
54.9273603848
 20
92.3312120025
 30
0.0
 10
55.0508816938
 20
92.3014100991
 30
0.0
 10
55.2009193923
 20
92.276867666
 30
0.0
 10
55.3718986201
 20
92.2585073248
 30
0.0
 10
55.5572865529
 20
92.2472177318
 30
0.0
 10
55.6850114262
 20
92.2446607147
 30
0.0
 10
55.75
 20
92.2446607727
 30
0.0
  0
LINE
  5
353
100
AcDbEntity
  8
RUNDUNGEN
100
AcDbLine
 62
7
  6
CONTINUOUS
 10
102.8976805907
 20
106.2849882188
 11
100.3519865643
 21
98.7849882073
  0
SPLINE
  5
354
100
AcDbEntity
  8
RUNDUNGEN
100
AcDbSpline
 62
7
  6
CONTINUOUS
 70
0
 71
3
 72
8
 73
4
 74
0
 42
0.0000001
 43
0.0000001
 44
0.0000000001
 40
0.0
 40
0.0
 40
0.0
 40
0.0
 40
1.0
 40
1.0
 40
1.0
 40
1.0
 10
72.2294326471
 20
46.3595447788
 30
0.0
 10
72.2639198184
 20
46.3595444781
 30
0.0
 10
72.2994586201
 20
46.3500670485
 30
0.0
 10
72.3294347254
 20
46.3330142454
 30
0.0
  0
SPLINE
  5
355
100
AcDbEntity
  8
RUNDUNGEN
100
AcDbSpline
 62
7
  6
CONTINUOUS
 70
0
 71
3
 72
9
 73
5
 74
0
 42
0.0000001
 43
0.0000001
 44
0.0000000001
 40
0.0
 40
0.0
 40
0.0
 40
0.0
 40
0.5010865542
 40
1.0
 40
1.0
 40
1.0
 40
1.0
 10
72.3294347254
 20
46.3330142454
 30
0.0
 10
72.359281218
 20
46.3160351763
 30
0.0
 10
72.41076786
 20
46.2654560447
 30
0.0
 10
72.4294322116
 20
46.1957188444
 30
0.0
 10
72.429431608
 20
46.1615297081
 30
0.0
  0
SPLINE
  5
356
100
AcDbEntity
  8
RUNDUNGEN
100
AcDbSpline
 62
7
  6
CONTINUOUS
 70
0
 71
3
 72
13
 73
9
 74
0
 42
0.0000001
 43
0.0000001
 44
0.0000000001
 40
0.0
 40
0.0
 40
0.0
 40
0.0
 40
0.2524765812
 40
0.5034283088
 40
0.6281184099
 40
0.7523361909
 40
0.8762291222
 40
1.0
 40
1.0
 40
1.0
 40
1.0
 10
102.8978383593
 20
106.2854530775
 30
0.0
 10
102.5302829649
 20
105.774233433
 30
0.0
 10
101.7973108216
 20
104.755013343
 30
0.0
 10
100.9086556268
 20
103.4644574734
 30
0.0
 10
100.2476811391
 20
102.4072360156
 30
0.0
 10
99.7918875136
 20
101.596304282
 30
0.0
 10
99.3947324469
 20
100.7572508332
 30
0.0
 10
99.1891514868
 20
100.1726360924
 30
0.0
 10
99.1092650296
 20
99.8744880211
 30
0.0
  0
SPLINE
  5
357
100
AcDbEntity
  8
RUNDUNGEN
100
AcDbSpline
 62
7
  6
CONTINUOUS
 70
0
 71
3
 72
10
 73
6
 74
0
 42
0.0000001
 43
0.0000001
 44
0.0000000001
 40
0.0
 40
0.0
 40
0.0
 40
0.0
 40
0.5148170101
 40
0.7617234158
 40
1.0
 40
1.0
 40
1.0
 40
1.0
 10
72.229431608
 20
47.1045616475
 30
0.0
 10
72.2796820031
 20
47.1045616475
 30
0.0
 10
72.3581933943
 20
47.0772480096
 30
0.0
 10
72.4183375102
 20
46.997587559
 30
0.0
 10
72.429431608
 20
46.9496747027
 30
0.0
 10
72.429431608
 20
46.9264169387
 30
0.0
  0
SPLINE
  5
358
100
AcDbEntity
  8
RUNDUNGEN
100
AcDbSpline
 62
7
  6
CONTINUOUS
 70
0
 71
3
 72
10
 73
6
 74
0
 42
0.0000001
 43
0.0000001
 44
0.0000000001
 40
0.0
 40
0.0
 40
0.0
 40
0.0
 40
0.5148169181
 40
0.7617231176
 40
1.0
 40
1.0
 40
1.0
 40
1.0
 10
81.629431608
 20
47.1045616475
 30
0.0
 10
81.5791811977
 20
47.1045617946
 30
0.0
 10
81.500669697
 20
47.0772482074
 30
0.0
 10
81.4405256322
 20
46.9975876421
 30
0.0
 10
81.429431608
 20
46.949674743
 30
0.0
 10
81.429431608
 20
46.9264169387
 30
0.0
  0
SPLINE
  5
359
100
AcDbEntity
  8
RUNDUNGEN
100
AcDbSpline
 62
7
  6
CONTINUOUS
 70
0
 71
3
 72
8
 73
4
 74
0
 42
0.0000001
 43
0.0000001
 44
0.0000000001
 40
0.0
 40
0.0
 40
0.0
 40
0.0
 40
1.0
 40
1.0
 40
1.0
 40
1.0
 10
81.629431608
 20
46.3595435862
 30
0.0
 10
81.5949451516
 20
46.359543576
 30
0.0
 10
81.5594070307
 20
46.3500667955
 30
0.0
 10
81.5294312824
 20
46.3330148105
 30
0.0
  0
SPLINE
  5
35A
100
AcDbEntity
  8
RUNDUNGEN
100
AcDbSpline
 62
7
  6
CONTINUOUS
 70
0
 71
3
 72
9
 73
5
 74
0
 42
0.0000001
 43
0.0000001
 44
0.0000000001
 40
0.0
 40
0.0
 40
0.0
 40
0.0
 40
0.5010860959
 40
1.0
 40
1.0
 40
1.0
 40
1.0
 10
81.5294312824
 20
46.3330148105
 30
0.0
 10
81.4995839246
 20
46.3160358617
 30
0.0
 10
81.4480956309
 20
46.2654560253
 30
0.0
 10
81.4294308606
 20
46.1957172369
 30
0.0
 10
81.429431608
 20
46.1615273483
 30
0.0
  0
SPLINE
  5
35B
100
AcDbEntity
  8
RUNDUNGEN
100
AcDbSpline
 62
7
  6
CONTINUOUS
 70
0
 71
3
 72
12
 73
8
 74
0
 42
0.0000001
 43
0.0000001
 44
0.0000000001
 40
0.0
 40
0.0
 40
0.0
 40
0.0
 40
0.1835205567
 40
0.29153789
 40
0.4113415345
 40
0.6859384792
 40
1.0
 40
1.0
 40
1.0
 40
1.0
 10
81.4294316049
 20
46.9264675248
 30
0.0
 10
81.4294369143
 20
47.0096659543
 30
0.0
 10
81.3850201964
 20
47.1416502864
 30
0.0
 10
81.278991441
 20
47.2949830613
 30
0.0
 10
81.1194365137
 20
47.4591805063
 30
0.0
 10
80.8412374745
 20
47.6309628417
 30
0.0
 10
80.5719176359
 20
47.6858328028
 30
0.0
 10
80.4295389019
 20
47.6857967548
 30
0.0
  0
SPLINE
  5
35C
100
AcDbEntity
  8
RUNDUNGEN
100
AcDbSpline
 62
7
  6
CONTINUOUS
 70
0
 71
3
 72
18
 73
14
 74
0
 42
0.0000001
 43
0.0000001
 44
0.0000000001
 40
0.0
 40
0.0
 40
0.0
 40
0.0
 40
0.2179626662
 40
0.4141373783
 40
0.5859685186
 40
0.7309658363
 40
0.8468098159
 40
0.893082091
 40
0.9312341928
 40
0.9611205168
 40
0.9826225993
 40
0.9956219361
 40
1.0
 40
1.0
 40
1.0
 40
1.0
 10
81.1629955936
 20
44.9962941576
 30
0.0
 10
81.182512003
 20
45.0064424219
 30
0.0
 10
81.2195273541
 20
45.0258530006
 30
0.0
 10
81.2717235659
 20
45.0536514677
 30
0.0
 10
81.3172890529
 20
45.0782353484
 30
0.0
 10
81.355619603
 20
45.0991471747
 30
0.0
 10
81.3827841531
 20
45.1140835575
 30
0.0
 10
81.4004432751
 20
45.1238974728
 30
0.0
 10
81.4105693409
 20
45.1294631418
 30
0.0
 10
81.4183498625
 20
45.1339677645
 30
0.0
 10
81.4242752929
 20
45.1369060607
 30
0.0
 10
81.4272450677
 20
45.1392441512
 30
0.0
 10
81.4292430084
 20
45.1396720513
 30
0.0
 10
81.429431608
 20
45.1400716201
 30
0.0
  0
SPLINE
  5
35D
100
AcDbEntity
  8
RUNDUNGEN
100
AcDbSpline
 62
7
  6
CONTINUOUS
 70
0
 71
3
 72
12
 73
8
 74
0
 42
0.0000001
 43
0.0000001
 44
0.0000000001
 40
0.0
 40
0.0
 40
0.0
 40
0.0
 40
0.3140628525
 40
0.5886517067
 40
0.7084564061
 40
0.8164756386
 40
1.0
 40
1.0
 40
1.0
 40
1.0
 10
73.4293246643
 20
47.6857967589
 30
0.0
 10
73.2869452182
 20
47.6858326647
 30
0.0
 10
73.0176271919
 20
47.6309656768
 30
0.0
 10
72.7394323893
 20
47.4591821073
 30
0.0
 10
72.5798758344
 20
47.2949893762
 30
0.0
 10
72.4738443628
 20
47.1416544361
 30
0.0
 10
72.4294263312
 20
47.0096674689
 30
0.0
 10
72.4294316111
 20
46.9264672513
 30
0.0
  0
SPLINE
  5
35E
100
AcDbEntity
  8
RUNDUNGEN
100
AcDbSpline
 62
7
  6
CONTINUOUS
 70
0
 71
3
 72
18
 73
14
 74
0
 42
0.0000001
 43
0.0000001
 44
0.0000000001
 40
0.0
 40
0.0
 40
0.0
 40
0.0
 40
0.0043827499
 40
0.0173837213
 40
0.0388851184
 40
0.068769152
 40
0.1069180651
 40
0.1531880523
 40
0.269032756
 40
0.4140341102
 40
0.5858680142
 40
0.7820419181
 40
1.0
 40
1.0
 40
1.0
 40
1.0
 10
72.429431608
 20
45.1400716201
 30
0.0
 10
72.4296239677
 20
45.1396731285
 30
0.0
 10
72.4316145422
 20
45.1392400229
 30
0.0
 10
72.4345951646
 20
45.1369065302
 30
0.0
 10
72.4405186182
 20
45.1339656729
 30
0.0
 10
72.4483046231
 20
45.1294622036
 30
0.0
 10
72.4584336567
 20
45.1238951176
 30
0.0
 10
72.4760995878
 20
45.114077527
 30
0.0
 10
72.5032735303
 20
45.0991326027
 30
0.0
 10
72.5416184318
 20
45.0782093258
 30
0.0
 10
72.5872021712
 20
45.0536149491
 30
0.0
 10
72.6394195014
 20
45.0258069634
 30
0.0
 10
72.6764496361
 20
45.0063901892
 30
0.0
 10
72.6959736335
 20
44.9962386785
 30
0.0
  0
SPLINE
  5
35F
100
AcDbEntity
  8
RUNDUNGEN
100
AcDbSpline
 62
7
  6
CONTINUOUS
 70
0
 71
3
 72
12
 73
8
 74
0
 42
0.0000001
 43
0.0000001
 44
0.0000000001
 40
0.0
 40
0.0
 40
0.0
 40
0.0
 40
0.1682110897
 40
0.2733586536
 40
0.3935474878
 40
0.6759688826
 40
1.0
 40
1.0
 40
1.0
 40
1.0
 10
81.629431608
 20
47.1045616473
 30
0.0
 10
81.6294604037
 20
47.1895216816
 30
0.0
 10
81.5691569741
 20
47.3256335363
 30
0.0
 10
81.4381069795
 20
47.4741579971
 30
0.0
 10
81.2375631948
 20
47.6365426956
 30
0.0
 10
80.9012715498
 20
47.796292338
 30
0.0
 10
80.5930932032
 20
47.844275675
 30
0.0
 10
80.429431608
 20
47.8442282125
 30
0.0
  0
SPLINE
  5
360
100
AcDbEntity
  8
RUNDUNGEN
100
AcDbSpline
 62
7
  6
CONTINUOUS
 70
0
 71
3
 72
16
 73
12
 74
0
 42
0.0000001
 43
0.0000001
 44
0.0000000001
 40
0.0
 40
0.0
 40
0.0
 40
0.0
 40
0.008411773
 40
0.0240927144
 40
0.0813518721
 40
0.1727601633
 40
0.2954579223
 40
0.4452019833
 40
0.6167037869
 40
0.8038526571
 40
1.0
 40
1.0
 40
1.0
 40
1.0
 10
54.75
 20
93.4438638901
 30
0.0
 10
54.7500000135
 20
93.4411853042
 30
0.0
 10
54.7563255569
 20
93.434840408
 30
0.0
 10
54.7798998833
 20
93.4258678701
 30
0.0
 10
54.8320139381
 20
93.4149500783
 30
0.0
 10
54.9173524535
 20
93.4042739478
 30
0.0
 10
55.0329819784
 20
93.3942457541
 30
0.0
 10
55.1740467315
 20
93.3858841391
 30
0.0
 10
55.3358360289
 20
93.379401431
 30
0.0
 10
55.5124497191
 20
93.3751253105
 30
0.0
 10
55.6345034254
 20
93.3738753885
 30
0.0
 10
55.6969627729
 20
93.3736421287
 30
0.0
  0
LINE
  5
361
100
AcDbEntity
  8
RUNDUNGEN
100
AcDbLine
 62
7
  6
CONTINUOUS
 10
57.5014226111
 20
86.284988224
 11
55.7500004971
 21
92.2445078448
  0
SPLINE
  5
362
100
AcDbEntity
  8
RUNDUNGEN
100
AcDbSpline
 62
7
  6
CONTINUOUS
 70
0
 71
3
 72
12
 73
8
 74
0
 42
0.0000001
 43
0.0000001
 44
0.0000000001
 40
0.0
 40
0.0
 40
0.0
 40
0.0
 40
0.3240326642
 40
0.6064448669
 40
0.7266354029
 40
0.8317851256
 40
1.0
 40
1.0
 40
1.0
 40
1.0
 10
73.429431608
 20
47.8442282125
 30
0.0
 10
73.265769188
 20
47.8442754255
 30
0.0
 10
72.9575933194
 20
47.7962959745
 30
0.0
 10
72.6213076593
 20
47.6365425428
 30
0.0
 10
72.4207619282
 20
47.4741647671
 30
0.0
 10
72.2897074475
 20
47.3256387095
 30
0.0
 10
72.2294029197
 20
47.1895236157
 30
0.0
 10
72.229431608
 20
47.1045616473
 30
0.0
  0
SPLINE
  5
363
100
AcDbEntity
  8
RUNDUNGEN
100
AcDbSpline
 62
7
  6
CONTINUOUS
 70
0
 71
3
 72
9
 73
5
 74
0
 42
0.0000001
 43
0.0000001
 44
0.0000000001
 40
0.0
 40
0.0
 40
0.0
 40
0.0
 40
0.4005118539
 40
1.0
 40
1.0
 40
1.0
 40
1.0
 10
81.6019166243
 20
46.3326301133
 30
0.0
 10
81.6071252715
 20
46.3333511142
 30
0.0
 10
81.6187387915
 20
46.3414939827
 30
0.0
 10
81.625619729
 20
46.3526578929
 30
0.0
 10
81.6294359825
 20
46.3595414694
 30
0.0
  0
SPLINE
  5
364
100
AcDbEntity
  8
RUNDUNGEN
100
AcDbSpline
 62
7
  6
CONTINUOUS
 70
0
 71
3
 72
13
 73
9
 74
0
 42
0.0000001
 43
0.0000001
 44
0.0000000001
 40
0.0
 40
0.0
 40
0.0
 40
0.0
 40
0.0878597733
 40
0.1825701318
 40
0.2884780963
 40
0.4076954822
 40
0.6847865759
 40
1.0
 40
1.0
 40
1.0
 40
1.0
 10
85.7429894858
 20
49.9908942541
 30
0.0
 10
85.7347498641
 20
49.9601458
 30
0.0
 10
85.7060954178
 20
49.898932572
 30
0.0
 10
85.6337283714
 20
49.8216459818
 30
0.0
 10
85.5346900438
 20
49.7595413786
 30
0.0
 10
85.3636308787
 20
49.6949248451
 30
0.0
 10
85.1042765781
 20
49.6639741661
 30
0.0
 10
84.8892960659
 20
49.6846540881
 30
0.0
 10
84.7770683655
 20
49.7058293985
 30
0.0
  0
SPLINE
  5
365
100
AcDbEntity
  8
RUNDUNGEN
100
AcDbSpline
 62
7
  6
CONTINUOUS
 70
0
 71
3
 72
13
 73
9
 74
0
 42
0.0000001
 43
0.0000001
 44
0.0000000001
 40
0.0
 40
0.0
 40
0.0
 40
0.0
 40
0.2971973215
 40
0.5562439304
 40
0.6745980157
 40
0.7870912209
 40
0.8951182688
 40
1.0
 40
1.0
 40
1.0
 40
1.0
 10
69.0062671438
 20
50.0989197062
 30
0.0
 10
69.0846617782
 20
49.5861678504
 30
0.0
 10
69.3750389063
 20
48.6411525089
 30
0.0
 10
70.0498654966
 20
47.6541134718
 30
0.0
 10
70.682831855
 20
47.0750203317
 30
0.0
 10
71.1759691663
 20
46.7442730154
 30
0.0
 10
71.6920143079
 20
46.5021406458
 30
0.0
 10
72.0502846634
 20
46.3971459129
 30
0.0
 10
72.2294326472
 20
46.3595316025
 30
0.0
  0
SPLINE
  5
366
100
AcDbEntity
  8
RUNDUNGEN
100
AcDbSpline
 62
7
  6
CONTINUOUS
 70
0
 71
3
 72
9
 73
5
 74
0
 42
0.0000001
 43
0.0000001
 44
0.0000000001
 40
0.0
 40
0.0
 40
0.0
 40
0.0
 40
0.5995257579
 40
1.0
 40
1.0
 40
1.0
 40
1.0
 10
72.2294417862
 20
46.3595227425
 30
0.0
 10
72.2332583457
 20
46.3526394436
 30
0.0
 10
72.2401425108
 20
46.3414785068
 30
0.0
 10
72.2517535253
 20
46.3333365314
 30
0.0
 10
72.2569610656
 20
46.3326140025
 30
0.0
  0
SPLINE
  5
367
100
AcDbEntity
  8
RUNDUNGEN
100
AcDbSpline
 62
7
  6
CONTINUOUS
 70
0
 71
3
 72
13
 73
9
 74
0
 42
0.0000001
 43
0.0000001
 44
0.0000000001
 40
0.0
 40
0.0
 40
0.0
 40
0.0
 40
0.3222385666
 40
0.604514562
 40
0.7240364794
 40
0.8278365156
 40
0.91809438
 40
1.0
 40
1.0
 40
1.0
 40
1.0
 10
69.0062671437
 20
50.0989283929
 30
0.0
 10
68.8876629999
 20
50.0830677653
 30
0.0
 10
68.662208551
 20
50.0723999959
 30
0.0
 10
68.3933350707
 20
50.1134398684
 30
0.0
 10
68.2182866799
 20
50.18369144
 30
0.0
 10
68.119961099
 20
50.2479452397
 30
0.0
 10
68.0508384949
 20
50.3256636962
 30
0.0
 10
68.026755217
 20
50.3867971299
 30
0.0
 10
68.0214728522
 20
50.4167497051
 30
0.0
  0
LINE
  5
368
100
AcDbEntity
  8
RUNDUNGEN
100
AcDbLine
 62
7
  6
CONTINUOUS
 10
68.4429312372
 20
53.7852711099
 11
69.0062671438
 21
50.0989197062
  0
LINE
  5
369
100
AcDbEntity
  8
RUNDUNGEN
100
AcDbLine
 62
7
  6
CONTINUOUS
 10
85.7243844829
 20
53.7851684981
 11
84.7770683653
 21
49.7058233949
  0
SPLINE
  5
36A
100
AcDbEntity
  8
RUNDUNGEN
100
AcDbSpline
 62
7
  6
CONTINUOUS
 70
0
 71
3
 72
13
 73
9
 74
0
 42
0.0000001
 43
0.0000001
 44
0.0000000001
 40
0.0
 40
0.0
 40
0.0
 40
0.0
 40
0.293376552
 40
0.5515540785
 40
0.6704598768
 40
0.7840097299
 40
0.8934739863
 40
1.0
 40
1.0
 40
1.0
 40
1.0
 10
84.7770683653
 20
49.7058233949
 30
0.0
 10
84.6700203066
 20
49.2449464304
 30
0.0
 10
84.3484728821
 20
48.4005264627
 30
0.0
 10
83.688618908
 20
47.5252944391
 30
0.0
 10
83.0861610897
 20
47.0087011661
 30
0.0
 10
82.6195627952
 20
46.7112233641
 30
0.0
 10
82.1337010083
 20
46.4915935557
 30
0.0
 10
81.7975669095
 20
46.3948506249
 30
0.0
 10
81.6294320674
 20
46.3595492105
 30
0.0
  0
SPLINE
  5
36B
100
AcDbEntity
  8
RUNDUNGEN
100
AcDbSpline
 62
7
  6
CONTINUOUS
 70
0
 71
3
 72
12
 73
8
 74
0
 42
0.0000001
 43
0.0000001
 44
0.0000000001
 40
0.0
 40
0.0
 40
0.0
 40
0.0
 40
0.2502160441
 40
0.5003583074
 40
0.6254524339
 40
0.7505297855
 40
1.0
 40
1.0
 40
1.0
 40
1.0
 10
102.8975031667
 20
106.2849882185
 30
0.0
 10
102.4102585637
 20
105.8443758817
 30
0.0
 10
101.4359699197
 20
104.9633107137
 30
0.0
 10
100.2847825783
 20
103.7885152293
 30
0.0
 10
99.4602888215
 20
102.7637832498
 30
0.0
 10
98.7282731718
 20
101.6751612894
 30
0.0
 10
98.3128333967
 20
100.7658962383
 30
0.0
 10
98.1433224674
 20
100.1332480299
 30
0.0
  0
LINE
  5
36C
100
AcDbEntity
  8
RUNDUNGEN
100
AcDbLine
 62
7
  6
CONTINUOUS
 10
96.6857730803
 20
106.2846687252
 11
98.4275097605
 21
113.784965903
  0
ELLIPSE
  5
36D
100
AcDbEntity
  8
0
100
AcDbEllipse
 62
7
  6
CONTINUOUS
 10
87.5366716013
 20
159.1406250228
 30
0.0
 11
0.0
 21
3.195
 31
0.0
 40
0.2679491924
 41
0.0
 42
3.1415926536
  0
ELLIPSE
  5
36E
100
AcDbEntity
  8
0
100
AcDbEllipse
 62
7
  6
CONTINUOUS
 10
92.1453977111
 20
159.1406250228
 30
0.0
 11
-0.0
 21
3.195
 31
0.0
 40
0.2679491924
 41
-3.1415926536
 42
0.0
  0
ELLIPSE
  5
36F
100
AcDbEntity
  8
0
100
AcDbEllipse
 62
7
  6
CONTINUOUS
 10
63.8833753324
 20
159.1406250228
 30
0.0
 11
-0.0
 21
3.195
 31
0.0
 40
0.1763269807
 41
0.0
 42
3.1415926536
  0
ENDSEC
  0
SECTION
  2
OBJECTS
  0
DICTIONARY
  5
C
100
AcDbDictionary
280
0
281
1
  3
ACAD_GROUP
350
D
  3
ACAD_MLINESTYLE
350
17
  3
ACAD_LAYOUT
350
1A
  3
ACAD_PLOTSETTINGS
350
19
  3
ACAD_PLOTSTYLENAME
350
E
  0
DICTIONARY
  5
D
102
{ACAD_REACTORS
330
C
102
}
100
AcDbDictionary
280
0
281
1
  0
ACDBDICTIONARYWDFLT
  5
E
102
{ACAD_REACTORS
330
C
102
}
100
AcDbDictionary
281
1
  3
Normal
350
F
100
AcDbDictionaryWithDefault
340
F
  0
DICTIONARY
  5
17
102
{ACAD_REACTORS
330
C
102
}
100
AcDbDictionary
280
0
281
1
  3
Standard
350
18
  0
DICTIONARY
  5
19
102
{ACAD_REACTORS
330
C
102
}
100
AcDbDictionary
281
1
  0
DICTIONARY
  5
1A
102
{ACAD_REACTORS
330
C
102
}
100
AcDbDictionary
281
1
  3
Model
350
370
  3
Layout1
350
371
  0
ACDBPLACEHOLDER
  5
F
102
{ACAD_REACTORS
330
E
102
}
  0
MLINESTYLE
  5
18
102
{ACAD_REACTORS
330
17
102
}
100
AcDbMlineStyle
  2
STANDARD
 70
0
  3

 62
256
 51
90.0
 52
90.0
 71
2
 49
0.5
 62
256
  6
BYLAYER
 49
-0.5
 62
256
  6
BYLAYER
  0
LAYOUT
  5
370
102
{ACAD_REACTORS
330
1A
102
}
100
AcDbPlotSettings
  1

  2
none_device
  4
ISO_A4_(297.00_x_210.00_MM)
  6

 40
0.0
 41
0.0
 42
0.0
 43
0.0
 44
297.0
 45
210.0
 46
0.0
 47
0.0
 48
0.0
 49
0.0
140
0.0
141
0.0
142
1.0
143
1.0
 70
1024
 72
1
 73
0
 74
0
  7

 75
0
147
1.0
148
0.0
149
0.0
100
AcDbLayout
  1
Model
 70
0
 71
0
 10
0.0
 20
0.0
 11
297.0
 21
210.0
 12
0.0
 22
0.0
 32
0.0
 14
0.0
 24
0.0
 34
0.0
 15
0.0
 25
0.0
 35
0.0
146
0.0
 13
0.0
 23
0.0
 33
0.0
 16
1.0
 26
0.0
 36
0.0
 17
0.0
 27
1.0
 37
0.0
 76
0
330
212
345
0
346
0
  0
LAYOUT
  5
371
102
{ACAD_REACTORS
330
1A
102
}
100
AcDbPlotSettings
  1

  2
none_device
  4
ISO_A4_(297.00_x_210.00_MM)
  6

 40
0.0
 41
0.0
 42
0.0
 43
0.0
 44
297.0
 45
210.0
 46
0.0
 47
0.0
 48
0.0
 49
0.0
140
0.0
141
0.0
142
1.0
143
1.0
 70
0
 72
1
 73
0
 74
0
  7

 75
0
147
1.0
148
0.0
149
0.0
100
AcDbLayout
  1
Layout1
 70
0
 71
1
 10
0.0
 20
0.0
 11
297.0
 21
210.0
 12
0.0
 22
0.0
 32
0.0
 14
0.0
 24
0.0
 34
0.0
 15
0.0
 25
0.0
 35
0.0
146
0.0
 13
0.0
 23
0.0
 33
0.0
 16
1.0
 26
0.0
 36
0.0
 17
0.0
 27
1.0
 37
0.0
 76
0
330
213
345
0
346
0
  0
ENDSEC
  0
EOF
