999
DXF file: S:\Prolink\03_Konstruktion\CAD-Plots\Internet\2D_neu\S9\s9-57_grt_sml_f7_w50.dxf
999
Pro/ENGINEER 2012230 by Parametric Technology Corporation
  0
SECTION
  2
HEADER
  9
$ACADVER
  1
AC1021
  9
$DWGCODEPAGE
  3
ANSI_1252
  9
$EXTMAX
 10
297.0
 20
210.0
 30
0.0
  9
$EXTMIN
 10
0.0
 20
0.0
 30
0.0
  9
$LIMMIN
 10
0.0
 20
0.0
  9
$LIMMAX
 10
297.0
 20
210.0
  9
$VIEWCTR
 10
148.5
 20
105.0
  9
$VIEWSIZE
 40
210.0
  9
$CLAYER
  8
0
  9
$LTSCALE
 40
16.335
  9
$CELTYPE
  6
BYLAYER
  9
$DIMSCALE
 40
1.0
  9
$DIMASZ
 40
3.5
  9
$DIMEXO
 40
0.0
  9
$DIMDLI
 40
11.286
  9
$DIMEXE
 40
1.5
  9
$DIMCEN
 40
2.673
  9
$DIMLFAC
 40
1.0
  9
$DIMBLK
  1
_FILLED
  9
$DIMTXT
 40
3.5
  9
$DIMTOL
 70
1
  9
$DIMLIM
 70
0
  9
$DIMTFAC
 40
1.0
  9
$DIMTP
 40
0.005
  9
$DIMTM
 40
0.005
  9
$DIMGAP
 40
0.625
  9
$DIMDSEP
 70
46
  9
$PDMODE
 70
3
  9
$PDSIZE
 40
0.3125
  9
$HANDSEED
  5
35B
  9
$TILEMODE
 70
1
  9
$MEASUREMENT
 70
1
  9
$INSUNITS
 70
4
  0
ENDSEC
  0
SECTION
  2
CLASSES
  0
CLASS
  1
ACDBDICTIONARYWDFLT
  2
AcDbDictionaryWithDefault
  3
AutoCAD 2000
 90
0
 91
1
280
0
281
0
  0
CLASS
  1
ACDBPLACEHOLDER
  2
AcDbPlaceHolder
  3
AutoCAD 2000
 90
0
 91
1
280
0
281
0
  0
CLASS
  1
LAYOUT
  2
AcDbLayout
  3
AutoCAD 2000
 90
0
 91
0
280
0
281
0
  0
ENDSEC
  0
SECTION
  2
TABLES
  0
TABLE
  2
VPORT
  5
8
100
AcDbSymbolTable
 70
2
  0
VPORT
  5
1F4
100
AcDbSymbolTableRecord
100
AcDbViewportTableRecord
  2
*ACTIVE
 70
0
 10
0.0
 20
0.0
 11
1.0
 21
1.0
 12
148.5
 22
105.0
 13
0.0
 23
0.0
 14
1.0
 24
1.0
 15
0.0
 25
0.0
 16
0.0
 26
0.0
 36
1.0
 17
0.0
 27
0.0
 37
0.0
 40
210.0
 41
1.4142857143
 42
50.0
 43
0.0
 44
0.0
 50
0.0
 51
0.0
 71
0
 72
100
 73
1
 74
1
 75
0
 76
0
 77
0
 78
0
  0
ENDTAB
  0
TABLE
  2
LTYPE
  5
5
100
AcDbSymbolTable
 70
6
  0
LTYPE
  5
14
100
AcDbSymbolTableRecord
100
AcDbLinetypeTableRecord
  2
BYBLOCK
 70
0
  3

 72
65
 73
0
 40
0.0
  0
LTYPE
  5
15
100
AcDbSymbolTableRecord
100
AcDbLinetypeTableRecord
  2
BYLAYER
 70
0
  3

 72
65
 73
0
 40
0.0
  0
LTYPE
  5
16
100
AcDbSymbolTableRecord
100
AcDbLinetypeTableRecord
  2
CONTINUOUS
 70
64
  3
Solid line
 72
65
 73
0
 40
0.0
  0
LTYPE
  5
1F5
100
AcDbSymbolTableRecord
100
AcDbLinetypeTableRecord
  2
CENTER
 70
64
  3
____ _ ____ _ ____ _ ____ _ ____ _ ____ _ ____
 72
65
 73
4
 40
0.6
 49
0.375
 74
0
 49
-0.075
 74
0
 49
0.075
 74
0
 49
-0.075
 74
0
  0
LTYPE
  5
1F6
100
AcDbSymbolTableRecord
100
AcDbLinetypeTableRecord
  2
HIDDEN
 70
64
  3
- - - - - - - - - - - - - - - - - - - -
 72
65
 73
2
 40
0.2
 49
0.1
 74
0
 49
-0.1
 74
0
  0
LTYPE
  5
1F7
100
AcDbSymbolTableRecord
100
AcDbLinetypeTableRecord
  2
PHANTOM
 70
64
  3
_____ _ _ _____ _ _ _____ _ _ _____
 72
65
 73
6
 40
0.8
 49
0.45
 74
0
 49
-0.05
 74
0
 49
0.1
 74
0
 49
-0.05
 74
0
 49
0.1
 74
0
 49
-0.05
 74
0
  0
LTYPE
  5
1F8
100
AcDbSymbolTableRecord
100
AcDbLinetypeTableRecord
  2
DOT
 70
64
  3
. . . . . . . . . . . . . . . . . . . .
 72
65
 73
2
 40
0.2
 49
0.1
 74
0
 49
-0.1
 74
0
  0
LTYPE
  5
1F9
100
AcDbSymbolTableRecord
100
AcDbLinetypeTableRecord
  2
DASHED
 70
64
  3
- - - - - - - - - - - - - - - - - - - -
 72
65
 73
2
 40
0.2
 49
0.1
 74
0
 49
-0.1
 74
0
  0
ENDTAB
  0
TABLE
  2
LAYER
  5
2
100
AcDbSymbolTable
 70
36
  0
LAYER
  5
10
100
AcDbSymbolTableRecord
100
AcDbLayerTableRecord
  2
0
 70
0
 62
7
  6
CONTINUOUS
370
-3
390
F
  0
LAYER
  5
1FA
100
AcDbSymbolTableRecord
100
AcDbLayerTableRecord
  2
DEFAULT_1
 70
0
 62
7
  6
CENTER
370
-3
390
F
  0
LAYER
  5
1FB
100
AcDbSymbolTableRecord
100
AcDbLayerTableRecord
  2
DEFAULT_2
 70
0
 62
8
  6
HIDDEN
370
-3
390
F
  0
LAYER
  5
1FC
100
AcDbSymbolTableRecord
100
AcDbLayerTableRecord
  2
DEFAULT_3
 70
0
 62
7
  6
PHANTOM
370
-3
390
F
  0
LAYER
  5
1FD
100
AcDbSymbolTableRecord
100
AcDbLayerTableRecord
  2
01___PRT_ALL_DTM_PLN
 70
0
 62
7
  6
CONTINUOUS
370
-3
390
F
  0
LAYER
  5
1FE
100
AcDbSymbolTableRecord
100
AcDbLayerTableRecord
  2
01___PRT_DEF_DTM_PLN
 70
0
 62
7
  6
CONTINUOUS
370
-3
390
F
  0
LAYER
  5
1FF
100
AcDbSymbolTableRecord
100
AcDbLayerTableRecord
  2
02___PRT_ALL_AXES
 70
0
 62
7
  6
CONTINUOUS
370
-3
390
F
  0
LAYER
  5
200
100
AcDbSymbolTableRecord
100
AcDbLayerTableRecord
  2
03___PRT_ALL_CURVES
 70
0
 62
7
  6
CONTINUOUS
370
-3
390
F
  0
LAYER
  5
201
100
AcDbSymbolTableRecord
100
AcDbLayerTableRecord
  2
04___PRT_ALL_DTM_PNT
 70
0
 62
7
  6
CONTINUOUS
370
-3
390
F
  0
LAYER
  5
202
100
AcDbSymbolTableRecord
100
AcDbLayerTableRecord
  2
05___PRT_ALL_DTM_CSYS
 70
0
 62
7
  6
CONTINUOUS
370
-3
390
F
  0
LAYER
  5
203
100
AcDbSymbolTableRecord
100
AcDbLayerTableRecord
  2
05___PRT_DEF_DTM_CSYS
 70
0
 62
7
  6
CONTINUOUS
370
-3
390
F
  0
LAYER
  5
204
100
AcDbSymbolTableRecord
100
AcDbLayerTableRecord
  2
06___PRT_ALL_SURFS
 70
0
 62
7
  6
CONTINUOUS
370
-3
390
F
  0
LAYER
  5
205
100
AcDbSymbolTableRecord
100
AcDbLayerTableRecord
  2
ALLE
 70
0
 62
7
  6
CONTINUOUS
370
-3
390
F
  0
LAYER
  5
206
100
AcDbSymbolTableRecord
100
AcDbLayerTableRecord
  2
AUSFORMSCHRAEGEN
 70
0
 62
7
  6
CONTINUOUS
370
-3
390
F
  0
LAYER
  5
207
100
AcDbSymbolTableRecord
100
AcDbLayerTableRecord
  2
BEZUGSACHSEN
 70
0
 62
7
  6
CONTINUOUS
370
-3
390
F
  0
LAYER
  5
208
100
AcDbSymbolTableRecord
100
AcDbLayerTableRecord
  2
BEZUGSEBENE
 70
0
 62
7
  6
CONTINUOUS
370
-3
390
F
  0
LAYER
  5
209
100
AcDbSymbolTableRecord
100
AcDbLayerTableRecord
  2
BEZUGSEBENEN
 70
0
 62
7
  6
CONTINUOUS
370
-3
390
F
  0
LAYER
  5
20A
100
AcDbSymbolTableRecord
100
AcDbLayerTableRecord
  2
BEZUGSEBENEN-KES
 70
0
 62
7
  6
CONTINUOUS
370
-3
390
F
  0
LAYER
  5
20B
100
AcDbSymbolTableRecord
100
AcDbLayerTableRecord
  2
FLAECHEN
 70
0
 62
7
  6
CONTINUOUS
370
-3
390
F
  0
LAYER
  5
20C
100
AcDbSymbolTableRecord
100
AcDbLayerTableRecord
  2
KURVEN
 70
0
 62
7
  6
CONTINUOUS
370
-3
390
F
  0
LAYER
  5
20D
100
AcDbSymbolTableRecord
100
AcDbLayerTableRecord
  2
PARAMETER-BEMAßUNGEN
 70
0
 62
7
  6
CONTINUOUS
370
-3
390
F
  0
LAYER
  5
20E
100
AcDbSymbolTableRecord
100
AcDbLayerTableRecord
  2
RUNDUNGEN
 70
0
 62
7
  6
CONTINUOUS
370
-3
390
F
  0
LAYER
  5
20F
100
AcDbSymbolTableRecord
100
AcDbLayerTableRecord
  2
SAMMELFLÄCHEN
 70
0
 62
7
  6
CONTINUOUS
370
-3
390
F
  0
ENDTAB
  0
TABLE
  2
STYLE
  5
3
100
AcDbSymbolTable
 70
1
  0
STYLE
  5
11
100
AcDbSymbolTableRecord
100
AcDbTextStyleTableRecord
  2
STANDARD
 70
0
 40
0.0
 41
0.7
 50
0.0
 71
0
 42
0.2
  3
txt
  4

  0
STYLE
  5
210
100
AcDbSymbolTableRecord
100
AcDbTextStyleTableRecord
  2
TEXTSTYLE_1
 70
0
 40
0.0
 41
0.8
 50
0.0
 71
0
 42
0.2
  3
gdt
  4

  0
ENDTAB
  0
TABLE
  2
VIEW
  5
6
100
AcDbSymbolTable
 70
0
  0
ENDTAB
  0
TABLE
  2
UCS
  5
7
100
AcDbSymbolTable
 70
0
  0
ENDTAB
  0
TABLE
  2
APPID
  5
9
100
AcDbSymbolTable
 70
1
  0
APPID
  5
211
100
AcDbSymbolTableRecord
100
AcDbRegAppTableRecord
  2
ACAD
 70
0
  0
ENDTAB
  0
TABLE
  2
BLOCK_RECORD
  5
1
100
AcDbSymbolTable
 70
0
  0
BLOCK_RECORD
  5
212
100
AcDbSymbolTableRecord
100
AcDbBlockTableRecord
  2
*Model_Space
  0
BLOCK_RECORD
  5
213
100
AcDbSymbolTableRecord
100
AcDbBlockTableRecord
  2
*Paper_Space
  0
ENDTAB
  0
TABLE
  2
DIMSTYLE
  5
A
100
AcDbSymbolTable
 70
1
100
AcDbDimStyleTable
 71
0
  0
DIMSTYLE
105
214
100
AcDbSymbolTableRecord
100
AcDbDimStyleTableRecord
  2
STANDARD
 70
0
  3

  4

 40
1.0
 41
3.5
 42
0.0
 43
0.38
 44
1.5
 45
0.0
 46
0.0
 47
0.005
 48
0.005
140
3.5
141
0.09
142
0.0
143
25.4
144
1.0
145
0.0
146
1.0
147
0.625
 71
1.0
 72
0.0
 73
0
 74
0
 75
0
 76
0
 77
1
 78
8
170
0
171
2
172
0
173
0
174
0
175
0
176
0
177
0
178
5
270
2
271
3
272
3
273
2
274
2
275
0
280
0
281
0
282
0
283
1
284
8
285
0
286
0
287
3
288
0
340
11
278
46
  0
ENDTAB
  0
ENDSEC
  0
SECTION
  2
BLOCKS
  0
BLOCK
  5
20
100
AcDbEntity
  8
0
100
AcDbBlockBegin
  2
*Model_Space
 70
0
 10
0.0
 20
0.0
 30
0.0
  3
*Model_Space
  1

  0
ENDBLK
  5
21
100
AcDbEntity
  8
0
100
AcDbBlockEnd
  0
BLOCK
  5
1C
100
AcDbEntity
  8
0
100
AcDbBlockBegin
  2
*Paper_Space
 70
0
 10
0.0
 20
0.0
 30
0.0
  3
*Paper_Space
  1

  0
ENDBLK
  5
1D
100
AcDbEntity
  8
0
100
AcDbBlockEnd
  0
ENDSEC
  0
SECTION
  2
ENTITIES
  0
LINE
  5
215
100
AcDbEntity
  8
0
100
AcDbLine
 62
7
  6
CONTINUOUS
 10
0.0
 20
0.0
 11
0.0
 21
210.0
  0
LINE
  5
216
100
AcDbEntity
  8
0
100
AcDbLine
 62
7
  6
CONTINUOUS
 10
0.0
 20
0.0
 11
297.0
 21
0.0
  0
LINE
  5
217
100
AcDbEntity
  8
0
100
AcDbLine
 62
7
  6
CONTINUOUS
 10
0.0
 20
210.0
 11
297.0
 21
210.0
  0
LINE
  5
218
100
AcDbEntity
  8
0
100
AcDbLine
 62
7
  6
CONTINUOUS
 10
297.0
 20
0.0
 11
297.0
 21
210.0
  0
LINE
  5
219
100
AcDbEntity
  8
RUNDUNGEN
100
AcDbLine
 62
7
  6
CONTINUOUS
 10
54.75
 20
152.6406249772
 11
54.75
 21
165.6406249771
  0
LINE
  5
21A
100
AcDbEntity
  8
RUNDUNGEN
100
AcDbLine
 62
7
  6
CONTINUOUS
 10
55.75
 20
151.6406249772
 11
55.75
 21
166.6406249772
  0
LINE
  5
21B
100
AcDbEntity
  8
0
100
AcDbLine
 62
7
  6
CONTINUOUS
 10
91.0570257434
 20
151.6406249772
 11
73.7756572372
 21
151.6406249772
  0
LINE
  5
21C
100
AcDbEntity
  8
0
100
AcDbLine
 62
7
  6
CONTINUOUS
 10
58.6730484379
 20
151.6406249772
 11
55.75
 21
151.6406249772
  0
LINE
  5
21D
100
AcDbEntity
  8
RUNDUNGEN
100
AcDbLine
 62
7
  6
CONTINUOUS
 10
56.6024968333
 20
151.6406249772
 11
103.7499912534
 21
151.6406249772
  0
LINE
  5
21E
100
AcDbEntity
  8
0
100
AcDbLine
 62
7
  6
CONTINUOUS
 10
102.05
 20
151.6406249772
 11
103.75
 21
151.6406249772
  0
LINE
  5
21F
100
AcDbEntity
  8
RUNDUNGEN
100
AcDbLine
 62
7
  6
CONTINUOUS
 10
73.7569682457
 20
153.6860246355
 11
73.7569686142
 21
164.5952245607
  0
LINE
  5
220
100
AcDbEntity
  8
RUNDUNGEN
100
AcDbLine
 62
7
  6
CONTINUOUS
 10
60.3907403184
 20
152.6406220762
 11
72.8097314109
 21
152.6406249772
  0
LINE
  5
221
100
AcDbEntity
  8
RUNDUNGEN
100
AcDbLine
 62
7
  6
CONTINUOUS
 10
97.3959527969
 20
152.6406223937
 11
92.0418334964
 21
152.6406249772
  0
LINE
  5
222
100
AcDbEntity
  8
RUNDUNGEN
100
AcDbLine
 62
7
  6
CONTINUOUS
 10
79.070568392
 20
154.5627028992
 11
86.070568392
 21
154.5627028992
  0
LINE
  5
223
100
AcDbEntity
  8
RUNDUNGEN
100
AcDbLine
 62
7
  6
CONTINUOUS
 10
86.070568392
 20
154.6406249772
 11
79.0705683921
 21
154.6406249772
  0
LINE
  5
224
100
AcDbEntity
  8
RUNDUNGEN
100
AcDbLine
 62
7
  6
CONTINUOUS
 10
86.1220389802
 20
154.8406249772
 11
79.0190978038
 21
154.8406249772
  0
LINE
  5
225
100
AcDbEntity
  8
RUNDUNGEN
100
AcDbLine
 62
7
  6
CONTINUOUS
 10
87.070568392
 20
155.6406249772
 11
86.9338036871
 21
155.6406249772
  0
LINE
  5
226
100
AcDbEntity
  8
RUNDUNGEN
100
AcDbLine
 62
7
  6
CONTINUOUS
 10
78.070568392
 20
155.6406249772
 11
78.2073330979
 21
155.6406249772
  0
LINE
  5
227
100
AcDbEntity
  8
RUNDUNGEN
100
AcDbLine
 62
7
  6
CONTINUOUS
 10
77.8705679326
 20
158.085709838
 11
77.870568392
 21
155.7315340681
  0
LINE
  5
228
100
AcDbEntity
  8
RUNDUNGEN
100
AcDbLine
 62
7
  6
CONTINUOUS
 10
77.870568392
 20
162.5497158863
 11
77.8705685935
 21
160.1954885479
  0
LINE
  5
229
100
AcDbEntity
  8
RUNDUNGEN
100
AcDbLine
 62
7
  6
CONTINUOUS
 10
77.8981068128
 20
159.8436036787
 11
77.8981053476
 21
158.4376039416
  0
LINE
  5
22A
100
AcDbEntity
  8
RUNDUNGEN
100
AcDbLine
 62
7
  6
CONTINUOUS
 10
78.070568392
 20
155.6406249772
 11
78.070568392
 21
162.6406249772
  0
LINE
  5
22B
100
AcDbEntity
  8
RUNDUNGEN
100
AcDbLine
 62
7
  6
CONTINUOUS
 10
78.2073330979
 20
155.6406249772
 11
78.2073330979
 21
162.6406249772
  0
LINE
  5
22C
100
AcDbEntity
  8
RUNDUNGEN
100
AcDbLine
 62
7
  6
CONTINUOUS
 10
95.6166246676
 20
155.9456249772
 11
91.8002555022
 21
155.9456249772
  0
LINE
  5
22D
100
AcDbEntity
  8
0
100
AcDbLine
 62
7
  6
CONTINUOUS
 10
67.3546022889
 20
155.9456249772
 11
71.9633283987
 21
155.9456249772
  0
LINE
  5
22E
100
AcDbEntity
  8
RUNDUNGEN
100
AcDbLine
 62
7
  6
CONTINUOUS
 10
79.070568392
 20
163.7185470551
 11
79.070568392
 21
163.6406249772
  0
LINE
  5
22F
100
AcDbEntity
  8
RUNDUNGEN
100
AcDbLine
 62
7
  6
CONTINUOUS
 10
79.070568392
 20
154.5627028992
 11
79.070568392
 21
154.6406249772
  0
LINE
  5
230
100
AcDbEntity
  8
RUNDUNGEN
100
AcDbLine
 62
7
  6
CONTINUOUS
 10
77.8981053479
 20
158.4378164122
 11
78.070568392
 21
158.4378204862
  0
LINE
  5
231
100
AcDbEntity
  8
RUNDUNGEN
100
AcDbLine
 62
7
  6
CONTINUOUS
 10
87.243027738
 20
158.4378226221
 11
87.070568392
 21
158.4378236921
  0
LINE
  5
232
100
AcDbEntity
  8
RUNDUNGEN
100
AcDbLine
 62
7
  6
CONTINUOUS
 10
87.2430274158
 20
159.8434270077
 11
87.070568392
 21
159.8434262643
  0
LINE
  5
233
100
AcDbEntity
  8
RUNDUNGEN
100
AcDbLine
 62
7
  6
CONTINUOUS
 10
77.8981068126
 20
159.8434309138
 11
78.070568392
 21
159.8434278694
  0
LINE
  5
234
100
AcDbEntity
  8
0
100
AcDbLine
 62
7
  6
CONTINUOUS
 10
71.9633283987
 20
162.3356249772
 11
67.3546022889
 21
162.3356249772
  0
LINE
  5
235
100
AcDbEntity
  8
RUNDUNGEN
100
AcDbLine
 62
7
  6
CONTINUOUS
 10
91.8002540084
 20
162.3356249772
 11
95.6166246676
 21
162.3356249772
  0
LINE
  5
236
100
AcDbEntity
  8
RUNDUNGEN
100
AcDbLine
 62
7
  6
CONTINUOUS
 10
87.070568392
 20
162.6406249772
 11
86.9338036861
 21
162.6406249772
  0
LINE
  5
237
100
AcDbEntity
  8
RUNDUNGEN
100
AcDbLine
 62
7
  6
CONTINUOUS
 10
78.070568392
 20
162.6406249772
 11
78.2073330969
 21
162.6406249771
  0
LINE
  5
238
100
AcDbEntity
  8
RUNDUNGEN
100
AcDbLine
 62
7
  6
CONTINUOUS
 10
79.0190978038
 20
163.4406249772
 11
86.1220389802
 21
163.4406249772
  0
LINE
  5
239
100
AcDbEntity
  8
RUNDUNGEN
100
AcDbLine
 62
7
  6
CONTINUOUS
 10
79.070568392
 20
163.6406249772
 11
86.070568392
 21
163.6406249772
  0
LINE
  5
23A
100
AcDbEntity
  8
RUNDUNGEN
100
AcDbLine
 62
7
  6
CONTINUOUS
 10
86.070568392
 20
163.7185470551
 11
79.070568392
 21
163.7185470551
  0
LINE
  5
23B
100
AcDbEntity
  8
RUNDUNGEN
100
AcDbLine
 62
7
  6
CONTINUOUS
 10
86.070568392
 20
163.7185470551
 11
86.070568392
 21
163.6406249772
  0
LINE
  5
23C
100
AcDbEntity
  8
RUNDUNGEN
100
AcDbLine
 62
7
  6
CONTINUOUS
 10
86.070568392
 20
154.5627028992
 11
86.070568392
 21
154.6406249772
  0
LINE
  5
23D
100
AcDbEntity
  8
RUNDUNGEN
100
AcDbLine
 62
7
  6
CONTINUOUS
 10
86.9338036861
 20
162.6406249772
 11
86.9338036861
 21
155.6406249772
  0
LINE
  5
23E
100
AcDbEntity
  8
RUNDUNGEN
100
AcDbLine
 62
7
  6
CONTINUOUS
 10
97.3959550591
 20
165.6406269262
 11
92.0418334964
 21
165.6406249772
  0
LINE
  5
23F
100
AcDbEntity
  8
RUNDUNGEN
100
AcDbLine
 62
7
  6
CONTINUOUS
 10
72.8097314109
 20
165.6406249772
 11
60.3907500599
 21
165.640625879
  0
LINE
  5
240
100
AcDbEntity
  8
RUNDUNGEN
100
AcDbLine
 62
7
  6
CONTINUOUS
 10
87.070568392
 20
162.6406249772
 11
87.070568392
 21
155.6406249772
  0
LINE
  5
241
100
AcDbEntity
  8
RUNDUNGEN
100
AcDbLine
 62
7
  6
CONTINUOUS
 10
87.243027738
 20
158.4377197429
 11
87.2430274158
 21
159.8435145483
  0
LINE
  5
242
100
AcDbEntity
  8
RUNDUNGEN
100
AcDbLine
 62
7
  6
CONTINUOUS
 10
87.270568392
 20
155.7315340681
 11
87.2705673528
 21
158.0858362413
  0
LINE
  5
243
100
AcDbEntity
  8
RUNDUNGEN
100
AcDbLine
 62
7
  6
CONTINUOUS
 10
87.270567285
 20
160.1954208587
 11
87.270568392
 21
162.5497158863
  0
LINE
  5
244
100
AcDbEntity
  8
0
100
AcDbLine
 62
7
  6
CONTINUOUS
 10
91.0570257434
 20
166.6406249772
 11
73.7756572372
 21
166.6406249772
  0
LINE
  5
245
100
AcDbEntity
  8
RUNDUNGEN
100
AcDbLine
 62
7
  6
CONTINUOUS
 10
103.7499938642
 20
166.6406249772
 11
56.6024960627
 21
166.6406249772
  0
LINE
  5
246
100
AcDbEntity
  8
0
100
AcDbLine
 62
7
  6
CONTINUOUS
 10
55.75
 20
166.6406249772
 11
56.6024960627
 21
166.6406249772
  0
LINE
  5
247
100
AcDbEntity
  8
RUNDUNGEN
100
AcDbLine
 62
7
  6
CONTINUOUS
 10
91.6374364075
 20
158.9727102367
 11
91.6369287151
 21
159.1401242969
  0
LINE
  5
248
100
AcDbEntity
  8
RUNDUNGEN
100
AcDbLine
 62
7
  6
CONTINUOUS
 10
91.4785884946
 20
153.4797079679
 11
91.4785777075
 21
164.8015140501
  0
LINE
  5
249
100
AcDbEntity
  8
RUNDUNGEN
100
AcDbLine
 62
7
  6
CONTINUOUS
 10
91.6369287145
 20
159.1401242971
 11
91.6373419682
 21
159.2921625262
  0
LWPOLYLINE
  5
24A
100
AcDbEntity
  8
RUNDUNGEN
100
AcDbPolyline
 62
7
  6
CONTINUOUS
 90
11
 70
0
 10
91.6373419682
 20
159.2921625262
 10
91.6413888767
 20
159.6358780853
 10
91.6496344684
 20
159.9728048642
 10
91.66181997
 20
160.3008624886
 10
91.6777079615
 20
160.6181927305
 10
91.6970465903
 20
160.9230394687
 10
91.7194848025
 20
161.2138545206
 10
91.7446815001
 20
161.4890664711
 10
91.7722791857
 20
161.7473587661
 10
91.801809493
 20
161.987415292
 10
91.8328066383
 20
162.2081443508
  0
LINE
  5
24B
100
AcDbEntity
  8
RUNDUNGEN
100
AcDbLine
 62
7
  6
CONTINUOUS
 10
91.8328066383
 20
162.2081443508
 11
91.8526709505
 21
162.3356249772
  0
LINE
  5
24C
100
AcDbEntity
  8
RUNDUNGEN
100
AcDbLine
 62
7
  6
CONTINUOUS
 10
91.8526720471
 20
155.9456249772
 11
91.8339170417
 21
156.0657137099
  0
LWPOLYLINE
  5
24D
100
AcDbEntity
  8
RUNDUNGEN
100
AcDbPolyline
 62
7
  6
CONTINUOUS
 90
11
 70
0
 10
91.8339170417
 20
156.0657137099
 10
91.8029004659
 20
156.2855583839
 10
91.7733355436
 20
156.5247260902
 10
91.745682094
 20
156.7821269942
 10
91.7204110927
 20
157.056436524
 10
91.6978844862
 20
157.3463418706
 10
91.678436855
 20
157.6502803261
 10
91.6624197362
 20
157.9667025138
 10
91.6500888575
 20
158.2938525774
 10
91.6416746133
 20
158.6298803146
 10
91.6374364075
 20
158.9727102367
  0
LINE
  5
24E
100
AcDbEntity
  8
RUNDUNGEN
100
AcDbLine
 62
7
  6
CONTINUOUS
 10
103.7500001111
 20
166.4807573797
 11
103.7499995029
 21
151.8005350446
  0
LINE
  5
24F
100
AcDbEntity
  8
RUNDUNGEN
100
AcDbLine
 62
7
  6
CONTINUOUS
 10
104.75
 20
165.6406249772
 11
104.75
 21
152.6406249772
  0
LINE
  5
250
100
AcDbEntity
  8
RUNDUNGEN
100
AcDbLine
 62
7
  6
CONTINUOUS
 10
188.3190694942
 20
151.6406249772
 11
240.8185697204
 21
151.6406249772
  0
LINE
  5
251
100
AcDbEntity
  8
RUNDUNGEN
100
AcDbLine
 62
7
  6
CONTINUOUS
 10
194.7292633093
 20
152.6406220762
 11
241.0775690451
 21
152.6406249772
  0
LINE
  5
252
100
AcDbEntity
  8
RUNDUNGEN
100
AcDbLine
 62
7
  6
CONTINUOUS
 10
248.2441942405
 20
160.1955078293
 11
248.4422112159
 21
160.2236390668
  0
LINE
  5
253
100
AcDbEntity
  8
RUNDUNGEN
100
AcDbLine
 62
7
  6
CONTINUOUS
 10
256.9187500003
 20
154.6406249772
 11
246.9179302728
 21
154.6406249772
  0
LINE
  5
254
100
AcDbEntity
  8
RUNDUNGEN
100
AcDbLine
 62
7
  6
CONTINUOUS
 10
257.11875
 20
154.8406249772
 11
256.6539311634
 21
154.8406249772
  0
LINE
  5
255
100
AcDbEntity
  8
RUNDUNGEN
100
AcDbLine
 62
7
  6
CONTINUOUS
 10
247.6772759057
 20
155.6405224599
 11
256.4108154508
 21
155.6406249772
  0
LINE
  5
256
100
AcDbEntity
  8
0
100
AcDbLine
 62
7
  6
CONTINUOUS
 10
220.71875
 20
155.9456249772
 11
237.91875
 21
155.9456249772
  0
LINE
  5
257
100
AcDbEntity
  8
RUNDUNGEN
100
AcDbLine
 62
7
  6
CONTINUOUS
 10
248.2711157984
 20
158.4378164122
 11
248.4692086956
 21
158.4378204862
  0
LINE
  5
258
100
AcDbEntity
  8
RUNDUNGEN
100
AcDbLine
 62
7
  6
CONTINUOUS
 10
248.271116002
 20
159.8434309138
 11
248.4692126005
 21
159.8434278694
  0
LINE
  5
259
100
AcDbEntity
  8
0
100
AcDbLine
 62
7
  6
CONTINUOUS
 10
237.91875
 20
162.3356249772
 11
220.71875
 21
162.3356249772
  0
LINE
  5
25A
100
AcDbEntity
  8
RUNDUNGEN
100
AcDbLine
 62
7
  6
CONTINUOUS
 10
247.6772760717
 20
162.6407271194
 11
256.4108154505
 21
162.6406249771
  0
LINE
  5
25B
100
AcDbEntity
  8
RUNDUNGEN
100
AcDbLine
 62
7
  6
CONTINUOUS
 10
256.6539311634
 20
163.4406249772
 11
257.11875
 21
163.4406249772
  0
LINE
  5
25C
100
AcDbEntity
  8
RUNDUNGEN
100
AcDbLine
 62
7
  6
CONTINUOUS
 10
246.9179302728
 20
163.6406249772
 11
256.91875
 21
163.6406249772
  0
LINE
  5
25D
100
AcDbEntity
  8
RUNDUNGEN
100
AcDbLine
 62
7
  6
CONTINUOUS
 10
248.2441946323
 20
158.085744883
 11
248.4422108702
 21
158.0576148086
  0
LINE
  5
25E
100
AcDbEntity
  8
RUNDUNGEN
100
AcDbLine
 62
7
  6
CONTINUOUS
 10
241.0775690451
 20
165.6406249772
 11
194.7292996649
 21
165.640625879
  0
LINE
  5
25F
100
AcDbEntity
  8
RUNDUNGEN
100
AcDbLine
 62
7
  6
CONTINUOUS
 10
240.8185536151
 20
166.6406249772
 11
188.31875
 21
166.6406249772
  0
LINE
  5
260
100
AcDbEntity
  8
RUNDUNGEN
100
AcDbLine
 62
7
  6
CONTINUOUS
 10
247.4991765707
 20
162.5497158873
 11
247.6773212797
 21
162.6406249771
  0
LINE
  5
261
100
AcDbEntity
  8
RUNDUNGEN
100
AcDbLine
 62
7
  6
CONTINUOUS
 10
247.499176571
 20
155.7315340676
 11
247.6773212798
 21
155.6406249772
  0
LINE
  5
262
100
AcDbEntity
  8
RUNDUNGEN
100
AcDbLine
 62
7
  6
CONTINUOUS
 10
244.6127050396
 20
153.6860246355
 11
244.6127064145
 21
164.5952245607
  0
LINE
  5
263
100
AcDbEntity
  8
RUNDUNGEN
100
AcDbLine
 62
7
  6
CONTINUOUS
 10
248.271116002
 20
159.8436036787
 11
248.2711157983
 21
158.4376039416
  0
LINE
  5
264
100
AcDbEntity
  8
RUNDUNGEN
100
AcDbLine
 62
7
  6
CONTINUOUS
 10
248.4692126005
 20
159.8434278694
 11
248.4692086956
 21
158.4378204862
  0
LINE
  5
265
100
AcDbEntity
  8
RUNDUNGEN
100
AcDbLine
 62
7
  6
CONTINUOUS
 10
256.2210753718
 20
155.640624977
 11
256.2210753718
 21
162.6406249774
  0
LINE
  5
266
100
AcDbEntity
  8
RUNDUNGEN
100
AcDbLine
 62
7
  6
CONTINUOUS
 10
256.4108154508
 20
155.6406249772
 11
256.4108154508
 21
162.6406249772
  0
LINE
  5
267
100
AcDbEntity
  8
0
100
AcDbLine
 62
7
  6
CONTINUOUS
 10
257.11875
 20
154.8406249772
 11
257.11875
 21
163.4406249772
  0
LINE
  5
268
100
AcDbEntity
  8
RUNDUNGEN
100
AcDbLine
 62
7
  6
CONTINUOUS
 10
86.0707132169
 20
50.7539447272
 11
79.0704236625
 21
50.7539447272
  0
LINE
  5
269
100
AcDbEntity
  8
RUNDUNGEN
100
AcDbLine
 62
7
  6
CONTINUOUS
 10
86.070568392
 20
50.912364994
 11
79.070568392
 21
50.912364994
  0
LINE
  5
26A
100
AcDbEntity
  8
RUNDUNGEN
100
AcDbLine
 62
7
  6
CONTINUOUS
 10
54.75
 20
115.853125
 11
54.75
 21
102.853125
  0
LINE
  5
26B
100
AcDbEntity
  8
RUNDUNGEN
100
AcDbLine
 62
7
  6
CONTINUOUS
 10
55.75
 20
101.853125
 11
55.75
 21
116.853125
  0
LINE
  5
26C
100
AcDbEntity
  8
RUNDUNGEN
100
AcDbLine
 62
7
  6
CONTINUOUS
 10
91.057086349
 20
56.8534687113
 11
73.775604616
 21
56.8533213849
  0
LINE
  5
26D
100
AcDbEntity
  8
RUNDUNGEN
100
AcDbLine
 62
7
  6
CONTINUOUS
 10
72.8097314109
 20
56.5943059549
 11
73.7756572372
 21
56.853125
  0
LINE
  5
26E
100
AcDbEntity
  8
RUNDUNGEN
100
AcDbLine
 62
7
  6
CONTINUOUS
 10
92.0418334964
 20
56.6794768223
 11
91.0570257436
 21
56.853125001
  0
LINE
  5
26F
100
AcDbEntity
  8
RUNDUNGEN
100
AcDbLine
 62
7
  6
CONTINUOUS
 10
73.7569686142
 20
53.0591685855
 11
60.3907500599
 21
102.9425753351
  0
LINE
  5
270
100
AcDbEntity
  8
RUNDUNGEN
100
AcDbLine
 62
7
  6
CONTINUOUS
 10
73.775604616
 20
56.8533213849
 11
61.3566800727
 21
103.2013787979
  0
LINE
  5
271
100
AcDbEntity
  8
RUNDUNGEN
100
AcDbLine
 62
7
  6
CONTINUOUS
 10
62.8141531758
 20
109.353125
 11
69.3930867264
 21
84.8002107294
  0
LINE
  5
272
100
AcDbEntity
  8
RUNDUNGEN
100
AcDbLine
 62
7
  6
CONTINUOUS
 10
62.0384118595
 20
116.1119343109
 11
70.3590125527
 21
85.0590297745
  0
LINE
  5
273
100
AcDbEntity
  8
RUNDUNGEN
100
AcDbLine
 62
7
  6
CONTINUOUS
 10
75.1886416841
 20
81.353125
 11
75.1886416841
 21
80.353125
  0
LINE
  5
274
100
AcDbEntity
  8
RUNDUNGEN
100
AcDbLine
 62
7
  6
CONTINUOUS
 10
86.070568392
 20
41.2112073317
 11
86.1220389801
 21
41.0179438366
  0
LINE
  5
275
100
AcDbEntity
  8
RUNDUNGEN
100
AcDbLine
 62
7
  6
CONTINUOUS
 10
77.870568392
 20
50.1726984288
 11
77.8705685935
 21
49.4276780204
  0
LINE
  5
276
100
AcDbEntity
  8
RUNDUNGEN
100
AcDbLine
 62
7
  6
CONTINUOUS
 10
78.070568392
 20
49.9945989283
 11
78.070568392
 21
41.4507996282
  0
LINE
  5
277
100
AcDbEntity
  8
RUNDUNGEN
100
AcDbLine
 62
7
  6
CONTINUOUS
 10
79.070568392
 20
50.912364994
 11
79.0705683921
 21
41.2112073317
  0
LINE
  5
278
100
AcDbEntity
  8
RUNDUNGEN
100
AcDbLine
 62
7
  6
CONTINUOUS
 10
75.1886416841
 20
80.353125
 11
85.7388519752
 21
80.353125
  0
LINE
  5
279
100
AcDbEntity
  8
RUNDUNGEN
100
AcDbLine
 62
7
  6
CONTINUOUS
 10
75.1886416841
 20
81.353125
 11
85.7388519752
 21
81.353125
  0
LINE
  5
27A
100
AcDbEntity
  8
RUNDUNGEN
100
AcDbLine
 62
7
  6
CONTINUOUS
 10
85.7388519752
 20
81.353125
 11
85.7388519752
 21
80.353125
  0
LINE
  5
27B
100
AcDbEntity
  8
RUNDUNGEN
100
AcDbLine
 62
7
  6
CONTINUOUS
 10
86.070568392
 20
41.2112073317
 11
86.070568392
 21
50.912364994
  0
LINE
  5
27C
100
AcDbEntity
  8
RUNDUNGEN
100
AcDbLine
 62
7
  6
CONTINUOUS
 10
87.070568392
 20
41.4507996282
 11
87.070568392
 21
49.9945990943
  0
LINE
  5
27D
100
AcDbEntity
  8
RUNDUNGEN
100
AcDbLine
 62
7
  6
CONTINUOUS
 10
87.270567285
 20
49.4276684047
 11
87.270568392
 21
50.1726984288
  0
LINE
  5
27E
100
AcDbEntity
  8
RUNDUNGEN
100
AcDbLine
 62
7
  6
CONTINUOUS
 10
79.070568392
 20
41.2112073317
 11
79.0190978037
 21
41.0179438366
  0
LINE
  5
27F
100
AcDbEntity
  8
RUNDUNGEN
100
AcDbLine
 62
7
  6
CONTINUOUS
 10
70.3590125527
 20
85.0590297745
 11
69.3930867264
 21
84.8002107295
  0
LINE
  5
280
100
AcDbEntity
  8
RUNDUNGEN
100
AcDbLine
 62
7
  6
CONTINUOUS
 10
90.6628907403
 20
85.4848841117
 11
91.6476984933
 21
85.311235934
  0
LINE
  5
281
100
AcDbEntity
  8
RUNDUNGEN
100
AcDbLine
 62
7
  6
CONTINUOUS
 10
90.6628907403
 20
85.4848841117
 11
96.0482227594
 21
116.0266196842
  0
LINE
  5
282
100
AcDbEntity
  8
RUNDUNGEN
100
AcDbLine
 62
7
  6
CONTINUOUS
 10
91.6476984933
 20
85.311235934
 11
95.8868681523
 21
109.3527617515
  0
LINE
  5
283
100
AcDbEntity
  8
0
100
AcDbLine
 62
7
  6
CONTINUOUS
 10
101.9985875604
 20
89.353125
 11
103.75
 21
89.353125
  0
LINE
  5
284
100
AcDbEntity
  8
RUNDUNGEN
100
AcDbLine
 62
7
  6
CONTINUOUS
 10
97.3959710657
 20
87.0442998784
 11
96.4111664662
 21
87.2179462949
  0
LINE
  5
285
100
AcDbEntity
  8
RUNDUNGEN
100
AcDbLine
 62
7
  6
CONTINUOUS
 10
96.4111664662
 20
87.2179462949
 11
91.057086349
 21
56.8534687113
  0
LINE
  5
286
100
AcDbEntity
  8
RUNDUNGEN
100
AcDbLine
 62
7
  6
CONTINUOUS
 10
97.3959550591
 20
87.0442091005
 11
91.4785777075
 21
53.4850945068
  0
LINE
  5
287
100
AcDbEntity
  8
RUNDUNGEN
100
AcDbLine
 62
7
  6
CONTINUOUS
 10
104.75
 20
96.5120104016
 11
103.7499938642
 21
96.5120104016
  0
LINE
  5
288
100
AcDbEntity
  8
RUNDUNGEN
100
AcDbLine
 62
7
  6
CONTINUOUS
 10
103.75
 20
116.853125
 11
103.7499938642
 21
96.5119694908
  0
LINE
  5
289
100
AcDbEntity
  8
RUNDUNGEN
100
AcDbLine
 62
7
  6
CONTINUOUS
 10
103.7500001111
 20
95.3128470012
 11
103.75
 21
89.353125
  0
LINE
  5
28A
100
AcDbEntity
  8
RUNDUNGEN
100
AcDbLine
 62
7
  6
CONTINUOUS
 10
55.75
 20
101.853125
 11
59.1480134214
 21
101.853125
  0
LINE
  5
28B
100
AcDbEntity
  8
RUNDUNGEN
100
AcDbLine
 62
7
  6
CONTINUOUS
 10
104.75
 20
115.853125
 11
104.75
 21
90.353125
  0
LINE
  5
28C
100
AcDbEntity
  8
RUNDUNGEN
100
AcDbLine
 62
7
  6
CONTINUOUS
 10
60.3907540078
 20
102.9425606013
 11
61.3566800727
 21
103.2013787979
  0
LINE
  5
28D
100
AcDbEntity
  8
RUNDUNGEN
100
AcDbLine
 62
7
  6
CONTINUOUS
 10
104.75
 20
109.353125
 11
95.8868681523
 21
109.3527617515
  0
LINE
  5
28E
100
AcDbEntity
  8
RUNDUNGEN
100
AcDbLine
 62
7
  6
CONTINUOUS
 10
56.6024960627
 20
109.353125
 11
62.8141531758
 21
109.353125
  0
LINE
  5
28F
100
AcDbEntity
  8
RUNDUNGEN
100
AcDbLine
 62
7
  6
CONTINUOUS
 10
103.8030356654
 20
96.441778191
 11
103.75
 21
96.5120104016
  0
LINE
  5
290
100
AcDbEntity
  8
RUNDUNGEN
100
AcDbLine
 62
7
  6
CONTINUOUS
 10
94.9021244498
 20
109.5267731777
 11
95.8869322026
 21
109.3531249987
  0
LINE
  5
291
100
AcDbEntity
  8
RUNDUNGEN
100
AcDbLine
 62
7
  6
CONTINUOUS
 10
63.7800790021
 20
109.6119440451
 11
62.8141531758
 21
109.353125
  0
LINE
  5
292
100
AcDbEntity
  8
RUNDUNGEN
100
AcDbLine
 62
7
  6
CONTINUOUS
 10
55.75
 20
116.853125
 11
56.6634295109
 21
116.853125
  0
LINE
  5
293
100
AcDbEntity
  8
0
100
AcDbLine
 62
7
  6
CONTINUOUS
 10
55.75
 20
116.853125
 11
61.0791871564
 21
116.853125
  0
LINE
  5
294
100
AcDbEntity
  8
0
100
AcDbLine
 62
7
  6
CONTINUOUS
 10
97.0282364457
 20
116.853125
 11
103.75
 21
116.853125
  0
ARC
  5
295
100
AcDbEntity
  8
RUNDUNGEN
100
AcDbCircle
 62
7
  6
CONTINUOUS
 10
86.0705468232
 20
162.4947507063
 40
1.223796349
100
AcDbArc
 50
83.6700935302
 51
89.9989901918
  0
ARC
  5
296
100
AcDbEntity
  8
RUNDUNGEN
100
AcDbCircle
 62
7
  6
CONTINUOUS
 10
79.0705899608
 20
155.786499248
 40
1.223796349
100
AcDbArc
 50
263.6700935302
 51
269.9989901918
  0
ARC
  5
297
100
AcDbEntity
  8
RUNDUNGEN
100
AcDbCircle
 62
7
  6
CONTINUOUS
 10
79.0705964294
 20
162.4947532727
 40
1.2237937827
100
AcDbArc
 50
90.0013126608
 51
96.356555098
  0
ARC
  5
298
100
AcDbEntity
  8
RUNDUNGEN
100
AcDbCircle
 62
7
  6
CONTINUOUS
 10
86.0705403546
 20
155.7864966816
 40
1.2237937827
100
AcDbArc
 50
270.0013126608
 51
276.356555098
  0
ARC
  5
299
100
AcDbEntity
  8
RUNDUNGEN
100
AcDbCircle
 62
7
  6
CONTINUOUS
 10
55.75
 20
152.6406249772
 40
1.0
100
AcDbArc
 50
180.0
 51
270.0
  0
ARC
  5
29A
100
AcDbEntity
  8
RUNDUNGEN
100
AcDbCircle
 62
7
  6
CONTINUOUS
 10
55.75
 20
165.6406249772
 40
1.0
100
AcDbArc
 50
90.0
 51
180.0
  0
ARC
  5
29B
100
AcDbEntity
  8
RUNDUNGEN
100
AcDbCircle
 62
7
  6
CONTINUOUS
 10
86.070568392
 20
162.6406249772
 40
1.0
100
AcDbArc
 50
0.0058738204
 51
89.9917021597
  0
ARC
  5
29C
100
AcDbEntity
  8
RUNDUNGEN
100
AcDbCircle
 62
7
  6
CONTINUOUS
 10
79.070568392
 20
162.6406249772
 40
1.0
100
AcDbArc
 50
90.0082923795
 51
179.9941476696
  0
ARC
  5
29D
100
AcDbEntity
  8
RUNDUNGEN
100
AcDbCircle
 62
7
  6
CONTINUOUS
 10
86.070568392
 20
155.6406249772
 40
1.0
100
AcDbArc
 50
270.0082923795
 51
359.9941476696
  0
ARC
  5
29E
100
AcDbEntity
  8
RUNDUNGEN
100
AcDbCircle
 62
7
  6
CONTINUOUS
 10
79.070568392
 20
155.6406249772
 40
1.0
100
AcDbArc
 50
180.0058738204
 51
269.9917021597
  0
ARC
  5
29F
100
AcDbEntity
  8
RUNDUNGEN
100
AcDbCircle
 62
7
  6
CONTINUOUS
 10
103.7514728619
 20
152.6418557102
 40
0.9986040438
100
AcDbArc
 50
269.9994988597
 51
359.929380212
  0
ARC
  5
2A0
100
AcDbEntity
  8
RUNDUNGEN
100
AcDbCircle
 62
7
  6
CONTINUOUS
 10
103.7514748078
 20
165.6393956494
 40
0.9986021724
100
AcDbArc
 50
0.0705392878
 51
90.0003515556
  0
ARC
  5
2A1
100
AcDbEntity
  8
RUNDUNGEN
100
AcDbCircle
 62
7
  6
CONTINUOUS
 10
103.7906735739
 20
165.5016016399
 40
0.959326539
100
AcDbArc
 50
0.0277942124
 51
9.2107427942
  0
ARC
  5
2A2
100
AcDbEntity
  8
RUNDUNGEN
100
AcDbCircle
 62
7
  6
CONTINUOUS
 10
103.7906761859
 20
152.7796505989
 40
0.9593239269
100
AcDbArc
 50
350.7892202562
 51
359.9722061191
  0
ARC
  5
2A3
100
AcDbEntity
  8
RUNDUNGEN
100
AcDbCircle
 62
7
  6
CONTINUOUS
 10
103.7498611309
 20
166.2743336319
 40
0.3662913715
100
AcDbArc
 50
81.6528738355
 51
89.9782779178
  0
ARC
  5
2A4
100
AcDbEntity
  8
RUNDUNGEN
100
AcDbCircle
 62
7
  6
CONTINUOUS
 10
103.7498730093
 20
152.0068363897
 40
0.3662114346
100
AcDbArc
 50
270.0198683927
 51
278.3473298183
  0
ARC
  5
2A5
100
AcDbEntity
  8
RUNDUNGEN
100
AcDbCircle
 62
7
  6
CONTINUOUS
 10
187.8008176727
 20
159.1404929652
 40
9.5003022228
100
AcDbArc
 50
0.0007961575
 51
43.1729854055
  0
ARC
  5
2A6
100
AcDbEntity
  8
RUNDUNGEN
100
AcDbCircle
 62
7
  6
CONTINUOUS
 10
187.8010312258
 20
159.140709246
 40
9.5000947059
100
AcDbArc
 50
316.8261845509
 51
359.9994917678
  0
CIRCLE
  5
2A7
100
AcDbEntity
  8
RUNDUNGEN
100
AcDbCircle
 62
7
  6
CONTINUOUS
 10
188.31875
 20
159.1406249772
 40
7.5
  0
ARC
  5
2A8
100
AcDbEntity
  8
0
100
AcDbCircle
 62
7
  6
CONTINUOUS
 10
188.31875
 20
159.1406249772
 40
7.5
100
AcDbArc
 50
259.9908776953
 51
263.1690155621
  0
ARC
  5
2A9
100
AcDbEntity
  8
0
100
AcDbCircle
 62
7
  6
CONTINUOUS
 10
188.31875
 20
159.1406249772
 40
7.5
100
AcDbArc
 50
242.0852464024
 51
242.5262675211
  0
CIRCLE
  5
2AA
100
AcDbEntity
  8
RUNDUNGEN
100
AcDbCircle
 62
7
  6
CONTINUOUS
 10
188.31875
 20
159.1406249772
 40
6.5
  0
ARC
  5
2AB
100
AcDbEntity
  8
0
100
AcDbCircle
 62
7
  6
CONTINUOUS
 10
220.71875
 20
159.1406249772
 40
3.195
100
AcDbArc
 50
90.0
 51
270.0
  0
CIRCLE
  5
2AC
100
AcDbEntity
  8
0
100
AcDbCircle
 62
7
  6
CONTINUOUS
 10
188.31875
 20
159.1406249772
 40
3.19
  0
ARC
  5
2AD
100
AcDbEntity
  8
RUNDUNGEN
100
AcDbCircle
 62
7
  6
CONTINUOUS
 10
241.0775888533
 20
159.1404869142
 40
6.4998619371
100
AcDbArc
 50
269.9998253926
 51
302.9478582072
  0
ARC
  5
2AE
100
AcDbEntity
  8
RUNDUNGEN
100
AcDbCircle
 62
7
  6
CONTINUOUS
 10
242.1236598005
 20
158.7051249791
 40
6.2975868962
100
AcDbArc
 50
35.074433993
 51
35.474327569
  0
ARC
  5
2AF
100
AcDbEntity
  8
RUNDUNGEN
100
AcDbCircle
 62
7
  6
CONTINUOUS
 10
242.6135240306
 20
158.7407778942
 40
5.9374203358
100
AcDbArc
 50
328.3378923533
 51
328.5230645875
  0
ARC
  5
2B0
100
AcDbEntity
  8
RUNDUNGEN
100
AcDbCircle
 62
7
  6
CONTINUOUS
 10
242.9899354053
 20
159.121852136
 40
5.3303807525
100
AcDbArc
 50
11.5409938388
 51
13.4912174091
  0
ARC
  5
2B1
100
AcDbEntity
  8
RUNDUNGEN
100
AcDbCircle
 62
7
  6
CONTINUOUS
 10
243.0447063089
 20
159.1328490419
 40
5.2745170806
100
AcDbArc
 50
7.7443114142
 51
11.5429859739
  0
ARC
  5
2B2
100
AcDbEntity
  8
RUNDUNGEN
100
AcDbCircle
 62
7
  6
CONTINUOUS
 10
245.5591557225
 20
158.4680154785
 40
2.7121231141
100
AcDbArc
 50
351.8963588902
 51
359.357026442
  0
ARC
  5
2B3
100
AcDbEntity
  8
RUNDUNGEN
100
AcDbCircle
 62
7
  6
CONTINUOUS
 10
245.7646927749
 20
158.4388026615
 40
2.704516099
100
AcDbArc
 50
351.8974706056
 51
359.9791923955
  0
ARC
  5
2B4
100
AcDbEntity
  8
RUNDUNGEN
100
AcDbCircle
 62
7
  6
CONTINUOUS
 10
256.91875
 20
154.8406249772
 40
0.2
100
AcDbArc
 50
270.0
 51
360.0
  0
ARC
  5
2B5
100
AcDbEntity
  8
RUNDUNGEN
100
AcDbCircle
 62
7
  6
CONTINUOUS
 10
246.9179792886
 20
154.4406773592
 40
0.1999912697
100
AcDbArc
 50
90.0140456651
 51
142.3823203336
  0
ARC
  5
2B6
100
AcDbEntity
  8
RUNDUNGEN
100
AcDbCircle
 62
7
  6
CONTINUOUS
 10
240.81875
 20
159.1406249772
 40
7.7
100
AcDbArc
 50
8.0855234754
 51
27.0365216815
  0
ARC
  5
2B7
100
AcDbEntity
  8
RUNDUNGEN
100
AcDbCircle
 62
7
  6
CONTINUOUS
 10
240.81875
 20
159.1406249772
 40
7.7
100
AcDbArc
 50
332.9634752712
 51
351.9145050493
  0
ARC
  5
2B8
100
AcDbEntity
  8
RUNDUNGEN
100
AcDbCircle
 62
7
  6
CONTINUOUS
 10
240.81875
 20
159.1406249772
 40
7.5
100
AcDbArc
 50
8.0853724911
 51
90.0026257604
  0
ARC
  5
2B9
100
AcDbEntity
  8
RUNDUNGEN
100
AcDbCircle
 62
7
  6
CONTINUOUS
 10
240.81875
 20
159.1406249772
 40
7.5
100
AcDbArc
 50
269.998622765
 51
351.9142295999
  0
ARC
  5
2BA
100
AcDbEntity
  8
RUNDUNGEN
100
AcDbCircle
 62
7
  6
CONTINUOUS
 10
241.0775887538
 20
159.1407620105
 40
6.4998629667
100
AcDbArc
 50
57.0521321882
 51
90.0001737309
  0
ARC
  5
2BB
100
AcDbEntity
  8
0
100
AcDbCircle
 62
7
  6
CONTINUOUS
 10
237.91875
 20
159.1406249772
 40
3.195
100
AcDbArc
 50
270.0
 51
90.0
  0
ARC
  5
2BC
100
AcDbEntity
  8
RUNDUNGEN
100
AcDbCircle
 62
7
  6
CONTINUOUS
 10
242.9897239243
 20
159.1594695013
 40
5.3306110291
100
AcDbArc
 50
346.3951214816
 51
348.4584148844
  0
ARC
  5
2BD
100
AcDbEntity
  8
RUNDUNGEN
100
AcDbCircle
 62
7
  6
CONTINUOUS
 10
243.046581014
 20
159.1480329757
 40
5.2726153971
100
AcDbArc
 50
348.4565605994
 51
352.2564490815
  0
ARC
  5
2BE
100
AcDbEntity
  8
RUNDUNGEN
100
AcDbCircle
 62
7
  6
CONTINUOUS
 10
242.6140402023
 20
159.5407869296
 40
5.9368157102
100
AcDbArc
 50
31.4769406624
 51
31.6623398162
  0
ARC
  5
2BF
100
AcDbEntity
  8
RUNDUNGEN
100
AcDbCircle
 62
7
  6
CONTINUOUS
 10
245.5591820129
 20
159.8131887106
 40
2.712105306
100
AcDbArc
 50
0.6429527047
 51
8.1034039161
  0
ARC
  5
2C0
100
AcDbEntity
  8
RUNDUNGEN
100
AcDbCircle
 62
7
  6
CONTINUOUS
 10
245.7646251686
 20
159.8424210857
 40
2.7045876192
100
AcDbArc
 50
0.0213283738
 51
8.1029583818
  0
ARC
  5
2C1
100
AcDbEntity
  8
RUNDUNGEN
100
AcDbCircle
 62
7
  6
CONTINUOUS
 10
246.9179792886
 20
163.8405725952
 40
0.1999912697
100
AcDbArc
 50
217.5972227439
 51
269.9859543348
  0
ARC
  5
2C2
100
AcDbEntity
  8
RUNDUNGEN
100
AcDbCircle
 62
7
  6
CONTINUOUS
 10
256.91875
 20
163.4406249772
 40
0.2
100
AcDbArc
 50
0.0
 51
90.0
  0
ARC
  5
2C3
100
AcDbEntity
  8
RUNDUNGEN
100
AcDbCircle
 62
7
  6
CONTINUOUS
 10
78.5866349399
 20
54.353125
 40
5.0
100
AcDbArc
 50
194.9983532307
 51
262.0848976505
  0
ARC
  5
2C4
100
AcDbEntity
  8
RUNDUNGEN
100
AcDbCircle
 62
7
  6
CONTINUOUS
 10
78.270568392
 20
41.4507996282
 40
0.2
100
AcDbArc
 50
180.0
 51
251.5681491394
  0
ARC
  5
2C5
100
AcDbEntity
  8
RUNDUNGEN
100
AcDbCircle
 62
7
  6
CONTINUOUS
 10
77.870568392
 20
49.2026639819
 40
0.2
100
AcDbArc
 50
7.698093184
 51
82.0856798678
  0
ARC
  5
2C6
100
AcDbEntity
  8
RUNDUNGEN
100
AcDbCircle
 62
7
  6
CONTINUOUS
 10
75.1886416841
 20
86.353125
 40
6.0
100
AcDbArc
 50
195.0
 51
270.0
  0
ARC
  5
2C7
100
AcDbEntity
  8
RUNDUNGEN
100
AcDbCircle
 62
7
  6
CONTINUOUS
 10
75.1886416841
 20
86.353125
 40
5.0
100
AcDbArc
 50
195.0
 51
270.0
  0
ARC
  5
2C8
100
AcDbEntity
  8
RUNDUNGEN
100
AcDbCircle
 62
7
  6
CONTINUOUS
 10
59.1480089109
 20
99.8531418333
 40
1.9999964561
100
AcDbArc
 50
14.9995007501
 51
89.9998707835
  0
ARC
  5
2C9
100
AcDbEntity
  8
RUNDUNGEN
100
AcDbCircle
 62
7
  6
CONTINUOUS
 10
55.75
 20
102.853125
 40
1.0
100
AcDbArc
 50
180.0
 51
270.0
  0
ARC
  5
2CA
100
AcDbEntity
  8
RUNDUNGEN
100
AcDbCircle
 62
7
  6
CONTINUOUS
 10
55.75
 20
115.853125
 40
1.0
100
AcDbArc
 50
90.0
 51
180.0
  0
ARC
  5
2CB
100
AcDbEntity
  8
RUNDUNGEN
100
AcDbCircle
 62
7
  6
CONTINUOUS
 10
61.0724871565
 20
115.8531110737
 40
1.0
100
AcDbArc
 50
15.0000000026
 51
89.9998968471
  0
ARC
  5
2CC
100
AcDbEntity
  8
RUNDUNGEN
100
AcDbCircle
 62
7
  6
CONTINUOUS
 10
81.8110985167
 20
61.20086206
 40
20.4384289947
100
AcDbArc
 50
282.0288948955
 51
284.0825744746
  0
ARC
  5
2CD
100
AcDbEntity
  8
RUNDUNGEN
100
AcDbCircle
 62
7
  6
CONTINUOUS
 10
83.3054481547
 20
61.0948245552
 40
20.3295951877
100
AcDbArc
 50
255.9120102435
 51
257.9766049235
  0
ARC
  5
2CE
100
AcDbEntity
  8
RUNDUNGEN
100
AcDbCircle
 62
7
  6
CONTINUOUS
 10
82.570568392
 20
54.353125
 40
13.8
100
AcDbArc
 50
251.5681491394
 51
288.4318508606
  0
ARC
  5
2CF
100
AcDbEntity
  8
RUNDUNGEN
100
AcDbCircle
 62
7
  6
CONTINUOUS
 10
82.570568392
 20
54.353125
 40
13.6
100
AcDbArc
 50
255.0869471782
 51
284.9130528218
  0
ARC
  5
2D0
100
AcDbEntity
  8
RUNDUNGEN
100
AcDbCircle
 62
7
  6
CONTINUOUS
 10
87.270568392
 20
49.2026515179
 40
0.2000004107
100
AcDbArc
 50
97.914567628
 51
172.2974249322
  0
ARC
  5
2D1
100
AcDbEntity
  8
RUNDUNGEN
100
AcDbCircle
 62
7
  6
CONTINUOUS
 10
86.870568392
 20
41.4507996282
 40
0.2
100
AcDbArc
 50
288.4318508606
 51
360.0
  0
ARC
  5
2D2
100
AcDbEntity
  8
RUNDUNGEN
100
AcDbCircle
 62
7
  6
CONTINUOUS
 10
86.5545018441
 20
54.353125
 40
5.0
100
AcDbArc
 50
277.9150727849
 51
350.0031599901
  0
ARC
  5
2D3
100
AcDbEntity
  8
RUNDUNGEN
100
AcDbCircle
 62
7
  6
CONTINUOUS
 10
85.7388519752
 20
86.353125
 40
6.0
100
AcDbArc
 50
270.0
 51
350.0
  0
ARC
  5
2D4
100
AcDbEntity
  8
RUNDUNGEN
100
AcDbCircle
 62
7
  6
CONTINUOUS
 10
85.7388519752
 20
86.353125
 40
5.0
100
AcDbArc
 50
270.0
 51
350.0
  0
ARC
  5
2D5
100
AcDbEntity
  8
RUNDUNGEN
100
AcDbCircle
 62
7
  6
CONTINUOUS
 10
101.9985773895
 20
84.35312503
 40
4.9999999963
100
AcDbArc
 50
90.0000000088
 51
169.9053080662
  0
ARC
  5
2D6
100
AcDbEntity
  8
RUNDUNGEN
100
AcDbCircle
 62
7
  6
CONTINUOUS
 10
103.75
 20
115.853125
 40
1.0
100
AcDbArc
 50
0.0
 51
90.0
  0
ARC
  5
2D7
100
AcDbEntity
  8
RUNDUNGEN
100
AcDbCircle
 62
7
  6
CONTINUOUS
 10
103.75
 20
90.353125
 40
1.0
100
AcDbArc
 50
270.0
 51
360.0
  0
ARC
  5
2D8
100
AcDbEntity
  8
RUNDUNGEN
100
AcDbCircle
 62
7
  6
CONTINUOUS
 10
97.0330535435
 20
115.8531021226
 40
1.0
100
AcDbArc
 50
90.0000904587
 51
170.0
  0
SPLINE
  5
2D9
100
AcDbEntity
  8
RUNDUNGEN
100
AcDbSpline
 62
7
  6
CONTINUOUS
 70
0
 71
3
 72
9
 73
5
 74
0
 42
0.0000001
 43
0.0000001
 44
0.0000000001
 40
0.0
 40
0.0
 40
0.0
 40
0.0
 40
0.4807937849
 40
1.0
 40
1.0
 40
1.0
 40
1.0
 10
97.3959550591
 20
165.6406269262
 30
0.0
 10
97.2846165756
 20
164.6033522938
 30
0.0
 10
97.1255163891
 20
162.4380142315
 30
0.0
 10
97.0745480785
 20
160.2679280384
 30
0.0
 10
97.0745386237
 20
159.1413473053
 30
0.0
  0
SPLINE
  5
2DA
100
AcDbEntity
  8
RUNDUNGEN
100
AcDbSpline
 62
7
  6
CONTINUOUS
 70
0
 71
3
 72
9
 73
5
 74
0
 42
0.0000001
 43
0.0000001
 44
0.0000000001
 40
0.0
 40
0.0
 40
0.0
 40
0.0
 40
0.519226392
 40
1.0
 40
1.0
 40
1.0
 40
1.0
 10
97.0745386237
 20
159.1413473053
 30
0.0
 10
97.0745436017
 20
158.0144727548
 30
0.0
 10
97.1254646809
 20
155.8439037439
 30
0.0
 10
97.2845962415
 20
153.6780839044
 30
0.0
 10
97.3959527969
 20
152.6406223937
 30
0.0
  0
SPLINE
  5
2DB
100
AcDbEntity
  8
RUNDUNGEN
100
AcDbSpline
 62
7
  6
CONTINUOUS
 70
0
 71
3
 72
10
 73
6
 74
0
 42
0.0000001
 43
0.0000001
 44
0.0000000001
 40
0.0
 40
0.0
 40
0.0
 40
0.0
 40
0.5284316167
 40
0.7746339897
 40
1.0
 40
1.0
 40
1.0
 40
1.0
 10
91.6065443066
 20
159.1400878394
 30
0.0
 10
91.6065342089
 20
159.7043469291
 30
0.0
 10
91.6294937879
 20
160.5318688375
 30
0.0
 10
91.7107461845
 20
161.5967083404
 30
0.0
 10
91.7674715538
 20
162.0972226176
 30
0.0
 10
91.8002540084
 20
162.3356249772
 30
0.0
  0
SPLINE
  5
2DC
100
AcDbEntity
  8
RUNDUNGEN
100
AcDbSpline
 62
7
  6
CONTINUOUS
 70
0
 71
3
 72
10
 73
6
 74
0
 42
0.0000001
 43
0.0000001
 44
0.0000000001
 40
0.0
 40
0.0
 40
0.0
 40
0.0
 40
0.2253655816
 40
0.4715644998
 40
1.0
 40
1.0
 40
1.0
 40
1.0
 10
91.8002555022
 20
155.9456249772
 30
0.0
 10
91.7674837338
 20
156.1839469196
 30
0.0
 10
91.7107721856
 20
156.6842885627
 30
0.0
 10
91.6295297458
 20
157.7487697881
 30
0.0
 10
91.6065545837
 20
158.5760137466
 30
0.0
 10
91.6065443066
 20
159.1400878394
 30
0.0
  0
LINE
  5
2DD
100
AcDbEntity
  8
RUNDUNGEN
100
AcDbLine
 62
7
  6
CONTINUOUS
 10
103.8030271407
 20
151.6445045385
 11
103.7501029849
 21
151.6455996176
  0
SPLINE
  5
2DE
100
AcDbEntity
  8
RUNDUNGEN
100
AcDbSpline
 62
7
  6
CONTINUOUS
 70
0
 71
3
 72
17
 73
13
 74
0
 42
0.0000001
 43
0.0000001
 44
0.0000000001
 40
0.0
 40
0.0
 40
0.0
 40
0.0
 40
0.1548715056
 40
0.3078644194
 40
0.457052906
 40
0.5995714745
 40
0.731326532
 40
0.8467868143
 40
0.8962769486
 40
0.9389796098
 40
0.973878287
 40
1.0
 40
1.0
 40
1.0
 40
1.0
 10
103.7501029849
 20
151.6455996176
 30
0.0
 10
103.4171471331
 20
151.6529160192
 30
0.0
 10
102.7555281143
 20
151.6835039696
 30
0.0
 10
101.7764902149
 20
151.7729991856
 30
0.0
 10
100.8280281856
 20
151.8965687734
 30
0.0
 10
99.9289967847
 20
152.0420979544
 30
0.0
 10
99.1052474865
 20
152.1967700571
 30
0.0
 10
98.480970379
 20
152.3290919892
 30
0.0
 10
98.046745147
 20
152.433269253
 30
0.0
 10
97.7825425802
 20
152.5035158164
 30
0.0
 10
97.5694294486
 20
152.5692349386
 30
0.0
 10
97.4464333764
 20
152.6159952249
 30
0.0
 10
97.3959525067
 20
152.6406326039
 30
0.0
  0
SPLINE
  5
2DF
100
AcDbEntity
  8
RUNDUNGEN
100
AcDbSpline
 62
7
  6
CONTINUOUS
 70
0
 71
3
 72
9
 73
5
 74
0
 42
0.0000001
 43
0.0000001
 44
0.0000000001
 40
0.0
 40
0.0
 40
0.0
 40
0.0
 40
0.5831901314
 40
1.0
 40
1.0
 40
1.0
 40
1.0
 10
103.7499906947
 20
151.8005416382
 30
0.0
 10
103.7561228071
 20
151.7731837337
 30
0.0
 10
103.7677827083
 20
151.7265598391
 30
0.0
 10
103.7836371066
 20
151.6809171737
 30
0.0
 10
103.7924621836
 20
151.6629271566
 30
0.0
  0
SPLINE
  5
2E0
100
AcDbEntity
  8
RUNDUNGEN
100
AcDbSpline
 62
7
  6
CONTINUOUS
 70
0
 71
3
 72
9
 73
5
 74
0
 42
0.0000001
 43
0.0000001
 44
0.0000000001
 40
0.0
 40
0.0
 40
0.0
 40
0.0
 40
0.2738707258
 40
1.0
 40
1.0
 40
1.0
 40
1.0
 10
103.7924621836
 20
151.6629271566
 30
0.0
 10
103.7933164342
 20
151.6611857571
 30
0.0
 10
103.7965243154
 20
151.6548729474
 30
0.0
 10
103.8001067527
 20
151.6487375726
 30
0.0
 10
103.8030271407
 20
151.6445045385
 30
0.0
  0
LINE
  5
2E1
100
AcDbEntity
  8
RUNDUNGEN
100
AcDbLine
 62
7
  6
CONTINUOUS
 10
103.8030267706
 20
166.6367461178
 11
103.7501095812
 21
166.6356509444
  0
SPLINE
  5
2E2
100
AcDbEntity
  8
RUNDUNGEN
100
AcDbSpline
 62
7
  6
CONTINUOUS
 70
0
 71
3
 72
17
 73
13
 74
0
 42
0.0000001
 43
0.0000001
 44
0.0000000001
 40
0.0
 40
0.0
 40
0.0
 40
0.0
 40
0.154870797
 40
0.307865318
 40
0.4570526777
 40
0.5995716172
 40
0.7313265457
 40
0.8467870109
 40
0.8962770659
 40
0.938980178
 40
0.9738784635
 40
1.0
 40
1.0
 40
1.0
 40
1.0
 10
103.7501095812
 20
166.6356509444
 30
0.0
 10
103.4171552856
 20
166.6283330577
 30
0.0
 10
102.755534784
 20
166.5977399643
 30
0.0
 10
101.7764959786
 20
166.508258996
 30
0.0
 10
100.8280337523
 20
166.384675866
 30
0.0
 10
99.9290031745
 20
166.2391550057
 30
0.0
 10
99.105252311
 20
166.084484332
 30
0.0
 10
98.4809776537
 20
165.9521536574
 30
0.0
 10
98.0467475215
 20
165.8479896402
 30
0.0
 10
97.7825517837
 20
165.7777195296
 30
0.0
 10
97.5694282891
 20
165.712035173
 30
0.0
 10
97.4464370323
 20
165.6652622862
 30
0.0
 10
97.3959606395
 20
165.6406166015
 30
0.0
  0
SPLINE
  5
2E3
100
AcDbEntity
  8
RUNDUNGEN
100
AcDbSpline
 62
7
  6
CONTINUOUS
 70
0
 71
3
 72
9
 73
5
 74
0
 42
0.0000001
 43
0.0000001
 44
0.0000000001
 40
0.0
 40
0.0
 40
0.0
 40
0.0
 40
0.1997447145
 40
1.0
 40
1.0
 40
1.0
 40
1.0
 10
103.8030267706
 20
166.6367461178
 30
0.0
 10
103.8006672279
 20
166.6333264485
 30
0.0
 10
103.7899427897
 20
166.615459168
 30
0.0
 10
103.7824332697
 20
166.5958861991
 30
0.0
 10
103.7770183123
 20
166.5801462288
 30
0.0
  0
SPLINE
  5
2E4
100
AcDbEntity
  8
RUNDUNGEN
100
AcDbSpline
 62
7
  6
CONTINUOUS
 70
0
 71
3
 72
9
 73
5
 74
0
 42
0.0000001
 43
0.0000001
 44
0.0000000001
 40
0.0
 40
0.0
 40
0.0
 40
0.0
 40
0.2305592439
 40
1.0
 40
1.0
 40
1.0
 40
1.0
 10
103.7770183123
 20
166.5801462288
 30
0.0
 10
103.775867703
 20
166.5768016861
 30
0.0
 10
103.7710273478
 20
166.5622438164
 30
0.0
 10
103.7667282841
 20
166.5475097022
 30
0.0
 10
103.7636247231
 20
166.5361212964
 30
0.0
  0
SPLINE
  5
2E5
100
AcDbEntity
  8
RUNDUNGEN
100
AcDbSpline
 62
7
  6
CONTINUOUS
 70
0
 71
3
 72
9
 73
5
 74
0
 42
0.0000001
 43
0.0000001
 44
0.0000000001
 40
0.0
 40
0.0
 40
0.0
 40
0.0
 40
0.2334107054
 40
1.0
 40
1.0
 40
1.0
 40
1.0
 10
103.7636247231
 20
166.5361212964
 30
0.0
 10
103.7624582979
 20
166.5318411408
 30
0.0
 10
103.7575888134
 20
166.5134688823
 30
0.0
 10
103.753188135
 20
166.4949742635
 30
0.0
 10
103.7500019837
 20
166.4807569695
 30
0.0
  0
SPLINE
  5
2E6
100
AcDbEntity
  8
RUNDUNGEN
100
AcDbSpline
 62
7
  6
CONTINUOUS
 70
0
 71
3
 72
15
 73
11
 74
0
 42
0.0000001
 43
0.0000001
 44
0.0000000001
 40
0.0
 40
0.0
 40
0.0
 40
0.0
 40
0.0402985659
 40
0.0852717005
 40
0.1876208199
 40
0.303779896
 40
0.430646854
 40
0.5656308102
 40
0.7066175615
 40
1.0
 40
1.0
 40
1.0
 40
1.0
 10
90.4937328562
 20
152.6089407439
 30
0.0
 10
90.4713540048
 20
152.6915557721
 30
0.0
 10
90.415249394
 20
152.8640139977
 30
0.0
 10
90.2669725871
 20
153.2340831708
 30
0.0
 10
90.0208916577
 20
153.7373899074
 30
0.0
 10
89.6644976944
 20
154.3786915316
 30
0.0
 10
89.2510644704
 20
155.0670786159
 30
0.0
 10
88.7946328959
 20
155.7908184083
 30
0.0
 10
88.134512585
 20
156.8040683005
 30
0.0
 10
87.6197716291
 20
157.5697460212
 30
0.0
 10
87.2705673528
 20
158.0858362413
 30
0.0
  0
SPLINE
  5
2E7
100
AcDbEntity
  8
RUNDUNGEN
100
AcDbSpline
 62
7
  6
CONTINUOUS
 70
0
 71
3
 72
11
 73
7
 74
0
 42
0.0000001
 43
0.0000001
 44
0.0000000001
 40
0.0
 40
0.0
 40
0.0
 40
0.0
 40
0.2184837422
 40
0.4632881237
 40
0.7267657576
 40
1.0
 40
1.0
 40
1.0
 40
1.0
 10
60.3907403184
 20
152.6406220762
 30
0.0
 10
60.5070424821
 20
153.1032988065
 30
0.0
 10
60.7084558486
 20
154.0958874941
 30
0.0
 10
60.9196998626
 20
155.6695639515
 30
0.0
 10
61.0505437831
 20
157.3718467252
 30
0.0
 10
61.0798329349
 20
158.5440043507
 30
0.0
 10
61.079865074
 20
159.1406249772
 30
0.0
  0
SPLINE
  5
2E8
100
AcDbEntity
  8
RUNDUNGEN
100
AcDbSpline
 62
7
  6
CONTINUOUS
 70
0
 71
3
 72
19
 73
15
 74
0
 42
0.0000001
 43
0.0000001
 44
0.0000000001
 40
0.0
 40
0.0
 40
0.0
 40
0.0
 40
0.0293182772
 40
0.0605863426
 40
0.0954288756
 40
0.1349459224
 40
0.1798064456
 40
0.2303548715
 40
0.2867006065
 40
0.3487720332
 40
0.4890270422
 40
0.6478962771
 40
0.8203406824
 40
1.0
 40
1.0
 40
1.0
 40
1.0
 10
56.6023194095
 20
151.6406249772
 30
0.0
 10
56.68414724
 20
151.640616808
 30
0.0
 10
56.8540644676
 20
151.6653568267
 30
0.0
 10
57.1002378119
 20
151.7735269503
 30
0.0
 10
57.3391544492
 20
151.9494692359
 30
0.0
 10
57.5699303712
 20
152.1909303807
 30
0.0
 10
57.7917433103
 20
152.4963476533
 30
0.0
 10
58.0031440787
 20
152.8640978626
 30
0.0
 10
58.2024364399
 20
153.2920324639
 30
0.0
 10
58.4599348435
 20
153.9670314074
 30
0.0
 10
58.7308758498
 20
154.9402654966
 30
0.0
 10
58.96742631
 20
156.2363724195
 30
0.0
 10
59.1148453348
 20
157.6561265536
 30
0.0
 10
59.1479926941
 20
158.6391926402
 30
0.0
 10
59.1480134214
 20
159.1406249772
 30
0.0
  0
SPLINE
  5
2E9
100
AcDbEntity
  8
RUNDUNGEN
100
AcDbSpline
 62
7
  6
CONTINUOUS
 70
0
 71
3
 72
15
 73
11
 74
0
 42
0.0000001
 43
0.0000001
 44
0.0000000001
 40
0.0
 40
0.0
 40
0.0
 40
0.0
 40
0.0416695545
 40
0.0893743562
 40
0.1986284137
 40
0.3207198379
 40
0.4507175887
 40
0.5853659697
 40
0.7225897006
 40
1.0
 40
1.0
 40
1.0
 40
1.0
 10
60.3907488388
 20
165.6406309937
 30
0.0
 10
60.347244414
 20
165.6744261939
 30
0.0
 10
60.249095509
 20
165.7406583867
 30
0.0
 10
60.0206622891
 20
165.8704161565
 30
0.0
 10
59.6853172326
 20
166.0255560797
 30
0.0
 10
59.2386642477
 20
166.1956988307
 30
0.0
 10
58.7501682974
 20
166.3477559148
 30
0.0
 10
58.2337422562
 20
166.4741557924
 30
0.0
 10
57.5183782727
 20
166.6009073888
 30
0.0
 10
56.9692419239
 20
166.64062488
 30
0.0
 10
56.6024960627
 20
166.6406233713
 30
0.0
  0
SPLINE
  5
2EA
100
AcDbEntity
  8
RUNDUNGEN
100
AcDbSpline
 62
7
  6
CONTINUOUS
 70
0
 71
3
 72
15
 73
11
 74
0
 42
0.0000001
 43
0.0000001
 44
0.0000000001
 40
0.0
 40
0.0
 40
0.0
 40
0.0
 40
0.2774074412
 40
0.4146311545
 40
0.549279485
 40
0.6792773736
 40
0.8013698215
 40
0.9106253049
 40
0.9583306843
 40
1.0
 40
1.0
 40
1.0
 40
1.0
 10
56.6021616407
 20
151.6406253801
 30
0.0
 10
56.9689329496
 20
151.6406079717
 30
0.0
 10
57.5181107656
 20
151.6803099744
 30
0.0
 10
58.2335325054
 20
151.8070461995
 30
0.0
 10
58.7500015113
 20
151.9334495271
 30
0.0
 10
59.2385414943
 20
152.0855067977
 30
0.0
 10
59.6852368609
 20
152.2556556154
 30
0.0
 10
60.0206115774
 20
152.4108113419
 30
0.0
 10
60.2490678669
 20
152.5405745284
 30
0.0
 10
60.3472293496
 20
152.6068066211
 30
0.0
 10
60.3907349704
 20
152.640606923
 30
0.0
  0
SPLINE
  5
2EB
100
AcDbEntity
  8
RUNDUNGEN
100
AcDbSpline
 62
7
  6
CONTINUOUS
 70
0
 71
3
 72
13
 73
9
 74
0
 42
0.0000001
 43
0.0000001
 44
0.0000000001
 40
0.0
 40
0.0
 40
0.0
 40
0.0
 40
0.091350046
 40
0.1971423892
 40
0.3145099844
 40
0.4409354979
 40
0.7128426074
 40
1.0
 40
1.0
 40
1.0
 40
1.0
 10
74.7229316347
 20
152.8469444687
 30
0.0
 10
74.7858128021
 20
153.0224325156
 30
0.0
 10
74.9466168638
 20
153.3920341115
 30
0.0
 10
75.2417111993
 20
153.9621420248
 30
0.0
 10
75.5962314621
 20
154.5813997935
 30
0.0
 10
76.1441761688
 20
155.479940791
 30
0.0
 10
76.9056170524
 20
156.6536336793
 30
0.0
 10
77.5421853225
 20
157.6003773683
 30
0.0
 10
77.8705679326
 20
158.085709838
 30
0.0
  0
SPLINE
  5
2EC
100
AcDbEntity
  8
RUNDUNGEN
100
AcDbSpline
 62
7
  6
CONTINUOUS
 70
0
 71
3
 72
19
 73
15
 74
0
 42
0.0000001
 43
0.0000001
 44
0.0000000001
 40
0.0
 40
0.0
 40
0.0
 40
0.0
 40
0.1796641455
 40
0.3521215374
 40
0.5110100924
 40
0.6512588976
 40
0.7133243181
 40
0.7696657873
 40
0.820212633
 40
0.8650728216
 40
0.9045899804
 40
0.9394319273
 40
0.9707017267
 40
1.0
 40
1.0
 40
1.0
 40
1.0
 10
59.1480134214
 20
159.1406249772
 30
0.0
 10
59.1479957429
 20
159.6420602889
 30
0.0
 10
59.1148484351
 20
160.6251559486
 30
0.0
 10
58.9674114433
 20
162.0449820404
 30
0.0
 10
58.7308528846
 20
163.3411345727
 30
0.0
 10
58.4598820092
 20
164.3143589523
 30
0.0
 10
58.2023993565
 20
164.9892981666
 30
0.0
 10
58.0031215765
 20
165.4171922605
 30
0.0
 10
57.7917314385
 20
165.7849180098
 30
0.0
 10
57.5699272627
 20
166.0903263897
 30
0.0
 10
57.3391536973
 20
166.3317754554
 30
0.0
 10
57.100244921
 20
166.507726289
 30
0.0
 10
56.85412099
 20
166.6158586086
 30
0.0
 10
56.6842663501
 20
166.6406249484
 30
0.0
 10
56.6024960627
 20
166.6406249772
 30
0.0
  0
SPLINE
  5
2ED
100
AcDbEntity
  8
RUNDUNGEN
100
AcDbSpline
 62
7
  6
CONTINUOUS
 70
0
 71
3
 72
11
 73
7
 74
0
 42
0.0000001
 43
0.0000001
 44
0.0000000001
 40
0.0
 40
0.0
 40
0.0
 40
0.0
 40
0.2732036169
 40
0.5366877534
 40
0.7815128151
 40
1.0
 40
1.0
 40
1.0
 40
1.0
 10
61.079865074
 20
159.1406249772
 30
0.0
 10
61.0798376187
 20
159.7371783222
 30
0.0
 10
61.0505381701
 20
160.9092818479
 30
0.0
 10
60.9197217818
 20
162.6115585009
 30
0.0
 10
60.7084503912
 20
164.1852968416
 30
0.0
 10
60.5070603267
 20
165.177943772
 30
0.0
 10
60.3907500599
 20
165.640625879
 30
0.0
  0
SPLINE
  5
2EE
100
AcDbEntity
  8
RUNDUNGEN
100
AcDbSpline
 62
7
  6
CONTINUOUS
 70
0
 71
3
 72
14
 73
10
 74
0
 42
0.0000001
 43
0.0000001
 44
0.0000000001
 40
0.0
 40
0.0
 40
0.0
 40
0.0
 40
0.0641384632
 40
0.138129373
 40
0.2284783697
 40
0.3386939885
 40
0.4704940876
 40
0.6246800628
 40
1.0
 40
1.0
 40
1.0
 40
1.0
 10
91.0570254469
 20
166.6406249535
 30
0.0
 10
91.0320056708
 20
166.6406136521
 30
0.0
 10
90.9777855809
 20
166.6281839217
 30
0.0
 10
90.9028599176
 20
166.5776142638
 30
0.0
 10
90.8304451293
 20
166.4978276949
 30
0.0
 10
90.7595448863
 20
166.3888440747
 30
0.0
 10
90.6898169376
 20
166.2506707737
 30
0.0
 10
90.592232959
 20
166.0116742255
 30
0.0
 10
90.5320044744
 20
165.8136271406
 30
0.0
 10
90.4937328562
 20
165.6723092104
 30
0.0
  0
SPLINE
  5
2EF
100
AcDbEntity
  8
RUNDUNGEN
100
AcDbSpline
 62
7
  6
CONTINUOUS
 70
0
 71
3
 72
14
 73
10
 74
0
 42
0.0000001
 43
0.0000001
 44
0.0000000001
 40
0.0
 40
0.0
 40
0.0
 40
0.0
 40
0.0783486297
 40
0.1633595771
 40
0.2601764338
 40
0.3721871745
 40
0.5014101887
 40
0.6489318196
 40
1.0
 40
1.0
 40
1.0
 40
1.0
 10
73.7756574183
 20
151.6406249837
 30
0.0
 10
73.8177278141
 20
151.640631531
 30
0.0
 10
73.9059095643
 20
151.6548920265
 30
0.0
 10
74.0330187983
 20
151.7163370465
 30
0.0
 10
74.1567949906
 20
151.8158105031
 30
0.0
 10
74.277583316
 20
151.9521357771
 30
0.0
 10
74.3955465762
 20
152.1248657671
 30
0.0
 10
74.5581730014
 20
152.4205691045
 30
0.0
 10
74.659343327
 20
152.6694820241
 30
0.0
 10
74.7229316347
 20
152.8469444687
 30
0.0
  0
SPLINE
  5
2F0
100
AcDbEntity
  8
RUNDUNGEN
100
AcDbSpline
 62
7
  6
CONTINUOUS
 70
0
 71
3
 72
13
 73
9
 74
0
 42
0.0000001
 43
0.0000001
 44
0.0000000001
 40
0.0
 40
0.0
 40
0.0
 40
0.0
 40
0.3393912925
 40
0.6115727431
 40
0.7246787124
 40
0.8248059958
 40
0.9151123867
 40
1.0
 40
1.0
 40
1.0
 40
1.0
 10
73.7569686142
 20
164.5952245607
 30
0.0
 10
73.6929410869
 20
164.7500790806
 30
0.0
 10
73.5639024162
 20
165.0237846922
 30
0.0
 10
73.3612945834
 20
165.3223011011
 30
0.0
 10
73.1891574943
 20
165.4902737754
 30
0.0
 10
73.0651748275
 20
165.5760683275
 30
0.0
 10
72.9385163479
 20
165.6285964673
 30
0.0
 10
72.851643363
 20
165.6406160148
 30
0.0
 10
72.8097314109
 20
165.6406249772
 30
0.0
  0
SPLINE
  5
2F1
100
AcDbEntity
  8
RUNDUNGEN
100
AcDbSpline
 62
7
  6
CONTINUOUS
 70
0
 71
3
 72
12
 73
8
 74
0
 42
0.0000001
 43
0.0000001
 44
0.0000000001
 40
0.0
 40
0.0
 40
0.0
 40
0.0
 40
0.1163722949
 40
0.2121420121
 40
0.3339424022
 40
0.6422267217
 40
1.0
 40
1.0
 40
1.0
 40
1.0
 10
86.070568392
 20
163.6406249772
 30
0.0
 10
86.0788668333
 20
163.6406249772
 30
0.0
 10
86.0909342641
 20
163.6264800319
 30
0.0
 10
86.100163017
 20
163.605571664
 30
0.0
 10
86.1112672002
 20
163.5692171207
 30
0.0
 10
86.1196398164
 20
163.5137170276
 30
0.0
 10
86.1220387196
 20
163.4661375836
 30
0.0
 10
86.1220389801
 20
163.4406249772
 30
0.0
  0
SPLINE
  5
2F2
100
AcDbEntity
  8
RUNDUNGEN
100
AcDbSpline
 62
7
  6
CONTINUOUS
 70
0
 71
3
 72
12
 73
8
 74
0
 42
0.0000001
 43
0.0000001
 44
0.0000000001
 40
0.0
 40
0.0
 40
0.0
 40
0.0
 40
0.1163740026
 40
0.2121436192
 40
0.3339435516
 40
0.6422272718
 40
1.0
 40
1.0
 40
1.0
 40
1.0
 10
79.070568392
 20
163.6406249772
 30
0.0
 10
79.0622698094
 20
163.6406249772
 30
0.0
 10
79.050201956
 20
163.6264803042
 30
0.0
 10
79.04097304
 20
163.6055717652
 30
0.0
 10
79.0298687586
 20
163.5692172831
 30
0.0
 10
79.0214963702
 20
163.5137170903
 30
0.0
 10
79.0190978038
 20
163.4661376042
 30
0.0
 10
79.0190978037
 20
163.4406249772
 30
0.0
  0
SPLINE
  5
2F3
100
AcDbEntity
  8
RUNDUNGEN
100
AcDbSpline
 62
7
  6
CONTINUOUS
 70
0
 71
3
 72
14
 73
10
 74
0
 42
0.0000001
 43
0.0000001
 44
0.0000000001
 40
0.0
 40
0.0
 40
0.0
 40
0.0
 40
0.0641375695
 40
0.1381291993
 40
0.2284794148
 40
0.3386952011
 40
0.470494753
 40
0.6246800949
 40
1.0
 40
1.0
 40
1.0
 40
1.0
 10
91.0570255008
 20
151.6406249932
 30
0.0
 10
91.0320060494
 20
151.6406343005
 30
0.0
 10
90.9777850798
 20
151.6530631134
 30
0.0
 10
90.9028601034
 20
151.7036347051
 30
0.0
 10
90.8304454096
 20
151.783422436
 30
0.0
 10
90.7595448331
 20
151.892406367
 30
0.0
 10
90.6898167844
 20
152.0305793335
 30
0.0
 10
90.5922325533
 20
152.2695755283
 30
0.0
 10
90.5320041816
 20
152.4676226069
 30
0.0
 10
90.4937328562
 20
152.6089407439
 30
0.0
  0
LINE
  5
2F4
100
AcDbEntity
  8
RUNDUNGEN
100
AcDbLine
 62
7
  6
CONTINUOUS
 10
77.8980830863
 20
158.4375806566
 11
77.8705644135
 21
158.0857033572
  0
SPLINE
  5
2F5
100
AcDbEntity
  8
RUNDUNGEN
100
AcDbSpline
 62
7
  6
CONTINUOUS
 70
0
 71
3
 72
11
 73
7
 74
0
 42
0.0000001
 43
0.0000001
 44
0.0000000001
 40
0.0
 40
0.0
 40
0.0
 40
0.0
 40
0.2320957382
 40
0.4805100529
 40
0.7397855553
 40
1.0
 40
1.0
 40
1.0
 40
1.0
 10
73.7570105142
 20
153.6861018698
 30
0.0
 10
73.7738562096
 20
153.582144635
 30
0.0
 10
73.8538094462
 20
153.3729032717
 30
0.0
 10
74.0758706477
 20
153.1139809409
 30
0.0
 10
74.3748715012
 20
152.9258785812
 30
0.0
 10
74.6057327332
 20
152.8612869192
 30
0.0
 10
74.7229316345
 20
152.8469537293
 30
0.0
  0
SPLINE
  5
2F6
100
AcDbEntity
  8
RUNDUNGEN
100
AcDbSpline
 62
7
  6
CONTINUOUS
 70
0
 71
3
 72
11
 73
7
 74
0
 42
0.0000001
 43
0.0000001
 44
0.0000000001
 40
0.0
 40
0.0
 40
0.0
 40
0.0
 40
0.2540212457
 40
0.5056597483
 40
0.753985455
 40
1.0
 40
1.0
 40
1.0
 40
1.0
 10
72.8097314109
 20
152.6406249772
 30
0.0
 10
72.8097314115
 20
152.510715515
 30
0.0
 10
72.859386771
 20
152.2494001963
 30
0.0
 10
73.0731503019
 20
151.9172355092
 30
0.0
 10
73.3941187358
 20
151.6932917791
 30
0.0
 10
73.6498424962
 20
151.6406249772
 30
0.0
 10
73.7756572371
 20
151.6406249772
 30
0.0
  0
SPLINE
  5
2F7
100
AcDbEntity
  8
RUNDUNGEN
100
AcDbSpline
 62
7
  6
CONTINUOUS
 70
0
 71
3
 72
11
 73
7
 74
0
 42
0.0000001
 43
0.0000001
 44
0.0000000001
 40
0.0
 40
0.0
 40
0.0
 40
0.0
 40
0.2540211942
 40
0.5056596798
 40
0.753985409
 40
1.0
 40
1.0
 40
1.0
 40
1.0
 10
60.3907518376
 20
152.6406220762
 30
0.0
 10
60.3907522616
 20
152.5107129135
 30
0.0
 10
60.4404082423
 20
152.249398355
 30
0.0
 10
60.6541719107
 20
151.9172348302
 30
0.0
 10
60.9751398393
 20
151.6932918641
 30
0.0
 10
61.2308630326
 20
151.6406250926
 30
0.0
 10
61.3566775326
 20
151.6406249772
 30
0.0
  0
SPLINE
  5
2F8
100
AcDbEntity
  8
RUNDUNGEN
100
AcDbSpline
 62
7
  6
CONTINUOUS
 70
0
 71
3
 72
11
 73
7
 74
0
 42
0.0000001
 43
0.0000001
 44
0.0000000001
 40
0.0
 40
0.0
 40
0.0
 40
0.0
 40
0.2540211637
 40
0.5056596397
 40
0.7539853717
 40
1.0
 40
1.0
 40
1.0
 40
1.0
 10
60.3907540078
 20
165.640625879
 30
0.0
 10
60.3907539585
 20
165.7705352556
 30
0.0
 10
60.4404093448
 20
166.031850465
 30
0.0
 10
60.6541731215
 20
166.3640147913
 30
0.0
 10
60.9751415991
 20
166.5879582631
 30
0.0
 10
61.2308653314
 20
166.6406249786
 30
0.0
 10
61.3566800727
 20
166.6406249772
 30
0.0
  0
SPLINE
  5
2F9
100
AcDbEntity
  8
RUNDUNGEN
100
AcDbSpline
 62
7
  6
CONTINUOUS
 70
0
 71
3
 72
11
 73
7
 74
0
 42
0.0000001
 43
0.0000001
 44
0.0000000001
 40
0.0
 40
0.0
 40
0.0
 40
0.0
 40
0.2540212502
 40
0.505659753
 40
0.7539854579
 40
1.0
 40
1.0
 40
1.0
 40
1.0
 10
72.8097314109
 20
165.6406249772
 30
0.0
 10
72.8097314109
 20
165.7705344417
 30
0.0
 10
72.8593867706
 20
166.0318497636
 30
0.0
 10
73.0731503053
 20
166.3640144507
 30
0.0
 10
73.3941187396
 20
166.5879581767
 30
0.0
 10
73.6498424976
 20
166.6406249772
 30
0.0
 10
73.7756572372
 20
166.6406249772
 30
0.0
  0
SPLINE
  5
2FA
100
AcDbEntity
  8
RUNDUNGEN
100
AcDbSpline
 62
7
  6
CONTINUOUS
 70
0
 71
3
 72
11
 73
7
 74
0
 42
0.0000001
 43
0.0000001
 44
0.0000000001
 40
0.0
 40
0.0
 40
0.0
 40
0.0
 40
0.2320955774
 40
0.4805099236
 40
0.7397855526
 40
1.0
 40
1.0
 40
1.0
 40
1.0
 10
73.7570058085
 20
164.5951480845
 30
0.0
 10
73.7738513939
 20
164.6991057714
 30
0.0
 10
73.8538047395
 20
164.9083481966
 30
0.0
 10
74.075866911
 20
165.167271882
 30
0.0
 10
74.3748694556
 20
165.3553749532
 30
0.0
 10
74.6057321076
 20
165.4199662784
 30
0.0
 10
74.7229316348
 20
165.4342989942
 30
0.0
  0
LINE
  5
2FB
100
AcDbEntity
  8
RUNDUNGEN
100
AcDbLine
 62
7
  6
CONTINUOUS
 10
77.8705704781
 20
160.1954872062
 11
77.8980880365
 21
159.8436223457
  0
LINE
  5
2FC
100
AcDbEntity
  8
RUNDUNGEN
100
AcDbLine
 62
7
  6
CONTINUOUS
 10
87.2705576032
 20
158.085849792
 11
87.2430392095
 21
158.43770936
  0
SPLINE
  5
2FD
100
AcDbEntity
  8
RUNDUNGEN
100
AcDbSpline
 62
7
  6
CONTINUOUS
 70
0
 71
3
 72
11
 73
7
 74
0
 42
0.0000001
 43
0.0000001
 44
0.0000000001
 40
0.0
 40
0.0
 40
0.0
 40
0.0
 40
0.2604814347
 40
0.5182469616
 40
0.7656685926
 40
1.0
 40
1.0
 40
1.0
 40
1.0
 10
90.4937328563
 20
152.6089561324
 30
0.0
 10
90.6163693243
 20
152.6182126584
 30
0.0
 10
90.8590064201
 20
152.6767908996
 30
0.0
 10
91.1715345995
 20
152.8703259297
 30
0.0
 10
91.3967133398
 20
153.1462014397
 30
0.0
 10
91.4678974231
 20
153.369705114
 30
0.0
 10
91.4785271478
 20
153.4798319745
 30
0.0
  0
SPLINE
  5
2FE
100
AcDbEntity
  8
RUNDUNGEN
100
AcDbSpline
 62
7
  6
CONTINUOUS
 70
0
 71
3
 72
11
 73
7
 74
0
 42
0.0000001
 43
0.0000001
 44
0.0000000001
 40
0.0
 40
0.0
 40
0.0
 40
0.0
 40
0.2482605022
 40
0.4975003067
 40
0.7482033348
 40
1.0
 40
1.0
 40
1.0
 40
1.0
 10
91.0570257434
 20
151.6406249772
 30
0.0
 10
91.1852007751
 20
151.6406249772
 30
0.0
 10
91.444944714
 20
151.6929213981
 30
0.0
 10
91.7721997716
 20
151.9161408295
 30
0.0
 10
91.9908791839
 20
152.2483875517
 30
0.0
 10
92.0418334952
 20
152.5106242511
 30
0.0
 10
92.0418334964
 20
152.6406249772
 30
0.0
  0
SPLINE
  5
2FF
100
AcDbEntity
  8
RUNDUNGEN
100
AcDbSpline
 62
7
  6
CONTINUOUS
 70
0
 71
3
 72
11
 73
7
 74
0
 42
0.0000001
 43
0.0000001
 44
0.0000000001
 40
0.0
 40
0.0
 40
0.0
 40
0.0
 40
0.248260517
 40
0.4975003281
 40
0.7482033501
 40
1.0
 40
1.0
 40
1.0
 40
1.0
 10
96.4111618675
 20
151.6406249772
 30
0.0
 10
96.5393366775
 20
151.6406250328
 30
0.0
 10
96.7990801284
 20
151.6929213591
 30
0.0
 10
97.12633476
 20
151.9161400992
 30
0.0
 10
97.3450142897
 20
152.2483858376
 30
0.0
 10
97.3959691198
 20
152.5106219081
 30
0.0
 10
97.3959694733
 20
152.6406223937
 30
0.0
  0
LINE
  5
300
100
AcDbEntity
  8
RUNDUNGEN
100
AcDbLine
 62
7
  6
CONTINUOUS
 10
87.2430372452
 20
159.8435232171
 11
87.2705580137
 21
160.1954078664
  0
SPLINE
  5
301
100
AcDbEntity
  8
RUNDUNGEN
100
AcDbSpline
 62
7
  6
CONTINUOUS
 70
0
 71
3
 72
11
 73
7
 74
0
 42
0.0000001
 43
0.0000001
 44
0.0000000001
 40
0.0
 40
0.0
 40
0.0
 40
0.0
 40
0.2343311682
 40
0.4817528068
 40
0.7395184821
 40
1.0
 40
1.0
 40
1.0
 40
1.0
 10
91.4785339465
 20
164.8014179795
 30
0.0
 10
91.4679048796
 20
164.9115457211
 30
0.0
 10
91.3967211752
 20
165.1350516006
 30
0.0
 10
91.1715408799
 20
165.4109297597
 30
0.0
 10
90.8590098386
 20
165.6044663509
 30
0.0
 10
90.6163704207
 20
165.6630446063
 30
0.0
 10
90.4937328563
 20
165.6723008156
 30
0.0
  0
SPLINE
  5
302
100
AcDbEntity
  8
RUNDUNGEN
100
AcDbSpline
 62
7
  6
CONTINUOUS
 70
0
 71
3
 72
11
 73
7
 74
0
 42
0.0000001
 43
0.0000001
 44
0.0000000001
 40
0.0
 40
0.0
 40
0.0
 40
0.0
 40
0.2517966613
 40
0.502499689
 40
0.7517394951
 40
1.0
 40
1.0
 40
1.0
 40
1.0
 10
92.0418334964
 20
165.6406249772
 30
0.0
 10
92.0418334948
 20
165.7706257011
 30
0.0
 10
91.990879184
 20
166.0328623978
 30
0.0
 10
91.7721997752
 20
166.36510912
 30
0.0
 10
91.4449447177
 20
166.588328555
 30
0.0
 10
91.1852007766
 20
166.6406249772
 30
0.0
 10
91.0570257436
 20
166.6406249772
 30
0.0
  0
SPLINE
  5
303
100
AcDbEntity
  8
RUNDUNGEN
100
AcDbSpline
 62
7
  6
CONTINUOUS
 70
0
 71
3
 72
11
 73
7
 74
0
 42
0.0000001
 43
0.0000001
 44
0.0000000001
 40
0.0
 40
0.0
 40
0.0
 40
0.0
 40
0.2517966515
 40
0.5024996754
 40
0.7517394874
 40
1.0
 40
1.0
 40
1.0
 40
1.0
 10
97.3959710657
 20
165.6406269262
 30
0.0
 10
97.3959707991
 20
165.7706272194
 30
0.0
 10
97.3450162983
 20
166.0328629277
 30
0.0
 10
97.1263376219
 20
166.3651084872
 30
0.0
 10
96.799083979
 20
166.5883275762
 30
0.0
 10
96.5393410835
 20
166.6406245331
 30
0.0
 10
96.4111664662
 20
166.6406249772
 30
0.0
  0
SPLINE
  5
304
100
AcDbEntity
  8
RUNDUNGEN
100
AcDbSpline
 62
7
  6
CONTINUOUS
 70
0
 71
3
 72
14
 73
10
 74
0
 42
0.0000001
 43
0.0000001
 44
0.0000000001
 40
0.0
 40
0.0
 40
0.0
 40
0.0
 40
0.0850138194
 40
0.187132552
 40
0.3031167349
 40
0.4299557752
 40
0.5650505904
 40
0.7062397459
 40
1.0
 40
1.0
 40
1.0
 40
1.0
 10
73.7569682478
 20
153.6860201634
 30
0.0
 10
73.8391358167
 20
153.8450441593
 30
0.0
 10
74.0504599611
 20
154.1790241864
 30
0.0
 10
74.4341063443
 20
154.6892264327
 30
0.0
 10
74.8985800101
 20
155.2478987095
 30
0.0
 10
75.4259157431
 20
155.8438500351
 30
0.0
 10
76.0012820499
 20
156.467916159
 30
0.0
 10
76.8267348582
 20
157.3392611103
 30
0.0
 10
77.4656628913
 20
157.9953877406
 30
0.0
 10
77.8981053476
 20
158.4376039416
 30
0.0
  0
SPLINE
  5
305
100
AcDbEntity
  8
RUNDUNGEN
100
AcDbSpline
 62
7
  6
CONTINUOUS
 70
0
 71
3
 72
14
 73
10
 74
0
 42
0.0000001
 43
0.0000001
 44
0.0000000001
 40
0.0
 40
0.0
 40
0.0
 40
0.0
 40
0.2937539804
 40
0.4349443262
 40
0.5700407598
 40
0.6968809094
 40
0.812865891
 40
0.9149854908
 40
1.0
 40
1.0
 40
1.0
 40
1.0
 10
77.8981068128
 20
159.8436036787
 30
0.0
 10
77.4656716114
 20
160.2858126993
 30
0.0
 10
76.8267756567
 20
160.9419616763
 30
0.0
 10
76.0013140019
 20
161.8132960779
 30
0.0
 10
75.4259385107
 20
162.4373706647
 30
0.0
 10
74.8985967574
 20
163.0333316831
 30
0.0
 10
74.4341157219
 20
163.5920100662
 30
0.0
 10
74.0504650677
 20
164.1022190859
 30
0.0
 10
73.8391367629
 20
164.4362027426
 30
0.0
 10
73.7569686161
 20
164.5952290531
 30
0.0
  0
SPLINE
  5
306
100
AcDbEntity
  8
RUNDUNGEN
100
AcDbSpline
 62
7
  6
CONTINUOUS
 70
0
 71
3
 72
11
 73
7
 74
0
 42
0.0000001
 43
0.0000001
 44
0.0000000001
 40
0.0
 40
0.0
 40
0.0
 40
0.0
 40
0.2465361154
 40
0.4941977341
 40
0.7453882815
 40
1.0
 40
1.0
 40
1.0
 40
1.0
 10
86.1220389802
 20
163.4406249772
 30
0.0
 10
86.2254001061
 20
163.440618254
 30
0.0
 10
86.4347210752
 20
163.4007627873
 30
0.0
 10
86.703915839
 20
163.2276030534
 30
0.0
 10
86.8894639485
 20
162.9619301021
 30
0.0
 10
86.9337875041
 20
162.7473718268
 30
0.0
 10
86.9338036861
 20
162.6406249772
 30
0.0
  0
SPLINE
  5
307
100
AcDbEntity
  8
RUNDUNGEN
100
AcDbSpline
 62
7
  6
CONTINUOUS
 70
0
 71
3
 72
11
 73
7
 74
0
 42
0.0000001
 43
0.0000001
 44
0.0000000001
 40
0.0
 40
0.0
 40
0.0
 40
0.0
 40
0.254612033
 40
0.5058024376
 40
0.7534639714
 40
1.0
 40
1.0
 40
1.0
 40
1.0
 10
86.9338036861
 20
155.6406249772
 30
0.0
 10
86.9337871008
 20
155.5338779871
 30
0.0
 10
86.8894645194
 20
155.3193194829
 30
0.0
 10
86.7039155448
 20
155.0536468182
 30
0.0
 10
86.434721023
 20
154.8804871974
 30
0.0
 10
86.2254000781
 20
154.8406316407
 30
0.0
 10
86.1220389802
 20
154.8406249772
 30
0.0
  0
SPLINE
  5
308
100
AcDbEntity
  8
RUNDUNGEN
100
AcDbSpline
 62
7
  6
CONTINUOUS
 70
0
 71
3
 72
11
 73
7
 74
0
 42
0.0000001
 43
0.0000001
 44
0.0000000001
 40
0.0
 40
0.0
 40
0.0
 40
0.0
 40
0.2465361154
 40
0.4941977341
 40
0.7453882815
 40
1.0
 40
1.0
 40
1.0
 40
1.0
 10
79.0190978038
 20
154.8406249772
 30
0.0
 10
78.9157366779
 20
154.8406317003
 30
0.0
 10
78.7064157088
 20
154.8804871671
 30
0.0
 10
78.437220945
 20
155.0536469009
 30
0.0
 10
78.2516728355
 20
155.3193198522
 30
0.0
 10
78.20734928
 20
155.5338781276
 30
0.0
 10
78.2073330979
 20
155.6406249772
 30
0.0
  0
SPLINE
  5
309
100
AcDbEntity
  8
RUNDUNGEN
100
AcDbSpline
 62
7
  6
CONTINUOUS
 70
0
 71
3
 72
11
 73
7
 74
0
 42
0.0000001
 43
0.0000001
 44
0.0000000001
 40
0.0
 40
0.0
 40
0.0
 40
0.0
 40
0.254612033
 40
0.5058024376
 40
0.7534639714
 40
1.0
 40
1.0
 40
1.0
 40
1.0
 10
78.2073330979
 20
162.6406249772
 30
0.0
 10
78.2073496832
 20
162.7473719672
 30
0.0
 10
78.2516722646
 20
162.9619304714
 30
0.0
 10
78.4372212392
 20
163.2276031361
 30
0.0
 10
78.706415761
 20
163.4007627569
 30
0.0
 10
78.9157367059
 20
163.4406183137
 30
0.0
 10
79.0190978038
 20
163.4406249772
 30
0.0
  0
SPLINE
  5
30A
100
AcDbEntity
  8
RUNDUNGEN
100
AcDbSpline
 62
7
  6
CONTINUOUS
 70
0
 71
3
 72
15
 73
11
 74
0
 42
0.0000001
 43
0.0000001
 44
0.0000000001
 40
0.0
 40
0.0
 40
0.0
 40
0.0
 40
0.0362770812
 40
0.0779366652
 40
0.1758857332
 40
0.2903513683
 40
0.4176729843
 40
0.5546939731
 40
0.698799362
 40
1.0
 40
1.0
 40
1.0
 40
1.0
 10
91.478577703
 20
164.8015252299
 30
0.0
 10
91.4497918744
 20
164.7278192553
 30
0.0
 10
91.3770634782
 20
164.5737221103
 30
0.0
 10
91.18406149
 20
164.2418727139
 30
0.0
 10
90.8621456288
 20
163.7896366499
 30
0.0
 10
90.3965300435
 20
163.2130067051
 30
0.0
 10
89.853328091
 20
162.5901824561
 30
0.0
 10
89.2518824921
 20
161.932879149
 30
0.0
 10
88.3798458623
 20
161.0093043756
 30
0.0
 10
87.7023607538
 20
160.3132332005
 30
0.0
 10
87.2430274158
 20
159.8435145483
 30
0.0
  0
SPLINE
  5
30B
100
AcDbEntity
  8
RUNDUNGEN
100
AcDbSpline
 62
7
  6
CONTINUOUS
 70
0
 71
3
 72
15
 73
11
 74
0
 42
0.0000001
 43
0.0000001
 44
0.0000000001
 40
0.0
 40
0.0
 40
0.0
 40
0.0
 40
0.0362773708
 40
0.077935964
 40
0.175884276
 40
0.2903491609
 40
0.4176707186
 40
0.5546916657
 40
0.698796903
 40
1.0
 40
1.0
 40
1.0
 40
1.0
 10
91.4785884871
 20
153.479693544
 30
0.0
 10
91.4498031864
 20
153.5534006772
 30
0.0
 10
91.3770782058
 20
153.707498333
 30
0.0
 10
91.1840807108
 20
154.0393481802
 30
0.0
 10
90.8621703404
 20
154.49158382
 30
0.0
 10
90.3965527437
 20
155.0682108717
 30
0.0
 10
89.8533528212
 20
155.6910379051
 30
0.0
 10
89.2519050058
 20
156.3483423433
 30
0.0
 10
88.3798694435
 20
157.2719305884
 30
0.0
 10
87.7023666672
 20
157.9679960898
 30
0.0
 10
87.243027738
 20
158.4377197429
 30
0.0
  0
SPLINE
  5
30C
100
AcDbEntity
  8
RUNDUNGEN
100
AcDbSpline
 62
7
  6
CONTINUOUS
 70
0
 71
3
 72
11
 73
7
 74
0
 42
0.0000001
 43
0.0000001
 44
0.0000000001
 40
0.0
 40
0.0
 40
0.0
 40
0.0
 40
0.2666896474
 40
0.517805779
 40
0.7590072739
 40
1.0
 40
1.0
 40
1.0
 40
1.0
 10
78.935103649
 20
163.7110233616
 30
0.0
 10
78.783556258
 20
163.6941856361
 30
0.0
 10
78.4923588354
 20
163.6055504219
 30
0.0
 10
78.1439429193
 20
163.3315951457
 30
0.0
 10
77.9217737422
 20
162.9657904834
 30
0.0
 10
77.870537975
 20
162.6875035615
 30
0.0
 10
77.870568392
 20
162.5497158863
 30
0.0
  0
SPLINE
  5
30D
100
AcDbEntity
  8
RUNDUNGEN
100
AcDbSpline
 62
7
  6
CONTINUOUS
 70
0
 71
3
 72
11
 73
7
 74
0
 42
0.0000001
 43
0.0000001
 44
0.0000000001
 40
0.0
 40
0.0
 40
0.0
 40
0.0
 40
0.2477101266
 40
0.496836802
 40
0.7477927309
 40
1.0
 40
1.0
 40
1.0
 40
1.0
 10
104.7376307506
 20
152.6260945854
 30
0.0
 10
104.7192445543
 20
152.5125468689
 30
0.0
 10
104.6402716781
 20
152.2894832896
 30
0.0
 10
104.4118732669
 20
152.0185403182
 30
0.0
 10
104.1027856758
 20
151.8413767359
 30
0.0
 10
103.8671149689
 20
151.8005029729
 30
0.0
 10
103.75
 20
151.800502951
 30
0.0
  0
SPLINE
  5
30E
100
AcDbEntity
  8
RUNDUNGEN
100
AcDbSpline
 62
7
  6
CONTINUOUS
 70
0
 71
3
 72
13
 73
9
 74
0
 42
0.0000001
 43
0.0000001
 44
0.0000000001
 40
0.0
 40
0.0
 40
0.0
 40
0.0
 40
0.287153586
 40
0.5590625312
 40
0.6854887069
 40
0.8028567211
 40
0.9086495155
 40
1.0
 40
1.0
 40
1.0
 40
1.0
 10
77.8705685935
 20
160.1954885479
 30
0.0
 10
77.5421867382
 20
160.6808171411
 30
0.0
 10
76.9056577081
 20
161.6275919091
 30
0.0
 10
76.1441916715
 20
162.8012768245
 30
0.0
 10
75.5962422354
 20
163.6998307062
 30
0.0
 10
75.2417167857
 20
164.319094925
 30
0.0
 10
74.9466210838
 20
164.8892101973
 30
0.0
 10
74.7858136785
 20
165.2588154051
 30
0.0
 10
74.7229316347
 20
165.4343054856
 30
0.0
  0
SPLINE
  5
30F
100
AcDbEntity
  8
RUNDUNGEN
100
AcDbSpline
 62
7
  6
CONTINUOUS
 70
0
 71
3
 72
11
 73
7
 74
0
 42
0.0000001
 43
0.0000001
 44
0.0000000001
 40
0.0
 40
0.0
 40
0.0
 40
0.0
 40
0.2477102817
 40
0.4968370016
 40
0.7477928605
 40
1.0
 40
1.0
 40
1.0
 40
1.0
 10
104.7376308159
 20
165.6551574608
 30
0.0
 10
104.7192446655
 20
165.7687053552
 30
0.0
 10
104.6402718845
 20
165.9917692701
 30
0.0
 10
104.4118735008
 20
166.2627127371
 30
0.0
 10
104.102785828
 20
166.4398766598
 30
0.0
 10
103.8671150067
 20
166.4807504869
 30
0.0
 10
103.75
 20
166.480750495
 30
0.0
  0
SPLINE
  5
310
100
AcDbEntity
  8
RUNDUNGEN
100
AcDbSpline
 62
7
  6
CONTINUOUS
 70
0
 71
3
 72
14
 73
10
 74
0
 42
0.0000001
 43
0.0000001
 44
0.0000000001
 40
0.0
 40
0.0
 40
0.0
 40
0.0
 40
0.3510682394
 40
0.4985898707
 40
0.6278129165
 40
0.7398238121
 40
0.8366405999
 40
0.9216511547
 40
1.0
 40
1.0
 40
1.0
 40
1.0
 10
74.7229316347
 20
165.4343054856
 30
0.0
 10
74.659343202
 20
165.6117678922
 30
0.0
 10
74.5581728729
 20
165.8606807932
 30
0.0
 10
74.3955465217
 20
166.1563841759
 30
0.0
 10
74.2775831976
 20
166.3291142185
 30
0.0
 10
74.1567948009
 20
166.4654394667
 30
0.0
 10
74.0330187905
 20
166.564912878
 30
0.0
 10
73.905909436
 20
166.6263574176
 30
0.0
 10
73.8177279405
 20
166.6406178399
 30
0.0
 10
73.7756574346
 20
166.6406249694
 30
0.0
  0
SPLINE
  5
311
100
AcDbEntity
  8
RUNDUNGEN
100
AcDbSpline
 62
7
  6
CONTINUOUS
 70
0
 71
3
 72
13
 73
9
 74
0
 42
0.0000001
 43
0.0000001
 44
0.0000000001
 40
0.0
 40
0.0
 40
0.0
 40
0.0
 40
0.0848876131
 40
0.1751942766
 40
0.2753215916
 40
0.3884273528
 40
0.6606086913
 40
1.0
 40
1.0
 40
1.0
 40
1.0
 10
72.8097314109
 20
152.6406249772
 30
0.0
 10
72.8516433379
 20
152.640633282
 30
0.0
 10
72.9385165819
 20
152.6526529982
 30
0.0
 10
73.0651745894
 20
152.7051822644
 30
0.0
 10
73.1891573428
 20
152.7909764863
 30
0.0
 10
73.3612946372
 20
152.9589486044
 30
0.0
 10
73.5639020342
 20
153.2574648834
 30
0.0
 10
73.6929409961
 20
153.5311701008
 30
0.0
 10
73.7569682457
 20
153.6860246355
 30
0.0
  0
SPLINE
  5
312
100
AcDbEntity
  8
RUNDUNGEN
100
AcDbSpline
 62
7
  6
CONTINUOUS
 70
0
 71
3
 72
15
 73
11
 74
0
 42
0.0000001
 43
0.0000001
 44
0.0000000001
 40
0.0
 40
0.0
 40
0.0
 40
0.0
 40
0.0402984099
 40
0.0852718066
 40
0.1876207544
 40
0.3037800196
 40
0.4306470534
 40
0.5656312238
 40
0.7066183441
 40
1.0
 40
1.0
 40
1.0
 40
1.0
 10
90.4937328562
 20
165.6723092104
 30
0.0
 10
90.4713559971
 20
165.5896940726
 30
0.0
 10
90.415246979
 20
165.4172369526
 30
0.0
 10
90.2669645466
 20
165.0471710143
 30
0.0
 10
90.0208988089
 20
164.5438569715
 30
0.0
 10
89.6644979917
 20
163.902559294
 30
0.0
 10
89.2510659531
 20
163.2141714449
 30
0.0
 10
88.7946311444
 20
162.4904329533
 30
0.0
 10
88.1345135883
 20
161.4771832363
 30
0.0
 10
87.6197718804
 20
160.7115081183
 30
0.0
 10
87.270567285
 20
160.1954208587
 30
0.0
  0
SPLINE
  5
313
100
AcDbEntity
  8
RUNDUNGEN
100
AcDbSpline
 62
7
  6
CONTINUOUS
 70
0
 71
3
 72
16
 73
12
 74
0
 42
0.0000001
 43
0.0000001
 44
0.0000000001
 40
0.0
 40
0.0
 40
0.0
 40
0.0
 40
0.1681140325
 40
0.3311830113
 40
0.4845481659
 40
0.6241964188
 40
0.7469843385
 40
0.8507718453
 40
0.895248707
 40
0.9347976359
 40
1.0
 40
1.0
 40
1.0
 40
1.0
 10
101.9985773888
 20
159.1410583871
 30
0.0
 10
101.9985737267
 20
158.709052344
 30
0.0
 10
102.0200216337
 20
157.8578386392
 30
0.0
 10
102.1157922416
 20
156.6158014285
 30
0.0
 10
102.2711396101
 20
155.4534546703
 30
0.0
 10
102.4801032947
 20
154.4046721159
 30
0.0
 10
102.7353528329
 20
153.4977604606
 30
0.0
 10
102.9908412264
 20
152.8477703286
 30
0.0
 10
103.2179431981
 20
152.4209509903
 30
0.0
 10
103.4283472022
 20
152.1007334282
 30
0.0
 10
103.6136530251
 20
151.8979170593
 30
0.0
 10
103.7499995029
 20
151.8005350446
 30
0.0
  0
SPLINE
  5
314
100
AcDbEntity
  8
RUNDUNGEN
100
AcDbSpline
 62
7
  6
CONTINUOUS
 70
0
 71
3
 72
17
 73
13
 74
0
 42
0.0000001
 43
0.0000001
 44
0.0000000001
 40
0.0
 40
0.0
 40
0.0
 40
0.0
 40
0.0305459265
 40
0.0653742571
 40
0.1049162636
 40
0.1493842764
 40
0.2531512121
 40
0.3759152081
 40
0.5155474345
 40
0.668897168
 40
0.8319343237
 40
1.0
 40
1.0
 40
1.0
 40
1.0
 10
103.7500001111
 20
166.4807573797
 30
0.0
 10
103.6861121055
 20
166.4351426184
 30
0.0
 10
103.5594239473
 20
166.3232540744
 30
0.0
 10
103.3858993874
 20
166.1160065235
 30
0.0
 10
103.2179302657
 20
165.8602639427
 30
0.0
 10
102.9909994026
 20
165.4337948434
 30
0.0
 10
102.7354125151
 20
164.7837189846
 30
0.0
 10
102.4801979493
 20
163.8769584783
 30
0.0
 10
102.2712059929
 20
162.8282135731
 30
0.0
 10
102.1158564774
 20
161.6659424978
 30
0.0
 10
102.0200668524
 20
160.4240504683
 30
0.0
 10
101.998584315
 20
159.5729751844
 30
0.0
 10
101.9985773888
 20
159.1410583871
 30
0.0
  0
SPLINE
  5
315
100
AcDbEntity
  8
RUNDUNGEN
100
AcDbSpline
 62
7
  6
CONTINUOUS
 70
0
 71
3
 72
11
 73
7
 74
0
 42
0.0000001
 43
0.0000001
 44
0.0000000001
 40
0.0
 40
0.0
 40
0.0
 40
0.0
 40
0.2409805031
 40
0.482175785
 40
0.7333028454
 40
1.0
 40
1.0
 40
1.0
 40
1.0
 10
87.270568392
 20
162.5497158863
 30
0.0
 10
87.2705988854
 20
162.6875410337
 30
0.0
 10
87.2193314879
 20
162.9659074377
 30
0.0
 10
86.9970394174
 20
163.331800412
 30
0.0
 10
86.6484224946
 20
163.6057536344
 30
0.0
 10
86.3570824944
 20
163.6943125523
 30
0.0
 10
86.2054741771
 20
163.7110862328
 30
0.0
  0
SPLINE
  5
316
100
AcDbEntity
  8
RUNDUNGEN
100
AcDbSpline
 62
7
  6
CONTINUOUS
 70
0
 71
3
 72
11
 73
7
 74
0
 42
0.0000001
 43
0.0000001
 44
0.0000000001
 40
0.0
 40
0.0
 40
0.0
 40
0.0
 40
0.2409805031
 40
0.482175785
 40
0.7333028454
 40
1.0
 40
1.0
 40
1.0
 40
1.0
 10
77.870568392
 20
155.7315340681
 30
0.0
 10
77.8705378987
 20
155.5937089206
 30
0.0
 10
77.9218052961
 20
155.3153425167
 30
0.0
 10
78.1440973666
 20
154.9494495423
 30
0.0
 10
78.4927142894
 20
154.6754963199
 30
0.0
 10
78.7840542896
 20
154.586937402
 30
0.0
 10
78.9356626069
 20
154.5701637216
 30
0.0
  0
SPLINE
  5
317
100
AcDbEntity
  8
RUNDUNGEN
100
AcDbSpline
 62
7
  6
CONTINUOUS
 70
0
 71
3
 72
11
 73
7
 74
0
 42
0.0000001
 43
0.0000001
 44
0.0000000001
 40
0.0
 40
0.0
 40
0.0
 40
0.0
 40
0.2666896474
 40
0.517805779
 40
0.7590072739
 40
1.0
 40
1.0
 40
1.0
 40
1.0
 10
86.206033135
 20
154.5702265928
 30
0.0
 10
86.357580526
 20
154.5870643182
 30
0.0
 10
86.6487779486
 20
154.6756995325
 30
0.0
 10
86.9971938647
 20
154.9496548086
 30
0.0
 10
87.2193630418
 20
155.3154594709
 30
0.0
 10
87.270598809
 20
155.5937463928
 30
0.0
 10
87.270568392
 20
155.7315340681
 30
0.0
  0
SPLINE
  5
318
100
AcDbEntity
  8
RUNDUNGEN
100
AcDbSpline
 62
7
  6
CONTINUOUS
 70
0
 71
3
 72
13
 73
9
 74
0
 42
0.0000001
 43
0.0000001
 44
0.0000000001
 40
0.0
 40
0.0
 40
0.0
 40
0.0
 40
0.0705184044
 40
0.1493412674
 40
0.2424014851
 40
0.3532543317
 40
0.634841438
 40
1.0
 40
1.0
 40
1.0
 40
1.0
 10
92.0418334964
 20
152.6406249772
 30
0.0
 10
92.0169559986
 20
152.6406363386
 30
0.0
 10
91.963950163
 20
152.6509505239
 30
0.0
 10
91.8889449137
 20
152.6942128447
 30
0.0
 10
91.8161327428
 20
152.7633207742
 30
0.0
 10
91.712921463
 20
152.9006761935
 30
0.0
 10
91.593089968
 20
153.1414493424
 30
0.0
 10
91.5170143937
 20
153.3567517539
 30
0.0
 10
91.4785884946
 20
153.4797079679
 30
0.0
  0
SPLINE
  5
319
100
AcDbEntity
  8
RUNDUNGEN
100
AcDbSpline
 62
7
  6
CONTINUOUS
 70
0
 71
3
 72
11
 73
7
 74
0
 42
0.0000001
 43
0.0000001
 44
0.0000000001
 40
0.0
 40
0.0
 40
0.0
 40
0.0
 40
0.3311755637
 40
0.4852043646
 40
0.624759007
 40
1.0
 40
1.0
 40
1.0
 40
1.0
 10
77.870568392
 20
162.5497158873
 30
0.0
 10
77.8961520855
 20
162.5497158872
 30
0.0
 10
77.9336226257
 20
162.5528514108
 30
0.0
 10
77.9810479737
 20
162.564228612
 30
0.0
 10
78.0281560366
 20
162.5808869547
 30
0.0
 10
78.070568392
 20
162.6116371785
 30
0.0
 10
78.070568392
 20
162.6406249771
 30
0.0
  0
SPLINE
  5
31A
100
AcDbEntity
  8
RUNDUNGEN
100
AcDbSpline
 62
7
  6
CONTINUOUS
 70
0
 71
3
 72
12
 73
8
 74
0
 42
0.0000001
 43
0.0000001
 44
0.0000000001
 40
0.0
 40
0.0
 40
0.0
 40
0.0
 40
0.3725506261
 40
0.6906299059
 40
0.9062422969
 40
0.9673589261
 40
1.0
 40
1.0
 40
1.0
 40
1.0
 10
77.8705685935
 20
160.1955078293
 30
0.0
 10
77.8960580431
 20
160.195507708
 30
0.0
 10
77.9434246972
 20
160.1968043378
 30
0.0
 10
78.0048856279
 20
160.2018754262
 30
0.0
 10
78.0457742855
 20
160.2092691689
 30
0.0
 10
78.0650452433
 20
160.216241764
 30
0.0
 10
78.0705688066
 20
160.2214058053
 30
0.0
 10
78.0705683919
 20
160.2236390668
 30
0.0
  0
SPLINE
  5
31B
100
AcDbEntity
  8
RUNDUNGEN
100
AcDbSpline
 62
7
  6
CONTINUOUS
 70
0
 71
3
 72
12
 73
8
 74
0
 42
0.0000001
 43
0.0000001
 44
0.0000000001
 40
0.0
 40
0.0
 40
0.0
 40
0.0
 40
0.3725503489
 40
0.6906296604
 40
0.9062425779
 40
0.9673594173
 40
1.0
 40
1.0
 40
1.0
 40
1.0
 10
77.870568392
 20
158.085744883
 30
0.0
 10
77.896057784
 20
158.085744936
 30
0.0
 10
77.9434243597
 20
158.0844482536
 30
0.0
 10
78.0048851717
 20
158.0793773797
 30
0.0
 10
78.0457739871
 20
158.0719840527
 30
0.0
 10
78.0650449171
 20
158.0650117775
 30
0.0
 10
78.0705687356
 20
158.0598480331
 30
0.0
 10
78.070568392
 20
158.0576148086
 30
0.0
  0
SPLINE
  5
31C
100
AcDbEntity
  8
RUNDUNGEN
100
AcDbSpline
 62
7
  6
CONTINUOUS
 70
0
 71
3
 72
11
 73
7
 74
0
 42
0.0000001
 43
0.0000001
 44
0.0000000001
 40
0.0
 40
0.0
 40
0.0
 40
0.0
 40
0.3311763933
 40
0.4852057201
 40
0.6247605268
 40
1.0
 40
1.0
 40
1.0
 40
1.0
 10
77.870568392
 20
155.7315340676
 30
0.0
 10
77.896152123
 20
155.7315339331
 30
0.0
 10
77.9336227
 20
155.728398213
 30
0.0
 10
77.9810481023
 20
155.7170209195
 30
0.0
 10
78.028155996
 20
155.7003625276
 30
0.0
 10
78.070568392
 20
155.6696126283
 30
0.0
 10
78.070568392
 20
155.6406249772
 30
0.0
  0
SPLINE
  5
31D
100
AcDbEntity
  8
RUNDUNGEN
100
AcDbSpline
 62
7
  6
CONTINUOUS
 70
0
 71
3
 72
11
 73
7
 74
0
 42
0.0000001
 43
0.0000001
 44
0.0000000001
 40
0.0
 40
0.0
 40
0.0
 40
0.0
 40
0.3311756267
 40
0.4852044841
 40
0.6247591334
 40
1.0
 40
1.0
 40
1.0
 40
1.0
 10
87.270568392
 20
155.7315340676
 30
0.0
 10
87.2449846935
 20
155.7315340676
 30
0.0
 10
87.2075141444
 20
155.7283985371
 30
0.0
 10
87.1600887858
 20
155.7170213362
 30
0.0
 10
87.1129807292
 20
155.7003629871
 30
0.0
 10
87.070568392
 20
155.6696127662
 30
0.0
 10
87.070568392
 20
155.6406249772
 30
0.0
  0
SPLINE
  5
31E
100
AcDbEntity
  8
RUNDUNGEN
100
AcDbSpline
 62
7
  6
CONTINUOUS
 70
0
 71
3
 72
12
 73
8
 74
0
 42
0.0000001
 43
0.0000001
 44
0.0000000001
 40
0.0
 40
0.0
 40
0.0
 40
0.0
 40
0.3725475195
 40
0.6906246416
 40
0.9062375802
 40
0.9673558988
 40
1.0
 40
1.0
 40
1.0
 40
1.0
 10
87.2705673529
 20
158.0857364884
 30
0.0
 10
87.2450781307
 20
158.0857371101
 30
0.0
 10
87.197711862
 20
158.0844412053
 30
0.0
 10
87.1362511723
 20
158.0793698678
 30
0.0
 10
87.0953628507
 20
158.0719754652
 30
0.0
 10
87.0760915631
 20
158.0650019672
 30
0.0
 10
87.0705681145
 20
158.0598375876
 30
0.0
 10
87.070568392
 20
158.0576041202
 30
0.0
  0
SPLINE
  5
31F
100
AcDbEntity
  8
RUNDUNGEN
100
AcDbSpline
 62
7
  6
CONTINUOUS
 70
0
 71
3
 72
12
 73
8
 74
0
 42
0.0000001
 43
0.0000001
 44
0.0000000001
 40
0.0
 40
0.0
 40
0.0
 40
0.0
 40
0.372548098
 40
0.6906261312
 40
0.9062395523
 40
0.9673575916
 40
1.0
 40
1.0
 40
1.0
 40
1.0
 10
87.270568392
 20
160.1955143352
 30
0.0
 10
87.2450790959
 20
160.1955144629
 30
0.0
 10
87.197712675
 20
160.1968114656
 30
0.0
 10
87.1362519274
 20
160.2018829267
 30
0.0
 10
87.0953631472
 20
160.2092766221
 30
0.0
 10
87.0760919835
 20
160.2162494971
 30
0.0
 10
87.0705681543
 20
160.2214134002
 30
0.0
 10
87.070568392
 20
160.2236467548
 30
0.0
  0
SPLINE
  5
320
100
AcDbEntity
  8
RUNDUNGEN
100
AcDbSpline
 62
7
  6
CONTINUOUS
 70
0
 71
3
 72
11
 73
7
 74
0
 42
0.0000001
 43
0.0000001
 44
0.0000000001
 40
0.0
 40
0.0
 40
0.0
 40
0.0
 40
0.3311763935
 40
0.4852057203
 40
0.6247605269
 40
1.0
 40
1.0
 40
1.0
 40
1.0
 10
87.270568392
 20
162.5497158873
 30
0.0
 10
87.244984661
 20
162.5497160218
 30
0.0
 10
87.207514084
 20
162.5528517418
 30
0.0
 10
87.1600886817
 20
162.5642290351
 30
0.0
 10
87.112980788
 20
162.5808874268
 30
0.0
 10
87.070568392
 20
162.6116373261
 30
0.0
 10
87.070568392
 20
162.6406249771
 30
0.0
  0
SPLINE
  5
321
100
AcDbEntity
  8
RUNDUNGEN
100
AcDbSpline
 62
7
  6
CONTINUOUS
 70
0
 71
3
 72
13
 73
9
 74
0
 42
0.0000001
 43
0.0000001
 44
0.0000000001
 40
0.0
 40
0.0
 40
0.0
 40
0.0
 40
0.0705182944
 40
0.1493396724
 40
0.242398516
 40
0.3532522933
 40
0.6348433683
 40
1.0
 40
1.0
 40
1.0
 40
1.0
 10
92.0418334964
 20
165.6406249772
 30
0.0
 10
92.0169553423
 20
165.6406113244
 30
0.0
 10
91.9639495067
 20
165.630296099
 30
0.0
 10
91.8889416066
 20
165.5870355959
 30
0.0
 10
91.8161274349
 20
165.5179263234
 30
0.0
 10
91.7129150169
 20
165.3805641365
 30
0.0
 10
91.5930829881
 20
165.1397818859
 30
0.0
 10
91.5170049208
 20
164.9244729173
 30
0.0
 10
91.4785777075
 20
164.8015140501
 30
0.0
  0
SPLINE
  5
322
100
AcDbEntity
  8
RUNDUNGEN
100
AcDbSpline
 62
7
  6
CONTINUOUS
 70
0
 71
3
 72
12
 73
8
 74
0
 42
0.0000001
 43
0.0000001
 44
0.0000000001
 40
0.0
 40
0.0
 40
0.0
 40
0.0
 40
0.1163739984
 40
0.2121436131
 40
0.3339435437
 40
0.6422272677
 40
1.0
 40
1.0
 40
1.0
 40
1.0
 10
86.070568392
 20
154.6406249772
 30
0.0
 10
86.0788669743
 20
154.6406249772
 30
0.0
 10
86.0909348279
 20
154.6547696491
 30
0.0
 10
86.1001637433
 20
154.6756781879
 30
0.0
 10
86.1112680252
 20
154.7120326698
 30
0.0
 10
86.1196404135
 20
154.7675328632
 30
0.0
 10
86.1220389802
 20
154.8151123498
 30
0.0
 10
86.1220389803
 20
154.8406249772
 30
0.0
  0
SPLINE
  5
323
100
AcDbEntity
  8
RUNDUNGEN
100
AcDbSpline
 62
7
  6
CONTINUOUS
 70
0
 71
3
 72
12
 73
8
 74
0
 42
0.0000001
 43
0.0000001
 44
0.0000000001
 40
0.0
 40
0.0
 40
0.0
 40
0.0
 40
0.1163722951
 40
0.2121420123
 40
0.3339424023
 40
0.6422267218
 40
1.0
 40
1.0
 40
1.0
 40
1.0
 10
79.070568392
 20
154.6406249772
 30
0.0
 10
79.0622699507
 20
154.6406249772
 30
0.0
 10
79.0502025198
 20
154.6547699224
 30
0.0
 10
79.0409737669
 20
154.6756782903
 30
0.0
 10
79.0298695838
 20
154.7120328337
 30
0.0
 10
79.0214969675
 20
154.7675329268
 30
0.0
 10
79.0190980644
 20
154.8151123708
 30
0.0
 10
79.0190978039
 20
154.8406249772
 30
0.0
  0
SPLINE
  5
324
100
AcDbEntity
  8
RUNDUNGEN
100
AcDbSpline
 62
7
  6
CONTINUOUS
 70
0
 71
3
 72
11
 73
7
 74
0
 42
0.0000001
 43
0.0000001
 44
0.0000000001
 40
0.0
 40
0.0
 40
0.0
 40
0.0
 40
0.2457826383
 40
0.4943999571
 40
0.7463190007
 40
1.0
 40
1.0
 40
1.0
 40
1.0
 10
256.4606676683
 20
154.6406249772
 30
0.0
 10
256.4858084698
 20
154.6406249772
 30
0.0
 10
256.5369056905
 20
154.6512829197
 30
0.0
 10
256.6013202259
 20
154.6958487352
 30
0.0
 10
256.6438687426
 20
154.7624705367
 30
0.0
 10
256.653931234
 20
154.8146762621
 30
0.0
 10
256.6539311634
 20
154.8406249772
 30
0.0
  0
SPLINE
  5
325
100
AcDbEntity
  8
RUNDUNGEN
100
AcDbSpline
 62
7
  6
CONTINUOUS
 70
0
 71
3
 72
11
 73
7
 74
0
 42
0.0000001
 43
0.0000001
 44
0.0000000001
 40
0.0
 40
0.0
 40
0.0
 40
0.0
 40
0.2813748769
 40
0.5396451315
 40
0.7771767809
 40
1.0
 40
1.0
 40
1.0
 40
1.0
 10
244.6127050391
 20
153.6860201634
 30
0.0
 10
245.0856569098
 20
153.931297082
 30
0.0
 10
245.951966352
 20
154.4878291786
 30
0.0
 10
247.011087517
 20
155.52446175
 30
0.0
 10
247.7646565717
 20
156.670045904
 30
0.0
 10
248.0715310463
 20
157.4955074429
 30
0.0
 10
248.1707632084
 20
157.9055772095
 30
0.0
  0
SPLINE
  5
326
100
AcDbEntity
  8
RUNDUNGEN
100
AcDbSpline
 62
7
  6
CONTINUOUS
 70
0
 71
3
 72
9
 73
5
 74
0
 42
0.0000001
 43
0.0000001
 44
0.0000000001
 40
0.0
 40
0.0
 40
0.0
 40
0.0
 40
0.4875582025
 40
1.0
 40
1.0
 40
1.0
 40
1.0
 10
248.1732279932
 20
160.3654103032
 30
0.0
 10
248.091216324
 20
160.7072783354
 30
0.0
 10
247.8531536215
 20
161.3932500324
 30
0.0
 10
247.4899788504
 20
162.0215609736
 30
0.0
 10
247.277644022
 20
162.3239711155
 30
0.0
  0
SPLINE
  5
327
100
AcDbEntity
  8
RUNDUNGEN
100
AcDbSpline
 62
7
  6
CONTINUOUS
 70
0
 71
3
 72
9
 73
5
 74
0
 42
0.0000001
 43
0.0000001
 44
0.0000000001
 40
0.0
 40
0.0
 40
0.0
 40
0.0
 40
0.4751911523
 40
1.0
 40
1.0
 40
1.0
 40
1.0
 10
247.2522611047
 20
162.359854706
 30
0.0
 10
246.9320758122
 20
162.8091658311
 30
0.0
 10
246.1317164565
 20
163.668330264
 30
0.0
 10
245.1536235715
 20
164.3147028036
 30
0.0
 10
244.612706414
 20
164.5952290531
 30
0.0
  0
SPLINE
  5
328
100
AcDbEntity
  8
RUNDUNGEN
100
AcDbSpline
 62
7
  6
CONTINUOUS
 70
0
 71
3
 72
22
 73
18
 74
0
 42
0.0000001
 43
0.0000001
 44
0.0000000001
 40
0.0
 40
0.0
 40
0.0
 40
0.0
 40
0.1755750578
 40
0.3468877568
 40
0.5098741619
 40
0.6606201946
 40
0.7297794712
 40
0.7937641279
 40
0.8514586248
 40
0.9016696173
 40
0.9430579078
 40
0.9599673826
 40
0.9740969974
 40
0.9852773383
 40
0.9933930885
 40
0.9983365554
 40
1.0
 40
1.0
 40
1.0
 40
1.0
 10
247.6672094736
 20
155.6241733818
 30
0.0
 10
247.6291678901
 20
155.562487267
 30
0.0
 10
247.5518105001
 20
155.4419532337
 30
0.0
 10
247.4320709218
 20
155.2688254733
 30
0.0
 10
247.3128226269
 20
155.1079544731
 30
0.0
 10
247.2148547704
 20
154.9839029947
 30
0.0
 10
247.1403410021
 20
154.8934574774
 30
0.0
 10
247.0894790406
 20
154.8333065385
 30
0.0
 10
247.0430506511
 20
154.7796390642
 30
0.0
 10
247.0023010363
 20
154.7334499116
 30
0.0
 10
246.9723071453
 20
154.7000844159
 30
0.0
 10
246.9523187937
 20
154.6780148277
 30
0.0
 10
246.9403233594
 20
154.6650115829
 30
0.0
 10
246.9316303998
 20
154.655210026
 30
0.0
 10
246.9233753673
 20
154.6470155896
 30
0.0
 10
246.9218767308
 20
154.6440509572
 30
0.0
 10
246.9172731256
 20
154.6404852606
 30
0.0
 10
246.9179453868
 20
154.6406249876
 30
0.0
  0
SPLINE
  5
329
100
AcDbEntity
  8
RUNDUNGEN
100
AcDbSpline
 62
7
  6
CONTINUOUS
 70
0
 71
3
 72
16
 73
12
 74
0
 42
0.0000001
 43
0.0000001
 44
0.0000000001
 40
0.0
 40
0.0
 40
0.0
 40
0.0
 40
0.0434939921
 40
0.0732874257
 40
0.1097673455
 40
0.2036295964
 40
0.3246641209
 40
0.4699095471
 40
0.6348190506
 40
0.8138321678
 40
1.0
 40
1.0
 40
1.0
 40
1.0
 10
256.4606676683
 20
154.6406249772
 30
0.0
 10
256.4452730186
 20
154.640627887
 30
0.0
 10
256.4202894439
 20
154.6550027071
 30
0.0
 10
256.3951804261
 20
154.6842011864
 30
0.0
 10
256.3645588301
 20
154.7323064656
 30
0.0
 10
256.329959459
 20
154.8146575829
 30
0.0
 10
256.2938858085
 20
154.9370744608
 30
0.0
 10
256.2631232264
 20
155.0867153682
 30
0.0
 10
256.2394032212
 20
155.2583256532
 30
0.0
 10
256.2244782976
 20
155.4454497412
 30
0.0
 10
256.221080642
 20
155.5747310806
 30
0.0
 10
256.2210753718
 20
155.640624977
 30
0.0
  0
SPLINE
  5
32A
100
AcDbEntity
  8
RUNDUNGEN
100
AcDbSpline
 62
7
  6
CONTINUOUS
 70
0
 71
3
 72
22
 73
18
 74
0
 42
0.0000001
 43
0.0000001
 44
0.0000000001
 40
0.0
 40
0.0
 40
0.0
 40
0.0
 40
0.0016637553
 40
0.0066078553
 40
0.0147241526
 40
0.0259045471
 40
0.0400336941
 40
0.0569427454
 40
0.0983303156
 40
0.1485405278
 40
0.2062333442
 40
0.2702147358
 40
0.3393714434
 40
0.4901165886
 40
0.6531041795
 40
0.8244223259
 40
1.0
 40
1.0
 40
1.0
 40
1.0
 10
246.9179454204
 20
163.6406249667
 30
0.0
 10
246.9172730583
 20
163.6407647808
 30
0.0
 10
246.9218773765
 20
163.637198599
 30
0.0
 10
246.9233762205
 20
163.6342338996
 30
0.0
 10
246.9316316013
 20
163.6260392376
 30
0.0
 10
246.9403244513
 20
163.6162377901
 30
0.0
 10
246.9523192417
 20
163.6032348583
 30
0.0
 10
246.9723065067
 20
163.5811658581
 30
0.0
 10
247.0022990158
 20
163.5478012263
 30
0.0
 10
247.0430473453
 20
163.501614095
 30
0.0
 10
247.0894741117
 20
163.4479499443
 30
0.0
 10
247.1403335049
 20
163.3878026534
 30
0.0
 10
247.2148442147
 20
163.2973608009
 30
0.0
 10
247.3128094693
 20
163.1733119085
 30
0.0
 10
247.4320578596
 20
163.0124422932
 30
0.0
 10
247.5517981328
 20
162.8393147383
 30
0.0
 10
247.6291566354
 20
162.7187803715
 30
0.0
 10
247.6671983855
 20
162.6570945447
 30
0.0
  0
SPLINE
  5
32B
100
AcDbEntity
  8
RUNDUNGEN
100
AcDbSpline
 62
7
  6
CONTINUOUS
 70
0
 71
3
 72
16
 73
12
 74
0
 42
0.0000001
 43
0.0000001
 44
0.0000000001
 40
0.0
 40
0.0
 40
0.0
 40
0.0
 40
0.1861683543
 40
0.3651814749
 40
0.5300904714
 40
0.6753360427
 40
0.7963705186
 40
0.8902326982
 40
0.9267126024
 40
0.9565060309
 40
1.0
 40
1.0
 40
1.0
 40
1.0
 10
256.2210753718
 20
162.6406249774
 30
0.0
 10
256.2210807527
 20
162.7065190592
 30
0.0
 10
256.224478215
 20
162.8358005822
 30
0.0
 10
256.2394030153
 20
163.0229247041
 30
0.0
 10
256.2631234406
 20
163.1945348005
 30
0.0
 10
256.2938858343
 20
163.3441755928
 30
0.0
 10
256.3299594733
 20
163.4665924907
 30
0.0
 10
256.3645588607
 20
163.54894355
 30
0.0
 10
256.3951804552
 20
163.5970487919
 30
0.0
 10
256.4202894515
 20
163.6262472656
 30
0.0
 10
256.4452730266
 20
163.6406220867
 30
0.0
 10
256.4606676683
 20
163.6406249772
 30
0.0
  0
SPLINE
  5
32C
100
AcDbEntity
  8
RUNDUNGEN
100
AcDbSpline
 62
7
  6
CONTINUOUS
 70
0
 71
3
 72
11
 73
7
 74
0
 42
0.0000001
 43
0.0000001
 44
0.0000000001
 40
0.0
 40
0.0
 40
0.0
 40
0.0
 40
0.245781976
 40
0.4943989254
 40
0.7463184408
 40
1.0
 40
1.0
 40
1.0
 40
1.0
 10
256.4606676683
 20
163.6406249772
 30
0.0
 10
256.4858083904
 20
163.6406249772
 30
0.0
 10
256.5369054837
 20
163.6299670789
 30
0.0
 10
256.6013199362
 20
163.5854013007
 30
0.0
 10
256.6438684641
 20
163.518779496
 30
0.0
 10
256.6539311634
 20
163.4665737375
 30
0.0
 10
256.6539311634
 20
163.4406249772
 30
0.0
  0
SPLINE
  5
32D
100
AcDbEntity
  8
RUNDUNGEN
100
AcDbSpline
 62
7
  6
CONTINUOUS
 70
0
 71
3
 72
13
 73
9
 74
0
 42
0.0000001
 43
0.0000001
 44
0.0000000001
 40
0.0
 40
0.0
 40
0.0
 40
0.0
 40
0.3612561079
 40
0.5238805398
 40
0.6669990107
 40
0.7868669835
 40
0.8815944414
 40
1.0
 40
1.0
 40
1.0
 40
1.0
 10
256.4108154508
 20
162.6406249772
 30
0.0
 10
256.4108215466
 20
162.7453968426
 30
0.0
 10
256.4205404621
 20
162.8976398995
 30
0.0
 10
256.4545090155
 20
163.0883750215
 30
0.0
 10
256.48586838
 20
163.2075642103
 30
0.0
 10
256.5234509074
 20
163.3057042861
 30
0.0
 10
256.5674845549
 20
163.388105458
 30
0.0
 10
256.6195910633
 20
163.4406166647
 30
0.0
 10
256.6539311634
 20
163.4406249772
 30
0.0
  0
SPLINE
  5
32E
100
AcDbEntity
  8
RUNDUNGEN
100
AcDbSpline
 62
7
  6
CONTINUOUS
 70
0
 71
3
 72
13
 73
9
 74
0
 42
0.0000001
 43
0.0000001
 44
0.0000000001
 40
0.0
 40
0.0
 40
0.0
 40
0.0
 40
0.1184055882
 40
0.2131331334
 40
0.3330011344
 40
0.476119394
 40
0.6387444055
 40
1.0
 40
1.0
 40
1.0
 40
1.0
 10
256.6539311634
 20
154.8406249772
 30
0.0
 10
256.6195910549
 20
154.840633364
 30
0.0
 10
256.5674845016
 20
154.8931444823
 30
0.0
 10
256.5234508942
 20
154.9755457621
 30
0.0
 10
256.4858683922
 20
155.073685796
 30
0.0
 10
256.4545088376
 20
155.1928750657
 30
0.0
 10
256.4205407662
 20
155.3836102254
 30
0.0
 10
256.4108214016
 20
155.5358532609
 30
0.0
 10
256.4108154508
 20
155.6406249772
 30
0.0
  0
SPLINE
  5
32F
100
AcDbEntity
  8
RUNDUNGEN
100
AcDbSpline
 62
7
  6
CONTINUOUS
 70
0
 71
3
 72
11
 73
7
 74
0
 42
0.0000001
 43
0.0000001
 44
0.0000000001
 40
0.0
 40
0.0
 40
0.0
 40
0.0
 40
0.2701149165
 40
0.5219403173
 40
0.7632473764
 40
1.0
 40
1.0
 40
1.0
 40
1.0
 10
194.7292950235
 20
165.6406309937
 30
0.0
 10
194.1562056241
 20
165.7599179071
 30
0.0
 10
193.0528643499
 20
166.008963935
 30
0.0
 10
191.434681699
 20
166.3531544373
 30
0.0
 10
189.8685327724
 20
166.5858549078
 30
0.0
 10
188.8318221746
 20
166.6406248891
 30
0.0
 10
188.31875
 20
166.6406233713
 30
0.0
  0
SPLINE
  5
330
100
AcDbEntity
  8
RUNDUNGEN
100
AcDbSpline
 62
7
  6
CONTINUOUS
 70
0
 71
3
 72
11
 73
7
 74
0
 42
0.0000001
 43
0.0000001
 44
0.0000000001
 40
0.0
 40
0.0
 40
0.0
 40
0.0
 40
0.2367534825
 40
0.4780600576
 40
0.7298849154
 40
1.0
 40
1.0
 40
1.0
 40
1.0
 10
188.318285141
 20
151.6406253801
 30
0.0
 10
188.8313921798
 20
151.6406078701
 30
0.0
 10
189.8681722422
 20
151.6953529752
 30
0.0
 10
191.4344253382
 20
151.9280465964
 30
0.0
 10
193.0527115434
 20
152.2722533106
 30
0.0
 10
194.1561260954
 20
152.5213001665
 30
0.0
 10
194.7292501974
 20
152.640606923
 30
0.0
  0
SPLINE
  5
331
100
AcDbEntity
  8
RUNDUNGEN
100
AcDbSpline
 62
7
  6
CONTINUOUS
 70
0
 71
3
 72
14
 73
10
 74
0
 42
0.0000001
 43
0.0000001
 44
0.0000000001
 40
0.0
 40
0.0
 40
0.0
 40
0.0
 40
0.1901535174
 40
0.3705668293
 40
0.5349461815
 40
0.6787339254
 40
0.7982319848
 40
0.8911483782
 40
1.0
 40
1.0
 40
1.0
 40
1.0
 10
244.6128452255
 20
164.5951480845
 30
0.0
 10
244.6427987666
 20
164.6446811957
 30
0.0
 10
244.6992669928
 20
164.7423928042
 30
0.0
 10
244.774812836
 20
164.8866545913
 30
0.0
 10
244.8371912616
 20
165.0219463348
 30
0.0
 10
244.8846290474
 20
165.1427015278
 30
0.0
 10
244.9156434206
 20
165.2484617154
 30
0.0
 10
244.9324406149
 20
165.3401528963
 30
0.0
 10
244.9257170989
 20
165.4162768012
 30
0.0
 10
244.8979106167
 20
165.4342989942
 30
0.0
  0
SPLINE
  5
332
100
AcDbEntity
  8
RUNDUNGEN
100
AcDbSpline
 62
7
  6
CONTINUOUS
 70
0
 71
3
 72
15
 73
11
 74
0
 42
0.0000001
 43
0.0000001
 44
0.0000000001
 40
0.0
 40
0.0
 40
0.0
 40
0.0
 40
0.1820838727
 40
0.3579944764
 40
0.5209463339
 40
0.6655707194
 40
0.7873644435
 40
0.838665567
 40
0.8833356794
 40
1.0
 40
1.0
 40
1.0
 40
1.0
 10
241.0775690451
 20
165.6406249772
 30
0.0
 10
241.0775690451
 20
165.7056214009
 30
0.0
 10
241.0743471558
 20
165.8334329598
 30
0.0
 10
241.0600860026
 20
166.0189364096
 30
0.0
 10
241.0369689238
 20
166.1900519233
 30
0.0
 10
241.0057802166
 20
166.3403684092
 30
0.0
 10
240.9731200034
 20
166.4489176482
 30
0.0
 10
240.9422770196
 20
166.5210057136
 30
0.0
 10
240.9077293734
 20
166.5861758304
 30
0.0
 10
240.860394345
 20
166.6406249772
 30
0.0
 10
240.81875
 20
166.6406249772
 30
0.0
  0
SPLINE
  5
333
100
AcDbEntity
  8
RUNDUNGEN
100
AcDbSpline
 62
7
  6
CONTINUOUS
 70
0
 71
3
 72
15
 73
11
 74
0
 42
0.0000001
 43
0.0000001
 44
0.0000000001
 40
0.0
 40
0.0
 40
0.0
 40
0.0
 40
0.1820840838
 40
0.3579948708
 40
0.5209468423
 40
0.6655712918
 40
0.7873650298
 40
0.8386661291
 40
0.8833361924
 40
1.0
 40
1.0
 40
1.0
 40
1.0
 10
194.7293143987
 20
165.640625879
 30
0.0
 10
194.7293140803
 20
165.705622268
 30
0.0
 10
194.7260916776
 20
165.8334337328
 30
0.0
 10
194.7118302557
 20
166.0189370184
 30
0.0
 10
194.6887133734
 20
166.1900523877
 30
0.0
 10
194.6575248803
 20
166.3403687262
 30
0.0
 10
194.6248648783
 20
166.4489178372
 30
0.0
 10
194.5940221314
 20
166.5210058452
 30
0.0
 10
194.5594748425
 20
166.5861757396
 30
0.0
 10
194.5121402935
 20
166.6406249789
 30
0.0
 10
194.4704962021
 20
166.6406249772
 30
0.0
  0
SPLINE
  5
334
100
AcDbEntity
  8
RUNDUNGEN
100
AcDbSpline
 62
7
  6
CONTINUOUS
 70
0
 71
3
 72
15
 73
11
 74
0
 42
0.0000001
 43
0.0000001
 44
0.0000000001
 40
0.0
 40
0.0
 40
0.0
 40
0.0
 40
0.1820840663
 40
0.3579947733
 40
0.5209466704
 40
0.6655710537
 40
0.7873647499
 40
0.8386658518
 40
0.8833359363
 40
1.0
 40
1.0
 40
1.0
 40
1.0
 10
194.7293062994
 20
152.6406220762
 30
0.0
 10
194.7293063625
 20
152.5756258271
 30
0.0
 10
194.7260846154
 20
152.4478146388
 30
0.0
 10
194.7118237237
 20
152.2623117487
 30
0.0
 10
194.6887069549
 20
152.0911967974
 30
0.0
 10
194.6575186048
 20
151.9408808219
 30
0.0
 10
194.6248587317
 20
151.8323319494
 30
0.0
 10
194.5940160548
 20
151.7602440996
 30
0.0
 10
194.5594687664
 20
151.6950742422
 30
0.0
 10
194.5121342857
 20
151.6406251198
 30
0.0
 10
194.4704901886
 20
151.6406249772
 30
0.0
  0
SPLINE
  5
335
100
AcDbEntity
  8
RUNDUNGEN
100
AcDbSpline
 62
7
  6
CONTINUOUS
 70
0
 71
3
 72
15
 73
11
 74
0
 42
0.0000001
 43
0.0000001
 44
0.0000000001
 40
0.0
 40
0.0
 40
0.0
 40
0.0
 40
0.1820838697
 40
0.357994468
 40
0.5209463239
 40
0.6655707101
 40
0.7873644353
 40
0.8386655597
 40
0.8833356736
 40
1.0
 40
1.0
 40
1.0
 40
1.0
 10
241.0775690451
 20
152.6406249772
 30
0.0
 10
241.0775690463
 20
152.5756285542
 30
0.0
 10
241.0743471595
 20
152.4478169977
 30
0.0
 10
241.0600860085
 20
152.2623135505
 30
0.0
 10
241.036968932
 20
152.091198038
 30
0.0
 10
241.0057802256
 20
151.9408815513
 30
0.0
 10
240.9731200122
 20
151.8323323107
 30
0.0
 10
240.9422770273
 20
151.760244244
 30
0.0
 10
240.9077293793
 20
151.6950741244
 30
0.0
 10
240.860394347
 20
151.6406249772
 30
0.0
 10
240.8187499998
 20
151.6406249772
 30
0.0
  0
SPLINE
  5
336
100
AcDbEntity
  8
RUNDUNGEN
100
AcDbSpline
 62
7
  6
CONTINUOUS
 70
0
 71
3
 72
14
 73
10
 74
0
 42
0.0000001
 43
0.0000001
 44
0.0000000001
 40
0.0
 40
0.0
 40
0.0
 40
0.0
 40
0.1901532937
 40
0.3705663546
 40
0.5349454752
 40
0.6787330746
 40
0.7982311412
 40
0.8911477394
 40
1.0
 40
1.0
 40
1.0
 40
1.0
 10
244.6128439644
 20
153.6861018698
 30
0.0
 10
244.6427972236
 20
153.6365689592
 30
0.0
 10
244.699264926
 20
153.5388577776
 30
0.0
 10
244.7748101002
 20
153.3945966759
 30
0.0
 10
244.837188037
 20
153.2593056287
 30
0.0
 10
244.8846254995
 20
153.1385510231
 30
0.0
 10
244.9156399106
 20
153.0327913597
 30
0.0
 10
244.9324370955
 20
152.9411002206
 30
0.0
 10
244.925714815
 20
152.8649767688
 30
0.0
 10
244.89790882
 20
152.8469537293
 30
0.0
  0
SPLINE
  5
337
100
AcDbEntity
  8
RUNDUNGEN
100
AcDbSpline
 62
7
  6
CONTINUOUS
 70
0
 71
3
 72
16
 73
12
 74
0
 42
0.0000001
 43
0.0000001
 44
0.0000000001
 40
0.0
 40
0.0
 40
0.0
 40
0.0
 40
0.0422500826
 40
0.0715835238
 40
0.1078583936
 40
0.202019274
 40
0.3239925695
 40
0.4701329539
 40
0.6355482269
 40
0.8145396308
 40
1.0
 40
1.0
 40
1.0
 40
1.0
 10
104.75
 20
95.5181885721
 30
0.0
 10
104.7499999989
 20
95.5033834003
 30
0.0
 10
104.73512154
 20
95.47940122
 30
0.0
 10
104.7054577851
 20
95.4565963121
 30
0.0
 10
104.6562970436
 20
95.429055374
 30
0.0
 10
104.5726395125
 20
95.3993632365
 30
0.0
 10
104.4491182416
 20
95.3695621771
 30
0.0
 10
104.299080572
 20
95.3450204154
 30
0.0
 10
104.1281013609
 20
95.3266605355
 30
0.0
 10
103.9427134403
 20
95.3153711828
 30
0.0
 10
103.814988574
 20
95.3128141717
 30
0.0
 10
103.75
 20
95.312814193
 30
0.0
  0
SPLINE
  5
338
100
AcDbEntity
  8
RUNDUNGEN
100
AcDbSpline
 62
7
  6
CONTINUOUS
 70
0
 71
3
 72
14
 73
10
 74
0
 42
0.0000001
 43
0.0000001
 44
0.0000000001
 40
0.0
 40
0.0
 40
0.0
 40
0.0
 40
0.2507816984
 40
0.3758629372
 40
0.5007475063
 40
0.6255182971
 40
0.7502736012
 40
0.8750844388
 40
1.0
 40
1.0
 40
1.0
 40
1.0
 10
103.8030267706
 20
96.4417542584
 30
0.0
 10
103.1312988055
 20
95.7496163572
 30
0.0
 10
102.1267409362
 20
94.7097619425
 30
0.0
 10
100.8385874403
 20
93.2776900798
 30
0.0
 10
99.9186054524
 20
92.1675000375
 30
0.0
 10
99.0695035474
 20
91.0029099356
 30
0.0
 10
98.3264910568
 20
89.7666696502
 30
0.0
 10
97.7354151079
 20
88.4488921541
 30
0.0
 10
97.4793883561
 20
87.5173276634
 30
0.0
 10
97.3959606395
 20
87.044201451
 30
0.0
  0
LINE
  5
339
100
AcDbEntity
  8
RUNDUNGEN
100
AcDbLine
 62
7
  6
CONTINUOUS
 10
103.8030267706
 20
96.4417542584
 11
103.7500019837
 21
95.3128537967
  0
SPLINE
  5
33A
100
AcDbEntity
  8
RUNDUNGEN
100
AcDbSpline
 62
7
  6
CONTINUOUS
 70
0
 71
3
 72
12
 73
8
 74
0
 42
0.0000001
 43
0.0000001
 44
0.0000000001
 40
0.0
 40
0.0
 40
0.0
 40
0.0
 40
0.2494702256
 40
0.3745475853
 40
0.4996417081
 40
0.7497839665
 40
1.0
 40
1.0
 40
1.0
 40
1.0
 10
61.3566800727
 20
103.2013787979
 30
0.0
 10
61.1871651602
 20
103.8340265948
 30
0.0
 10
60.7717299799
 20
104.7432937929
 30
0.0
 10
60.0397140649
 20
105.8319174995
 30
0.0
 10
59.2152175895
 20
106.8566491464
 30
0.0
 10
58.064023694
 20
108.0314382428
 30
0.0
 10
57.0897682441
 20
108.9125423
 30
0.0
 10
56.6024960627
 20
109.353125
 30
0.0
  0
SPLINE
  5
33B
100
AcDbEntity
  8
RUNDUNGEN
100
AcDbSpline
 62
7
  6
CONTINUOUS
 70
0
 71
3
 72
12
 73
8
 74
0
 42
0.0000001
 43
0.0000001
 44
0.0000000001
 40
0.0
 40
0.0
 40
0.0
 40
0.0
 40
0.324034088
 40
0.6064455394
 40
0.7266348097
 40
0.8317838528
 40
1.0
 40
1.0
 40
1.0
 40
1.0
 10
79.070568392
 20
50.912364994
 30
0.0
 10
78.906905346
 20
50.9124298644
 30
0.0
 10
78.5987302545
 20
50.8644209317
 30
0.0
 10
78.2624432454
 20
50.7046813245
 30
0.0
 10
78.0618984326
 20
50.5423022161
 30
0.0
 10
77.9308490581
 20
50.393775356
 30
0.0
 10
77.8705316336
 20
50.2576609918
 30
0.0
 10
77.870568392
 20
50.1726984288
 30
0.0
  0
SPLINE
  5
33C
100
AcDbEntity
  8
RUNDUNGEN
100
AcDbSpline
 62
7
  6
CONTINUOUS
 70
0
 71
3
 72
13
 73
9
 74
0
 42
0.0000001
 43
0.0000001
 44
0.0000000001
 40
0.0
 40
0.0
 40
0.0
 40
0.0
 40
0.123770905
 40
0.2476640029
 40
0.3718817949
 40
0.4965718062
 40
0.7475234136
 40
1.0
 40
1.0
 40
1.0
 40
1.0
 10
60.3907488388
 20
102.9425799765
 30
0.0
 10
60.3108666578
 20
103.2407068196
 30
0.0
 10
60.1053106892
 20
103.8252841605
 30
0.0
 10
59.7081919502
 20
104.6642836109
 30
0.0
 10
59.2524422205
 20
105.4751651272
 30
0.0
 10
58.5915265041
 20
106.5323198048
 30
0.0
 10
57.7029295273
 20
107.82278092
 30
0.0
 10
56.9700642648
 20
108.8419690167
 30
0.0
 10
56.6024960627
 20
109.353125
 30
0.0
  0
SPLINE
  5
33D
100
AcDbEntity
  8
RUNDUNGEN
100
AcDbSpline
 62
7
  6
CONTINUOUS
 70
0
 71
3
 72
13
 73
9
 74
0
 42
0.0000001
 43
0.0000001
 44
0.0000000001
 40
0.0
 40
0.0
 40
0.0
 40
0.0
 40
0.1065222901
 40
0.2159828696
 40
0.3295342393
 40
0.4484413761
 40
0.7066206815
 40
1.0
 40
1.0
 40
1.0
 40
1.0
 10
77.8705685935
 20
49.4276780204
 30
0.0
 10
77.7024396021
 20
49.462978667
 30
0.0
 10
77.3663173212
 20
49.5597205511
 30
0.0
 10
76.8804649067
 20
49.7793479636
 30
0.0
 10
76.4138638194
 20
50.0768193351
 30
0.0
 10
75.8113946449
 20
50.5934121122
 30
0.0
 10
75.1515316964
 20
51.4686512003
 30
0.0
 10
74.8299812352
 20
52.3130786456
 30
0.0
 10
74.7229316347
 20
52.7739601764
 30
0.0
  0
SPLINE
  5
33E
100
AcDbEntity
  8
RUNDUNGEN
100
AcDbSpline
 62
7
  6
CONTINUOUS
 70
0
 71
3
 72
10
 73
6
 74
0
 42
0.0000001
 43
0.0000001
 44
0.0000000001
 40
0.0
 40
0.0
 40
0.0
 40
0.0
 40
0.5148169745
 40
0.7617231633
 40
1.0
 40
1.0
 40
1.0
 40
1.0
 10
87.270568392
 20
50.1726984293
 30
0.0
 10
87.2203179781
 20
50.1726985641
 30
0.0
 10
87.1418064848
 20
50.145384968
 30
0.0
 10
87.081662416
 20
50.0657244111
 30
0.0
 10
87.070568392
 20
50.0178115192
 30
0.0
 10
87.070568392
 20
49.9945537203
 30
0.0
  0
SPLINE
  5
33F
100
AcDbEntity
  8
RUNDUNGEN
100
AcDbSpline
 62
7
  6
CONTINUOUS
 70
0
 71
3
 72
8
 73
4
 74
0
 42
0.0000001
 43
0.0000001
 44
0.0000000001
 40
0.0
 40
0.0
 40
0.0
 40
0.0
 40
1.0
 40
1.0
 40
1.0
 40
1.0
 10
87.270568392
 20
49.4276816838
 30
0.0
 10
87.2360820117
 20
49.4276817083
 30
0.0
 10
87.2005439633
 20
49.4182050067
 30
0.0
 10
87.1705682459
 20
49.4011531212
 30
0.0
  0
SPLINE
  5
340
100
AcDbEntity
  8
RUNDUNGEN
100
AcDbSpline
 62
7
  6
CONTINUOUS
 70
0
 71
3
 72
9
 73
5
 74
0
 42
0.0000001
 43
0.0000001
 44
0.0000000001
 40
0.0
 40
0.0
 40
0.0
 40
0.0
 40
0.5010861371
 40
1.0
 40
1.0
 40
1.0
 40
1.0
 10
87.1705682459
 20
49.4011531212
 30
0.0
 10
87.1407210372
 20
49.3841743388
 30
0.0
 10
87.089232926
 20
49.3335950118
 30
0.0
 10
87.070567875
 20
49.263856799
 30
0.0
 10
87.070568392
 20
49.229667127
 30
0.0
  0
LINE
  5
341
100
AcDbEntity
  8
RUNDUNGEN
100
AcDbLine
 62
7
  6
CONTINUOUS
 10
74.7229316347
 20
52.7739601764
 11
73.77561179
 21
56.853321385
  0
LINE
  5
342
100
AcDbEntity
  8
RUNDUNGEN
100
AcDbLine
 62
7
  6
CONTINUOUS
 10
91.0570780117
 20
56.8534687112
 11
90.4937328562
 21
53.1670564877
  0
SPLINE
  5
343
100
AcDbEntity
  8
RUNDUNGEN
100
AcDbSpline
 62
7
  6
CONTINUOUS
 70
0
 71
3
 72
13
 73
9
 74
0
 42
0.0000001
 43
0.0000001
 44
0.0000000001
 40
0.0
 40
0.0
 40
0.0
 40
0.0
 40
0.2971974092
 40
0.5562442147
 40
0.6745985842
 40
0.7870920584
 40
0.8951186228
 40
1.0
 40
1.0
 40
1.0
 40
1.0
 10
90.4937328562
 20
53.1670564877
 30
0.0
 10
90.4153465031
 20
52.6543031405
 30
0.0
 10
90.1249619069
 20
51.7092874227
 30
0.0
 10
89.4501347334
 20
50.7222485583
 30
0.0
 10
88.8171654132
 20
50.1431563278
 30
0.0
 10
88.3240278199
 20
49.812409277
 30
0.0
 10
87.8079837576
 20
49.5702767286
 30
0.0
 10
87.4497146783
 20
49.4652826408
 30
0.0
 10
87.270567285
 20
49.4276684047
 30
0.0
  0
SPLINE
  5
344
100
AcDbEntity
  8
RUNDUNGEN
100
AcDbSpline
 62
7
  6
CONTINUOUS
 70
0
 71
3
 72
8
 73
4
 74
0
 42
0.0000001
 43
0.0000001
 44
0.0000000001
 40
0.0
 40
0.0
 40
0.0
 40
0.0
 40
1.0
 40
1.0
 40
1.0
 40
1.0
 10
77.8705685935
 20
49.4276807595
 30
0.0
 10
77.9050560355
 20
49.4276807011
 30
0.0
 10
77.9405952121
 20
49.4182033064
 30
0.0
 10
77.9705715475
 20
49.4011503602
 30
0.0
  0
SPLINE
  5
345
100
AcDbEntity
  8
RUNDUNGEN
100
AcDbSpline
 62
7
  6
CONTINUOUS
 70
0
 71
3
 72
9
 73
5
 74
0
 42
0.0000001
 43
0.0000001
 44
0.0000000001
 40
0.0
 40
0.0
 40
0.0
 40
0.0
 40
0.5010863264
 40
1.0
 40
1.0
 40
1.0
 40
1.0
 10
77.9705715475
 20
49.4011503602
 30
0.0
 10
78.0004182988
 20
49.3841711318
 30
0.0
 10
78.0519052739
 20
49.3335912781
 30
0.0
 10
78.0705692937
 20
49.2638532539
 30
0.0
 10
78.0705683919
 20
49.2296637841
 30
0.0
  0
SPLINE
  5
346
100
AcDbEntity
  8
RUNDUNGEN
100
AcDbSpline
 62
7
  6
CONTINUOUS
 70
0
 71
3
 72
10
 73
6
 74
0
 42
0.0000001
 43
0.0000001
 44
0.0000000001
 40
0.0
 40
0.0
 40
0.0
 40
0.0
 40
0.5148168818
 40
0.7617233448
 40
1.0
 40
1.0
 40
1.0
 40
1.0
 10
77.870568392
 20
50.1726984293
 30
0.0
 10
77.9208187745
 20
50.1726984292
 30
0.0
 10
77.999330165
 20
50.1453848101
 30
0.0
 10
78.0594742729
 20
50.0657243555
 30
0.0
 10
78.070568392
 20
50.0178114911
 30
0.0
 10
78.070568392
 20
49.9945537203
 30
0.0
  0
SPLINE
  5
347
100
AcDbEntity
  8
RUNDUNGEN
100
AcDbSpline
 62
7
  6
CONTINUOUS
 70
0
 71
3
 72
12
 73
8
 74
0
 42
0.0000001
 43
0.0000001
 44
0.0000000001
 40
0.0
 40
0.0
 40
0.0
 40
0.0
 40
0.3140626253
 40
0.5886492506
 40
0.7084535209
 40
0.8164731401
 40
1.0
 40
1.0
 40
1.0
 40
1.0
 10
79.0704236627
 20
50.7539295796
 30
0.0
 10
78.9280498948
 20
50.7539780711
 30
0.0
 10
78.6587452258
 20
50.6990845658
 30
0.0
 10
78.3805639001
 20
50.5273148379
 30
0.0
 10
78.2210141787
 20
50.3631281126
 30
0.0
 10
78.1149876948
 20
50.2097985731
 30
0.0
 10
78.0705615178
 20
50.0778173531
 30
0.0
 10
78.0705683972
 20
49.9946192586
 30
0.0
  0
SPLINE
  5
348
100
AcDbEntity
  8
RUNDUNGEN
100
AcDbSpline
 62
7
  6
CONTINUOUS
 70
0
 71
3
 72
16
 73
12
 74
0
 42
0.0000001
 43
0.0000001
 44
0.0000000001
 40
0.0
 40
0.0
 40
0.0
 40
0.0
 40
0.0041965548
 40
0.0167068691
 40
0.0374643465
 40
0.0664023921
 40
0.1485456973
 40
0.2622078069
 40
0.4059096536
 40
0.5780943673
 40
1.0
 40
1.0
 40
1.0
 40
1.0
 10
78.070568392
 20
41.4507996282
 30
0.0
 10
78.0708718857
 20
41.4505182568
 30
0.0
 10
78.0726959045
 20
41.4505109746
 30
0.0
 10
78.0760420494
 20
41.4491550126
 30
0.0
 10
78.0820959533
 20
41.4478032076
 30
0.0
 10
78.0945857622
 20
41.4443276365
 30
0.0
 10
78.1160670912
 20
41.4387546863
 30
0.0
 10
78.1484179168
 20
41.430178791
 30
0.0
 10
78.1894137538
 20
41.4194888808
 30
0.0
 10
78.2598469109
 20
41.4012452243
 30
0.0
 10
78.3166306166
 20
41.3868096502
 30
0.0
 10
78.3569867582
 20
41.3766813794
 30
0.0
  0
SPLINE
  5
349
100
AcDbEntity
  8
RUNDUNGEN
100
AcDbSpline
 62
7
  6
CONTINUOUS
 70
0
 71
3
 72
12
 73
8
 74
0
 42
0.0000001
 43
0.0000001
 44
0.0000000001
 40
0.0
 40
0.0
 40
0.0
 40
0.0
 40
0.1835228881
 40
0.2915407689
 40
0.4113444702
 40
0.6859390991
 40
1.0
 40
1.0
 40
1.0
 40
1.0
 10
87.0705683867
 20
49.9946194911
 30
0.0
 10
87.0705752918
 20
50.0778157449
 30
0.0
 10
87.026150494
 20
50.2097943814
 30
0.0
 10
86.9201265468
 20
50.3631219603
 30
0.0
 10
86.7605783283
 20
50.5273137267
 30
0.0
 10
86.4823924493
 20
50.699082011
 30
0.0
 10
86.2130861341
 20
50.7539781626
 30
0.0
 10
86.0707132166
 20
50.7539296132
 30
0.0
  0
SPLINE
  5
34A
100
AcDbEntity
  8
RUNDUNGEN
100
AcDbSpline
 62
7
  6
CONTINUOUS
 70
0
 71
3
 72
16
 73
12
 74
0
 42
0.0000001
 43
0.0000001
 44
0.0000000001
 40
0.0
 40
0.0
 40
0.0
 40
0.0
 40
0.4219071404
 40
0.5940918242
 40
0.7377934623
 40
0.8514554828
 40
0.9335988415
 40
0.9625367009
 40
0.98329388
 40
0.9958038299
 40
1.0
 40
1.0
 40
1.0
 40
1.0
 10
86.7841776859
 20
41.3766883483
 30
0.0
 10
86.8245300624
 20
41.3868157525
 30
0.0
 10
86.8813084117
 20
41.4012500736
 30
0.0
 10
86.9517348939
 20
41.4194919932
 30
0.0
 10
86.9927267958
 20
41.4301807409
 30
0.0
 10
87.0250744396
 20
41.4387557909
 30
0.0
 10
87.0465537924
 20
41.444328099
 30
0.0
 10
87.0590421564
 20
41.4478036191
 30
0.0
 10
87.0650956705
 20
41.4491549905
 30
0.0
 10
87.0684408771
 20
41.4505114099
 30
0.0
 10
87.0702651684
 20
41.4505180801
 30
0.0
 10
87.070568392
 20
41.4507996282
 30
0.0
  0
SPLINE
  5
34B
100
AcDbEntity
  8
RUNDUNGEN
100
AcDbSpline
 62
7
  6
CONTINUOUS
 70
0
 71
3
 72
16
 73
12
 74
0
 42
0.0000001
 43
0.0000001
 44
0.0000000001
 40
0.0
 40
0.0
 40
0.0
 40
0.0
 40
0.008411292
 40
0.0240920058
 40
0.0813509778
 40
0.1727592595
 40
0.295457106
 40
0.44520131
 40
0.6167033191
 40
0.8038523001
 40
1.0
 40
1.0
 40
1.0
 40
1.0
 10
104.75
 20
96.5120104016
 30
0.0
 10
104.75
 20
96.5093319676
 30
0.0
 10
104.7436741695
 20
96.5029875244
 30
0.0
 10
104.7201000322
 20
96.4940159419
 30
0.0
 10
104.6679857393
 20
96.483098953
 30
0.0
 10
104.5826472033
 20
96.4724238763
 30
0.0
 10
104.4670174441
 20
96.4623963185
 30
0.0
 10
104.3259524292
 20
96.454036625
 30
0.0
 10
104.1641629837
 20
96.4475498457
 30
0.0
 10
103.9875487542
 20
96.443289343
 30
0.0
 10
103.8654951553
 20
96.4420114307
 30
0.0
 10
103.8030356654
 20
96.441778191
 30
0.0
  0
SPLINE
  5
34C
100
AcDbEntity
  8
RUNDUNGEN
100
AcDbSpline
 62
7
  6
CONTINUOUS
 70
0
 71
3
 72
12
 73
8
 74
0
 42
0.0000001
 43
0.0000001
 44
0.0000000001
 40
0.0
 40
0.0
 40
0.0
 40
0.0
 40
0.1682122067
 40
0.2733592401
 40
0.3935473291
 40
0.6759678301
 40
1.0
 40
1.0
 40
1.0
 40
1.0
 10
87.270568392
 20
50.1726984288
 30
0.0
 10
87.2706052317
 20
50.2576589834
 30
0.0
 10
87.2102889976
 20
50.3937701138
 30
0.0
 10
87.0792439737
 20
50.5422956348
 30
0.0
 10
86.8787008434
 20
50.704681792
 30
0.0
 10
86.5424077778
 20
50.8644175828
 30
0.0
 10
86.2342304344
 20
50.9124299914
 30
0.0
 10
86.070568392
 20
50.912364994
 30
0.0
  0
LINE
  5
34D
100
AcDbEntity
  8
RUNDUNGEN
100
AcDbLine
 62
7
  6
CONTINUOUS
 10
103.7500001111
 20
95.3128470012
 11
101.9985773855
 21
89.3531250006
  0
SPLINE
  5
34E
100
AcDbEntity
  8
RUNDUNGEN
100
AcDbSpline
 62
7
  6
CONTINUOUS
 70
0
 71
3
 72
13
 73
9
 74
0
 42
0.0000001
 43
0.0000001
 44
0.0000000001
 40
0.0
 40
0.0
 40
0.0
 40
0.0
 40
0.2500967266
 40
0.5000304667
 40
0.6250527173
 40
0.7500562168
 40
0.8750333889
 40
1.0
 40
1.0
 40
1.0
 40
1.0
 10
103.7499938642
 20
96.5119694908
 30
0.0
 10
102.9429774099
 20
95.9025510668
 30
0.0
 10
101.3382863622
 20
94.6721858926
 30
0.0
 10
99.4846540199
 20
92.9394460648
 30
0.0
 10
98.2105822916
 20
91.3652539714
 30
0.0
 10
97.3963579888
 20
90.0811724584
 30
0.0
 10
96.7661730706
 20
88.6964816931
 30
0.0
 10
96.4989267536
 20
87.7155711967
 30
0.0
 10
96.4111664662
 20
87.2179462949
 30
0.0
  0
SPLINE
  5
34F
100
AcDbEntity
  8
RUNDUNGEN
100
AcDbSpline
 62
7
  6
CONTINUOUS
 70
0
 71
3
 72
13
 73
9
 74
0
 42
0.0000001
 43
0.0000001
 44
0.0000000001
 40
0.0
 40
0.0
 40
0.0
 40
0.0
 40
0.0878599048
 40
0.1825702597
 40
0.2884781474
 40
0.4076954501
 40
0.6847865082
 40
1.0
 40
1.0
 40
1.0
 40
1.0
 10
73.7570058085
 20
53.0590297745
 30
0.0
 10
73.7652453653
 20
53.0282810634
 30
0.0
 10
73.7938997208
 20
52.9670673088
 30
0.0
 10
73.8662669302
 20
52.8897799881
 30
0.0
 10
73.9653056732
 20
52.8276748616
 30
0.0
 10
74.1363657542
 20
52.7630579242
 30
0.0
 10
74.3957216509
 20
52.7321075442
 30
0.0
 10
74.6107033632
 20
52.752788413
 30
0.0
 10
74.7229316348
 20
52.7739643833
 30
0.0
  0
SPLINE
  5
350
100
AcDbEntity
  8
RUNDUNGEN
100
AcDbSpline
 62
7
  6
CONTINUOUS
 70
0
 71
3
 72
9
 73
5
 74
0
 42
0.0000001
 43
0.0000001
 44
0.0000000001
 40
0.0
 40
0.0
 40
0.0
 40
0.0
 40
0.3326062583
 40
1.0
 40
1.0
 40
1.0
 40
1.0
 10
77.8705704781
 20
49.4276672794
 30
0.0
 10
77.8726687802
 20
49.4238825211
 30
0.0
 10
77.8792575492
 20
49.4130796856
 30
0.0
 10
77.8894867866
 20
49.4019499219
 30
0.0
 10
77.8980880365
 20
49.4007584406
 30
0.0
  0
LINE
  5
351
100
AcDbEntity
  8
RUNDUNGEN
100
AcDbLine
 62
7
  6
CONTINUOUS
 10
95.8868770121
 20
109.352761752
 11
97.0330537797
 21
116.8531003937
  0
LINE
  5
352
100
AcDbEntity
  8
RUNDUNGEN
100
AcDbLine
 62
7
  6
CONTINUOUS
 10
61.07249024
 20
116.8531026826
 11
62.8141531758
 21
109.353125
  0
SPLINE
  5
353
100
AcDbEntity
  8
RUNDUNGEN
100
AcDbSpline
 62
7
  6
CONTINUOUS
 70
0
 71
3
 72
9
 73
5
 74
0
 42
0.0000001
 43
0.0000001
 44
0.0000000001
 40
0.0
 40
0.0
 40
0.0
 40
0.0
 40
0.1852125293
 40
1.0
 40
1.0
 40
1.0
 40
1.0
 10
87.2430372452
 20
49.4007502333
 30
0.0
 10
87.2454417662
 20
49.4010839466
 30
0.0
 10
87.2579728376
 20
49.4060214246
 30
0.0
 10
87.2653793427
 20
49.4183207996
 30
0.0
 10
87.2705580137
 20
49.4276605088
 30
0.0
  0
SPLINE
  5
354
100
AcDbEntity
  8
RUNDUNGEN
100
AcDbSpline
 62
7
  6
CONTINUOUS
 70
0
 71
3
 72
13
 73
9
 74
0
 42
0.0000001
 43
0.0000001
 44
0.0000000001
 40
0.0
 40
0.0
 40
0.0
 40
0.0
 40
0.0819057574
 40
0.1721635311
 40
0.2759634245
 40
0.3954852506
 40
0.6777612832
 40
1.0
 40
1.0
 40
1.0
 40
1.0
 10
91.4785339465
 20
53.484885287
 30
0.0
 10
91.4732519227
 20
53.4549323253
 30
0.0
 10
91.4491691804
 20
53.3937979986
 30
0.0
 10
91.3800465576
 20
53.3160783022
 30
0.0
 10
91.2817204146
 20
53.2518236233
 30
0.0
 10
91.1066705866
 20
53.1815712714
 30
0.0
 10
90.8377945545
 20
53.1405314418
 30
0.0
 10
90.6123380502
 20
53.1512000066
 30
0.0
 10
90.4937328563
 20
53.1670612264
 30
0.0
  0
LINE
  5
355
100
AcDbEntity
  8
RUNDUNGEN
100
AcDbLine
 62
7
  6
CONTINUOUS
 10
59.1480134214
 20
101.853125
 11
56.6024960627
 21
109.353125
  0
ELLIPSE
  5
356
100
AcDbEntity
  8
0
100
AcDbEllipse
 62
7
  6
CONTINUOUS
 10
71.9633283987
 20
159.1406249772
 30
0.0
 11
0.0
 21
3.195
 31
0.0
 40
0.2679491924
 41
-3.1415926536
 42
-0.0
  0
ELLIPSE
  5
357
100
AcDbEntity
  8
0
100
AcDbEllipse
 62
7
  6
CONTINUOUS
 10
67.3546022889
 20
159.1406249772
 30
0.0
 11
0.0
 21
3.195
 31
0.0
 40
0.2679491924
 41
-0.0
 42
3.1415926536
  0
ELLIPSE
  5
358
100
AcDbEntity
  8
0
100
AcDbEllipse
 62
7
  6
CONTINUOUS
 10
95.6166246676
 20
159.1406249772
 30
0.0
 11
0.0
 21
3.195
 31
0.0
 40
0.1763269807
 41
-3.1415926536
 42
0.0
  0
ENDSEC
  0
SECTION
  2
OBJECTS
  0
DICTIONARY
  5
C
100
AcDbDictionary
280
0
281
1
  3
ACAD_GROUP
350
D
  3
ACAD_MLINESTYLE
350
17
  3
ACAD_LAYOUT
350
1A
  3
ACAD_PLOTSETTINGS
350
19
  3
ACAD_PLOTSTYLENAME
350
E
  0
DICTIONARY
  5
D
102
{ACAD_REACTORS
330
C
102
}
100
AcDbDictionary
280
0
281
1
  0
ACDBDICTIONARYWDFLT
  5
E
102
{ACAD_REACTORS
330
C
102
}
100
AcDbDictionary
281
1
  3
Normal
350
F
100
AcDbDictionaryWithDefault
340
F
  0
DICTIONARY
  5
17
102
{ACAD_REACTORS
330
C
102
}
100
AcDbDictionary
280
0
281
1
  3
Standard
350
18
  0
DICTIONARY
  5
19
102
{ACAD_REACTORS
330
C
102
}
100
AcDbDictionary
281
1
  0
DICTIONARY
  5
1A
102
{ACAD_REACTORS
330
C
102
}
100
AcDbDictionary
281
1
  3
Model
350
359
  3
Layout1
350
35A
  0
ACDBPLACEHOLDER
  5
F
102
{ACAD_REACTORS
330
E
102
}
  0
MLINESTYLE
  5
18
102
{ACAD_REACTORS
330
17
102
}
100
AcDbMlineStyle
  2
STANDARD
 70
0
  3

 62
256
 51
90.0
 52
90.0
 71
2
 49
0.5
 62
256
  6
BYLAYER
 49
-0.5
 62
256
  6
BYLAYER
  0
LAYOUT
  5
359
102
{ACAD_REACTORS
330
1A
102
}
100
AcDbPlotSettings
  1

  2
none_device
  4
ISO_A4_(297.00_x_210.00_MM)
  6

 40
0.0
 41
0.0
 42
0.0
 43
0.0
 44
297.0
 45
210.0
 46
0.0
 47
0.0
 48
0.0
 49
0.0
140
0.0
141
0.0
142
1.0
143
1.0
 70
1024
 72
1
 73
0
 74
0
  7

 75
0
147
1.0
148
0.0
149
0.0
100
AcDbLayout
  1
Model
 70
0
 71
0
 10
0.0
 20
0.0
 11
297.0
 21
210.0
 12
0.0
 22
0.0
 32
0.0
 14
0.0
 24
0.0
 34
0.0
 15
0.0
 25
0.0
 35
0.0
146
0.0
 13
0.0
 23
0.0
 33
0.0
 16
1.0
 26
0.0
 36
0.0
 17
0.0
 27
1.0
 37
0.0
 76
0
330
212
345
0
346
0
  0
LAYOUT
  5
35A
102
{ACAD_REACTORS
330
1A
102
}
100
AcDbPlotSettings
  1

  2
none_device
  4
ISO_A4_(297.00_x_210.00_MM)
  6

 40
0.0
 41
0.0
 42
0.0
 43
0.0
 44
297.0
 45
210.0
 46
0.0
 47
0.0
 48
0.0
 49
0.0
140
0.0
141
0.0
142
1.0
143
1.0
 70
0
 72
1
 73
0
 74
0
  7

 75
0
147
1.0
148
0.0
149
0.0
100
AcDbLayout
  1
Layout1
 70
0
 71
1
 10
0.0
 20
0.0
 11
297.0
 21
210.0
 12
0.0
 22
0.0
 32
0.0
 14
0.0
 24
0.0
 34
0.0
 15
0.0
 25
0.0
 35
0.0
146
0.0
 13
0.0
 23
0.0
 33
0.0
 16
1.0
 26
0.0
 36
0.0
 17
0.0
 27
1.0
 37
0.0
 76
0
330
213
345
0
346
0
  0
ENDSEC
  0
EOF
