999
DXF file: S:\Prolink\03_Konstruktion\CAD-Plots\Internet\2D_neu\S9\s9-57_grt_sml_f6_w50.dxf
999
Pro/ENGINEER 2012230 by Parametric Technology Corporation
  0
SECTION
  2
HEADER
  9
$ACADVER
  1
AC1021
  9
$DWGCODEPAGE
  3
ANSI_1252
  9
$EXTMAX
 10
297.0
 20
210.0
 30
0.0
  9
$EXTMIN
 10
0.0
 20
0.0
 30
0.0
  9
$LIMMIN
 10
0.0
 20
0.0
  9
$LIMMAX
 10
297.0
 20
210.0
  9
$VIEWCTR
 10
148.5
 20
105.0
  9
$VIEWSIZE
 40
210.0
  9
$CLAYER
  8
0
  9
$LTSCALE
 40
16.335
  9
$CELTYPE
  6
BYLAYER
  9
$DIMSCALE
 40
1.0
  9
$DIMASZ
 40
3.5
  9
$DIMEXO
 40
0.0
  9
$DIMDLI
 40
11.286
  9
$DIMEXE
 40
1.5
  9
$DIMCEN
 40
2.673
  9
$DIMLFAC
 40
1.0
  9
$DIMBLK
  1
_FILLED
  9
$DIMTXT
 40
3.5
  9
$DIMTOL
 70
1
  9
$DIMLIM
 70
0
  9
$DIMTFAC
 40
1.0
  9
$DIMTP
 40
0.005
  9
$DIMTM
 40
0.005
  9
$DIMGAP
 40
0.625
  9
$DIMDSEP
 70
46
  9
$PDMODE
 70
3
  9
$PDSIZE
 40
0.3125
  9
$HANDSEED
  5
359
  9
$TILEMODE
 70
1
  9
$MEASUREMENT
 70
1
  9
$INSUNITS
 70
4
  0
ENDSEC
  0
SECTION
  2
CLASSES
  0
CLASS
  1
ACDBDICTIONARYWDFLT
  2
AcDbDictionaryWithDefault
  3
AutoCAD 2000
 90
0
 91
1
280
0
281
0
  0
CLASS
  1
ACDBPLACEHOLDER
  2
AcDbPlaceHolder
  3
AutoCAD 2000
 90
0
 91
1
280
0
281
0
  0
CLASS
  1
LAYOUT
  2
AcDbLayout
  3
AutoCAD 2000
 90
0
 91
0
280
0
281
0
  0
ENDSEC
  0
SECTION
  2
TABLES
  0
TABLE
  2
VPORT
  5
8
100
AcDbSymbolTable
 70
2
  0
VPORT
  5
1F4
100
AcDbSymbolTableRecord
100
AcDbViewportTableRecord
  2
*ACTIVE
 70
0
 10
0.0
 20
0.0
 11
1.0
 21
1.0
 12
148.5
 22
105.0
 13
0.0
 23
0.0
 14
1.0
 24
1.0
 15
0.0
 25
0.0
 16
0.0
 26
0.0
 36
1.0
 17
0.0
 27
0.0
 37
0.0
 40
210.0
 41
1.4142857143
 42
50.0
 43
0.0
 44
0.0
 50
0.0
 51
0.0
 71
0
 72
100
 73
1
 74
1
 75
0
 76
0
 77
0
 78
0
  0
ENDTAB
  0
TABLE
  2
LTYPE
  5
5
100
AcDbSymbolTable
 70
6
  0
LTYPE
  5
14
100
AcDbSymbolTableRecord
100
AcDbLinetypeTableRecord
  2
BYBLOCK
 70
0
  3

 72
65
 73
0
 40
0.0
  0
LTYPE
  5
15
100
AcDbSymbolTableRecord
100
AcDbLinetypeTableRecord
  2
BYLAYER
 70
0
  3

 72
65
 73
0
 40
0.0
  0
LTYPE
  5
16
100
AcDbSymbolTableRecord
100
AcDbLinetypeTableRecord
  2
CONTINUOUS
 70
64
  3
Solid line
 72
65
 73
0
 40
0.0
  0
LTYPE
  5
1F5
100
AcDbSymbolTableRecord
100
AcDbLinetypeTableRecord
  2
CENTER
 70
64
  3
____ _ ____ _ ____ _ ____ _ ____ _ ____ _ ____
 72
65
 73
4
 40
0.6
 49
0.375
 74
0
 49
-0.075
 74
0
 49
0.075
 74
0
 49
-0.075
 74
0
  0
LTYPE
  5
1F6
100
AcDbSymbolTableRecord
100
AcDbLinetypeTableRecord
  2
HIDDEN
 70
64
  3
- - - - - - - - - - - - - - - - - - - -
 72
65
 73
2
 40
0.2
 49
0.1
 74
0
 49
-0.1
 74
0
  0
LTYPE
  5
1F7
100
AcDbSymbolTableRecord
100
AcDbLinetypeTableRecord
  2
PHANTOM
 70
64
  3
_____ _ _ _____ _ _ _____ _ _ _____
 72
65
 73
6
 40
0.8
 49
0.45
 74
0
 49
-0.05
 74
0
 49
0.1
 74
0
 49
-0.05
 74
0
 49
0.1
 74
0
 49
-0.05
 74
0
  0
LTYPE
  5
1F8
100
AcDbSymbolTableRecord
100
AcDbLinetypeTableRecord
  2
DOT
 70
64
  3
. . . . . . . . . . . . . . . . . . . .
 72
65
 73
2
 40
0.2
 49
0.1
 74
0
 49
-0.1
 74
0
  0
LTYPE
  5
1F9
100
AcDbSymbolTableRecord
100
AcDbLinetypeTableRecord
  2
DASHED
 70
64
  3
- - - - - - - - - - - - - - - - - - - -
 72
65
 73
2
 40
0.2
 49
0.1
 74
0
 49
-0.1
 74
0
  0
ENDTAB
  0
TABLE
  2
LAYER
  5
2
100
AcDbSymbolTable
 70
36
  0
LAYER
  5
10
100
AcDbSymbolTableRecord
100
AcDbLayerTableRecord
  2
0
 70
0
 62
7
  6
CONTINUOUS
370
-3
390
F
  0
LAYER
  5
1FA
100
AcDbSymbolTableRecord
100
AcDbLayerTableRecord
  2
DEFAULT_1
 70
0
 62
7
  6
CENTER
370
-3
390
F
  0
LAYER
  5
1FB
100
AcDbSymbolTableRecord
100
AcDbLayerTableRecord
  2
DEFAULT_2
 70
0
 62
8
  6
HIDDEN
370
-3
390
F
  0
LAYER
  5
1FC
100
AcDbSymbolTableRecord
100
AcDbLayerTableRecord
  2
DEFAULT_3
 70
0
 62
7
  6
PHANTOM
370
-3
390
F
  0
LAYER
  5
1FD
100
AcDbSymbolTableRecord
100
AcDbLayerTableRecord
  2
01___PRT_ALL_DTM_PLN
 70
0
 62
7
  6
CONTINUOUS
370
-3
390
F
  0
LAYER
  5
1FE
100
AcDbSymbolTableRecord
100
AcDbLayerTableRecord
  2
01___PRT_DEF_DTM_PLN
 70
0
 62
7
  6
CONTINUOUS
370
-3
390
F
  0
LAYER
  5
1FF
100
AcDbSymbolTableRecord
100
AcDbLayerTableRecord
  2
02___PRT_ALL_AXES
 70
0
 62
7
  6
CONTINUOUS
370
-3
390
F
  0
LAYER
  5
200
100
AcDbSymbolTableRecord
100
AcDbLayerTableRecord
  2
03___PRT_ALL_CURVES
 70
0
 62
7
  6
CONTINUOUS
370
-3
390
F
  0
LAYER
  5
201
100
AcDbSymbolTableRecord
100
AcDbLayerTableRecord
  2
04___PRT_ALL_DTM_PNT
 70
0
 62
7
  6
CONTINUOUS
370
-3
390
F
  0
LAYER
  5
202
100
AcDbSymbolTableRecord
100
AcDbLayerTableRecord
  2
05___PRT_ALL_DTM_CSYS
 70
0
 62
7
  6
CONTINUOUS
370
-3
390
F
  0
LAYER
  5
203
100
AcDbSymbolTableRecord
100
AcDbLayerTableRecord
  2
05___PRT_DEF_DTM_CSYS
 70
0
 62
7
  6
CONTINUOUS
370
-3
390
F
  0
LAYER
  5
204
100
AcDbSymbolTableRecord
100
AcDbLayerTableRecord
  2
06___PRT_ALL_SURFS
 70
0
 62
7
  6
CONTINUOUS
370
-3
390
F
  0
LAYER
  5
205
100
AcDbSymbolTableRecord
100
AcDbLayerTableRecord
  2
ALLE
 70
0
 62
7
  6
CONTINUOUS
370
-3
390
F
  0
LAYER
  5
206
100
AcDbSymbolTableRecord
100
AcDbLayerTableRecord
  2
AUSFORMSCHRAEGEN
 70
0
 62
7
  6
CONTINUOUS
370
-3
390
F
  0
LAYER
  5
207
100
AcDbSymbolTableRecord
100
AcDbLayerTableRecord
  2
BEZUGSACHSEN
 70
0
 62
7
  6
CONTINUOUS
370
-3
390
F
  0
LAYER
  5
208
100
AcDbSymbolTableRecord
100
AcDbLayerTableRecord
  2
BEZUGSEBENE
 70
0
 62
7
  6
CONTINUOUS
370
-3
390
F
  0
LAYER
  5
209
100
AcDbSymbolTableRecord
100
AcDbLayerTableRecord
  2
BEZUGSEBENEN
 70
0
 62
7
  6
CONTINUOUS
370
-3
390
F
  0
LAYER
  5
20A
100
AcDbSymbolTableRecord
100
AcDbLayerTableRecord
  2
BEZUGSEBENEN-KES
 70
0
 62
7
  6
CONTINUOUS
370
-3
390
F
  0
LAYER
  5
20B
100
AcDbSymbolTableRecord
100
AcDbLayerTableRecord
  2
FLAECHEN
 70
0
 62
7
  6
CONTINUOUS
370
-3
390
F
  0
LAYER
  5
20C
100
AcDbSymbolTableRecord
100
AcDbLayerTableRecord
  2
KURVEN
 70
0
 62
7
  6
CONTINUOUS
370
-3
390
F
  0
LAYER
  5
20D
100
AcDbSymbolTableRecord
100
AcDbLayerTableRecord
  2
PARAMETER-BEMAßUNGEN
 70
0
 62
7
  6
CONTINUOUS
370
-3
390
F
  0
LAYER
  5
20E
100
AcDbSymbolTableRecord
100
AcDbLayerTableRecord
  2
RUNDUNGEN
 70
0
 62
7
  6
CONTINUOUS
370
-3
390
F
  0
LAYER
  5
20F
100
AcDbSymbolTableRecord
100
AcDbLayerTableRecord
  2
SAMMELFLÄCHEN
 70
0
 62
7
  6
CONTINUOUS
370
-3
390
F
  0
ENDTAB
  0
TABLE
  2
STYLE
  5
3
100
AcDbSymbolTable
 70
1
  0
STYLE
  5
11
100
AcDbSymbolTableRecord
100
AcDbTextStyleTableRecord
  2
STANDARD
 70
0
 40
0.0
 41
0.7
 50
0.0
 71
0
 42
0.2
  3
txt
  4

  0
STYLE
  5
210
100
AcDbSymbolTableRecord
100
AcDbTextStyleTableRecord
  2
TEXTSTYLE_1
 70
0
 40
0.0
 41
0.8
 50
0.0
 71
0
 42
0.2
  3
gdt
  4

  0
ENDTAB
  0
TABLE
  2
VIEW
  5
6
100
AcDbSymbolTable
 70
0
  0
ENDTAB
  0
TABLE
  2
UCS
  5
7
100
AcDbSymbolTable
 70
0
  0
ENDTAB
  0
TABLE
  2
APPID
  5
9
100
AcDbSymbolTable
 70
1
  0
APPID
  5
211
100
AcDbSymbolTableRecord
100
AcDbRegAppTableRecord
  2
ACAD
 70
0
  0
ENDTAB
  0
TABLE
  2
BLOCK_RECORD
  5
1
100
AcDbSymbolTable
 70
0
  0
BLOCK_RECORD
  5
212
100
AcDbSymbolTableRecord
100
AcDbBlockTableRecord
  2
*Model_Space
  0
BLOCK_RECORD
  5
213
100
AcDbSymbolTableRecord
100
AcDbBlockTableRecord
  2
*Paper_Space
  0
ENDTAB
  0
TABLE
  2
DIMSTYLE
  5
A
100
AcDbSymbolTable
 70
1
100
AcDbDimStyleTable
 71
0
  0
DIMSTYLE
105
214
100
AcDbSymbolTableRecord
100
AcDbDimStyleTableRecord
  2
STANDARD
 70
0
  3

  4

 40
1.0
 41
3.5
 42
0.0
 43
0.38
 44
1.5
 45
0.0
 46
0.0
 47
0.005
 48
0.005
140
3.5
141
0.09
142
0.0
143
25.4
144
1.0
145
0.0
146
1.0
147
0.625
 71
1.0
 72
0.0
 73
0
 74
0
 75
0
 76
0
 77
1
 78
8
170
0
171
2
172
0
173
0
174
0
175
0
176
0
177
0
178
5
270
2
271
3
272
3
273
2
274
2
275
0
280
0
281
0
282
0
283
1
284
8
285
0
286
0
287
3
288
0
340
11
278
46
  0
ENDTAB
  0
ENDSEC
  0
SECTION
  2
BLOCKS
  0
BLOCK
  5
20
100
AcDbEntity
  8
0
100
AcDbBlockBegin
  2
*Model_Space
 70
0
 10
0.0
 20
0.0
 30
0.0
  3
*Model_Space
  1

  0
ENDBLK
  5
21
100
AcDbEntity
  8
0
100
AcDbBlockEnd
  0
BLOCK
  5
1C
100
AcDbEntity
  8
0
100
AcDbBlockBegin
  2
*Paper_Space
 70
0
 10
0.0
 20
0.0
 30
0.0
  3
*Paper_Space
  1

  0
ENDBLK
  5
1D
100
AcDbEntity
  8
0
100
AcDbBlockEnd
  0
ENDSEC
  0
SECTION
  2
ENTITIES
  0
LINE
  5
215
100
AcDbEntity
  8
0
100
AcDbLine
 62
7
  6
CONTINUOUS
 10
0.0
 20
0.0
 11
0.0
 21
210.0
  0
LINE
  5
216
100
AcDbEntity
  8
0
100
AcDbLine
 62
7
  6
CONTINUOUS
 10
0.0
 20
0.0
 11
297.0
 21
0.0
  0
LINE
  5
217
100
AcDbEntity
  8
0
100
AcDbLine
 62
7
  6
CONTINUOUS
 10
0.0
 20
210.0
 11
297.0
 21
210.0
  0
LINE
  5
218
100
AcDbEntity
  8
0
100
AcDbLine
 62
7
  6
CONTINUOUS
 10
297.0
 20
0.0
 11
297.0
 21
210.0
  0
LINE
  5
219
100
AcDbEntity
  8
RUNDUNGEN
100
AcDbLine
 62
7
  6
CONTINUOUS
 10
54.75
 20
152.6406249772
 11
54.75
 21
165.6406249771
  0
LINE
  5
21A
100
AcDbEntity
  8
RUNDUNGEN
100
AcDbLine
 62
7
  6
CONTINUOUS
 10
55.75
 20
151.6406249772
 11
55.75
 21
166.6406249772
  0
LINE
  5
21B
100
AcDbEntity
  8
0
100
AcDbLine
 62
7
  6
CONTINUOUS
 10
91.0570257434
 20
151.6406249772
 11
73.7756572372
 21
151.6406249772
  0
LINE
  5
21C
100
AcDbEntity
  8
0
100
AcDbLine
 62
7
  6
CONTINUOUS
 10
58.6730484379
 20
151.6406249772
 11
55.75
 21
151.6406249772
  0
LINE
  5
21D
100
AcDbEntity
  8
RUNDUNGEN
100
AcDbLine
 62
7
  6
CONTINUOUS
 10
56.6024968333
 20
151.6406249772
 11
103.7499912534
 21
151.6406249772
  0
LINE
  5
21E
100
AcDbEntity
  8
0
100
AcDbLine
 62
7
  6
CONTINUOUS
 10
102.05
 20
151.6406249772
 11
103.75
 21
151.6406249772
  0
LINE
  5
21F
100
AcDbEntity
  8
RUNDUNGEN
100
AcDbLine
 62
7
  6
CONTINUOUS
 10
73.7569682457
 20
153.6860246355
 11
73.7569686142
 21
164.5952245607
  0
LINE
  5
220
100
AcDbEntity
  8
RUNDUNGEN
100
AcDbLine
 62
7
  6
CONTINUOUS
 10
60.3907403184
 20
152.6406220762
 11
72.8097314109
 21
152.6406249772
  0
LINE
  5
221
100
AcDbEntity
  8
RUNDUNGEN
100
AcDbLine
 62
7
  6
CONTINUOUS
 10
97.3959527969
 20
152.6406223937
 11
92.0418334964
 21
152.6406249772
  0
LINE
  5
222
100
AcDbEntity
  8
RUNDUNGEN
100
AcDbLine
 62
7
  6
CONTINUOUS
 10
79.070568392
 20
154.5627028992
 11
86.070568392
 21
154.5627028992
  0
LINE
  5
223
100
AcDbEntity
  8
RUNDUNGEN
100
AcDbLine
 62
7
  6
CONTINUOUS
 10
86.0705683919
 20
154.6406249772
 11
79.0705683921
 21
154.6406249772
  0
LINE
  5
224
100
AcDbEntity
  8
RUNDUNGEN
100
AcDbLine
 62
7
  6
CONTINUOUS
 10
86.1293919214
 20
154.8406249772
 11
79.0117448626
 21
154.8406249772
  0
LINE
  5
225
100
AcDbEntity
  8
RUNDUNGEN
100
AcDbLine
 62
7
  6
CONTINUOUS
 10
87.070568392
 20
155.6406249772
 11
86.9428373007
 21
155.6406249772
  0
LINE
  5
226
100
AcDbEntity
  8
RUNDUNGEN
100
AcDbLine
 62
7
  6
CONTINUOUS
 10
78.070568392
 20
155.6406249772
 11
78.1982994844
 21
155.6406249772
  0
LINE
  5
227
100
AcDbEntity
  8
RUNDUNGEN
100
AcDbLine
 62
7
  6
CONTINUOUS
 10
77.8705679326
 20
158.0857084308
 11
77.870568392
 21
155.7315340681
  0
LINE
  5
228
100
AcDbEntity
  8
RUNDUNGEN
100
AcDbLine
 62
7
  6
CONTINUOUS
 10
77.870568392
 20
162.5497158863
 11
77.8705685935
 21
160.1954899657
  0
LINE
  5
229
100
AcDbEntity
  8
RUNDUNGEN
100
AcDbLine
 62
7
  6
CONTINUOUS
 10
77.8981068128
 20
159.8436027892
 11
77.8981053476
 21
158.4376048746
  0
LINE
  5
22A
100
AcDbEntity
  8
RUNDUNGEN
100
AcDbLine
 62
7
  6
CONTINUOUS
 10
78.070568392
 20
155.6406249772
 11
78.070568392
 21
162.6406249772
  0
LINE
  5
22B
100
AcDbEntity
  8
RUNDUNGEN
100
AcDbLine
 62
7
  6
CONTINUOUS
 10
78.1982994844
 20
155.6406249772
 11
78.1982994844
 21
162.6406249772
  0
LINE
  5
22C
100
AcDbEntity
  8
RUNDUNGEN
100
AcDbLine
 62
7
  6
CONTINUOUS
 10
95.6166246676
 20
155.9456249772
 11
91.8002555022
 21
155.9456249772
  0
LINE
  5
22D
100
AcDbEntity
  8
0
100
AcDbLine
 62
7
  6
CONTINUOUS
 10
67.3546022889
 20
155.9456249772
 11
71.9633283987
 21
155.9456249772
  0
LINE
  5
22E
100
AcDbEntity
  8
RUNDUNGEN
100
AcDbLine
 62
7
  6
CONTINUOUS
 10
79.070568392
 20
163.7185470551
 11
79.070568392
 21
163.6406249772
  0
LINE
  5
22F
100
AcDbEntity
  8
RUNDUNGEN
100
AcDbLine
 62
7
  6
CONTINUOUS
 10
79.070568392
 20
154.5627028992
 11
79.070568392
 21
154.6406249772
  0
LINE
  5
230
100
AcDbEntity
  8
RUNDUNGEN
100
AcDbLine
 62
7
  6
CONTINUOUS
 10
77.8981053479
 20
158.4378164122
 11
78.070568392
 21
158.4378204862
  0
LINE
  5
231
100
AcDbEntity
  8
RUNDUNGEN
100
AcDbLine
 62
7
  6
CONTINUOUS
 10
87.243027738
 20
158.4378226221
 11
87.070568392
 21
158.4378236921
  0
LINE
  5
232
100
AcDbEntity
  8
RUNDUNGEN
100
AcDbLine
 62
7
  6
CONTINUOUS
 10
87.2430274158
 20
159.8434270077
 11
87.070568392
 21
159.8434262643
  0
LINE
  5
233
100
AcDbEntity
  8
RUNDUNGEN
100
AcDbLine
 62
7
  6
CONTINUOUS
 10
77.8981068126
 20
159.8434309138
 11
78.070568392
 21
159.8434278694
  0
LINE
  5
234
100
AcDbEntity
  8
0
100
AcDbLine
 62
7
  6
CONTINUOUS
 10
71.9633283987
 20
162.3356249772
 11
67.3546022889
 21
162.3356249772
  0
LINE
  5
235
100
AcDbEntity
  8
RUNDUNGEN
100
AcDbLine
 62
7
  6
CONTINUOUS
 10
91.8002540084
 20
162.3356249772
 11
95.6166246676
 21
162.3356249772
  0
LINE
  5
236
100
AcDbEntity
  8
RUNDUNGEN
100
AcDbLine
 62
7
  6
CONTINUOUS
 10
87.070568392
 20
162.6406249772
 11
86.9428372996
 21
162.6406249772
  0
LINE
  5
237
100
AcDbEntity
  8
RUNDUNGEN
100
AcDbLine
 62
7
  6
CONTINUOUS
 10
78.070568392
 20
162.6406249772
 11
78.1982994833
 21
162.6406249771
  0
LINE
  5
238
100
AcDbEntity
  8
RUNDUNGEN
100
AcDbLine
 62
7
  6
CONTINUOUS
 10
79.0117448626
 20
163.4406249772
 11
86.1293919214
 21
163.4406249772
  0
LINE
  5
239
100
AcDbEntity
  8
RUNDUNGEN
100
AcDbLine
 62
7
  6
CONTINUOUS
 10
79.0705683921
 20
163.6406249772
 11
86.0705683919
 21
163.6406249772
  0
LINE
  5
23A
100
AcDbEntity
  8
RUNDUNGEN
100
AcDbLine
 62
7
  6
CONTINUOUS
 10
86.070568392
 20
163.7185470551
 11
79.070568392
 21
163.7185470551
  0
LINE
  5
23B
100
AcDbEntity
  8
RUNDUNGEN
100
AcDbLine
 62
7
  6
CONTINUOUS
 10
86.070568392
 20
163.7185470551
 11
86.070568392
 21
163.6406249772
  0
LINE
  5
23C
100
AcDbEntity
  8
RUNDUNGEN
100
AcDbLine
 62
7
  6
CONTINUOUS
 10
86.070568392
 20
154.5627028992
 11
86.070568392
 21
154.6406249772
  0
LINE
  5
23D
100
AcDbEntity
  8
RUNDUNGEN
100
AcDbLine
 62
7
  6
CONTINUOUS
 10
86.9428372996
 20
162.6406249772
 11
86.9428372996
 21
155.6406249772
  0
LINE
  5
23E
100
AcDbEntity
  8
RUNDUNGEN
100
AcDbLine
 62
7
  6
CONTINUOUS
 10
97.3959550591
 20
165.6406269262
 11
92.0418334964
 21
165.6406249772
  0
LINE
  5
23F
100
AcDbEntity
  8
RUNDUNGEN
100
AcDbLine
 62
7
  6
CONTINUOUS
 10
72.8097314109
 20
165.6406249772
 11
60.3907500599
 21
165.640625879
  0
LINE
  5
240
100
AcDbEntity
  8
RUNDUNGEN
100
AcDbLine
 62
7
  6
CONTINUOUS
 10
87.070568392
 20
162.6406249772
 11
87.070568392
 21
155.6406249772
  0
LINE
  5
241
100
AcDbEntity
  8
RUNDUNGEN
100
AcDbLine
 62
7
  6
CONTINUOUS
 10
87.243027738
 20
158.437720623
 11
87.2430274158
 21
159.8435136341
  0
LINE
  5
242
100
AcDbEntity
  8
RUNDUNGEN
100
AcDbLine
 62
7
  6
CONTINUOUS
 10
87.270568392
 20
155.7315340681
 11
87.2705673528
 21
158.0858340996
  0
LINE
  5
243
100
AcDbEntity
  8
RUNDUNGEN
100
AcDbLine
 62
7
  6
CONTINUOUS
 10
87.270567285
 20
160.1954221471
 11
87.270568392
 21
162.5497158863
  0
LINE
  5
244
100
AcDbEntity
  8
0
100
AcDbLine
 62
7
  6
CONTINUOUS
 10
91.0570257434
 20
166.6406249772
 11
73.7756572372
 21
166.6406249772
  0
LINE
  5
245
100
AcDbEntity
  8
RUNDUNGEN
100
AcDbLine
 62
7
  6
CONTINUOUS
 10
103.7499938642
 20
166.6406249772
 11
56.6024960627
 21
166.6406249772
  0
LINE
  5
246
100
AcDbEntity
  8
0
100
AcDbLine
 62
7
  6
CONTINUOUS
 10
55.75
 20
166.6406249772
 11
56.6024960627
 21
166.6406249772
  0
LINE
  5
247
100
AcDbEntity
  8
RUNDUNGEN
100
AcDbLine
 62
7
  6
CONTINUOUS
 10
91.6374516644
 20
158.9702126681
 11
91.6369287151
 21
159.1401242969
  0
LINE
  5
248
100
AcDbEntity
  8
RUNDUNGEN
100
AcDbLine
 62
7
  6
CONTINUOUS
 10
91.4785884946
 20
153.4797079679
 11
91.4785777075
 21
164.8015140501
  0
LINE
  5
249
100
AcDbEntity
  8
RUNDUNGEN
100
AcDbLine
 62
7
  6
CONTINUOUS
 10
91.6369287145
 20
159.1401242971
 11
91.6373570016
 21
159.2948875687
  0
LWPOLYLINE
  5
24A
100
AcDbEntity
  8
RUNDUNGEN
100
AcDbPolyline
 62
7
  6
CONTINUOUS
 90
11
 70
0
 10
91.6373570016
 20
159.2948875687
 10
91.6414349007
 20
159.638408869
 10
91.6497060506
 20
159.9751221249
 10
91.6619111112
 20
160.3029528872
 10
91.6778133172
 20
160.6200484452
 10
91.6971603843
 20
160.9246575185
 10
91.7196013145
 20
161.2152365641
 10
91.7447958321
 20
161.4902193772
 10
91.7723866188
 20
161.7482937103
 10
91.8019058162
 20
161.9881471649
 10
91.8328886287
 20
162.2086915044
  0
LINE
  5
24B
100
AcDbEntity
  8
RUNDUNGEN
100
AcDbLine
 62
7
  6
CONTINUOUS
 10
91.8328886287
 20
162.2086915044
 11
91.8526709505
 21
162.3356249772
  0
LINE
  5
24C
100
AcDbEntity
  8
RUNDUNGEN
100
AcDbLine
 62
7
  6
CONTINUOUS
 10
91.8526720471
 20
155.9456249772
 11
91.8339837121
 21
156.0652707835
  0
LWPOLYLINE
  5
24D
100
AcDbEntity
  8
RUNDUNGEN
100
AcDbPolyline
 62
7
  6
CONTINUOUS
 90
11
 70
0
 10
91.8339837121
 20
156.0652707835
 10
91.802981828
 20
156.284943104
 10
91.7734286438
 20
156.5239199881
 10
91.7457830236
 20
156.7811151324
 10
91.7205153579
 20
157.0552078681
 10
91.6979874008
 20
157.3448896484
 10
91.6785330089
 20
157.6486028866
 10
91.6625035994
 20
157.9648028421
 10
91.6501553283
 20
158.2917384439
 10
91.6417180527
 20
158.6275649191
 10
91.6374516644
 20
158.9702126681
  0
LINE
  5
24E
100
AcDbEntity
  8
RUNDUNGEN
100
AcDbLine
 62
7
  6
CONTINUOUS
 10
103.7500001111
 20
166.4807573797
 11
103.7499995029
 21
151.8005350446
  0
LINE
  5
24F
100
AcDbEntity
  8
RUNDUNGEN
100
AcDbLine
 62
7
  6
CONTINUOUS
 10
104.75
 20
165.6406249772
 11
104.75
 21
152.6406249772
  0
LINE
  5
250
100
AcDbEntity
  8
RUNDUNGEN
100
AcDbLine
 62
7
  6
CONTINUOUS
 10
189.1690694942
 20
151.6406249772
 11
241.6685697204
 21
151.6406249772
  0
LINE
  5
251
100
AcDbEntity
  8
RUNDUNGEN
100
AcDbLine
 62
7
  6
CONTINUOUS
 10
195.5792633093
 20
152.6406220762
 11
241.9275690451
 21
152.6406249772
  0
LINE
  5
252
100
AcDbEntity
  8
RUNDUNGEN
100
AcDbLine
 62
7
  6
CONTINUOUS
 10
249.0941942405
 20
160.1955078293
 11
249.2922112159
 21
160.2236390668
  0
LINE
  5
253
100
AcDbEntity
  8
RUNDUNGEN
100
AcDbLine
 62
7
  6
CONTINUOUS
 10
256.06875
 20
154.6406249772
 11
247.7679302728
 21
154.6406249772
  0
LINE
  5
254
100
AcDbEntity
  8
RUNDUNGEN
100
AcDbLine
 62
7
  6
CONTINUOUS
 10
256.26875
 20
154.8406249772
 11
255.7335576113
 21
154.8406249772
  0
LINE
  5
255
100
AcDbEntity
  8
RUNDUNGEN
100
AcDbLine
 62
7
  6
CONTINUOUS
 10
248.527278906
 20
155.6405292386
 11
255.4511816794
 21
155.6406249772
  0
LINE
  5
256
100
AcDbEntity
  8
0
100
AcDbLine
 62
7
  6
CONTINUOUS
 10
221.56875
 20
155.9456249772
 11
238.76875
 21
155.9456249772
  0
LINE
  5
257
100
AcDbEntity
  8
RUNDUNGEN
100
AcDbLine
 62
7
  6
CONTINUOUS
 10
249.1211157984
 20
158.4378164122
 11
249.3192086956
 21
158.4378204862
  0
LINE
  5
258
100
AcDbEntity
  8
RUNDUNGEN
100
AcDbLine
 62
7
  6
CONTINUOUS
 10
249.121116002
 20
159.8434309138
 11
249.3192126005
 21
159.8434278694
  0
LINE
  5
259
100
AcDbEntity
  8
0
100
AcDbLine
 62
7
  6
CONTINUOUS
 10
238.76875
 20
162.3356249772
 11
221.56875
 21
162.3356249772
  0
LINE
  5
25A
100
AcDbEntity
  8
RUNDUNGEN
100
AcDbLine
 62
7
  6
CONTINUOUS
 10
248.5272790888
 20
162.6407203026
 11
255.4511816789
 21
162.6406249771
  0
LINE
  5
25B
100
AcDbEntity
  8
RUNDUNGEN
100
AcDbLine
 62
7
  6
CONTINUOUS
 10
255.7335576113
 20
163.4406249772
 11
256.26875
 21
163.4406249772
  0
LINE
  5
25C
100
AcDbEntity
  8
RUNDUNGEN
100
AcDbLine
 62
7
  6
CONTINUOUS
 10
247.7679302728
 20
163.6406249772
 11
256.06875
 21
163.6406249772
  0
LINE
  5
25D
100
AcDbEntity
  8
RUNDUNGEN
100
AcDbLine
 62
7
  6
CONTINUOUS
 10
249.0941946323
 20
158.085744883
 11
249.2922108702
 21
158.0576148086
  0
LINE
  5
25E
100
AcDbEntity
  8
RUNDUNGEN
100
AcDbLine
 62
7
  6
CONTINUOUS
 10
241.9275690451
 20
165.6406249772
 11
195.5792996649
 21
165.640625879
  0
LINE
  5
25F
100
AcDbEntity
  8
RUNDUNGEN
100
AcDbLine
 62
7
  6
CONTINUOUS
 10
241.6685536151
 20
166.6406249772
 11
189.16875
 21
166.6406249772
  0
LINE
  5
260
100
AcDbEntity
  8
RUNDUNGEN
100
AcDbLine
 62
7
  6
CONTINUOUS
 10
248.3491765707
 20
162.5497158873
 11
248.5273212798
 21
162.6406249771
  0
LINE
  5
261
100
AcDbEntity
  8
RUNDUNGEN
100
AcDbLine
 62
7
  6
CONTINUOUS
 10
248.349176571
 20
155.7315340676
 11
248.5273212798
 21
155.6406249772
  0
LINE
  5
262
100
AcDbEntity
  8
RUNDUNGEN
100
AcDbLine
 62
7
  6
CONTINUOUS
 10
245.4627050396
 20
153.6860246355
 11
245.4627064145
 21
164.5952245607
  0
LINE
  5
263
100
AcDbEntity
  8
RUNDUNGEN
100
AcDbLine
 62
7
  6
CONTINUOUS
 10
249.121116002
 20
159.8436027892
 11
249.1211157983
 21
158.4376048746
  0
LINE
  5
264
100
AcDbEntity
  8
RUNDUNGEN
100
AcDbLine
 62
7
  6
CONTINUOUS
 10
249.3192126005
 20
159.8434278694
 11
249.3192086956
 21
158.4378204862
  0
LINE
  5
265
100
AcDbEntity
  8
RUNDUNGEN
100
AcDbLine
 62
7
  6
CONTINUOUS
 10
255.2646952053
 20
155.6406249769
 11
255.2646952053
 21
162.6406249774
  0
LINE
  5
266
100
AcDbEntity
  8
RUNDUNGEN
100
AcDbLine
 62
7
  6
CONTINUOUS
 10
255.4511816794
 20
155.6406249772
 11
255.4511816794
 21
162.6406249772
  0
LINE
  5
267
100
AcDbEntity
  8
0
100
AcDbLine
 62
7
  6
CONTINUOUS
 10
256.26875
 20
154.8406249772
 11
256.26875
 21
163.4406249772
  0
LINE
  5
268
100
AcDbEntity
  8
RUNDUNGEN
100
AcDbLine
 62
7
  6
CONTINUOUS
 10
86.0707026221
 20
49.9039447272
 11
79.0704343519
 21
49.9039447272
  0
LINE
  5
269
100
AcDbEntity
  8
RUNDUNGEN
100
AcDbLine
 62
7
  6
CONTINUOUS
 10
86.070568392
 20
50.062364994
 11
79.070568392
 21
50.062364994
  0
LINE
  5
26A
100
AcDbEntity
  8
RUNDUNGEN
100
AcDbLine
 62
7
  6
CONTINUOUS
 10
54.75
 20
115.003125
 11
54.75
 21
102.003125
  0
LINE
  5
26B
100
AcDbEntity
  8
RUNDUNGEN
100
AcDbLine
 62
7
  6
CONTINUOUS
 10
55.75
 20
101.003125
 11
55.75
 21
116.003125
  0
LINE
  5
26C
100
AcDbEntity
  8
RUNDUNGEN
100
AcDbLine
 62
7
  6
CONTINUOUS
 10
91.057086349
 20
56.0034687113
 11
73.775604616
 21
56.0033213849
  0
LINE
  5
26D
100
AcDbEntity
  8
RUNDUNGEN
100
AcDbLine
 62
7
  6
CONTINUOUS
 10
72.8097314109
 20
55.7443059549
 11
73.7756572372
 21
56.003125
  0
LINE
  5
26E
100
AcDbEntity
  8
RUNDUNGEN
100
AcDbLine
 62
7
  6
CONTINUOUS
 10
92.0418334964
 20
55.8294768223
 11
91.0570257436
 21
56.003125001
  0
LINE
  5
26F
100
AcDbEntity
  8
RUNDUNGEN
100
AcDbLine
 62
7
  6
CONTINUOUS
 10
73.7569686142
 20
52.2091685855
 11
60.3907500599
 21
102.0925753351
  0
LINE
  5
270
100
AcDbEntity
  8
RUNDUNGEN
100
AcDbLine
 62
7
  6
CONTINUOUS
 10
73.775604616
 20
56.0033213849
 11
61.3566800727
 21
102.3513787979
  0
LINE
  5
271
100
AcDbEntity
  8
RUNDUNGEN
100
AcDbLine
 62
7
  6
CONTINUOUS
 10
62.8141531758
 20
108.503125
 11
69.3930867264
 21
83.9502107294
  0
LINE
  5
272
100
AcDbEntity
  8
RUNDUNGEN
100
AcDbLine
 62
7
  6
CONTINUOUS
 10
62.0384118595
 20
115.2619343109
 11
70.3590125527
 21
84.2090297745
  0
LINE
  5
273
100
AcDbEntity
  8
RUNDUNGEN
100
AcDbLine
 62
7
  6
CONTINUOUS
 10
75.1886416841
 20
80.503125
 11
75.1886416841
 21
79.503125
  0
LINE
  5
274
100
AcDbEntity
  8
RUNDUNGEN
100
AcDbLine
 62
7
  6
CONTINUOUS
 10
86.070568392
 20
42.1294712335
 11
86.1293919213
 21
41.9383173886
  0
LINE
  5
275
100
AcDbEntity
  8
RUNDUNGEN
100
AcDbLine
 62
7
  6
CONTINUOUS
 10
77.870568392
 20
49.3226984288
 11
77.8705685935
 21
48.5776782218
  0
LINE
  5
276
100
AcDbEntity
  8
RUNDUNGEN
100
AcDbLine
 62
7
  6
CONTINUOUS
 10
78.070568392
 20
49.1445959112
 11
78.070568392
 21
42.4071797947
  0
LINE
  5
277
100
AcDbEntity
  8
RUNDUNGEN
100
AcDbLine
 62
7
  6
CONTINUOUS
 10
79.070568392
 20
50.062364994
 11
79.0705683921
 21
42.1294712335
  0
LINE
  5
278
100
AcDbEntity
  8
RUNDUNGEN
100
AcDbLine
 62
7
  6
CONTINUOUS
 10
75.1886416841
 20
79.503125
 11
85.7388519752
 21
79.503125
  0
LINE
  5
279
100
AcDbEntity
  8
RUNDUNGEN
100
AcDbLine
 62
7
  6
CONTINUOUS
 10
75.1886416841
 20
80.503125
 11
85.7388519752
 21
80.503125
  0
LINE
  5
27A
100
AcDbEntity
  8
RUNDUNGEN
100
AcDbLine
 62
7
  6
CONTINUOUS
 10
85.7388519752
 20
80.503125
 11
85.7388519752
 21
79.503125
  0
LINE
  5
27B
100
AcDbEntity
  8
RUNDUNGEN
100
AcDbLine
 62
7
  6
CONTINUOUS
 10
86.0705683919
 20
42.1294712335
 11
86.070568392
 21
50.062364994
  0
LINE
  5
27C
100
AcDbEntity
  8
RUNDUNGEN
100
AcDbLine
 62
7
  6
CONTINUOUS
 10
87.070568392
 20
42.4071797947
 11
87.070568392
 21
49.1445960941
  0
LINE
  5
27D
100
AcDbEntity
  8
RUNDUNGEN
100
AcDbLine
 62
7
  6
CONTINUOUS
 10
87.270567285
 20
48.5776685878
 11
87.270568392
 21
49.3226984288
  0
LINE
  5
27E
100
AcDbEntity
  8
RUNDUNGEN
100
AcDbLine
 62
7
  6
CONTINUOUS
 10
70.3590125527
 20
84.2090297745
 11
69.3930867264
 21
83.9502107295
  0
LINE
  5
27F
100
AcDbEntity
  8
RUNDUNGEN
100
AcDbLine
 62
7
  6
CONTINUOUS
 10
90.6628907403
 20
84.6348841117
 11
91.6476984933
 21
84.461235934
  0
LINE
  5
280
100
AcDbEntity
  8
RUNDUNGEN
100
AcDbLine
 62
7
  6
CONTINUOUS
 10
90.6628907403
 20
84.6348841117
 11
96.0482227594
 21
115.1766196842
  0
LINE
  5
281
100
AcDbEntity
  8
RUNDUNGEN
100
AcDbLine
 62
7
  6
CONTINUOUS
 10
91.6476984933
 20
84.461235934
 11
95.8868681523
 21
108.5027617515
  0
LINE
  5
282
100
AcDbEntity
  8
RUNDUNGEN
100
AcDbLine
 62
7
  6
CONTINUOUS
 10
79.070568392
 20
42.1294712335
 11
79.0117448626
 21
41.9383173887
  0
LINE
  5
283
100
AcDbEntity
  8
0
100
AcDbLine
 62
7
  6
CONTINUOUS
 10
101.9985875604
 20
88.503125
 11
103.75
 21
88.503125
  0
LINE
  5
284
100
AcDbEntity
  8
RUNDUNGEN
100
AcDbLine
 62
7
  6
CONTINUOUS
 10
97.3959710657
 20
86.1942998784
 11
96.4111664662
 21
86.3679462949
  0
LINE
  5
285
100
AcDbEntity
  8
RUNDUNGEN
100
AcDbLine
 62
7
  6
CONTINUOUS
 10
96.4111664662
 20
86.3679462949
 11
91.057086349
 21
56.0034687113
  0
LINE
  5
286
100
AcDbEntity
  8
RUNDUNGEN
100
AcDbLine
 62
7
  6
CONTINUOUS
 10
97.3959550591
 20
86.1942091005
 11
91.4785777075
 21
52.6350945068
  0
LINE
  5
287
100
AcDbEntity
  8
RUNDUNGEN
100
AcDbLine
 62
7
  6
CONTINUOUS
 10
104.75
 20
95.6620104016
 11
103.7499938642
 21
95.6620104016
  0
LINE
  5
288
100
AcDbEntity
  8
RUNDUNGEN
100
AcDbLine
 62
7
  6
CONTINUOUS
 10
103.75
 20
116.003125
 11
103.7499938642
 21
95.6619694908
  0
LINE
  5
289
100
AcDbEntity
  8
RUNDUNGEN
100
AcDbLine
 62
7
  6
CONTINUOUS
 10
103.7500001111
 20
94.4628470012
 11
103.75
 21
88.503125
  0
LINE
  5
28A
100
AcDbEntity
  8
RUNDUNGEN
100
AcDbLine
 62
7
  6
CONTINUOUS
 10
55.75
 20
101.003125
 11
59.1480134214
 21
101.003125
  0
LINE
  5
28B
100
AcDbEntity
  8
RUNDUNGEN
100
AcDbLine
 62
7
  6
CONTINUOUS
 10
104.75
 20
115.003125
 11
104.75
 21
89.503125
  0
LINE
  5
28C
100
AcDbEntity
  8
RUNDUNGEN
100
AcDbLine
 62
7
  6
CONTINUOUS
 10
60.3907540078
 20
102.0925606013
 11
61.3566800727
 21
102.3513787979
  0
LINE
  5
28D
100
AcDbEntity
  8
RUNDUNGEN
100
AcDbLine
 62
7
  6
CONTINUOUS
 10
104.75
 20
108.503125
 11
95.8868681523
 21
108.5027617515
  0
LINE
  5
28E
100
AcDbEntity
  8
RUNDUNGEN
100
AcDbLine
 62
7
  6
CONTINUOUS
 10
56.6024960627
 20
108.503125
 11
62.8141531758
 21
108.503125
  0
LINE
  5
28F
100
AcDbEntity
  8
RUNDUNGEN
100
AcDbLine
 62
7
  6
CONTINUOUS
 10
103.8030356654
 20
95.591778191
 11
103.75
 21
95.6620104016
  0
LINE
  5
290
100
AcDbEntity
  8
RUNDUNGEN
100
AcDbLine
 62
7
  6
CONTINUOUS
 10
63.7800790021
 20
108.7619440451
 11
62.8141531758
 21
108.503125
  0
LINE
  5
291
100
AcDbEntity
  8
RUNDUNGEN
100
AcDbLine
 62
7
  6
CONTINUOUS
 10
94.9021244498
 20
108.6767731777
 11
95.8869322026
 21
108.5031249987
  0
LINE
  5
292
100
AcDbEntity
  8
RUNDUNGEN
100
AcDbLine
 62
7
  6
CONTINUOUS
 10
55.75
 20
116.003125
 11
56.6634295109
 21
116.003125
  0
LINE
  5
293
100
AcDbEntity
  8
0
100
AcDbLine
 62
7
  6
CONTINUOUS
 10
55.75
 20
116.003125
 11
61.0791871564
 21
116.003125
  0
LINE
  5
294
100
AcDbEntity
  8
0
100
AcDbLine
 62
7
  6
CONTINUOUS
 10
97.0282364457
 20
116.003125
 11
103.75
 21
116.003125
  0
ARC
  5
295
100
AcDbEntity
  8
RUNDUNGEN
100
AcDbCircle
 62
7
  6
CONTINUOUS
 10
79.0706253459
 20
162.4943426436
 40
1.2242044128
100
AcDbArc
 50
90.0026655802
 51
96.3546282994
  0
ARC
  5
296
100
AcDbEntity
  8
RUNDUNGEN
100
AcDbCircle
 62
7
  6
CONTINUOUS
 10
86.0705114382
 20
155.7869073107
 40
1.2242044128
100
AcDbArc
 50
270.0026655802
 51
276.3546282994
  0
ARC
  5
297
100
AcDbEntity
  8
RUNDUNGEN
100
AcDbCircle
 62
7
  6
CONTINUOUS
 10
86.0705182741
 20
162.4943441354
 40
1.2242029207
100
AcDbArc
 50
83.6727067616
 51
89.9976543543
  0
ARC
  5
298
100
AcDbEntity
  8
RUNDUNGEN
100
AcDbCircle
 62
7
  6
CONTINUOUS
 10
79.0706185099
 20
155.7869058189
 40
1.2242029207
100
AcDbArc
 50
263.6727067616
 51
269.9976543543
  0
ARC
  5
299
100
AcDbEntity
  8
RUNDUNGEN
100
AcDbCircle
 62
7
  6
CONTINUOUS
 10
55.75
 20
152.6406249772
 40
1.0
100
AcDbArc
 50
180.0
 51
270.0
  0
ARC
  5
29A
100
AcDbEntity
  8
RUNDUNGEN
100
AcDbCircle
 62
7
  6
CONTINUOUS
 10
55.75
 20
165.6406249772
 40
1.0
100
AcDbArc
 50
90.0
 51
180.0
  0
ARC
  5
29B
100
AcDbEntity
  8
RUNDUNGEN
100
AcDbCircle
 62
7
  6
CONTINUOUS
 10
86.070568392
 20
162.6406249772
 40
1.0
100
AcDbArc
 50
0.0054854328
 51
89.9923091955
  0
ARC
  5
29C
100
AcDbEntity
  8
RUNDUNGEN
100
AcDbCircle
 62
7
  6
CONTINUOUS
 10
79.070568392
 20
162.6406249772
 40
1.0
100
AcDbArc
 50
90.0076799208
 51
179.9945382392
  0
ARC
  5
29D
100
AcDbEntity
  8
RUNDUNGEN
100
AcDbCircle
 62
7
  6
CONTINUOUS
 10
86.070568392
 20
155.6406249772
 40
1.0
100
AcDbArc
 50
270.0076799208
 51
359.9945382392
  0
ARC
  5
29E
100
AcDbEntity
  8
RUNDUNGEN
100
AcDbCircle
 62
7
  6
CONTINUOUS
 10
79.070568392
 20
155.6406249772
 40
1.0
100
AcDbArc
 50
180.0054854328
 51
269.9923091955
  0
ARC
  5
29F
100
AcDbEntity
  8
RUNDUNGEN
100
AcDbCircle
 62
7
  6
CONTINUOUS
 10
103.7514728619
 20
152.6418557102
 40
0.9986040438
100
AcDbArc
 50
269.9994988597
 51
359.929380212
  0
ARC
  5
2A0
100
AcDbEntity
  8
RUNDUNGEN
100
AcDbCircle
 62
7
  6
CONTINUOUS
 10
103.7514748078
 20
165.6393956494
 40
0.9986021724
100
AcDbArc
 50
0.0705392878
 51
90.0003515556
  0
ARC
  5
2A1
100
AcDbEntity
  8
RUNDUNGEN
100
AcDbCircle
 62
7
  6
CONTINUOUS
 10
103.7906735739
 20
165.5016016399
 40
0.959326539
100
AcDbArc
 50
0.0277942124
 51
9.2107427942
  0
ARC
  5
2A2
100
AcDbEntity
  8
RUNDUNGEN
100
AcDbCircle
 62
7
  6
CONTINUOUS
 10
103.7906761859
 20
152.7796505989
 40
0.9593239269
100
AcDbArc
 50
350.7892202562
 51
359.9722061191
  0
ARC
  5
2A3
100
AcDbEntity
  8
RUNDUNGEN
100
AcDbCircle
 62
7
  6
CONTINUOUS
 10
103.7498611309
 20
166.2743336319
 40
0.3662913715
100
AcDbArc
 50
81.6528738355
 51
89.9782779178
  0
ARC
  5
2A4
100
AcDbEntity
  8
RUNDUNGEN
100
AcDbCircle
 62
7
  6
CONTINUOUS
 10
103.7498730093
 20
152.0068363897
 40
0.3662114346
100
AcDbArc
 50
270.0198683927
 51
278.3473298183
  0
ARC
  5
2A5
100
AcDbEntity
  8
RUNDUNGEN
100
AcDbCircle
 62
7
  6
CONTINUOUS
 10
188.6508176727
 20
159.1404929652
 40
9.5003022228
100
AcDbArc
 50
0.0007961575
 51
43.1729854055
  0
ARC
  5
2A6
100
AcDbEntity
  8
RUNDUNGEN
100
AcDbCircle
 62
7
  6
CONTINUOUS
 10
188.6510312258
 20
159.140709246
 40
9.5000947059
100
AcDbArc
 50
316.8261845509
 51
359.9994917678
  0
CIRCLE
  5
2A7
100
AcDbEntity
  8
RUNDUNGEN
100
AcDbCircle
 62
7
  6
CONTINUOUS
 10
189.16875
 20
159.1406249772
 40
7.5
  0
ARC
  5
2A8
100
AcDbEntity
  8
0
100
AcDbCircle
 62
7
  6
CONTINUOUS
 10
189.16875
 20
159.1406249772
 40
7.5
100
AcDbArc
 50
259.9909687675
 51
263.1691840929
  0
ARC
  5
2A9
100
AcDbEntity
  8
0
100
AcDbCircle
 62
7
  6
CONTINUOUS
 10
189.16875
 20
159.1406249772
 40
7.5
100
AcDbArc
 50
242.0852995696
 51
242.526319291
  0
CIRCLE
  5
2AA
100
AcDbEntity
  8
RUNDUNGEN
100
AcDbCircle
 62
7
  6
CONTINUOUS
 10
189.16875
 20
159.1406249772
 40
6.5
  0
ARC
  5
2AB
100
AcDbEntity
  8
0
100
AcDbCircle
 62
7
  6
CONTINUOUS
 10
221.56875
 20
159.1406249772
 40
3.195
100
AcDbArc
 50
90.0
 51
270.0
  0
CIRCLE
  5
2AC
100
AcDbEntity
  8
0
100
AcDbCircle
 62
7
  6
CONTINUOUS
 10
189.16875
 20
159.1406249772
 40
3.19
  0
ARC
  5
2AD
100
AcDbEntity
  8
RUNDUNGEN
100
AcDbCircle
 62
7
  6
CONTINUOUS
 10
241.9275888533
 20
159.1404869142
 40
6.4998619371
100
AcDbArc
 50
269.9998253926
 51
302.9478582072
  0
ARC
  5
2AE
100
AcDbEntity
  8
RUNDUNGEN
100
AcDbCircle
 62
7
  6
CONTINUOUS
 10
243.4615536242
 20
158.7420361553
 40
5.9397579754
100
AcDbArc
 50
328.3375515203
 51
328.5227154147
  0
ARC
  5
2AF
100
AcDbEntity
  8
RUNDUNGEN
100
AcDbCircle
 62
7
  6
CONTINUOUS
 10
243.8399217599
 20
159.1218497902
 40
5.3303944594
100
AcDbArc
 50
11.5410037343
 51
13.4912005473
  0
ARC
  5
2B0
100
AcDbEntity
  8
RUNDUNGEN
100
AcDbCircle
 62
7
  6
CONTINUOUS
 10
243.8946876549
 20
159.1328456874
 40
5.2745358967
100
AcDbArc
 50
7.7443106409
 51
11.5429958179
  0
ARC
  5
2B1
100
AcDbEntity
  8
RUNDUNGEN
100
AcDbCircle
 62
7
  6
CONTINUOUS
 10
246.4091302222
 20
158.4680174256
 40
2.7121486347
100
AcDbArc
 50
351.8963602119
 51
359.3570128541
  0
ARC
  5
2B2
100
AcDbEntity
  8
RUNDUNGEN
100
AcDbCircle
 62
7
  6
CONTINUOUS
 10
246.6146619993
 20
158.4388048468
 40
2.7045468754
100
AcDbArc
 50
351.8975166651
 51
359.979146336
  0
ARC
  5
2B3
100
AcDbEntity
  8
RUNDUNGEN
100
AcDbCircle
 62
7
  6
CONTINUOUS
 10
256.06875
 20
154.8406249772
 40
0.2
100
AcDbArc
 50
270.0
 51
360.0
  0
ARC
  5
2B4
100
AcDbEntity
  8
RUNDUNGEN
100
AcDbCircle
 62
7
  6
CONTINUOUS
 10
247.7679793567
 20
154.4406774078
 40
0.1999912616
100
AcDbArc
 50
90.0140651803
 51
142.3823203336
  0
ARC
  5
2B5
100
AcDbEntity
  8
RUNDUNGEN
100
AcDbCircle
 62
7
  6
CONTINUOUS
 10
241.66875
 20
159.1406249772
 40
7.7
100
AcDbArc
 50
8.0855234754
 51
27.0364662963
  0
ARC
  5
2B6
100
AcDbEntity
  8
RUNDUNGEN
100
AcDbCircle
 62
7
  6
CONTINUOUS
 10
241.66875
 20
159.1406249772
 40
7.7
100
AcDbArc
 50
332.9635303469
 51
351.9145050493
  0
ARC
  5
2B7
100
AcDbEntity
  8
RUNDUNGEN
100
AcDbCircle
 62
7
  6
CONTINUOUS
 10
241.66875
 20
159.1406249772
 40
7.5
100
AcDbArc
 50
8.0853834309
 51
90.0026257604
  0
ARC
  5
2B8
100
AcDbEntity
  8
RUNDUNGEN
100
AcDbCircle
 62
7
  6
CONTINUOUS
 10
241.66875
 20
159.1406249772
 40
7.5
100
AcDbArc
 50
269.998622765
 51
351.9142187416
  0
ARC
  5
2B9
100
AcDbEntity
  8
RUNDUNGEN
100
AcDbCircle
 62
7
  6
CONTINUOUS
 10
241.9275887538
 20
159.1407620105
 40
6.4998629667
100
AcDbArc
 50
57.0521321882
 51
90.0001737309
  0
ARC
  5
2BA
100
AcDbEntity
  8
0
100
AcDbCircle
 62
7
  6
CONTINUOUS
 10
238.76875
 20
159.1406249772
 40
3.195
100
AcDbArc
 50
270.0
 51
90.0
  0
ARC
  5
2BB
100
AcDbEntity
  8
RUNDUNGEN
100
AcDbCircle
 62
7
  6
CONTINUOUS
 10
243.8397098726
 20
159.159471932
 40
5.3306251436
100
AcDbArc
 50
346.3951390471
 51
348.4584051117
  0
ARC
  5
2BC
100
AcDbEntity
  8
RUNDUNGEN
100
AcDbCircle
 62
7
  6
CONTINUOUS
 10
243.8965618208
 20
159.1480364446
 40
5.2726347569
100
AcDbArc
 50
348.4565508514
 51
352.2564498783
  0
ARC
  5
2BD
100
AcDbEntity
  8
RUNDUNGEN
100
AcDbCircle
 62
7
  6
CONTINUOUS
 10
243.4620479055
 20
159.5395145587
 40
5.9391793879
100
AcDbArc
 50
31.4772952486
 51
31.6626874856
  0
ARC
  5
2BE
100
AcDbEntity
  8
RUNDUNGEN
100
AcDbCircle
 62
7
  6
CONTINUOUS
 10
246.4091569962
 20
159.8131868007
 40
2.7121303426
100
AcDbArc
 50
0.6429666245
 51
8.1034035157
  0
ARC
  5
2BF
100
AcDbEntity
  8
RUNDUNGEN
100
AcDbCircle
 62
7
  6
CONTINUOUS
 10
246.6145950951
 20
159.84241895
 40
2.7046176936
100
AcDbArc
 50
0.0213733808
 51
8.1029133747
  0
ARC
  5
2C0
100
AcDbEntity
  8
RUNDUNGEN
100
AcDbCircle
 62
7
  6
CONTINUOUS
 10
256.06875
 20
163.4406249772
 40
0.2
100
AcDbArc
 50
0.0
 51
90.0
  0
ARC
  5
2C1
100
AcDbEntity
  8
RUNDUNGEN
100
AcDbCircle
 62
7
  6
CONTINUOUS
 10
247.7679793567
 20
163.8405725465
 40
0.1999912616
100
AcDbArc
 50
217.5971998052
 51
269.9859348197
  0
ARC
  5
2C2
100
AcDbEntity
  8
RUNDUNGEN
100
AcDbCircle
 62
7
  6
CONTINUOUS
 10
78.5866349399
 20
53.503125
 40
5.0
100
AcDbArc
 50
194.9983532307
 51
262.0848976504
  0
ARC
  5
2C3
100
AcDbEntity
  8
RUNDUNGEN
100
AcDbCircle
 62
7
  6
CONTINUOUS
 10
78.270568392
 20
42.4071797947
 40
0.2
100
AcDbArc
 50
180.0
 51
248.8172083269
  0
ARC
  5
2C4
100
AcDbEntity
  8
RUNDUNGEN
100
AcDbCircle
 62
7
  6
CONTINUOUS
 10
77.870568392
 20
48.3526639819
 40
0.2
100
AcDbArc
 50
7.698093184
 51
82.0856798678
  0
ARC
  5
2C5
100
AcDbEntity
  8
RUNDUNGEN
100
AcDbCircle
 62
7
  6
CONTINUOUS
 10
75.1886416841
 20
85.503125
 40
6.0
100
AcDbArc
 50
195.0
 51
270.0
  0
ARC
  5
2C6
100
AcDbEntity
  8
RUNDUNGEN
100
AcDbCircle
 62
7
  6
CONTINUOUS
 10
75.1886416841
 20
85.503125
 40
5.0
100
AcDbArc
 50
195.0
 51
270.0
  0
ARC
  5
2C7
100
AcDbEntity
  8
RUNDUNGEN
100
AcDbCircle
 62
7
  6
CONTINUOUS
 10
59.1480089109
 20
99.0031418333
 40
1.9999964561
100
AcDbArc
 50
14.9995007501
 51
89.9998707835
  0
ARC
  5
2C8
100
AcDbEntity
  8
RUNDUNGEN
100
AcDbCircle
 62
7
  6
CONTINUOUS
 10
55.75
 20
102.003125
 40
1.0
100
AcDbArc
 50
180.0
 51
270.0
  0
ARC
  5
2C9
100
AcDbEntity
  8
RUNDUNGEN
100
AcDbCircle
 62
7
  6
CONTINUOUS
 10
55.75
 20
115.003125
 40
1.0
100
AcDbArc
 50
90.0
 51
180.0
  0
ARC
  5
2CA
100
AcDbEntity
  8
RUNDUNGEN
100
AcDbCircle
 62
7
  6
CONTINUOUS
 10
61.0724871565
 20
115.0031110737
 40
1.0
100
AcDbArc
 50
15.0000000026
 51
89.9998968471
  0
ARC
  5
2CB
100
AcDbEntity
  8
RUNDUNGEN
100
AcDbCircle
 62
7
  6
CONTINUOUS
 10
81.8499791027
 20
59.271974473
 40
17.6544269594
100
AcDbArc
 50
283.8314751508
 51
286.237355935
  0
ARC
  5
2CC
100
AcDbEntity
  8
RUNDUNGEN
100
AcDbCircle
 62
7
  6
CONTINUOUS
 10
83.2645045913
 20
59.1727501191
 40
17.5517080655
100
AcDbArc
 50
253.7561138893
 51
256.1755725996
  0
ARC
  5
2CD
100
AcDbEntity
  8
RUNDUNGEN
100
AcDbCircle
 62
7
  6
CONTINUOUS
 10
82.570568392
 20
53.503125
 40
12.1
100
AcDbArc
 50
248.8172083269
 51
291.1827916731
  0
ARC
  5
2CE
100
AcDbEntity
  8
RUNDUNGEN
100
AcDbCircle
 62
7
  6
CONTINUOUS
 10
82.570568392
 20
53.503125
 40
11.9
100
AcDbArc
 50
252.8953648237
 51
287.1046351763
  0
ARC
  5
2CF
100
AcDbEntity
  8
RUNDUNGEN
100
AcDbCircle
 62
7
  6
CONTINUOUS
 10
86.5545018441
 20
53.503125
 40
5.0
100
AcDbArc
 50
277.9150727849
 51
350.0031599901
  0
ARC
  5
2D0
100
AcDbEntity
  8
RUNDUNGEN
100
AcDbCircle
 62
7
  6
CONTINUOUS
 10
87.270568392
 20
48.3526515297
 40
0.2000004094
100
AcDbArc
 50
97.9145680914
 51
172.297428255
  0
ARC
  5
2D1
100
AcDbEntity
  8
RUNDUNGEN
100
AcDbCircle
 62
7
  6
CONTINUOUS
 10
86.870568392
 20
42.4071797947
 40
0.2
100
AcDbArc
 50
291.1827916731
 51
360.0
  0
ARC
  5
2D2
100
AcDbEntity
  8
RUNDUNGEN
100
AcDbCircle
 62
7
  6
CONTINUOUS
 10
85.7388519752
 20
85.503125
 40
6.0
100
AcDbArc
 50
270.0
 51
350.0
  0
ARC
  5
2D3
100
AcDbEntity
  8
RUNDUNGEN
100
AcDbCircle
 62
7
  6
CONTINUOUS
 10
85.7388519752
 20
85.503125
 40
5.0
100
AcDbArc
 50
270.0
 51
350.0
  0
ARC
  5
2D4
100
AcDbEntity
  8
RUNDUNGEN
100
AcDbCircle
 62
7
  6
CONTINUOUS
 10
101.9985773895
 20
83.50312503
 40
4.9999999963
100
AcDbArc
 50
90.0000000088
 51
169.9052970892
  0
ARC
  5
2D5
100
AcDbEntity
  8
RUNDUNGEN
100
AcDbCircle
 62
7
  6
CONTINUOUS
 10
103.75
 20
115.003125
 40
1.0
100
AcDbArc
 50
0.0
 51
90.0
  0
ARC
  5
2D6
100
AcDbEntity
  8
RUNDUNGEN
100
AcDbCircle
 62
7
  6
CONTINUOUS
 10
103.75
 20
89.503125
 40
1.0
100
AcDbArc
 50
270.0
 51
360.0
  0
ARC
  5
2D7
100
AcDbEntity
  8
RUNDUNGEN
100
AcDbCircle
 62
7
  6
CONTINUOUS
 10
97.0330535435
 20
115.0031021226
 40
1.0
100
AcDbArc
 50
90.0000904587
 51
170.0
  0
SPLINE
  5
2D8
100
AcDbEntity
  8
RUNDUNGEN
100
AcDbSpline
 62
7
  6
CONTINUOUS
 70
0
 71
3
 72
13
 73
9
 74
0
 42
0.0000001
 43
0.0000001
 44
0.0000000001
 40
0.0
 40
0.0
 40
0.0
 40
0.0
 40
0.0705182944
 40
0.1493396724
 40
0.242398516
 40
0.3532522933
 40
0.6348433683
 40
1.0
 40
1.0
 40
1.0
 40
1.0
 10
92.0418334964
 20
165.6406249772
 30
0.0
 10
92.0169553423
 20
165.6406113244
 30
0.0
 10
91.9639495067
 20
165.630296099
 30
0.0
 10
91.8889416066
 20
165.5870355959
 30
0.0
 10
91.8161274349
 20
165.5179263234
 30
0.0
 10
91.7129150169
 20
165.3805641365
 30
0.0
 10
91.5930829881
 20
165.1397818859
 30
0.0
 10
91.5170049208
 20
164.9244729173
 30
0.0
 10
91.4785777075
 20
164.8015140501
 30
0.0
  0
SPLINE
  5
2D9
100
AcDbEntity
  8
RUNDUNGEN
100
AcDbSpline
 62
7
  6
CONTINUOUS
 70
0
 71
3
 72
9
 73
5
 74
0
 42
0.0000001
 43
0.0000001
 44
0.0000000001
 40
0.0
 40
0.0
 40
0.0
 40
0.0
 40
0.4807937849
 40
1.0
 40
1.0
 40
1.0
 40
1.0
 10
97.3959550591
 20
165.6406269262
 30
0.0
 10
97.2846165756
 20
164.6033522938
 30
0.0
 10
97.1255163891
 20
162.4380142315
 30
0.0
 10
97.0745480785
 20
160.2679280384
 30
0.0
 10
97.0745386237
 20
159.1413473053
 30
0.0
  0
SPLINE
  5
2DA
100
AcDbEntity
  8
RUNDUNGEN
100
AcDbSpline
 62
7
  6
CONTINUOUS
 70
0
 71
3
 72
9
 73
5
 74
0
 42
0.0000001
 43
0.0000001
 44
0.0000000001
 40
0.0
 40
0.0
 40
0.0
 40
0.0
 40
0.519226392
 40
1.0
 40
1.0
 40
1.0
 40
1.0
 10
97.0745386237
 20
159.1413473053
 30
0.0
 10
97.0745436017
 20
158.0144727548
 30
0.0
 10
97.1254646809
 20
155.8439037439
 30
0.0
 10
97.2845962415
 20
153.6780839044
 30
0.0
 10
97.3959527969
 20
152.6406223937
 30
0.0
  0
SPLINE
  5
2DB
100
AcDbEntity
  8
RUNDUNGEN
100
AcDbSpline
 62
7
  6
CONTINUOUS
 70
0
 71
3
 72
10
 73
6
 74
0
 42
0.0000001
 43
0.0000001
 44
0.0000000001
 40
0.0
 40
0.0
 40
0.0
 40
0.0
 40
0.5284316167
 40
0.7746339897
 40
1.0
 40
1.0
 40
1.0
 40
1.0
 10
91.6065443066
 20
159.1400878394
 30
0.0
 10
91.6065342089
 20
159.7043469291
 30
0.0
 10
91.6294937879
 20
160.5318688375
 30
0.0
 10
91.7107461845
 20
161.5967083404
 30
0.0
 10
91.7674715538
 20
162.0972226176
 30
0.0
 10
91.8002540084
 20
162.3356249772
 30
0.0
  0
SPLINE
  5
2DC
100
AcDbEntity
  8
RUNDUNGEN
100
AcDbSpline
 62
7
  6
CONTINUOUS
 70
0
 71
3
 72
10
 73
6
 74
0
 42
0.0000001
 43
0.0000001
 44
0.0000000001
 40
0.0
 40
0.0
 40
0.0
 40
0.0
 40
0.2253655816
 40
0.4715644998
 40
1.0
 40
1.0
 40
1.0
 40
1.0
 10
91.8002555022
 20
155.9456249772
 30
0.0
 10
91.7674837338
 20
156.1839469196
 30
0.0
 10
91.7107721856
 20
156.6842885627
 30
0.0
 10
91.6295297458
 20
157.7487697881
 30
0.0
 10
91.6065545837
 20
158.5760137466
 30
0.0
 10
91.6065443066
 20
159.1400878394
 30
0.0
  0
LINE
  5
2DD
100
AcDbEntity
  8
RUNDUNGEN
100
AcDbLine
 62
7
  6
CONTINUOUS
 10
103.8030271407
 20
151.6445045385
 11
103.7501029849
 21
151.6455996176
  0
SPLINE
  5
2DE
100
AcDbEntity
  8
RUNDUNGEN
100
AcDbSpline
 62
7
  6
CONTINUOUS
 70
0
 71
3
 72
17
 73
13
 74
0
 42
0.0000001
 43
0.0000001
 44
0.0000000001
 40
0.0
 40
0.0
 40
0.0
 40
0.0
 40
0.1548715056
 40
0.3078644194
 40
0.457052906
 40
0.5995714745
 40
0.731326532
 40
0.8467868143
 40
0.8962769486
 40
0.9389796098
 40
0.973878287
 40
1.0
 40
1.0
 40
1.0
 40
1.0
 10
103.7501029849
 20
151.6455996176
 30
0.0
 10
103.4171471331
 20
151.6529160192
 30
0.0
 10
102.7555281143
 20
151.6835039696
 30
0.0
 10
101.7764902149
 20
151.7729991856
 30
0.0
 10
100.8280281856
 20
151.8965687734
 30
0.0
 10
99.9289967847
 20
152.0420979544
 30
0.0
 10
99.1052474865
 20
152.1967700571
 30
0.0
 10
98.480970379
 20
152.3290919892
 30
0.0
 10
98.046745147
 20
152.433269253
 30
0.0
 10
97.7825425802
 20
152.5035158164
 30
0.0
 10
97.5694294486
 20
152.5692349386
 30
0.0
 10
97.4464333764
 20
152.6159952249
 30
0.0
 10
97.3959525067
 20
152.6406326039
 30
0.0
  0
SPLINE
  5
2DF
100
AcDbEntity
  8
RUNDUNGEN
100
AcDbSpline
 62
7
  6
CONTINUOUS
 70
0
 71
3
 72
9
 73
5
 74
0
 42
0.0000001
 43
0.0000001
 44
0.0000000001
 40
0.0
 40
0.0
 40
0.0
 40
0.0
 40
0.5831901314
 40
1.0
 40
1.0
 40
1.0
 40
1.0
 10
103.7499906947
 20
151.8005416382
 30
0.0
 10
103.7561228071
 20
151.7731837337
 30
0.0
 10
103.7677827083
 20
151.7265598391
 30
0.0
 10
103.7836371066
 20
151.6809171737
 30
0.0
 10
103.7924621836
 20
151.6629271566
 30
0.0
  0
SPLINE
  5
2E0
100
AcDbEntity
  8
RUNDUNGEN
100
AcDbSpline
 62
7
  6
CONTINUOUS
 70
0
 71
3
 72
9
 73
5
 74
0
 42
0.0000001
 43
0.0000001
 44
0.0000000001
 40
0.0
 40
0.0
 40
0.0
 40
0.0
 40
0.2738707258
 40
1.0
 40
1.0
 40
1.0
 40
1.0
 10
103.7924621836
 20
151.6629271566
 30
0.0
 10
103.7933164342
 20
151.6611857571
 30
0.0
 10
103.7965243154
 20
151.6548729474
 30
0.0
 10
103.8001067527
 20
151.6487375726
 30
0.0
 10
103.8030271407
 20
151.6445045385
 30
0.0
  0
LINE
  5
2E1
100
AcDbEntity
  8
RUNDUNGEN
100
AcDbLine
 62
7
  6
CONTINUOUS
 10
103.8030267706
 20
166.6367461178
 11
103.7501095812
 21
166.6356509444
  0
SPLINE
  5
2E2
100
AcDbEntity
  8
RUNDUNGEN
100
AcDbSpline
 62
7
  6
CONTINUOUS
 70
0
 71
3
 72
17
 73
13
 74
0
 42
0.0000001
 43
0.0000001
 44
0.0000000001
 40
0.0
 40
0.0
 40
0.0
 40
0.0
 40
0.154870797
 40
0.307865318
 40
0.4570526777
 40
0.5995716172
 40
0.7313265457
 40
0.8467870109
 40
0.8962770659
 40
0.938980178
 40
0.9738784635
 40
1.0
 40
1.0
 40
1.0
 40
1.0
 10
103.7501095812
 20
166.6356509444
 30
0.0
 10
103.4171552856
 20
166.6283330577
 30
0.0
 10
102.755534784
 20
166.5977399643
 30
0.0
 10
101.7764959786
 20
166.508258996
 30
0.0
 10
100.8280337523
 20
166.384675866
 30
0.0
 10
99.9290031745
 20
166.2391550057
 30
0.0
 10
99.105252311
 20
166.084484332
 30
0.0
 10
98.4809776537
 20
165.9521536574
 30
0.0
 10
98.0467475215
 20
165.8479896402
 30
0.0
 10
97.7825517837
 20
165.7777195296
 30
0.0
 10
97.5694282891
 20
165.712035173
 30
0.0
 10
97.4464370323
 20
165.6652622862
 30
0.0
 10
97.3959606395
 20
165.6406166015
 30
0.0
  0
SPLINE
  5
2E3
100
AcDbEntity
  8
RUNDUNGEN
100
AcDbSpline
 62
7
  6
CONTINUOUS
 70
0
 71
3
 72
9
 73
5
 74
0
 42
0.0000001
 43
0.0000001
 44
0.0000000001
 40
0.0
 40
0.0
 40
0.0
 40
0.0
 40
0.1997447145
 40
1.0
 40
1.0
 40
1.0
 40
1.0
 10
103.8030267706
 20
166.6367461178
 30
0.0
 10
103.8006672279
 20
166.6333264485
 30
0.0
 10
103.7899427897
 20
166.615459168
 30
0.0
 10
103.7824332697
 20
166.5958861991
 30
0.0
 10
103.7770183123
 20
166.5801462288
 30
0.0
  0
SPLINE
  5
2E4
100
AcDbEntity
  8
RUNDUNGEN
100
AcDbSpline
 62
7
  6
CONTINUOUS
 70
0
 71
3
 72
9
 73
5
 74
0
 42
0.0000001
 43
0.0000001
 44
0.0000000001
 40
0.0
 40
0.0
 40
0.0
 40
0.0
 40
0.2305592439
 40
1.0
 40
1.0
 40
1.0
 40
1.0
 10
103.7770183123
 20
166.5801462288
 30
0.0
 10
103.775867703
 20
166.5768016861
 30
0.0
 10
103.7710273478
 20
166.5622438164
 30
0.0
 10
103.7667282841
 20
166.5475097022
 30
0.0
 10
103.7636247231
 20
166.5361212964
 30
0.0
  0
SPLINE
  5
2E5
100
AcDbEntity
  8
RUNDUNGEN
100
AcDbSpline
 62
7
  6
CONTINUOUS
 70
0
 71
3
 72
9
 73
5
 74
0
 42
0.0000001
 43
0.0000001
 44
0.0000000001
 40
0.0
 40
0.0
 40
0.0
 40
0.0
 40
0.2334107054
 40
1.0
 40
1.0
 40
1.0
 40
1.0
 10
103.7636247231
 20
166.5361212964
 30
0.0
 10
103.7624582979
 20
166.5318411408
 30
0.0
 10
103.7575888134
 20
166.5134688823
 30
0.0
 10
103.753188135
 20
166.4949742635
 30
0.0
 10
103.7500019837
 20
166.4807569695
 30
0.0
  0
SPLINE
  5
2E6
100
AcDbEntity
  8
RUNDUNGEN
100
AcDbSpline
 62
7
  6
CONTINUOUS
 70
0
 71
3
 72
15
 73
11
 74
0
 42
0.0000001
 43
0.0000001
 44
0.0000000001
 40
0.0
 40
0.0
 40
0.0
 40
0.0
 40
0.040298567
 40
0.0852717021
 40
0.1876208204
 40
0.3037798943
 40
0.4306468502
 40
0.5656308048
 40
0.7066175555
 40
1.0
 40
1.0
 40
1.0
 40
1.0
 10
90.4937328562
 20
152.6089407439
 30
0.0
 10
90.4713540103
 20
152.6915557515
 30
0.0
 10
90.4152494162
 20
152.8640139326
 30
0.0
 10
90.2669726587
 20
153.2340830067
 30
0.0
 10
90.0208918145
 20
153.7373896045
 30
0.0
 10
89.6644979671
 20
154.3786910449
 30
0.0
 10
89.2510649199
 20
155.0670779613
 30
0.0
 10
88.7946333267
 20
155.7908174453
 30
0.0
 10
88.1345138516
 20
156.804067493
 30
0.0
 10
87.6197715383
 20
157.5697440126
 30
0.0
 10
87.2705673528
 20
158.0858340996
 30
0.0
  0
SPLINE
  5
2E7
100
AcDbEntity
  8
RUNDUNGEN
100
AcDbSpline
 62
7
  6
CONTINUOUS
 70
0
 71
3
 72
19
 73
15
 74
0
 42
0.0000001
 43
0.0000001
 44
0.0000000001
 40
0.0
 40
0.0
 40
0.0
 40
0.0
 40
0.0293182772
 40
0.0605863426
 40
0.0954288756
 40
0.1349459224
 40
0.1798064456
 40
0.2303548715
 40
0.2867006065
 40
0.3487720332
 40
0.4890270422
 40
0.6478962771
 40
0.8203406824
 40
1.0
 40
1.0
 40
1.0
 40
1.0
 10
56.6023194095
 20
151.6406249772
 30
0.0
 10
56.68414724
 20
151.640616808
 30
0.0
 10
56.8540644676
 20
151.6653568267
 30
0.0
 10
57.1002378119
 20
151.7735269503
 30
0.0
 10
57.3391544492
 20
151.9494692359
 30
0.0
 10
57.5699303712
 20
152.1909303807
 30
0.0
 10
57.7917433103
 20
152.4963476533
 30
0.0
 10
58.0031440787
 20
152.8640978626
 30
0.0
 10
58.2024364399
 20
153.2920324639
 30
0.0
 10
58.4599348435
 20
153.9670314074
 30
0.0
 10
58.7308758498
 20
154.9402654966
 30
0.0
 10
58.96742631
 20
156.2363724195
 30
0.0
 10
59.1148453348
 20
157.6561265536
 30
0.0
 10
59.1479926941
 20
158.6391926402
 30
0.0
 10
59.1480134214
 20
159.1406249772
 30
0.0
  0
SPLINE
  5
2E8
100
AcDbEntity
  8
RUNDUNGEN
100
AcDbSpline
 62
7
  6
CONTINUOUS
 70
0
 71
3
 72
11
 73
7
 74
0
 42
0.0000001
 43
0.0000001
 44
0.0000000001
 40
0.0
 40
0.0
 40
0.0
 40
0.0
 40
0.2184837422
 40
0.4632881237
 40
0.7267657576
 40
1.0
 40
1.0
 40
1.0
 40
1.0
 10
60.3907403184
 20
152.6406220762
 30
0.0
 10
60.5070424821
 20
153.1032988065
 30
0.0
 10
60.7084558486
 20
154.0958874941
 30
0.0
 10
60.9196998626
 20
155.6695639515
 30
0.0
 10
61.0505437831
 20
157.3718467252
 30
0.0
 10
61.0798329349
 20
158.5440043507
 30
0.0
 10
61.079865074
 20
159.1406249772
 30
0.0
  0
SPLINE
  5
2E9
100
AcDbEntity
  8
RUNDUNGEN
100
AcDbSpline
 62
7
  6
CONTINUOUS
 70
0
 71
3
 72
13
 73
9
 74
0
 42
0.0000001
 43
0.0000001
 44
0.0000000001
 40
0.0
 40
0.0
 40
0.0
 40
0.0
 40
0.0913500471
 40
0.1971423898
 40
0.3145099838
 40
0.4409354959
 40
0.7128426039
 40
1.0
 40
1.0
 40
1.0
 40
1.0
 10
74.7229316347
 20
152.8469444687
 30
0.0
 10
74.7858127909
 20
153.0224324842
 30
0.0
 10
74.9466168167
 20
153.3920340131
 30
0.0
 10
75.2417110952
 20
153.9621418161
 30
0.0
 10
75.5962312499
 20
154.5813994837
 30
0.0
 10
76.1441759421
 20
155.4799402422
 30
0.0
 10
76.9056161257
 20
156.6536332739
 30
0.0
 10
77.5421853814
 20
157.6003760475
 30
0.0
 10
77.8705679326
 20
158.0857084308
 30
0.0
  0
SPLINE
  5
2EA
100
AcDbEntity
  8
RUNDUNGEN
100
AcDbSpline
 62
7
  6
CONTINUOUS
 70
0
 71
3
 72
19
 73
15
 74
0
 42
0.0000001
 43
0.0000001
 44
0.0000000001
 40
0.0
 40
0.0
 40
0.0
 40
0.0
 40
0.1796641455
 40
0.3521215374
 40
0.5110100924
 40
0.6512588976
 40
0.7133243181
 40
0.7696657873
 40
0.820212633
 40
0.8650728216
 40
0.9045899804
 40
0.9394319273
 40
0.9707017267
 40
1.0
 40
1.0
 40
1.0
 40
1.0
 10
59.1480134214
 20
159.1406249772
 30
0.0
 10
59.1479957429
 20
159.6420602889
 30
0.0
 10
59.1148484351
 20
160.6251559486
 30
0.0
 10
58.9674114433
 20
162.0449820404
 30
0.0
 10
58.7308528846
 20
163.3411345727
 30
0.0
 10
58.4598820092
 20
164.3143589523
 30
0.0
 10
58.2023993565
 20
164.9892981666
 30
0.0
 10
58.0031215765
 20
165.4171922605
 30
0.0
 10
57.7917314385
 20
165.7849180098
 30
0.0
 10
57.5699272627
 20
166.0903263897
 30
0.0
 10
57.3391536973
 20
166.3317754554
 30
0.0
 10
57.100244921
 20
166.507726289
 30
0.0
 10
56.85412099
 20
166.6158586086
 30
0.0
 10
56.6842663501
 20
166.6406249484
 30
0.0
 10
56.6024960627
 20
166.6406249772
 30
0.0
  0
SPLINE
  5
2EB
100
AcDbEntity
  8
RUNDUNGEN
100
AcDbSpline
 62
7
  6
CONTINUOUS
 70
0
 71
3
 72
15
 73
11
 74
0
 42
0.0000001
 43
0.0000001
 44
0.0000000001
 40
0.0
 40
0.0
 40
0.0
 40
0.0
 40
0.0416695545
 40
0.0893743562
 40
0.1986284137
 40
0.3207198379
 40
0.4507175887
 40
0.5853659697
 40
0.7225897006
 40
1.0
 40
1.0
 40
1.0
 40
1.0
 10
60.3907488388
 20
165.6406309937
 30
0.0
 10
60.347244414
 20
165.6744261939
 30
0.0
 10
60.249095509
 20
165.7406583867
 30
0.0
 10
60.0206622891
 20
165.8704161565
 30
0.0
 10
59.6853172326
 20
166.0255560797
 30
0.0
 10
59.2386642477
 20
166.1956988307
 30
0.0
 10
58.7501682974
 20
166.3477559148
 30
0.0
 10
58.2337422562
 20
166.4741557924
 30
0.0
 10
57.5183782727
 20
166.6009073888
 30
0.0
 10
56.9692419239
 20
166.64062488
 30
0.0
 10
56.6024960627
 20
166.6406233713
 30
0.0
  0
SPLINE
  5
2EC
100
AcDbEntity
  8
RUNDUNGEN
100
AcDbSpline
 62
7
  6
CONTINUOUS
 70
0
 71
3
 72
15
 73
11
 74
0
 42
0.0000001
 43
0.0000001
 44
0.0000000001
 40
0.0
 40
0.0
 40
0.0
 40
0.0
 40
0.2774074412
 40
0.4146311545
 40
0.549279485
 40
0.6792773736
 40
0.8013698215
 40
0.9106253049
 40
0.9583306843
 40
1.0
 40
1.0
 40
1.0
 40
1.0
 10
56.6021616407
 20
151.6406253801
 30
0.0
 10
56.9689329496
 20
151.6406079717
 30
0.0
 10
57.5181107656
 20
151.6803099744
 30
0.0
 10
58.2335325054
 20
151.8070461995
 30
0.0
 10
58.7500015113
 20
151.9334495271
 30
0.0
 10
59.2385414943
 20
152.0855067977
 30
0.0
 10
59.6852368609
 20
152.2556556154
 30
0.0
 10
60.0206115774
 20
152.4108113419
 30
0.0
 10
60.2490678669
 20
152.5405745284
 30
0.0
 10
60.3472293496
 20
152.6068066211
 30
0.0
 10
60.3907349704
 20
152.640606923
 30
0.0
  0
SPLINE
  5
2ED
100
AcDbEntity
  8
RUNDUNGEN
100
AcDbSpline
 62
7
  6
CONTINUOUS
 70
0
 71
3
 72
11
 73
7
 74
0
 42
0.0000001
 43
0.0000001
 44
0.0000000001
 40
0.0
 40
0.0
 40
0.0
 40
0.0
 40
0.2732036169
 40
0.5366877534
 40
0.7815128151
 40
1.0
 40
1.0
 40
1.0
 40
1.0
 10
61.079865074
 20
159.1406249772
 30
0.0
 10
61.0798376187
 20
159.7371783222
 30
0.0
 10
61.0505381701
 20
160.9092818479
 30
0.0
 10
60.9197217818
 20
162.6115585009
 30
0.0
 10
60.7084503912
 20
164.1852968416
 30
0.0
 10
60.5070603267
 20
165.177943772
 30
0.0
 10
60.3907500599
 20
165.640625879
 30
0.0
  0
SPLINE
  5
2EE
100
AcDbEntity
  8
RUNDUNGEN
100
AcDbSpline
 62
7
  6
CONTINUOUS
 70
0
 71
3
 72
14
 73
10
 74
0
 42
0.0000001
 43
0.0000001
 44
0.0000000001
 40
0.0
 40
0.0
 40
0.0
 40
0.0
 40
0.0641384632
 40
0.138129373
 40
0.2284783697
 40
0.3386939885
 40
0.4704940876
 40
0.6246800628
 40
1.0
 40
1.0
 40
1.0
 40
1.0
 10
91.0570254469
 20
166.6406249535
 30
0.0
 10
91.0320056708
 20
166.6406136521
 30
0.0
 10
90.9777855809
 20
166.6281839217
 30
0.0
 10
90.9028599176
 20
166.5776142638
 30
0.0
 10
90.8304451293
 20
166.4978276949
 30
0.0
 10
90.7595448863
 20
166.3888440747
 30
0.0
 10
90.6898169376
 20
166.2506707737
 30
0.0
 10
90.592232959
 20
166.0116742255
 30
0.0
 10
90.5320044744
 20
165.8136271406
 30
0.0
 10
90.4937328562
 20
165.6723092104
 30
0.0
  0
SPLINE
  5
2EF
100
AcDbEntity
  8
RUNDUNGEN
100
AcDbSpline
 62
7
  6
CONTINUOUS
 70
0
 71
3
 72
14
 73
10
 74
0
 42
0.0000001
 43
0.0000001
 44
0.0000000001
 40
0.0
 40
0.0
 40
0.0
 40
0.0
 40
0.0783486297
 40
0.1633595771
 40
0.2601764338
 40
0.3721871745
 40
0.5014101887
 40
0.6489318196
 40
1.0
 40
1.0
 40
1.0
 40
1.0
 10
73.7756574183
 20
151.6406249837
 30
0.0
 10
73.8177278141
 20
151.640631531
 30
0.0
 10
73.9059095643
 20
151.6548920265
 30
0.0
 10
74.0330187983
 20
151.7163370465
 30
0.0
 10
74.1567949906
 20
151.8158105031
 30
0.0
 10
74.277583316
 20
151.9521357771
 30
0.0
 10
74.3955465762
 20
152.1248657671
 30
0.0
 10
74.5581730014
 20
152.4205691045
 30
0.0
 10
74.659343327
 20
152.6694820241
 30
0.0
 10
74.7229316347
 20
152.8469444687
 30
0.0
  0
SPLINE
  5
2F0
100
AcDbEntity
  8
RUNDUNGEN
100
AcDbSpline
 62
7
  6
CONTINUOUS
 70
0
 71
3
 72
14
 73
10
 74
0
 42
0.0000001
 43
0.0000001
 44
0.0000000001
 40
0.0
 40
0.0
 40
0.0
 40
0.0
 40
0.0641375695
 40
0.1381291993
 40
0.2284794148
 40
0.3386952011
 40
0.470494753
 40
0.6246800949
 40
1.0
 40
1.0
 40
1.0
 40
1.0
 10
91.0570255008
 20
151.6406249932
 30
0.0
 10
91.0320060494
 20
151.6406343005
 30
0.0
 10
90.9777850798
 20
151.6530631134
 30
0.0
 10
90.9028601034
 20
151.7036347051
 30
0.0
 10
90.8304454096
 20
151.783422436
 30
0.0
 10
90.7595448331
 20
151.892406367
 30
0.0
 10
90.6898167844
 20
152.0305793335
 30
0.0
 10
90.5922325533
 20
152.2695755283
 30
0.0
 10
90.5320041816
 20
152.4676226069
 30
0.0
 10
90.4937328562
 20
152.6089407439
 30
0.0
  0
SPLINE
  5
2F1
100
AcDbEntity
  8
RUNDUNGEN
100
AcDbSpline
 62
7
  6
CONTINUOUS
 70
0
 71
3
 72
13
 73
9
 74
0
 42
0.0000001
 43
0.0000001
 44
0.0000000001
 40
0.0
 40
0.0
 40
0.0
 40
0.0
 40
0.3393912925
 40
0.6115727431
 40
0.7246787124
 40
0.8248059958
 40
0.9151123867
 40
1.0
 40
1.0
 40
1.0
 40
1.0
 10
73.7569686142
 20
164.5952245607
 30
0.0
 10
73.6929410869
 20
164.7500790806
 30
0.0
 10
73.5639024162
 20
165.0237846922
 30
0.0
 10
73.3612945834
 20
165.3223011011
 30
0.0
 10
73.1891574943
 20
165.4902737754
 30
0.0
 10
73.0651748275
 20
165.5760683275
 30
0.0
 10
72.9385163479
 20
165.6285964673
 30
0.0
 10
72.851643363
 20
165.6406160148
 30
0.0
 10
72.8097314109
 20
165.6406249772
 30
0.0
  0
LINE
  5
2F2
100
AcDbEntity
  8
RUNDUNGEN
100
AcDbLine
 62
7
  6
CONTINUOUS
 10
77.898083169
 20
158.4375816741
 11
77.8705642909
 21
158.0857017687
  0
SPLINE
  5
2F3
100
AcDbEntity
  8
RUNDUNGEN
100
AcDbSpline
 62
7
  6
CONTINUOUS
 70
0
 71
3
 72
11
 73
7
 74
0
 42
0.0000001
 43
0.0000001
 44
0.0000000001
 40
0.0
 40
0.0
 40
0.0
 40
0.0
 40
0.2320957382
 40
0.4805100529
 40
0.7397855553
 40
1.0
 40
1.0
 40
1.0
 40
1.0
 10
73.7570105142
 20
153.6861018698
 30
0.0
 10
73.7738562096
 20
153.582144635
 30
0.0
 10
73.8538094462
 20
153.3729032717
 30
0.0
 10
74.0758706477
 20
153.1139809409
 30
0.0
 10
74.3748715012
 20
152.9258785812
 30
0.0
 10
74.6057327332
 20
152.8612869192
 30
0.0
 10
74.7229316345
 20
152.8469537293
 30
0.0
  0
SPLINE
  5
2F4
100
AcDbEntity
  8
RUNDUNGEN
100
AcDbSpline
 62
7
  6
CONTINUOUS
 70
0
 71
3
 72
11
 73
7
 74
0
 42
0.0000001
 43
0.0000001
 44
0.0000000001
 40
0.0
 40
0.0
 40
0.0
 40
0.0
 40
0.2540212457
 40
0.5056597483
 40
0.753985455
 40
1.0
 40
1.0
 40
1.0
 40
1.0
 10
72.8097314109
 20
152.6406249772
 30
0.0
 10
72.8097314115
 20
152.510715515
 30
0.0
 10
72.859386771
 20
152.2494001963
 30
0.0
 10
73.0731503019
 20
151.9172355092
 30
0.0
 10
73.3941187358
 20
151.6932917791
 30
0.0
 10
73.6498424962
 20
151.6406249772
 30
0.0
 10
73.7756572371
 20
151.6406249772
 30
0.0
  0
SPLINE
  5
2F5
100
AcDbEntity
  8
RUNDUNGEN
100
AcDbSpline
 62
7
  6
CONTINUOUS
 70
0
 71
3
 72
11
 73
7
 74
0
 42
0.0000001
 43
0.0000001
 44
0.0000000001
 40
0.0
 40
0.0
 40
0.0
 40
0.0
 40
0.2540211942
 40
0.5056596798
 40
0.753985409
 40
1.0
 40
1.0
 40
1.0
 40
1.0
 10
60.3907518376
 20
152.6406220762
 30
0.0
 10
60.3907522616
 20
152.5107129135
 30
0.0
 10
60.4404082423
 20
152.249398355
 30
0.0
 10
60.6541719107
 20
151.9172348302
 30
0.0
 10
60.9751398393
 20
151.6932918641
 30
0.0
 10
61.2308630326
 20
151.6406250926
 30
0.0
 10
61.3566775326
 20
151.6406249772
 30
0.0
  0
SPLINE
  5
2F6
100
AcDbEntity
  8
RUNDUNGEN
100
AcDbSpline
 62
7
  6
CONTINUOUS
 70
0
 71
3
 72
11
 73
7
 74
0
 42
0.0000001
 43
0.0000001
 44
0.0000000001
 40
0.0
 40
0.0
 40
0.0
 40
0.0
 40
0.2540211637
 40
0.5056596397
 40
0.7539853717
 40
1.0
 40
1.0
 40
1.0
 40
1.0
 10
60.3907540078
 20
165.640625879
 30
0.0
 10
60.3907539585
 20
165.7705352556
 30
0.0
 10
60.4404093448
 20
166.031850465
 30
0.0
 10
60.6541731215
 20
166.3640147913
 30
0.0
 10
60.9751415991
 20
166.5879582631
 30
0.0
 10
61.2308653314
 20
166.6406249786
 30
0.0
 10
61.3566800727
 20
166.6406249772
 30
0.0
  0
SPLINE
  5
2F7
100
AcDbEntity
  8
RUNDUNGEN
100
AcDbSpline
 62
7
  6
CONTINUOUS
 70
0
 71
3
 72
11
 73
7
 74
0
 42
0.0000001
 43
0.0000001
 44
0.0000000001
 40
0.0
 40
0.0
 40
0.0
 40
0.0
 40
0.2540212502
 40
0.505659753
 40
0.7539854579
 40
1.0
 40
1.0
 40
1.0
 40
1.0
 10
72.8097314109
 20
165.6406249772
 30
0.0
 10
72.8097314109
 20
165.7705344417
 30
0.0
 10
72.8593867706
 20
166.0318497636
 30
0.0
 10
73.0731503053
 20
166.3640144507
 30
0.0
 10
73.3941187396
 20
166.5879581767
 30
0.0
 10
73.6498424976
 20
166.6406249772
 30
0.0
 10
73.7756572372
 20
166.6406249772
 30
0.0
  0
SPLINE
  5
2F8
100
AcDbEntity
  8
RUNDUNGEN
100
AcDbSpline
 62
7
  6
CONTINUOUS
 70
0
 71
3
 72
11
 73
7
 74
0
 42
0.0000001
 43
0.0000001
 44
0.0000000001
 40
0.0
 40
0.0
 40
0.0
 40
0.0
 40
0.2320955774
 40
0.4805099236
 40
0.7397855526
 40
1.0
 40
1.0
 40
1.0
 40
1.0
 10
73.7570058085
 20
164.5951480845
 30
0.0
 10
73.7738513939
 20
164.6991057714
 30
0.0
 10
73.8538047395
 20
164.9083481966
 30
0.0
 10
74.075866911
 20
165.167271882
 30
0.0
 10
74.3748694556
 20
165.3553749532
 30
0.0
 10
74.6057321076
 20
165.4199662784
 30
0.0
 10
74.7229316348
 20
165.4342989942
 30
0.0
  0
LINE
  5
2F9
100
AcDbEntity
  8
RUNDUNGEN
100
AcDbLine
 62
7
  6
CONTINUOUS
 10
77.8705703545
 20
160.1954888067
 11
77.8980881153
 21
159.8436213756
  0
LINE
  5
2FA
100
AcDbEntity
  8
RUNDUNGEN
100
AcDbLine
 62
7
  6
CONTINUOUS
 10
87.27055779
 20
158.0858473742
 11
87.2430391316
 21
158.4377103199
  0
SPLINE
  5
2FB
100
AcDbEntity
  8
RUNDUNGEN
100
AcDbSpline
 62
7
  6
CONTINUOUS
 70
0
 71
3
 72
11
 73
7
 74
0
 42
0.0000001
 43
0.0000001
 44
0.0000000001
 40
0.0
 40
0.0
 40
0.0
 40
0.0
 40
0.2604814347
 40
0.5182469616
 40
0.7656685926
 40
1.0
 40
1.0
 40
1.0
 40
1.0
 10
90.4937328563
 20
152.6089561324
 30
0.0
 10
90.6163693243
 20
152.6182126584
 30
0.0
 10
90.8590064201
 20
152.6767908996
 30
0.0
 10
91.1715345995
 20
152.8703259297
 30
0.0
 10
91.3967133398
 20
153.1462014397
 30
0.0
 10
91.4678974231
 20
153.369705114
 30
0.0
 10
91.4785271478
 20
153.4798319745
 30
0.0
  0
SPLINE
  5
2FC
100
AcDbEntity
  8
RUNDUNGEN
100
AcDbSpline
 62
7
  6
CONTINUOUS
 70
0
 71
3
 72
11
 73
7
 74
0
 42
0.0000001
 43
0.0000001
 44
0.0000000001
 40
0.0
 40
0.0
 40
0.0
 40
0.0
 40
0.2482605022
 40
0.4975003067
 40
0.7482033348
 40
1.0
 40
1.0
 40
1.0
 40
1.0
 10
91.0570257434
 20
151.6406249772
 30
0.0
 10
91.1852007751
 20
151.6406249772
 30
0.0
 10
91.444944714
 20
151.6929213981
 30
0.0
 10
91.7721997716
 20
151.9161408295
 30
0.0
 10
91.9908791839
 20
152.2483875517
 30
0.0
 10
92.0418334952
 20
152.5106242511
 30
0.0
 10
92.0418334964
 20
152.6406249772
 30
0.0
  0
SPLINE
  5
2FD
100
AcDbEntity
  8
RUNDUNGEN
100
AcDbSpline
 62
7
  6
CONTINUOUS
 70
0
 71
3
 72
11
 73
7
 74
0
 42
0.0000001
 43
0.0000001
 44
0.0000000001
 40
0.0
 40
0.0
 40
0.0
 40
0.0
 40
0.248260517
 40
0.4975003281
 40
0.7482033501
 40
1.0
 40
1.0
 40
1.0
 40
1.0
 10
96.4111618675
 20
151.6406249772
 30
0.0
 10
96.5393366775
 20
151.6406250328
 30
0.0
 10
96.7990801284
 20
151.6929213591
 30
0.0
 10
97.12633476
 20
151.9161400992
 30
0.0
 10
97.3450142897
 20
152.2483858376
 30
0.0
 10
97.3959691198
 20
152.5106219081
 30
0.0
 10
97.3959694733
 20
152.6406223937
 30
0.0
  0
LINE
  5
2FE
100
AcDbEntity
  8
RUNDUNGEN
100
AcDbLine
 62
7
  6
CONTINUOUS
 10
87.2430371642
 20
159.84352222
 11
87.2705581261
 21
160.195409321
  0
SPLINE
  5
2FF
100
AcDbEntity
  8
RUNDUNGEN
100
AcDbSpline
 62
7
  6
CONTINUOUS
 70
0
 71
3
 72
11
 73
7
 74
0
 42
0.0000001
 43
0.0000001
 44
0.0000000001
 40
0.0
 40
0.0
 40
0.0
 40
0.0
 40
0.2343311682
 40
0.4817528068
 40
0.7395184821
 40
1.0
 40
1.0
 40
1.0
 40
1.0
 10
91.4785339465
 20
164.8014179795
 30
0.0
 10
91.4679048796
 20
164.9115457211
 30
0.0
 10
91.3967211752
 20
165.1350516006
 30
0.0
 10
91.1715408799
 20
165.4109297597
 30
0.0
 10
90.8590098386
 20
165.6044663509
 30
0.0
 10
90.6163704207
 20
165.6630446063
 30
0.0
 10
90.4937328563
 20
165.6723008156
 30
0.0
  0
SPLINE
  5
300
100
AcDbEntity
  8
RUNDUNGEN
100
AcDbSpline
 62
7
  6
CONTINUOUS
 70
0
 71
3
 72
11
 73
7
 74
0
 42
0.0000001
 43
0.0000001
 44
0.0000000001
 40
0.0
 40
0.0
 40
0.0
 40
0.0
 40
0.2517966613
 40
0.502499689
 40
0.7517394951
 40
1.0
 40
1.0
 40
1.0
 40
1.0
 10
92.0418334964
 20
165.6406249772
 30
0.0
 10
92.0418334948
 20
165.7706257011
 30
0.0
 10
91.990879184
 20
166.0328623978
 30
0.0
 10
91.7721997752
 20
166.36510912
 30
0.0
 10
91.4449447177
 20
166.588328555
 30
0.0
 10
91.1852007766
 20
166.6406249772
 30
0.0
 10
91.0570257436
 20
166.6406249772
 30
0.0
  0
SPLINE
  5
301
100
AcDbEntity
  8
RUNDUNGEN
100
AcDbSpline
 62
7
  6
CONTINUOUS
 70
0
 71
3
 72
11
 73
7
 74
0
 42
0.0000001
 43
0.0000001
 44
0.0000000001
 40
0.0
 40
0.0
 40
0.0
 40
0.0
 40
0.2517966515
 40
0.5024996754
 40
0.7517394874
 40
1.0
 40
1.0
 40
1.0
 40
1.0
 10
97.3959710657
 20
165.6406269262
 30
0.0
 10
97.3959707991
 20
165.7706272194
 30
0.0
 10
97.3450162983
 20
166.0328629277
 30
0.0
 10
97.1263376219
 20
166.3651084872
 30
0.0
 10
96.799083979
 20
166.5883275762
 30
0.0
 10
96.5393410835
 20
166.6406245331
 30
0.0
 10
96.4111664662
 20
166.6406249772
 30
0.0
  0
SPLINE
  5
302
100
AcDbEntity
  8
RUNDUNGEN
100
AcDbSpline
 62
7
  6
CONTINUOUS
 70
0
 71
3
 72
14
 73
10
 74
0
 42
0.0000001
 43
0.0000001
 44
0.0000000001
 40
0.0
 40
0.0
 40
0.0
 40
0.0
 40
0.0850138186
 40
0.1871325513
 40
0.3031167346
 40
0.4299557756
 40
0.565050591
 40
0.7062397459
 40
1.0
 40
1.0
 40
1.0
 40
1.0
 10
73.7569682478
 20
153.6860201634
 30
0.0
 10
73.8391358246
 20
153.8450441747
 30
0.0
 10
74.050459994
 20
154.1790242338
 30
0.0
 10
74.4341064181
 20
154.6892265334
 30
0.0
 10
74.8985801521
 20
155.2478988571
 30
0.0
 10
75.4259159254
 20
155.8438502623
 30
0.0
 10
76.0012822879
 20
156.4679164599
 30
0.0
 10
76.8267354192
 20
157.3392612757
 30
0.0
 10
77.4656628481
 20
157.9953886242
 30
0.0
 10
77.8981053476
 20
158.4376048746
 30
0.0
  0
SPLINE
  5
303
100
AcDbEntity
  8
RUNDUNGEN
100
AcDbSpline
 62
7
  6
CONTINUOUS
 70
0
 71
3
 72
14
 73
10
 74
0
 42
0.0000001
 43
0.0000001
 44
0.0000000001
 40
0.0
 40
0.0
 40
0.0
 40
0.0
 40
0.2937539804
 40
0.4349443257
 40
0.5700407593
 40
0.6968809097
 40
0.8128658916
 40
0.9149854915
 40
1.0
 40
1.0
 40
1.0
 40
1.0
 10
77.8981068128
 20
159.8436027892
 30
0.0
 10
77.4656715702
 20
160.2858118568
 30
0.0
 10
76.8267761977
 20
160.9419615244
 30
0.0
 10
76.0013142261
 20
161.8132957885
 30
0.0
 10
75.4259386851
 20
162.4373704487
 30
0.0
 10
74.8985968928
 20
163.0333315423
 30
0.0
 10
74.4341157922
 20
163.5920099701
 30
0.0
 10
74.0504650991
 20
164.1022190407
 30
0.0
 10
73.8391367705
 20
164.436202728
 30
0.0
 10
73.7569686161
 20
164.5952290531
 30
0.0
  0
SPLINE
  5
304
100
AcDbEntity
  8
RUNDUNGEN
100
AcDbSpline
 62
7
  6
CONTINUOUS
 70
0
 71
3
 72
15
 73
11
 74
0
 42
0.0000001
 43
0.0000001
 44
0.0000000001
 40
0.0
 40
0.0
 40
0.0
 40
0.0
 40
0.0362770807
 40
0.0779366645
 40
0.1758857328
 40
0.2903513685
 40
0.4176729851
 40
0.5546939743
 40
0.6987993625
 40
1.0
 40
1.0
 40
1.0
 40
1.0
 10
91.478577703
 20
164.8015252299
 30
0.0
 10
91.4497918719
 20
164.7278192489
 30
0.0
 10
91.3770634682
 20
164.5737220902
 30
0.0
 10
91.1840614579
 20
164.2418726632
 30
0.0
 10
90.8621455582
 20
163.7896365566
 30
0.0
 10
90.3965299215
 20
163.213006553
 30
0.0
 10
89.8533278871
 20
162.590182262
 30
0.0
 10
89.2518823021
 20
161.9328788183
 30
0.0
 10
88.3798452828
 20
161.0093042425
 30
0.0
 10
87.7023607965
 20
160.3132323352
 30
0.0
 10
87.2430274158
 20
159.8435136341
 30
0.0
  0
SPLINE
  5
305
100
AcDbEntity
  8
RUNDUNGEN
100
AcDbSpline
 62
7
  6
CONTINUOUS
 70
0
 71
3
 72
11
 73
7
 74
0
 42
0.0000001
 43
0.0000001
 44
0.0000000001
 40
0.0
 40
0.0
 40
0.0
 40
0.0
 40
0.2454714118
 40
0.4923500267
 40
0.7438580538
 40
1.0
 40
1.0
 40
1.0
 40
1.0
 10
86.1293919214
 20
163.4406249772
 30
0.0
 10
86.2324139084
 20
163.4406164672
 30
0.0
 10
86.4411414494
 20
163.4011920429
 30
0.0
 10
86.710659927
 20
163.2292741671
 30
0.0
 10
86.8978438215
 20
162.9637378861
 30
0.0
 10
86.9428199669
 20
162.7481252836
 30
0.0
 10
86.9428372996
 20
162.6406249772
 30
0.0
  0
SPLINE
  5
306
100
AcDbEntity
  8
RUNDUNGEN
100
AcDbSpline
 62
7
  6
CONTINUOUS
 70
0
 71
3
 72
11
 73
7
 74
0
 42
0.0000001
 43
0.0000001
 44
0.0000000001
 40
0.0
 40
0.0
 40
0.0
 40
0.0
 40
0.25614343
 40
0.5076507996
 40
0.7545289736
 40
1.0
 40
1.0
 40
1.0
 40
1.0
 10
86.9428372996
 20
155.6406249772
 30
0.0
 10
86.94281869
 20
155.5331240226
 30
0.0
 10
86.8978453806
 20
155.3175106004
 30
0.0
 10
86.7106587298
 20
155.0519752501
 30
0.0
 10
86.4411410935
 20
154.8800579612
 30
0.0
 10
86.2324137712
 20
154.8406333494
 30
0.0
 10
86.1293919214
 20
154.8406249772
 30
0.0
  0
SPLINE
  5
307
100
AcDbEntity
  8
RUNDUNGEN
100
AcDbSpline
 62
7
  6
CONTINUOUS
 70
0
 71
3
 72
11
 73
7
 74
0
 42
0.0000001
 43
0.0000001
 44
0.0000000001
 40
0.0
 40
0.0
 40
0.0
 40
0.0
 40
0.2454714118
 40
0.4923500267
 40
0.7438580538
 40
1.0
 40
1.0
 40
1.0
 40
1.0
 10
79.0117448626
 20
154.8406249772
 30
0.0
 10
78.9087228756
 20
154.8406334872
 30
0.0
 10
78.6999953346
 20
154.8800579114
 30
0.0
 10
78.430476857
 20
155.0519757872
 30
0.0
 10
78.2432929625
 20
155.3175120682
 30
0.0
 10
78.1983168171
 20
155.5331246707
 30
0.0
 10
78.1982994844
 20
155.6406249772
 30
0.0
  0
SPLINE
  5
308
100
AcDbEntity
  8
RUNDUNGEN
100
AcDbSpline
 62
7
  6
CONTINUOUS
 70
0
 71
3
 72
11
 73
7
 74
0
 42
0.0000001
 43
0.0000001
 44
0.0000000001
 40
0.0
 40
0.0
 40
0.0
 40
0.0
 40
0.25614343
 40
0.5076507996
 40
0.7545289736
 40
1.0
 40
1.0
 40
1.0
 40
1.0
 10
78.1982994844
 20
162.6406249772
 30
0.0
 10
78.198318094
 20
162.7481259318
 30
0.0
 10
78.2432914034
 20
162.9637393539
 30
0.0
 10
78.4304780542
 20
163.2292747043
 30
0.0
 10
78.6999956905
 20
163.4011919932
 30
0.0
 10
78.9087230128
 20
163.4406166049
 30
0.0
 10
79.0117448626
 20
163.4406249772
 30
0.0
  0
SPLINE
  5
309
100
AcDbEntity
  8
RUNDUNGEN
100
AcDbSpline
 62
7
  6
CONTINUOUS
 70
0
 71
3
 72
11
 73
7
 74
0
 42
0.0000001
 43
0.0000001
 44
0.0000000001
 40
0.0
 40
0.0
 40
0.0
 40
0.0
 40
0.2477101266
 40
0.496836802
 40
0.7477927309
 40
1.0
 40
1.0
 40
1.0
 40
1.0
 10
104.7376307506
 20
152.6260945854
 30
0.0
 10
104.7192445543
 20
152.5125468689
 30
0.0
 10
104.6402716781
 20
152.2894832896
 30
0.0
 10
104.4118732669
 20
152.0185403182
 30
0.0
 10
104.1027856758
 20
151.8413767359
 30
0.0
 10
103.8671149689
 20
151.8005029729
 30
0.0
 10
103.75
 20
151.800502951
 30
0.0
  0
SPLINE
  5
30A
100
AcDbEntity
  8
RUNDUNGEN
100
AcDbSpline
 62
7
  6
CONTINUOUS
 70
0
 71
3
 72
15
 73
11
 74
0
 42
0.0000001
 43
0.0000001
 44
0.0000000001
 40
0.0
 40
0.0
 40
0.0
 40
0.0
 40
0.0362773703
 40
0.0779359634
 40
0.1758842756
 40
0.2903491611
 40
0.4176707194
 40
0.5546916669
 40
0.6987969035
 40
1.0
 40
1.0
 40
1.0
 40
1.0
 10
91.4785884871
 20
153.479693544
 30
0.0
 10
91.4498031841
 20
153.5534006833
 30
0.0
 10
91.3770781962
 20
153.7074983523
 30
0.0
 10
91.1840806799
 20
154.0393482289
 30
0.0
 10
90.8621702724
 20
154.4915839098
 30
0.0
 10
90.3965526262
 20
155.0682110181
 30
0.0
 10
89.8533526251
 20
155.6910380921
 30
0.0
 10
89.2519048226
 20
156.3483426613
 30
0.0
 10
88.3798688863
 20
157.2719307171
 30
0.0
 10
87.7023667082
 20
157.9679969228
 30
0.0
 10
87.243027738
 20
158.437720623
 30
0.0
  0
SPLINE
  5
30B
100
AcDbEntity
  8
RUNDUNGEN
100
AcDbSpline
 62
7
  6
CONTINUOUS
 70
0
 71
3
 72
11
 73
7
 74
0
 42
0.0000001
 43
0.0000001
 44
0.0000000001
 40
0.0
 40
0.0
 40
0.0
 40
0.0
 40
0.2477102817
 40
0.4968370016
 40
0.7477928605
 40
1.0
 40
1.0
 40
1.0
 40
1.0
 10
104.7376308159
 20
165.6551574608
 30
0.0
 10
104.7192446655
 20
165.7687053552
 30
0.0
 10
104.6402718845
 20
165.9917692701
 30
0.0
 10
104.4118735008
 20
166.2627127371
 30
0.0
 10
104.102785828
 20
166.4398766598
 30
0.0
 10
103.8671150067
 20
166.4807504869
 30
0.0
 10
103.75
 20
166.480750495
 30
0.0
  0
SPLINE
  5
30C
100
AcDbEntity
  8
RUNDUNGEN
100
AcDbSpline
 62
7
  6
CONTINUOUS
 70
0
 71
3
 72
11
 73
7
 74
0
 42
0.0000001
 43
0.0000001
 44
0.0000000001
 40
0.0
 40
0.0
 40
0.0
 40
0.0
 40
0.2666894375
 40
0.5178061361
 40
0.759007875
 40
1.0
 40
1.0
 40
1.0
 40
1.0
 10
78.9351280181
 20
163.7110253954
 30
0.0
 10
78.7835781206
 20
163.6941920541
 30
0.0
 10
78.4923744549
 20
163.6055591988
 30
0.0
 10
78.1439508581
 20
163.3316039212
 30
0.0
 10
77.9217732563
 20
162.9657960471
 30
0.0
 10
77.8705398888
 20
162.6875051403
 30
0.0
 10
77.870568392
 20
162.5497158863
 30
0.0
  0
SPLINE
  5
30D
100
AcDbEntity
  8
RUNDUNGEN
100
AcDbSpline
 62
7
  6
CONTINUOUS
 70
0
 71
3
 72
13
 73
9
 74
0
 42
0.0000001
 43
0.0000001
 44
0.0000000001
 40
0.0
 40
0.0
 40
0.0
 40
0.0
 40
0.2871535895
 40
0.5590625333
 40
0.6854887075
 40
0.8028567206
 40
0.9086495144
 40
1.0
 40
1.0
 40
1.0
 40
1.0
 10
77.8705685935
 20
160.1954899657
 30
0.0
 10
77.5421867976
 20
160.6808184719
 30
0.0
 10
76.9056567689
 20
161.627592314
 30
0.0
 10
76.144191444
 20
162.8012773779
 30
0.0
 10
75.5962420213
 20
163.6998310181
 30
0.0
 10
75.2417166809
 20
164.3190951354
 30
0.0
 10
74.9466210363
 20
164.8892102964
 30
0.0
 10
74.7858136672
 20
165.2588154368
 30
0.0
 10
74.7229316347
 20
165.4343054856
 30
0.0
  0
SPLINE
  5
30E
100
AcDbEntity
  8
RUNDUNGEN
100
AcDbSpline
 62
7
  6
CONTINUOUS
 70
0
 71
3
 72
14
 73
10
 74
0
 42
0.0000001
 43
0.0000001
 44
0.0000000001
 40
0.0
 40
0.0
 40
0.0
 40
0.0
 40
0.3510682394
 40
0.4985898707
 40
0.6278129165
 40
0.7398238121
 40
0.8366405999
 40
0.9216511547
 40
1.0
 40
1.0
 40
1.0
 40
1.0
 10
74.7229316347
 20
165.4343054856
 30
0.0
 10
74.659343202
 20
165.6117678922
 30
0.0
 10
74.5581728729
 20
165.8606807932
 30
0.0
 10
74.3955465217
 20
166.1563841759
 30
0.0
 10
74.2775831976
 20
166.3291142185
 30
0.0
 10
74.1567948009
 20
166.4654394667
 30
0.0
 10
74.0330187905
 20
166.564912878
 30
0.0
 10
73.905909436
 20
166.6263574176
 30
0.0
 10
73.8177279405
 20
166.6406178399
 30
0.0
 10
73.7756574346
 20
166.6406249694
 30
0.0
  0
SPLINE
  5
30F
100
AcDbEntity
  8
RUNDUNGEN
100
AcDbSpline
 62
7
  6
CONTINUOUS
 70
0
 71
3
 72
13
 73
9
 74
0
 42
0.0000001
 43
0.0000001
 44
0.0000000001
 40
0.0
 40
0.0
 40
0.0
 40
0.0
 40
0.0848876131
 40
0.1751942766
 40
0.2753215916
 40
0.3884273528
 40
0.6606086913
 40
1.0
 40
1.0
 40
1.0
 40
1.0
 10
72.8097314109
 20
152.6406249772
 30
0.0
 10
72.8516433379
 20
152.640633282
 30
0.0
 10
72.9385165819
 20
152.6526529982
 30
0.0
 10
73.0651745894
 20
152.7051822644
 30
0.0
 10
73.1891573428
 20
152.7909764863
 30
0.0
 10
73.3612946372
 20
152.9589486044
 30
0.0
 10
73.5639020342
 20
153.2574648834
 30
0.0
 10
73.6929409961
 20
153.5311701008
 30
0.0
 10
73.7569682457
 20
153.6860246355
 30
0.0
  0
SPLINE
  5
310
100
AcDbEntity
  8
RUNDUNGEN
100
AcDbSpline
 62
7
  6
CONTINUOUS
 70
0
 71
3
 72
15
 73
11
 74
0
 42
0.0000001
 43
0.0000001
 44
0.0000000001
 40
0.0
 40
0.0
 40
0.0
 40
0.0
 40
0.0402984106
 40
0.0852718075
 40
0.1876207547
 40
0.3037800186
 40
0.4306470511
 40
0.5656312205
 40
0.7066183404
 40
1.0
 40
1.0
 40
1.0
 40
1.0
 10
90.4937328562
 20
165.6723092104
 30
0.0
 10
90.4713560005
 20
165.5896940851
 30
0.0
 10
90.4152469923
 20
165.4172369918
 30
0.0
 10
90.2669645897
 20
165.0471711131
 30
0.0
 10
90.0208989032
 20
164.5438571537
 30
0.0
 10
89.6644981558
 20
163.9025595868
 30
0.0
 10
89.2510662237
 20
163.2141718386
 30
0.0
 10
88.7946314031
 20
162.4904335329
 30
0.0
 10
88.1345143511
 20
161.4771837217
 30
0.0
 10
87.6197718258
 20
160.7115093267
 30
0.0
 10
87.270567285
 20
160.1954221471
 30
0.0
  0
SPLINE
  5
311
100
AcDbEntity
  8
RUNDUNGEN
100
AcDbSpline
 62
7
  6
CONTINUOUS
 70
0
 71
3
 72
11
 73
7
 74
0
 42
0.0000001
 43
0.0000001
 44
0.0000000001
 40
0.0
 40
0.0
 40
0.0
 40
0.0
 40
0.240979655
 40
0.4821749986
 40
0.733302858
 40
1.0
 40
1.0
 40
1.0
 40
1.0
 10
87.270568392
 20
162.5497158863
 30
0.0
 10
87.2705969829
 20
162.6875436522
 30
0.0
 10
87.2193311436
 20
162.9659162071
 30
0.0
 10
86.9970272655
 20
163.3318146471
 30
0.0
 10
86.6483974296
 20
163.6057678899
 30
0.0
 10
86.3570473924
 20
163.6943222721
 30
0.0
 10
86.2054349587
 20
163.7110899097
 30
0.0
  0
SPLINE
  5
312
100
AcDbEntity
  8
RUNDUNGEN
100
AcDbSpline
 62
7
  6
CONTINUOUS
 70
0
 71
3
 72
16
 73
12
 74
0
 42
0.0000001
 43
0.0000001
 44
0.0000000001
 40
0.0
 40
0.0
 40
0.0
 40
0.0
 40
0.1681140325
 40
0.3311830113
 40
0.4845481659
 40
0.6241964188
 40
0.7469843385
 40
0.8507718453
 40
0.895248707
 40
0.9347976359
 40
1.0
 40
1.0
 40
1.0
 40
1.0
 10
101.9985773888
 20
159.1410583871
 30
0.0
 10
101.9985737267
 20
158.709052344
 30
0.0
 10
102.0200216337
 20
157.8578386392
 30
0.0
 10
102.1157922416
 20
156.6158014285
 30
0.0
 10
102.2711396101
 20
155.4534546703
 30
0.0
 10
102.4801032947
 20
154.4046721159
 30
0.0
 10
102.7353528329
 20
153.4977604606
 30
0.0
 10
102.9908412264
 20
152.8477703286
 30
0.0
 10
103.2179431981
 20
152.4209509903
 30
0.0
 10
103.4283472022
 20
152.1007334282
 30
0.0
 10
103.6136530251
 20
151.8979170593
 30
0.0
 10
103.7499995029
 20
151.8005350446
 30
0.0
  0
SPLINE
  5
313
100
AcDbEntity
  8
RUNDUNGEN
100
AcDbSpline
 62
7
  6
CONTINUOUS
 70
0
 71
3
 72
17
 73
13
 74
0
 42
0.0000001
 43
0.0000001
 44
0.0000000001
 40
0.0
 40
0.0
 40
0.0
 40
0.0
 40
0.0305459265
 40
0.0653742571
 40
0.1049162636
 40
0.1493842764
 40
0.2531512121
 40
0.3759152081
 40
0.5155474345
 40
0.668897168
 40
0.8319343237
 40
1.0
 40
1.0
 40
1.0
 40
1.0
 10
103.7500001111
 20
166.4807573797
 30
0.0
 10
103.6861121055
 20
166.4351426184
 30
0.0
 10
103.5594239473
 20
166.3232540744
 30
0.0
 10
103.3858993874
 20
166.1160065235
 30
0.0
 10
103.2179302657
 20
165.8602639427
 30
0.0
 10
102.9909994026
 20
165.4337948434
 30
0.0
 10
102.7354125151
 20
164.7837189846
 30
0.0
 10
102.4801979493
 20
163.8769584783
 30
0.0
 10
102.2712059929
 20
162.8282135731
 30
0.0
 10
102.1158564774
 20
161.6659424978
 30
0.0
 10
102.0200668524
 20
160.4240504683
 30
0.0
 10
101.998584315
 20
159.5729751844
 30
0.0
 10
101.9985773888
 20
159.1410583871
 30
0.0
  0
SPLINE
  5
314
100
AcDbEntity
  8
RUNDUNGEN
100
AcDbSpline
 62
7
  6
CONTINUOUS
 70
0
 71
3
 72
11
 73
7
 74
0
 42
0.0000001
 43
0.0000001
 44
0.0000000001
 40
0.0
 40
0.0
 40
0.0
 40
0.0
 40
0.240979655
 40
0.4821749986
 40
0.733302858
 40
1.0
 40
1.0
 40
1.0
 40
1.0
 10
77.870568392
 20
155.7315340681
 30
0.0
 10
77.8705398011
 20
155.5937063021
 30
0.0
 10
77.9218056405
 20
155.3153337472
 30
0.0
 10
78.1441095185
 20
154.9494353072
 30
0.0
 10
78.4927393544
 20
154.6754820644
 30
0.0
 10
78.7840893916
 20
154.5869276822
 30
0.0
 10
78.9357018253
 20
154.5701600446
 30
0.0
  0
SPLINE
  5
315
100
AcDbEntity
  8
RUNDUNGEN
100
AcDbSpline
 62
7
  6
CONTINUOUS
 70
0
 71
3
 72
11
 73
7
 74
0
 42
0.0000001
 43
0.0000001
 44
0.0000000001
 40
0.0
 40
0.0
 40
0.0
 40
0.0
 40
0.2666894375
 40
0.5178061361
 40
0.759007875
 40
1.0
 40
1.0
 40
1.0
 40
1.0
 10
86.2060087659
 20
154.5702245589
 30
0.0
 10
86.3575586634
 20
154.5870579002
 30
0.0
 10
86.6487623291
 20
154.6756907555
 30
0.0
 10
86.9971859259
 20
154.9496460331
 30
0.0
 10
87.2193635277
 20
155.3154539073
 30
0.0
 10
87.2705968952
 20
155.593744814
 30
0.0
 10
87.270568392
 20
155.7315340681
 30
0.0
  0
SPLINE
  5
316
100
AcDbEntity
  8
RUNDUNGEN
100
AcDbSpline
 62
7
  6
CONTINUOUS
 70
0
 71
3
 72
13
 73
9
 74
0
 42
0.0000001
 43
0.0000001
 44
0.0000000001
 40
0.0
 40
0.0
 40
0.0
 40
0.0
 40
0.0705184044
 40
0.1493412674
 40
0.2424014851
 40
0.3532543317
 40
0.634841438
 40
1.0
 40
1.0
 40
1.0
 40
1.0
 10
92.0418334964
 20
152.6406249772
 30
0.0
 10
92.0169559986
 20
152.6406363386
 30
0.0
 10
91.963950163
 20
152.6509505239
 30
0.0
 10
91.8889449137
 20
152.6942128447
 30
0.0
 10
91.8161327428
 20
152.7633207742
 30
0.0
 10
91.712921463
 20
152.9006761935
 30
0.0
 10
91.593089968
 20
153.1414493424
 30
0.0
 10
91.5170143937
 20
153.3567517539
 30
0.0
 10
91.4785884946
 20
153.4797079679
 30
0.0
  0
SPLINE
  5
317
100
AcDbEntity
  8
RUNDUNGEN
100
AcDbSpline
 62
7
  6
CONTINUOUS
 70
0
 71
3
 72
11
 73
7
 74
0
 42
0.0000001
 43
0.0000001
 44
0.0000000001
 40
0.0
 40
0.0
 40
0.0
 40
0.0
 40
0.3311755662
 40
0.4852043694
 40
0.6247590121
 40
1.0
 40
1.0
 40
1.0
 40
1.0
 10
77.870568392
 20
162.5497158873
 30
0.0
 10
77.8961520857
 20
162.5497158872
 30
0.0
 10
77.9336226263
 20
162.5528514111
 30
0.0
 10
77.9810479747
 20
162.5642286123
 30
0.0
 10
78.0281560373
 20
162.5808869552
 30
0.0
 10
78.070568392
 20
162.6116371789
 30
0.0
 10
78.070568392
 20
162.6406249771
 30
0.0
  0
SPLINE
  5
318
100
AcDbEntity
  8
RUNDUNGEN
100
AcDbSpline
 62
7
  6
CONTINUOUS
 70
0
 71
3
 72
12
 73
8
 74
0
 42
0.0000001
 43
0.0000001
 44
0.0000000001
 40
0.0
 40
0.0
 40
0.0
 40
0.0
 40
0.3725506265
 40
0.6906299067
 40
0.9062422974
 40
0.9673589263
 40
1.0
 40
1.0
 40
1.0
 40
1.0
 10
77.8705685935
 20
160.1955078293
 30
0.0
 10
77.8960580431
 20
160.195507708
 30
0.0
 10
77.9434246973
 20
160.1968043379
 30
0.0
 10
78.004885628
 20
160.2018754263
 30
0.0
 10
78.0457742855
 20
160.209269169
 30
0.0
 10
78.0650452433
 20
160.216241764
 30
0.0
 10
78.0705688066
 20
160.2214058053
 30
0.0
 10
78.0705683919
 20
160.2236390668
 30
0.0
  0
SPLINE
  5
319
100
AcDbEntity
  8
RUNDUNGEN
100
AcDbSpline
 62
7
  6
CONTINUOUS
 70
0
 71
3
 72
12
 73
8
 74
0
 42
0.0000001
 43
0.0000001
 44
0.0000000001
 40
0.0
 40
0.0
 40
0.0
 40
0.0
 40
0.372550349
 40
0.6906296607
 40
0.9062425781
 40
0.9673594174
 40
1.0
 40
1.0
 40
1.0
 40
1.0
 10
77.870568392
 20
158.085744883
 30
0.0
 10
77.896057784
 20
158.085744936
 30
0.0
 10
77.9434243598
 20
158.0844482536
 30
0.0
 10
78.0048851717
 20
158.0793773797
 30
0.0
 10
78.0457739871
 20
158.0719840527
 30
0.0
 10
78.0650449171
 20
158.0650117775
 30
0.0
 10
78.0705687356
 20
158.0598480331
 30
0.0
 10
78.070568392
 20
158.0576148086
 30
0.0
  0
SPLINE
  5
31A
100
AcDbEntity
  8
RUNDUNGEN
100
AcDbSpline
 62
7
  6
CONTINUOUS
 70
0
 71
3
 72
11
 73
7
 74
0
 42
0.0000001
 43
0.0000001
 44
0.0000000001
 40
0.0
 40
0.0
 40
0.0
 40
0.0
 40
0.3311764044
 40
0.485205736
 40
0.6247605475
 40
1.0
 40
1.0
 40
1.0
 40
1.0
 10
77.870568392
 20
155.7315340676
 30
0.0
 10
77.8961521231
 20
155.7315339294
 30
0.0
 10
77.9336226996
 20
155.7283982052
 30
0.0
 10
77.9810481016
 20
155.717020909
 30
0.0
 10
78.0281559917
 20
155.7003625168
 30
0.0
 10
78.070568392
 20
155.6696126258
 30
0.0
 10
78.070568392
 20
155.6406249772
 30
0.0
  0
SPLINE
  5
31B
100
AcDbEntity
  8
RUNDUNGEN
100
AcDbSpline
 62
7
  6
CONTINUOUS
 70
0
 71
3
 72
11
 73
7
 74
0
 42
0.0000001
 43
0.0000001
 44
0.0000000001
 40
0.0
 40
0.0
 40
0.0
 40
0.0
 40
0.331175628
 40
0.4852044866
 40
0.624759136
 40
1.0
 40
1.0
 40
1.0
 40
1.0
 10
87.270568392
 20
155.7315340676
 30
0.0
 10
87.2449846934
 20
155.7315340676
 30
0.0
 10
87.2075141441
 20
155.728398537
 30
0.0
 10
87.1600887853
 20
155.7170213361
 30
0.0
 10
87.1129807289
 20
155.7003629868
 30
0.0
 10
87.070568392
 20
155.669612766
 30
0.0
 10
87.070568392
 20
155.6406249772
 30
0.0
  0
SPLINE
  5
31C
100
AcDbEntity
  8
RUNDUNGEN
100
AcDbSpline
 62
7
  6
CONTINUOUS
 70
0
 71
3
 72
12
 73
8
 74
0
 42
0.0000001
 43
0.0000001
 44
0.0000000001
 40
0.0
 40
0.0
 40
0.0
 40
0.0
 40
0.3725475191
 40
0.6906246407
 40
0.906237579
 40
0.9673558978
 40
1.0
 40
1.0
 40
1.0
 40
1.0
 10
87.2705673529
 20
158.0857364884
 30
0.0
 10
87.2450781307
 20
158.0857371104
 30
0.0
 10
87.197711862
 20
158.0844412058
 30
0.0
 10
87.1362511722
 20
158.0793698685
 30
0.0
 10
87.0953628507
 20
158.0719754659
 30
0.0
 10
87.076091563
 20
158.0650019675
 30
0.0
 10
87.0705681145
 20
158.0598375877
 30
0.0
 10
87.070568392
 20
158.0576041202
 30
0.0
  0
SPLINE
  5
31D
100
AcDbEntity
  8
RUNDUNGEN
100
AcDbSpline
 62
7
  6
CONTINUOUS
 70
0
 71
3
 72
12
 73
8
 74
0
 42
0.0000001
 43
0.0000001
 44
0.0000000001
 40
0.0
 40
0.0
 40
0.0
 40
0.0
 40
0.3725480989
 40
0.6906261328
 40
0.9062395531
 40
0.9673575919
 40
1.0
 40
1.0
 40
1.0
 40
1.0
 10
87.270568392
 20
160.1955143352
 30
0.0
 10
87.2450790959
 20
160.1955144629
 30
0.0
 10
87.1977126749
 20
160.1968114656
 30
0.0
 10
87.1362519271
 20
160.2018829267
 30
0.0
 10
87.095363147
 20
160.2092766221
 30
0.0
 10
87.0760919834
 20
160.2162494971
 30
0.0
 10
87.0705681543
 20
160.2214134002
 30
0.0
 10
87.070568392
 20
160.2236467548
 30
0.0
  0
SPLINE
  5
31E
100
AcDbEntity
  8
RUNDUNGEN
100
AcDbSpline
 62
7
  6
CONTINUOUS
 70
0
 71
3
 72
11
 73
7
 74
0
 42
0.0000001
 43
0.0000001
 44
0.0000000001
 40
0.0
 40
0.0
 40
0.0
 40
0.0
 40
0.3311764046
 40
0.4852057362
 40
0.6247605476
 40
1.0
 40
1.0
 40
1.0
 40
1.0
 10
87.270568392
 20
162.5497158873
 30
0.0
 10
87.2449846609
 20
162.5497160254
 30
0.0
 10
87.2075140845
 20
162.5528517495
 30
0.0
 10
87.1600886824
 20
162.5642290456
 30
0.0
 10
87.1129807923
 20
162.5808874376
 30
0.0
 10
87.070568392
 20
162.6116373285
 30
0.0
 10
87.070568392
 20
162.6406249771
 30
0.0
  0
SPLINE
  5
31F
100
AcDbEntity
  8
RUNDUNGEN
100
AcDbSpline
 62
7
  6
CONTINUOUS
 70
0
 71
3
 72
12
 73
8
 74
0
 42
0.0000001
 43
0.0000001
 44
0.0000000001
 40
0.0
 40
0.0
 40
0.0
 40
0.0
 40
0.1249416642
 40
0.2218549909
 40
0.3433068712
 40
0.6479015819
 40
1.0
 40
1.0
 40
1.0
 40
1.0
 10
86.070568392
 20
163.6406249772
 30
0.0
 10
86.0796251564
 20
163.6406249772
 30
0.0
 10
86.0934513111
 20
163.6272321733
 30
0.0
 10
86.1043618323
 20
163.6056572871
 30
0.0
 10
86.117000392
 20
163.5694737859
 30
0.0
 10
86.1266583022
 20
163.5138127372
 30
0.0
 10
86.1293916019
 20
163.4661478676
 30
0.0
 10
86.1293919213
 20
163.4406249772
 30
0.0
  0
SPLINE
  5
320
100
AcDbEntity
  8
RUNDUNGEN
100
AcDbSpline
 62
7
  6
CONTINUOUS
 70
0
 71
3
 72
12
 73
8
 74
0
 42
0.0000001
 43
0.0000001
 44
0.0000000001
 40
0.0
 40
0.0
 40
0.0
 40
0.0
 40
0.1249438943
 40
0.221857182
 40
0.3433085839
 40
0.6479024282
 40
1.0
 40
1.0
 40
1.0
 40
1.0
 10
86.070568392
 20
154.6406249772
 30
0.0
 10
86.0796253447
 20
154.6406249772
 30
0.0
 10
86.0934519689
 20
154.6540174874
 30
0.0
 10
86.1043627341
 20
154.6755925662
 30
0.0
 10
86.1170013991
 20
154.7117760101
 30
0.0
 10
86.1266590442
 20
154.7674371642
 30
0.0
 10
86.1293919214
 20
154.8151020729
 30
0.0
 10
86.1293919214
 20
154.8406249772
 30
0.0
  0
SPLINE
  5
321
100
AcDbEntity
  8
RUNDUNGEN
100
AcDbSpline
 62
7
  6
CONTINUOUS
 70
0
 71
3
 72
12
 73
8
 74
0
 42
0.0000001
 43
0.0000001
 44
0.0000000001
 40
0.0
 40
0.0
 40
0.0
 40
0.0
 40
0.1249416642
 40
0.2218549909
 40
0.3433068712
 40
0.6479015819
 40
1.0
 40
1.0
 40
1.0
 40
1.0
 10
79.070568392
 20
154.6406249772
 30
0.0
 10
79.0615116276
 20
154.6406249772
 30
0.0
 10
79.0476854729
 20
154.654017781
 30
0.0
 10
79.0367749517
 20
154.6755926672
 30
0.0
 10
79.024136392
 20
154.7117761684
 30
0.0
 10
79.0144784818
 20
154.7674372171
 30
0.0
 10
79.0117451821
 20
154.8151020867
 30
0.0
 10
79.0117448627
 20
154.8406249772
 30
0.0
  0
SPLINE
  5
322
100
AcDbEntity
  8
RUNDUNGEN
100
AcDbSpline
 62
7
  6
CONTINUOUS
 70
0
 71
3
 72
12
 73
8
 74
0
 42
0.0000001
 43
0.0000001
 44
0.0000000001
 40
0.0
 40
0.0
 40
0.0
 40
0.0
 40
0.1249438954
 40
0.2218571836
 40
0.343308586
 40
0.6479024293
 40
1.0
 40
1.0
 40
1.0
 40
1.0
 10
79.070568392
 20
163.6406249772
 30
0.0
 10
79.0615114392
 20
163.6406249772
 30
0.0
 10
79.0476848151
 20
163.6272324666
 30
0.0
 10
79.0367740497
 20
163.6056573878
 30
0.0
 10
79.0241353849
 20
163.5694739438
 30
0.0
 10
79.0144777397
 20
163.5138127899
 30
0.0
 10
79.0117448626
 20
163.4661478813
 30
0.0
 10
79.0117448626
 20
163.4406249772
 30
0.0
  0
SPLINE
  5
323
100
AcDbEntity
  8
RUNDUNGEN
100
AcDbSpline
 62
7
  6
CONTINUOUS
 70
0
 71
3
 72
11
 73
7
 74
0
 42
0.0000001
 43
0.0000001
 44
0.0000000001
 40
0.0
 40
0.0
 40
0.0
 40
0.0
 40
0.2445086424
 40
0.4926070414
 40
0.7450641104
 40
1.0
 40
1.0
 40
1.0
 40
1.0
 10
255.5424037665
 20
154.6406249772
 30
0.0
 10
255.567281445
 20
154.6406249772
 30
0.0
 10
255.6179301032
 20
154.6513254626
 30
0.0
 10
255.6816389753
 20
154.6959743506
 30
0.0
 10
255.7236393926
 20
154.7625818838
 30
0.0
 10
255.7335577112
 20
154.8146863721
 30
0.0
 10
255.7335576113
 20
154.8406249772
 30
0.0
  0
SPLINE
  5
324
100
AcDbEntity
  8
RUNDUNGEN
100
AcDbSpline
 62
7
  6
CONTINUOUS
 70
0
 71
3
 72
11
 73
7
 74
0
 42
0.0000001
 43
0.0000001
 44
0.0000000001
 40
0.0
 40
0.0
 40
0.0
 40
0.0
 40
0.2227994346
 40
0.4603021914
 40
0.7185711274
 40
1.0
 40
1.0
 40
1.0
 40
1.0
 10
249.0232280424
 20
160.3654096297
 30
0.0
 10
248.9246373288
 20
160.7763884186
 30
0.0
 10
248.6186272499
 20
161.603842974
 30
0.0
 10
247.8650115138
 20
162.7523618108
 30
0.0
 10
246.8045402944
 20
163.7916584228
 30
0.0
 10
245.9366213174
 20
164.3494509915
 30
0.0
 10
245.462706414
 20
164.5952290531
 30
0.0
  0
SPLINE
  5
325
100
AcDbEntity
  8
RUNDUNGEN
100
AcDbSpline
 62
7
  6
CONTINUOUS
 70
0
 71
3
 72
22
 73
18
 74
0
 42
0.0000001
 43
0.0000001
 44
0.0000000001
 40
0.0
 40
0.0
 40
0.0
 40
0.0
 40
0.1755758777
 40
0.346889137
 40
0.5098763089
 40
0.6606230791
 40
0.7297825863
 40
0.7937673758
 40
0.8514618945
 40
0.9016728267
 40
0.9430608558
 40
0.9599699451
 40
0.9740988962
 40
0.9852783019
 40
0.9933931675
 40
0.9983361852
 40
1.0
 40
1.0
 40
1.0
 40
1.0
 10
248.5172102219
 20
155.6241745207
 30
0.0
 10
248.4791680285
 20
155.5624882394
 30
0.0
 10
248.4018103498
 20
155.4419534422
 30
0.0
 10
248.2820703438
 20
155.2688244531
 30
0.0
 10
248.1628211913
 20
155.1079526023
 30
0.0
 10
248.0648527751
 20
154.9839003123
 30
0.0
 10
247.9903386039
 20
154.8934542791
 30
0.0
 10
247.9394763906
 20
154.8333031682
 30
0.0
 10
247.8930477665
 20
154.7796356863
 30
0.0
 10
247.8522979557
 20
154.7334467272
 30
0.0
 10
247.8223039682
 20
154.7000816178
 30
0.0
 10
247.8023159122
 20
154.6780124053
 30
0.0
 10
247.7903209984
 20
154.6650098083
 30
0.0
 10
247.7816289528
 20
154.6552085878
 30
0.0
 10
247.7733744564
 20
154.6470153953
 30
0.0
 10
247.7718765206
 20
154.6440499349
 30
0.0
 10
247.7672718438
 20
154.6404853343
 30
0.0
 10
247.767944278
 20
154.6406249862
 30
0.0
  0
SPLINE
  5
326
100
AcDbEntity
  8
RUNDUNGEN
100
AcDbSpline
 62
7
  6
CONTINUOUS
 70
0
 71
3
 72
16
 73
12
 74
0
 42
0.0000001
 43
0.0000001
 44
0.0000000001
 40
0.0
 40
0.0
 40
0.0
 40
0.0
 40
0.0482789152
 40
0.0796336301
 40
0.117131559
 40
0.2116964317
 40
0.3321389022
 40
0.4759581763
 40
0.6389888575
 40
0.8159347093
 40
1.0
 40
1.0
 40
1.0
 40
1.0
 10
255.5424037665
 20
154.6406249772
 30
0.0
 10
255.5250420057
 20
154.6406284403
 30
0.0
 10
255.49688551
 20
154.6540860007
 30
0.0
 10
255.4671248551
 20
154.6836352064
 30
0.0
 10
255.4319829277
 20
154.731127904
 30
0.0
 10
255.3917331694
 20
154.813064256
 30
0.0
 10
255.3498022421
 20
154.9352944876
 30
0.0
 10
255.313908479
 20
155.08491122
 30
0.0
 10
255.2861837472
 20
155.2568060254
 30
0.0
 10
255.2686896032
 20
155.4445724128
 30
0.0
 10
255.2647019672
 20
155.5744325699
 30
0.0
 10
255.2646952054
 20
155.6406249769
 30
0.0
  0
SPLINE
  5
327
100
AcDbEntity
  8
RUNDUNGEN
100
AcDbSpline
 62
7
  6
CONTINUOUS
 70
0
 71
3
 72
22
 73
18
 74
0
 42
0.0000001
 43
0.0000001
 44
0.0000000001
 40
0.0
 40
0.0
 40
0.0
 40
0.0
 40
0.0016641371
 40
0.0066078009
 40
0.0147232203
 40
0.025902672
 40
0.0400311374
 40
0.0569397933
 40
0.0983270957
 40
0.1485372361
 40
0.2062300333
 40
0.2702114879
 40
0.3393683842
 40
0.4901143031
 40
0.6531026967
 40
0.8244214709
 40
1.0
 40
1.0
 40
1.0
 40
1.0
 10
247.7679442996
 20
163.6406249682
 30
0.0
 10
247.7672717602
 20
163.6407647094
 30
0.0
 10
247.7718771761
 20
163.6371996146
 30
0.0
 10
247.7733753182
 20
163.6342340775
 30
0.0
 10
247.7816301655
 20
163.6260406579
 30
0.0
 10
247.7903220916
 20
163.6162395489
 30
0.0
 10
247.8023163458
 20
163.6032372749
 30
0.0
 10
247.8223033027
 20
163.5811686637
 30
0.0
 10
247.8522959012
 20
163.5478044367
 30
0.0
 10
247.8930444136
 20
163.5016175321
 30
0.0
 10
247.9394713809
 20
163.4479534256
 30
0.0
 10
247.9903309744
 20
163.3878060174
 30
0.0
 10
248.064842052
 20
163.2973636835
 30
0.0
 10
248.1628078696
 20
163.1733139969
 30
0.0
 10
248.2820571428
 20
163.0124435157
 30
0.0
 10
248.4017978554
 20
162.8393147092
 30
0.0
 10
248.4791566614
 20
162.7187795638
 30
0.0
 10
248.5171990306
 20
162.657093572
 30
0.0
  0
SPLINE
  5
328
100
AcDbEntity
  8
RUNDUNGEN
100
AcDbSpline
 62
7
  6
CONTINUOUS
 70
0
 71
3
 72
16
 73
12
 74
0
 42
0.0000001
 43
0.0000001
 44
0.0000000001
 40
0.0
 40
0.0
 40
0.0
 40
0.0
 40
0.1840671327
 40
0.3610133964
 40
0.524042567
 40
0.6678619291
 40
0.788304069
 40
0.8828686627
 40
0.9203665099
 40
0.9517211792
 40
1.0
 40
1.0
 40
1.0
 40
1.0
 10
255.2646952054
 20
162.6406249774
 30
0.0
 10
255.2647023947
 20
162.7068180494
 30
0.0
 10
255.2686893321
 20
162.8366790072
 30
0.0
 10
255.2861831331
 20
163.0244457672
 30
0.0
 10
255.3139093306
 20
163.1963399567
 30
0.0
 10
255.349802429
 20
163.3459561797
 30
0.0
 10
255.3917333155
 20
163.468186255
 30
0.0
 10
255.4319830992
 20
163.5501223209
 30
0.0
 10
255.4671249907
 20
163.5976148604
 30
0.0
 10
255.4968855592
 20
163.6271640376
 30
0.0
 10
255.5250420389
 20
163.6406215588
 30
0.0
 10
255.5424037665
 20
163.6406249772
 30
0.0
  0
SPLINE
  5
329
100
AcDbEntity
  8
RUNDUNGEN
100
AcDbSpline
 62
7
  6
CONTINUOUS
 70
0
 71
3
 72
13
 73
9
 74
0
 42
0.0000001
 43
0.0000001
 44
0.0000000001
 40
0.0
 40
0.0
 40
0.0
 40
0.0
 40
0.3558670508
 40
0.5160344596
 40
0.6573059374
 40
0.7764950183
 40
0.8723108245
 40
1.0
 40
1.0
 40
1.0
 40
1.0
 10
255.4511816794
 20
162.6406249772
 30
0.0
 10
255.4511896064
 20
162.746188693
 30
0.0
 10
255.4627481109
 20
162.8997222415
 30
0.0
 10
255.5026816383
 20
163.0908709808
 30
0.0
 10
255.5395036306
 20
163.2100694087
 30
0.0
 10
255.5831524572
 20
163.3075155473
 30
0.0
 10
255.6360140741
 20
163.3917831791
 30
0.0
 10
255.6956801417
 20
163.4406149745
 30
0.0
 10
255.7335576113
 20
163.4406249772
 30
0.0
  0
SPLINE
  5
32A
100
AcDbEntity
  8
RUNDUNGEN
100
AcDbSpline
 62
7
  6
CONTINUOUS
 70
0
 71
3
 72
13
 73
9
 74
0
 42
0.0000001
 43
0.0000001
 44
0.0000000001
 40
0.0
 40
0.0
 40
0.0
 40
0.0
 40
0.1276893536
 40
0.223505478
 40
0.3426948382
 40
0.4839660519
 40
0.6441351667
 40
1.0
 40
1.0
 40
1.0
 40
1.0
 10
255.7335576113
 20
154.8406249772
 30
0.0
 10
255.6956800894
 20
154.8406351444
 30
0.0
 10
255.6360138439
 20
154.8894667874
 30
0.0
 10
255.5831523087
 20
154.9737348265
 30
0.0
 10
255.5395035443
 20
155.0711810445
 30
0.0
 10
255.5026809309
 20
155.1903798521
 30
0.0
 10
255.4627490831
 20
155.3815286848
 30
0.0
 10
255.4511890702
 20
155.5350619206
 30
0.0
 10
255.4511816794
 20
155.6406249772
 30
0.0
  0
SPLINE
  5
32B
100
AcDbEntity
  8
RUNDUNGEN
100
AcDbSpline
 62
7
  6
CONTINUOUS
 70
0
 71
3
 72
11
 73
7
 74
0
 42
0.0000001
 43
0.0000001
 44
0.0000000001
 40
0.0
 40
0.0
 40
0.0
 40
0.0
 40
0.2445078449
 40
0.4926058937
 40
0.7450634915
 40
1.0
 40
1.0
 40
1.0
 40
1.0
 10
255.5424037665
 20
163.6406249772
 30
0.0
 10
255.5672813474
 20
163.6406249772
 30
0.0
 10
255.6179298544
 20
163.6299245161
 30
0.0
 10
255.6816386099
 20
163.585275662
 30
0.0
 10
255.7236390491
 20
163.5186681393
 30
0.0
 10
255.7335576113
 20
163.466563628
 30
0.0
 10
255.7335576113
 20
163.4406249772
 30
0.0
  0
SPLINE
  5
32C
100
AcDbEntity
  8
RUNDUNGEN
100
AcDbSpline
 62
7
  6
CONTINUOUS
 70
0
 71
3
 72
11
 73
7
 74
0
 42
0.0000001
 43
0.0000001
 44
0.0000000001
 40
0.0
 40
0.0
 40
0.0
 40
0.0
 40
0.2701149165
 40
0.5219403173
 40
0.7632473764
 40
1.0
 40
1.0
 40
1.0
 40
1.0
 10
195.5792950235
 20
165.6406309937
 30
0.0
 10
195.0062056241
 20
165.7599179071
 30
0.0
 10
193.9028643499
 20
166.008963935
 30
0.0
 10
192.284681699
 20
166.3531544373
 30
0.0
 10
190.7185327724
 20
166.5858549078
 30
0.0
 10
189.6818221746
 20
166.6406248891
 30
0.0
 10
189.16875
 20
166.6406233713
 30
0.0
  0
SPLINE
  5
32D
100
AcDbEntity
  8
RUNDUNGEN
100
AcDbSpline
 62
7
  6
CONTINUOUS
 70
0
 71
3
 72
11
 73
7
 74
0
 42
0.0000001
 43
0.0000001
 44
0.0000000001
 40
0.0
 40
0.0
 40
0.0
 40
0.0
 40
0.2367534825
 40
0.4780600576
 40
0.7298849154
 40
1.0
 40
1.0
 40
1.0
 40
1.0
 10
189.168285141
 20
151.6406253801
 30
0.0
 10
189.6813921798
 20
151.6406078701
 30
0.0
 10
190.7181722422
 20
151.6953529752
 30
0.0
 10
192.2844253382
 20
151.9280465964
 30
0.0
 10
193.9027115434
 20
152.2722533106
 30
0.0
 10
195.0061260954
 20
152.5213001665
 30
0.0
 10
195.5792501974
 20
152.640606923
 30
0.0
  0
SPLINE
  5
32E
100
AcDbEntity
  8
RUNDUNGEN
100
AcDbSpline
 62
7
  6
CONTINUOUS
 70
0
 71
3
 72
14
 73
10
 74
0
 42
0.0000001
 43
0.0000001
 44
0.0000000001
 40
0.0
 40
0.0
 40
0.0
 40
0.0
 40
0.1901535174
 40
0.3705668293
 40
0.5349461815
 40
0.6787339254
 40
0.7982319848
 40
0.8911483782
 40
1.0
 40
1.0
 40
1.0
 40
1.0
 10
245.4628452255
 20
164.5951480845
 30
0.0
 10
245.4927987666
 20
164.6446811957
 30
0.0
 10
245.5492669928
 20
164.7423928042
 30
0.0
 10
245.624812836
 20
164.8866545913
 30
0.0
 10
245.6871912616
 20
165.0219463348
 30
0.0
 10
245.7346290474
 20
165.1427015278
 30
0.0
 10
245.7656434206
 20
165.2484617154
 30
0.0
 10
245.7824406149
 20
165.3401528963
 30
0.0
 10
245.7757170989
 20
165.4162768012
 30
0.0
 10
245.7479106167
 20
165.4342989942
 30
0.0
  0
SPLINE
  5
32F
100
AcDbEntity
  8
RUNDUNGEN
100
AcDbSpline
 62
7
  6
CONTINUOUS
 70
0
 71
3
 72
15
 73
11
 74
0
 42
0.0000001
 43
0.0000001
 44
0.0000000001
 40
0.0
 40
0.0
 40
0.0
 40
0.0
 40
0.1820838727
 40
0.3579944764
 40
0.5209463339
 40
0.6655707194
 40
0.7873644435
 40
0.838665567
 40
0.8833356794
 40
1.0
 40
1.0
 40
1.0
 40
1.0
 10
241.9275690451
 20
165.6406249772
 30
0.0
 10
241.9275690451
 20
165.7056214009
 30
0.0
 10
241.9243471558
 20
165.8334329598
 30
0.0
 10
241.9100860026
 20
166.0189364096
 30
0.0
 10
241.8869689238
 20
166.1900519233
 30
0.0
 10
241.8557802166
 20
166.3403684092
 30
0.0
 10
241.8231200034
 20
166.4489176482
 30
0.0
 10
241.7922770196
 20
166.5210057136
 30
0.0
 10
241.7577293734
 20
166.5861758304
 30
0.0
 10
241.710394345
 20
166.6406249772
 30
0.0
 10
241.66875
 20
166.6406249772
 30
0.0
  0
SPLINE
  5
330
100
AcDbEntity
  8
RUNDUNGEN
100
AcDbSpline
 62
7
  6
CONTINUOUS
 70
0
 71
3
 72
15
 73
11
 74
0
 42
0.0000001
 43
0.0000001
 44
0.0000000001
 40
0.0
 40
0.0
 40
0.0
 40
0.0
 40
0.1820840838
 40
0.3579948708
 40
0.5209468423
 40
0.6655712918
 40
0.7873650298
 40
0.8386661291
 40
0.8833361924
 40
1.0
 40
1.0
 40
1.0
 40
1.0
 10
195.5793143987
 20
165.640625879
 30
0.0
 10
195.5793140803
 20
165.705622268
 30
0.0
 10
195.5760916776
 20
165.8334337328
 30
0.0
 10
195.5618302557
 20
166.0189370184
 30
0.0
 10
195.5387133734
 20
166.1900523877
 30
0.0
 10
195.5075248803
 20
166.3403687262
 30
0.0
 10
195.4748648783
 20
166.4489178372
 30
0.0
 10
195.4440221314
 20
166.5210058452
 30
0.0
 10
195.4094748425
 20
166.5861757396
 30
0.0
 10
195.3621402935
 20
166.6406249789
 30
0.0
 10
195.3204962021
 20
166.6406249772
 30
0.0
  0
SPLINE
  5
331
100
AcDbEntity
  8
RUNDUNGEN
100
AcDbSpline
 62
7
  6
CONTINUOUS
 70
0
 71
3
 72
11
 73
7
 74
0
 42
0.0000001
 43
0.0000001
 44
0.0000000001
 40
0.0
 40
0.0
 40
0.0
 40
0.0
 40
0.2813748671
 40
0.5396451105
 40
0.7771767434
 40
1.0
 40
1.0
 40
1.0
 40
1.0
 10
245.4627050391
 20
153.6860201634
 30
0.0
 10
245.9356569498
 20
153.9312971028
 30
0.0
 10
246.8019664642
 20
154.487829249
 30
0.0
 10
247.8610876545
 20
155.5244619383
 30
0.0
 10
248.614656834
 20
156.670046235
 30
0.0
 10
248.9215311932
 20
157.4955079938
 30
0.0
 10
249.0207632596
 20
157.9055779084
 30
0.0
  0
SPLINE
  5
332
100
AcDbEntity
  8
RUNDUNGEN
100
AcDbSpline
 62
7
  6
CONTINUOUS
 70
0
 71
3
 72
15
 73
11
 74
0
 42
0.0000001
 43
0.0000001
 44
0.0000000001
 40
0.0
 40
0.0
 40
0.0
 40
0.0
 40
0.1820840663
 40
0.3579947733
 40
0.5209466704
 40
0.6655710537
 40
0.7873647499
 40
0.8386658518
 40
0.8833359363
 40
1.0
 40
1.0
 40
1.0
 40
1.0
 10
195.5793062994
 20
152.6406220762
 30
0.0
 10
195.5793063625
 20
152.5756258271
 30
0.0
 10
195.5760846154
 20
152.4478146388
 30
0.0
 10
195.5618237237
 20
152.2623117487
 30
0.0
 10
195.5387069549
 20
152.0911967974
 30
0.0
 10
195.5075186048
 20
151.9408808219
 30
0.0
 10
195.4748587317
 20
151.8323319494
 30
0.0
 10
195.4440160548
 20
151.7602440996
 30
0.0
 10
195.4094687664
 20
151.6950742422
 30
0.0
 10
195.3621342857
 20
151.6406251198
 30
0.0
 10
195.3204901886
 20
151.6406249772
 30
0.0
  0
SPLINE
  5
333
100
AcDbEntity
  8
RUNDUNGEN
100
AcDbSpline
 62
7
  6
CONTINUOUS
 70
0
 71
3
 72
15
 73
11
 74
0
 42
0.0000001
 43
0.0000001
 44
0.0000000001
 40
0.0
 40
0.0
 40
0.0
 40
0.0
 40
0.1820838697
 40
0.357994468
 40
0.5209463239
 40
0.6655707101
 40
0.7873644353
 40
0.8386655597
 40
0.8833356736
 40
1.0
 40
1.0
 40
1.0
 40
1.0
 10
241.9275690451
 20
152.6406249772
 30
0.0
 10
241.9275690463
 20
152.5756285542
 30
0.0
 10
241.9243471595
 20
152.4478169977
 30
0.0
 10
241.9100860085
 20
152.2623135505
 30
0.0
 10
241.886968932
 20
152.091198038
 30
0.0
 10
241.8557802256
 20
151.9408815513
 30
0.0
 10
241.8231200122
 20
151.8323323107
 30
0.0
 10
241.7922770273
 20
151.760244244
 30
0.0
 10
241.7577293793
 20
151.6950741244
 30
0.0
 10
241.710394347
 20
151.6406249772
 30
0.0
 10
241.6687499998
 20
151.6406249772
 30
0.0
  0
SPLINE
  5
334
100
AcDbEntity
  8
RUNDUNGEN
100
AcDbSpline
 62
7
  6
CONTINUOUS
 70
0
 71
3
 72
14
 73
10
 74
0
 42
0.0000001
 43
0.0000001
 44
0.0000000001
 40
0.0
 40
0.0
 40
0.0
 40
0.0
 40
0.1901532937
 40
0.3705663546
 40
0.5349454752
 40
0.6787330746
 40
0.7982311412
 40
0.8911477394
 40
1.0
 40
1.0
 40
1.0
 40
1.0
 10
245.4628439644
 20
153.6861018698
 30
0.0
 10
245.4927972236
 20
153.6365689592
 30
0.0
 10
245.549264926
 20
153.5388577776
 30
0.0
 10
245.6248101002
 20
153.3945966759
 30
0.0
 10
245.687188037
 20
153.2593056287
 30
0.0
 10
245.7346254995
 20
153.1385510231
 30
0.0
 10
245.7656399106
 20
153.0327913597
 30
0.0
 10
245.7824370955
 20
152.9411002206
 30
0.0
 10
245.775714815
 20
152.8649767688
 30
0.0
 10
245.74790882
 20
152.8469537293
 30
0.0
  0
SPLINE
  5
335
100
AcDbEntity
  8
RUNDUNGEN
100
AcDbSpline
 62
7
  6
CONTINUOUS
 70
0
 71
3
 72
16
 73
12
 74
0
 42
0.0000001
 43
0.0000001
 44
0.0000000001
 40
0.0
 40
0.0
 40
0.0
 40
0.0
 40
0.0422500826
 40
0.0715835238
 40
0.1078583936
 40
0.202019274
 40
0.3239925695
 40
0.4701329539
 40
0.6355482269
 40
0.8145396308
 40
1.0
 40
1.0
 40
1.0
 40
1.0
 10
104.75
 20
94.6681885721
 30
0.0
 10
104.7499999989
 20
94.6533834003
 30
0.0
 10
104.73512154
 20
94.62940122
 30
0.0
 10
104.7054577851
 20
94.6065963121
 30
0.0
 10
104.6562970436
 20
94.579055374
 30
0.0
 10
104.5726395125
 20
94.5493632365
 30
0.0
 10
104.4491182416
 20
94.5195621771
 30
0.0
 10
104.299080572
 20
94.4950204154
 30
0.0
 10
104.1281013609
 20
94.4766605355
 30
0.0
 10
103.9427134403
 20
94.4653711828
 30
0.0
 10
103.814988574
 20
94.4628141717
 30
0.0
 10
103.75
 20
94.462814193
 30
0.0
  0
SPLINE
  5
336
100
AcDbEntity
  8
RUNDUNGEN
100
AcDbSpline
 62
7
  6
CONTINUOUS
 70
0
 71
3
 72
14
 73
10
 74
0
 42
0.0000001
 43
0.0000001
 44
0.0000000001
 40
0.0
 40
0.0
 40
0.0
 40
0.0
 40
0.2507816984
 40
0.3758629372
 40
0.5007475063
 40
0.6255182971
 40
0.7502736012
 40
0.8750844388
 40
1.0
 40
1.0
 40
1.0
 40
1.0
 10
103.8030267706
 20
95.5917542584
 30
0.0
 10
103.1312988055
 20
94.8996163572
 30
0.0
 10
102.1267409362
 20
93.8597619425
 30
0.0
 10
100.8385874403
 20
92.4276900798
 30
0.0
 10
99.9186054524
 20
91.3175000375
 30
0.0
 10
99.0695035474
 20
90.1529099356
 30
0.0
 10
98.3264910568
 20
88.9166696502
 30
0.0
 10
97.7354151079
 20
87.5988921541
 30
0.0
 10
97.4793883561
 20
86.6673276634
 30
0.0
 10
97.3959606395
 20
86.194201451
 30
0.0
  0
LINE
  5
337
100
AcDbEntity
  8
RUNDUNGEN
100
AcDbLine
 62
7
  6
CONTINUOUS
 10
103.8030267706
 20
95.5917542584
 11
103.7500019837
 21
94.4628537967
  0
SPLINE
  5
338
100
AcDbEntity
  8
RUNDUNGEN
100
AcDbSpline
 62
7
  6
CONTINUOUS
 70
0
 71
3
 72
12
 73
8
 74
0
 42
0.0000001
 43
0.0000001
 44
0.0000000001
 40
0.0
 40
0.0
 40
0.0
 40
0.0
 40
0.2494702256
 40
0.3745475853
 40
0.4996417081
 40
0.7497839665
 40
1.0
 40
1.0
 40
1.0
 40
1.0
 10
61.3566800727
 20
102.3513787979
 30
0.0
 10
61.1871651602
 20
102.9840265948
 30
0.0
 10
60.7717299799
 20
103.8932937929
 30
0.0
 10
60.0397140649
 20
104.9819174995
 30
0.0
 10
59.2152175895
 20
106.0066491464
 30
0.0
 10
58.064023694
 20
107.1814382428
 30
0.0
 10
57.0897682441
 20
108.0625423
 30
0.0
 10
56.6024960627
 20
108.503125
 30
0.0
  0
SPLINE
  5
339
100
AcDbEntity
  8
RUNDUNGEN
100
AcDbSpline
 62
7
  6
CONTINUOUS
 70
0
 71
3
 72
12
 73
8
 74
0
 42
0.0000001
 43
0.0000001
 44
0.0000000001
 40
0.0
 40
0.0
 40
0.0
 40
0.0
 40
0.3240336887
 40
0.6064453378
 40
0.726634971
 40
0.8317842124
 40
1.0
 40
1.0
 40
1.0
 40
1.0
 10
79.070568392
 20
50.062364994
 30
0.0
 10
78.9069055203
 20
50.0624248703
 30
0.0
 10
78.5987302068
 20
50.0144242958
 30
0.0
 10
78.2624435971
 20
49.8546807418
 30
0.0
 10
78.0618985154
 20
49.6923020328
 30
0.0
 10
77.930847654
 20
49.5437754126
 30
0.0
 10
77.8705339469
 20
49.4076608244
 30
0.0
 10
77.870568392
 20
49.3226984288
 30
0.0
  0
SPLINE
  5
33A
100
AcDbEntity
  8
RUNDUNGEN
100
AcDbSpline
 62
7
  6
CONTINUOUS
 70
0
 71
3
 72
13
 73
9
 74
0
 42
0.0000001
 43
0.0000001
 44
0.0000000001
 40
0.0
 40
0.0
 40
0.0
 40
0.0
 40
0.123770905
 40
0.2476640029
 40
0.3718817949
 40
0.4965718062
 40
0.7475234136
 40
1.0
 40
1.0
 40
1.0
 40
1.0
 10
60.3907488388
 20
102.0925799765
 30
0.0
 10
60.3108666578
 20
102.3907068196
 30
0.0
 10
60.1053106892
 20
102.9752841605
 30
0.0
 10
59.7081919502
 20
103.8142836109
 30
0.0
 10
59.2524422205
 20
104.6251651272
 30
0.0
 10
58.5915265041
 20
105.6823198048
 30
0.0
 10
57.7029295273
 20
106.97278092
 30
0.0
 10
56.9700642648
 20
107.9919690167
 30
0.0
 10
56.6024960627
 20
108.503125
 30
0.0
  0
SPLINE
  5
33B
100
AcDbEntity
  8
RUNDUNGEN
100
AcDbSpline
 62
7
  6
CONTINUOUS
 70
0
 71
3
 72
13
 73
9
 74
0
 42
0.0000001
 43
0.0000001
 44
0.0000000001
 40
0.0
 40
0.0
 40
0.0
 40
0.0
 40
0.1065223524
 40
0.2159829828
 40
0.3295343278
 40
0.4484414476
 40
0.7066207229
 40
1.0
 40
1.0
 40
1.0
 40
1.0
 10
77.8705685935
 20
48.5776782218
 30
0.0
 10
77.7024395164
 20
48.612978938
 30
0.0
 10
77.3663170549
 20
48.7097207892
 30
0.0
 10
76.8804644242
 20
48.9293480918
 30
0.0
 10
76.4138634385
 20
49.2268196478
 30
0.0
 10
75.8113944167
 20
49.7434123917
 30
0.0
 10
75.1515316115
 20
50.6186513896
 30
0.0
 10
74.8299812187
 20
51.4630787169
 30
0.0
 10
74.7229316347
 20
51.9239601764
 30
0.0
  0
SPLINE
  5
33C
100
AcDbEntity
  8
RUNDUNGEN
100
AcDbSpline
 62
7
  6
CONTINUOUS
 70
0
 71
3
 72
10
 73
6
 74
0
 42
0.0000001
 43
0.0000001
 44
0.0000000001
 40
0.0
 40
0.0
 40
0.0
 40
0.0
 40
0.5148169581
 40
0.7617231498
 40
1.0
 40
1.0
 40
1.0
 40
1.0
 10
87.270568392
 20
49.3226984293
 30
0.0
 10
87.2203179791
 20
49.3226985678
 30
0.0
 10
87.1418064835
 20
49.2953849743
 30
0.0
 10
87.081662416
 20
49.2157244148
 30
0.0
 10
87.070568392
 20
49.1678115208
 30
0.0
 10
87.070568392
 20
49.1445537203
 30
0.0
  0
SPLINE
  5
33D
100
AcDbEntity
  8
RUNDUNGEN
100
AcDbSpline
 62
7
  6
CONTINUOUS
 70
0
 71
3
 72
8
 73
4
 74
0
 42
0.0000001
 43
0.0000001
 44
0.0000000001
 40
0.0
 40
0.0
 40
0.0
 40
0.0
 40
1.0
 40
1.0
 40
1.0
 40
1.0
 10
87.270568392
 20
48.5776816838
 30
0.0
 10
87.2360820063
 20
48.5776817083
 30
0.0
 10
87.200543952
 20
48.5682050035
 30
0.0
 10
87.1705682314
 20
48.5511531129
 30
0.0
  0
SPLINE
  5
33E
100
AcDbEntity
  8
RUNDUNGEN
100
AcDbSpline
 62
7
  6
CONTINUOUS
 70
0
 71
3
 72
9
 73
5
 74
0
 42
0.0000001
 43
0.0000001
 44
0.0000000001
 40
0.0
 40
0.0
 40
0.0
 40
0.0
 40
0.5010861381
 40
1.0
 40
1.0
 40
1.0
 40
1.0
 10
87.1705682314
 20
48.5511531129
 30
0.0
 10
87.1407210264
 20
48.5341743293
 30
0.0
 10
87.0892329228
 20
48.4835950034
 30
0.0
 10
87.070567875
 20
48.4138567963
 30
0.0
 10
87.070568392
 20
48.379667127
 30
0.0
  0
LINE
  5
33F
100
AcDbEntity
  8
RUNDUNGEN
100
AcDbLine
 62
7
  6
CONTINUOUS
 10
74.7229316347
 20
51.9239601764
 11
73.77561179
 21
56.003321385
  0
LINE
  5
340
100
AcDbEntity
  8
RUNDUNGEN
100
AcDbLine
 62
7
  6
CONTINUOUS
 10
91.0570780117
 20
56.0034687112
 11
90.4937328562
 21
52.3170564877
  0
SPLINE
  5
341
100
AcDbEntity
  8
RUNDUNGEN
100
AcDbSpline
 62
7
  6
CONTINUOUS
 70
0
 71
3
 72
13
 73
9
 74
0
 42
0.0000001
 43
0.0000001
 44
0.0000000001
 40
0.0
 40
0.0
 40
0.0
 40
0.0
 40
0.2971973733
 40
0.5562441521
 40
0.6745985124
 40
0.7870919623
 40
0.8951185571
 40
1.0
 40
1.0
 40
1.0
 40
1.0
 10
90.4937328562
 20
52.3170564877
 30
0.0
 10
90.4153465134
 20
51.8043032078
 30
0.0
 10
90.1249619636
 20
50.8592876167
 30
0.0
 10
89.45013496
 20
49.8722487942
 30
0.0
 10
88.8171657324
 20
49.2931566456
 30
0.0
 10
88.3240282716
 20
48.9624094188
 30
0.0
 10
87.8079840415
 20
48.7202768974
 30
0.0
 10
87.4497147786
 20
48.6152828949
 30
0.0
 10
87.270567285
 20
48.5776685878
 30
0.0
  0
SPLINE
  5
342
100
AcDbEntity
  8
RUNDUNGEN
100
AcDbSpline
 62
7
  6
CONTINUOUS
 70
0
 71
3
 72
8
 73
4
 74
0
 42
0.0000001
 43
0.0000001
 44
0.0000000001
 40
0.0
 40
0.0
 40
0.0
 40
0.0
 40
1.0
 40
1.0
 40
1.0
 40
1.0
 10
77.8705685935
 20
48.5776807595
 30
0.0
 10
77.9050560376
 20
48.5776807011
 30
0.0
 10
77.9405952166
 20
48.5682033051
 30
0.0
 10
77.9705715532
 20
48.5511503569
 30
0.0
  0
SPLINE
  5
343
100
AcDbEntity
  8
RUNDUNGEN
100
AcDbSpline
 62
7
  6
CONTINUOUS
 70
0
 71
3
 72
9
 73
5
 74
0
 42
0.0000001
 43
0.0000001
 44
0.0000000001
 40
0.0
 40
0.0
 40
0.0
 40
0.0
 40
0.5010863267
 40
1.0
 40
1.0
 40
1.0
 40
1.0
 10
77.9705715532
 20
48.5511503569
 30
0.0
 10
78.0004183031
 20
48.5341711281
 30
0.0
 10
78.0519052752
 20
48.4835912748
 30
0.0
 10
78.0705692937
 20
48.4138532528
 30
0.0
 10
78.0705683919
 20
48.3796637841
 30
0.0
  0
SPLINE
  5
344
100
AcDbEntity
  8
RUNDUNGEN
100
AcDbSpline
 62
7
  6
CONTINUOUS
 70
0
 71
3
 72
10
 73
6
 74
0
 42
0.0000001
 43
0.0000001
 44
0.0000000001
 40
0.0
 40
0.0
 40
0.0
 40
0.0
 40
0.5148168866
 40
0.7617233475
 40
1.0
 40
1.0
 40
1.0
 40
1.0
 10
77.870568392
 20
49.3226984293
 30
0.0
 10
77.920818775
 20
49.3226984292
 30
0.0
 10
77.9993301655
 20
49.2953848094
 30
0.0
 10
78.0594742737
 20
49.215724355
 30
0.0
 10
78.070568392
 20
49.1678114908
 30
0.0
 10
78.070568392
 20
49.1445537202
 30
0.0
  0
SPLINE
  5
345
100
AcDbEntity
  8
RUNDUNGEN
100
AcDbSpline
 62
7
  6
CONTINUOUS
 70
0
 71
3
 72
12
 73
8
 74
0
 42
0.0000001
 43
0.0000001
 44
0.0000000001
 40
0.0
 40
0.0
 40
0.0
 40
0.0
 40
0.3140626984
 40
0.5886499448
 40
0.708454333
 40
0.8164738411
 40
1.0
 40
1.0
 40
1.0
 40
1.0
 10
79.0704343521
 20
49.9039307004
 30
0.0
 10
78.9280589666
 20
49.9039756332
 30
0.0
 10
78.6587505002
 20
49.8490896327
 30
0.0
 10
78.3805653677
 20
49.677315952
 30
0.0
 10
78.2210137081
 20
49.5131275294
 30
0.0
 10
78.1149858028
 20
49.3597964511
 30
0.0
 10
78.0705619768
 20
49.2278135863
 30
0.0
 10
78.0705683965
 20
49.1446148843
 30
0.0
  0
SPLINE
  5
346
100
AcDbEntity
  8
RUNDUNGEN
100
AcDbSpline
 62
7
  6
CONTINUOUS
 70
0
 71
3
 72
17
 73
13
 74
0
 42
0.0000001
 43
0.0000001
 44
0.0000000001
 40
0.0
 40
0.0
 40
0.0
 40
0.0
 40
0.004218295
 40
0.0167833902
 40
0.0376234225
 40
0.066666529
 40
0.1490651834
 40
0.2629795927
 40
0.406838458
 40
0.5789931401
 40
0.7774447567
 40
1.0
 40
1.0
 40
1.0
 40
1.0
 10
78.070568392
 20
42.4071797946
 30
0.0
 10
78.0708513092
 20
42.4068729406
 30
0.0
 10
78.0727154048
 20
42.4068170031
 30
0.0
 10
78.0760028496
 20
42.4052920372
 30
0.0
 10
78.0820559122
 20
42.4037012988
 30
0.0
 10
78.0944704177
 20
42.3996953264
 30
0.0
 10
78.1158480305
 20
42.3932400334
 30
0.0
 10
78.1479998417
 20
42.383337466
 30
0.0
 10
78.1887160468
 20
42.3709982788
 30
0.0
 10
78.2374577547
 20
42.356329626
 30
0.0
 10
78.293714154
 20
42.3396024185
 30
0.0
 10
78.3336842805
 20
42.3278716452
 30
0.0
 10
78.3548255331
 20
42.3217113511
 30
0.0
  0
SPLINE
  5
347
100
AcDbEntity
  8
RUNDUNGEN
100
AcDbSpline
 62
7
  6
CONTINUOUS
 70
0
 71
3
 72
12
 73
8
 74
0
 42
0.0000001
 43
0.0000001
 44
0.0000000001
 40
0.0
 40
0.0
 40
0.0
 40
0.0
 40
0.183522151
 40
0.2915398894
 40
0.4113436632
 40
0.685939076
 40
1.0
 40
1.0
 40
1.0
 40
1.0
 10
87.0705683874
 20
49.1446151417
 30
0.0
 10
87.0705748353
 20
49.2278119788
 30
0.0
 10
87.0261523933
 20
49.3597922137
 30
0.0
 10
86.9201270846
 20
49.5131212863
 30
0.0
 10
86.7605769426
 20
49.6773147919
 30
0.0
 10
86.4823872468
 20
49.8490870086
 30
0.0
 10
86.2130771209
 20
49.9039757436
 30
0.0
 10
86.0707026219
 20
49.903930722
 30
0.0
  0
SPLINE
  5
348
100
AcDbEntity
  8
RUNDUNGEN
100
AcDbSpline
 62
7
  6
CONTINUOUS
 70
0
 71
3
 72
17
 73
13
 74
0
 42
0.0000001
 43
0.0000001
 44
0.0000000001
 40
0.0
 40
0.0
 40
0.0
 40
0.0
 40
0.2225617654
 40
0.4210161859
 40
0.5931709426
 40
0.7370280978
 40
0.8509407366
 40
0.9333384827
 40
0.9623805949
 40
0.9832193583
 40
0.9957830636
 40
1.0
 40
1.0
 40
1.0
 40
1.0
 10
86.7864595282
 20
42.3217546433
 30
0.0
 10
86.8075903349
 20
42.3279121299
 30
0.0
 10
86.8475404306
 20
42.3396374484
 30
0.0
 10
86.903768336
 20
42.3563566018
 30
0.0
 10
86.9524847519
 20
42.3710177317
 30
0.0
 10
86.993179592
 20
42.3833500558
 30
0.0
 10
87.025314182
 20
42.393247236
 30
0.0
 10
87.0466805973
 20
42.3996989086
 30
0.0
 10
87.0590877899
 20
42.4037035026
 30
0.0
 10
87.0651380413
 20
42.405292723
 30
0.0
 10
87.0684220661
 20
42.4068182166
 30
0.0
 10
87.0702862492
 20
42.4068727056
 30
0.0
 10
87.070568392
 20
42.4071797946
 30
0.0
  0
SPLINE
  5
349
100
AcDbEntity
  8
RUNDUNGEN
100
AcDbSpline
 62
7
  6
CONTINUOUS
 70
0
 71
3
 72
16
 73
12
 74
0
 42
0.0000001
 43
0.0000001
 44
0.0000000001
 40
0.0
 40
0.0
 40
0.0
 40
0.0
 40
0.008411292
 40
0.0240920058
 40
0.0813509778
 40
0.1727592595
 40
0.295457106
 40
0.44520131
 40
0.6167033191
 40
0.8038523001
 40
1.0
 40
1.0
 40
1.0
 40
1.0
 10
104.75
 20
95.6620104016
 30
0.0
 10
104.75
 20
95.6593319676
 30
0.0
 10
104.7436741695
 20
95.6529875244
 30
0.0
 10
104.7201000322
 20
95.6440159419
 30
0.0
 10
104.6679857393
 20
95.6330989531
 30
0.0
 10
104.5826472033
 20
95.6224238763
 30
0.0
 10
104.4670174441
 20
95.6123963185
 30
0.0
 10
104.3259524292
 20
95.604036625
 30
0.0
 10
104.1641629837
 20
95.5975498457
 30
0.0
 10
103.9875487542
 20
95.593289343
 30
0.0
 10
103.8654951553
 20
95.5920114307
 30
0.0
 10
103.8030356654
 20
95.591778191
 30
0.0
  0
SPLINE
  5
34A
100
AcDbEntity
  8
RUNDUNGEN
100
AcDbSpline
 62
7
  6
CONTINUOUS
 70
0
 71
3
 72
12
 73
8
 74
0
 42
0.0000001
 43
0.0000001
 44
0.0000000001
 40
0.0
 40
0.0
 40
0.0
 40
0.0
 40
0.168211804
 40
0.2733589973
 40
0.3935474002
 40
0.6759682759
 40
1.0
 40
1.0
 40
1.0
 40
1.0
 10
87.270568392
 20
49.3226984288
 30
0.0
 10
87.2706029326
 20
49.4076587939
 30
0.0
 10
87.2102904118
 20
49.5437701015
 30
0.0
 10
87.0792439844
 20
49.6922953593
 30
0.0
 10
86.8787005837
 20
49.8546811933
 30
0.0
 10
86.5424078517
 20
50.0144208826
 30
0.0
 10
86.2342302359
 20
50.0624250424
 30
0.0
 10
86.070568392
 20
50.062364994
 30
0.0
  0
LINE
  5
34B
100
AcDbEntity
  8
RUNDUNGEN
100
AcDbLine
 62
7
  6
CONTINUOUS
 10
103.7500001111
 20
94.4628470012
 11
101.9985773855
 21
88.5031250006
  0
SPLINE
  5
34C
100
AcDbEntity
  8
RUNDUNGEN
100
AcDbSpline
 62
7
  6
CONTINUOUS
 70
0
 71
3
 72
13
 73
9
 74
0
 42
0.0000001
 43
0.0000001
 44
0.0000000001
 40
0.0
 40
0.0
 40
0.0
 40
0.0
 40
0.2500967266
 40
0.5000304667
 40
0.6250527173
 40
0.7500562168
 40
0.8750333889
 40
1.0
 40
1.0
 40
1.0
 40
1.0
 10
103.7499938642
 20
95.6619694908
 30
0.0
 10
102.9429774099
 20
95.0525510668
 30
0.0
 10
101.3382863622
 20
93.8221858926
 30
0.0
 10
99.4846540199
 20
92.0894460648
 30
0.0
 10
98.2105822916
 20
90.5152539714
 30
0.0
 10
97.3963579888
 20
89.2311724584
 30
0.0
 10
96.7661730706
 20
87.8464816931
 30
0.0
 10
96.4989267536
 20
86.8655711967
 30
0.0
 10
96.4111664662
 20
86.3679462949
 30
0.0
  0
SPLINE
  5
34D
100
AcDbEntity
  8
RUNDUNGEN
100
AcDbSpline
 62
7
  6
CONTINUOUS
 70
0
 71
3
 72
13
 73
9
 74
0
 42
0.0000001
 43
0.0000001
 44
0.0000000001
 40
0.0
 40
0.0
 40
0.0
 40
0.0
 40
0.0878599048
 40
0.1825702597
 40
0.2884781474
 40
0.4076954501
 40
0.6847865082
 40
1.0
 40
1.0
 40
1.0
 40
1.0
 10
73.7570058085
 20
52.2090297745
 30
0.0
 10
73.7652453653
 20
52.1782810634
 30
0.0
 10
73.7938997208
 20
52.1170673088
 30
0.0
 10
73.8662669302
 20
52.0397799881
 30
0.0
 10
73.9653056732
 20
51.9776748616
 30
0.0
 10
74.1363657542
 20
51.9130579242
 30
0.0
 10
74.3957216509
 20
51.8821075442
 30
0.0
 10
74.6107033632
 20
51.902788413
 30
0.0
 10
74.7229316348
 20
51.9239643833
 30
0.0
  0
SPLINE
  5
34E
100
AcDbEntity
  8
RUNDUNGEN
100
AcDbSpline
 62
7
  6
CONTINUOUS
 70
0
 71
3
 72
9
 73
5
 74
0
 42
0.0000001
 43
0.0000001
 44
0.0000000001
 40
0.0
 40
0.0
 40
0.0
 40
0.0
 40
0.3326063688
 40
1.0
 40
1.0
 40
1.0
 40
1.0
 10
77.8705703545
 20
48.5776675068
 30
0.0
 10
77.872668671
 20
48.5738827141
 30
0.0
 10
77.8792574618
 20
48.5630797653
 30
0.0
 10
77.8894867988
 20
48.55194994
 30
0.0
 10
77.8980881153
 20
48.5507584296
 30
0.0
  0
LINE
  5
34F
100
AcDbEntity
  8
RUNDUNGEN
100
AcDbLine
 62
7
  6
CONTINUOUS
 10
95.8868770121
 20
108.502761752
 11
97.0330537797
 21
116.0031003937
  0
LINE
  5
350
100
AcDbEntity
  8
RUNDUNGEN
100
AcDbLine
 62
7
  6
CONTINUOUS
 10
61.07249024
 20
116.0031026826
 11
62.8141531758
 21
108.503125
  0
SPLINE
  5
351
100
AcDbEntity
  8
RUNDUNGEN
100
AcDbSpline
 62
7
  6
CONTINUOUS
 70
0
 71
3
 72
9
 73
5
 74
0
 42
0.0000001
 43
0.0000001
 44
0.0000000001
 40
0.0
 40
0.0
 40
0.0
 40
0.0
 40
0.1852123823
 40
1.0
 40
1.0
 40
1.0
 40
1.0
 10
87.2430371642
 20
48.5507502221
 30
0.0
 10
87.2454417012
 20
48.5510839433
 30
0.0
 10
87.2579728844
 20
48.5560214077
 30
0.0
 10
87.265379423
 20
48.5683209275
 30
0.0
 10
87.2705581261
 20
48.5776607155
 30
0.0
  0
SPLINE
  5
352
100
AcDbEntity
  8
RUNDUNGEN
100
AcDbSpline
 62
7
  6
CONTINUOUS
 70
0
 71
3
 72
13
 73
9
 74
0
 42
0.0000001
 43
0.0000001
 44
0.0000000001
 40
0.0
 40
0.0
 40
0.0
 40
0.0
 40
0.0819057574
 40
0.1721635311
 40
0.2759634245
 40
0.3954852506
 40
0.6777612832
 40
1.0
 40
1.0
 40
1.0
 40
1.0
 10
91.4785339465
 20
52.634885287
 30
0.0
 10
91.4732519227
 20
52.6049323253
 30
0.0
 10
91.4491691804
 20
52.5437979986
 30
0.0
 10
91.3800465576
 20
52.4660783022
 30
0.0
 10
91.2817204146
 20
52.4018236233
 30
0.0
 10
91.1066705866
 20
52.3315712714
 30
0.0
 10
90.8377945545
 20
52.2905314418
 30
0.0
 10
90.6123380502
 20
52.3012000066
 30
0.0
 10
90.4937328563
 20
52.3170612264
 30
0.0
  0
LINE
  5
353
100
AcDbEntity
  8
RUNDUNGEN
100
AcDbLine
 62
7
  6
CONTINUOUS
 10
59.1480134214
 20
101.003125
 11
56.6024960627
 21
108.503125
  0
ELLIPSE
  5
354
100
AcDbEntity
  8
0
100
AcDbEllipse
 62
7
  6
CONTINUOUS
 10
71.9633283987
 20
159.1406249772
 30
0.0
 11
0.0
 21
3.195
 31
0.0
 40
0.2679491924
 41
-3.1415926536
 42
-0.0
  0
ELLIPSE
  5
355
100
AcDbEntity
  8
0
100
AcDbEllipse
 62
7
  6
CONTINUOUS
 10
67.3546022889
 20
159.1406249772
 30
0.0
 11
0.0
 21
3.195
 31
0.0
 40
0.2679491924
 41
-0.0
 42
3.1415926536
  0
ELLIPSE
  5
356
100
AcDbEntity
  8
0
100
AcDbEllipse
 62
7
  6
CONTINUOUS
 10
95.6166246676
 20
159.1406249772
 30
0.0
 11
0.0
 21
3.195
 31
0.0
 40
0.1763269807
 41
-3.1415926536
 42
0.0
  0
ENDSEC
  0
SECTION
  2
OBJECTS
  0
DICTIONARY
  5
C
100
AcDbDictionary
280
0
281
1
  3
ACAD_GROUP
350
D
  3
ACAD_MLINESTYLE
350
17
  3
ACAD_LAYOUT
350
1A
  3
ACAD_PLOTSETTINGS
350
19
  3
ACAD_PLOTSTYLENAME
350
E
  0
DICTIONARY
  5
D
102
{ACAD_REACTORS
330
C
102
}
100
AcDbDictionary
280
0
281
1
  0
ACDBDICTIONARYWDFLT
  5
E
102
{ACAD_REACTORS
330
C
102
}
100
AcDbDictionary
281
1
  3
Normal
350
F
100
AcDbDictionaryWithDefault
340
F
  0
DICTIONARY
  5
17
102
{ACAD_REACTORS
330
C
102
}
100
AcDbDictionary
280
0
281
1
  3
Standard
350
18
  0
DICTIONARY
  5
19
102
{ACAD_REACTORS
330
C
102
}
100
AcDbDictionary
281
1
  0
DICTIONARY
  5
1A
102
{ACAD_REACTORS
330
C
102
}
100
AcDbDictionary
281
1
  3
Model
350
357
  3
Layout1
350
358
  0
ACDBPLACEHOLDER
  5
F
102
{ACAD_REACTORS
330
E
102
}
  0
MLINESTYLE
  5
18
102
{ACAD_REACTORS
330
17
102
}
100
AcDbMlineStyle
  2
STANDARD
 70
0
  3

 62
256
 51
90.0
 52
90.0
 71
2
 49
0.5
 62
256
  6
BYLAYER
 49
-0.5
 62
256
  6
BYLAYER
  0
LAYOUT
  5
357
102
{ACAD_REACTORS
330
1A
102
}
100
AcDbPlotSettings
  1

  2
none_device
  4
ISO_A4_(297.00_x_210.00_MM)
  6

 40
0.0
 41
0.0
 42
0.0
 43
0.0
 44
297.0
 45
210.0
 46
0.0
 47
0.0
 48
0.0
 49
0.0
140
0.0
141
0.0
142
1.0
143
1.0
 70
1024
 72
1
 73
0
 74
0
  7

 75
0
147
1.0
148
0.0
149
0.0
100
AcDbLayout
  1
Model
 70
0
 71
0
 10
0.0
 20
0.0
 11
297.0
 21
210.0
 12
0.0
 22
0.0
 32
0.0
 14
0.0
 24
0.0
 34
0.0
 15
0.0
 25
0.0
 35
0.0
146
0.0
 13
0.0
 23
0.0
 33
0.0
 16
1.0
 26
0.0
 36
0.0
 17
0.0
 27
1.0
 37
0.0
 76
0
330
212
345
0
346
0
  0
LAYOUT
  5
358
102
{ACAD_REACTORS
330
1A
102
}
100
AcDbPlotSettings
  1

  2
none_device
  4
ISO_A4_(297.00_x_210.00_MM)
  6

 40
0.0
 41
0.0
 42
0.0
 43
0.0
 44
297.0
 45
210.0
 46
0.0
 47
0.0
 48
0.0
 49
0.0
140
0.0
141
0.0
142
1.0
143
1.0
 70
0
 72
1
 73
0
 74
0
  7

 75
0
147
1.0
148
0.0
149
0.0
100
AcDbLayout
  1
Layout1
 70
0
 71
1
 10
0.0
 20
0.0
 11
297.0
 21
210.0
 12
0.0
 22
0.0
 32
0.0
 14
0.0
 24
0.0
 34
0.0
 15
0.0
 25
0.0
 35
0.0
146
0.0
 13
0.0
 23
0.0
 33
0.0
 16
1.0
 26
0.0
 36
0.0
 17
0.0
 27
1.0
 37
0.0
 76
0
330
213
345
0
346
0
  0
ENDSEC
  0
EOF
