999
DXF file: S:\Prolink\03_Konstruktion\CAD-Plots\Internet\2D_neu\S9\s9-57_grt_sml_f5_w50.dxf
999
Pro/ENGINEER 2012230 by Parametric Technology Corporation
  0
SECTION
  2
HEADER
  9
$ACADVER
  1
AC1021
  9
$DWGCODEPAGE
  3
ANSI_1252
  9
$EXTMAX
 10
297.0
 20
210.0
 30
0.0
  9
$EXTMIN
 10
0.0
 20
0.0
 30
0.0
  9
$LIMMIN
 10
0.0
 20
0.0
  9
$LIMMAX
 10
297.0
 20
210.0
  9
$VIEWCTR
 10
148.5
 20
105.0
  9
$VIEWSIZE
 40
210.0
  9
$CLAYER
  8
0
  9
$LTSCALE
 40
16.335
  9
$CELTYPE
  6
BYLAYER
  9
$DIMSCALE
 40
1.0
  9
$DIMASZ
 40
3.5
  9
$DIMEXO
 40
0.0
  9
$DIMDLI
 40
11.286
  9
$DIMEXE
 40
1.5
  9
$DIMCEN
 40
2.673
  9
$DIMLFAC
 40
1.0
  9
$DIMBLK
  1
_FILLED
  9
$DIMTXT
 40
3.5
  9
$DIMTOL
 70
1
  9
$DIMLIM
 70
0
  9
$DIMTFAC
 40
1.0
  9
$DIMTP
 40
0.005
  9
$DIMTM
 40
0.005
  9
$DIMGAP
 40
0.625
  9
$DIMDSEP
 70
46
  9
$PDMODE
 70
3
  9
$PDSIZE
 40
0.3125
  9
$HANDSEED
  5
359
  9
$TILEMODE
 70
1
  9
$MEASUREMENT
 70
1
  9
$INSUNITS
 70
4
  0
ENDSEC
  0
SECTION
  2
CLASSES
  0
CLASS
  1
ACDBDICTIONARYWDFLT
  2
AcDbDictionaryWithDefault
  3
AutoCAD 2000
 90
0
 91
1
280
0
281
0
  0
CLASS
  1
ACDBPLACEHOLDER
  2
AcDbPlaceHolder
  3
AutoCAD 2000
 90
0
 91
1
280
0
281
0
  0
CLASS
  1
LAYOUT
  2
AcDbLayout
  3
AutoCAD 2000
 90
0
 91
0
280
0
281
0
  0
ENDSEC
  0
SECTION
  2
TABLES
  0
TABLE
  2
VPORT
  5
8
100
AcDbSymbolTable
 70
2
  0
VPORT
  5
1F4
100
AcDbSymbolTableRecord
100
AcDbViewportTableRecord
  2
*ACTIVE
 70
0
 10
0.0
 20
0.0
 11
1.0
 21
1.0
 12
148.5
 22
105.0
 13
0.0
 23
0.0
 14
1.0
 24
1.0
 15
0.0
 25
0.0
 16
0.0
 26
0.0
 36
1.0
 17
0.0
 27
0.0
 37
0.0
 40
210.0
 41
1.4142857143
 42
50.0
 43
0.0
 44
0.0
 50
0.0
 51
0.0
 71
0
 72
100
 73
1
 74
1
 75
0
 76
0
 77
0
 78
0
  0
ENDTAB
  0
TABLE
  2
LTYPE
  5
5
100
AcDbSymbolTable
 70
6
  0
LTYPE
  5
14
100
AcDbSymbolTableRecord
100
AcDbLinetypeTableRecord
  2
BYBLOCK
 70
0
  3

 72
65
 73
0
 40
0.0
  0
LTYPE
  5
15
100
AcDbSymbolTableRecord
100
AcDbLinetypeTableRecord
  2
BYLAYER
 70
0
  3

 72
65
 73
0
 40
0.0
  0
LTYPE
  5
16
100
AcDbSymbolTableRecord
100
AcDbLinetypeTableRecord
  2
CONTINUOUS
 70
64
  3
Solid line
 72
65
 73
0
 40
0.0
  0
LTYPE
  5
1F5
100
AcDbSymbolTableRecord
100
AcDbLinetypeTableRecord
  2
CENTER
 70
64
  3
____ _ ____ _ ____ _ ____ _ ____ _ ____ _ ____
 72
65
 73
4
 40
0.6
 49
0.375
 74
0
 49
-0.075
 74
0
 49
0.075
 74
0
 49
-0.075
 74
0
  0
LTYPE
  5
1F6
100
AcDbSymbolTableRecord
100
AcDbLinetypeTableRecord
  2
HIDDEN
 70
64
  3
- - - - - - - - - - - - - - - - - - - -
 72
65
 73
2
 40
0.2
 49
0.1
 74
0
 49
-0.1
 74
0
  0
LTYPE
  5
1F7
100
AcDbSymbolTableRecord
100
AcDbLinetypeTableRecord
  2
PHANTOM
 70
64
  3
_____ _ _ _____ _ _ _____ _ _ _____
 72
65
 73
6
 40
0.8
 49
0.45
 74
0
 49
-0.05
 74
0
 49
0.1
 74
0
 49
-0.05
 74
0
 49
0.1
 74
0
 49
-0.05
 74
0
  0
LTYPE
  5
1F8
100
AcDbSymbolTableRecord
100
AcDbLinetypeTableRecord
  2
DOT
 70
64
  3
. . . . . . . . . . . . . . . . . . . .
 72
65
 73
2
 40
0.2
 49
0.1
 74
0
 49
-0.1
 74
0
  0
LTYPE
  5
1F9
100
AcDbSymbolTableRecord
100
AcDbLinetypeTableRecord
  2
DASHED
 70
64
  3
- - - - - - - - - - - - - - - - - - - -
 72
65
 73
2
 40
0.2
 49
0.1
 74
0
 49
-0.1
 74
0
  0
ENDTAB
  0
TABLE
  2
LAYER
  5
2
100
AcDbSymbolTable
 70
36
  0
LAYER
  5
10
100
AcDbSymbolTableRecord
100
AcDbLayerTableRecord
  2
0
 70
0
 62
7
  6
CONTINUOUS
370
-3
390
F
  0
LAYER
  5
1FA
100
AcDbSymbolTableRecord
100
AcDbLayerTableRecord
  2
DEFAULT_1
 70
0
 62
7
  6
CENTER
370
-3
390
F
  0
LAYER
  5
1FB
100
AcDbSymbolTableRecord
100
AcDbLayerTableRecord
  2
DEFAULT_2
 70
0
 62
8
  6
HIDDEN
370
-3
390
F
  0
LAYER
  5
1FC
100
AcDbSymbolTableRecord
100
AcDbLayerTableRecord
  2
DEFAULT_3
 70
0
 62
7
  6
PHANTOM
370
-3
390
F
  0
LAYER
  5
1FD
100
AcDbSymbolTableRecord
100
AcDbLayerTableRecord
  2
01___PRT_ALL_DTM_PLN
 70
0
 62
7
  6
CONTINUOUS
370
-3
390
F
  0
LAYER
  5
1FE
100
AcDbSymbolTableRecord
100
AcDbLayerTableRecord
  2
01___PRT_DEF_DTM_PLN
 70
0
 62
7
  6
CONTINUOUS
370
-3
390
F
  0
LAYER
  5
1FF
100
AcDbSymbolTableRecord
100
AcDbLayerTableRecord
  2
02___PRT_ALL_AXES
 70
0
 62
7
  6
CONTINUOUS
370
-3
390
F
  0
LAYER
  5
200
100
AcDbSymbolTableRecord
100
AcDbLayerTableRecord
  2
03___PRT_ALL_CURVES
 70
0
 62
7
  6
CONTINUOUS
370
-3
390
F
  0
LAYER
  5
201
100
AcDbSymbolTableRecord
100
AcDbLayerTableRecord
  2
04___PRT_ALL_DTM_PNT
 70
0
 62
7
  6
CONTINUOUS
370
-3
390
F
  0
LAYER
  5
202
100
AcDbSymbolTableRecord
100
AcDbLayerTableRecord
  2
05___PRT_ALL_DTM_CSYS
 70
0
 62
7
  6
CONTINUOUS
370
-3
390
F
  0
LAYER
  5
203
100
AcDbSymbolTableRecord
100
AcDbLayerTableRecord
  2
05___PRT_DEF_DTM_CSYS
 70
0
 62
7
  6
CONTINUOUS
370
-3
390
F
  0
LAYER
  5
204
100
AcDbSymbolTableRecord
100
AcDbLayerTableRecord
  2
06___PRT_ALL_SURFS
 70
0
 62
7
  6
CONTINUOUS
370
-3
390
F
  0
LAYER
  5
205
100
AcDbSymbolTableRecord
100
AcDbLayerTableRecord
  2
ALLE
 70
0
 62
7
  6
CONTINUOUS
370
-3
390
F
  0
LAYER
  5
206
100
AcDbSymbolTableRecord
100
AcDbLayerTableRecord
  2
AUSFORMSCHRAEGEN
 70
0
 62
7
  6
CONTINUOUS
370
-3
390
F
  0
LAYER
  5
207
100
AcDbSymbolTableRecord
100
AcDbLayerTableRecord
  2
BEZUGSACHSEN
 70
0
 62
7
  6
CONTINUOUS
370
-3
390
F
  0
LAYER
  5
208
100
AcDbSymbolTableRecord
100
AcDbLayerTableRecord
  2
BEZUGSEBENE
 70
0
 62
7
  6
CONTINUOUS
370
-3
390
F
  0
LAYER
  5
209
100
AcDbSymbolTableRecord
100
AcDbLayerTableRecord
  2
BEZUGSEBENEN
 70
0
 62
7
  6
CONTINUOUS
370
-3
390
F
  0
LAYER
  5
20A
100
AcDbSymbolTableRecord
100
AcDbLayerTableRecord
  2
BEZUGSEBENEN-KES
 70
0
 62
7
  6
CONTINUOUS
370
-3
390
F
  0
LAYER
  5
20B
100
AcDbSymbolTableRecord
100
AcDbLayerTableRecord
  2
FLAECHEN
 70
0
 62
7
  6
CONTINUOUS
370
-3
390
F
  0
LAYER
  5
20C
100
AcDbSymbolTableRecord
100
AcDbLayerTableRecord
  2
KURVEN
 70
0
 62
7
  6
CONTINUOUS
370
-3
390
F
  0
LAYER
  5
20D
100
AcDbSymbolTableRecord
100
AcDbLayerTableRecord
  2
PARAMETER-BEMAßUNGEN
 70
0
 62
7
  6
CONTINUOUS
370
-3
390
F
  0
LAYER
  5
20E
100
AcDbSymbolTableRecord
100
AcDbLayerTableRecord
  2
RUNDUNGEN
 70
0
 62
7
  6
CONTINUOUS
370
-3
390
F
  0
LAYER
  5
20F
100
AcDbSymbolTableRecord
100
AcDbLayerTableRecord
  2
SAMMELFLÄCHEN
 70
0
 62
7
  6
CONTINUOUS
370
-3
390
F
  0
ENDTAB
  0
TABLE
  2
STYLE
  5
3
100
AcDbSymbolTable
 70
1
  0
STYLE
  5
11
100
AcDbSymbolTableRecord
100
AcDbTextStyleTableRecord
  2
STANDARD
 70
0
 40
0.0
 41
0.7
 50
0.0
 71
0
 42
0.2
  3
txt
  4

  0
STYLE
  5
210
100
AcDbSymbolTableRecord
100
AcDbTextStyleTableRecord
  2
TEXTSTYLE_1
 70
0
 40
0.0
 41
0.8
 50
0.0
 71
0
 42
0.2
  3
gdt
  4

  0
ENDTAB
  0
TABLE
  2
VIEW
  5
6
100
AcDbSymbolTable
 70
0
  0
ENDTAB
  0
TABLE
  2
UCS
  5
7
100
AcDbSymbolTable
 70
0
  0
ENDTAB
  0
TABLE
  2
APPID
  5
9
100
AcDbSymbolTable
 70
1
  0
APPID
  5
211
100
AcDbSymbolTableRecord
100
AcDbRegAppTableRecord
  2
ACAD
 70
0
  0
ENDTAB
  0
TABLE
  2
BLOCK_RECORD
  5
1
100
AcDbSymbolTable
 70
0
  0
BLOCK_RECORD
  5
212
100
AcDbSymbolTableRecord
100
AcDbBlockTableRecord
  2
*Model_Space
  0
BLOCK_RECORD
  5
213
100
AcDbSymbolTableRecord
100
AcDbBlockTableRecord
  2
*Paper_Space
  0
ENDTAB
  0
TABLE
  2
DIMSTYLE
  5
A
100
AcDbSymbolTable
 70
1
100
AcDbDimStyleTable
 71
0
  0
DIMSTYLE
105
214
100
AcDbSymbolTableRecord
100
AcDbDimStyleTableRecord
  2
STANDARD
 70
0
  3

  4

 40
1.0
 41
3.5
 42
0.0
 43
0.38
 44
1.5
 45
0.0
 46
0.0
 47
0.005
 48
0.005
140
3.5
141
0.09
142
0.0
143
25.4
144
1.0
145
0.0
146
1.0
147
0.625
 71
1.0
 72
0.0
 73
0
 74
0
 75
0
 76
0
 77
1
 78
8
170
0
171
2
172
0
173
0
174
0
175
0
176
0
177
0
178
5
270
2
271
3
272
3
273
2
274
2
275
0
280
0
281
0
282
0
283
1
284
8
285
0
286
0
287
3
288
0
340
11
278
46
  0
ENDTAB
  0
ENDSEC
  0
SECTION
  2
BLOCKS
  0
BLOCK
  5
20
100
AcDbEntity
  8
0
100
AcDbBlockBegin
  2
*Model_Space
 70
0
 10
0.0
 20
0.0
 30
0.0
  3
*Model_Space
  1

  0
ENDBLK
  5
21
100
AcDbEntity
  8
0
100
AcDbBlockEnd
  0
BLOCK
  5
1C
100
AcDbEntity
  8
0
100
AcDbBlockBegin
  2
*Paper_Space
 70
0
 10
0.0
 20
0.0
 30
0.0
  3
*Paper_Space
  1

  0
ENDBLK
  5
1D
100
AcDbEntity
  8
0
100
AcDbBlockEnd
  0
ENDSEC
  0
SECTION
  2
ENTITIES
  0
LINE
  5
215
100
AcDbEntity
  8
0
100
AcDbLine
 62
7
  6
CONTINUOUS
 10
0.0
 20
0.0
 11
0.0
 21
210.0
  0
LINE
  5
216
100
AcDbEntity
  8
0
100
AcDbLine
 62
7
  6
CONTINUOUS
 10
0.0
 20
0.0
 11
297.0
 21
0.0
  0
LINE
  5
217
100
AcDbEntity
  8
0
100
AcDbLine
 62
7
  6
CONTINUOUS
 10
0.0
 20
210.0
 11
297.0
 21
210.0
  0
LINE
  5
218
100
AcDbEntity
  8
0
100
AcDbLine
 62
7
  6
CONTINUOUS
 10
297.0
 20
0.0
 11
297.0
 21
210.0
  0
LINE
  5
219
100
AcDbEntity
  8
RUNDUNGEN
100
AcDbLine
 62
7
  6
CONTINUOUS
 10
54.75
 20
152.6406249772
 11
54.75
 21
165.6406249771
  0
LINE
  5
21A
100
AcDbEntity
  8
RUNDUNGEN
100
AcDbLine
 62
7
  6
CONTINUOUS
 10
55.75
 20
151.6406249772
 11
55.75
 21
166.6406249772
  0
LINE
  5
21B
100
AcDbEntity
  8
0
100
AcDbLine
 62
7
  6
CONTINUOUS
 10
91.0570257434
 20
151.6406249772
 11
73.7756572372
 21
151.6406249772
  0
LINE
  5
21C
100
AcDbEntity
  8
0
100
AcDbLine
 62
7
  6
CONTINUOUS
 10
58.6730484379
 20
151.6406249772
 11
55.75
 21
151.6406249772
  0
LINE
  5
21D
100
AcDbEntity
  8
RUNDUNGEN
100
AcDbLine
 62
7
  6
CONTINUOUS
 10
56.6024968333
 20
151.6406249772
 11
103.7499912534
 21
151.6406249772
  0
LINE
  5
21E
100
AcDbEntity
  8
0
100
AcDbLine
 62
7
  6
CONTINUOUS
 10
102.05
 20
151.6406249772
 11
103.75
 21
151.6406249772
  0
LINE
  5
21F
100
AcDbEntity
  8
RUNDUNGEN
100
AcDbLine
 62
7
  6
CONTINUOUS
 10
73.7569682457
 20
153.6860246355
 11
73.7569686142
 21
164.5952245607
  0
LINE
  5
220
100
AcDbEntity
  8
RUNDUNGEN
100
AcDbLine
 62
7
  6
CONTINUOUS
 10
60.3907403184
 20
152.6406220762
 11
72.8097314109
 21
152.6406249772
  0
LINE
  5
221
100
AcDbEntity
  8
RUNDUNGEN
100
AcDbLine
 62
7
  6
CONTINUOUS
 10
97.3959527969
 20
152.6406223937
 11
92.0418334964
 21
152.6406249772
  0
LINE
  5
222
100
AcDbEntity
  8
RUNDUNGEN
100
AcDbLine
 62
7
  6
CONTINUOUS
 10
79.070568392
 20
154.5627028992
 11
86.070568392
 21
154.5627028992
  0
LINE
  5
223
100
AcDbEntity
  8
RUNDUNGEN
100
AcDbLine
 62
7
  6
CONTINUOUS
 10
86.0705683919
 20
154.6406249772
 11
79.0705683921
 21
154.6406249772
  0
LINE
  5
224
100
AcDbEntity
  8
RUNDUNGEN
100
AcDbLine
 62
7
  6
CONTINUOUS
 10
86.1378760843
 20
154.8406249772
 11
79.0032606997
 21
154.8406249772
  0
LINE
  5
225
100
AcDbEntity
  8
RUNDUNGEN
100
AcDbLine
 62
7
  6
CONTINUOUS
 10
87.070568392
 20
155.6406249772
 11
86.9532607011
 21
155.6406249772
  0
LINE
  5
226
100
AcDbEntity
  8
RUNDUNGEN
100
AcDbLine
 62
7
  6
CONTINUOUS
 10
78.070568392
 20
155.6406249772
 11
78.1878760843
 21
155.6406249772
  0
LINE
  5
227
100
AcDbEntity
  8
RUNDUNGEN
100
AcDbLine
 62
7
  6
CONTINUOUS
 10
77.8705679326
 20
158.0857072888
 11
77.870568392
 21
155.7315340681
  0
LINE
  5
228
100
AcDbEntity
  8
RUNDUNGEN
100
AcDbLine
 62
7
  6
CONTINUOUS
 10
77.870568392
 20
162.5497158863
 11
77.8705685935
 21
160.1954911161
  0
LINE
  5
229
100
AcDbEntity
  8
RUNDUNGEN
100
AcDbLine
 62
7
  6
CONTINUOUS
 10
77.8981068128
 20
159.8436020216
 11
77.8981053476
 21
158.4376056787
  0
LINE
  5
22A
100
AcDbEntity
  8
RUNDUNGEN
100
AcDbLine
 62
7
  6
CONTINUOUS
 10
78.070568392
 20
155.6406249772
 11
78.070568392
 21
162.6406249772
  0
LINE
  5
22B
100
AcDbEntity
  8
RUNDUNGEN
100
AcDbLine
 62
7
  6
CONTINUOUS
 10
78.1878760843
 20
155.6406249772
 11
78.1878760843
 21
162.6406249772
  0
LINE
  5
22C
100
AcDbEntity
  8
RUNDUNGEN
100
AcDbLine
 62
7
  6
CONTINUOUS
 10
95.6166246676
 20
155.9456249772
 11
91.8002555022
 21
155.9456249772
  0
LINE
  5
22D
100
AcDbEntity
  8
0
100
AcDbLine
 62
7
  6
CONTINUOUS
 10
67.3546022889
 20
155.9456249772
 11
71.9633283987
 21
155.9456249772
  0
LINE
  5
22E
100
AcDbEntity
  8
RUNDUNGEN
100
AcDbLine
 62
7
  6
CONTINUOUS
 10
79.070568392
 20
163.7185470551
 11
79.070568392
 21
163.6406249772
  0
LINE
  5
22F
100
AcDbEntity
  8
RUNDUNGEN
100
AcDbLine
 62
7
  6
CONTINUOUS
 10
79.070568392
 20
154.5627028992
 11
79.070568392
 21
154.6406249772
  0
LINE
  5
230
100
AcDbEntity
  8
RUNDUNGEN
100
AcDbLine
 62
7
  6
CONTINUOUS
 10
77.8981053479
 20
158.4378164122
 11
78.070568392
 21
158.4378204862
  0
LINE
  5
231
100
AcDbEntity
  8
RUNDUNGEN
100
AcDbLine
 62
7
  6
CONTINUOUS
 10
87.243027738
 20
158.4378226221
 11
87.070568392
 21
158.4378236921
  0
LINE
  5
232
100
AcDbEntity
  8
RUNDUNGEN
100
AcDbLine
 62
7
  6
CONTINUOUS
 10
87.2430274158
 20
159.8434270077
 11
87.070568392
 21
159.8434262643
  0
LINE
  5
233
100
AcDbEntity
  8
RUNDUNGEN
100
AcDbLine
 62
7
  6
CONTINUOUS
 10
77.8981068126
 20
159.8434309138
 11
78.070568392
 21
159.8434278694
  0
LINE
  5
234
100
AcDbEntity
  8
0
100
AcDbLine
 62
7
  6
CONTINUOUS
 10
71.9633283987
 20
162.3356249772
 11
67.3546022889
 21
162.3356249772
  0
LINE
  5
235
100
AcDbEntity
  8
RUNDUNGEN
100
AcDbLine
 62
7
  6
CONTINUOUS
 10
91.8002540084
 20
162.3356249772
 11
95.6166246676
 21
162.3356249772
  0
LINE
  5
236
100
AcDbEntity
  8
RUNDUNGEN
100
AcDbLine
 62
7
  6
CONTINUOUS
 10
87.070568392
 20
162.6406249772
 11
86.9532606997
 21
162.6406249772
  0
LINE
  5
237
100
AcDbEntity
  8
RUNDUNGEN
100
AcDbLine
 62
7
  6
CONTINUOUS
 10
78.070568392
 20
162.6406249772
 11
78.187876083
 21
162.6406249771
  0
LINE
  5
238
100
AcDbEntity
  8
RUNDUNGEN
100
AcDbLine
 62
7
  6
CONTINUOUS
 10
79.0032606997
 20
163.4406249772
 11
86.1378760843
 21
163.4406249772
  0
LINE
  5
239
100
AcDbEntity
  8
RUNDUNGEN
100
AcDbLine
 62
7
  6
CONTINUOUS
 10
79.0705683921
 20
163.6406249772
 11
86.0705683919
 21
163.6406249772
  0
LINE
  5
23A
100
AcDbEntity
  8
RUNDUNGEN
100
AcDbLine
 62
7
  6
CONTINUOUS
 10
86.070568392
 20
163.7185470551
 11
79.070568392
 21
163.7185470551
  0
LINE
  5
23B
100
AcDbEntity
  8
RUNDUNGEN
100
AcDbLine
 62
7
  6
CONTINUOUS
 10
86.070568392
 20
163.7185470551
 11
86.070568392
 21
163.6406249772
  0
LINE
  5
23C
100
AcDbEntity
  8
RUNDUNGEN
100
AcDbLine
 62
7
  6
CONTINUOUS
 10
86.070568392
 20
154.5627028992
 11
86.070568392
 21
154.6406249772
  0
LINE
  5
23D
100
AcDbEntity
  8
RUNDUNGEN
100
AcDbLine
 62
7
  6
CONTINUOUS
 10
97.3959550591
 20
165.6406269262
 11
92.0418334964
 21
165.6406249772
  0
LINE
  5
23E
100
AcDbEntity
  8
RUNDUNGEN
100
AcDbLine
 62
7
  6
CONTINUOUS
 10
72.8097314109
 20
165.6406249772
 11
60.3907500599
 21
165.640625879
  0
LINE
  5
23F
100
AcDbEntity
  8
RUNDUNGEN
100
AcDbLine
 62
7
  6
CONTINUOUS
 10
86.9532606997
 20
162.6406249772
 11
86.9532606997
 21
155.6406249772
  0
LINE
  5
240
100
AcDbEntity
  8
RUNDUNGEN
100
AcDbLine
 62
7
  6
CONTINUOUS
 10
87.070568392
 20
162.6406249772
 11
87.070568392
 21
155.6406249772
  0
LINE
  5
241
100
AcDbEntity
  8
RUNDUNGEN
100
AcDbLine
 62
7
  6
CONTINUOUS
 10
87.243027738
 20
158.4377213862
 11
87.2430274158
 21
159.8435128452
  0
LINE
  5
242
100
AcDbEntity
  8
RUNDUNGEN
100
AcDbLine
 62
7
  6
CONTINUOUS
 10
87.270568392
 20
155.7315340681
 11
87.2705673528
 21
158.0858323464
  0
LINE
  5
243
100
AcDbEntity
  8
RUNDUNGEN
100
AcDbLine
 62
7
  6
CONTINUOUS
 10
87.270567285
 20
160.1954231921
 11
87.270568392
 21
162.5497158863
  0
LINE
  5
244
100
AcDbEntity
  8
0
100
AcDbLine
 62
7
  6
CONTINUOUS
 10
91.0570257434
 20
166.6406249772
 11
73.7756572372
 21
166.6406249772
  0
LINE
  5
245
100
AcDbEntity
  8
RUNDUNGEN
100
AcDbLine
 62
7
  6
CONTINUOUS
 10
103.7499938642
 20
166.6406249772
 11
56.6024960627
 21
166.6406249772
  0
LINE
  5
246
100
AcDbEntity
  8
0
100
AcDbLine
 62
7
  6
CONTINUOUS
 10
55.75
 20
166.6406249772
 11
56.6024960627
 21
166.6406249772
  0
LINE
  5
247
100
AcDbEntity
  8
RUNDUNGEN
100
AcDbLine
 62
7
  6
CONTINUOUS
 10
91.6374650172
 20
158.9680567078
 11
91.6369287151
 21
159.1401242968
  0
LINE
  5
248
100
AcDbEntity
  8
RUNDUNGEN
100
AcDbLine
 62
7
  6
CONTINUOUS
 10
91.4785884946
 20
153.4797079679
 11
91.4785777075
 21
164.8015140501
  0
LINE
  5
249
100
AcDbEntity
  8
RUNDUNGEN
100
AcDbLine
 62
7
  6
CONTINUOUS
 10
91.6369287145
 20
159.1401242971
 11
91.6373701958
 21
159.2972399081
  0
LWPOLYLINE
  5
24A
100
AcDbEntity
  8
RUNDUNGEN
100
AcDbPolyline
 62
7
  6
CONTINUOUS
 90
11
 70
0
 10
91.6373701958
 20
159.2972399081
 10
91.64147482
 20
159.6405933798
 10
91.6497679998
 20
159.9771222269
 10
91.6619899159
 20
160.3047571099
 10
91.6779043667
 20
160.6216500749
 10
91.6972586934
 20
160.9260540098
 10
91.7197019509
 20
161.216429368
 10
91.7448945718
 20
161.4912144347
 10
91.7724793916
 20
161.7491006751
 10
91.8019889915
 20
161.9887788907
 10
91.8329594276
 20
162.2091638269
  0
LINE
  5
24B
100
AcDbEntity
  8
RUNDUNGEN
100
AcDbLine
 62
7
  6
CONTINUOUS
 10
91.8329594276
 20
162.2091638269
 11
91.8526709505
 21
162.3356249772
  0
LINE
  5
24C
100
AcDbEntity
  8
RUNDUNGEN
100
AcDbLine
 62
7
  6
CONTINUOUS
 10
91.8526720471
 20
155.9456249772
 11
91.8340412835
 21
156.0648884016
  0
LWPOLYLINE
  5
24D
100
AcDbEntity
  8
RUNDUNGEN
100
AcDbPolyline
 62
7
  6
CONTINUOUS
 90
11
 70
0
 10
91.8340412835
 20
156.0648884016
 10
91.8030520832
 20
156.2844119932
 10
91.7735090358
 20
156.5232242138
 10
91.7458701827
 20
156.7802418017
 10
91.7206054082
 20
157.0541474504
 10
91.6980763009
 20
157.3436362865
 10
91.6786160942
 20
157.6471551369
 10
91.6625760976
 20
157.9631632541
 10
91.6502128376
 20
158.2899136883
 10
91.6417557093
 20
158.6255663465
 10
91.6374650172
 20
158.9680567078
  0
LINE
  5
24E
100
AcDbEntity
  8
RUNDUNGEN
100
AcDbLine
 62
7
  6
CONTINUOUS
 10
103.7500001111
 20
166.4807573797
 11
103.7499995029
 21
151.8005350446
  0
LINE
  5
24F
100
AcDbEntity
  8
RUNDUNGEN
100
AcDbLine
 62
7
  6
CONTINUOUS
 10
104.75
 20
165.6406249772
 11
104.75
 21
152.6406249772
  0
LINE
  5
250
100
AcDbEntity
  8
RUNDUNGEN
100
AcDbLine
 62
7
  6
CONTINUOUS
 10
189.9190694942
 20
151.6406249772
 11
242.4185697204
 21
151.6406249772
  0
LINE
  5
251
100
AcDbEntity
  8
RUNDUNGEN
100
AcDbLine
 62
7
  6
CONTINUOUS
 10
196.3292633093
 20
152.6406220762
 11
242.6775690451
 21
152.6406249772
  0
LINE
  5
252
100
AcDbEntity
  8
RUNDUNGEN
100
AcDbLine
 62
7
  6
CONTINUOUS
 10
249.8441942405
 20
160.1955078293
 11
250.0422112159
 21
160.2236390668
  0
LINE
  5
253
100
AcDbEntity
  8
RUNDUNGEN
100
AcDbLine
 62
7
  6
CONTINUOUS
 10
255.31875
 20
154.6406249772
 11
248.5179302728
 21
154.6406249772
  0
LINE
  5
254
100
AcDbEntity
  8
RUNDUNGEN
100
AcDbLine
 62
7
  6
CONTINUOUS
 10
255.51875
 20
154.8406249772
 11
254.9004490452
 21
154.8406249772
  0
LINE
  5
255
100
AcDbEntity
  8
RUNDUNGEN
100
AcDbLine
 62
7
  6
CONTINUOUS
 10
249.2772814809
 20
155.6405350829
 11
254.5702787979
 21
155.6406249772
  0
LINE
  5
256
100
AcDbEntity
  8
0
100
AcDbLine
 62
7
  6
CONTINUOUS
 10
222.31875
 20
155.9456249772
 11
239.51875
 21
155.9456249772
  0
LINE
  5
257
100
AcDbEntity
  8
RUNDUNGEN
100
AcDbLine
 62
7
  6
CONTINUOUS
 10
249.8711157984
 20
158.4378164122
 11
250.0692086956
 21
158.4378204862
  0
LINE
  5
258
100
AcDbEntity
  8
RUNDUNGEN
100
AcDbLine
 62
7
  6
CONTINUOUS
 10
249.871116002
 20
159.8434309138
 11
250.0692126005
 21
159.8434278694
  0
LINE
  5
259
100
AcDbEntity
  8
0
100
AcDbLine
 62
7
  6
CONTINUOUS
 10
239.51875
 20
162.3356249772
 11
222.31875
 21
162.3356249772
  0
LINE
  5
25A
100
AcDbEntity
  8
RUNDUNGEN
100
AcDbLine
 62
7
  6
CONTINUOUS
 10
249.2772816671
 20
162.6407144479
 11
254.5702787973
 21
162.6406249771
  0
LINE
  5
25B
100
AcDbEntity
  8
RUNDUNGEN
100
AcDbLine
 62
7
  6
CONTINUOUS
 10
254.9004490452
 20
163.4406249772
 11
255.51875
 21
163.4406249772
  0
LINE
  5
25C
100
AcDbEntity
  8
RUNDUNGEN
100
AcDbLine
 62
7
  6
CONTINUOUS
 10
248.5179302728
 20
163.6406249772
 11
255.31875
 21
163.6406249772
  0
LINE
  5
25D
100
AcDbEntity
  8
RUNDUNGEN
100
AcDbLine
 62
7
  6
CONTINUOUS
 10
249.8441946323
 20
158.085744883
 11
250.0422108702
 21
158.0576148086
  0
LINE
  5
25E
100
AcDbEntity
  8
RUNDUNGEN
100
AcDbLine
 62
7
  6
CONTINUOUS
 10
242.6775690451
 20
165.6406249772
 11
196.3292996649
 21
165.640625879
  0
LINE
  5
25F
100
AcDbEntity
  8
RUNDUNGEN
100
AcDbLine
 62
7
  6
CONTINUOUS
 10
242.4185536151
 20
166.6406249772
 11
189.91875
 21
166.6406249772
  0
LINE
  5
260
100
AcDbEntity
  8
RUNDUNGEN
100
AcDbLine
 62
7
  6
CONTINUOUS
 10
249.0991765707
 20
162.5497158873
 11
249.2773212798
 21
162.6406249771
  0
LINE
  5
261
100
AcDbEntity
  8
RUNDUNGEN
100
AcDbLine
 62
7
  6
CONTINUOUS
 10
249.099176571
 20
155.7315340676
 11
249.2773212798
 21
155.6406249772
  0
LINE
  5
262
100
AcDbEntity
  8
RUNDUNGEN
100
AcDbLine
 62
7
  6
CONTINUOUS
 10
246.2127050396
 20
153.6860246355
 11
246.2127064145
 21
164.5952245607
  0
LINE
  5
263
100
AcDbEntity
  8
RUNDUNGEN
100
AcDbLine
 62
7
  6
CONTINUOUS
 10
249.871116002
 20
159.8436020216
 11
249.8711157983
 21
158.4376056787
  0
LINE
  5
264
100
AcDbEntity
  8
RUNDUNGEN
100
AcDbLine
 62
7
  6
CONTINUOUS
 10
250.0692126005
 20
159.8434278694
 11
250.0692086956
 21
158.4378204862
  0
LINE
  5
265
100
AcDbEntity
  8
RUNDUNGEN
100
AcDbLine
 62
7
  6
CONTINUOUS
 10
254.3881744809
 20
155.6406249767
 11
254.3881744809
 21
162.6406249776
  0
LINE
  5
266
100
AcDbEntity
  8
RUNDUNGEN
100
AcDbLine
 62
7
  6
CONTINUOUS
 10
254.5702787979
 20
155.6406249772
 11
254.5702787979
 21
162.6406249772
  0
LINE
  5
267
100
AcDbEntity
  8
0
100
AcDbLine
 62
7
  6
CONTINUOUS
 10
255.51875
 20
154.8406249772
 11
255.51875
 21
163.4406249772
  0
LINE
  5
268
100
AcDbEntity
  8
RUNDUNGEN
100
AcDbLine
 62
7
  6
CONTINUOUS
 10
86.0706933892
 20
49.1539447272
 11
79.0704436386
 21
49.1539447272
  0
LINE
  5
269
100
AcDbEntity
  8
RUNDUNGEN
100
AcDbLine
 62
7
  6
CONTINUOUS
 10
86.070568392
 20
49.312364994
 11
79.070568392
 21
49.312364994
  0
LINE
  5
26A
100
AcDbEntity
  8
RUNDUNGEN
100
AcDbLine
 62
7
  6
CONTINUOUS
 10
54.75
 20
114.253125
 11
54.75
 21
101.253125
  0
LINE
  5
26B
100
AcDbEntity
  8
RUNDUNGEN
100
AcDbLine
 62
7
  6
CONTINUOUS
 10
55.75
 20
100.253125
 11
55.75
 21
115.253125
  0
LINE
  5
26C
100
AcDbEntity
  8
RUNDUNGEN
100
AcDbLine
 62
7
  6
CONTINUOUS
 10
91.057086349
 20
55.2534687113
 11
73.775604616
 21
55.2533213849
  0
LINE
  5
26D
100
AcDbEntity
  8
RUNDUNGEN
100
AcDbLine
 62
7
  6
CONTINUOUS
 10
72.8097314109
 20
54.9943059549
 11
73.7756572372
 21
55.253125
  0
LINE
  5
26E
100
AcDbEntity
  8
RUNDUNGEN
100
AcDbLine
 62
7
  6
CONTINUOUS
 10
92.0418334964
 20
55.0794768223
 11
91.0570257436
 21
55.253125001
  0
LINE
  5
26F
100
AcDbEntity
  8
RUNDUNGEN
100
AcDbLine
 62
7
  6
CONTINUOUS
 10
73.7569682457
 20
51.4591699604
 11
60.3907500599
 21
101.3425753351
  0
LINE
  5
270
100
AcDbEntity
  8
RUNDUNGEN
100
AcDbLine
 62
7
  6
CONTINUOUS
 10
73.775604616
 20
55.2533213849
 11
61.3566800727
 21
101.6013787979
  0
LINE
  5
271
100
AcDbEntity
  8
RUNDUNGEN
100
AcDbLine
 62
7
  6
CONTINUOUS
 10
62.8141531758
 20
107.753125
 11
69.3930867264
 21
83.2002107294
  0
LINE
  5
272
100
AcDbEntity
  8
RUNDUNGEN
100
AcDbLine
 62
7
  6
CONTINUOUS
 10
86.070568392
 20
42.9597598991
 11
86.1378760841
 21
42.7714259548
  0
LINE
  5
273
100
AcDbEntity
  8
RUNDUNGEN
100
AcDbLine
 62
7
  6
CONTINUOUS
 10
62.0384118595
 20
114.5119343109
 11
70.3590125527
 21
83.4590297745
  0
LINE
  5
274
100
AcDbEntity
  8
RUNDUNGEN
100
AcDbLine
 62
7
  6
CONTINUOUS
 10
75.1886416841
 20
79.753125
 11
75.1886416841
 21
78.753125
  0
LINE
  5
275
100
AcDbEntity
  8
RUNDUNGEN
100
AcDbLine
 62
7
  6
CONTINUOUS
 10
77.870568392
 20
48.5726984288
 11
77.8705685935
 21
47.8276783852
  0
LINE
  5
276
100
AcDbEntity
  8
RUNDUNGEN
100
AcDbLine
 62
7
  6
CONTINUOUS
 10
78.070568392
 20
48.3945933329
 11
78.070568392
 21
43.2837005191
  0
LINE
  5
277
100
AcDbEntity
  8
RUNDUNGEN
100
AcDbLine
 62
7
  6
CONTINUOUS
 10
79.070568392
 20
49.312364994
 11
79.0705683921
 21
42.9597598991
  0
LINE
  5
278
100
AcDbEntity
  8
RUNDUNGEN
100
AcDbLine
 62
7
  6
CONTINUOUS
 10
75.1886416841
 20
78.753125
 11
85.7388519752
 21
78.753125
  0
LINE
  5
279
100
AcDbEntity
  8
RUNDUNGEN
100
AcDbLine
 62
7
  6
CONTINUOUS
 10
75.1886416841
 20
79.753125
 11
85.7388519752
 21
79.753125
  0
LINE
  5
27A
100
AcDbEntity
  8
RUNDUNGEN
100
AcDbLine
 62
7
  6
CONTINUOUS
 10
85.7388519752
 20
79.753125
 11
85.7388519752
 21
78.753125
  0
LINE
  5
27B
100
AcDbEntity
  8
RUNDUNGEN
100
AcDbLine
 62
7
  6
CONTINUOUS
 10
86.0705683919
 20
42.9597598991
 11
86.070568392
 21
49.312364994
  0
LINE
  5
27C
100
AcDbEntity
  8
RUNDUNGEN
100
AcDbLine
 62
7
  6
CONTINUOUS
 10
87.070568392
 20
43.2837005191
 11
87.070568392
 21
48.3945935203
  0
LINE
  5
27D
100
AcDbEntity
  8
RUNDUNGEN
100
AcDbLine
 62
7
  6
CONTINUOUS
 10
87.270567285
 20
47.8276687362
 11
87.270568392
 21
48.5726984288
  0
LINE
  5
27E
100
AcDbEntity
  8
RUNDUNGEN
100
AcDbLine
 62
7
  6
CONTINUOUS
 10
70.3590125527
 20
83.4590297745
 11
69.3930867264
 21
83.2002107295
  0
LINE
  5
27F
100
AcDbEntity
  8
0
100
AcDbLine
 62
7
  6
CONTINUOUS
 10
101.9985875604
 20
87.753125
 11
103.75
 21
87.753125
  0
LINE
  5
280
100
AcDbEntity
  8
RUNDUNGEN
100
AcDbLine
 62
7
  6
CONTINUOUS
 10
90.6628907403
 20
83.8848841117
 11
91.6476984933
 21
83.711235934
  0
LINE
  5
281
100
AcDbEntity
  8
RUNDUNGEN
100
AcDbLine
 62
7
  6
CONTINUOUS
 10
90.6628907403
 20
83.8848841117
 11
96.0482227594
 21
114.4266196842
  0
LINE
  5
282
100
AcDbEntity
  8
RUNDUNGEN
100
AcDbLine
 62
7
  6
CONTINUOUS
 10
91.6476984933
 20
83.711235934
 11
95.8868681523
 21
107.7527617515
  0
LINE
  5
283
100
AcDbEntity
  8
RUNDUNGEN
100
AcDbLine
 62
7
  6
CONTINUOUS
 10
79.070568392
 20
42.9597598991
 11
79.0032606997
 21
42.7714259548
  0
LINE
  5
284
100
AcDbEntity
  8
RUNDUNGEN
100
AcDbLine
 62
7
  6
CONTINUOUS
 10
97.3959710657
 20
85.4442998784
 11
96.4111664662
 21
85.6179462949
  0
LINE
  5
285
100
AcDbEntity
  8
RUNDUNGEN
100
AcDbLine
 62
7
  6
CONTINUOUS
 10
96.4111664662
 20
85.6179462949
 11
91.057086349
 21
55.2534687113
  0
LINE
  5
286
100
AcDbEntity
  8
RUNDUNGEN
100
AcDbLine
 62
7
  6
CONTINUOUS
 10
97.3959550591
 20
85.4442091005
 11
91.4785777075
 21
51.8850945068
  0
LINE
  5
287
100
AcDbEntity
  8
RUNDUNGEN
100
AcDbLine
 62
7
  6
CONTINUOUS
 10
104.75
 20
94.9120104016
 11
103.7499938642
 21
94.9120104016
  0
LINE
  5
288
100
AcDbEntity
  8
RUNDUNGEN
100
AcDbLine
 62
7
  6
CONTINUOUS
 10
103.75
 20
115.253125
 11
103.7499938642
 21
94.9119694908
  0
LINE
  5
289
100
AcDbEntity
  8
RUNDUNGEN
100
AcDbLine
 62
7
  6
CONTINUOUS
 10
103.7500001111
 20
93.7128470012
 11
103.75
 21
87.753125
  0
LINE
  5
28A
100
AcDbEntity
  8
RUNDUNGEN
100
AcDbLine
 62
7
  6
CONTINUOUS
 10
55.75
 20
100.253125
 11
59.1480134214
 21
100.253125
  0
LINE
  5
28B
100
AcDbEntity
  8
RUNDUNGEN
100
AcDbLine
 62
7
  6
CONTINUOUS
 10
104.75
 20
114.253125
 11
104.75
 21
88.753125
  0
LINE
  5
28C
100
AcDbEntity
  8
RUNDUNGEN
100
AcDbLine
 62
7
  6
CONTINUOUS
 10
60.3907540078
 20
101.3425606013
 11
61.3566800727
 21
101.6013787979
  0
LINE
  5
28D
100
AcDbEntity
  8
RUNDUNGEN
100
AcDbLine
 62
7
  6
CONTINUOUS
 10
104.75
 20
107.753125
 11
95.8868681523
 21
107.7527617515
  0
LINE
  5
28E
100
AcDbEntity
  8
RUNDUNGEN
100
AcDbLine
 62
7
  6
CONTINUOUS
 10
56.6024960627
 20
107.753125
 11
62.8141531758
 21
107.753125
  0
LINE
  5
28F
100
AcDbEntity
  8
RUNDUNGEN
100
AcDbLine
 62
7
  6
CONTINUOUS
 10
103.8030356654
 20
94.841778191
 11
103.75
 21
94.9120104016
  0
LINE
  5
290
100
AcDbEntity
  8
RUNDUNGEN
100
AcDbLine
 62
7
  6
CONTINUOUS
 10
63.7800790021
 20
108.0119440451
 11
62.8141531758
 21
107.753125
  0
LINE
  5
291
100
AcDbEntity
  8
RUNDUNGEN
100
AcDbLine
 62
7
  6
CONTINUOUS
 10
94.9021244498
 20
107.9267731777
 11
95.8869322026
 21
107.7531249987
  0
LINE
  5
292
100
AcDbEntity
  8
RUNDUNGEN
100
AcDbLine
 62
7
  6
CONTINUOUS
 10
55.75
 20
115.253125
 11
56.6634295109
 21
115.253125
  0
LINE
  5
293
100
AcDbEntity
  8
0
100
AcDbLine
 62
7
  6
CONTINUOUS
 10
55.75
 20
115.253125
 11
61.0791871564
 21
115.253125
  0
LINE
  5
294
100
AcDbEntity
  8
0
100
AcDbLine
 62
7
  6
CONTINUOUS
 10
97.0282364457
 20
115.253125
 11
103.75
 21
115.253125
  0
ARC
  5
295
100
AcDbEntity
  8
RUNDUNGEN
100
AcDbCircle
 62
7
  6
CONTINUOUS
 10
79.070650476
 20
162.4939857268
 40
1.2245613311
100
AcDbArc
 50
90.0038406112
 51
96.3529299143
  0
ARC
  5
296
100
AcDbEntity
  8
RUNDUNGEN
100
AcDbCircle
 62
7
  6
CONTINUOUS
 10
86.0704863081
 20
155.7872642276
 40
1.2245613311
100
AcDbArc
 50
270.0038406112
 51
276.3529299143
  0
ARC
  5
297
100
AcDbEntity
  8
RUNDUNGEN
100
AcDbCircle
 62
7
  6
CONTINUOUS
 10
86.0704932841
 20
162.4939896101
 40
1.2245574473
100
AcDbArc
 50
83.6744650154
 51
89.9964857775
  0
ARC
  5
298
100
AcDbEntity
  8
RUNDUNGEN
100
AcDbCircle
 62
7
  6
CONTINUOUS
 10
79.0706434999
 20
155.7872603442
 40
1.2245574473
100
AcDbArc
 50
263.6744650155
 51
269.9964857775
  0
ARC
  5
299
100
AcDbEntity
  8
RUNDUNGEN
100
AcDbCircle
 62
7
  6
CONTINUOUS
 10
55.75
 20
152.6406249772
 40
1.0
100
AcDbArc
 50
180.0
 51
270.0
  0
ARC
  5
29A
100
AcDbEntity
  8
RUNDUNGEN
100
AcDbCircle
 62
7
  6
CONTINUOUS
 10
55.75
 20
165.6406249772
 40
1.0
100
AcDbArc
 50
90.0
 51
180.0
  0
ARC
  5
29B
100
AcDbEntity
  8
RUNDUNGEN
100
AcDbCircle
 62
7
  6
CONTINUOUS
 10
86.070568392
 20
162.6406249772
 40
1.0
100
AcDbArc
 50
0.0051505782
 51
89.992838203
  0
ARC
  5
29C
100
AcDbEntity
  8
RUNDUNGEN
100
AcDbCircle
 62
7
  6
CONTINUOUS
 10
79.070568392
 20
162.6406249772
 40
1.0
100
AcDbArc
 50
90.0071478284
 51
179.9948736873
  0
ARC
  5
29D
100
AcDbEntity
  8
RUNDUNGEN
100
AcDbCircle
 62
7
  6
CONTINUOUS
 10
86.070568392
 20
155.6406249772
 40
1.0
100
AcDbArc
 50
270.0071478284
 51
359.9948736873
  0
ARC
  5
29E
100
AcDbEntity
  8
RUNDUNGEN
100
AcDbCircle
 62
7
  6
CONTINUOUS
 10
79.070568392
 20
155.6406249772
 40
1.0
100
AcDbArc
 50
180.0051505782
 51
269.992838203
  0
ARC
  5
29F
100
AcDbEntity
  8
RUNDUNGEN
100
AcDbCircle
 62
7
  6
CONTINUOUS
 10
103.7514728619
 20
152.6418557102
 40
0.9986040438
100
AcDbArc
 50
269.9994988597
 51
359.929380212
  0
ARC
  5
2A0
100
AcDbEntity
  8
RUNDUNGEN
100
AcDbCircle
 62
7
  6
CONTINUOUS
 10
103.7514748078
 20
165.6393956494
 40
0.9986021724
100
AcDbArc
 50
0.0705392878
 51
90.0003515556
  0
ARC
  5
2A1
100
AcDbEntity
  8
RUNDUNGEN
100
AcDbCircle
 62
7
  6
CONTINUOUS
 10
103.7906735739
 20
165.5016016399
 40
0.959326539
100
AcDbArc
 50
0.0277942124
 51
9.2107427942
  0
ARC
  5
2A2
100
AcDbEntity
  8
RUNDUNGEN
100
AcDbCircle
 62
7
  6
CONTINUOUS
 10
103.7906761859
 20
152.7796505989
 40
0.9593239269
100
AcDbArc
 50
350.7892202562
 51
359.9722061191
  0
ARC
  5
2A3
100
AcDbEntity
  8
RUNDUNGEN
100
AcDbCircle
 62
7
  6
CONTINUOUS
 10
103.7498611309
 20
166.2743336319
 40
0.3662913715
100
AcDbArc
 50
81.6528738355
 51
89.9782779178
  0
ARC
  5
2A4
100
AcDbEntity
  8
RUNDUNGEN
100
AcDbCircle
 62
7
  6
CONTINUOUS
 10
103.7498730093
 20
152.0068363897
 40
0.3662114346
100
AcDbArc
 50
270.0198683927
 51
278.3473298183
  0
ARC
  5
2A5
100
AcDbEntity
  8
RUNDUNGEN
100
AcDbCircle
 62
7
  6
CONTINUOUS
 10
189.4008176727
 20
159.1404929652
 40
9.5003022228
100
AcDbArc
 50
0.0007961575
 51
43.1729854055
  0
ARC
  5
2A6
100
AcDbEntity
  8
RUNDUNGEN
100
AcDbCircle
 62
7
  6
CONTINUOUS
 10
189.4010312258
 20
159.140709246
 40
9.5000947059
100
AcDbArc
 50
316.8261845509
 51
359.9994917678
  0
CIRCLE
  5
2A7
100
AcDbEntity
  8
RUNDUNGEN
100
AcDbCircle
 62
7
  6
CONTINUOUS
 10
189.91875
 20
159.1406249772
 40
7.5
  0
ARC
  5
2A8
100
AcDbEntity
  8
0
100
AcDbCircle
 62
7
  6
CONTINUOUS
 10
189.91875
 20
159.1406249772
 40
7.5
100
AcDbArc
 50
259.9910420716
 51
263.1693194155
  0
ARC
  5
2A9
100
AcDbEntity
  8
0
100
AcDbCircle
 62
7
  6
CONTINUOUS
 10
189.91875
 20
159.1406249772
 40
7.5
100
AcDbArc
 50
249.8918625246
 51
252.4511559499
  0
CIRCLE
  5
2AA
100
AcDbEntity
  8
RUNDUNGEN
100
AcDbCircle
 62
7
  6
CONTINUOUS
 10
189.91875
 20
159.1406249772
 40
6.5
  0
ARC
  5
2AB
100
AcDbEntity
  8
0
100
AcDbCircle
 62
7
  6
CONTINUOUS
 10
222.31875
 20
159.1406249772
 40
3.195
100
AcDbArc
 50
90.0
 51
270.0
  0
CIRCLE
  5
2AC
100
AcDbEntity
  8
0
100
AcDbCircle
 62
7
  6
CONTINUOUS
 10
189.91875
 20
159.1406249772
 40
3.19
  0
ARC
  5
2AD
100
AcDbEntity
  8
RUNDUNGEN
100
AcDbCircle
 62
7
  6
CONTINUOUS
 10
242.6775888533
 20
159.1404869142
 40
6.4998619371
100
AcDbArc
 50
269.9998253926
 51
302.9478582072
  0
ARC
  5
2AE
100
AcDbEntity
  8
RUNDUNGEN
100
AcDbCircle
 62
7
  6
CONTINUOUS
 10
244.2098510091
 20
158.7431239779
 40
5.9417782102
100
AcDbArc
 50
328.3372464726
 51
328.5224090994
  0
ARC
  5
2AF
100
AcDbEntity
  8
RUNDUNGEN
100
AcDbCircle
 62
7
  6
CONTINUOUS
 10
244.5899099933
 20
159.1218477679
 40
5.3304062787
100
AcDbArc
 50
11.5410114784
 51
13.4911859974
  0
ARC
  5
2B0
100
AcDbEntity
  8
RUNDUNGEN
100
AcDbCircle
 62
7
  6
CONTINUOUS
 10
244.6446715649
 20
159.1328427939
 40
5.2745521264
100
AcDbArc
 50
7.7443099715
 51
11.5430035147
  0
ARC
  5
2B1
100
AcDbEntity
  8
RUNDUNGEN
100
AcDbCircle
 62
7
  6
CONTINUOUS
 10
247.1591089402
 20
158.4680190507
 40
2.7121699336
100
AcDbArc
 50
351.8963620941
 51
359.3570020982
  0
ARC
  5
2B2
100
AcDbEntity
  8
RUNDUNGEN
100
AcDbCircle
 62
7
  6
CONTINUOUS
 10
247.3646362452
 20
158.4388066756
 40
2.7045726302
100
AcDbArc
 50
351.8975552083
 51
359.9791077928
  0
ARC
  5
2B3
100
AcDbEntity
  8
RUNDUNGEN
100
AcDbCircle
 62
7
  6
CONTINUOUS
 10
255.31875
 20
154.8406249772
 40
0.2
100
AcDbArc
 50
270.0
 51
360.0
  0
ARC
  5
2B4
100
AcDbEntity
  8
RUNDUNGEN
100
AcDbCircle
 62
7
  6
CONTINUOUS
 10
248.5179793784
 20
154.4406774112
 40
0.199991261
100
AcDbArc
 50
90.0140713981
 51
142.3823203336
  0
ARC
  5
2B5
100
AcDbEntity
  8
RUNDUNGEN
100
AcDbCircle
 62
7
  6
CONTINUOUS
 10
242.41875
 20
159.1406249772
 40
7.7
100
AcDbArc
 50
8.0855234754
 51
27.0364187715
  0
ARC
  5
2B6
100
AcDbEntity
  8
RUNDUNGEN
100
AcDbCircle
 62
7
  6
CONTINUOUS
 10
242.41875
 20
159.1406249772
 40
7.7
100
AcDbArc
 50
332.9635777916
 51
351.9145050493
  0
ARC
  5
2B7
100
AcDbEntity
  8
RUNDUNGEN
100
AcDbCircle
 62
7
  6
CONTINUOUS
 10
242.41875
 20
159.1406249772
 40
7.5
100
AcDbArc
 50
8.0853923077
 51
90.0026257604
  0
ARC
  5
2B8
100
AcDbEntity
  8
RUNDUNGEN
100
AcDbCircle
 62
7
  6
CONTINUOUS
 10
242.41875
 20
159.1406249772
 40
7.5
100
AcDbArc
 50
269.998622765
 51
351.9142099299
  0
ARC
  5
2B9
100
AcDbEntity
  8
RUNDUNGEN
100
AcDbCircle
 62
7
  6
CONTINUOUS
 10
242.6775887538
 20
159.1407620105
 40
6.4998629667
100
AcDbArc
 50
57.0521321882
 51
90.0001737309
  0
ARC
  5
2BA
100
AcDbEntity
  8
0
100
AcDbCircle
 62
7
  6
CONTINUOUS
 10
239.51875
 20
159.1406249772
 40
3.195
100
AcDbArc
 50
270.0
 51
90.0
  0
ARC
  5
2BB
100
AcDbEntity
  8
RUNDUNGEN
100
AcDbCircle
 62
7
  6
CONTINUOUS
 10
244.5896977709
 20
159.1594740249
 40
5.3306372993
100
AcDbArc
 50
346.3951541851
 51
348.4583974602
  0
ARC
  5
2BC
100
AcDbEntity
  8
RUNDUNGEN
100
AcDbCircle
 62
7
  6
CONTINUOUS
 10
244.6465452866
 20
159.148039433
 40
5.2726514347
100
AcDbArc
 50
348.4565432238
 51
352.2564505672
  0
ARC
  5
2BD
100
AcDbEntity
  8
RUNDUNGEN
100
AcDbCircle
 62
7
  6
CONTINUOUS
 10
244.2102996345
 20
159.5383982859
 40
5.9412534166
100
AcDbArc
 50
31.4776055537
 51
31.6629901538
  0
ARC
  5
2BE
100
AcDbEntity
  8
RUNDUNGEN
100
AcDbCircle
 62
7
  6
CONTINUOUS
 10
247.1591361248
 20
159.8131852071
 40
2.7121512306
100
AcDbArc
 50
0.6429776525
 51
8.1034024027
  0
ARC
  5
2BF
100
AcDbEntity
  8
RUNDUNGEN
100
AcDbCircle
 62
7
  6
CONTINUOUS
 10
247.3645699355
 20
159.8424171633
 40
2.7046428538
100
AcDbArc
 50
0.021411033
 51
8.1028757226
  0
ARC
  5
2C0
100
AcDbEntity
  8
RUNDUNGEN
100
AcDbCircle
 62
7
  6
CONTINUOUS
 10
255.31875
 20
163.4406249772
 40
0.2
100
AcDbArc
 50
0.0
 51
90.0
  0
ARC
  5
2C1
100
AcDbEntity
  8
RUNDUNGEN
100
AcDbCircle
 62
7
  6
CONTINUOUS
 10
248.5179793784
 20
163.8405725431
 40
0.199991261
100
AcDbArc
 50
217.5971952457
 51
269.9859286019
  0
ARC
  5
2C2
100
AcDbEntity
  8
RUNDUNGEN
100
AcDbCircle
 62
7
  6
CONTINUOUS
 10
78.5866349399
 20
52.753125
 40
5.0
100
AcDbArc
 50
194.9983532307
 51
262.0848976504
  0
ARC
  5
2C3
100
AcDbEntity
  8
RUNDUNGEN
100
AcDbCircle
 62
7
  6
CONTINUOUS
 10
78.270568392
 20
43.2837005191
 40
0.2
100
AcDbArc
 50
180.0
 51
245.577530465
  0
ARC
  5
2C4
100
AcDbEntity
  8
RUNDUNGEN
100
AcDbCircle
 62
7
  6
CONTINUOUS
 10
77.870568392
 20
47.6026639819
 40
0.2
100
AcDbArc
 50
7.698093184
 51
82.0856798678
  0
ARC
  5
2C5
100
AcDbEntity
  8
RUNDUNGEN
100
AcDbCircle
 62
7
  6
CONTINUOUS
 10
75.1886416841
 20
84.753125
 40
6.0
100
AcDbArc
 50
195.0
 51
270.0
  0
ARC
  5
2C6
100
AcDbEntity
  8
RUNDUNGEN
100
AcDbCircle
 62
7
  6
CONTINUOUS
 10
75.1886416841
 20
84.753125
 40
5.0
100
AcDbArc
 50
195.0
 51
270.0
  0
ARC
  5
2C7
100
AcDbEntity
  8
RUNDUNGEN
100
AcDbCircle
 62
7
  6
CONTINUOUS
 10
59.1480089109
 20
98.2531418333
 40
1.9999964561
100
AcDbArc
 50
14.9995007501
 51
89.9998707835
  0
ARC
  5
2C8
100
AcDbEntity
  8
RUNDUNGEN
100
AcDbCircle
 62
7
  6
CONTINUOUS
 10
55.75
 20
101.253125
 40
1.0
100
AcDbArc
 50
180.0
 51
270.0
  0
ARC
  5
2C9
100
AcDbEntity
  8
RUNDUNGEN
100
AcDbCircle
 62
7
  6
CONTINUOUS
 10
55.75
 20
114.253125
 40
1.0
100
AcDbArc
 50
90.0
 51
180.0
  0
ARC
  5
2CA
100
AcDbEntity
  8
RUNDUNGEN
100
AcDbCircle
 62
7
  6
CONTINUOUS
 10
61.0724871565
 20
114.2531110737
 40
1.0
100
AcDbArc
 50
15.0000000026
 51
89.9998968471
  0
ARC
  5
2CB
100
AcDbEntity
  8
RUNDUNGEN
100
AcDbCircle
 62
7
  6
CONTINUOUS
 10
81.9014866421
 20
57.5408189241
 40
15.1653725615
100
AcDbArc
 50
285.9565297137
 51
288.8033703359
  0
ARC
  5
2CC
100
AcDbEntity
  8
RUNDUNGEN
100
AcDbCircle
 62
7
  6
CONTINUOUS
 10
82.570568392
 20
52.753125
 40
10.6
100
AcDbArc
 50
245.577530465
 51
294.422469535
  0
ARC
  5
2CD
100
AcDbEntity
  8
RUNDUNGEN
100
AcDbCircle
 62
7
  6
CONTINUOUS
 10
82.570568392
 20
52.753125
 40
10.4
100
AcDbArc
 50
250.3338818214
 51
289.6661181786
  0
ARC
  5
2CE
100
AcDbEntity
  8
RUNDUNGEN
100
AcDbCircle
 62
7
  6
CONTINUOUS
 10
83.2101699932
 20
57.446643858
 40
15.0667218815
100
AcDbArc
 50
251.1884656164
 51
254.0528054787
  0
ARC
  5
2CF
100
AcDbEntity
  8
RUNDUNGEN
100
AcDbCircle
 62
7
  6
CONTINUOUS
 10
87.270568392
 20
47.6026515402
 40
0.2000004083
100
AcDbArc
 50
97.9145685069
 51
172.2974312342
  0
ARC
  5
2D0
100
AcDbEntity
  8
RUNDUNGEN
100
AcDbCircle
 62
7
  6
CONTINUOUS
 10
86.870568392
 20
43.2837005191
 40
0.2
100
AcDbArc
 50
294.422469535
 51
360.0
  0
ARC
  5
2D1
100
AcDbEntity
  8
RUNDUNGEN
100
AcDbCircle
 62
7
  6
CONTINUOUS
 10
86.5545018441
 20
52.753125
 40
5.0
100
AcDbArc
 50
277.9150727849
 51
350.0031599901
  0
ARC
  5
2D2
100
AcDbEntity
  8
RUNDUNGEN
100
AcDbCircle
 62
7
  6
CONTINUOUS
 10
85.7388519752
 20
84.753125
 40
6.0
100
AcDbArc
 50
270.0
 51
350.0
  0
ARC
  5
2D3
100
AcDbEntity
  8
RUNDUNGEN
100
AcDbCircle
 62
7
  6
CONTINUOUS
 10
85.7388519752
 20
84.753125
 40
5.0
100
AcDbArc
 50
270.0
 51
350.0
  0
ARC
  5
2D4
100
AcDbEntity
  8
RUNDUNGEN
100
AcDbCircle
 62
7
  6
CONTINUOUS
 10
101.9985773895
 20
82.75312503
 40
4.9999999963
100
AcDbArc
 50
90.0000000088
 51
169.9052875095
  0
ARC
  5
2D5
100
AcDbEntity
  8
RUNDUNGEN
100
AcDbCircle
 62
7
  6
CONTINUOUS
 10
103.75
 20
114.253125
 40
1.0
100
AcDbArc
 50
0.0
 51
90.0
  0
ARC
  5
2D6
100
AcDbEntity
  8
RUNDUNGEN
100
AcDbCircle
 62
7
  6
CONTINUOUS
 10
103.75
 20
88.753125
 40
1.0
100
AcDbArc
 50
270.0
 51
360.0
  0
ARC
  5
2D7
100
AcDbEntity
  8
RUNDUNGEN
100
AcDbCircle
 62
7
  6
CONTINUOUS
 10
97.0330535435
 20
114.2531021226
 40
1.0
100
AcDbArc
 50
90.0000904587
 51
170.0
  0
SPLINE
  5
2D8
100
AcDbEntity
  8
RUNDUNGEN
100
AcDbSpline
 62
7
  6
CONTINUOUS
 70
0
 71
3
 72
9
 73
5
 74
0
 42
0.0000001
 43
0.0000001
 44
0.0000000001
 40
0.0
 40
0.0
 40
0.0
 40
0.0
 40
0.4807937849
 40
1.0
 40
1.0
 40
1.0
 40
1.0
 10
97.3959550591
 20
165.6406269262
 30
0.0
 10
97.2846165756
 20
164.6033522938
 30
0.0
 10
97.1255163891
 20
162.4380142315
 30
0.0
 10
97.0745480785
 20
160.2679280384
 30
0.0
 10
97.0745386237
 20
159.1413473053
 30
0.0
  0
SPLINE
  5
2D9
100
AcDbEntity
  8
RUNDUNGEN
100
AcDbSpline
 62
7
  6
CONTINUOUS
 70
0
 71
3
 72
9
 73
5
 74
0
 42
0.0000001
 43
0.0000001
 44
0.0000000001
 40
0.0
 40
0.0
 40
0.0
 40
0.0
 40
0.519226392
 40
1.0
 40
1.0
 40
1.0
 40
1.0
 10
97.0745386237
 20
159.1413473053
 30
0.0
 10
97.0745436017
 20
158.0144727548
 30
0.0
 10
97.1254646809
 20
155.8439037439
 30
0.0
 10
97.2845962415
 20
153.6780839044
 30
0.0
 10
97.3959527969
 20
152.6406223937
 30
0.0
  0
SPLINE
  5
2DA
100
AcDbEntity
  8
RUNDUNGEN
100
AcDbSpline
 62
7
  6
CONTINUOUS
 70
0
 71
3
 72
10
 73
6
 74
0
 42
0.0000001
 43
0.0000001
 44
0.0000000001
 40
0.0
 40
0.0
 40
0.0
 40
0.0
 40
0.5284316167
 40
0.7746339897
 40
1.0
 40
1.0
 40
1.0
 40
1.0
 10
91.6065443066
 20
159.1400878394
 30
0.0
 10
91.6065342089
 20
159.7043469291
 30
0.0
 10
91.6294937879
 20
160.5318688375
 30
0.0
 10
91.7107461845
 20
161.5967083404
 30
0.0
 10
91.7674715538
 20
162.0972226176
 30
0.0
 10
91.8002540084
 20
162.3356249772
 30
0.0
  0
SPLINE
  5
2DB
100
AcDbEntity
  8
RUNDUNGEN
100
AcDbSpline
 62
7
  6
CONTINUOUS
 70
0
 71
3
 72
10
 73
6
 74
0
 42
0.0000001
 43
0.0000001
 44
0.0000000001
 40
0.0
 40
0.0
 40
0.0
 40
0.0
 40
0.2253655816
 40
0.4715644998
 40
1.0
 40
1.0
 40
1.0
 40
1.0
 10
91.8002555022
 20
155.9456249772
 30
0.0
 10
91.7674837338
 20
156.1839469196
 30
0.0
 10
91.7107721856
 20
156.6842885627
 30
0.0
 10
91.6295297458
 20
157.7487697881
 30
0.0
 10
91.6065545837
 20
158.5760137466
 30
0.0
 10
91.6065443066
 20
159.1400878394
 30
0.0
  0
LINE
  5
2DC
100
AcDbEntity
  8
RUNDUNGEN
100
AcDbLine
 62
7
  6
CONTINUOUS
 10
103.8030271407
 20
151.6445045385
 11
103.7501029849
 21
151.6455996176
  0
SPLINE
  5
2DD
100
AcDbEntity
  8
RUNDUNGEN
100
AcDbSpline
 62
7
  6
CONTINUOUS
 70
0
 71
3
 72
17
 73
13
 74
0
 42
0.0000001
 43
0.0000001
 44
0.0000000001
 40
0.0
 40
0.0
 40
0.0
 40
0.0
 40
0.1548715056
 40
0.3078644194
 40
0.457052906
 40
0.5995714745
 40
0.731326532
 40
0.8467868143
 40
0.8962769486
 40
0.9389796098
 40
0.973878287
 40
1.0
 40
1.0
 40
1.0
 40
1.0
 10
103.7501029849
 20
151.6455996176
 30
0.0
 10
103.4171471331
 20
151.6529160192
 30
0.0
 10
102.7555281143
 20
151.6835039696
 30
0.0
 10
101.7764902149
 20
151.7729991856
 30
0.0
 10
100.8280281856
 20
151.8965687734
 30
0.0
 10
99.9289967847
 20
152.0420979544
 30
0.0
 10
99.1052474865
 20
152.1967700571
 30
0.0
 10
98.480970379
 20
152.3290919892
 30
0.0
 10
98.046745147
 20
152.433269253
 30
0.0
 10
97.7825425802
 20
152.5035158164
 30
0.0
 10
97.5694294486
 20
152.5692349386
 30
0.0
 10
97.4464333764
 20
152.6159952249
 30
0.0
 10
97.3959525067
 20
152.6406326039
 30
0.0
  0
SPLINE
  5
2DE
100
AcDbEntity
  8
RUNDUNGEN
100
AcDbSpline
 62
7
  6
CONTINUOUS
 70
0
 71
3
 72
9
 73
5
 74
0
 42
0.0000001
 43
0.0000001
 44
0.0000000001
 40
0.0
 40
0.0
 40
0.0
 40
0.0
 40
0.5831901314
 40
1.0
 40
1.0
 40
1.0
 40
1.0
 10
103.7499906947
 20
151.8005416382
 30
0.0
 10
103.7561228071
 20
151.7731837337
 30
0.0
 10
103.7677827083
 20
151.7265598391
 30
0.0
 10
103.7836371066
 20
151.6809171737
 30
0.0
 10
103.7924621836
 20
151.6629271566
 30
0.0
  0
SPLINE
  5
2DF
100
AcDbEntity
  8
RUNDUNGEN
100
AcDbSpline
 62
7
  6
CONTINUOUS
 70
0
 71
3
 72
9
 73
5
 74
0
 42
0.0000001
 43
0.0000001
 44
0.0000000001
 40
0.0
 40
0.0
 40
0.0
 40
0.0
 40
0.2738707258
 40
1.0
 40
1.0
 40
1.0
 40
1.0
 10
103.7924621836
 20
151.6629271566
 30
0.0
 10
103.7933164342
 20
151.6611857571
 30
0.0
 10
103.7965243154
 20
151.6548729474
 30
0.0
 10
103.8001067527
 20
151.6487375726
 30
0.0
 10
103.8030271407
 20
151.6445045385
 30
0.0
  0
LINE
  5
2E0
100
AcDbEntity
  8
RUNDUNGEN
100
AcDbLine
 62
7
  6
CONTINUOUS
 10
103.8030267706
 20
166.6367461178
 11
103.7501095812
 21
166.6356509444
  0
SPLINE
  5
2E1
100
AcDbEntity
  8
RUNDUNGEN
100
AcDbSpline
 62
7
  6
CONTINUOUS
 70
0
 71
3
 72
17
 73
13
 74
0
 42
0.0000001
 43
0.0000001
 44
0.0000000001
 40
0.0
 40
0.0
 40
0.0
 40
0.0
 40
0.154870797
 40
0.307865318
 40
0.4570526777
 40
0.5995716172
 40
0.7313265457
 40
0.8467870109
 40
0.8962770659
 40
0.938980178
 40
0.9738784635
 40
1.0
 40
1.0
 40
1.0
 40
1.0
 10
103.7501095812
 20
166.6356509444
 30
0.0
 10
103.4171552856
 20
166.6283330577
 30
0.0
 10
102.755534784
 20
166.5977399643
 30
0.0
 10
101.7764959786
 20
166.508258996
 30
0.0
 10
100.8280337523
 20
166.384675866
 30
0.0
 10
99.9290031745
 20
166.2391550057
 30
0.0
 10
99.105252311
 20
166.084484332
 30
0.0
 10
98.4809776537
 20
165.9521536574
 30
0.0
 10
98.0467475215
 20
165.8479896402
 30
0.0
 10
97.7825517837
 20
165.7777195296
 30
0.0
 10
97.5694282891
 20
165.712035173
 30
0.0
 10
97.4464370323
 20
165.6652622862
 30
0.0
 10
97.3959606395
 20
165.6406166015
 30
0.0
  0
SPLINE
  5
2E2
100
AcDbEntity
  8
RUNDUNGEN
100
AcDbSpline
 62
7
  6
CONTINUOUS
 70
0
 71
3
 72
9
 73
5
 74
0
 42
0.0000001
 43
0.0000001
 44
0.0000000001
 40
0.0
 40
0.0
 40
0.0
 40
0.0
 40
0.1997447145
 40
1.0
 40
1.0
 40
1.0
 40
1.0
 10
103.8030267706
 20
166.6367461178
 30
0.0
 10
103.8006672279
 20
166.6333264485
 30
0.0
 10
103.7899427897
 20
166.615459168
 30
0.0
 10
103.7824332697
 20
166.5958861991
 30
0.0
 10
103.7770183123
 20
166.5801462288
 30
0.0
  0
SPLINE
  5
2E3
100
AcDbEntity
  8
RUNDUNGEN
100
AcDbSpline
 62
7
  6
CONTINUOUS
 70
0
 71
3
 72
9
 73
5
 74
0
 42
0.0000001
 43
0.0000001
 44
0.0000000001
 40
0.0
 40
0.0
 40
0.0
 40
0.0
 40
0.2305592439
 40
1.0
 40
1.0
 40
1.0
 40
1.0
 10
103.7770183123
 20
166.5801462288
 30
0.0
 10
103.775867703
 20
166.5768016861
 30
0.0
 10
103.7710273478
 20
166.5622438164
 30
0.0
 10
103.7667282841
 20
166.5475097022
 30
0.0
 10
103.7636247231
 20
166.5361212964
 30
0.0
  0
SPLINE
  5
2E4
100
AcDbEntity
  8
RUNDUNGEN
100
AcDbSpline
 62
7
  6
CONTINUOUS
 70
0
 71
3
 72
9
 73
5
 74
0
 42
0.0000001
 43
0.0000001
 44
0.0000000001
 40
0.0
 40
0.0
 40
0.0
 40
0.0
 40
0.2334107054
 40
1.0
 40
1.0
 40
1.0
 40
1.0
 10
103.7636247231
 20
166.5361212964
 30
0.0
 10
103.7624582979
 20
166.5318411408
 30
0.0
 10
103.7575888134
 20
166.5134688823
 30
0.0
 10
103.753188135
 20
166.4949742635
 30
0.0
 10
103.7500019837
 20
166.4807569695
 30
0.0
  0
SPLINE
  5
2E5
100
AcDbEntity
  8
RUNDUNGEN
100
AcDbSpline
 62
7
  6
CONTINUOUS
 70
0
 71
3
 72
15
 73
11
 74
0
 42
0.0000001
 43
0.0000001
 44
0.0000000001
 40
0.0
 40
0.0
 40
0.0
 40
0.0
 40
0.040298568
 40
0.0852717033
 40
0.1876208208
 40
0.303779893
 40
0.430646847
 40
0.5656308003
 40
0.7066175505
 40
1.0
 40
1.0
 40
1.0
 40
1.0
 10
90.4937328562
 20
152.6089407439
 30
0.0
 10
90.4713540149
 20
152.6915557346
 30
0.0
 10
90.4152494343
 20
152.8640138792
 30
0.0
 10
90.2669727173
 20
153.2340828723
 30
0.0
 10
90.0208919429
 20
153.7373893566
 30
0.0
 10
89.6644981904
 20
154.3786906466
 30
0.0
 10
89.251065288
 20
155.0670774255
 30
0.0
 10
88.7946336794
 20
155.7908166569
 30
0.0
 10
88.1345148885
 20
156.804066832
 30
0.0
 10
87.619771464
 20
157.5697423683
 30
0.0
 10
87.2705673528
 20
158.0858323464
 30
0.0
  0
SPLINE
  5
2E6
100
AcDbEntity
  8
RUNDUNGEN
100
AcDbSpline
 62
7
  6
CONTINUOUS
 70
0
 71
3
 72
19
 73
15
 74
0
 42
0.0000001
 43
0.0000001
 44
0.0000000001
 40
0.0
 40
0.0
 40
0.0
 40
0.0
 40
0.0293182772
 40
0.0605863426
 40
0.0954288756
 40
0.1349459224
 40
0.1798064456
 40
0.2303548715
 40
0.2867006065
 40
0.3487720332
 40
0.4890270422
 40
0.6478962771
 40
0.8203406824
 40
1.0
 40
1.0
 40
1.0
 40
1.0
 10
56.6023194095
 20
151.6406249772
 30
0.0
 10
56.68414724
 20
151.640616808
 30
0.0
 10
56.8540644676
 20
151.6653568267
 30
0.0
 10
57.1002378119
 20
151.7735269503
 30
0.0
 10
57.3391544492
 20
151.9494692359
 30
0.0
 10
57.5699303712
 20
152.1909303807
 30
0.0
 10
57.7917433103
 20
152.4963476533
 30
0.0
 10
58.0031440787
 20
152.8640978626
 30
0.0
 10
58.2024364399
 20
153.2920324639
 30
0.0
 10
58.4599348435
 20
153.9670314074
 30
0.0
 10
58.7308758498
 20
154.9402654966
 30
0.0
 10
58.96742631
 20
156.2363724195
 30
0.0
 10
59.1148453348
 20
157.6561265536
 30
0.0
 10
59.1479926941
 20
158.6391926402
 30
0.0
 10
59.1480134214
 20
159.1406249772
 30
0.0
  0
SPLINE
  5
2E7
100
AcDbEntity
  8
RUNDUNGEN
100
AcDbSpline
 62
7
  6
CONTINUOUS
 70
0
 71
3
 72
11
 73
7
 74
0
 42
0.0000001
 43
0.0000001
 44
0.0000000001
 40
0.0
 40
0.0
 40
0.0
 40
0.0
 40
0.2184837422
 40
0.4632881237
 40
0.7267657576
 40
1.0
 40
1.0
 40
1.0
 40
1.0
 10
60.3907403184
 20
152.6406220762
 30
0.0
 10
60.5070424821
 20
153.1032988065
 30
0.0
 10
60.7084558486
 20
154.0958874941
 30
0.0
 10
60.9196998626
 20
155.6695639515
 30
0.0
 10
61.0505437831
 20
157.3718467252
 30
0.0
 10
61.0798329349
 20
158.5440043507
 30
0.0
 10
61.079865074
 20
159.1406249772
 30
0.0
  0
SPLINE
  5
2E8
100
AcDbEntity
  8
RUNDUNGEN
100
AcDbSpline
 62
7
  6
CONTINUOUS
 70
0
 71
3
 72
13
 73
9
 74
0
 42
0.0000001
 43
0.0000001
 44
0.0000000001
 40
0.0
 40
0.0
 40
0.0
 40
0.0
 40
0.091350048
 40
0.1971423902
 40
0.3145099834
 40
0.4409354942
 40
0.712842601
 40
1.0
 40
1.0
 40
1.0
 40
1.0
 10
74.7229316347
 20
152.8469444687
 30
0.0
 10
74.7858127817
 20
153.0224324587
 30
0.0
 10
74.9466167785
 20
153.3920339332
 30
0.0
 10
75.2417110107
 20
153.9621416468
 30
0.0
 10
75.5962310778
 20
154.5813992323
 30
0.0
 10
76.1441757581
 20
155.4799397969
 30
0.0
 10
76.9056153736
 20
156.6536329448
 30
0.0
 10
77.5421854293
 20
157.6003749756
 30
0.0
 10
77.8705679326
 20
158.0857072888
 30
0.0
  0
SPLINE
  5
2E9
100
AcDbEntity
  8
RUNDUNGEN
100
AcDbSpline
 62
7
  6
CONTINUOUS
 70
0
 71
3
 72
19
 73
15
 74
0
 42
0.0000001
 43
0.0000001
 44
0.0000000001
 40
0.0
 40
0.0
 40
0.0
 40
0.0
 40
0.1796641455
 40
0.3521215374
 40
0.5110100924
 40
0.6512588976
 40
0.7133243181
 40
0.7696657873
 40
0.820212633
 40
0.8650728216
 40
0.9045899804
 40
0.9394319273
 40
0.9707017267
 40
1.0
 40
1.0
 40
1.0
 40
1.0
 10
59.1480134214
 20
159.1406249772
 30
0.0
 10
59.1479957429
 20
159.6420602889
 30
0.0
 10
59.1148484351
 20
160.6251559486
 30
0.0
 10
58.9674114433
 20
162.0449820404
 30
0.0
 10
58.7308528846
 20
163.3411345727
 30
0.0
 10
58.4598820092
 20
164.3143589523
 30
0.0
 10
58.2023993565
 20
164.9892981666
 30
0.0
 10
58.0031215765
 20
165.4171922605
 30
0.0
 10
57.7917314385
 20
165.7849180098
 30
0.0
 10
57.5699272627
 20
166.0903263897
 30
0.0
 10
57.3391536973
 20
166.3317754554
 30
0.0
 10
57.100244921
 20
166.507726289
 30
0.0
 10
56.85412099
 20
166.6158586086
 30
0.0
 10
56.6842663501
 20
166.6406249484
 30
0.0
 10
56.6024960627
 20
166.6406249772
 30
0.0
  0
SPLINE
  5
2EA
100
AcDbEntity
  8
RUNDUNGEN
100
AcDbSpline
 62
7
  6
CONTINUOUS
 70
0
 71
3
 72
15
 73
11
 74
0
 42
0.0000001
 43
0.0000001
 44
0.0000000001
 40
0.0
 40
0.0
 40
0.0
 40
0.0
 40
0.0416695545
 40
0.0893743562
 40
0.1986284137
 40
0.3207198379
 40
0.4507175887
 40
0.5853659697
 40
0.7225897006
 40
1.0
 40
1.0
 40
1.0
 40
1.0
 10
60.3907488388
 20
165.6406309937
 30
0.0
 10
60.347244414
 20
165.6744261939
 30
0.0
 10
60.249095509
 20
165.7406583867
 30
0.0
 10
60.0206622891
 20
165.8704161565
 30
0.0
 10
59.6853172326
 20
166.0255560797
 30
0.0
 10
59.2386642477
 20
166.1956988307
 30
0.0
 10
58.7501682974
 20
166.3477559148
 30
0.0
 10
58.2337422562
 20
166.4741557924
 30
0.0
 10
57.5183782727
 20
166.6009073888
 30
0.0
 10
56.9692419239
 20
166.64062488
 30
0.0
 10
56.6024960627
 20
166.6406233713
 30
0.0
  0
SPLINE
  5
2EB
100
AcDbEntity
  8
RUNDUNGEN
100
AcDbSpline
 62
7
  6
CONTINUOUS
 70
0
 71
3
 72
15
 73
11
 74
0
 42
0.0000001
 43
0.0000001
 44
0.0000000001
 40
0.0
 40
0.0
 40
0.0
 40
0.0
 40
0.2774074412
 40
0.4146311545
 40
0.549279485
 40
0.6792773736
 40
0.8013698215
 40
0.9106253049
 40
0.9583306843
 40
1.0
 40
1.0
 40
1.0
 40
1.0
 10
56.6021616407
 20
151.6406253801
 30
0.0
 10
56.9689329496
 20
151.6406079717
 30
0.0
 10
57.5181107656
 20
151.6803099744
 30
0.0
 10
58.2335325054
 20
151.8070461995
 30
0.0
 10
58.7500015113
 20
151.9334495271
 30
0.0
 10
59.2385414943
 20
152.0855067977
 30
0.0
 10
59.6852368609
 20
152.2556556154
 30
0.0
 10
60.0206115774
 20
152.4108113419
 30
0.0
 10
60.2490678669
 20
152.5405745284
 30
0.0
 10
60.3472293496
 20
152.6068066211
 30
0.0
 10
60.3907349704
 20
152.640606923
 30
0.0
  0
SPLINE
  5
2EC
100
AcDbEntity
  8
RUNDUNGEN
100
AcDbSpline
 62
7
  6
CONTINUOUS
 70
0
 71
3
 72
11
 73
7
 74
0
 42
0.0000001
 43
0.0000001
 44
0.0000000001
 40
0.0
 40
0.0
 40
0.0
 40
0.0
 40
0.2732036169
 40
0.5366877534
 40
0.7815128151
 40
1.0
 40
1.0
 40
1.0
 40
1.0
 10
61.079865074
 20
159.1406249772
 30
0.0
 10
61.0798376187
 20
159.7371783222
 30
0.0
 10
61.0505381701
 20
160.9092818479
 30
0.0
 10
60.9197217818
 20
162.6115585009
 30
0.0
 10
60.7084503912
 20
164.1852968416
 30
0.0
 10
60.5070603267
 20
165.177943772
 30
0.0
 10
60.3907500599
 20
165.640625879
 30
0.0
  0
SPLINE
  5
2ED
100
AcDbEntity
  8
RUNDUNGEN
100
AcDbSpline
 62
7
  6
CONTINUOUS
 70
0
 71
3
 72
14
 73
10
 74
0
 42
0.0000001
 43
0.0000001
 44
0.0000000001
 40
0.0
 40
0.0
 40
0.0
 40
0.0
 40
0.0641384632
 40
0.138129373
 40
0.2284783697
 40
0.3386939885
 40
0.4704940876
 40
0.6246800628
 40
1.0
 40
1.0
 40
1.0
 40
1.0
 10
91.0570254469
 20
166.6406249535
 30
0.0
 10
91.0320056708
 20
166.6406136521
 30
0.0
 10
90.9777855809
 20
166.6281839217
 30
0.0
 10
90.9028599176
 20
166.5776142638
 30
0.0
 10
90.8304451293
 20
166.4978276949
 30
0.0
 10
90.7595448863
 20
166.3888440747
 30
0.0
 10
90.6898169376
 20
166.2506707737
 30
0.0
 10
90.592232959
 20
166.0116742255
 30
0.0
 10
90.5320044744
 20
165.8136271406
 30
0.0
 10
90.4937328562
 20
165.6723092104
 30
0.0
  0
SPLINE
  5
2EE
100
AcDbEntity
  8
RUNDUNGEN
100
AcDbSpline
 62
7
  6
CONTINUOUS
 70
0
 71
3
 72
14
 73
10
 74
0
 42
0.0000001
 43
0.0000001
 44
0.0000000001
 40
0.0
 40
0.0
 40
0.0
 40
0.0
 40
0.0783486297
 40
0.1633595771
 40
0.2601764338
 40
0.3721871745
 40
0.5014101887
 40
0.6489318196
 40
1.0
 40
1.0
 40
1.0
 40
1.0
 10
73.7756574183
 20
151.6406249837
 30
0.0
 10
73.8177278141
 20
151.640631531
 30
0.0
 10
73.9059095643
 20
151.6548920265
 30
0.0
 10
74.0330187983
 20
151.7163370465
 30
0.0
 10
74.1567949906
 20
151.8158105031
 30
0.0
 10
74.277583316
 20
151.9521357771
 30
0.0
 10
74.3955465762
 20
152.1248657671
 30
0.0
 10
74.5581730014
 20
152.4205691045
 30
0.0
 10
74.659343327
 20
152.6694820241
 30
0.0
 10
74.7229316347
 20
152.8469444687
 30
0.0
  0
SPLINE
  5
2EF
100
AcDbEntity
  8
RUNDUNGEN
100
AcDbSpline
 62
7
  6
CONTINUOUS
 70
0
 71
3
 72
14
 73
10
 74
0
 42
0.0000001
 43
0.0000001
 44
0.0000000001
 40
0.0
 40
0.0
 40
0.0
 40
0.0
 40
0.0641375695
 40
0.1381291993
 40
0.2284794148
 40
0.3386952011
 40
0.470494753
 40
0.6246800949
 40
1.0
 40
1.0
 40
1.0
 40
1.0
 10
91.0570255008
 20
151.6406249932
 30
0.0
 10
91.0320060494
 20
151.6406343005
 30
0.0
 10
90.9777850798
 20
151.6530631134
 30
0.0
 10
90.9028601034
 20
151.7036347051
 30
0.0
 10
90.8304454096
 20
151.783422436
 30
0.0
 10
90.7595448331
 20
151.892406367
 30
0.0
 10
90.6898167844
 20
152.0305793335
 30
0.0
 10
90.5922325533
 20
152.2695755283
 30
0.0
 10
90.5320041816
 20
152.4676226069
 30
0.0
 10
90.4937328562
 20
152.6089407439
 30
0.0
  0
SPLINE
  5
2F0
100
AcDbEntity
  8
RUNDUNGEN
100
AcDbSpline
 62
7
  6
CONTINUOUS
 70
0
 71
3
 72
13
 73
9
 74
0
 42
0.0000001
 43
0.0000001
 44
0.0000000001
 40
0.0
 40
0.0
 40
0.0
 40
0.0
 40
0.3393912925
 40
0.6115727431
 40
0.7246787124
 40
0.8248059958
 40
0.9151123867
 40
1.0
 40
1.0
 40
1.0
 40
1.0
 10
73.7569686142
 20
164.5952245607
 30
0.0
 10
73.6929410869
 20
164.7500790806
 30
0.0
 10
73.5639024162
 20
165.0237846922
 30
0.0
 10
73.3612945834
 20
165.3223011011
 30
0.0
 10
73.1891574943
 20
165.4902737754
 30
0.0
 10
73.0651748275
 20
165.5760683275
 30
0.0
 10
72.9385163479
 20
165.6285964673
 30
0.0
 10
72.851643363
 20
165.6406160148
 30
0.0
 10
72.8097314109
 20
165.6406249772
 30
0.0
  0
LINE
  5
2F1
100
AcDbEntity
  8
RUNDUNGEN
100
AcDbLine
 62
7
  6
CONTINUOUS
 10
77.8980832402
 20
158.4375825511
 11
77.8705641913
 21
158.0857004796
  0
SPLINE
  5
2F2
100
AcDbEntity
  8
RUNDUNGEN
100
AcDbSpline
 62
7
  6
CONTINUOUS
 70
0
 71
3
 72
11
 73
7
 74
0
 42
0.0000001
 43
0.0000001
 44
0.0000000001
 40
0.0
 40
0.0
 40
0.0
 40
0.0
 40
0.2320957382
 40
0.4805100529
 40
0.7397855553
 40
1.0
 40
1.0
 40
1.0
 40
1.0
 10
73.7570105142
 20
153.6861018698
 30
0.0
 10
73.7738562096
 20
153.582144635
 30
0.0
 10
73.8538094462
 20
153.3729032717
 30
0.0
 10
74.0758706477
 20
153.1139809409
 30
0.0
 10
74.3748715012
 20
152.9258785812
 30
0.0
 10
74.6057327332
 20
152.8612869192
 30
0.0
 10
74.7229316345
 20
152.8469537293
 30
0.0
  0
SPLINE
  5
2F3
100
AcDbEntity
  8
RUNDUNGEN
100
AcDbSpline
 62
7
  6
CONTINUOUS
 70
0
 71
3
 72
11
 73
7
 74
0
 42
0.0000001
 43
0.0000001
 44
0.0000000001
 40
0.0
 40
0.0
 40
0.0
 40
0.0
 40
0.2540212457
 40
0.5056597483
 40
0.753985455
 40
1.0
 40
1.0
 40
1.0
 40
1.0
 10
72.8097314109
 20
152.6406249772
 30
0.0
 10
72.8097314115
 20
152.510715515
 30
0.0
 10
72.859386771
 20
152.2494001963
 30
0.0
 10
73.0731503019
 20
151.9172355092
 30
0.0
 10
73.3941187358
 20
151.6932917791
 30
0.0
 10
73.6498424962
 20
151.6406249772
 30
0.0
 10
73.7756572371
 20
151.6406249772
 30
0.0
  0
SPLINE
  5
2F4
100
AcDbEntity
  8
RUNDUNGEN
100
AcDbSpline
 62
7
  6
CONTINUOUS
 70
0
 71
3
 72
11
 73
7
 74
0
 42
0.0000001
 43
0.0000001
 44
0.0000000001
 40
0.0
 40
0.0
 40
0.0
 40
0.0
 40
0.2540211942
 40
0.5056596798
 40
0.753985409
 40
1.0
 40
1.0
 40
1.0
 40
1.0
 10
60.3907518376
 20
152.6406220762
 30
0.0
 10
60.3907522616
 20
152.5107129135
 30
0.0
 10
60.4404082423
 20
152.249398355
 30
0.0
 10
60.6541719107
 20
151.9172348302
 30
0.0
 10
60.9751398393
 20
151.6932918641
 30
0.0
 10
61.2308630326
 20
151.6406250926
 30
0.0
 10
61.3566775326
 20
151.6406249772
 30
0.0
  0
SPLINE
  5
2F5
100
AcDbEntity
  8
RUNDUNGEN
100
AcDbSpline
 62
7
  6
CONTINUOUS
 70
0
 71
3
 72
11
 73
7
 74
0
 42
0.0000001
 43
0.0000001
 44
0.0000000001
 40
0.0
 40
0.0
 40
0.0
 40
0.0
 40
0.2540211637
 40
0.5056596397
 40
0.7539853717
 40
1.0
 40
1.0
 40
1.0
 40
1.0
 10
60.3907540078
 20
165.640625879
 30
0.0
 10
60.3907539585
 20
165.7705352556
 30
0.0
 10
60.4404093448
 20
166.031850465
 30
0.0
 10
60.6541731215
 20
166.3640147913
 30
0.0
 10
60.9751415991
 20
166.5879582631
 30
0.0
 10
61.2308653314
 20
166.6406249786
 30
0.0
 10
61.3566800727
 20
166.6406249772
 30
0.0
  0
SPLINE
  5
2F6
100
AcDbEntity
  8
RUNDUNGEN
100
AcDbSpline
 62
7
  6
CONTINUOUS
 70
0
 71
3
 72
11
 73
7
 74
0
 42
0.0000001
 43
0.0000001
 44
0.0000000001
 40
0.0
 40
0.0
 40
0.0
 40
0.0
 40
0.2540212502
 40
0.505659753
 40
0.7539854579
 40
1.0
 40
1.0
 40
1.0
 40
1.0
 10
72.8097314109
 20
165.6406249772
 30
0.0
 10
72.8097314109
 20
165.7705344417
 30
0.0
 10
72.8593867706
 20
166.0318497636
 30
0.0
 10
73.0731503053
 20
166.3640144507
 30
0.0
 10
73.3941187396
 20
166.5879581767
 30
0.0
 10
73.6498424976
 20
166.6406249772
 30
0.0
 10
73.7756572372
 20
166.6406249772
 30
0.0
  0
SPLINE
  5
2F7
100
AcDbEntity
  8
RUNDUNGEN
100
AcDbSpline
 62
7
  6
CONTINUOUS
 70
0
 71
3
 72
11
 73
7
 74
0
 42
0.0000001
 43
0.0000001
 44
0.0000000001
 40
0.0
 40
0.0
 40
0.0
 40
0.0
 40
0.2320955774
 40
0.4805099236
 40
0.7397855526
 40
1.0
 40
1.0
 40
1.0
 40
1.0
 10
73.7570058085
 20
164.5951480845
 30
0.0
 10
73.7738513939
 20
164.6991057714
 30
0.0
 10
73.8538047395
 20
164.9083481966
 30
0.0
 10
74.075866911
 20
165.167271882
 30
0.0
 10
74.3748694556
 20
165.3553749532
 30
0.0
 10
74.6057321076
 20
165.4199662784
 30
0.0
 10
74.7229316348
 20
165.4342989942
 30
0.0
  0
LINE
  5
2F8
100
AcDbEntity
  8
RUNDUNGEN
100
AcDbLine
 62
7
  6
CONTINUOUS
 10
77.8705702542
 20
160.1954901053
 11
77.8980881833
 21
159.8436205384
  0
LINE
  5
2F9
100
AcDbEntity
  8
RUNDUNGEN
100
AcDbLine
 62
7
  6
CONTINUOUS
 10
87.270557943
 20
158.0858453949
 11
87.243039064
 21
158.4377111522
  0
SPLINE
  5
2FA
100
AcDbEntity
  8
RUNDUNGEN
100
AcDbSpline
 62
7
  6
CONTINUOUS
 70
0
 71
3
 72
11
 73
7
 74
0
 42
0.0000001
 43
0.0000001
 44
0.0000000001
 40
0.0
 40
0.0
 40
0.0
 40
0.0
 40
0.2604814347
 40
0.5182469616
 40
0.7656685926
 40
1.0
 40
1.0
 40
1.0
 40
1.0
 10
90.4937328563
 20
152.6089561324
 30
0.0
 10
90.6163693243
 20
152.6182126584
 30
0.0
 10
90.8590064201
 20
152.6767908996
 30
0.0
 10
91.1715345995
 20
152.8703259297
 30
0.0
 10
91.3967133398
 20
153.1462014397
 30
0.0
 10
91.4678974231
 20
153.369705114
 30
0.0
 10
91.4785271478
 20
153.4798319745
 30
0.0
  0
SPLINE
  5
2FB
100
AcDbEntity
  8
RUNDUNGEN
100
AcDbSpline
 62
7
  6
CONTINUOUS
 70
0
 71
3
 72
11
 73
7
 74
0
 42
0.0000001
 43
0.0000001
 44
0.0000000001
 40
0.0
 40
0.0
 40
0.0
 40
0.0
 40
0.2482605022
 40
0.4975003067
 40
0.7482033348
 40
1.0
 40
1.0
 40
1.0
 40
1.0
 10
91.0570257434
 20
151.6406249772
 30
0.0
 10
91.1852007751
 20
151.6406249772
 30
0.0
 10
91.444944714
 20
151.6929213981
 30
0.0
 10
91.7721997716
 20
151.9161408295
 30
0.0
 10
91.9908791839
 20
152.2483875517
 30
0.0
 10
92.0418334952
 20
152.5106242511
 30
0.0
 10
92.0418334964
 20
152.6406249772
 30
0.0
  0
SPLINE
  5
2FC
100
AcDbEntity
  8
RUNDUNGEN
100
AcDbSpline
 62
7
  6
CONTINUOUS
 70
0
 71
3
 72
11
 73
7
 74
0
 42
0.0000001
 43
0.0000001
 44
0.0000000001
 40
0.0
 40
0.0
 40
0.0
 40
0.0
 40
0.248260517
 40
0.4975003281
 40
0.7482033501
 40
1.0
 40
1.0
 40
1.0
 40
1.0
 10
96.4111618675
 20
151.6406249772
 30
0.0
 10
96.5393366775
 20
151.6406250328
 30
0.0
 10
96.7990801284
 20
151.6929213591
 30
0.0
 10
97.12633476
 20
151.9161400992
 30
0.0
 10
97.3450142897
 20
152.2483858376
 30
0.0
 10
97.3959691198
 20
152.5106219081
 30
0.0
 10
97.3959694733
 20
152.6406223937
 30
0.0
  0
LINE
  5
2FD
100
AcDbEntity
  8
RUNDUNGEN
100
AcDbLine
 62
7
  6
CONTINUOUS
 10
87.2430370944
 20
159.8435213597
 11
87.2705582173
 21
160.1954105007
  0
SPLINE
  5
2FE
100
AcDbEntity
  8
RUNDUNGEN
100
AcDbSpline
 62
7
  6
CONTINUOUS
 70
0
 71
3
 72
11
 73
7
 74
0
 42
0.0000001
 43
0.0000001
 44
0.0000000001
 40
0.0
 40
0.0
 40
0.0
 40
0.0
 40
0.2343311682
 40
0.4817528068
 40
0.7395184821
 40
1.0
 40
1.0
 40
1.0
 40
1.0
 10
91.4785339465
 20
164.8014179795
 30
0.0
 10
91.4679048796
 20
164.9115457211
 30
0.0
 10
91.3967211752
 20
165.1350516006
 30
0.0
 10
91.1715408799
 20
165.4109297597
 30
0.0
 10
90.8590098386
 20
165.6044663509
 30
0.0
 10
90.6163704207
 20
165.6630446063
 30
0.0
 10
90.4937328563
 20
165.6723008156
 30
0.0
  0
SPLINE
  5
2FF
100
AcDbEntity
  8
RUNDUNGEN
100
AcDbSpline
 62
7
  6
CONTINUOUS
 70
0
 71
3
 72
11
 73
7
 74
0
 42
0.0000001
 43
0.0000001
 44
0.0000000001
 40
0.0
 40
0.0
 40
0.0
 40
0.0
 40
0.2517966613
 40
0.502499689
 40
0.7517394951
 40
1.0
 40
1.0
 40
1.0
 40
1.0
 10
92.0418334964
 20
165.6406249772
 30
0.0
 10
92.0418334948
 20
165.7706257011
 30
0.0
 10
91.990879184
 20
166.0328623978
 30
0.0
 10
91.7721997752
 20
166.36510912
 30
0.0
 10
91.4449447177
 20
166.588328555
 30
0.0
 10
91.1852007766
 20
166.6406249772
 30
0.0
 10
91.0570257436
 20
166.6406249772
 30
0.0
  0
SPLINE
  5
300
100
AcDbEntity
  8
RUNDUNGEN
100
AcDbSpline
 62
7
  6
CONTINUOUS
 70
0
 71
3
 72
11
 73
7
 74
0
 42
0.0000001
 43
0.0000001
 44
0.0000000001
 40
0.0
 40
0.0
 40
0.0
 40
0.0
 40
0.2517966515
 40
0.5024996754
 40
0.7517394874
 40
1.0
 40
1.0
 40
1.0
 40
1.0
 10
97.3959710657
 20
165.6406269262
 30
0.0
 10
97.3959707991
 20
165.7706272194
 30
0.0
 10
97.3450162983
 20
166.0328629277
 30
0.0
 10
97.1263376219
 20
166.3651084872
 30
0.0
 10
96.799083979
 20
166.5883275762
 30
0.0
 10
96.5393410835
 20
166.6406245331
 30
0.0
 10
96.4111664662
 20
166.6406249772
 30
0.0
  0
SPLINE
  5
301
100
AcDbEntity
  8
RUNDUNGEN
100
AcDbSpline
 62
7
  6
CONTINUOUS
 70
0
 71
3
 72
14
 73
10
 74
0
 42
0.0000001
 43
0.0000001
 44
0.0000000001
 40
0.0
 40
0.0
 40
0.0
 40
0.0
 40
0.0850138179
 40
0.1871325507
 40
0.3031167344
 40
0.429955776
 40
0.5650505915
 40
0.7062397459
 40
1.0
 40
1.0
 40
1.0
 40
1.0
 10
73.7569682478
 20
153.6860201634
 30
0.0
 10
73.8391358315
 20
153.8450441879
 30
0.0
 10
74.0504600223
 20
154.1790242748
 30
0.0
 10
74.4341064817
 20
154.6892266203
 30
0.0
 10
74.8985802744
 20
155.2478989844
 30
0.0
 10
75.4259160824
 20
155.843850458
 30
0.0
 10
76.001282493
 20
156.4679167192
 30
0.0
 10
76.8267359027
 20
157.3392614182
 30
0.0
 10
77.4656628108
 20
157.9953893857
 30
0.0
 10
77.8981053476
 20
158.4376056787
 30
0.0
  0
SPLINE
  5
302
100
AcDbEntity
  8
RUNDUNGEN
100
AcDbSpline
 62
7
  6
CONTINUOUS
 70
0
 71
3
 72
14
 73
10
 74
0
 42
0.0000001
 43
0.0000001
 44
0.0000000001
 40
0.0
 40
0.0
 40
0.0
 40
0.0
 40
0.2937539804
 40
0.4349443252
 40
0.570040759
 40
0.6968809099
 40
0.8128658921
 40
0.9149854922
 40
1.0
 40
1.0
 40
1.0
 40
1.0
 10
77.8981068128
 20
159.8436020216
 30
0.0
 10
77.4656715346
 20
160.2858111298
 30
0.0
 10
76.8267766646
 20
160.9419613934
 30
0.0
 10
76.0013144196
 20
161.8132955388
 30
0.0
 10
75.4259388356
 20
162.4373702622
 30
0.0
 10
74.8985970096
 20
163.0333314208
 30
0.0
 10
74.4341158529
 20
163.5920098872
 30
0.0
 10
74.0504651262
 20
164.1022190016
 30
0.0
 10
73.839136777
 20
164.4362027153
 30
0.0
 10
73.7569686161
 20
164.5952290531
 30
0.0
  0
SPLINE
  5
303
100
AcDbEntity
  8
RUNDUNGEN
100
AcDbSpline
 62
7
  6
CONTINUOUS
 70
0
 71
3
 72
15
 73
11
 74
0
 42
0.0000001
 43
0.0000001
 44
0.0000000001
 40
0.0
 40
0.0
 40
0.0
 40
0.0
 40
0.0362770802
 40
0.0779366639
 40
0.1758857324
 40
0.2903513686
 40
0.4176729858
 40
0.5546939754
 40
0.6987993629
 40
1.0
 40
1.0
 40
1.0
 40
1.0
 10
91.478577703
 20
164.8015252299
 30
0.0
 10
91.4497918698
 20
164.7278192434
 30
0.0
 10
91.3770634597
 20
164.5737220728
 30
0.0
 10
91.1840614301
 20
164.2418726195
 30
0.0
 10
90.8621454973
 20
163.7896364761
 30
0.0
 10
90.3965298163
 20
163.2130064218
 30
0.0
 10
89.8533277111
 20
162.5901820946
 30
0.0
 10
89.2518821383
 20
161.932878533
 30
0.0
 10
88.3798447828
 20
161.0093041277
 30
0.0
 10
87.7023608333
 20
160.3132315887
 30
0.0
 10
87.2430274158
 20
159.8435128452
 30
0.0
  0
SPLINE
  5
304
100
AcDbEntity
  8
RUNDUNGEN
100
AcDbSpline
 62
7
  6
CONTINUOUS
 70
0
 71
3
 72
11
 73
7
 74
0
 42
0.0000001
 43
0.0000001
 44
0.0000000001
 40
0.0
 40
0.0
 40
0.0
 40
0.0
 40
0.2440717218
 40
0.489867598
 40
0.7417486346
 40
1.0
 40
1.0
 40
1.0
 40
1.0
 10
86.1378760843
 20
163.4406249772
 30
0.0
 10
86.2404334873
 20
163.4406148506
 30
0.0
 10
86.4483231654
 20
163.4017397901
 30
0.0
 10
86.7181372501
 20
163.2314458287
 30
0.0
 10
86.907405739
 20
162.966129513
 30
0.0
 10
86.9532427079
 20
162.7491405763
 30
0.0
 10
86.9532606997
 20
162.6406249772
 30
0.0
  0
SPLINE
  5
305
100
AcDbEntity
  8
RUNDUNGEN
100
AcDbSpline
 62
7
  6
CONTINUOUS
 70
0
 71
3
 72
11
 73
7
 74
0
 42
0.0000001
 43
0.0000001
 44
0.0000000001
 40
0.0
 40
0.0
 40
0.0
 40
0.0
 40
0.2582541034
 40
0.5101339673
 40
0.7559289829
 40
1.0
 40
1.0
 40
1.0
 40
1.0
 10
86.9532606997
 20
155.6406249772
 30
0.0
 10
86.9532402508
 20
155.5321081823
 30
0.0
 10
86.9074084654
 20
155.3151177693
 30
0.0
 10
86.7181350902
 20
155.0498030483
 30
0.0
 10
86.4483224618
 20
154.8795102781
 30
0.0
 10
86.2404332344
 20
154.8406348756
 30
0.0
 10
86.1378760843
 20
154.8406249772
 30
0.0
  0
SPLINE
  5
306
100
AcDbEntity
  8
RUNDUNGEN
100
AcDbSpline
 62
7
  6
CONTINUOUS
 70
0
 71
3
 72
11
 73
7
 74
0
 42
0.0000001
 43
0.0000001
 44
0.0000000001
 40
0.0
 40
0.0
 40
0.0
 40
0.0
 40
0.2440717218
 40
0.489867598
 40
0.7417486346
 40
1.0
 40
1.0
 40
1.0
 40
1.0
 10
79.0032606997
 20
154.8406249772
 30
0.0
 10
78.9007032967
 20
154.8406351037
 30
0.0
 10
78.6928136186
 20
154.8795101642
 30
0.0
 10
78.4229995339
 20
155.0498041257
 30
0.0
 10
78.233731045
 20
155.3151204413
 30
0.0
 10
78.1878940761
 20
155.532109378
 30
0.0
 10
78.1878760843
 20
155.6406249772
 30
0.0
  0
SPLINE
  5
307
100
AcDbEntity
  8
RUNDUNGEN
100
AcDbSpline
 62
7
  6
CONTINUOUS
 70
0
 71
3
 72
11
 73
7
 74
0
 42
0.0000001
 43
0.0000001
 44
0.0000000001
 40
0.0
 40
0.0
 40
0.0
 40
0.0
 40
0.2582541034
 40
0.5101339673
 40
0.7559289829
 40
1.0
 40
1.0
 40
1.0
 40
1.0
 10
78.1878760843
 20
162.6406249772
 30
0.0
 10
78.1878965333
 20
162.7491417721
 30
0.0
 10
78.2337283186
 20
162.966132185
 30
0.0
 10
78.4230016938
 20
163.2314469061
 30
0.0
 10
78.6928143222
 20
163.4017396762
 30
0.0
 10
78.9007035496
 20
163.4406150787
 30
0.0
 10
79.0032606997
 20
163.4406249772
 30
0.0
  0
SPLINE
  5
308
100
AcDbEntity
  8
RUNDUNGEN
100
AcDbSpline
 62
7
  6
CONTINUOUS
 70
0
 71
3
 72
11
 73
7
 74
0
 42
0.0000001
 43
0.0000001
 44
0.0000000001
 40
0.0
 40
0.0
 40
0.0
 40
0.0
 40
0.2477101266
 40
0.496836802
 40
0.7477927309
 40
1.0
 40
1.0
 40
1.0
 40
1.0
 10
104.7376307506
 20
152.6260945854
 30
0.0
 10
104.7192445543
 20
152.5125468689
 30
0.0
 10
104.6402716781
 20
152.2894832896
 30
0.0
 10
104.4118732669
 20
152.0185403182
 30
0.0
 10
104.1027856758
 20
151.8413767359
 30
0.0
 10
103.8671149689
 20
151.8005029729
 30
0.0
 10
103.75
 20
151.800502951
 30
0.0
  0
SPLINE
  5
309
100
AcDbEntity
  8
RUNDUNGEN
100
AcDbSpline
 62
7
  6
CONTINUOUS
 70
0
 71
3
 72
15
 73
11
 74
0
 42
0.0000001
 43
0.0000001
 44
0.0000000001
 40
0.0
 40
0.0
 40
0.0
 40
0.0
 40
0.0362773699
 40
0.0779359628
 40
0.1758842752
 40
0.2903491613
 40
0.4176707201
 40
0.554691668
 40
0.6987969039
 40
1.0
 40
1.0
 40
1.0
 40
1.0
 10
91.4785884871
 20
153.479693544
 30
0.0
 10
91.449803182
 20
153.5534006887
 30
0.0
 10
91.3770781879
 20
153.7074983691
 30
0.0
 10
91.1840806531
 20
154.0393482712
 30
0.0
 10
90.8621702135
 20
154.4915839877
 30
0.0
 10
90.3965525244
 20
155.068211145
 30
0.0
 10
89.853352455
 20
155.6910382543
 30
0.0
 10
89.2519046636
 20
156.3483429369
 30
0.0
 10
88.3798684031
 20
157.2719308287
 30
0.0
 10
87.7023667438
 20
157.967997645
 30
0.0
 10
87.243027738
 20
158.4377213862
 30
0.0
  0
SPLINE
  5
30A
100
AcDbEntity
  8
RUNDUNGEN
100
AcDbSpline
 62
7
  6
CONTINUOUS
 70
0
 71
3
 72
11
 73
7
 74
0
 42
0.0000001
 43
0.0000001
 44
0.0000000001
 40
0.0
 40
0.0
 40
0.0
 40
0.0
 40
0.2477102817
 40
0.4968370016
 40
0.7477928605
 40
1.0
 40
1.0
 40
1.0
 40
1.0
 10
104.7376308159
 20
165.6551574608
 30
0.0
 10
104.7192446655
 20
165.7687053552
 30
0.0
 10
104.6402718845
 20
165.9917692701
 30
0.0
 10
104.4118735008
 20
166.2627127371
 30
0.0
 10
104.102785828
 20
166.4398766598
 30
0.0
 10
103.8671150067
 20
166.4807504869
 30
0.0
 10
103.75
 20
166.480750495
 30
0.0
  0
SPLINE
  5
30B
100
AcDbEntity
  8
RUNDUNGEN
100
AcDbSpline
 62
7
  6
CONTINUOUS
 70
0
 71
3
 72
11
 73
7
 74
0
 42
0.0000001
 43
0.0000001
 44
0.0000000001
 40
0.0
 40
0.0
 40
0.0
 40
0.0
 40
0.2666892617
 40
0.5178064632
 40
0.7590084059
 40
1.0
 40
1.0
 40
1.0
 40
1.0
 10
78.9351497198
 20
163.711027221
 30
0.0
 10
78.7835975881
 20
163.6941977475
 30
0.0
 10
78.4923883692
 20
163.605567012
 30
0.0
 10
78.1439578907
 20
163.3316117512
 30
0.0
 10
77.9217728975
 20
162.9658009852
 30
0.0
 10
77.8705415352
 20
162.6875065488
 30
0.0
 10
77.870568392
 20
162.5497158863
 30
0.0
  0
SPLINE
  5
30C
100
AcDbEntity
  8
RUNDUNGEN
100
AcDbSpline
 62
7
  6
CONTINUOUS
 70
0
 71
3
 72
13
 73
9
 74
0
 42
0.0000001
 43
0.0000001
 44
0.0000000001
 40
0.0
 40
0.0
 40
0.0
 40
0.0
 40
0.2871535924
 40
0.5590625349
 40
0.6854887079
 40
0.8028567201
 40
0.9086495135
 40
1.0
 40
1.0
 40
1.0
 40
1.0
 10
77.8705685935
 20
160.1954911161
 30
0.0
 10
77.5421868457
 20
160.6808195517
 30
0.0
 10
76.9056560069
 20
161.6275926426
 30
0.0
 10
76.1441912593
 20
162.801277827
 30
0.0
 10
75.5962418477
 20
163.6998312712
 30
0.0
 10
75.2417165959
 20
164.319095306
 30
0.0
 10
74.9466209978
 20
164.8892103769
 30
0.0
 10
74.785813658
 20
165.2588154625
 30
0.0
 10
74.7229316347
 20
165.4343054856
 30
0.0
  0
SPLINE
  5
30D
100
AcDbEntity
  8
RUNDUNGEN
100
AcDbSpline
 62
7
  6
CONTINUOUS
 70
0
 71
3
 72
14
 73
10
 74
0
 42
0.0000001
 43
0.0000001
 44
0.0000000001
 40
0.0
 40
0.0
 40
0.0
 40
0.0
 40
0.3510682394
 40
0.4985898707
 40
0.6278129165
 40
0.7398238121
 40
0.8366405999
 40
0.9216511547
 40
1.0
 40
1.0
 40
1.0
 40
1.0
 10
74.7229316347
 20
165.4343054856
 30
0.0
 10
74.659343202
 20
165.6117678922
 30
0.0
 10
74.5581728729
 20
165.8606807932
 30
0.0
 10
74.3955465217
 20
166.1563841759
 30
0.0
 10
74.2775831976
 20
166.3291142185
 30
0.0
 10
74.1567948009
 20
166.4654394667
 30
0.0
 10
74.0330187905
 20
166.564912878
 30
0.0
 10
73.905909436
 20
166.6263574176
 30
0.0
 10
73.8177279405
 20
166.6406178399
 30
0.0
 10
73.7756574346
 20
166.6406249694
 30
0.0
  0
SPLINE
  5
30E
100
AcDbEntity
  8
RUNDUNGEN
100
AcDbSpline
 62
7
  6
CONTINUOUS
 70
0
 71
3
 72
13
 73
9
 74
0
 42
0.0000001
 43
0.0000001
 44
0.0000000001
 40
0.0
 40
0.0
 40
0.0
 40
0.0
 40
0.0848876131
 40
0.1751942766
 40
0.2753215916
 40
0.3884273528
 40
0.6606086913
 40
1.0
 40
1.0
 40
1.0
 40
1.0
 10
72.8097314109
 20
152.6406249772
 30
0.0
 10
72.8516433379
 20
152.640633282
 30
0.0
 10
72.9385165819
 20
152.6526529982
 30
0.0
 10
73.0651745894
 20
152.7051822644
 30
0.0
 10
73.1891573428
 20
152.7909764863
 30
0.0
 10
73.3612946372
 20
152.9589486044
 30
0.0
 10
73.5639020342
 20
153.2574648834
 30
0.0
 10
73.6929409961
 20
153.5311701008
 30
0.0
 10
73.7569682457
 20
153.6860246355
 30
0.0
  0
SPLINE
  5
30F
100
AcDbEntity
  8
RUNDUNGEN
100
AcDbSpline
 62
7
  6
CONTINUOUS
 70
0
 71
3
 72
15
 73
11
 74
0
 42
0.0000001
 43
0.0000001
 44
0.0000000001
 40
0.0
 40
0.0
 40
0.0
 40
0.0
 40
0.0402984112
 40
0.0852718082
 40
0.1876207549
 40
0.3037800178
 40
0.4306470492
 40
0.5656312178
 40
0.7066183375
 40
1.0
 40
1.0
 40
1.0
 40
1.0
 10
90.4937328562
 20
165.6723092104
 30
0.0
 10
90.4713560032
 20
165.5896940952
 30
0.0
 10
90.4152470031
 20
165.4172370236
 30
0.0
 10
90.2669646246
 20
165.0471711932
 30
0.0
 10
90.0208989798
 20
164.5438573015
 30
0.0
 10
89.6644982888
 20
163.9025598243
 30
0.0
 10
89.2510664432
 20
163.2141721578
 30
0.0
 10
88.794631613
 20
162.490434003
 30
0.0
 10
88.1345149697
 20
161.4771841152
 30
0.0
 10
87.6197717815
 20
160.7115103068
 30
0.0
 10
87.270567285
 20
160.1954231921
 30
0.0
  0
SPLINE
  5
310
100
AcDbEntity
  8
RUNDUNGEN
100
AcDbSpline
 62
7
  6
CONTINUOUS
 70
0
 71
3
 72
11
 73
7
 74
0
 42
0.0000001
 43
0.0000001
 44
0.0000000001
 40
0.0
 40
0.0
 40
0.0
 40
0.0
 40
0.2409791899
 40
0.4821745406
 40
0.7333028181
 40
1.0
 40
1.0
 40
1.0
 40
1.0
 10
87.270568392
 20
162.5497158863
 30
0.0
 10
87.2705953402
 20
162.6875452218
 30
0.0
 10
87.219331417
 20
162.9659214967
 30
0.0
 10
86.9970198038
 20
163.3318229089
 30
0.0
 10
86.6483826919
 20
163.6057762372
 30
0.0
 10
86.3570266338
 20
163.694328259
 30
0.0
 10
86.2054116908
 20
163.7110918923
 30
0.0
  0
SPLINE
  5
311
100
AcDbEntity
  8
RUNDUNGEN
100
AcDbSpline
 62
7
  6
CONTINUOUS
 70
0
 71
3
 72
16
 73
12
 74
0
 42
0.0000001
 43
0.0000001
 44
0.0000000001
 40
0.0
 40
0.0
 40
0.0
 40
0.0
 40
0.1681140325
 40
0.3311830113
 40
0.4845481659
 40
0.6241964188
 40
0.7469843385
 40
0.8507718453
 40
0.895248707
 40
0.9347976359
 40
1.0
 40
1.0
 40
1.0
 40
1.0
 10
101.9985773888
 20
159.1410583871
 30
0.0
 10
101.9985737267
 20
158.709052344
 30
0.0
 10
102.0200216337
 20
157.8578386392
 30
0.0
 10
102.1157922416
 20
156.6158014285
 30
0.0
 10
102.2711396101
 20
155.4534546703
 30
0.0
 10
102.4801032947
 20
154.4046721159
 30
0.0
 10
102.7353528329
 20
153.4977604606
 30
0.0
 10
102.9908412264
 20
152.8477703286
 30
0.0
 10
103.2179431981
 20
152.4209509903
 30
0.0
 10
103.4283472022
 20
152.1007334282
 30
0.0
 10
103.6136530251
 20
151.8979170593
 30
0.0
 10
103.7499995029
 20
151.8005350446
 30
0.0
  0
SPLINE
  5
312
100
AcDbEntity
  8
RUNDUNGEN
100
AcDbSpline
 62
7
  6
CONTINUOUS
 70
0
 71
3
 72
17
 73
13
 74
0
 42
0.0000001
 43
0.0000001
 44
0.0000000001
 40
0.0
 40
0.0
 40
0.0
 40
0.0
 40
0.0305459265
 40
0.0653742571
 40
0.1049162636
 40
0.1493842764
 40
0.2531512121
 40
0.3759152081
 40
0.5155474345
 40
0.668897168
 40
0.8319343237
 40
1.0
 40
1.0
 40
1.0
 40
1.0
 10
103.7500001111
 20
166.4807573797
 30
0.0
 10
103.6861121055
 20
166.4351426184
 30
0.0
 10
103.5594239473
 20
166.3232540744
 30
0.0
 10
103.3858993874
 20
166.1160065235
 30
0.0
 10
103.2179302657
 20
165.8602639427
 30
0.0
 10
102.9909994026
 20
165.4337948434
 30
0.0
 10
102.7354125151
 20
164.7837189846
 30
0.0
 10
102.4801979493
 20
163.8769584783
 30
0.0
 10
102.2712059929
 20
162.8282135731
 30
0.0
 10
102.1158564774
 20
161.6659424978
 30
0.0
 10
102.0200668524
 20
160.4240504683
 30
0.0
 10
101.998584315
 20
159.5729751844
 30
0.0
 10
101.9985773888
 20
159.1410583871
 30
0.0
  0
SPLINE
  5
313
100
AcDbEntity
  8
RUNDUNGEN
100
AcDbSpline
 62
7
  6
CONTINUOUS
 70
0
 71
3
 72
11
 73
7
 74
0
 42
0.0000001
 43
0.0000001
 44
0.0000000001
 40
0.0
 40
0.0
 40
0.0
 40
0.0
 40
0.2409791899
 40
0.4821745406
 40
0.7333028181
 40
1.0
 40
1.0
 40
1.0
 40
1.0
 10
77.870568392
 20
155.7315340681
 30
0.0
 10
77.8705414439
 20
155.5937047326
 30
0.0
 10
77.921805367
 20
155.3153284576
 30
0.0
 10
78.1441169802
 20
154.9494270454
 30
0.0
 10
78.4927540921
 20
154.6754737171
 30
0.0
 10
78.7841101502
 20
154.5869216954
 30
0.0
 10
78.9357250932
 20
154.5701580621
 30
0.0
  0
SPLINE
  5
314
100
AcDbEntity
  8
RUNDUNGEN
100
AcDbSpline
 62
7
  6
CONTINUOUS
 70
0
 71
3
 72
11
 73
7
 74
0
 42
0.0000001
 43
0.0000001
 44
0.0000000001
 40
0.0
 40
0.0
 40
0.0
 40
0.0
 40
0.2666892617
 40
0.5178064632
 40
0.7590084059
 40
1.0
 40
1.0
 40
1.0
 40
1.0
 10
86.2059870643
 20
154.5702227334
 30
0.0
 10
86.357539196
 20
154.5870522069
 30
0.0
 10
86.6487484148
 20
154.6756829423
 30
0.0
 10
86.9971788933
 20
154.9496382031
 30
0.0
 10
87.2193638865
 20
155.3154489691
 30
0.0
 10
87.2705952488
 20
155.5937434055
 30
0.0
 10
87.270568392
 20
155.7315340681
 30
0.0
  0
SPLINE
  5
315
100
AcDbEntity
  8
RUNDUNGEN
100
AcDbSpline
 62
7
  6
CONTINUOUS
 70
0
 71
3
 72
13
 73
9
 74
0
 42
0.0000001
 43
0.0000001
 44
0.0000000001
 40
0.0
 40
0.0
 40
0.0
 40
0.0
 40
0.0705184044
 40
0.1493412674
 40
0.2424014851
 40
0.3532543317
 40
0.634841438
 40
1.0
 40
1.0
 40
1.0
 40
1.0
 10
92.0418334964
 20
152.6406249772
 30
0.0
 10
92.0169559986
 20
152.6406363386
 30
0.0
 10
91.963950163
 20
152.6509505239
 30
0.0
 10
91.8889449137
 20
152.6942128447
 30
0.0
 10
91.8161327428
 20
152.7633207742
 30
0.0
 10
91.712921463
 20
152.9006761935
 30
0.0
 10
91.593089968
 20
153.1414493424
 30
0.0
 10
91.5170143937
 20
153.3567517539
 30
0.0
 10
91.4785884946
 20
153.4797079679
 30
0.0
  0
SPLINE
  5
316
100
AcDbEntity
  8
RUNDUNGEN
100
AcDbSpline
 62
7
  6
CONTINUOUS
 70
0
 71
3
 72
11
 73
7
 74
0
 42
0.0000001
 43
0.0000001
 44
0.0000000001
 40
0.0
 40
0.0
 40
0.0
 40
0.0
 40
0.3311755684
 40
0.4852043736
 40
0.6247590165
 40
1.0
 40
1.0
 40
1.0
 40
1.0
 10
77.870568392
 20
162.5497158873
 30
0.0
 10
77.8961520859
 20
162.5497158872
 30
0.0
 10
77.9336226268
 20
162.5528514113
 30
0.0
 10
77.9810479755
 20
162.5642286125
 30
0.0
 10
78.0281560379
 20
162.5808869556
 30
0.0
 10
78.070568392
 20
162.6116371792
 30
0.0
 10
78.070568392
 20
162.6406249771
 30
0.0
  0
SPLINE
  5
317
100
AcDbEntity
  8
RUNDUNGEN
100
AcDbSpline
 62
7
  6
CONTINUOUS
 70
0
 71
3
 72
12
 73
8
 74
0
 42
0.0000001
 43
0.0000001
 44
0.0000000001
 40
0.0
 40
0.0
 40
0.0
 40
0.0
 40
0.3725506269
 40
0.6906299074
 40
0.9062422978
 40
0.9673589265
 40
1.0
 40
1.0
 40
1.0
 40
1.0
 10
77.8705685935
 20
160.1955078293
 30
0.0
 10
77.8960580432
 20
160.195507708
 30
0.0
 10
77.9434246973
 20
160.196804338
 30
0.0
 10
78.004885628
 20
160.2018754264
 30
0.0
 10
78.0457742856
 20
160.209269169
 30
0.0
 10
78.0650452434
 20
160.2162417641
 30
0.0
 10
78.0705688066
 20
160.2214058053
 30
0.0
 10
78.0705683919
 20
160.2236390668
 30
0.0
  0
SPLINE
  5
318
100
AcDbEntity
  8
RUNDUNGEN
100
AcDbSpline
 62
7
  6
CONTINUOUS
 70
0
 71
3
 72
12
 73
8
 74
0
 42
0.0000001
 43
0.0000001
 44
0.0000000001
 40
0.0
 40
0.0
 40
0.0
 40
0.0
 40
0.3725503491
 40
0.6906296609
 40
0.9062425782
 40
0.9673594174
 40
1.0
 40
1.0
 40
1.0
 40
1.0
 10
77.870568392
 20
158.085744883
 30
0.0
 10
77.896057784
 20
158.085744936
 30
0.0
 10
77.9434243598
 20
158.0844482536
 30
0.0
 10
78.0048851718
 20
158.0793773797
 30
0.0
 10
78.0457739871
 20
158.0719840527
 30
0.0
 10
78.0650449171
 20
158.0650117775
 30
0.0
 10
78.0705687356
 20
158.0598480331
 30
0.0
 10
78.070568392
 20
158.0576148086
 30
0.0
  0
SPLINE
  5
319
100
AcDbEntity
  8
RUNDUNGEN
100
AcDbSpline
 62
7
  6
CONTINUOUS
 70
0
 71
3
 72
11
 73
7
 74
0
 42
0.0000001
 43
0.0000001
 44
0.0000000001
 40
0.0
 40
0.0
 40
0.0
 40
0.0
 40
0.3311764135
 40
0.485205749
 40
0.6247605645
 40
1.0
 40
1.0
 40
1.0
 40
1.0
 10
77.870568392
 20
155.7315340676
 30
0.0
 10
77.8961521232
 20
155.7315339263
 30
0.0
 10
77.9336226992
 20
155.7283981988
 30
0.0
 10
77.9810481009
 20
155.7170209003
 30
0.0
 10
78.0281559881
 20
155.7003625078
 30
0.0
 10
78.070568392
 20
155.6696126238
 30
0.0
 10
78.070568392
 20
155.6406249772
 30
0.0
  0
SPLINE
  5
31A
100
AcDbEntity
  8
RUNDUNGEN
100
AcDbSpline
 62
7
  6
CONTINUOUS
 70
0
 71
3
 72
11
 73
7
 74
0
 42
0.0000001
 43
0.0000001
 44
0.0000000001
 40
0.0
 40
0.0
 40
0.0
 40
0.0
 40
0.3311756291
 40
0.4852044887
 40
0.6247591383
 40
1.0
 40
1.0
 40
1.0
 40
1.0
 10
87.270568392
 20
155.7315340676
 30
0.0
 10
87.2449846933
 20
155.7315340677
 30
0.0
 10
87.2075141439
 20
155.7283985369
 30
0.0
 10
87.1600887849
 20
155.717021336
 30
0.0
 10
87.1129807285
 20
155.7003629866
 30
0.0
 10
87.070568392
 20
155.6696127659
 30
0.0
 10
87.070568392
 20
155.6406249772
 30
0.0
  0
SPLINE
  5
31B
100
AcDbEntity
  8
RUNDUNGEN
100
AcDbSpline
 62
7
  6
CONTINUOUS
 70
0
 71
3
 72
12
 73
8
 74
0
 42
0.0000001
 43
0.0000001
 44
0.0000000001
 40
0.0
 40
0.0
 40
0.0
 40
0.0
 40
0.3725475185
 40
0.6906246395
 40
0.9062375774
 40
0.9673558965
 40
1.0
 40
1.0
 40
1.0
 40
1.0
 10
87.2705673529
 20
158.0857364884
 30
0.0
 10
87.2450781307
 20
158.0857371106
 30
0.0
 10
87.1977118619
 20
158.0844412065
 30
0.0
 10
87.136251172
 20
158.0793698693
 30
0.0
 10
87.0953628507
 20
158.0719754666
 30
0.0
 10
87.0760915628
 20
158.0650019679
 30
0.0
 10
87.0705681145
 20
158.0598375877
 30
0.0
 10
87.070568392
 20
158.0576041202
 30
0.0
  0
SPLINE
  5
31C
100
AcDbEntity
  8
RUNDUNGEN
100
AcDbSpline
 62
7
  6
CONTINUOUS
 70
0
 71
3
 72
12
 73
8
 74
0
 42
0.0000001
 43
0.0000001
 44
0.0000000001
 40
0.0
 40
0.0
 40
0.0
 40
0.0
 40
0.3725480996
 40
0.6906261341
 40
0.9062395538
 40
0.9673575921
 40
1.0
 40
1.0
 40
1.0
 40
1.0
 10
87.270568392
 20
160.1955143352
 30
0.0
 10
87.2450790958
 20
160.1955144629
 30
0.0
 10
87.1977126747
 20
160.1968114656
 30
0.0
 10
87.1362519269
 20
160.2018829267
 30
0.0
 10
87.0953631469
 20
160.2092766222
 30
0.0
 10
87.0760919833
 20
160.2162494971
 30
0.0
 10
87.0705681543
 20
160.2214134002
 30
0.0
 10
87.070568392
 20
160.2236467548
 30
0.0
  0
SPLINE
  5
31D
100
AcDbEntity
  8
RUNDUNGEN
100
AcDbSpline
 62
7
  6
CONTINUOUS
 70
0
 71
3
 72
11
 73
7
 74
0
 42
0.0000001
 43
0.0000001
 44
0.0000000001
 40
0.0
 40
0.0
 40
0.0
 40
0.0
 40
0.3311764136
 40
0.4852057492
 40
0.6247605646
 40
1.0
 40
1.0
 40
1.0
 40
1.0
 10
87.270568392
 20
162.5497158873
 30
0.0
 10
87.2449846609
 20
162.5497160285
 30
0.0
 10
87.2075140849
 20
162.5528517559
 30
0.0
 10
87.1600886831
 20
162.5642290543
 30
0.0
 10
87.1129807959
 20
162.5808874466
 30
0.0
 10
87.070568392
 20
162.6116373306
 30
0.0
 10
87.070568392
 20
162.6406249771
 30
0.0
  0
SPLINE
  5
31E
100
AcDbEntity
  8
RUNDUNGEN
100
AcDbSpline
 62
7
  6
CONTINUOUS
 70
0
 71
3
 72
12
 73
8
 74
0
 42
0.0000001
 43
0.0000001
 44
0.0000000001
 40
0.0
 40
0.0
 40
0.0
 40
0.0
 40
0.1348249543
 40
0.2332142904
 40
0.3543529314
 40
0.6546517089
 40
1.0
 40
1.0
 40
1.0
 40
1.0
 10
86.070568392
 20
163.6406249772
 30
0.0
 10
86.0805378963
 20
163.6406249772
 30
0.0
 10
86.0962355115
 20
163.6280065604
 30
0.0
 10
86.109192109
 20
163.6057911604
 30
0.0
 10
86.1235839011
 20
163.569772489
 30
0.0
 10
86.1347568977
 20
163.5139540015
 30
0.0
 10
86.1378756951
 20
163.4661614315
 30
0.0
 10
86.1378760841
 20
163.4406249772
 30
0.0
  0
SPLINE
  5
31F
100
AcDbEntity
  8
RUNDUNGEN
100
AcDbSpline
 62
7
  6
CONTINUOUS
 70
0
 71
3
 72
13
 73
9
 74
0
 42
0.0000001
 43
0.0000001
 44
0.0000000001
 40
0.0
 40
0.0
 40
0.0
 40
0.0
 40
0.0705182944
 40
0.1493396724
 40
0.242398516
 40
0.3532522933
 40
0.6348433683
 40
1.0
 40
1.0
 40
1.0
 40
1.0
 10
92.0418334964
 20
165.6406249772
 30
0.0
 10
92.0169553423
 20
165.6406113244
 30
0.0
 10
91.9639495067
 20
165.630296099
 30
0.0
 10
91.8889416066
 20
165.5870355959
 30
0.0
 10
91.8161274349
 20
165.5179263234
 30
0.0
 10
91.7129150169
 20
165.3805641365
 30
0.0
 10
91.5930829881
 20
165.1397818859
 30
0.0
 10
91.5170049208
 20
164.9244729173
 30
0.0
 10
91.4785777075
 20
164.8015140501
 30
0.0
  0
SPLINE
  5
320
100
AcDbEntity
  8
RUNDUNGEN
100
AcDbSpline
 62
7
  6
CONTINUOUS
 70
0
 71
3
 72
12
 73
8
 74
0
 42
0.0000001
 43
0.0000001
 44
0.0000000001
 40
0.0
 40
0.0
 40
0.0
 40
0.0
 40
0.134827773
 40
0.2332171515
 40
0.3543552938
 40
0.6546528947
 40
1.0
 40
1.0
 40
1.0
 40
1.0
 10
86.070568392
 20
154.6406249772
 30
0.0
 10
86.0805381409
 20
154.6406249772
 30
0.0
 10
86.0962362774
 20
154.6532430833
 30
0.0
 10
86.1091932157
 20
154.6754586914
 30
0.0
 10
86.1235851236
 20
154.7114773111
 30
0.0
 10
86.1347578124
 20
154.767295911
 30
0.0
 10
86.1378760843
 20
154.815088518
 30
0.0
 10
86.1378760843
 20
154.8406249772
 30
0.0
  0
SPLINE
  5
321
100
AcDbEntity
  8
RUNDUNGEN
100
AcDbSpline
 62
7
  6
CONTINUOUS
 70
0
 71
3
 72
12
 73
8
 74
0
 42
0.0000001
 43
0.0000001
 44
0.0000000001
 40
0.0
 40
0.0
 40
0.0
 40
0.0
 40
0.1348249543
 40
0.2332142905
 40
0.3543529314
 40
0.6546517089
 40
1.0
 40
1.0
 40
1.0
 40
1.0
 10
79.070568392
 20
154.6406249772
 30
0.0
 10
79.0605988877
 20
154.6406249772
 30
0.0
 10
79.0449012725
 20
154.6532433939
 30
0.0
 10
79.031944675
 20
154.6754587939
 30
0.0
 10
79.0175528829
 20
154.7114774653
 30
0.0
 10
79.0063798863
 20
154.7672959528
 30
0.0
 10
79.0032610889
 20
154.8150885229
 30
0.0
 10
79.0032606999
 20
154.8406249772
 30
0.0
  0
SPLINE
  5
322
100
AcDbEntity
  8
RUNDUNGEN
100
AcDbSpline
 62
7
  6
CONTINUOUS
 70
0
 71
3
 72
12
 73
8
 74
0
 42
0.0000001
 43
0.0000001
 44
0.0000000001
 40
0.0
 40
0.0
 40
0.0
 40
0.0
 40
0.1348277734
 40
0.233217152
 40
0.3543552945
 40
0.654652895
 40
1.0
 40
1.0
 40
1.0
 40
1.0
 10
79.070568392
 20
163.6406249772
 30
0.0
 10
79.0605986431
 20
163.6406249772
 30
0.0
 10
79.0449005065
 20
163.6280068709
 30
0.0
 10
79.0319435682
 20
163.6057912628
 30
0.0
 10
79.0175516604
 20
163.5697726431
 30
0.0
 10
79.0063789716
 20
163.5139540432
 30
0.0
 10
79.0032606997
 20
163.4661614363
 30
0.0
 10
79.0032606997
 20
163.4406249772
 30
0.0
  0
SPLINE
  5
323
100
AcDbEntity
  8
RUNDUNGEN
100
AcDbSpline
 62
7
  6
CONTINUOUS
 70
0
 71
3
 72
11
 73
7
 74
0
 42
0.0000001
 43
0.0000001
 44
0.0000000001
 40
0.0
 40
0.0
 40
0.0
 40
0.0
 40
0.2427804186
 40
0.490181041
 40
0.743370168
 40
1.0
 40
1.0
 40
1.0
 40
1.0
 10
254.7121151009
 20
154.6406249772
 30
0.0
 10
254.7366412635
 20
154.6406249772
 30
0.0
 10
254.7866911866
 20
154.6513846201
 30
0.0
 10
254.8494530196
 20
154.6961446615
 30
0.0
 10
254.8907216915
 20
154.7627295154
 30
0.0
 10
254.9004491864
 20
154.8146997192
 30
0.0
 10
254.9004490452
 20
154.8406249772
 30
0.0
  0
SPLINE
  5
324
100
AcDbEntity
  8
RUNDUNGEN
100
AcDbSpline
 62
7
  6
CONTINUOUS
 70
0
 71
3
 72
11
 73
7
 74
0
 42
0.0000001
 43
0.0000001
 44
0.0000000001
 40
0.0
 40
0.0
 40
0.0
 40
0.0
 40
0.2227994656
 40
0.4603022087
 40
0.7185711355
 40
1.0
 40
1.0
 40
1.0
 40
1.0
 10
249.7732280848
 20
160.3654090486
 30
0.0
 10
249.6746374509
 20
160.7763879603
 30
0.0
 10
249.3686274674
 20
161.603842698
 30
0.0
 10
248.6150116284
 20
162.7523616539
 30
0.0
 10
247.5545403877
 20
163.7916583641
 30
0.0
 10
246.6866213507
 20
164.3494509743
 30
0.0
 10
246.212706414
 20
164.5952290531
 30
0.0
  0
SPLINE
  5
325
100
AcDbEntity
  8
RUNDUNGEN
100
AcDbSpline
 62
7
  6
CONTINUOUS
 70
0
 71
3
 72
22
 73
18
 74
0
 42
0.0000001
 43
0.0000001
 44
0.0000000001
 40
0.0
 40
0.0
 40
0.0
 40
0.0
 40
0.1755766694
 40
0.3468905333
 40
0.5098783166
 40
0.6606255635
 40
0.7297852292
 40
0.793770086
 40
0.8514645863
 40
0.9016755122
 40
0.9430633691
 40
0.9599721374
 40
0.9741005127
 40
0.9852791097
 40
0.9933932174
 40
0.9983358565
 40
1.0
 40
1.0
 40
1.0
 40
1.0
 10
249.2672105349
 20
155.624174968
 30
0.0
 10
249.2291678046
 20
155.5624885517
 30
0.0
 10
249.1518098487
 20
155.4419530989
 30
0.0
 10
249.0320695033
 20
155.2688230801
 30
0.0
 10
248.9128196754
 20
155.107950619
 30
0.0
 10
248.8148508988
 20
154.983897765
 30
0.0
 10
248.7403364654
 20
154.8934514248
 30
0.0
 10
248.6894740894
 20
154.8333002391
 30
0.0
 10
248.6430452999
 20
154.7796327871
 30
0.0
 10
248.6022953208
 20
154.7334440013
 30
0.0
 10
248.5723012323
 20
154.7000792107
 30
0.0
 10
248.5523134246
 20
154.6780103135
 30
0.0
 10
248.5403189653
 20
154.6650082805
 30
0.0
 10
248.5316277152
 20
154.6552073482
 30
0.0
 10
248.5233736773
 20
154.6470152415
 30
0.0
 10
248.5218763509
 20
154.6440490433
 30
0.0
 10
248.5172707252
 20
154.6404854033
 30
0.0
 10
248.5179433131
 20
154.640624985
 30
0.0
  0
SPLINE
  5
326
100
AcDbEntity
  8
RUNDUNGEN
100
AcDbSpline
 62
7
  6
CONTINUOUS
 70
0
 71
3
 72
14
 73
10
 74
0
 42
0.0000001
 43
0.0000001
 44
0.0000000001
 40
0.0
 40
0.0
 40
0.0
 40
0.0
 40
0.1229444398
 40
0.2188356435
 40
0.3390546294
 40
0.4816448192
 40
0.6429157115
 40
0.8179057218
 40
1.0
 40
1.0
 40
1.0
 40
1.0
 10
254.712115101
 20
154.6406249772
 30
0.0
 10
254.6671425004
 20
154.6406339456
 30
0.0
 10
254.5979339635
 20
154.705406024
 30
0.0
 10
254.5384151831
 20
154.8101745941
 30
0.0
 10
254.4883407462
 20
154.9331508133
 30
0.0
 10
254.4464445194
 20
155.0823333994
 30
0.0
 10
254.4136170632
 20
155.2547209643
 30
0.0
 10
254.3929250586
 20
155.4433371175
 30
0.0
 10
254.3881830847
 20
155.5740155933
 30
0.0
 10
254.3881744809
 20
155.6406249767
 30
0.0
  0
SPLINE
  5
327
100
AcDbEntity
  8
RUNDUNGEN
100
AcDbSpline
 62
7
  6
CONTINUOUS
 70
0
 71
3
 72
22
 73
18
 74
0
 42
0.0000001
 43
0.0000001
 44
0.0000000001
 40
0.0
 40
0.0
 40
0.0
 40
0.0
 40
0.0016644685
 40
0.0066077526
 40
0.0147224086
 40
0.0259010413
 40
0.0400289155
 40
0.0569372286
 40
0.098324299
 40
0.1485343768
 40
0.2062271581
 40
0.27020867
 40
0.3393657328
 40
0.4901123267
 40
0.6531014168
 40
0.8244207308
 40
1.0
 40
1.0
 40
1.0
 40
1.0
 10
248.517943326
 20
163.6406249694
 30
0.0
 10
248.5172706324
 20
163.6407646452
 30
0.0
 10
248.5218770022
 20
163.6372005006
 30
0.0
 10
248.5233745338
 20
163.6342342311
 30
0.0
 10
248.5316289175
 20
163.6260418938
 30
0.0
 10
248.5403200413
 20
163.6162410775
 30
0.0
 10
248.5523138309
 20
163.6032393753
 30
0.0
 10
248.5723005218
 20
163.5811711014
 30
0.0
 10
248.6022931996
 20
163.5478072259
 30
0.0
 10
248.6430418706
 20
163.5016205159
 30
0.0
 10
248.6894690117
 20
163.4479564437
 30
0.0
 10
248.7403287802
 20
163.3878089293
 30
0.0
 10
248.8148401812
 20
163.2973661732
 30
0.0
 10
248.9128064947
 20
163.1733157958
 30
0.0
 10
249.0320565395
 20
163.0124445631
 30
0.0
 10
249.1517976298
 20
162.8393146662
 30
0.0
 10
249.2291566933
 20
162.7187788415
 30
0.0
 10
249.267199601
 20
162.6570927065
 30
0.0
  0
SPLINE
  5
328
100
AcDbEntity
  8
RUNDUNGEN
100
AcDbSpline
 62
7
  6
CONTINUOUS
 70
0
 71
3
 72
14
 73
10
 74
0
 42
0.0000001
 43
0.0000001
 44
0.0000000001
 40
0.0
 40
0.0
 40
0.0
 40
0.0
 40
0.1820976723
 40
0.3570883574
 40
0.5183566727
 40
0.6609469549
 40
0.781165275
 40
0.8770559921
 40
1.0
 40
1.0
 40
1.0
 40
1.0
 10
254.3881744809
 20
162.6406249776
 30
0.0
 10
254.3881840783
 20
162.7072356083
 30
0.0
 10
254.3929242453
 20
162.8379155577
 30
0.0
 10
254.4136158653
 20
163.0265324928
 30
0.0
 10
254.4464464494
 20
163.1989187459
 30
0.0
 10
254.4883410831
 20
163.3481005304
 30
0.0
 10
254.5384155091
 20
163.4710764277
 30
0.0
 10
254.5979344029
 20
163.5758442172
 30
0.0
 10
254.6671426544
 20
163.6406161744
 30
0.0
 10
254.712115101
 20
163.6406249772
 30
0.0
  0
SPLINE
  5
329
100
AcDbEntity
  8
RUNDUNGEN
100
AcDbSpline
 62
7
  6
CONTINUOUS
 70
0
 71
3
 72
14
 73
10
 74
0
 42
0.0000001
 43
0.0000001
 44
0.0000000001
 40
0.0
 40
0.0
 40
0.0
 40
0.0
 40
0.348377166
 40
0.505174762
 40
0.6439391612
 40
0.7621701396
 40
0.8592304472
 40
0.9366864189
 40
1.0
 40
1.0
 40
1.0
 40
1.0
 10
254.5702787979
 20
162.6406249772
 30
0.0
 10
254.5702889656
 20
162.7472699271
 30
0.0
 10
254.5842822932
 20
162.9025905997
 30
0.0
 10
254.6316574003
 20
163.0942108791
 30
0.0
 10
254.6754931637
 20
163.2133802119
 30
0.0
 10
254.725939726
 20
163.309738974
 30
0.0
 10
254.780575779
 20
163.3814734868
 30
0.0
 10
254.8379089241
 20
163.4279920725
 30
0.0
 10
254.8810675411
 20
163.4406197431
 30
0.0
 10
254.9004490452
 20
163.4406249772
 30
0.0
  0
SPLINE
  5
32A
100
AcDbEntity
  8
RUNDUNGEN
100
AcDbSpline
 62
7
  6
CONTINUOUS
 70
0
 71
3
 72
14
 73
10
 74
0
 42
0.0000001
 43
0.0000001
 44
0.0000000001
 40
0.0
 40
0.0
 40
0.0
 40
0.0
 40
0.0633136897
 40
0.1407698968
 40
0.2378307664
 40
0.3560623245
 40
0.4948262869
 40
0.6516267687
 40
1.0
 40
1.0
 40
1.0
 40
1.0
 10
254.9004490452
 20
154.8406249772
 30
0.0
 10
254.8810675087
 20
154.8406303318
 30
0.0
 10
254.8379088217
 20
154.8532579124
 30
0.0
 10
254.780575334
 20
154.8997766106
 30
0.0
 10
254.7259393748
 20
154.9715117501
 30
0.0
 10
254.6754929816
 20
155.0678707594
 30
0.0
 10
254.6316558392
 20
155.187040644
 30
0.0
 10
254.5842843059
 20
155.3786612899
 30
0.0
 10
254.5702877588
 20
155.5339812362
 30
0.0
 10
254.5702787979
 20
155.6406249772
 30
0.0
  0
SPLINE
  5
32B
100
AcDbEntity
  8
RUNDUNGEN
100
AcDbSpline
 62
7
  6
CONTINUOUS
 70
0
 71
3
 72
11
 73
7
 74
0
 42
0.0000001
 43
0.0000001
 44
0.0000000001
 40
0.0
 40
0.0
 40
0.0
 40
0.0
 40
0.2427794177
 40
0.4901797083
 40
0.7433694556
 40
1.0
 40
1.0
 40
1.0
 40
1.0
 10
254.7121151009
 20
163.6406249772
 30
0.0
 10
254.7366411393
 20
163.6406249772
 30
0.0
 10
254.7866908759
 20
163.6298653329
 30
0.0
 10
254.8494525435
 20
163.5851053216
 30
0.0
 10
254.890721254
 20
163.5185204972
 30
0.0
 10
254.9004490452
 20
163.4665502827
 30
0.0
 10
254.9004490452
 20
163.4406249772
 30
0.0
  0
SPLINE
  5
32C
100
AcDbEntity
  8
RUNDUNGEN
100
AcDbSpline
 62
7
  6
CONTINUOUS
 70
0
 71
3
 72
11
 73
7
 74
0
 42
0.0000001
 43
0.0000001
 44
0.0000000001
 40
0.0
 40
0.0
 40
0.0
 40
0.0
 40
0.2701149165
 40
0.5219403173
 40
0.7632473764
 40
1.0
 40
1.0
 40
1.0
 40
1.0
 10
196.3292950235
 20
165.6406309937
 30
0.0
 10
195.7562056241
 20
165.7599179071
 30
0.0
 10
194.6528643499
 20
166.008963935
 30
0.0
 10
193.034681699
 20
166.3531544373
 30
0.0
 10
191.4685327724
 20
166.5858549078
 30
0.0
 10
190.4318221746
 20
166.6406248891
 30
0.0
 10
189.91875
 20
166.6406233713
 30
0.0
  0
SPLINE
  5
32D
100
AcDbEntity
  8
RUNDUNGEN
100
AcDbSpline
 62
7
  6
CONTINUOUS
 70
0
 71
3
 72
11
 73
7
 74
0
 42
0.0000001
 43
0.0000001
 44
0.0000000001
 40
0.0
 40
0.0
 40
0.0
 40
0.0
 40
0.2367534825
 40
0.4780600576
 40
0.7298849154
 40
1.0
 40
1.0
 40
1.0
 40
1.0
 10
189.918285141
 20
151.6406253801
 30
0.0
 10
190.4313921798
 20
151.6406078701
 30
0.0
 10
191.4681722422
 20
151.6953529752
 30
0.0
 10
193.0344253382
 20
151.9280465964
 30
0.0
 10
194.6527115434
 20
152.2722533106
 30
0.0
 10
195.7561260954
 20
152.5213001665
 30
0.0
 10
196.3292501974
 20
152.640606923
 30
0.0
  0
SPLINE
  5
32E
100
AcDbEntity
  8
RUNDUNGEN
100
AcDbSpline
 62
7
  6
CONTINUOUS
 70
0
 71
3
 72
14
 73
10
 74
0
 42
0.0000001
 43
0.0000001
 44
0.0000000001
 40
0.0
 40
0.0
 40
0.0
 40
0.0
 40
0.1901535174
 40
0.3705668293
 40
0.5349461815
 40
0.6787339254
 40
0.7982319848
 40
0.8911483782
 40
1.0
 40
1.0
 40
1.0
 40
1.0
 10
246.2128452255
 20
164.5951480845
 30
0.0
 10
246.2427987666
 20
164.6446811957
 30
0.0
 10
246.2992669928
 20
164.7423928042
 30
0.0
 10
246.374812836
 20
164.8866545913
 30
0.0
 10
246.4371912616
 20
165.0219463348
 30
0.0
 10
246.4846290474
 20
165.1427015278
 30
0.0
 10
246.5156434206
 20
165.2484617154
 30
0.0
 10
246.5324406149
 20
165.3401528963
 30
0.0
 10
246.5257170989
 20
165.4162768012
 30
0.0
 10
246.4979106167
 20
165.4342989942
 30
0.0
  0
SPLINE
  5
32F
100
AcDbEntity
  8
RUNDUNGEN
100
AcDbSpline
 62
7
  6
CONTINUOUS
 70
0
 71
3
 72
15
 73
11
 74
0
 42
0.0000001
 43
0.0000001
 44
0.0000000001
 40
0.0
 40
0.0
 40
0.0
 40
0.0
 40
0.1820838727
 40
0.3579944764
 40
0.5209463339
 40
0.6655707194
 40
0.7873644435
 40
0.838665567
 40
0.8833356794
 40
1.0
 40
1.0
 40
1.0
 40
1.0
 10
242.6775690451
 20
165.6406249772
 30
0.0
 10
242.6775690451
 20
165.7056214009
 30
0.0
 10
242.6743471558
 20
165.8334329598
 30
0.0
 10
242.6600860026
 20
166.0189364096
 30
0.0
 10
242.6369689238
 20
166.1900519233
 30
0.0
 10
242.6057802166
 20
166.3403684092
 30
0.0
 10
242.5731200034
 20
166.4489176482
 30
0.0
 10
242.5422770196
 20
166.5210057136
 30
0.0
 10
242.5077293734
 20
166.5861758304
 30
0.0
 10
242.460394345
 20
166.6406249772
 30
0.0
 10
242.41875
 20
166.6406249772
 30
0.0
  0
SPLINE
  5
330
100
AcDbEntity
  8
RUNDUNGEN
100
AcDbSpline
 62
7
  6
CONTINUOUS
 70
0
 71
3
 72
15
 73
11
 74
0
 42
0.0000001
 43
0.0000001
 44
0.0000000001
 40
0.0
 40
0.0
 40
0.0
 40
0.0
 40
0.1820840838
 40
0.3579948708
 40
0.5209468423
 40
0.6655712918
 40
0.7873650298
 40
0.8386661291
 40
0.8833361924
 40
1.0
 40
1.0
 40
1.0
 40
1.0
 10
196.3293143987
 20
165.640625879
 30
0.0
 10
196.3293140803
 20
165.705622268
 30
0.0
 10
196.3260916776
 20
165.8334337328
 30
0.0
 10
196.3118302557
 20
166.0189370184
 30
0.0
 10
196.2887133734
 20
166.1900523877
 30
0.0
 10
196.2575248803
 20
166.3403687262
 30
0.0
 10
196.2248648783
 20
166.4489178372
 30
0.0
 10
196.1940221314
 20
166.5210058452
 30
0.0
 10
196.1594748425
 20
166.5861757396
 30
0.0
 10
196.1121402935
 20
166.6406249789
 30
0.0
 10
196.0704962021
 20
166.6406249772
 30
0.0
  0
SPLINE
  5
331
100
AcDbEntity
  8
RUNDUNGEN
100
AcDbSpline
 62
7
  6
CONTINUOUS
 70
0
 71
3
 72
11
 73
7
 74
0
 42
0.0000001
 43
0.0000001
 44
0.0000000001
 40
0.0
 40
0.0
 40
0.0
 40
0.0
 40
0.2813748586
 40
0.5396450925
 40
0.777176711
 40
1.0
 40
1.0
 40
1.0
 40
1.0
 10
246.2127050391
 20
153.6860201634
 30
0.0
 10
246.6856569842
 20
153.9312971206
 30
0.0
 10
247.5519665608
 20
154.4878293096
 30
0.0
 10
248.611087773
 20
155.5244621006
 30
0.0
 10
249.36465706
 20
156.6700465203
 30
0.0
 10
249.6715313198
 20
157.4955084686
 30
0.0
 10
249.7707633038
 20
157.9055785109
 30
0.0
  0
SPLINE
  5
332
100
AcDbEntity
  8
RUNDUNGEN
100
AcDbSpline
 62
7
  6
CONTINUOUS
 70
0
 71
3
 72
15
 73
11
 74
0
 42
0.0000001
 43
0.0000001
 44
0.0000000001
 40
0.0
 40
0.0
 40
0.0
 40
0.0
 40
0.1820840663
 40
0.3579947733
 40
0.5209466704
 40
0.6655710537
 40
0.7873647499
 40
0.8386658518
 40
0.8833359363
 40
1.0
 40
1.0
 40
1.0
 40
1.0
 10
196.3293062994
 20
152.6406220762
 30
0.0
 10
196.3293063625
 20
152.5756258271
 30
0.0
 10
196.3260846154
 20
152.4478146388
 30
0.0
 10
196.3118237237
 20
152.2623117487
 30
0.0
 10
196.2887069549
 20
152.0911967974
 30
0.0
 10
196.2575186048
 20
151.9408808219
 30
0.0
 10
196.2248587317
 20
151.8323319494
 30
0.0
 10
196.1940160548
 20
151.7602440996
 30
0.0
 10
196.1594687664
 20
151.6950742422
 30
0.0
 10
196.1121342857
 20
151.6406251198
 30
0.0
 10
196.0704901886
 20
151.6406249772
 30
0.0
  0
SPLINE
  5
333
100
AcDbEntity
  8
RUNDUNGEN
100
AcDbSpline
 62
7
  6
CONTINUOUS
 70
0
 71
3
 72
15
 73
11
 74
0
 42
0.0000001
 43
0.0000001
 44
0.0000000001
 40
0.0
 40
0.0
 40
0.0
 40
0.0
 40
0.1820838697
 40
0.357994468
 40
0.5209463239
 40
0.6655707101
 40
0.7873644353
 40
0.8386655597
 40
0.8833356736
 40
1.0
 40
1.0
 40
1.0
 40
1.0
 10
242.6775690451
 20
152.6406249772
 30
0.0
 10
242.6775690463
 20
152.5756285542
 30
0.0
 10
242.6743471595
 20
152.4478169977
 30
0.0
 10
242.6600860085
 20
152.2623135505
 30
0.0
 10
242.636968932
 20
152.091198038
 30
0.0
 10
242.6057802256
 20
151.9408815513
 30
0.0
 10
242.5731200122
 20
151.8323323107
 30
0.0
 10
242.5422770273
 20
151.760244244
 30
0.0
 10
242.5077293793
 20
151.6950741244
 30
0.0
 10
242.460394347
 20
151.6406249772
 30
0.0
 10
242.4187499998
 20
151.6406249772
 30
0.0
  0
SPLINE
  5
334
100
AcDbEntity
  8
RUNDUNGEN
100
AcDbSpline
 62
7
  6
CONTINUOUS
 70
0
 71
3
 72
14
 73
10
 74
0
 42
0.0000001
 43
0.0000001
 44
0.0000000001
 40
0.0
 40
0.0
 40
0.0
 40
0.0
 40
0.1901532937
 40
0.3705663546
 40
0.5349454752
 40
0.6787330746
 40
0.7982311412
 40
0.8911477394
 40
1.0
 40
1.0
 40
1.0
 40
1.0
 10
246.2128439644
 20
153.6861018698
 30
0.0
 10
246.2427972236
 20
153.6365689592
 30
0.0
 10
246.299264926
 20
153.5388577776
 30
0.0
 10
246.3748101002
 20
153.3945966759
 30
0.0
 10
246.437188037
 20
153.2593056287
 30
0.0
 10
246.4846254995
 20
153.1385510231
 30
0.0
 10
246.5156399106
 20
153.0327913597
 30
0.0
 10
246.5324370955
 20
152.9411002206
 30
0.0
 10
246.525714815
 20
152.8649767688
 30
0.0
 10
246.49790882
 20
152.8469537293
 30
0.0
  0
SPLINE
  5
335
100
AcDbEntity
  8
RUNDUNGEN
100
AcDbSpline
 62
7
  6
CONTINUOUS
 70
0
 71
3
 72
16
 73
12
 74
0
 42
0.0000001
 43
0.0000001
 44
0.0000000001
 40
0.0
 40
0.0
 40
0.0
 40
0.0
 40
0.0422500826
 40
0.0715835238
 40
0.1078583936
 40
0.202019274
 40
0.3239925695
 40
0.4701329539
 40
0.6355482269
 40
0.8145396308
 40
1.0
 40
1.0
 40
1.0
 40
1.0
 10
104.75
 20
93.9181885721
 30
0.0
 10
104.7499999989
 20
93.9033834003
 30
0.0
 10
104.73512154
 20
93.87940122
 30
0.0
 10
104.7054577851
 20
93.8565963121
 30
0.0
 10
104.6562970436
 20
93.829055374
 30
0.0
 10
104.5726395125
 20
93.7993632365
 30
0.0
 10
104.4491182416
 20
93.7695621771
 30
0.0
 10
104.299080572
 20
93.7450204154
 30
0.0
 10
104.1281013609
 20
93.7266605355
 30
0.0
 10
103.9427134403
 20
93.7153711828
 30
0.0
 10
103.814988574
 20
93.7128141717
 30
0.0
 10
103.75
 20
93.712814193
 30
0.0
  0
SPLINE
  5
336
100
AcDbEntity
  8
RUNDUNGEN
100
AcDbSpline
 62
7
  6
CONTINUOUS
 70
0
 71
3
 72
14
 73
10
 74
0
 42
0.0000001
 43
0.0000001
 44
0.0000000001
 40
0.0
 40
0.0
 40
0.0
 40
0.0
 40
0.2507816984
 40
0.3758629372
 40
0.5007475063
 40
0.6255182971
 40
0.7502736012
 40
0.8750844388
 40
1.0
 40
1.0
 40
1.0
 40
1.0
 10
103.8030267706
 20
94.8417542584
 30
0.0
 10
103.1312988055
 20
94.1496163572
 30
0.0
 10
102.1267409362
 20
93.1097619425
 30
0.0
 10
100.8385874403
 20
91.6776900798
 30
0.0
 10
99.9186054524
 20
90.5675000375
 30
0.0
 10
99.0695035474
 20
89.4029099356
 30
0.0
 10
98.3264910568
 20
88.1666696502
 30
0.0
 10
97.7354151079
 20
86.8488921541
 30
0.0
 10
97.4793883561
 20
85.9173276634
 30
0.0
 10
97.3959606395
 20
85.444201451
 30
0.0
  0
LINE
  5
337
100
AcDbEntity
  8
RUNDUNGEN
100
AcDbLine
 62
7
  6
CONTINUOUS
 10
103.8030267706
 20
94.8417542584
 11
103.7500019837
 21
93.7128537967
  0
SPLINE
  5
338
100
AcDbEntity
  8
RUNDUNGEN
100
AcDbSpline
 62
7
  6
CONTINUOUS
 70
0
 71
3
 72
12
 73
8
 74
0
 42
0.0000001
 43
0.0000001
 44
0.0000000001
 40
0.0
 40
0.0
 40
0.0
 40
0.0
 40
0.2494702256
 40
0.3745475853
 40
0.4996417081
 40
0.7497839665
 40
1.0
 40
1.0
 40
1.0
 40
1.0
 10
61.3566800727
 20
101.6013787979
 30
0.0
 10
61.1871651602
 20
102.2340265948
 30
0.0
 10
60.7717299799
 20
103.1432937929
 30
0.0
 10
60.0397140649
 20
104.2319174995
 30
0.0
 10
59.2152175895
 20
105.2566491464
 30
0.0
 10
58.064023694
 20
106.4314382428
 30
0.0
 10
57.0897682441
 20
107.3125423
 30
0.0
 10
56.6024960627
 20
107.753125
 30
0.0
  0
SPLINE
  5
339
100
AcDbEntity
  8
RUNDUNGEN
100
AcDbSpline
 62
7
  6
CONTINUOUS
 70
0
 71
3
 72
12
 73
8
 74
0
 42
0.0000001
 43
0.0000001
 44
0.0000000001
 40
0.0
 40
0.0
 40
0.0
 40
0.0
 40
0.324033339
 40
0.6064451707
 40
0.7266351161
 40
0.8317845257
 40
1.0
 40
1.0
 40
1.0
 40
1.0
 10
79.070568392
 20
49.312364994
 30
0.0
 10
78.9069056738
 20
49.3124205306
 30
0.0
 10
78.5987301688
 20
49.2644272054
 30
0.0
 10
78.2624438933
 20
49.1046802471
 30
0.0
 10
78.0618985842
 20
48.9423018692
 30
0.0
 10
77.930846459
 20
48.7937754492
 30
0.0
 10
77.870535937
 20
48.6576606782
 30
0.0
 10
77.870568392
 20
48.5726984288
 30
0.0
  0
SPLINE
  5
33A
100
AcDbEntity
  8
RUNDUNGEN
100
AcDbSpline
 62
7
  6
CONTINUOUS
 70
0
 71
3
 72
13
 73
9
 74
0
 42
0.0000001
 43
0.0000001
 44
0.0000000001
 40
0.0
 40
0.0
 40
0.0
 40
0.0
 40
0.123770905
 40
0.2476640029
 40
0.3718817949
 40
0.4965718062
 40
0.7475234136
 40
1.0
 40
1.0
 40
1.0
 40
1.0
 10
60.3907488388
 20
101.3425799765
 30
0.0
 10
60.3108666578
 20
101.6407068196
 30
0.0
 10
60.1053106892
 20
102.2252841605
 30
0.0
 10
59.7081919502
 20
103.0642836109
 30
0.0
 10
59.2524422205
 20
103.8751651272
 30
0.0
 10
58.5915265041
 20
104.9323198048
 30
0.0
 10
57.7029295273
 20
106.22278092
 30
0.0
 10
56.9700642648
 20
107.2419690167
 30
0.0
 10
56.6024960627
 20
107.753125
 30
0.0
  0
SPLINE
  5
33B
100
AcDbEntity
  8
RUNDUNGEN
100
AcDbSpline
 62
7
  6
CONTINUOUS
 70
0
 71
3
 72
13
 73
9
 74
0
 42
0.0000001
 43
0.0000001
 44
0.0000000001
 40
0.0
 40
0.0
 40
0.0
 40
0.0
 40
0.106522403
 40
0.2159830746
 40
0.3295343996
 40
0.4484415056
 40
0.7066207565
 40
1.0
 40
1.0
 40
1.0
 40
1.0
 10
77.8705685935
 20
47.8276783852
 30
0.0
 10
77.7024394469
 20
47.8629791579
 30
0.0
 10
77.3663168389
 20
47.9597209824
 30
0.0
 10
76.8804640328
 20
48.1793481959
 30
0.0
 10
76.4138631293
 20
48.4768199015
 30
0.0
 10
75.8113942315
 20
48.9934126185
 30
0.0
 10
75.1515315425
 20
49.8686515433
 30
0.0
 10
74.8299812053
 20
50.7130787747
 30
0.0
 10
74.7229316347
 20
51.1739601764
 30
0.0
  0
SPLINE
  5
33C
100
AcDbEntity
  8
RUNDUNGEN
100
AcDbSpline
 62
7
  6
CONTINUOUS
 70
0
 71
3
 72
10
 73
6
 74
0
 42
0.0000001
 43
0.0000001
 44
0.0000000001
 40
0.0
 40
0.0
 40
0.0
 40
0.0
 40
0.5148169441
 40
0.7617231384
 40
1.0
 40
1.0
 40
1.0
 40
1.0
 10
87.270568392
 20
48.5726984293
 30
0.0
 10
87.22031798
 20
48.5726985709
 30
0.0
 10
87.1418064826
 20
48.5453849796
 30
0.0
 10
87.081662416
 20
48.4657244179
 30
0.0
 10
87.070568392
 20
48.4178115221
 30
0.0
 10
87.070568392
 20
48.3945537202
 30
0.0
  0
SPLINE
  5
33D
100
AcDbEntity
  8
RUNDUNGEN
100
AcDbSpline
 62
7
  6
CONTINUOUS
 70
0
 71
3
 72
8
 73
4
 74
0
 42
0.0000001
 43
0.0000001
 44
0.0000000001
 40
0.0
 40
0.0
 40
0.0
 40
0.0
 40
1.0
 40
1.0
 40
1.0
 40
1.0
 10
87.270568392
 20
47.8276816838
 30
0.0
 10
87.2360820016
 20
47.8276817083
 30
0.0
 10
87.2005439423
 20
47.8182050008
 30
0.0
 10
87.1705682189
 20
47.8011531057
 30
0.0
  0
SPLINE
  5
33E
100
AcDbEntity
  8
RUNDUNGEN
100
AcDbSpline
 62
7
  6
CONTINUOUS
 70
0
 71
3
 72
9
 73
5
 74
0
 42
0.0000001
 43
0.0000001
 44
0.0000000001
 40
0.0
 40
0.0
 40
0.0
 40
0.0
 40
0.501086139
 40
1.0
 40
1.0
 40
1.0
 40
1.0
 10
87.1705682189
 20
47.8011531057
 30
0.0
 10
87.140721017
 20
47.7841743211
 30
0.0
 10
87.0892329201
 20
47.7335949961
 30
0.0
 10
87.070567875
 20
47.6638567939
 30
0.0
 10
87.070568392
 20
47.629667127
 30
0.0
  0
LINE
  5
33F
100
AcDbEntity
  8
RUNDUNGEN
100
AcDbLine
 62
7
  6
CONTINUOUS
 10
74.7229316347
 20
51.1739601764
 11
73.77561179
 21
55.253321385
  0
LINE
  5
340
100
AcDbEntity
  8
RUNDUNGEN
100
AcDbLine
 62
7
  6
CONTINUOUS
 10
91.0570780117
 20
55.2534687112
 11
90.4937328562
 21
51.5670564877
  0
SPLINE
  5
341
100
AcDbEntity
  8
RUNDUNGEN
100
AcDbSpline
 62
7
  6
CONTINUOUS
 70
0
 71
3
 72
13
 73
9
 74
0
 42
0.0000001
 43
0.0000001
 44
0.0000000001
 40
0.0
 40
0.0
 40
0.0
 40
0.0
 40
0.2971973442
 40
0.5562441013
 40
0.6745984542
 40
0.7870918843
 40
0.8951185038
 40
1.0
 40
1.0
 40
1.0
 40
1.0
 10
90.4937328562
 20
51.5670564877
 30
0.0
 10
90.4153465217
 20
51.0543032624
 30
0.0
 10
90.1249620096
 20
50.109287774
 30
0.0
 10
89.4501351437
 20
49.1222489856
 30
0.0
 10
88.8171659912
 20
48.5431569034
 30
0.0
 10
88.3240286379
 20
48.2124095337
 30
0.0
 10
87.8079842718
 20
47.9702770343
 30
0.0
 10
87.44971486
 20
47.8652831009
 30
0.0
 10
87.270567285
 20
47.8276687362
 30
0.0
  0
SPLINE
  5
342
100
AcDbEntity
  8
RUNDUNGEN
100
AcDbSpline
 62
7
  6
CONTINUOUS
 70
0
 71
3
 72
8
 73
4
 74
0
 42
0.0000001
 43
0.0000001
 44
0.0000000001
 40
0.0
 40
0.0
 40
0.0
 40
0.0
 40
1.0
 40
1.0
 40
1.0
 40
1.0
 10
77.8705685935
 20
47.8276807595
 30
0.0
 10
77.9050560395
 20
47.8276807011
 30
0.0
 10
77.9405952205
 20
47.818203304
 30
0.0
 10
77.9705715583
 20
47.801150354
 30
0.0
  0
SPLINE
  5
343
100
AcDbEntity
  8
RUNDUNGEN
100
AcDbSpline
 62
7
  6
CONTINUOUS
 70
0
 71
3
 72
9
 73
5
 74
0
 42
0.0000001
 43
0.0000001
 44
0.0000000001
 40
0.0
 40
0.0
 40
0.0
 40
0.0
 40
0.501086327
 40
1.0
 40
1.0
 40
1.0
 40
1.0
 10
77.9705715583
 20
47.801150354
 30
0.0
 10
78.0004183069
 20
47.7841711247
 30
0.0
 10
78.0519052763
 20
47.7335912718
 30
0.0
 10
78.0705692937
 20
47.6638532518
 30
0.0
 10
78.0705683919
 20
47.6296637841
 30
0.0
  0
SPLINE
  5
344
100
AcDbEntity
  8
RUNDUNGEN
100
AcDbSpline
 62
7
  6
CONTINUOUS
 70
0
 71
3
 72
10
 73
6
 74
0
 42
0.0000001
 43
0.0000001
 44
0.0000000001
 40
0.0
 40
0.0
 40
0.0
 40
0.0
 40
0.5148168907
 40
0.7617233498
 40
1.0
 40
1.0
 40
1.0
 40
1.0
 10
77.870568392
 20
48.5726984293
 30
0.0
 10
77.9208187754
 20
48.5726984292
 30
0.0
 10
77.9993301659
 20
48.5453848088
 30
0.0
 10
78.0594742743
 20
48.4657243545
 30
0.0
 10
78.070568392
 20
48.4178114906
 30
0.0
 10
78.070568392
 20
48.3945537202
 30
0.0
  0
SPLINE
  5
345
100
AcDbEntity
  8
RUNDUNGEN
100
AcDbSpline
 62
7
  6
CONTINUOUS
 70
0
 71
3
 72
12
 73
8
 74
0
 42
0.0000001
 43
0.0000001
 44
0.0000000001
 40
0.0
 40
0.0
 40
0.0
 40
0.0
 40
0.3140627557
 40
0.5886505487
 40
0.7084550419
 40
0.8164744544
 40
1.0
 40
1.0
 40
1.0
 40
1.0
 10
79.0704436389
 20
49.153931674
 30
0.0
 10
78.9280668555
 20
49.1539735139
 30
0.0
 10
78.6587551022
 20
49.0990940309
 30
0.0
 10
78.3805666577
 20
48.9273169409
 30
0.0
 10
78.2210133178
 20
48.7631270416
 30
0.0
 10
78.1149841846
 20
48.6097946337
 30
0.0
 10
78.070562371
 20
48.4778103525
 30
0.0
 10
78.070568396
 20
48.3946111275
 30
0.0
  0
SPLINE
  5
346
100
AcDbEntity
  8
RUNDUNGEN
100
AcDbSpline
 62
7
  6
CONTINUOUS
 70
0
 71
3
 72
18
 73
14
 74
0
 42
0.0000001
 43
0.0000001
 44
0.0000000001
 40
0.0
 40
0.0
 40
0.0
 40
0.0
 40
0.0042484564
 40
0.0168904802
 40
0.0378466224
 40
0.0670374325
 40
0.1043834691
 40
0.1497939942
 40
0.2640591146
 40
0.4081334872
 40
0.5802419988
 40
0.7782866709
 40
1.0
 40
1.0
 40
1.0
 40
1.0
 10
78.070568392
 20
43.2837005191
 30
0.0
 10
78.0708280359
 20
43.283367551
 30
0.0
 10
78.0727343797
 20
43.2832410917
 30
0.0
 10
78.0759523952
 20
43.281522695
 30
0.0
 10
78.0819978299
 20
43.2796389137
 30
0.0
 10
78.0900955772
 20
43.276572166
 30
0.0
 10
78.1005905793
 20
43.2728350313
 30
0.0
 10
78.1189983339
 20
43.2661786283
 30
0.0
 10
78.147425284
 20
43.256004326
 30
0.0
 10
78.1877308722
 20
43.2416705248
 30
0.0
 10
78.2359391592
 20
43.2247015493
 30
0.0
 10
78.2914948381
 20
43.2053701755
 30
0.0
 10
78.3309534767
 20
43.191826989
 30
0.0
 10
78.3518111826
 20
43.1847204981
 30
0.0
  0
SPLINE
  5
347
100
AcDbEntity
  8
RUNDUNGEN
100
AcDbSpline
 62
7
  6
CONTINUOUS
 70
0
 71
3
 72
12
 73
8
 74
0
 42
0.0000001
 43
0.0000001
 44
0.0000000001
 40
0.0
 40
0.0
 40
0.0
 40
0.0
 40
0.1835216047
 40
0.2915392015
 40
0.4113429298
 40
0.6859388665
 40
1.0
 40
1.0
 40
1.0
 40
1.0
 10
87.070568388
 20
48.3946113921
 30
0.0
 10
87.0705744418
 20
48.4778087773
 30
0.0
 10
87.0261539881
 20
48.6097904247
 30
0.0
 10
86.9201274942
 20
48.763120771
 30
0.0
 10
86.7605757105
 20
48.927315629
 30
0.0
 10
86.4823828117
 20
49.0990913327
 30
0.0
 10
86.2130693456
 20
49.1539736336
 30
0.0
 10
86.0706933889
 20
49.1539316869
 30
0.0
  0
SPLINE
  5
348
100
AcDbEntity
  8
RUNDUNGEN
100
AcDbSpline
 62
7
  6
CONTINUOUS
 70
0
 71
3
 72
18
 73
14
 74
0
 42
0.0000001
 43
0.0000001
 44
0.0000000001
 40
0.0
 40
0.0
 40
0.0
 40
0.0
 40
0.2217266284
 40
0.4197771851
 40
0.5918858175
 40
0.7359563531
 40
0.8502174314
 40
0.8956271245
 40
0.9329721007
 40
0.962161095
 40
0.9831148932
 40
0.9957542704
 40
1.0
 40
1.0
 40
1.0
 40
1.0
 10
86.7896104521
 20
43.1848177209
 30
0.0
 10
86.8104481847
 20
43.1919179561
 30
0.0
 10
86.8498684877
 20
43.2054489776
 30
0.0
 10
86.9053695695
 20
43.2247623913
 30
0.0
 10
86.9535293459
 20
43.2417144641
 30
0.0
 10
86.993793716
 20
43.2560329258
 30
0.0
 10
87.0221914245
 20
43.2661960561
 30
0.0
 10
87.0405798677
 20
43.2728458109
 30
0.0
 10
87.0510640325
 20
43.2765792156
 30
0.0
 10
87.0591523105
 20
43.279643751
 30
0.0
 10
87.065192287
 20
43.281524512
 30
0.0
 10
87.0684037637
 20
43.2832433977
 30
0.0
 10
87.0703101853
 20
43.2833673166
 30
0.0
 10
87.070568392
 20
43.2837005191
 30
0.0
  0
SPLINE
  5
349
100
AcDbEntity
  8
RUNDUNGEN
100
AcDbSpline
 62
7
  6
CONTINUOUS
 70
0
 71
3
 72
16
 73
12
 74
0
 42
0.0000001
 43
0.0000001
 44
0.0000000001
 40
0.0
 40
0.0
 40
0.0
 40
0.0
 40
0.008411292
 40
0.0240920058
 40
0.0813509778
 40
0.1727592595
 40
0.295457106
 40
0.44520131
 40
0.6167033191
 40
0.8038523001
 40
1.0
 40
1.0
 40
1.0
 40
1.0
 10
104.75
 20
94.9120104016
 30
0.0
 10
104.75
 20
94.9093319676
 30
0.0
 10
104.7436741695
 20
94.9029875244
 30
0.0
 10
104.7201000322
 20
94.8940159419
 30
0.0
 10
104.6679857393
 20
94.8830989531
 30
0.0
 10
104.5826472033
 20
94.8724238763
 30
0.0
 10
104.4670174441
 20
94.8623963185
 30
0.0
 10
104.3259524292
 20
94.854036625
 30
0.0
 10
104.1641629837
 20
94.8475498457
 30
0.0
 10
103.9875487542
 20
94.843289343
 30
0.0
 10
103.8654951553
 20
94.8420114307
 30
0.0
 10
103.8030356654
 20
94.841778191
 30
0.0
  0
SPLINE
  5
34A
100
AcDbEntity
  8
RUNDUNGEN
100
AcDbSpline
 62
7
  6
CONTINUOUS
 70
0
 71
3
 72
12
 73
8
 74
0
 42
0.0000001
 43
0.0000001
 44
0.0000000001
 40
0.0
 40
0.0
 40
0.0
 40
0.0
 40
0.1682115563
 40
0.2733588779
 40
0.3935474317
 40
0.6759684819
 40
1.0
 40
1.0
 40
1.0
 40
1.0
 10
87.270568392
 20
48.5726984288
 30
0.0
 10
87.2706009475
 20
48.6576586793
 30
0.0
 10
87.2102915816
 20
48.7937701816
 30
0.0
 10
87.0792439113
 20
48.9422951583
 30
0.0
 10
86.8787003752
 20
49.1046805952
 30
0.0
 10
86.5424080209
 20
49.2644237126
 30
0.0
 10
86.2342301522
 20
49.3124207289
 30
0.0
 10
86.070568392
 20
49.312364994
 30
0.0
  0
LINE
  5
34B
100
AcDbEntity
  8
RUNDUNGEN
100
AcDbLine
 62
7
  6
CONTINUOUS
 10
103.7500001111
 20
93.7128470012
 11
101.9985773855
 21
87.7531250006
  0
SPLINE
  5
34C
100
AcDbEntity
  8
RUNDUNGEN
100
AcDbSpline
 62
7
  6
CONTINUOUS
 70
0
 71
3
 72
13
 73
9
 74
0
 42
0.0000001
 43
0.0000001
 44
0.0000000001
 40
0.0
 40
0.0
 40
0.0
 40
0.0
 40
0.2500967266
 40
0.5000304667
 40
0.6250527173
 40
0.7500562168
 40
0.8750333889
 40
1.0
 40
1.0
 40
1.0
 40
1.0
 10
103.7499938642
 20
94.9119694908
 30
0.0
 10
102.9429774099
 20
94.3025510668
 30
0.0
 10
101.3382863622
 20
93.0721858926
 30
0.0
 10
99.4846540199
 20
91.3394460648
 30
0.0
 10
98.2105822916
 20
89.7652539714
 30
0.0
 10
97.3963579888
 20
88.4811724584
 30
0.0
 10
96.7661730706
 20
87.0964816931
 30
0.0
 10
96.4989267536
 20
86.1155711967
 30
0.0
 10
96.4111664662
 20
85.6179462949
 30
0.0
  0
SPLINE
  5
34D
100
AcDbEntity
  8
RUNDUNGEN
100
AcDbSpline
 62
7
  6
CONTINUOUS
 70
0
 71
3
 72
13
 73
9
 74
0
 42
0.0000001
 43
0.0000001
 44
0.0000000001
 40
0.0
 40
0.0
 40
0.0
 40
0.0
 40
0.0878599048
 40
0.1825702597
 40
0.2884781474
 40
0.4076954501
 40
0.6847865082
 40
1.0
 40
1.0
 40
1.0
 40
1.0
 10
73.7570058085
 20
51.4590297745
 30
0.0
 10
73.7652453653
 20
51.4282810634
 30
0.0
 10
73.7938997208
 20
51.3670673088
 30
0.0
 10
73.8662669302
 20
51.2897799881
 30
0.0
 10
73.9653056732
 20
51.2276748616
 30
0.0
 10
74.1363657542
 20
51.1630579242
 30
0.0
 10
74.3957216509
 20
51.1321075442
 30
0.0
 10
74.6107033632
 20
51.152788413
 30
0.0
 10
74.7229316348
 20
51.1739643833
 30
0.0
  0
SPLINE
  5
34E
100
AcDbEntity
  8
RUNDUNGEN
100
AcDbSpline
 62
7
  6
CONTINUOUS
 70
0
 71
3
 72
9
 73
5
 74
0
 42
0.0000001
 43
0.0000001
 44
0.0000000001
 40
0.0
 40
0.0
 40
0.0
 40
0.0
 40
0.3326064653
 40
1.0
 40
1.0
 40
1.0
 40
1.0
 10
77.8705702542
 20
47.8276676913
 30
0.0
 10
77.8726685826
 20
47.8238828702
 30
0.0
 10
77.8792573907
 20
47.8130798273
 30
0.0
 10
77.8894868122
 20
47.8019499552
 30
0.0
 10
77.8980881833
 20
47.8007584202
 30
0.0
  0
LINE
  5
34F
100
AcDbEntity
  8
RUNDUNGEN
100
AcDbLine
 62
7
  6
CONTINUOUS
 10
95.8868770121
 20
107.752761752
 11
97.0330537797
 21
115.2531003937
  0
LINE
  5
350
100
AcDbEntity
  8
RUNDUNGEN
100
AcDbLine
 62
7
  6
CONTINUOUS
 10
61.07249024
 20
115.2531026826
 11
62.8141531758
 21
107.753125
  0
SPLINE
  5
351
100
AcDbEntity
  8
RUNDUNGEN
100
AcDbSpline
 62
7
  6
CONTINUOUS
 70
0
 71
3
 72
9
 73
5
 74
0
 42
0.0000001
 43
0.0000001
 44
0.0000000001
 40
0.0
 40
0.0
 40
0.0
 40
0.0
 40
0.1852122747
 40
1.0
 40
1.0
 40
1.0
 40
1.0
 10
87.2430370944
 20
47.8007502123
 30
0.0
 10
87.2454416445
 20
47.8010839403
 30
0.0
 10
87.2579729204
 20
47.8060213911
 30
0.0
 10
87.2653794881
 20
47.8183210303
 30
0.0
 10
87.2705582173
 20
47.827660883
 30
0.0
  0
SPLINE
  5
352
100
AcDbEntity
  8
RUNDUNGEN
100
AcDbSpline
 62
7
  6
CONTINUOUS
 70
0
 71
3
 72
13
 73
9
 74
0
 42
0.0000001
 43
0.0000001
 44
0.0000000001
 40
0.0
 40
0.0
 40
0.0
 40
0.0
 40
0.0819057574
 40
0.1721635311
 40
0.2759634245
 40
0.3954852506
 40
0.6777612832
 40
1.0
 40
1.0
 40
1.0
 40
1.0
 10
91.4785339465
 20
51.884885287
 30
0.0
 10
91.4732519227
 20
51.8549323253
 30
0.0
 10
91.4491691804
 20
51.7937979986
 30
0.0
 10
91.3800465576
 20
51.7160783022
 30
0.0
 10
91.2817204146
 20
51.6518236233
 30
0.0
 10
91.1066705866
 20
51.5815712714
 30
0.0
 10
90.8377945545
 20
51.5405314418
 30
0.0
 10
90.6123380502
 20
51.5512000066
 30
0.0
 10
90.4937328563
 20
51.5670612264
 30
0.0
  0
LINE
  5
353
100
AcDbEntity
  8
RUNDUNGEN
100
AcDbLine
 62
7
  6
CONTINUOUS
 10
59.1480134214
 20
100.253125
 11
56.6024960627
 21
107.753125
  0
ELLIPSE
  5
354
100
AcDbEntity
  8
0
100
AcDbEllipse
 62
7
  6
CONTINUOUS
 10
71.9633283987
 20
159.1406249772
 30
0.0
 11
0.0
 21
3.195
 31
0.0
 40
0.2679491924
 41
-3.1415926536
 42
-0.0
  0
ELLIPSE
  5
355
100
AcDbEntity
  8
0
100
AcDbEllipse
 62
7
  6
CONTINUOUS
 10
67.3546022889
 20
159.1406249772
 30
0.0
 11
0.0
 21
3.195
 31
0.0
 40
0.2679491924
 41
-0.0
 42
3.1415926536
  0
ELLIPSE
  5
356
100
AcDbEntity
  8
0
100
AcDbEllipse
 62
7
  6
CONTINUOUS
 10
95.6166246676
 20
159.1406249772
 30
0.0
 11
0.0
 21
3.195
 31
0.0
 40
0.1763269807
 41
-3.1415926536
 42
0.0
  0
ENDSEC
  0
SECTION
  2
OBJECTS
  0
DICTIONARY
  5
C
100
AcDbDictionary
280
0
281
1
  3
ACAD_GROUP
350
D
  3
ACAD_MLINESTYLE
350
17
  3
ACAD_LAYOUT
350
1A
  3
ACAD_PLOTSETTINGS
350
19
  3
ACAD_PLOTSTYLENAME
350
E
  0
DICTIONARY
  5
D
102
{ACAD_REACTORS
330
C
102
}
100
AcDbDictionary
280
0
281
1
  0
ACDBDICTIONARYWDFLT
  5
E
102
{ACAD_REACTORS
330
C
102
}
100
AcDbDictionary
281
1
  3
Normal
350
F
100
AcDbDictionaryWithDefault
340
F
  0
DICTIONARY
  5
17
102
{ACAD_REACTORS
330
C
102
}
100
AcDbDictionary
280
0
281
1
  3
Standard
350
18
  0
DICTIONARY
  5
19
102
{ACAD_REACTORS
330
C
102
}
100
AcDbDictionary
281
1
  0
DICTIONARY
  5
1A
102
{ACAD_REACTORS
330
C
102
}
100
AcDbDictionary
281
1
  3
Model
350
357
  3
Layout1
350
358
  0
ACDBPLACEHOLDER
  5
F
102
{ACAD_REACTORS
330
E
102
}
  0
MLINESTYLE
  5
18
102
{ACAD_REACTORS
330
17
102
}
100
AcDbMlineStyle
  2
STANDARD
 70
0
  3

 62
256
 51
90.0
 52
90.0
 71
2
 49
0.5
 62
256
  6
BYLAYER
 49
-0.5
 62
256
  6
BYLAYER
  0
LAYOUT
  5
357
102
{ACAD_REACTORS
330
1A
102
}
100
AcDbPlotSettings
  1

  2
none_device
  4
ISO_A4_(297.00_x_210.00_MM)
  6

 40
0.0
 41
0.0
 42
0.0
 43
0.0
 44
297.0
 45
210.0
 46
0.0
 47
0.0
 48
0.0
 49
0.0
140
0.0
141
0.0
142
1.0
143
1.0
 70
1024
 72
1
 73
0
 74
0
  7

 75
0
147
1.0
148
0.0
149
0.0
100
AcDbLayout
  1
Model
 70
0
 71
0
 10
0.0
 20
0.0
 11
297.0
 21
210.0
 12
0.0
 22
0.0
 32
0.0
 14
0.0
 24
0.0
 34
0.0
 15
0.0
 25
0.0
 35
0.0
146
0.0
 13
0.0
 23
0.0
 33
0.0
 16
1.0
 26
0.0
 36
0.0
 17
0.0
 27
1.0
 37
0.0
 76
0
330
212
345
0
346
0
  0
LAYOUT
  5
358
102
{ACAD_REACTORS
330
1A
102
}
100
AcDbPlotSettings
  1

  2
none_device
  4
ISO_A4_(297.00_x_210.00_MM)
  6

 40
0.0
 41
0.0
 42
0.0
 43
0.0
 44
297.0
 45
210.0
 46
0.0
 47
0.0
 48
0.0
 49
0.0
140
0.0
141
0.0
142
1.0
143
1.0
 70
0
 72
1
 73
0
 74
0
  7

 75
0
147
1.0
148
0.0
149
0.0
100
AcDbLayout
  1
Layout1
 70
0
 71
1
 10
0.0
 20
0.0
 11
297.0
 21
210.0
 12
0.0
 22
0.0
 32
0.0
 14
0.0
 24
0.0
 34
0.0
 15
0.0
 25
0.0
 35
0.0
146
0.0
 13
0.0
 23
0.0
 33
0.0
 16
1.0
 26
0.0
 36
0.0
 17
0.0
 27
1.0
 37
0.0
 76
0
330
213
345
0
346
0
  0
ENDSEC
  0
EOF
