999
DXF file: S:\Prolink\03_Konstruktion\CAD-Plots\Internet\2D_neu\S9\s9-57_grt_sml_f4_w50.dxf
999
Pro/ENGINEER 2012230 by Parametric Technology Corporation
  0
SECTION
  2
HEADER
  9
$ACADVER
  1
AC1021
  9
$DWGCODEPAGE
  3
ANSI_1252
  9
$EXTMAX
 10
297.0
 20
210.0
 30
0.0
  9
$EXTMIN
 10
0.0
 20
0.0
 30
0.0
  9
$LIMMIN
 10
0.0
 20
0.0
  9
$LIMMAX
 10
297.0
 20
210.0
  9
$VIEWCTR
 10
148.5
 20
105.0
  9
$VIEWSIZE
 40
210.0
  9
$CLAYER
  8
0
  9
$LTSCALE
 40
16.335
  9
$CELTYPE
  6
BYLAYER
  9
$DIMSCALE
 40
1.0
  9
$DIMASZ
 40
3.5
  9
$DIMEXO
 40
0.0
  9
$DIMDLI
 40
11.286
  9
$DIMEXE
 40
1.5
  9
$DIMCEN
 40
2.673
  9
$DIMLFAC
 40
1.0
  9
$DIMBLK
  1
_FILLED
  9
$DIMTXT
 40
3.5
  9
$DIMTOL
 70
1
  9
$DIMLIM
 70
0
  9
$DIMTFAC
 40
1.0
  9
$DIMTP
 40
0.005
  9
$DIMTM
 40
0.005
  9
$DIMGAP
 40
0.625
  9
$DIMDSEP
 70
46
  9
$PDMODE
 70
3
  9
$PDSIZE
 40
0.3125
  9
$HANDSEED
  5
358
  9
$TILEMODE
 70
1
  9
$MEASUREMENT
 70
1
  9
$INSUNITS
 70
4
  0
ENDSEC
  0
SECTION
  2
CLASSES
  0
CLASS
  1
ACDBDICTIONARYWDFLT
  2
AcDbDictionaryWithDefault
  3
AutoCAD 2000
 90
0
 91
1
280
0
281
0
  0
CLASS
  1
ACDBPLACEHOLDER
  2
AcDbPlaceHolder
  3
AutoCAD 2000
 90
0
 91
1
280
0
281
0
  0
CLASS
  1
LAYOUT
  2
AcDbLayout
  3
AutoCAD 2000
 90
0
 91
0
280
0
281
0
  0
ENDSEC
  0
SECTION
  2
TABLES
  0
TABLE
  2
VPORT
  5
8
100
AcDbSymbolTable
 70
2
  0
VPORT
  5
1F4
100
AcDbSymbolTableRecord
100
AcDbViewportTableRecord
  2
*ACTIVE
 70
0
 10
0.0
 20
0.0
 11
1.0
 21
1.0
 12
148.5
 22
105.0
 13
0.0
 23
0.0
 14
1.0
 24
1.0
 15
0.0
 25
0.0
 16
0.0
 26
0.0
 36
1.0
 17
0.0
 27
0.0
 37
0.0
 40
210.0
 41
1.4142857143
 42
50.0
 43
0.0
 44
0.0
 50
0.0
 51
0.0
 71
0
 72
100
 73
1
 74
1
 75
0
 76
0
 77
0
 78
0
  0
ENDTAB
  0
TABLE
  2
LTYPE
  5
5
100
AcDbSymbolTable
 70
6
  0
LTYPE
  5
14
100
AcDbSymbolTableRecord
100
AcDbLinetypeTableRecord
  2
BYBLOCK
 70
0
  3

 72
65
 73
0
 40
0.0
  0
LTYPE
  5
15
100
AcDbSymbolTableRecord
100
AcDbLinetypeTableRecord
  2
BYLAYER
 70
0
  3

 72
65
 73
0
 40
0.0
  0
LTYPE
  5
16
100
AcDbSymbolTableRecord
100
AcDbLinetypeTableRecord
  2
CONTINUOUS
 70
64
  3
Solid line
 72
65
 73
0
 40
0.0
  0
LTYPE
  5
1F5
100
AcDbSymbolTableRecord
100
AcDbLinetypeTableRecord
  2
CENTER
 70
64
  3
____ _ ____ _ ____ _ ____ _ ____ _ ____ _ ____
 72
65
 73
4
 40
0.6
 49
0.375
 74
0
 49
-0.075
 74
0
 49
0.075
 74
0
 49
-0.075
 74
0
  0
LTYPE
  5
1F6
100
AcDbSymbolTableRecord
100
AcDbLinetypeTableRecord
  2
HIDDEN
 70
64
  3
- - - - - - - - - - - - - - - - - - - -
 72
65
 73
2
 40
0.2
 49
0.1
 74
0
 49
-0.1
 74
0
  0
LTYPE
  5
1F7
100
AcDbSymbolTableRecord
100
AcDbLinetypeTableRecord
  2
PHANTOM
 70
64
  3
_____ _ _ _____ _ _ _____ _ _ _____
 72
65
 73
6
 40
0.8
 49
0.45
 74
0
 49
-0.05
 74
0
 49
0.1
 74
0
 49
-0.05
 74
0
 49
0.1
 74
0
 49
-0.05
 74
0
  0
LTYPE
  5
1F8
100
AcDbSymbolTableRecord
100
AcDbLinetypeTableRecord
  2
DOT
 70
64
  3
. . . . . . . . . . . . . . . . . . . .
 72
65
 73
2
 40
0.2
 49
0.1
 74
0
 49
-0.1
 74
0
  0
LTYPE
  5
1F9
100
AcDbSymbolTableRecord
100
AcDbLinetypeTableRecord
  2
DASHED
 70
64
  3
- - - - - - - - - - - - - - - - - - - -
 72
65
 73
2
 40
0.2
 49
0.1
 74
0
 49
-0.1
 74
0
  0
ENDTAB
  0
TABLE
  2
LAYER
  5
2
100
AcDbSymbolTable
 70
36
  0
LAYER
  5
10
100
AcDbSymbolTableRecord
100
AcDbLayerTableRecord
  2
0
 70
0
 62
7
  6
CONTINUOUS
370
-3
390
F
  0
LAYER
  5
1FA
100
AcDbSymbolTableRecord
100
AcDbLayerTableRecord
  2
DEFAULT_1
 70
0
 62
7
  6
CENTER
370
-3
390
F
  0
LAYER
  5
1FB
100
AcDbSymbolTableRecord
100
AcDbLayerTableRecord
  2
DEFAULT_2
 70
0
 62
8
  6
HIDDEN
370
-3
390
F
  0
LAYER
  5
1FC
100
AcDbSymbolTableRecord
100
AcDbLayerTableRecord
  2
DEFAULT_3
 70
0
 62
7
  6
PHANTOM
370
-3
390
F
  0
LAYER
  5
1FD
100
AcDbSymbolTableRecord
100
AcDbLayerTableRecord
  2
01___PRT_ALL_DTM_PLN
 70
0
 62
7
  6
CONTINUOUS
370
-3
390
F
  0
LAYER
  5
1FE
100
AcDbSymbolTableRecord
100
AcDbLayerTableRecord
  2
01___PRT_DEF_DTM_PLN
 70
0
 62
7
  6
CONTINUOUS
370
-3
390
F
  0
LAYER
  5
1FF
100
AcDbSymbolTableRecord
100
AcDbLayerTableRecord
  2
02___PRT_ALL_AXES
 70
0
 62
7
  6
CONTINUOUS
370
-3
390
F
  0
LAYER
  5
200
100
AcDbSymbolTableRecord
100
AcDbLayerTableRecord
  2
03___PRT_ALL_CURVES
 70
0
 62
7
  6
CONTINUOUS
370
-3
390
F
  0
LAYER
  5
201
100
AcDbSymbolTableRecord
100
AcDbLayerTableRecord
  2
04___PRT_ALL_DTM_PNT
 70
0
 62
7
  6
CONTINUOUS
370
-3
390
F
  0
LAYER
  5
202
100
AcDbSymbolTableRecord
100
AcDbLayerTableRecord
  2
05___PRT_ALL_DTM_CSYS
 70
0
 62
7
  6
CONTINUOUS
370
-3
390
F
  0
LAYER
  5
203
100
AcDbSymbolTableRecord
100
AcDbLayerTableRecord
  2
05___PRT_DEF_DTM_CSYS
 70
0
 62
7
  6
CONTINUOUS
370
-3
390
F
  0
LAYER
  5
204
100
AcDbSymbolTableRecord
100
AcDbLayerTableRecord
  2
06___PRT_ALL_SURFS
 70
0
 62
7
  6
CONTINUOUS
370
-3
390
F
  0
LAYER
  5
205
100
AcDbSymbolTableRecord
100
AcDbLayerTableRecord
  2
ALLE
 70
0
 62
7
  6
CONTINUOUS
370
-3
390
F
  0
LAYER
  5
206
100
AcDbSymbolTableRecord
100
AcDbLayerTableRecord
  2
AUSFORMSCHRAEGEN
 70
0
 62
7
  6
CONTINUOUS
370
-3
390
F
  0
LAYER
  5
207
100
AcDbSymbolTableRecord
100
AcDbLayerTableRecord
  2
BEZUGSACHSEN
 70
0
 62
7
  6
CONTINUOUS
370
-3
390
F
  0
LAYER
  5
208
100
AcDbSymbolTableRecord
100
AcDbLayerTableRecord
  2
BEZUGSEBENE
 70
0
 62
7
  6
CONTINUOUS
370
-3
390
F
  0
LAYER
  5
209
100
AcDbSymbolTableRecord
100
AcDbLayerTableRecord
  2
BEZUGSEBENEN
 70
0
 62
7
  6
CONTINUOUS
370
-3
390
F
  0
LAYER
  5
20A
100
AcDbSymbolTableRecord
100
AcDbLayerTableRecord
  2
BEZUGSEBENEN-KES
 70
0
 62
7
  6
CONTINUOUS
370
-3
390
F
  0
LAYER
  5
20B
100
AcDbSymbolTableRecord
100
AcDbLayerTableRecord
  2
FLAECHEN
 70
0
 62
7
  6
CONTINUOUS
370
-3
390
F
  0
LAYER
  5
20C
100
AcDbSymbolTableRecord
100
AcDbLayerTableRecord
  2
KURVEN
 70
0
 62
7
  6
CONTINUOUS
370
-3
390
F
  0
LAYER
  5
20D
100
AcDbSymbolTableRecord
100
AcDbLayerTableRecord
  2
PARAMETER-BEMAßUNGEN
 70
0
 62
7
  6
CONTINUOUS
370
-3
390
F
  0
LAYER
  5
20E
100
AcDbSymbolTableRecord
100
AcDbLayerTableRecord
  2
RUNDUNGEN
 70
0
 62
7
  6
CONTINUOUS
370
-3
390
F
  0
LAYER
  5
20F
100
AcDbSymbolTableRecord
100
AcDbLayerTableRecord
  2
SAMMELFLÄCHEN
 70
0
 62
7
  6
CONTINUOUS
370
-3
390
F
  0
ENDTAB
  0
TABLE
  2
STYLE
  5
3
100
AcDbSymbolTable
 70
1
  0
STYLE
  5
11
100
AcDbSymbolTableRecord
100
AcDbTextStyleTableRecord
  2
STANDARD
 70
0
 40
0.0
 41
0.7
 50
0.0
 71
0
 42
0.2
  3
txt
  4

  0
STYLE
  5
210
100
AcDbSymbolTableRecord
100
AcDbTextStyleTableRecord
  2
TEXTSTYLE_1
 70
0
 40
0.0
 41
0.8
 50
0.0
 71
0
 42
0.2
  3
gdt
  4

  0
ENDTAB
  0
TABLE
  2
VIEW
  5
6
100
AcDbSymbolTable
 70
0
  0
ENDTAB
  0
TABLE
  2
UCS
  5
7
100
AcDbSymbolTable
 70
0
  0
ENDTAB
  0
TABLE
  2
APPID
  5
9
100
AcDbSymbolTable
 70
1
  0
APPID
  5
211
100
AcDbSymbolTableRecord
100
AcDbRegAppTableRecord
  2
ACAD
 70
0
  0
ENDTAB
  0
TABLE
  2
BLOCK_RECORD
  5
1
100
AcDbSymbolTable
 70
0
  0
BLOCK_RECORD
  5
212
100
AcDbSymbolTableRecord
100
AcDbBlockTableRecord
  2
*Model_Space
  0
BLOCK_RECORD
  5
213
100
AcDbSymbolTableRecord
100
AcDbBlockTableRecord
  2
*Paper_Space
  0
ENDTAB
  0
TABLE
  2
DIMSTYLE
  5
A
100
AcDbSymbolTable
 70
1
100
AcDbDimStyleTable
 71
0
  0
DIMSTYLE
105
214
100
AcDbSymbolTableRecord
100
AcDbDimStyleTableRecord
  2
STANDARD
 70
0
  3

  4

 40
1.0
 41
3.5
 42
0.0
 43
0.38
 44
1.5
 45
0.0
 46
0.0
 47
0.005
 48
0.005
140
3.5
141
0.09
142
0.0
143
25.4
144
1.0
145
0.0
146
1.0
147
0.625
 71
1.0
 72
0.0
 73
0
 74
0
 75
0
 76
0
 77
1
 78
8
170
0
171
2
172
0
173
0
174
0
175
0
176
0
177
0
178
5
270
2
271
3
272
3
273
2
274
2
275
0
280
0
281
0
282
0
283
1
284
8
285
0
286
0
287
3
288
0
340
11
278
46
  0
ENDTAB
  0
ENDSEC
  0
SECTION
  2
BLOCKS
  0
BLOCK
  5
20
100
AcDbEntity
  8
0
100
AcDbBlockBegin
  2
*Model_Space
 70
0
 10
0.0
 20
0.0
 30
0.0
  3
*Model_Space
  1

  0
ENDBLK
  5
21
100
AcDbEntity
  8
0
100
AcDbBlockEnd
  0
BLOCK
  5
1C
100
AcDbEntity
  8
0
100
AcDbBlockBegin
  2
*Paper_Space
 70
0
 10
0.0
 20
0.0
 30
0.0
  3
*Paper_Space
  1

  0
ENDBLK
  5
1D
100
AcDbEntity
  8
0
100
AcDbBlockEnd
  0
ENDSEC
  0
SECTION
  2
ENTITIES
  0
LINE
  5
215
100
AcDbEntity
  8
0
100
AcDbLine
 62
7
  6
CONTINUOUS
 10
0.0
 20
0.0
 11
0.0
 21
210.0
  0
LINE
  5
216
100
AcDbEntity
  8
0
100
AcDbLine
 62
7
  6
CONTINUOUS
 10
0.0
 20
0.0
 11
297.0
 21
0.0
  0
LINE
  5
217
100
AcDbEntity
  8
0
100
AcDbLine
 62
7
  6
CONTINUOUS
 10
0.0
 20
210.0
 11
297.0
 21
210.0
  0
LINE
  5
218
100
AcDbEntity
  8
0
100
AcDbLine
 62
7
  6
CONTINUOUS
 10
297.0
 20
0.0
 11
297.0
 21
210.0
  0
LINE
  5
219
100
AcDbEntity
  8
RUNDUNGEN
100
AcDbLine
 62
7
  6
CONTINUOUS
 10
54.75
 20
152.6406249772
 11
54.75
 21
165.6406249771
  0
LINE
  5
21A
100
AcDbEntity
  8
RUNDUNGEN
100
AcDbLine
 62
7
  6
CONTINUOUS
 10
55.75
 20
151.6406249772
 11
55.75
 21
166.6406249772
  0
LINE
  5
21B
100
AcDbEntity
  8
0
100
AcDbLine
 62
7
  6
CONTINUOUS
 10
91.0570257434
 20
151.6406249772
 11
73.7756572372
 21
151.6406249772
  0
LINE
  5
21C
100
AcDbEntity
  8
0
100
AcDbLine
 62
7
  6
CONTINUOUS
 10
58.6730484379
 20
151.6406249772
 11
55.75
 21
151.6406249772
  0
LINE
  5
21D
100
AcDbEntity
  8
RUNDUNGEN
100
AcDbLine
 62
7
  6
CONTINUOUS
 10
56.6024968333
 20
151.6406249772
 11
103.7499912534
 21
151.6406249772
  0
LINE
  5
21E
100
AcDbEntity
  8
0
100
AcDbLine
 62
7
  6
CONTINUOUS
 10
102.05
 20
151.6406249772
 11
103.75
 21
151.6406249772
  0
LINE
  5
21F
100
AcDbEntity
  8
RUNDUNGEN
100
AcDbLine
 62
7
  6
CONTINUOUS
 10
73.7569682457
 20
153.6860246355
 11
73.7569686142
 21
164.5952245607
  0
LINE
  5
220
100
AcDbEntity
  8
RUNDUNGEN
100
AcDbLine
 62
7
  6
CONTINUOUS
 10
60.3907403184
 20
152.6406220762
 11
72.8097314109
 21
152.6406249772
  0
LINE
  5
221
100
AcDbEntity
  8
RUNDUNGEN
100
AcDbLine
 62
7
  6
CONTINUOUS
 10
97.3959527969
 20
152.6406223937
 11
92.0418334964
 21
152.6406249772
  0
LINE
  5
222
100
AcDbEntity
  8
RUNDUNGEN
100
AcDbLine
 62
7
  6
CONTINUOUS
 10
79.070568392
 20
154.5627028992
 11
86.070568392
 21
154.5627028992
  0
LINE
  5
223
100
AcDbEntity
  8
RUNDUNGEN
100
AcDbLine
 62
7
  6
CONTINUOUS
 10
86.0705683919
 20
154.6406249772
 11
79.0705683921
 21
154.6406249772
  0
LINE
  5
224
100
AcDbEntity
  8
RUNDUNGEN
100
AcDbLine
 62
7
  6
CONTINUOUS
 10
86.1492200774
 20
154.8406249772
 11
78.9919167066
 21
154.8406249772
  0
LINE
  5
225
100
AcDbEntity
  8
RUNDUNGEN
100
AcDbLine
 62
7
  6
CONTINUOUS
 10
87.070568392
 20
155.6406249772
 11
86.9671976072
 21
155.6406249773
  0
LINE
  5
226
100
AcDbEntity
  8
RUNDUNGEN
100
AcDbLine
 62
7
  6
CONTINUOUS
 10
78.070568392
 20
155.6406249772
 11
78.1739391785
 21
155.6406249772
  0
LINE
  5
227
100
AcDbEntity
  8
RUNDUNGEN
100
AcDbLine
 62
7
  6
CONTINUOUS
 10
77.8705679326
 20
158.0857062302
 11
77.870568392
 21
155.7315340681
  0
LINE
  5
228
100
AcDbEntity
  8
RUNDUNGEN
100
AcDbLine
 62
7
  6
CONTINUOUS
 10
77.870568392
 20
162.5497158863
 11
77.8705685935
 21
160.1954921824
  0
LINE
  5
229
100
AcDbEntity
  8
RUNDUNGEN
100
AcDbLine
 62
7
  6
CONTINUOUS
 10
77.8981068128
 20
159.8436012671
 11
77.8981053476
 21
158.4376064681
  0
LINE
  5
22A
100
AcDbEntity
  8
RUNDUNGEN
100
AcDbLine
 62
7
  6
CONTINUOUS
 10
78.070568392
 20
155.6406249764
 11
78.070568392
 21
162.640624978
  0
LINE
  5
22B
100
AcDbEntity
  8
RUNDUNGEN
100
AcDbLine
 62
7
  6
CONTINUOUS
 10
78.1739391785
 20
155.6406249772
 11
78.1739391785
 21
162.6406249772
  0
LINE
  5
22C
100
AcDbEntity
  8
RUNDUNGEN
100
AcDbLine
 62
7
  6
CONTINUOUS
 10
95.6166246676
 20
155.9456249772
 11
91.8002555022
 21
155.9456249772
  0
LINE
  5
22D
100
AcDbEntity
  8
0
100
AcDbLine
 62
7
  6
CONTINUOUS
 10
67.3546022889
 20
155.9456249772
 11
71.9633283987
 21
155.9456249772
  0
LINE
  5
22E
100
AcDbEntity
  8
RUNDUNGEN
100
AcDbLine
 62
7
  6
CONTINUOUS
 10
79.070568392
 20
163.7185470551
 11
79.070568392
 21
163.6406249772
  0
LINE
  5
22F
100
AcDbEntity
  8
RUNDUNGEN
100
AcDbLine
 62
7
  6
CONTINUOUS
 10
79.070568392
 20
154.5627028992
 11
79.070568392
 21
154.6406249772
  0
LINE
  5
230
100
AcDbEntity
  8
RUNDUNGEN
100
AcDbLine
 62
7
  6
CONTINUOUS
 10
77.8981053479
 20
158.4378164122
 11
78.070568392
 21
158.4378204862
  0
LINE
  5
231
100
AcDbEntity
  8
RUNDUNGEN
100
AcDbLine
 62
7
  6
CONTINUOUS
 10
87.243027738
 20
158.4378226221
 11
87.070568392
 21
158.4378236921
  0
LINE
  5
232
100
AcDbEntity
  8
RUNDUNGEN
100
AcDbLine
 62
7
  6
CONTINUOUS
 10
87.2430274158
 20
159.8434270077
 11
87.070568392
 21
159.8434262643
  0
LINE
  5
233
100
AcDbEntity
  8
RUNDUNGEN
100
AcDbLine
 62
7
  6
CONTINUOUS
 10
77.8981068126
 20
159.8434309138
 11
78.070568392
 21
159.8434278694
  0
LINE
  5
234
100
AcDbEntity
  8
0
100
AcDbLine
 62
7
  6
CONTINUOUS
 10
71.9633283987
 20
162.3356249772
 11
67.3546022889
 21
162.3356249772
  0
LINE
  5
235
100
AcDbEntity
  8
RUNDUNGEN
100
AcDbLine
 62
7
  6
CONTINUOUS
 10
91.8002540084
 20
162.3356249772
 11
95.6166246676
 21
162.3356249772
  0
LINE
  5
236
100
AcDbEntity
  8
RUNDUNGEN
100
AcDbLine
 62
7
  6
CONTINUOUS
 10
87.070568392
 20
162.6406249772
 11
86.9671976055
 21
162.6406249772
  0
LINE
  5
237
100
AcDbEntity
  8
RUNDUNGEN
100
AcDbLine
 62
7
  6
CONTINUOUS
 10
78.070568392
 20
162.6406249772
 11
78.1739391768
 21
162.6406249771
  0
LINE
  5
238
100
AcDbEntity
  8
RUNDUNGEN
100
AcDbLine
 62
7
  6
CONTINUOUS
 10
78.9919167066
 20
163.4406249772
 11
86.1492200774
 21
163.4406249772
  0
LINE
  5
239
100
AcDbEntity
  8
RUNDUNGEN
100
AcDbLine
 62
7
  6
CONTINUOUS
 10
79.070568392
 20
163.6406249772
 11
86.070568392
 21
163.6406249772
  0
LINE
  5
23A
100
AcDbEntity
  8
RUNDUNGEN
100
AcDbLine
 62
7
  6
CONTINUOUS
 10
86.070568392
 20
163.7185470551
 11
79.070568392
 21
163.7185470551
  0
LINE
  5
23B
100
AcDbEntity
  8
RUNDUNGEN
100
AcDbLine
 62
7
  6
CONTINUOUS
 10
86.070568392
 20
163.7185470551
 11
86.070568392
 21
163.6406249772
  0
LINE
  5
23C
100
AcDbEntity
  8
RUNDUNGEN
100
AcDbLine
 62
7
  6
CONTINUOUS
 10
86.070568392
 20
154.5627028992
 11
86.070568392
 21
154.6406249772
  0
LINE
  5
23D
100
AcDbEntity
  8
RUNDUNGEN
100
AcDbLine
 62
7
  6
CONTINUOUS
 10
97.3959550591
 20
165.6406269262
 11
92.0418334964
 21
165.6406249772
  0
LINE
  5
23E
100
AcDbEntity
  8
RUNDUNGEN
100
AcDbLine
 62
7
  6
CONTINUOUS
 10
72.8097314109
 20
165.6406249772
 11
60.3907500599
 21
165.640625879
  0
LINE
  5
23F
100
AcDbEntity
  8
RUNDUNGEN
100
AcDbLine
 62
7
  6
CONTINUOUS
 10
86.9671976055
 20
162.6406249772
 11
86.9671976055
 21
155.6406249772
  0
LINE
  5
240
100
AcDbEntity
  8
RUNDUNGEN
100
AcDbLine
 62
7
  6
CONTINUOUS
 10
87.070568392
 20
162.6406249772
 11
87.070568392
 21
155.6406249772
  0
LINE
  5
241
100
AcDbEntity
  8
RUNDUNGEN
100
AcDbLine
 62
7
  6
CONTINUOUS
 10
87.243027738
 20
158.4377221396
 11
87.2430274158
 21
159.84351207
  0
LINE
  5
242
100
AcDbEntity
  8
RUNDUNGEN
100
AcDbLine
 62
7
  6
CONTINUOUS
 10
87.270568392
 20
155.7315340681
 11
87.2705673528
 21
158.0858307064
  0
LINE
  5
243
100
AcDbEntity
  8
RUNDUNGEN
100
AcDbLine
 62
7
  6
CONTINUOUS
 10
87.270567285
 20
160.1954241606
 11
87.270568392
 21
162.5497158863
  0
LINE
  5
244
100
AcDbEntity
  8
0
100
AcDbLine
 62
7
  6
CONTINUOUS
 10
91.0570257434
 20
166.6406249772
 11
73.7756572372
 21
166.6406249772
  0
LINE
  5
245
100
AcDbEntity
  8
RUNDUNGEN
100
AcDbLine
 62
7
  6
CONTINUOUS
 10
103.7499938642
 20
166.6406249772
 11
56.6024960627
 21
166.6406249772
  0
LINE
  5
246
100
AcDbEntity
  8
0
100
AcDbLine
 62
7
  6
CONTINUOUS
 10
55.75
 20
166.6406249772
 11
56.6024960627
 21
166.6406249772
  0
LINE
  5
247
100
AcDbEntity
  8
RUNDUNGEN
100
AcDbLine
 62
7
  6
CONTINUOUS
 10
91.6374783109
 20
158.9659369174
 11
91.6369287151
 21
159.1401242968
  0
LINE
  5
248
100
AcDbEntity
  8
RUNDUNGEN
100
AcDbLine
 62
7
  6
CONTINUOUS
 10
91.4785884946
 20
153.4797079679
 11
91.4785777075
 21
164.8015140501
  0
LINE
  5
249
100
AcDbEntity
  8
RUNDUNGEN
100
AcDbLine
 62
7
  6
CONTINUOUS
 10
91.6369287145
 20
159.1401242971
 11
91.637383365
 21
159.2995527993
  0
LWPOLYLINE
  5
24A
100
AcDbEntity
  8
RUNDUNGEN
100
AcDbPolyline
 62
7
  6
CONTINUOUS
 90
11
 70
0
 10
91.637383365
 20
159.2995527993
 10
91.6415142413
 20
159.6427411318
 10
91.6498290522
 20
159.979088582
 10
91.6620675154
 20
160.3065308302
 10
91.6779939826
 20
160.6232245935
 10
91.6973554248
 20
160.9274268492
 10
91.7198009538
 20
161.217601972
 10
91.7449916963
 20
161.4921926555
 10
91.7725706385
 20
161.74989401
 10
91.8020707955
 20
161.9893999782
 10
91.8330290593
 20
162.2096282311
  0
LINE
  5
24B
100
AcDbEntity
  8
RUNDUNGEN
100
AcDbLine
 62
7
  6
CONTINUOUS
 10
91.8330290593
 20
162.2096282311
 11
91.8526709505
 21
162.3356249772
  0
LINE
  5
24C
100
AcDbEntity
  8
RUNDUNGEN
100
AcDbLine
 62
7
  6
CONTINUOUS
 10
91.8526720471
 20
155.9456249772
 11
91.8340979071
 21
156.0645124014
  0
LWPOLYLINE
  5
24D
100
AcDbEntity
  8
RUNDUNGEN
100
AcDbPolyline
 62
7
  6
CONTINUOUS
 90
11
 70
0
 10
91.8340979071
 20
156.0645124014
 10
91.8031211791
 20
156.2838898046
 10
91.7735881023
 20
156.5225401773
 10
91.7459559105
 20
156.7793832419
 10
91.7206939896
 20
157.0531049916
 10
91.6981637653
 20
157.34240416
 10
91.6786978605
 20
157.6457319065
 10
91.6626474748
 20
157.9615514017
 10
91.6502694994
 20
158.2881197393
 10
91.6417928775
 20
158.6236014218
 10
91.6374783109
 20
158.9659369174
  0
LINE
  5
24E
100
AcDbEntity
  8
RUNDUNGEN
100
AcDbLine
 62
7
  6
CONTINUOUS
 10
103.7500001111
 20
166.4807573797
 11
103.7499995029
 21
151.8005350446
  0
LINE
  5
24F
100
AcDbEntity
  8
RUNDUNGEN
100
AcDbLine
 62
7
  6
CONTINUOUS
 10
104.75
 20
165.6406249772
 11
104.75
 21
152.6406249772
  0
LINE
  5
250
100
AcDbEntity
  8
RUNDUNGEN
100
AcDbLine
 62
7
  6
CONTINUOUS
 10
190.6839267681
 20
151.6406249772
 11
243.1834269943
 21
151.6406249772
  0
LINE
  5
251
100
AcDbEntity
  8
RUNDUNGEN
100
AcDbLine
 62
7
  6
CONTINUOUS
 10
197.0941205832
 20
152.6406220762
 11
243.442426319
 21
152.6406249772
  0
LINE
  5
252
100
AcDbEntity
  8
RUNDUNGEN
100
AcDbLine
 62
7
  6
CONTINUOUS
 10
250.6090515143
 20
160.1955078293
 11
250.8070684898
 21
160.2236390668
  0
LINE
  5
253
100
AcDbEntity
  8
RUNDUNGEN
100
AcDbLine
 62
7
  6
CONTINUOUS
 10
254.5836072739
 20
154.6406249772
 11
249.2827875467
 21
154.6406249772
  0
LINE
  5
254
100
AcDbEntity
  8
RUNDUNGEN
100
AcDbLine
 62
7
  6
CONTINUOUS
 10
254.7836072739
 20
154.8406249772
 11
254.050401888
 21
154.8406249772
  0
LINE
  5
255
100
AcDbEntity
  8
RUNDUNGEN
100
AcDbLine
 62
7
  6
CONTINUOUS
 10
250.0421412854
 20
155.640540799
 11
253.6510191221
 21
155.6406249772
  0
LINE
  5
256
100
AcDbEntity
  8
0
100
AcDbLine
 62
7
  6
CONTINUOUS
 10
223.0836072739
 20
155.9456249772
 11
240.2836072739
 21
155.9456249772
  0
LINE
  5
257
100
AcDbEntity
  8
RUNDUNGEN
100
AcDbLine
 62
7
  6
CONTINUOUS
 10
250.6359730723
 20
158.4378164122
 11
250.8340659694
 21
158.4378204862
  0
LINE
  5
258
100
AcDbEntity
  8
RUNDUNGEN
100
AcDbLine
 62
7
  6
CONTINUOUS
 10
250.6359732759
 20
159.8434309138
 11
250.8340698743
 21
159.8434278694
  0
LINE
  5
259
100
AcDbEntity
  8
0
100
AcDbLine
 62
7
  6
CONTINUOUS
 10
240.2836072739
 20
162.3356249772
 11
223.0836072739
 21
162.3356249772
  0
LINE
  5
25A
100
AcDbEntity
  8
RUNDUNGEN
100
AcDbLine
 62
7
  6
CONTINUOUS
 10
250.0421414749
 20
162.6407087247
 11
253.6510191212
 21
162.6406249771
  0
LINE
  5
25B
100
AcDbEntity
  8
RUNDUNGEN
100
AcDbLine
 62
7
  6
CONTINUOUS
 10
254.050401888
 20
163.4406249772
 11
254.7836072739
 21
163.4406249772
  0
LINE
  5
25C
100
AcDbEntity
  8
RUNDUNGEN
100
AcDbLine
 62
7
  6
CONTINUOUS
 10
249.2827875467
 20
163.6406249772
 11
254.5836072739
 21
163.6406249772
  0
LINE
  5
25D
100
AcDbEntity
  8
RUNDUNGEN
100
AcDbLine
 62
7
  6
CONTINUOUS
 10
250.6090519061
 20
158.085744883
 11
250.8070681441
 21
158.0576148086
  0
LINE
  5
25E
100
AcDbEntity
  8
RUNDUNGEN
100
AcDbLine
 62
7
  6
CONTINUOUS
 10
243.442426319
 20
165.6406249772
 11
197.0941569388
 21
165.640625879
  0
LINE
  5
25F
100
AcDbEntity
  8
RUNDUNGEN
100
AcDbLine
 62
7
  6
CONTINUOUS
 10
243.1834108889
 20
166.6406249772
 11
190.6836072739
 21
166.6406249772
  0
LINE
  5
260
100
AcDbEntity
  8
RUNDUNGEN
100
AcDbLine
 62
7
  6
CONTINUOUS
 10
249.8640338446
 20
162.5497158872
 11
250.0421785536
 21
162.6406249771
  0
LINE
  5
261
100
AcDbEntity
  8
RUNDUNGEN
100
AcDbLine
 62
7
  6
CONTINUOUS
 10
249.8640338449
 20
155.7315340676
 11
250.0421785537
 21
155.6406249772
  0
LINE
  5
262
100
AcDbEntity
  8
RUNDUNGEN
100
AcDbLine
 62
7
  6
CONTINUOUS
 10
246.9775623135
 20
153.6860246355
 11
246.9775636884
 21
164.5952245607
  0
LINE
  5
263
100
AcDbEntity
  8
RUNDUNGEN
100
AcDbLine
 62
7
  6
CONTINUOUS
 10
250.6359732759
 20
159.8436012671
 11
250.6359730722
 21
158.4376064681
  0
LINE
  5
264
100
AcDbEntity
  8
RUNDUNGEN
100
AcDbLine
 62
7
  6
CONTINUOUS
 10
250.8340698743
 20
159.8434278694
 11
250.8340659694
 21
158.4378204862
  0
LINE
  5
265
100
AcDbEntity
  8
RUNDUNGEN
100
AcDbLine
 62
7
  6
CONTINUOUS
 10
253.4759111694
 20
155.6406249764
 11
253.4759111694
 21
162.640624978
  0
LINE
  5
266
100
AcDbEntity
  8
RUNDUNGEN
100
AcDbLine
 62
7
  6
CONTINUOUS
 10
253.6510191221
 20
155.6406249772
 11
253.6510191221
 21
162.6406249772
  0
LINE
  5
267
100
AcDbEntity
  8
0
100
AcDbLine
 62
7
  6
CONTINUOUS
 10
254.7836072739
 20
154.8406249772
 11
254.7836072739
 21
163.4406249772
  0
LINE
  5
268
100
AcDbEntity
  8
RUNDUNGEN
100
AcDbLine
 62
7
  6
CONTINUOUS
 10
86.0706842691
 20
48.3890874533
 11
79.0704528124
 21
48.3890874533
  0
LINE
  5
269
100
AcDbEntity
  8
RUNDUNGEN
100
AcDbLine
 62
7
  6
CONTINUOUS
 10
86.070568392
 20
48.5475077202
 11
79.070568392
 21
48.5475077202
  0
LINE
  5
26A
100
AcDbEntity
  8
RUNDUNGEN
100
AcDbLine
 62
7
  6
CONTINUOUS
 10
54.75
 20
113.4882677261
 11
54.75
 21
100.4882677261
  0
LINE
  5
26B
100
AcDbEntity
  8
RUNDUNGEN
100
AcDbLine
 62
7
  6
CONTINUOUS
 10
55.75
 20
99.4882677261
 11
55.75
 21
114.4882677261
  0
LINE
  5
26C
100
AcDbEntity
  8
RUNDUNGEN
100
AcDbLine
 62
7
  6
CONTINUOUS
 10
91.057086349
 20
54.4886114374
 11
73.775604616
 21
54.4884641111
  0
LINE
  5
26D
100
AcDbEntity
  8
RUNDUNGEN
100
AcDbLine
 62
7
  6
CONTINUOUS
 10
72.8097314109
 20
54.229448681
 11
73.7756572372
 21
54.4882677261
  0
LINE
  5
26E
100
AcDbEntity
  8
RUNDUNGEN
100
AcDbLine
 62
7
  6
CONTINUOUS
 10
92.0418334964
 20
54.3146195485
 11
91.0570257436
 21
54.4882677271
  0
LINE
  5
26F
100
AcDbEntity
  8
RUNDUNGEN
100
AcDbLine
 62
7
  6
CONTINUOUS
 10
73.7569682457
 20
50.6943126865
 11
60.3907500599
 21
100.5777180612
  0
LINE
  5
270
100
AcDbEntity
  8
RUNDUNGEN
100
AcDbLine
 62
7
  6
CONTINUOUS
 10
73.775604616
 20
54.4884641111
 11
61.3566800727
 21
100.836521524
  0
LINE
  5
271
100
AcDbEntity
  8
RUNDUNGEN
100
AcDbLine
 62
7
  6
CONTINUOUS
 10
62.8141531758
 20
106.9882677261
 11
69.3930867264
 21
82.4353534555
  0
LINE
  5
272
100
AcDbEntity
  8
RUNDUNGEN
100
AcDbLine
 62
7
  6
CONTINUOUS
 10
86.070568392
 20
43.8053587079
 11
86.1492200769
 21
43.6214731118
  0
LINE
  5
273
100
AcDbEntity
  8
RUNDUNGEN
100
AcDbLine
 62
7
  6
CONTINUOUS
 10
62.0384118595
 20
113.7470770371
 11
70.3590125527
 21
82.6941725006
  0
LINE
  5
274
100
AcDbEntity
  8
RUNDUNGEN
100
AcDbLine
 62
7
  6
CONTINUOUS
 10
75.1886416841
 20
78.9882677261
 11
75.1886416841
 21
77.9882677261
  0
LINE
  5
275
100
AcDbEntity
  8
RUNDUNGEN
100
AcDbLine
 62
7
  6
CONTINUOUS
 10
77.870568392
 20
47.8078411549
 11
77.8705685935
 21
47.0628212628
  0
LINE
  5
276
100
AcDbEntity
  8
RUNDUNGEN
100
AcDbLine
 62
7
  6
CONTINUOUS
 10
78.070568392
 20
47.6297335251
 11
78.070568392
 21
44.1959638306
  0
LINE
  5
277
100
AcDbEntity
  8
RUNDUNGEN
100
AcDbLine
 62
7
  6
CONTINUOUS
 10
79.070568392
 20
48.5475077202
 11
79.0705683921
 21
43.8053587079
  0
LINE
  5
278
100
AcDbEntity
  8
RUNDUNGEN
100
AcDbLine
 62
7
  6
CONTINUOUS
 10
75.1886416841
 20
77.9882677261
 11
85.7388519752
 21
77.9882677261
  0
LINE
  5
279
100
AcDbEntity
  8
RUNDUNGEN
100
AcDbLine
 62
7
  6
CONTINUOUS
 10
75.1886416841
 20
78.9882677261
 11
85.7388519752
 21
78.9882677261
  0
LINE
  5
27A
100
AcDbEntity
  8
RUNDUNGEN
100
AcDbLine
 62
7
  6
CONTINUOUS
 10
85.7388519752
 20
78.9882677261
 11
85.7388519752
 21
77.9882677261
  0
LINE
  5
27B
100
AcDbEntity
  8
RUNDUNGEN
100
AcDbLine
 62
7
  6
CONTINUOUS
 10
86.0705683919
 20
43.8053587079
 11
86.070568392
 21
48.5475077202
  0
LINE
  5
27C
100
AcDbEntity
  8
RUNDUNGEN
100
AcDbLine
 62
7
  6
CONTINUOUS
 10
87.070568392
 20
44.1959638306
 11
87.070568392
 21
47.6297337157
  0
LINE
  5
27D
100
AcDbEntity
  8
RUNDUNGEN
100
AcDbLine
 62
7
  6
CONTINUOUS
 10
87.270567285
 20
47.0628115999
 11
87.270568392
 21
47.8078411549
  0
LINE
  5
27E
100
AcDbEntity
  8
RUNDUNGEN
100
AcDbLine
 62
7
  6
CONTINUOUS
 10
70.3590125527
 20
82.6941725006
 11
69.3930867264
 21
82.4353534556
  0
LINE
  5
27F
100
AcDbEntity
  8
0
100
AcDbLine
 62
7
  6
CONTINUOUS
 10
101.9985875604
 20
86.9882677261
 11
103.75
 21
86.9882677261
  0
LINE
  5
280
100
AcDbEntity
  8
RUNDUNGEN
100
AcDbLine
 62
7
  6
CONTINUOUS
 10
90.6628907403
 20
83.1200268378
 11
91.6476984933
 21
82.9463786601
  0
LINE
  5
281
100
AcDbEntity
  8
RUNDUNGEN
100
AcDbLine
 62
7
  6
CONTINUOUS
 10
97.3959710657
 20
84.6794426045
 11
96.4111664662
 21
84.853089021
  0
LINE
  5
282
100
AcDbEntity
  8
RUNDUNGEN
100
AcDbLine
 62
7
  6
CONTINUOUS
 10
90.6628907403
 20
83.1200268378
 11
96.0482227594
 21
113.6617624103
  0
LINE
  5
283
100
AcDbEntity
  8
RUNDUNGEN
100
AcDbLine
 62
7
  6
CONTINUOUS
 10
91.6476984933
 20
82.9463786601
 11
95.8868681523
 21
106.9879044777
  0
LINE
  5
284
100
AcDbEntity
  8
RUNDUNGEN
100
AcDbLine
 62
7
  6
CONTINUOUS
 10
79.070568392
 20
43.8053587079
 11
78.9919167062
 21
43.6214731122
  0
LINE
  5
285
100
AcDbEntity
  8
RUNDUNGEN
100
AcDbLine
 62
7
  6
CONTINUOUS
 10
96.4111664662
 20
84.853089021
 11
91.057086349
 21
54.4886114374
  0
LINE
  5
286
100
AcDbEntity
  8
RUNDUNGEN
100
AcDbLine
 62
7
  6
CONTINUOUS
 10
97.3959550591
 20
84.6793518266
 11
91.4785777075
 21
51.1202372329
  0
LINE
  5
287
100
AcDbEntity
  8
RUNDUNGEN
100
AcDbLine
 62
7
  6
CONTINUOUS
 10
104.75
 20
94.1471531277
 11
103.7499938642
 21
94.1471531277
  0
LINE
  5
288
100
AcDbEntity
  8
RUNDUNGEN
100
AcDbLine
 62
7
  6
CONTINUOUS
 10
55.75
 20
99.4882677261
 11
59.1480134214
 21
99.4882677261
  0
LINE
  5
289
100
AcDbEntity
  8
RUNDUNGEN
100
AcDbLine
 62
7
  6
CONTINUOUS
 10
103.75
 20
114.4882677261
 11
103.7499938642
 21
94.1471122169
  0
LINE
  5
28A
100
AcDbEntity
  8
RUNDUNGEN
100
AcDbLine
 62
7
  6
CONTINUOUS
 10
103.7500001111
 20
92.9479897273
 11
103.75
 21
86.9882677261
  0
LINE
  5
28B
100
AcDbEntity
  8
RUNDUNGEN
100
AcDbLine
 62
7
  6
CONTINUOUS
 10
104.75
 20
113.4882677261
 11
104.75
 21
87.9882677261
  0
LINE
  5
28C
100
AcDbEntity
  8
RUNDUNGEN
100
AcDbLine
 62
7
  6
CONTINUOUS
 10
60.3907540078
 20
100.5777033274
 11
61.3566800727
 21
100.836521524
  0
LINE
  5
28D
100
AcDbEntity
  8
RUNDUNGEN
100
AcDbLine
 62
7
  6
CONTINUOUS
 10
104.75
 20
106.9882677261
 11
95.8868681523
 21
106.9879044777
  0
LINE
  5
28E
100
AcDbEntity
  8
RUNDUNGEN
100
AcDbLine
 62
7
  6
CONTINUOUS
 10
56.6024960627
 20
106.9882677261
 11
62.8141531758
 21
106.9882677261
  0
LINE
  5
28F
100
AcDbEntity
  8
RUNDUNGEN
100
AcDbLine
 62
7
  6
CONTINUOUS
 10
103.8030356654
 20
94.0769209171
 11
103.75
 21
94.1471531277
  0
LINE
  5
290
100
AcDbEntity
  8
RUNDUNGEN
100
AcDbLine
 62
7
  6
CONTINUOUS
 10
63.7800790021
 20
107.2470867712
 11
62.8141531758
 21
106.9882677261
  0
LINE
  5
291
100
AcDbEntity
  8
RUNDUNGEN
100
AcDbLine
 62
7
  6
CONTINUOUS
 10
94.9021244498
 20
107.1619159038
 11
95.8869322026
 21
106.9882677248
  0
LINE
  5
292
100
AcDbEntity
  8
RUNDUNGEN
100
AcDbLine
 62
7
  6
CONTINUOUS
 10
55.75
 20
114.4882677261
 11
56.6634295109
 21
114.4882677261
  0
LINE
  5
293
100
AcDbEntity
  8
0
100
AcDbLine
 62
7
  6
CONTINUOUS
 10
55.75
 20
114.4882677261
 11
61.0791871564
 21
114.4882677261
  0
LINE
  5
294
100
AcDbEntity
  8
0
100
AcDbLine
 62
7
  6
CONTINUOUS
 10
97.0282364457
 20
114.4882677261
 11
103.75
 21
114.4882677261
  0
ARC
  5
295
100
AcDbEntity
  8
RUNDUNGEN
100
AcDbCircle
 62
7
  6
CONTINUOUS
 10
79.0706681939
 20
155.7876107877
 40
1.2249078925
100
AcDbArc
 50
263.6762130418
 51
269.9953317086
  0
ARC
  5
296
100
AcDbEntity
  8
RUNDUNGEN
100
AcDbCircle
 62
7
  6
CONTINUOUS
 10
55.75
 20
152.6406249772
 40
1.0
100
AcDbArc
 50
180.0
 51
270.0
  0
ARC
  5
297
100
AcDbEntity
  8
RUNDUNGEN
100
AcDbCircle
 62
7
  6
CONTINUOUS
 10
79.070568392
 20
155.6406249772
 40
1.0
100
AcDbArc
 50
180.0048230751
 51
269.9933607491
  0
ARC
  5
298
100
AcDbEntity
  8
RUNDUNGEN
100
AcDbCircle
 62
7
  6
CONTINUOUS
 10
79.0706753052
 20
162.4936329616
 40
1.2249140981
100
AcDbArc
 50
90.0050009002
 51
96.3512213102
  0
ARC
  5
299
100
AcDbEntity
  8
RUNDUNGEN
100
AcDbCircle
 62
7
  6
CONTINUOUS
 10
55.75
 20
165.6406249772
 40
1.0
100
AcDbArc
 50
90.0
 51
180.0
  0
ARC
  5
29A
100
AcDbEntity
  8
RUNDUNGEN
100
AcDbCircle
 62
7
  6
CONTINUOUS
 10
79.070568392
 20
162.6406249772
 40
1.0
100
AcDbArc
 50
90.0066222059
 51
179.9952015976
  0
ARC
  5
29B
100
AcDbEntity
  8
RUNDUNGEN
100
AcDbCircle
 62
7
  6
CONTINUOUS
 10
86.0704614788
 20
155.7876169927
 40
1.2249140981
100
AcDbArc
 50
270.0050009003
 51
276.3512213102
  0
ARC
  5
29C
100
AcDbEntity
  8
RUNDUNGEN
100
AcDbCircle
 62
7
  6
CONTINUOUS
 10
86.070568392
 20
155.6406249772
 40
1.0
100
AcDbArc
 50
270.0066222059
 51
359.9952015976
  0
ARC
  5
29D
100
AcDbEntity
  8
RUNDUNGEN
100
AcDbCircle
 62
7
  6
CONTINUOUS
 10
103.7514728619
 20
152.6418557102
 40
0.9986040438
100
AcDbArc
 50
269.9994988597
 51
359.929380212
  0
ARC
  5
29E
100
AcDbEntity
  8
RUNDUNGEN
100
AcDbCircle
 62
7
  6
CONTINUOUS
 10
103.7906761859
 20
152.7796505989
 40
0.9593239269
100
AcDbArc
 50
350.7892202562
 51
359.9722061191
  0
ARC
  5
29F
100
AcDbEntity
  8
RUNDUNGEN
100
AcDbCircle
 62
7
  6
CONTINUOUS
 10
103.7498730093
 20
152.0068363897
 40
0.3662114346
100
AcDbArc
 50
270.0198683927
 51
278.3473298183
  0
ARC
  5
2A0
100
AcDbEntity
  8
RUNDUNGEN
100
AcDbCircle
 62
7
  6
CONTINUOUS
 10
86.0704685901
 20
162.4936391666
 40
1.2249078925
100
AcDbArc
 50
83.6762130419
 51
89.9953317086
  0
ARC
  5
2A1
100
AcDbEntity
  8
RUNDUNGEN
100
AcDbCircle
 62
7
  6
CONTINUOUS
 10
86.070568392
 20
162.6406249772
 40
1.0
100
AcDbArc
 50
0.0048230751
 51
89.9933607491
  0
ARC
  5
2A2
100
AcDbEntity
  8
RUNDUNGEN
100
AcDbCircle
 62
7
  6
CONTINUOUS
 10
103.7514748078
 20
165.6393956494
 40
0.9986021724
100
AcDbArc
 50
0.0705392878
 51
90.0003515556
  0
ARC
  5
2A3
100
AcDbEntity
  8
RUNDUNGEN
100
AcDbCircle
 62
7
  6
CONTINUOUS
 10
103.7906735739
 20
165.5016016399
 40
0.959326539
100
AcDbArc
 50
0.0277942124
 51
9.2107427942
  0
ARC
  5
2A4
100
AcDbEntity
  8
RUNDUNGEN
100
AcDbCircle
 62
7
  6
CONTINUOUS
 10
103.7498611309
 20
166.2743336319
 40
0.3662913715
100
AcDbArc
 50
81.6528738355
 51
89.9782779178
  0
ARC
  5
2A5
100
AcDbEntity
  8
RUNDUNGEN
100
AcDbCircle
 62
7
  6
CONTINUOUS
 10
190.1656749466
 20
159.1404929652
 40
9.5003022228
100
AcDbArc
 50
0.0007961575
 51
43.1729854055
  0
ARC
  5
2A6
100
AcDbEntity
  8
RUNDUNGEN
100
AcDbCircle
 62
7
  6
CONTINUOUS
 10
190.1658884997
 20
159.140709246
 40
9.5000947059
100
AcDbArc
 50
316.8261845509
 51
359.9994917678
  0
CIRCLE
  5
2A7
100
AcDbEntity
  8
RUNDUNGEN
100
AcDbCircle
 62
7
  6
CONTINUOUS
 10
190.6836072739
 20
159.1406249772
 40
7.5
  0
ARC
  5
2A8
100
AcDbEntity
  8
0
100
AcDbCircle
 62
7
  6
CONTINUOUS
 10
190.6836072739
 20
159.1406249772
 40
7.5
100
AcDbArc
 50
259.9911093091
 51
263.1694432688
  0
ARC
  5
2A9
100
AcDbEntity
  8
0
100
AcDbCircle
 62
7
  6
CONTINUOUS
 10
190.6836072739
 20
159.1406249772
 40
7.5
100
AcDbArc
 50
249.8919020453
 51
252.4511969926
  0
ARC
  5
2AA
100
AcDbEntity
  8
0
100
AcDbCircle
 62
7
  6
CONTINUOUS
 10
190.6836072739
 20
159.1406249772
 40
7.5
100
AcDbArc
 50
242.0853842042
 51
242.5264016736
  0
CIRCLE
  5
2AB
100
AcDbEntity
  8
RUNDUNGEN
100
AcDbCircle
 62
7
  6
CONTINUOUS
 10
190.6836072739
 20
159.1406249772
 40
6.5
  0
CIRCLE
  5
2AC
100
AcDbEntity
  8
0
100
AcDbCircle
 62
7
  6
CONTINUOUS
 10
190.6836072739
 20
159.1406249772
 40
3.19
  0
ARC
  5
2AD
100
AcDbEntity
  8
RUNDUNGEN
100
AcDbCircle
 62
7
  6
CONTINUOUS
 10
243.4424461271
 20
159.1404869142
 40
6.4998619371
100
AcDbArc
 50
269.9998253926
 51
302.9478582072
  0
ARC
  5
2AE
100
AcDbEntity
  8
RUNDUNGEN
100
AcDbCircle
 62
7
  6
CONTINUOUS
 10
245.3547557095
 20
159.1218457819
 40
5.3304178881
100
AcDbArc
 50
11.5410183892
 51
13.4911716981
  0
ARC
  5
2AF
100
AcDbEntity
  8
RUNDUNGEN
100
AcDbCircle
 62
7
  6
CONTINUOUS
 10
245.4059381082
 20
159.1322324956
 40
5.2781922459
100
AcDbArc
 50
7.7456139438
 51
11.5417057446
  0
ARC
  5
2B0
100
AcDbEntity
  8
RUNDUNGEN
100
AcDbCircle
 62
7
  6
CONTINUOUS
 10
247.9239459349
 20
158.4680205993
 40
2.712190229
100
AcDbArc
 50
351.8963645968
 51
359.356992381
  0
ARC
  5
2B1
100
AcDbEntity
  8
RUNDUNGEN
100
AcDbCircle
 62
7
  6
CONTINUOUS
 10
248.1294689145
 20
158.4388084227
 40
2.7045972353
100
AcDbArc
 50
351.8975920305
 51
359.9790709706
  0
ARC
  5
2B2
100
AcDbEntity
  8
RUNDUNGEN
100
AcDbCircle
 62
7
  6
CONTINUOUS
 10
254.5836072739
 20
154.8406249772
 40
0.2
100
AcDbArc
 50
270.0
 51
360.0
  0
ARC
  5
2B3
100
AcDbEntity
  8
RUNDUNGEN
100
AcDbCircle
 62
7
  6
CONTINUOUS
 10
249.2828366398
 20
154.4406773794
 40
0.1999912663
100
AcDbArc
 50
90.0140678468
 51
142.3823203336
  0
ARC
  5
2B4
100
AcDbEntity
  8
0
100
AcDbCircle
 62
7
  6
CONTINUOUS
 10
223.0836072739
 20
159.1406249772
 40
3.195
100
AcDbArc
 50
90.0
 51
270.0
  0
ARC
  5
2B5
100
AcDbEntity
  8
RUNDUNGEN
100
AcDbCircle
 62
7
  6
CONTINUOUS
 10
243.1836072739
 20
159.1406249772
 40
7.7
100
AcDbArc
 50
8.0855234754
 51
27.0363722683
  0
ARC
  5
2B6
100
AcDbEntity
  8
RUNDUNGEN
100
AcDbCircle
 62
7
  6
CONTINUOUS
 10
243.1836072739
 20
159.1406249772
 40
7.7
100
AcDbArc
 50
332.9636242368
 51
351.9145050493
  0
ARC
  5
2B7
100
AcDbEntity
  8
RUNDUNGEN
100
AcDbCircle
 62
7
  6
CONTINUOUS
 10
243.1836072739
 20
159.1406249772
 40
7.5
100
AcDbArc
 50
8.0854005355
 51
90.0026257604
  0
ARC
  5
2B8
100
AcDbEntity
  8
RUNDUNGEN
100
AcDbCircle
 62
7
  6
CONTINUOUS
 10
243.1836072739
 20
159.1406249772
 40
7.5
100
AcDbArc
 50
269.998622765
 51
351.9142017612
  0
ARC
  5
2B9
100
AcDbEntity
  8
RUNDUNGEN
100
AcDbCircle
 62
7
  6
CONTINUOUS
 10
243.4424460277
 20
159.1407620105
 40
6.4998629667
100
AcDbArc
 50
57.0521321882
 51
90.0001737309
  0
ARC
  5
2BA
100
AcDbEntity
  8
0
100
AcDbCircle
 62
7
  6
CONTINUOUS
 10
240.2836072739
 20
159.1406249772
 40
3.195
100
AcDbArc
 50
270.0
 51
90.0
  0
ARC
  5
2BB
100
AcDbEntity
  8
RUNDUNGEN
100
AcDbCircle
 62
7
  6
CONTINUOUS
 10
245.3545431713
 20
159.1594760779
 40
5.3306492256
100
AcDbArc
 50
346.395169045
 51
348.4583906284
  0
ARC
  5
2BC
100
AcDbEntity
  8
RUNDUNGEN
100
AcDbCircle
 62
7
  6
CONTINUOUS
 10
245.4077285883
 20
159.1486638846
 40
5.2763759375
100
AcDbArc
 50
348.4578721612
 51
352.2551155022
  0
ARC
  5
2BD
100
AcDbEntity
  8
RUNDUNGEN
100
AcDbCircle
 62
7
  6
CONTINUOUS
 10
247.923973517
 20
159.813183689
 40
2.7121711281
100
AcDbArc
 50
0.6429876246
 51
8.1034006331
  0
ARC
  5
2BE
100
AcDbEntity
  8
RUNDUNGEN
100
AcDbCircle
 62
7
  6
CONTINUOUS
 10
248.1294031789
 20
159.8424154567
 40
2.7046668849
100
AcDbArc
 50
0.0214469947
 51
8.1028397608
  0
ARC
  5
2BF
100
AcDbEntity
  8
RUNDUNGEN
100
AcDbCircle
 62
7
  6
CONTINUOUS
 10
254.5836072739
 20
163.4406249772
 40
0.2
100
AcDbArc
 50
0.0
 51
90.0
  0
ARC
  5
2C0
100
AcDbEntity
  8
RUNDUNGEN
100
AcDbCircle
 62
7
  6
CONTINUOUS
 10
249.2828366398
 20
163.8405725749
 40
0.1999912663
100
AcDbArc
 50
217.5972046185
 51
269.9859321532
  0
ARC
  5
2C1
100
AcDbEntity
  8
RUNDUNGEN
100
AcDbCircle
 62
7
  6
CONTINUOUS
 10
78.5866349399
 20
51.9882677261
 40
5.0
100
AcDbArc
 50
194.9983532307
 51
262.0848976504
  0
ARC
  5
2C2
100
AcDbEntity
  8
RUNDUNGEN
100
AcDbCircle
 62
7
  6
CONTINUOUS
 10
78.270568392
 20
44.1959638306
 40
0.2
100
AcDbArc
 50
180.0
 51
241.108920963
  0
ARC
  5
2C3
100
AcDbEntity
  8
RUNDUNGEN
100
AcDbCircle
 62
7
  6
CONTINUOUS
 10
77.870568392
 20
46.837806708
 40
0.2
100
AcDbArc
 50
7.698093184
 51
82.0856798678
  0
ARC
  5
2C4
100
AcDbEntity
  8
RUNDUNGEN
100
AcDbCircle
 62
7
  6
CONTINUOUS
 10
75.1886416841
 20
83.9882677261
 40
6.0
100
AcDbArc
 50
195.0
 51
270.0
  0
ARC
  5
2C5
100
AcDbEntity
  8
RUNDUNGEN
100
AcDbCircle
 62
7
  6
CONTINUOUS
 10
75.1886416841
 20
83.9882677261
 40
5.0
100
AcDbArc
 50
195.0
 51
270.0
  0
ARC
  5
2C6
100
AcDbEntity
  8
RUNDUNGEN
100
AcDbCircle
 62
7
  6
CONTINUOUS
 10
59.1480089109
 20
97.4882845594
 40
1.9999964561
100
AcDbArc
 50
14.9995007501
 51
89.9998707835
  0
ARC
  5
2C7
100
AcDbEntity
  8
RUNDUNGEN
100
AcDbCircle
 62
7
  6
CONTINUOUS
 10
55.75
 20
100.4882677261
 40
1.0
100
AcDbArc
 50
180.0
 51
270.0
  0
ARC
  5
2C8
100
AcDbEntity
  8
RUNDUNGEN
100
AcDbCircle
 62
7
  6
CONTINUOUS
 10
55.75
 20
113.4882677261
 40
1.0
100
AcDbArc
 50
90.0
 51
180.0
  0
ARC
  5
2C9
100
AcDbEntity
  8
RUNDUNGEN
100
AcDbCircle
 62
7
  6
CONTINUOUS
 10
61.0724871565
 20
113.4882537998
 40
1.0
100
AcDbArc
 50
15.0000000026
 51
89.9998968471
  0
ARC
  5
2CA
100
AcDbEntity
  8
RUNDUNGEN
100
AcDbCircle
 62
7
  6
CONTINUOUS
 10
81.9816593571
 20
55.7551878602
 40
12.6300274688
100
AcDbArc
 50
288.8895623213
 51
292.4011808831
  0
ARC
  5
2CB
100
AcDbEntity
  8
RUNDUNGEN
100
AcDbCircle
 62
7
  6
CONTINUOUS
 10
83.1253438754
 20
55.664607458
 40
12.5332751162
100
AcDbArc
 50
247.5870463521
 51
251.1240164254
  0
ARC
  5
2CC
100
AcDbEntity
  8
RUNDUNGEN
100
AcDbCircle
 62
7
  6
CONTINUOUS
 10
82.570568392
 20
51.9882677261
 40
9.1
100
AcDbArc
 50
241.108920963
 51
298.891079037
  0
ARC
  5
2CD
100
AcDbEntity
  8
RUNDUNGEN
100
AcDbCircle
 62
7
  6
CONTINUOUS
 10
82.570568392
 20
51.9882677261
 40
8.9
100
AcDbArc
 50
246.8425992061
 51
293.1574007939
  0
ARC
  5
2CE
100
AcDbEntity
  8
RUNDUNGEN
100
AcDbCircle
 62
7
  6
CONTINUOUS
 10
86.5545018441
 20
51.9882677261
 40
5.0
100
AcDbArc
 50
277.9150727849
 51
350.0031599901
  0
ARC
  5
2CF
100
AcDbEntity
  8
RUNDUNGEN
100
AcDbCircle
 62
7
  6
CONTINUOUS
 10
87.270568392
 20
46.837794277
 40
0.2000004071
100
AcDbArc
 50
97.9145689293
 51
172.297434263
  0
ARC
  5
2D0
100
AcDbEntity
  8
RUNDUNGEN
100
AcDbCircle
 62
7
  6
CONTINUOUS
 10
86.870568392
 20
44.1959638306
 40
0.2
100
AcDbArc
 50
298.891079037
 51
360.0
  0
ARC
  5
2D1
100
AcDbEntity
  8
RUNDUNGEN
100
AcDbCircle
 62
7
  6
CONTINUOUS
 10
85.7388519752
 20
83.9882677261
 40
6.0
100
AcDbArc
 50
270.0
 51
350.0
  0
ARC
  5
2D2
100
AcDbEntity
  8
RUNDUNGEN
100
AcDbCircle
 62
7
  6
CONTINUOUS
 10
85.7388519752
 20
83.9882677261
 40
5.0
100
AcDbArc
 50
270.0
 51
350.0
  0
ARC
  5
2D3
100
AcDbEntity
  8
RUNDUNGEN
100
AcDbCircle
 62
7
  6
CONTINUOUS
 10
101.9985773895
 20
81.9882677562
 40
4.9999999963
100
AcDbArc
 50
90.0000000088
 51
169.9052779948
  0
ARC
  5
2D4
100
AcDbEntity
  8
RUNDUNGEN
100
AcDbCircle
 62
7
  6
CONTINUOUS
 10
103.75
 20
113.4882677261
 40
1.0
100
AcDbArc
 50
0.0
 51
90.0
  0
ARC
  5
2D5
100
AcDbEntity
  8
RUNDUNGEN
100
AcDbCircle
 62
7
  6
CONTINUOUS
 10
103.75
 20
87.9882677261
 40
1.0
100
AcDbArc
 50
270.0
 51
360.0
  0
ARC
  5
2D6
100
AcDbEntity
  8
RUNDUNGEN
100
AcDbCircle
 62
7
  6
CONTINUOUS
 10
97.0330535435
 20
113.4882448487
 40
1.0
100
AcDbArc
 50
90.0000904587
 51
170.0
  0
SPLINE
  5
2D7
100
AcDbEntity
  8
RUNDUNGEN
100
AcDbSpline
 62
7
  6
CONTINUOUS
 70
0
 71
3
 72
9
 73
5
 74
0
 42
0.0000001
 43
0.0000001
 44
0.0000000001
 40
0.0
 40
0.0
 40
0.0
 40
0.0
 40
0.4807937849
 40
1.0
 40
1.0
 40
1.0
 40
1.0
 10
97.3959550591
 20
165.6406269262
 30
0.0
 10
97.2846165756
 20
164.6033522938
 30
0.0
 10
97.1255163891
 20
162.4380142315
 30
0.0
 10
97.0745480785
 20
160.2679280384
 30
0.0
 10
97.0745386237
 20
159.1413473053
 30
0.0
  0
SPLINE
  5
2D8
100
AcDbEntity
  8
RUNDUNGEN
100
AcDbSpline
 62
7
  6
CONTINUOUS
 70
0
 71
3
 72
9
 73
5
 74
0
 42
0.0000001
 43
0.0000001
 44
0.0000000001
 40
0.0
 40
0.0
 40
0.0
 40
0.0
 40
0.519226392
 40
1.0
 40
1.0
 40
1.0
 40
1.0
 10
97.0745386237
 20
159.1413473053
 30
0.0
 10
97.0745436017
 20
158.0144727548
 30
0.0
 10
97.1254646809
 20
155.8439037439
 30
0.0
 10
97.2845962415
 20
153.6780839044
 30
0.0
 10
97.3959527969
 20
152.6406223937
 30
0.0
  0
SPLINE
  5
2D9
100
AcDbEntity
  8
RUNDUNGEN
100
AcDbSpline
 62
7
  6
CONTINUOUS
 70
0
 71
3
 72
10
 73
6
 74
0
 42
0.0000001
 43
0.0000001
 44
0.0000000001
 40
0.0
 40
0.0
 40
0.0
 40
0.0
 40
0.5284316167
 40
0.7746339897
 40
1.0
 40
1.0
 40
1.0
 40
1.0
 10
91.6065443066
 20
159.1400878394
 30
0.0
 10
91.6065342089
 20
159.7043469291
 30
0.0
 10
91.6294937879
 20
160.5318688375
 30
0.0
 10
91.7107461845
 20
161.5967083404
 30
0.0
 10
91.7674715538
 20
162.0972226176
 30
0.0
 10
91.8002540084
 20
162.3356249772
 30
0.0
  0
SPLINE
  5
2DA
100
AcDbEntity
  8
RUNDUNGEN
100
AcDbSpline
 62
7
  6
CONTINUOUS
 70
0
 71
3
 72
10
 73
6
 74
0
 42
0.0000001
 43
0.0000001
 44
0.0000000001
 40
0.0
 40
0.0
 40
0.0
 40
0.0
 40
0.2253655816
 40
0.4715644998
 40
1.0
 40
1.0
 40
1.0
 40
1.0
 10
91.8002555022
 20
155.9456249772
 30
0.0
 10
91.7674837338
 20
156.1839469196
 30
0.0
 10
91.7107721856
 20
156.6842885627
 30
0.0
 10
91.6295297458
 20
157.7487697881
 30
0.0
 10
91.6065545837
 20
158.5760137466
 30
0.0
 10
91.6065443066
 20
159.1400878394
 30
0.0
  0
LINE
  5
2DB
100
AcDbEntity
  8
RUNDUNGEN
100
AcDbLine
 62
7
  6
CONTINUOUS
 10
103.8030271407
 20
151.6445045385
 11
103.7501029849
 21
151.6455996176
  0
SPLINE
  5
2DC
100
AcDbEntity
  8
RUNDUNGEN
100
AcDbSpline
 62
7
  6
CONTINUOUS
 70
0
 71
3
 72
17
 73
13
 74
0
 42
0.0000001
 43
0.0000001
 44
0.0000000001
 40
0.0
 40
0.0
 40
0.0
 40
0.0
 40
0.1548715056
 40
0.3078644194
 40
0.457052906
 40
0.5995714745
 40
0.731326532
 40
0.8467868143
 40
0.8962769486
 40
0.9389796098
 40
0.973878287
 40
1.0
 40
1.0
 40
1.0
 40
1.0
 10
103.7501029849
 20
151.6455996176
 30
0.0
 10
103.4171471331
 20
151.6529160192
 30
0.0
 10
102.7555281143
 20
151.6835039696
 30
0.0
 10
101.7764902149
 20
151.7729991856
 30
0.0
 10
100.8280281856
 20
151.8965687734
 30
0.0
 10
99.9289967847
 20
152.0420979544
 30
0.0
 10
99.1052474865
 20
152.1967700571
 30
0.0
 10
98.480970379
 20
152.3290919892
 30
0.0
 10
98.046745147
 20
152.433269253
 30
0.0
 10
97.7825425802
 20
152.5035158164
 30
0.0
 10
97.5694294486
 20
152.5692349386
 30
0.0
 10
97.4464333764
 20
152.6159952249
 30
0.0
 10
97.3959525067
 20
152.6406326039
 30
0.0
  0
SPLINE
  5
2DD
100
AcDbEntity
  8
RUNDUNGEN
100
AcDbSpline
 62
7
  6
CONTINUOUS
 70
0
 71
3
 72
9
 73
5
 74
0
 42
0.0000001
 43
0.0000001
 44
0.0000000001
 40
0.0
 40
0.0
 40
0.0
 40
0.0
 40
0.5831901314
 40
1.0
 40
1.0
 40
1.0
 40
1.0
 10
103.7499906947
 20
151.8005416382
 30
0.0
 10
103.7561228071
 20
151.7731837337
 30
0.0
 10
103.7677827083
 20
151.7265598391
 30
0.0
 10
103.7836371066
 20
151.6809171737
 30
0.0
 10
103.7924621836
 20
151.6629271566
 30
0.0
  0
SPLINE
  5
2DE
100
AcDbEntity
  8
RUNDUNGEN
100
AcDbSpline
 62
7
  6
CONTINUOUS
 70
0
 71
3
 72
9
 73
5
 74
0
 42
0.0000001
 43
0.0000001
 44
0.0000000001
 40
0.0
 40
0.0
 40
0.0
 40
0.0
 40
0.2738707258
 40
1.0
 40
1.0
 40
1.0
 40
1.0
 10
103.7924621836
 20
151.6629271566
 30
0.0
 10
103.7933164342
 20
151.6611857571
 30
0.0
 10
103.7965243154
 20
151.6548729474
 30
0.0
 10
103.8001067527
 20
151.6487375726
 30
0.0
 10
103.8030271407
 20
151.6445045385
 30
0.0
  0
LINE
  5
2DF
100
AcDbEntity
  8
RUNDUNGEN
100
AcDbLine
 62
7
  6
CONTINUOUS
 10
103.8030267706
 20
166.6367461178
 11
103.7501095812
 21
166.6356509444
  0
SPLINE
  5
2E0
100
AcDbEntity
  8
RUNDUNGEN
100
AcDbSpline
 62
7
  6
CONTINUOUS
 70
0
 71
3
 72
17
 73
13
 74
0
 42
0.0000001
 43
0.0000001
 44
0.0000000001
 40
0.0
 40
0.0
 40
0.0
 40
0.0
 40
0.154870797
 40
0.307865318
 40
0.4570526777
 40
0.5995716172
 40
0.7313265457
 40
0.8467870109
 40
0.8962770659
 40
0.938980178
 40
0.9738784635
 40
1.0
 40
1.0
 40
1.0
 40
1.0
 10
103.7501095812
 20
166.6356509444
 30
0.0
 10
103.4171552856
 20
166.6283330577
 30
0.0
 10
102.755534784
 20
166.5977399643
 30
0.0
 10
101.7764959786
 20
166.508258996
 30
0.0
 10
100.8280337523
 20
166.384675866
 30
0.0
 10
99.9290031745
 20
166.2391550057
 30
0.0
 10
99.105252311
 20
166.084484332
 30
0.0
 10
98.4809776537
 20
165.9521536574
 30
0.0
 10
98.0467475215
 20
165.8479896402
 30
0.0
 10
97.7825517837
 20
165.7777195296
 30
0.0
 10
97.5694282891
 20
165.712035173
 30
0.0
 10
97.4464370323
 20
165.6652622862
 30
0.0
 10
97.3959606395
 20
165.6406166015
 30
0.0
  0
SPLINE
  5
2E1
100
AcDbEntity
  8
RUNDUNGEN
100
AcDbSpline
 62
7
  6
CONTINUOUS
 70
0
 71
3
 72
9
 73
5
 74
0
 42
0.0000001
 43
0.0000001
 44
0.0000000001
 40
0.0
 40
0.0
 40
0.0
 40
0.0
 40
0.1997447145
 40
1.0
 40
1.0
 40
1.0
 40
1.0
 10
103.8030267706
 20
166.6367461178
 30
0.0
 10
103.8006672279
 20
166.6333264485
 30
0.0
 10
103.7899427897
 20
166.615459168
 30
0.0
 10
103.7824332697
 20
166.5958861991
 30
0.0
 10
103.7770183123
 20
166.5801462288
 30
0.0
  0
SPLINE
  5
2E2
100
AcDbEntity
  8
RUNDUNGEN
100
AcDbSpline
 62
7
  6
CONTINUOUS
 70
0
 71
3
 72
9
 73
5
 74
0
 42
0.0000001
 43
0.0000001
 44
0.0000000001
 40
0.0
 40
0.0
 40
0.0
 40
0.0
 40
0.2305592439
 40
1.0
 40
1.0
 40
1.0
 40
1.0
 10
103.7770183123
 20
166.5801462288
 30
0.0
 10
103.775867703
 20
166.5768016861
 30
0.0
 10
103.7710273478
 20
166.5622438164
 30
0.0
 10
103.7667282841
 20
166.5475097022
 30
0.0
 10
103.7636247231
 20
166.5361212964
 30
0.0
  0
SPLINE
  5
2E3
100
AcDbEntity
  8
RUNDUNGEN
100
AcDbSpline
 62
7
  6
CONTINUOUS
 70
0
 71
3
 72
9
 73
5
 74
0
 42
0.0000001
 43
0.0000001
 44
0.0000000001
 40
0.0
 40
0.0
 40
0.0
 40
0.0
 40
0.2334107054
 40
1.0
 40
1.0
 40
1.0
 40
1.0
 10
103.7636247231
 20
166.5361212964
 30
0.0
 10
103.7624582979
 20
166.5318411408
 30
0.0
 10
103.7575888134
 20
166.5134688823
 30
0.0
 10
103.753188135
 20
166.4949742635
 30
0.0
 10
103.7500019837
 20
166.4807569695
 30
0.0
  0
SPLINE
  5
2E4
100
AcDbEntity
  8
RUNDUNGEN
100
AcDbSpline
 62
7
  6
CONTINUOUS
 70
0
 71
3
 72
15
 73
11
 74
0
 42
0.0000001
 43
0.0000001
 44
0.0000000001
 40
0.0
 40
0.0
 40
0.0
 40
0.0
 40
0.0402985689
 40
0.0852717045
 40
0.1876208211
 40
0.3037798918
 40
0.4306468441
 40
0.5656307961
 40
0.7066175459
 40
1.0
 40
1.0
 40
1.0
 40
1.0
 10
90.4937328562
 20
152.6089407439
 30
0.0
 10
90.4713540192
 20
152.6915557187
 30
0.0
 10
90.4152494513
 20
152.8640138293
 30
0.0
 10
90.2669727722
 20
153.2340827466
 30
0.0
 10
90.0208920631
 20
153.7373891246
 30
0.0
 10
89.6644983993
 20
154.3786902739
 30
0.0
 10
89.2510656322
 20
155.0670769242
 30
0.0
 10
88.7946340093
 20
155.7908159194
 30
0.0
 10
88.1345158585
 20
156.8040662136
 30
0.0
 10
87.6197713944
 20
157.5697408301
 30
0.0
 10
87.2705673528
 20
158.0858307064
 30
0.0
  0
SPLINE
  5
2E5
100
AcDbEntity
  8
RUNDUNGEN
100
AcDbSpline
 62
7
  6
CONTINUOUS
 70
0
 71
3
 72
11
 73
7
 74
0
 42
0.0000001
 43
0.0000001
 44
0.0000000001
 40
0.0
 40
0.0
 40
0.0
 40
0.0
 40
0.2184837422
 40
0.4632881237
 40
0.7267657576
 40
1.0
 40
1.0
 40
1.0
 40
1.0
 10
60.3907403184
 20
152.6406220762
 30
0.0
 10
60.5070424821
 20
153.1032988065
 30
0.0
 10
60.7084558486
 20
154.0958874941
 30
0.0
 10
60.9196998626
 20
155.6695639515
 30
0.0
 10
61.0505437831
 20
157.3718467252
 30
0.0
 10
61.0798329349
 20
158.5440043507
 30
0.0
 10
61.079865074
 20
159.1406249772
 30
0.0
  0
SPLINE
  5
2E6
100
AcDbEntity
  8
RUNDUNGEN
100
AcDbSpline
 62
7
  6
CONTINUOUS
 70
0
 71
3
 72
19
 73
15
 74
0
 42
0.0000001
 43
0.0000001
 44
0.0000000001
 40
0.0
 40
0.0
 40
0.0
 40
0.0
 40
0.0293182772
 40
0.0605863426
 40
0.0954288756
 40
0.1349459224
 40
0.1798064456
 40
0.2303548715
 40
0.2867006065
 40
0.3487720332
 40
0.4890270422
 40
0.6478962771
 40
0.8203406824
 40
1.0
 40
1.0
 40
1.0
 40
1.0
 10
56.6023194095
 20
151.6406249772
 30
0.0
 10
56.68414724
 20
151.640616808
 30
0.0
 10
56.8540644676
 20
151.6653568267
 30
0.0
 10
57.1002378119
 20
151.7735269503
 30
0.0
 10
57.3391544492
 20
151.9494692359
 30
0.0
 10
57.5699303712
 20
152.1909303807
 30
0.0
 10
57.7917433103
 20
152.4963476533
 30
0.0
 10
58.0031440787
 20
152.8640978626
 30
0.0
 10
58.2024364399
 20
153.2920324639
 30
0.0
 10
58.4599348435
 20
153.9670314074
 30
0.0
 10
58.7308758498
 20
154.9402654966
 30
0.0
 10
58.96742631
 20
156.2363724195
 30
0.0
 10
59.1148453348
 20
157.6561265536
 30
0.0
 10
59.1479926941
 20
158.6391926402
 30
0.0
 10
59.1480134214
 20
159.1406249772
 30
0.0
  0
SPLINE
  5
2E7
100
AcDbEntity
  8
RUNDUNGEN
100
AcDbSpline
 62
7
  6
CONTINUOUS
 70
0
 71
3
 72
15
 73
11
 74
0
 42
0.0000001
 43
0.0000001
 44
0.0000000001
 40
0.0
 40
0.0
 40
0.0
 40
0.0
 40
0.0416695545
 40
0.0893743562
 40
0.1986284137
 40
0.3207198379
 40
0.4507175887
 40
0.5853659697
 40
0.7225897006
 40
1.0
 40
1.0
 40
1.0
 40
1.0
 10
60.3907488388
 20
165.6406309937
 30
0.0
 10
60.347244414
 20
165.6744261939
 30
0.0
 10
60.249095509
 20
165.7406583867
 30
0.0
 10
60.0206622891
 20
165.8704161565
 30
0.0
 10
59.6853172326
 20
166.0255560797
 30
0.0
 10
59.2386642477
 20
166.1956988307
 30
0.0
 10
58.7501682974
 20
166.3477559148
 30
0.0
 10
58.2337422562
 20
166.4741557924
 30
0.0
 10
57.5183782727
 20
166.6009073888
 30
0.0
 10
56.9692419239
 20
166.64062488
 30
0.0
 10
56.6024960627
 20
166.6406233713
 30
0.0
  0
SPLINE
  5
2E8
100
AcDbEntity
  8
RUNDUNGEN
100
AcDbSpline
 62
7
  6
CONTINUOUS
 70
0
 71
3
 72
15
 73
11
 74
0
 42
0.0000001
 43
0.0000001
 44
0.0000000001
 40
0.0
 40
0.0
 40
0.0
 40
0.0
 40
0.2774074412
 40
0.4146311545
 40
0.549279485
 40
0.6792773736
 40
0.8013698215
 40
0.9106253049
 40
0.9583306843
 40
1.0
 40
1.0
 40
1.0
 40
1.0
 10
56.6021616407
 20
151.6406253801
 30
0.0
 10
56.9689329496
 20
151.6406079717
 30
0.0
 10
57.5181107656
 20
151.6803099744
 30
0.0
 10
58.2335325054
 20
151.8070461995
 30
0.0
 10
58.7500015113
 20
151.9334495271
 30
0.0
 10
59.2385414943
 20
152.0855067977
 30
0.0
 10
59.6852368609
 20
152.2556556154
 30
0.0
 10
60.0206115774
 20
152.4108113419
 30
0.0
 10
60.2490678669
 20
152.5405745284
 30
0.0
 10
60.3472293496
 20
152.6068066211
 30
0.0
 10
60.3907349704
 20
152.640606923
 30
0.0
  0
SPLINE
  5
2E9
100
AcDbEntity
  8
RUNDUNGEN
100
AcDbSpline
 62
7
  6
CONTINUOUS
 70
0
 71
3
 72
13
 73
9
 74
0
 42
0.0000001
 43
0.0000001
 44
0.0000000001
 40
0.0
 40
0.0
 40
0.0
 40
0.0
 40
0.0913500488
 40
0.1971423906
 40
0.3145099829
 40
0.4409354927
 40
0.7128425983
 40
1.0
 40
1.0
 40
1.0
 40
1.0
 10
74.7229316347
 20
152.8469444687
 30
0.0
 10
74.7858127732
 20
153.022432435
 30
0.0
 10
74.9466167431
 20
153.3920338592
 30
0.0
 10
75.2417109324
 20
153.9621414898
 30
0.0
 10
75.5962309181
 20
154.5813989993
 30
0.0
 10
76.1441755875
 20
155.4799393841
 30
0.0
 10
76.9056146764
 20
156.6536326398
 30
0.0
 10
77.5421854736
 20
157.6003739819
 30
0.0
 10
77.8705679326
 20
158.0857062302
 30
0.0
  0
SPLINE
  5
2EA
100
AcDbEntity
  8
RUNDUNGEN
100
AcDbSpline
 62
7
  6
CONTINUOUS
 70
0
 71
3
 72
19
 73
15
 74
0
 42
0.0000001
 43
0.0000001
 44
0.0000000001
 40
0.0
 40
0.0
 40
0.0
 40
0.0
 40
0.1796641455
 40
0.3521215374
 40
0.5110100924
 40
0.6512588976
 40
0.7133243181
 40
0.7696657873
 40
0.820212633
 40
0.8650728216
 40
0.9045899804
 40
0.9394319273
 40
0.9707017267
 40
1.0
 40
1.0
 40
1.0
 40
1.0
 10
59.1480134214
 20
159.1406249772
 30
0.0
 10
59.1479957429
 20
159.6420602889
 30
0.0
 10
59.1148484351
 20
160.6251559486
 30
0.0
 10
58.9674114433
 20
162.0449820404
 30
0.0
 10
58.7308528846
 20
163.3411345727
 30
0.0
 10
58.4598820092
 20
164.3143589523
 30
0.0
 10
58.2023993565
 20
164.9892981666
 30
0.0
 10
58.0031215765
 20
165.4171922605
 30
0.0
 10
57.7917314385
 20
165.7849180098
 30
0.0
 10
57.5699272627
 20
166.0903263897
 30
0.0
 10
57.3391536973
 20
166.3317754554
 30
0.0
 10
57.100244921
 20
166.507726289
 30
0.0
 10
56.85412099
 20
166.6158586086
 30
0.0
 10
56.6842663501
 20
166.6406249484
 30
0.0
 10
56.6024960627
 20
166.6406249772
 30
0.0
  0
SPLINE
  5
2EB
100
AcDbEntity
  8
RUNDUNGEN
100
AcDbSpline
 62
7
  6
CONTINUOUS
 70
0
 71
3
 72
11
 73
7
 74
0
 42
0.0000001
 43
0.0000001
 44
0.0000000001
 40
0.0
 40
0.0
 40
0.0
 40
0.0
 40
0.2732036169
 40
0.5366877534
 40
0.7815128151
 40
1.0
 40
1.0
 40
1.0
 40
1.0
 10
61.079865074
 20
159.1406249772
 30
0.0
 10
61.0798376187
 20
159.7371783222
 30
0.0
 10
61.0505381701
 20
160.9092818479
 30
0.0
 10
60.9197217818
 20
162.6115585009
 30
0.0
 10
60.7084503912
 20
164.1852968416
 30
0.0
 10
60.5070603267
 20
165.177943772
 30
0.0
 10
60.3907500599
 20
165.640625879
 30
0.0
  0
SPLINE
  5
2EC
100
AcDbEntity
  8
RUNDUNGEN
100
AcDbSpline
 62
7
  6
CONTINUOUS
 70
0
 71
3
 72
14
 73
10
 74
0
 42
0.0000001
 43
0.0000001
 44
0.0000000001
 40
0.0
 40
0.0
 40
0.0
 40
0.0
 40
0.0641384632
 40
0.138129373
 40
0.2284783697
 40
0.3386939885
 40
0.4704940876
 40
0.6246800628
 40
1.0
 40
1.0
 40
1.0
 40
1.0
 10
91.0570254469
 20
166.6406249535
 30
0.0
 10
91.0320056708
 20
166.6406136521
 30
0.0
 10
90.9777855809
 20
166.6281839217
 30
0.0
 10
90.9028599176
 20
166.5776142638
 30
0.0
 10
90.8304451293
 20
166.4978276949
 30
0.0
 10
90.7595448863
 20
166.3888440747
 30
0.0
 10
90.6898169376
 20
166.2506707737
 30
0.0
 10
90.592232959
 20
166.0116742255
 30
0.0
 10
90.5320044744
 20
165.8136271406
 30
0.0
 10
90.4937328562
 20
165.6723092104
 30
0.0
  0
SPLINE
  5
2ED
100
AcDbEntity
  8
RUNDUNGEN
100
AcDbSpline
 62
7
  6
CONTINUOUS
 70
0
 71
3
 72
14
 73
10
 74
0
 42
0.0000001
 43
0.0000001
 44
0.0000000001
 40
0.0
 40
0.0
 40
0.0
 40
0.0
 40
0.0783486297
 40
0.1633595771
 40
0.2601764338
 40
0.3721871745
 40
0.5014101887
 40
0.6489318196
 40
1.0
 40
1.0
 40
1.0
 40
1.0
 10
73.7756574183
 20
151.6406249837
 30
0.0
 10
73.8177278141
 20
151.640631531
 30
0.0
 10
73.9059095643
 20
151.6548920265
 30
0.0
 10
74.0330187983
 20
151.7163370465
 30
0.0
 10
74.1567949906
 20
151.8158105031
 30
0.0
 10
74.277583316
 20
151.9521357771
 30
0.0
 10
74.3955465762
 20
152.1248657671
 30
0.0
 10
74.5581730014
 20
152.4205691045
 30
0.0
 10
74.659343327
 20
152.6694820241
 30
0.0
 10
74.7229316347
 20
152.8469444687
 30
0.0
  0
SPLINE
  5
2EE
100
AcDbEntity
  8
RUNDUNGEN
100
AcDbSpline
 62
7
  6
CONTINUOUS
 70
0
 71
3
 72
13
 73
9
 74
0
 42
0.0000001
 43
0.0000001
 44
0.0000000001
 40
0.0
 40
0.0
 40
0.0
 40
0.0
 40
0.3393912925
 40
0.6115727431
 40
0.7246787124
 40
0.8248059958
 40
0.9151123867
 40
1.0
 40
1.0
 40
1.0
 40
1.0
 10
73.7569686142
 20
164.5952245607
 30
0.0
 10
73.6929410869
 20
164.7500790806
 30
0.0
 10
73.5639024162
 20
165.0237846922
 30
0.0
 10
73.3612945834
 20
165.3223011011
 30
0.0
 10
73.1891574943
 20
165.4902737754
 30
0.0
 10
73.0651748275
 20
165.5760683275
 30
0.0
 10
72.9385163479
 20
165.6285964673
 30
0.0
 10
72.851643363
 20
165.6406160148
 30
0.0
 10
72.8097314109
 20
165.6406249772
 30
0.0
  0
SPLINE
  5
2EF
100
AcDbEntity
  8
RUNDUNGEN
100
AcDbSpline
 62
7
  6
CONTINUOUS
 70
0
 71
3
 72
12
 73
8
 74
0
 42
0.0000001
 43
0.0000001
 44
0.0000000001
 40
0.0
 40
0.0
 40
0.0
 40
0.0
 40
0.1477963636
 40
0.248368258
 40
0.369244977
 40
0.6638491898
 40
1.0
 40
1.0
 40
1.0
 40
1.0
 10
86.070568392
 20
154.6406249772
 30
0.0
 10
86.0818052957
 20
154.6406249772
 30
0.0
 10
86.0998190102
 20
154.6523567332
 30
0.0
 10
86.1156158137
 20
154.675241773
 30
0.0
 10
86.1323417974
 20
154.7110677535
 30
0.0
 10
86.1455808763
 20
154.7670606916
 30
0.0
 10
86.1492200774
 20
154.8150675535
 30
0.0
 10
86.1492200779
 20
154.8406249772
 30
0.0
  0
SPLINE
  5
2F0
100
AcDbEntity
  8
RUNDUNGEN
100
AcDbSpline
 62
7
  6
CONTINUOUS
 70
0
 71
3
 72
12
 73
8
 74
0
 42
0.0000001
 43
0.0000001
 44
0.0000000001
 40
0.0
 40
0.0
 40
0.0
 40
0.0
 40
0.1477928981
 40
0.248364667
 40
0.3692419254
 40
0.6638476453
 40
1.0
 40
1.0
 40
1.0
 40
1.0
 10
86.070568392
 20
163.6406249772
 30
0.0
 10
86.081804982
 20
163.6406249772
 30
0.0
 10
86.0998181113
 20
163.6288928827
 30
0.0
 10
86.1156144593
 20
163.6060080566
 30
0.0
 10
86.1323403021
 20
163.5701820267
 30
0.0
 10
86.1455797414
 20
163.5141892217
 30
0.0
 10
86.1492195975
 20
163.4661824041
 30
0.0
 10
86.1492200769
 20
163.4406249772
 30
0.0
  0
SPLINE
  5
2F1
100
AcDbEntity
  8
RUNDUNGEN
100
AcDbSpline
 62
7
  6
CONTINUOUS
 70
0
 71
3
 72
12
 73
8
 74
0
 42
0.0000001
 43
0.0000001
 44
0.0000000001
 40
0.0
 40
0.0
 40
0.0
 40
0.0
 40
0.1477963708
 40
0.2483682693
 40
0.3692449911
 40
0.663849197
 40
1.0
 40
1.0
 40
1.0
 40
1.0
 10
79.070568392
 20
163.6406249772
 30
0.0
 10
79.0593314878
 20
163.6406249772
 30
0.0
 10
79.0413177733
 20
163.6288932191
 30
0.0
 10
79.0255209687
 20
163.6060081791
 30
0.0
 10
79.0087949859
 20
163.5701821981
 30
0.0
 10
78.995555907
 20
163.5141892611
 30
0.0
 10
78.9919167066
 20
163.4661824002
 30
0.0
 10
78.9919167062
 20
163.4406249772
 30
0.0
  0
SPLINE
  5
2F2
100
AcDbEntity
  8
RUNDUNGEN
100
AcDbSpline
 62
7
  6
CONTINUOUS
 70
0
 71
3
 72
14
 73
10
 74
0
 42
0.0000001
 43
0.0000001
 44
0.0000000001
 40
0.0
 40
0.0
 40
0.0
 40
0.0
 40
0.0641375695
 40
0.1381291993
 40
0.2284794148
 40
0.3386952011
 40
0.470494753
 40
0.6246800949
 40
1.0
 40
1.0
 40
1.0
 40
1.0
 10
91.0570255008
 20
151.6406249932
 30
0.0
 10
91.0320060494
 20
151.6406343005
 30
0.0
 10
90.9777850798
 20
151.6530631134
 30
0.0
 10
90.9028601034
 20
151.7036347051
 30
0.0
 10
90.8304454096
 20
151.783422436
 30
0.0
 10
90.7595448331
 20
151.892406367
 30
0.0
 10
90.6898167844
 20
152.0305793335
 30
0.0
 10
90.5922325533
 20
152.2695755283
 30
0.0
 10
90.5320041816
 20
152.4676226069
 30
0.0
 10
90.4937328562
 20
152.6089407439
 30
0.0
  0
SPLINE
  5
2F3
100
AcDbEntity
  8
RUNDUNGEN
100
AcDbSpline
 62
7
  6
CONTINUOUS
 70
0
 71
3
 72
12
 73
8
 74
0
 42
0.0000001
 43
0.0000001
 44
0.0000000001
 40
0.0
 40
0.0
 40
0.0
 40
0.0
 40
0.1477928982
 40
0.2483646671
 40
0.3692419255
 40
0.6638476453
 40
1.0
 40
1.0
 40
1.0
 40
1.0
 10
79.070568392
 20
154.6406249772
 30
0.0
 10
79.059331802
 20
154.6406249772
 30
0.0
 10
79.0413186727
 20
154.6523570717
 30
0.0
 10
79.0255223247
 20
154.6752418977
 30
0.0
 10
79.0087964819
 20
154.7110679276
 30
0.0
 10
78.9955570426
 20
154.7670607326
 30
0.0
 10
78.9919171866
 20
154.8150675502
 30
0.0
 10
78.9919167071
 20
154.8406249772
 30
0.0
  0
LINE
  5
2F4
100
AcDbEntity
  8
RUNDUNGEN
100
AcDbLine
 62
7
  6
CONTINUOUS
 10
77.8980833102
 20
158.437583412
 11
77.8705640991
 21
158.0856992846
  0
SPLINE
  5
2F5
100
AcDbEntity
  8
RUNDUNGEN
100
AcDbSpline
 62
7
  6
CONTINUOUS
 70
0
 71
3
 72
11
 73
7
 74
0
 42
0.0000001
 43
0.0000001
 44
0.0000000001
 40
0.0
 40
0.0
 40
0.0
 40
0.0
 40
0.2320957382
 40
0.4805100529
 40
0.7397855553
 40
1.0
 40
1.0
 40
1.0
 40
1.0
 10
73.7570105142
 20
153.6861018698
 30
0.0
 10
73.7738562096
 20
153.582144635
 30
0.0
 10
73.8538094462
 20
153.3729032717
 30
0.0
 10
74.0758706477
 20
153.1139809409
 30
0.0
 10
74.3748715012
 20
152.9258785812
 30
0.0
 10
74.6057327332
 20
152.8612869192
 30
0.0
 10
74.7229316345
 20
152.8469537293
 30
0.0
  0
SPLINE
  5
2F6
100
AcDbEntity
  8
RUNDUNGEN
100
AcDbSpline
 62
7
  6
CONTINUOUS
 70
0
 71
3
 72
11
 73
7
 74
0
 42
0.0000001
 43
0.0000001
 44
0.0000000001
 40
0.0
 40
0.0
 40
0.0
 40
0.0
 40
0.2540212457
 40
0.5056597483
 40
0.753985455
 40
1.0
 40
1.0
 40
1.0
 40
1.0
 10
72.8097314109
 20
152.6406249772
 30
0.0
 10
72.8097314115
 20
152.510715515
 30
0.0
 10
72.859386771
 20
152.2494001963
 30
0.0
 10
73.0731503019
 20
151.9172355092
 30
0.0
 10
73.3941187358
 20
151.6932917791
 30
0.0
 10
73.6498424962
 20
151.6406249772
 30
0.0
 10
73.7756572371
 20
151.6406249772
 30
0.0
  0
SPLINE
  5
2F7
100
AcDbEntity
  8
RUNDUNGEN
100
AcDbSpline
 62
7
  6
CONTINUOUS
 70
0
 71
3
 72
11
 73
7
 74
0
 42
0.0000001
 43
0.0000001
 44
0.0000000001
 40
0.0
 40
0.0
 40
0.0
 40
0.0
 40
0.2540211942
 40
0.5056596798
 40
0.753985409
 40
1.0
 40
1.0
 40
1.0
 40
1.0
 10
60.3907518376
 20
152.6406220762
 30
0.0
 10
60.3907522616
 20
152.5107129135
 30
0.0
 10
60.4404082423
 20
152.249398355
 30
0.0
 10
60.6541719107
 20
151.9172348302
 30
0.0
 10
60.9751398393
 20
151.6932918641
 30
0.0
 10
61.2308630326
 20
151.6406250926
 30
0.0
 10
61.3566775326
 20
151.6406249772
 30
0.0
  0
SPLINE
  5
2F8
100
AcDbEntity
  8
RUNDUNGEN
100
AcDbSpline
 62
7
  6
CONTINUOUS
 70
0
 71
3
 72
11
 73
7
 74
0
 42
0.0000001
 43
0.0000001
 44
0.0000000001
 40
0.0
 40
0.0
 40
0.0
 40
0.0
 40
0.2540211637
 40
0.5056596397
 40
0.7539853717
 40
1.0
 40
1.0
 40
1.0
 40
1.0
 10
60.3907540078
 20
165.640625879
 30
0.0
 10
60.3907539585
 20
165.7705352556
 30
0.0
 10
60.4404093448
 20
166.031850465
 30
0.0
 10
60.6541731215
 20
166.3640147913
 30
0.0
 10
60.9751415991
 20
166.5879582631
 30
0.0
 10
61.2308653314
 20
166.6406249786
 30
0.0
 10
61.3566800727
 20
166.6406249772
 30
0.0
  0
SPLINE
  5
2F9
100
AcDbEntity
  8
RUNDUNGEN
100
AcDbSpline
 62
7
  6
CONTINUOUS
 70
0
 71
3
 72
11
 73
7
 74
0
 42
0.0000001
 43
0.0000001
 44
0.0000000001
 40
0.0
 40
0.0
 40
0.0
 40
0.0
 40
0.2540212502
 40
0.505659753
 40
0.7539854579
 40
1.0
 40
1.0
 40
1.0
 40
1.0
 10
72.8097314109
 20
165.6406249772
 30
0.0
 10
72.8097314109
 20
165.7705344417
 30
0.0
 10
72.8593867706
 20
166.0318497636
 30
0.0
 10
73.0731503053
 20
166.3640144507
 30
0.0
 10
73.3941187396
 20
166.5879581767
 30
0.0
 10
73.6498424976
 20
166.6406249772
 30
0.0
 10
73.7756572372
 20
166.6406249772
 30
0.0
  0
SPLINE
  5
2FA
100
AcDbEntity
  8
RUNDUNGEN
100
AcDbSpline
 62
7
  6
CONTINUOUS
 70
0
 71
3
 72
11
 73
7
 74
0
 42
0.0000001
 43
0.0000001
 44
0.0000000001
 40
0.0
 40
0.0
 40
0.0
 40
0.0
 40
0.2320955774
 40
0.4805099236
 40
0.7397855526
 40
1.0
 40
1.0
 40
1.0
 40
1.0
 10
73.7570058085
 20
164.5951480845
 30
0.0
 10
73.7738513939
 20
164.6991057714
 30
0.0
 10
73.8538047395
 20
164.9083481966
 30
0.0
 10
74.075866911
 20
165.167271882
 30
0.0
 10
74.3748694556
 20
165.3553749532
 30
0.0
 10
74.6057321076
 20
165.4199662784
 30
0.0
 10
74.7229316348
 20
165.4342989942
 30
0.0
  0
LINE
  5
2FB
100
AcDbEntity
  8
RUNDUNGEN
100
AcDbLine
 62
7
  6
CONTINUOUS
 10
77.8705701612
 20
160.1954913091
 11
77.8980882502
 21
159.8436197156
  0
LINE
  5
2FC
100
AcDbEntity
  8
RUNDUNGEN
100
AcDbLine
 62
7
  6
CONTINUOUS
 10
87.270558086
 20
158.0858435434
 11
87.2430389972
 21
158.4377119738
  0
SPLINE
  5
2FD
100
AcDbEntity
  8
RUNDUNGEN
100
AcDbSpline
 62
7
  6
CONTINUOUS
 70
0
 71
3
 72
11
 73
7
 74
0
 42
0.0000001
 43
0.0000001
 44
0.0000000001
 40
0.0
 40
0.0
 40
0.0
 40
0.0
 40
0.2604814347
 40
0.5182469616
 40
0.7656685926
 40
1.0
 40
1.0
 40
1.0
 40
1.0
 10
90.4937328563
 20
152.6089561324
 30
0.0
 10
90.6163693243
 20
152.6182126584
 30
0.0
 10
90.8590064201
 20
152.6767908996
 30
0.0
 10
91.1715345995
 20
152.8703259297
 30
0.0
 10
91.3967133398
 20
153.1462014397
 30
0.0
 10
91.4678974231
 20
153.369705114
 30
0.0
 10
91.4785271478
 20
153.4798319745
 30
0.0
  0
SPLINE
  5
2FE
100
AcDbEntity
  8
RUNDUNGEN
100
AcDbSpline
 62
7
  6
CONTINUOUS
 70
0
 71
3
 72
11
 73
7
 74
0
 42
0.0000001
 43
0.0000001
 44
0.0000000001
 40
0.0
 40
0.0
 40
0.0
 40
0.0
 40
0.2482605022
 40
0.4975003067
 40
0.7482033348
 40
1.0
 40
1.0
 40
1.0
 40
1.0
 10
91.0570257434
 20
151.6406249772
 30
0.0
 10
91.1852007751
 20
151.6406249772
 30
0.0
 10
91.444944714
 20
151.6929213981
 30
0.0
 10
91.7721997716
 20
151.9161408295
 30
0.0
 10
91.9908791839
 20
152.2483875517
 30
0.0
 10
92.0418334952
 20
152.5106242511
 30
0.0
 10
92.0418334964
 20
152.6406249772
 30
0.0
  0
SPLINE
  5
2FF
100
AcDbEntity
  8
RUNDUNGEN
100
AcDbSpline
 62
7
  6
CONTINUOUS
 70
0
 71
3
 72
11
 73
7
 74
0
 42
0.0000001
 43
0.0000001
 44
0.0000000001
 40
0.0
 40
0.0
 40
0.0
 40
0.0
 40
0.248260517
 40
0.4975003281
 40
0.7482033501
 40
1.0
 40
1.0
 40
1.0
 40
1.0
 10
96.4111618675
 20
151.6406249772
 30
0.0
 10
96.5393366775
 20
151.6406250328
 30
0.0
 10
96.7990801284
 20
151.6929213591
 30
0.0
 10
97.12633476
 20
151.9161400992
 30
0.0
 10
97.3450142897
 20
152.2483858376
 30
0.0
 10
97.3959691198
 20
152.5106219081
 30
0.0
 10
97.3959694733
 20
152.6406223937
 30
0.0
  0
LINE
  5
300
100
AcDbEntity
  8
RUNDUNGEN
100
AcDbLine
 62
7
  6
CONTINUOUS
 10
87.2430370257
 20
159.8435205143
 11
87.2705583018
 21
160.1954115941
  0
SPLINE
  5
301
100
AcDbEntity
  8
RUNDUNGEN
100
AcDbSpline
 62
7
  6
CONTINUOUS
 70
0
 71
3
 72
11
 73
7
 74
0
 42
0.0000001
 43
0.0000001
 44
0.0000000001
 40
0.0
 40
0.0
 40
0.0
 40
0.0
 40
0.2343311682
 40
0.4817528068
 40
0.7395184821
 40
1.0
 40
1.0
 40
1.0
 40
1.0
 10
91.4785339465
 20
164.8014179795
 30
0.0
 10
91.4679048796
 20
164.9115457211
 30
0.0
 10
91.3967211752
 20
165.1350516006
 30
0.0
 10
91.1715408799
 20
165.4109297597
 30
0.0
 10
90.8590098386
 20
165.6044663509
 30
0.0
 10
90.6163704207
 20
165.6630446063
 30
0.0
 10
90.4937328563
 20
165.6723008156
 30
0.0
  0
SPLINE
  5
302
100
AcDbEntity
  8
RUNDUNGEN
100
AcDbSpline
 62
7
  6
CONTINUOUS
 70
0
 71
3
 72
11
 73
7
 74
0
 42
0.0000001
 43
0.0000001
 44
0.0000000001
 40
0.0
 40
0.0
 40
0.0
 40
0.0
 40
0.2517966613
 40
0.502499689
 40
0.7517394951
 40
1.0
 40
1.0
 40
1.0
 40
1.0
 10
92.0418334964
 20
165.6406249772
 30
0.0
 10
92.0418334948
 20
165.7706257011
 30
0.0
 10
91.990879184
 20
166.0328623978
 30
0.0
 10
91.7721997752
 20
166.36510912
 30
0.0
 10
91.4449447177
 20
166.588328555
 30
0.0
 10
91.1852007766
 20
166.6406249772
 30
0.0
 10
91.0570257436
 20
166.6406249772
 30
0.0
  0
SPLINE
  5
303
100
AcDbEntity
  8
RUNDUNGEN
100
AcDbSpline
 62
7
  6
CONTINUOUS
 70
0
 71
3
 72
11
 73
7
 74
0
 42
0.0000001
 43
0.0000001
 44
0.0000000001
 40
0.0
 40
0.0
 40
0.0
 40
0.0
 40
0.2517966515
 40
0.5024996754
 40
0.7517394874
 40
1.0
 40
1.0
 40
1.0
 40
1.0
 10
97.3959710657
 20
165.6406269262
 30
0.0
 10
97.3959707991
 20
165.7706272194
 30
0.0
 10
97.3450162983
 20
166.0328629277
 30
0.0
 10
97.1263376219
 20
166.3651084872
 30
0.0
 10
96.799083979
 20
166.5883275762
 30
0.0
 10
96.5393410835
 20
166.6406245331
 30
0.0
 10
96.4111664662
 20
166.6406249772
 30
0.0
  0
SPLINE
  5
304
100
AcDbEntity
  8
RUNDUNGEN
100
AcDbSpline
 62
7
  6
CONTINUOUS
 70
0
 71
3
 72
14
 73
10
 74
0
 42
0.0000001
 43
0.0000001
 44
0.0000000001
 40
0.0
 40
0.0
 40
0.0
 40
0.0
 40
0.0850138173
 40
0.1871325501
 40
0.3031167342
 40
0.4299557764
 40
0.5650505919
 40
0.7062397459
 40
1.0
 40
1.0
 40
1.0
 40
1.0
 10
73.7569682478
 20
153.6860201634
 30
0.0
 10
73.8391358382
 20
153.8450442009
 30
0.0
 10
74.0504600502
 20
154.1790243149
 30
0.0
 10
74.4341065442
 20
154.6892267055
 30
0.0
 10
74.8985803946
 20
155.2478991093
 30
0.0
 10
75.4259162366
 20
155.8438506502
 30
0.0
 10
76.0012826943
 20
156.4679169738
 30
0.0
 10
76.8267363774
 20
157.3392615582
 30
0.0
 10
77.4656627743
 20
157.9953901334
 30
0.0
 10
77.8981053476
 20
158.4376064681
 30
0.0
  0
SPLINE
  5
305
100
AcDbEntity
  8
RUNDUNGEN
100
AcDbSpline
 62
7
  6
CONTINUOUS
 70
0
 71
3
 72
14
 73
10
 74
0
 42
0.0000001
 43
0.0000001
 44
0.0000000001
 40
0.0
 40
0.0
 40
0.0
 40
0.0
 40
0.2937539804
 40
0.4349443247
 40
0.5700407586
 40
0.6968809101
 40
0.8128658927
 40
0.9149854928
 40
1.0
 40
1.0
 40
1.0
 40
1.0
 10
77.8981068128
 20
159.8436012671
 30
0.0
 10
77.4656714997
 20
160.2858104153
 30
0.0
 10
76.8267771235
 20
160.9419612646
 30
0.0
 10
76.0013146098
 20
161.8132952933
 30
0.0
 10
75.4259389835
 20
162.4373700789
 30
0.0
 10
74.8985971244
 20
163.0333313014
 30
0.0
 10
74.4341159126
 20
163.5920098056
 30
0.0
 10
74.0504651528
 20
164.1022189632
 30
0.0
 10
73.8391367834
 20
164.4362027029
 30
0.0
 10
73.7569686161
 20
164.5952290531
 30
0.0
  0
SPLINE
  5
306
100
AcDbEntity
  8
RUNDUNGEN
100
AcDbSpline
 62
7
  6
CONTINUOUS
 70
0
 71
3
 72
11
 73
7
 74
0
 42
0.0000001
 43
0.0000001
 44
0.0000000001
 40
0.0
 40
0.0
 40
0.0
 40
0.0
 40
0.2419248807
 40
0.4859332148
 40
0.7382694797
 40
1.0
 40
1.0
 40
1.0
 40
1.0
 10
86.1492200774
 20
163.4406249772
 30
0.0
 10
86.251037779
 20
163.4406131882
 30
0.0
 10
86.4575383169
 20
163.4025581325
 30
0.0
 10
86.7275793853
 20
163.2347741334
 30
0.0
 10
86.9199859366
 20
162.9698911065
 30
0.0
 10
86.9671799505
 20
162.7507781775
 30
0.0
 10
86.9671976055
 20
162.6406249772
 30
0.0
  0
SPLINE
  5
307
100
AcDbEntity
  8
RUNDUNGEN
100
AcDbSpline
 62
7
  6
CONTINUOUS
 70
0
 71
3
 72
11
 73
7
 74
0
 42
0.0000001
 43
0.0000001
 44
0.0000000001
 40
0.0
 40
0.0
 40
0.0
 40
0.0
 40
0.2617335917
 40
0.514068744
 40
0.7580759379
 40
1.0
 40
1.0
 40
1.0
 40
1.0
 10
86.9671976055
 20
155.6406249772
 30
0.0
 10
86.9671762412
 20
155.5304704248
 30
0.0
 10
86.9199895453
 20
155.311355704
 30
0.0
 10
86.7275769376
 20
155.0464743896
 30
0.0
 10
86.4575374223
 20
154.8786921157
 30
0.0
 10
86.2510374901
 20
154.8406364636
 30
0.0
 10
86.1492200774
 20
154.8406249772
 30
0.0
  0
SPLINE
  5
308
100
AcDbEntity
  8
RUNDUNGEN
100
AcDbSpline
 62
7
  6
CONTINUOUS
 70
0
 71
3
 72
11
 73
7
 74
0
 42
0.0000001
 43
0.0000001
 44
0.0000000001
 40
0.0
 40
0.0
 40
0.0
 40
0.0
 40
0.2419248807
 40
0.4859332148
 40
0.7382694797
 40
1.0
 40
1.0
 40
1.0
 40
1.0
 10
78.9919167066
 20
154.8406249772
 30
0.0
 10
78.890099005
 20
154.8406367661
 30
0.0
 10
78.6835984671
 20
154.8786918218
 30
0.0
 10
78.4135573987
 20
155.0464758209
 30
0.0
 10
78.2211508474
 20
155.3113588478
 30
0.0
 10
78.1739568335
 20
155.5304717768
 30
0.0
 10
78.1739391785
 20
155.6406249772
 30
0.0
  0
SPLINE
  5
309
100
AcDbEntity
  8
RUNDUNGEN
100
AcDbSpline
 62
7
  6
CONTINUOUS
 70
0
 71
3
 72
11
 73
7
 74
0
 42
0.0000001
 43
0.0000001
 44
0.0000000001
 40
0.0
 40
0.0
 40
0.0
 40
0.0
 40
0.2617335917
 40
0.514068744
 40
0.7580759379
 40
1.0
 40
1.0
 40
1.0
 40
1.0
 10
78.1739391785
 20
162.6406249772
 30
0.0
 10
78.1739605428
 20
162.7507795296
 30
0.0
 10
78.2211472387
 20
162.9698942504
 30
0.0
 10
78.4135598464
 20
163.2347755647
 30
0.0
 10
78.6835993617
 20
163.4025578386
 30
0.0
 10
78.8900992939
 20
163.4406134907
 30
0.0
 10
78.9919167066
 20
163.4406249772
 30
0.0
  0
SPLINE
  5
30A
100
AcDbEntity
  8
RUNDUNGEN
100
AcDbSpline
 62
7
  6
CONTINUOUS
 70
0
 71
3
 72
15
 73
11
 74
0
 42
0.0000001
 43
0.0000001
 44
0.0000000001
 40
0.0
 40
0.0
 40
0.0
 40
0.0
 40
0.0362770798
 40
0.0779366633
 40
0.175885732
 40
0.2903513688
 40
0.4176729865
 40
0.5546939765
 40
0.6987993633
 40
1.0
 40
1.0
 40
1.0
 40
1.0
 10
91.478577703
 20
164.8015252299
 30
0.0
 10
91.4497918676
 20
164.727819238
 30
0.0
 10
91.3770634512
 20
164.5737220558
 30
0.0
 10
91.1840614029
 20
164.2418725765
 30
0.0
 10
90.8621454375
 20
163.7896363969
 30
0.0
 10
90.3965297129
 20
163.2130062928
 30
0.0
 10
89.8533275382
 20
162.59018193
 30
0.0
 10
89.2518819772
 20
161.9328782527
 30
0.0
 10
88.3798442914
 20
161.0093040149
 30
0.0
 10
87.7023608694
 20
160.313230855
 30
0.0
 10
87.2430274158
 20
159.84351207
 30
0.0
  0
SPLINE
  5
30B
100
AcDbEntity
  8
RUNDUNGEN
100
AcDbSpline
 62
7
  6
CONTINUOUS
 70
0
 71
3
 72
15
 73
11
 74
0
 42
0.0000001
 43
0.0000001
 44
0.0000000001
 40
0.0
 40
0.0
 40
0.0
 40
0.0
 40
0.0362773695
 40
0.0779359622
 40
0.1758842749
 40
0.2903491615
 40
0.4176707207
 40
0.554691669
 40
0.6987969043
 40
1.0
 40
1.0
 40
1.0
 40
1.0
 10
91.4785884871
 20
153.479693544
 30
0.0
 10
91.4498031799
 20
153.5534006939
 30
0.0
 10
91.3770781797
 20
153.7074983857
 30
0.0
 10
91.1840806266
 20
154.039348313
 30
0.0
 10
90.8621701554
 20
154.4915840646
 30
0.0
 10
90.3965524238
 20
155.0682112703
 30
0.0
 10
89.8533522871
 20
155.6910384143
 30
0.0
 10
89.2519045067
 20
156.3483432091
 30
0.0
 10
88.3798679261
 20
157.2719309388
 30
0.0
 10
87.702366779
 20
157.967998358
 30
0.0
 10
87.243027738
 20
158.4377221396
 30
0.0
  0
SPLINE
  5
30C
100
AcDbEntity
  8
RUNDUNGEN
100
AcDbSpline
 62
7
  6
CONTINUOUS
 70
0
 71
3
 72
11
 73
7
 74
0
 42
0.0000001
 43
0.0000001
 44
0.0000000001
 40
0.0
 40
0.0
 40
0.0
 40
0.0
 40
0.2666890948
 40
0.5178068063
 40
0.7590089422
 40
1.0
 40
1.0
 40
1.0
 40
1.0
 10
78.935171818
 20
163.711029098
 30
0.0
 10
78.783617409
 20
163.6942035197
 30
0.0
 10
78.492402542
 20
163.605574967
 30
0.0
 10
78.1439650123
 20
163.3316197395
 30
0.0
 10
77.9217726098
 20
162.9658059968
 30
0.0
 10
77.8705431471
 20
162.6875079856
 30
0.0
 10
77.870568392
 20
162.5497158863
 30
0.0
  0
SPLINE
  5
30D
100
AcDbEntity
  8
RUNDUNGEN
100
AcDbSpline
 62
7
  6
CONTINUOUS
 70
0
 71
3
 72
11
 73
7
 74
0
 42
0.0000001
 43
0.0000001
 44
0.0000000001
 40
0.0
 40
0.0
 40
0.0
 40
0.0
 40
0.2477101266
 40
0.496836802
 40
0.7477927309
 40
1.0
 40
1.0
 40
1.0
 40
1.0
 10
104.7376307506
 20
152.6260945854
 30
0.0
 10
104.7192445543
 20
152.5125468689
 30
0.0
 10
104.6402716781
 20
152.2894832896
 30
0.0
 10
104.4118732669
 20
152.0185403182
 30
0.0
 10
104.1027856758
 20
151.8413767359
 30
0.0
 10
103.8671149689
 20
151.8005029729
 30
0.0
 10
103.75
 20
151.800502951
 30
0.0
  0
SPLINE
  5
30E
100
AcDbEntity
  8
RUNDUNGEN
100
AcDbSpline
 62
7
  6
CONTINUOUS
 70
0
 71
3
 72
13
 73
9
 74
0
 42
0.0000001
 43
0.0000001
 44
0.0000000001
 40
0.0
 40
0.0
 40
0.0
 40
0.0
 40
0.2871535951
 40
0.5590625365
 40
0.6854887084
 40
0.8028567197
 40
0.9086495127
 40
1.0
 40
1.0
 40
1.0
 40
1.0
 10
77.8705685935
 20
160.1954921824
 30
0.0
 10
77.5421868904
 20
160.6808205526
 30
0.0
 10
76.9056553005
 20
161.6275929471
 30
0.0
 10
76.1441910882
 20
162.8012782432
 30
0.0
 10
75.5962416867
 20
163.6998315058
 30
0.0
 10
75.2417165171
 20
164.3190954642
 30
0.0
 10
74.9466209621
 20
164.8892104514
 30
0.0
 10
74.7858136494
 20
165.2588154863
 30
0.0
 10
74.7229316347
 20
165.4343054856
 30
0.0
  0
SPLINE
  5
30F
100
AcDbEntity
  8
RUNDUNGEN
100
AcDbSpline
 62
7
  6
CONTINUOUS
 70
0
 71
3
 72
11
 73
7
 74
0
 42
0.0000001
 43
0.0000001
 44
0.0000000001
 40
0.0
 40
0.0
 40
0.0
 40
0.0
 40
0.2477102817
 40
0.4968370016
 40
0.7477928605
 40
1.0
 40
1.0
 40
1.0
 40
1.0
 10
104.7376308159
 20
165.6551574608
 30
0.0
 10
104.7192446655
 20
165.7687053552
 30
0.0
 10
104.6402718845
 20
165.9917692701
 30
0.0
 10
104.4118735008
 20
166.2627127371
 30
0.0
 10
104.102785828
 20
166.4398766598
 30
0.0
 10
103.8671150067
 20
166.4807504869
 30
0.0
 10
103.75
 20
166.480750495
 30
0.0
  0
SPLINE
  5
310
100
AcDbEntity
  8
RUNDUNGEN
100
AcDbSpline
 62
7
  6
CONTINUOUS
 70
0
 71
3
 72
14
 73
10
 74
0
 42
0.0000001
 43
0.0000001
 44
0.0000000001
 40
0.0
 40
0.0
 40
0.0
 40
0.0
 40
0.3510682394
 40
0.4985898707
 40
0.6278129165
 40
0.7398238121
 40
0.8366405999
 40
0.9216511547
 40
1.0
 40
1.0
 40
1.0
 40
1.0
 10
74.7229316347
 20
165.4343054856
 30
0.0
 10
74.659343202
 20
165.6117678922
 30
0.0
 10
74.5581728729
 20
165.8606807932
 30
0.0
 10
74.3955465217
 20
166.1563841759
 30
0.0
 10
74.2775831976
 20
166.3291142185
 30
0.0
 10
74.1567948009
 20
166.4654394667
 30
0.0
 10
74.0330187905
 20
166.564912878
 30
0.0
 10
73.905909436
 20
166.6263574176
 30
0.0
 10
73.8177279405
 20
166.6406178399
 30
0.0
 10
73.7756574346
 20
166.6406249694
 30
0.0
  0
SPLINE
  5
311
100
AcDbEntity
  8
RUNDUNGEN
100
AcDbSpline
 62
7
  6
CONTINUOUS
 70
0
 71
3
 72
13
 73
9
 74
0
 42
0.0000001
 43
0.0000001
 44
0.0000000001
 40
0.0
 40
0.0
 40
0.0
 40
0.0
 40
0.0848876131
 40
0.1751942766
 40
0.2753215916
 40
0.3884273528
 40
0.6606086913
 40
1.0
 40
1.0
 40
1.0
 40
1.0
 10
72.8097314109
 20
152.6406249772
 30
0.0
 10
72.8516433379
 20
152.640633282
 30
0.0
 10
72.9385165819
 20
152.6526529982
 30
0.0
 10
73.0651745894
 20
152.7051822644
 30
0.0
 10
73.1891573428
 20
152.7909764863
 30
0.0
 10
73.3612946372
 20
152.9589486044
 30
0.0
 10
73.5639020342
 20
153.2574648834
 30
0.0
 10
73.6929409961
 20
153.5311701008
 30
0.0
 10
73.7569682457
 20
153.6860246355
 30
0.0
  0
SPLINE
  5
312
100
AcDbEntity
  8
RUNDUNGEN
100
AcDbSpline
 62
7
  6
CONTINUOUS
 70
0
 71
3
 72
15
 73
11
 74
0
 42
0.0000001
 43
0.0000001
 44
0.0000000001
 40
0.0
 40
0.0
 40
0.0
 40
0.0
 40
0.0402984117
 40
0.0852718089
 40
0.1876207552
 40
0.3037800171
 40
0.4306470475
 40
0.5656312153
 40
0.7066183347
 40
1.0
 40
1.0
 40
1.0
 40
1.0
 10
90.4937328562
 20
165.6723092104
 30
0.0
 10
90.4713560057
 20
165.5896941045
 30
0.0
 10
90.4152470131
 20
165.4172370531
 30
0.0
 10
90.266964657
 20
165.0471712674
 30
0.0
 10
90.0208990507
 20
164.5438574384
 30
0.0
 10
89.6644984121
 20
163.9025600443
 30
0.0
 10
89.2510666466
 20
163.2141724538
 30
0.0
 10
88.7946318075
 20
162.4904344388
 30
0.0
 10
88.1345155431
 20
161.47718448
 30
0.0
 10
87.6197717405
 20
160.7115112151
 30
0.0
 10
87.270567285
 20
160.1954241606
 30
0.0
  0
SPLINE
  5
313
100
AcDbEntity
  8
RUNDUNGEN
100
AcDbSpline
 62
7
  6
CONTINUOUS
 70
0
 71
3
 72
16
 73
12
 74
0
 42
0.0000001
 43
0.0000001
 44
0.0000000001
 40
0.0
 40
0.0
 40
0.0
 40
0.0
 40
0.1681140325
 40
0.3311830113
 40
0.4845481659
 40
0.6241964188
 40
0.7469843385
 40
0.8507718453
 40
0.895248707
 40
0.9347976359
 40
1.0
 40
1.0
 40
1.0
 40
1.0
 10
101.9985773888
 20
159.1410583871
 30
0.0
 10
101.9985737267
 20
158.709052344
 30
0.0
 10
102.0200216337
 20
157.8578386392
 30
0.0
 10
102.1157922416
 20
156.6158014285
 30
0.0
 10
102.2711396101
 20
155.4534546703
 30
0.0
 10
102.4801032947
 20
154.4046721159
 30
0.0
 10
102.7353528329
 20
153.4977604606
 30
0.0
 10
102.9908412264
 20
152.8477703286
 30
0.0
 10
103.2179431981
 20
152.4209509903
 30
0.0
 10
103.4283472022
 20
152.1007334282
 30
0.0
 10
103.6136530251
 20
151.8979170593
 30
0.0
 10
103.7499995029
 20
151.8005350446
 30
0.0
  0
SPLINE
  5
314
100
AcDbEntity
  8
RUNDUNGEN
100
AcDbSpline
 62
7
  6
CONTINUOUS
 70
0
 71
3
 72
17
 73
13
 74
0
 42
0.0000001
 43
0.0000001
 44
0.0000000001
 40
0.0
 40
0.0
 40
0.0
 40
0.0
 40
0.0305459265
 40
0.0653742571
 40
0.1049162636
 40
0.1493842764
 40
0.2531512121
 40
0.3759152081
 40
0.5155474345
 40
0.668897168
 40
0.8319343237
 40
1.0
 40
1.0
 40
1.0
 40
1.0
 10
103.7500001111
 20
166.4807573797
 30
0.0
 10
103.6861121055
 20
166.4351426184
 30
0.0
 10
103.5594239473
 20
166.3232540744
 30
0.0
 10
103.3858993874
 20
166.1160065235
 30
0.0
 10
103.2179302657
 20
165.8602639427
 30
0.0
 10
102.9909994026
 20
165.4337948434
 30
0.0
 10
102.7354125151
 20
164.7837189846
 30
0.0
 10
102.4801979493
 20
163.8769584783
 30
0.0
 10
102.2712059929
 20
162.8282135731
 30
0.0
 10
102.1158564774
 20
161.6659424978
 30
0.0
 10
102.0200668524
 20
160.4240504683
 30
0.0
 10
101.998584315
 20
159.5729751844
 30
0.0
 10
101.9985773888
 20
159.1410583871
 30
0.0
  0
SPLINE
  5
315
100
AcDbEntity
  8
RUNDUNGEN
100
AcDbSpline
 62
7
  6
CONTINUOUS
 70
0
 71
3
 72
11
 73
7
 74
0
 42
0.0000001
 43
0.0000001
 44
0.0000000001
 40
0.0
 40
0.0
 40
0.0
 40
0.0
 40
0.2409787295
 40
0.4821740827
 40
0.7333027771
 40
1.0
 40
1.0
 40
1.0
 40
1.0
 10
87.270568392
 20
162.5497158863
 30
0.0
 10
87.270593731
 20
162.6875467906
 30
0.0
 10
87.2193316438
 20
162.965926769
 30
0.0
 10
86.9970123732
 20
163.3318311707
 30
0.0
 10
86.6483679723
 20
163.6057845669
 30
0.0
 10
86.3570059114
 20
163.6943342268
 30
0.0
 10
86.2053884649
 20
163.7110938773
 30
0.0
  0
SPLINE
  5
316
100
AcDbEntity
  8
RUNDUNGEN
100
AcDbSpline
 62
7
  6
CONTINUOUS
 70
0
 71
3
 72
11
 73
7
 74
0
 42
0.0000001
 43
0.0000001
 44
0.0000000001
 40
0.0
 40
0.0
 40
0.0
 40
0.0
 40
0.2409787295
 40
0.4821740827
 40
0.7333027771
 40
1.0
 40
1.0
 40
1.0
 40
1.0
 10
77.870568392
 20
155.7315340681
 30
0.0
 10
77.870543053
 20
155.5937031638
 30
0.0
 10
77.9218051402
 20
155.3153231853
 30
0.0
 10
78.1441244108
 20
154.9494187837
 30
0.0
 10
78.4927688118
 20
154.6754653874
 30
0.0
 10
78.7841308726
 20
154.5869157275
 30
0.0
 10
78.9357483191
 20
154.570156077
 30
0.0
  0
SPLINE
  5
317
100
AcDbEntity
  8
RUNDUNGEN
100
AcDbSpline
 62
7
  6
CONTINUOUS
 70
0
 71
3
 72
11
 73
7
 74
0
 42
0.0000001
 43
0.0000001
 44
0.0000000001
 40
0.0
 40
0.0
 40
0.0
 40
0.0
 40
0.2666890948
 40
0.5178068063
 40
0.7590089422
 40
1.0
 40
1.0
 40
1.0
 40
1.0
 10
86.205964966
 20
154.5702208564
 30
0.0
 10
86.357519375
 20
154.5870464347
 30
0.0
 10
86.6487342421
 20
154.6756749873
 30
0.0
 10
86.9971717717
 20
154.9496302148
 30
0.0
 10
87.2193641742
 20
155.3154439575
 30
0.0
 10
87.2705936369
 20
155.5937419687
 30
0.0
 10
87.270568392
 20
155.7315340681
 30
0.0
  0
SPLINE
  5
318
100
AcDbEntity
  8
RUNDUNGEN
100
AcDbSpline
 62
7
  6
CONTINUOUS
 70
0
 71
3
 72
13
 73
9
 74
0
 42
0.0000001
 43
0.0000001
 44
0.0000000001
 40
0.0
 40
0.0
 40
0.0
 40
0.0
 40
0.0705184044
 40
0.1493412674
 40
0.2424014851
 40
0.3532543317
 40
0.634841438
 40
1.0
 40
1.0
 40
1.0
 40
1.0
 10
92.0418334964
 20
152.6406249772
 30
0.0
 10
92.0169559986
 20
152.6406363386
 30
0.0
 10
91.963950163
 20
152.6509505239
 30
0.0
 10
91.8889449137
 20
152.6942128447
 30
0.0
 10
91.8161327428
 20
152.7633207742
 30
0.0
 10
91.712921463
 20
152.9006761935
 30
0.0
 10
91.593089968
 20
153.1414493424
 30
0.0
 10
91.5170143937
 20
153.3567517539
 30
0.0
 10
91.4785884946
 20
153.4797079679
 30
0.0
  0
SPLINE
  5
319
100
AcDbEntity
  8
RUNDUNGEN
100
AcDbSpline
 62
7
  6
CONTINUOUS
 70
0
 71
3
 72
11
 73
7
 74
0
 42
0.0000001
 43
0.0000001
 44
0.0000000001
 40
0.0
 40
0.0
 40
0.0
 40
0.0
 40
0.3311755706
 40
0.4852043776
 40
0.6247590208
 40
1.0
 40
1.0
 40
1.0
 40
1.0
 10
77.870568392
 20
162.5497158872
 30
0.0
 10
77.896152086
 20
162.5497158872
 30
0.0
 10
77.9336226272
 20
162.5528514115
 30
0.0
 10
77.9810479764
 20
162.5642286127
 30
0.0
 10
78.0281560386
 20
162.5808869561
 30
0.0
 10
78.070568392
 20
162.6116371796
 30
0.0
 10
78.070568392
 20
162.6406249771
 30
0.0
  0
SPLINE
  5
31A
100
AcDbEntity
  8
RUNDUNGEN
100
AcDbSpline
 62
7
  6
CONTINUOUS
 70
0
 71
3
 72
12
 73
8
 74
0
 42
0.0000001
 43
0.0000001
 44
0.0000000001
 40
0.0
 40
0.0
 40
0.0
 40
0.0
 40
0.3725506272
 40
0.690629908
 40
0.9062422982
 40
0.9673589267
 40
1.0
 40
1.0
 40
1.0
 40
1.0
 10
77.8705685935
 20
160.1955078293
 30
0.0
 10
77.8960580432
 20
160.195507708
 30
0.0
 10
77.9434246974
 20
160.196804338
 30
0.0
 10
78.0048856281
 20
160.2018754265
 30
0.0
 10
78.0457742856
 20
160.2092691691
 30
0.0
 10
78.0650452434
 20
160.2162417641
 30
0.0
 10
78.0705688066
 20
160.2214058053
 30
0.0
 10
78.0705683919
 20
160.2236390668
 30
0.0
  0
SPLINE
  5
31B
100
AcDbEntity
  8
RUNDUNGEN
100
AcDbSpline
 62
7
  6
CONTINUOUS
 70
0
 71
3
 72
12
 73
8
 74
0
 42
0.0000001
 43
0.0000001
 44
0.0000000001
 40
0.0
 40
0.0
 40
0.0
 40
0.0
 40
0.3725503492
 40
0.6906296612
 40
0.9062425783
 40
0.9673594174
 40
1.0
 40
1.0
 40
1.0
 40
1.0
 10
77.870568392
 20
158.085744883
 30
0.0
 10
77.896057784
 20
158.085744936
 30
0.0
 10
77.9434243598
 20
158.0844482536
 30
0.0
 10
78.0048851718
 20
158.0793773797
 30
0.0
 10
78.0457739871
 20
158.0719840527
 30
0.0
 10
78.0650449171
 20
158.0650117775
 30
0.0
 10
78.0705687356
 20
158.0598480331
 30
0.0
 10
78.070568392
 20
158.0576148086
 30
0.0
  0
SPLINE
  5
31C
100
AcDbEntity
  8
RUNDUNGEN
100
AcDbSpline
 62
7
  6
CONTINUOUS
 70
0
 71
3
 72
11
 73
7
 74
0
 42
0.0000001
 43
0.0000001
 44
0.0000000001
 40
0.0
 40
0.0
 40
0.0
 40
0.0
 40
0.3311764217
 40
0.4852057606
 40
0.6247605798
 40
1.0
 40
1.0
 40
1.0
 40
1.0
 10
77.870568392
 20
155.7315340676
 30
0.0
 10
77.8961521232
 20
155.7315339234
 30
0.0
 10
77.9336226987
 20
155.7283981928
 30
0.0
 10
77.9810481002
 20
155.7170208922
 30
0.0
 10
78.0281559847
 20
155.7003624994
 30
0.0
 10
78.070568392
 20
155.6696126219
 30
0.0
 10
78.070568392
 20
155.6406249772
 30
0.0
  0
SPLINE
  5
31D
100
AcDbEntity
  8
RUNDUNGEN
100
AcDbSpline
 62
7
  6
CONTINUOUS
 70
0
 71
3
 72
11
 73
7
 74
0
 42
0.0000001
 43
0.0000001
 44
0.0000000001
 40
0.0
 40
0.0
 40
0.0
 40
0.0
 40
0.3311756302
 40
0.4852044908
 40
0.6247591404
 40
1.0
 40
1.0
 40
1.0
 40
1.0
 10
87.270568392
 20
155.7315340676
 30
0.0
 10
87.2449846932
 20
155.7315340677
 30
0.0
 10
87.2075141437
 20
155.7283985368
 30
0.0
 10
87.1600887844
 20
155.7170213359
 30
0.0
 10
87.1129807282
 20
155.7003629864
 30
0.0
 10
87.070568392
 20
155.6696127657
 30
0.0
 10
87.070568392
 20
155.6406249772
 30
0.0
  0
SPLINE
  5
31E
100
AcDbEntity
  8
RUNDUNGEN
100
AcDbSpline
 62
7
  6
CONTINUOUS
 70
0
 71
3
 72
12
 73
8
 74
0
 42
0.0000001
 43
0.0000001
 44
0.0000000001
 40
0.0
 40
0.0
 40
0.0
 40
0.0
 40
0.3725475177
 40
0.690624638
 40
0.9062375755
 40
0.9673558949
 40
1.0
 40
1.0
 40
1.0
 40
1.0
 10
87.2705673529
 20
158.0857364884
 30
0.0
 10
87.2450781307
 20
158.0857371109
 30
0.0
 10
87.1977118619
 20
158.0844412072
 30
0.0
 10
87.1362511719
 20
158.0793698703
 30
0.0
 10
87.0953628507
 20
158.0719754676
 30
0.0
 10
87.0760915625
 20
158.0650019684
 30
0.0
 10
87.0705681145
 20
158.0598375879
 30
0.0
 10
87.070568392
 20
158.0576041202
 30
0.0
  0
SPLINE
  5
31F
100
AcDbEntity
  8
RUNDUNGEN
100
AcDbSpline
 62
7
  6
CONTINUOUS
 70
0
 71
3
 72
12
 73
8
 74
0
 42
0.0000001
 43
0.0000001
 44
0.0000000001
 40
0.0
 40
0.0
 40
0.0
 40
0.0
 40
0.3725481003
 40
0.6906261354
 40
0.9062395545
 40
0.9673575923
 40
1.0
 40
1.0
 40
1.0
 40
1.0
 10
87.270568392
 20
160.1955143352
 30
0.0
 10
87.2450790958
 20
160.1955144629
 30
0.0
 10
87.1977126746
 20
160.1968114656
 30
0.0
 10
87.1362519267
 20
160.2018829268
 30
0.0
 10
87.0953631467
 20
160.2092766222
 30
0.0
 10
87.0760919832
 20
160.2162494971
 30
0.0
 10
87.0705681543
 20
160.2214134002
 30
0.0
 10
87.070568392
 20
160.2236467548
 30
0.0
  0
SPLINE
  5
320
100
AcDbEntity
  8
RUNDUNGEN
100
AcDbSpline
 62
7
  6
CONTINUOUS
 70
0
 71
3
 72
11
 73
7
 74
0
 42
0.0000001
 43
0.0000001
 44
0.0000000001
 40
0.0
 40
0.0
 40
0.0
 40
0.0
 40
0.3311764218
 40
0.4852057608
 40
0.6247605799
 40
1.0
 40
1.0
 40
1.0
 40
1.0
 10
87.270568392
 20
162.5497158872
 30
0.0
 10
87.2449846608
 20
162.5497160314
 30
0.0
 10
87.2075140853
 20
162.5528517619
 30
0.0
 10
87.1600886839
 20
162.5642290624
 30
0.0
 10
87.1129807993
 20
162.5808874549
 30
0.0
 10
87.070568392
 20
162.6116373324
 30
0.0
 10
87.070568392
 20
162.6406249771
 30
0.0
  0
SPLINE
  5
321
100
AcDbEntity
  8
RUNDUNGEN
100
AcDbSpline
 62
7
  6
CONTINUOUS
 70
0
 71
3
 72
13
 73
9
 74
0
 42
0.0000001
 43
0.0000001
 44
0.0000000001
 40
0.0
 40
0.0
 40
0.0
 40
0.0
 40
0.0705182944
 40
0.1493396724
 40
0.242398516
 40
0.3532522933
 40
0.6348433683
 40
1.0
 40
1.0
 40
1.0
 40
1.0
 10
92.0418334964
 20
165.6406249772
 30
0.0
 10
92.0169553423
 20
165.6406113244
 30
0.0
 10
91.9639495067
 20
165.630296099
 30
0.0
 10
91.8889416066
 20
165.5870355959
 30
0.0
 10
91.8161274349
 20
165.5179263234
 30
0.0
 10
91.7129150169
 20
165.3805641365
 30
0.0
 10
91.5930829881
 20
165.1397818859
 30
0.0
 10
91.5170049208
 20
164.9244729173
 30
0.0
 10
91.4785777075
 20
164.8015140501
 30
0.0
  0
SPLINE
  5
322
100
AcDbEntity
  8
RUNDUNGEN
100
AcDbSpline
 62
7
  6
CONTINUOUS
 70
0
 71
3
 72
11
 73
7
 74
0
 42
0.0000001
 43
0.0000001
 44
0.0000000001
 40
0.0
 40
0.0
 40
0.0
 40
0.0
 40
0.2813748503
 40
0.5396450748
 40
0.7771766793
 40
1.0
 40
1.0
 40
1.0
 40
1.0
 10
246.9775623129
 20
153.6860201634
 30
0.0
 10
247.4505142919
 20
153.9312971382
 30
0.0
 10
248.3168239295
 20
154.4878293692
 30
0.0
 10
249.3759451632
 20
155.52446226
 30
0.0
 10
250.1295145558
 20
156.6700468003
 30
0.0
 10
250.436388718
 20
157.4955089346
 30
0.0
 10
250.5356206211
 20
157.9055791023
 30
0.0
  0
SPLINE
  5
323
100
AcDbEntity
  8
RUNDUNGEN
100
AcDbSpline
 62
7
  6
CONTINUOUS
 70
0
 71
3
 72
11
 73
7
 74
0
 42
0.0000001
 43
0.0000001
 44
0.0000000001
 40
0.0
 40
0.0
 40
0.0
 40
0.0
 40
0.2227994962
 40
0.4603022257
 40
0.7185711435
 40
1.0
 40
1.0
 40
1.0
 40
1.0
 10
250.5380854004
 20
160.3654084774
 30
0.0
 10
250.4394948448
 20
160.77638751
 30
0.0
 10
250.133484955
 20
161.6038424268
 30
0.0
 10
249.3798690149
 20
162.7523614997
 30
0.0
 10
248.3193977534
 20
163.7916583064
 30
0.0
 10
247.4514786573
 20
164.3494509573
 30
0.0
 10
246.9775636878
 20
164.5952290531
 30
0.0
  0
SPLINE
  5
324
100
AcDbEntity
  8
RUNDUNGEN
100
AcDbSpline
 62
7
  6
CONTINUOUS
 70
0
 71
3
 72
22
 73
18
 74
0
 42
0.0000001
 43
0.0000001
 44
0.0000000001
 40
0.0
 40
0.0
 40
0.0
 40
0.0
 40
0.1749386141
 40
0.3459395549
 40
0.5088051272
 40
0.6595974824
 40
0.7288364561
 40
0.7929394091
 40
0.8507897599
 40
0.9011748666
 40
0.9427439639
 40
0.959738706
 40
0.9739452978
 40
0.9851888524
 40
0.9933515163
 40
0.998324759
 40
1.0
 40
1.0
 40
1.0
 40
1.0
 10
250.0421245491
 20
155.6405407986
 30
0.0
 10
250.0038337084
 20
155.5780013482
 30
0.0
 10
249.9258397092
 20
155.4557076164
 30
0.0
 10
249.8049289365
 20
155.2799637515
 30
0.0
 10
249.6842395818
 20
155.1164945014
 30
0.0
 10
249.5849312198
 20
154.9903733576
 30
0.0
 10
249.5092966285
 20
154.8983630062
 30
0.0
 10
249.4576030577
 20
154.8371205679
 30
0.0
 10
249.4103660695
 20
154.7824483966
 30
0.0
 10
249.3688641896
 20
154.7353631475
 30
0.0
 10
249.3382911851
 20
154.7013338692
 30
0.0
 10
249.3179010125
 20
154.6788116198
 30
0.0
 10
249.3056561421
 20
154.6655347679
 30
0.0
 10
249.2967805524
 20
154.6555234576
 30
0.0
 10
249.288348956
 20
154.6471549649
 30
0.0
 10
249.2868198176
 20
154.6441231346
 30
0.0
 10
249.2821120375
 20
154.6404823951
 30
0.0
 10
249.2827996341
 20
154.6406249839
 30
0.0
  0
SPLINE
  5
325
100
AcDbEntity
  8
RUNDUNGEN
100
AcDbSpline
 62
7
  6
CONTINUOUS
 70
0
 71
3
 72
14
 73
10
 74
0
 42
0.0000001
 43
0.0000001
 44
0.0000000001
 40
0.0
 40
0.0
 40
0.0
 40
0.0
 40
0.0611948878
 40
0.1377241641
 40
0.2350266685
 40
0.3542125378
 40
0.4940610498
 40
0.651610126
 40
1.0
 40
1.0
 40
1.0
 40
1.0
 10
253.8665162921
 20
154.6406249772
 30
0.0
 10
253.8433608294
 20
154.6406293577
 30
0.0
 10
253.7912949621
 20
154.65727632
 30
0.0
 10
253.7234967309
 20
154.7167115665
 30
0.0
 10
253.6588275201
 20
154.8075576498
 30
0.0
 10
253.5992775581
 20
154.9290166677
 30
0.0
 10
253.5476623372
 20
155.0783156144
 30
0.0
 10
253.4922583005
 20
155.3166173992
 30
0.0
 10
253.4759329847
 20
155.5087981349
 30
0.0
 10
253.4759111694
 20
155.6406249764
 30
0.0
  0
SPLINE
  5
326
100
AcDbEntity
  8
RUNDUNGEN
100
AcDbSpline
 62
7
  6
CONTINUOUS
 70
0
 71
3
 72
22
 73
18
 74
0
 42
0.0000001
 43
0.0000001
 44
0.0000000001
 40
0.0
 40
0.0
 40
0.0
 40
0.0
 40
0.0016755813
 40
0.0066494994
 40
0.0148127478
 40
0.0260563706
 40
0.0402625291
 40
0.057256893
 40
0.0988253467
 40
0.1492097207
 40
0.207058452
 40
0.271158049
 40
0.3403948171
 40
0.4911867107
 40
0.6540539257
 40
0.8250598174
 40
1.0
 40
1.0
 40
1.0
 40
1.0
 10
249.2827996383
 20
163.6406249705
 30
0.0
 10
249.2821119175
 20
163.6407676644
 30
0.0
 10
249.2868205684
 20
163.6371263141
 30
0.0
 10
249.2883499482
 20
163.6340943505
 30
0.0
 10
249.2967820683
 20
163.6257254369
 30
0.0
 10
249.3056577083
 20
163.6157140242
 30
0.0
 10
249.3179021534
 20
163.6024372192
 30
0.0
 10
249.3382916191
 20
163.5799151254
 30
0.0
 10
249.3688638165
 20
163.5458860943
 30
0.0
 10
249.410365198
 20
163.4988020488
 30
0.0
 10
249.4576013555
 20
163.4441322836
 30
0.0
 10
249.5092931504
 20
163.3828922404
 30
0.0
 10
249.5849260586
 20
163.2908837099
 30
0.0
 10
249.6842335527
 20
163.1647623568
 30
0.0
 10
249.804925108
 20
163.0012914455
 30
0.0
 10
249.9258378301
 20
162.8255446581
 30
0.0
 10
250.0038336002
 20
162.703248749
 30
0.0
 10
250.0421248189
 20
162.6407087251
 30
0.0
  0
SPLINE
  5
327
100
AcDbEntity
  8
RUNDUNGEN
100
AcDbSpline
 62
7
  6
CONTINUOUS
 70
0
 71
3
 72
14
 73
10
 74
0
 42
0.0000001
 43
0.0000001
 44
0.0000000001
 40
0.0
 40
0.0
 40
0.0
 40
0.0
 40
0.3483944139
 40
0.5059404549
 40
0.6457894035
 40
0.7649743935
 40
0.8622763621
 40
0.9388053586
 40
1.0
 40
1.0
 40
1.0
 40
1.0
 10
253.4759111694
 20
162.640624978
 30
0.0
 10
253.4759366559
 20
162.7724535511
 30
0.0
 10
253.4922530465
 20
162.9646357935
 30
0.0
 10
253.5476659403
 20
163.202936431
 30
0.0
 10
253.5992776866
 20
163.3522350104
 30
0.0
 10
253.6588279822
 20
163.4736936533
 30
0.0
 10
253.7234973549
 20
163.5645387715
 30
0.0
 10
253.7912951835
 20
163.6239738337
 30
0.0
 10
253.8433609201
 20
163.6406206903
 30
0.0
 10
253.8665162921
 20
163.6406249772
 30
0.0
  0
SPLINE
  5
328
100
AcDbEntity
  8
RUNDUNGEN
100
AcDbSpline
 62
7
  6
CONTINUOUS
 70
0
 71
3
 72
11
 73
7
 74
0
 42
0.0000001
 43
0.0000001
 44
0.0000000001
 40
0.0
 40
0.0
 40
0.0
 40
0.0
 40
0.239992656
 40
0.4862829134
 40
0.7406582632
 40
1.0
 40
1.0
 40
1.0
 40
1.0
 10
253.8665162921
 20
163.6406249772
 30
0.0
 10
253.8904882354
 20
163.6406249772
 30
0.0
 10
253.939595315
 20
163.6297663585
 30
0.0
 10
254.0008538442
 20
163.5848310717
 30
0.0
 10
254.0409706843
 20
163.5182905337
 30
0.0
 10
254.050401888
 20
163.4665296257
 30
0.0
 10
254.0504018878
 20
163.4406249772
 30
0.0
  0
SPLINE
  5
329
100
AcDbEntity
  8
RUNDUNGEN
100
AcDbSpline
 62
7
  6
CONTINUOUS
 70
0
 71
3
 72
11
 73
7
 74
0
 42
0.0000001
 43
0.0000001
 44
0.0000000001
 40
0.0
 40
0.0
 40
0.0
 40
0.0
 40
0.2399940622
 40
0.486284677
 40
0.7406591875
 40
1.0
 40
1.0
 40
1.0
 40
1.0
 10
253.8665162921
 20
154.6406249772
 30
0.0
 10
253.8904884095
 20
154.6406249772
 30
0.0
 10
253.9395957422
 20
154.6514835725
 30
0.0
 10
254.0008545222
 20
154.6964188821
 30
0.0
 10
254.0409712873
 20
154.7629594803
 30
0.0
 10
254.0504020961
 20
154.8147203845
 30
0.0
 10
254.0504018882
 20
154.8406249772
 30
0.0
  0
SPLINE
  5
32A
100
AcDbEntity
  8
RUNDUNGEN
100
AcDbSpline
 62
7
  6
CONTINUOUS
 70
0
 71
3
 72
13
 73
9
 74
0
 42
0.0000001
 43
0.0000001
 44
0.0000000001
 40
0.0
 40
0.0
 40
0.0
 40
0.0
 40
0.339529007
 40
0.6279550544
 40
0.7457505492
 40
0.8453010909
 40
0.9284959326
 40
1.0
 40
1.0
 40
1.0
 40
1.0
 10
253.6510191221
 20
162.6406249772
 30
0.0
 10
253.6510319723
 20
162.7490485317
 30
0.0
 10
253.6738406258
 20
162.9502320354
 30
0.0
 10
253.7552394136
 20
163.1772051673
 30
0.0
 10
253.8430387813
 20
163.3135510723
 30
0.0
 10
253.9091172209
 20
163.3840849113
 30
0.0
 10
253.9779722915
 20
163.4290213221
 30
0.0
 10
254.0275681248
 20
163.4406189549
 30
0.0
 10
254.050401888
 20
163.4406249772
 30
0.0
  0
SPLINE
  5
32B
100
AcDbEntity
  8
RUNDUNGEN
100
AcDbSpline
 62
7
  6
CONTINUOUS
 70
0
 71
3
 72
13
 73
9
 74
0
 42
0.0000001
 43
0.0000001
 44
0.0000000001
 40
0.0
 40
0.0
 40
0.0
 40
0.0
 40
0.0715042128
 40
0.1546993626
 40
0.2542506102
 40
0.3720469201
 40
0.6604751944
 40
1.0
 40
1.0
 40
1.0
 40
1.0
 10
254.050401888
 20
154.8406249772
 30
0.0
 10
254.0275680844
 20
154.8406311581
 30
0.0
 10
253.9779721639
 20
154.8522286512
 30
0.0
 10
253.9091165818
 20
154.8971650913
 30
0.0
 10
253.8430383544
 20
154.9676998921
 30
0.0
 10
253.7552382223
 20
155.1040467391
 30
0.0
 10
253.6738430424
 20
155.3310203724
 30
0.0
 10
253.6510297688
 20
155.5322027924
 30
0.0
 10
253.6510191221
 20
155.6406249772
 30
0.0
  0
SPLINE
  5
32C
100
AcDbEntity
  8
RUNDUNGEN
100
AcDbSpline
 62
7
  6
CONTINUOUS
 70
0
 71
3
 72
11
 73
7
 74
0
 42
0.0000001
 43
0.0000001
 44
0.0000000001
 40
0.0
 40
0.0
 40
0.0
 40
0.0
 40
0.2701149165
 40
0.5219403173
 40
0.7632473764
 40
1.0
 40
1.0
 40
1.0
 40
1.0
 10
197.0941522974
 20
165.6406309937
 30
0.0
 10
196.521062898
 20
165.7599179071
 30
0.0
 10
195.4177216237
 20
166.008963935
 30
0.0
 10
193.7995389729
 20
166.3531544373
 30
0.0
 10
192.2333900463
 20
166.5858549078
 30
0.0
 10
191.1966794485
 20
166.6406248891
 30
0.0
 10
190.6836072739
 20
166.6406233713
 30
0.0
  0
SPLINE
  5
32D
100
AcDbEntity
  8
RUNDUNGEN
100
AcDbSpline
 62
7
  6
CONTINUOUS
 70
0
 71
3
 72
11
 73
7
 74
0
 42
0.0000001
 43
0.0000001
 44
0.0000000001
 40
0.0
 40
0.0
 40
0.0
 40
0.0
 40
0.2367534825
 40
0.4780600576
 40
0.7298849154
 40
1.0
 40
1.0
 40
1.0
 40
1.0
 10
190.6831424149
 20
151.6406253801
 30
0.0
 10
191.1962494537
 20
151.6406078701
 30
0.0
 10
192.2330295161
 20
151.6953529752
 30
0.0
 10
193.7992826121
 20
151.9280465964
 30
0.0
 10
195.4175688173
 20
152.2722533106
 30
0.0
 10
196.5209833693
 20
152.5213001665
 30
0.0
 10
197.0941074713
 20
152.640606923
 30
0.0
  0
SPLINE
  5
32E
100
AcDbEntity
  8
RUNDUNGEN
100
AcDbSpline
 62
7
  6
CONTINUOUS
 70
0
 71
3
 72
14
 73
10
 74
0
 42
0.0000001
 43
0.0000001
 44
0.0000000001
 40
0.0
 40
0.0
 40
0.0
 40
0.0
 40
0.1901535174
 40
0.3705668293
 40
0.5349461815
 40
0.6787339254
 40
0.7982319848
 40
0.8911483782
 40
1.0
 40
1.0
 40
1.0
 40
1.0
 10
246.9777024994
 20
164.5951480845
 30
0.0
 10
247.0076560405
 20
164.6446811957
 30
0.0
 10
247.0641242667
 20
164.7423928042
 30
0.0
 10
247.1396701099
 20
164.8866545913
 30
0.0
 10
247.2020485355
 20
165.0219463348
 30
0.0
 10
247.2494863213
 20
165.1427015278
 30
0.0
 10
247.2805006945
 20
165.2484617154
 30
0.0
 10
247.2972978887
 20
165.3401528963
 30
0.0
 10
247.2905743727
 20
165.4162768012
 30
0.0
 10
247.2627678906
 20
165.4342989942
 30
0.0
  0
SPLINE
  5
32F
100
AcDbEntity
  8
RUNDUNGEN
100
AcDbSpline
 62
7
  6
CONTINUOUS
 70
0
 71
3
 72
15
 73
11
 74
0
 42
0.0000001
 43
0.0000001
 44
0.0000000001
 40
0.0
 40
0.0
 40
0.0
 40
0.0
 40
0.1820838727
 40
0.3579944764
 40
0.5209463339
 40
0.6655707194
 40
0.7873644435
 40
0.838665567
 40
0.8833356794
 40
1.0
 40
1.0
 40
1.0
 40
1.0
 10
243.442426319
 20
165.6406249772
 30
0.0
 10
243.442426319
 20
165.7056214009
 30
0.0
 10
243.4392044296
 20
165.8334329598
 30
0.0
 10
243.4249432765
 20
166.0189364096
 30
0.0
 10
243.4018261977
 20
166.1900519233
 30
0.0
 10
243.3706374904
 20
166.3403684092
 30
0.0
 10
243.3379772773
 20
166.4489176482
 30
0.0
 10
243.3071342935
 20
166.5210057136
 30
0.0
 10
243.2725866473
 20
166.5861758304
 30
0.0
 10
243.2252516189
 20
166.6406249772
 30
0.0
 10
243.1836072739
 20
166.6406249772
 30
0.0
  0
SPLINE
  5
330
100
AcDbEntity
  8
RUNDUNGEN
100
AcDbSpline
 62
7
  6
CONTINUOUS
 70
0
 71
3
 72
15
 73
11
 74
0
 42
0.0000001
 43
0.0000001
 44
0.0000000001
 40
0.0
 40
0.0
 40
0.0
 40
0.0
 40
0.1820840838
 40
0.3579948708
 40
0.5209468423
 40
0.6655712918
 40
0.7873650298
 40
0.8386661291
 40
0.8833361924
 40
1.0
 40
1.0
 40
1.0
 40
1.0
 10
197.0941716726
 20
165.640625879
 30
0.0
 10
197.0941713541
 20
165.705622268
 30
0.0
 10
197.0909489515
 20
165.8334337328
 30
0.0
 10
197.0766875295
 20
166.0189370184
 30
0.0
 10
197.0535706472
 20
166.1900523877
 30
0.0
 10
197.0223821542
 20
166.3403687262
 30
0.0
 10
196.9897221522
 20
166.4489178372
 30
0.0
 10
196.9588794052
 20
166.5210058452
 30
0.0
 10
196.9243321164
 20
166.5861757396
 30
0.0
 10
196.8769975674
 20
166.6406249789
 30
0.0
 10
196.835353476
 20
166.6406249772
 30
0.0
  0
SPLINE
  5
331
100
AcDbEntity
  8
RUNDUNGEN
100
AcDbSpline
 62
7
  6
CONTINUOUS
 70
0
 71
3
 72
15
 73
11
 74
0
 42
0.0000001
 43
0.0000001
 44
0.0000000001
 40
0.0
 40
0.0
 40
0.0
 40
0.0
 40
0.1820840663
 40
0.3579947733
 40
0.5209466704
 40
0.6655710537
 40
0.7873647499
 40
0.8386658518
 40
0.8833359363
 40
1.0
 40
1.0
 40
1.0
 40
1.0
 10
197.0941635733
 20
152.6406220762
 30
0.0
 10
197.0941636364
 20
152.5756258271
 30
0.0
 10
197.0909418892
 20
152.4478146388
 30
0.0
 10
197.0766809976
 20
152.2623117487
 30
0.0
 10
197.0535642288
 20
152.0911967974
 30
0.0
 10
197.0223758787
 20
151.9408808219
 30
0.0
 10
196.9897160055
 20
151.8323319494
 30
0.0
 10
196.9588733287
 20
151.7602440996
 30
0.0
 10
196.9243260403
 20
151.6950742422
 30
0.0
 10
196.8769915596
 20
151.6406251198
 30
0.0
 10
196.8353474625
 20
151.6406249772
 30
0.0
  0
SPLINE
  5
332
100
AcDbEntity
  8
RUNDUNGEN
100
AcDbSpline
 62
7
  6
CONTINUOUS
 70
0
 71
3
 72
15
 73
11
 74
0
 42
0.0000001
 43
0.0000001
 44
0.0000000001
 40
0.0
 40
0.0
 40
0.0
 40
0.0
 40
0.1820838697
 40
0.357994468
 40
0.5209463239
 40
0.6655707101
 40
0.7873644353
 40
0.8386655597
 40
0.8833356736
 40
1.0
 40
1.0
 40
1.0
 40
1.0
 10
243.442426319
 20
152.6406249772
 30
0.0
 10
243.4424263202
 20
152.5756285542
 30
0.0
 10
243.4392044334
 20
152.4478169977
 30
0.0
 10
243.4249432824
 20
152.2623135505
 30
0.0
 10
243.4018262059
 20
152.091198038
 30
0.0
 10
243.3706374994
 20
151.9408815513
 30
0.0
 10
243.3379772861
 20
151.8323323107
 30
0.0
 10
243.3071343012
 20
151.760244244
 30
0.0
 10
243.2725866531
 20
151.6950741244
 30
0.0
 10
243.2252516209
 20
151.6406249772
 30
0.0
 10
243.1836072736
 20
151.6406249772
 30
0.0
  0
SPLINE
  5
333
100
AcDbEntity
  8
RUNDUNGEN
100
AcDbSpline
 62
7
  6
CONTINUOUS
 70
0
 71
3
 72
14
 73
10
 74
0
 42
0.0000001
 43
0.0000001
 44
0.0000000001
 40
0.0
 40
0.0
 40
0.0
 40
0.0
 40
0.1901532937
 40
0.3705663546
 40
0.5349454752
 40
0.6787330746
 40
0.7982311412
 40
0.8911477394
 40
1.0
 40
1.0
 40
1.0
 40
1.0
 10
246.9777012383
 20
153.6861018698
 30
0.0
 10
247.0076544975
 20
153.6365689592
 30
0.0
 10
247.0641221999
 20
153.5388577776
 30
0.0
 10
247.1396673741
 20
153.3945966759
 30
0.0
 10
247.2020453109
 20
153.2593056287
 30
0.0
 10
247.2494827734
 20
153.1385510231
 30
0.0
 10
247.2804971845
 20
153.0327913597
 30
0.0
 10
247.2972943694
 20
152.9411002206
 30
0.0
 10
247.2905720889
 20
152.8649767688
 30
0.0
 10
247.2627660938
 20
152.8469537293
 30
0.0
  0
SPLINE
  5
334
100
AcDbEntity
  8
RUNDUNGEN
100
AcDbSpline
 62
7
  6
CONTINUOUS
 70
0
 71
3
 72
16
 73
12
 74
0
 42
0.0000001
 43
0.0000001
 44
0.0000000001
 40
0.0
 40
0.0
 40
0.0
 40
0.0
 40
0.0422500826
 40
0.0715835238
 40
0.1078583936
 40
0.202019274
 40
0.3239925695
 40
0.4701329539
 40
0.6355482269
 40
0.8145396308
 40
1.0
 40
1.0
 40
1.0
 40
1.0
 10
104.75
 20
93.1533312982
 30
0.0
 10
104.7499999989
 20
93.1385261264
 30
0.0
 10
104.73512154
 20
93.1145439461
 30
0.0
 10
104.7054577851
 20
93.0917390382
 30
0.0
 10
104.6562970436
 20
93.0641981001
 30
0.0
 10
104.5726395125
 20
93.0345059627
 30
0.0
 10
104.4491182416
 20
93.0047049033
 30
0.0
 10
104.299080572
 20
92.9801631415
 30
0.0
 10
104.1281013609
 20
92.9618032616
 30
0.0
 10
103.9427134403
 20
92.9505139089
 30
0.0
 10
103.814988574
 20
92.9479568978
 30
0.0
 10
103.75
 20
92.9479569191
 30
0.0
  0
SPLINE
  5
335
100
AcDbEntity
  8
RUNDUNGEN
100
AcDbSpline
 62
7
  6
CONTINUOUS
 70
0
 71
3
 72
14
 73
10
 74
0
 42
0.0000001
 43
0.0000001
 44
0.0000000001
 40
0.0
 40
0.0
 40
0.0
 40
0.0
 40
0.2507816984
 40
0.3758629372
 40
0.5007475063
 40
0.6255182971
 40
0.7502736012
 40
0.8750844388
 40
1.0
 40
1.0
 40
1.0
 40
1.0
 10
103.8030267706
 20
94.0768969845
 30
0.0
 10
103.1312988055
 20
93.3847590833
 30
0.0
 10
102.1267409362
 20
92.3449046686
 30
0.0
 10
100.8385874403
 20
90.9128328059
 30
0.0
 10
99.9186054524
 20
89.8026427636
 30
0.0
 10
99.0695035474
 20
88.6380526617
 30
0.0
 10
98.3264910568
 20
87.4018123763
 30
0.0
 10
97.7354151079
 20
86.0840348803
 30
0.0
 10
97.4793883561
 20
85.1524703895
 30
0.0
 10
97.3959606395
 20
84.6793441772
 30
0.0
  0
LINE
  5
336
100
AcDbEntity
  8
RUNDUNGEN
100
AcDbLine
 62
7
  6
CONTINUOUS
 10
103.8030267706
 20
94.0768969845
 11
103.7500019837
 21
92.9479965228
  0
SPLINE
  5
337
100
AcDbEntity
  8
RUNDUNGEN
100
AcDbSpline
 62
7
  6
CONTINUOUS
 70
0
 71
3
 72
12
 73
8
 74
0
 42
0.0000001
 43
0.0000001
 44
0.0000000001
 40
0.0
 40
0.0
 40
0.0
 40
0.0
 40
0.2494702256
 40
0.3745475853
 40
0.4996417081
 40
0.7497839665
 40
1.0
 40
1.0
 40
1.0
 40
1.0
 10
61.3566800727
 20
100.836521524
 30
0.0
 10
61.1871651602
 20
101.4691693209
 30
0.0
 10
60.7717299799
 20
102.3784365191
 30
0.0
 10
60.0397140649
 20
103.4670602256
 30
0.0
 10
59.2152175895
 20
104.4917918726
 30
0.0
 10
58.064023694
 20
105.666580969
 30
0.0
 10
57.0897682441
 20
106.5476850262
 30
0.0
 10
56.6024960627
 20
106.9882677261
 30
0.0
  0
SPLINE
  5
338
100
AcDbEntity
  8
RUNDUNGEN
100
AcDbSpline
 62
7
  6
CONTINUOUS
 70
0
 71
3
 72
12
 73
8
 74
0
 42
0.0000001
 43
0.0000001
 44
0.0000000001
 40
0.0
 40
0.0
 40
0.0
 40
0.0
 40
0.3240329894
 40
0.6064450138
 40
0.7266352654
 40
0.8317848372
 40
1.0
 40
1.0
 40
1.0
 40
1.0
 10
79.070568392
 20
48.5475077202
 30
0.0
 10
78.9069058281
 20
48.5475589694
 30
0.0
 10
78.5987301347
 20
48.4995727945
 30
0.0
 10
78.2624441771
 20
48.3398224949
 30
0.0
 10
78.061898648
 20
48.1774444287
 30
0.0
 10
77.9308453004
 20
48.0289181987
 30
0.0
 10
77.8705378854
 20
47.8928032585
 30
0.0
 10
77.870568392
 20
47.8078411549
 30
0.0
  0
SPLINE
  5
339
100
AcDbEntity
  8
RUNDUNGEN
100
AcDbSpline
 62
7
  6
CONTINUOUS
 70
0
 71
3
 72
13
 73
9
 74
0
 42
0.0000001
 43
0.0000001
 44
0.0000000001
 40
0.0
 40
0.0
 40
0.0
 40
0.0
 40
0.123770905
 40
0.2476640029
 40
0.3718817949
 40
0.4965718062
 40
0.7475234136
 40
1.0
 40
1.0
 40
1.0
 40
1.0
 10
60.3907488388
 20
100.5777227026
 30
0.0
 10
60.3108666578
 20
100.8758495457
 30
0.0
 10
60.1053106892
 20
101.4604268867
 30
0.0
 10
59.7081919502
 20
102.299426337
 30
0.0
 10
59.2524422205
 20
103.1103078533
 30
0.0
 10
58.5915265041
 20
104.1674625309
 30
0.0
 10
57.7029295273
 20
105.4579236461
 30
0.0
 10
56.9700642648
 20
106.4771117428
 30
0.0
 10
56.6024960627
 20
106.9882677261
 30
0.0
  0
SPLINE
  5
33A
100
AcDbEntity
  8
RUNDUNGEN
100
AcDbSpline
 62
7
  6
CONTINUOUS
 70
0
 71
3
 72
13
 73
9
 74
0
 42
0.0000001
 43
0.0000001
 44
0.0000000001
 40
0.0
 40
0.0
 40
0.0
 40
0.0
 40
0.1065224499
 40
0.2159831597
 40
0.3295344662
 40
0.4484415594
 40
0.7066207876
 40
1.0
 40
1.0
 40
1.0
 40
1.0
 10
77.8705685935
 20
47.0628212628
 30
0.0
 10
77.7024393824
 20
47.0981220879
 30
0.0
 10
77.3663166386
 20
47.1948638875
 30
0.0
 10
76.8804636699
 20
47.4144910184
 30
0.0
 10
76.4138628428
 20
47.7119628627
 30
0.0
 10
75.8113940599
 20
48.2285555549
 30
0.0
 10
75.1515314786
 20
49.1037944119
 30
0.0
 10
74.8299811928
 20
49.9482215544
 30
0.0
 10
74.7229316347
 20
50.4091029026
 30
0.0
  0
SPLINE
  5
33B
100
AcDbEntity
  8
RUNDUNGEN
100
AcDbSpline
 62
7
  6
CONTINUOUS
 70
0
 71
3
 72
10
 73
6
 74
0
 42
0.0000001
 43
0.0000001
 44
0.0000000001
 40
0.0
 40
0.0
 40
0.0
 40
0.0
 40
0.5148169306
 40
0.7617231275
 40
1.0
 40
1.0
 40
1.0
 40
1.0
 10
87.270568392
 20
47.8078411554
 30
0.0
 10
87.2203179809
 20
47.8078412999
 30
0.0
 10
87.1418064817
 20
47.7805277107
 30
0.0
 10
87.0816624161
 20
47.700867147
 30
0.0
 10
87.070568392
 20
47.6529542495
 30
0.0
 10
87.070568392
 20
47.6296964464
 30
0.0
  0
SPLINE
  5
33C
100
AcDbEntity
  8
RUNDUNGEN
100
AcDbSpline
 62
7
  6
CONTINUOUS
 70
0
 71
3
 72
8
 73
4
 74
0
 42
0.0000001
 43
0.0000001
 44
0.0000000001
 40
0.0
 40
0.0
 40
0.0
 40
0.0
 40
1.0
 40
1.0
 40
1.0
 40
1.0
 10
87.270568392
 20
47.0628244099
 30
0.0
 10
87.2360819971
 20
47.0628244345
 30
0.0
 10
87.2005439328
 20
47.0533477242
 30
0.0
 10
87.1705682066
 20
47.0362958249
 30
0.0
  0
SPLINE
  5
33D
100
AcDbEntity
  8
RUNDUNGEN
100
AcDbSpline
 62
7
  6
CONTINUOUS
 70
0
 71
3
 72
9
 73
5
 74
0
 42
0.0000001
 43
0.0000001
 44
0.0000000001
 40
0.0
 40
0.0
 40
0.0
 40
0.0
 40
0.5010861398
 40
1.0
 40
1.0
 40
1.0
 40
1.0
 10
87.1705682066
 20
47.0362958249
 30
0.0
 10
87.1407210079
 20
47.0193170392
 30
0.0
 10
87.0892329175
 20
46.9687377151
 30
0.0
 10
87.070567875
 20
46.8989995177
 30
0.0
 10
87.070568392
 20
46.8648098531
 30
0.0
  0
LINE
  5
33E
100
AcDbEntity
  8
RUNDUNGEN
100
AcDbLine
 62
7
  6
CONTINUOUS
 10
74.7229316347
 20
50.4091029026
 11
73.77561179
 21
54.4884641111
  0
LINE
  5
33F
100
AcDbEntity
  8
RUNDUNGEN
100
AcDbLine
 62
7
  6
CONTINUOUS
 10
91.0570780117
 20
54.4886114374
 11
90.4937328562
 21
50.8021992138
  0
SPLINE
  5
340
100
AcDbEntity
  8
RUNDUNGEN
100
AcDbSpline
 62
7
  6
CONTINUOUS
 70
0
 71
3
 72
13
 73
9
 74
0
 42
0.0000001
 43
0.0000001
 44
0.0000000001
 40
0.0
 40
0.0
 40
0.0
 40
0.0
 40
0.2971973172
 40
0.5562440542
 40
0.6745984003
 40
0.787091812
 40
0.8951184544
 40
1.0
 40
1.0
 40
1.0
 40
1.0
 10
90.4937328562
 20
50.8021992138
 30
0.0
 10
90.4153465295
 20
50.2894460391
 30
0.0
 10
90.1249620521
 20
49.3444306459
 30
0.0
 10
89.450135314
 20
48.357391889
 30
0.0
 10
88.8171662311
 20
47.7782998684
 30
0.0
 10
88.3240289774
 20
47.4475523664
 30
0.0
 10
87.8079844853
 20
47.2054198873
 30
0.0
 10
87.4497149354
 20
47.100426018
 30
0.0
 10
87.270567285
 20
47.0628115999
 30
0.0
  0
SPLINE
  5
341
100
AcDbEntity
  8
RUNDUNGEN
100
AcDbSpline
 62
7
  6
CONTINUOUS
 70
0
 71
3
 72
8
 73
4
 74
0
 42
0.0000001
 43
0.0000001
 44
0.0000000001
 40
0.0
 40
0.0
 40
0.0
 40
0.0
 40
1.0
 40
1.0
 40
1.0
 40
1.0
 10
77.8705685935
 20
47.0628234857
 30
0.0
 10
77.9050560414
 20
47.0628234273
 30
0.0
 10
77.9405952245
 20
47.053346029
 30
0.0
 10
77.9705715634
 20
47.0362930772
 30
0.0
  0
SPLINE
  5
342
100
AcDbEntity
  8
RUNDUNGEN
100
AcDbSpline
 62
7
  6
CONTINUOUS
 70
0
 71
3
 72
9
 73
5
 74
0
 42
0.0000001
 43
0.0000001
 44
0.0000000001
 40
0.0
 40
0.0
 40
0.0
 40
0.0
 40
0.5010863272
 40
1.0
 40
1.0
 40
1.0
 40
1.0
 10
77.9705715634
 20
47.0362930772
 30
0.0
 10
78.0004183107
 20
47.0193138475
 30
0.0
 10
78.0519052774
 20
46.968733995
 30
0.0
 10
78.0705692937
 20
46.898995977
 30
0.0
 10
78.0705683919
 20
46.8648065102
 30
0.0
  0
SPLINE
  5
343
100
AcDbEntity
  8
RUNDUNGEN
100
AcDbSpline
 62
7
  6
CONTINUOUS
 70
0
 71
3
 72
10
 73
6
 74
0
 42
0.0000001
 43
0.0000001
 44
0.0000000001
 40
0.0
 40
0.0
 40
0.0
 40
0.0
 40
0.5148168948
 40
0.761723352
 40
1.0
 40
1.0
 40
1.0
 40
1.0
 10
77.870568392
 20
47.8078411554
 30
0.0
 10
77.9208187758
 20
47.8078411553
 30
0.0
 10
77.9993301663
 20
47.7805275343
 30
0.0
 10
78.059474275
 20
47.7008670801
 30
0.0
 10
78.070568392
 20
47.6529542165
 30
0.0
 10
78.070568392
 20
47.6296964464
 30
0.0
  0
SPLINE
  5
344
100
AcDbEntity
  8
RUNDUNGEN
100
AcDbSpline
 62
7
  6
CONTINUOUS
 70
0
 71
3
 72
12
 73
8
 74
0
 42
0.0000001
 43
0.0000001
 44
0.0000000001
 40
0.0
 40
0.0
 40
0.0
 40
0.0
 40
0.314062805
 40
0.5886511471
 40
0.7084557466
 40
0.8164750654
 40
1.0
 40
1.0
 40
1.0
 40
1.0
 10
79.0704528127
 20
48.3890753617
 30
0.0
 10
78.9280746561
 20
48.3891141453
 30
0.0
 10
78.6587596663
 20
48.3342410985
 30
0.0
 10
78.3805679447
 20
48.1624606629
 30
0.0
 10
78.2210129478
 20
47.9982693014
 30
0.0
 10
78.1149826082
 20
47.8449355867
 30
0.0
 10
78.0705627562
 20
47.7129499182
 30
0.0
 10
78.0705683955
 20
47.6297501811
 30
0.0
  0
SPLINE
  5
345
100
AcDbEntity
  8
RUNDUNGEN
100
AcDbSpline
 62
7
  6
CONTINUOUS
 70
0
 71
3
 72
18
 73
14
 74
0
 42
0.0000001
 43
0.0000001
 44
0.0000000001
 40
0.0
 40
0.0
 40
0.0
 40
0.0
 40
0.0042983713
 40
0.017070584
 40
0.0382238935
 40
0.0676655511
 40
0.1053028233
 40
0.1510274839
 40
0.2658775304
 40
0.4103036978
 40
0.5823233742
 40
0.7796828798
 40
1.0
 40
1.0
 40
1.0
 40
1.0
 10
78.070568392
 20
44.1959638306
 30
0.0
 10
78.0707980459
 20
44.1956001312
 30
0.0
 10
78.0727513309
 20
44.1953563936
 30
0.0
 10
78.0758729647
 20
44.1933768117
 30
0.0
 10
78.0818879887
 20
44.1910626711
 30
0.0
 10
78.0898770321
 20
44.1874013081
 30
0.0
 10
78.1002505874
 20
44.1829085003
 30
0.0
 10
78.1184056652
 20
44.1749387428
 30
0.0
 10
78.1464031721
 20
44.1627730955
 30
0.0
 10
78.186029204
 20
44.1456745419
 30
0.0
 10
78.2333173451
 20
44.1254861126
 30
0.0
 10
78.2876893929
 20
44.1025524834
 30
0.0
 10
78.3262836403
 20
44.0865061161
 30
0.0
 10
78.3466643657
 20
44.0780977471
 30
0.0
  0
SPLINE
  5
346
100
AcDbEntity
  8
RUNDUNGEN
100
AcDbSpline
 62
7
  6
CONTINUOUS
 70
0
 71
3
 72
12
 73
8
 74
0
 42
0.0000001
 43
0.0000001
 44
0.0000000001
 40
0.0
 40
0.0
 40
0.0
 40
0.0
 40
0.1835210644
 40
0.2915385237
 40
0.4113422081
 40
0.6859386651
 40
1.0
 40
1.0
 40
1.0
 40
1.0
 10
87.0705683885
 20
47.6297504509
 30
0.0
 10
87.070574057
 20
47.712948375
 30
0.0
 10
87.0261555405
 20
47.8449314089
 30
0.0
 10
86.9201278802
 20
47.9982630082
 30
0.0
 10
86.7605744767
 20
48.1624592009
 30
0.0
 10
86.4823784133
 20
48.3342383293
 30
0.0
 10
86.2130616589
 20
48.3891142742
 30
0.0
 10
86.0706842688
 20
48.3890753659
 30
0.0
  0
SPLINE
  5
347
100
AcDbEntity
  8
RUNDUNGEN
100
AcDbSpline
 62
7
  6
CONTINUOUS
 70
0
 71
3
 72
18
 73
14
 74
0
 42
0.0000001
 43
0.0000001
 44
0.0000000001
 40
0.0
 40
0.0
 40
0.0
 40
0.0
 40
0.2203351696
 40
0.4177028145
 40
0.5897222887
 40
0.7341424543
 40
0.8489865602
 40
0.8947102723
 40
0.9323467115
 40
0.9617865473
 40
0.9829371441
 40
0.9957058479
 40
1.0
 40
1.0
 40
1.0
 40
1.0
 10
86.7948293443
 20
44.0782452578
 30
0.0
 10
86.8151851946
 20
44.0866442833
 30
0.0
 10
86.853731601
 20
44.1026724775
 30
0.0
 10
86.908035429
 20
44.1255791785
 30
0.0
 10
86.9552628313
 20
44.1457419319
 30
0.0
 10
86.994837277
 20
44.1628167477
 30
0.0
 10
87.022798205
 20
44.1749650085
 30
0.0
 10
87.0409289518
 20
44.1829245111
 30
0.0
 10
87.05128897
 20
44.1874117319
 30
0.0
 10
87.0592657474
 20
44.1910698933
 30
0.0
 10
87.0652744702
 20
44.1933795985
 30
0.0
 10
87.0683865527
 20
44.1953599879
 30
0.0
 10
87.0703410061
 20
44.1955998581
 30
0.0
 10
87.070568392
 20
44.1959638306
 30
0.0
  0
SPLINE
  5
348
100
AcDbEntity
  8
RUNDUNGEN
100
AcDbSpline
 62
7
  6
CONTINUOUS
 70
0
 71
3
 72
16
 73
12
 74
0
 42
0.0000001
 43
0.0000001
 44
0.0000000001
 40
0.0
 40
0.0
 40
0.0
 40
0.0
 40
0.008411292
 40
0.0240920058
 40
0.0813509778
 40
0.1727592595
 40
0.295457106
 40
0.44520131
 40
0.6167033191
 40
0.8038523001
 40
1.0
 40
1.0
 40
1.0
 40
1.0
 10
104.75
 20
94.1471531277
 30
0.0
 10
104.75
 20
94.1444746937
 30
0.0
 10
104.7436741695
 20
94.1381302506
 30
0.0
 10
104.7201000322
 20
94.1291586681
 30
0.0
 10
104.6679857393
 20
94.1182416792
 30
0.0
 10
104.5826472033
 20
94.1075666024
 30
0.0
 10
104.4670174441
 20
94.0975390446
 30
0.0
 10
104.3259524292
 20
94.0891793511
 30
0.0
 10
104.1641629837
 20
94.0826925719
 30
0.0
 10
103.9875487542
 20
94.0784320691
 30
0.0
 10
103.8654951553
 20
94.0771541568
 30
0.0
 10
103.8030356654
 20
94.0769209171
 30
0.0
  0
SPLINE
  5
349
100
AcDbEntity
  8
RUNDUNGEN
100
AcDbSpline
 62
7
  6
CONTINUOUS
 70
0
 71
3
 72
12
 73
8
 74
0
 42
0.0000001
 43
0.0000001
 44
0.0000000001
 40
0.0
 40
0.0
 40
0.0
 40
0.0
 40
0.168211314
 40
0.2733587606
 40
0.39354746
 40
0.6759686879
 40
1.0
 40
1.0
 40
1.0
 40
1.0
 10
87.270568392
 20
47.8078411549
 30
0.0
 10
87.270599003
 20
47.8928012932
 30
0.0
 10
87.2102927138
 20
48.0289129799
 30
0.0
 10
87.0792438374
 20
48.1774376868
 30
0.0
 10
86.8787001719
 20
48.3398227409
 30
0.0
 10
86.5424081841
 20
48.4995692266
 30
0.0
 10
86.2342300676
 20
48.5475591936
 30
0.0
 10
86.070568392
 20
48.5475077202
 30
0.0
  0
LINE
  5
34A
100
AcDbEntity
  8
RUNDUNGEN
100
AcDbLine
 62
7
  6
CONTINUOUS
 10
103.7500001111
 20
92.9479897273
 11
101.9985773855
 21
86.9882677267
  0
SPLINE
  5
34B
100
AcDbEntity
  8
RUNDUNGEN
100
AcDbSpline
 62
7
  6
CONTINUOUS
 70
0
 71
3
 72
13
 73
9
 74
0
 42
0.0000001
 43
0.0000001
 44
0.0000000001
 40
0.0
 40
0.0
 40
0.0
 40
0.0
 40
0.2500967266
 40
0.5000304667
 40
0.6250527173
 40
0.7500562168
 40
0.8750333889
 40
1.0
 40
1.0
 40
1.0
 40
1.0
 10
103.7499938642
 20
94.1471122169
 30
0.0
 10
102.9429774099
 20
93.5376937929
 30
0.0
 10
101.3382863622
 20
92.3073286187
 30
0.0
 10
99.4846540199
 20
90.5745887909
 30
0.0
 10
98.2105822916
 20
89.0003966975
 30
0.0
 10
97.3963579888
 20
87.7163151846
 30
0.0
 10
96.7661730706
 20
86.3316244193
 30
0.0
 10
96.4989267536
 20
85.3507139228
 30
0.0
 10
96.4111664662
 20
84.853089021
 30
0.0
  0
SPLINE
  5
34C
100
AcDbEntity
  8
RUNDUNGEN
100
AcDbSpline
 62
7
  6
CONTINUOUS
 70
0
 71
3
 72
13
 73
9
 74
0
 42
0.0000001
 43
0.0000001
 44
0.0000000001
 40
0.0
 40
0.0
 40
0.0
 40
0.0
 40
0.0878599048
 40
0.1825702597
 40
0.2884781474
 40
0.4076954501
 40
0.6847865082
 40
1.0
 40
1.0
 40
1.0
 40
1.0
 10
73.7570058085
 20
50.6941725006
 30
0.0
 10
73.7652453653
 20
50.6634237896
 30
0.0
 10
73.7938997208
 20
50.602210035
 30
0.0
 10
73.8662669302
 20
50.5249227142
 30
0.0
 10
73.9653056732
 20
50.4628175878
 30
0.0
 10
74.1363657542
 20
50.3982006504
 30
0.0
 10
74.3957216509
 20
50.3672502703
 30
0.0
 10
74.6107033632
 20
50.3879311391
 30
0.0
 10
74.7229316348
 20
50.4091071094
 30
0.0
  0
SPLINE
  5
34D
100
AcDbEntity
  8
RUNDUNGEN
100
AcDbSpline
 62
7
  6
CONTINUOUS
 70
0
 71
3
 72
9
 73
5
 74
0
 42
0.0000001
 43
0.0000001
 44
0.0000000001
 40
0.0
 40
0.0
 40
0.0
 40
0.0
 40
0.5995054374
 40
1.0
 40
1.0
 40
1.0
 40
1.0
 10
77.8705701612
 20
47.0628105884
 30
0.0
 10
77.8743862966
 20
47.0559272923
 30
0.0
 10
77.8812681552
 20
47.044764952
 30
0.0
 10
77.8928802537
 20
47.0366226031
 30
0.0
 10
77.8980882502
 20
47.035901137
 30
0.0
  0
LINE
  5
34E
100
AcDbEntity
  8
RUNDUNGEN
100
AcDbLine
 62
7
  6
CONTINUOUS
 10
95.8868770121
 20
106.9879044781
 11
97.0330537797
 21
114.4882431198
  0
LINE
  5
34F
100
AcDbEntity
  8
RUNDUNGEN
100
AcDbLine
 62
7
  6
CONTINUOUS
 10
61.07249024
 20
114.4882454087
 11
62.8141531758
 21
106.9882677261
  0
SPLINE
  5
350
100
AcDbEntity
  8
RUNDUNGEN
100
AcDbSpline
 62
7
  6
CONTINUOUS
 70
0
 71
3
 72
9
 73
5
 74
0
 42
0.0000001
 43
0.0000001
 44
0.0000000001
 40
0.0
 40
0.0
 40
0.0
 40
0.0
 40
0.4004686336
 40
1.0
 40
1.0
 40
1.0
 40
1.0
 10
87.2430370257
 20
47.0358929289
 30
0.0
 10
87.2482448453
 20
47.0366157337
 30
0.0
 10
87.2598566539
 20
47.0447580917
 30
0.0
 10
87.2667413779
 20
47.0559199188
 30
0.0
 10
87.2705583018
 20
47.0628037645
 30
0.0
  0
SPLINE
  5
351
100
AcDbEntity
  8
RUNDUNGEN
100
AcDbSpline
 62
7
  6
CONTINUOUS
 70
0
 71
3
 72
13
 73
9
 74
0
 42
0.0000001
 43
0.0000001
 44
0.0000000001
 40
0.0
 40
0.0
 40
0.0
 40
0.0
 40
0.0819057574
 40
0.1721635311
 40
0.2759634245
 40
0.3954852506
 40
0.6777612832
 40
1.0
 40
1.0
 40
1.0
 40
1.0
 10
91.4785339465
 20
51.1200280131
 30
0.0
 10
91.4732519227
 20
51.0900750515
 30
0.0
 10
91.4491691804
 20
51.0289407247
 30
0.0
 10
91.3800465576
 20
50.9512210284
 30
0.0
 10
91.2817204146
 20
50.8869663494
 30
0.0
 10
91.1066705866
 20
50.8167139976
 30
0.0
 10
90.8377945545
 20
50.7756741679
 30
0.0
 10
90.6123380502
 20
50.7863427327
 30
0.0
 10
90.4937328563
 20
50.8022039525
 30
0.0
  0
LINE
  5
352
100
AcDbEntity
  8
RUNDUNGEN
100
AcDbLine
 62
7
  6
CONTINUOUS
 10
59.1480134214
 20
99.4882677261
 11
56.6024960627
 21
106.9882677261
  0
ELLIPSE
  5
353
100
AcDbEntity
  8
0
100
AcDbEllipse
 62
7
  6
CONTINUOUS
 10
71.9633283987
 20
159.1406249772
 30
0.0
 11
0.0
 21
3.195
 31
0.0
 40
0.2679491924
 41
-3.1415926536
 42
-0.0
  0
ELLIPSE
  5
354
100
AcDbEntity
  8
0
100
AcDbEllipse
 62
7
  6
CONTINUOUS
 10
67.3546022889
 20
159.1406249772
 30
0.0
 11
0.0
 21
3.195
 31
0.0
 40
0.2679491924
 41
-0.0
 42
3.1415926536
  0
ELLIPSE
  5
355
100
AcDbEntity
  8
0
100
AcDbEllipse
 62
7
  6
CONTINUOUS
 10
95.6166246676
 20
159.1406249772
 30
0.0
 11
0.0
 21
3.195
 31
0.0
 40
0.1763269807
 41
-3.1415926536
 42
0.0
  0
ENDSEC
  0
SECTION
  2
OBJECTS
  0
DICTIONARY
  5
C
100
AcDbDictionary
280
0
281
1
  3
ACAD_GROUP
350
D
  3
ACAD_MLINESTYLE
350
17
  3
ACAD_LAYOUT
350
1A
  3
ACAD_PLOTSETTINGS
350
19
  3
ACAD_PLOTSTYLENAME
350
E
  0
DICTIONARY
  5
D
102
{ACAD_REACTORS
330
C
102
}
100
AcDbDictionary
280
0
281
1
  0
ACDBDICTIONARYWDFLT
  5
E
102
{ACAD_REACTORS
330
C
102
}
100
AcDbDictionary
281
1
  3
Normal
350
F
100
AcDbDictionaryWithDefault
340
F
  0
DICTIONARY
  5
17
102
{ACAD_REACTORS
330
C
102
}
100
AcDbDictionary
280
0
281
1
  3
Standard
350
18
  0
DICTIONARY
  5
19
102
{ACAD_REACTORS
330
C
102
}
100
AcDbDictionary
281
1
  0
DICTIONARY
  5
1A
102
{ACAD_REACTORS
330
C
102
}
100
AcDbDictionary
281
1
  3
Model
350
356
  3
Layout1
350
357
  0
ACDBPLACEHOLDER
  5
F
102
{ACAD_REACTORS
330
E
102
}
  0
MLINESTYLE
  5
18
102
{ACAD_REACTORS
330
17
102
}
100
AcDbMlineStyle
  2
STANDARD
 70
0
  3

 62
256
 51
90.0
 52
90.0
 71
2
 49
0.5
 62
256
  6
BYLAYER
 49
-0.5
 62
256
  6
BYLAYER
  0
LAYOUT
  5
356
102
{ACAD_REACTORS
330
1A
102
}
100
AcDbPlotSettings
  1

  2
none_device
  4
ISO_A4_(297.00_x_210.00_MM)
  6

 40
0.0
 41
0.0
 42
0.0
 43
0.0
 44
297.0
 45
210.0
 46
0.0
 47
0.0
 48
0.0
 49
0.0
140
0.0
141
0.0
142
1.0
143
1.0
 70
1024
 72
1
 73
0
 74
0
  7

 75
0
147
1.0
148
0.0
149
0.0
100
AcDbLayout
  1
Model
 70
0
 71
0
 10
0.0
 20
0.0
 11
297.0
 21
210.0
 12
0.0
 22
0.0
 32
0.0
 14
0.0
 24
0.0
 34
0.0
 15
0.0
 25
0.0
 35
0.0
146
0.0
 13
0.0
 23
0.0
 33
0.0
 16
1.0
 26
0.0
 36
0.0
 17
0.0
 27
1.0
 37
0.0
 76
0
330
212
345
0
346
0
  0
LAYOUT
  5
357
102
{ACAD_REACTORS
330
1A
102
}
100
AcDbPlotSettings
  1

  2
none_device
  4
ISO_A4_(297.00_x_210.00_MM)
  6

 40
0.0
 41
0.0
 42
0.0
 43
0.0
 44
297.0
 45
210.0
 46
0.0
 47
0.0
 48
0.0
 49
0.0
140
0.0
141
0.0
142
1.0
143
1.0
 70
0
 72
1
 73
0
 74
0
  7

 75
0
147
1.0
148
0.0
149
0.0
100
AcDbLayout
  1
Layout1
 70
0
 71
1
 10
0.0
 20
0.0
 11
297.0
 21
210.0
 12
0.0
 22
0.0
 32
0.0
 14
0.0
 24
0.0
 34
0.0
 15
0.0
 25
0.0
 35
0.0
146
0.0
 13
0.0
 23
0.0
 33
0.0
 16
1.0
 26
0.0
 36
0.0
 17
0.0
 27
1.0
 37
0.0
 76
0
330
213
345
0
346
0
  0
ENDSEC
  0
EOF
