999
DXF file: S:\Prolink\03_Konstruktion\CAD-Plots\Internet\2D_neu\S9\s9-57_grt_sml_f3_w50.dxf
999
Pro/ENGINEER 2012230 by Parametric Technology Corporation
  0
SECTION
  2
HEADER
  9
$ACADVER
  1
AC1021
  9
$DWGCODEPAGE
  3
ANSI_1252
  9
$EXTMAX
 10
297.0
 20
210.0
 30
0.0
  9
$EXTMIN
 10
0.0
 20
0.0
 30
0.0
  9
$LIMMIN
 10
0.0
 20
0.0
  9
$LIMMAX
 10
297.0
 20
210.0
  9
$VIEWCTR
 10
148.5
 20
105.0
  9
$VIEWSIZE
 40
210.0
  9
$CLAYER
  8
0
  9
$LTSCALE
 40
16.335
  9
$CELTYPE
  6
BYLAYER
  9
$DIMSCALE
 40
1.0
  9
$DIMASZ
 40
3.5
  9
$DIMEXO
 40
0.0
  9
$DIMDLI
 40
11.286
  9
$DIMEXE
 40
1.5
  9
$DIMCEN
 40
2.673
  9
$DIMLFAC
 40
1.0
  9
$DIMBLK
  1
_FILLED
  9
$DIMTXT
 40
3.5
  9
$DIMTOL
 70
1
  9
$DIMLIM
 70
0
  9
$DIMTFAC
 40
1.0
  9
$DIMTP
 40
0.005
  9
$DIMTM
 40
0.005
  9
$DIMGAP
 40
0.625
  9
$DIMDSEP
 70
46
  9
$PDMODE
 70
3
  9
$PDSIZE
 40
0.3125
  9
$HANDSEED
  5
358
  9
$TILEMODE
 70
1
  9
$MEASUREMENT
 70
1
  9
$INSUNITS
 70
4
  0
ENDSEC
  0
SECTION
  2
CLASSES
  0
CLASS
  1
ACDBDICTIONARYWDFLT
  2
AcDbDictionaryWithDefault
  3
AutoCAD 2000
 90
0
 91
1
280
0
281
0
  0
CLASS
  1
ACDBPLACEHOLDER
  2
AcDbPlaceHolder
  3
AutoCAD 2000
 90
0
 91
1
280
0
281
0
  0
CLASS
  1
LAYOUT
  2
AcDbLayout
  3
AutoCAD 2000
 90
0
 91
0
280
0
281
0
  0
ENDSEC
  0
SECTION
  2
TABLES
  0
TABLE
  2
VPORT
  5
8
100
AcDbSymbolTable
 70
2
  0
VPORT
  5
1F4
100
AcDbSymbolTableRecord
100
AcDbViewportTableRecord
  2
*ACTIVE
 70
0
 10
0.0
 20
0.0
 11
1.0
 21
1.0
 12
148.5
 22
105.0
 13
0.0
 23
0.0
 14
1.0
 24
1.0
 15
0.0
 25
0.0
 16
0.0
 26
0.0
 36
1.0
 17
0.0
 27
0.0
 37
0.0
 40
210.0
 41
1.4142857143
 42
50.0
 43
0.0
 44
0.0
 50
0.0
 51
0.0
 71
0
 72
100
 73
1
 74
1
 75
0
 76
0
 77
0
 78
0
  0
ENDTAB
  0
TABLE
  2
LTYPE
  5
5
100
AcDbSymbolTable
 70
6
  0
LTYPE
  5
14
100
AcDbSymbolTableRecord
100
AcDbLinetypeTableRecord
  2
BYBLOCK
 70
0
  3

 72
65
 73
0
 40
0.0
  0
LTYPE
  5
15
100
AcDbSymbolTableRecord
100
AcDbLinetypeTableRecord
  2
BYLAYER
 70
0
  3

 72
65
 73
0
 40
0.0
  0
LTYPE
  5
16
100
AcDbSymbolTableRecord
100
AcDbLinetypeTableRecord
  2
CONTINUOUS
 70
64
  3
Solid line
 72
65
 73
0
 40
0.0
  0
LTYPE
  5
1F5
100
AcDbSymbolTableRecord
100
AcDbLinetypeTableRecord
  2
CENTER
 70
64
  3
____ _ ____ _ ____ _ ____ _ ____ _ ____ _ ____
 72
65
 73
4
 40
0.6
 49
0.375
 74
0
 49
-0.075
 74
0
 49
0.075
 74
0
 49
-0.075
 74
0
  0
LTYPE
  5
1F6
100
AcDbSymbolTableRecord
100
AcDbLinetypeTableRecord
  2
HIDDEN
 70
64
  3
- - - - - - - - - - - - - - - - - - - -
 72
65
 73
2
 40
0.2
 49
0.1
 74
0
 49
-0.1
 74
0
  0
LTYPE
  5
1F7
100
AcDbSymbolTableRecord
100
AcDbLinetypeTableRecord
  2
PHANTOM
 70
64
  3
_____ _ _ _____ _ _ _____ _ _ _____
 72
65
 73
6
 40
0.8
 49
0.45
 74
0
 49
-0.05
 74
0
 49
0.1
 74
0
 49
-0.05
 74
0
 49
0.1
 74
0
 49
-0.05
 74
0
  0
LTYPE
  5
1F8
100
AcDbSymbolTableRecord
100
AcDbLinetypeTableRecord
  2
DOT
 70
64
  3
. . . . . . . . . . . . . . . . . . . .
 72
65
 73
2
 40
0.2
 49
0.1
 74
0
 49
-0.1
 74
0
  0
LTYPE
  5
1F9
100
AcDbSymbolTableRecord
100
AcDbLinetypeTableRecord
  2
DASHED
 70
64
  3
- - - - - - - - - - - - - - - - - - - -
 72
65
 73
2
 40
0.2
 49
0.1
 74
0
 49
-0.1
 74
0
  0
ENDTAB
  0
TABLE
  2
LAYER
  5
2
100
AcDbSymbolTable
 70
36
  0
LAYER
  5
10
100
AcDbSymbolTableRecord
100
AcDbLayerTableRecord
  2
0
 70
0
 62
7
  6
CONTINUOUS
370
-3
390
F
  0
LAYER
  5
1FA
100
AcDbSymbolTableRecord
100
AcDbLayerTableRecord
  2
DEFAULT_1
 70
0
 62
7
  6
CENTER
370
-3
390
F
  0
LAYER
  5
1FB
100
AcDbSymbolTableRecord
100
AcDbLayerTableRecord
  2
DEFAULT_2
 70
0
 62
8
  6
HIDDEN
370
-3
390
F
  0
LAYER
  5
1FC
100
AcDbSymbolTableRecord
100
AcDbLayerTableRecord
  2
DEFAULT_3
 70
0
 62
7
  6
PHANTOM
370
-3
390
F
  0
LAYER
  5
1FD
100
AcDbSymbolTableRecord
100
AcDbLayerTableRecord
  2
01___PRT_ALL_DTM_PLN
 70
0
 62
7
  6
CONTINUOUS
370
-3
390
F
  0
LAYER
  5
1FE
100
AcDbSymbolTableRecord
100
AcDbLayerTableRecord
  2
01___PRT_DEF_DTM_PLN
 70
0
 62
7
  6
CONTINUOUS
370
-3
390
F
  0
LAYER
  5
1FF
100
AcDbSymbolTableRecord
100
AcDbLayerTableRecord
  2
02___PRT_ALL_AXES
 70
0
 62
7
  6
CONTINUOUS
370
-3
390
F
  0
LAYER
  5
200
100
AcDbSymbolTableRecord
100
AcDbLayerTableRecord
  2
03___PRT_ALL_CURVES
 70
0
 62
7
  6
CONTINUOUS
370
-3
390
F
  0
LAYER
  5
201
100
AcDbSymbolTableRecord
100
AcDbLayerTableRecord
  2
04___PRT_ALL_DTM_PNT
 70
0
 62
7
  6
CONTINUOUS
370
-3
390
F
  0
LAYER
  5
202
100
AcDbSymbolTableRecord
100
AcDbLayerTableRecord
  2
05___PRT_ALL_DTM_CSYS
 70
0
 62
7
  6
CONTINUOUS
370
-3
390
F
  0
LAYER
  5
203
100
AcDbSymbolTableRecord
100
AcDbLayerTableRecord
  2
05___PRT_DEF_DTM_CSYS
 70
0
 62
7
  6
CONTINUOUS
370
-3
390
F
  0
LAYER
  5
204
100
AcDbSymbolTableRecord
100
AcDbLayerTableRecord
  2
06___PRT_ALL_SURFS
 70
0
 62
7
  6
CONTINUOUS
370
-3
390
F
  0
LAYER
  5
205
100
AcDbSymbolTableRecord
100
AcDbLayerTableRecord
  2
ALLE
 70
0
 62
7
  6
CONTINUOUS
370
-3
390
F
  0
LAYER
  5
206
100
AcDbSymbolTableRecord
100
AcDbLayerTableRecord
  2
AUSFORMSCHRAEGEN
 70
0
 62
7
  6
CONTINUOUS
370
-3
390
F
  0
LAYER
  5
207
100
AcDbSymbolTableRecord
100
AcDbLayerTableRecord
  2
BEZUGSACHSEN
 70
0
 62
7
  6
CONTINUOUS
370
-3
390
F
  0
LAYER
  5
208
100
AcDbSymbolTableRecord
100
AcDbLayerTableRecord
  2
BEZUGSEBENE
 70
0
 62
7
  6
CONTINUOUS
370
-3
390
F
  0
LAYER
  5
209
100
AcDbSymbolTableRecord
100
AcDbLayerTableRecord
  2
BEZUGSEBENEN
 70
0
 62
7
  6
CONTINUOUS
370
-3
390
F
  0
LAYER
  5
20A
100
AcDbSymbolTableRecord
100
AcDbLayerTableRecord
  2
BEZUGSEBENEN-KES
 70
0
 62
7
  6
CONTINUOUS
370
-3
390
F
  0
LAYER
  5
20B
100
AcDbSymbolTableRecord
100
AcDbLayerTableRecord
  2
FLAECHEN
 70
0
 62
7
  6
CONTINUOUS
370
-3
390
F
  0
LAYER
  5
20C
100
AcDbSymbolTableRecord
100
AcDbLayerTableRecord
  2
KURVEN
 70
0
 62
7
  6
CONTINUOUS
370
-3
390
F
  0
LAYER
  5
20D
100
AcDbSymbolTableRecord
100
AcDbLayerTableRecord
  2
PARAMETER-BEMAßUNGEN
 70
0
 62
7
  6
CONTINUOUS
370
-3
390
F
  0
LAYER
  5
20E
100
AcDbSymbolTableRecord
100
AcDbLayerTableRecord
  2
RUNDUNGEN
 70
0
 62
7
  6
CONTINUOUS
370
-3
390
F
  0
LAYER
  5
20F
100
AcDbSymbolTableRecord
100
AcDbLayerTableRecord
  2
SAMMELFLÄCHEN
 70
0
 62
7
  6
CONTINUOUS
370
-3
390
F
  0
ENDTAB
  0
TABLE
  2
STYLE
  5
3
100
AcDbSymbolTable
 70
1
  0
STYLE
  5
11
100
AcDbSymbolTableRecord
100
AcDbTextStyleTableRecord
  2
STANDARD
 70
0
 40
0.0
 41
0.7
 50
0.0
 71
0
 42
0.2
  3
txt
  4

  0
STYLE
  5
210
100
AcDbSymbolTableRecord
100
AcDbTextStyleTableRecord
  2
TEXTSTYLE_1
 70
0
 40
0.0
 41
0.8
 50
0.0
 71
0
 42
0.2
  3
gdt
  4

  0
ENDTAB
  0
TABLE
  2
VIEW
  5
6
100
AcDbSymbolTable
 70
0
  0
ENDTAB
  0
TABLE
  2
UCS
  5
7
100
AcDbSymbolTable
 70
0
  0
ENDTAB
  0
TABLE
  2
APPID
  5
9
100
AcDbSymbolTable
 70
1
  0
APPID
  5
211
100
AcDbSymbolTableRecord
100
AcDbRegAppTableRecord
  2
ACAD
 70
0
  0
ENDTAB
  0
TABLE
  2
BLOCK_RECORD
  5
1
100
AcDbSymbolTable
 70
0
  0
BLOCK_RECORD
  5
212
100
AcDbSymbolTableRecord
100
AcDbBlockTableRecord
  2
*Model_Space
  0
BLOCK_RECORD
  5
213
100
AcDbSymbolTableRecord
100
AcDbBlockTableRecord
  2
*Paper_Space
  0
ENDTAB
  0
TABLE
  2
DIMSTYLE
  5
A
100
AcDbSymbolTable
 70
1
100
AcDbDimStyleTable
 71
0
  0
DIMSTYLE
105
214
100
AcDbSymbolTableRecord
100
AcDbDimStyleTableRecord
  2
STANDARD
 70
0
  3

  4

 40
1.0
 41
3.5
 42
0.0
 43
0.38
 44
1.5
 45
0.0
 46
0.0
 47
0.005
 48
0.005
140
3.5
141
0.09
142
0.0
143
25.4
144
1.0
145
0.0
146
1.0
147
0.625
 71
1.0
 72
0.0
 73
0
 74
0
 75
0
 76
0
 77
1
 78
8
170
0
171
2
172
0
173
0
174
0
175
0
176
0
177
0
178
5
270
2
271
3
272
3
273
2
274
2
275
0
280
0
281
0
282
0
283
1
284
8
285
0
286
0
287
3
288
0
340
11
278
46
  0
ENDTAB
  0
ENDSEC
  0
SECTION
  2
BLOCKS
  0
BLOCK
  5
20
100
AcDbEntity
  8
0
100
AcDbBlockBegin
  2
*Model_Space
 70
0
 10
0.0
 20
0.0
 30
0.0
  3
*Model_Space
  1

  0
ENDBLK
  5
21
100
AcDbEntity
  8
0
100
AcDbBlockEnd
  0
BLOCK
  5
1C
100
AcDbEntity
  8
0
100
AcDbBlockBegin
  2
*Paper_Space
 70
0
 10
0.0
 20
0.0
 30
0.0
  3
*Paper_Space
  1

  0
ENDBLK
  5
1D
100
AcDbEntity
  8
0
100
AcDbBlockEnd
  0
ENDSEC
  0
SECTION
  2
ENTITIES
  0
LINE
  5
215
100
AcDbEntity
  8
0
100
AcDbLine
 62
7
  6
CONTINUOUS
 10
0.0
 20
0.0
 11
0.0
 21
210.0
  0
LINE
  5
216
100
AcDbEntity
  8
0
100
AcDbLine
 62
7
  6
CONTINUOUS
 10
0.0
 20
0.0
 11
297.0
 21
0.0
  0
LINE
  5
217
100
AcDbEntity
  8
0
100
AcDbLine
 62
7
  6
CONTINUOUS
 10
0.0
 20
210.0
 11
297.0
 21
210.0
  0
LINE
  5
218
100
AcDbEntity
  8
0
100
AcDbLine
 62
7
  6
CONTINUOUS
 10
297.0
 20
0.0
 11
297.0
 21
210.0
  0
LINE
  5
219
100
AcDbEntity
  8
RUNDUNGEN
100
AcDbLine
 62
7
  6
CONTINUOUS
 10
54.75
 20
152.6406249772
 11
54.75
 21
165.6406249771
  0
LINE
  5
21A
100
AcDbEntity
  8
RUNDUNGEN
100
AcDbLine
 62
7
  6
CONTINUOUS
 10
55.75
 20
151.6406249772
 11
55.75
 21
166.6406249772
  0
LINE
  5
21B
100
AcDbEntity
  8
0
100
AcDbLine
 62
7
  6
CONTINUOUS
 10
91.0570257434
 20
151.6406249772
 11
73.7756572372
 21
151.6406249772
  0
LINE
  5
21C
100
AcDbEntity
  8
0
100
AcDbLine
 62
7
  6
CONTINUOUS
 10
58.6730484379
 20
151.6406249772
 11
55.75
 21
151.6406249772
  0
LINE
  5
21D
100
AcDbEntity
  8
RUNDUNGEN
100
AcDbLine
 62
7
  6
CONTINUOUS
 10
56.6024968333
 20
151.6406249772
 11
103.7499912534
 21
151.6406249772
  0
LINE
  5
21E
100
AcDbEntity
  8
0
100
AcDbLine
 62
7
  6
CONTINUOUS
 10
102.05
 20
151.6406249772
 11
103.75
 21
151.6406249772
  0
LINE
  5
21F
100
AcDbEntity
  8
RUNDUNGEN
100
AcDbLine
 62
7
  6
CONTINUOUS
 10
73.7569682457
 20
153.6860246355
 11
73.7569686142
 21
164.5952245607
  0
LINE
  5
220
100
AcDbEntity
  8
RUNDUNGEN
100
AcDbLine
 62
7
  6
CONTINUOUS
 10
60.3907403184
 20
152.6406220762
 11
72.8097314109
 21
152.6406249772
  0
LINE
  5
221
100
AcDbEntity
  8
RUNDUNGEN
100
AcDbLine
 62
7
  6
CONTINUOUS
 10
97.3959527969
 20
152.6406223937
 11
92.0418334964
 21
152.6406249772
  0
LINE
  5
222
100
AcDbEntity
  8
RUNDUNGEN
100
AcDbLine
 62
7
  6
CONTINUOUS
 10
79.070568392
 20
154.5627028992
 11
86.070568392
 21
154.5627028992
  0
LINE
  5
223
100
AcDbEntity
  8
RUNDUNGEN
100
AcDbLine
 62
7
  6
CONTINUOUS
 10
86.0705683918
 20
154.6406249772
 11
79.0705683922
 21
154.6406249772
  0
LINE
  5
224
100
AcDbEntity
  8
RUNDUNGEN
100
AcDbLine
 62
7
  6
CONTINUOUS
 10
86.1554168769
 20
154.8406249772
 11
78.9857199072
 21
154.8406249772
  0
LINE
  5
225
100
AcDbEntity
  8
RUNDUNGEN
100
AcDbLine
 62
7
  6
CONTINUOUS
 10
87.070568392
 20
155.6406249772
 11
86.9748108182
 21
155.6406249773
  0
LINE
  5
226
100
AcDbEntity
  8
RUNDUNGEN
100
AcDbLine
 62
7
  6
CONTINUOUS
 10
78.070568392
 20
155.6406249772
 11
78.1663259678
 21
155.6406249772
  0
LINE
  5
227
100
AcDbEntity
  8
RUNDUNGEN
100
AcDbLine
 62
7
  6
CONTINUOUS
 10
77.8705679326
 20
158.08570579
 11
77.870568392
 21
155.7315340681
  0
LINE
  5
228
100
AcDbEntity
  8
RUNDUNGEN
100
AcDbLine
 62
7
  6
CONTINUOUS
 10
77.870568392
 20
162.5497158863
 11
77.8705685935
 21
160.1954926258
  0
LINE
  5
229
100
AcDbEntity
  8
RUNDUNGEN
100
AcDbLine
 62
7
  6
CONTINUOUS
 10
77.8981068128
 20
159.8436009397
 11
77.8981053476
 21
158.4376068104
  0
LINE
  5
22A
100
AcDbEntity
  8
RUNDUNGEN
100
AcDbLine
 62
7
  6
CONTINUOUS
 10
78.070568392
 20
155.6406249772
 11
78.070568392
 21
162.6406249772
  0
LINE
  5
22B
100
AcDbEntity
  8
RUNDUNGEN
100
AcDbLine
 62
7
  6
CONTINUOUS
 10
78.1663259678
 20
155.6406249772
 11
78.1663259678
 21
162.6406249772
  0
LINE
  5
22C
100
AcDbEntity
  8
RUNDUNGEN
100
AcDbLine
 62
7
  6
CONTINUOUS
 10
95.6166246676
 20
155.9456249772
 11
91.8002555022
 21
155.9456249772
  0
LINE
  5
22D
100
AcDbEntity
  8
0
100
AcDbLine
 62
7
  6
CONTINUOUS
 10
67.3546022889
 20
155.9456249772
 11
71.9633283987
 21
155.9456249772
  0
LINE
  5
22E
100
AcDbEntity
  8
RUNDUNGEN
100
AcDbLine
 62
7
  6
CONTINUOUS
 10
79.070568392
 20
163.7185470551
 11
79.070568392
 21
163.6406249772
  0
LINE
  5
22F
100
AcDbEntity
  8
RUNDUNGEN
100
AcDbLine
 62
7
  6
CONTINUOUS
 10
79.070568392
 20
154.5627028992
 11
79.070568392
 21
154.6406249772
  0
LINE
  5
230
100
AcDbEntity
  8
RUNDUNGEN
100
AcDbLine
 62
7
  6
CONTINUOUS
 10
77.8981053479
 20
158.4378164122
 11
78.070568392
 21
158.4378204862
  0
LINE
  5
231
100
AcDbEntity
  8
RUNDUNGEN
100
AcDbLine
 62
7
  6
CONTINUOUS
 10
87.243027738
 20
158.4378226221
 11
87.070568392
 21
158.4378236921
  0
LINE
  5
232
100
AcDbEntity
  8
RUNDUNGEN
100
AcDbLine
 62
7
  6
CONTINUOUS
 10
87.2430274158
 20
159.8434270077
 11
87.070568392
 21
159.8434262643
  0
LINE
  5
233
100
AcDbEntity
  8
RUNDUNGEN
100
AcDbLine
 62
7
  6
CONTINUOUS
 10
77.8981068126
 20
159.8434309138
 11
78.070568392
 21
159.8434278694
  0
LINE
  5
234
100
AcDbEntity
  8
0
100
AcDbLine
 62
7
  6
CONTINUOUS
 10
71.9633283987
 20
162.3356249772
 11
67.3546022889
 21
162.3356249772
  0
LINE
  5
235
100
AcDbEntity
  8
RUNDUNGEN
100
AcDbLine
 62
7
  6
CONTINUOUS
 10
91.8002540084
 20
162.3356249772
 11
95.6166246676
 21
162.3356249772
  0
LINE
  5
236
100
AcDbEntity
  8
RUNDUNGEN
100
AcDbLine
 62
7
  6
CONTINUOUS
 10
87.070568392
 20
162.6406249772
 11
86.9748108162
 21
162.6406249772
  0
LINE
  5
237
100
AcDbEntity
  8
RUNDUNGEN
100
AcDbLine
 62
7
  6
CONTINUOUS
 10
78.070568392
 20
162.6406249772
 11
78.1663259659
 21
162.640624977
  0
LINE
  5
238
100
AcDbEntity
  8
RUNDUNGEN
100
AcDbLine
 62
7
  6
CONTINUOUS
 10
78.9857199072
 20
163.4406249772
 11
86.1554168769
 21
163.4406249772
  0
LINE
  5
239
100
AcDbEntity
  8
RUNDUNGEN
100
AcDbLine
 62
7
  6
CONTINUOUS
 10
79.070568392
 20
163.6406249772
 11
86.070568392
 21
163.6406249772
  0
LINE
  5
23A
100
AcDbEntity
  8
RUNDUNGEN
100
AcDbLine
 62
7
  6
CONTINUOUS
 10
86.070568392
 20
163.7185470551
 11
79.070568392
 21
163.7185470551
  0
LINE
  5
23B
100
AcDbEntity
  8
RUNDUNGEN
100
AcDbLine
 62
7
  6
CONTINUOUS
 10
86.070568392
 20
163.7185470551
 11
86.070568392
 21
163.6406249772
  0
LINE
  5
23C
100
AcDbEntity
  8
RUNDUNGEN
100
AcDbLine
 62
7
  6
CONTINUOUS
 10
86.070568392
 20
154.5627028992
 11
86.070568392
 21
154.6406249772
  0
LINE
  5
23D
100
AcDbEntity
  8
RUNDUNGEN
100
AcDbLine
 62
7
  6
CONTINUOUS
 10
97.3959550591
 20
165.6406269262
 11
92.0418334964
 21
165.6406249772
  0
LINE
  5
23E
100
AcDbEntity
  8
RUNDUNGEN
100
AcDbLine
 62
7
  6
CONTINUOUS
 10
72.8097314109
 20
165.6406249772
 11
60.3907500599
 21
165.640625879
  0
LINE
  5
23F
100
AcDbEntity
  8
RUNDUNGEN
100
AcDbLine
 62
7
  6
CONTINUOUS
 10
86.9748108162
 20
162.6406249772
 11
86.9748108162
 21
155.6406249772
  0
LINE
  5
240
100
AcDbEntity
  8
RUNDUNGEN
100
AcDbLine
 62
7
  6
CONTINUOUS
 10
87.070568392
 20
162.6406249772
 11
87.070568392
 21
155.6406249772
  0
LINE
  5
241
100
AcDbEntity
  8
RUNDUNGEN
100
AcDbLine
 62
7
  6
CONTINUOUS
 10
87.243027738
 20
158.4377224677
 11
87.2430274158
 21
159.8435117336
  0
LINE
  5
242
100
AcDbEntity
  8
RUNDUNGEN
100
AcDbLine
 62
7
  6
CONTINUOUS
 10
87.270568392
 20
155.7315340681
 11
87.2705673528
 21
158.0858300195
  0
LINE
  5
243
100
AcDbEntity
  8
RUNDUNGEN
100
AcDbLine
 62
7
  6
CONTINUOUS
 10
87.270567285
 20
160.1954245634
 11
87.270568392
 21
162.5497158863
  0
LINE
  5
244
100
AcDbEntity
  8
0
100
AcDbLine
 62
7
  6
CONTINUOUS
 10
91.0570257434
 20
166.6406249772
 11
73.7756572372
 21
166.6406249772
  0
LINE
  5
245
100
AcDbEntity
  8
RUNDUNGEN
100
AcDbLine
 62
7
  6
CONTINUOUS
 10
103.7499938642
 20
166.6406249772
 11
56.6024960627
 21
166.6406249772
  0
LINE
  5
246
100
AcDbEntity
  8
0
100
AcDbLine
 62
7
  6
CONTINUOUS
 10
55.75
 20
166.6406249772
 11
56.6024960627
 21
166.6406249772
  0
LINE
  5
247
100
AcDbEntity
  8
RUNDUNGEN
100
AcDbLine
 62
7
  6
CONTINUOUS
 10
91.6374841339
 20
158.9650165151
 11
91.6369287151
 21
159.1401242968
  0
LINE
  5
248
100
AcDbEntity
  8
RUNDUNGEN
100
AcDbLine
 62
7
  6
CONTINUOUS
 10
91.4785884946
 20
153.4797079679
 11
91.4785777075
 21
164.8015140501
  0
LINE
  5
249
100
AcDbEntity
  8
RUNDUNGEN
100
AcDbLine
 62
7
  6
CONTINUOUS
 10
91.6369287145
 20
159.1401242971
 11
91.6373891435
 21
159.3005570498
  0
LWPOLYLINE
  5
24A
100
AcDbEntity
  8
RUNDUNGEN
100
AcDbPolyline
 62
7
  6
CONTINUOUS
 90
11
 70
0
 10
91.6373891435
 20
159.3005570498
 10
91.6415314108
 20
159.6436736409
 10
91.6498556047
 20
159.9799423043
 10
91.6621012449
 20
160.3073008985
 10
91.6780329223
 20
160.6239081671
 10
91.6973974472
 20
160.9280228602
 10
91.7198439572
 20
161.2181110526
 10
91.74503388
 20
161.4926173499
 10
91.772610267
 20
161.7502384438
 10
91.8021063219
 20
161.9896696388
 10
91.8330592993
 20
162.2098298748
  0
LINE
  5
24B
100
AcDbEntity
  8
RUNDUNGEN
100
AcDbLine
 62
7
  6
CONTINUOUS
 10
91.8330592993
 20
162.2098298748
 11
91.8526709505
 21
162.3356249772
  0
LINE
  5
24C
100
AcDbEntity
  8
RUNDUNGEN
100
AcDbLine
 62
7
  6
CONTINUOUS
 10
91.8526720471
 20
155.9456249772
 11
91.8341224983
 21
156.0643491338
  0
LWPOLYLINE
  5
24D
100
AcDbEntity
  8
RUNDUNGEN
100
AcDbPolyline
 62
7
  6
CONTINUOUS
 90
11
 70
0
 10
91.8341224983
 20
156.0643491338
 10
91.8031511861
 20
156.2836630768
 10
91.7736224397
 20
156.5222431923
 10
91.7459931427
 20
156.7790104965
 10
91.7207324641
 20
157.0526524133
 10
91.6982017591
 20
157.3418692411
 10
91.6787333861
 20
157.6451140182
 10
91.6626784958
 20
157.9608516141
 10
91.650294138
 20
158.2873408754
 10
91.64180906
 20
158.6227482981
 10
91.6374841339
 20
158.9650165151
  0
LINE
  5
24E
100
AcDbEntity
  8
RUNDUNGEN
100
AcDbLine
 62
7
  6
CONTINUOUS
 10
103.7500001111
 20
166.4807573797
 11
103.7499995029
 21
151.8005350446
  0
LINE
  5
24F
100
AcDbEntity
  8
RUNDUNGEN
100
AcDbLine
 62
7
  6
CONTINUOUS
 10
104.75
 20
165.6406249772
 11
104.75
 21
152.6406249772
  0
LINE
  5
250
100
AcDbEntity
  8
RUNDUNGEN
100
AcDbLine
 62
7
  6
CONTINUOUS
 10
191.0102791928
 20
151.6406249772
 11
243.509779419
 21
151.6406249772
  0
LINE
  5
251
100
AcDbEntity
  8
RUNDUNGEN
100
AcDbLine
 62
7
  6
CONTINUOUS
 10
197.4204730079
 20
152.6406220762
 11
243.7687787437
 21
152.6406249772
  0
LINE
  5
252
100
AcDbEntity
  8
RUNDUNGEN
100
AcDbLine
 62
7
  6
CONTINUOUS
 10
250.935403939
 20
160.1955078293
 11
251.1334209145
 21
160.2236390668
  0
LINE
  5
253
100
AcDbEntity
  8
RUNDUNGEN
100
AcDbLine
 62
7
  6
CONTINUOUS
 10
254.2598394565
 20
154.6406249772
 11
249.6091399714
 21
154.6406249772
  0
LINE
  5
254
100
AcDbEntity
  8
RUNDUNGEN
100
AcDbLine
 62
7
  6
CONTINUOUS
 10
254.4599596986
 20
154.8406249772
 11
253.6618458282
 21
154.8406249772
  0
LINE
  5
255
100
AcDbEntity
  8
RUNDUNGEN
100
AcDbLine
 62
7
  6
CONTINUOUS
 10
250.3684948042
 20
155.6405432702
 11
253.2214192366
 21
155.6406249772
  0
LINE
  5
256
100
AcDbEntity
  8
0
100
AcDbLine
 62
7
  6
CONTINUOUS
 10
223.4099596986
 20
155.9456249772
 11
240.6099596986
 21
155.9456249772
  0
LINE
  5
257
100
AcDbEntity
  8
RUNDUNGEN
100
AcDbLine
 62
7
  6
CONTINUOUS
 10
250.962325497
 20
158.4378164122
 11
251.1604183941
 21
158.4378204862
  0
LINE
  5
258
100
AcDbEntity
  8
RUNDUNGEN
100
AcDbLine
 62
7
  6
CONTINUOUS
 10
250.9623257006
 20
159.8434309138
 11
251.160422299
 21
159.8434278694
  0
LINE
  5
259
100
AcDbEntity
  8
0
100
AcDbLine
 62
7
  6
CONTINUOUS
 10
240.6099596986
 20
162.3356249772
 11
223.4099596986
 21
162.3356249772
  0
LINE
  5
25A
100
AcDbEntity
  8
RUNDUNGEN
100
AcDbLine
 62
7
  6
CONTINUOUS
 10
250.3684949948
 20
162.6407062511
 11
253.2214192354
 21
162.640624977
  0
LINE
  5
25B
100
AcDbEntity
  8
RUNDUNGEN
100
AcDbLine
 62
7
  6
CONTINUOUS
 10
253.6618458282
 20
163.4406249772
 11
254.4599596986
 21
163.4406249772
  0
LINE
  5
25C
100
AcDbEntity
  8
RUNDUNGEN
100
AcDbLine
 62
7
  6
CONTINUOUS
 10
249.6091399714
 20
163.6406249772
 11
254.2599596986
 21
163.6406249772
  0
LINE
  5
25D
100
AcDbEntity
  8
RUNDUNGEN
100
AcDbLine
 62
7
  6
CONTINUOUS
 10
250.9354043308
 20
158.085744883
 11
251.1334205688
 21
158.0576148086
  0
LINE
  5
25E
100
AcDbEntity
  8
RUNDUNGEN
100
AcDbLine
 62
7
  6
CONTINUOUS
 10
243.7687787437
 20
165.6406249772
 11
197.4205093635
 21
165.640625879
  0
LINE
  5
25F
100
AcDbEntity
  8
RUNDUNGEN
100
AcDbLine
 62
7
  6
CONTINUOUS
 10
243.5097633136
 20
166.6406249772
 11
191.0099596986
 21
166.6406249772
  0
LINE
  5
260
100
AcDbEntity
  8
RUNDUNGEN
100
AcDbLine
 62
7
  6
CONTINUOUS
 10
250.1903862693
 20
162.5497158872
 11
250.3685309783
 21
162.6406249771
  0
LINE
  5
261
100
AcDbEntity
  8
RUNDUNGEN
100
AcDbLine
 62
7
  6
CONTINUOUS
 10
250.1903862696
 20
155.7315340676
 11
250.3685309784
 21
155.6406249772
  0
LINE
  5
262
100
AcDbEntity
  8
RUNDUNGEN
100
AcDbLine
 62
7
  6
CONTINUOUS
 10
247.3039147382
 20
153.6860246355
 11
247.3039161131
 21
164.5952245607
  0
LINE
  5
263
100
AcDbEntity
  8
RUNDUNGEN
100
AcDbLine
 62
7
  6
CONTINUOUS
 10
250.9623257006
 20
159.8436009397
 11
250.9623254969
 21
158.4376068104
  0
LINE
  5
264
100
AcDbEntity
  8
RUNDUNGEN
100
AcDbLine
 62
7
  6
CONTINUOUS
 10
251.160422299
 20
159.8434278694
 11
251.1604183941
 21
158.4378204862
  0
LINE
  5
265
100
AcDbEntity
  8
RUNDUNGEN
100
AcDbLine
 62
7
  6
CONTINUOUS
 10
253.0507338037
 20
155.640624976
 11
253.0507338037
 21
162.6406249784
  0
LINE
  5
266
100
AcDbEntity
  8
RUNDUNGEN
100
AcDbLine
 62
7
  6
CONTINUOUS
 10
253.2214192366
 20
155.6406249772
 11
253.2214192366
 21
162.6406249772
  0
LINE
  5
267
100
AcDbEntity
  8
0
100
AcDbLine
 62
7
  6
CONTINUOUS
 10
254.4599596986
 20
154.8406249772
 11
254.4599596986
 21
163.4406249772
  0
LINE
  5
268
100
AcDbEntity
  8
RUNDUNGEN
100
AcDbLine
 62
7
  6
CONTINUOUS
 10
86.0706802985
 20
48.0627350286
 11
79.0704568069
 21
48.0627350286
  0
LINE
  5
269
100
AcDbEntity
  8
RUNDUNGEN
100
AcDbLine
 62
7
  6
CONTINUOUS
 10
86.070568392
 20
48.2211552955
 11
79.070568392
 21
48.2211552955
  0
LINE
  5
26A
100
AcDbEntity
  8
RUNDUNGEN
100
AcDbLine
 62
7
  6
CONTINUOUS
 10
54.75
 20
113.1619153014
 11
54.75
 21
100.1619153014
  0
LINE
  5
26B
100
AcDbEntity
  8
RUNDUNGEN
100
AcDbLine
 62
7
  6
CONTINUOUS
 10
55.75
 20
99.1619153014
 11
55.75
 21
114.1619153014
  0
LINE
  5
26C
100
AcDbEntity
  8
RUNDUNGEN
100
AcDbLine
 62
7
  6
CONTINUOUS
 10
91.057086349
 20
54.1622590127
 11
73.775604616
 21
54.1621116864
  0
LINE
  5
26D
100
AcDbEntity
  8
RUNDUNGEN
100
AcDbLine
 62
7
  6
CONTINUOUS
 10
72.8097314109
 20
53.9030962563
 11
73.7756572372
 21
54.1619153014
  0
LINE
  5
26E
100
AcDbEntity
  8
RUNDUNGEN
100
AcDbLine
 62
7
  6
CONTINUOUS
 10
92.0418334964
 20
53.9882671238
 11
91.0570257436
 21
54.1619153024
  0
LINE
  5
26F
100
AcDbEntity
  8
RUNDUNGEN
100
AcDbLine
 62
7
  6
CONTINUOUS
 10
73.7569682457
 20
50.3679602618
 11
60.3907500599
 21
100.2513656365
  0
LINE
  5
270
100
AcDbEntity
  8
RUNDUNGEN
100
AcDbLine
 62
7
  6
CONTINUOUS
 10
73.775604616
 20
54.1621116864
 11
61.3566800727
 21
100.5101690993
  0
LINE
  5
271
100
AcDbEntity
  8
RUNDUNGEN
100
AcDbLine
 62
7
  6
CONTINUOUS
 10
86.070568392
 20
44.1911389027
 11
86.1554168763
 21
44.0100291716
  0
LINE
  5
272
100
AcDbEntity
  8
RUNDUNGEN
100
AcDbLine
 62
7
  6
CONTINUOUS
 10
62.8141531758
 20
106.6619153014
 11
69.3930867264
 21
82.1090010308
  0
LINE
  5
273
100
AcDbEntity
  8
RUNDUNGEN
100
AcDbLine
 62
7
  6
CONTINUOUS
 10
62.0384118595
 20
113.4207246124
 11
70.3590125527
 21
82.3678200759
  0
LINE
  5
274
100
AcDbEntity
  8
RUNDUNGEN
100
AcDbLine
 62
7
  6
CONTINUOUS
 10
75.1886416841
 20
78.6619153014
 11
75.1886416841
 21
77.6619153014
  0
LINE
  5
275
100
AcDbEntity
  8
RUNDUNGEN
100
AcDbLine
 62
7
  6
CONTINUOUS
 10
77.870568392
 20
47.4814887302
 11
77.8705685935
 21
46.7364689011
  0
LINE
  5
276
100
AcDbEntity
  8
RUNDUNGEN
100
AcDbLine
 62
7
  6
CONTINUOUS
 10
78.070568392
 20
47.3033800052
 11
78.070568392
 21
44.6211411963
  0
LINE
  5
277
100
AcDbEntity
  8
RUNDUNGEN
100
AcDbLine
 62
7
  6
CONTINUOUS
 10
79.070568392
 20
48.2211552955
 11
79.0705683922
 21
44.1911389026
  0
LINE
  5
278
100
AcDbEntity
  8
RUNDUNGEN
100
AcDbLine
 62
7
  6
CONTINUOUS
 10
75.1886416841
 20
77.6619153014
 11
85.7388519752
 21
77.6619153014
  0
LINE
  5
279
100
AcDbEntity
  8
RUNDUNGEN
100
AcDbLine
 62
7
  6
CONTINUOUS
 10
75.1886416841
 20
78.6619153014
 11
85.7388519752
 21
78.6619153014
  0
LINE
  5
27A
100
AcDbEntity
  8
RUNDUNGEN
100
AcDbLine
 62
7
  6
CONTINUOUS
 10
85.7388519752
 20
78.6619153014
 11
85.7388519752
 21
77.6619153014
  0
LINE
  5
27B
100
AcDbEntity
  8
RUNDUNGEN
100
AcDbLine
 62
7
  6
CONTINUOUS
 10
70.3590125527
 20
82.3678200759
 11
69.3930867264
 21
82.1090010309
  0
LINE
  5
27C
100
AcDbEntity
  8
RUNDUNGEN
100
AcDbLine
 62
7
  6
CONTINUOUS
 10
90.6628907403
 20
82.7936744131
 11
91.6476984933
 21
82.6200262354
  0
LINE
  5
27D
100
AcDbEntity
  8
RUNDUNGEN
100
AcDbLine
 62
7
  6
CONTINUOUS
 10
86.0705683918
 20
44.1911389026
 11
86.070568392
 21
48.2211552955
  0
LINE
  5
27E
100
AcDbEntity
  8
RUNDUNGEN
100
AcDbLine
 62
7
  6
CONTINUOUS
 10
87.070568392
 20
44.6211411963
 11
87.070568392
 21
47.3033801968
  0
LINE
  5
27F
100
AcDbEntity
  8
RUNDUNGEN
100
AcDbLine
 62
7
  6
CONTINUOUS
 10
87.270567285
 20
46.7364592324
 11
87.270568392
 21
47.4814887302
  0
LINE
  5
280
100
AcDbEntity
  8
0
100
AcDbLine
 62
7
  6
CONTINUOUS
 10
101.9985875604
 20
86.6619153014
 11
103.75
 21
86.6619153014
  0
LINE
  5
281
100
AcDbEntity
  8
RUNDUNGEN
100
AcDbLine
 62
7
  6
CONTINUOUS
 10
97.3959710657
 20
84.3530901798
 11
96.4111664662
 21
84.5267365963
  0
LINE
  5
282
100
AcDbEntity
  8
RUNDUNGEN
100
AcDbLine
 62
7
  6
CONTINUOUS
 10
90.6628907403
 20
82.7936744131
 11
96.0482227594
 21
113.3354099856
  0
LINE
  5
283
100
AcDbEntity
  8
RUNDUNGEN
100
AcDbLine
 62
7
  6
CONTINUOUS
 10
91.6476984933
 20
82.6200262354
 11
95.8868681523
 21
106.661552053
  0
LINE
  5
284
100
AcDbEntity
  8
RUNDUNGEN
100
AcDbLine
 62
7
  6
CONTINUOUS
 10
79.070568392
 20
44.1911389027
 11
78.9857199064
 21
44.0100291721
  0
LINE
  5
285
100
AcDbEntity
  8
RUNDUNGEN
100
AcDbLine
 62
7
  6
CONTINUOUS
 10
96.4111664662
 20
84.5267365963
 11
91.057086349
 21
54.1622590127
  0
LINE
  5
286
100
AcDbEntity
  8
RUNDUNGEN
100
AcDbLine
 62
7
  6
CONTINUOUS
 10
97.3959550591
 20
84.3529994019
 11
91.4785777075
 21
50.7938848082
  0
LINE
  5
287
100
AcDbEntity
  8
RUNDUNGEN
100
AcDbLine
 62
7
  6
CONTINUOUS
 10
104.75
 20
93.820800703
 11
103.7499938642
 21
93.820800703
  0
LINE
  5
288
100
AcDbEntity
  8
RUNDUNGEN
100
AcDbLine
 62
7
  6
CONTINUOUS
 10
55.75
 20
99.1619153014
 11
59.1480134214
 21
99.1619153014
  0
LINE
  5
289
100
AcDbEntity
  8
RUNDUNGEN
100
AcDbLine
 62
7
  6
CONTINUOUS
 10
103.75
 20
114.1619153014
 11
103.7499938642
 21
93.8207597922
  0
LINE
  5
28A
100
AcDbEntity
  8
RUNDUNGEN
100
AcDbLine
 62
7
  6
CONTINUOUS
 10
103.7500001111
 20
92.6216373026
 11
103.75
 21
86.6619153014
  0
LINE
  5
28B
100
AcDbEntity
  8
RUNDUNGEN
100
AcDbLine
 62
7
  6
CONTINUOUS
 10
104.75
 20
113.1619153014
 11
104.75
 21
87.6619153014
  0
LINE
  5
28C
100
AcDbEntity
  8
RUNDUNGEN
100
AcDbLine
 62
7
  6
CONTINUOUS
 10
60.3907540078
 20
100.2513509027
 11
61.3566800727
 21
100.5101690993
  0
LINE
  5
28D
100
AcDbEntity
  8
RUNDUNGEN
100
AcDbLine
 62
7
  6
CONTINUOUS
 10
104.75
 20
106.6619153014
 11
95.8868681523
 21
106.661552053
  0
LINE
  5
28E
100
AcDbEntity
  8
RUNDUNGEN
100
AcDbLine
 62
7
  6
CONTINUOUS
 10
56.6024960627
 20
106.6619153014
 11
62.8141531758
 21
106.6619153014
  0
LINE
  5
28F
100
AcDbEntity
  8
RUNDUNGEN
100
AcDbLine
 62
7
  6
CONTINUOUS
 10
103.8030356654
 20
93.7505684924
 11
103.75
 21
93.820800703
  0
LINE
  5
290
100
AcDbEntity
  8
RUNDUNGEN
100
AcDbLine
 62
7
  6
CONTINUOUS
 10
63.7800790021
 20
106.9207343465
 11
62.8141531758
 21
106.6619153014
  0
LINE
  5
291
100
AcDbEntity
  8
RUNDUNGEN
100
AcDbLine
 62
7
  6
CONTINUOUS
 10
94.9021244498
 20
106.8355634791
 11
95.8869322026
 21
106.6619153001
  0
LINE
  5
292
100
AcDbEntity
  8
RUNDUNGEN
100
AcDbLine
 62
7
  6
CONTINUOUS
 10
55.75
 20
114.1619153014
 11
56.6634295109
 21
114.1619153014
  0
LINE
  5
293
100
AcDbEntity
  8
0
100
AcDbLine
 62
7
  6
CONTINUOUS
 10
55.75
 20
114.1619153014
 11
61.0791871564
 21
114.1619153014
  0
LINE
  5
294
100
AcDbEntity
  8
0
100
AcDbLine
 62
7
  6
CONTINUOUS
 10
97.0282364457
 20
114.1619153014
 11
103.75
 21
114.1619153014
  0
ARC
  5
295
100
AcDbEntity
  8
RUNDUNGEN
100
AcDbCircle
 62
7
  6
CONTINUOUS
 10
79.0706789485
 20
155.7877634448
 40
1.2250605505
100
AcDbArc
 50
263.6769738645
 51
269.994829302
  0
ARC
  5
296
100
AcDbEntity
  8
RUNDUNGEN
100
AcDbCircle
 62
7
  6
CONTINUOUS
 10
55.75
 20
152.6406249772
 40
1.0
100
AcDbArc
 50
180.0
 51
270.0
  0
ARC
  5
297
100
AcDbEntity
  8
RUNDUNGEN
100
AcDbCircle
 62
7
  6
CONTINUOUS
 10
79.070568392
 20
155.6406249772
 40
1.0
100
AcDbArc
 50
180.0046814912
 51
269.9935882501
  0
ARC
  5
298
100
AcDbEntity
  8
RUNDUNGEN
100
AcDbCircle
 62
7
  6
CONTINUOUS
 10
79.0706861199
 20
162.4934792865
 40
1.2250677742
100
AcDbArc
 50
90.0055060731
 51
96.3504781435
  0
ARC
  5
299
100
AcDbEntity
  8
RUNDUNGEN
100
AcDbCircle
 62
7
  6
CONTINUOUS
 10
55.75
 20
165.6406249772
 40
1.0
100
AcDbArc
 50
90.0
 51
180.0
  0
ARC
  5
29A
100
AcDbEntity
  8
RUNDUNGEN
100
AcDbCircle
 62
7
  6
CONTINUOUS
 10
79.070568392
 20
162.6406249772
 40
1.0
100
AcDbArc
 50
90.0063933363
 51
179.9953433179
  0
ARC
  5
29B
100
AcDbEntity
  8
RUNDUNGEN
100
AcDbCircle
 62
7
  6
CONTINUOUS
 10
86.0704506641
 20
155.7877706678
 40
1.2250677742
100
AcDbArc
 50
270.0055060731
 51
276.3504781435
  0
ARC
  5
29C
100
AcDbEntity
  8
RUNDUNGEN
100
AcDbCircle
 62
7
  6
CONTINUOUS
 10
86.070568392
 20
155.6406249772
 40
1.0
100
AcDbArc
 50
270.0063933363
 51
359.9953433179
  0
ARC
  5
29D
100
AcDbEntity
  8
RUNDUNGEN
100
AcDbCircle
 62
7
  6
CONTINUOUS
 10
103.7514728619
 20
152.6418557102
 40
0.9986040438
100
AcDbArc
 50
269.9994988597
 51
359.929380212
  0
ARC
  5
29E
100
AcDbEntity
  8
RUNDUNGEN
100
AcDbCircle
 62
7
  6
CONTINUOUS
 10
103.7906761859
 20
152.7796505989
 40
0.9593239269
100
AcDbArc
 50
350.7892202562
 51
359.9722061191
  0
ARC
  5
29F
100
AcDbEntity
  8
RUNDUNGEN
100
AcDbCircle
 62
7
  6
CONTINUOUS
 10
103.7498730093
 20
152.0068363897
 40
0.3662114346
100
AcDbArc
 50
270.0198683927
 51
278.3473298183
  0
ARC
  5
2A0
100
AcDbEntity
  8
RUNDUNGEN
100
AcDbCircle
 62
7
  6
CONTINUOUS
 10
86.0704578356
 20
162.4934865096
 40
1.2250605505
100
AcDbArc
 50
83.6769738644
 51
89.994829302
  0
ARC
  5
2A1
100
AcDbEntity
  8
RUNDUNGEN
100
AcDbCircle
 62
7
  6
CONTINUOUS
 10
86.070568392
 20
162.6406249772
 40
1.0
100
AcDbArc
 50
0.0046814912
 51
89.9935882501
  0
ARC
  5
2A2
100
AcDbEntity
  8
RUNDUNGEN
100
AcDbCircle
 62
7
  6
CONTINUOUS
 10
103.7514748078
 20
165.6393956494
 40
0.9986021724
100
AcDbArc
 50
0.0705392878
 51
90.0003515556
  0
ARC
  5
2A3
100
AcDbEntity
  8
RUNDUNGEN
100
AcDbCircle
 62
7
  6
CONTINUOUS
 10
103.7906735739
 20
165.5016016399
 40
0.959326539
100
AcDbArc
 50
0.0277942124
 51
9.2107427942
  0
ARC
  5
2A4
100
AcDbEntity
  8
RUNDUNGEN
100
AcDbCircle
 62
7
  6
CONTINUOUS
 10
103.7498611309
 20
166.2743336319
 40
0.3662913715
100
AcDbArc
 50
81.6528738355
 51
89.9782779178
  0
ARC
  5
2A5
100
AcDbEntity
  8
RUNDUNGEN
100
AcDbCircle
 62
7
  6
CONTINUOUS
 10
190.4920273713
 20
159.1404929652
 40
9.5003022228
100
AcDbArc
 50
0.0007961575
 51
43.1729854055
  0
ARC
  5
2A6
100
AcDbEntity
  8
RUNDUNGEN
100
AcDbCircle
 62
7
  6
CONTINUOUS
 10
190.4922409244
 20
159.140709246
 40
9.5000947059
100
AcDbArc
 50
316.8261845509
 51
359.9994917678
  0
CIRCLE
  5
2A7
100
AcDbEntity
  8
RUNDUNGEN
100
AcDbCircle
 62
7
  6
CONTINUOUS
 10
191.0099596986
 20
159.1406249772
 40
7.5
  0
ARC
  5
2A8
100
AcDbEntity
  8
0
100
AcDbCircle
 62
7
  6
CONTINUOUS
 10
191.0099596986
 20
159.1406249772
 40
7.5
100
AcDbArc
 50
259.9911370011
 51
263.1694941999
  0
ARC
  5
2A9
100
AcDbEntity
  8
0
100
AcDbCircle
 62
7
  6
CONTINUOUS
 10
191.0099596986
 20
159.1406249772
 40
7.5
100
AcDbArc
 50
249.8919184156
 51
252.451214133
  0
ARC
  5
2AA
100
AcDbEntity
  8
0
100
AcDbCircle
 62
7
  6
CONTINUOUS
 10
191.0099596986
 20
159.1406249772
 40
7.5
100
AcDbArc
 50
242.0854012742
 51
242.5264182852
  0
CIRCLE
  5
2AB
100
AcDbEntity
  8
RUNDUNGEN
100
AcDbCircle
 62
7
  6
CONTINUOUS
 10
191.0099596986
 20
159.1406249772
 40
6.5
  0
CIRCLE
  5
2AC
100
AcDbEntity
  8
0
100
AcDbCircle
 62
7
  6
CONTINUOUS
 10
191.0099596986
 20
159.1406249772
 40
3.19
  0
ARC
  5
2AD
100
AcDbEntity
  8
RUNDUNGEN
100
AcDbCircle
 62
7
  6
CONTINUOUS
 10
243.7687985518
 20
159.1404869142
 40
6.4998619371
100
AcDbArc
 50
269.9998253926
 51
302.9478582072
  0
ARC
  5
2AE
100
AcDbEntity
  8
RUNDUNGEN
100
AcDbCircle
 62
7
  6
CONTINUOUS
 10
245.6811031204
 20
159.1218449205
 40
5.3304229243
100
AcDbArc
 50
11.5410211768
 51
13.4911654919
  0
ARC
  5
2AF
100
AcDbEntity
  8
RUNDUNGEN
100
AcDbCircle
 62
7
  6
CONTINUOUS
 10
245.7322837622
 20
159.1322312769
 40
5.2781990749
100
AcDbArc
 50
7.745613624
 51
11.5417085431
  0
ARC
  5
2B0
100
AcDbEntity
  8
RUNDUNGEN
100
AcDbCircle
 62
7
  6
CONTINUOUS
 10
248.2502897505
 20
158.4680212568
 40
2.712198845
100
AcDbArc
 50
351.8963658808
 51
359.3569884217
  0
ARC
  5
2B1
100
AcDbEntity
  8
RUNDUNGEN
100
AcDbCircle
 62
7
  6
CONTINUOUS
 10
248.4558108737
 20
158.4388091658
 40
2.7046077011
100
AcDbArc
 50
351.8976076925
 51
359.9790553085
  0
ARC
  5
2B2
100
AcDbEntity
  8
RUNDUNGEN
100
AcDbCircle
 62
7
  6
CONTINUOUS
 10
254.2599596986
 20
154.8406249772
 40
0.2
100
AcDbArc
 50
270.0
 51
360.0
  0
ARC
  5
2B3
100
AcDbEntity
  8
RUNDUNGEN
100
AcDbCircle
 62
7
  6
CONTINUOUS
 10
249.6091890491
 20
154.4406773551
 40
0.1999912703
100
AcDbArc
 50
90.0140634064
 51
142.3823203336
  0
ARC
  5
2B4
100
AcDbEntity
  8
0
100
AcDbCircle
 62
7
  6
CONTINUOUS
 10
223.4099596986
 20
159.1406249772
 40
3.195
100
AcDbArc
 50
90.0
 51
270.0
  0
ARC
  5
2B5
100
AcDbEntity
  8
RUNDUNGEN
100
AcDbCircle
 62
7
  6
CONTINUOUS
 10
243.5099596986
 20
159.1406249772
 40
7.7
100
AcDbArc
 50
8.0855234754
 51
27.0363521697
  0
ARC
  5
2B6
100
AcDbEntity
  8
RUNDUNGEN
100
AcDbCircle
 62
7
  6
CONTINUOUS
 10
243.5099596986
 20
159.1406249772
 40
7.7
100
AcDbArc
 50
332.9636443159
 51
351.9145050493
  0
ARC
  5
2B7
100
AcDbEntity
  8
RUNDUNGEN
100
AcDbCircle
 62
7
  6
CONTINUOUS
 10
243.5099596986
 20
159.1406249772
 40
7.5
100
AcDbArc
 50
8.0854039565
 51
90.0026257604
  0
ARC
  5
2B8
100
AcDbEntity
  8
RUNDUNGEN
100
AcDbCircle
 62
7
  6
CONTINUOUS
 10
243.5099596986
 20
159.1406249772
 40
7.5
100
AcDbArc
 50
269.998622765
 51
351.9141983646
  0
ARC
  5
2B9
100
AcDbEntity
  8
RUNDUNGEN
100
AcDbCircle
 62
7
  6
CONTINUOUS
 10
243.7687984524
 20
159.1407620105
 40
6.4998629667
100
AcDbArc
 50
57.0521321882
 51
90.0001737309
  0
ARC
  5
2BA
100
AcDbEntity
  8
0
100
AcDbCircle
 62
7
  6
CONTINUOUS
 10
240.6099596986
 20
159.1406249772
 40
3.195
100
AcDbArc
 50
270.0
 51
90.0
  0
ARC
  5
2BB
100
AcDbEntity
  8
RUNDUNGEN
100
AcDbCircle
 62
7
  6
CONTINUOUS
 10
245.6808904485
 20
159.1594769679
 40
5.3306543959
100
AcDbArc
 50
346.3951754894
 51
348.4583878714
  0
ARC
  5
2BC
100
AcDbEntity
  8
RUNDUNGEN
100
AcDbCircle
 62
7
  6
CONTINUOUS
 10
245.7340740641
 20
159.1486651416
 40
5.2763829462
100
AcDbArc
 50
348.4578693843
 51
352.2551158288
  0
ARC
  5
2BD
100
AcDbEntity
  8
RUNDUNGEN
100
AcDbCircle
 62
7
  6
CONTINUOUS
 10
248.2503175033
 20
159.8131830447
 40
2.7121795733
100
AcDbArc
 50
0.6429916907
 51
8.1033996604
  0
ARC
  5
2BE
100
AcDbEntity
  8
RUNDUNGEN
100
AcDbCircle
 62
7
  6
CONTINUOUS
 10
248.4557453841
 20
159.8424147309
 40
2.7046771047
100
AcDbArc
 50
0.0214622881
 51
8.1028244675
  0
ARC
  5
2BF
100
AcDbEntity
  8
RUNDUNGEN
100
AcDbCircle
 62
7
  6
CONTINUOUS
 10
254.2599596986
 20
163.4406249772
 40
0.2
100
AcDbArc
 50
0.0
 51
90.0
  0
ARC
  5
2C0
100
AcDbEntity
  8
RUNDUNGEN
100
AcDbCircle
 62
7
  6
CONTINUOUS
 10
249.6091890491
 20
163.8405725992
 40
0.1999912703
100
AcDbArc
 50
217.5972128415
 51
269.9859365936
  0
ARC
  5
2C1
100
AcDbEntity
  8
RUNDUNGEN
100
AcDbCircle
 62
7
  6
CONTINUOUS
 10
78.5866349399
 20
51.6619153014
 40
5.0
100
AcDbArc
 50
194.9983532307
 51
262.0848976504
  0
ARC
  5
2C2
100
AcDbEntity
  8
RUNDUNGEN
100
AcDbCircle
 62
7
  6
CONTINUOUS
 10
78.270568392
 20
44.6211411963
 40
0.2
100
AcDbArc
 50
180.0
 51
238.5864066361
  0
ARC
  5
2C3
100
AcDbEntity
  8
RUNDUNGEN
100
AcDbCircle
 62
7
  6
CONTINUOUS
 10
77.870568392
 20
46.5114542833
 40
0.2
100
AcDbArc
 50
7.698093184
 51
82.0856798678
  0
ARC
  5
2C4
100
AcDbEntity
  8
RUNDUNGEN
100
AcDbCircle
 62
7
  6
CONTINUOUS
 10
75.1886416841
 20
83.6619153014
 40
6.0
100
AcDbArc
 50
195.0
 51
270.0
  0
ARC
  5
2C5
100
AcDbEntity
  8
RUNDUNGEN
100
AcDbCircle
 62
7
  6
CONTINUOUS
 10
75.1886416841
 20
83.6619153014
 40
5.0
100
AcDbArc
 50
195.0
 51
270.0
  0
ARC
  5
2C6
100
AcDbEntity
  8
RUNDUNGEN
100
AcDbCircle
 62
7
  6
CONTINUOUS
 10
59.1480089109
 20
97.1619321347
 40
1.9999964561
100
AcDbArc
 50
14.9995007501
 51
89.9998707835
  0
ARC
  5
2C7
100
AcDbEntity
  8
RUNDUNGEN
100
AcDbCircle
 62
7
  6
CONTINUOUS
 10
55.75
 20
100.1619153014
 40
1.0
100
AcDbArc
 50
180.0
 51
270.0
  0
ARC
  5
2C8
100
AcDbEntity
  8
RUNDUNGEN
100
AcDbCircle
 62
7
  6
CONTINUOUS
 10
55.75
 20
113.1619153014
 40
1.0
100
AcDbArc
 50
90.0
 51
180.0
  0
ARC
  5
2C9
100
AcDbEntity
  8
RUNDUNGEN
100
AcDbCircle
 62
7
  6
CONTINUOUS
 10
61.0724871565
 20
113.1619013751
 40
1.0
100
AcDbArc
 50
15.0000000026
 51
89.9998968471
  0
ARC
  5
2CA
100
AcDbEntity
  8
RUNDUNGEN
100
AcDbCircle
 62
7
  6
CONTINUOUS
 10
82.0310090163
 20
54.9698910344
 40
11.5108443421
100
AcDbArc
 50
290.5445210176
 51
294.4659396481
  0
ARC
  5
2CB
100
AcDbEntity
  8
RUNDUNGEN
100
AcDbCircle
 62
7
  6
CONTINUOUS
 10
83.0730326507
 20
54.8803713546
 40
11.4140006375
100
AcDbArc
 50
245.5195478865
 51
249.4721459652
  0
ARC
  5
2CC
100
AcDbEntity
  8
RUNDUNGEN
100
AcDbCircle
 62
7
  6
CONTINUOUS
 10
82.570568392
 20
51.6619153014
 40
8.45
100
AcDbArc
 50
238.5864066361
 51
301.4135933639
  0
ARC
  5
2CD
100
AcDbEntity
  8
RUNDUNGEN
100
AcDbCircle
 62
7
  6
CONTINUOUS
 10
82.570568392
 20
51.6619153014
 40
8.25
100
AcDbArc
 50
244.8972792454
 51
295.1027207546
  0
ARC
  5
2CE
100
AcDbEntity
  8
RUNDUNGEN
100
AcDbCircle
 62
7
  6
CONTINUOUS
 10
86.5545018441
 20
51.6619153014
 40
5.0
100
AcDbArc
 50
277.9150727849
 51
350.0031599901
  0
ARC
  5
2CF
100
AcDbEntity
  8
RUNDUNGEN
100
AcDbCircle
 62
7
  6
CONTINUOUS
 10
87.270568392
 20
46.5114418571
 40
0.2000004066
100
AcDbArc
 50
97.914569117
 51
172.2974356088
  0
ARC
  5
2D0
100
AcDbEntity
  8
RUNDUNGEN
100
AcDbCircle
 62
7
  6
CONTINUOUS
 10
86.870568392
 20
44.6211411963
 40
0.2
100
AcDbArc
 50
301.4135933639
 51
360.0
  0
ARC
  5
2D1
100
AcDbEntity
  8
RUNDUNGEN
100
AcDbCircle
 62
7
  6
CONTINUOUS
 10
85.7388519752
 20
83.6619153014
 40
6.0
100
AcDbArc
 50
270.0
 51
350.0
  0
ARC
  5
2D2
100
AcDbEntity
  8
RUNDUNGEN
100
AcDbCircle
 62
7
  6
CONTINUOUS
 10
85.7388519752
 20
83.6619153014
 40
5.0
100
AcDbArc
 50
270.0
 51
350.0
  0
ARC
  5
2D3
100
AcDbEntity
  8
RUNDUNGEN
100
AcDbCircle
 62
7
  6
CONTINUOUS
 10
101.9985773895
 20
81.6619153315
 40
4.9999999963
100
AcDbArc
 50
90.0000000088
 51
169.9052738337
  0
ARC
  5
2D4
100
AcDbEntity
  8
RUNDUNGEN
100
AcDbCircle
 62
7
  6
CONTINUOUS
 10
103.75
 20
113.1619153014
 40
1.0
100
AcDbArc
 50
0.0
 51
90.0
  0
ARC
  5
2D5
100
AcDbEntity
  8
RUNDUNGEN
100
AcDbCircle
 62
7
  6
CONTINUOUS
 10
103.75
 20
87.6619153014
 40
1.0
100
AcDbArc
 50
270.0
 51
360.0
  0
ARC
  5
2D6
100
AcDbEntity
  8
RUNDUNGEN
100
AcDbCircle
 62
7
  6
CONTINUOUS
 10
97.0330535435
 20
113.161892424
 40
1.0
100
AcDbArc
 50
90.0000904587
 51
170.0
  0
SPLINE
  5
2D7
100
AcDbEntity
  8
RUNDUNGEN
100
AcDbSpline
 62
7
  6
CONTINUOUS
 70
0
 71
3
 72
9
 73
5
 74
0
 42
0.0000001
 43
0.0000001
 44
0.0000000001
 40
0.0
 40
0.0
 40
0.0
 40
0.0
 40
0.4807937849
 40
1.0
 40
1.0
 40
1.0
 40
1.0
 10
97.3959550591
 20
165.6406269262
 30
0.0
 10
97.2846165756
 20
164.6033522938
 30
0.0
 10
97.1255163891
 20
162.4380142315
 30
0.0
 10
97.0745480785
 20
160.2679280384
 30
0.0
 10
97.0745386237
 20
159.1413473053
 30
0.0
  0
SPLINE
  5
2D8
100
AcDbEntity
  8
RUNDUNGEN
100
AcDbSpline
 62
7
  6
CONTINUOUS
 70
0
 71
3
 72
9
 73
5
 74
0
 42
0.0000001
 43
0.0000001
 44
0.0000000001
 40
0.0
 40
0.0
 40
0.0
 40
0.0
 40
0.519226392
 40
1.0
 40
1.0
 40
1.0
 40
1.0
 10
97.0745386237
 20
159.1413473053
 30
0.0
 10
97.0745436017
 20
158.0144727548
 30
0.0
 10
97.1254646809
 20
155.8439037439
 30
0.0
 10
97.2845962415
 20
153.6780839044
 30
0.0
 10
97.3959527969
 20
152.6406223937
 30
0.0
  0
SPLINE
  5
2D9
100
AcDbEntity
  8
RUNDUNGEN
100
AcDbSpline
 62
7
  6
CONTINUOUS
 70
0
 71
3
 72
10
 73
6
 74
0
 42
0.0000001
 43
0.0000001
 44
0.0000000001
 40
0.0
 40
0.0
 40
0.0
 40
0.0
 40
0.5284316167
 40
0.7746339897
 40
1.0
 40
1.0
 40
1.0
 40
1.0
 10
91.6065443066
 20
159.1400878394
 30
0.0
 10
91.6065342089
 20
159.7043469291
 30
0.0
 10
91.6294937879
 20
160.5318688375
 30
0.0
 10
91.7107461845
 20
161.5967083404
 30
0.0
 10
91.7674715538
 20
162.0972226176
 30
0.0
 10
91.8002540084
 20
162.3356249772
 30
0.0
  0
SPLINE
  5
2DA
100
AcDbEntity
  8
RUNDUNGEN
100
AcDbSpline
 62
7
  6
CONTINUOUS
 70
0
 71
3
 72
10
 73
6
 74
0
 42
0.0000001
 43
0.0000001
 44
0.0000000001
 40
0.0
 40
0.0
 40
0.0
 40
0.0
 40
0.2253655816
 40
0.4715644998
 40
1.0
 40
1.0
 40
1.0
 40
1.0
 10
91.8002555022
 20
155.9456249772
 30
0.0
 10
91.7674837338
 20
156.1839469196
 30
0.0
 10
91.7107721856
 20
156.6842885627
 30
0.0
 10
91.6295297458
 20
157.7487697881
 30
0.0
 10
91.6065545837
 20
158.5760137466
 30
0.0
 10
91.6065443066
 20
159.1400878394
 30
0.0
  0
SPLINE
  5
2DB
100
AcDbEntity
  8
RUNDUNGEN
100
AcDbSpline
 62
7
  6
CONTINUOUS
 70
0
 71
3
 72
11
 73
7
 74
0
 42
0.0000001
 43
0.0000001
 44
0.0000000001
 40
0.0
 40
0.0
 40
0.0
 40
0.0
 40
0.2666890226
 40
0.5178069558
 40
0.7590091746
 40
1.0
 40
1.0
 40
1.0
 40
1.0
 10
86.2059553588
 20
154.5702200409
 30
0.0
 10
86.3575107581
 20
154.587043925
 30
0.0
 10
86.6487280793
 20
154.675671531
 30
0.0
 10
86.9971686783
 20
154.9496267398
 30
0.0
 10
87.2193642912
 20
155.3154417807
 30
0.0
 10
87.2705929394
 20
155.5937413438
 30
0.0
 10
87.270568392
 20
155.7315340681
 30
0.0
  0
LINE
  5
2DC
100
AcDbEntity
  8
RUNDUNGEN
100
AcDbLine
 62
7
  6
CONTINUOUS
 10
103.8030271407
 20
151.6445045385
 11
103.7501029849
 21
151.6455996176
  0
SPLINE
  5
2DD
100
AcDbEntity
  8
RUNDUNGEN
100
AcDbSpline
 62
7
  6
CONTINUOUS
 70
0
 71
3
 72
17
 73
13
 74
0
 42
0.0000001
 43
0.0000001
 44
0.0000000001
 40
0.0
 40
0.0
 40
0.0
 40
0.0
 40
0.1548715056
 40
0.3078644194
 40
0.457052906
 40
0.5995714745
 40
0.731326532
 40
0.8467868143
 40
0.8962769486
 40
0.9389796098
 40
0.973878287
 40
1.0
 40
1.0
 40
1.0
 40
1.0
 10
103.7501029849
 20
151.6455996176
 30
0.0
 10
103.4171471331
 20
151.6529160192
 30
0.0
 10
102.7555281143
 20
151.6835039696
 30
0.0
 10
101.7764902149
 20
151.7729991856
 30
0.0
 10
100.8280281856
 20
151.8965687734
 30
0.0
 10
99.9289967847
 20
152.0420979544
 30
0.0
 10
99.1052474865
 20
152.1967700571
 30
0.0
 10
98.480970379
 20
152.3290919892
 30
0.0
 10
98.046745147
 20
152.433269253
 30
0.0
 10
97.7825425802
 20
152.5035158164
 30
0.0
 10
97.5694294486
 20
152.5692349386
 30
0.0
 10
97.4464333764
 20
152.6159952249
 30
0.0
 10
97.3959525067
 20
152.6406326039
 30
0.0
  0
SPLINE
  5
2DE
100
AcDbEntity
  8
RUNDUNGEN
100
AcDbSpline
 62
7
  6
CONTINUOUS
 70
0
 71
3
 72
9
 73
5
 74
0
 42
0.0000001
 43
0.0000001
 44
0.0000000001
 40
0.0
 40
0.0
 40
0.0
 40
0.0
 40
0.5831901314
 40
1.0
 40
1.0
 40
1.0
 40
1.0
 10
103.7499906947
 20
151.8005416382
 30
0.0
 10
103.7561228071
 20
151.7731837337
 30
0.0
 10
103.7677827083
 20
151.7265598391
 30
0.0
 10
103.7836371066
 20
151.6809171737
 30
0.0
 10
103.7924621836
 20
151.6629271566
 30
0.0
  0
SPLINE
  5
2DF
100
AcDbEntity
  8
RUNDUNGEN
100
AcDbSpline
 62
7
  6
CONTINUOUS
 70
0
 71
3
 72
9
 73
5
 74
0
 42
0.0000001
 43
0.0000001
 44
0.0000000001
 40
0.0
 40
0.0
 40
0.0
 40
0.0
 40
0.2738707258
 40
1.0
 40
1.0
 40
1.0
 40
1.0
 10
103.7924621836
 20
151.6629271566
 30
0.0
 10
103.7933164342
 20
151.6611857571
 30
0.0
 10
103.7965243154
 20
151.6548729474
 30
0.0
 10
103.8001067527
 20
151.6487375726
 30
0.0
 10
103.8030271407
 20
151.6445045385
 30
0.0
  0
LINE
  5
2E0
100
AcDbEntity
  8
RUNDUNGEN
100
AcDbLine
 62
7
  6
CONTINUOUS
 10
103.8030267706
 20
166.6367461178
 11
103.7501095812
 21
166.6356509444
  0
SPLINE
  5
2E1
100
AcDbEntity
  8
RUNDUNGEN
100
AcDbSpline
 62
7
  6
CONTINUOUS
 70
0
 71
3
 72
17
 73
13
 74
0
 42
0.0000001
 43
0.0000001
 44
0.0000000001
 40
0.0
 40
0.0
 40
0.0
 40
0.0
 40
0.154870797
 40
0.307865318
 40
0.4570526777
 40
0.5995716172
 40
0.7313265457
 40
0.8467870109
 40
0.8962770659
 40
0.938980178
 40
0.9738784635
 40
1.0
 40
1.0
 40
1.0
 40
1.0
 10
103.7501095812
 20
166.6356509444
 30
0.0
 10
103.4171552856
 20
166.6283330577
 30
0.0
 10
102.755534784
 20
166.5977399643
 30
0.0
 10
101.7764959786
 20
166.508258996
 30
0.0
 10
100.8280337523
 20
166.384675866
 30
0.0
 10
99.9290031745
 20
166.2391550057
 30
0.0
 10
99.105252311
 20
166.084484332
 30
0.0
 10
98.4809776537
 20
165.9521536574
 30
0.0
 10
98.0467475215
 20
165.8479896402
 30
0.0
 10
97.7825517837
 20
165.7777195296
 30
0.0
 10
97.5694282891
 20
165.712035173
 30
0.0
 10
97.4464370323
 20
165.6652622862
 30
0.0
 10
97.3959606395
 20
165.6406166015
 30
0.0
  0
SPLINE
  5
2E2
100
AcDbEntity
  8
RUNDUNGEN
100
AcDbSpline
 62
7
  6
CONTINUOUS
 70
0
 71
3
 72
9
 73
5
 74
0
 42
0.0000001
 43
0.0000001
 44
0.0000000001
 40
0.0
 40
0.0
 40
0.0
 40
0.0
 40
0.1997447145
 40
1.0
 40
1.0
 40
1.0
 40
1.0
 10
103.8030267706
 20
166.6367461178
 30
0.0
 10
103.8006672279
 20
166.6333264485
 30
0.0
 10
103.7899427897
 20
166.615459168
 30
0.0
 10
103.7824332697
 20
166.5958861991
 30
0.0
 10
103.7770183123
 20
166.5801462288
 30
0.0
  0
SPLINE
  5
2E3
100
AcDbEntity
  8
RUNDUNGEN
100
AcDbSpline
 62
7
  6
CONTINUOUS
 70
0
 71
3
 72
9
 73
5
 74
0
 42
0.0000001
 43
0.0000001
 44
0.0000000001
 40
0.0
 40
0.0
 40
0.0
 40
0.0
 40
0.2305592439
 40
1.0
 40
1.0
 40
1.0
 40
1.0
 10
103.7770183123
 20
166.5801462288
 30
0.0
 10
103.775867703
 20
166.5768016861
 30
0.0
 10
103.7710273478
 20
166.5622438164
 30
0.0
 10
103.7667282841
 20
166.5475097022
 30
0.0
 10
103.7636247231
 20
166.5361212964
 30
0.0
  0
SPLINE
  5
2E4
100
AcDbEntity
  8
RUNDUNGEN
100
AcDbSpline
 62
7
  6
CONTINUOUS
 70
0
 71
3
 72
9
 73
5
 74
0
 42
0.0000001
 43
0.0000001
 44
0.0000000001
 40
0.0
 40
0.0
 40
0.0
 40
0.0
 40
0.2334107054
 40
1.0
 40
1.0
 40
1.0
 40
1.0
 10
103.7636247231
 20
166.5361212964
 30
0.0
 10
103.7624582979
 20
166.5318411408
 30
0.0
 10
103.7575888134
 20
166.5134688823
 30
0.0
 10
103.753188135
 20
166.4949742635
 30
0.0
 10
103.7500019837
 20
166.4807569695
 30
0.0
  0
SPLINE
  5
2E5
100
AcDbEntity
  8
RUNDUNGEN
100
AcDbSpline
 62
7
  6
CONTINUOUS
 70
0
 71
3
 72
15
 73
11
 74
0
 42
0.0000001
 43
0.0000001
 44
0.0000000001
 40
0.0
 40
0.0
 40
0.0
 40
0.0
 40
0.0402985693
 40
0.085271705
 40
0.1876208213
 40
0.3037798913
 40
0.4306468429
 40
0.5656307944
 40
0.7066175439
 40
1.0
 40
1.0
 40
1.0
 40
1.0
 10
90.4937328562
 20
152.6089407439
 30
0.0
 10
90.471354021
 20
152.6915557121
 30
0.0
 10
90.4152494584
 20
152.8640138084
 30
0.0
 10
90.2669727951
 20
153.2340826939
 30
0.0
 10
90.0208921134
 20
153.7373890275
 30
0.0
 10
89.6644984867
 20
154.3786901179
 30
0.0
 10
89.2510657764
 20
155.0670767143
 30
0.0
 10
88.7946341475
 20
155.7908156105
 30
0.0
 10
88.1345162647
 20
156.8040659546
 30
0.0
 10
87.6197713653
 20
157.5697401859
 30
0.0
 10
87.2705673528
 20
158.0858300195
 30
0.0
  0
SPLINE
  5
2E6
100
AcDbEntity
  8
RUNDUNGEN
100
AcDbSpline
 62
7
  6
CONTINUOUS
 70
0
 71
3
 72
11
 73
7
 74
0
 42
0.0000001
 43
0.0000001
 44
0.0000000001
 40
0.0
 40
0.0
 40
0.0
 40
0.0
 40
0.2184837422
 40
0.4632881237
 40
0.7267657576
 40
1.0
 40
1.0
 40
1.0
 40
1.0
 10
60.3907403184
 20
152.6406220762
 30
0.0
 10
60.5070424821
 20
153.1032988065
 30
0.0
 10
60.7084558486
 20
154.0958874941
 30
0.0
 10
60.9196998626
 20
155.6695639515
 30
0.0
 10
61.0505437831
 20
157.3718467252
 30
0.0
 10
61.0798329349
 20
158.5440043507
 30
0.0
 10
61.079865074
 20
159.1406249772
 30
0.0
  0
SPLINE
  5
2E7
100
AcDbEntity
  8
RUNDUNGEN
100
AcDbSpline
 62
7
  6
CONTINUOUS
 70
0
 71
3
 72
15
 73
11
 74
0
 42
0.0000001
 43
0.0000001
 44
0.0000000001
 40
0.0
 40
0.0
 40
0.0
 40
0.0
 40
0.0416695545
 40
0.0893743562
 40
0.1986284137
 40
0.3207198379
 40
0.4507175887
 40
0.5853659697
 40
0.7225897006
 40
1.0
 40
1.0
 40
1.0
 40
1.0
 10
60.3907488388
 20
165.6406309937
 30
0.0
 10
60.347244414
 20
165.6744261939
 30
0.0
 10
60.249095509
 20
165.7406583867
 30
0.0
 10
60.0206622891
 20
165.8704161565
 30
0.0
 10
59.6853172326
 20
166.0255560797
 30
0.0
 10
59.2386642477
 20
166.1956988307
 30
0.0
 10
58.7501682974
 20
166.3477559148
 30
0.0
 10
58.2337422562
 20
166.4741557924
 30
0.0
 10
57.5183782727
 20
166.6009073888
 30
0.0
 10
56.9692419239
 20
166.64062488
 30
0.0
 10
56.6024960627
 20
166.6406233713
 30
0.0
  0
SPLINE
  5
2E8
100
AcDbEntity
  8
RUNDUNGEN
100
AcDbSpline
 62
7
  6
CONTINUOUS
 70
0
 71
3
 72
15
 73
11
 74
0
 42
0.0000001
 43
0.0000001
 44
0.0000000001
 40
0.0
 40
0.0
 40
0.0
 40
0.0
 40
0.2774074412
 40
0.4146311545
 40
0.549279485
 40
0.6792773736
 40
0.8013698215
 40
0.9106253049
 40
0.9583306843
 40
1.0
 40
1.0
 40
1.0
 40
1.0
 10
56.6021616407
 20
151.6406253801
 30
0.0
 10
56.9689329496
 20
151.6406079717
 30
0.0
 10
57.5181107656
 20
151.6803099744
 30
0.0
 10
58.2335325054
 20
151.8070461995
 30
0.0
 10
58.7500015113
 20
151.9334495271
 30
0.0
 10
59.2385414943
 20
152.0855067977
 30
0.0
 10
59.6852368609
 20
152.2556556154
 30
0.0
 10
60.0206115774
 20
152.4108113419
 30
0.0
 10
60.2490678669
 20
152.5405745284
 30
0.0
 10
60.3472293496
 20
152.6068066211
 30
0.0
 10
60.3907349704
 20
152.640606923
 30
0.0
  0
SPLINE
  5
2E9
100
AcDbEntity
  8
RUNDUNGEN
100
AcDbSpline
 62
7
  6
CONTINUOUS
 70
0
 71
3
 72
13
 73
9
 74
0
 42
0.0000001
 43
0.0000001
 44
0.0000000001
 40
0.0
 40
0.0
 40
0.0
 40
0.0
 40
0.0913500491
 40
0.1971423908
 40
0.3145099827
 40
0.4409354921
 40
0.7128425972
 40
1.0
 40
1.0
 40
1.0
 40
1.0
 10
74.7229316347
 20
152.8469444687
 30
0.0
 10
74.7858127697
 20
153.0224324252
 30
0.0
 10
74.9466167284
 20
153.3920338284
 30
0.0
 10
75.2417108998
 20
153.9621414245
 30
0.0
 10
75.5962308518
 20
154.5813989024
 30
0.0
 10
76.1441755166
 20
155.4799392124
 30
0.0
 10
76.9056143865
 20
156.653632513
 30
0.0
 10
77.5421854921
 20
157.6003735687
 30
0.0
 10
77.8705679326
 20
158.08570579
 30
0.0
  0
SPLINE
  5
2EA
100
AcDbEntity
  8
RUNDUNGEN
100
AcDbSpline
 62
7
  6
CONTINUOUS
 70
0
 71
3
 72
19
 73
15
 74
0
 42
0.0000001
 43
0.0000001
 44
0.0000000001
 40
0.0
 40
0.0
 40
0.0
 40
0.0
 40
0.0293182772
 40
0.0605863426
 40
0.0954288756
 40
0.1349459224
 40
0.1798064456
 40
0.2303548715
 40
0.2867006065
 40
0.3487720332
 40
0.4890270422
 40
0.6478962771
 40
0.8203406824
 40
1.0
 40
1.0
 40
1.0
 40
1.0
 10
56.6023194095
 20
151.6406249772
 30
0.0
 10
56.68414724
 20
151.640616808
 30
0.0
 10
56.8540644676
 20
151.6653568267
 30
0.0
 10
57.1002378119
 20
151.7735269503
 30
0.0
 10
57.3391544492
 20
151.9494692359
 30
0.0
 10
57.5699303712
 20
152.1909303807
 30
0.0
 10
57.7917433103
 20
152.4963476533
 30
0.0
 10
58.0031440787
 20
152.8640978626
 30
0.0
 10
58.2024364399
 20
153.2920324639
 30
0.0
 10
58.4599348435
 20
153.9670314074
 30
0.0
 10
58.7308758498
 20
154.9402654966
 30
0.0
 10
58.96742631
 20
156.2363724195
 30
0.0
 10
59.1148453348
 20
157.6561265536
 30
0.0
 10
59.1479926941
 20
158.6391926402
 30
0.0
 10
59.1480134214
 20
159.1406249772
 30
0.0
  0
SPLINE
  5
2EB
100
AcDbEntity
  8
RUNDUNGEN
100
AcDbSpline
 62
7
  6
CONTINUOUS
 70
0
 71
3
 72
19
 73
15
 74
0
 42
0.0000001
 43
0.0000001
 44
0.0000000001
 40
0.0
 40
0.0
 40
0.0
 40
0.0
 40
0.1796641455
 40
0.3521215374
 40
0.5110100924
 40
0.6512588976
 40
0.7133243181
 40
0.7696657873
 40
0.820212633
 40
0.8650728216
 40
0.9045899804
 40
0.9394319273
 40
0.9707017267
 40
1.0
 40
1.0
 40
1.0
 40
1.0
 10
59.1480134214
 20
159.1406249772
 30
0.0
 10
59.1479957429
 20
159.6420602889
 30
0.0
 10
59.1148484351
 20
160.6251559486
 30
0.0
 10
58.9674114433
 20
162.0449820404
 30
0.0
 10
58.7308528846
 20
163.3411345727
 30
0.0
 10
58.4598820092
 20
164.3143589523
 30
0.0
 10
58.2023993565
 20
164.9892981666
 30
0.0
 10
58.0031215765
 20
165.4171922605
 30
0.0
 10
57.7917314385
 20
165.7849180098
 30
0.0
 10
57.5699272627
 20
166.0903263897
 30
0.0
 10
57.3391536973
 20
166.3317754554
 30
0.0
 10
57.100244921
 20
166.507726289
 30
0.0
 10
56.85412099
 20
166.6158586086
 30
0.0
 10
56.6842663501
 20
166.6406249484
 30
0.0
 10
56.6024960627
 20
166.6406249772
 30
0.0
  0
SPLINE
  5
2EC
100
AcDbEntity
  8
RUNDUNGEN
100
AcDbSpline
 62
7
  6
CONTINUOUS
 70
0
 71
3
 72
11
 73
7
 74
0
 42
0.0000001
 43
0.0000001
 44
0.0000000001
 40
0.0
 40
0.0
 40
0.0
 40
0.0
 40
0.2732036169
 40
0.5366877534
 40
0.7815128151
 40
1.0
 40
1.0
 40
1.0
 40
1.0
 10
61.079865074
 20
159.1406249772
 30
0.0
 10
61.0798376187
 20
159.7371783222
 30
0.0
 10
61.0505381701
 20
160.9092818479
 30
0.0
 10
60.9197217818
 20
162.6115585009
 30
0.0
 10
60.7084503912
 20
164.1852968416
 30
0.0
 10
60.5070603267
 20
165.177943772
 30
0.0
 10
60.3907500599
 20
165.640625879
 30
0.0
  0
SPLINE
  5
2ED
100
AcDbEntity
  8
RUNDUNGEN
100
AcDbSpline
 62
7
  6
CONTINUOUS
 70
0
 71
3
 72
13
 73
9
 74
0
 42
0.0000001
 43
0.0000001
 44
0.0000000001
 40
0.0
 40
0.0
 40
0.0
 40
0.0
 40
0.3393912925
 40
0.6115727431
 40
0.7246787124
 40
0.8248059958
 40
0.9151123867
 40
1.0
 40
1.0
 40
1.0
 40
1.0
 10
73.7569686142
 20
164.5952245607
 30
0.0
 10
73.6929410869
 20
164.7500790806
 30
0.0
 10
73.5639024162
 20
165.0237846922
 30
0.0
 10
73.3612945834
 20
165.3223011011
 30
0.0
 10
73.1891574943
 20
165.4902737754
 30
0.0
 10
73.0651748275
 20
165.5760683275
 30
0.0
 10
72.9385163479
 20
165.6285964673
 30
0.0
 10
72.851643363
 20
165.6406160148
 30
0.0
 10
72.8097314109
 20
165.6406249772
 30
0.0
  0
SPLINE
  5
2EE
100
AcDbEntity
  8
RUNDUNGEN
100
AcDbSpline
 62
7
  6
CONTINUOUS
 70
0
 71
3
 72
11
 73
7
 74
0
 42
0.0000001
 43
0.0000001
 44
0.0000000001
 40
0.0
 40
0.0
 40
0.0
 40
0.0
 40
0.3673945374
 40
0.5079963649
 40
0.6638598676
 40
1.0
 40
1.0
 40
1.0
 40
1.0
 10
86.070568392
 20
163.6406249772
 30
0.0
 10
86.0985161729
 20
163.6406249772
 30
0.0
 10
86.1266095355
 20
163.5971979421
 30
0.0
 10
86.1418851631
 20
163.5510757623
 30
0.0
 10
86.1525055162
 20
163.5035643343
 30
0.0
 10
86.1554163523
 20
163.4661952287
 30
0.0
 10
86.1554168763
 20
163.4406249772
 30
0.0
  0
SPLINE
  5
2EF
100
AcDbEntity
  8
RUNDUNGEN
100
AcDbSpline
 62
7
  6
CONTINUOUS
 70
0
 71
3
 72
11
 73
7
 74
0
 42
0.0000001
 43
0.0000001
 44
0.0000000001
 40
0.0
 40
0.0
 40
0.0
 40
0.0
 40
0.3673975666
 40
0.507998626
 40
0.6638614176
 40
1.0
 40
1.0
 40
1.0
 40
1.0
 10
79.070568392
 20
163.6406249772
 30
0.0
 10
79.0426202631
 20
163.6406249772
 30
0.0
 10
79.0145256366
 20
163.5971985552
 30
0.0
 10
78.9992501292
 20
163.5510758551
 30
0.0
 10
78.988630179
 20
163.5035643966
 30
0.0
 10
78.9857199071
 20
163.4661952184
 30
0.0
 10
78.9857199064
 20
163.4406249772
 30
0.0
  0
SPLINE
  5
2F0
100
AcDbEntity
  8
RUNDUNGEN
100
AcDbSpline
 62
7
  6
CONTINUOUS
 70
0
 71
3
 72
14
 73
10
 74
0
 42
0.0000001
 43
0.0000001
 44
0.0000000001
 40
0.0
 40
0.0
 40
0.0
 40
0.0
 40
0.0641384632
 40
0.138129373
 40
0.2284783697
 40
0.3386939885
 40
0.4704940876
 40
0.6246800628
 40
1.0
 40
1.0
 40
1.0
 40
1.0
 10
91.0570254469
 20
166.6406249535
 30
0.0
 10
91.0320056708
 20
166.6406136521
 30
0.0
 10
90.9777855809
 20
166.6281839217
 30
0.0
 10
90.9028599176
 20
166.5776142638
 30
0.0
 10
90.8304451293
 20
166.4978276949
 30
0.0
 10
90.7595448863
 20
166.3888440747
 30
0.0
 10
90.6898169376
 20
166.2506707737
 30
0.0
 10
90.592232959
 20
166.0116742255
 30
0.0
 10
90.5320044744
 20
165.8136271406
 30
0.0
 10
90.4937328562
 20
165.6723092104
 30
0.0
  0
LINE
  5
2F1
100
AcDbEntity
  8
RUNDUNGEN
100
AcDbLine
 62
7
  6
CONTINUOUS
 10
77.8980833405
 20
158.4375837854
 11
77.8705640607
 21
158.0856987877
  0
SPLINE
  5
2F2
100
AcDbEntity
  8
RUNDUNGEN
100
AcDbSpline
 62
7
  6
CONTINUOUS
 70
0
 71
3
 72
11
 73
7
 74
0
 42
0.0000001
 43
0.0000001
 44
0.0000000001
 40
0.0
 40
0.0
 40
0.0
 40
0.0
 40
0.2320957382
 40
0.4805100529
 40
0.7397855553
 40
1.0
 40
1.0
 40
1.0
 40
1.0
 10
73.7570105142
 20
153.6861018698
 30
0.0
 10
73.7738562096
 20
153.582144635
 30
0.0
 10
73.8538094462
 20
153.3729032717
 30
0.0
 10
74.0758706477
 20
153.1139809409
 30
0.0
 10
74.3748715012
 20
152.9258785812
 30
0.0
 10
74.6057327332
 20
152.8612869192
 30
0.0
 10
74.7229316345
 20
152.8469537293
 30
0.0
  0
SPLINE
  5
2F3
100
AcDbEntity
  8
RUNDUNGEN
100
AcDbSpline
 62
7
  6
CONTINUOUS
 70
0
 71
3
 72
11
 73
7
 74
0
 42
0.0000001
 43
0.0000001
 44
0.0000000001
 40
0.0
 40
0.0
 40
0.0
 40
0.0
 40
0.2540212457
 40
0.5056597483
 40
0.753985455
 40
1.0
 40
1.0
 40
1.0
 40
1.0
 10
72.8097314109
 20
152.6406249772
 30
0.0
 10
72.8097314115
 20
152.510715515
 30
0.0
 10
72.859386771
 20
152.2494001963
 30
0.0
 10
73.0731503019
 20
151.9172355092
 30
0.0
 10
73.3941187358
 20
151.6932917791
 30
0.0
 10
73.6498424962
 20
151.6406249772
 30
0.0
 10
73.7756572371
 20
151.6406249772
 30
0.0
  0
SPLINE
  5
2F4
100
AcDbEntity
  8
RUNDUNGEN
100
AcDbSpline
 62
7
  6
CONTINUOUS
 70
0
 71
3
 72
11
 73
7
 74
0
 42
0.0000001
 43
0.0000001
 44
0.0000000001
 40
0.0
 40
0.0
 40
0.0
 40
0.0
 40
0.2540211942
 40
0.5056596798
 40
0.753985409
 40
1.0
 40
1.0
 40
1.0
 40
1.0
 10
60.3907518376
 20
152.6406220762
 30
0.0
 10
60.3907522616
 20
152.5107129135
 30
0.0
 10
60.4404082423
 20
152.249398355
 30
0.0
 10
60.6541719107
 20
151.9172348302
 30
0.0
 10
60.9751398393
 20
151.6932918641
 30
0.0
 10
61.2308630326
 20
151.6406250926
 30
0.0
 10
61.3566775326
 20
151.6406249772
 30
0.0
  0
SPLINE
  5
2F5
100
AcDbEntity
  8
RUNDUNGEN
100
AcDbSpline
 62
7
  6
CONTINUOUS
 70
0
 71
3
 72
11
 73
7
 74
0
 42
0.0000001
 43
0.0000001
 44
0.0000000001
 40
0.0
 40
0.0
 40
0.0
 40
0.0
 40
0.2540211637
 40
0.5056596397
 40
0.7539853717
 40
1.0
 40
1.0
 40
1.0
 40
1.0
 10
60.3907540078
 20
165.640625879
 30
0.0
 10
60.3907539585
 20
165.7705352556
 30
0.0
 10
60.4404093448
 20
166.031850465
 30
0.0
 10
60.6541731215
 20
166.3640147913
 30
0.0
 10
60.9751415991
 20
166.5879582631
 30
0.0
 10
61.2308653314
 20
166.6406249786
 30
0.0
 10
61.3566800727
 20
166.6406249772
 30
0.0
  0
SPLINE
  5
2F6
100
AcDbEntity
  8
RUNDUNGEN
100
AcDbSpline
 62
7
  6
CONTINUOUS
 70
0
 71
3
 72
11
 73
7
 74
0
 42
0.0000001
 43
0.0000001
 44
0.0000000001
 40
0.0
 40
0.0
 40
0.0
 40
0.0
 40
0.2540212502
 40
0.505659753
 40
0.7539854579
 40
1.0
 40
1.0
 40
1.0
 40
1.0
 10
72.8097314109
 20
165.6406249772
 30
0.0
 10
72.8097314109
 20
165.7705344417
 30
0.0
 10
72.8593867706
 20
166.0318497636
 30
0.0
 10
73.0731503053
 20
166.3640144507
 30
0.0
 10
73.3941187396
 20
166.5879581767
 30
0.0
 10
73.6498424976
 20
166.6406249772
 30
0.0
 10
73.7756572372
 20
166.6406249772
 30
0.0
  0
SPLINE
  5
2F7
100
AcDbEntity
  8
RUNDUNGEN
100
AcDbSpline
 62
7
  6
CONTINUOUS
 70
0
 71
3
 72
11
 73
7
 74
0
 42
0.0000001
 43
0.0000001
 44
0.0000000001
 40
0.0
 40
0.0
 40
0.0
 40
0.0
 40
0.2320955774
 40
0.4805099236
 40
0.7397855526
 40
1.0
 40
1.0
 40
1.0
 40
1.0
 10
73.7570058085
 20
164.5951480845
 30
0.0
 10
73.7738513939
 20
164.6991057714
 30
0.0
 10
73.8538047395
 20
164.9083481966
 30
0.0
 10
74.075866911
 20
165.167271882
 30
0.0
 10
74.3748694556
 20
165.3553749532
 30
0.0
 10
74.6057321076
 20
165.4199662784
 30
0.0
 10
74.7229316348
 20
165.4342989942
 30
0.0
  0
LINE
  5
2F8
100
AcDbEntity
  8
RUNDUNGEN
100
AcDbLine
 62
7
  6
CONTINUOUS
 10
77.8705701226
 20
160.1954918095
 11
77.8980882792
 21
159.8436193585
  0
LINE
  5
2F9
100
AcDbEntity
  8
RUNDUNGEN
100
AcDbLine
 62
7
  6
CONTINUOUS
 10
87.2705581459
 20
158.085842768
 11
87.2430389682
 21
158.4377123316
  0
SPLINE
  5
2FA
100
AcDbEntity
  8
RUNDUNGEN
100
AcDbSpline
 62
7
  6
CONTINUOUS
 70
0
 71
3
 72
11
 73
7
 74
0
 42
0.0000001
 43
0.0000001
 44
0.0000000001
 40
0.0
 40
0.0
 40
0.0
 40
0.0
 40
0.2604814347
 40
0.5182469616
 40
0.7656685926
 40
1.0
 40
1.0
 40
1.0
 40
1.0
 10
90.4937328563
 20
152.6089561324
 30
0.0
 10
90.6163693243
 20
152.6182126584
 30
0.0
 10
90.8590064201
 20
152.6767908996
 30
0.0
 10
91.1715345995
 20
152.8703259297
 30
0.0
 10
91.3967133398
 20
153.1462014397
 30
0.0
 10
91.4678974231
 20
153.369705114
 30
0.0
 10
91.4785271478
 20
153.4798319745
 30
0.0
  0
SPLINE
  5
2FB
100
AcDbEntity
  8
RUNDUNGEN
100
AcDbSpline
 62
7
  6
CONTINUOUS
 70
0
 71
3
 72
11
 73
7
 74
0
 42
0.0000001
 43
0.0000001
 44
0.0000000001
 40
0.0
 40
0.0
 40
0.0
 40
0.0
 40
0.2482605022
 40
0.4975003067
 40
0.7482033348
 40
1.0
 40
1.0
 40
1.0
 40
1.0
 10
91.0570257434
 20
151.6406249772
 30
0.0
 10
91.1852007751
 20
151.6406249772
 30
0.0
 10
91.444944714
 20
151.6929213981
 30
0.0
 10
91.7721997716
 20
151.9161408295
 30
0.0
 10
91.9908791839
 20
152.2483875517
 30
0.0
 10
92.0418334952
 20
152.5106242511
 30
0.0
 10
92.0418334964
 20
152.6406249772
 30
0.0
  0
SPLINE
  5
2FC
100
AcDbEntity
  8
RUNDUNGEN
100
AcDbSpline
 62
7
  6
CONTINUOUS
 70
0
 71
3
 72
11
 73
7
 74
0
 42
0.0000001
 43
0.0000001
 44
0.0000000001
 40
0.0
 40
0.0
 40
0.0
 40
0.0
 40
0.248260517
 40
0.4975003281
 40
0.7482033501
 40
1.0
 40
1.0
 40
1.0
 40
1.0
 10
96.4111618675
 20
151.6406249772
 30
0.0
 10
96.5393366775
 20
151.6406250328
 30
0.0
 10
96.7990801284
 20
151.6929213591
 30
0.0
 10
97.12633476
 20
151.9161400992
 30
0.0
 10
97.3450142897
 20
152.2483858376
 30
0.0
 10
97.3959691198
 20
152.5106219081
 30
0.0
 10
97.3959694733
 20
152.6406223937
 30
0.0
  0
LINE
  5
2FD
100
AcDbEntity
  8
RUNDUNGEN
100
AcDbLine
 62
7
  6
CONTINUOUS
 10
87.2430369959
 20
159.8435201473
 11
87.2705583369
 21
160.1954120489
  0
SPLINE
  5
2FE
100
AcDbEntity
  8
RUNDUNGEN
100
AcDbSpline
 62
7
  6
CONTINUOUS
 70
0
 71
3
 72
11
 73
7
 74
0
 42
0.0000001
 43
0.0000001
 44
0.0000000001
 40
0.0
 40
0.0
 40
0.0
 40
0.0
 40
0.2343311682
 40
0.4817528068
 40
0.7395184821
 40
1.0
 40
1.0
 40
1.0
 40
1.0
 10
91.4785339465
 20
164.8014179795
 30
0.0
 10
91.4679048796
 20
164.9115457211
 30
0.0
 10
91.3967211752
 20
165.1350516006
 30
0.0
 10
91.1715408799
 20
165.4109297597
 30
0.0
 10
90.8590098386
 20
165.6044663509
 30
0.0
 10
90.6163704207
 20
165.6630446063
 30
0.0
 10
90.4937328563
 20
165.6723008156
 30
0.0
  0
SPLINE
  5
2FF
100
AcDbEntity
  8
RUNDUNGEN
100
AcDbSpline
 62
7
  6
CONTINUOUS
 70
0
 71
3
 72
11
 73
7
 74
0
 42
0.0000001
 43
0.0000001
 44
0.0000000001
 40
0.0
 40
0.0
 40
0.0
 40
0.0
 40
0.2517966613
 40
0.502499689
 40
0.7517394951
 40
1.0
 40
1.0
 40
1.0
 40
1.0
 10
92.0418334964
 20
165.6406249772
 30
0.0
 10
92.0418334948
 20
165.7706257011
 30
0.0
 10
91.990879184
 20
166.0328623978
 30
0.0
 10
91.7721997752
 20
166.36510912
 30
0.0
 10
91.4449447177
 20
166.588328555
 30
0.0
 10
91.1852007766
 20
166.6406249772
 30
0.0
 10
91.0570257436
 20
166.6406249772
 30
0.0
  0
SPLINE
  5
300
100
AcDbEntity
  8
RUNDUNGEN
100
AcDbSpline
 62
7
  6
CONTINUOUS
 70
0
 71
3
 72
11
 73
7
 74
0
 42
0.0000001
 43
0.0000001
 44
0.0000000001
 40
0.0
 40
0.0
 40
0.0
 40
0.0
 40
0.2517966515
 40
0.5024996754
 40
0.7517394874
 40
1.0
 40
1.0
 40
1.0
 40
1.0
 10
97.3959710657
 20
165.6406269262
 30
0.0
 10
97.3959707991
 20
165.7706272194
 30
0.0
 10
97.3450162983
 20
166.0328629277
 30
0.0
 10
97.1263376219
 20
166.3651084872
 30
0.0
 10
96.799083979
 20
166.5883275762
 30
0.0
 10
96.5393410835
 20
166.6406245331
 30
0.0
 10
96.4111664662
 20
166.6406249772
 30
0.0
  0
SPLINE
  5
301
100
AcDbEntity
  8
RUNDUNGEN
100
AcDbSpline
 62
7
  6
CONTINUOUS
 70
0
 71
3
 72
14
 73
10
 74
0
 42
0.0000001
 43
0.0000001
 44
0.0000000001
 40
0.0
 40
0.0
 40
0.0
 40
0.0
 40
0.0783486297
 40
0.1633595771
 40
0.2601764338
 40
0.3721871745
 40
0.5014101887
 40
0.6489318196
 40
1.0
 40
1.0
 40
1.0
 40
1.0
 10
73.7756574183
 20
151.6406249837
 30
0.0
 10
73.8177278141
 20
151.640631531
 30
0.0
 10
73.9059095643
 20
151.6548920265
 30
0.0
 10
74.0330187983
 20
151.7163370465
 30
0.0
 10
74.1567949906
 20
151.8158105031
 30
0.0
 10
74.277583316
 20
151.9521357771
 30
0.0
 10
74.3955465762
 20
152.1248657671
 30
0.0
 10
74.5581730014
 20
152.4205691045
 30
0.0
 10
74.659343327
 20
152.6694820241
 30
0.0
 10
74.7229316347
 20
152.8469444687
 30
0.0
  0
SPLINE
  5
302
100
AcDbEntity
  8
RUNDUNGEN
100
AcDbSpline
 62
7
  6
CONTINUOUS
 70
0
 71
3
 72
11
 73
7
 74
0
 42
0.0000001
 43
0.0000001
 44
0.0000000001
 40
0.0
 40
0.0
 40
0.0
 40
0.0
 40
0.3673975475
 40
0.5079986079
 40
0.663861408
 40
1.0
 40
1.0
 40
1.0
 40
1.0
 10
86.070568392
 20
154.6406249772
 30
0.0
 10
86.0985165195
 20
154.6406249772
 30
0.0
 10
86.1266111456
 20
154.6840513964
 30
0.0
 10
86.1418866539
 20
154.7301740956
 30
0.0
 10
86.1525066041
 20
154.7776855557
 30
0.0
 10
86.155416877
 20
154.8150547351
 30
0.0
 10
86.1554168777
 20
154.8406249772
 30
0.0
  0
SPLINE
  5
303
100
AcDbEntity
  8
RUNDUNGEN
100
AcDbSpline
 62
7
  6
CONTINUOUS
 70
0
 71
3
 72
11
 73
7
 74
0
 42
0.0000001
 43
0.0000001
 44
0.0000000001
 40
0.0
 40
0.0
 40
0.0
 40
0.0
 40
0.3673945375
 40
0.5079963649
 40
0.6638598676
 40
1.0
 40
1.0
 40
1.0
 40
1.0
 10
79.070568392
 20
154.6406249772
 30
0.0
 10
79.0426206112
 20
154.6406249772
 30
0.0
 10
79.0145272485
 20
154.6840520123
 30
0.0
 10
78.999251621
 20
154.730174192
 30
0.0
 10
78.9886312679
 20
154.7776856201
 30
0.0
 10
78.9857204317
 20
154.8150547256
 30
0.0
 10
78.9857199077
 20
154.8406249772
 30
0.0
  0
SPLINE
  5
304
100
AcDbEntity
  8
RUNDUNGEN
100
AcDbSpline
 62
7
  6
CONTINUOUS
 70
0
 71
3
 72
14
 73
10
 74
0
 42
0.0000001
 43
0.0000001
 44
0.0000000001
 40
0.0
 40
0.0
 40
0.0
 40
0.0
 40
0.0641375695
 40
0.1381291993
 40
0.2284794148
 40
0.3386952011
 40
0.470494753
 40
0.6246800949
 40
1.0
 40
1.0
 40
1.0
 40
1.0
 10
91.0570255008
 20
151.6406249932
 30
0.0
 10
91.0320060494
 20
151.6406343005
 30
0.0
 10
90.9777850798
 20
151.6530631134
 30
0.0
 10
90.9028601034
 20
151.7036347051
 30
0.0
 10
90.8304454096
 20
151.783422436
 30
0.0
 10
90.7595448331
 20
151.892406367
 30
0.0
 10
90.6898167844
 20
152.0305793335
 30
0.0
 10
90.5922325533
 20
152.2695755283
 30
0.0
 10
90.5320041816
 20
152.4676226069
 30
0.0
 10
90.4937328562
 20
152.6089407439
 30
0.0
  0
SPLINE
  5
305
100
AcDbEntity
  8
RUNDUNGEN
100
AcDbSpline
 62
7
  6
CONTINUOUS
 70
0
 71
3
 72
14
 73
10
 74
0
 42
0.0000001
 43
0.0000001
 44
0.0000000001
 40
0.0
 40
0.0
 40
0.0
 40
0.0
 40
0.085013817
 40
0.1871325499
 40
0.3031167341
 40
0.4299557766
 40
0.5650505921
 40
0.7062397459
 40
1.0
 40
1.0
 40
1.0
 40
1.0
 10
73.7569682478
 20
153.6860201634
 30
0.0
 10
73.8391358411
 20
153.8450442065
 30
0.0
 10
74.0504600622
 20
154.1790243323
 30
0.0
 10
74.4341065712
 20
154.6892267425
 30
0.0
 10
74.8985804466
 20
155.2478991635
 30
0.0
 10
75.4259163035
 20
155.8438507336
 30
0.0
 10
76.0012827816
 20
156.4679170842
 30
0.0
 10
76.8267365833
 20
157.3392616188
 30
0.0
 10
77.4656627584
 20
157.9953904576
 30
0.0
 10
77.8981053476
 20
158.4376068104
 30
0.0
  0
SPLINE
  5
306
100
AcDbEntity
  8
RUNDUNGEN
100
AcDbSpline
 62
7
  6
CONTINUOUS
 70
0
 71
3
 72
14
 73
10
 74
0
 42
0.0000001
 43
0.0000001
 44
0.0000000001
 40
0.0
 40
0.0
 40
0.0
 40
0.0
 40
0.2937539804
 40
0.4349443245
 40
0.5700407584
 40
0.6968809102
 40
0.8128658929
 40
0.9149854931
 40
1.0
 40
1.0
 40
1.0
 40
1.0
 10
77.8981068128
 20
159.8436009397
 30
0.0
 10
77.4656714845
 20
160.2858101052
 30
0.0
 10
76.8267773227
 20
160.9419612087
 30
0.0
 10
76.0013146924
 20
161.8132951868
 30
0.0
 10
75.4259390477
 20
162.4373699994
 30
0.0
 10
74.8985971742
 20
163.0333312496
 30
0.0
 10
74.4341159385
 20
163.5920097702
 30
0.0
 10
74.0504651643
 20
164.1022189466
 30
0.0
 10
73.8391367862
 20
164.4362026975
 30
0.0
 10
73.7569686161
 20
164.5952290531
 30
0.0
  0
SPLINE
  5
307
100
AcDbEntity
  8
RUNDUNGEN
100
AcDbSpline
 62
7
  6
CONTINUOUS
 70
0
 71
3
 72
11
 73
7
 74
0
 42
0.0000001
 43
0.0000001
 44
0.0000000001
 40
0.0
 40
0.0
 40
0.0
 40
0.0
 40
0.2406280177
 40
0.4834745399
 40
0.7360023368
 40
1.0
 40
1.0
 40
1.0
 40
1.0
 10
86.1554168769
 20
163.4406249772
 30
0.0
 10
86.2567767242
 20
163.4406124677
 30
0.0
 10
86.4623831718
 20
163.403044998
 30
0.0
 10
86.7324445991
 20
163.2368052067
 30
0.0
 10
86.9267446257
 20
162.9722466657
 30
0.0
 10
86.9747941008
 20
162.7518288303
 30
0.0
 10
86.9748108162
 20
162.6406249772
 30
0.0
  0
SPLINE
  5
308
100
AcDbEntity
  8
RUNDUNGEN
100
AcDbSpline
 62
7
  6
CONTINUOUS
 70
0
 71
3
 72
11
 73
7
 74
0
 42
0.0000001
 43
0.0000001
 44
0.0000000001
 40
0.0
 40
0.0
 40
0.0
 40
0.0
 40
0.2640005508
 40
0.5165275639
 40
0.7593727956
 40
1.0
 40
1.0
 40
1.0
 40
1.0
 10
86.9748108162
 20
155.6406249772
 30
0.0
 10
86.97478947
 20
155.529419841
 30
0.0
 10
86.9267487152
 20
155.309000153
 30
0.0
 10
86.7324422609
 20
155.0444431156
 30
0.0
 10
86.4623821978
 20
154.8782054345
 30
0.0
 10
86.2567764432
 20
154.8406371371
 30
0.0
 10
86.1554168769
 20
154.8406249772
 30
0.0
  0
SPLINE
  5
309
100
AcDbEntity
  8
RUNDUNGEN
100
AcDbSpline
 62
7
  6
CONTINUOUS
 70
0
 71
3
 72
11
 73
7
 74
0
 42
0.0000001
 43
0.0000001
 44
0.0000000001
 40
0.0
 40
0.0
 40
0.0
 40
0.0
 40
0.2406280177
 40
0.4834745399
 40
0.7360023368
 40
1.0
 40
1.0
 40
1.0
 40
1.0
 10
78.9857199072
 20
154.8406249772
 30
0.0
 10
78.8843600598
 20
154.8406374866
 30
0.0
 10
78.6787536122
 20
154.8782049563
 30
0.0
 10
78.4086921849
 20
155.0444447477
 30
0.0
 10
78.2143921583
 20
155.3090032887
 30
0.0
 10
78.1663426833
 20
155.529421124
 30
0.0
 10
78.1663259678
 20
155.6406249772
 30
0.0
  0
SPLINE
  5
30A
100
AcDbEntity
  8
RUNDUNGEN
100
AcDbSpline
 62
7
  6
CONTINUOUS
 70
0
 71
3
 72
11
 73
7
 74
0
 42
0.0000001
 43
0.0000001
 44
0.0000000001
 40
0.0
 40
0.0
 40
0.0
 40
0.0
 40
0.2640005508
 40
0.5165275639
 40
0.7593727956
 40
1.0
 40
1.0
 40
1.0
 40
1.0
 10
78.1663259678
 20
162.6406249772
 30
0.0
 10
78.166347314
 20
162.7518301134
 30
0.0
 10
78.2143880688
 20
162.9722498013
 30
0.0
 10
78.4086945231
 20
163.2368068387
 30
0.0
 10
78.6787545863
 20
163.4030445198
 30
0.0
 10
78.8843603408
 20
163.4406128173
 30
0.0
 10
78.9857199072
 20
163.4406249772
 30
0.0
  0
SPLINE
  5
30B
100
AcDbEntity
  8
RUNDUNGEN
100
AcDbSpline
 62
7
  6
CONTINUOUS
 70
0
 71
3
 72
15
 73
11
 74
0
 42
0.0000001
 43
0.0000001
 44
0.0000000001
 40
0.0
 40
0.0
 40
0.0
 40
0.0
 40
0.0362770796
 40
0.0779366631
 40
0.1758857319
 40
0.2903513689
 40
0.4176729868
 40
0.5546939769
 40
0.6987993634
 40
1.0
 40
1.0
 40
1.0
 40
1.0
 10
91.478577703
 20
164.8015252299
 30
0.0
 10
91.4497918667
 20
164.7278192356
 30
0.0
 10
91.3770634476
 20
164.5737220484
 30
0.0
 10
91.1840613911
 20
164.2418725579
 30
0.0
 10
90.8621454115
 20
163.7896363626
 30
0.0
 10
90.396529668
 20
163.2130062368
 30
0.0
 10
89.8533274632
 20
162.5901818586
 30
0.0
 10
89.2518819073
 20
161.932878131
 30
0.0
 10
88.3798440781
 20
161.0093039659
 30
0.0
 10
87.7023608851
 20
160.3132305366
 30
0.0
 10
87.2430274158
 20
159.8435117336
 30
0.0
  0
SPLINE
  5
30C
100
AcDbEntity
  8
RUNDUNGEN
100
AcDbSpline
 62
7
  6
CONTINUOUS
 70
0
 71
3
 72
15
 73
11
 74
0
 42
0.0000001
 43
0.0000001
 44
0.0000000001
 40
0.0
 40
0.0
 40
0.0
 40
0.0
 40
0.0362773693
 40
0.077935962
 40
0.1758842747
 40
0.2903491615
 40
0.417670721
 40
0.5546916695
 40
0.6987969044
 40
1.0
 40
1.0
 40
1.0
 40
1.0
 10
91.4785884871
 20
153.479693544
 30
0.0
 10
91.449803179
 20
153.5534006962
 30
0.0
 10
91.3770781762
 20
153.7074983929
 30
0.0
 10
91.1840806151
 20
154.0393483312
 30
0.0
 10
90.8621701301
 20
154.4915840981
 30
0.0
 10
90.39655238
 20
155.0682113249
 30
0.0
 10
89.853352214
 20
155.691038484
 30
0.0
 10
89.2519044384
 20
156.3483433276
 30
0.0
 10
88.3798677184
 20
157.2719309868
 30
0.0
 10
87.7023667943
 20
157.9679986685
 30
0.0
 10
87.243027738
 20
158.4377224677
 30
0.0
  0
SPLINE
  5
30D
100
AcDbEntity
  8
RUNDUNGEN
100
AcDbSpline
 62
7
  6
CONTINUOUS
 70
0
 71
3
 72
11
 73
7
 74
0
 42
0.0000001
 43
0.0000001
 44
0.0000000001
 40
0.0
 40
0.0
 40
0.0
 40
0.0
 40
0.2666890226
 40
0.5178069558
 40
0.7590091746
 40
1.0
 40
1.0
 40
1.0
 40
1.0
 10
78.9351814252
 20
163.7110299135
 30
0.0
 10
78.7836260259
 20
163.6942060293
 30
0.0
 10
78.4924087047
 20
163.6055784234
 30
0.0
 10
78.1439681057
 20
163.3316232145
 30
0.0
 10
77.9217724928
 20
162.9658081736
 30
0.0
 10
77.8705438446
 20
162.6875086105
 30
0.0
 10
77.870568392
 20
162.5497158863
 30
0.0
  0
SPLINE
  5
30E
100
AcDbEntity
  8
RUNDUNGEN
100
AcDbSpline
 62
7
  6
CONTINUOUS
 70
0
 71
3
 72
13
 73
9
 74
0
 42
0.0000001
 43
0.0000001
 44
0.0000000001
 40
0.0
 40
0.0
 40
0.0
 40
0.0
 40
0.2871535962
 40
0.5590625371
 40
0.6854887086
 40
0.8028567195
 40
0.9086495124
 40
1.0
 40
1.0
 40
1.0
 40
1.0
 10
77.8705685935
 20
160.1954926258
 30
0.0
 10
77.542186909
 20
160.6808209687
 30
0.0
 10
76.9056550068
 20
161.6275930737
 30
0.0
 10
76.144191017
 20
162.8012784162
 30
0.0
 10
75.5962416197
 20
163.6998316034
 30
0.0
 10
75.2417164844
 20
164.31909553
 30
0.0
 10
74.9466209473
 20
164.8892104824
 30
0.0
 10
74.7858136459
 20
165.2588154962
 30
0.0
 10
74.7229316347
 20
165.4343054856
 30
0.0
  0
SPLINE
  5
30F
100
AcDbEntity
  8
RUNDUNGEN
100
AcDbSpline
 62
7
  6
CONTINUOUS
 70
0
 71
3
 72
14
 73
10
 74
0
 42
0.0000001
 43
0.0000001
 44
0.0000000001
 40
0.0
 40
0.0
 40
0.0
 40
0.0
 40
0.3510682394
 40
0.4985898707
 40
0.6278129165
 40
0.7398238121
 40
0.8366405999
 40
0.9216511547
 40
1.0
 40
1.0
 40
1.0
 40
1.0
 10
74.7229316347
 20
165.4343054856
 30
0.0
 10
74.659343202
 20
165.6117678922
 30
0.0
 10
74.5581728729
 20
165.8606807932
 30
0.0
 10
74.3955465217
 20
166.1563841759
 30
0.0
 10
74.2775831976
 20
166.3291142185
 30
0.0
 10
74.1567948009
 20
166.4654394667
 30
0.0
 10
74.0330187905
 20
166.564912878
 30
0.0
 10
73.905909436
 20
166.6263574176
 30
0.0
 10
73.8177279405
 20
166.6406178399
 30
0.0
 10
73.7756574346
 20
166.6406249694
 30
0.0
  0
SPLINE
  5
310
100
AcDbEntity
  8
RUNDUNGEN
100
AcDbSpline
 62
7
  6
CONTINUOUS
 70
0
 71
3
 72
13
 73
9
 74
0
 42
0.0000001
 43
0.0000001
 44
0.0000000001
 40
0.0
 40
0.0
 40
0.0
 40
0.0
 40
0.0848876131
 40
0.1751942766
 40
0.2753215916
 40
0.3884273528
 40
0.6606086913
 40
1.0
 40
1.0
 40
1.0
 40
1.0
 10
72.8097314109
 20
152.6406249772
 30
0.0
 10
72.8516433379
 20
152.640633282
 30
0.0
 10
72.9385165819
 20
152.6526529982
 30
0.0
 10
73.0651745894
 20
152.7051822644
 30
0.0
 10
73.1891573428
 20
152.7909764863
 30
0.0
 10
73.3612946372
 20
152.9589486044
 30
0.0
 10
73.5639020342
 20
153.2574648834
 30
0.0
 10
73.6929409961
 20
153.5311701008
 30
0.0
 10
73.7569682457
 20
153.6860246355
 30
0.0
  0
SPLINE
  5
311
100
AcDbEntity
  8
RUNDUNGEN
100
AcDbSpline
 62
7
  6
CONTINUOUS
 70
0
 71
3
 72
11
 73
7
 74
0
 42
0.0000001
 43
0.0000001
 44
0.0000000001
 40
0.0
 40
0.0
 40
0.0
 40
0.0
 40
0.2477101266
 40
0.496836802
 40
0.7477927309
 40
1.0
 40
1.0
 40
1.0
 40
1.0
 10
104.7376307506
 20
152.6260945854
 30
0.0
 10
104.7192445543
 20
152.5125468689
 30
0.0
 10
104.6402716781
 20
152.2894832896
 30
0.0
 10
104.4118732669
 20
152.0185403182
 30
0.0
 10
104.1027856758
 20
151.8413767359
 30
0.0
 10
103.8671149689
 20
151.8005029729
 30
0.0
 10
103.75
 20
151.800502951
 30
0.0
  0
SPLINE
  5
312
100
AcDbEntity
  8
RUNDUNGEN
100
AcDbSpline
 62
7
  6
CONTINUOUS
 70
0
 71
3
 72
16
 73
12
 74
0
 42
0.0000001
 43
0.0000001
 44
0.0000000001
 40
0.0
 40
0.0
 40
0.0
 40
0.0
 40
0.1681140325
 40
0.3311830113
 40
0.4845481659
 40
0.6241964188
 40
0.7469843385
 40
0.8507718453
 40
0.895248707
 40
0.9347976359
 40
1.0
 40
1.0
 40
1.0
 40
1.0
 10
101.9985773888
 20
159.1410583871
 30
0.0
 10
101.9985737267
 20
158.709052344
 30
0.0
 10
102.0200216337
 20
157.8578386392
 30
0.0
 10
102.1157922416
 20
156.6158014285
 30
0.0
 10
102.2711396101
 20
155.4534546703
 30
0.0
 10
102.4801032947
 20
154.4046721159
 30
0.0
 10
102.7353528329
 20
153.4977604606
 30
0.0
 10
102.9908412264
 20
152.8477703286
 30
0.0
 10
103.2179431981
 20
152.4209509903
 30
0.0
 10
103.4283472022
 20
152.1007334282
 30
0.0
 10
103.6136530251
 20
151.8979170593
 30
0.0
 10
103.7499995029
 20
151.8005350446
 30
0.0
  0
SPLINE
  5
313
100
AcDbEntity
  8
RUNDUNGEN
100
AcDbSpline
 62
7
  6
CONTINUOUS
 70
0
 71
3
 72
17
 73
13
 74
0
 42
0.0000001
 43
0.0000001
 44
0.0000000001
 40
0.0
 40
0.0
 40
0.0
 40
0.0
 40
0.0305459265
 40
0.0653742571
 40
0.1049162636
 40
0.1493842764
 40
0.2531512121
 40
0.3759152081
 40
0.5155474345
 40
0.668897168
 40
0.8319343237
 40
1.0
 40
1.0
 40
1.0
 40
1.0
 10
103.7500001111
 20
166.4807573797
 30
0.0
 10
103.6861121055
 20
166.4351426184
 30
0.0
 10
103.5594239473
 20
166.3232540744
 30
0.0
 10
103.3858993874
 20
166.1160065235
 30
0.0
 10
103.2179302657
 20
165.8602639427
 30
0.0
 10
102.9909994026
 20
165.4337948434
 30
0.0
 10
102.7354125151
 20
164.7837189846
 30
0.0
 10
102.4801979493
 20
163.8769584783
 30
0.0
 10
102.2712059929
 20
162.8282135731
 30
0.0
 10
102.1158564774
 20
161.6659424978
 30
0.0
 10
102.0200668524
 20
160.4240504683
 30
0.0
 10
101.998584315
 20
159.5729751844
 30
0.0
 10
101.9985773888
 20
159.1410583871
 30
0.0
  0
SPLINE
  5
314
100
AcDbEntity
  8
RUNDUNGEN
100
AcDbSpline
 62
7
  6
CONTINUOUS
 70
0
 71
3
 72
11
 73
7
 74
0
 42
0.0000001
 43
0.0000001
 44
0.0000000001
 40
0.0
 40
0.0
 40
0.0
 40
0.0
 40
0.2477102817
 40
0.4968370016
 40
0.7477928605
 40
1.0
 40
1.0
 40
1.0
 40
1.0
 10
104.7376308159
 20
165.6551574608
 30
0.0
 10
104.7192446655
 20
165.7687053552
 30
0.0
 10
104.6402718845
 20
165.9917692701
 30
0.0
 10
104.4118735008
 20
166.2627127371
 30
0.0
 10
104.102785828
 20
166.4398766598
 30
0.0
 10
103.8671150067
 20
166.4807504869
 30
0.0
 10
103.75
 20
166.480750495
 30
0.0
  0
SPLINE
  5
315
100
AcDbEntity
  8
RUNDUNGEN
100
AcDbSpline
 62
7
  6
CONTINUOUS
 70
0
 71
3
 72
15
 73
11
 74
0
 42
0.0000001
 43
0.0000001
 44
0.0000000001
 40
0.0
 40
0.0
 40
0.0
 40
0.0
 40
0.0402984119
 40
0.0852718092
 40
0.1876207553
 40
0.3037800168
 40
0.4306470468
 40
0.5656312143
 40
0.7066183336
 40
1.0
 40
1.0
 40
1.0
 40
1.0
 10
90.4937328562
 20
165.6723092104
 30
0.0
 10
90.4713560068
 20
165.5896941084
 30
0.0
 10
90.4152470173
 20
165.4172370653
 30
0.0
 10
90.2669646705
 20
165.0471712983
 30
0.0
 10
90.0208990802
 20
164.5438574954
 30
0.0
 10
89.6644984634
 20
163.9025601359
 30
0.0
 10
89.2510667312
 20
163.2141725769
 30
0.0
 10
88.7946318883
 20
162.49043462
 30
0.0
 10
88.1345157815
 20
161.4771846318
 30
0.0
 10
87.6197717234
 20
160.7115115929
 30
0.0
 10
87.270567285
 20
160.1954245634
 30
0.0
  0
SPLINE
  5
316
100
AcDbEntity
  8
RUNDUNGEN
100
AcDbSpline
 62
7
  6
CONTINUOUS
 70
0
 71
3
 72
11
 73
7
 74
0
 42
0.0000001
 43
0.0000001
 44
0.0000000001
 40
0.0
 40
0.0
 40
0.0
 40
0.0
 40
0.2409785302
 40
0.4821738841
 40
0.7333027598
 40
1.0
 40
1.0
 40
1.0
 40
1.0
 10
87.270568392
 20
162.5497158863
 30
0.0
 10
87.2705930345
 20
162.6875474738
 30
0.0
 10
87.2193317337
 20
162.9659290624
 30
0.0
 10
86.9970091415
 20
163.3318347697
 30
0.0
 10
86.6483615638
 20
163.6057881909
 30
0.0
 10
86.3569968924
 20
163.6943368241
 30
0.0
 10
86.2053783567
 20
163.7110947411
 30
0.0
  0
SPLINE
  5
317
100
AcDbEntity
  8
RUNDUNGEN
100
AcDbSpline
 62
7
  6
CONTINUOUS
 70
0
 71
3
 72
11
 73
7
 74
0
 42
0.0000001
 43
0.0000001
 44
0.0000000001
 40
0.0
 40
0.0
 40
0.0
 40
0.0
 40
0.2409785302
 40
0.4821738841
 40
0.7333027598
 40
1.0
 40
1.0
 40
1.0
 40
1.0
 10
77.870568392
 20
155.7315340681
 30
0.0
 10
77.8705437495
 20
155.5937024805
 30
0.0
 10
77.9218050503
 20
155.3153208919
 30
0.0
 10
78.1441276425
 20
154.9494151846
 30
0.0
 10
78.4927752202
 20
154.6754617634
 30
0.0
 10
78.7841398916
 20
154.5869131302
 30
0.0
 10
78.9357584273
 20
154.5701552133
 30
0.0
  0
SPLINE
  5
318
100
AcDbEntity
  8
RUNDUNGEN
100
AcDbSpline
 62
7
  6
CONTINUOUS
 70
0
 71
3
 72
13
 73
9
 74
0
 42
0.0000001
 43
0.0000001
 44
0.0000000001
 40
0.0
 40
0.0
 40
0.0
 40
0.0
 40
0.0705184044
 40
0.1493412674
 40
0.2424014851
 40
0.3532543317
 40
0.634841438
 40
1.0
 40
1.0
 40
1.0
 40
1.0
 10
92.0418334964
 20
152.6406249772
 30
0.0
 10
92.0169559986
 20
152.6406363386
 30
0.0
 10
91.963950163
 20
152.6509505239
 30
0.0
 10
91.8889449137
 20
152.6942128447
 30
0.0
 10
91.8161327428
 20
152.7633207742
 30
0.0
 10
91.712921463
 20
152.9006761935
 30
0.0
 10
91.593089968
 20
153.1414493424
 30
0.0
 10
91.5170143937
 20
153.3567517539
 30
0.0
 10
91.4785884946
 20
153.4797079679
 30
0.0
  0
SPLINE
  5
319
100
AcDbEntity
  8
RUNDUNGEN
100
AcDbSpline
 62
7
  6
CONTINUOUS
 70
0
 71
3
 72
11
 73
7
 74
0
 42
0.0000001
 43
0.0000001
 44
0.0000000001
 40
0.0
 40
0.0
 40
0.0
 40
0.0
 40
0.3311755715
 40
0.4852043794
 40
0.6247590226
 40
1.0
 40
1.0
 40
1.0
 40
1.0
 10
77.870568392
 20
162.5497158872
 30
0.0
 10
77.8961520861
 20
162.5497158872
 30
0.0
 10
77.9336226274
 20
162.5528514116
 30
0.0
 10
77.9810479767
 20
162.5642286128
 30
0.0
 10
78.0281560388
 20
162.5808869563
 30
0.0
 10
78.070568392
 20
162.6116371797
 30
0.0
 10
78.070568392
 20
162.6406249771
 30
0.0
  0
SPLINE
  5
31A
100
AcDbEntity
  8
RUNDUNGEN
100
AcDbSpline
 62
7
  6
CONTINUOUS
 70
0
 71
3
 72
12
 73
8
 74
0
 42
0.0000001
 43
0.0000001
 44
0.0000000001
 40
0.0
 40
0.0
 40
0.0
 40
0.0
 40
0.3725506274
 40
0.6906299083
 40
0.9062422984
 40
0.9673589268
 40
1.0
 40
1.0
 40
1.0
 40
1.0
 10
77.8705685935
 20
160.1955078293
 30
0.0
 10
77.8960580432
 20
160.195507708
 30
0.0
 10
77.9434246974
 20
160.1968043381
 30
0.0
 10
78.0048856282
 20
160.2018754265
 30
0.0
 10
78.0457742857
 20
160.2092691692
 30
0.0
 10
78.0650452434
 20
160.2162417641
 30
0.0
 10
78.0705688066
 20
160.2214058053
 30
0.0
 10
78.0705683919
 20
160.2236390668
 30
0.0
  0
SPLINE
  5
31B
100
AcDbEntity
  8
RUNDUNGEN
100
AcDbSpline
 62
7
  6
CONTINUOUS
 70
0
 71
3
 72
12
 73
8
 74
0
 42
0.0000001
 43
0.0000001
 44
0.0000000001
 40
0.0
 40
0.0
 40
0.0
 40
0.0
 40
0.3725503493
 40
0.6906296613
 40
0.9062425784
 40
0.9673594174
 40
1.0
 40
1.0
 40
1.0
 40
1.0
 10
77.870568392
 20
158.085744883
 30
0.0
 10
77.896057784
 20
158.085744936
 30
0.0
 10
77.9434243598
 20
158.0844482536
 30
0.0
 10
78.0048851718
 20
158.0793773797
 30
0.0
 10
78.0457739871
 20
158.0719840527
 30
0.0
 10
78.0650449171
 20
158.0650117775
 30
0.0
 10
78.0705687356
 20
158.0598480331
 30
0.0
 10
78.070568392
 20
158.0576148086
 30
0.0
  0
SPLINE
  5
31C
100
AcDbEntity
  8
RUNDUNGEN
100
AcDbSpline
 62
7
  6
CONTINUOUS
 70
0
 71
3
 72
11
 73
7
 74
0
 42
0.0000001
 43
0.0000001
 44
0.0000000001
 40
0.0
 40
0.0
 40
0.0
 40
0.0
 40
0.331176425
 40
0.4852057653
 40
0.6247605861
 40
1.0
 40
1.0
 40
1.0
 40
1.0
 10
77.870568392
 20
155.7315340676
 30
0.0
 10
77.8961521232
 20
155.7315339222
 30
0.0
 10
77.9336226985
 20
155.7283981903
 30
0.0
 10
77.9810480998
 20
155.7170208888
 30
0.0
 10
78.0281559832
 20
155.700362496
 30
0.0
 10
78.070568392
 20
155.6696126212
 30
0.0
 10
78.070568392
 20
155.6406249772
 30
0.0
  0
SPLINE
  5
31D
100
AcDbEntity
  8
RUNDUNGEN
100
AcDbSpline
 62
7
  6
CONTINUOUS
 70
0
 71
3
 72
11
 73
7
 74
0
 42
0.0000001
 43
0.0000001
 44
0.0000000001
 40
0.0
 40
0.0
 40
0.0
 40
0.0
 40
0.3311756307
 40
0.4852044917
 40
0.6247591414
 40
1.0
 40
1.0
 40
1.0
 40
1.0
 10
87.270568392
 20
155.7315340676
 30
0.0
 10
87.2449846931
 20
155.7315340677
 30
0.0
 10
87.2075141436
 20
155.7283985367
 30
0.0
 10
87.1600887843
 20
155.7170213358
 30
0.0
 10
87.1129807281
 20
155.7003629863
 30
0.0
 10
87.070568392
 20
155.6696127656
 30
0.0
 10
87.070568392
 20
155.6406249772
 30
0.0
  0
SPLINE
  5
31E
100
AcDbEntity
  8
RUNDUNGEN
100
AcDbSpline
 62
7
  6
CONTINUOUS
 70
0
 71
3
 72
12
 73
8
 74
0
 42
0.0000001
 43
0.0000001
 44
0.0000000001
 40
0.0
 40
0.0
 40
0.0
 40
0.0
 40
0.3725475173
 40
0.6906246372
 40
0.9062375745
 40
0.9673558941
 40
1.0
 40
1.0
 40
1.0
 40
1.0
 10
87.2705673529
 20
158.0857364884
 30
0.0
 10
87.2450781307
 20
158.0857371111
 30
0.0
 10
87.1977118619
 20
158.0844412076
 30
0.0
 10
87.1362511718
 20
158.0793698709
 30
0.0
 10
87.0953628507
 20
158.071975468
 30
0.0
 10
87.0760915624
 20
158.0650019687
 30
0.0
 10
87.0705681145
 20
158.0598375879
 30
0.0
 10
87.070568392
 20
158.0576041202
 30
0.0
  0
SPLINE
  5
31F
100
AcDbEntity
  8
RUNDUNGEN
100
AcDbSpline
 62
7
  6
CONTINUOUS
 70
0
 71
3
 72
12
 73
8
 74
0
 42
0.0000001
 43
0.0000001
 44
0.0000000001
 40
0.0
 40
0.0
 40
0.0
 40
0.0
 40
0.3725481006
 40
0.690626136
 40
0.9062395549
 40
0.9673575924
 40
1.0
 40
1.0
 40
1.0
 40
1.0
 10
87.270568392
 20
160.1955143352
 30
0.0
 10
87.2450790958
 20
160.1955144629
 30
0.0
 10
87.1977126745
 20
160.1968114656
 30
0.0
 10
87.1362519266
 20
160.2018829268
 30
0.0
 10
87.0953631467
 20
160.2092766222
 30
0.0
 10
87.0760919831
 20
160.2162494971
 30
0.0
 10
87.0705681543
 20
160.2214134002
 30
0.0
 10
87.070568392
 20
160.2236467548
 30
0.0
  0
SPLINE
  5
320
100
AcDbEntity
  8
RUNDUNGEN
100
AcDbSpline
 62
7
  6
CONTINUOUS
 70
0
 71
3
 72
11
 73
7
 74
0
 42
0.0000001
 43
0.0000001
 44
0.0000000001
 40
0.0
 40
0.0
 40
0.0
 40
0.0
 40
0.3311764251
 40
0.4852057654
 40
0.6247605862
 40
1.0
 40
1.0
 40
1.0
 40
1.0
 10
87.270568392
 20
162.5497158872
 30
0.0
 10
87.2449846608
 20
162.5497160326
 30
0.0
 10
87.2075140855
 20
162.5528517643
 30
0.0
 10
87.1600886842
 20
162.5642290658
 30
0.0
 10
87.1129808008
 20
162.5808874584
 30
0.0
 10
87.070568392
 20
162.6116373332
 30
0.0
 10
87.070568392
 20
162.6406249771
 30
0.0
  0
SPLINE
  5
321
100
AcDbEntity
  8
RUNDUNGEN
100
AcDbSpline
 62
7
  6
CONTINUOUS
 70
0
 71
3
 72
13
 73
9
 74
0
 42
0.0000001
 43
0.0000001
 44
0.0000000001
 40
0.0
 40
0.0
 40
0.0
 40
0.0
 40
0.0705182944
 40
0.1493396724
 40
0.242398516
 40
0.3532522933
 40
0.6348433683
 40
1.0
 40
1.0
 40
1.0
 40
1.0
 10
92.0418334964
 20
165.6406249772
 30
0.0
 10
92.0169553423
 20
165.6406113244
 30
0.0
 10
91.9639495067
 20
165.630296099
 30
0.0
 10
91.8889416066
 20
165.5870355959
 30
0.0
 10
91.8161274349
 20
165.5179263234
 30
0.0
 10
91.7129150169
 20
165.3805641365
 30
0.0
 10
91.5930829881
 20
165.1397818859
 30
0.0
 10
91.5170049208
 20
164.9244729173
 30
0.0
 10
91.4785777075
 20
164.8015140501
 30
0.0
  0
SPLINE
  5
322
100
AcDbEntity
  8
RUNDUNGEN
100
AcDbSpline
 62
7
  6
CONTINUOUS
 70
0
 71
3
 72
11
 73
7
 74
0
 42
0.0000001
 43
0.0000001
 44
0.0000000001
 40
0.0
 40
0.0
 40
0.0
 40
0.0
 40
0.2813748467
 40
0.5396450672
 40
0.7771766655
 40
1.0
 40
1.0
 40
1.0
 40
1.0
 10
247.3039147376
 20
153.6860201634
 30
0.0
 10
247.7768667313
 20
153.9312971458
 30
0.0
 10
248.6431763954
 20
154.487829395
 30
0.0
 10
249.7022976384
 20
155.5244623291
 30
0.0
 10
250.4558670768
 20
156.6700469217
 30
0.0
 10
250.7627411966
 20
157.4955091368
 30
0.0
 10
250.8619730646
 20
157.9055793588
 30
0.0
  0
SPLINE
  5
323
100
AcDbEntity
  8
RUNDUNGEN
100
AcDbSpline
 62
7
  6
CONTINUOUS
 70
0
 71
3
 72
11
 73
7
 74
0
 42
0.0000001
 43
0.0000001
 44
0.0000000001
 40
0.0
 40
0.0
 40
0.0
 40
0.0
 40
0.2227995095
 40
0.4603022331
 40
0.718571147
 40
1.0
 40
1.0
 40
1.0
 40
1.0
 10
250.8644378432
 20
160.3654082295
 30
0.0
 10
250.7658473216
 20
160.7763873145
 30
0.0
 10
250.4598374724
 20
161.6038423091
 30
0.0
 10
249.7062214885
 20
162.7523614328
 30
0.0
 10
248.6457502179
 20
163.7916582814
 30
0.0
 10
247.7778310962
 20
164.3494509499
 30
0.0
 10
247.3039161125
 20
164.5952290531
 30
0.0
  0
SPLINE
  5
324
100
AcDbEntity
  8
RUNDUNGEN
100
AcDbSpline
 62
7
  6
CONTINUOUS
 70
0
 71
3
 72
22
 73
18
 74
0
 42
0.0000001
 43
0.0000001
 44
0.0000000001
 40
0.0
 40
0.0
 40
0.0
 40
0.0
 40
0.1749388634
 40
0.3459400185
 40
0.5088058294
 40
0.6595983968
 40
0.7288374481
 40
0.7929404486
 40
0.8507908123
 40
0.9011759379
 40
0.9427449918
 40
0.9597396136
 40
0.9739459756
 40
0.9851891947
 40
0.9933515381
 40
0.9983246188
 40
1.0
 40
1.0
 40
1.0
 40
1.0
 10
250.3684785592
 20
155.6405432697
 30
0.0
 10
250.3301874204
 20
155.5780036594
 30
0.0
 10
250.2521931869
 20
155.4557094147
 30
0.0
 10
250.1312821287
 20
155.2799647225
 30
0.0
 10
250.010592278
 20
155.1164948453
 30
0.0
 10
249.9112835668
 20
154.990373173
 30
0.0
 10
249.8356487062
 20
154.8983624653
 30
0.0
 10
249.7839549501
 20
154.8371198393
 30
0.0
 10
249.7367177796
 20
154.7824475378
 30
0.0
 10
249.6952157232
 20
154.7353622348
 30
0.0
 10
249.6646425893
 20
154.7013330011
 30
0.0
 10
249.6442524612
 20
154.678810822
 30
0.0
 10
249.6320077468
 20
154.6655341756
 30
0.0
 10
249.6231324756
 20
154.6555229583
 30
0.0
 10
249.6147010558
 20
154.6471549182
 30
0.0
 10
249.6131721811
 20
154.6441227497
 30
0.0
 10
249.6084639784
 20
154.6404824292
 30
0.0
 10
249.609151644
 20
154.6406249834
 30
0.0
  0
SPLINE
  5
325
100
AcDbEntity
  8
RUNDUNGEN
100
AcDbSpline
 62
7
  6
CONTINUOUS
 70
0
 71
3
 72
14
 73
10
 74
0
 42
0.0000001
 43
0.0000001
 44
0.0000000001
 40
0.0
 40
0.0
 40
0.0
 40
0.0
 40
0.0651700211
 40
0.1443851215
 40
0.2427718806
 40
0.3616689946
 40
0.5002317096
 40
0.6559136918
 40
1.0
 40
1.0
 40
1.0
 40
1.0
 10
253.4807360974
 20
154.6406249772
 30
0.0
 10
253.4556041463
 20
154.6406295166
 30
0.0
 10
253.3998353146
 20
154.6565660059
 30
0.0
 10
253.3252279209
 20
154.7152066667
 30
0.0
 10
253.2539895171
 20
154.8055616652
 30
0.0
 10
253.1881735237
 20
154.9265330702
 30
0.0
 10
253.1309080048
 20
155.0756416395
 30
0.0
 10
253.0691502643
 20
155.3143004459
 30
0.0
 10
253.0507581108
 20
155.5079326716
 30
0.0
 10
253.0507338038
 20
155.640624976
 30
0.0
  0
SPLINE
  5
326
100
AcDbEntity
  8
RUNDUNGEN
100
AcDbSpline
 62
7
  6
CONTINUOUS
 70
0
 71
3
 72
22
 73
18
 74
0
 42
0.0000001
 43
0.0000001
 44
0.0000000001
 40
0.0
 40
0.0
 40
0.0
 40
0.0
 40
0.0016757225
 40
0.0066494776
 40
0.0148124022
 40
0.0260556843
 40
0.0402616057
 40
0.0572558391
 40
0.098824222
 40
0.1492085902
 40
0.2070573348
 40
0.2711569731
 40
0.3403938265
 40
0.4911860194
 40
0.6540535044
 40
0.8250595815
 40
1.0
 40
1.0
 40
1.0
 40
1.0
 10
249.6091516444
 20
163.6406249709
 30
0.0
 10
249.6084638547
 20
163.6407676331
 30
0.0
 10
249.6131729288
 20
163.6371266967
 30
0.0
 10
249.6147020442
 20
163.6340943995
 30
0.0
 10
249.6231339833
 20
163.6257259384
 30
0.0
 10
249.6320092998
 20
163.6157146235
 30
0.0
 10
249.644253582
 20
163.6024380303
 30
0.0
 10
249.6646429913
 20
163.5799160215
 30
0.0
 10
249.6952153028
 20
163.545887056
 30
0.0
 10
249.7367168488
 20
163.4988029747
 30
0.0
 10
249.7839531838
 20
163.4441330915
 30
0.0
 10
249.8356451607
 20
163.3828928561
 30
0.0
 10
249.9112783554
 20
163.290883935
 30
0.0
 10
250.0105862436
 20
163.1647620206
 30
0.0
 10
250.1312783182
 20
163.0012904514
 30
0.0
 10
250.2521913269
 20
162.8255428418
 30
0.0
 10
250.3301873151
 20
162.7032464298
 30
0.0
 10
250.3684788307
 20
162.6407062516
 30
0.0
  0
SPLINE
  5
327
100
AcDbEntity
  8
RUNDUNGEN
100
AcDbSpline
 62
7
  6
CONTINUOUS
 70
0
 71
3
 72
14
 73
10
 74
0
 42
0.0000001
 43
0.0000001
 44
0.0000000001
 40
0.0
 40
0.0
 40
0.0
 40
0.0
 40
0.3440907063
 40
0.499769519
 40
0.6383330642
 40
0.757229183
 40
0.8556154245
 40
0.9348302549
 40
1.0
 40
1.0
 40
1.0
 40
1.0
 10
253.0507338038
 20
162.6406249784
 30
0.0
 10
253.0507632569
 20
162.7733189931
 30
0.0
 10
253.0691433331
 20
162.966953069
 30
0.0
 10
253.1309129037
 20
163.2056098367
 30
0.0
 10
253.1881732682
 20
163.3547187533
 30
0.0
 10
253.253990033
 20
163.4756897454
 30
0.0
 10
253.3252286306
 20
163.5660436012
 30
0.0
 10
253.3998355551
 20
163.6246841554
 30
0.0
 10
253.4556042498
 20
163.6406205444
 30
0.0
 10
253.4807360974
 20
163.6406249772
 30
0.0
  0
SPLINE
  5
328
100
AcDbEntity
  8
RUNDUNGEN
100
AcDbSpline
 62
7
  6
CONTINUOUS
 70
0
 71
3
 72
11
 73
7
 74
0
 42
0.0000001
 43
0.0000001
 44
0.0000000001
 40
0.0
 40
0.0
 40
0.0
 40
0.0
 40
0.2382155683
 40
0.483807686
 40
0.7389422004
 40
1.0
 40
1.0
 40
1.0
 40
1.0
 10
253.4807360973
 20
163.6406249772
 30
0.0
 10
253.5043625784
 20
163.6406249772
 30
0.0
 10
253.5528825591
 20
163.6297008856
 30
0.0
 10
253.613197268
 20
163.5846565128
 30
0.0
 10
253.6525970587
 20
163.5181489221
 30
0.0
 10
253.6618458282
 20
163.4665169758
 30
0.0
 10
253.6618458279
 20
163.4406249772
 30
0.0
  0
SPLINE
  5
329
100
AcDbEntity
  8
RUNDUNGEN
100
AcDbSpline
 62
7
  6
CONTINUOUS
 70
0
 71
3
 72
11
 73
7
 74
0
 42
0.0000001
 43
0.0000001
 44
0.0000000001
 40
0.0
 40
0.0
 40
0.0
 40
0.0
 40
0.2382172083
 40
0.4838096835
 40
0.7389432411
 40
1.0
 40
1.0
 40
1.0
 40
1.0
 10
253.4807360973
 20
154.6406249772
 30
0.0
 10
253.5043627812
 20
154.6406249772
 30
0.0
 10
253.5528830537
 20
154.6515490254
 30
0.0
 10
253.6131980647
 20
154.6965934184
 30
0.0
 10
253.652597759
 20
154.7631010884
 30
0.0
 10
253.6618460771
 20
154.8147330378
 30
0.0
 10
253.6618458285
 20
154.8406249772
 30
0.0
  0
SPLINE
  5
32A
100
AcDbEntity
  8
RUNDUNGEN
100
AcDbSpline
 62
7
  6
CONTINUOUS
 70
0
 71
3
 72
13
 73
9
 74
0
 42
0.0000001
 43
0.0000001
 44
0.0000000001
 40
0.0
 40
0.0
 40
0.0
 40
0.0
 40
0.3344102564
 40
0.6191633742
 40
0.7368556663
 40
0.8379054377
 40
0.9242385471
 40
1.0
 40
1.0
 40
1.0
 40
1.0
 10
253.2214192366
 20
162.6406249772
 30
0.0
 10
253.2214334162
 20
162.7502140316
 30
0.0
 10
253.2474035285
 20
162.953995726
 30
0.0
 10
253.3390243119
 20
163.1811552002
 30
0.0
 10
253.4356839253
 20
163.3157579334
 30
0.0
 10
253.5083663268
 20
163.3854433694
 30
0.0
 10
253.5836794297
 20
163.4294601744
 30
0.0
 10
253.6370181633
 20
163.4406186198
 30
0.0
 10
253.6618458282
 20
163.4406249772
 30
0.0
  0
SPLINE
  5
32B
100
AcDbEntity
  8
RUNDUNGEN
100
AcDbSpline
 62
7
  6
CONTINUOUS
 70
0
 71
3
 72
13
 73
9
 74
0
 42
0.0000001
 43
0.0000001
 44
0.0000000001
 40
0.0
 40
0.0
 40
0.0
 40
0.0
 40
0.0757616023
 40
0.1620950264
 40
0.2631455623
 40
0.3808388083
 40
0.6655936116
 40
1.0
 40
1.0
 40
1.0
 40
1.0
 10
253.6618458282
 20
154.8406249772
 30
0.0
 10
253.6370181229
 20
154.8406315173
 30
0.0
 10
253.5836793049
 20
154.8517897768
 30
0.0
 10
253.508365609
 20
154.8958065264
 30
0.0
 10
253.4356834443
 20
154.9654931234
 30
0.0
 10
253.3390231361
 20
155.1000967521
 30
0.0
 10
253.2474064506
 20
155.3272567857
 30
0.0
 10
253.2214303778
 20
155.5310372273
 30
0.0
 10
253.2214192366
 20
155.6406249772
 30
0.0
  0
SPLINE
  5
32C
100
AcDbEntity
  8
RUNDUNGEN
100
AcDbSpline
 62
7
  6
CONTINUOUS
 70
0
 71
3
 72
11
 73
7
 74
0
 42
0.0000001
 43
0.0000001
 44
0.0000000001
 40
0.0
 40
0.0
 40
0.0
 40
0.0
 40
0.2701149165
 40
0.5219403173
 40
0.7632473764
 40
1.0
 40
1.0
 40
1.0
 40
1.0
 10
197.4205047221
 20
165.6406309937
 30
0.0
 10
196.8474153227
 20
165.7599179071
 30
0.0
 10
195.7440740484
 20
166.008963935
 30
0.0
 10
194.1258913976
 20
166.3531544373
 30
0.0
 10
192.559742471
 20
166.5858549078
 30
0.0
 10
191.5230318732
 20
166.6406248891
 30
0.0
 10
191.0099596986
 20
166.6406233713
 30
0.0
  0
SPLINE
  5
32D
100
AcDbEntity
  8
RUNDUNGEN
100
AcDbSpline
 62
7
  6
CONTINUOUS
 70
0
 71
3
 72
11
 73
7
 74
0
 42
0.0000001
 43
0.0000001
 44
0.0000000001
 40
0.0
 40
0.0
 40
0.0
 40
0.0
 40
0.2367534825
 40
0.4780600576
 40
0.7298849154
 40
1.0
 40
1.0
 40
1.0
 40
1.0
 10
191.0094948396
 20
151.6406253801
 30
0.0
 10
191.5226018784
 20
151.6406078701
 30
0.0
 10
192.5593819408
 20
151.6953529752
 30
0.0
 10
194.1256350368
 20
151.9280465964
 30
0.0
 10
195.743921242
 20
152.2722533106
 30
0.0
 10
196.847335794
 20
152.5213001665
 30
0.0
 10
197.420459896
 20
152.640606923
 30
0.0
  0
SPLINE
  5
32E
100
AcDbEntity
  8
RUNDUNGEN
100
AcDbSpline
 62
7
  6
CONTINUOUS
 70
0
 71
3
 72
14
 73
10
 74
0
 42
0.0000001
 43
0.0000001
 44
0.0000000001
 40
0.0
 40
0.0
 40
0.0
 40
0.0
 40
0.1901535174
 40
0.3705668293
 40
0.5349461815
 40
0.6787339254
 40
0.7982319848
 40
0.8911483782
 40
1.0
 40
1.0
 40
1.0
 40
1.0
 10
247.3040549241
 20
164.5951480845
 30
0.0
 10
247.3340084652
 20
164.6446811957
 30
0.0
 10
247.3904766914
 20
164.7423928042
 30
0.0
 10
247.4660225346
 20
164.8866545913
 30
0.0
 10
247.5284009602
 20
165.0219463348
 30
0.0
 10
247.575838746
 20
165.1427015278
 30
0.0
 10
247.6068531192
 20
165.2484617154
 30
0.0
 10
247.6236503134
 20
165.3401528963
 30
0.0
 10
247.6169267974
 20
165.4162768012
 30
0.0
 10
247.5891203153
 20
165.4342989942
 30
0.0
  0
SPLINE
  5
32F
100
AcDbEntity
  8
RUNDUNGEN
100
AcDbSpline
 62
7
  6
CONTINUOUS
 70
0
 71
3
 72
15
 73
11
 74
0
 42
0.0000001
 43
0.0000001
 44
0.0000000001
 40
0.0
 40
0.0
 40
0.0
 40
0.0
 40
0.1820838727
 40
0.3579944764
 40
0.5209463339
 40
0.6655707194
 40
0.7873644435
 40
0.838665567
 40
0.8833356794
 40
1.0
 40
1.0
 40
1.0
 40
1.0
 10
243.7687787437
 20
165.6406249772
 30
0.0
 10
243.7687787437
 20
165.7056214009
 30
0.0
 10
243.7655568543
 20
165.8334329598
 30
0.0
 10
243.7512957012
 20
166.0189364096
 30
0.0
 10
243.7281786224
 20
166.1900519233
 30
0.0
 10
243.6969899152
 20
166.3403684092
 30
0.0
 10
243.664329702
 20
166.4489176482
 30
0.0
 10
243.6334867182
 20
166.5210057136
 30
0.0
 10
243.598939072
 20
166.5861758304
 30
0.0
 10
243.5516040436
 20
166.6406249772
 30
0.0
 10
243.5099596986
 20
166.6406249772
 30
0.0
  0
SPLINE
  5
330
100
AcDbEntity
  8
RUNDUNGEN
100
AcDbSpline
 62
7
  6
CONTINUOUS
 70
0
 71
3
 72
15
 73
11
 74
0
 42
0.0000001
 43
0.0000001
 44
0.0000000001
 40
0.0
 40
0.0
 40
0.0
 40
0.0
 40
0.1820840838
 40
0.3579948708
 40
0.5209468423
 40
0.6655712918
 40
0.7873650298
 40
0.8386661291
 40
0.8833361924
 40
1.0
 40
1.0
 40
1.0
 40
1.0
 10
197.4205240973
 20
165.640625879
 30
0.0
 10
197.4205237788
 20
165.705622268
 30
0.0
 10
197.4173013762
 20
165.8334337328
 30
0.0
 10
197.4030399542
 20
166.0189370184
 30
0.0
 10
197.3799230719
 20
166.1900523877
 30
0.0
 10
197.3487345789
 20
166.3403687262
 30
0.0
 10
197.3160745769
 20
166.4489178372
 30
0.0
 10
197.2852318299
 20
166.5210058452
 30
0.0
 10
197.2506845411
 20
166.5861757396
 30
0.0
 10
197.2033499921
 20
166.6406249789
 30
0.0
 10
197.1617059007
 20
166.6406249772
 30
0.0
  0
SPLINE
  5
331
100
AcDbEntity
  8
RUNDUNGEN
100
AcDbSpline
 62
7
  6
CONTINUOUS
 70
0
 71
3
 72
15
 73
11
 74
0
 42
0.0000001
 43
0.0000001
 44
0.0000000001
 40
0.0
 40
0.0
 40
0.0
 40
0.0
 40
0.1820840663
 40
0.3579947733
 40
0.5209466704
 40
0.6655710537
 40
0.7873647499
 40
0.8386658518
 40
0.8833359363
 40
1.0
 40
1.0
 40
1.0
 40
1.0
 10
197.420515998
 20
152.6406220762
 30
0.0
 10
197.4205160611
 20
152.5756258271
 30
0.0
 10
197.4172943139
 20
152.4478146388
 30
0.0
 10
197.4030334223
 20
152.2623117487
 30
0.0
 10
197.3799166535
 20
152.0911967974
 30
0.0
 10
197.3487283034
 20
151.9408808219
 30
0.0
 10
197.3160684302
 20
151.8323319494
 30
0.0
 10
197.2852257534
 20
151.7602440996
 30
0.0
 10
197.250678465
 20
151.6950742422
 30
0.0
 10
197.2033439843
 20
151.6406251198
 30
0.0
 10
197.1616998872
 20
151.6406249772
 30
0.0
  0
SPLINE
  5
332
100
AcDbEntity
  8
RUNDUNGEN
100
AcDbSpline
 62
7
  6
CONTINUOUS
 70
0
 71
3
 72
15
 73
11
 74
0
 42
0.0000001
 43
0.0000001
 44
0.0000000001
 40
0.0
 40
0.0
 40
0.0
 40
0.0
 40
0.1820838697
 40
0.357994468
 40
0.5209463239
 40
0.6655707101
 40
0.7873644353
 40
0.8386655597
 40
0.8833356736
 40
1.0
 40
1.0
 40
1.0
 40
1.0
 10
243.7687787437
 20
152.6406249772
 30
0.0
 10
243.7687787449
 20
152.5756285542
 30
0.0
 10
243.7655568581
 20
152.4478169977
 30
0.0
 10
243.7512957071
 20
152.2623135505
 30
0.0
 10
243.7281786306
 20
152.091198038
 30
0.0
 10
243.6969899241
 20
151.9408815513
 30
0.0
 10
243.6643297108
 20
151.8323323107
 30
0.0
 10
243.6334867259
 20
151.760244244
 30
0.0
 10
243.5989390778
 20
151.6950741244
 30
0.0
 10
243.5516040456
 20
151.6406249772
 30
0.0
 10
243.5099596983
 20
151.6406249772
 30
0.0
  0
SPLINE
  5
333
100
AcDbEntity
  8
RUNDUNGEN
100
AcDbSpline
 62
7
  6
CONTINUOUS
 70
0
 71
3
 72
14
 73
10
 74
0
 42
0.0000001
 43
0.0000001
 44
0.0000000001
 40
0.0
 40
0.0
 40
0.0
 40
0.0
 40
0.1901532937
 40
0.3705663546
 40
0.5349454752
 40
0.6787330746
 40
0.7982311412
 40
0.8911477394
 40
1.0
 40
1.0
 40
1.0
 40
1.0
 10
247.304053663
 20
153.6861018698
 30
0.0
 10
247.3340069222
 20
153.6365689592
 30
0.0
 10
247.3904746246
 20
153.5388577776
 30
0.0
 10
247.4660197988
 20
153.3945966759
 30
0.0
 10
247.5283977356
 20
153.2593056287
 30
0.0
 10
247.5758351981
 20
153.1385510231
 30
0.0
 10
247.6068496092
 20
153.0327913597
 30
0.0
 10
247.6236467941
 20
152.9411002206
 30
0.0
 10
247.6169245136
 20
152.8649767688
 30
0.0
 10
247.5891185185
 20
152.8469537293
 30
0.0
  0
SPLINE
  5
334
100
AcDbEntity
  8
RUNDUNGEN
100
AcDbSpline
 62
7
  6
CONTINUOUS
 70
0
 71
3
 72
16
 73
12
 74
0
 42
0.0000001
 43
0.0000001
 44
0.0000000001
 40
0.0
 40
0.0
 40
0.0
 40
0.0
 40
0.0422500826
 40
0.0715835238
 40
0.1078583936
 40
0.202019274
 40
0.3239925695
 40
0.4701329539
 40
0.6355482269
 40
0.8145396308
 40
1.0
 40
1.0
 40
1.0
 40
1.0
 10
104.75
 20
92.8269788735
 30
0.0
 10
104.7499999989
 20
92.8121737017
 30
0.0
 10
104.73512154
 20
92.7881915214
 30
0.0
 10
104.7054577851
 20
92.7653866135
 30
0.0
 10
104.6562970436
 20
92.7378456754
 30
0.0
 10
104.5726395125
 20
92.708153538
 30
0.0
 10
104.4491182416
 20
92.6783524786
 30
0.0
 10
104.299080572
 20
92.6538107168
 30
0.0
 10
104.1281013609
 20
92.6354508369
 30
0.0
 10
103.9427134403
 20
92.6241614842
 30
0.0
 10
103.814988574
 20
92.6216044731
 30
0.0
 10
103.75
 20
92.6216044944
 30
0.0
  0
SPLINE
  5
335
100
AcDbEntity
  8
RUNDUNGEN
100
AcDbSpline
 62
7
  6
CONTINUOUS
 70
0
 71
3
 72
14
 73
10
 74
0
 42
0.0000001
 43
0.0000001
 44
0.0000000001
 40
0.0
 40
0.0
 40
0.0
 40
0.0
 40
0.2507816984
 40
0.3758629372
 40
0.5007475063
 40
0.6255182971
 40
0.7502736012
 40
0.8750844388
 40
1.0
 40
1.0
 40
1.0
 40
1.0
 10
103.8030267706
 20
93.7505445598
 30
0.0
 10
103.1312988055
 20
93.0584066586
 30
0.0
 10
102.1267409362
 20
92.0185522439
 30
0.0
 10
100.8385874403
 20
90.5864803812
 30
0.0
 10
99.9186054524
 20
89.4762903389
 30
0.0
 10
99.0695035474
 20
88.311700237
 30
0.0
 10
98.3264910568
 20
87.0754599516
 30
0.0
 10
97.7354151079
 20
85.7576824556
 30
0.0
 10
97.4793883561
 20
84.8261179648
 30
0.0
 10
97.3959606395
 20
84.3529917525
 30
0.0
  0
LINE
  5
336
100
AcDbEntity
  8
RUNDUNGEN
100
AcDbLine
 62
7
  6
CONTINUOUS
 10
103.8030267706
 20
93.7505445598
 11
103.7500019837
 21
92.6216440981
  0
SPLINE
  5
337
100
AcDbEntity
  8
RUNDUNGEN
100
AcDbSpline
 62
7
  6
CONTINUOUS
 70
0
 71
3
 72
12
 73
8
 74
0
 42
0.0000001
 43
0.0000001
 44
0.0000000001
 40
0.0
 40
0.0
 40
0.0
 40
0.0
 40
0.2494702256
 40
0.3745475853
 40
0.4996417081
 40
0.7497839665
 40
1.0
 40
1.0
 40
1.0
 40
1.0
 10
61.3566800727
 20
100.5101690993
 30
0.0
 10
61.1871651602
 20
101.1428168962
 30
0.0
 10
60.7717299799
 20
102.0520840944
 30
0.0
 10
60.0397140649
 20
103.1407078009
 30
0.0
 10
59.2152175895
 20
104.1654394479
 30
0.0
 10
58.064023694
 20
105.3402285443
 30
0.0
 10
57.0897682441
 20
106.2213326015
 30
0.0
 10
56.6024960627
 20
106.6619153014
 30
0.0
  0
SPLINE
  5
338
100
AcDbEntity
  8
RUNDUNGEN
100
AcDbSpline
 62
7
  6
CONTINUOUS
 70
0
 71
3
 72
12
 73
8
 74
0
 42
0.0000001
 43
0.0000001
 44
0.0000000001
 40
0.0
 40
0.0
 40
0.0
 40
0.0
 40
0.3240328377
 40
0.6064449464
 40
0.7266353304
 40
0.8317849719
 40
1.0
 40
1.0
 40
1.0
 40
1.0
 10
79.070568392
 20
48.2211552955
 30
0.0
 10
78.9069058953
 20
48.2212046777
 30
0.0
 10
78.5987301204
 20
48.1732216136
 30
0.0
 10
78.2624442996
 20
48.0134698642
 30
0.0
 10
78.0618986763
 20
47.8510919316
 30
0.0
 10
77.9308448031
 20
47.702565782
 30
0.0
 10
77.8705387284
 20
47.5664507706
 30
0.0
 10
77.870568392
 20
47.4814887302
 30
0.0
  0
SPLINE
  5
339
100
AcDbEntity
  8
RUNDUNGEN
100
AcDbSpline
 62
7
  6
CONTINUOUS
 70
0
 71
3
 72
13
 73
9
 74
0
 42
0.0000001
 43
0.0000001
 44
0.0000000001
 40
0.0
 40
0.0
 40
0.0
 40
0.0
 40
0.123770905
 40
0.2476640029
 40
0.3718817949
 40
0.4965718062
 40
0.7475234136
 40
1.0
 40
1.0
 40
1.0
 40
1.0
 10
60.3907488388
 20
100.2513702779
 30
0.0
 10
60.3108666578
 20
100.549497121
 30
0.0
 10
60.1053106892
 20
101.134074462
 30
0.0
 10
59.7081919502
 20
101.9730739123
 30
0.0
 10
59.2524422205
 20
102.7839554286
 30
0.0
 10
58.5915265041
 20
103.8411101062
 30
0.0
 10
57.7029295273
 20
105.1315712214
 30
0.0
 10
56.9700642648
 20
106.1507593181
 30
0.0
 10
56.6024960627
 20
106.6619153014
 30
0.0
  0
SPLINE
  5
33A
100
AcDbEntity
  8
RUNDUNGEN
100
AcDbSpline
 62
7
  6
CONTINUOUS
 70
0
 71
3
 72
13
 73
9
 74
0
 42
0.0000001
 43
0.0000001
 44
0.0000000001
 40
0.0
 40
0.0
 40
0.0
 40
0.0
 40
0.1065224694
 40
0.2159831951
 40
0.3295344939
 40
0.4484415818
 40
0.7066208005
 40
1.0
 40
1.0
 40
1.0
 40
1.0
 10
77.8705685935
 20
46.7364689011
 30
0.0
 10
77.7024393556
 20
46.7717697479
 30
0.0
 10
77.3663165554
 20
46.8685115373
 30
0.0
 10
76.8804635191
 20
47.0881386338
 30
0.0
 10
76.4138627237
 20
47.3856105358
 30
0.0
 10
75.8113939885
 20
47.9022032176
 30
0.0
 10
75.1515314521
 20
48.7774420464
 30
0.0
 10
74.8299811876
 20
49.621869152
 30
0.0
 10
74.7229316347
 20
50.0827504779
 30
0.0
  0
SPLINE
  5
33B
100
AcDbEntity
  8
RUNDUNGEN
100
AcDbSpline
 62
7
  6
CONTINUOUS
 70
0
 71
3
 72
10
 73
6
 74
0
 42
0.0000001
 43
0.0000001
 44
0.0000000001
 40
0.0
 40
0.0
 40
0.0
 40
0.0
 40
0.5148169248
 40
0.7617231229
 40
1.0
 40
1.0
 40
1.0
 40
1.0
 10
87.270568392
 20
47.4814887307
 30
0.0
 10
87.2203179813
 20
47.4814888764
 30
0.0
 10
87.1418064814
 20
47.4541752881
 30
0.0
 10
87.0816624162
 20
47.3745147236
 30
0.0
 10
87.070568392
 20
47.3266018253
 30
0.0
 10
87.070568392
 20
47.3033440217
 30
0.0
  0
SPLINE
  5
33C
100
AcDbEntity
  8
RUNDUNGEN
100
AcDbSpline
 62
7
  6
CONTINUOUS
 70
0
 71
3
 72
8
 73
4
 74
0
 42
0.0000001
 43
0.0000001
 44
0.0000000001
 40
0.0
 40
0.0
 40
0.0
 40
0.0
 40
1.0
 40
1.0
 40
1.0
 40
1.0
 10
87.270568392
 20
46.7364719852
 30
0.0
 10
87.2360819951
 20
46.7364720098
 30
0.0
 10
87.2005439287
 20
46.7269952984
 30
0.0
 10
87.1705682013
 20
46.7099433971
 30
0.0
  0
SPLINE
  5
33D
100
AcDbEntity
  8
RUNDUNGEN
100
AcDbSpline
 62
7
  6
CONTINUOUS
 70
0
 71
3
 72
9
 73
5
 74
0
 42
0.0000001
 43
0.0000001
 44
0.0000000001
 40
0.0
 40
0.0
 40
0.0
 40
0.0
 40
0.5010861402
 40
1.0
 40
1.0
 40
1.0
 40
1.0
 10
87.1705682013
 20
46.7099433971
 30
0.0
 10
87.1407210039
 20
46.6929646111
 30
0.0
 10
87.0892329163
 20
46.6423852873
 30
0.0
 10
87.070567875
 20
46.572647092
 30
0.0
 10
87.070568392
 20
46.5384574284
 30
0.0
  0
LINE
  5
33E
100
AcDbEntity
  8
RUNDUNGEN
100
AcDbLine
 62
7
  6
CONTINUOUS
 10
74.7229316347
 20
50.0827504779
 11
73.77561179
 21
54.1621116864
  0
LINE
  5
33F
100
AcDbEntity
  8
RUNDUNGEN
100
AcDbLine
 62
7
  6
CONTINUOUS
 10
91.0570780117
 20
54.1622590127
 11
90.4937328562
 21
50.4758467891
  0
SPLINE
  5
340
100
AcDbEntity
  8
RUNDUNGEN
100
AcDbSpline
 62
7
  6
CONTINUOUS
 70
0
 71
3
 72
13
 73
9
 74
0
 42
0.0000001
 43
0.0000001
 44
0.0000000001
 40
0.0
 40
0.0
 40
0.0
 40
0.0
 40
0.297197306
 40
0.5562440347
 40
0.6745983778
 40
0.787091782
 40
0.8951184338
 40
1.0
 40
1.0
 40
1.0
 40
1.0
 10
90.4937328562
 20
50.4758467891
 30
0.0
 10
90.4153465327
 20
49.9630936354
 30
0.0
 10
90.1249620699
 20
49.0180782819
 30
0.0
 10
89.4501353848
 20
48.0310395381
 30
0.0
 10
88.8171663309
 20
47.4519475431
 30
0.0
 10
88.3240291186
 20
47.121199986
 30
0.0
 10
87.8079845741
 20
46.8790675154
 30
0.0
 10
87.4497149667
 20
46.7740736727
 30
0.0
 10
87.270567285
 20
46.7364592324
 30
0.0
  0
SPLINE
  5
341
100
AcDbEntity
  8
RUNDUNGEN
100
AcDbSpline
 62
7
  6
CONTINUOUS
 70
0
 71
3
 72
8
 73
4
 74
0
 42
0.0000001
 43
0.0000001
 44
0.0000000001
 40
0.0
 40
0.0
 40
0.0
 40
0.0
 40
1.0
 40
1.0
 40
1.0
 40
1.0
 10
77.8705685935
 20
46.736471061
 30
0.0
 10
77.9050560423
 20
46.7364710025
 30
0.0
 10
77.9405952262
 20
46.7269936039
 30
0.0
 10
77.9705715657
 20
46.7099406512
 30
0.0
  0
SPLINE
  5
342
100
AcDbEntity
  8
RUNDUNGEN
100
AcDbSpline
 62
7
  6
CONTINUOUS
 70
0
 71
3
 72
9
 73
5
 74
0
 42
0.0000001
 43
0.0000001
 44
0.0000000001
 40
0.0
 40
0.0
 40
0.0
 40
0.0
 40
0.5010863274
 40
1.0
 40
1.0
 40
1.0
 40
1.0
 10
77.9705715657
 20
46.7099406512
 30
0.0
 10
78.0004183124
 20
46.6929614214
 30
0.0
 10
78.0519052779
 20
46.642381569
 30
0.0
 10
78.0705692937
 20
46.5726435519
 30
0.0
 10
78.0705683919
 20
46.5384540855
 30
0.0
  0
SPLINE
  5
343
100
AcDbEntity
  8
RUNDUNGEN
100
AcDbSpline
 62
7
  6
CONTINUOUS
 70
0
 71
3
 72
10
 73
6
 74
0
 42
0.0000001
 43
0.0000001
 44
0.0000000001
 40
0.0
 40
0.0
 40
0.0
 40
0.0
 40
0.5148168965
 40
0.761723353
 40
1.0
 40
1.0
 40
1.0
 40
1.0
 10
77.870568392
 20
47.4814887307
 30
0.0
 10
77.920818776
 20
47.4814887306
 30
0.0
 10
77.9993301665
 20
47.4541751093
 30
0.0
 10
78.0594742753
 20
47.3745146552
 30
0.0
 10
78.070568392
 20
47.3266017917
 30
0.0
 10
78.070568392
 20
47.3033440217
 30
0.0
  0
SPLINE
  5
344
100
AcDbEntity
  8
RUNDUNGEN
100
AcDbSpline
 62
7
  6
CONTINUOUS
 70
0
 71
3
 72
12
 73
8
 74
0
 42
0.0000001
 43
0.0000001
 44
0.0000000001
 40
0.0
 40
0.0
 40
0.0
 40
0.0
 40
0.314062826
 40
0.5886514069
 40
0.708456053
 40
0.8164753316
 40
1.0
 40
1.0
 40
1.0
 40
1.0
 10
79.0704568072
 20
48.0627233556
 30
0.0
 10
78.9280780542
 20
48.0627608081
 30
0.0
 10
78.6587616585
 20
48.0078905637
 30
0.0
 10
78.3805685104
 20
47.8361086771
 30
0.0
 10
78.2210127926
 20
47.6719166801
 30
0.0
 10
78.1149819293
 20
47.5185823982
 30
0.0
 10
78.0705629227
 20
47.3865961284
 30
0.0
 10
78.0705683953
 20
47.3033961693
 30
0.0
  0
SPLINE
  5
345
100
AcDbEntity
  8
RUNDUNGEN
100
AcDbSpline
 62
7
  6
CONTINUOUS
 70
0
 71
3
 72
18
 73
14
 74
0
 42
0.0000001
 43
0.0000001
 44
0.0000000001
 40
0.0
 40
0.0
 40
0.0
 40
0.0
 40
0.0043317944
 40
0.0171920426
 40
0.0384786889
 40
0.0680896736
 40
0.1059229569
 40
0.1518577202
 40
0.2670950378
 40
0.4117491775
 40
0.5837020002
 40
0.7806031539
 40
1.0
 40
1.0
 40
1.0
 40
1.0
 10
78.070568392
 20
44.6211411962
 30
0.0
 10
78.0707824593
 20
44.6207620426
 30
0.0
 10
78.0727561563
 20
44.620442941
 30
0.0
 10
78.0758238246
 20
44.6183159347
 30
0.0
 10
78.081812574
 20
44.6157458228
 30
0.0
 10
78.0897317125
 20
44.611737846
 30
0.0
 10
78.1000232249
 20
44.6068030456
 30
0.0
 10
78.1180102753
 20
44.598069992
 30
0.0
 10
78.1457217207
 20
44.5847525042
 30
0.0
 10
78.1848969774
 20
44.566063795
 30
0.0
 10
78.2315771883
 20
44.5440366698
 30
0.0
 10
78.2851713071
 20
44.5190607861
 30
0.0
 10
78.3231987586
 20
44.5015999295
 30
0.0
 10
78.3432675353
 20
44.4924585466
 30
0.0
  0
SPLINE
  5
346
100
AcDbEntity
  8
RUNDUNGEN
100
AcDbSpline
 62
7
  6
CONTINUOUS
 70
0
 71
3
 72
12
 73
8
 74
0
 42
0.0000001
 43
0.0000001
 44
0.0000000001
 40
0.0
 40
0.0
 40
0.0
 40
0.0
 40
0.1835208292
 40
0.2915382298
 40
0.4113418954
 40
0.6859385788
 40
1.0
 40
1.0
 40
1.0
 40
1.0
 10
87.0705683887
 20
47.3033964408
 30
0.0
 10
87.0705738906
 20
47.3865945988
 30
0.0
 10
87.0261562092
 20
47.518578234
 30
0.0
 10
86.9201280421
 20
47.6719103774
 30
0.0
 10
86.7605739337
 20
47.8361071503
 30
0.0
 10
86.4823764931
 20
48.0078877641
 30
0.0
 10
86.2130583105
 20
48.0627609412
 30
0.0
 10
86.0706802981
 20
48.062723356
 30
0.0
  0
SPLINE
  5
347
100
AcDbEntity
  8
RUNDUNGEN
100
AcDbSpline
 62
7
  6
CONTINUOUS
 70
0
 71
3
 72
18
 73
14
 74
0
 42
0.0000001
 43
0.0000001
 44
0.0000000001
 40
0.0
 40
0.0
 40
0.0
 40
0.0
 40
0.2194171106
 40
0.4163274546
 40
0.5882796467
 40
0.7329262748
 40
0.8481565603
 40
0.8940905048
 40
0.9319234944
 40
0.9615330916
 40
0.9828171544
 40
0.9956735159
 40
1.0
 40
1.0
 40
1.0
 40
1.0
 10
86.7982508586
 20
44.4926326772
 30
0.0
 10
86.8182931276
 20
44.5017631591
 30
0.0
 10
86.8562695157
 20
44.5192028217
 30
0.0
 10
86.9097907556
 20
44.5441472076
 30
0.0
 10
86.9564060379
 20
44.5661439587
 30
0.0
 10
86.9955262675
 20
44.5848041385
 30
0.0
 10
87.0231987634
 20
44.5981006332
 30
0.0
 10
87.0411597411
 20
44.6068214542
 30
0.0
 10
87.0514368839
 20
44.6117497407
 30
0.0
 10
87.0593424951
 20
44.6157542216
 30
0.0
 10
87.0653251607
 20
44.6183191096
 30
0.0
 10
87.0683810903
 20
44.6204474711
 30
0.0
 10
87.0703572957
 20
44.6207616829
 30
0.0
 10
87.070568392
 20
44.6211411962
 30
0.0
  0
SPLINE
  5
348
100
AcDbEntity
  8
RUNDUNGEN
100
AcDbSpline
 62
7
  6
CONTINUOUS
 70
0
 71
3
 72
16
 73
12
 74
0
 42
0.0000001
 43
0.0000001
 44
0.0000000001
 40
0.0
 40
0.0
 40
0.0
 40
0.0
 40
0.008411292
 40
0.0240920058
 40
0.0813509778
 40
0.1727592595
 40
0.295457106
 40
0.44520131
 40
0.6167033191
 40
0.8038523001
 40
1.0
 40
1.0
 40
1.0
 40
1.0
 10
104.75
 20
93.820800703
 30
0.0
 10
104.75
 20
93.818122269
 30
0.0
 10
104.7436741695
 20
93.8117778258
 30
0.0
 10
104.7201000322
 20
93.8028062433
 30
0.0
 10
104.6679857393
 20
93.7918892545
 30
0.0
 10
104.5826472033
 20
93.7812141777
 30
0.0
 10
104.4670174441
 20
93.7711866199
 30
0.0
 10
104.3259524292
 20
93.7628269264
 30
0.0
 10
104.1641629837
 20
93.7563401472
 30
0.0
 10
103.9875487542
 20
93.7520796444
 30
0.0
 10
103.8654951553
 20
93.7508017321
 30
0.0
 10
103.8030356654
 20
93.7505684924
 30
0.0
  0
SPLINE
  5
349
100
AcDbEntity
  8
RUNDUNGEN
100
AcDbSpline
 62
7
  6
CONTINUOUS
 70
0
 71
3
 72
12
 73
8
 74
0
 42
0.0000001
 43
0.0000001
 44
0.0000000001
 40
0.0
 40
0.0
 40
0.0
 40
0.0
 40
0.1682112096
 40
0.2733587104
 40
0.3935474723
 40
0.675968778
 40
1.0
 40
1.0
 40
1.0
 40
1.0
 10
87.270568392
 20
47.4814887302
 30
0.0
 10
87.2705981615
 20
47.5664488201
 30
0.0
 10
87.2102931995
 20
47.702560585
 30
0.0
 10
87.079243804
 20
47.851085177
 30
0.0
 10
86.8787000832
 20
48.0134700665
 30
0.0
 10
86.5424082538
 20
48.1732180138
 30
0.0
 10
86.2342300304
 20
48.2212049134
 30
0.0
 10
86.070568392
 20
48.2211552955
 30
0.0
  0
LINE
  5
34A
100
AcDbEntity
  8
RUNDUNGEN
100
AcDbLine
 62
7
  6
CONTINUOUS
 10
103.7500001111
 20
92.6216373026
 11
101.9985773855
 21
86.661915302
  0
SPLINE
  5
34B
100
AcDbEntity
  8
RUNDUNGEN
100
AcDbSpline
 62
7
  6
CONTINUOUS
 70
0
 71
3
 72
13
 73
9
 74
0
 42
0.0000001
 43
0.0000001
 44
0.0000000001
 40
0.0
 40
0.0
 40
0.0
 40
0.0
 40
0.2500967266
 40
0.5000304667
 40
0.6250527173
 40
0.7500562168
 40
0.8750333889
 40
1.0
 40
1.0
 40
1.0
 40
1.0
 10
103.7499938642
 20
93.8207597922
 30
0.0
 10
102.9429774099
 20
93.2113413682
 30
0.0
 10
101.3382863622
 20
91.980976194
 30
0.0
 10
99.4846540199
 20
90.2482363662
 30
0.0
 10
98.2105822916
 20
88.6740442728
 30
0.0
 10
97.3963579888
 20
87.3899627599
 30
0.0
 10
96.7661730706
 20
86.0052719946
 30
0.0
 10
96.4989267536
 20
85.0243614981
 30
0.0
 10
96.4111664662
 20
84.5267365963
 30
0.0
  0
SPLINE
  5
34C
100
AcDbEntity
  8
RUNDUNGEN
100
AcDbSpline
 62
7
  6
CONTINUOUS
 70
0
 71
3
 72
13
 73
9
 74
0
 42
0.0000001
 43
0.0000001
 44
0.0000000001
 40
0.0
 40
0.0
 40
0.0
 40
0.0
 40
0.0878599048
 40
0.1825702597
 40
0.2884781474
 40
0.4076954501
 40
0.6847865082
 40
1.0
 40
1.0
 40
1.0
 40
1.0
 10
73.7570058085
 20
50.3678200759
 30
0.0
 10
73.7652453653
 20
50.3370713649
 30
0.0
 10
73.7938997208
 20
50.2758576103
 30
0.0
 10
73.8662669302
 20
50.1985702895
 30
0.0
 10
73.9653056732
 20
50.1364651631
 30
0.0
 10
74.1363657542
 20
50.0718482257
 30
0.0
 10
74.3957216509
 20
50.0408978456
 30
0.0
 10
74.6107033632
 20
50.0615787144
 30
0.0
 10
74.7229316348
 20
50.0827546847
 30
0.0
  0
SPLINE
  5
34D
100
AcDbEntity
  8
RUNDUNGEN
100
AcDbSpline
 62
7
  6
CONTINUOUS
 70
0
 71
3
 72
9
 73
5
 74
0
 42
0.0000001
 43
0.0000001
 44
0.0000000001
 40
0.0
 40
0.0
 40
0.0
 40
0.0
 40
0.5995055789
 40
1.0
 40
1.0
 40
1.0
 40
1.0
 10
77.8705701226
 20
46.7364582348
 30
0.0
 10
77.8743862671
 20
46.7295749169
 30
0.0
 10
77.8812681282
 20
46.718412527
 30
0.0
 10
77.8928802709
 20
46.7102701804
 30
0.0
 10
77.8980882792
 20
46.7095487082
 30
0.0
  0
LINE
  5
34E
100
AcDbEntity
  8
RUNDUNGEN
100
AcDbLine
 62
7
  6
CONTINUOUS
 10
95.8868770121
 20
106.6615520534
 11
97.0330537797
 21
114.1618906951
  0
LINE
  5
34F
100
AcDbEntity
  8
RUNDUNGEN
100
AcDbLine
 62
7
  6
CONTINUOUS
 10
61.07249024
 20
114.161892984
 11
62.8141531758
 21
106.6619153014
  0
SPLINE
  5
350
100
AcDbEntity
  8
RUNDUNGEN
100
AcDbSpline
 62
7
  6
CONTINUOUS
 70
0
 71
3
 72
9
 73
5
 74
0
 42
0.0000001
 43
0.0000001
 44
0.0000000001
 40
0.0
 40
0.0
 40
0.0
 40
0.0
 40
0.4004685053
 40
1.0
 40
1.0
 40
1.0
 40
1.0
 10
87.2430369959
 20
46.7095405
 30
0.0
 10
87.2482448267
 20
46.710263311
 30
0.0
 10
87.2598566781
 20
46.7184056635
 30
0.0
 10
87.2667414047
 20
46.7295675382
 30
0.0
 10
87.2705583369
 20
46.7364514044
 30
0.0
  0
SPLINE
  5
351
100
AcDbEntity
  8
RUNDUNGEN
100
AcDbSpline
 62
7
  6
CONTINUOUS
 70
0
 71
3
 72
13
 73
9
 74
0
 42
0.0000001
 43
0.0000001
 44
0.0000000001
 40
0.0
 40
0.0
 40
0.0
 40
0.0
 40
0.0819057574
 40
0.1721635311
 40
0.2759634245
 40
0.3954852506
 40
0.6777612832
 40
1.0
 40
1.0
 40
1.0
 40
1.0
 10
91.4785339465
 20
50.7936755884
 30
0.0
 10
91.4732519227
 20
50.7637226268
 30
0.0
 10
91.4491691804
 20
50.7025883
 30
0.0
 10
91.3800465576
 20
50.6248686037
 30
0.0
 10
91.2817204146
 20
50.5606139247
 30
0.0
 10
91.1066705866
 20
50.4903615729
 30
0.0
 10
90.8377945545
 20
50.4493217432
 30
0.0
 10
90.6123380502
 20
50.459990308
 30
0.0
 10
90.4937328563
 20
50.4758515278
 30
0.0
  0
LINE
  5
352
100
AcDbEntity
  8
RUNDUNGEN
100
AcDbLine
 62
7
  6
CONTINUOUS
 10
59.1480134214
 20
99.1619153014
 11
56.6024960627
 21
106.6619153014
  0
ELLIPSE
  5
353
100
AcDbEntity
  8
0
100
AcDbEllipse
 62
7
  6
CONTINUOUS
 10
71.9633283987
 20
159.1406249772
 30
0.0
 11
0.0
 21
3.195
 31
0.0
 40
0.2679491924
 41
-3.1415926536
 42
-0.0
  0
ELLIPSE
  5
354
100
AcDbEntity
  8
0
100
AcDbEllipse
 62
7
  6
CONTINUOUS
 10
67.3546022889
 20
159.1406249772
 30
0.0
 11
0.0
 21
3.195
 31
0.0
 40
0.2679491924
 41
-0.0
 42
3.1415926536
  0
ELLIPSE
  5
355
100
AcDbEntity
  8
0
100
AcDbEllipse
 62
7
  6
CONTINUOUS
 10
95.6166246676
 20
159.1406249772
 30
0.0
 11
0.0
 21
3.195
 31
0.0
 40
0.1763269807
 41
-3.1415926536
 42
0.0
  0
ENDSEC
  0
SECTION
  2
OBJECTS
  0
DICTIONARY
  5
C
100
AcDbDictionary
280
0
281
1
  3
ACAD_GROUP
350
D
  3
ACAD_MLINESTYLE
350
17
  3
ACAD_LAYOUT
350
1A
  3
ACAD_PLOTSETTINGS
350
19
  3
ACAD_PLOTSTYLENAME
350
E
  0
DICTIONARY
  5
D
102
{ACAD_REACTORS
330
C
102
}
100
AcDbDictionary
280
0
281
1
  0
ACDBDICTIONARYWDFLT
  5
E
102
{ACAD_REACTORS
330
C
102
}
100
AcDbDictionary
281
1
  3
Normal
350
F
100
AcDbDictionaryWithDefault
340
F
  0
DICTIONARY
  5
17
102
{ACAD_REACTORS
330
C
102
}
100
AcDbDictionary
280
0
281
1
  3
Standard
350
18
  0
DICTIONARY
  5
19
102
{ACAD_REACTORS
330
C
102
}
100
AcDbDictionary
281
1
  0
DICTIONARY
  5
1A
102
{ACAD_REACTORS
330
C
102
}
100
AcDbDictionary
281
1
  3
Model
350
356
  3
Layout1
350
357
  0
ACDBPLACEHOLDER
  5
F
102
{ACAD_REACTORS
330
E
102
}
  0
MLINESTYLE
  5
18
102
{ACAD_REACTORS
330
17
102
}
100
AcDbMlineStyle
  2
STANDARD
 70
0
  3

 62
256
 51
90.0
 52
90.0
 71
2
 49
0.5
 62
256
  6
BYLAYER
 49
-0.5
 62
256
  6
BYLAYER
  0
LAYOUT
  5
356
102
{ACAD_REACTORS
330
1A
102
}
100
AcDbPlotSettings
  1

  2
none_device
  4
ISO_A4_(297.00_x_210.00_MM)
  6

 40
0.0
 41
0.0
 42
0.0
 43
0.0
 44
297.0
 45
210.0
 46
0.0
 47
0.0
 48
0.0
 49
0.0
140
0.0
141
0.0
142
1.0
143
1.0
 70
1024
 72
1
 73
0
 74
0
  7

 75
0
147
1.0
148
0.0
149
0.0
100
AcDbLayout
  1
Model
 70
0
 71
0
 10
0.0
 20
0.0
 11
297.0
 21
210.0
 12
0.0
 22
0.0
 32
0.0
 14
0.0
 24
0.0
 34
0.0
 15
0.0
 25
0.0
 35
0.0
146
0.0
 13
0.0
 23
0.0
 33
0.0
 16
1.0
 26
0.0
 36
0.0
 17
0.0
 27
1.0
 37
0.0
 76
0
330
212
345
0
346
0
  0
LAYOUT
  5
357
102
{ACAD_REACTORS
330
1A
102
}
100
AcDbPlotSettings
  1

  2
none_device
  4
ISO_A4_(297.00_x_210.00_MM)
  6

 40
0.0
 41
0.0
 42
0.0
 43
0.0
 44
297.0
 45
210.0
 46
0.0
 47
0.0
 48
0.0
 49
0.0
140
0.0
141
0.0
142
1.0
143
1.0
 70
0
 72
1
 73
0
 74
0
  7

 75
0
147
1.0
148
0.0
149
0.0
100
AcDbLayout
  1
Layout1
 70
0
 71
1
 10
0.0
 20
0.0
 11
297.0
 21
210.0
 12
0.0
 22
0.0
 32
0.0
 14
0.0
 24
0.0
 34
0.0
 15
0.0
 25
0.0
 35
0.0
146
0.0
 13
0.0
 23
0.0
 33
0.0
 16
1.0
 26
0.0
 36
0.0
 17
0.0
 27
1.0
 37
0.0
 76
0
330
213
345
0
346
0
  0
ENDSEC
  0
EOF
