  0
SECTION
  2
HEADER
  9
$ACADVER
  1
AC1018
  9
$ACADMAINTVER
 70
     0
  9
$DWGCODEPAGE
  3
ANSI_1252
  9
$INSBASE
 10
0.0
 20
0.0
 30
0.0
  9
$EXTMIN
 10
0.0
 20
-2.94310951816513
 30
0.0
  9
$EXTMAX
 10
297.0
 20
210.0
 30
0.0
  9
$LIMMIN
 10
0.0
 20
-2.94310951816513
  9
$LIMMAX
 10
297.0
 20
210.0
  9
$ORTHOMODE
 70
     0
  9
$REGENMODE
 70
     1
  9
$FILLMODE
 70
     1
  9
$QTEXTMODE
 70
     0
  9
$MIRRTEXT
 70
     1
  9
$LTSCALE
 40
1.0
  9
$ATTMODE
 70
     1
  9
$TEXTSIZE
 40
0.2
  9
$TRACEWID
 40
0.05
  9
$TEXTSTYLE
  7
Standard
  9
$CLAYER
  8
0
  9
$CELTYPE
  6
ByLayer
  9
$CECOLOR
 62
     7
  9
$CELTSCALE
 40
1.0
  9
$DISPSILH
 70
     0
  9
$DIMSCALE
 40
1.0
  9
$DIMASZ
 40
0.18
  9
$DIMEXO
 40
0.0625
  9
$DIMDLI
 40
0.38
  9
$DIMRND
 40
0.0000001
  9
$DIMDLE
 40
0.0
  9
$DIMEXE
 40
0.18
  9
$DIMTP
 40
0.0
  9
$DIMTM
 40
0.0
  9
$DIMTXT
 40
0.18
  9
$DIMCEN
 40
0.09
  9
$DIMTSZ
 40
0.0
  9
$DIMTOL
 70
     0
  9
$DIMLIM
 70
     0
  9
$DIMTIH
 70
     1
  9
$DIMTOH
 70
     1
  9
$DIMSE1
 70
     0
  9
$DIMSE2
 70
     0
  9
$DIMTAD
 70
     0
  9
$DIMZIN
 70
     0
  9
$DIMBLK
  1

  9
$DIMASO
 70
     1
  9
$DIMSHO
 70
     1
  9
$DIMPOST
  1

  9
$DIMAPOST
  1

  9
$DIMALT
 70
     0
  9
$DIMALTD
 70
     2
  9
$DIMALTF
 40
25.4
  9
$DIMLFAC
 40
1.0
  9
$DIMTOFL
 70
     0
  9
$DIMTVP
 40
0.0
  9
$DIMTIX
 70
     0
  9
$DIMSOXD
 70
     0
  9
$DIMSAH
 70
     0
  9
$DIMBLK1
  1

  9
$DIMBLK2
  1

  9
$DIMSTYLE
  2
Standard
  9
$DIMCLRD
 70
     0
  9
$DIMCLRE
 70
     0
  9
$DIMCLRT
 70
     0
  9
$DIMTFAC
 40
1.0
  9
$DIMGAP
 40
0.09
  9
$DIMJUST
 70
     0
  9
$DIMSD1
 70
     0
  9
$DIMSD2
 70
     0
  9
$DIMTOLJ
 70
     1
  9
$DIMTZIN
 70
     0
  9
$DIMALTZ
 70
     0
  9
$DIMALTTZ
 70
     0
  9
$DIMUPT
 70
     0
  9
$DIMDEC
 70
     4
  9
$DIMTDEC
 70
     4
  9
$DIMALTU
 70
     2
  9
$DIMALTTD
 70
     2
  9
$DIMTXSTY
  7
_TCW_TXTSTY_1
  9
$DIMAUNIT
 70
     0
  9
$DIMADEC
 70
     4
  9
$DIMALTRND
 40
0.0000001
  9
$DIMAZIN
 70
     0
  9
$DIMDSEP
 70
    46
  9
$DIMATFIT
 70
     3
  9
$DIMFRAC
 70
     0
  9
$DIMLDRBLK
  1

  9
$DIMLUNIT
 70
     2
  9
$DIMLWD
 70
    -2
  9
$DIMLWE
 70
    -2
  9
$DIMTMOVE
 70
     0
  9
$LUNITS
 70
     2
  9
$LUPREC
 70
     4
  9
$SKETCHINC
 40
0.1
  9
$FILLETRAD
 40
0.0
  9
$AUNITS
 70
     0
  9
$AUPREC
 70
     0
  9
$MENU
  1
.
  9
$ELEVATION
 40
0.0
  9
$PELEVATION
 40
0.0
  9
$THICKNESS
 40
0.0
  9
$LIMCHECK
 70
     0
  9
$CHAMFERA
 40
0.5
  9
$CHAMFERB
 40
0.5
  9
$CHAMFERC
 40
1.0
  9
$CHAMFERD
 40
0.0
  9
$SKPOLY
 70
     0
  9
$TDCREATE
 40
2454839.640289085
  9
$TDUCREATE
 40
2454839.598622419
  9
$TDUPDATE
 40
2454839.640289097
  9
$TDUUPDATE
 40
2454839.598622431
  9
$TDINDWG
 40
0.0
  9
$TDUSRTIMER
 40
0.0
  9
$USRTIMER
 70
     1
  9
$ANGBASE
 50
0.0
  9
$ANGDIR
 70
     0
  9
$PDMODE
 70
     0
  9
$PDSIZE
 40
0.0
  9
$PLINEWID
 40
0.0
  9
$SPLFRAME
 70
     0
  9
$SPLINETYPE
 70
     6
  9
$SPLINESEGS
 70
     8
  9
$HANDSEED
  5
40F
  9
$SURFTAB1
 70
     6
  9
$SURFTAB2
 70
     6
  9
$SURFTYPE
 70
     6
  9
$SURFU
 70
     6
  9
$SURFV
 70
     6
  9
$UCSBASE
  2

  9
$UCSNAME
  2

  9
$UCSORG
 10
0.0
 20
0.0
 30
0.0
  9
$UCSXDIR
 10
1.0
 20
0.0
 30
0.0
  9
$UCSYDIR
 10
0.0
 20
1.0
 30
0.0
  9
$UCSORTHOREF
  2

  9
$UCSORTHOVIEW
 70
     0
  9
$UCSORGTOP
 10
0.0
 20
0.0
 30
0.0
  9
$UCSORGBOTTOM
 10
0.0
 20
0.0
 30
0.0
  9
$UCSORGLEFT
 10
0.0
 20
0.0
 30
0.0
  9
$UCSORGRIGHT
 10
0.0
 20
0.0
 30
0.0
  9
$UCSORGFRONT
 10
0.0
 20
0.0
 30
0.0
  9
$UCSORGBACK
 10
0.0
 20
0.0
 30
0.0
  9
$PUCSBASE
  2

  9
$PUCSNAME
  2

  9
$PUCSORG
 10
0.0
 20
0.0
 30
0.0
  9
$PUCSXDIR
 10
1.0
 20
0.0
 30
0.0
  9
$PUCSYDIR
 10
0.0
 20
1.0
 30
0.0
  9
$PUCSORTHOREF
  2

  9
$PUCSORTHOVIEW
 70
     0
  9
$PUCSORGTOP
 10
0.0
 20
0.0
 30
0.0
  9
$PUCSORGBOTTOM
 10
0.0
 20
0.0
 30
0.0
  9
$PUCSORGLEFT
 10
0.0
 20
0.0
 30
0.0
  9
$PUCSORGRIGHT
 10
0.0
 20
0.0
 30
0.0
  9
$PUCSORGFRONT
 10
0.0
 20
0.0
 30
0.0
  9
$PUCSORGBACK
 10
0.0
 20
0.0
 30
0.0
  9
$USERI1
 70
     0
  9
$USERI2
 70
     0
  9
$USERI3
 70
     0
  9
$USERI4
 70
     0
  9
$USERI5
 70
     0
  9
$USERR1
 40
0.0
  9
$USERR2
 40
0.0
  9
$USERR3
 40
0.0
  9
$USERR4
 40
0.0
  9
$USERR5
 40
0.0
  9
$WORLDVIEW
 70
     1
  9
$SHADEDGE
 70
     3
  9
$SHADEDIF
 70
    70
  9
$TILEMODE
 70
     1
  9
$MAXACTVP
 70
    64
  9
$PINSBASE
 10
0.0
 20
0.0
 30
0.0
  9
$PLIMCHECK
 70
     0
  9
$PEXTMIN
 10
-1.44318181818182
 20
-1.44318181818182
 30
0.0
  9
$PEXTMAX
 10
4.80681818181818
 20
4.80681818181818
 30
0.0
  9
$PLIMMIN
 10
-1.44318181818182
 20
-1.44318181818182
  9
$PLIMMAX
 10
4.80681818181818
 20
4.80681818181818
  9
$UNITMODE
 70
     0
  9
$VISRETAIN
 70
     1
  9
$PLINEGEN
 70
     0
  9
$PSLTSCALE
 70
     1
  9
$TREEDEPTH
 70
  3020
  9
$CMLSTYLE
  2
Standard
  9
$CMLJUST
 70
     0
  9
$CMLSCALE
 40
1.0
  9
$PROXYGRAPHICS
 70
     1
  9
$MEASUREMENT
 70
     0
  9
$CELWEIGHT
370
    -1
  9
$ENDCAPS
280
     0
  9
$JOINSTYLE
280
     0
  9
$LWDISPLAY
290
     0
  9
$INSUNITS
 70
     1
  9
$HYPERLINKBASE
  1

  9
$STYLESHEET
  1

  9
$XEDIT
290
     1
  9
$CEPSNTYPE
380
     0
  9
$PSTYLEMODE
290
     1
  9
$FINGERPRINTGUID
  2
{0CA71197-2F4B-4F0F-AB5D-2C84C021D434}
  9
$VERSIONGUID
  2
{FAEB1C32-E019-11D5-929B-00C0DF256EC4}
  9
$EXTNAMES
290
     1
  9
$PSVPSCALE
 40
0.0
  9
$OLESTARTUP
290
     0
  9
$SORTENTS
280
   127
  9
$INDEXCTL
280
     0
  9
$HIDETEXT
280
     1
  9
$XCLIPFRAME
290
     0
  9
$HALOGAP
280
     0
  9
$OBSCOLOR
 70
   257
  9
$OBSLTYPE
280
     0
  9
$INTERSECTIONDISPLAY
280
     0
  9
$INTERSECTIONCOLOR
 70
   257
  9
$DIMASSOC
280
     2
  9
$PROJECTNAME
  1

  0
ENDSEC
  0
SECTION
  2
CLASSES
  0
CLASS
  1
ACDBDICTIONARYWDFLT
  2
AcDbDictionaryWithDefault
  3
ObjectDBX Classes
 90
        0
 91
        3
280
     0
281
     0
  0
CLASS
  1
VISUALSTYLE
  2
AcDbVisualStyle
  3
ObjectDBX Classes
 90
     4095
 91
        3
280
     0
281
     0
  0
CLASS
  1
TCOPTIONALDATA
  2
TcOptionalData
  3
ExTcadCustObjs|Description: TurboCAD extension data object
 90
        0
 91
        3
280
     0
281
     0
  0
ENDSEC
  0
SECTION
  2
TABLES
  0
TABLE
  2
VPORT
  5
8
330
0
100
AcDbSymbolTable
 70
     1
  0
VPORT
  5
29
330
8
100
AcDbSymbolTableRecord
100
AcDbViewportTableRecord
  2
*Active
 70
     0
 10
0.0
 20
0.0
 11
1.0
 21
1.0
 12
0.0
 22
0.0
 13
0.0
 23
0.0
 14
1.0
 24
1.0
 15
1.0
 25
1.0
 16
0.0
 26
0.0
 36
1.0
 17
242.3275816438118
 27
145.6393706640238
 37
0.0
 40
79.65812440925916
 41
1.972704714640199
 42
50.0
 43
0.0
 44
0.0
 50
0.0
 51
0.0
 71
     0
 72
   100
 73
     1
 74
     3
 75
     0
 76
     0
 77
     0
 78
     0
281
     0
 65
     1
110
0.0
120
0.0
130
0.0
111
1.0
121
0.0
131
0.0
112
0.0
122
1.0
132
0.0
 79
     0
146
0.0
  0
ENDTAB
  0
TABLE
  2
LTYPE
  5
5
330
0
100
AcDbSymbolTable
 70
    18
  0
LTYPE
  5
14
330
5
100
AcDbSymbolTableRecord
100
AcDbLinetypeTableRecord
  2
ByBlock
 70
     0
  3

 72
    65
 73
     0
 40
0.0
  0
LTYPE
  5
15
330
5
100
AcDbSymbolTableRecord
100
AcDbLinetypeTableRecord
  2
ByLayer
 70
     0
  3

 72
    65
 73
     0
 40
0.0
  0
LTYPE
  5
16
330
5
100
AcDbSymbolTableRecord
100
AcDbLinetypeTableRecord
  2
Continuous
 70
     0
  3
Solid line
 72
    65
 73
     0
 40
0.0
  0
LTYPE
  5
3C
330
5
100
AcDbSymbolTableRecord
100
AcDbLinetypeTableRecord
  2
Durchgehend
 70
     0
  3
Durchgehend
 72
    65
 73
     0
 40
0.0
  0
LTYPE
  5
3D
330
5
100
AcDbSymbolTableRecord
100
AcDbLinetypeTableRecord
  2
Rand
 70
     0
  3
Rand
 72
    65
 73
     6
 40
1.75
 49
0.5
 74
     0
 49
-0.25
 74
     0
 49
0.5
 74
     0
 49
-0.25
 74
     0
 49
0.0
 74
     0
 49
-0.25
 74
     0
  0
LTYPE
  5
3E
330
5
100
AcDbSymbolTableRecord
100
AcDbLinetypeTableRecord
  2
Mitte
 70
     0
  3
Mitte
 72
    65
 73
     4
 40
2.0
 49
1.25
 74
     0
 49
-0.25
 74
     0
 49
0.25
 74
     0
 49
-0.25
 74
     0
  0
LTYPE
  5
3F
330
5
100
AcDbSymbolTableRecord
100
AcDbLinetypeTableRecord
  2
Strichpunkt
 70
     0
  3
Strichpunkt
 72
    65
 73
     4
 40
1.0
 49
0.5
 74
     0
 49
-0.25
 74
     0
 49
0.0
 74
     0
 49
-0.25
 74
     0
  0
LTYPE
  5
40
330
5
100
AcDbSymbolTableRecord
100
AcDbLinetypeTableRecord
  2
Gestrichelt
 70
     0
  3
Gestrichelt
 72
    65
 73
     2
 40
0.75
 49
0.5
 74
     0
 49
-0.25
 74
     0
  0
LTYPE
  5
41
330
5
100
AcDbSymbolTableRecord
100
AcDbLinetypeTableRecord
  2
Teilen
 70
     0
  3
Teilen
 72
    65
 73
     6
 40
1.25
 49
0.5
 74
     0
 49
-0.25
 74
     0
 49
0.0
 74
     0
 49
-0.25
 74
     0
 49
0.0
 74
     0
 49
-0.25
 74
     0
  0
LTYPE
  5
42
330
5
100
AcDbSymbolTableRecord
100
AcDbLinetypeTableRecord
  2
Punkt
 70
     0
  3
Punkt
 72
    65
 73
     2
 40
0.25
 49
0.0
 74
     0
 49
-0.25
 74
     0
  0
LTYPE
  5
43
330
5
100
AcDbSymbolTableRecord
100
AcDbLinetypeTableRecord
  2
Verdeckt
 70
     0
  3
Verdeckt
 72
    65
 73
     2
 40
0.375
 49
0.25
 74
     0
 49
-0.125
 74
     0
  0
LTYPE
  5
44
330
5
100
AcDbSymbolTableRecord
100
AcDbLinetypeTableRecord
  2
$INVISIBLE
 70
     0
  3
$INVISIBLE
 72
    65
 73
     2
 40
200.0
 49
-100.0
 74
     0
 49
-100.0
 74
     0
  0
LTYPE
  5
45
330
5
100
AcDbSymbolTableRecord
100
AcDbLinetypeTableRecord
  2
DASHED
 70
     0
  3
DASHED
 72
    65
 73
     2
 40
0.75
 49
0.5
 74
     0
 49
-0.25
 74
     0
  0
LTYPE
  5
46
330
5
100
AcDbSymbolTableRecord
100
AcDbLinetypeTableRecord
  2
HIDDEN
 70
     0
  3
HIDDEN
 72
    65
 73
     2
 40
0.5
 49
0.25
 74
     0
 49
-0.25
 74
     0
  0
LTYPE
  5
47
330
5
100
AcDbSymbolTableRecord
100
AcDbLinetypeTableRecord
  2
PHANTOM
 70
     0
  3
PHANTOM
 72
    65
 73
     6
 40
2.5
 49
1.25
 74
     0
 49
-0.25
 74
     0
 49
0.25
 74
     0
 49
-0.25
 74
     0
 49
0.25
 74
     0
 49
-0.25
 74
     0
  0
LTYPE
  5
48
330
5
100
AcDbSymbolTableRecord
100
AcDbLinetypeTableRecord
  2
CENTER
 70
     0
  3
CENTER
 72
    65
 73
     4
 40
2.0
 49
1.25
 74
     0
 49
-0.25
 74
     0
 49
0.25
 74
     0
 49
-0.25
 74
     0
  0
LTYPE
  5
49
330
5
100
AcDbSymbolTableRecord
100
AcDbLinetypeTableRecord
  2
DOT
 70
     0
  3
DOT
 72
    65
 73
     2
 40
0.25
 49
0.0
 74
     0
 49
-0.25
 74
     0
  0
LTYPE
  5
4A
330
5
100
AcDbSymbolTableRecord
100
AcDbLinetypeTableRecord
  2
DASHDOT
 70
     0
  3
DASHDOT
 72
    65
 73
     4
 40
1.0
 49
0.5
 74
     0
 49
-0.25
 74
     0
 49
0.0
 74
     0
 49
-0.25
 74
     0
  0
LTYPE
  5
4B
330
5
100
AcDbSymbolTableRecord
100
AcDbLinetypeTableRecord
  2
$SNAPEXT
 70
     0
  3
$SNAPEXT
 72
    65
 73
     2
 40
0.04
 49
0.02
 74
     0
 49
-0.02
 74
     0
  0
LTYPE
  5
4C
330
5
100
AcDbSymbolTableRecord
100
AcDbLinetypeTableRecord
  2
$AUXILIARY
 70
     0
  3
$AUXILIARY
 72
    65
 73
     2
 40
0.1
 49
0.05
 74
     0
 49
-0.05
 74
     0
  0
ENDTAB
  0
TABLE
  2
LAYER
  5
2
330
0
100
AcDbSymbolTable
 70
     3
  0
LAYER
  5
10
330
2
100
AcDbSymbolTableRecord
100
AcDbLayerTableRecord
  2
0
 70
     0
 62
     7
  6
Continuous
370
     0
390
F
  0
LAYER
  5
4D
330
2
100
AcDbSymbolTableRecord
100
AcDbLayerTableRecord
  2
Main lines
 70
     0
 62
     1
420
 16711680
  6
Continuous
370
     0
390
F
  0
LAYER
  5
4E
330
2
100
AcDbSymbolTableRecord
100
AcDbLayerTableRecord
  2
TOP
 70
     0
 62
     7
  6
Continuous
370
     0
390
F
  0
ENDTAB
  0
TABLE
  2
STYLE
  5
3
330
0
100
AcDbSymbolTable
 70
     4
  0
STYLE
  5
11
330
3
100
AcDbSymbolTableRecord
100
AcDbTextStyleTableRecord
  2
Standard
 70
     0
 40
0.0
 41
1.0
 50
0.0
 71
     0
 42
0.2
  3
txt
  4

  0
STYLE
  5
58
330
3
100
AcDbSymbolTableRecord
100
AcDbTextStyleTableRecord
  2
iso-1
 70
     0
 40
0.0
 41
1.0
 50
0.0
 71
     0
 42
0.2000000029802322
  3
ARIAL.TTF
  4
BIGFONT.SHX
  0
STYLE
  5
59
330
3
100
AcDbSymbolTableRecord
100
AcDbTextStyleTableRecord
  2
leroy
 70
     0
 40
0.0
 41
1.0
 50
0.0
 71
     0
 42
0.2000000029802322
  3
ARIAL.TTF
  4
BIGFONT.SHX
  0
STYLE
  5
5A
330
3
100
AcDbSymbolTableRecord
100
AcDbTextStyleTableRecord
  2
_TCW_TXTSTY_1
 70
     0
 40
0.0
 41
1.0
 50
0.0
 71
     0
 42
0.6000000238418579
  3
TXT.SHX
  4

  0
ENDTAB
  0
TABLE
  2
VIEW
  5
6
330
0
100
AcDbSymbolTable
 70
     9
  0
VIEW
  5
4F
330
6
100
AcDbSymbolTableRecord
100
AcDbViewTableRecord
  2
Ansicht_0
 70
     0
 40
210.0
 10
148.5
 20
105.0
 41
297.0
 11
0.0
 21
0.0
 31
1.0
 12
0.0
 22
0.0
 32
0.0
 42
50.0
 43
0.0
 44
0.0
 50
0.0
 71
     0
281
     0
 72
     0
  0
VIEW
  5
50
330
6
100
AcDbSymbolTableRecord
100
AcDbViewTableRecord
  2
TOP
 70
     0
 40
254.0
 10
148.5
 20
105.0
 41
254.0
 11
0.0
 21
0.0
 31
1.0
 12
0.0
 22
0.0
 32
0.0
 42
50.0
 43
0.0
 44
0.0
 50
0.0
 71
     0
281
     0
 72
     0
  0
VIEW
  5
51
330
6
100
AcDbSymbolTableRecord
100
AcDbViewTableRecord
  2
FRONT
 70
     0
 40
1319.822715367485
 10
0.0
 20
0.0
 41
254.0000000000001
 11
0.0
 21
-1.0
 31
6.123031769111886E-17
 12
0.0
 22
0.0
 32
-0.0000000000000001
 42
50.0
 43
0.0
 44
0.0
 50
0.0
 71
     0
281
     0
 72
     0
  0
VIEW
  5
52
330
6
100
AcDbSymbolTableRecord
100
AcDbViewTableRecord
  2
RIGHT
 70
     0
 40
1319.822715367485
 10
0.0
 20
0.0
 41
254.0
 11
1.0
 21
-6.123031769111886E-17
 31
6.123031769111886E-17
 12
0.0
 22
0.0000000000000001
 32
-0.0000000000000001
 42
50.0
 43
0.0
 44
0.0
 50
0.0
 71
     0
281
     0
 72
     0
  0
VIEW
  5
53
330
6
100
AcDbSymbolTableRecord
100
AcDbViewTableRecord
  2
BACK
 70
     0
 40
1319.822715367485
 10
0.0
 20
0.0
 41
254.0000000000001
 11
1.224606353822377E-16
 21
1.0
 31
6.123031769111886E-17
 12
-0.0000000000000001
 22
0.0
 32
-0.0000000000000001
 42
50.0
 43
0.0
 44
0.0
 50
0.0
 71
     0
281
     0
 72
     0
  0
VIEW
  5
54
330
6
100
AcDbSymbolTableRecord
100
AcDbViewTableRecord
  2
BOTTOM
 70
     0
 40
254.0
 10
0.0
 20
0.0
 41
254.0000000000001
 11
-1.224606353822377E-16
 21
0.0
 31
-1.0
 12
0.0000000000000001
 22
0.0
 32
0.0
 42
50.0
 43
0.0
 44
0.0
 50
180.0
 71
     0
281
     0
 72
     0
  0
VIEW
  5
55
330
6
100
AcDbSymbolTableRecord
100
AcDbViewTableRecord
  2
LEFT
 70
     0
 40
1319.822715367485
 10
0.0
 20
0.0
 41
254.0
 11
-1.0
 21
-6.123031769111886E-17
 31
6.123031769111886E-17
 12
0.0
 22
0.0000000000000001
 32
-0.0000000000000001
 42
50.0
 43
0.0
 44
0.0
 50
0.0
 71
     0
281
     0
 72
     0
  0
VIEW
  5
56
330
6
100
AcDbSymbolTableRecord
100
AcDbViewTableRecord
  2
TFR-ISO
 70
     0
 40
1285.020866083941
 10
0.0
 20
0.0
 41
359.2102448427662
 11
0.5773502691896257
 21
-0.5773502691896258
 31
0.5773502691896257
 12
0.0
 22
0.0000000000000001
 32
0.0
 42
50.0
 43
0.0
 44
0.0
 50
0.0
 71
     0
281
     0
 72
     0
  0
VIEW
  5
57
330
6
100
AcDbSymbolTableRecord
100
AcDbViewTableRecord
  2
TFR-TRI
 70
     0
 40
1357.434191666423
 10
0.0
 20
0.0
 41
357.3332100266028
 11
0.7188730927569434
 21
-0.5850486126764431
 31
0.375419228750255
 12
0.0
 22
0.0
 32
0.0
 42
50.0
 43
0.0
 44
0.0
 50
0.0
 71
     0
281
     0
 72
     0
  0
ENDTAB
  0
TABLE
  2
UCS
  5
7
330
0
100
AcDbSymbolTable
 70
     0
  0
ENDTAB
  0
TABLE
  2
APPID
  5
9
330
0
100
AcDbSymbolTable
 70
     2
  0
APPID
  5
12
330
9
100
AcDbSymbolTableRecord
100
AcDbRegAppTableRecord
  2
ACAD
 70
     0
  0
APPID
  5
3B
330
9
100
AcDbSymbolTableRecord
100
AcDbRegAppTableRecord
  2
TCAD
 70
     0
  0
ENDTAB
  0
TABLE
  2
DIMSTYLE
  5
A
330
0
100
AcDbSymbolTable
 70
     1
100
AcDbDimStyleTable
  0
DIMSTYLE
105
27
330
A
100
AcDbSymbolTableRecord
100
AcDbDimStyleTableRecord
  2
Standard
 70
     0
 45
0.0000001
148
0.0000001
179
     4
340
5A
  0
ENDTAB
  0
TABLE
  2
BLOCK_RECORD
  5
1
330
0
100
AcDbSymbolTable
 70
     1
  0
BLOCK_RECORD
  5
1F
330
1
100
AcDbSymbolTableRecord
100
AcDbBlockTableRecord
  2
*Model_Space
340
22
  0
BLOCK_RECORD
  5
1B
330
1
100
AcDbSymbolTableRecord
100
AcDbBlockTableRecord
  2
*Paper_Space
340
1E
  0
ENDTAB
  0
ENDSEC
  0
SECTION
  2
BLOCKS
  0
BLOCK
  5
20
330
1F
100
AcDbEntity
  8
0
100
AcDbBlockBegin
  2
*Model_Space
 70
     0
 71
     0
 10
0.0
 20
0.0
 30
0.0
  3
*Model_Space
  1

  0
ENDBLK
  5
21
330
1F
100
AcDbEntity
  8
0
100
AcDbBlockEnd
  0
BLOCK
  5
1C
330
1B
100
AcDbEntity
 67
     1
  8
0
100
AcDbBlockBegin
  2
*Paper_Space
 70
     0
 71
     0
 10
0.0
 20
0.0
 30
0.0
  3
*Paper_Space
  1

  0
ENDBLK
  5
1D
330
1B
100
AcDbEntity
 67
     1
  8
0
100
AcDbBlockEnd
  0
ENDSEC
  0
SECTION
  2
ENTITIES
  0
POINT
  5
5B
330
1F
100
AcDbEntity
  8
Main lines
  6
Durchgehend
100
AcDbPoint
 10
215.2972102803113
 20
131.1393706640241
 30
0.0
 50
180.0
  0
LINE
  5
5E
102
{ACAD_XDICTIONARY
360
5C
102
}
330
1F
100
AcDbEntity
  8
Main lines
  6
Durchgehend
100
AcDbLine
 10
214.0472102803113
 20
126.1393706640242
 30
0.0
 11
214.2972102803113
 21
126.1393706640242
 31
0.0
  0
LINE
  5
61
102
{ACAD_XDICTIONARY
360
5F
102
}
330
1F
100
AcDbEntity
  8
Main lines
  6
Durchgehend
100
AcDbLine
 10
214.2972102803113
 20
136.1393706640242
 30
0.0
 11
214.0472102803113
 21
136.1393706640242
 31
0.0
  0
LINE
  5
64
102
{ACAD_XDICTIONARY
360
62
102
}
330
1F
100
AcDbEntity
  8
Main lines
  6
Continuous
100
AcDbLine
 10
174.3272891204286
 20
119.1305516043197
 30
0.0
 11
172.5856192643136
 21
112.6305516043197
 31
0.0
  0
LINE
  5
67
102
{ACAD_XDICTIONARY
360
65
102
}
330
1F
100
AcDbEntity
  8
Main lines
  6
Continuous
100
AcDbLine
 10
168.1849824398242
 20
119.3893706640237
 30
0.0
 11
170.4625505902539
 21
126.8893706640237
 31
0.0
  0
LINE
  5
6A
102
{ACAD_XDICTIONARY
360
68
102
}
330
1F
100
AcDbEntity
  8
Main lines
  6
Continuous
100
AcDbLine
 10
206.6019567952416
 20
112.7157224863568
 30
0.0
 11
205.4558314206362
 21
119.2157224863568
 31
0.0
  0
LINE
  5
6D
102
{ACAD_XDICTIONARY
360
6B
102
}
330
1F
100
AcDbEntity
  8
Main lines
  6
Continuous
100
AcDbLine
 10
183.3569416695043
 20
172.1481897106918
 30
0.0
 11
184.3042160748851
 21
175.6834658973638
 31
0.0
  0
LINE
  5
70
102
{ACAD_XDICTIONARY
360
6E
102
}
330
1F
100
AcDbEntity
  8
Main lines
  6
Continuous
100
AcDbLine
 10
214.2972102803113
 20
111.8893706640238
 30
0.0
 11
207.5867645482538
 21
111.8893706640238
 31
0.0
  0
LINE
  5
73
102
{ACAD_XDICTIONARY
360
71
102
}
330
1F
100
AcDbEntity
  8
Main lines
  6
Continuous
100
AcDbLine
 10
171.619693441937
 20
111.8893706640238
 30
0.0
 11
166.2972102803113
 21
111.8893706640238
 31
0.0
  0
LINE
  5
76
102
{ACAD_XDICTIONARY
360
74
102
}
330
1F
100
AcDbEntity
  8
Main lines
  6
Continuous
100
AcDbLine
 10
166.2972102803113
 20
126.8893706640238
 30
0.0
 11
170.4625505902539
 21
126.8893706640238
 31
0.0
  0
LINE
  5
79
102
{ACAD_XDICTIONARY
360
77
102
}
330
1F
100
AcDbEntity
  8
Main lines
  6
Continuous
100
AcDbLine
 10
165.2972102803113
 20
112.8893706640238
 30
0.0
 11
165.2972102803113
 21
125.8893706640238
 31
0.0
  0
LINE
  5
7C
102
{ACAD_XDICTIONARY
360
7A
102
}
330
1F
100
AcDbEntity
  8
Main lines
  6
Durchgehend
100
AcDbLine
 10
215.2972102803113
 20
119.3893706640238
 30
0.0
 11
215.2972102803113
 21
112.8893706640238
 31
0.0
  0
LINE
  5
7F
102
{ACAD_XDICTIONARY
360
7D
102
}
330
1F
100
AcDbEntity
  8
Main lines
  6
Continuous
100
AcDbLine
 10
202.0252962301743
 20
175.258823351551
 30
0.0
 11
202.5895709828814
 21
172.0632612015292
 31
0.0
  0
LINE
  5
82
102
{ACAD_XDICTIONARY
360
80
102
}
330
1F
100
AcDbEntity
  8
Main lines
  6
Continuous
100
AcDbLine
 10
196.2925589460382
 20
147.3893706640238
 30
0.0
 11
185.7358522803114
 21
147.3893706640238
 31
0.0
  0
LINE
  5
85
102
{ACAD_XDICTIONARY
360
83
102
}
330
1F
100
AcDbEntity
  8
Main lines
  6
Durchgehend
100
AcDbLine
 10
215.2972102803113
 20
132.2386712303955
 30
0.0
 11
215.2972102803113
 21
119.3893706640238
 31
0.0
  0
LINE
  5
88
102
{ACAD_XDICTIONARY
360
86
102
}
330
1F
100
AcDbEntity
  8
Main lines
  6
Continuous
100
AcDbLine
 10
205.4558314206362
 20
119.2157224863568
 30
0.0
 11
201.2165977110989
 21
143.2576115523583
 31
0.0
  0
LINE
  5
8B
102
{ACAD_XDICTIONARY
360
89
102
}
330
1F
100
AcDbEntity
  8
Main lines
  6
Continuous
100
AcDbLine
 10
202.5895709828814
 20
172.0632612015292
 30
0.0
 11
207.6297758618972
 21
143.5199179764966
 31
0.0
  0
LINE
  5
8E
102
{ACAD_XDICTIONARY
360
8C
102
}
330
1F
100
AcDbEntity
  8
Main lines
  6
Continuous
100
AcDbLine
 10
180.9062232803116
 20
143.6834666640239
 30
0.0
 11
174.3272891204286
 21
119.1305516043197
 31
0.0
  0
LINE
  5
91
102
{ACAD_XDICTIONARY
360
8F
102
}
330
1F
100
AcDbEntity
  8
Main lines
  6
Continuous
100
AcDbLine
 10
170.6185264448063
 20
124.6077771924074
 30
0.0
 11
183.3569416695043
 21
172.1481897106918
 31
0.0
  0
LINE
  5
94
102
{ACAD_XDICTIONARY
360
92
102
}
330
1F
100
AcDbEntity
  8
Main lines
  6
Durchgehend
100
AcDbLine
 10
215.2972102803113
 20
138.3893706640241
 30
0.0
 11
215.2972102803113
 21
133.254739946227
 31
0.0
  0
LINE
  5
97
102
{ACAD_XDICTIONARY
360
95
102
}
330
1F
100
AcDbEntity
  8
Main lines
  6
Durchgehend
100
AcDbLine
 10
212.5536008003123
 20
139.3893706640239
 30
0.0
 11
214.2972102803113
 21
139.3893706640241
 31
0.0
  0
LINE
  5
9A
102
{ACAD_XDICTIONARY
360
98
102
}
330
1F
100
AcDbEntity
  8
Main lines
  6
Durchgehend
100
AcDbLine
 10
210.4972102803092
 20
114.8893706640242
 30
0.0
 11
210.4972102803092
 21
123.8893706640227
 31
0.0
  0
LINE
  5
9D
102
{ACAD_XDICTIONARY
360
9B
102
}
330
1F
100
AcDbEntity
  8
Main lines
  6
Durchgehend
100
AcDbLine
 10
212.5972102803092
 20
114.8893706640242
 30
0.0
 11
212.5972102803092
 21
123.8893706640227
 31
0.0
  0
LINE
  5
A0
102
{ACAD_XDICTIONARY
360
9E
102
}
330
1F
100
AcDbEntity
  8
Main lines
  6
Durchgehend
100
AcDbLine
 10
209.0972102803113
 20
131.0893706640242
 30
0.0
 11
209.0972102803113
 21
131.1893706640242
 31
0.0
  0
LINE
  5
A3
102
{ACAD_XDICTIONARY
360
A1
102
}
330
1F
100
AcDbEntity
  8
Main lines
  6
DASHED
100
AcDbLine
 10
212.5972102803111
 20
114.889370664024
 30
0.0
 11
210.4972102803112
 21
114.889370664024
 31
0.0
  0
LINE
  5
A6
102
{ACAD_XDICTIONARY
360
A4
102
}
330
1F
100
AcDbEntity
  8
Main lines
  6
Durchgehend
100
AcDbLine
 10
212.5972102803092
 20
123.8893706640227
 30
0.0
 11
210.4972102803092
 21
123.8893706640227
 31
0.0
  0
LINE
  5
A9
102
{ACAD_XDICTIONARY
360
A7
102
}
330
1F
100
AcDbEntity
  8
Main lines
  6
Durchgehend
100
AcDbLine
 10
203.132360871317
 20
168.9893706640235
 30
0.0
 11
182.5105386514264
 21
168.9893706640235
 31
0.0
  0
LINE
  5
AC
102
{ACAD_XDICTIONARY
360
AA
102
}
330
1F
100
AcDbEntity
  8
Main lines
  6
DASHED
100
AcDbLine
 10
209.9972102803092
 20
114.0322278068808
 30
0.0
 11
213.0972102803092
 21
114.0322278068808
 31
0.0
  0
LINE
  5
AF
102
{ACAD_XDICTIONARY
360
AD
102
}
330
1F
100
AcDbEntity
  8
Main lines
  6
Durchgehend
100
AcDbLine
 10
209.9972102803092
 20
119.3893706640238
 30
0.0
 11
209.9972102803092
 21
114.0322278068808
 31
0.0
  0
LINE
  5
B2
102
{ACAD_XDICTIONARY
360
B0
102
}
330
1F
100
AcDbEntity
  8
Main lines
  6
DASHED
100
AcDbLine
 10
212.5972102803092
 20
114.7518296331704
 30
0.0
 11
212.5972102803092
 21
114.8893706640237
 31
0.0
  0
LINE
  5
B5
102
{ACAD_XDICTIONARY
360
B3
102
}
330
1F
100
AcDbEntity
  8
Main lines
  6
DASHED
100
AcDbLine
 10
210.4972102803092
 20
114.8893706640237
 30
0.0
 11
210.4972102803092
 21
114.7518296331704
 31
0.0
  0
LINE
  5
B8
102
{ACAD_XDICTIONARY
360
B6
102
}
330
1F
100
AcDbEntity
  8
Main lines
  6
Durchgehend
100
AcDbLine
 10
209.9972102803092
 20
124.3893706640236
 30
0.0
 11
209.9972102803092
 21
119.3893706640238
 31
0.0
  0
LINE
  5
BB
102
{ACAD_XDICTIONARY
360
B9
102
}
330
1F
100
AcDbEntity
  8
Main lines
  6
Durchgehend
100
AcDbLine
 10
209.9972102803092
 20
124.3893706640236
 30
0.0
 11
210.4972102803092
 21
123.8893706640236
 31
0.0
  0
LINE
  5
BE
102
{ACAD_XDICTIONARY
360
BC
102
}
330
1F
100
AcDbEntity
  8
Main lines
  6
Durchgehend
100
AcDbLine
 10
213.0972102803092
 20
124.3893706640236
 30
0.0
 11
209.9972102803092
 21
124.3893706640236
 31
0.0
  0
LINE
  5
C1
102
{ACAD_XDICTIONARY
360
BF
102
}
330
1F
100
AcDbEntity
  8
Main lines
  6
Durchgehend
100
AcDbLine
 10
212.5972102803092
 20
123.8893706640236
 30
0.0
 11
213.0972102803092
 21
124.3893706640236
 31
0.0
  0
LINE
  5
C4
102
{ACAD_XDICTIONARY
360
C2
102
}
330
1F
100
AcDbEntity
  8
Main lines
  6
Durchgehend
100
AcDbLine
 10
213.0972102803092
 20
114.0322278068808
 30
0.0
 11
213.0972102803092
 21
124.3893706640236
 31
0.0
  0
LINE
  5
C7
102
{ACAD_XDICTIONARY
360
C5
102
}
330
1F
100
AcDbEntity
  8
Main lines
  6
Continuous
100
AcDbLine
 10
197.1014712917599
 20
179.3893706640238
 30
0.0
 11
189.1338452042331
 21
179.3893706640238
 31
0.0
  0
LINE
  5
CA
102
{ACAD_XDICTIONARY
360
C8
102
}
330
1F
100
AcDbEntity
  8
Main lines
  6
Durchgehend
100
AcDbLine
 10
307.8893260407143
 20
123.889370664024
 30
0.0
 11
318.8579530073092
 21
123.8893706640236
 31
0.0
  0
LINE
  5
CD
102
{ACAD_XDICTIONARY
360
CB
102
}
330
1F
100
AcDbEntity
  8
Main lines
  6
Durchgehend
100
AcDbLine
 10
307.8893260407124
 20
114.889370664024
 30
0.0
 11
316.7569324928755
 21
114.8893706640237
 31
0.0
  0
LINE
  5
D0
102
{ACAD_XDICTIONARY
360
CE
102
}
330
1F
100
AcDbEntity
  8
Main lines
  6
DASHED
100
AcDbLine
 10
315.1935803421711
 20
169.0540570113421
 30
0.0
 11
315.1935803421711
 21
169.2034712596522
 31
0.0
  0
LINE
  5
D3
102
{ACAD_XDICTIONARY
360
D1
102
}
330
1F
100
AcDbEntity
  8
Main lines
  6
Durchgehend
100
AcDbLine
 10
306.6291603304763
 20
113.763313527371
 30
0.0
 11
257.3317734008141
 21
114.1935253055361
 31
0.0
  0
LINE
  5
D6
102
{ACAD_XDICTIONARY
360
D4
102
}
330
1F
100
AcDbEntity
  8
Main lines
  6
DASHED
100
AcDbLine
 10
318.3579530073092
 20
119.1305516043197
 30
0.0
 11
318.3579530073092
 21
119.2161031677309
 31
0.0
  0
LINE
  5
D9
102
{ACAD_XDICTIONARY
360
D7
102
}
330
1F
100
AcDbEntity
  8
Main lines
  6
DASHED
100
AcDbLine
 10
305.3579530073092
 20
119.2161031677309
 30
0.0
 11
305.3579530073092
 21
119.1305516043197
 31
0.0
  0
LINE
  5
DC
102
{ACAD_XDICTIONARY
360
DA
102
}
330
1F
100
AcDbEntity
  8
Main lines
  6
Continuous
100
AcDbLine
 10
254.3579530073092
 20
117.1934110747286
 30
0.0
 11
254.3579530073092
 21
169.1486203553623
 31
0.0
  0
LINE
  5
DF
102
{ACAD_XDICTIONARY
360
DD
102
}
330
1F
100
AcDbEntity
  8
Main lines
  6
Continuous
100
AcDbLine
 10
260.305593794319
 20
175.1483918937473
 30
0.0
 11
304.8845368328658
 21
175.5374264358964
 31
0.0
  0
LINE
  5
E2
102
{ACAD_XDICTIONARY
360
E0
102
}
330
1F
100
AcDbEntity
  8
Main lines
  6
DASHED
100
AcDbLine
 10
318.3579530073092
 20
119.3896505275686
 30
0.0
 11
318.3579530073092
 21
119.2157224863568
 31
0.0
  0
LINE
  5
E5
102
{ACAD_XDICTIONARY
360
E3
102
}
330
1F
100
AcDbEntity
  8
Main lines
  6
DASHED
100
AcDbLine
 10
305.3579530073092
 20
119.2157224863568
 30
0.0
 11
305.3579530073092
 21
119.3896505275686
 31
0.0
  0
LINE
  5
E8
102
{ACAD_XDICTIONARY
360
E6
102
}
330
1F
100
AcDbEntity
  8
Main lines
  6
Continuous
100
AcDbLine
 10
315.1929530073091
 20
168.9893706640235
 30
0.0
 11
315.1929530073099
 21
151.7893706640239
 31
0.0
  0
LINE
  5
EB
102
{ACAD_XDICTIONARY
360
E9
102
}
330
1F
100
AcDbEntity
  8
Main lines
  6
Continuous
100
AcDbLine
 10
308.5229530073093
 20
169.0540575349645
 30
0.0
 11
308.5229530073098
 21
151.7893706640237
 31
0.0
  0
LINE
  5
EE
102
{ACAD_XDICTIONARY
360
EC
102
}
330
1F
100
AcDbEntity
  8
Main lines
  6
Continuous
100
AcDbLine
 10
304.3579530073092
 20
141.5231056910226
 30
0.0
 11
304.3579530073092
 21
171.8893706640238
 31
0.0
  0
LINE
  5
F1
102
{ACAD_XDICTIONARY
360
EF
102
}
330
1F
100
AcDbEntity
  8
Main lines
  6
Continuous
100
AcDbLine
 10
319.3579530073092
 20
171.8893706640238
 30
0.0
 11
319.3579530073092
 21
141.5231056910226
 31
0.0
  0
LINE
  5
F4
102
{ACAD_XDICTIONARY
360
F2
102
}
330
1F
100
AcDbEntity
  8
Main lines
  6
Durchgehend
100
AcDbLine
 10
311.8579530073092
 20
116.1993706640241
 30
0.0
 11
311.8579530073092
 21
112.8893706640238
 31
0.0
  0
LINE
  5
F7
102
{ACAD_XDICTIONARY
360
F5
102
}
330
1F
100
AcDbEntity
  8
Main lines
  6
Durchgehend
100
AcDbLine
 10
311.8579530073092
 20
112.8893706640238
 30
0.0
 11
311.8579530073092
 21
111.8893706640238
 31
0.0
  0
LINE
  5
FA
102
{ACAD_XDICTIONARY
360
F8
102
}
330
1F
100
AcDbEntity
  8
Main lines
  6
Continuous
100
AcDbLine
 10
304.3579530073092
 20
119.3893706640238
 30
0.0
 11
304.3579530073092
 21
132.2386712303955
 31
0.0
  0
LINE
  5
FD
102
{ACAD_XDICTIONARY
360
FB
102
}
330
1F
100
AcDbEntity
  8
Main lines
  6
Durchgehend
100
AcDbLine
 10
319.3579530073092
 20
132.2386712303955
 30
0.0
 11
319.3579530073092
 21
119.3893706640238
 31
0.0
  0
XLINE
  5
FE
330
1F
100
AcDbEntity
  8
Main lines
  6
Continuous
 62
    55
420
 10855762
 60
     1
100
AcDbXline
 10
165.2972102803112
 20
165.4647203808379
 30
0.0
 11
0.7071067811865475
 21
0.7071067811865475
 31
0.0
  0
XLINE
  5
FF
330
1F
100
AcDbEntity
  8
Main lines
  6
Continuous
 62
    55
420
 10855762
 60
     1
100
AcDbXline
 10
150.2972102803112
 20
165.4647203808379
 30
0.0
 11
0.7071067811865475
 21
0.7071067811865475
 31
0.0
  0
XLINE
  5
100
330
1F
100
AcDbEntity
  8
Main lines
  6
Continuous
 62
    55
420
 10855762
 60
     1
100
AcDbXline
 10
165.2972102803112
 20
165.4647203808379
 30
0.0
 11
0.7071067811865475
 21
0.7071067811865475
 31
0.0
  0
XLINE
  5
101
330
1F
100
AcDbEntity
  8
Main lines
  6
Continuous
 62
    55
420
 10855762
 60
     1
100
AcDbXline
 10
96.537505039624
 20
111.8893706640238
 30
0.0
 11
0.7071067811865475
 21
0.7071067811865475
 31
0.0
  0
ARC
  5
104
102
{ACAD_XDICTIONARY
360
102
102
}
330
1F
100
AcDbEntity
  8
Main lines
  6
Durchgehend
100
AcDbCircle
 10
212.5536008003116
 20
144.3893706640239
 30
0.0
 40
5.0
100
AcDbArc
 50
190.0141007189154
 51
270.0
  0
ARC
  5
107
102
{ACAD_XDICTIONARY
360
105
102
}
330
1F
100
AcDbEntity
  8
Main lines
  6
Continuous
100
AcDbCircle
 10
171.619693441937
 20
112.8893706640238
 30
0.0
 40
0.9999999999999964
100
AcDbArc
 50
270.0
 51
344.9999991338799
  0
ARC
  5
10A
102
{ACAD_XDICTIONARY
360
108
102
}
330
1F
100
AcDbEntity
  8
Main lines
  6
Continuous
100
AcDbCircle
 10
170.4625505902539
 20
127.8893706640238
 30
0.0
 40
0.9999999999999932
100
AcDbArc
 50
270.0
 51
344.9999999071399
  0
ARC
  5
10D
102
{ACAD_XDICTIONARY
360
10B
102
}
330
1F
100
AcDbEntity
  8
Main lines
  6
Continuous
100
AcDbCircle
 10
185.7358522803114
 20
142.3893706640238
 30
0.0
 40
5.000000000000121
100
AcDbArc
 50
90.0
 51
164.9999910375873
  0
ARC
  5
110
102
{ACAD_XDICTIONARY
360
10E
102
}
330
1F
100
AcDbEntity
  8
Main lines
  6
Continuous
100
AcDbCircle
 10
207.5867645482538
 20
112.8893706640238
 30
0.0
 40
1.0
100
AcDbArc
 50
190.0000000000036
 51
270.0
  0
ARC
  5
113
102
{ACAD_XDICTIONARY
360
111
102
}
330
1F
100
AcDbEntity
  8
Main lines
  6
Continuous
100
AcDbCircle
 10
166.2972102803113
 20
125.8893706640238
 30
0.0
 40
1.0
100
AcDbArc
 50
90.0
 51
180.0
  0
ARC
  5
116
102
{ACAD_XDICTIONARY
360
114
102
}
330
1F
100
AcDbEntity
  8
Main lines
  6
Continuous
100
AcDbCircle
 10
166.2972102803113
 20
112.8893706640238
 30
0.0
 40
1.0
100
AcDbArc
 50
180.0
 51
270.0
  0
ARC
  5
119
102
{ACAD_XDICTIONARY
360
117
102
}
330
1F
100
AcDbEntity
  8
Main lines
  6
Continuous
100
AcDbCircle
 10
214.2972102803113
 20
112.8893706640238
 30
0.0
 40
1.0
100
AcDbArc
 50
270.0
 51
360.0
  0
ARC
  5
11C
102
{ACAD_XDICTIONARY
360
11A
102
}
330
1F
100
AcDbEntity
  8
Main lines
  6
Continuous
100
AcDbCircle
 10
196.2925589460382
 20
142.3893706640238
 30
0.0
 40
5.000000000000002
100
AcDbArc
 50
9.999999999999504
 51
90.00000000000017
  0
ARC
  5
11F
102
{ACAD_XDICTIONARY
360
11D
102
}
330
1F
100
AcDbEntity
  8
Main lines
  6
Durchgehend
100
AcDbCircle
 10
214.2972102803113
 20
138.3893706640241
 30
0.0
 40
1.0
100
AcDbArc
 50
360.0
 51
450.0
  0
ARC
  5
122
102
{ACAD_XDICTIONARY
360
120
102
}
330
1F
100
AcDbEntity
  8
Main lines
  6
Durchgehend
100
AcDbCircle
 10
214.2972102803113
 20
137.1393706640242
 30
0.0
 40
1.0
100
AcDbArc
 50
270.0
 51
360.0
  0
ARC
  5
125
102
{ACAD_XDICTIONARY
360
123
102
}
330
1F
100
AcDbEntity
  8
Main lines
  6
Durchgehend
100
AcDbCircle
 10
214.2972102803113
 20
125.1393706640242
 30
0.0
 40
1.0
100
AcDbArc
 50
360.0
 51
450.0
  0
ARC
  5
128
102
{ACAD_XDICTIONARY
360
126
102
}
330
1F
100
AcDbEntity
  8
Main lines
  6
Durchgehend
100
AcDbCircle
 10
214.0472102803113
 20
131.0893706640242
 30
0.0
 40
4.949999999999996
100
AcDbArc
 50
180.0
 51
270.0
  0
ARC
  5
12B
102
{ACAD_XDICTIONARY
360
129
102
}
330
1F
100
AcDbEntity
  8
Main lines
  6
Durchgehend
100
AcDbCircle
 10
214.0472102803113
 20
131.1893706640242
 30
0.0
 40
4.949999999999996
100
AcDbArc
 50
90.0
 51
180.0
  0
ARC
  5
12E
102
{ACAD_XDICTIONARY
360
12C
102
}
330
1F
100
AcDbEntity
  8
Main lines
  6
Durchgehend
100
AcDbCircle
 10
316.7569324928754
 20
114.3893706640237
 30
0.0
 40
0.5000000000000062
100
AcDbArc
 50
46.46202169486521
 51
89.99999999999675
  0
ARC
  5
131
102
{ACAD_XDICTIONARY
360
12F
102
}
330
1F
100
AcDbEntity
  8
Main lines
  6
Durchgehend
100
AcDbCircle
 10
311.8579530073112
 20
119.3893706640227
 30
0.0
 40
6.000000000000008
100
AcDbArc
 50
131.409622109271
 51
228.5903778907073
  0
ARC
  5
134
102
{ACAD_XDICTIONARY
360
132
102
}
330
1F
100
AcDbEntity
  8
Main lines
  6
Durchgehend
100
AcDbCircle
 10
318.857953007309
 20
124.3893706640238
 30
0.0
 40
0.5000000000002842
100
AcDbArc
 50
270.0
 51
360.0
  0
ARC
  5
137
102
{ACAD_XDICTIONARY
360
135
102
}
330
1F
100
AcDbEntity
  8
Main lines
  6
Durchgehend
100
AcDbCircle
 10
311.8579530073092
 20
119.3893706640238
 30
0.0
 40
6.5
100
AcDbArc
 50
0.0
 51
90.0
  0
ARC
  5
13A
102
{ACAD_XDICTIONARY
360
138
102
}
330
1F
100
AcDbEntity
  8
Main lines
  6
Durchgehend
100
AcDbCircle
 10
311.8579530073092
 20
119.3893706640238
 30
0.0
 40
6.5
100
AcDbArc
 50
90.0
 51
180.0
  0
ARC
  5
13D
102
{ACAD_XDICTIONARY
360
13B
102
}
330
1F
100
AcDbEntity
  8
Main lines
  6
Durchgehend
100
AcDbCircle
 10
311.8579530073093
 20
119.3893706640237
 30
0.0
 40
7.500000000000085
100
AcDbArc
 50
90.0
 51
180.0
  0
ARC
  5
140
102
{ACAD_XDICTIONARY
360
13E
102
}
330
1F
100
AcDbEntity
  8
Main lines
  6
Durchgehend
100
AcDbCircle
 10
311.8579530073092
 20
119.3893706640237
 30
0.0
 40
7.500000000000085
100
AcDbArc
 50
4.286247234407575
 51
90.0
  0
ARC
  5
143
102
{ACAD_XDICTIONARY
360
141
102
}
330
1F
100
AcDbEntity
  8
Main lines
  6
Durchgehend
100
AcDbCircle
 10
306.6226154288525
 20
113.0133420850729
 30
0.0
 40
0.7500000000000163
100
AcDbArc
 50
50.6106867160999
 51
89.49999999999974
  0
ARC
  5
146
102
{ACAD_XDICTIONARY
360
144
102
}
330
1F
100
AcDbEntity
  8
Main lines
  6
Continuous
100
AcDbCircle
 10
257.3579530073096
 20
117.1934110747289
 30
0.0
 40
3.000000000000446
100
AcDbArc
 50
180.0
 51
269.4999999999933
  0
ARC
  5
149
102
{ACAD_XDICTIONARY
360
147
102
}
330
1F
100
AcDbEntity
  8
Main lines
  6
Continuous
100
AcDbCircle
 10
260.3579530073089
 20
169.1486203553625
 30
0.0
 40
5.999999999999631
100
AcDbArc
 50
90.49999999999756
 51
180.0
  0
ARC
  5
14C
102
{ACAD_XDICTIONARY
360
14A
102
}
330
1F
100
AcDbEntity
  8
Main lines
  6
Continuous
100
AcDbCircle
 10
304.877991931242
 20
176.2873978781946
 30
0.0
 40
0.7499999999999972
100
AcDbArc
 50
270.5000000000003
 51
327.7852426367563
  0
ARC
  5
14F
102
{ACAD_XDICTIONARY
360
14D
102
}
330
1F
100
AcDbEntity
  8
Main lines
  6
Continuous
100
AcDbCircle
 10
311.8579530073157
 20
171.8893706640239
 30
0.0
 40
7.499999999996698
100
AcDbArc
 50
360.0
 51
389.4474406335079
  0
ARC
  5
152
102
{ACAD_XDICTIONARY
360
150
102
}
330
1F
100
AcDbEntity
  8
Main lines
  6
Continuous
100
AcDbCircle
 10
311.8579530072982
 20
171.8893706640239
 30
0.0
 40
7.499999999994394
100
AcDbArc
 50
150.5525593664755
 51
180.0
  0
ARC
  5
155
102
{ACAD_XDICTIONARY
360
153
102
}
330
1F
100
AcDbEntity
  8
Main lines
  6
Continuous
100
AcDbCircle
 10
311.8582666747402
 20
169.0540570113421
 30
0.0
 40
3.3353136674309
100
AcDbArc
 50
5.141257139968598
 51
180.0
  0
ARC
  5
158
102
{ACAD_XDICTIONARY
360
156
102
}
330
1F
100
AcDbEntity
  8
Main lines
  6
Continuous
100
AcDbCircle
 10
311.8582666748524
 20
169.0540570113421
 30
0.0
 40
3.335313667374864
100
AcDbArc
 50
358.8887140914188
 51
365.140326604082
  0
ARC
  5
15B
102
{ACAD_XDICTIONARY
360
159
102
}
330
1F
100
AcDbEntity
  8
Main lines
  6
Continuous
100
AcDbCircle
 10
311.8579530073096
 20
151.7249919875538
 30
0.0
 40
3.335621323529838
100
AcDbArc
 50
270.0
 51
361.105897563749
  0
ARC
  5
15E
102
{ACAD_XDICTIONARY
360
15C
102
}
330
1F
100
AcDbEntity
  8
Main lines
  6
Continuous
100
AcDbCircle
 10
311.8579530073098
 20
151.7249919875535
 30
0.0
 40
3.335621323529466
100
AcDbArc
 50
178.8941024362509
 51
270.0
  0
ARC
  5
161
102
{ACAD_XDICTIONARY
360
15F
102
}
330
1F
100
AcDbEntity
  8
Main lines
  6
Durchgehend
100
AcDbCircle
 10
311.8579530073092
 20
119.3893706640238
 30
0.0
 40
6.5
100
AcDbArc
 50
270.0
 51
360.0
  0
ARC
  5
164
102
{ACAD_XDICTIONARY
360
162
102
}
330
1F
100
AcDbEntity
  8
Main lines
  6
Durchgehend
100
AcDbCircle
 10
311.8579530073092
 20
119.3893706640241
 30
0.0
 40
3.189999999999998
100
AcDbArc
 50
270.0
 51
450.0
  0
ARC
  5
167
102
{ACAD_XDICTIONARY
360
165
102
}
330
1F
100
AcDbEntity
  8
Main lines
  6
Durchgehend
100
AcDbCircle
 10
311.8579530073092
 20
131.1393706640242
 30
0.0
 40
6.0
100
AcDbArc
 50
270.0
 51
450.0
  0
ARC
  5
16A
102
{ACAD_XDICTIONARY
360
168
102
}
330
1F
100
AcDbEntity
  8
Main lines
  6
Durchgehend
100
AcDbCircle
 10
311.8579530073092
 20
119.3893706640238
 30
0.0
 40
7.5
100
AcDbArc
 50
180.0
 51
270.0
  0
ARC
  5
16D
102
{ACAD_XDICTIONARY
360
16B
102
}
330
1F
100
AcDbEntity
  8
Main lines
  6
Durchgehend
100
AcDbCircle
 10
311.8579530073092
 20
119.3893706640238
 30
0.0
 40
6.5
100
AcDbArc
 50
180.0
 51
270.0
  0
ARC
  5
170
102
{ACAD_XDICTIONARY
360
16E
102
}
330
1F
100
AcDbEntity
  8
Main lines
  6
Durchgehend
100
AcDbCircle
 10
311.8579530073092
 20
119.3893706640238
 30
0.0
 40
7.5
100
AcDbArc
 50
270.0
 51
360.0
  0
CIRCLE
  5
171
330
1F
100
AcDbEntity
  8
Main lines
  6
Durchgehend
370
     0
100
AcDbCircle
 10
311.8579530073092
 20
131.1393706640242
 30
0.0
 40
5.0
  0
ARC
  5
174
102
{ACAD_XDICTIONARY
360
172
102
}
330
1F
100
AcDbEntity
  8
Main lines
  6
Durchgehend
100
AcDbCircle
 10
311.8579530073092
 20
131.1393706640242
 30
0.0
 40
6.0
100
AcDbArc
 50
90.0
 51
270.0
  0
ARC
  5
177
102
{ACAD_XDICTIONARY
360
175
102
}
330
1F
100
AcDbEntity
  8
Main lines
  6
Durchgehend
100
AcDbCircle
 10
311.8579530073092
 20
119.3893706640241
 30
0.0
 40
3.189999999999998
100
AcDbArc
 50
90.0
 51
270.0
  0
POLYLINE
  5
17A
102
{ACAD_XDICTIONARY
360
178
102
}
330
1F
100
AcDbEntity
  8
Main lines
  6
DASHED
100
AcDb3dPolyline
 66
     1
 10
0.0
 20
0.0
 30
0.0
 70
     8
  0
VERTEX
  5
17B
330
17A
100
AcDbEntity
  8
Main lines
  6
DASHED
100
AcDbVertex
100
AcDb3dPolylineVertex
 10
306.0111196584066
 20
114.7257917317815
 30
0.0000000000000004
 70
    32
  0
VERTEX
  5
17C
330
17A
100
AcDbEntity
  8
Main lines
  6
DASHED
100
AcDbVertex
100
AcDb3dPolylineVertex
 10
306.0106555731522
 20
114.7258350837329
 30
0.0000000000000004
 70
    32
  0
VERTEX
  5
17D
330
17A
100
AcDbEntity
  8
Main lines
  6
DASHED
100
AcDbVertex
100
AcDb3dPolylineVertex
 10
306.0101888265265
 20
114.725876142802
 30
0.0000000000000004
 70
    32
  0
VERTEX
  5
17E
330
17A
100
AcDbEntity
  8
Main lines
  6
DASHED
100
AcDbVertex
100
AcDb3dPolylineVertex
 10
306.0097194207618
 20
114.7259149087922
 30
0.0000000000000004
 70
    32
  0
VERTEX
  5
17F
330
17A
100
AcDbEntity
  8
Main lines
  6
DASHED
100
AcDbVertex
100
AcDb3dPolylineVertex
 10
306.0092473581033
 20
114.7259513815183
 30
0.0000000000000004
 70
    32
  0
VERTEX
  5
180
330
17A
100
AcDbEntity
  8
Main lines
  6
DASHED
100
AcDbVertex
100
AcDb3dPolylineVertex
 10
306.0087726408087
 20
114.7259855608057
 30
0.0000000000000004
 70
    32
  0
VERTEX
  5
181
330
17A
100
AcDbEntity
  8
Main lines
  6
DASHED
100
AcDbVertex
100
AcDb3dPolylineVertex
 10
306.0082952711487
 20
114.726017446491
 30
0.0000000000000004
 70
    32
  0
VERTEX
  5
182
330
17A
100
AcDbEntity
  8
Main lines
  6
DASHED
100
AcDbVertex
100
AcDb3dPolylineVertex
 10
306.0078152514062
 20
114.7260470384217
 30
0.0000000000000004
 70
    32
  0
VERTEX
  5
183
330
17A
100
AcDbEntity
  8
Main lines
  6
DASHED
100
AcDbVertex
100
AcDb3dPolylineVertex
 10
306.0073325838774
 20
114.7260743364562
 30
0.0000000000000004
 70
    32
  0
VERTEX
  5
184
330
17A
100
AcDbEntity
  8
Main lines
  6
DASHED
100
AcDbVertex
100
AcDb3dPolylineVertex
 10
306.0068472708707
 20
114.7260993404639
 30
0.0000000000000004
 70
    32
  0
VERTEX
  5
185
330
17A
100
AcDbEntity
  8
Main lines
  6
DASHED
100
AcDbVertex
100
AcDb3dPolylineVertex
 10
306.0063593147072
 20
114.7261220503254
 30
0.0000000000000004
 70
    32
  0
VERTEX
  5
186
330
17A
100
AcDbEntity
  8
Main lines
  6
DASHED
100
AcDbVertex
100
AcDb3dPolylineVertex
 10
306.0058687177208
 20
114.726142465932
 30
0.0000000000000004
 70
    32
  0
VERTEX
  5
187
330
17A
100
AcDbEntity
  8
Main lines
  6
DASHED
100
AcDbVertex
100
AcDb3dPolylineVertex
 10
306.005375482258
 20
114.726160587186
 30
0.0000000000000004
 70
    32
  0
VERTEX
  5
188
330
17A
100
AcDbEntity
  8
Main lines
  6
DASHED
100
AcDbVertex
100
AcDb3dPolylineVertex
 10
306.0048796106779
 20
114.7261764140007
 30
0.0000000000000004
 70
    32
  0
VERTEX
  5
189
330
17A
100
AcDbEntity
  8
Main lines
  6
DASHED
100
AcDbVertex
100
AcDb3dPolylineVertex
 10
306.0043811053521
 20
114.7261899463005
 30
0.0000000000000004
 70
    32
  0
VERTEX
  5
18A
330
17A
100
AcDbEntity
  8
Main lines
  6
DASHED
100
AcDbVertex
100
AcDb3dPolylineVertex
 10
306.003879968665
 20
114.7262011840207
 30
0.0000000000000004
 70
    32
  0
VERTEX
  5
18B
330
17A
100
AcDbEntity
  8
Main lines
  6
DASHED
100
AcDbVertex
100
AcDb3dPolylineVertex
 10
306.0033762030133
 20
114.7262101271074
 30
0.0000000000000004
 70
    32
  0
VERTEX
  5
18C
330
17A
100
AcDbEntity
  8
Main lines
  6
DASHED
100
AcDbVertex
100
AcDb3dPolylineVertex
 10
306.0028698108067
 20
114.7262167755179
 30
0.0000000000000004
 70
    32
  0
VERTEX
  5
18D
330
17A
100
AcDbEntity
  8
Main lines
  6
DASHED
100
AcDbVertex
100
AcDb3dPolylineVertex
 10
306.0023607944669
 20
114.7262211292205
 30
0.0000000000000004
 70
    32
  0
VERTEX
  5
18E
330
17A
100
AcDbEntity
  8
Main lines
  6
DASHED
100
AcDbVertex
100
AcDb3dPolylineVertex
 10
306.0018491564287
 20
114.7262231881942
 30
0.0000000000000004
 70
    32
  0
VERTEX
  5
18F
330
17A
100
AcDbEntity
  8
Main lines
  6
DASHED
100
AcDbVertex
100
AcDb3dPolylineVertex
 10
306.0013348991391
 20
114.7262229524293
 30
0.0000000000000004
 70
    32
  0
VERTEX
  5
190
330
17A
100
AcDbEntity
  8
Main lines
  6
DASHED
100
AcDbVertex
100
AcDb3dPolylineVertex
 10
306.0008180250578
 20
114.7262204219269
 30
0.0000000000000004
 70
    32
  0
VERTEX
  5
191
330
17A
100
AcDbEntity
  8
Main lines
  6
DASHED
100
AcDbVertex
100
AcDb3dPolylineVertex
 10
306.0002985366568
 20
114.726215596699
 30
0.0000000000000004
 70
    32
  0
VERTEX
  5
192
330
17A
100
AcDbEntity
  8
Main lines
  6
DASHED
100
AcDbVertex
100
AcDb3dPolylineVertex
 10
305.9997764364209
 20
114.7262084767687
 30
0.0000000000000004
 70
    32
  0
VERTEX
  5
193
330
17A
100
AcDbEntity
  8
Main lines
  6
DASHED
100
AcDbVertex
100
AcDb3dPolylineVertex
 10
305.9992517268471
 20
114.7261990621702
 30
0.0000000000000004
 70
    32
  0
VERTEX
  5
194
330
17A
100
AcDbEntity
  8
Main lines
  6
DASHED
100
AcDbVertex
100
AcDb3dPolylineVertex
 10
305.9987244104452
 20
114.7261873529484
 30
0.0000000000000004
 70
    32
  0
VERTEX
  5
195
330
17A
100
AcDbEntity
  8
Main lines
  6
DASHED
100
AcDbVertex
100
AcDb3dPolylineVertex
 10
305.9981944897371
 20
114.7261733491594
 30
0.0000000000000004
 70
    32
  0
VERTEX
  5
196
330
17A
100
AcDbEntity
  8
Main lines
  6
DASHED
100
AcDbVertex
100
AcDb3dPolylineVertex
 10
305.9976619672574
 20
114.7261570508701
 30
0.0000000000000004
 70
    32
  0
VERTEX
  5
197
330
17A
100
AcDbEntity
  8
Main lines
  6
DASHED
100
AcDbVertex
100
AcDb3dPolylineVertex
 10
305.9971268455532
 20
114.7261384581584
 30
0.0000000000000004
 70
    32
  0
VERTEX
  5
198
330
17A
100
AcDbEntity
  8
Main lines
  6
DASHED
100
AcDbVertex
100
AcDb3dPolylineVertex
 10
305.9965891271837
 20
114.7261175711133
 30
0.0000000000000004
 70
    32
  0
VERTEX
  5
199
330
17A
100
AcDbEntity
  8
Main lines
  6
DASHED
100
AcDbVertex
100
AcDb3dPolylineVertex
 10
305.996048814721
 20
114.7260943898347
 30
0.0000000000000004
 70
    32
  0
VERTEX
  5
19A
330
17A
100
AcDbEntity
  8
Main lines
  6
DASHED
100
AcDbVertex
100
AcDb3dPolylineVertex
 10
305.9955059107491
 20
114.7260689144335
 30
0.0000000000000004
 70
    32
  0
VERTEX
  5
19B
330
17A
100
AcDbEntity
  8
Main lines
  6
DASHED
100
AcDbVertex
100
AcDb3dPolylineVertex
 10
305.9949604178648
 20
114.7260411450316
 30
0.0000000000000004
 70
    32
  0
VERTEX
  5
19C
330
17A
100
AcDbEntity
  8
Main lines
  6
DASHED
100
AcDbVertex
100
AcDb3dPolylineVertex
 10
305.994412338677
 20
114.7260110817616
 30
0.0000000000000004
 70
    32
  0
VERTEX
  5
19D
330
17A
100
AcDbEntity
  8
Main lines
  6
DASHED
100
AcDbVertex
100
AcDb3dPolylineVertex
 10
305.9938616758072
 20
114.7259787247675
 30
0.0000000000000004
 70
    32
  0
VERTEX
  5
19E
330
17A
100
AcDbEntity
  8
Main lines
  6
DASHED
100
AcDbVertex
100
AcDb3dPolylineVertex
 10
305.9933084318891
 20
114.7259440742039
 30
0.0000000000000004
 70
    32
  0
VERTEX
  5
19F
330
17A
100
AcDbEntity
  8
Main lines
  6
DASHED
100
AcDbVertex
100
AcDb3dPolylineVertex
 10
305.9927526095689
 20
114.7259071302367
 30
0.0000000000000004
 70
    32
  0
VERTEX
  5
1A0
330
17A
100
AcDbEntity
  8
Main lines
  6
DASHED
100
AcDbVertex
100
AcDb3dPolylineVertex
 10
305.9921942115049
 20
114.7258678930424
 30
0.0000000000000004
 70
    32
  0
VERTEX
  5
1A1
330
17A
100
AcDbEntity
  8
Main lines
  6
DASHED
100
AcDbVertex
100
AcDb3dPolylineVertex
 10
305.9916332403678
 20
114.7258263628088
 30
0.0000000000000004
 70
    32
  0
VERTEX
  5
1A2
330
17A
100
AcDbEntity
  8
Main lines
  6
DASHED
100
AcDbVertex
100
AcDb3dPolylineVertex
 10
305.9910696988408
 20
114.7257825397346
 30
0.0000000000000004
 70
    32
  0
VERTEX
  5
1A3
330
17A
100
AcDbEntity
  8
Main lines
  6
DASHED
100
AcDbVertex
100
AcDb3dPolylineVertex
 10
305.9905035896191
 20
114.7257364240292
 30
0.0000000000000004
 70
    32
  0
VERTEX
  5
1A4
330
17A
100
AcDbEntity
  8
Main lines
  6
DASHED
100
AcDbVertex
100
AcDb3dPolylineVertex
 10
305.9899349154105
 20
114.7256880159133
 30
0.0000000000000004
 70
    32
  0
VERTEX
  5
1A5
330
17A
100
AcDbEntity
  8
Main lines
  6
DASHED
100
AcDbVertex
100
AcDb3dPolylineVertex
 10
305.9893636789347
 20
114.7256373156185
 30
0.0000000000000004
 70
    32
  0
VERTEX
  5
1A6
330
17A
100
AcDbEntity
  8
Main lines
  6
DASHED
100
AcDbVertex
100
AcDb3dPolylineVertex
 10
305.988789882924
 20
114.7255843233871
 30
0.0000000000000004
 70
    32
  0
VERTEX
  5
1A7
330
17A
100
AcDbEntity
  8
Main lines
  6
DASHED
100
AcDbVertex
100
AcDb3dPolylineVertex
 10
305.9882135301227
 20
114.7255290394726
 30
0.0000000000000004
 70
    32
  0
VERTEX
  5
1A8
330
17A
100
AcDbEntity
  8
Main lines
  6
DASHED
100
AcDbVertex
100
AcDb3dPolylineVertex
 10
305.9876346232876
 20
114.7254714641396
 30
0.0000000000000004
 70
    32
  0
VERTEX
  5
1A9
330
17A
100
AcDbEntity
  8
Main lines
  6
DASHED
100
AcDbVertex
100
AcDb3dPolylineVertex
 10
305.9870531651873
 20
114.7254115976633
 30
0.0000000000000004
 70
    32
  0
VERTEX
  5
1AA
330
17A
100
AcDbEntity
  8
Main lines
  6
DASHED
100
AcDbVertex
100
AcDb3dPolylineVertex
 10
305.9864691586029
 20
114.72534944033
 30
0.0000000000000004
 70
    32
  0
VERTEX
  5
1AB
330
17A
100
AcDbEntity
  8
Main lines
  6
DASHED
100
AcDbVertex
100
AcDb3dPolylineVertex
 10
305.9858826063278
 20
114.7252849924371
 30
0.0000000000000004
 70
    32
  0
VERTEX
  5
1AC
330
17A
100
AcDbEntity
  8
Main lines
  6
DASHED
100
AcDbVertex
100
AcDb3dPolylineVertex
 10
305.9852935111671
 20
114.7252182542929
 30
0.0000000000000004
 70
    32
  0
SEQEND
  5
1AD
330
17A
100
AcDbEntity
  8
Main lines
  6
DASHED
  0
POLYLINE
  5
1B0
102
{ACAD_XDICTIONARY
360
1AE
102
}
330
1F
100
AcDbEntity
  8
Main lines
  6
Continuous
100
AcDb3dPolyline
 66
     1
 10
0.0
 20
0.0
 30
0.0
 70
     8
  0
VERTEX
  5
1B1
330
1B0
100
AcDbEntity
  8
Main lines
  6
Continuous
100
AcDbVertex
100
AcDb3dPolylineVertex
 10
319.3579530073092
 20
132.2386712303955
 30
-0.0000000000000004
 70
    32
  0
VERTEX
  5
1B2
330
1B0
100
AcDbEntity
  8
Main lines
  6
Continuous
100
AcDbVertex
100
AcDb3dPolylineVertex
 10
319.3579513787669
 20
132.2401116103914
 30
-0.0000000000000004
 70
    32
  0
VERTEX
  5
1B3
330
1B0
100
AcDbEntity
  8
Main lines
  6
Continuous
100
AcDbVertex
100
AcDb3dPolylineVertex
 10
319.3579464931453
 20
132.2415519856958
 30
-0.0000000000000004
 70
    32
  0
VERTEX
  5
1B4
330
1B0
100
AcDbEntity
  8
Main lines
  6
Continuous
100
AcDbVertex
100
AcDb3dPolylineVertex
 10
319.3579383504604
 20
132.2429923516174
 30
-0.0000000000000004
 70
    32
  0
VERTEX
  5
1B5
330
1B0
100
AcDbEntity
  8
Main lines
  6
Continuous
100
AcDbVertex
100
AcDb3dPolylineVertex
 10
319.3579269507386
 20
132.2444327034647
 30
-0.0000000000000004
 70
    32
  0
VERTEX
  5
1B6
330
1B0
100
AcDbEntity
  8
Main lines
  6
Continuous
100
AcDbVertex
100
AcDb3dPolylineVertex
 10
319.3579122940171
 20
132.2458730365464
 30
-0.0000000000000004
 70
    32
  0
VERTEX
  5
1B7
330
1B0
100
AcDbEntity
  8
Main lines
  6
Continuous
100
AcDbVertex
100
AcDb3dPolylineVertex
 10
319.3578943803436
 20
132.2473133461713
 30
-0.0000000000000004
 70
    32
  0
VERTEX
  5
1B8
330
1B0
100
AcDbEntity
  8
Main lines
  6
Continuous
100
AcDbVertex
100
AcDb3dPolylineVertex
 10
319.3578732097765
 20
132.248753627648
 30
-0.0000000000000004
 70
    32
  0
VERTEX
  5
1B9
330
1B0
100
AcDbEntity
  8
Main lines
  6
Continuous
100
AcDbVertex
100
AcDb3dPolylineVertex
 10
319.3578487823846
 20
132.2501938762855
 30
-0.0000000000000004
 70
    32
  0
VERTEX
  5
1BA
330
1B0
100
AcDbEntity
  8
Main lines
  6
Continuous
100
AcDbVertex
100
AcDb3dPolylineVertex
 10
319.3578210982477
 20
132.2516340873928
 30
-0.0000000000000004
 70
    32
  0
VERTEX
  5
1BB
330
1B0
100
AcDbEntity
  8
Main lines
  6
Continuous
100
AcDbVertex
100
AcDb3dPolylineVertex
 10
319.3577901574558
 20
132.2530742562789
 30
-0.0000000000000004
 70
    32
  0
VERTEX
  5
1BC
330
1B0
100
AcDbEntity
  8
Main lines
  6
Continuous
100
AcDbVertex
100
AcDb3dPolylineVertex
 10
319.3577559601098
 20
132.2545143782532
 30
-0.0000000000000004
 70
    32
  0
VERTEX
  5
1BD
330
1B0
100
AcDbEntity
  8
Main lines
  6
Continuous
100
AcDbVertex
100
AcDb3dPolylineVertex
 10
319.3577185063209
 20
132.255954448625
 30
-0.0000000000000004
 70
    32
  0
VERTEX
  5
1BE
330
1B0
100
AcDbEntity
  8
Main lines
  6
Continuous
100
AcDbVertex
100
AcDb3dPolylineVertex
 10
319.3576777962113
 20
132.2573944627039
 30
-0.0000000000000004
 70
    32
  0
VERTEX
  5
1BF
330
1B0
100
AcDbEntity
  8
Main lines
  6
Continuous
100
AcDbVertex
100
AcDb3dPolylineVertex
 10
319.3576338299134
 20
132.2588344157996
 30
-0.0000000000000004
 70
    32
  0
VERTEX
  5
1C0
330
1B0
100
AcDbEntity
  8
Main lines
  6
Continuous
100
AcDbVertex
100
AcDb3dPolylineVertex
 10
319.3575866075706
 20
132.2602743032222
 30
-0.0000000000000004
 70
    32
  0
VERTEX
  5
1C1
330
1B0
100
AcDbEntity
  8
Main lines
  6
Continuous
100
AcDbVertex
100
AcDb3dPolylineVertex
 10
319.3575361293366
 20
132.2617141202817
 30
-0.0000000000000004
 70
    32
  0
VERTEX
  5
1C2
330
1B0
100
AcDbEntity
  8
Main lines
  6
Continuous
100
AcDbVertex
100
AcDb3dPolylineVertex
 10
319.3574823953758
 20
132.2631538622886
 30
-0.0000000000000004
 70
    32
  0
VERTEX
  5
1C3
330
1B0
100
AcDbEntity
  8
Main lines
  6
Continuous
100
AcDbVertex
100
AcDb3dPolylineVertex
 10
319.3574254058632
 20
132.2645935245534
 30
-0.0000000000000004
 70
    32
  0
VERTEX
  5
1C4
330
1B0
100
AcDbEntity
  8
Main lines
  6
Continuous
100
AcDbVertex
100
AcDb3dPolylineVertex
 10
319.3573651609844
 20
132.2660331023872
 30
-0.0000000000000004
 70
    32
  0
VERTEX
  5
1C5
330
1B0
100
AcDbEntity
  8
Main lines
  6
Continuous
100
AcDbVertex
100
AcDb3dPolylineVertex
 10
319.3573016609358
 20
132.267472591101
 30
-0.0000000000000004
 70
    32
  0
VERTEX
  5
1C6
330
1B0
100
AcDbEntity
  8
Main lines
  6
Continuous
100
AcDbVertex
100
AcDb3dPolylineVertex
 10
319.357234905924
 20
132.2689119860064
 30
-0.0000000000000004
 70
    32
  0
VERTEX
  5
1C7
330
1B0
100
AcDbEntity
  8
Main lines
  6
Continuous
100
AcDbVertex
100
AcDb3dPolylineVertex
 10
319.3571648961666
 20
132.270351282415
 30
-0.0000000000000004
 70
    32
  0
VERTEX
  5
1C8
330
1B0
100
AcDbEntity
  8
Main lines
  6
Continuous
100
AcDbVertex
100
AcDb3dPolylineVertex
 10
319.3570916318915
 20
132.2717904756391
 30
-0.0000000000000004
 70
    32
  0
VERTEX
  5
1C9
330
1B0
100
AcDbEntity
  8
Main lines
  6
Continuous
100
AcDbVertex
100
AcDb3dPolylineVertex
 10
319.3570151133375
 20
132.273229560991
 30
-0.0000000000000004
 70
    32
  0
VERTEX
  5
1CA
330
1B0
100
AcDbEntity
  8
Main lines
  6
Continuous
100
AcDbVertex
100
AcDb3dPolylineVertex
 10
319.3569353407536
 20
132.2746685337834
 30
-0.0000000000000004
 70
    32
  0
VERTEX
  5
1CB
330
1B0
100
AcDbEntity
  8
Main lines
  6
Continuous
100
AcDbVertex
100
AcDb3dPolylineVertex
 10
319.3568523143998
 20
132.2761073893296
 30
-0.0000000000000004
 70
    32
  0
VERTEX
  5
1CC
330
1B0
100
AcDbEntity
  8
Main lines
  6
Continuous
100
AcDbVertex
100
AcDb3dPolylineVertex
 10
319.3567660345464
 20
132.2775461229431
 30
-0.0000000000000004
 70
    32
  0
VERTEX
  5
1CD
330
1B0
100
AcDbEntity
  8
Main lines
  6
Continuous
100
AcDbVertex
100
AcDb3dPolylineVertex
 10
319.3566765014745
 20
132.2789847299377
 30
-0.0000000000000004
 70
    32
  0
VERTEX
  5
1CE
330
1B0
100
AcDbEntity
  8
Main lines
  6
Continuous
100
AcDbVertex
100
AcDb3dPolylineVertex
 10
319.3565837154757
 20
132.2804232056279
 30
-0.0000000000000004
 70
    32
  0
VERTEX
  5
1CF
330
1B0
100
AcDbEntity
  8
Main lines
  6
Continuous
100
AcDbVertex
100
AcDb3dPolylineVertex
 10
319.3564876768522
 20
132.2818615453284
 30
-0.0000000000000004
 70
    32
  0
VERTEX
  5
1D0
330
1B0
100
AcDbEntity
  8
Main lines
  6
Continuous
100
AcDbVertex
100
AcDb3dPolylineVertex
 10
319.3563883859169
 20
132.2832997443543
 30
-0.0000000000000004
 70
    32
  0
VERTEX
  5
1D1
330
1B0
100
AcDbEntity
  8
Main lines
  6
Continuous
100
AcDbVertex
100
AcDb3dPolylineVertex
 10
319.3562858429931
 20
132.2847377980214
 30
-0.0000000000000004
 70
    32
  0
VERTEX
  5
1D2
330
1B0
100
AcDbEntity
  8
Main lines
  6
Continuous
100
AcDbVertex
100
AcDb3dPolylineVertex
 10
319.3561800484147
 20
132.2861757016458
 30
-0.0000000000000004
 70
    32
  0
VERTEX
  5
1D3
330
1B0
100
AcDbEntity
  8
Main lines
  6
Continuous
100
AcDbVertex
100
AcDb3dPolylineVertex
 10
319.3560710025265
 20
132.2876134505442
 30
-0.0000000000000004
 70
    32
  0
VERTEX
  5
1D4
330
1B0
100
AcDbEntity
  8
Main lines
  6
Continuous
100
AcDbVertex
100
AcDb3dPolylineVertex
 10
319.3559587056835
 20
132.2890510400335
 30
-0.0000000000000004
 70
    32
  0
VERTEX
  5
1D5
330
1B0
100
AcDbEntity
  8
Main lines
  6
Continuous
100
AcDbVertex
100
AcDb3dPolylineVertex
 10
319.3558431582516
 20
132.2904884654316
 30
-0.0000000000000004
 70
    32
  0
VERTEX
  5
1D6
330
1B0
100
AcDbEntity
  8
Main lines
  6
Continuous
100
AcDbVertex
100
AcDb3dPolylineVertex
 10
319.3557243606069
 20
132.2919257220565
 30
-0.0000000000000004
 70
    32
  0
VERTEX
  5
1D7
330
1B0
100
AcDbEntity
  8
Main lines
  6
Continuous
100
AcDbVertex
100
AcDb3dPolylineVertex
 10
319.3556023131366
 20
132.2933628052271
 30
-0.0000000000000004
 70
    32
  0
VERTEX
  5
1D8
330
1B0
100
AcDbEntity
  8
Main lines
  6
Continuous
100
AcDbVertex
100
AcDb3dPolylineVertex
 10
319.3554770162382
 20
132.2947997102626
 30
-0.0000000000000004
 70
    32
  0
VERTEX
  5
1D9
330
1B0
100
AcDbEntity
  8
Main lines
  6
Continuous
100
AcDbVertex
100
AcDb3dPolylineVertex
 10
319.3553484703197
 20
132.2962364324829
 30
-0.0000000000000004
 70
    32
  0
VERTEX
  5
1DA
330
1B0
100
AcDbEntity
  8
Main lines
  6
Continuous
100
AcDbVertex
100
AcDb3dPolylineVertex
 10
319.3552166757997
 20
132.2976729672084
 30
-0.0000000000000004
 70
    32
  0
VERTEX
  5
1DB
330
1B0
100
AcDbEntity
  8
Main lines
  6
Continuous
100
AcDbVertex
100
AcDb3dPolylineVertex
 10
319.3550816331076
 20
132.2991093097603
 30
-0.0000000000000004
 70
    32
  0
VERTEX
  5
1DC
330
1B0
100
AcDbEntity
  8
Main lines
  6
Continuous
100
AcDbVertex
100
AcDb3dPolylineVertex
 10
319.3549433426833
 20
132.3005454554602
 30
-0.0000000000000004
 70
    32
  0
VERTEX
  5
1DD
330
1B0
100
AcDbEntity
  8
Main lines
  6
Continuous
100
AcDbVertex
100
AcDb3dPolylineVertex
 10
319.3548018049771
 20
132.3019813996306
 30
-0.0000000000000004
 70
    32
  0
VERTEX
  5
1DE
330
1B0
100
AcDbEntity
  8
Main lines
  6
Continuous
100
AcDbVertex
100
AcDb3dPolylineVertex
 10
319.3546570204501
 20
132.3034171375944
 30
-0.0000000000000004
 70
    32
  0
VERTEX
  5
1DF
330
1B0
100
AcDbEntity
  8
Main lines
  6
Continuous
100
AcDbVertex
100
AcDb3dPolylineVertex
 10
319.3545089895737
 20
132.3048526646753
 30
-0.0000000000000004
 70
    32
  0
VERTEX
  5
1E0
330
1B0
100
AcDbEntity
  8
Main lines
  6
Continuous
100
AcDbVertex
100
AcDb3dPolylineVertex
 10
319.3543577128303
 20
132.3062879761977
 30
-0.0000000000000004
 70
    32
  0
VERTEX
  5
1E1
330
1B0
100
AcDbEntity
  8
Main lines
  6
Continuous
100
AcDbVertex
100
AcDb3dPolylineVertex
 10
319.3542031907124
 20
132.3077230674866
 30
-0.0000000000000004
 70
    32
  0
VERTEX
  5
1E2
330
1B0
100
AcDbEntity
  8
Main lines
  6
Continuous
100
AcDbVertex
100
AcDb3dPolylineVertex
 10
319.3540454237234
 20
132.3091579338678
 30
-0.0000000000000004
 70
    32
  0
SEQEND
  5
1E3
330
1B0
100
AcDbEntity
  8
Main lines
  6
Continuous
  0
POLYLINE
  5
1E6
102
{ACAD_XDICTIONARY
360
1E4
102
}
330
1F
100
AcDbEntity
  8
Main lines
  6
Continuous
100
AcDb3dPolyline
 66
     1
 10
0.0
 20
0.0
 30
0.0
 70
     8
  0
VERTEX
  5
1E7
330
1E6
100
AcDbEntity
  8
Main lines
  6
Continuous
100
AcDbVertex
100
AcDb3dPolylineVertex
 10
304.3620216022413
 20
132.3105925706679
 30
0.0000000000000004
 70
    32
  0
VERTEX
  5
1E8
330
1E6
100
AcDbEntity
  8
Main lines
  6
Continuous
100
AcDbVertex
100
AcDb3dPolylineVertex
 10
304.361860590895
 20
132.3091579338679
 30
0.0000000000000004
 70
    32
  0
VERTEX
  5
1E9
330
1E6
100
AcDbEntity
  8
Main lines
  6
Continuous
100
AcDbVertex
100
AcDb3dPolylineVertex
 10
304.3617028239061
 20
132.3077230674866
 30
0.0000000000000004
 70
    32
  0
VERTEX
  5
1EA
330
1E6
100
AcDbEntity
  8
Main lines
  6
Continuous
100
AcDbVertex
100
AcDb3dPolylineVertex
 10
304.3615483017882
 20
132.3062879761977
 30
0.0000000000000004
 70
    32
  0
VERTEX
  5
1EB
330
1E6
100
AcDbEntity
  8
Main lines
  6
Continuous
100
AcDbVertex
100
AcDb3dPolylineVertex
 10
304.3613970250447
 20
132.3048526646753
 30
0.0000000000000004
 70
    32
  0
VERTEX
  5
1EC
330
1E6
100
AcDbEntity
  8
Main lines
  6
Continuous
100
AcDbVertex
100
AcDb3dPolylineVertex
 10
304.3612489941684
 20
132.3034171375944
 30
0.0000000000000004
 70
    32
  0
VERTEX
  5
1ED
330
1E6
100
AcDbEntity
  8
Main lines
  6
Continuous
100
AcDbVertex
100
AcDb3dPolylineVertex
 10
304.3611042096413
 20
132.3019813996306
 30
0.0000000000000004
 70
    32
  0
VERTEX
  5
1EE
330
1E6
100
AcDbEntity
  8
Main lines
  6
Continuous
100
AcDbVertex
100
AcDb3dPolylineVertex
 10
304.3609626719351
 20
132.3005454554603
 30
0.0000000000000004
 70
    32
  0
VERTEX
  5
1EF
330
1E6
100
AcDbEntity
  8
Main lines
  6
Continuous
100
AcDbVertex
100
AcDb3dPolylineVertex
 10
304.3608243815108
 20
132.2991093097603
 30
0.0000000000000004
 70
    32
  0
VERTEX
  5
1F0
330
1E6
100
AcDbEntity
  8
Main lines
  6
Continuous
100
AcDbVertex
100
AcDb3dPolylineVertex
 10
304.3606893388187
 20
132.2976729672084
 30
0.0000000000000004
 70
    32
  0
VERTEX
  5
1F1
330
1E6
100
AcDbEntity
  8
Main lines
  6
Continuous
100
AcDbVertex
100
AcDb3dPolylineVertex
 10
304.3605575442988
 20
132.2962364324829
 30
0.0000000000000004
 70
    32
  0
VERTEX
  5
1F2
330
1E6
100
AcDbEntity
  8
Main lines
  6
Continuous
100
AcDbVertex
100
AcDb3dPolylineVertex
 10
304.3604289983803
 20
132.2947997102626
 30
0.0000000000000004
 70
    32
  0
VERTEX
  5
1F3
330
1E6
100
AcDbEntity
  8
Main lines
  6
Continuous
100
AcDbVertex
100
AcDb3dPolylineVertex
 10
304.3603037014818
 20
132.2933628052272
 30
0.0000000000000004
 70
    32
  0
VERTEX
  5
1F4
330
1E6
100
AcDbEntity
  8
Main lines
  6
Continuous
100
AcDbVertex
100
AcDb3dPolylineVertex
 10
304.3601816540115
 20
132.2919257220566
 30
0.0000000000000004
 70
    32
  0
VERTEX
  5
1F5
330
1E6
100
AcDbEntity
  8
Main lines
  6
Continuous
100
AcDbVertex
100
AcDb3dPolylineVertex
 10
304.3600628563669
 20
132.2904884654317
 30
0.0000000000000004
 70
    32
  0
VERTEX
  5
1F6
330
1E6
100
AcDbEntity
  8
Main lines
  6
Continuous
100
AcDbVertex
100
AcDb3dPolylineVertex
 10
304.3599473089349
 20
132.2890510400336
 30
0.0000000000000004
 70
    32
  0
VERTEX
  5
1F7
330
1E6
100
AcDbEntity
  8
Main lines
  6
Continuous
100
AcDbVertex
100
AcDb3dPolylineVertex
 10
304.3598350120919
 20
132.2876134505442
 30
0.0000000000000004
 70
    32
  0
VERTEX
  5
1F8
330
1E6
100
AcDbEntity
  8
Main lines
  6
Continuous
100
AcDbVertex
100
AcDb3dPolylineVertex
 10
304.3597259662037
 20
132.2861757016459
 30
0.0000000000000004
 70
    32
  0
VERTEX
  5
1F9
330
1E6
100
AcDbEntity
  8
Main lines
  6
Continuous
100
AcDbVertex
100
AcDb3dPolylineVertex
 10
304.3596201716254
 20
132.2847377980215
 30
0.0000000000000004
 70
    32
  0
VERTEX
  5
1FA
330
1E6
100
AcDbEntity
  8
Main lines
  6
Continuous
100
AcDbVertex
100
AcDb3dPolylineVertex
 10
304.3595176287016
 20
132.2832997443544
 30
0.0000000000000004
 70
    32
  0
VERTEX
  5
1FB
330
1E6
100
AcDbEntity
  8
Main lines
  6
Continuous
100
AcDbVertex
100
AcDb3dPolylineVertex
 10
304.3594183377662
 20
132.2818615453284
 30
0.0000000000000004
 70
    32
  0
VERTEX
  5
1FC
330
1E6
100
AcDbEntity
  8
Main lines
  6
Continuous
100
AcDbVertex
100
AcDb3dPolylineVertex
 10
304.3593222991427
 20
132.280423205628
 30
0.0000000000000004
 70
    32
  0
VERTEX
  5
1FD
330
1E6
100
AcDbEntity
  8
Main lines
  6
Continuous
100
AcDbVertex
100
AcDb3dPolylineVertex
 10
304.3592295131439
 20
132.2789847299378
 30
0.0000000000000004
 70
    32
  0
VERTEX
  5
1FE
330
1E6
100
AcDbEntity
  8
Main lines
  6
Continuous
100
AcDbVertex
100
AcDb3dPolylineVertex
 10
304.359139980072
 20
132.2775461229431
 30
0.0000000000000004
 70
    32
  0
VERTEX
  5
1FF
330
1E6
100
AcDbEntity
  8
Main lines
  6
Continuous
100
AcDbVertex
100
AcDb3dPolylineVertex
 10
304.3590537002187
 20
132.2761073893297
 30
0.0000000000000004
 70
    32
  0
VERTEX
  5
200
330
1E6
100
AcDbEntity
  8
Main lines
  6
Continuous
100
AcDbVertex
100
AcDb3dPolylineVertex
 10
304.3589706738649
 20
132.2746685337835
 30
0.0000000000000004
 70
    32
  0
VERTEX
  5
201
330
1E6
100
AcDbEntity
  8
Main lines
  6
Continuous
100
AcDbVertex
100
AcDb3dPolylineVertex
 10
304.358890901281
 20
132.273229560991
 30
0.0000000000000004
 70
    32
  0
VERTEX
  5
202
330
1E6
100
AcDbEntity
  8
Main lines
  6
Continuous
100
AcDbVertex
100
AcDb3dPolylineVertex
 10
304.3588143827269
 20
132.2717904756391
 30
0.0000000000000004
 70
    32
  0
VERTEX
  5
203
330
1E6
100
AcDbEntity
  8
Main lines
  6
Continuous
100
AcDbVertex
100
AcDb3dPolylineVertex
 10
304.3587411184518
 20
132.2703512824151
 30
0.0000000000000004
 70
    32
  0
VERTEX
  5
204
330
1E6
100
AcDbEntity
  8
Main lines
  6
Continuous
100
AcDbVertex
100
AcDb3dPolylineVertex
 10
304.3586711086944
 20
132.2689119860064
 30
0.0000000000000004
 70
    32
  0
VERTEX
  5
205
330
1E6
100
AcDbEntity
  8
Main lines
  6
Continuous
100
AcDbVertex
100
AcDb3dPolylineVertex
 10
304.3586043536827
 20
132.2674725911011
 30
0.0000000000000004
 70
    32
  0
VERTEX
  5
206
330
1E6
100
AcDbEntity
  8
Main lines
  6
Continuous
100
AcDbVertex
100
AcDb3dPolylineVertex
 10
304.3585408536341
 20
132.2660331023872
 30
0.0000000000000004
 70
    32
  0
VERTEX
  5
207
330
1E6
100
AcDbEntity
  8
Main lines
  6
Continuous
100
AcDbVertex
100
AcDb3dPolylineVertex
 10
304.3584806087553
 20
132.2645935245535
 30
0.0000000000000004
 70
    32
  0
VERTEX
  5
208
330
1E6
100
AcDbEntity
  8
Main lines
  6
Continuous
100
AcDbVertex
100
AcDb3dPolylineVertex
 10
304.3584236192427
 20
132.2631538622886
 30
0.0000000000000004
 70
    32
  0
VERTEX
  5
209
330
1E6
100
AcDbEntity
  8
Main lines
  6
Continuous
100
AcDbVertex
100
AcDb3dPolylineVertex
 10
304.3583698852819
 20
132.2617141202817
 30
0.0000000000000004
 70
    32
  0
VERTEX
  5
20A
330
1E6
100
AcDbEntity
  8
Main lines
  6
Continuous
100
AcDbVertex
100
AcDb3dPolylineVertex
 10
304.3583194070478
 20
132.2602743032222
 30
0.0000000000000004
 70
    32
  0
VERTEX
  5
20B
330
1E6
100
AcDbEntity
  8
Main lines
  6
Continuous
100
AcDbVertex
100
AcDb3dPolylineVertex
 10
304.358272184705
 20
132.2588344157997
 30
0.0000000000000004
 70
    32
  0
VERTEX
  5
20C
330
1E6
100
AcDbEntity
  8
Main lines
  6
Continuous
100
AcDbVertex
100
AcDb3dPolylineVertex
 10
304.3582282184071
 20
132.2573944627039
 30
0.0000000000000004
 70
    32
  0
VERTEX
  5
20D
330
1E6
100
AcDbEntity
  8
Main lines
  6
Continuous
100
AcDbVertex
100
AcDb3dPolylineVertex
 10
304.3581875082975
 20
132.255954448625
 30
0.0000000000000004
 70
    32
  0
VERTEX
  5
20E
330
1E6
100
AcDbEntity
  8
Main lines
  6
Continuous
100
AcDbVertex
100
AcDb3dPolylineVertex
 10
304.3581500545087
 20
132.2545143782532
 30
0.0000000000000004
 70
    32
  0
VERTEX
  5
20F
330
1E6
100
AcDbEntity
  8
Main lines
  6
Continuous
100
AcDbVertex
100
AcDb3dPolylineVertex
 10
304.3581158571626
 20
132.2530742562789
 30
0.0000000000000004
 70
    32
  0
VERTEX
  5
210
330
1E6
100
AcDbEntity
  8
Main lines
  6
Continuous
100
AcDbVertex
100
AcDb3dPolylineVertex
 10
304.3580849163707
 20
132.2516340873928
 30
0.0000000000000004
 70
    32
  0
VERTEX
  5
211
330
1E6
100
AcDbEntity
  8
Main lines
  6
Continuous
100
AcDbVertex
100
AcDb3dPolylineVertex
 10
304.3580572322338
 20
132.2501938762855
 30
0.0000000000000004
 70
    32
  0
VERTEX
  5
212
330
1E6
100
AcDbEntity
  8
Main lines
  6
Continuous
100
AcDbVertex
100
AcDb3dPolylineVertex
 10
304.358032804842
 20
132.248753627648
 30
0.0000000000000004
 70
    32
  0
VERTEX
  5
213
330
1E6
100
AcDbEntity
  8
Main lines
  6
Continuous
100
AcDbVertex
100
AcDb3dPolylineVertex
 10
304.3580116342748
 20
132.2473133461713
 30
0.0000000000000004
 70
    32
  0
VERTEX
  5
214
330
1E6
100
AcDbEntity
  8
Main lines
  6
Continuous
100
AcDbVertex
100
AcDb3dPolylineVertex
 10
304.3579937206014
 20
132.2458730365465
 30
0.0000000000000004
 70
    32
  0
VERTEX
  5
215
330
1E6
100
AcDbEntity
  8
Main lines
  6
Continuous
100
AcDbVertex
100
AcDb3dPolylineVertex
 10
304.3579790638798
 20
132.2444327034648
 30
0.0000000000000004
 70
    32
  0
VERTEX
  5
216
330
1E6
100
AcDbEntity
  8
Main lines
  6
Continuous
100
AcDbVertex
100
AcDb3dPolylineVertex
 10
304.3579676641581
 20
132.2429923516174
 30
0.0000000000000004
 70
    32
  0
VERTEX
  5
217
330
1E6
100
AcDbEntity
  8
Main lines
  6
Continuous
100
AcDbVertex
100
AcDb3dPolylineVertex
 10
304.3579595214731
 20
132.2415519856958
 30
0.0000000000000004
 70
    32
  0
VERTEX
  5
218
330
1E6
100
AcDbEntity
  8
Main lines
  6
Continuous
100
AcDbVertex
100
AcDb3dPolylineVertex
 10
304.3579546358515
 20
132.2401116103914
 30
0.0000000000000004
 70
    32
  0
SEQEND
  5
219
330
1E6
100
AcDbEntity
  8
Main lines
  6
Continuous
  0
POLYLINE
  5
21C
102
{ACAD_XDICTIONARY
360
21A
102
}
330
1F
100
AcDbEntity
  8
Main lines
  6
Continuous
100
AcDb2dPolyline
 66
     1
 10
0.0
 20
0.0
 30
0.0
 70
   132
 75
     6
  0
VERTEX
  5
21E
330
21C
100
AcDbEntity
  8
Main lines
  6
Continuous
100
AcDbVertex
100
AcDb2dVertex
 10
168.1849824398241
 20
119.3893706640236
 30
0.0
 70
    16
  0
VERTEX
  5
21F
330
21C
100
AcDbEntity
  8
Main lines
  6
Continuous
100
AcDbVertex
100
AcDb2dVertex
 10
168.6468930612069
 20
120.2548946187054
 30
0.0
 70
    16
  0
VERTEX
  5
220
330
21C
100
AcDbEntity
  8
Main lines
  6
Continuous
100
AcDbVertex
100
AcDb2dVertex
 10
169.1078993532815
 20
121.1140097931635
 30
0.0
 70
    16
  0
VERTEX
  5
221
330
21C
100
AcDbEntity
  8
Main lines
  6
Continuous
100
AcDbVertex
100
AcDb2dVertex
 10
169.9631007208987
 20
122.8357530804427
 30
0.0
 70
    16
  0
VERTEX
  5
222
330
21C
100
AcDbEntity
  8
Main lines
  6
Continuous
100
AcDbVertex
100
AcDb2dVertex
 10
170.3746632783472
 20
123.6976674709877
 30
0.0
 70
    16
  0
VERTEX
  5
223
330
21C
100
AcDbEntity
  8
Main lines
  6
Continuous
100
AcDbVertex
100
AcDb2dVertex
 10
170.6185264448063
 20
124.6077771924074
 30
0.0
 70
    16
  0
VERTEX
  5
224
330
21C
100
AcDbEntity
  8
Main lines
  6
Continuous
100
AcDbVertex
100
AcDb2dVertex
 10
168.1849824398241
 20
119.3893706640236
 30
0.0
 70
     8
  0
VERTEX
  5
225
330
21C
100
AcDbEntity
  8
Main lines
  6
Continuous
100
AcDbVertex
100
AcDb2dVertex
 10
168.3580930533459
 20
119.713657683209
 30
0.0
 70
     8
  0
VERTEX
  5
226
330
21C
100
AcDbEntity
  8
Main lines
  6
Continuous
100
AcDbVertex
100
AcDb2dVertex
 10
168.5307380116322
 20
120.037439565765
 30
0.0
 70
     8
  0
VERTEX
  5
227
330
21C
100
AcDbEntity
  8
Main lines
  6
Continuous
100
AcDbVertex
100
AcDb2dVertex
 10
168.7025364403203
 20
120.3608119982079
 30
0.0
 70
     8
  0
VERTEX
  5
228
330
21C
100
AcDbEntity
  8
Main lines
  6
Continuous
100
AcDbVertex
100
AcDb2dVertex
 10
168.8731074650474
 20
120.6838706670542
 30
0.0
 70
     8
  0
VERTEX
  5
229
330
21C
100
AcDbEntity
  8
Main lines
  6
Continuous
100
AcDbVertex
100
AcDb2dVertex
 10
169.0420702114507
 20
121.0067112588204
 30
0.0
 70
     8
  0
VERTEX
  5
22A
330
21C
100
AcDbEntity
  8
Main lines
  6
Continuous
100
AcDbVertex
100
AcDb2dVertex
 10
169.2090438051675
 20
121.329429460023
 30
0.0
 70
     8
  0
VERTEX
  5
22B
330
21C
100
AcDbEntity
  8
Main lines
  6
Continuous
100
AcDbVertex
100
AcDb2dVertex
 10
169.3736473718349
 20
121.6521209571784
 30
0.0
 70
     8
  0
VERTEX
  5
22C
330
21C
100
AcDbEntity
  8
Main lines
  6
Continuous
100
AcDbVertex
100
AcDb2dVertex
 10
169.5355000370901
 20
121.9748814368031
 30
0.0
 70
     8
  0
VERTEX
  5
22D
330
21C
100
AcDbEntity
  8
Main lines
  6
Continuous
100
AcDbVertex
100
AcDb2dVertex
 10
169.6948022929377
 20
122.2978492768197
 30
0.0
 70
     8
  0
VERTEX
  5
22E
330
21C
100
AcDbEntity
  8
Main lines
  6
Continuous
100
AcDbVertex
100
AcDb2dVertex
 10
169.8508236939942
 20
122.6214674437021
 30
0.0
 70
     8
  0
VERTEX
  5
22F
330
21C
100
AcDbEntity
  8
Main lines
  6
Continuous
100
AcDbVertex
100
AcDb2dVertex
 10
170.0017869598147
 20
122.9462885067936
 30
0.0
 70
     8
  0
VERTEX
  5
230
330
21C
100
AcDbEntity
  8
Main lines
  6
Continuous
100
AcDbVertex
100
AcDb2dVertex
 10
170.1459148099543
 20
123.2728650354377
 30
0.0
 70
     8
  0
VERTEX
  5
231
330
21C
100
AcDbEntity
  8
Main lines
  6
Continuous
100
AcDbVertex
100
AcDb2dVertex
 10
170.2814299639681
 20
123.6017495989777
 30
0.0
 70
     8
  0
VERTEX
  5
232
330
21C
100
AcDbEntity
  8
Main lines
  6
Continuous
100
AcDbVertex
100
AcDb2dVertex
 10
170.4065551414113
 20
123.9334947667571
 30
0.0
 70
     8
  0
VERTEX
  5
233
330
21C
100
AcDbEntity
  8
Main lines
  6
Continuous
100
AcDbVertex
100
AcDb2dVertex
 10
170.5195130618391
 20
124.2686531081192
 30
0.0
 70
     8
  0
VERTEX
  5
234
330
21C
100
AcDbEntity
  8
Main lines
  6
Continuous
100
AcDbVertex
100
AcDb2dVertex
 10
170.6185264448064
 20
124.6077771924074
 30
0.0
 70
     8
  0
SEQEND
  5
21D
330
21C
100
AcDbEntity
  8
Main lines
  6
Continuous
  0
POLYLINE
  5
237
102
{ACAD_XDICTIONARY
360
235
102
}
330
1F
100
AcDbEntity
  8
Main lines
  6
Durchgehend
100
AcDb2dPolyline
 66
     1
 10
0.0
 20
0.0
 30
215.2972102803113
 70
   132
210
1.0
220
0.0
230
0.0
 75
     6
  0
VERTEX
  5
239
330
237
100
AcDbEntity
  8
Main lines
  6
Durchgehend
100
AcDbVertex
100
AcDb2dVertex
 10
133.254739946227
 20
-0.0000000000000132
 30
-0.0000000000000097
 70
    16
  0
VERTEX
  5
23A
330
237
100
AcDbEntity
  8
Main lines
  6
Durchgehend
100
AcDbVertex
100
AcDb2dVertex
 10
132.9202510692692
 20
-0.0000000000000132
 30
-0.0000000000000097
 70
    16
  0
VERTEX
  5
23B
330
237
100
AcDbEntity
  8
Main lines
  6
Durchgehend
100
AcDbVertex
100
AcDb2dVertex
 10
132.5799045132956
 20
-0.0000000000000132
 30
-0.0000000000000097
 70
    16
  0
VERTEX
  5
23C
330
237
100
AcDbEntity
  8
Main lines
  6
Durchgehend
100
AcDbVertex
100
AcDb2dVertex
 10
132.2386712303955
 20
-0.0000000000000132
 30
-0.0000000000000097
 70
    16
  0
VERTEX
  5
23D
330
237
100
AcDbEntity
  8
Main lines
  6
Durchgehend
100
AcDbVertex
100
AcDb2dVertex
 10
133.254739946227
 20
-0.0000000000000132
 30
-0.0000000000000097
 70
     8
  0
VERTEX
  5
23E
330
237
100
AcDbEntity
  8
Main lines
  6
Durchgehend
100
AcDbVertex
100
AcDb2dVertex
 10
133.1290417475548
 20
-0.0000000000000132
 30
-0.0000000000000097
 70
     8
  0
VERTEX
  5
23F
330
237
100
AcDbEntity
  8
Main lines
  6
Durchgehend
100
AcDbVertex
100
AcDb2dVertex
 10
133.0028526448196
 20
-0.0000000000000132
 30
-0.0000000000000097
 70
     8
  0
VERTEX
  5
240
330
237
100
AcDbEntity
  8
Main lines
  6
Durchgehend
100
AcDbVertex
100
AcDb2dVertex
 10
132.8762308913662
 20
-0.0000000000000132
 30
-0.0000000000000097
 70
     8
  0
VERTEX
  5
241
330
237
100
AcDbEntity
  8
Main lines
  6
Durchgehend
100
AcDbVertex
100
AcDb2dVertex
 10
132.7492347405396
 20
-0.0000000000000132
 30
-0.0000000000000097
 70
     8
  0
VERTEX
  5
242
330
237
100
AcDbEntity
  8
Main lines
  6
Durchgehend
100
AcDbVertex
100
AcDb2dVertex
 10
132.6219224456844
 20
-0.0000000000000132
 30
-0.0000000000000097
 70
     8
  0
VERTEX
  5
243
330
237
100
AcDbEntity
  8
Main lines
  6
Durchgehend
100
AcDbVertex
100
AcDb2dVertex
 10
132.4943522601455
 20
-0.0000000000000132
 30
-0.0000000000000097
 70
     8
  0
VERTEX
  5
244
330
237
100
AcDbEntity
  8
Main lines
  6
Durchgehend
100
AcDbVertex
100
AcDb2dVertex
 10
132.3665824372676
 20
-0.0000000000000132
 30
-0.0000000000000097
 70
     8
  0
VERTEX
  5
245
330
237
100
AcDbEntity
  8
Main lines
  6
Durchgehend
100
AcDbVertex
100
AcDb2dVertex
 10
132.2386712303955
 20
-0.0000000000000132
 30
-0.0000000000000097
 70
     8
  0
SEQEND
  5
238
330
237
100
AcDbEntity
  8
Main lines
  6
Durchgehend
  0
POLYLINE
  5
248
102
{ACAD_XDICTIONARY
360
246
102
}
330
1F
100
AcDbEntity
  8
Main lines
  6
Continuous
100
AcDb2dPolyline
 66
     1
 10
0.0
 20
0.0
 30
-0.0000000000000355
 70
   132
210
0.0
220
0.0
230
-1.0
 75
     6
  0
VERTEX
  5
24A
330
248
100
AcDbEntity
  8
Main lines
  6
Continuous
100
AcDbVertex
100
AcDb2dVertex
 10
-197.1014712917599
 20
179.3893706640238
 30
-0.0000000000000011
 70
    16
  0
VERTEX
  5
24B
330
248
100
AcDbEntity
  8
Main lines
  6
Continuous
100
AcDbVertex
100
AcDb2dVertex
 10
-197.6275370655771
 20
179.3893706640238
 30
-0.0000000000000012
 70
    16
  0
VERTEX
  5
24C
330
248
100
AcDbEntity
  8
Main lines
  6
Continuous
100
AcDbVertex
100
AcDb2dVertex
 10
-198.1631275619579
 20
179.3043316172173
 30
-0.0000000000000012
 70
    16
  0
VERTEX
  5
24D
330
248
100
AcDbEntity
  8
Main lines
  6
Continuous
100
AcDbVertex
100
AcDb2dVertex
 10
-199.1751387989527
 20
178.97018481405
 30
-0.0000000000000014
 70
    16
  0
VERTEX
  5
24E
330
248
100
AcDbEntity
  8
Main lines
  6
Continuous
100
AcDbVertex
100
AcDb2dVertex
 10
-199.6637163272011
 20
178.720801841968
 30
-0.0000000000000015
 70
    16
  0
VERTEX
  5
24F
330
248
100
AcDbEntity
  8
Main lines
  6
Continuous
100
AcDbVertex
100
AcDb2dVertex
 10
-200.5747543374825
 20
178.0311697462366
 30
-0.0000000000000017
 70
    16
  0
VERTEX
  5
250
330
248
100
AcDbEntity
  8
Main lines
  6
Continuous
100
AcDbVertex
100
AcDb2dVertex
 10
-200.9803070179977
 20
177.605488860936
 30
-0.0000000000000018
 70
    16
  0
VERTEX
  5
251
330
248
100
AcDbEntity
  8
Main lines
  6
Continuous
100
AcDbVertex
100
AcDb2dVertex
 10
-201.6513607106939
 20
176.554385473008
 30
-0.000000000000002
 70
    16
  0
VERTEX
  5
252
330
248
100
AcDbEntity
  8
Main lines
  6
Continuous
100
AcDbVertex
100
AcDb2dVertex
 10
-201.9038709916687
 20
175.9464704496433
 30
-0.0000000000000021
 70
    16
  0
VERTEX
  5
253
330
248
100
AcDbEntity
  8
Main lines
  6
Continuous
100
AcDbVertex
100
AcDb2dVertex
 10
-202.0252962301743
 20
175.258823351551
 30
-0.0000000000000021
 70
    16
  0
VERTEX
  5
254
330
248
100
AcDbEntity
  8
Main lines
  6
Continuous
100
AcDbVertex
100
AcDb2dVertex
 10
-197.1014712917599
 20
179.3893706640238
 30
-0.0000000000000011
 70
     8
  0
VERTEX
  5
255
330
248
100
AcDbEntity
  8
Main lines
  6
Continuous
100
AcDbVertex
100
AcDb2dVertex
 10
-197.2991160423731
 20
179.3853903272438
 30
-0.0000000000000011
 70
     8
  0
VERTEX
  5
256
330
248
100
AcDbEntity
  8
Main lines
  6
Continuous
100
AcDbVertex
100
AcDb2dVertex
 10
-197.4971954200965
 20
179.3734727910605
 30
-0.0000000000000011
 70
     8
  0
VERTEX
  5
257
330
248
100
AcDbEntity
  8
Main lines
  6
Continuous
100
AcDbVertex
100
AcDb2dVertex
 10
-197.6952511092997
 20
179.3536532667085
 30
-0.0000000000000012
 70
     8
  0
VERTEX
  5
258
330
248
100
AcDbEntity
  8
Main lines
  6
Continuous
100
AcDbVertex
100
AcDb2dVertex
 10
-197.8928247943525
 20
179.3259669654226
 30
-0.0000000000000012
 70
     8
  0
VERTEX
  5
259
330
248
100
AcDbEntity
  8
Main lines
  6
Continuous
100
AcDbVertex
100
AcDb2dVertex
 10
-198.0894581596247
 20
179.2904490984374
 30
-0.0000000000000012
 70
     8
  0
VERTEX
  5
25A
330
248
100
AcDbEntity
  8
Main lines
  6
Continuous
100
AcDbVertex
100
AcDb2dVertex
 10
-198.2846928894861
 20
179.2471348769877
 30
-0.0000000000000012
 70
     8
  0
VERTEX
  5
25B
330
248
100
AcDbEntity
  8
Main lines
  6
Continuous
100
AcDbVertex
100
AcDb2dVertex
 10
-198.4780706683064
 20
179.1960595123082
 30
-0.0000000000000013
 70
     8
  0
VERTEX
  5
25C
330
248
100
AcDbEntity
  8
Main lines
  6
Continuous
100
AcDbVertex
100
AcDb2dVertex
 10
-198.6691331804553
 20
179.1372582156336
 30
-0.0000000000000013
 70
     8
  0
VERTEX
  5
25D
330
248
100
AcDbEntity
  8
Main lines
  6
Continuous
100
AcDbVertex
100
AcDb2dVertex
 10
-198.8580378174723
 20
179.0707217970764
 30
-0.0000000000000013
 70
     8
  0
VERTEX
  5
25E
330
248
100
AcDbEntity
  8
Main lines
  6
Continuous
100
AcDbVertex
100
AcDb2dVertex
 10
-199.0451254018933
 20
178.9963150652073
 30
-0.0000000000000014
 70
     8
  0
VERTEX
  5
25F
330
248
100
AcDbEntity
  8
Main lines
  6
Continuous
100
AcDbVertex
100
AcDb2dVertex
 10
-199.2302127645833
 20
178.913884228949
 30
-0.0000000000000014
 70
     8
  0
VERTEX
  5
260
330
248
100
AcDbEntity
  8
Main lines
  6
Continuous
100
AcDbVertex
100
AcDb2dVertex
 10
-199.4131167364073
 20
178.8232754972237
 30
-0.0000000000000014
 70
     8
  0
VERTEX
  5
261
330
248
100
AcDbEntity
  8
Main lines
  6
Continuous
100
AcDbVertex
100
AcDb2dVertex
 10
-199.5936541482303
 20
178.7243350789539
 30
-0.0000000000000015
 70
     8
  0
VERTEX
  5
262
330
248
100
AcDbEntity
  8
Main lines
  6
Continuous
100
AcDbVertex
100
AcDb2dVertex
 10
-199.771641830917
 20
178.6169091830621
 30
-0.0000000000000015
 70
     8
  0
VERTEX
  5
263
330
248
100
AcDbEntity
  8
Main lines
  6
Continuous
100
AcDbVertex
100
AcDb2dVertex
 10
-199.9468966153326
 20
178.5008440184708
 30
-0.0000000000000015
 70
     8
  0
VERTEX
  5
264
330
248
100
AcDbEntity
  8
Main lines
  6
Continuous
100
AcDbVertex
100
AcDb2dVertex
 10
-200.1192353323418
 20
178.3759857941022
 30
-0.0000000000000016
 70
     8
  0
VERTEX
  5
265
330
248
100
AcDbEntity
  8
Main lines
  6
Continuous
100
AcDbVertex
100
AcDb2dVertex
 10
-200.2876736090732
 20
178.2428521158603
 30
-0.0000000000000016
 70
     8
  0
VERTEX
  5
266
330
248
100
AcDbEntity
  8
Main lines
  6
Continuous
100
AcDbVertex
100
AcDb2dVertex
 10
-200.4511924704935
 20
178.1019146328835
 30
-0.0000000000000016
 70
     8
  0
VERTEX
  5
267
330
248
100
AcDbEntity
  8
Main lines
  6
Continuous
100
AcDbVertex
100
AcDb2dVertex
 10
-200.6095568442252
 20
177.9529506189465
 30
-0.0000000000000017
 70
     8
  0
VERTEX
  5
268
330
248
100
AcDbEntity
  8
Main lines
  6
Continuous
100
AcDbVertex
100
AcDb2dVertex
 10
-200.7625316578911
 20
177.795737347824
 30
-0.0000000000000017
 70
     8
  0
VERTEX
  5
269
330
248
100
AcDbEntity
  8
Main lines
  6
Continuous
100
AcDbVertex
100
AcDb2dVertex
 10
-200.9098818391135
 20
177.6300520932906
 30
-0.0000000000000017
 70
     8
  0
VERTEX
  5
26A
330
248
100
AcDbEntity
  8
Main lines
  6
Continuous
100
AcDbVertex
100
AcDb2dVertex
 10
-201.051372315515
 20
177.4556721291211
 30
-0.0000000000000018
 70
     8
  0
VERTEX
  5
26B
330
248
100
AcDbEntity
  8
Main lines
  6
Continuous
100
AcDbVertex
100
AcDb2dVertex
 10
-201.1867680147183
 20
177.27237472909
 30
-0.0000000000000018
 70
     8
  0
VERTEX
  5
26C
330
248
100
AcDbEntity
  8
Main lines
  6
Continuous
100
AcDbVertex
100
AcDb2dVertex
 10
-201.3158338643458
 20
177.079937166972
 30
-0.0000000000000019
 70
     8
  0
VERTEX
  5
26D
330
248
100
AcDbEntity
  8
Main lines
  6
Continuous
100
AcDbVertex
100
AcDb2dVertex
 10
-201.4376711464802
 20
176.8789996398391
 30
-0.0000000000000019
 70
     8
  0
VERTEX
  5
26E
330
248
100
AcDbEntity
  8
Main lines
  6
Continuous
100
AcDbVertex
100
AcDb2dVertex
 10
-201.5511623231448
 20
176.6703713855906
 30
-0.0000000000000019
 70
     8
  0
VERTEX
  5
26F
330
248
100
AcDbEntity
  8
Main lines
  6
Continuous
100
AcDbVertex
100
AcDb2dVertex
 10
-201.6557440918737
 20
176.4540832392422
 30
-0.000000000000002
 70
     8
  0
VERTEX
  5
270
330
248
100
AcDbEntity
  8
Main lines
  6
Continuous
100
AcDbVertex
100
AcDb2dVertex
 10
-201.750853150201
 20
176.2301660358096
 30
-0.000000000000002
 70
     8
  0
VERTEX
  5
271
330
248
100
AcDbEntity
  8
Main lines
  6
Continuous
100
AcDbVertex
100
AcDb2dVertex
 10
-201.8359261956606
 20
175.9986506103085
 30
-0.000000000000002
 70
     8
  0
VERTEX
  5
272
330
248
100
AcDbEntity
  8
Main lines
  6
Continuous
100
AcDbVertex
100
AcDb2dVertex
 10
-201.9103999257867
 20
175.7595677977545
 30
-0.0000000000000021
 70
     8
  0
VERTEX
  5
273
330
248
100
AcDbEntity
  8
Main lines
  6
Continuous
100
AcDbVertex
100
AcDb2dVertex
 10
-201.9737110381133
 20
175.5129484331634
 30
-0.0000000000000021
 70
     8
  0
VERTEX
  5
274
330
248
100
AcDbEntity
  8
Main lines
  6
Continuous
100
AcDbVertex
100
AcDb2dVertex
 10
-202.0252962301743
 20
175.258823351551
 30
-0.0000000000000021
 70
     8
  0
SEQEND
  5
249
330
248
100
AcDbEntity
  8
Main lines
  6
Continuous
  0
POLYLINE
  5
277
102
{ACAD_XDICTIONARY
360
275
102
}
330
1F
100
AcDbEntity
  8
Main lines
  6
Continuous
100
AcDb2dPolyline
 66
     1
 10
0.0
 20
0.0
 30
-0.0000000000000355
 70
   132
210
0.0
220
0.0
230
-1.0
 75
     6
  0
VERTEX
  5
279
330
277
100
AcDbEntity
  8
Main lines
  6
Continuous
100
AcDbVertex
100
AcDb2dVertex
 10
-184.3042160748851
 20
175.6834658973638
 30
0.0000000000000001
 70
    16
  0
VERTEX
  5
27A
330
277
100
AcDbEntity
  8
Main lines
  6
Continuous
100
AcDbVertex
100
AcDb2dVertex
 10
-184.6386444298011
 20
176.9315695013108
 30
0.0000000000000002
 70
    16
  0
VERTEX
  5
27B
330
277
100
AcDbEntity
  8
Main lines
  6
Continuous
100
AcDbVertex
100
AcDb2dVertex
 10
-185.386669302475
 20
177.8653806265904
 30
0.0000000000000002
 70
    16
  0
VERTEX
  5
27C
330
277
100
AcDbEntity
  8
Main lines
  6
Continuous
100
AcDbVertex
100
AcDb2dVertex
 10
-187.1197616952927
 20
179.0869700634611
 30
0.0000000000000001
 70
    16
  0
VERTEX
  5
27D
330
277
100
AcDbEntity
  8
Main lines
  6
Continuous
100
AcDbVertex
100
AcDb2dVertex
 10
-188.142437431146
 20
179.3893706640238
 30
0.0
 70
    16
  0
VERTEX
  5
27E
330
277
100
AcDbEntity
  8
Main lines
  6
Continuous
100
AcDbVertex
100
AcDb2dVertex
 10
-189.1338452042331
 20
179.3893706640238
 30
-0.0000000000000001
 70
    16
  0
VERTEX
  5
27F
330
277
100
AcDbEntity
  8
Main lines
  6
Continuous
100
AcDbVertex
100
AcDb2dVertex
 10
-184.3042160748851
 20
175.6834658973638
 30
0.0000000000000001
 70
     8
  0
VERTEX
  5
280
330
277
100
AcDbEntity
  8
Main lines
  6
Continuous
100
AcDbVertex
100
AcDb2dVertex
 10
-184.4484377260102
 20
176.1367552499842
 30
0.0000000000000001
 70
     8
  0
VERTEX
  5
281
330
277
100
AcDbEntity
  8
Main lines
  6
Continuous
100
AcDbVertex
100
AcDb2dVertex
 10
-184.6279761382451
 20
176.5604774491962
 30
0.0000000000000001
 70
     8
  0
VERTEX
  5
282
330
277
100
AcDbEntity
  8
Main lines
  6
Continuous
100
AcDbVertex
100
AcDb2dVertex
 10
-184.8393733991599
 20
176.9545302614664
 30
0.0000000000000001
 70
     8
  0
VERTEX
  5
283
330
277
100
AcDbEntity
  8
Main lines
  6
Continuous
100
AcDbVertex
100
AcDb2dVertex
 10
-185.0791715963246
 20
177.3188114532616
 30
0.0000000000000002
 70
     8
  0
VERTEX
  5
284
330
277
100
AcDbEntity
  8
Main lines
  6
Continuous
100
AcDbVertex
100
AcDb2dVertex
 10
-185.3439128173094
 20
177.6532187910485
 30
0.0000000000000002
 70
     8
  0
VERTEX
  5
285
330
277
100
AcDbEntity
  8
Main lines
  6
Continuous
100
AcDbVertex
100
AcDb2dVertex
 10
-185.6301391496841
 20
177.9576500412937
 30
0.0000000000000002
 70
     8
  0
VERTEX
  5
286
330
277
100
AcDbEntity
  8
Main lines
  6
Continuous
100
AcDbVertex
100
AcDb2dVertex
 10
-185.9343926810189
 20
178.2320029704638
 30
0.0000000000000002
 70
     8
  0
VERTEX
  5
287
330
277
100
AcDbEntity
  8
Main lines
  6
Continuous
100
AcDbVertex
100
AcDb2dVertex
 10
-186.2532154988838
 20
178.4761753450257
 30
0.0000000000000001
 70
     8
  0
VERTEX
  5
288
330
277
100
AcDbEntity
  8
Main lines
  6
Continuous
100
AcDbVertex
100
AcDb2dVertex
 10
-186.5851228839521
 20
178.6907790962522
 30
0.0000000000000001
 70
     8
  0
VERTEX
  5
289
330
277
100
AcDbEntity
  8
Main lines
  6
Continuous
100
AcDbVertex
100
AcDb2dVertex
 10
-186.9294713488643
 20
178.8765411354591
 30
0.0000000000000001
 70
     8
  0
VERTEX
  5
28A
330
277
100
AcDbEntity
  8
Main lines
  6
Continuous
100
AcDbVertex
100
AcDb2dVertex
 10
-187.2840648291413
 20
179.0335316991774
 30
0.0000000000000001
 70
     8
  0
VERTEX
  5
28B
330
277
100
AcDbEntity
  8
Main lines
  6
Continuous
100
AcDbVertex
100
AcDb2dVertex
 10
-187.6467072603041
 20
179.161821023938
 30
0.0
 70
     8
  0
VERTEX
  5
28C
330
277
100
AcDbEntity
  8
Main lines
  6
Continuous
100
AcDbVertex
100
AcDb2dVertex
 10
-188.0152025778738
 20
179.261479346272
 30
0.0
 70
     8
  0
VERTEX
  5
28D
330
277
100
AcDbEntity
  8
Main lines
  6
Continuous
100
AcDbVertex
100
AcDb2dVertex
 10
-188.3873547173712
 20
179.3325769027103
 30
0.0
 70
     8
  0
VERTEX
  5
28E
330
277
100
AcDbEntity
  8
Main lines
  6
Continuous
100
AcDbVertex
100
AcDb2dVertex
 10
-188.7609676143172
 20
179.3751839297839
 30
-0.0000000000000001
 70
     8
  0
VERTEX
  5
28F
330
277
100
AcDbEntity
  8
Main lines
  6
Continuous
100
AcDbVertex
100
AcDb2dVertex
 10
-189.133845204233
 20
179.3893706640237
 30
-0.0000000000000001
 70
     8
  0
SEQEND
  5
278
330
277
100
AcDbEntity
  8
Main lines
  6
Continuous
  0
POLYLINE
  5
292
102
{ACAD_XDICTIONARY
360
290
102
}
330
1F
100
AcDbEntity
  8
Main lines
  6
DASHED
100
AcDb2dPolyline
 66
     1
 10
0.0
 20
0.0
 30
0.0
 70
   132
 75
     6
  0
VERTEX
  5
294
330
292
100
AcDbEntity
  8
Main lines
  6
DASHED
100
AcDbVertex
100
AcDb2dVertex
 10
209.9972102803092
 20
114.0322278068808
 30
0.0
 70
    16
  0
VERTEX
  5
295
330
292
100
AcDbEntity
  8
Main lines
  6
DASHED
100
AcDbVertex
100
AcDb2dVertex
 10
209.9982823963133
 20
114.0330044663854
 30
0.0
 70
    16
  0
VERTEX
  5
296
330
292
100
AcDbEntity
  8
Main lines
  6
DASHED
100
AcDbVertex
100
AcDb2dVertex
 10
209.9993545145982
 20
114.0337837676568
 30
0.0
 70
    16
  0
VERTEX
  5
297
330
292
100
AcDbEntity
  8
Main lines
  6
DASHED
100
AcDbVertex
100
AcDb2dVertex
 10
210.0004266191016
 20
114.0345656957579
 30
0.0
 70
    16
  0
VERTEX
  5
298
330
292
100
AcDbEntity
  8
Main lines
  6
DASHED
100
AcDbVertex
100
AcDb2dVertex
 10
210.0581948146772
 20
114.0766983193245
 30
0.0
 70
    16
  0
VERTEX
  5
299
330
292
100
AcDbEntity
  8
Main lines
  6
DASHED
100
AcDbVertex
100
AcDb2dVertex
 10
210.1164783749217
 20
114.1268926155094
 30
0.0
 70
    16
  0
VERTEX
  5
29A
330
292
100
AcDbEntity
  8
Main lines
  6
DASHED
100
AcDbVertex
100
AcDb2dVertex
 10
210.1723278013632
 20
114.1829940496481
 30
0.0
 70
    16
  0
VERTEX
  5
29B
330
292
100
AcDbEntity
  8
Main lines
  6
DASHED
100
AcDbVertex
100
AcDb2dVertex
 10
210.2295052654071
 20
114.2404295138536
 30
0.0
 70
    16
  0
VERTEX
  5
29C
330
292
100
AcDbEntity
  8
Main lines
  6
DASHED
100
AcDbVertex
100
AcDb2dVertex
 10
210.2855369683807
 20
114.3055049029481
 30
0.0
 70
    16
  0
VERTEX
  5
29D
330
292
100
AcDbEntity
  8
Main lines
  6
DASHED
100
AcDbVertex
100
AcDb2dVertex
 10
210.3351860610043
 20
114.3746157831397
 30
0.0
 70
    16
  0
VERTEX
  5
29E
330
292
100
AcDbEntity
  8
Main lines
  6
DASHED
100
AcDbVertex
100
AcDb2dVertex
 10
210.3717437590226
 20
114.4255036152091
 30
0.0
 70
    16
  0
VERTEX
  5
29F
330
292
100
AcDbEntity
  8
Main lines
  6
DASHED
100
AcDbVertex
100
AcDb2dVertex
 10
210.405666974206
 20
114.4798269171584
 30
0.0
 70
    16
  0
VERTEX
  5
2A0
330
292
100
AcDbEntity
  8
Main lines
  6
DASHED
100
AcDbVertex
100
AcDb2dVertex
 10
210.4328835294547
 20
114.5338760202708
 30
0.0
 70
    16
  0
VERTEX
  5
2A1
330
292
100
AcDbEntity
  8
Main lines
  6
DASHED
100
AcDbVertex
100
AcDb2dVertex
 10
210.4522142127899
 20
114.5722646439328
 30
0.0
 70
    16
  0
VERTEX
  5
2A2
330
292
100
AcDbEntity
  8
Main lines
  6
DASHED
100
AcDbVertex
100
AcDb2dVertex
 10
210.4684967319352
 20
114.6112874829572
 30
0.0
 70
    16
  0
VERTEX
  5
2A3
330
292
100
AcDbEntity
  8
Main lines
  6
DASHED
100
AcDbVertex
100
AcDb2dVertex
 10
210.4796910050138
 20
114.6481533314817
 30
0.0
 70
    16
  0
VERTEX
  5
2A4
330
292
100
AcDbEntity
  8
Main lines
  6
DASHED
100
AcDbVertex
100
AcDb2dVertex
 10
210.4909406590737
 20
114.6852015649501
 30
0.0
 70
    16
  0
VERTEX
  5
2A5
330
292
100
AcDbEntity
  8
Main lines
  6
DASHED
100
AcDbVertex
100
AcDb2dVertex
 10
210.4972102803092
 20
114.7210137474949
 30
0.0
 70
    16
  0
VERTEX
  5
2A6
330
292
100
AcDbEntity
  8
Main lines
  6
DASHED
100
AcDbVertex
100
AcDb2dVertex
 10
210.4972102803092
 20
114.7518296331704
 30
0.0
 70
    16
  0
VERTEX
  5
2A7
330
292
100
AcDbEntity
  8
Main lines
  6
DASHED
100
AcDbVertex
100
AcDb2dVertex
 10
209.9972102803092
 20
114.0322278068808
 30
0.0
 70
     8
  0
VERTEX
  5
2A8
330
292
100
AcDbEntity
  8
Main lines
  6
DASHED
100
AcDbVertex
100
AcDb2dVertex
 10
209.9976123238862
 20
114.0325191779987
 30
0.0
 70
     8
  0
VERTEX
  5
2A9
330
292
100
AcDbEntity
  8
Main lines
  6
DASHED
100
AcDbVertex
100
AcDb2dVertex
 10
209.9980143674889
 20
114.0328107966071
 30
0.0
 70
     8
  0
VERTEX
  5
2AA
330
292
100
AcDbEntity
  8
Main lines
  6
DASHED
100
AcDbVertex
100
AcDb2dVertex
 10
209.998416410929
 20
114.0331026625312
 30
0.0
 70
     8
  0
VERTEX
  5
2AB
330
292
100
AcDbEntity
  8
Main lines
  6
DASHED
100
AcDbVertex
100
AcDb2dVertex
 10
209.9988184540181
 20
114.0333947755957
 30
0.0
 70
     8
  0
VERTEX
  5
2AC
330
292
100
AcDbEntity
  8
Main lines
  6
DASHED
100
AcDbVertex
100
AcDb2dVertex
 10
209.9992204965682
 20
114.0336871356257
 30
0.0
 70
     8
  0
VERTEX
  5
2AD
330
292
100
AcDbEntity
  8
Main lines
  6
DASHED
100
AcDbVertex
100
AcDb2dVertex
 10
209.999622538391
 20
114.033979742446
 30
0.0
 70
     8
  0
VERTEX
  5
2AE
330
292
100
AcDbEntity
  8
Main lines
  6
DASHED
100
AcDbVertex
100
AcDb2dVertex
 10
210.0000245792982
 20
114.0342725958818
 30
0.0
 70
     8
  0
VERTEX
  5
2AF
330
292
100
AcDbEntity
  8
Main lines
  6
DASHED
100
AcDbVertex
100
AcDb2dVertex
 10
210.0004266191016
 20
114.0345656957579
 30
0.0
 70
     8
  0
VERTEX
  5
2B0
330
292
100
AcDbEntity
  8
Main lines
  6
DASHED
100
AcDbVertex
100
AcDb2dVertex
 10
210.0221080894221
 20
114.0507391124239
 30
0.0
 70
     8
  0
VERTEX
  5
2B1
330
292
100
AcDbEntity
  8
Main lines
  6
DASHED
100
AcDbVertex
100
AcDb2dVertex
 10
210.0438033107451
 20
114.0676430624447
 30
0.0
 70
     8
  0
VERTEX
  5
2B2
330
292
100
AcDbEntity
  8
Main lines
  6
DASHED
100
AcDbVertex
100
AcDb2dVertex
 10
210.0654777186354
 20
114.0852522973672
 30
0.0
 70
     8
  0
VERTEX
  5
2B3
330
292
100
AcDbEntity
  8
Main lines
  6
DASHED
100
AcDbVertex
100
AcDb2dVertex
 10
210.0870967486577
 20
114.1035415687385
 30
0.0
 70
     8
  0
VERTEX
  5
2B4
330
292
100
AcDbEntity
  8
Main lines
  6
DASHED
100
AcDbVertex
100
AcDb2dVertex
 10
210.1086258363769
 20
114.1224856281053
 30
0.0
 70
     8
  0
VERTEX
  5
2B5
330
292
100
AcDbEntity
  8
Main lines
  6
DASHED
100
AcDbVertex
100
AcDb2dVertex
 10
210.1300304173577
 20
114.1420592270146
 30
0.0
 70
     8
  0
VERTEX
  5
2B6
330
292
100
AcDbEntity
  8
Main lines
  6
DASHED
100
AcDbVertex
100
AcDb2dVertex
 10
210.1512759271648
 20
114.1622371170132
 30
0.0
 70
     8
  0
VERTEX
  5
2B7
330
292
100
AcDbEntity
  8
Main lines
  6
DASHED
100
AcDbVertex
100
AcDb2dVertex
 10
210.1723278013632
 20
114.1829940496481
 30
0.0
 70
     8
  0
VERTEX
  5
2B8
330
292
100
AcDbEntity
  8
Main lines
  6
DASHED
100
AcDbVertex
100
AcDb2dVertex
 10
210.1937054146082
 20
114.2048834302946
 30
0.0
 70
     8
  0
VERTEX
  5
2B9
330
292
100
AcDbEntity
  8
Main lines
  6
DASHED
100
AcDbVertex
100
AcDb2dVertex
 10
210.2149142434255
 20
114.2274468144409
 30
0.0
 70
     8
  0
VERTEX
  5
2BA
330
292
100
AcDbEntity
  8
Main lines
  6
DASHED
100
AcDbVertex
100
AcDb2dVertex
 10
210.2358929184873
 20
114.2506419626286
 30
0.0
 70
     8
  0
VERTEX
  5
2BB
330
292
100
AcDbEntity
  8
Main lines
  6
DASHED
100
AcDbVertex
100
AcDb2dVertex
 10
210.2565800704664
 20
114.2744266353991
 30
0.0
 70
     8
  0
VERTEX
  5
2BC
330
292
100
AcDbEntity
  8
Main lines
  6
DASHED
100
AcDbVertex
100
AcDb2dVertex
 10
210.2769143300351
 20
114.298758593294
 30
0.0
 70
     8
  0
VERTEX
  5
2BD
330
292
100
AcDbEntity
  8
Main lines
  6
DASHED
100
AcDbVertex
100
AcDb2dVertex
 10
210.296834327866
 20
114.3235955968547
 30
0.0
 70
     8
  0
VERTEX
  5
2BE
330
292
100
AcDbEntity
  8
Main lines
  6
DASHED
100
AcDbVertex
100
AcDb2dVertex
 10
210.3162786946315
 20
114.3488954066228
 30
0.0
 70
     8
  0
VERTEX
  5
2BF
330
292
100
AcDbEntity
  8
Main lines
  6
DASHED
100
AcDbVertex
100
AcDb2dVertex
 10
210.3351860610043
 20
114.3746157831397
 30
0.0
 70
     8
  0
VERTEX
  5
2C0
330
292
100
AcDbEntity
  8
Main lines
  6
DASHED
100
AcDbVertex
100
AcDb2dVertex
 10
210.3487637529074
 20
114.3938525123696
 30
0.0
 70
     8
  0
VERTEX
  5
2C1
330
292
100
AcDbEntity
  8
Main lines
  6
DASHED
100
AcDbVertex
100
AcDb2dVertex
 10
210.3620467412193
 20
114.4133678442205
 30
0.0
 70
     8
  0
VERTEX
  5
2C2
330
292
100
AcDbEntity
  8
Main lines
  6
DASHED
100
AcDbVertex
100
AcDb2dVertex
 10
210.3749873051147
 20
114.4331183060121
 30
0.0
 70
     8
  0
VERTEX
  5
2C3
330
292
100
AcDbEntity
  8
Main lines
  6
DASHED
100
AcDbVertex
100
AcDb2dVertex
 10
210.3875377237681
 20
114.4530604250641
 30
0.0
 70
     8
  0
VERTEX
  5
2C4
330
292
100
AcDbEntity
  8
Main lines
  6
DASHED
100
AcDbVertex
100
AcDb2dVertex
 10
210.3996502763542
 20
114.4731507286963
 30
0.0
 70
     8
  0
VERTEX
  5
2C5
330
292
100
AcDbEntity
  8
Main lines
  6
DASHED
100
AcDbVertex
100
AcDb2dVertex
 10
210.4112772420476
 20
114.4933457442283
 30
0.0
 70
     8
  0
VERTEX
  5
2C6
330
292
100
AcDbEntity
  8
Main lines
  6
DASHED
100
AcDbVertex
100
AcDb2dVertex
 10
210.4223709000229
 20
114.5136019989799
 30
0.0
 70
     8
  0
VERTEX
  5
2C7
330
292
100
AcDbEntity
  8
Main lines
  6
DASHED
100
AcDbVertex
100
AcDb2dVertex
 10
210.4328835294547
 20
114.5338760202709
 30
0.0
 70
     8
  0
VERTEX
  5
2C8
330
292
100
AcDbEntity
  8
Main lines
  6
DASHED
100
AcDbVertex
100
AcDb2dVertex
 10
210.4399856684741
 20
114.5482960314152
 30
0.0
 70
     8
  0
VERTEX
  5
2C9
330
292
100
AcDbEntity
  8
Main lines
  6
DASHED
100
AcDbVertex
100
AcDb2dVertex
 10
210.4467781348912
 20
114.5627427908062
 30
0.0
 70
     8
  0
VERTEX
  5
2CA
330
292
100
AcDbEntity
  8
Main lines
  6
DASHED
100
AcDbVertex
100
AcDb2dVertex
 10
210.4532370214965
 20
114.577183589
 30
0.0
 70
     8
  0
VERTEX
  5
2CB
330
292
100
AcDbEntity
  8
Main lines
  6
DASHED
100
AcDbVertex
100
AcDb2dVertex
 10
210.4593384210805
 20
114.5915857165528
 30
0.0
 70
     8
  0
VERTEX
  5
2CC
330
292
100
AcDbEntity
  8
Main lines
  6
DASHED
100
AcDbVertex
100
AcDb2dVertex
 10
210.4650584264337
 20
114.6059164640212
 30
0.0
 70
     8
  0
VERTEX
  5
2CD
330
292
100
AcDbEntity
  8
Main lines
  6
DASHED
100
AcDbVertex
100
AcDb2dVertex
 10
210.4703731303467
 20
114.6201431219612
 30
0.0
 70
     8
  0
VERTEX
  5
2CE
330
292
100
AcDbEntity
  8
Main lines
  6
DASHED
100
AcDbVertex
100
AcDb2dVertex
 10
210.4752586256099
 20
114.6342329809293
 30
0.0
 70
     8
  0
VERTEX
  5
2CF
330
292
100
AcDbEntity
  8
Main lines
  6
DASHED
100
AcDbVertex
100
AcDb2dVertex
 10
210.4796910050138
 20
114.6481533314817
 30
0.0
 70
     8
  0
VERTEX
  5
2D0
330
292
100
AcDbEntity
  8
Main lines
  6
DASHED
100
AcDbVertex
100
AcDb2dVertex
 10
210.4836736675203
 20
114.661981134915
 30
0.0
 70
     8
  0
VERTEX
  5
2D1
330
292
100
AcDbEntity
  8
Main lines
  6
DASHED
100
AcDbVertex
100
AcDb2dVertex
 10
210.4871743395852
 20
114.6756489931919
 30
0.0
 70
     8
  0
VERTEX
  5
2D2
330
292
100
AcDbEntity
  8
Main lines
  6
DASHED
100
AcDbVertex
100
AcDb2dVertex
 10
210.4901779088445
 20
114.6891128409304
 30
0.0
 70
     8
  0
VERTEX
  5
2D3
330
292
100
AcDbEntity
  8
Main lines
  6
DASHED
100
AcDbVertex
100
AcDb2dVertex
 10
210.492669262934
 20
114.7023286127484
 30
0.0
 70
     8
  0
VERTEX
  5
2D4
330
292
100
AcDbEntity
  8
Main lines
  6
DASHED
100
AcDbVertex
100
AcDb2dVertex
 10
210.4946332894893
 20
114.7152522432635
 30
0.0
 70
     8
  0
VERTEX
  5
2D5
330
292
100
AcDbEntity
  8
Main lines
  6
DASHED
100
AcDbVertex
100
AcDb2dVertex
 10
210.4960548761465
 20
114.7278396670937
 30
0.0
 70
     8
  0
VERTEX
  5
2D6
330
292
100
AcDbEntity
  8
Main lines
  6
DASHED
100
AcDbVertex
100
AcDb2dVertex
 10
210.4969189105412
 20
114.7400468188567
 30
0.0
 70
     8
  0
VERTEX
  5
2D7
330
292
100
AcDbEntity
  8
Main lines
  6
DASHED
100
AcDbVertex
100
AcDb2dVertex
 10
210.4972102803092
 20
114.7518296331705
 30
0.0
 70
     8
  0
SEQEND
  5
293
330
292
100
AcDbEntity
  8
Main lines
  6
DASHED
  0
POLYLINE
  5
2DA
102
{ACAD_XDICTIONARY
360
2D8
102
}
330
1F
100
AcDbEntity
  8
Main lines
  6
DASHED
100
AcDb2dPolyline
 66
     1
 10
0.0
 20
0.0
 30
0.0
 70
   132
 75
     6
  0
VERTEX
  5
2DC
330
2DA
100
AcDbEntity
  8
Main lines
  6
DASHED
100
AcDbVertex
100
AcDb2dVertex
 10
212.5972102803092
 20
114.7518296331704
 30
0.0
 70
    16
  0
VERTEX
  5
2DD
330
2DA
100
AcDbEntity
  8
Main lines
  6
DASHED
100
AcDbVertex
100
AcDb2dVertex
 10
212.5972102803092
 20
114.7210137474949
 30
0.0
 70
    16
  0
VERTEX
  5
2DE
330
2DA
100
AcDbEntity
  8
Main lines
  6
DASHED
100
AcDbVertex
100
AcDb2dVertex
 10
212.6034799015447
 20
114.6852015649501
 30
0.0
 70
    16
  0
VERTEX
  5
2DF
330
2DA
100
AcDbEntity
  8
Main lines
  6
DASHED
100
AcDbVertex
100
AcDb2dVertex
 10
212.6147295556046
 20
114.6481533314817
 30
0.0
 70
    16
  0
VERTEX
  5
2E0
330
2DA
100
AcDbEntity
  8
Main lines
  6
DASHED
100
AcDbVertex
100
AcDb2dVertex
 10
212.6259238286832
 20
114.6112874829572
 30
0.0
 70
    16
  0
VERTEX
  5
2E1
330
2DA
100
AcDbEntity
  8
Main lines
  6
DASHED
100
AcDbVertex
100
AcDb2dVertex
 10
212.6422063478285
 20
114.5722646439328
 30
0.0
 70
    16
  0
VERTEX
  5
2E2
330
2DA
100
AcDbEntity
  8
Main lines
  6
DASHED
100
AcDbVertex
100
AcDb2dVertex
 10
212.6615370311637
 20
114.5338760202708
 30
0.0
 70
    16
  0
VERTEX
  5
2E3
330
2DA
100
AcDbEntity
  8
Main lines
  6
DASHED
100
AcDbVertex
100
AcDb2dVertex
 10
212.6887535864124
 20
114.4798269171584
 30
0.0
 70
    16
  0
VERTEX
  5
2E4
330
2DA
100
AcDbEntity
  8
Main lines
  6
DASHED
100
AcDbVertex
100
AcDb2dVertex
 10
212.7226768015958
 20
114.4255036152091
 30
0.0
 70
    16
  0
VERTEX
  5
2E5
330
2DA
100
AcDbEntity
  8
Main lines
  6
DASHED
100
AcDbVertex
100
AcDb2dVertex
 10
212.7592344996141
 20
114.3746157831397
 30
0.0
 70
    16
  0
VERTEX
  5
2E6
330
2DA
100
AcDbEntity
  8
Main lines
  6
DASHED
100
AcDbVertex
100
AcDb2dVertex
 10
212.8088835922377
 20
114.3055049029481
 30
0.0
 70
    16
  0
VERTEX
  5
2E7
330
2DA
100
AcDbEntity
  8
Main lines
  6
DASHED
100
AcDbVertex
100
AcDb2dVertex
 10
212.8649152952113
 20
114.2404295138536
 30
0.0
 70
    16
  0
VERTEX
  5
2E8
330
2DA
100
AcDbEntity
  8
Main lines
  6
DASHED
100
AcDbVertex
100
AcDb2dVertex
 10
212.9220927592552
 20
114.1829940496481
 30
0.0
 70
    16
  0
VERTEX
  5
2E9
330
2DA
100
AcDbEntity
  8
Main lines
  6
DASHED
100
AcDbVertex
100
AcDb2dVertex
 10
212.9779421856967
 20
114.1268926155094
 30
0.0
 70
    16
  0
VERTEX
  5
2EA
330
2DA
100
AcDbEntity
  8
Main lines
  6
DASHED
100
AcDbVertex
100
AcDb2dVertex
 10
213.0362257459412
 20
114.0766983193245
 30
0.0
 70
    16
  0
VERTEX
  5
2EB
330
2DA
100
AcDbEntity
  8
Main lines
  6
DASHED
100
AcDbVertex
100
AcDb2dVertex
 10
213.0939939415168
 20
114.0345656957579
 30
0.0
 70
    16
  0
VERTEX
  5
2EC
330
2DA
100
AcDbEntity
  8
Main lines
  6
DASHED
100
AcDbVertex
100
AcDb2dVertex
 10
213.0950660460202
 20
114.0337837676568
 30
0.0
 70
    16
  0
VERTEX
  5
2ED
330
2DA
100
AcDbEntity
  8
Main lines
  6
DASHED
100
AcDbVertex
100
AcDb2dVertex
 10
213.0961381643052
 20
114.0330044663854
 30
0.0
 70
    16
  0
VERTEX
  5
2EE
330
2DA
100
AcDbEntity
  8
Main lines
  6
DASHED
100
AcDbVertex
100
AcDb2dVertex
 10
213.0972102803092
 20
114.0322278068808
 30
0.0
 70
    16
  0
VERTEX
  5
2EF
330
2DA
100
AcDbEntity
  8
Main lines
  6
DASHED
100
AcDbVertex
100
AcDb2dVertex
 10
212.5972102803092
 20
114.7518296331704
 30
0.0
 70
     8
  0
VERTEX
  5
2F0
330
2DA
100
AcDbEntity
  8
Main lines
  6
DASHED
100
AcDbVertex
100
AcDb2dVertex
 10
212.5975016500772
 20
114.7400468188567
 30
0.0
 70
     8
  0
VERTEX
  5
2F1
330
2DA
100
AcDbEntity
  8
Main lines
  6
DASHED
100
AcDbVertex
100
AcDb2dVertex
 10
212.5983656844719
 20
114.7278396670937
 30
0.0
 70
     8
  0
VERTEX
  5
2F2
330
2DA
100
AcDbEntity
  8
Main lines
  6
DASHED
100
AcDbVertex
100
AcDb2dVertex
 10
212.5997872711291
 20
114.7152522432635
 30
0.0
 70
     8
  0
VERTEX
  5
2F3
330
2DA
100
AcDbEntity
  8
Main lines
  6
DASHED
100
AcDbVertex
100
AcDb2dVertex
 10
212.6017512976844
 20
114.7023286127484
 30
0.0
 70
     8
  0
VERTEX
  5
2F4
330
2DA
100
AcDbEntity
  8
Main lines
  6
DASHED
100
AcDbVertex
100
AcDb2dVertex
 10
212.6042426517739
 20
114.6891128409304
 30
0.0
 70
     8
  0
VERTEX
  5
2F5
330
2DA
100
AcDbEntity
  8
Main lines
  6
DASHED
100
AcDbVertex
100
AcDb2dVertex
 10
212.6072462210331
 20
114.6756489931919
 30
0.0
 70
     8
  0
VERTEX
  5
2F6
330
2DA
100
AcDbEntity
  8
Main lines
  6
DASHED
100
AcDbVertex
100
AcDb2dVertex
 10
212.6107468930981
 20
114.661981134915
 30
0.0
 70
     8
  0
VERTEX
  5
2F7
330
2DA
100
AcDbEntity
  8
Main lines
  6
DASHED
100
AcDbVertex
100
AcDb2dVertex
 10
212.6147295556045
 20
114.6481533314817
 30
0.0
 70
     8
  0
VERTEX
  5
2F8
330
2DA
100
AcDbEntity
  8
Main lines
  6
DASHED
100
AcDbVertex
100
AcDb2dVertex
 10
212.6191619350085
 20
114.6342329809293
 30
0.0
 70
     8
  0
VERTEX
  5
2F9
330
2DA
100
AcDbEntity
  8
Main lines
  6
DASHED
100
AcDbVertex
100
AcDb2dVertex
 10
212.6240474302717
 20
114.6201431219612
 30
0.0
 70
     8
  0
VERTEX
  5
2FA
330
2DA
100
AcDbEntity
  8
Main lines
  6
DASHED
100
AcDbVertex
100
AcDb2dVertex
 10
212.6293621341847
 20
114.6059164640212
 30
0.0
 70
     8
  0
VERTEX
  5
2FB
330
2DA
100
AcDbEntity
  8
Main lines
  6
DASHED
100
AcDbVertex
100
AcDb2dVertex
 10
212.6350821395379
 20
114.5915857165528
 30
0.0
 70
     8
  0
VERTEX
  5
2FC
330
2DA
100
AcDbEntity
  8
Main lines
  6
DASHED
100
AcDbVertex
100
AcDb2dVertex
 10
212.6411835391219
 20
114.577183589
 30
0.0
 70
     8
  0
VERTEX
  5
2FD
330
2DA
100
AcDbEntity
  8
Main lines
  6
DASHED
100
AcDbVertex
100
AcDb2dVertex
 10
212.6476424257272
 20
114.5627427908062
 30
0.0
 70
     8
  0
VERTEX
  5
2FE
330
2DA
100
AcDbEntity
  8
Main lines
  6
DASHED
100
AcDbVertex
100
AcDb2dVertex
 10
212.6544348921443
 20
114.5482960314153
 30
0.0
 70
     8
  0
VERTEX
  5
2FF
330
2DA
100
AcDbEntity
  8
Main lines
  6
DASHED
100
AcDbVertex
100
AcDb2dVertex
 10
212.6615370311637
 20
114.5338760202709
 30
0.0
 70
     8
  0
VERTEX
  5
300
330
2DA
100
AcDbEntity
  8
Main lines
  6
DASHED
100
AcDbVertex
100
AcDb2dVertex
 10
212.6720496605955
 20
114.5136019989799
 30
0.0
 70
     8
  0
VERTEX
  5
301
330
2DA
100
AcDbEntity
  8
Main lines
  6
DASHED
100
AcDbVertex
100
AcDb2dVertex
 10
212.6831433185708
 20
114.4933457442283
 30
0.0
 70
     8
  0
VERTEX
  5
302
330
2DA
100
AcDbEntity
  8
Main lines
  6
DASHED
100
AcDbVertex
100
AcDb2dVertex
 10
212.6947702842642
 20
114.4731507286963
 30
0.0
 70
     8
  0
VERTEX
  5
303
330
2DA
100
AcDbEntity
  8
Main lines
  6
DASHED
100
AcDbVertex
100
AcDb2dVertex
 10
212.7068828368503
 20
114.4530604250641
 30
0.0
 70
     8
  0
VERTEX
  5
304
330
2DA
100
AcDbEntity
  8
Main lines
  6
DASHED
100
AcDbVertex
100
AcDb2dVertex
 10
212.7194332555037
 20
114.4331183060121
 30
0.0
 70
     8
  0
VERTEX
  5
305
330
2DA
100
AcDbEntity
  8
Main lines
  6
DASHED
100
AcDbVertex
100
AcDb2dVertex
 10
212.7323738193991
 20
114.4133678442205
 30
0.0
 70
     8
  0
VERTEX
  5
306
330
2DA
100
AcDbEntity
  8
Main lines
  6
DASHED
100
AcDbVertex
100
AcDb2dVertex
 10
212.745656807711
 20
114.3938525123696
 30
0.0
 70
     8
  0
VERTEX
  5
307
330
2DA
100
AcDbEntity
  8
Main lines
  6
DASHED
100
AcDbVertex
100
AcDb2dVertex
 10
212.7592344996141
 20
114.3746157831397
 30
0.0
 70
     8
  0
VERTEX
  5
308
330
2DA
100
AcDbEntity
  8
Main lines
  6
DASHED
100
AcDbVertex
100
AcDb2dVertex
 10
212.7781418659869
 20
114.3488954066228
 30
0.0
 70
     8
  0
VERTEX
  5
309
330
2DA
100
AcDbEntity
  8
Main lines
  6
DASHED
100
AcDbVertex
100
AcDb2dVertex
 10
212.7975862327525
 20
114.3235955968547
 30
0.0
 70
     8
  0
VERTEX
  5
30A
330
2DA
100
AcDbEntity
  8
Main lines
  6
DASHED
100
AcDbVertex
100
AcDb2dVertex
 10
212.8175062305833
 20
114.298758593294
 30
0.0
 70
     8
  0
VERTEX
  5
30B
330
2DA
100
AcDbEntity
  8
Main lines
  6
DASHED
100
AcDbVertex
100
AcDb2dVertex
 10
212.837840490152
 20
114.2744266353991
 30
0.0
 70
     8
  0
VERTEX
  5
30C
330
2DA
100
AcDbEntity
  8
Main lines
  6
DASHED
100
AcDbVertex
100
AcDb2dVertex
 10
212.8585276421311
 20
114.2506419626286
 30
0.0
 70
     8
  0
VERTEX
  5
30D
330
2DA
100
AcDbEntity
  8
Main lines
  6
DASHED
100
AcDbVertex
100
AcDb2dVertex
 10
212.8795063171929
 20
114.227446814441
 30
0.0
 70
     8
  0
VERTEX
  5
30E
330
2DA
100
AcDbEntity
  8
Main lines
  6
DASHED
100
AcDbVertex
100
AcDb2dVertex
 10
212.9007151460102
 20
114.2048834302946
 30
0.0
 70
     8
  0
VERTEX
  5
30F
330
2DA
100
AcDbEntity
  8
Main lines
  6
DASHED
100
AcDbVertex
100
AcDb2dVertex
 10
212.9220927592552
 20
114.1829940496482
 30
0.0
 70
     8
  0
VERTEX
  5
310
330
2DA
100
AcDbEntity
  8
Main lines
  6
DASHED
100
AcDbVertex
100
AcDb2dVertex
 10
212.9431446334536
 20
114.1622371170132
 30
0.0
 70
     8
  0
VERTEX
  5
311
330
2DA
100
AcDbEntity
  8
Main lines
  6
DASHED
100
AcDbVertex
100
AcDb2dVertex
 10
212.9643901432607
 20
114.1420592270146
 30
0.0
 70
     8
  0
VERTEX
  5
312
330
2DA
100
AcDbEntity
  8
Main lines
  6
DASHED
100
AcDbVertex
100
AcDb2dVertex
 10
212.9857947242415
 20
114.1224856281053
 30
0.0
 70
     8
  0
VERTEX
  5
313
330
2DA
100
AcDbEntity
  8
Main lines
  6
DASHED
100
AcDbVertex
100
AcDb2dVertex
 10
213.0073238119607
 20
114.1035415687385
 30
0.0
 70
     8
  0
VERTEX
  5
314
330
2DA
100
AcDbEntity
  8
Main lines
  6
DASHED
100
AcDbVertex
100
AcDb2dVertex
 10
213.028942841983
 20
114.0852522973672
 30
0.0
 70
     8
  0
VERTEX
  5
315
330
2DA
100
AcDbEntity
  8
Main lines
  6
DASHED
100
AcDbVertex
100
AcDb2dVertex
 10
213.0506172498733
 20
114.0676430624446
 30
0.0
 70
     8
  0
VERTEX
  5
316
330
2DA
100
AcDbEntity
  8
Main lines
  6
DASHED
100
AcDbVertex
100
AcDb2dVertex
 10
213.0723124711963
 20
114.0507391124239
 30
0.0
 70
     8
  0
VERTEX
  5
317
330
2DA
100
AcDbEntity
  8
Main lines
  6
DASHED
100
AcDbVertex
100
AcDb2dVertex
 10
213.0939939415168
 20
114.0345656957579
 30
0.0
 70
     8
  0
VERTEX
  5
318
330
2DA
100
AcDbEntity
  8
Main lines
  6
DASHED
100
AcDbVertex
100
AcDb2dVertex
 10
213.0943959813202
 20
114.0342725958818
 30
0.0
 70
     8
  0
VERTEX
  5
319
330
2DA
100
AcDbEntity
  8
Main lines
  6
DASHED
100
AcDbVertex
100
AcDb2dVertex
 10
213.0947980222274
 20
114.0339797424461
 30
0.0
 70
     8
  0
VERTEX
  5
31A
330
2DA
100
AcDbEntity
  8
Main lines
  6
DASHED
100
AcDbVertex
100
AcDb2dVertex
 10
213.0952000640502
 20
114.0336871356257
 30
0.0
 70
     8
  0
VERTEX
  5
31B
330
2DA
100
AcDbEntity
  8
Main lines
  6
DASHED
100
AcDbVertex
100
AcDb2dVertex
 10
213.0956021066003
 20
114.0333947755957
 30
0.0
 70
     8
  0
VERTEX
  5
31C
330
2DA
100
AcDbEntity
  8
Main lines
  6
DASHED
100
AcDbVertex
100
AcDb2dVertex
 10
213.0960041496895
 20
114.0331026625312
 30
0.0
 70
     8
  0
VERTEX
  5
31D
330
2DA
100
AcDbEntity
  8
Main lines
  6
DASHED
100
AcDbVertex
100
AcDb2dVertex
 10
213.0964061931295
 20
114.0328107966071
 30
0.0
 70
     8
  0
VERTEX
  5
31E
330
2DA
100
AcDbEntity
  8
Main lines
  6
DASHED
100
AcDbVertex
100
AcDb2dVertex
 10
213.0968082367322
 20
114.0325191779987
 30
0.0
 70
     8
  0
VERTEX
  5
31F
330
2DA
100
AcDbEntity
  8
Main lines
  6
DASHED
100
AcDbVertex
100
AcDb2dVertex
 10
213.0972102803092
 20
114.0322278068807
 30
0.0
 70
     8
  0
SEQEND
  5
2DB
330
2DA
100
AcDbEntity
  8
Main lines
  6
DASHED
  0
POLYLINE
  5
322
102
{ACAD_XDICTIONARY
360
320
102
}
330
1F
100
AcDbEntity
  8
Main lines
  6
DASHED
100
AcDb2dPolyline
 66
     1
 10
0.0
 20
0.0
 30
-0.0000000000000479
 70
   132
210
0.0
220
0.0
230
-1.0
 75
     6
  0
VERTEX
  5
324
330
322
100
AcDbEntity
  8
Main lines
  6
DASHED
100
AcDbVertex
100
AcDb2dVertex
 10
-305.3533656514711
 20
175.6230475823269
 30
0.0000000000000073
 70
    16
  0
VERTEX
  5
325
330
322
100
AcDbEntity
  8
Main lines
  6
DASHED
100
AcDbVertex
100
AcDb2dVertex
 10
-305.4084475117781
 20
175.7190078863193
 30
0.0000000000000073
 70
    16
  0
VERTEX
  5
326
330
322
100
AcDbEntity
  8
Main lines
  6
DASHED
100
AcDbVertex
100
AcDb2dVertex
 10
-305.4520525632797
 20
175.7909087924583
 30
0.0000000000000073
 70
    16
  0
VERTEX
  5
327
330
322
100
AcDbEntity
  8
Main lines
  6
DASHED
100
AcDbVertex
100
AcDb2dVertex
 10
-305.4795908811809
 20
175.8353425424903
 30
0.0000000000000073
 70
    16
  0
VERTEX
  5
328
330
322
100
AcDbEntity
  8
Main lines
  6
DASHED
100
AcDbVertex
100
AcDb2dVertex
 10
-305.3533656514711
 20
175.6230475823269
 30
0.0000000000000073
 70
     8
  0
VERTEX
  5
329
330
322
100
AcDbEntity
  8
Main lines
  6
DASHED
100
AcDbVertex
100
AcDb2dVertex
 10
-305.3734744089766
 20
175.6578982562719
 30
0.0000000000000073
 70
     8
  0
VERTEX
  5
32A
330
322
100
AcDbEntity
  8
Main lines
  6
DASHED
100
AcDbVertex
100
AcDb2dVertex
 10
-305.3924534274754
 20
175.690453427001
 30
0.0000000000000073
 70
     8
  0
VERTEX
  5
32B
330
322
100
AcDbEntity
  8
Main lines
  6
DASHED
100
AcDbVertex
100
AcDb2dVertex
 10
-305.4102489187864
 20
175.7206731598473
 30
0.0000000000000073
 70
     8
  0
VERTEX
  5
32C
330
322
100
AcDbEntity
  8
Main lines
  6
DASHED
100
AcDbVertex
100
AcDb2dVertex
 10
-305.4268070947282
 20
175.7485175201438
 30
0.0000000000000073
 70
     8
  0
VERTEX
  5
32D
330
322
100
AcDbEntity
  8
Main lines
  6
DASHED
100
AcDbVertex
100
AcDb2dVertex
 10
-305.4420741671198
 20
175.7739465732233
 30
0.0000000000000073
 70
     8
  0
VERTEX
  5
32E
330
322
100
AcDbEntity
  8
Main lines
  6
DASHED
100
AcDbVertex
100
AcDb2dVertex
 10
-305.4559963477799
 20
175.7969203844189
 30
0.0000000000000073
 70
     8
  0
VERTEX
  5
32F
330
322
100
AcDbEntity
  8
Main lines
  6
DASHED
100
AcDbVertex
100
AcDb2dVertex
 10
-305.4685198485273
 20
175.8173990190636
 30
0.0000000000000073
 70
     8
  0
VERTEX
  5
330
330
322
100
AcDbEntity
  8
Main lines
  6
DASHED
100
AcDbVertex
100
AcDb2dVertex
 10
-305.4795908811809
 20
175.8353425424903
 30
0.0000000000000073
 70
     8
  0
SEQEND
  5
323
330
322
100
AcDbEntity
  8
Main lines
  6
DASHED
  0
POLYLINE
  5
333
102
{ACAD_XDICTIONARY
360
331
102
}
330
1F
100
AcDbEntity
  8
Main lines
  6
Continuous
100
AcDb2dPolyline
 66
     1
 10
0.0
 20
0.0
 30
-0.0000000000000479
 70
   132
210
0.0
220
0.0
230
-1.0
 75
     6
  0
VERTEX
  5
335
330
333
100
AcDbEntity
  8
Main lines
  6
Continuous
100
AcDbVertex
100
AcDb2dVertex
 10
-312.1225432797443
 20
179.3846360326411
 30
0.0000000000000069
 70
    16
  0
VERTEX
  5
336
330
333
100
AcDbEntity
  8
Main lines
  6
Continuous
100
AcDbVertex
100
AcDb2dVertex
 10
-312.6502704758597
 20
179.3657878438041
 30
0.0000000000000068
 70
    16
  0
VERTEX
  5
337
330
333
100
AcDbEntity
  8
Main lines
  6
Continuous
100
AcDbVertex
100
AcDb2dVertex
 10
-313.181521914019
 20
179.2907277152123
 30
0.0000000000000067
 70
    16
  0
VERTEX
  5
338
330
333
100
AcDbEntity
  8
Main lines
  6
Continuous
100
AcDbVertex
100
AcDb2dVertex
 10
-314.2972095406624
 20
179.0086555499381
 30
0.0000000000000066
 70
    16
  0
VERTEX
  5
339
330
333
100
AcDbEntity
  8
Main lines
  6
Continuous
100
AcDbVertex
100
AcDb2dVertex
 10
-314.8866066052642
 20
178.7818276902487
 30
0.0000000000000065
 70
    16
  0
VERTEX
  5
33A
330
333
100
AcDbEntity
  8
Main lines
  6
Continuous
100
AcDbVertex
100
AcDb2dVertex
 10
-316.6093816411216
 20
177.8382152440108
 30
0.0000000000000061
 70
    16
  0
VERTEX
  5
33B
330
333
100
AcDbEntity
  8
Main lines
  6
Continuous
100
AcDbVertex
100
AcDb2dVertex
 10
-317.6545400617747
 20
176.877504741061
 30
0.0000000000000059
 70
    16
  0
VERTEX
  5
33C
330
333
100
AcDbEntity
  8
Main lines
  6
Continuous
100
AcDbVertex
100
AcDb2dVertex
 10
-318.3890058564119
 20
175.5765577602028
 30
0.0000000000000057
 70
    16
  0
VERTEX
  5
33D
330
333
100
AcDbEntity
  8
Main lines
  6
Continuous
100
AcDbVertex
100
AcDb2dVertex
 10
-312.1225432797443
 20
179.3846360326411
 30
0.0000000000000069
 70
     8
  0
VERTEX
  5
33E
330
333
100
AcDbEntity
  8
Main lines
  6
Continuous
100
AcDbVertex
100
AcDb2dVertex
 10
-312.320567094114
 20
179.3749352288747
 30
0.0000000000000068
 70
     8
  0
VERTEX
  5
33F
330
333
100
AcDbEntity
  8
Main lines
  6
Continuous
100
AcDbVertex
100
AcDb2dVertex
 10
-312.5186868080595
 20
179.3599777660972
 30
0.0000000000000068
 70
     8
  0
VERTEX
  5
340
330
333
100
AcDbEntity
  8
Main lines
  6
Continuous
100
AcDbVertex
100
AcDb2dVertex
 10
-312.7166679234647
 20
179.3397768546495
 30
0.0000000000000068
 70
     8
  0
VERTEX
  5
341
330
333
100
AcDbEntity
  8
Main lines
  6
Continuous
100
AcDbVertex
100
AcDb2dVertex
 10
-312.9142759422137
 20
179.3143457048726
 30
0.0000000000000068
 70
     8
  0
VERTEX
  5
342
330
333
100
AcDbEntity
  8
Main lines
  6
Continuous
100
AcDbVertex
100
AcDb2dVertex
 10
-313.1112763661908
 20
179.2836975271072
 30
0.0000000000000067
 70
     8
  0
VERTEX
  5
343
330
333
100
AcDbEntity
  8
Main lines
  6
Continuous
100
AcDbVertex
100
AcDb2dVertex
 10
-313.3074346972799
 20
179.2478455316943
 30
0.0000000000000067
 70
     8
  0
VERTEX
  5
344
330
333
100
AcDbEntity
  8
Main lines
  6
Continuous
100
AcDbVertex
100
AcDb2dVertex
 10
-313.5025164373649
 20
179.206802928975
 30
0.0000000000000067
 70
     8
  0
VERTEX
  5
345
330
333
100
AcDbEntity
  8
Main lines
  6
Continuous
100
AcDbVertex
100
AcDb2dVertex
 10
-313.6962870883302
 20
179.1605829292899
 30
0.0000000000000067
 70
     8
  0
VERTEX
  5
346
330
333
100
AcDbEntity
  8
Main lines
  6
Continuous
100
AcDbVertex
100
AcDb2dVertex
 10
-313.9210856981167
 20
179.1000741841616
 30
0.0000000000000066
 70
     8
  0
VERTEX
  5
347
330
333
100
AcDbEntity
  8
Main lines
  6
Continuous
100
AcDbVertex
100
AcDb2dVertex
 10
-314.1447614590738
 20
179.0323934118682
 30
0.0000000000000066
 70
     8
  0
VERTEX
  5
348
330
333
100
AcDbEntity
  8
Main lines
  6
Continuous
100
AcDbVertex
100
AcDb2dVertex
 10
-314.3672720274723
 20
178.9573905052763
 30
0.0000000000000065
 70
     8
  0
VERTEX
  5
349
330
333
100
AcDbEntity
  8
Main lines
  6
Continuous
100
AcDbVertex
100
AcDb2dVertex
 10
-314.5885750595825
 20
178.8749153572525
 30
0.0000000000000065
 70
     8
  0
VERTEX
  5
34A
330
333
100
AcDbEntity
  8
Main lines
  6
Continuous
100
AcDbVertex
100
AcDb2dVertex
 10
-314.8086282116749
 20
178.7848178606633
 30
0.0000000000000065
 70
     8
  0
VERTEX
  5
34B
330
333
100
AcDbEntity
  8
Main lines
  6
Continuous
100
AcDbVertex
100
AcDb2dVertex
 10
-315.0273891400199
 20
178.6869479083754
 30
0.0000000000000064
 70
     8
  0
VERTEX
  5
34C
330
333
100
AcDbEntity
  8
Main lines
  6
Continuous
100
AcDbVertex
100
AcDb2dVertex
 10
-315.2448155008882
 20
178.5811553932552
 30
0.0000000000000064
 70
     8
  0
VERTEX
  5
34D
330
333
100
AcDbEntity
  8
Main lines
  6
Continuous
100
AcDbVertex
100
AcDb2dVertex
 10
-315.4608649505501
 20
178.4672902081695
 30
0.0000000000000064
 70
     8
  0
VERTEX
  5
34E
330
333
100
AcDbEntity
  8
Main lines
  6
Continuous
100
AcDbVertex
100
AcDb2dVertex
 10
-315.8863088406977
 20
178.2158248820199
 30
0.0000000000000063
 70
     8
  0
VERTEX
  5
34F
330
333
100
AcDbEntity
  8
Main lines
  6
Continuous
100
AcDbVertex
100
AcDb2dVertex
 10
-316.299633193555
 20
177.9331679318534
 30
0.0000000000000062
 70
     8
  0
VERTEX
  5
350
330
333
100
AcDbEntity
  8
Main lines
  6
Continuous
100
AcDbVertex
100
AcDb2dVertex
 10
-316.6984083096363
 20
177.6192185654147
 30
0.0000000000000061
 70
     8
  0
VERTEX
  5
351
330
333
100
AcDbEntity
  8
Main lines
  6
Continuous
100
AcDbVertex
100
AcDb2dVertex
 10
-317.0802044894563
 20
177.2738759904485
 30
0.000000000000006
 70
     8
  0
VERTEX
  5
352
330
333
100
AcDbEntity
  8
Main lines
  6
Continuous
100
AcDbVertex
100
AcDb2dVertex
 10
-317.4425920335294
 20
176.8970394146994
 30
0.0000000000000059
 70
     8
  0
VERTEX
  5
353
330
333
100
AcDbEntity
  8
Main lines
  6
Continuous
100
AcDbVertex
100
AcDb2dVertex
 10
-317.78314124237
 20
176.4886080459123
 30
0.0000000000000059
 70
     8
  0
VERTEX
  5
354
330
333
100
AcDbEntity
  8
Main lines
  6
Continuous
100
AcDbVertex
100
AcDb2dVertex
 10
-318.0994224164926
 20
176.0484810918318
 30
0.0000000000000058
 70
     8
  0
VERTEX
  5
355
330
333
100
AcDbEntity
  8
Main lines
  6
Continuous
100
AcDbVertex
100
AcDb2dVertex
 10
-318.3890058564118
 20
175.5765577602027
 30
0.0000000000000057
 70
     8
  0
SEQEND
  5
334
330
333
100
AcDbEntity
  8
Main lines
  6
Continuous
  0
POLYLINE
  5
358
102
{ACAD_XDICTIONARY
360
356
102
}
330
1F
100
AcDbEntity
  8
Main lines
  6
Continuous
100
AcDb2dPolyline
 66
     1
 10
0.0
 20
0.0
 30
-0.0000000000000479
 70
   132
210
0.0
220
0.0
230
-1.0
 75
     6
  0
VERTEX
  5
35A
330
358
100
AcDbEntity
  8
Main lines
  6
Continuous
100
AcDbVertex
100
AcDb2dVertex
 10
-305.3269001582066
 20
175.5765577602028
 30
0.0000000000000073
 70
    16
  0
VERTEX
  5
35B
330
358
100
AcDbEntity
  8
Main lines
  6
Continuous
100
AcDbVertex
100
AcDb2dVertex
 10
-306.0613659528439
 20
176.877504741061
 30
0.0000000000000073
 70
    16
  0
VERTEX
  5
35C
330
358
100
AcDbEntity
  8
Main lines
  6
Continuous
100
AcDbVertex
100
AcDb2dVertex
 10
-307.1065243734969
 20
177.8382152440108
 30
0.0000000000000073
 70
    16
  0
VERTEX
  5
35D
330
358
100
AcDbEntity
  8
Main lines
  6
Continuous
100
AcDbVertex
100
AcDb2dVertex
 10
-308.8292994093543
 20
178.7818276902487
 30
0.0000000000000072
 70
    16
  0
VERTEX
  5
35E
330
358
100
AcDbEntity
  8
Main lines
  6
Continuous
100
AcDbVertex
100
AcDb2dVertex
 10
-309.4186964739561
 20
179.0086555499381
 30
0.0000000000000072
 70
    16
  0
VERTEX
  5
35F
330
358
100
AcDbEntity
  8
Main lines
  6
Continuous
100
AcDbVertex
100
AcDb2dVertex
 10
-310.5343841005975
 20
179.2907277152117
 30
0.0000000000000071
 70
    16
  0
VERTEX
  5
360
330
358
100
AcDbEntity
  8
Main lines
  6
Continuous
100
AcDbVertex
100
AcDb2dVertex
 10
-311.065635538755
 20
179.3657878438036
 30
0.000000000000007
 70
    16
  0
VERTEX
  5
361
330
358
100
AcDbEntity
  8
Main lines
  6
Continuous
100
AcDbVertex
100
AcDb2dVertex
 10
-311.593362734868
 20
179.3846360326409
 30
0.0000000000000069
 70
    16
  0
VERTEX
  5
362
330
358
100
AcDbEntity
  8
Main lines
  6
Continuous
100
AcDbVertex
100
AcDb2dVertex
 10
-305.3269001582066
 20
175.5765577602028
 30
0.0000000000000073
 70
     8
  0
VERTEX
  5
363
330
358
100
AcDbEntity
  8
Main lines
  6
Continuous
100
AcDbVertex
100
AcDb2dVertex
 10
-305.6164835981259
 20
176.0484810918319
 30
0.0000000000000073
 70
     8
  0
VERTEX
  5
364
330
358
100
AcDbEntity
  8
Main lines
  6
Continuous
100
AcDbVertex
100
AcDb2dVertex
 10
-305.9327647722486
 20
176.4886080459123
 30
0.0000000000000073
 70
     8
  0
VERTEX
  5
365
330
358
100
AcDbEntity
  8
Main lines
  6
Continuous
100
AcDbVertex
100
AcDb2dVertex
 10
-306.2733139810891
 20
176.8970394146994
 30
0.0000000000000073
 70
     8
  0
VERTEX
  5
366
330
358
100
AcDbEntity
  8
Main lines
  6
Continuous
100
AcDbVertex
100
AcDb2dVertex
 10
-306.6357015251622
 20
177.2738759904485
 30
0.0000000000000073
 70
     8
  0
VERTEX
  5
367
330
358
100
AcDbEntity
  8
Main lines
  6
Continuous
100
AcDbVertex
100
AcDb2dVertex
 10
-307.0174977049821
 20
177.6192185654147
 30
0.0000000000000073
 70
     8
  0
VERTEX
  5
368
330
358
100
AcDbEntity
  8
Main lines
  6
Continuous
100
AcDbVertex
100
AcDb2dVertex
 10
-307.4162728210636
 20
177.9331679318534
 30
0.0000000000000073
 70
     8
  0
VERTEX
  5
369
330
358
100
AcDbEntity
  8
Main lines
  6
Continuous
100
AcDbVertex
100
AcDb2dVertex
 10
-307.8295971739209
 20
178.2158248820199
 30
0.0000000000000073
 70
     8
  0
VERTEX
  5
36A
330
358
100
AcDbEntity
  8
Main lines
  6
Continuous
100
AcDbVertex
100
AcDb2dVertex
 10
-308.2550410640686
 20
178.4672902081694
 30
0.0000000000000072
 70
     8
  0
VERTEX
  5
36B
330
358
100
AcDbEntity
  8
Main lines
  6
Continuous
100
AcDbVertex
100
AcDb2dVertex
 10
-308.4710905137304
 20
178.5811553932552
 30
0.0000000000000072
 70
     8
  0
VERTEX
  5
36C
330
358
100
AcDbEntity
  8
Main lines
  6
Continuous
100
AcDbVertex
100
AcDb2dVertex
 10
-308.6885168745986
 20
178.6869479083754
 30
0.0000000000000072
 70
     8
  0
VERTEX
  5
36D
330
358
100
AcDbEntity
  8
Main lines
  6
Continuous
100
AcDbVertex
100
AcDb2dVertex
 10
-308.9072778029437
 20
178.7848178606633
 30
0.0000000000000072
 70
     8
  0
VERTEX
  5
36E
330
358
100
AcDbEntity
  8
Main lines
  6
Continuous
100
AcDbVertex
100
AcDb2dVertex
 10
-309.127330955036
 20
178.8749153572525
 30
0.0000000000000072
 70
     8
  0
VERTEX
  5
36F
330
358
100
AcDbEntity
  8
Main lines
  6
Continuous
100
AcDbVertex
100
AcDb2dVertex
 10
-309.3486339871461
 20
178.9573905052763
 30
0.0000000000000072
 70
     8
  0
VERTEX
  5
370
330
358
100
AcDbEntity
  8
Main lines
  6
Continuous
100
AcDbVertex
100
AcDb2dVertex
 10
-309.5711445555446
 20
179.0323934118681
 30
0.0000000000000071
 70
     8
  0
VERTEX
  5
371
330
358
100
AcDbEntity
  8
Main lines
  6
Continuous
100
AcDbVertex
100
AcDb2dVertex
 10
-309.7948203165018
 20
179.1000741841615
 30
0.0000000000000071
 70
     8
  0
VERTEX
  5
372
330
358
100
AcDbEntity
  8
Main lines
  6
Continuous
100
AcDbVertex
100
AcDb2dVertex
 10
-310.0196189262882
 20
179.1605829292898
 30
0.0000000000000071
 70
     8
  0
VERTEX
  5
373
330
358
100
AcDbEntity
  8
Main lines
  6
Continuous
100
AcDbVertex
100
AcDb2dVertex
 10
-310.2133895772529
 20
179.2068029289748
 30
0.0000000000000071
 70
     8
  0
VERTEX
  5
374
330
358
100
AcDbEntity
  8
Main lines
  6
Continuous
100
AcDbVertex
100
AcDb2dVertex
 10
-310.4084713173372
 20
179.2478455316941
 30
0.0000000000000071
 70
     8
  0
VERTEX
  5
375
330
358
100
AcDbEntity
  8
Main lines
  6
Continuous
100
AcDbVertex
100
AcDb2dVertex
 10
-310.6046296484255
 20
179.2836975271068
 30
0.000000000000007
 70
     8
  0
VERTEX
  5
376
330
358
100
AcDbEntity
  8
Main lines
  6
Continuous
100
AcDbVertex
100
AcDb2dVertex
 10
-310.8016300724017
 20
179.3143457048721
 30
0.000000000000007
 70
     8
  0
VERTEX
  5
377
330
358
100
AcDbEntity
  8
Main lines
  6
Continuous
100
AcDbVertex
100
AcDb2dVertex
 10
-310.9992380911501
 20
179.3397768546491
 30
0.000000000000007
 70
     8
  0
VERTEX
  5
378
330
358
100
AcDbEntity
  8
Main lines
  6
Continuous
100
AcDbVertex
100
AcDb2dVertex
 10
-311.1972192065545
 20
179.3599777660968
 30
0.000000000000007
 70
     8
  0
VERTEX
  5
379
330
358
100
AcDbEntity
  8
Main lines
  6
Continuous
100
AcDbVertex
100
AcDb2dVertex
 10
-311.3953389204991
 20
179.3749352288743
 30
0.000000000000007
 70
     8
  0
VERTEX
  5
37A
330
358
100
AcDbEntity
  8
Main lines
  6
Continuous
100
AcDbVertex
100
AcDb2dVertex
 10
-311.593362734868
 20
179.3846360326408
 30
0.0000000000000069
 70
     8
  0
SEQEND
  5
359
330
358
100
AcDbEntity
  8
Main lines
  6
Continuous
  0
POLYLINE
  5
37D
102
{ACAD_XDICTIONARY
360
37B
102
}
330
1F
100
AcDbEntity
  8
Main lines
  6
DASHED
100
AcDb2dPolyline
 66
     1
 10
0.0
 20
0.0
 30
-0.0000000000000479
 70
   132
210
0.0
220
0.0
230
-1.0
 75
     6
  0
VERTEX
  5
37F
330
37D
100
AcDbEntity
  8
Main lines
  6
DASHED
100
AcDbVertex
100
AcDb2dVertex
 10
-315.1801665512806
 20
169.3528855079622
 30
0.0000000000000054
 70
    16
  0
VERTEX
  5
380
330
37D
100
AcDbEntity
  8
Main lines
  6
DASHED
100
AcDbVertex
100
AcDb2dVertex
 10
-315.1891270815623
 20
169.2532765858782
 30
0.0000000000000054
 70
    16
  0
VERTEX
  5
381
330
37D
100
AcDbEntity
  8
Main lines
  6
DASHED
100
AcDbVertex
100
AcDb2dVertex
 10
-315.1935803421711
 20
169.1536668907716
 30
0.0000000000000054
 70
    16
  0
VERTEX
  5
382
330
37D
100
AcDbEntity
  8
Main lines
  6
DASHED
100
AcDbVertex
100
AcDb2dVertex
 10
-315.1935803421711
 20
169.0540570113421
 30
0.0000000000000053
 70
    16
  0
VERTEX
  5
383
330
37D
100
AcDbEntity
  8
Main lines
  6
DASHED
100
AcDbVertex
100
AcDb2dVertex
 10
-315.1801665512806
 20
169.3528855079622
 30
0.0000000000000054
 70
     8
  0
VERTEX
  5
384
330
37D
100
AcDbEntity
  8
Main lines
  6
DASHED
100
AcDbVertex
100
AcDb2dVertex
 10
-315.1833155773568
 20
169.3155321270951
 30
0.0000000000000054
 70
     8
  0
VERTEX
  5
385
330
37D
100
AcDbEntity
  8
Main lines
  6
DASHED
100
AcDbVertex
100
AcDb2dVertex
 10
-315.1860426798198
 20
169.2781786806559
 30
0.0000000000000054
 70
     8
  0
VERTEX
  5
386
330
37D
100
AcDbEntity
  8
Main lines
  6
DASHED
100
AcDbVertex
100
AcDb2dVertex
 10
-315.1883484915885
 20
169.2408251755435
 30
0.0000000000000054
 70
     8
  0
VERTEX
  5
387
330
37D
100
AcDbEntity
  8
Main lines
  6
DASHED
100
AcDbVertex
100
AcDb2dVertex
 10
-315.1902336455815
 20
169.2034716186567
 30
0.0000000000000054
 70
     8
  0
VERTEX
  5
388
330
37D
100
AcDbEntity
  8
Main lines
  6
DASHED
100
AcDbVertex
100
AcDb2dVertex
 10
-315.1916987747176
 20
169.1661180168944
 30
0.0000000000000054
 70
     8
  0
VERTEX
  5
389
330
37D
100
AcDbEntity
  8
Main lines
  6
DASHED
100
AcDbVertex
100
AcDb2dVertex
 10
-315.1927445119153
 20
169.1287643771553
 30
0.0000000000000054
 70
     8
  0
VERTEX
  5
38A
330
37D
100
AcDbEntity
  8
Main lines
  6
DASHED
100
AcDbVertex
100
AcDb2dVertex
 10
-315.1933714900936
 20
169.0914107063383
 30
0.0000000000000053
 70
     8
  0
VERTEX
  5
38B
330
37D
100
AcDbEntity
  8
Main lines
  6
DASHED
100
AcDbVertex
100
AcDb2dVertex
 10
-315.1935803421711
 20
169.0540570113421
 30
0.0000000000000053
 70
     8
  0
SEQEND
  5
37E
330
37D
100
AcDbEntity
  8
Main lines
  6
DASHED
  0
POLYLINE
  5
38E
102
{ACAD_XDICTIONARY
360
38C
102
}
330
1F
100
AcDbEntity
  8
Main lines
  6
Continuous
100
AcDb2dPolyline
 66
     1
 10
0.0
 20
0.0
 30
319.3579530073092
 70
   132
210
1.0
220
0.0
230
0.0
 75
     6
  0
VERTEX
  5
390
330
38E
100
AcDbEntity
  8
Main lines
  6
Continuous
100
AcDbVertex
100
AcDb2dVertex
 10
141.5231056910226
 20
-0.00000000000002
 30
-0.0000000000000092
 70
    16
  0
VERTEX
  5
391
330
38E
100
AcDbEntity
  8
Main lines
  6
Continuous
100
AcDbVertex
100
AcDb2dVertex
 10
139.5105888699806
 20
-0.00000000000002
 30
-0.0000000000000093
 70
    16
  0
VERTEX
  5
392
330
38E
100
AcDbEntity
  8
Main lines
  6
Continuous
100
AcDbVertex
100
AcDb2dVertex
 10
137.7242272086008
 20
-0.00000000000002
 30
-0.0000000000000094
 70
    16
  0
VERTEX
  5
393
330
38E
100
AcDbEntity
  8
Main lines
  6
Continuous
100
AcDbVertex
100
AcDb2dVertex
 10
134.7149408012617
 20
-0.00000000000002
 30
-0.0000000000000096
 70
    16
  0
VERTEX
  5
394
330
38E
100
AcDbEntity
  8
Main lines
  6
Continuous
100
AcDbVertex
100
AcDb2dVertex
 10
133.4576913941429
 20
-0.00000000000002
 30
-0.0000000000000097
 70
    16
  0
VERTEX
  5
395
330
38E
100
AcDbEntity
  8
Main lines
  6
Continuous
100
AcDbVertex
100
AcDb2dVertex
 10
132.2386712303955
 20
-0.00000000000002
 30
-0.0000000000000097
 70
    16
  0
VERTEX
  5
396
330
38E
100
AcDbEntity
  8
Main lines
  6
Continuous
100
AcDbVertex
100
AcDb2dVertex
 10
141.5231056910226
 20
-0.00000000000002
 30
-0.0000000000000092
 70
     8
  0
VERTEX
  5
397
330
38E
100
AcDbEntity
  8
Main lines
  6
Continuous
100
AcDbVertex
100
AcDb2dVertex
 10
140.7791214283075
 20
-0.00000000000002
 30
-0.0000000000000092
 70
     8
  0
VERTEX
  5
398
330
38E
100
AcDbEntity
  8
Main lines
  6
Continuous
100
AcDbVertex
100
AcDb2dVertex
 10
140.0569903442097
 20
-0.00000000000002
 30
-0.0000000000000093
 70
     8
  0
VERTEX
  5
399
330
38E
100
AcDbEntity
  8
Main lines
  6
Continuous
100
AcDbVertex
100
AcDb2dVertex
 10
139.3573635711283
 20
-0.00000000000002
 30
-0.0000000000000093
 70
     8
  0
VERTEX
  5
39A
330
38E
100
AcDbEntity
  8
Main lines
  6
Continuous
100
AcDbVertex
100
AcDb2dVertex
 10
138.6808922414622
 20
-0.00000000000002
 30
-0.0000000000000093
 70
     8
  0
VERTEX
  5
39B
330
38E
100
AcDbEntity
  8
Main lines
  6
Continuous
100
AcDbVertex
100
AcDb2dVertex
 10
138.0282274876105
 20
-0.00000000000002
 30
-0.0000000000000094
 70
     8
  0
VERTEX
  5
39C
330
38E
100
AcDbEntity
  8
Main lines
  6
Continuous
100
AcDbVertex
100
AcDb2dVertex
 10
137.4000204419721
 20
-0.00000000000002
 30
-0.0000000000000094
 70
     8
  0
VERTEX
  5
39D
330
38E
100
AcDbEntity
  8
Main lines
  6
Continuous
100
AcDbVertex
100
AcDb2dVertex
 10
136.796922236946
 20
-0.00000000000002
 30
-0.0000000000000095
 70
     8
  0
VERTEX
  5
39E
330
38E
100
AcDbEntity
  8
Main lines
  6
Continuous
100
AcDbVertex
100
AcDb2dVertex
 10
136.2195840049313
 20
-0.00000000000002
 30
-0.0000000000000095
 70
     8
  0
VERTEX
  5
39F
330
38E
100
AcDbEntity
  8
Main lines
  6
Continuous
100
AcDbVertex
100
AcDb2dVertex
 10
135.6665308632506
 20
-0.00000000000002
 30
-0.0000000000000095
 70
     8
  0
VERTEX
  5
3A0
330
38E
100
AcDbEntity
  8
Main lines
  6
Continuous
100
AcDbVertex
100
AcDb2dVertex
 10
135.1342197428889
 20
-0.00000000000002
 30
-0.0000000000000096
 70
     8
  0
VERTEX
  5
3A1
330
38E
100
AcDbEntity
  8
Main lines
  6
Continuous
100
AcDbVertex
100
AcDb2dVertex
 10
134.6201994967388
 20
-0.00000000000002
 30
-0.0000000000000096
 70
     8
  0
VERTEX
  5
3A2
330
38E
100
AcDbEntity
  8
Main lines
  6
Continuous
100
AcDbVertex
100
AcDb2dVertex
 10
134.1220189776925
 20
-0.00000000000002
 30
-0.0000000000000096
 70
     8
  0
VERTEX
  5
3A3
330
38E
100
AcDbEntity
  8
Main lines
  6
Continuous
100
AcDbVertex
100
AcDb2dVertex
 10
133.6372270386427
 20
-0.00000000000002
 30
-0.0000000000000097
 70
     8
  0
VERTEX
  5
3A4
330
38E
100
AcDbEntity
  8
Main lines
  6
Continuous
100
AcDbVertex
100
AcDb2dVertex
 10
133.1633725324816
 20
-0.00000000000002
 30
-0.0000000000000097
 70
     8
  0
VERTEX
  5
3A5
330
38E
100
AcDbEntity
  8
Main lines
  6
Continuous
100
AcDbVertex
100
AcDb2dVertex
 10
132.6980043121017
 20
-0.00000000000002
 30
-0.0000000000000097
 70
     8
  0
VERTEX
  5
3A6
330
38E
100
AcDbEntity
  8
Main lines
  6
Continuous
100
AcDbVertex
100
AcDb2dVertex
 10
132.2386712303955
 20
-0.00000000000002
 30
-0.0000000000000097
 70
     8
  0
SEQEND
  5
38F
330
38E
100
AcDbEntity
  8
Main lines
  6
Continuous
  0
POLYLINE
  5
3A9
102
{ACAD_XDICTIONARY
360
3A7
102
}
330
1F
100
AcDbEntity
  8
Main lines
  6
Continuous
100
AcDb2dPolyline
 66
     1
 10
0.0
 20
0.0
 30
-304.3579530073092
 70
   132
210
-1.0
220
0.0
230
0.0
 75
     6
  0
VERTEX
  5
3AB
330
3A9
100
AcDbEntity
  8
Main lines
  6
Continuous
100
AcDbVertex
100
AcDb2dVertex
 10
-132.2386712303955
 20
0.0000000000000191
 30
0.0000000000000292
 70
    16
  0
VERTEX
  5
3AC
330
3A9
100
AcDbEntity
  8
Main lines
  6
Continuous
100
AcDbVertex
100
AcDb2dVertex
 10
-133.457691394143
 20
0.0000000000000191
 30
0.000000000000029
 70
    16
  0
VERTEX
  5
3AD
330
3A9
100
AcDbEntity
  8
Main lines
  6
Continuous
100
AcDbVertex
100
AcDb2dVertex
 10
-134.7149408012618
 20
0.0000000000000191
 30
0.0000000000000288
 70
    16
  0
VERTEX
  5
3AE
330
3A9
100
AcDbEntity
  8
Main lines
  6
Continuous
100
AcDbVertex
100
AcDb2dVertex
 10
-137.7242272086008
 20
0.0000000000000191
 30
0.0000000000000282
 70
    16
  0
VERTEX
  5
3AF
330
3A9
100
AcDbEntity
  8
Main lines
  6
Continuous
100
AcDbVertex
100
AcDb2dVertex
 10
-139.5105888699806
 20
0.0000000000000191
 30
0.0000000000000279
 70
    16
  0
VERTEX
  5
3B0
330
3A9
100
AcDbEntity
  8
Main lines
  6
Continuous
100
AcDbVertex
100
AcDb2dVertex
 10
-141.5231056910226
 20
0.0000000000000191
 30
0.0000000000000275
 70
    16
  0
VERTEX
  5
3B1
330
3A9
100
AcDbEntity
  8
Main lines
  6
Continuous
100
AcDbVertex
100
AcDb2dVertex
 10
-132.2386712303955
 20
0.0000000000000191
 30
0.0000000000000292
 70
     8
  0
VERTEX
  5
3B2
330
3A9
100
AcDbEntity
  8
Main lines
  6
Continuous
100
AcDbVertex
100
AcDb2dVertex
 10
-132.6980043121017
 20
0.0000000000000191
 30
0.0000000000000291
 70
     8
  0
VERTEX
  5
3B3
330
3A9
100
AcDbEntity
  8
Main lines
  6
Continuous
100
AcDbVertex
100
AcDb2dVertex
 10
-133.1633725324816
 20
0.0000000000000191
 30
0.000000000000029
 70
     8
  0
VERTEX
  5
3B4
330
3A9
100
AcDbEntity
  8
Main lines
  6
Continuous
100
AcDbVertex
100
AcDb2dVertex
 10
-133.6372270386428
 20
0.0000000000000191
 30
0.000000000000029
 70
     8
  0
VERTEX
  5
3B5
330
3A9
100
AcDbEntity
  8
Main lines
  6
Continuous
100
AcDbVertex
100
AcDb2dVertex
 10
-134.1220189776926
 20
0.0000000000000191
 30
0.0000000000000289
 70
     8
  0
VERTEX
  5
3B6
330
3A9
100
AcDbEntity
  8
Main lines
  6
Continuous
100
AcDbVertex
100
AcDb2dVertex
 10
-134.6201994967388
 20
0.0000000000000191
 30
0.0000000000000288
 70
     8
  0
VERTEX
  5
3B7
330
3A9
100
AcDbEntity
  8
Main lines
  6
Continuous
100
AcDbVertex
100
AcDb2dVertex
 10
-135.134219742889
 20
0.0000000000000191
 30
0.0000000000000287
 70
     8
  0
VERTEX
  5
3B8
330
3A9
100
AcDbEntity
  8
Main lines
  6
Continuous
100
AcDbVertex
100
AcDb2dVertex
 10
-135.6665308632506
 20
0.0000000000000191
 30
0.0000000000000286
 70
     8
  0
VERTEX
  5
3B9
330
3A9
100
AcDbEntity
  8
Main lines
  6
Continuous
100
AcDbVertex
100
AcDb2dVertex
 10
-136.2195840049313
 20
0.0000000000000191
 30
0.0000000000000285
 70
     8
  0
VERTEX
  5
3BA
330
3A9
100
AcDbEntity
  8
Main lines
  6
Continuous
100
AcDbVertex
100
AcDb2dVertex
 10
-136.796922236946
 20
0.0000000000000191
 30
0.0000000000000284
 70
     8
  0
VERTEX
  5
3BB
330
3A9
100
AcDbEntity
  8
Main lines
  6
Continuous
100
AcDbVertex
100
AcDb2dVertex
 10
-137.4000204419721
 20
0.0000000000000191
 30
0.0000000000000283
 70
     8
  0
VERTEX
  5
3BC
330
3A9
100
AcDbEntity
  8
Main lines
  6
Continuous
100
AcDbVertex
100
AcDb2dVertex
 10
-138.0282274876105
 20
0.0000000000000191
 30
0.0000000000000282
 70
     8
  0
VERTEX
  5
3BD
330
3A9
100
AcDbEntity
  8
Main lines
  6
Continuous
100
AcDbVertex
100
AcDb2dVertex
 10
-138.6808922414622
 20
0.0000000000000191
 30
0.000000000000028
 70
     8
  0
VERTEX
  5
3BE
330
3A9
100
AcDbEntity
  8
Main lines
  6
Continuous
100
AcDbVertex
100
AcDb2dVertex
 10
-139.3573635711283
 20
0.0000000000000191
 30
0.0000000000000279
 70
     8
  0
VERTEX
  5
3BF
330
3A9
100
AcDbEntity
  8
Main lines
  6
Continuous
100
AcDbVertex
100
AcDb2dVertex
 10
-140.0569903442098
 20
0.0000000000000191
 30
0.0000000000000278
 70
     8
  0
VERTEX
  5
3C0
330
3A9
100
AcDbEntity
  8
Main lines
  6
Continuous
100
AcDbVertex
100
AcDb2dVertex
 10
-140.7791214283075
 20
0.0000000000000191
 30
0.0000000000000276
 70
     8
  0
VERTEX
  5
3C1
330
3A9
100
AcDbEntity
  8
Main lines
  6
Continuous
100
AcDbVertex
100
AcDb2dVertex
 10
-141.5231056910226
 20
0.0000000000000191
 30
0.0000000000000275
 70
     8
  0
SEQEND
  5
3AA
330
3A9
100
AcDbEntity
  8
Main lines
  6
Continuous
  0
POLYLINE
  5
3C4
102
{ACAD_XDICTIONARY
360
3C2
102
}
330
1F
100
AcDbEntity
  8
Main lines
  6
Durchgehend
100
AcDb2dPolyline
 66
     1
 10
0.0
 20
0.0
 30
-0.0000000000000479
 70
   132
210
0.0
220
0.0
230
-1.0
 75
     6
  0
VERTEX
  5
3C6
330
3C4
100
AcDbEntity
  8
Main lines
  6
Durchgehend
100
AcDbVertex
100
AcDb2dVertex
 10
-317.1013501110152
 20
114.7518296331705
 30
-0.0000000000000009
 70
    16
  0
VERTEX
  5
3C7
330
3C4
100
AcDbEntity
  8
Main lines
  6
Durchgehend
100
AcDbVertex
100
AcDb2dVertex
 10
-317.1337802004387
 20
114.7210137474949
 30
-0.0000000000000009
 70
    16
  0
VERTEX
  5
3C8
330
3C4
100
AcDbEntity
  8
Main lines
  6
Durchgehend
100
AcDbVertex
100
AcDb2dVertex
 10
-317.1623444473743
 20
114.6852015649501
 30
-0.0000000000000009
 70
    16
  0
VERTEX
  5
3C9
330
3C4
100
AcDbEntity
  8
Main lines
  6
Durchgehend
100
AcDbVertex
100
AcDb2dVertex
 10
-317.1847543378335
 20
114.6481533314818
 30
-0.0000000000000009
 70
    16
  0
VERTEX
  5
3CA
330
3C4
100
AcDbEntity
  8
Main lines
  6
Durchgehend
100
AcDbVertex
100
AcDb2dVertex
 10
-317.2070539065248
 20
114.6112874829572
 30
-0.0000000000000009
 70
    16
  0
VERTEX
  5
3CB
330
3C4
100
AcDbEntity
  8
Main lines
  6
Durchgehend
100
AcDbVertex
100
AcDb2dVertex
 10
-317.2240061381348
 20
114.5722646439329
 30
-0.000000000000001
 70
    16
  0
VERTEX
  5
3CC
330
3C4
100
AcDbEntity
  8
Main lines
  6
Durchgehend
100
AcDbVertex
100
AcDb2dVertex
 10
-317.2355954244002
 20
114.5338760202709
 30
-0.000000000000001
 70
    16
  0
VERTEX
  5
3CD
330
3C4
100
AcDbEntity
  8
Main lines
  6
Durchgehend
100
AcDbVertex
100
AcDb2dVertex
 10
-317.2519125118238
 20
114.4798269171584
 30
-0.000000000000001
 70
    16
  0
VERTEX
  5
3CE
330
3C4
100
AcDbEntity
  8
Main lines
  6
Durchgehend
100
AcDbVertex
100
AcDb2dVertex
 10
-317.2582170810318
 20
114.4255036152091
 30
-0.000000000000001
 70
    16
  0
VERTEX
  5
3CF
330
3C4
100
AcDbEntity
  8
Main lines
  6
Durchgehend
100
AcDbVertex
100
AcDb2dVertex
 10
-317.2567147389487
 20
114.3746157831397
 30
-0.000000000000001
 70
    16
  0
VERTEX
  5
3D0
330
3C4
100
AcDbEntity
  8
Main lines
  6
Durchgehend
100
AcDbVertex
100
AcDb2dVertex
 10
-317.2546744047572
 20
114.3055049029481
 30
-0.000000000000001
 70
    16
  0
VERTEX
  5
3D1
330
3C4
100
AcDbEntity
  8
Main lines
  6
Durchgehend
100
AcDbVertex
100
AcDb2dVertex
 10
-317.2383811199525
 20
114.2404295138536
 30
-0.000000000000001
 70
    16
  0
VERTEX
  5
3D2
330
3C4
100
AcDbEntity
  8
Main lines
  6
Durchgehend
100
AcDbVertex
100
AcDb2dVertex
 10
-317.2123539383948
 20
114.1829940496482
 30
-0.000000000000001
 70
    16
  0
VERTEX
  5
3D3
330
3C4
100
AcDbEntity
  8
Main lines
  6
Durchgehend
100
AcDbVertex
100
AcDb2dVertex
 10
-317.1869312795519
 20
114.1268926155094
 30
-0.000000000000001
 70
    16
  0
VERTEX
  5
3D4
330
3C4
100
AcDbEntity
  8
Main lines
  6
Durchgehend
100
AcDbVertex
100
AcDb2dVertex
 10
-317.1516623769344
 20
114.0766983193245
 30
-0.000000000000001
 70
    16
  0
VERTEX
  5
3D5
330
3C4
100
AcDbEntity
  8
Main lines
  6
Durchgehend
100
AcDbVertex
100
AcDb2dVertex
 10
-317.109229859448
 20
114.0345656957579
 30
-0.000000000000001
 70
    16
  0
VERTEX
  5
3D6
330
3C4
100
AcDbEntity
  8
Main lines
  6
Durchgehend
100
AcDbVertex
100
AcDb2dVertex
 10
-317.1084423656959
 20
114.0337837676569
 30
-0.000000000000001
 70
    16
  0
VERTEX
  5
3D7
330
3C4
100
AcDbEntity
  8
Main lines
  6
Durchgehend
100
AcDbVertex
100
AcDb2dVertex
 10
-317.1076522737749
 20
114.0330044663854
 30
-0.000000000000001
 70
    16
  0
VERTEX
  5
3D8
330
3C4
100
AcDbEntity
  8
Main lines
  6
Durchgehend
100
AcDbVertex
100
AcDb2dVertex
 10
-317.1068595989873
 20
114.0322278068808
 30
-0.000000000000001
 70
    16
  0
VERTEX
  5
3D9
330
3C4
100
AcDbEntity
  8
Main lines
  6
Durchgehend
100
AcDbVertex
100
AcDb2dVertex
 10
-317.1013501110152
 20
114.7518296331705
 30
-0.0000000000000009
 70
     8
  0
VERTEX
  5
3DA
330
3C4
100
AcDbEntity
  8
Main lines
  6
Durchgehend
100
AcDbVertex
100
AcDb2dVertex
 10
-317.1133257134285
 20
114.7400468188568
 30
-0.0000000000000009
 70
     8
  0
VERTEX
  5
3DB
330
3C4
100
AcDbEntity
  8
Main lines
  6
Durchgehend
100
AcDbVertex
100
AcDb2dVertex
 10
-317.1249120745853
 20
114.7278396670937
 30
-0.0000000000000009
 70
     8
  0
VERTEX
  5
3DC
330
3C4
100
AcDbEntity
  8
Main lines
  6
Durchgehend
100
AcDbVertex
100
AcDb2dVertex
 10
-317.1360823759622
 20
114.7152522432635
 30
-0.0000000000000009
 70
     8
  0
VERTEX
  5
3DD
330
3C4
100
AcDbEntity
  8
Main lines
  6
Durchgehend
100
AcDbVertex
100
AcDb2dVertex
 10
-317.146809799036
 20
114.7023286127484
 30
-0.0000000000000009
 70
     8
  0
VERTEX
  5
3DE
330
3C4
100
AcDbEntity
  8
Main lines
  6
Durchgehend
100
AcDbVertex
100
AcDb2dVertex
 10
-317.1570675252833
 20
114.6891128409305
 30
-0.0000000000000009
 70
     8
  0
VERTEX
  5
3DF
330
3C4
100
AcDbEntity
  8
Main lines
  6
Durchgehend
100
AcDbVertex
100
AcDb2dVertex
 10
-317.1668287361808
 20
114.6756489931919
 30
-0.0000000000000009
 70
     8
  0
VERTEX
  5
3E0
330
3C4
100
AcDbEntity
  8
Main lines
  6
Durchgehend
100
AcDbVertex
100
AcDb2dVertex
 10
-317.1760666132054
 20
114.661981134915
 30
-0.0000000000000009
 70
     8
  0
VERTEX
  5
3E1
330
3C4
100
AcDbEntity
  8
Main lines
  6
Durchgehend
100
AcDbVertex
100
AcDb2dVertex
 10
-317.1847543378335
 20
114.6481533314817
 30
-0.0000000000000009
 70
     8
  0
VERTEX
  5
3E2
330
3C4
100
AcDbEntity
  8
Main lines
  6
Durchgehend
100
AcDbVertex
100
AcDb2dVertex
 10
-317.1928659891821
 20
114.6342329809293
 30
-0.0000000000000009
 70
     8
  0
VERTEX
  5
3E3
330
3C4
100
AcDbEntity
  8
Main lines
  6
Durchgehend
100
AcDbVertex
100
AcDb2dVertex
 10
-317.2004761447701
 20
114.6201431219612
 30
-0.0000000000000009
 70
     8
  0
VERTEX
  5
3E4
330
3C4
100
AcDbEntity
  8
Main lines
  6
Durchgehend
100
AcDbVertex
100
AcDb2dVertex
 10
-317.207584621688
 20
114.6059164640212
 30
-0.0000000000000009
 70
     8
  0
VERTEX
  5
3E5
330
3C4
100
AcDbEntity
  8
Main lines
  6
Durchgehend
100
AcDbVertex
100
AcDb2dVertex
 10
-317.2141912370265
 20
114.5915857165529
 30
-0.0000000000000009
 70
     8
  0
VERTEX
  5
3E6
330
3C4
100
AcDbEntity
  8
Main lines
  6
Durchgehend
100
AcDbVertex
100
AcDb2dVertex
 10
-317.2202958078764
 20
114.577183589
 30
-0.000000000000001
 70
     8
  0
VERTEX
  5
3E7
330
3C4
100
AcDbEntity
  8
Main lines
  6
Durchgehend
100
AcDbVertex
100
AcDb2dVertex
 10
-317.2258981513281
 20
114.5627427908062
 30
-0.000000000000001
 70
     8
  0
VERTEX
  5
3E8
330
3C4
100
AcDbEntity
  8
Main lines
  6
Durchgehend
100
AcDbVertex
100
AcDb2dVertex
 10
-317.2309980844725
 20
114.5482960314153
 30
-0.000000000000001
 70
     8
  0
VERTEX
  5
3E9
330
3C4
100
AcDbEntity
  8
Main lines
  6
Durchgehend
100
AcDbVertex
100
AcDb2dVertex
 10
-317.2355954244002
 20
114.5338760202709
 30
-0.000000000000001
 70
     8
  0
VERTEX
  5
3EA
330
3C4
100
AcDbEntity
  8
Main lines
  6
Durchgehend
100
AcDbVertex
100
AcDb2dVertex
 10
-317.2412493032188
 20
114.5136019989799
 30
-0.000000000000001
 70
     8
  0
VERTEX
  5
3EB
330
3C4
100
AcDbEntity
  8
Main lines
  6
Durchgehend
100
AcDbVertex
100
AcDb2dVertex
 10
-317.2459903554106
 20
114.4933457442283
 30
-0.000000000000001
 70
     8
  0
VERTEX
  5
3EC
330
3C4
100
AcDbEntity
  8
Main lines
  6
Durchgehend
100
AcDbVertex
100
AcDb2dVertex
 10
-317.2498444279322
 20
114.4731507286963
 30
-0.000000000000001
 70
     8
  0
VERTEX
  5
3ED
330
3C4
100
AcDbEntity
  8
Main lines
  6
Durchgehend
100
AcDbVertex
100
AcDb2dVertex
 10
-317.2528373677395
 20
114.4530604250641
 30
-0.000000000000001
 70
     8
  0
VERTEX
  5
3EE
330
3C4
100
AcDbEntity
  8
Main lines
  6
Durchgehend
100
AcDbVertex
100
AcDb2dVertex
 10
-317.2549950217887
 20
114.4331183060121
 30
-0.000000000000001
 70
     8
  0
VERTEX
  5
3EF
330
3C4
100
AcDbEntity
  8
Main lines
  6
Durchgehend
100
AcDbVertex
100
AcDb2dVertex
 10
-317.2563432370358
 20
114.4133678442205
 30
-0.000000000000001
 70
     8
  0
VERTEX
  5
3F0
330
3C4
100
AcDbEntity
  8
Main lines
  6
Durchgehend
100
AcDbVertex
100
AcDb2dVertex
 10
-317.2569078604371
 20
114.3938525123697
 30
-0.000000000000001
 70
     8
  0
VERTEX
  5
3F1
330
3C4
100
AcDbEntity
  8
Main lines
  6
Durchgehend
100
AcDbVertex
100
AcDb2dVertex
 10
-317.2567147389487
 20
114.3746157831397
 30
-0.000000000000001
 70
     8
  0
VERTEX
  5
3F2
330
3C4
100
AcDbEntity
  8
Main lines
  6
Durchgehend
100
AcDbVertex
100
AcDb2dVertex
 10
-317.255290332844
 20
114.3488954066228
 30
-0.000000000000001
 70
     8
  0
VERTEX
  5
3F3
330
3C4
100
AcDbEntity
  8
Main lines
  6
Durchgehend
100
AcDbVertex
100
AcDb2dVertex
 10
-317.2525826702817
 20
114.3235955968547
 30
-0.000000000000001
 70
     8
  0
VERTEX
  5
3F4
330
3C4
100
AcDbEntity
  8
Main lines
  6
Durchgehend
100
AcDbVertex
100
AcDb2dVertex
 10
-317.2486447089242
 20
114.298758593294
 30
-0.000000000000001
 70
     8
  0
VERTEX
  5
3F5
330
3C4
100
AcDbEntity
  8
Main lines
  6
Durchgehend
100
AcDbVertex
100
AcDb2dVertex
 10
-317.243529406434
 20
114.2744266353992
 30
-0.000000000000001
 70
     8
  0
VERTEX
  5
3F6
330
3C4
100
AcDbEntity
  8
Main lines
  6
Durchgehend
100
AcDbVertex
100
AcDb2dVertex
 10
-317.2372897204737
 20
114.2506419626286
 30
-0.000000000000001
 70
     8
  0
VERTEX
  5
3F7
330
3C4
100
AcDbEntity
  8
Main lines
  6
Durchgehend
100
AcDbVertex
100
AcDb2dVertex
 10
-317.2299786087053
 20
114.227446814441
 30
-0.000000000000001
 70
     8
  0
VERTEX
  5
3F8
330
3C4
100
AcDbEntity
  8
Main lines
  6
Durchgehend
100
AcDbVertex
100
AcDb2dVertex
 10
-317.2216490287915
 20
114.2048834302947
 30
-0.000000000000001
 70
     8
  0
VERTEX
  5
3F9
330
3C4
100
AcDbEntity
  8
Main lines
  6
Durchgehend
100
AcDbVertex
100
AcDb2dVertex
 10
-317.2123539383948
 20
114.1829940496482
 30
-0.000000000000001
 70
     8
  0
VERTEX
  5
3FA
330
3C4
100
AcDbEntity
  8
Main lines
  6
Durchgehend
100
AcDbVertex
100
AcDb2dVertex
 10
-317.2023641381613
 20
114.1622371170133
 30
-0.000000000000001
 70
     8
  0
VERTEX
  5
3FB
330
3C4
100
AcDbEntity
  8
Main lines
  6
Durchgehend
100
AcDbVertex
100
AcDb2dVertex
 10
-317.1914826896315
 20
114.1420592270146
 30
-0.000000000000001
 70
     8
  0
VERTEX
  5
3FC
330
3C4
100
AcDbEntity
  8
Main lines
  6
Durchgehend
100
AcDbVertex
100
AcDb2dVertex
 10
-317.1797410298628
 20
114.1224856281053
 30
-0.000000000000001
 70
     8
  0
VERTEX
  5
3FD
330
3C4
100
AcDbEntity
  8
Main lines
  6
Durchgehend
100
AcDbVertex
100
AcDb2dVertex
 10
-317.1671705959127
 20
114.1035415687385
 30
-0.000000000000001
 70
     8
  0
VERTEX
  5
3FE
330
3C4
100
AcDbEntity
  8
Main lines
  6
Durchgehend
100
AcDbVertex
100
AcDb2dVertex
 10
-317.1538028248386
 20
114.0852522973673
 30
-0.000000000000001
 70
     8
  0
VERTEX
  5
3FF
330
3C4
100
AcDbEntity
  8
Main lines
  6
Durchgehend
100
AcDbVertex
100
AcDb2dVertex
 10
-317.1396691536982
 20
114.0676430624447
 30
-0.000000000000001
 70
     8
  0
VERTEX
  5
400
330
3C4
100
AcDbEntity
  8
Main lines
  6
Durchgehend
100
AcDbVertex
100
AcDb2dVertex
 10
-317.1248010195488
 20
114.0507391124239
 30
-0.000000000000001
 70
     8
  0
VERTEX
  5
401
330
3C4
100
AcDbEntity
  8
Main lines
  6
Durchgehend
100
AcDbVertex
100
AcDb2dVertex
 10
-317.109229859448
 20
114.0345656957579
 30
-0.000000000000001
 70
     8
  0
VERTEX
  5
402
330
3C4
100
AcDbEntity
  8
Main lines
  6
Durchgehend
100
AcDbVertex
100
AcDb2dVertex
 10
-317.1089344275317
 20
114.0342725958818
 30
-0.000000000000001
 70
     8
  0
VERTEX
  5
403
330
3C4
100
AcDbEntity
  8
Main lines
  6
Durchgehend
100
AcDbVertex
100
AcDb2dVertex
 10
-317.1086387522163
 20
114.0339797424461
 30
-0.000000000000001
 70
     8
  0
VERTEX
  5
404
330
3C4
100
AcDbEntity
  8
Main lines
  6
Durchgehend
100
AcDbVertex
100
AcDb2dVertex
 10
-317.1083428336813
 20
114.0336871356257
 30
-0.000000000000001
 70
     8
  0
VERTEX
  5
405
330
3C4
100
AcDbEntity
  8
Main lines
  6
Durchgehend
100
AcDbVertex
100
AcDb2dVertex
 10
-317.108046672106
 20
114.0333947755957
 30
-0.000000000000001
 70
     8
  0
VERTEX
  5
406
330
3C4
100
AcDbEntity
  8
Main lines
  6
Durchgehend
100
AcDbVertex
100
AcDb2dVertex
 10
-317.1077502676695
 20
114.0331026625312
 30
-0.000000000000001
 70
     8
  0
VERTEX
  5
407
330
3C4
100
AcDbEntity
  8
Main lines
  6
Durchgehend
100
AcDbVertex
100
AcDb2dVertex
 10
-317.1074536205515
 20
114.0328107966072
 30
-0.000000000000001
 70
     8
  0
VERTEX
  5
408
330
3C4
100
AcDbEntity
  8
Main lines
  6
Durchgehend
100
AcDbVertex
100
AcDb2dVertex
 10
-317.1071567309309
 20
114.0325191779987
 30
-0.000000000000001
 70
     8
  0
VERTEX
  5
409
330
3C4
100
AcDbEntity
  8
Main lines
  6
Durchgehend
100
AcDbVertex
100
AcDb2dVertex
 10
-317.1068595989873
 20
114.0322278068808
 30
-0.000000000000001
 70
     8
  0
SEQEND
  5
3C5
330
3C4
100
AcDbEntity
  8
Main lines
  6
Durchgehend
  0
LINE
  5
40C
102
{ACAD_XDICTIONARY
360
40A
102
}
330
1F
100
AcDbEntity
  8
Main lines
  6
Durchgehend
370
     0
100
AcDbLine
 10
311.593362734868
 20
179.3846360326409
 30
0.0
 11
312.1225432797443
 21
179.3846360326411
 31
0.0
  0
VIEWPORT
  5
40D
330
1B
100
AcDbEntity
 67
     1
  8
0
100
AcDbViewport
 10
148.5
 20
103.5284452409174
 30
0.0
 40
297.0
 41
212.9431095181651
 68
     1
 69
     1
 12
148.5
 22
103.5284452409174
 13
0.0
 23
0.0
 14
5.0
 24
5.0
 15
5.0
 25
5.0
 16
0.0
 26
0.0
 36
1.0
 17
0.0
 27
0.0
 37
0.0
 42
50.0
 43
0.0
 44
0.0
 45
212.9431095181651
 50
0.0
 51
0.0
 72
  1000
 90
    32800
  1

281
     0
 71
     1
 74
     0
110
0.0
120
0.0
130
0.0
111
1.0
121
0.0
131
0.0
112
0.0
122
1.0
132
0.0
 79
     0
146
0.0
170
     0
  0
ENDSEC
  0
SECTION
  2
OBJECTS
  0
DICTIONARY
  5
C
330
0
100
AcDbDictionary
281
     1
  3
ACAD_GROUP
350
D
  3
ACAD_LAYOUT
350
1A
  3
ACAD_MLINESTYLE
350
17
  3
ACAD_PLOTSETTINGS
350
19
  3
ACAD_PLOTSTYLENAME
350
E
  3
ACAD_TABLESTYLE
350
40E
  3
ACAD_VISUALSTYLE
350
2A
  0
DICTIONARY
  5
5C
330
5E
100
AcDbDictionary
280
     1
281
     1
  3
TC_OPTIONAL_DATA
360
5D
  0
DICTIONARY
  5
5F
330
61
100
AcDbDictionary
280
     1
281
     1
  3
TC_OPTIONAL_DATA
360
60
  0
DICTIONARY
  5
62
330
64
100
AcDbDictionary
280
     1
281
     1
  3
TC_OPTIONAL_DATA
360
63
  0
DICTIONARY
  5
65
330
67
100
AcDbDictionary
280
     1
281
     1
  3
TC_OPTIONAL_DATA
360
66
  0
DICTIONARY
  5
68
330
6A
100
AcDbDictionary
280
     1
281
     1
  3
TC_OPTIONAL_DATA
360
69
  0
DICTIONARY
  5
6B
330
6D
100
AcDbDictionary
280
     1
281
     1
  3
TC_OPTIONAL_DATA
360
6C
  0
DICTIONARY
  5
6E
330
70
100
AcDbDictionary
280
     1
281
     1
  3
TC_OPTIONAL_DATA
360
6F
  0
DICTIONARY
  5
71
330
73
100
AcDbDictionary
280
     1
281
     1
  3
TC_OPTIONAL_DATA
360
72
  0
DICTIONARY
  5
74
330
76
100
AcDbDictionary
280
     1
281
     1
  3
TC_OPTIONAL_DATA
360
75
  0
DICTIONARY
  5
77
330
79
100
AcDbDictionary
280
     1
281
     1
  3
TC_OPTIONAL_DATA
360
78
  0
DICTIONARY
  5
7A
330
7C
100
AcDbDictionary
280
     1
281
     1
  3
TC_OPTIONAL_DATA
360
7B
  0
DICTIONARY
  5
7D
330
7F
100
AcDbDictionary
280
     1
281
     1
  3
TC_OPTIONAL_DATA
360
7E
  0
DICTIONARY
  5
80
330
82
100
AcDbDictionary
280
     1
281
     1
  3
TC_OPTIONAL_DATA
360
81
  0
DICTIONARY
  5
83
330
85
100
AcDbDictionary
280
     1
281
     1
  3
TC_OPTIONAL_DATA
360
84
  0
DICTIONARY
  5
86
330
88
100
AcDbDictionary
280
     1
281
     1
  3
TC_OPTIONAL_DATA
360
87
  0
DICTIONARY
  5
89
330
8B
100
AcDbDictionary
280
     1
281
     1
  3
TC_OPTIONAL_DATA
360
8A
  0
DICTIONARY
  5
8C
330
8E
100
AcDbDictionary
280
     1
281
     1
  3
TC_OPTIONAL_DATA
360
8D
  0
DICTIONARY
  5
8F
330
91
100
AcDbDictionary
280
     1
281
     1
  3
TC_OPTIONAL_DATA
360
90
  0
DICTIONARY
  5
92
330
94
100
AcDbDictionary
280
     1
281
     1
  3
TC_OPTIONAL_DATA
360
93
  0
DICTIONARY
  5
95
330
97
100
AcDbDictionary
280
     1
281
     1
  3
TC_OPTIONAL_DATA
360
96
  0
DICTIONARY
  5
98
330
9A
100
AcDbDictionary
280
     1
281
     1
  3
TC_OPTIONAL_DATA
360
99
  0
DICTIONARY
  5
9B
330
9D
100
AcDbDictionary
280
     1
281
     1
  3
TC_OPTIONAL_DATA
360
9C
  0
DICTIONARY
  5
9E
330
A0
100
AcDbDictionary
280
     1
281
     1
  3
TC_OPTIONAL_DATA
360
9F
  0
DICTIONARY
  5
A1
330
A3
100
AcDbDictionary
280
     1
281
     1
  3
TC_OPTIONAL_DATA
360
A2
  0
DICTIONARY
  5
A4
330
A6
100
AcDbDictionary
280
     1
281
     1
  3
TC_OPTIONAL_DATA
360
A5
  0
DICTIONARY
  5
A7
330
A9
100
AcDbDictionary
280
     1
281
     1
  3
TC_OPTIONAL_DATA
360
A8
  0
DICTIONARY
  5
AA
330
AC
100
AcDbDictionary
280
     1
281
     1
  3
TC_OPTIONAL_DATA
360
AB
  0
DICTIONARY
  5
AD
330
AF
100
AcDbDictionary
280
     1
281
     1
  3
TC_OPTIONAL_DATA
360
AE
  0
DICTIONARY
  5
B0
330
B2
100
AcDbDictionary
280
     1
281
     1
  3
TC_OPTIONAL_DATA
360
B1
  0
DICTIONARY
  5
B3
330
B5
100
AcDbDictionary
280
     1
281
     1
  3
TC_OPTIONAL_DATA
360
B4
  0
DICTIONARY
  5
B6
330
B8
100
AcDbDictionary
280
     1
281
     1
  3
TC_OPTIONAL_DATA
360
B7
  0
DICTIONARY
  5
B9
330
BB
100
AcDbDictionary
280
     1
281
     1
  3
TC_OPTIONAL_DATA
360
BA
  0
DICTIONARY
  5
BC
330
BE
100
AcDbDictionary
280
     1
281
     1
  3
TC_OPTIONAL_DATA
360
BD
  0
DICTIONARY
  5
BF
330
C1
100
AcDbDictionary
280
     1
281
     1
  3
TC_OPTIONAL_DATA
360
C0
  0
DICTIONARY
  5
C2
330
C4
100
AcDbDictionary
280
     1
281
     1
  3
TC_OPTIONAL_DATA
360
C3
  0
DICTIONARY
  5
C5
330
C7
100
AcDbDictionary
280
     1
281
     1
  3
TC_OPTIONAL_DATA
360
C6
  0
DICTIONARY
  5
C8
330
CA
100
AcDbDictionary
280
     1
281
     1
  3
TC_OPTIONAL_DATA
360
C9
  0
DICTIONARY
  5
CB
330
CD
100
AcDbDictionary
280
     1
281
     1
  3
TC_OPTIONAL_DATA
360
CC
  0
DICTIONARY
  5
CE
330
D0
100
AcDbDictionary
280
     1
281
     1
  3
TC_OPTIONAL_DATA
360
CF
  0
DICTIONARY
  5
D1
330
D3
100
AcDbDictionary
280
     1
281
     1
  3
TC_OPTIONAL_DATA
360
D2
  0
DICTIONARY
  5
D4
330
D6
100
AcDbDictionary
280
     1
281
     1
  3
TC_OPTIONAL_DATA
360
D5
  0
DICTIONARY
  5
D7
330
D9
100
AcDbDictionary
280
     1
281
     1
  3
TC_OPTIONAL_DATA
360
D8
  0
DICTIONARY
  5
DA
330
DC
100
AcDbDictionary
280
     1
281
     1
  3
TC_OPTIONAL_DATA
360
DB
  0
DICTIONARY
  5
DD
330
DF
100
AcDbDictionary
280
     1
281
     1
  3
TC_OPTIONAL_DATA
360
DE
  0
DICTIONARY
  5
E0
330
E2
100
AcDbDictionary
280
     1
281
     1
  3
TC_OPTIONAL_DATA
360
E1
  0
DICTIONARY
  5
E3
330
E5
100
AcDbDictionary
280
     1
281
     1
  3
TC_OPTIONAL_DATA
360
E4
  0
DICTIONARY
  5
E6
330
E8
100
AcDbDictionary
280
     1
281
     1
  3
TC_OPTIONAL_DATA
360
E7
  0
DICTIONARY
  5
E9
330
EB
100
AcDbDictionary
280
     1
281
     1
  3
TC_OPTIONAL_DATA
360
EA
  0
DICTIONARY
  5
EC
330
EE
100
AcDbDictionary
280
     1
281
     1
  3
TC_OPTIONAL_DATA
360
ED
  0
DICTIONARY
  5
EF
330
F1
100
AcDbDictionary
280
     1
281
     1
  3
TC_OPTIONAL_DATA
360
F0
  0
DICTIONARY
  5
F2
330
F4
100
AcDbDictionary
280
     1
281
     1
  3
TC_OPTIONAL_DATA
360
F3
  0
DICTIONARY
  5
F5
330
F7
100
AcDbDictionary
280
     1
281
     1
  3
TC_OPTIONAL_DATA
360
F6
  0
DICTIONARY
  5
F8
330
FA
100
AcDbDictionary
280
     1
281
     1
  3
TC_OPTIONAL_DATA
360
F9
  0
DICTIONARY
  5
FB
330
FD
100
AcDbDictionary
280
     1
281
     1
  3
TC_OPTIONAL_DATA
360
FC
  0
DICTIONARY
  5
102
330
104
100
AcDbDictionary
280
     1
281
     1
  3
TC_OPTIONAL_DATA
360
103
  0
DICTIONARY
  5
105
330
107
100
AcDbDictionary
280
     1
281
     1
  3
TC_OPTIONAL_DATA
360
106
  0
DICTIONARY
  5
108
330
10A
100
AcDbDictionary
280
     1
281
     1
  3
TC_OPTIONAL_DATA
360
109
  0
DICTIONARY
  5
10B
330
10D
100
AcDbDictionary
280
     1
281
     1
  3
TC_OPTIONAL_DATA
360
10C
  0
DICTIONARY
  5
10E
330
110
100
AcDbDictionary
280
     1
281
     1
  3
TC_OPTIONAL_DATA
360
10F
  0
DICTIONARY
  5
111
330
113
100
AcDbDictionary
280
     1
281
     1
  3
TC_OPTIONAL_DATA
360
112
  0
DICTIONARY
  5
114
330
116
100
AcDbDictionary
280
     1
281
     1
  3
TC_OPTIONAL_DATA
360
115
  0
DICTIONARY
  5
117
330
119
100
AcDbDictionary
280
     1
281
     1
  3
TC_OPTIONAL_DATA
360
118
  0
DICTIONARY
  5
11A
330
11C
100
AcDbDictionary
280
     1
281
     1
  3
TC_OPTIONAL_DATA
360
11B
  0
DICTIONARY
  5
11D
330
11F
100
AcDbDictionary
280
     1
281
     1
  3
TC_OPTIONAL_DATA
360
11E
  0
DICTIONARY
  5
120
330
122
100
AcDbDictionary
280
     1
281
     1
  3
TC_OPTIONAL_DATA
360
121
  0
DICTIONARY
  5
123
330
125
100
AcDbDictionary
280
     1
281
     1
  3
TC_OPTIONAL_DATA
360
124
  0
DICTIONARY
  5
126
330
128
100
AcDbDictionary
280
     1
281
     1
  3
TC_OPTIONAL_DATA
360
127
  0
DICTIONARY
  5
129
330
12B
100
AcDbDictionary
280
     1
281
     1
  3
TC_OPTIONAL_DATA
360
12A
  0
DICTIONARY
  5
12C
330
12E
100
AcDbDictionary
280
     1
281
     1
  3
TC_OPTIONAL_DATA
360
12D
  0
DICTIONARY
  5
12F
330
131
100
AcDbDictionary
280
     1
281
     1
  3
TC_OPTIONAL_DATA
360
130
  0
DICTIONARY
  5
132
330
134
100
AcDbDictionary
280
     1
281
     1
  3
TC_OPTIONAL_DATA
360
133
  0
DICTIONARY
  5
135
330
137
100
AcDbDictionary
280
     1
281
     1
  3
TC_OPTIONAL_DATA
360
136
  0
DICTIONARY
  5
138
330
13A
100
AcDbDictionary
280
     1
281
     1
  3
TC_OPTIONAL_DATA
360
139
  0
DICTIONARY
  5
13B
330
13D
100
AcDbDictionary
280
     1
281
     1
  3
TC_OPTIONAL_DATA
360
13C
  0
DICTIONARY
  5
13E
330
140
100
AcDbDictionary
280
     1
281
     1
  3
TC_OPTIONAL_DATA
360
13F
  0
DICTIONARY
  5
141
330
143
100
AcDbDictionary
280
     1
281
     1
  3
TC_OPTIONAL_DATA
360
142
  0
DICTIONARY
  5
144
330
146
100
AcDbDictionary
280
     1
281
     1
  3
TC_OPTIONAL_DATA
360
145
  0
DICTIONARY
  5
147
330
149
100
AcDbDictionary
280
     1
281
     1
  3
TC_OPTIONAL_DATA
360
148
  0
DICTIONARY
  5
14A
330
14C
100
AcDbDictionary
280
     1
281
     1
  3
TC_OPTIONAL_DATA
360
14B
  0
DICTIONARY
  5
14D
330
14F
100
AcDbDictionary
280
     1
281
     1
  3
TC_OPTIONAL_DATA
360
14E
  0
DICTIONARY
  5
150
330
152
100
AcDbDictionary
280
     1
281
     1
  3
TC_OPTIONAL_DATA
360
151
  0
DICTIONARY
  5
153
330
155
100
AcDbDictionary
280
     1
281
     1
  3
TC_OPTIONAL_DATA
360
154
  0
DICTIONARY
  5
156
330
158
100
AcDbDictionary
280
     1
281
     1
  3
TC_OPTIONAL_DATA
360
157
  0
DICTIONARY
  5
159
330
15B
100
AcDbDictionary
280
     1
281
     1
  3
TC_OPTIONAL_DATA
360
15A
  0
DICTIONARY
  5
15C
330
15E
100
AcDbDictionary
280
     1
281
     1
  3
TC_OPTIONAL_DATA
360
15D
  0
DICTIONARY
  5
15F
330
161
100
AcDbDictionary
280
     1
281
     1
  3
TC_OPTIONAL_DATA
360
160
  0
DICTIONARY
  5
162
330
164
100
AcDbDictionary
280
     1
281
     1
  3
TC_OPTIONAL_DATA
360
163
  0
DICTIONARY
  5
165
330
167
100
AcDbDictionary
280
     1
281
     1
  3
TC_OPTIONAL_DATA
360
166
  0
DICTIONARY
  5
168
330
16A
100
AcDbDictionary
280
     1
281
     1
  3
TC_OPTIONAL_DATA
360
169
  0
DICTIONARY
  5
16B
330
16D
100
AcDbDictionary
280
     1
281
     1
  3
TC_OPTIONAL_DATA
360
16C
  0
DICTIONARY
  5
16E
330
170
100
AcDbDictionary
280
     1
281
     1
  3
TC_OPTIONAL_DATA
360
16F
  0
DICTIONARY
  5
172
330
174
100
AcDbDictionary
280
     1
281
     1
  3
TC_OPTIONAL_DATA
360
173
  0
DICTIONARY
  5
175
330
177
100
AcDbDictionary
280
     1
281
     1
  3
TC_OPTIONAL_DATA
360
176
  0
DICTIONARY
  5
178
330
17A
100
AcDbDictionary
280
     1
281
     1
  3
TC_OPTIONAL_DATA
360
179
  0
DICTIONARY
  5
1AE
330
1B0
100
AcDbDictionary
280
     1
281
     1
  3
TC_OPTIONAL_DATA
360
1AF
  0
DICTIONARY
  5
1E4
330
1E6
100
AcDbDictionary
280
     1
281
     1
  3
TC_OPTIONAL_DATA
360
1E5
  0
DICTIONARY
  5
21A
330
21C
100
AcDbDictionary
280
     1
281
     1
  3
TC_OPTIONAL_DATA
360
21B
  0
DICTIONARY
  5
235
330
237
100
AcDbDictionary
280
     1
281
     1
  3
TC_OPTIONAL_DATA
360
236
  0
DICTIONARY
  5
246
330
248
100
AcDbDictionary
280
     1
281
     1
  3
TC_OPTIONAL_DATA
360
247
  0
DICTIONARY
  5
275
330
277
100
AcDbDictionary
280
     1
281
     1
  3
TC_OPTIONAL_DATA
360
276
  0
DICTIONARY
  5
290
330
292
100
AcDbDictionary
280
     1
281
     1
  3
TC_OPTIONAL_DATA
360
291
  0
DICTIONARY
  5
2D8
330
2DA
100
AcDbDictionary
280
     1
281
     1
  3
TC_OPTIONAL_DATA
360
2D9
  0
DICTIONARY
  5
320
330
322
100
AcDbDictionary
280
     1
281
     1
  3
TC_OPTIONAL_DATA
360
321
  0
DICTIONARY
  5
331
330
333
100
AcDbDictionary
280
     1
281
     1
  3
TC_OPTIONAL_DATA
360
332
  0
DICTIONARY
  5
356
330
358
100
AcDbDictionary
280
     1
281
     1
  3
TC_OPTIONAL_DATA
360
357
  0
DICTIONARY
  5
37B
330
37D
100
AcDbDictionary
280
     1
281
     1
  3
TC_OPTIONAL_DATA
360
37C
  0
DICTIONARY
  5
38C
330
38E
100
AcDbDictionary
280
     1
281
     1
  3
TC_OPTIONAL_DATA
360
38D
  0
DICTIONARY
  5
3A7
330
3A9
100
AcDbDictionary
280
     1
281
     1
  3
TC_OPTIONAL_DATA
360
3A8
  0
DICTIONARY
  5
3C2
330
3C4
100
AcDbDictionary
280
     1
281
     1
  3
TC_OPTIONAL_DATA
360
3C3
  0
DICTIONARY
  5
40A
330
40C
100
AcDbDictionary
280
     1
281
     1
  3
TC_OPTIONAL_DATA
360
40B
  0
DICTIONARY
  5
D
102
{ACAD_REACTORS
330
C
102
}
330
C
100
AcDbDictionary
281
     1
  0
DICTIONARY
  5
1A
102
{ACAD_REACTORS
330
C
102
}
330
C
100
AcDbDictionary
281
     1
  3
_PAPER_SPACE
350
1E
  3
Model
350
22
  0
DICTIONARY
  5
17
102
{ACAD_REACTORS
330
C
102
}
330
C
100
AcDbDictionary
281
     1
  3
Standard
350
18
  0
DICTIONARY
  5
19
102
{ACAD_REACTORS
330
C
102
}
330
C
100
AcDbDictionary
281
     1
  0
ACDBDICTIONARYWDFLT
  5
E
102
{ACAD_REACTORS
330
C
102
}
330
C
100
AcDbDictionary
281
     1
  3
Normal
350
F
100
AcDbDictionaryWithDefault
340
F
  0
DICTIONARY
  5
40E
102
{ACAD_REACTORS
330
C
102
}
330
C
100
AcDbDictionary
281
     1
  0
DICTIONARY
  5
2A
102
{ACAD_REACTORS
330
C
102
}
330
C
100
AcDbDictionary
281
     1
  3
2dWireframe
350
2F
  3
3D Hidden
350
31
  3
3dWireframe
350
30
  3
Basic
350
32
  3
Brighten
350
36
  3
ColorChange
350
3A
  3
Conceptual
350
34
  3
Dim
350
35
  3
Facepattern
350
39
  3
Flat
350
2B
  3
FlatWithEdges
350
2C
  3
Gouraud
350
2D
  3
GouraudWithEdges
350
2E
  3
Linepattern
350
38
  3
Realistic
350
33
  3
Thicken
350
37
  0
TCOPTIONALDATA
  5
5D
102
{ACAD_REACTORS
330
5C
102
}
330
5C
100
TcOptionalData
 70
     1
 70
    32
 40
-3.0
  0
TCOPTIONALDATA
  5
60
102
{ACAD_REACTORS
330
5F
102
}
330
5F
100
TcOptionalData
 70
     1
 70
    32
 40
-3.0
  0
TCOPTIONALDATA
  5
63
102
{ACAD_REACTORS
330
62
102
}
330
62
100
TcOptionalData
 70
     1
 70
    32
 40
-3.0
  0
TCOPTIONALDATA
  5
66
102
{ACAD_REACTORS
330
65
102
}
330
65
100
TcOptionalData
 70
     1
 70
    32
 40
-3.0
  0
TCOPTIONALDATA
  5
69
102
{ACAD_REACTORS
330
68
102
}
330
68
100
TcOptionalData
 70
     1
 70
    32
 40
-3.0
  0
TCOPTIONALDATA
  5
6C
102
{ACAD_REACTORS
330
6B
102
}
330
6B
100
TcOptionalData
 70
     1
 70
    32
 40
-3.0
  0
TCOPTIONALDATA
  5
6F
102
{ACAD_REACTORS
330
6E
102
}
330
6E
100
TcOptionalData
 70
     1
 70
    32
 40
-3.0
  0
TCOPTIONALDATA
  5
72
102
{ACAD_REACTORS
330
71
102
}
330
71
100
TcOptionalData
 70
     1
 70
    32
 40
-3.0
  0
TCOPTIONALDATA
  5
75
102
{ACAD_REACTORS
330
74
102
}
330
74
100
TcOptionalData
 70
     1
 70
    32
 40
-3.0
  0
TCOPTIONALDATA
  5
78
102
{ACAD_REACTORS
330
77
102
}
330
77
100
TcOptionalData
 70
     1
 70
    32
 40
-3.0
  0
TCOPTIONALDATA
  5
7B
102
{ACAD_REACTORS
330
7A
102
}
330
7A
100
TcOptionalData
 70
     1
 70
    32
 40
-3.0
  0
TCOPTIONALDATA
  5
7E
102
{ACAD_REACTORS
330
7D
102
}
330
7D
100
TcOptionalData
 70
     1
 70
    32
 40
-3.0
  0
TCOPTIONALDATA
  5
81
102
{ACAD_REACTORS
330
80
102
}
330
80
100
TcOptionalData
 70
     1
 70
    32
 40
-3.0
  0
TCOPTIONALDATA
  5
84
102
{ACAD_REACTORS
330
83
102
}
330
83
100
TcOptionalData
 70
     1
 70
    32
 40
-3.0
  0
TCOPTIONALDATA
  5
87
102
{ACAD_REACTORS
330
86
102
}
330
86
100
TcOptionalData
 70
     1
 70
    32
 40
-3.0
  0
TCOPTIONALDATA
  5
8A
102
{ACAD_REACTORS
330
89
102
}
330
89
100
TcOptionalData
 70
     1
 70
    32
 40
-3.0
  0
TCOPTIONALDATA
  5
8D
102
{ACAD_REACTORS
330
8C
102
}
330
8C
100
TcOptionalData
 70
     1
 70
    32
 40
-3.0
  0
TCOPTIONALDATA
  5
90
102
{ACAD_REACTORS
330
8F
102
}
330
8F
100
TcOptionalData
 70
     1
 70
    32
 40
-3.0
  0
TCOPTIONALDATA
  5
93
102
{ACAD_REACTORS
330
92
102
}
330
92
100
TcOptionalData
 70
     1
 70
    32
 40
-3.0
  0
TCOPTIONALDATA
  5
96
102
{ACAD_REACTORS
330
95
102
}
330
95
100
TcOptionalData
 70
     1
 70
    32
 40
-3.0
  0
TCOPTIONALDATA
  5
99
102
{ACAD_REACTORS
330
98
102
}
330
98
100
TcOptionalData
 70
     1
 70
    32
 40
-3.0
  0
TCOPTIONALDATA
  5
9C
102
{ACAD_REACTORS
330
9B
102
}
330
9B
100
TcOptionalData
 70
     1
 70
    32
 40
-3.0
  0
TCOPTIONALDATA
  5
9F
102
{ACAD_REACTORS
330
9E
102
}
330
9E
100
TcOptionalData
 70
     1
 70
    32
 40
-3.0
  0
TCOPTIONALDATA
  5
A2
102
{ACAD_REACTORS
330
A1
102
}
330
A1
100
TcOptionalData
 70
     1
 70
    32
 40
-3.0
  0
TCOPTIONALDATA
  5
A5
102
{ACAD_REACTORS
330
A4
102
}
330
A4
100
TcOptionalData
 70
     1
 70
    32
 40
-3.0
  0
TCOPTIONALDATA
  5
A8
102
{ACAD_REACTORS
330
A7
102
}
330
A7
100
TcOptionalData
 70
     1
 70
    32
 40
-3.0
  0
TCOPTIONALDATA
  5
AB
102
{ACAD_REACTORS
330
AA
102
}
330
AA
100
TcOptionalData
 70
     1
 70
    32
 40
-3.0
  0
TCOPTIONALDATA
  5
AE
102
{ACAD_REACTORS
330
AD
102
}
330
AD
100
TcOptionalData
 70
     1
 70
    32
 40
-3.0
  0
TCOPTIONALDATA
  5
B1
102
{ACAD_REACTORS
330
B0
102
}
330
B0
100
TcOptionalData
 70
     1
 70
    32
 40
-3.0
  0
TCOPTIONALDATA
  5
B4
102
{ACAD_REACTORS
330
B3
102
}
330
B3
100
TcOptionalData
 70
     1
 70
    32
 40
-3.0
  0
TCOPTIONALDATA
  5
B7
102
{ACAD_REACTORS
330
B6
102
}
330
B6
100
TcOptionalData
 70
     1
 70
    32
 40
-3.0
  0
TCOPTIONALDATA
  5
BA
102
{ACAD_REACTORS
330
B9
102
}
330
B9
100
TcOptionalData
 70
     1
 70
    32
 40
-3.0
  0
TCOPTIONALDATA
  5
BD
102
{ACAD_REACTORS
330
BC
102
}
330
BC
100
TcOptionalData
 70
     1
 70
    32
 40
-3.0
  0
TCOPTIONALDATA
  5
C0
102
{ACAD_REACTORS
330
BF
102
}
330
BF
100
TcOptionalData
 70
     1
 70
    32
 40
-3.0
  0
TCOPTIONALDATA
  5
C3
102
{ACAD_REACTORS
330
C2
102
}
330
C2
100
TcOptionalData
 70
     1
 70
    32
 40
-3.0
  0
TCOPTIONALDATA
  5
C6
102
{ACAD_REACTORS
330
C5
102
}
330
C5
100
TcOptionalData
 70
     1
 70
    32
 40
-3.0
  0
TCOPTIONALDATA
  5
C9
102
{ACAD_REACTORS
330
C8
102
}
330
C8
100
TcOptionalData
 70
     1
 70
    32
 40
-3.0
  0
TCOPTIONALDATA
  5
CC
102
{ACAD_REACTORS
330
CB
102
}
330
CB
100
TcOptionalData
 70
     1
 70
    32
 40
-3.0
  0
TCOPTIONALDATA
  5
CF
102
{ACAD_REACTORS
330
CE
102
}
330
CE
100
TcOptionalData
 70
     1
 70
    32
 40
-3.0
  0
TCOPTIONALDATA
  5
D2
102
{ACAD_REACTORS
330
D1
102
}
330
D1
100
TcOptionalData
 70
     1
 70
    32
 40
-3.0
  0
TCOPTIONALDATA
  5
D5
102
{ACAD_REACTORS
330
D4
102
}
330
D4
100
TcOptionalData
 70
     1
 70
    32
 40
-3.0
  0
TCOPTIONALDATA
  5
D8
102
{ACAD_REACTORS
330
D7
102
}
330
D7
100
TcOptionalData
 70
     1
 70
    32
 40
-3.0
  0
TCOPTIONALDATA
  5
DB
102
{ACAD_REACTORS
330
DA
102
}
330
DA
100
TcOptionalData
 70
     1
 70
    32
 40
-3.0
  0
TCOPTIONALDATA
  5
DE
102
{ACAD_REACTORS
330
DD
102
}
330
DD
100
TcOptionalData
 70
     1
 70
    32
 40
-3.0
  0
TCOPTIONALDATA
  5
E1
102
{ACAD_REACTORS
330
E0
102
}
330
E0
100
TcOptionalData
 70
     1
 70
    32
 40
-3.0
  0
TCOPTIONALDATA
  5
E4
102
{ACAD_REACTORS
330
E3
102
}
330
E3
100
TcOptionalData
 70
     1
 70
    32
 40
-3.0
  0
TCOPTIONALDATA
  5
E7
102
{ACAD_REACTORS
330
E6
102
}
330
E6
100
TcOptionalData
 70
     1
 70
    32
 40
-3.0
  0
TCOPTIONALDATA
  5
EA
102
{ACAD_REACTORS
330
E9
102
}
330
E9
100
TcOptionalData
 70
     1
 70
    32
 40
-3.0
  0
TCOPTIONALDATA
  5
ED
102
{ACAD_REACTORS
330
EC
102
}
330
EC
100
TcOptionalData
 70
     1
 70
    32
 40
-3.0
  0
TCOPTIONALDATA
  5
F0
102
{ACAD_REACTORS
330
EF
102
}
330
EF
100
TcOptionalData
 70
     1
 70
    32
 40
-3.0
  0
TCOPTIONALDATA
  5
F3
102
{ACAD_REACTORS
330
F2
102
}
330
F2
100
TcOptionalData
 70
     1
 70
    32
 40
-3.0
  0
TCOPTIONALDATA
  5
F6
102
{ACAD_REACTORS
330
F5
102
}
330
F5
100
TcOptionalData
 70
     1
 70
    32
 40
-3.0
  0
TCOPTIONALDATA
  5
F9
102
{ACAD_REACTORS
330
F8
102
}
330
F8
100
TcOptionalData
 70
     1
 70
    32
 40
-3.0
  0
TCOPTIONALDATA
  5
FC
102
{ACAD_REACTORS
330
FB
102
}
330
FB
100
TcOptionalData
 70
     1
 70
    32
 40
-3.0
  0
TCOPTIONALDATA
  5
103
102
{ACAD_REACTORS
330
102
102
}
330
102
100
TcOptionalData
 70
     1
 70
    32
 40
-3.0
  0
TCOPTIONALDATA
  5
106
102
{ACAD_REACTORS
330
105
102
}
330
105
100
TcOptionalData
 70
     1
 70
    32
 40
-3.0
  0
TCOPTIONALDATA
  5
109
102
{ACAD_REACTORS
330
108
102
}
330
108
100
TcOptionalData
 70
     1
 70
    32
 40
-3.0
  0
TCOPTIONALDATA
  5
10C
102
{ACAD_REACTORS
330
10B
102
}
330
10B
100
TcOptionalData
 70
     1
 70
    32
 40
-3.0
  0
TCOPTIONALDATA
  5
10F
102
{ACAD_REACTORS
330
10E
102
}
330
10E
100
TcOptionalData
 70
     1
 70
    32
 40
-3.0
  0
TCOPTIONALDATA
  5
112
102
{ACAD_REACTORS
330
111
102
}
330
111
100
TcOptionalData
 70
     1
 70
    32
 40
-3.0
  0
TCOPTIONALDATA
  5
115
102
{ACAD_REACTORS
330
114
102
}
330
114
100
TcOptionalData
 70
     1
 70
    32
 40
-3.0
  0
TCOPTIONALDATA
  5
118
102
{ACAD_REACTORS
330
117
102
}
330
117
100
TcOptionalData
 70
     1
 70
    32
 40
-3.0
  0
TCOPTIONALDATA
  5
11B
102
{ACAD_REACTORS
330
11A
102
}
330
11A
100
TcOptionalData
 70
     1
 70
    32
 40
-3.0
  0
TCOPTIONALDATA
  5
11E
102
{ACAD_REACTORS
330
11D
102
}
330
11D
100
TcOptionalData
 70
     1
 70
    32
 40
-3.0
  0
TCOPTIONALDATA
  5
121
102
{ACAD_REACTORS
330
120
102
}
330
120
100
TcOptionalData
 70
     1
 70
    32
 40
-3.0
  0
TCOPTIONALDATA
  5
124
102
{ACAD_REACTORS
330
123
102
}
330
123
100
TcOptionalData
 70
     1
 70
    32
 40
-3.0
  0
TCOPTIONALDATA
  5
127
102
{ACAD_REACTORS
330
126
102
}
330
126
100
TcOptionalData
 70
     1
 70
    32
 40
-3.0
  0
TCOPTIONALDATA
  5
12A
102
{ACAD_REACTORS
330
129
102
}
330
129
100
TcOptionalData
 70
     1
 70
    32
 40
-3.0
  0
TCOPTIONALDATA
  5
12D
102
{ACAD_REACTORS
330
12C
102
}
330
12C
100
TcOptionalData
 70
     1
 70
    32
 40
-3.0
  0
TCOPTIONALDATA
  5
130
102
{ACAD_REACTORS
330
12F
102
}
330
12F
100
TcOptionalData
 70
     1
 70
    32
 40
-3.0
  0
TCOPTIONALDATA
  5
133
102
{ACAD_REACTORS
330
132
102
}
330
132
100
TcOptionalData
 70
     1
 70
    32
 40
-3.0
  0
TCOPTIONALDATA
  5
136
102
{ACAD_REACTORS
330
135
102
}
330
135
100
TcOptionalData
 70
     1
 70
    32
 40
-3.0
  0
TCOPTIONALDATA
  5
139
102
{ACAD_REACTORS
330
138
102
}
330
138
100
TcOptionalData
 70
     1
 70
    32
 40
-3.0
  0
TCOPTIONALDATA
  5
13C
102
{ACAD_REACTORS
330
13B
102
}
330
13B
100
TcOptionalData
 70
     1
 70
    32
 40
-3.0
  0
TCOPTIONALDATA
  5
13F
102
{ACAD_REACTORS
330
13E
102
}
330
13E
100
TcOptionalData
 70
     1
 70
    32
 40
-3.0
  0
TCOPTIONALDATA
  5
142
102
{ACAD_REACTORS
330
141
102
}
330
141
100
TcOptionalData
 70
     1
 70
    32
 40
-3.0
  0
TCOPTIONALDATA
  5
145
102
{ACAD_REACTORS
330
144
102
}
330
144
100
TcOptionalData
 70
     1
 70
    32
 40
-3.0
  0
TCOPTIONALDATA
  5
148
102
{ACAD_REACTORS
330
147
102
}
330
147
100
TcOptionalData
 70
     1
 70
    32
 40
-3.0
  0
TCOPTIONALDATA
  5
14B
102
{ACAD_REACTORS
330
14A
102
}
330
14A
100
TcOptionalData
 70
     1
 70
    32
 40
-3.0
  0
TCOPTIONALDATA
  5
14E
102
{ACAD_REACTORS
330
14D
102
}
330
14D
100
TcOptionalData
 70
     1
 70
    32
 40
-3.0
  0
TCOPTIONALDATA
  5
151
102
{ACAD_REACTORS
330
150
102
}
330
150
100
TcOptionalData
 70
     1
 70
    32
 40
-3.0
  0
TCOPTIONALDATA
  5
154
102
{ACAD_REACTORS
330
153
102
}
330
153
100
TcOptionalData
 70
     1
 70
    32
 40
-3.0
  0
TCOPTIONALDATA
  5
157
102
{ACAD_REACTORS
330
156
102
}
330
156
100
TcOptionalData
 70
     1
 70
    32
 40
-3.0
  0
TCOPTIONALDATA
  5
15A
102
{ACAD_REACTORS
330
159
102
}
330
159
100
TcOptionalData
 70
     1
 70
    32
 40
-3.0
  0
TCOPTIONALDATA
  5
15D
102
{ACAD_REACTORS
330
15C
102
}
330
15C
100
TcOptionalData
 70
     1
 70
    32
 40
-3.0
  0
TCOPTIONALDATA
  5
160
102
{ACAD_REACTORS
330
15F
102
}
330
15F
100
TcOptionalData
 70
     1
 70
    32
 40
-3.0
  0
TCOPTIONALDATA
  5
163
102
{ACAD_REACTORS
330
162
102
}
330
162
100
TcOptionalData
 70
     1
 70
    32
 40
-3.0
  0
TCOPTIONALDATA
  5
166
102
{ACAD_REACTORS
330
165
102
}
330
165
100
TcOptionalData
 70
     1
 70
    32
 40
-3.0
  0
TCOPTIONALDATA
  5
169
102
{ACAD_REACTORS
330
168
102
}
330
168
100
TcOptionalData
 70
     1
 70
    32
 40
-3.0
  0
TCOPTIONALDATA
  5
16C
102
{ACAD_REACTORS
330
16B
102
}
330
16B
100
TcOptionalData
 70
     1
 70
    32
 40
-3.0
  0
TCOPTIONALDATA
  5
16F
102
{ACAD_REACTORS
330
16E
102
}
330
16E
100
TcOptionalData
 70
     1
 70
    32
 40
-3.0
  0
TCOPTIONALDATA
  5
173
102
{ACAD_REACTORS
330
172
102
}
330
172
100
TcOptionalData
 70
     1
 70
    32
 40
-3.0
  0
TCOPTIONALDATA
  5
176
102
{ACAD_REACTORS
330
175
102
}
330
175
100
TcOptionalData
 70
     1
 70
    32
 40
-3.0
  0
TCOPTIONALDATA
  5
179
102
{ACAD_REACTORS
330
178
102
}
330
178
100
TcOptionalData
 70
     1
 70
    32
 40
-3.0
  0
TCOPTIONALDATA
  5
1AF
102
{ACAD_REACTORS
330
1AE
102
}
330
1AE
100
TcOptionalData
 70
     1
 70
    32
 40
-3.0
  0
TCOPTIONALDATA
  5
1E5
102
{ACAD_REACTORS
330
1E4
102
}
330
1E4
100
TcOptionalData
 70
     1
 70
    32
 40
-3.0
  0
TCOPTIONALDATA
  5
21B
102
{ACAD_REACTORS
330
21A
102
}
330
21A
100
TcOptionalData
 70
     1
 70
    32
 40
-3.0
  0
TCOPTIONALDATA
  5
236
102
{ACAD_REACTORS
330
235
102
}
330
235
100
TcOptionalData
 70
     1
 70
    32
 40
-3.0
  0
TCOPTIONALDATA
  5
247
102
{ACAD_REACTORS
330
246
102
}
330
246
100
TcOptionalData
 70
     1
 70
    32
 40
-3.0
  0
TCOPTIONALDATA
  5
276
102
{ACAD_REACTORS
330
275
102
}
330
275
100
TcOptionalData
 70
     1
 70
    32
 40
-3.0
  0
TCOPTIONALDATA
  5
291
102
{ACAD_REACTORS
330
290
102
}
330
290
100
TcOptionalData
 70
     1
 70
    32
 40
-3.0
  0
TCOPTIONALDATA
  5
2D9
102
{ACAD_REACTORS
330
2D8
102
}
330
2D8
100
TcOptionalData
 70
     1
 70
    32
 40
-3.0
  0
TCOPTIONALDATA
  5
321
102
{ACAD_REACTORS
330
320
102
}
330
320
100
TcOptionalData
 70
     1
 70
    32
 40
-3.0
  0
TCOPTIONALDATA
  5
332
102
{ACAD_REACTORS
330
331
102
}
330
331
100
TcOptionalData
 70
     1
 70
    32
 40
-3.0
  0
TCOPTIONALDATA
  5
357
102
{ACAD_REACTORS
330
356
102
}
330
356
100
TcOptionalData
 70
     1
 70
    32
 40
-3.0
  0
TCOPTIONALDATA
  5
37C
102
{ACAD_REACTORS
330
37B
102
}
330
37B
100
TcOptionalData
 70
     1
 70
    32
 40
-3.0
  0
TCOPTIONALDATA
  5
38D
102
{ACAD_REACTORS
330
38C
102
}
330
38C
100
TcOptionalData
 70
     1
 70
    32
 40
-3.0
  0
TCOPTIONALDATA
  5
3A8
102
{ACAD_REACTORS
330
3A7
102
}
330
3A7
100
TcOptionalData
 70
     1
 70
    32
 40
-3.0
  0
TCOPTIONALDATA
  5
3C3
102
{ACAD_REACTORS
330
3C2
102
}
330
3C2
100
TcOptionalData
 70
     1
 70
    32
 40
-3.0
  0
TCOPTIONALDATA
  5
40B
102
{ACAD_REACTORS
330
40A
102
}
330
40A
100
TcOptionalData
 70
     1
 70
   128
 90
        1
  1
#$AUX@_ToolInfo Properties
 70
     8
  1
CMD_LINE@
  0
LAYOUT
  5
1E
102
{ACAD_REACTORS
330
1A
102
}
330
1A
100
AcDbPlotSettings
  1

  2
none_device
  4
ISO_C5_(229.00_x_162.00_MM)
  6

 40
0.0
 41
0.0
 42
0.0
 43
0.0
 44
229.0
 45
162.0
 46
0.0499999840000052
 47
0.0499999840000052
 48
0.0
 49
0.0
140
0.0
141
0.0
142
1.0
143
28.8636456
 70
   672
 72
     1
 73
     0
 74
     5
  7

 75
    16
 76
     0
 77
     2
 78
   300
147
1.0
148
0.0
149
0.0
100
AcDbLayout
  1
_PAPER_SPACE
 70
     1
 71
     1
 10
-1.44318181818182
 20
-1.44318181818182
 11
4.80681818181818
 21
4.80681818181818
 12
0.0
 22
0.0
 32
0.0
 14
-1.44318181818182
 24
-1.44318181818182
 34
0.0
 15
4.80681818181818
 25
4.80681818181818
 35
0.0
146
0.0
 13
0.0
 23
0.0
 33
0.0
 16
1.0
 26
0.0
 36
0.0
 17
0.0
 27
1.0
 37
0.0
 76
     0
330
1B
331
40D
  0
LAYOUT
  5
22
102
{ACAD_REACTORS
330
1A
102
}
330
1A
100
AcDbPlotSettings
  1

  2
none_device
  4
ISO_A4_(210.00_x_297.00_MM)
  6

 40
0.0
 41
0.0
 42
0.0
 43
0.0
 44
210.0
 45
297.0
 46
0.0
 47
0.1158704534710681
 48
0.0
 49
0.0
140
0.0
141
0.0
142
1.0
143
25.4
 70
  1696
 72
     1
 73
     1
 74
     0
  7

 75
     0
 76
     0
 77
     2
 78
   300
147
1.0
148
0.0
149
0.0
100
AcDbLayout
  1
Model
 70
     1
 71
     0
 10
0.0
 20
-2.94310951816513
 11
297.0
 21
210.0
 12
0.0
 22
0.0
 32
0.0
 14
0.0
 24
-2.94310951816513
 34
0.0
 15
297.0
 25
210.0
 35
0.0
146
0.0
 13
0.0
 23
0.0
 33
0.0
 16
1.0
 26
0.0
 36
0.0
 17
0.0
 27
1.0
 37
0.0
 76
     0
330
1F
331
29
  0
MLINESTYLE
  5
18
102
{ACAD_REACTORS
330
17
102
}
330
17
100
AcDbMlineStyle
  2
Standard
 70
     0
  3

 62
   256
 51
90.0
 52
90.0
 71
     4
 49
0.5
 62
   256
  6
BYLAYER
 49
-0.5
 62
   256
  6
BYLAYER
 49
0.5
 62
   256
  6
BYLAYER
 49
-0.5
 62
   256
  6
BYLAYER
  0
ACDBPLACEHOLDER
  5
F
102
{ACAD_REACTORS
330
E
102
}
330
E
  0
VISUALSTYLE
  5
2F
102
{ACAD_REACTORS
330
2A
102
}
330
2A
100
AcDbVisualStyle
  2
2dWireframe
 70
     4
 71
     0
 72
     2
 73
     0
 90
        0
 40
-0.6
 41
-30.0
 62
     5
 63
     7
421
 16777215
 74
     1
 91
        4
 64
     7
 65
   257
 75
     1
175
     1
 42
1.0
 92
        0
 66
   257
 43
1.0
 76
     1
 77
     6
 78
     2
 67
     7
 79
     5
170
     0
171
     0
290
     0
174
     0
 93
        1
 44
0.0
173
     0
291
     0
 45
0.0
1001
ACAD
1000
AcDbSavedByObjectVersion
1070
     0
  0
VISUALSTYLE
  5
31
102
{ACAD_REACTORS
330
2A
102
}
330
2A
100
AcDbVisualStyle
  2
3D Hidden
 70
     6
 71
     1
 72
     2
 73
     2
 90
        0
 40
-0.6
 41
-30.0
 62
     5
 63
     7
421
 16777215
 74
     2
 91
        2
 64
     7
 65
   257
 75
     2
175
     1
 42
40.0
 92
        0
 66
   257
 43
1.0
 76
     1
 77
     6
 78
     2
 67
     7
 79
     3
170
     0
171
     0
290
     0
174
     0
 93
        1
 44
0.0
173
     0
291
     0
 45
0.0
1001
ACAD
1000
AcDbSavedByObjectVersion
1070
     0
  0
VISUALSTYLE
  5
30
102
{ACAD_REACTORS
330
2A
102
}
330
2A
100
AcDbVisualStyle
  2
3dWireframe
 70
     5
 71
     0
 72
     2
 73
     0
 90
        0
 40
-0.6
 41
-30.0
 62
     5
 63
     7
421
 16777215
 74
     1
 91
        4
 64
     7
 65
   257
 75
     1
175
     1
 42
1.0
 92
        0
 66
   257
 43
1.0
 76
     1
 77
     6
 78
     2
 67
     7
 79
     5
170
     0
171
     0
290
     0
174
     0
 93
        1
 44
0.0
173
     0
291
     0
 45
0.0
1001
ACAD
1000
AcDbSavedByObjectVersion
1070
     0
  0
VISUALSTYLE
  5
32
102
{ACAD_REACTORS
330
2A
102
}
330
2A
100
AcDbVisualStyle
  2
Basic
 70
     7
 71
     1
 72
     0
 73
     1
 90
        0
 40
-0.6
 41
-30.0
 62
     5
 63
     7
421
 16777215
 74
     0
 91
        4
 64
     7
 65
   257
 75
     1
175
     1
 42
1.0
 92
        8
 66
     7
 43
1.0
 76
     1
 77
     6
 78
     2
 67
     7
 79
     5
170
     0
171
     0
290
     0
174
     0
 93
        1
 44
0.0
173
     0
291
     1
 45
0.0
1001
ACAD
1000
AcDbSavedByObjectVersion
1070
     0
  0
VISUALSTYLE
  5
36
102
{ACAD_REACTORS
330
2A
102
}
330
2A
100
AcDbVisualStyle
  2
Brighten
 70
    12
 71
     2
 72
     2
 73
     0
 90
        0
 40
-0.6
 41
-30.0
 62
     5
 63
     7
421
 16777215
 74
     1
 91
        4
 64
     7
 65
   257
 75
     1
175
     1
 42
1.0
 92
        8
 66
     7
 43
1.0
 76
     1
 77
     6
 78
     2
 67
     7
 79
     5
170
     0
171
     0
290
     0
174
     0
 93
        1
 44
50.0
173
     0
291
     1
 45
0.0
1001
ACAD
1000
AcDbSavedByObjectVersion
1070
     0
  0
VISUALSTYLE
  5
3A
102
{ACAD_REACTORS
330
2A
102
}
330
2A
100
AcDbVisualStyle
  2
ColorChange
 70
    16
 71
     2
 72
     2
 73
     3
 90
        0
 40
-0.6
 41
-30.0
 62
     5
 63
     8
421
  8421504
 74
     1
 91
        4
 64
     7
 65
   257
 75
     1
175
     1
 42
1.0
 92
        8
 66
     8
424
  8421504
 43
1.0
 76
     1
 77
     6
 78
     2
 67
     7
 79
     5
170
     0
171
     0
290
     0
174
     0
 93
        1
 44
0.0
173
     0
291
     1
 45
0.0
1001
ACAD
1000
AcDbSavedByObjectVersion
1070
     0
  0
VISUALSTYLE
  5
34
102
{ACAD_REACTORS
330
2A
102
}
330
2A
100
AcDbVisualStyle
  2
Conceptual
 70
     9
 71
     3
 72
     2
 73
     0
 90
        0
 40
-0.6
 41
-30.0
 62
     5
 63
     7
421
 16777215
 74
     2
 91
        2
 64
     7
 65
   257
 75
     1
175
     1
 42
40.0
 92
        8
 66
     7
 43
1.0
 76
     1
 77
     6
 78
     2
 67
     7
 79
     3
170
     0
171
     0
290
     0
174
     0
 93
        1
 44
0.0
173
     0
291
     0
 45
0.0
1001
ACAD
1000
AcDbSavedByObjectVersion
1070
     0
  0
VISUALSTYLE
  5
35
102
{ACAD_REACTORS
330
2A
102
}
330
2A
100
AcDbVisualStyle
  2
Dim
 70
    11
 71
     2
 72
     2
 73
     0
 90
        0
 40
-0.6
 41
-30.0
 62
     5
 63
     7
421
 16777215
 74
     1
 91
        4
 64
     7
 65
   257
 75
     1
175
     1
 42
1.0
 92
        8
 66
     7
 43
1.0
 76
     1
 77
     6
 78
     2
 67
     7
 79
     5
170
     0
171
     0
290
     0
174
     0
 93
        1
 44
-50.0
173
     0
291
     1
 45
0.0
1001
ACAD
1000
AcDbSavedByObjectVersion
1070
     0
  0
VISUALSTYLE
  5
39
102
{ACAD_REACTORS
330
2A
102
}
330
2A
100
AcDbVisualStyle
  2
Facepattern
 70
    15
 71
     2
 72
     2
 73
     0
 90
        0
 40
-0.6
 41
-30.0
 62
     5
 63
     7
421
 16777215
 74
     1
 91
        4
 64
     7
 65
   257
 75
     1
175
     1
 42
1.0
 92
        8
 66
     7
 43
1.0
 76
     1
 77
     6
 78
     2
 67
     7
 79
     5
170
     0
171
     0
290
     0
174
     0
 93
        1
 44
0.0
173
     0
291
     1
 45
0.0
1001
ACAD
1000
AcDbSavedByObjectVersion
1070
     0
  0
VISUALSTYLE
  5
2B
102
{ACAD_REACTORS
330
2A
102
}
330
2A
100
AcDbVisualStyle
  2
Flat
 70
     0
 71
     2
 72
     1
 73
     1
 90
        2
 40
-0.6
 41
30.0
 62
     5
 63
     7
421
 16777215
 74
     0
 91
        4
 64
     7
 65
   257
 75
     1
175
     1
 42
1.0
 92
        8
 66
     7
 43
1.0
 76
     1
 77
     6
 78
     2
 67
     7
 79
     5
170
     0
171
     0
290
     0
174
     0
 93
       13
 44
0.0
173
     0
291
     1
 45
0.0
1001
ACAD
1000
AcDbSavedByObjectVersion
1070
     0
  0
VISUALSTYLE
  5
2C
102
{ACAD_REACTORS
330
2A
102
}
330
2A
100
AcDbVisualStyle
  2
FlatWithEdges
 70
     1
 71
     2
 72
     1
 73
     1
 90
        2
 40
-0.6
 41
30.0
 62
     5
 63
     7
421
 16777215
 74
     1
 91
        4
 64
     7
 65
   257
 75
     1
175
     1
 42
1.0
 92
        0
 66
   257
 43
1.0
 76
     1
 77
     6
 78
     2
 67
     7
 79
     5
170
     0
171
     0
290
     0
174
     0
 93
       13
 44
0.0
173
     0
291
     1
 45
0.0
1001
ACAD
1000
AcDbSavedByObjectVersion
1070
     0
  0
VISUALSTYLE
  5
2D
102
{ACAD_REACTORS
330
2A
102
}
330
2A
100
AcDbVisualStyle
  2
Gouraud
 70
     2
 71
     2
 72
     2
 73
     1
 90
        2
 40
-0.6
 41
30.0
 62
     5
 63
     7
421
 16777215
 74
     0
 91
        4
 64
     7
 65
   257
 75
     1
175
     1
 42
1.0
 92
        0
 66
     7
 43
1.0
 76
     1
 77
     6
 78
     2
 67
     7
 79
     5
170
     0
171
     0
290
     0
174
     0
 93
       13
 44
0.0
173
     0
291
     1
 45
0.0
1001
ACAD
1000
AcDbSavedByObjectVersion
1070
     0
  0
VISUALSTYLE
  5
2E
102
{ACAD_REACTORS
330
2A
102
}
330
2A
100
AcDbVisualStyle
  2
GouraudWithEdges
 70
     3
 71
     2
 72
     2
 73
     1
 90
        2
 40
-0.6
 41
30.0
 62
     5
 63
     7
421
 16777215
 74
     1
 91
        4
 64
     7
 65
   257
 75
     1
175
     1
 42
1.0
 92
        0
 66
   257
 43
1.0
 76
     1
 77
     6
 78
     2
 67
     7
 79
     5
170
     0
171
     0
290
     0
174
     0
 93
       13
 44
0.0
173
     0
291
     1
 45
0.0
1001
ACAD
1000
AcDbSavedByObjectVersion
1070
     0
  0
VISUALSTYLE
  5
38
102
{ACAD_REACTORS
330
2A
102
}
330
2A
100
AcDbVisualStyle
  2
Linepattern
 70
    14
 71
     2
 72
     2
 73
     0
 90
        0
 40
-0.6
 41
-30.0
 62
     5
 63
     7
421
 16777215
 74
     1
 91
        4
 64
     7
 65
   257
 75
     7
175
     7
 42
1.0
 92
        8
 66
     7
 43
1.0
 76
     1
 77
     6
 78
     2
 67
     7
 79
     5
170
     0
171
     0
290
     0
174
     0
 93
        1
 44
0.0
173
     0
291
     1
 45
0.0
1001
ACAD
1000
AcDbSavedByObjectVersion
1070
     0
  0
VISUALSTYLE
  5
33
102
{ACAD_REACTORS
330
2A
102
}
330
2A
100
AcDbVisualStyle
  2
Realistic
 70
     8
 71
     2
 72
     2
 73
     0
 90
        0
 40
-0.6
 41
-30.0
 62
     5
 63
     7
421
 16777215
 74
     1
 91
        0
 64
     7
 65
   257
 75
     1
175
     1
 42
1.0
 92
        8
 66
     8
424
  7895160
 43
1.0
 76
     1
 77
     6
 78
     2
 67
     7
 79
     5
170
     0
171
     0
290
     0
174
     0
 93
       13
 44
0.0
173
     0
291
     0
 45
0.0
1001
ACAD
1000
AcDbSavedByObjectVersion
1070
     0
  0
VISUALSTYLE
  5
37
102
{ACAD_REACTORS
330
2A
102
}
330
2A
100
AcDbVisualStyle
  2
Thicken
 70
    13
 71
     2
 72
     2
 73
     0
 90
        0
 40
-0.6
 41
-30.0
 62
     5
 63
     7
421
 16777215
 74
     1
 91
        4
 64
     7
 65
   257
 75
     1
175
     1
 42
1.0
 92
       12
 66
     7
 43
1.0
 76
     1
 77
     6
 78
     2
 67
     7
 79
     5
170
     0
171
     0
290
     0
174
     0
 93
        1
 44
0.0
173
     0
291
     1
 45
0.0
1001
ACAD
1000
AcDbSavedByObjectVersion
1070
     0
  0
ENDSEC
  0
SECTION
  2
THUMBNAILIMAGE
 90
    16364
310
28000000B40000005500000001000800000000000000000000000000000000000000000000000000FFFFFF000000FF0000FFFF0000FF0000FFFF0000FF000000FF00FF000000000080808000C0C0C0000000FF007F7FFF000000A5005252A50000007F003F3F7F0000004C0026264C000000260013132600003FFF007F9FFF
310
000029A5005267A500001F7F003F4F7F0000134C00262F4C000009260013172600007FFF007FBFFF000052A500527CA500003F7F003F5F7F0000264C0026394C0000132600131C260000BFFF007FDFFF00007CA5005291A500005F7F003F6F7F0000394C0026424C00001C26001321260000FFFF007FFFFF0000A5A50052A5
310
A500007F7F003F7F7F00004C4C00264C4C00002626001326260000FFBF007FFFDF0000A57C0052A59100007F5F003F7F6F00004C3900264C420000261C001326210000FF7F007FFFBF0000A5520052A57C00007F3F003F7F5F00004C2600264C39000026130013261C0000FF3F007FFF9F0000A5290052A56700007F1F003F
310
7F4F00004C1300264C2F00002609001326170000FF00007FFF7F0000A5000052A55200007F00003F7F3F00004C0000264C260000260000132613003FFF00009FFF7F0029A5000067A552001F7F00004F7F3F00134C00002F4C260009260000172613007FFF0000BFFF7F0052A500007CA552003F7F00005F7F3F00264C0000
310
394C2600132600001C261300BFFF0000DFFF7F007CA5000091A552005F7F00006F7F3F00394C0000424C26001C26000021261300FFFF0000FFFF7F00A5A50000A5A552007F7F00007F7F3F004C4C00004C4C26002626000026261300FFBF0000FFDF7F00A57C0000A59152007F5F00007F6F3F004C3900004C422600261C00
310
0026211300FF7F0000FFBF7F00A5520000A57C52007F3F00007F5F3F004C2600004C39260026130000261C1300FF3F0000FF9F7F00A5290000A56752007F1F00007F4F3F004C1300004C2F26002609000026171300FF000000FF7F7F00A5000000A55252007F0000007F3F3F004C0000004C2626002600000026131300FF00
310
3F00FF7F9F00A5002900A55267007F001F007F3F4F004C0013004C262F002600090026131700FF007F00FF7FBF00A5005200A5527C007F003F007F3F5F004C0026004C2639002600130026131C00FF00BF00FF7FDF00A5007C00A55291007F005F007F3F6F004C0039004C26420026001C0026132100FF00FF00FF7FFF00A5
310
00A500A552A5007F007F007F3F7F004C004C004C264C002600260026132600BF00FF00DF7FFF007C00A5009152A5005F007F006F3F7F0039004C0042264C001C002600211326007F00FF00BF7FFF005200A5007C52A5003F007F005F3F7F0026004C0039264C00130026001C1326003F00FF009F7FFF002900A5006752A500
310
1F007F004F3F7F0013004C002F264C000900260017132600000000002D2D2D005B5B5B0089898900B7B7B700B3B3B30000000000000000000000000000000000000000000000000000000000000000000000000000000000000000000000000000000000000000000000000000000000000000000000000000000000000000
310
00000000000000000000000000000000000000000000000000000000000000000000000000000000000000000000000000000000000000000000000000000000000000000000000000000000000000000000000000000000000000000000000000000000000000000000000000000000000000000000000000000000000000
310
00000000000000000000000000000000000000000000000000000000000000000000000000000000000000000000000000000000000000000000000000000000000000000000000000000000000000000000000000000000000000000000000000000000000000000000000000000000000000000000000000000000000000
310
00000000000000000000000000000000000000000000000000000000000000000000000000000000000000000000000000000000000000000000000000000000000000000000000000000000000000000000000000000000000000000000000000000000000000000000000000000000000000000000000000000000000000
310
00000000000000000000000000000000000000000000000000000000000000000000000000000000000000000000000000000000000000000000000000000000000000000000000000000000000000000000000000000000000000000000000000000000000000000000000000000000000000000000000000000000000000
310
00000000000000000000000000000000000000000000000000000000000000000000000000000000000000000000000000000000000000000000000000000000000000000000000000000000000000000000000000000000000000000000000000000000000000000000000000000000000000000000000000000000000000
310
00000000000000000000000000000000000000000000000000000000000000000000000000000000000000000000000000000000000000000000000000000000000000000000000000000000000000000000000000000000000000000000000000000000000000000000000000000000000000000000000000000000000000
310
00000000000000000000000000000000000000000000000000000000000000000000000000000000000000000000000000000000000000000000000000000000000000000101010101010100000000000000000000000000000000000000000000000000000000000000000000000000010101010101010100000000000000
310
00000000000000000000000000000000000000000000000000000000000000000000000000000000000000000000000000000000000000000000000000000000000000000000000000000000000000000000000000000000000000000000000001000000000000000000000000000000000000000000000001000000000000
310
00010000000000000000000000000000000000000000000000000000000000000000000000010000000000000001000000000000000000000000000000000000000000000000000000000000000000000000000000000000000000000000000000000000000000000000000000000000000000000000000000000000000000
310
00000000000000000000000000000000000000000101010101000000000000000000000000000000000000000000010000000000000001000000000000000000000000000000000000000000000000000000000000000000000001000000000000000001000000000000000000000000000000000000000000000000000000
310
00000000000000000000000000000000000000000000000000000000000000000000000000000000000000000101010101010101010101010101010101010101010101010101010101010101010101010000000000000000000000000000000000000001000000000000000100000000000000000000000000000000000000
310
00000000000000000000000000000000010000000101010100010000000000000000000000000000000000000000000000000000000000000000000000000000000000000000010101010101010101010101010101010101010101010101010101000000000000000000000000000000000000000000000000000101010000
310
00010000000001010000000000000000000000000000000000010000000000000001000000000000000000000000000000000000000000000000000000000000000000000001000000010101010001000000000000000000000000000000000000000000000000000000000000000000000000000000000000010100000000
310
00000000000000000000000000000000000000000000000000000000000000000000000000000000000000000000000101010101010101010101010101010000000000000000000000000000000001000000000000000001000000000000000000000000000000000000000000000000000000000000000000010000000001
310
00010100010000000000000000000000000000000000000000000000000000000000000000000000000000000000010000000000000000000000000000000000000000000000000000000000000000000000000000000000000000000000000000000000010101000000000100000000000101000000000000000000000000
310
00000000010000000000000000010000000000000000000000000000000000000000000000000000000000000000000100000000010001010001000000000000000000000000000000000000000000000000000000000000000000000000000000000001000000000000000000000000000000000000000000000000000000
310
00000000000000000000000000000000000000000000000000010001010000010100010100000001010000000000000000000000000000000001000000000000000001000000000000000000000000000000000000000000000000000000000000000000010000000001000101000100000000000000000000000000000000
310
00000000000000000000000000000000000000000000000000010000000000000000000000000000000000000000000000000000000000000000000000000000000000000000000000000000000001010100000100000000000100000001010000000000000000000000000000000100000100000000000100000000000000
310
00000000000000000000000000000000000000000000000000000100000000010001010001000000000000000000000000000000000000000000000000000000000000000000000000000000000001000000000000000000000000000000000000000000000000000000000000000000000000000000000000000000000000
310
00000000010101000001000000000001000000010100000000000000000000000000000001000001000000000001000000000000000000000000000000000000000000000000000000000000000000010000000001000101000100000000000000000000000000000000000000000000000000000000000000000000000000
310
00000000010000000000000000000000000000000000000000000000000000000000000000000000000000000000000000000000000000000001010100000100000000000100000001010000000000000000000000000000000100000101000000000001000000000000000000000000000000000000000000000000000000
310
00000000000100000000010001010001000000000000000000000000000000000000000000000000000000000000000000000000000000000001000000000000000000000000000000000000000000000000000000000000000000000000000000000000000000000000000000000101010000010000000000010000010001
310
00000000000000000000000000000001000000010000000000010000000000000000000000000000000000000000000000000000000000000001000000000001000101000100000000000000000000000000000000000000000000000000000000000000000000000000000000000100000000000000000000000000000000
310
00000000000000000000000000000000000000000000000000000000000000000000000001010101000001010001010000000101010000000000000000000000000000000100000001010000000001000000000000000000000000000000000000000000000000000000000000000100000000000100010100010000000000
310
00000000000000000000000000000000000000000000000000000000000000000000000001000000000000000000000000000000000000000000000000000000000000000000000000000000000000000000000000000000000101010100000000010000000000010101000000000000000000000000000000010000000101
310
00000000010000000000000000000000000000000000000000000000000000000000000001000000000001010101000100000000000000000000000000000000000000000000000000000000000000000000000000000000000100000000000000000000000000000000000000000000000000000000000000000000000000
310
00000000000000000000000000000001000101010101010101010101010101010000000000000000000000000000000100000001010000000000010000000000000000000000000000000000000000000000000000000000000100000000000101010100010000000000000000000000000000000000000000000000000000
310
00000000000000000000000000000001000000000000000000000000000000000000000000000000000000000000000000000000000000000000000000000000000000000100000100010100000000010100010001000000000000000000000000000000010000000001000000000001000000000000000000000000000000
310
00000000000000000000000000000001000000000000000000000100000000000000000000000000000000000000000000000000000000000000000000000000000000000100000000000000000000000000000000000000000000000000000000000000000000000000000000000000000000000000000000010000000101
310
00010101010000010000010000000000000000000000000000000001010101010100000000010000000000000000000000000000000000000000000000000000000000010000000000000000000101010000000000000000000000000000000000000000000000000000000000000000000000000000000000010000000000
310
00000000000000000000000000000000000000000000000000000000000000000000000000000000000000000000000100000000000101010101010100000001000000000000000000000000000000000000000000010000000001000000000000000000000000000000000000000000000000000000000001000000000000
310
01010100000100000000000000000000000000000000000000000000000000000000000000000000000000000000000100000000000000000000000000000000000000000000000000000000000000000000000000000000000000000000000000000000010000000101010000000101010100000100000000000000000000
310
00000000000000000000000100000000000100000000000000000000000000000000000000000000000000000000010000000000000100000000010000000000000000000000000000000000000000000000000000000000000000000000000000000000010000000000000000000000000000000000000000000000000000
310
00000000000000000000000000000000000000000000000000000100000101000000000000000101000001000000000000000000000000000000000000000000010000000000010000000000000000000000000000000000000000000000000000000001000000000001000000000001000000000000000000000000000000
310
00000000000000000000000000000000000000000000000000000100000000000000000000000000000000000000000000000000000000000000000000000000000000000000000000000000000000010000010000000000000000000101000100000000000000000000000000000000000000000000010000000001000000
310
00000000000000000000000000000000000000000000000000010000000000010000000000010000000000000000000000000000000000000000000000000000000000000000000000000000000000010000000000000000000000000000000000000000000000000000000000000000000000000000000000000000000000
310
00000000000100010100000000000000000001010001000000000000000000000000000000000000000000000100000000010000000000000000000000000000000000000000000000000000000100000000000001000000000001000000000000000000000000000000000000000000000000000000000000000000000000
310
00000000000100000000000000000000000000000000000000000000000000000000000000000000000000000000000000000000000000000000010001010000000000000000000001010100000000000000000000000000000000000000000000010000000000010000000000000000000000000000000000000000000000
310
00000001000000000000010000000000010000000000000000000000000000000000000000000000000000000000000000000000000000000000010000000000000000000000000000000000000000000000000000000000000000000000000000000000000000000000000000000001000101000000000000000000010001
310
01000000000000000000000000000000000000000000000100000000000100000000000000000000000000000000000000000000000000000100000000000001000000000001000000000000000000000000000000000000000000000000000000000000000000000000000000000001000000000000000000000000000000
310
00000000000000000000000000000000000000000000000000000000000000000000000000010000010000000000000000000101000100000000000000000000000000000000000000000000000100000000010000000000000000000000000000000000000000000000000000010000000000000001000000000100000000
310
00000000000000000000000000000000000000000000000000000000000000000000000000010000000000000000000000000000000000000000000000000000000000000000000000000000000000000000000000000000000001000001010000000000000001000100010000000000000000000000000000000000000000
310
00000001000000000001000000000000000000000000000000000000000000000000000100000000000000010100000001000000000000000000000000000000000000000000000000000000000000000000000000000000000001000000000000000000000000000000000000000000000000000000000000000000000000
310
00000000000000000000000000000000010000000101000000000001010100000100000000000000000000000000000000000000000000000100000000000100000000000000000000000000000000000000000000000000010000000000000000000101010100000000000000000000000000000000000000000000000000
310
00000000000000000000000000000000010000000000000000000000000000000000000000000000000000000000000000000000000000000000000000000000000000000001000000010101010101010101010000010000000000000000000000000000000000000000000000000100000000010000000000000000000000
310
00000000000000000000000000010000000000000000000000000001000000000000000000000000000000000000000000000000000000000000000000000000000000000001000000000000000000000000000000000000000000000000000000000000000000000000000000000000000000000000000000000100000000
310
00010101010100000000000100000000000000000000000000000000000000000000000001000000000100000000000000000000000000000000000000000000000001000000000000000000000000000100000000000000000000000000000000000000000000000000000000000000000000000000000000000100000000
310
00000000000000000000000000000000000000000000000000000000000000000000000000000000000000000000000001000000000000000000000000000000010000000000000000000000000000000000000000000000000100000000000100000000000000000000000000000000000000000000000100000000000000
310
00000000000001000000000000000000000000000000000000000000000000000000000000000000000000000000000001000000000000000000000000000000000000000000000000000000000000000000000000000000000000000000000000000000000100000000000000000000000000000001000000000000000000
310
00000000000000000000000000000001000000000001000000000000000000000000000000000000000000000001000000000000000000010101010000000000000000000000000000000000000000000000000000000000000000000000000000000000000100000000000000000000000000000000000000000000000000
310
00000000000000000000000000000000000000000000000000000001000000000000000000000000000000010000000000000000000000000000000000000000000000000001000000000100000000000000000000000000000000000000000000000100000000000000010100000000000000000000000000000000000000
310
00000000000000000000000000000000000000000000000000000001000000000000000000000000000000000000000000000000000000000000000000000000000000000000000000000000000000000100000000000000000000000000000001000000000000000000000000000000000000000000000000000100000000
310
01000000000000000000000000000000000000000000000100000000000000010000000000000000000000000000000000000000000000000000000000000000000000000000000000000000000000000100000000000000000000000000000000000000000000000000000000000000000000000000000000000000000000
310
00000000000001000000000000000000000000000000010000000000000000000000000000000000000000000000000001000000000001000000000000000000000000000000000000000000010000000000000001000000000000000000000000000000000000000000000000000000000000000000000000000000000000
310
00000000000001000000000000000000000000000000000000000000000000000000000000000000000000000000000000000000000000000000000100000000000000000000000000000001000000000000000000000000000000000000000000000000000100000000000100000000000000000000000000000000000000
310
00000100000000000001000000000000000000000000000000000000000000000000000000000000000000000000000000000000000000000000000100000000000000000000000000000000000000000000000000000000000000000000000000000000000000000000000000000000010000000000000000000000000000
310
00010000000000000000000000000000000000000000000000000000010000000000010000000000000000000000000000000000000001000000000000000100000000000000000000000000000000000000000000000000000000000000000000000000000000000000000000000000010000000000000000000000000000
310
00000000000000000000000000000000000000000000000000000000000000000000000000000100000000000000000000000000000001000000000000000000000000000000000000000000000000000001000000000001000000000000000000000000000000000000000100000000000000010000000000000000000000
310
00000000000000000000000000000000000000000000000000000000000000000000000000000100000000000000000000000000000000000000000000000000000000000000000000000000000000000000000000000000000000010000000000000000000000000000000100000000000000000000000000000000000000
310
00000000000000010000000000000101000000000000000000000000000000010100000000000000000100000000000000000000000000000000000000000000000000000000000000000000000000000000000000000000000000010000000000000000000000000000000000000000000000000000000000000000000000
310
00000000000000000000000000000000000100000000000000000000000000000001000000000000000000000000000000000000000000000000000000010000000000000001010101010101010101010101010100000000000000000001000000000000000000000000000000000000000000000000000000000000000000
310
00000000000000000000000000000000000100000000000000000000000000000000000000000000000000000000000000000000000000000000000000000000000000000000010000000000000000000000000000000100000000000000000000000000000000000000000000000000000001000000000000000000000000
310
00000000000000000000000000000000000000010000000000000000000000000000000000000000000000000000000000000000000000000000000000000000000000000000010000000000000000000000000000000000000000000000000000000000000000000000000000000000000000000000000000000001000000
310
00000000010000000000000001000000000000000000000000000000000000000000000000000000010000000000000000000000000000000000000000000000000000000000000001000000000000000000000000000000000000000000000000000000000000000000000000000000000000000000000000000001000000
310
00000000000000000000000000000000000000000000000000000000000000000000000000000000000000000000000000010000000000000100010100000000000100000000000000000000000000000000000000000000000000000001000000000000000000000000000000000000000000000000000000000000000100
310
00000000000000000000000000000000000000000000000000000000000000000000000000000000000000000000000000010000000000000000000000000000000000000000000000000000000000000000000000000000000000000000000000000000000001000000000001000000000100000000010000000000000000
310
00000000000000000000000000000000000000000100000000000000000000000000000000000000000000000000000000000001000000000000000000000000000000000000000000000000000000000000000000000000000000000000000000000000000001000000000000000000000000000000000000000000000000
310
00000000000000000000000000000000000000000000000000000000010000000001000000000001000000000100000000000000000000000000000000000000000000000000000000010000000000000000000000000000000000000000000000000000000000000100000000000000000000000000000000000000000000
310
00000000000000000000000000000000000000000000000000000000010000000000000000000000000000000000000000000000000000000000000000000000000000000000000000000000000000000001000000000100000000000001000000010000000000000000000000000000000000000000000000000000000001
310
00000000000000000000000000000000000000000000000000000000000100000000000000000000000000000000000000000000000000000000000000000000000000000000000000000000000000000001000000000000000000000000000000000000000000000000000000000000000000000000000000000000000000
310
00000000000000010000000001000000000000010000000100000000000000000000000000000000000000000000000000000000000100000000000000000000000000000000000000000000000000000000010000000000000000000000000000000000000000000000000000000000000000000000000000000000000000
310
00000000000000010000000000000000000000000000000000000000000000000000000000000000000000000000000000000000000000000000000001000000000100000000000001000000010000000000000000000000000000000000000000000000000000000000010000000000000000000000000000000000000000
310
00000000000000000100000000000000000000000000000000000000000000000000000000000000000000000000000000000000000000000000000001000000000000000000000000000000000000000000000000000000000000000000000000000000000000000000000000000000000100000000010000000000000100
310
00000100000000000000000000000000000000000000000000000000000000000100000000000000000000000000000000000000000000000000000000010000000000000000000000000000000000000000000000000000000000000000000000000000000000000000000000000000000100000000000000000000000000
310
00000000000000000000000000000000000000000000000000000000000000000000000000000001000000000100000000000001000000010000000000000000000000000000000000000000000000000000000000010000000000000000000000000000000000000000000000000000000001000000000000000000000000
310
00000000000000000000000000000000000000000000000000000000000000000000000000000001000000000000000000000000000000000000000000000000000000000000000000000000000000000000000000000000000000000100000000010000000000000100000001000000000000000000000000000000000000
310
00000000000000000000000001000000000000000000000000000000000000000000000000000000010000000000000000000000000000000000000000000000000000000000000000000000000000000000000000000000000000000100000000000000000000000000000000000000000000000000000000000000000000
310
00000000000000000000000000000000000001000000000100000000000001000000010000000000000000000000000000000000000000000000000000000000000100000000000000000000000000000000000000000000000000000100000000000000000000000000000000000000000000000000000000000000000000
310
00000000000000000000000000000000000001000000000000000000000000000000000000000000000000000000000000000000000000000000000000000000000000000000000100000000010000000000000100000001000000000000000000000000000000000000000000000000000000000000010000000000000000
310
00000000000000000000000000000000000001000000000000000000000000000000000000000000000000000000000000000000000000000000000000000000000000000000000100000000000000000000000000000000000000000000000000000000000000000000000000000000000000000000000000000000010000
310
00000100000000000001000000010000000000000000000000000000000000000000000000000000000000000100000000000000000000000000000000000000000000000000000100000000000000000000000000000000000000000000000000000000000000000000000000000000000000000000000000000000010000
310
00000000000000000000000000000000000000000000000000000000000000000000000000000000000000000000000000000100000000010000000000000100000001000000000000000000000000000000000000000000000000000000000000000100000000000000000000000000000000000000000000000000010000
310
00000000000000000000000000000000000000000000000000000000000000000000000000000000000000000000000000000100000000000000000000000000000000000000000000000000000000000000000000000000000000000000000000000000000000010000000001000000000000010000000100000000000000
310
00000000000000000000000000000000000000000000000001000000000000000000000000000000000000000000000000000100000000000000000000000000000000000000000000000000000000000000000000000000000000000000000000000000000000010000000000000000000000000000000000000000000000
310
00000000000000000000000000000000000000000000000000000000000100000000010000000000000100000001000000000000000000000000000000000000000000000000000000000000000100000000000000000000000000000000000000000000000000010000000000000000000000000000000000000000000000
310
00000000000000000000000000000000000000000000000000000000000100000000000000000000000000000000000000000000000000000000000000000000000000000000000000000000000000000000010000000001000000000000010000000100000000000000000000000000000000000000000000000000000000
310
00000000010000000000000000000000000000000000000000000000010000000000000000000000000000000000000000000000000000000000000000000000000000000000000000000000000000000000010000000000000000000000000000000000000000000000000000000000000000000000000000000000000000
310
00000000000000000100000000010000000000000100000001000000000000000000000000000000000000000000000000000000000000000001000000000000000000000000000000000000000000000001000000000000000000000000000000000000000000000000000000000000000000000000000000000000000000
310
00000000000000000100000000000000000000000000000000000000000000000000000000000000000000000000000000000000000000000000000000010000000001000000000000010000000100000000000000000000000000000000000000000000000000000000000000000100000000000000000000000000000000
310
00000000000000010000000000000000000000000000000000000000000000000000000000000000000000000000000000000000000000000000000000010000000000000000000000000000000000000000000000000000000000000000000000000000000000000000000000000000000001000000000100000000000001
310
00000001000000000000000000000000000000000000000000000000000000000000000001000000000000000000000000000000000000000000000001000000000000000000000000000000000000000000000000000000000000000000000000000000000000000000000000000000000001000000000000000000000000
310
00000000000000000000000000000000000000000000000000000000000000000000000000000000010000000001000000000000010000000100000000000000000000000000000000000000000000000000000000000000000001000000000000000000000000000000000000000000000100000000000000000000000000
310
00000000000000000000000000000000000000000000000000000000000000000000000000000000010000000000000000000000000000000000000000000000000000000000000000000000000000000000000000000000000000000001000000000100000000000001000000010000000000000000000000000000000000
310
00000000000000000000000000000000010101010101010101010101010101010101010101010101000000000000000000000000000000000000000000000000000000000000000000000000000000000000000000000000000000000001000000000000000000000000000000000000000000000000000000000000000000
310
00000000000000000000000000000000000000010000000001000000000000010000000100000000000000000000000000000000000000000000000000000000000000000001000000000000000000000000000000000000000000010000000000000000000000000000000000000000000000000000000000000000000000
310
00000000000000000000000000000000000000010000000000000000000000000000000000000000000000000000000000000000000000000000000000000000000000000000000001000000000100000000000001000000010000000000000000000000000000000000000000000000000000000000000000000100000000
310
00000000000000000000000000000000000100000000000000000000000000000000000000000000000000000000000000000000000000000000000000000000000000000000000001000000000000000000000000000000000000000000000000000000000000000000000000000000000000000000000000000000000100
310
00000001000000000001000000000100000000000000000000000000000000000000000000000000000000000000000000010000000000000000000000000000000000000000010000000000000000000000000000000000000000000000000000000000000000000000000000000000000000000000000000000000000001
310
00000000000000000000000000000000000000000000000000000000000000000000000000000000000000000000000000000001000000000001000000000100000000010000000000000000000000000000000000000000000000000000000000000000000001000000000000000000000000000000000000000001000000
310
00000000000000000000000000000000000000000000000000000000000000000000000000000000000000000000000000000000010000000000000000000000000000000000000000000000000000000000000000000000000000000000000000000000000000000100000000000101010101000000000001000000000000
310
00000000000000000000000000000000000000000000000000000000010000000000000000000000000000000000000000010000000000000000000000000000000000000000000000000000000000000000000000000000000000000000000000000000000000000000010000000000000000000000000000000000000000
310
00000000000000000000000000000000000000000000000000000000000001000000000000000000000000000000010000000000000000000000000000000000000000000000000000000000000000000001000000000000000000000000000000000000000100000000000000000000000000000000000000000000000000
310
00000000000000000000000000000000000000000000000000000000000000000001010000000000000000000000000000000000000000000000000000000000000000000000000000000000000000000000000001000000000000000000000000000100000000000000000000000000000000000000000000000000000000
310
00000000000000000100000000000000000000000000000000000001000000000000000000000000000000000000000000000000000000000000000000000000000000000000000000000000000000000000000000000000010101010101010101010101010101010101010101010101010101010101010101010101010101
310
01010101010101010101010000000000000000000000000001000000000000000000000000000000000000000000000000000000000000000000000000010000000000000000000000000000000000000100000000000000000000000000000000000000000000000000000000000000000000000000000000000000000000
310
00000000000000000000000000000000000000000000000000000000000000000000000000000000000000000000000000000000000000000000000000000001010000000000000000000000000100000000000000000000000000000000000000000000000000000000000000000000000000010000000000000000000000
310
00000000000100000000000000000000000000000000000000000000000000000000000000000000000000000000000000000000000000000000000000000000000000000000000000000000000000000000000000000000000000000000000000000000000000000000000000000000000000000001010000000000000000
310
00000100000000000000000000000000000000000000000000000000000000000000000000000000000101000000000000000000000000000001010000000000000000000000000000000000000000000000000000000000000000000000000000000000000000000000000000000000000000000000000000000000000000
310
00000000000000000000000000000000000000000000000000000000000000000000000000000000000000000101000000000000000101000000000000000000000000000000000000000000000000000000000000000000000000000000000101010100000000000000000101010100000000000000000000000000000000
310
00000000000000000000000000000000000000000000000000000000000000000000000000000000000000000000000000000000000000000000000000000000000000000000000000000000000000000000000000000000000000000000000000000101010101010101010000000000000000000000000000000000000000
310
00000000000000000000000000000000000000000000000001010101010101010101000000000000000000000000000000000000000000000000000000000000000000000000000000000000000000000000000000000000000000000000000000000000000000000000000000000000000000000000000000000000000000
310
00000000000000000000000000000000000000000000000000000000010000000000000000000000000000000000000000000000000000000000000000000000000000000000000000000000000000000000000000000000000000000000000000000000000000000000000000000000000000000000000000000000000000
310
00000000000000000000000000000000000000000000000000000000000000000000000000000000000000000000000000000000000000000000000000000000000000000000000000000000000000000000000000000000000000000000000000000000000000000000000000000000000000000000000000000000000000
310
00000000000000000000000000000000000000000000000000000000000000000000000000000000000000000000000000000000000000000000000000000000000000000000000000000000000000000000000000000000000000000000000000000000000000000000000000000000000000000000000000000000000000
310
00000000000000000000000000000000000000000000000000000000000000000000000000000000000000000000000000000000000000000000000000000000000000000000000000000000000000000000000000000000000000000000000000000000000000000000000000000000000000000000000000000000000000
310
00000000000000000000000000000000000000000000000000000000000000000000000000000000000000000000000000000000000000000000000000000000000000000000000000000000000000000000000000000000000000000000000000000000000000000000000000000000000000000000000000000000000000
310
00000000000000000000000000000000000000000000000000000000000000000000000000000000000000000000000000000000000000000000000000000000000000000000000000000000000000000000000000000000000000000000000000000000000000000000000000000000000000000000000000000000000000
310
00000000000000000000000000000000000000000000000000000000000000000000000000000000000000000000000000000000000000000000000000000000000000000000000000000000000000000000000000000000000000000000000000000000000000000000000000000000000000000000000000000000000000
310
00000000000000000000000000000000000000000000000000000000000000000000000000000000000000000000000000000000000000000000000000000000000000000000000000000000000000000000000000000000000000000000000000000000000000000000000000000000000000000000000000000000000000
310
000000000000000000000000000000000000000000000000000000000000000000000000000000000000000000000000000000000000000000000000000000000000000000000000000000000000000000000000000000000000000000000000000000000000000000000000
  0
ENDSEC
  0
EOF
