999
DXF file: S:\Prolink\03_Konstruktion\CAD-Plots\Internet\2D_neu\S9\s9-57_grt_cm_w50.dxf
999
Pro/ENGINEER 2012230 by Parametric Technology Corporation
  0
SECTION
  2
HEADER
  9
$ACADVER
  1
AC1021
  9
$DWGCODEPAGE
  3
ANSI_1252
  9
$EXTMAX
 10
297.0
 20
210.0
 30
0.0
  9
$EXTMIN
 10
0.0
 20
0.0
 30
0.0
  9
$LIMMIN
 10
0.0
 20
0.0
  9
$LIMMAX
 10
297.0
 20
210.0
  9
$VIEWCTR
 10
148.5
 20
105.0
  9
$VIEWSIZE
 40
210.0
  9
$CLAYER
  8
0
  9
$LTSCALE
 40
16.335
  9
$CELTYPE
  6
BYLAYER
  9
$DIMSCALE
 40
1.0
  9
$DIMASZ
 40
3.5
  9
$DIMEXO
 40
0.0
  9
$DIMDLI
 40
11.286
  9
$DIMEXE
 40
1.5
  9
$DIMCEN
 40
2.673
  9
$DIMLFAC
 40
1.0
  9
$DIMBLK
  1
_FILLED
  9
$DIMTXT
 40
3.5
  9
$DIMTOL
 70
1
  9
$DIMLIM
 70
0
  9
$DIMTFAC
 40
1.0
  9
$DIMTP
 40
0.005
  9
$DIMTM
 40
0.005
  9
$DIMGAP
 40
0.625
  9
$DIMDSEP
 70
46
  9
$PDMODE
 70
3
  9
$PDSIZE
 40
0.3125
  9
$HANDSEED
  5
2E6
  9
$TILEMODE
 70
1
  9
$MEASUREMENT
 70
1
  9
$INSUNITS
 70
4
  0
ENDSEC
  0
SECTION
  2
CLASSES
  0
CLASS
  1
ACDBDICTIONARYWDFLT
  2
AcDbDictionaryWithDefault
  3
AutoCAD 2000
 90
0
 91
1
280
0
281
0
  0
CLASS
  1
ACDBPLACEHOLDER
  2
AcDbPlaceHolder
  3
AutoCAD 2000
 90
0
 91
1
280
0
281
0
  0
CLASS
  1
LAYOUT
  2
AcDbLayout
  3
AutoCAD 2000
 90
0
 91
0
280
0
281
0
  0
ENDSEC
  0
SECTION
  2
TABLES
  0
TABLE
  2
VPORT
  5
8
100
AcDbSymbolTable
 70
2
  0
VPORT
  5
1F4
100
AcDbSymbolTableRecord
100
AcDbViewportTableRecord
  2
*ACTIVE
 70
0
 10
0.0
 20
0.0
 11
1.0
 21
1.0
 12
148.5
 22
105.0
 13
0.0
 23
0.0
 14
1.0
 24
1.0
 15
0.0
 25
0.0
 16
0.0
 26
0.0
 36
1.0
 17
0.0
 27
0.0
 37
0.0
 40
210.0
 41
1.4142857143
 42
50.0
 43
0.0
 44
0.0
 50
0.0
 51
0.0
 71
0
 72
100
 73
1
 74
1
 75
0
 76
0
 77
0
 78
0
  0
ENDTAB
  0
TABLE
  2
LTYPE
  5
5
100
AcDbSymbolTable
 70
6
  0
LTYPE
  5
14
100
AcDbSymbolTableRecord
100
AcDbLinetypeTableRecord
  2
BYBLOCK
 70
0
  3

 72
65
 73
0
 40
0.0
  0
LTYPE
  5
15
100
AcDbSymbolTableRecord
100
AcDbLinetypeTableRecord
  2
BYLAYER
 70
0
  3

 72
65
 73
0
 40
0.0
  0
LTYPE
  5
16
100
AcDbSymbolTableRecord
100
AcDbLinetypeTableRecord
  2
CONTINUOUS
 70
64
  3
Solid line
 72
65
 73
0
 40
0.0
  0
LTYPE
  5
1F5
100
AcDbSymbolTableRecord
100
AcDbLinetypeTableRecord
  2
CENTER
 70
64
  3
____ _ ____ _ ____ _ ____ _ ____ _ ____ _ ____
 72
65
 73
4
 40
0.6
 49
0.375
 74
0
 49
-0.075
 74
0
 49
0.075
 74
0
 49
-0.075
 74
0
  0
LTYPE
  5
1F6
100
AcDbSymbolTableRecord
100
AcDbLinetypeTableRecord
  2
HIDDEN
 70
64
  3
- - - - - - - - - - - - - - - - - - - -
 72
65
 73
2
 40
0.2
 49
0.1
 74
0
 49
-0.1
 74
0
  0
LTYPE
  5
1F7
100
AcDbSymbolTableRecord
100
AcDbLinetypeTableRecord
  2
PHANTOM
 70
64
  3
_____ _ _ _____ _ _ _____ _ _ _____
 72
65
 73
6
 40
0.8
 49
0.45
 74
0
 49
-0.05
 74
0
 49
0.1
 74
0
 49
-0.05
 74
0
 49
0.1
 74
0
 49
-0.05
 74
0
  0
LTYPE
  5
1F8
100
AcDbSymbolTableRecord
100
AcDbLinetypeTableRecord
  2
DOT
 70
64
  3
. . . . . . . . . . . . . . . . . . . .
 72
65
 73
2
 40
0.2
 49
0.1
 74
0
 49
-0.1
 74
0
  0
LTYPE
  5
1F9
100
AcDbSymbolTableRecord
100
AcDbLinetypeTableRecord
  2
DASHED
 70
64
  3
- - - - - - - - - - - - - - - - - - - -
 72
65
 73
2
 40
0.2
 49
0.1
 74
0
 49
-0.1
 74
0
  0
ENDTAB
  0
TABLE
  2
LAYER
  5
2
100
AcDbSymbolTable
 70
36
  0
LAYER
  5
10
100
AcDbSymbolTableRecord
100
AcDbLayerTableRecord
  2
0
 70
0
 62
7
  6
CONTINUOUS
370
-3
390
F
  0
LAYER
  5
1FA
100
AcDbSymbolTableRecord
100
AcDbLayerTableRecord
  2
DEFAULT_1
 70
0
 62
7
  6
CENTER
370
-3
390
F
  0
LAYER
  5
1FB
100
AcDbSymbolTableRecord
100
AcDbLayerTableRecord
  2
DEFAULT_2
 70
0
 62
8
  6
HIDDEN
370
-3
390
F
  0
LAYER
  5
1FC
100
AcDbSymbolTableRecord
100
AcDbLayerTableRecord
  2
DEFAULT_3
 70
0
 62
7
  6
PHANTOM
370
-3
390
F
  0
LAYER
  5
1FD
100
AcDbSymbolTableRecord
100
AcDbLayerTableRecord
  2
01___PRT_ALL_DTM_PLN
 70
0
 62
7
  6
CONTINUOUS
370
-3
390
F
  0
LAYER
  5
1FE
100
AcDbSymbolTableRecord
100
AcDbLayerTableRecord
  2
01___PRT_DEF_DTM_PLN
 70
0
 62
7
  6
CONTINUOUS
370
-3
390
F
  0
LAYER
  5
1FF
100
AcDbSymbolTableRecord
100
AcDbLayerTableRecord
  2
02___PRT_ALL_AXES
 70
0
 62
7
  6
CONTINUOUS
370
-3
390
F
  0
LAYER
  5
200
100
AcDbSymbolTableRecord
100
AcDbLayerTableRecord
  2
03___PRT_ALL_CURVES
 70
0
 62
7
  6
CONTINUOUS
370
-3
390
F
  0
LAYER
  5
201
100
AcDbSymbolTableRecord
100
AcDbLayerTableRecord
  2
04___PRT_ALL_DTM_PNT
 70
0
 62
7
  6
CONTINUOUS
370
-3
390
F
  0
LAYER
  5
202
100
AcDbSymbolTableRecord
100
AcDbLayerTableRecord
  2
05___PRT_ALL_DTM_CSYS
 70
0
 62
7
  6
CONTINUOUS
370
-3
390
F
  0
LAYER
  5
203
100
AcDbSymbolTableRecord
100
AcDbLayerTableRecord
  2
05___PRT_DEF_DTM_CSYS
 70
0
 62
7
  6
CONTINUOUS
370
-3
390
F
  0
LAYER
  5
204
100
AcDbSymbolTableRecord
100
AcDbLayerTableRecord
  2
06___PRT_ALL_SURFS
 70
0
 62
7
  6
CONTINUOUS
370
-3
390
F
  0
LAYER
  5
205
100
AcDbSymbolTableRecord
100
AcDbLayerTableRecord
  2
AUSFORMSCHRAEGEN
 70
0
 62
7
  6
CONTINUOUS
370
-3
390
F
  0
LAYER
  5
206
100
AcDbSymbolTableRecord
100
AcDbLayerTableRecord
  2
BEZUGSACHSEN
 70
0
 62
7
  6
CONTINUOUS
370
-3
390
F
  0
LAYER
  5
207
100
AcDbSymbolTableRecord
100
AcDbLayerTableRecord
  2
BEZUGSEBENE
 70
0
 62
7
  6
CONTINUOUS
370
-3
390
F
  0
LAYER
  5
208
100
AcDbSymbolTableRecord
100
AcDbLayerTableRecord
  2
BEZUGSEBENEN-KES
 70
0
 62
7
  6
CONTINUOUS
370
-3
390
F
  0
LAYER
  5
209
100
AcDbSymbolTableRecord
100
AcDbLayerTableRecord
  2
RUNDUNGEN
 70
0
 62
7
  6
CONTINUOUS
370
-3
390
F
  0
ENDTAB
  0
TABLE
  2
STYLE
  5
3
100
AcDbSymbolTable
 70
1
  0
STYLE
  5
11
100
AcDbSymbolTableRecord
100
AcDbTextStyleTableRecord
  2
STANDARD
 70
0
 40
0.0
 41
0.7
 50
0.0
 71
0
 42
0.2
  3
txt
  4

  0
STYLE
  5
20A
100
AcDbSymbolTableRecord
100
AcDbTextStyleTableRecord
  2
TEXTSTYLE_1
 70
0
 40
0.0
 41
0.8
 50
0.0
 71
0
 42
0.2
  3
gdt
  4

  0
ENDTAB
  0
TABLE
  2
VIEW
  5
6
100
AcDbSymbolTable
 70
0
  0
ENDTAB
  0
TABLE
  2
UCS
  5
7
100
AcDbSymbolTable
 70
0
  0
ENDTAB
  0
TABLE
  2
APPID
  5
9
100
AcDbSymbolTable
 70
1
  0
APPID
  5
20B
100
AcDbSymbolTableRecord
100
AcDbRegAppTableRecord
  2
ACAD
 70
0
  0
ENDTAB
  0
TABLE
  2
BLOCK_RECORD
  5
1
100
AcDbSymbolTable
 70
0
  0
BLOCK_RECORD
  5
20C
100
AcDbSymbolTableRecord
100
AcDbBlockTableRecord
  2
*Model_Space
  0
BLOCK_RECORD
  5
20D
100
AcDbSymbolTableRecord
100
AcDbBlockTableRecord
  2
*Paper_Space
  0
ENDTAB
  0
TABLE
  2
DIMSTYLE
  5
A
100
AcDbSymbolTable
 70
1
100
AcDbDimStyleTable
 71
0
  0
DIMSTYLE
105
20E
100
AcDbSymbolTableRecord
100
AcDbDimStyleTableRecord
  2
STANDARD
 70
0
  3

  4

 40
1.0
 41
3.5
 42
0.0
 43
0.38
 44
1.5
 45
0.0
 46
0.0
 47
0.005
 48
0.005
140
3.5
141
0.09
142
0.0
143
25.4
144
1.0
145
0.0
146
1.0
147
0.625
 71
1.0
 72
0.0
 73
0
 74
0
 75
0
 76
0
 77
1
 78
8
170
0
171
2
172
0
173
0
174
0
175
0
176
0
177
0
178
5
270
2
271
3
272
3
273
2
274
2
275
0
280
0
281
0
282
0
283
1
284
8
285
0
286
0
287
3
288
0
340
11
278
46
  0
ENDTAB
  0
ENDSEC
  0
SECTION
  2
BLOCKS
  0
BLOCK
  5
20
100
AcDbEntity
  8
0
100
AcDbBlockBegin
  2
*Model_Space
 70
0
 10
0.0
 20
0.0
 30
0.0
  3
*Model_Space
  1

  0
ENDBLK
  5
21
100
AcDbEntity
  8
0
100
AcDbBlockEnd
  0
BLOCK
  5
1C
100
AcDbEntity
  8
0
100
AcDbBlockBegin
  2
*Paper_Space
 70
0
 10
0.0
 20
0.0
 30
0.0
  3
*Paper_Space
  1

  0
ENDBLK
  5
1D
100
AcDbEntity
  8
0
100
AcDbBlockEnd
  0
ENDSEC
  0
SECTION
  2
ENTITIES
  0
LINE
  5
20F
100
AcDbEntity
  8
0
100
AcDbLine
 62
7
  6
CONTINUOUS
 10
0.0
 20
0.0
 11
0.0
 21
210.0
  0
LINE
  5
210
100
AcDbEntity
  8
0
100
AcDbLine
 62
7
  6
CONTINUOUS
 10
0.0
 20
0.0
 11
297.0
 21
0.0
  0
LINE
  5
211
100
AcDbEntity
  8
0
100
AcDbLine
 62
7
  6
CONTINUOUS
 10
0.0
 20
210.0
 11
297.0
 21
210.0
  0
LINE
  5
212
100
AcDbEntity
  8
0
100
AcDbLine
 62
7
  6
CONTINUOUS
 10
297.0
 20
0.0
 11
297.0
 21
210.0
  0
LINE
  5
213
100
AcDbEntity
  8
0
100
AcDbLine
 62
7
  6
CONTINUOUS
 10
76.6809303713
 20
169.0151603243
 11
76.6809303713
 21
154.0151603243
  0
LINE
  5
214
100
AcDbEntity
  8
RUNDUNGEN
100
AcDbLine
 62
7
  6
CONTINUOUS
 10
81.9309303713
 20
154.0151603243
 11
81.9309303713
 21
169.0151603243
  0
LINE
  5
215
100
AcDbEntity
  8
RUNDUNGEN
100
AcDbLine
 62
7
  6
CONTINUOUS
 10
82.9309303714
 20
168.0151603243
 11
82.9309303714
 21
155.0151603243
  0
LINE
  5
216
100
AcDbEntity
  8
RUNDUNGEN
100
AcDbLine
 62
7
  6
CONTINUOUS
 10
83.0132082545
 20
168.0151603243
 11
83.0132082545
 21
155.0151603243
  0
LINE
  5
217
100
AcDbEntity
  8
RUNDUNGEN
100
AcDbLine
 62
7
  6
CONTINUOUS
 10
90.0986524882
 20
155.0151603243
 11
90.0986524882
 21
158.1151603243
  0
LINE
  5
218
100
AcDbEntity
  8
RUNDUNGEN
100
AcDbLine
 62
7
  6
CONTINUOUS
 10
90.0986524882
 20
164.9151603243
 11
90.0986524882
 21
168.0151603243
  0
LINE
  5
219
100
AcDbEntity
  8
RUNDUNGEN
100
AcDbLine
 62
7
  6
CONTINUOUS
 10
90.1809303713
 20
168.0151603243
 11
90.1809303713
 21
164.9151603243
  0
LINE
  5
21A
100
AcDbEntity
  8
RUNDUNGEN
100
AcDbLine
 62
7
  6
CONTINUOUS
 10
90.1809303713
 20
158.1151603243
 11
90.1809303713
 21
155.0151603243
  0
LINE
  5
21B
100
AcDbEntity
  8
0
100
AcDbLine
 62
7
  6
CONTINUOUS
 10
109.5071682926
 20
154.0151603243
 11
93.8546924501
 21
154.0151603243
  0
LINE
  5
21C
100
AcDbEntity
  8
0
100
AcDbLine
 62
7
  6
CONTINUOUS
 10
76.6809303713
 20
154.0151603243
 11
83.9309303714
 21
154.0151603243
  0
LINE
  5
21D
100
AcDbEntity
  8
RUNDUNGEN
100
AcDbLine
 62
7
  6
CONTINUOUS
 10
76.6809303713
 20
154.0151603243
 11
126.6809303714
 21
154.0151603243
  0
LINE
  5
21E
100
AcDbEntity
  8
0
100
AcDbLine
 62
7
  6
CONTINUOUS
 10
119.4309303713
 20
154.0151603243
 11
126.6809303713
 21
154.0151603243
  0
LINE
  5
21F
100
AcDbEntity
  8
RUNDUNGEN
100
AcDbLine
 62
7
  6
CONTINUOUS
 10
82.9309303714
 20
155.0151603243
 11
93.1093364576
 21
155.0151603243
  0
LINE
  5
220
100
AcDbEntity
  8
RUNDUNGEN
100
AcDbLine
 62
7
  6
CONTINUOUS
 10
110.2525242851
 20
155.0151603243
 11
120.4309303713
 21
155.0151603243
  0
LINE
  5
221
100
AcDbEntity
  8
0
100
AcDbLine
 62
7
  6
CONTINUOUS
 10
113.1809303714
 20
158.1151603243
 11
112.4628596978
 21
158.1151603243
  0
LINE
  5
222
100
AcDbEntity
  8
0
100
AcDbLine
 62
7
  6
CONTINUOUS
 10
90.8990010449
 20
158.1151603243
 11
90.1809303713
 21
158.1151603243
  0
LINE
  5
223
100
AcDbEntity
  8
RUNDUNGEN
100
AcDbLine
 62
7
  6
CONTINUOUS
 10
89.9645124609
 20
158.1151603243
 11
90.1809303713
 21
158.1151603243
  0
LINE
  5
224
100
AcDbEntity
  8
RUNDUNGEN
100
AcDbLine
 62
7
  6
CONTINUOUS
 10
113.1809303714
 20
158.1151603243
 11
113.3973482818
 21
158.1151603243
  0
LINE
  5
225
100
AcDbEntity
  8
0
100
AcDbLine
 62
7
  6
CONTINUOUS
 10
113.1809303714
 20
164.9151603243
 11
112.4628596978
 21
164.9151603243
  0
LINE
  5
226
100
AcDbEntity
  8
0
100
AcDbLine
 62
7
  6
CONTINUOUS
 10
90.8990010449
 20
164.9151603243
 11
90.1809303713
 21
164.9151603243
  0
LINE
  5
227
100
AcDbEntity
  8
RUNDUNGEN
100
AcDbLine
 62
7
  6
CONTINUOUS
 10
90.1809303713
 20
164.9151603243
 11
89.9645124609
 21
164.9151603243
  0
LINE
  5
228
100
AcDbEntity
  8
RUNDUNGEN
100
AcDbLine
 62
7
  6
CONTINUOUS
 10
113.1809303714
 20
164.9151603243
 11
113.3973482818
 21
164.9151603243
  0
LINE
  5
229
100
AcDbEntity
  8
RUNDUNGEN
100
AcDbLine
 62
7
  6
CONTINUOUS
 10
120.4309303713
 20
168.0151603243
 11
110.2525242851
 21
168.0151603243
  0
LINE
  5
22A
100
AcDbEntity
  8
RUNDUNGEN
100
AcDbLine
 62
7
  6
CONTINUOUS
 10
93.1093364576
 20
168.0151603243
 11
82.9309303714
 21
168.0151603243
  0
LINE
  5
22B
100
AcDbEntity
  8
0
100
AcDbLine
 62
7
  6
CONTINUOUS
 10
109.5071682926
 20
169.0151603243
 11
93.8546924501
 21
169.0151603243
  0
LINE
  5
22C
100
AcDbEntity
  8
0
100
AcDbLine
 62
7
  6
CONTINUOUS
 10
76.6809303713
 20
169.0151603243
 11
83.9309303714
 21
169.0151603243
  0
LINE
  5
22D
100
AcDbEntity
  8
RUNDUNGEN
100
AcDbLine
 62
7
  6
CONTINUOUS
 10
81.9312321871
 20
169.0151603243
 11
121.4306418891
 21
169.0151603243
  0
LINE
  5
22E
100
AcDbEntity
  8
0
100
AcDbLine
 62
7
  6
CONTINUOUS
 10
119.4309303713
 20
169.0151603243
 11
126.6809303714
 21
169.0151603243
  0
LINE
  5
22F
100
AcDbEntity
  8
RUNDUNGEN
100
AcDbLine
 62
7
  6
CONTINUOUS
 10
113.1809303714
 20
168.0151603243
 11
113.1809303714
 21
164.9151603243
  0
LINE
  5
230
100
AcDbEntity
  8
RUNDUNGEN
100
AcDbLine
 62
7
  6
CONTINUOUS
 10
113.1809303714
 20
158.1151603243
 11
113.1809303714
 21
155.0151603243
  0
LINE
  5
231
100
AcDbEntity
  8
RUNDUNGEN
100
AcDbLine
 62
7
  6
CONTINUOUS
 10
113.2632082545
 20
168.0151603243
 11
113.2632082545
 21
164.9151603243
  0
LINE
  5
232
100
AcDbEntity
  8
RUNDUNGEN
100
AcDbLine
 62
7
  6
CONTINUOUS
 10
113.2632082545
 20
158.1151603243
 11
113.2632082545
 21
155.0151603243
  0
LINE
  5
233
100
AcDbEntity
  8
RUNDUNGEN
100
AcDbLine
 62
7
  6
CONTINUOUS
 10
120.3486524882
 20
155.0151603243
 11
120.3486524882
 21
168.0151603243
  0
LINE
  5
234
100
AcDbEntity
  8
RUNDUNGEN
100
AcDbLine
 62
7
  6
CONTINUOUS
 10
120.4309303713
 20
155.0151603243
 11
120.4309303713
 21
168.0151603243
  0
LINE
  5
235
100
AcDbEntity
  8
RUNDUNGEN
100
AcDbLine
 62
7
  6
CONTINUOUS
 10
121.4309303714
 20
169.0151603243
 11
121.4309303714
 21
154.0151603243
  0
LINE
  5
236
100
AcDbEntity
  8
0
100
AcDbLine
 62
7
  6
CONTINUOUS
 10
126.6809303714
 20
169.0151603243
 11
126.6809303714
 21
154.0151603243
  0
LINE
  5
237
100
AcDbEntity
  8
RUNDUNGEN
100
AcDbLine
 62
7
  6
CONTINUOUS
 10
205.6477653214
 20
155.0151603243
 11
205.6477653214
 21
154.0151603243
  0
LINE
  5
238
100
AcDbEntity
  8
RUNDUNGEN
100
AcDbLine
 62
7
  6
CONTINUOUS
 10
205.6477653214
 20
168.0151603243
 11
205.6477653281
 21
169.0151603243
  0
LINE
  5
239
100
AcDbEntity
  8
RUNDUNGEN
100
AcDbLine
 62
7
  6
CONTINUOUS
 10
214.2134070224
 20
154.0151603243
 11
214.2134070224
 21
169.0151603243
  0
LINE
  5
23A
100
AcDbEntity
  8
RUNDUNGEN
100
AcDbLine
 62
7
  6
CONTINUOUS
 10
214.6106300282
 20
168.0151603243
 11
214.6106300282
 21
155.0151603243
  0
LINE
  5
23B
100
AcDbEntity
  8
RUNDUNGEN
100
AcDbLine
 62
7
  6
CONTINUOUS
 10
200.1710505828
 20
154.0151603243
 11
253.1705397464
 21
154.0151603243
  0
LINE
  5
23C
100
AcDbEntity
  8
RUNDUNGEN
100
AcDbLine
 62
7
  6
CONTINUOUS
 10
205.6477408119
 20
155.0151603243
 11
253.837206413
 21
155.0151603243
  0
LINE
  5
23D
100
AcDbEntity
  8
0
100
AcDbLine
 62
7
  6
CONTINUOUS
 10
250.1705397464
 20
158.1151603243
 11
246.1705397464
 21
158.1151603243
  0
LINE
  5
23E
100
AcDbEntity
  8
RUNDUNGEN
100
AcDbLine
 62
7
  6
CONTINUOUS
 10
230.6705397464
 20
158.1151603243
 11
246.1705397464
 21
158.1151603243
  0
LINE
  5
23F
100
AcDbEntity
  8
0
100
AcDbLine
 62
7
  6
CONTINUOUS
 10
250.1705397464
 20
164.9151603243
 11
246.1705397464
 21
164.9151603243
  0
LINE
  5
240
100
AcDbEntity
  8
RUNDUNGEN
100
AcDbLine
 62
7
  6
CONTINUOUS
 10
230.6705397464
 20
164.9151603243
 11
246.1705397464
 21
164.9151603243
  0
LINE
  5
241
100
AcDbEntity
  8
RUNDUNGEN
100
AcDbLine
 62
7
  6
CONTINUOUS
 10
230.9804494645
 20
155.0151603243
 11
230.9804494645
 21
158.1151603243
  0
LINE
  5
242
100
AcDbEntity
  8
RUNDUNGEN
100
AcDbLine
 62
7
  6
CONTINUOUS
 10
230.9804494645
 20
164.9151603243
 11
230.9804494645
 21
168.0151603243
  0
LINE
  5
243
100
AcDbEntity
  8
RUNDUNGEN
100
AcDbLine
 62
7
  6
CONTINUOUS
 10
231.3776724703
 20
154.0151603243
 11
231.3776724703
 21
158.1151603243
  0
LINE
  5
244
100
AcDbEntity
  8
RUNDUNGEN
100
AcDbLine
 62
7
  6
CONTINUOUS
 10
231.3776724703
 20
164.9151603243
 11
231.3776724687
 21
169.0151603243
  0
LINE
  5
245
100
AcDbEntity
  8
RUNDUNGEN
100
AcDbLine
 62
7
  6
CONTINUOUS
 10
253.837206413
 20
168.0151603243
 11
205.6477425437
 21
168.0151603243
  0
LINE
  5
246
100
AcDbEntity
  8
RUNDUNGEN
100
AcDbLine
 62
7
  6
CONTINUOUS
 10
253.1705268192
 20
169.0151603243
 11
200.1710887649
 21
169.0151603243
  0
LINE
  5
247
100
AcDbEntity
  8
RUNDUNGEN
100
AcDbLine
 62
7
  6
CONTINUOUS
 10
246.1705397464
 20
158.1151603243
 11
246.1705397464
 21
154.0151603243
  0
LINE
  5
248
100
AcDbEntity
  8
RUNDUNGEN
100
AcDbLine
 62
7
  6
CONTINUOUS
 10
246.1705397464
 20
164.9151603243
 11
246.1705397464
 21
169.0151603243
  0
LINE
  5
249
100
AcDbEntity
  8
0
100
AcDbLine
 62
7
  6
CONTINUOUS
 10
257.6705397464
 20
164.5151603243
 11
257.6705397464
 21
158.5151603243
  0
LINE
  5
24A
100
AcDbEntity
  8
RUNDUNGEN
100
AcDbLine
 62
7
  6
CONTINUOUS
 10
93.8546824834
 20
42.8779640442
 11
109.5071801316
 21
42.8779664726
  0
LINE
  5
24B
100
AcDbEntity
  8
0
100
AcDbLine
 62
7
  6
CONTINUOUS
 10
76.6809303713
 20
103.3779511171
 11
76.6809303713
 21
88.3779511171
  0
LINE
  5
24C
100
AcDbEntity
  8
RUNDUNGEN
100
AcDbLine
 62
7
  6
CONTINUOUS
 10
81.9309303713
 20
88.3779511171
 11
81.9309303713
 21
95.8779511171
  0
LINE
  5
24D
100
AcDbEntity
  8
RUNDUNGEN
100
AcDbLine
 62
7
  6
CONTINUOUS
 10
113.1809303714
 20
49.8779511171
 11
112.1809303713
 21
49.8779511171
  0
LINE
  5
24E
100
AcDbEntity
  8
RUNDUNGEN
100
AcDbLine
 62
7
  6
CONTINUOUS
 10
90.1809303713
 20
49.8779511171
 11
91.1809303714
 21
49.8779511171
  0
LINE
  5
24F
100
AcDbEntity
  8
RUNDUNGEN
100
AcDbLine
 62
7
  6
CONTINUOUS
 10
82.9309303714
 20
81.835083841
 11
82.9309303714
 21
90.400725542
  0
LINE
  5
250
100
AcDbEntity
  8
RUNDUNGEN
100
AcDbLine
 62
7
  6
CONTINUOUS
 10
83.9309303714
 20
81.835083841
 11
83.9309303714
 21
90.400725542
  0
LINE
  5
251
100
AcDbEntity
  8
RUNDUNGEN
100
AcDbLine
 62
7
  6
CONTINUOUS
 10
83.0132082545
 20
81.4378608352
 11
83.9309303714
 21
81.835083841
  0
LINE
  5
252
100
AcDbEntity
  8
RUNDUNGEN
100
AcDbLine
 62
7
  6
CONTINUOUS
 10
87.7062615033
 20
82.534951186
 11
88.3354986219
 21
95.8778920622
  0
LINE
  5
253
100
AcDbEntity
  8
RUNDUNGEN
100
AcDbLine
 62
7
  6
CONTINUOUS
 10
88.7051513782
 20
82.4878447353
 11
89.410756197
 21
97.4501587823
  0
LINE
  5
254
100
AcDbEntity
  8
RUNDUNGEN
100
AcDbLine
 62
7
  6
CONTINUOUS
 10
110.2525242851
 20
42.2112844504
 11
109.5071682926
 21
42.8779511171
  0
LINE
  5
255
100
AcDbEntity
  8
RUNDUNGEN
100
AcDbLine
 62
7
  6
CONTINUOUS
 10
90.1809303713
 20
49.8779511171
 11
90.1809303713
 21
64.6708183932
  0
LINE
  5
256
100
AcDbEntity
  8
RUNDUNGEN
100
AcDbLine
 62
7
  6
CONTINUOUS
 10
90.0986524882
 20
65.068041399
 11
83.0132082545
 21
81.4378608352
  0
LINE
  5
257
100
AcDbEntity
  8
RUNDUNGEN
100
AcDbLine
 62
7
  6
CONTINUOUS
 10
91.016374605
 20
65.4652644047
 11
83.9309303714
 21
81.835083841
  0
LINE
  5
258
100
AcDbEntity
  8
RUNDUNGEN
100
AcDbLine
 62
7
  6
CONTINUOUS
 10
91.1809303714
 20
49.8779511171
 11
91.1809303714
 21
64.6708183932
  0
LINE
  5
259
100
AcDbEntity
  8
RUNDUNGEN
100
AcDbLine
 62
7
  6
CONTINUOUS
 10
118.8857591772
 20
103.0687241518
 11
114.2266388766
 21
98.1877409797
  0
LINE
  5
25A
100
AcDbEntity
  8
RUNDUNGEN
100
AcDbLine
 62
7
  6
CONTINUOUS
 10
113.1809303714
 20
64.6708183932
 11
112.1809303713
 21
64.6708183932
  0
LINE
  5
25B
100
AcDbEntity
  8
RUNDUNGEN
100
AcDbLine
 62
7
  6
CONTINUOUS
 10
90.1809303713
 20
64.6708183932
 11
91.1809303706
 21
64.6708183948
  0
LINE
  5
25C
100
AcDbEntity
  8
0
100
AcDbLine
 62
7
  6
CONTINUOUS
 10
96.9809303713
 20
58.8779511171
 11
96.9809303713
 21
48.3779511171
  0
LINE
  5
25D
100
AcDbEntity
  8
RUNDUNGEN
100
AcDbLine
 62
7
  6
CONTINUOUS
 10
98.6088749496
 20
68.2779511171
 11
98.6088749496
 21
69.2779511171
  0
LINE
  5
25E
100
AcDbEntity
  8
RUNDUNGEN
100
AcDbLine
 62
7
  6
CONTINUOUS
 10
98.095234149
 20
68.3450328239
 11
98.3520545493
 21
69.3114919705
  0
LINE
  5
25F
100
AcDbEntity
  8
RUNDUNGEN
100
AcDbLine
 62
7
  6
CONTINUOUS
 10
104.7529857931
 20
68.2779511171
 11
98.6088749496
 21
68.2779511171
  0
LINE
  5
260
100
AcDbEntity
  8
RUNDUNGEN
100
AcDbLine
 62
7
  6
CONTINUOUS
 10
104.7529857931
 20
69.2779511171
 11
98.6088749496
 21
69.2779511171
  0
LINE
  5
261
100
AcDbEntity
  8
RUNDUNGEN
100
AcDbLine
 62
7
  6
CONTINUOUS
 10
113.2632082545
 20
65.068041399
 11
112.3454861383
 21
65.465264404
  0
LINE
  5
262
100
AcDbEntity
  8
RUNDUNGEN
100
AcDbLine
 62
7
  6
CONTINUOUS
 10
104.7529857931
 20
68.2779511171
 11
104.7529857931
 21
69.2779511171
  0
LINE
  5
263
100
AcDbEntity
  8
RUNDUNGEN
100
AcDbLine
 62
7
  6
CONTINUOUS
 10
90.0986524882
 20
65.068041399
 11
91.016374605
 21
65.4652644047
  0
LINE
  5
264
100
AcDbEntity
  8
RUNDUNGEN
100
AcDbLine
 62
7
  6
CONTINUOUS
 10
105.2666265937
 20
68.3450328239
 11
105.0098061934
 21
69.3114919705
  0
LINE
  5
265
100
AcDbEntity
  8
0
100
AcDbLine
 62
7
  6
CONTINUOUS
 10
106.3809303713
 20
58.8779511171
 11
106.3809303713
 21
48.3779511171
  0
LINE
  5
266
100
AcDbEntity
  8
RUNDUNGEN
100
AcDbLine
 62
7
  6
CONTINUOUS
 10
112.1809303713
 20
64.6708183932
 11
112.1809303713
 21
49.8779511171
  0
LINE
  5
267
100
AcDbEntity
  8
RUNDUNGEN
100
AcDbLine
 62
7
  6
CONTINUOUS
 10
115.6555992394
 20
82.534951186
 11
114.6567093645
 21
82.4878447353
  0
LINE
  5
268
100
AcDbEntity
  8
RUNDUNGEN
100
AcDbLine
 62
7
  6
CONTINUOUS
 10
120.4309303713
 20
81.835083841
 11
119.4309303713
 21
81.835083841
  0
LINE
  5
269
100
AcDbEntity
  8
RUNDUNGEN
100
AcDbLine
 62
7
  6
CONTINUOUS
 10
82.9309303714
 20
81.835083841
 11
83.9309303714
 21
81.835083841
  0
LINE
  5
26A
100
AcDbEntity
  8
RUNDUNGEN
100
AcDbLine
 62
7
  6
CONTINUOUS
 10
87.7062615033
 20
82.534951186
 11
88.7051513782
 21
82.4878447353
  0
LINE
  5
26B
100
AcDbEntity
  8
RUNDUNGEN
100
AcDbLine
 62
7
  6
CONTINUOUS
 10
89.1352218661
 20
98.1877409797
 11
84.4761018441
 21
103.06872386
  0
LINE
  5
26C
100
AcDbEntity
  8
RUNDUNGEN
100
AcDbLine
 62
7
  6
CONTINUOUS
 10
113.9511045457
 20
97.4501587823
 11
114.6567093645
 21
82.4878447353
  0
LINE
  5
26D
100
AcDbEntity
  8
RUNDUNGEN
100
AcDbLine
 62
7
  6
CONTINUOUS
 10
113.1809303714
 20
64.6708183932
 11
113.1809303714
 21
49.8779511171
  0
LINE
  5
26E
100
AcDbEntity
  8
RUNDUNGEN
100
AcDbLine
 62
7
  6
CONTINUOUS
 10
119.4309303714
 20
81.835083841
 11
112.3454861377
 21
65.4652644047
  0
LINE
  5
26F
100
AcDbEntity
  8
RUNDUNGEN
100
AcDbLine
 62
7
  6
CONTINUOUS
 10
120.3486524882
 20
81.4378608352
 11
113.2632082545
 21
65.068041399
  0
LINE
  5
270
100
AcDbEntity
  8
RUNDUNGEN
100
AcDbLine
 62
7
  6
CONTINUOUS
 10
115.0263619086
 20
95.8778965622
 11
115.6555992394
 21
82.534951186
  0
LINE
  5
271
100
AcDbEntity
  8
RUNDUNGEN
100
AcDbLine
 62
7
  6
CONTINUOUS
 10
93.1093364576
 20
42.2112844504
 11
93.8546924501
 21
42.8779511171
  0
LINE
  5
272
100
AcDbEntity
  8
RUNDUNGEN
100
AcDbLine
 62
7
  6
CONTINUOUS
 10
119.4309303714
 20
90.400725542
 11
119.4309303714
 21
81.835083841
  0
LINE
  5
273
100
AcDbEntity
  8
RUNDUNGEN
100
AcDbLine
 62
7
  6
CONTINUOUS
 10
120.4309303713
 20
90.400725542
 11
120.4309303713
 21
81.835083841
  0
LINE
  5
274
100
AcDbEntity
  8
0
100
AcDbLine
 62
7
  6
CONTINUOUS
 10
76.6809303713
 20
88.3779511171
 11
81.9309303714
 21
88.3779511171
  0
LINE
  5
275
100
AcDbEntity
  8
0
100
AcDbLine
 62
7
  6
CONTINUOUS
 10
121.4309303714
 20
88.3779511171
 11
126.6809303714
 21
88.3779511171
  0
LINE
  5
276
100
AcDbEntity
  8
RUNDUNGEN
100
AcDbLine
 62
7
  6
CONTINUOUS
 10
120.3486524882
 20
81.4378608352
 11
119.4309303713
 21
81.835083841
  0
LINE
  5
277
100
AcDbEntity
  8
RUNDUNGEN
100
AcDbLine
 62
7
  6
CONTINUOUS
 10
121.4309303714
 20
95.8779511171
 11
121.4309303714
 21
88.3779511171
  0
LINE
  5
278
100
AcDbEntity
  8
RUNDUNGEN
100
AcDbLine
 62
7
  6
CONTINUOUS
 10
120.4309303713
 20
90.400725542
 11
119.4309303713
 21
90.400725542
  0
LINE
  5
279
100
AcDbEntity
  8
RUNDUNGEN
100
AcDbLine
 62
7
  6
CONTINUOUS
 10
82.9309303714
 20
90.400725542
 11
83.9309303695
 21
90.4007255353
  0
LINE
  5
27A
100
AcDbEntity
  8
RUNDUNGEN
100
AcDbLine
 62
7
  6
CONTINUOUS
 10
115.0263593359
 20
95.8779511171
 11
114.0274694609
 21
95.8308446664
  0
LINE
  5
27B
100
AcDbEntity
  8
RUNDUNGEN
100
AcDbLine
 62
7
  6
CONTINUOUS
 10
88.3355014068
 20
95.8779511171
 11
89.3343912818
 21
95.8308446664
  0
LINE
  5
27C
100
AcDbEntity
  8
0
100
AcDbLine
 62
7
  6
CONTINUOUS
 10
126.6809303714
 20
103.3779511171
 11
126.6809303714
 21
88.3779511171
  0
LINE
  5
27D
100
AcDbEntity
  8
RUNDUNGEN
100
AcDbLine
 62
7
  6
CONTINUOUS
 10
81.9312321871
 20
95.8774020985
 11
88.3354986219
 21
95.8778920622
  0
LINE
  5
27E
100
AcDbEntity
  8
RUNDUNGEN
100
AcDbLine
 62
7
  6
CONTINUOUS
 10
115.0263619086
 20
95.8778965622
 11
121.4306418891
 21
95.87742662
  0
LINE
  5
27F
100
AcDbEntity
  8
0
100
AcDbLine
 62
7
  6
CONTINUOUS
 10
76.6809303713
 20
103.3779511171
 11
83.7708246038
 21
103.3779511171
  0
LINE
  5
280
100
AcDbEntity
  8
0
100
AcDbLine
 62
7
  6
CONTINUOUS
 10
119.5910350932
 20
103.3779511171
 11
126.6809303713
 21
103.3779511171
  0
ARC
  5
281
100
AcDbEntity
  8
RUNDUNGEN
100
AcDbCircle
 62
7
  6
CONTINUOUS
 10
84.1015316726
 20
168.0148074099
 40
1.0883234753
100
AcDbArc
 50
171.7200822522
 51
179.9814205006
  0
ARC
  5
282
100
AcDbEntity
  8
RUNDUNGEN
100
AcDbCircle
 62
7
  6
CONTINUOUS
 10
112.174885482
 20
168.0148070234
 40
1.0883228299
100
AcDbArc
 50
0.0185998571
 51
8.282566149
  0
ARC
  5
283
100
AcDbEntity
  8
RUNDUNGEN
100
AcDbCircle
 62
7
  6
CONTINUOUS
 10
91.1869752607
 20
155.0155136251
 40
1.0883228299
100
AcDbArc
 50
180.0185998571
 51
188.282566149
  0
ARC
  5
284
100
AcDbEntity
  8
RUNDUNGEN
100
AcDbCircle
 62
7
  6
CONTINUOUS
 10
112.1748854831
 20
155.0155136264
 40
1.0883228288
100
AcDbArc
 50
351.7174241447
 51
359.981400076
  0
ARC
  5
285
100
AcDbEntity
  8
RUNDUNGEN
100
AcDbCircle
 62
7
  6
CONTINUOUS
 10
91.1869752596
 20
168.0148070221
 40
1.0883228288
100
AcDbArc
 50
171.7174241447
 51
179.981400076
  0
ARC
  5
286
100
AcDbEntity
  8
RUNDUNGEN
100
AcDbCircle
 62
7
  6
CONTINUOUS
 10
119.4309303714
 20
168.0151603243
 40
1.0
100
AcDbArc
 50
0.0
 51
90.0
  0
ARC
  5
287
100
AcDbEntity
  8
RUNDUNGEN
100
AcDbCircle
 62
7
  6
CONTINUOUS
 10
112.1809303713
 20
168.0151603243
 40
1.0
100
AcDbArc
 50
0.0
 51
90.0
  0
ARC
  5
288
100
AcDbEntity
  8
RUNDUNGEN
100
AcDbCircle
 62
7
  6
CONTINUOUS
 10
119.4309303714
 20
155.0151603243
 40
1.0
100
AcDbArc
 50
270.0
 51
360.0
  0
ARC
  5
289
100
AcDbEntity
  8
RUNDUNGEN
100
AcDbCircle
 62
7
  6
CONTINUOUS
 10
112.1809303713
 20
155.0151603243
 40
1.0
100
AcDbArc
 50
270.0
 51
360.0
  0
ARC
  5
28A
100
AcDbEntity
  8
RUNDUNGEN
100
AcDbCircle
 62
7
  6
CONTINUOUS
 10
91.1809303714
 20
155.0151603243
 40
1.0
100
AcDbArc
 50
180.0
 51
270.0
  0
ARC
  5
28B
100
AcDbEntity
  8
RUNDUNGEN
100
AcDbCircle
 62
7
  6
CONTINUOUS
 10
83.9309303714
 20
155.0151603243
 40
1.0
100
AcDbArc
 50
180.0
 51
270.0
  0
ARC
  5
28C
100
AcDbEntity
  8
RUNDUNGEN
100
AcDbCircle
 62
7
  6
CONTINUOUS
 10
83.9309303714
 20
168.0151603243
 40
1.0
100
AcDbArc
 50
90.0
 51
180.0
  0
ARC
  5
28D
100
AcDbEntity
  8
RUNDUNGEN
100
AcDbCircle
 62
7
  6
CONTINUOUS
 10
91.1809303714
 20
168.0151603243
 40
1.0
100
AcDbArc
 50
90.0
 51
180.0
  0
ARC
  5
28E
100
AcDbEntity
  8
RUNDUNGEN
100
AcDbCircle
 62
7
  6
CONTINUOUS
 10
200.1705397464
 20
161.5151603243
 40
8.5
100
AcDbArc
 50
310.1190405606
 51
49.8809505128
  0
CIRCLE
  5
28F
100
AcDbEntity
  8
0
100
AcDbCircle
 62
7
  6
CONTINUOUS
 10
200.1705397464
 20
161.5151603243
 40
7.5
  0
ARC
  5
290
100
AcDbEntity
  8
RUNDUNGEN
100
AcDbCircle
 62
7
  6
CONTINUOUS
 10
253.1705397464
 20
158.5151603243
 40
4.5
100
AcDbArc
 50
270.0
 51
360.0
  0
ARC
  5
291
100
AcDbEntity
  8
RUNDUNGEN
100
AcDbCircle
 62
7
  6
CONTINUOUS
 10
253.1705397464
 20
164.5151603243
 40
4.5
100
AcDbArc
 50
0.0
 51
90.0001645936
  0
ARC
  5
292
100
AcDbEntity
  8
0
100
AcDbCircle
 62
7
  6
CONTINUOUS
 10
250.1705397464
 20
161.5151603243
 40
3.4
100
AcDbArc
 50
270.0
 51
90.0
  0
ARC
  5
293
100
AcDbEntity
  8
0
100
AcDbCircle
 62
7
  6
CONTINUOUS
 10
230.6705397464
 20
161.5151603243
 40
3.4
100
AcDbArc
 50
90.0
 51
270.0
  0
CIRCLE
  5
294
100
AcDbEntity
  8
0
100
AcDbCircle
 62
7
  6
CONTINUOUS
 10
200.1705397464
 20
161.5151603243
 40
3.25
  0
ARC
  5
295
100
AcDbEntity
  8
RUNDUNGEN
100
AcDbCircle
 62
7
  6
CONTINUOUS
 10
89.1809303713
 20
64.6708183932
 40
2.0
100
AcDbArc
 50
0.0
 51
23.404689551
  0
ARC
  5
296
100
AcDbEntity
  8
RUNDUNGEN
100
AcDbCircle
 62
7
  6
CONTINUOUS
 10
98.6088749496
 20
70.2779511171
 40
2.0
100
AcDbArc
 50
255.1185207656
 51
270.0
  0
ARC
  5
297
100
AcDbEntity
  8
RUNDUNGEN
100
AcDbCircle
 62
7
  6
CONTINUOUS
 10
98.6088749496
 20
70.2779511171
 40
1.0
100
AcDbArc
 50
255.1185207656
 51
270.0
  0
ARC
  5
298
100
AcDbEntity
  8
RUNDUNGEN
100
AcDbCircle
 62
7
  6
CONTINUOUS
 10
89.1809303713
 20
64.6708183932
 40
1.0
100
AcDbArc
 50
0.0
 51
23.404689551
  0
ARC
  5
299
100
AcDbEntity
  8
RUNDUNGEN
100
AcDbCircle
 62
7
  6
CONTINUOUS
 10
101.67114099
 20
81.8754608761
 40
14.0
100
AcDbArc
 50
284.8814792344
 51
2.7
  0
ARC
  5
29A
100
AcDbEntity
  8
RUNDUNGEN
100
AcDbCircle
 62
7
  6
CONTINUOUS
 10
101.67114099
 20
81.8754608761
 40
13.0
100
AcDbArc
 50
284.8814792344
 51
2.7
  0
ARC
  5
29B
100
AcDbEntity
  8
RUNDUNGEN
100
AcDbCircle
 62
7
  6
CONTINUOUS
 10
83.7530717681
 20
102.3779071466
 40
1.0
100
AcDbArc
 50
43.6677801461
 51
89.9976105002
  0
ARC
  5
29C
100
AcDbEntity
  8
RUNDUNGEN
100
AcDbCircle
 62
7
  6
CONTINUOUS
 10
81.9309303713
 20
87.3779511171
 40
1.0
100
AcDbArc
 50
0.0
 51
90.0
  0
ARC
  5
29D
100
AcDbEntity
  8
RUNDUNGEN
100
AcDbCircle
 62
7
  6
CONTINUOUS
 10
88.411866322
 20
97.497265233
 40
1.0
100
AcDbArc
 50
357.3
 51
43.6677801461
  0
ARC
  5
29E
100
AcDbEntity
  8
RUNDUNGEN
100
AcDbCircle
 62
7
  6
CONTINUOUS
 10
83.9309303714
 20
81.835083841
 40
1.0
100
AcDbArc
 50
180.0
 51
203.404689551
  0
ARC
  5
29F
100
AcDbEntity
  8
0
100
AcDbCircle
 62
7
  6
CONTINUOUS
 10
101.6809303714
 20
49.8779511171
 40
11.5
100
AcDbArc
 50
192.9876917095
 51
196.1293449877
  0
ARC
  5
2A0
100
AcDbEntity
  8
0
100
AcDbCircle
 62
7
  6
CONTINUOUS
 10
101.6809303714
 20
49.8779511171
 40
11.5
100
AcDbArc
 50
185.0607440748
 51
187.7153612579
  0
ARC
  5
2A1
100
AcDbEntity
  8
RUNDUNGEN
100
AcDbCircle
 62
7
  6
CONTINUOUS
 10
101.6809303714
 20
49.8779511171
 40
11.5
100
AcDbArc
 50
180.0
 51
360.0
  0
ARC
  5
2A2
100
AcDbEntity
  8
RUNDUNGEN
100
AcDbCircle
 62
7
  6
CONTINUOUS
 10
101.6809303714
 20
49.8779511171
 40
10.5
100
AcDbArc
 50
318.1897906263
 51
360.0
  0
ARC
  5
2A3
100
AcDbEntity
  8
RUNDUNGEN
100
AcDbCircle
 62
7
  6
CONTINUOUS
 10
101.6809303714
 20
49.8779511171
 40
10.5
100
AcDbArc
 50
180.0
 51
221.8102260611
  0
ARC
  5
2A4
100
AcDbEntity
  8
0
100
AcDbCircle
 62
7
  6
CONTINUOUS
 10
101.6809303714
 20
48.3779511171
 40
4.7
100
AcDbArc
 50
180.0
 51
360.0
  0
ARC
  5
2A5
100
AcDbEntity
  8
0
100
AcDbCircle
 62
7
  6
CONTINUOUS
 10
101.6809303714
 20
58.8779511171
 40
4.7
100
AcDbArc
 50
0.0
 51
180.0
  0
ARC
  5
2A6
100
AcDbEntity
  8
RUNDUNGEN
100
AcDbCircle
 62
7
  6
CONTINUOUS
 10
114.1809303714
 20
64.6708183932
 40
2.0
100
AcDbArc
 50
156.595310449
 51
180.0
  0
ARC
  5
2A7
100
AcDbEntity
  8
RUNDUNGEN
100
AcDbCircle
 62
7
  6
CONTINUOUS
 10
104.7529857931
 20
70.2779511171
 40
2.0
100
AcDbArc
 50
270.0
 51
284.8814792344
  0
ARC
  5
2A8
100
AcDbEntity
  8
RUNDUNGEN
100
AcDbCircle
 62
7
  6
CONTINUOUS
 10
104.7529857931
 20
70.2779511171
 40
1.0
100
AcDbArc
 50
270.0
 51
284.8814792344
  0
ARC
  5
2A9
100
AcDbEntity
  8
RUNDUNGEN
100
AcDbCircle
 62
7
  6
CONTINUOUS
 10
114.1809303714
 20
64.6708183932
 40
1.0
100
AcDbArc
 50
156.595310449
 51
180.0
  0
ARC
  5
2AA
100
AcDbEntity
  8
RUNDUNGEN
100
AcDbCircle
 62
7
  6
CONTINUOUS
 10
101.6907197527
 20
81.8754608761
 40
14.0
100
AcDbArc
 50
177.3
 51
255.1185207656
  0
ARC
  5
2AB
100
AcDbEntity
  8
RUNDUNGEN
100
AcDbCircle
 62
7
  6
CONTINUOUS
 10
101.6907197527
 20
81.8754608761
 40
13.0
100
AcDbArc
 50
177.3
 51
255.1185207656
  0
ARC
  5
2AC
100
AcDbEntity
  8
RUNDUNGEN
100
AcDbCircle
 62
7
  6
CONTINUOUS
 10
119.6087882753
 20
102.3779064141
 40
1.0
100
AcDbArc
 50
90.0024313034
 51
136.3322198539
  0
ARC
  5
2AD
100
AcDbEntity
  8
RUNDUNGEN
100
AcDbCircle
 62
7
  6
CONTINUOUS
 10
121.4309303714
 20
87.3779511171
 40
1.0
100
AcDbArc
 50
90.0
 51
180.0
  0
ARC
  5
2AE
100
AcDbEntity
  8
RUNDUNGEN
100
AcDbCircle
 62
7
  6
CONTINUOUS
 10
114.9499944207
 20
97.497265233
 40
1.0
100
AcDbArc
 50
136.3322198539
 51
182.7
  0
ARC
  5
2AF
100
AcDbEntity
  8
RUNDUNGEN
100
AcDbCircle
 62
7
  6
CONTINUOUS
 10
119.4309303714
 20
81.835083841
 40
1.0
100
AcDbArc
 50
336.595310449
 51
360.0
  0
SPLINE
  5
2B0
100
AcDbEntity
  8
0
100
AcDbSpline
 62
7
  6
CONTINUOUS
 70
0
 71
3
 72
25
 73
21
 74
0
 42
0.0000001
 43
0.0000001
 44
0.0000000001
 40
0.0
 40
0.0
 40
0.0
 40
0.0
 40
0.0330474956
 40
0.052948534
 40
0.0752937793
 40
0.1271813892
 40
0.1880881839
 40
0.2570661447
 40
0.3331041779
 40
0.4148516414
 40
0.500009617
 40
0.5851663844
 40
0.6669128266
 40
0.7429477387
 40
0.8119220636
 40
0.8728256336
 40
0.9247104307
 40
0.947054545
 40
0.9669542958
 40
1.0
 40
1.0
 40
1.0
 40
1.0
 10
112.4628596978
 20
158.1151603243
 30
0.0
 10
112.370745335
 20
158.1151603243
 30
0.0
 10
112.2237295689
 20
158.1583483788
 30
0.0
 10
112.0401835253
 20
158.2594360103
 30
0.0
 10
111.8263506587
 20
158.4128213926
 30
0.0
 10
111.5547354866
 20
158.6763150783
 30
0.0
 10
111.2420995451
 20
159.0766457791
 30
0.0
 10
110.9478163782
 20
159.5712802165
 30
0.0
 10
110.6978593243
 20
160.1540211705
 30
0.0
 10
110.5252165784
 20
160.8117800374
 30
0.0
 10
110.4627300151
 20
161.5152392778
 30
0.0
 10
110.5252419392
 20
162.218692845
 30
0.0
 10
110.6978972174
 20
162.8764329914
 30
0.0
 10
110.9478648734
 20
163.4591457249
 30
0.0
 10
111.2421465419
 20
163.9537486155
 30
0.0
 10
111.5547777581
 20
164.3540483944
 30
0.0
 10
111.8263815438
 20
164.6175248878
 30
0.0
 10
112.040205557
 20
164.7708975395
 30
0.0
 10
112.2237428949
 20
164.8719767818
 30
0.0
 10
112.3707503281
 20
164.9151603243
 30
0.0
 10
112.4628596978
 20
164.9151603243
 30
0.0
  0
SPLINE
  5
2B1
100
AcDbEntity
  8
0
100
AcDbSpline
 62
7
  6
CONTINUOUS
 70
0
 71
3
 72
25
 73
21
 74
0
 42
0.0000001
 43
0.0000001
 44
0.0000000001
 40
0.0
 40
0.0
 40
0.0
 40
0.0
 40
0.033062005
 40
0.0529764869
 40
0.075332279
 40
0.1272434998
 40
0.1881624354
 40
0.2571148788
 40
0.3331103231
 40
0.4148075068
 40
0.499912952
 40
0.5850263741
 40
0.6667477066
 40
0.7427801935
 40
0.8117779711
 40
0.8727264529
 40
0.9246525755
 40
0.9470135136
 40
0.9669326322
 40
1.0
 40
1.0
 40
1.0
 40
1.0
 10
90.8990010449
 20
164.9151603243
 30
0.0
 10
90.9911562037
 20
164.9151603243
 30
0.0
 10
91.138238271
 20
164.8719092963
 30
0.0
 10
91.3218893524
 20
164.7707899772
 30
0.0
 10
91.5357763583
 20
164.6172457587
 30
0.0
 10
91.8074623543
 20
164.3536457311
 30
0.0
 10
92.1200502991
 20
163.9532338461
 30
0.0
 10
92.4142015898
 20
163.4587043075
 30
0.0
 10
92.6640029149
 20
162.8762563212
 30
0.0
 10
92.8365947391
 20
162.2189078946
 30
0.0
 10
92.8991876044
 20
161.5158692134
 30
0.0
 10
92.8368519742
 20
160.8127371357
 30
0.0
 10
92.6643956814
 20
160.1551496631
 30
0.0
 10
92.4146071987
 20
159.5723708984
 30
0.0
 10
92.120380111
 20
159.07751974
 30
0.0
 10
91.8076652373
 20
158.6768865466
 30
0.0
 10
91.5358981156
 20
158.413172634
 30
0.0
 10
91.3219674092
 20
158.2595690154
 30
0.0
 10
91.1382762694
 20
158.1584366708
 30
0.0
 10
90.9911711518
 20
158.1151603243
 30
0.0
 10
90.8990010449
 20
158.1151603243
 30
0.0
  0
SPLINE
  5
2B2
100
AcDbEntity
  8
RUNDUNGEN
100
AcDbSpline
 62
7
  6
CONTINUOUS
 70
0
 71
3
 72
15
 73
11
 74
0
 42
0.0000001
 43
0.0000001
 44
0.0000000001
 40
0.0
 40
0.0
 40
0.0
 40
0.0
 40
0.2770274931
 40
0.4126904203
 40
0.5447096709
 40
0.6714838014
 40
0.7910721
 40
0.9012269544
 40
0.9521221875
 40
1.0
 40
1.0
 40
1.0
 40
1.0
 10
101.6809303714
 20
158.5151603243
 30
0.0
 10
102.4423301406
 20
158.1137683829
 30
0.0
 10
103.5764903509
 20
157.5154814079
 30
0.0
 10
105.0887150427
 20
156.7553913355
 30
0.0
 10
106.1957727168
 20
156.2293012133
 30
0.0
 10
107.2746953308
 20
155.7613198868
 30
0.0
 10
108.3134836185
 20
155.3751780226
 30
0.0
 10
109.1555028084
 20
155.1402654799
 30
0.0
 10
109.7967592996
 20
155.0353497901
 30
0.0
 10
110.1037680651
 20
155.0151604402
 30
0.0
 10
110.2525242851
 20
155.0151603243
 30
0.0
  0
SPLINE
  5
2B3
100
AcDbEntity
  8
RUNDUNGEN
100
AcDbSpline
 62
7
  6
CONTINUOUS
 70
0
 71
3
 72
15
 73
11
 74
0
 42
0.0000001
 43
0.0000001
 44
0.0000000001
 40
0.0
 40
0.0
 40
0.0
 40
0.0
 40
0.0478777906
 40
0.0987729984
 40
0.208927803
 40
0.3285160693
 40
0.4552901927
 40
0.5873094402
 40
0.7229723853
 40
1.0
 40
1.0
 40
1.0
 40
1.0
 10
93.1093364576
 20
155.0151603243
 30
0.0
 10
93.2580926094
 20
155.0151604432
 30
0.0
 10
93.5651012282
 20
155.0353497754
 30
0.0
 10
94.2063574278
 20
155.1402653771
 30
0.0
 10
95.0483763166
 20
155.3751777509
 30
0.0
 10
96.0871643793
 20
155.7613194302
 30
0.0
 10
97.1660868717
 20
156.2293007063
 30
0.0
 10
98.2731445993
 20
156.7553907718
 30
0.0
 10
99.7853696515
 20
157.5154810721
 30
0.0
 10
100.9195303064
 20
158.113768133
 30
0.0
 10
101.6809303714
 20
158.5151603243
 30
0.0
  0
SPLINE
  5
2B4
100
AcDbEntity
  8
RUNDUNGEN
100
AcDbSpline
 62
7
  6
CONTINUOUS
 70
0
 71
3
 72
16
 73
12
 74
0
 42
0.0000001
 43
0.0000001
 44
0.0000000001
 40
0.0
 40
0.0
 40
0.0
 40
0.0
 40
0.0430135126
 40
0.0895893559
 40
0.1398362008
 40
0.1935992198
 40
0.3104444667
 40
0.4374741579
 40
0.5720609908
 40
0.7119377242
 40
1.0
 40
1.0
 40
1.0
 40
1.0
 10
93.8546924501
 20
154.0151603243
 30
0.0
 10
93.9855303389
 20
154.0151603924
 30
0.0
 10
94.2582265097
 20
154.0396197589
 30
0.0
 10
94.6740249113
 20
154.1329122057
 30
0.0
 10
95.1095393093
 20
154.2766783453
 30
0.0
 10
95.7304132368
 20
154.5344005644
 30
0.0
 10
96.5349618642
 20
154.9526346335
 30
0.0
 10
97.5190983428
 20
155.550627299
 30
0.0
 10
98.5351001934
 20
156.2287519454
 30
0.0
 10
99.9324170932
 20
157.2165131067
 30
0.0
 10
100.9773353528
 20
157.9929323495
 30
0.0
 10
101.6809303714
 20
158.5151603243
 30
0.0
  0
SPLINE
  5
2B5
100
AcDbEntity
  8
RUNDUNGEN
100
AcDbSpline
 62
7
  6
CONTINUOUS
 70
0
 71
3
 72
15
 73
11
 74
0
 42
0.0000001
 43
0.0000001
 44
0.0000000001
 40
0.0
 40
0.0
 40
0.0
 40
0.0
 40
0.2769842997
 40
0.4126264429
 40
0.5446405565
 40
0.671419715
 40
0.791022424
 40
0.9011947136
 40
0.9521173139
 40
1.0
 40
1.0
 40
1.0
 40
1.0
 10
101.6809303714
 20
164.5151603243
 30
0.0
 10
100.9196719402
 20
164.9165339399
 30
0.0
 10
99.7856629604
 20
165.5146832117
 30
0.0
 10
98.2736389812
 20
166.274697389
 30
0.0
 10
97.1666388319
 20
166.8007577
 30
0.0
 10
96.0876983482
 20
167.2688142819
 30
0.0
 10
95.0488059286
 20
167.6549996924
 30
0.0
 10
94.2066330387
 20
167.8900583363
 30
0.0
 10
93.5652161526
 20
167.9949659855
 30
0.0
 10
93.2581079283
 20
168.0151555953
 30
0.0
 10
93.1093364576
 20
168.0151603243
 30
0.0
  0
SPLINE
  5
2B6
100
AcDbEntity
  8
RUNDUNGEN
100
AcDbSpline
 62
7
  6
CONTINUOUS
 70
0
 71
3
 72
15
 73
11
 74
0
 42
0.0000001
 43
0.0000001
 44
0.0000000001
 40
0.0
 40
0.0
 40
0.0
 40
0.0
 40
0.0478826888
 40
0.098805287
 40
0.2089775884
 40
0.3285803082
 40
0.4553594622
 40
0.5873735762
 40
0.7230157341
 40
1.0
 40
1.0
 40
1.0
 40
1.0
 10
110.2525242851
 20
168.0151603243
 30
0.0
 10
110.1037528058
 20
168.015155508
 30
0.0
 10
109.7966445822
 20
167.9949660587
 30
0.0
 10
109.1552276102
 20
167.8900585683
 30
0.0
 10
108.3130547964
 20
167.6549994081
 30
0.0
 10
107.2741622029
 20
167.2688143438
 30
0.0
 10
106.1952217652
 20
166.800757574
 30
0.0
 10
105.0882215494
 20
166.274697331
 30
0.0
 10
103.5761976996
 20
165.51468302
 30
0.0
 10
102.4421885069
 20
164.916534278
 30
0.0
 10
101.6809303714
 20
164.5151603243
 30
0.0
  0
SPLINE
  5
2B7
100
AcDbEntity
  8
RUNDUNGEN
100
AcDbSpline
 62
7
  6
CONTINUOUS
 70
0
 71
3
 72
13
 73
9
 74
0
 42
0.0000001
 43
0.0000001
 44
0.0000000001
 40
0.0
 40
0.0
 40
0.0
 40
0.0
 40
0.2711691802
 40
0.4063089373
 40
0.5372130125
 40
0.7789688837
 40
0.8911571671
 40
1.0
 40
1.0
 40
1.0
 40
1.0
 10
120.4309303714
 20
155.015151274
 30
0.0
 10
120.4309294884
 20
154.8766071734
 30
0.0
 10
120.5025579131
 20
154.6697248984
 30
0.0
 10
120.6541432593
 20
154.4413594253
 30
0.0
 10
120.8290403739
 20
154.2485821298
 30
0.0
 10
121.0364131852
 20
154.1030384162
 30
0.0
 10
121.2620202743
 20
154.0277060728
 30
0.0
 10
121.3753210567
 20
154.0151677889
 30
0.0
 10
121.4309303714
 20
154.0151603243
 30
0.0
  0
SPLINE
  5
2B8
100
AcDbEntity
  8
RUNDUNGEN
100
AcDbSpline
 62
7
  6
CONTINUOUS
 70
0
 71
3
 72
13
 73
9
 74
0
 42
0.0000001
 43
0.0000001
 44
0.0000000001
 40
0.0
 40
0.0
 40
0.0
 40
0.0
 40
0.1088422624
 40
0.2210307356
 40
0.4627887597
 40
0.5936925756
 40
0.728831833
 40
1.0
 40
1.0
 40
1.0
 40
1.0
 10
81.9309303713
 20
154.0151603243
 30
0.0
 10
81.9865391828
 20
154.0151671307
 30
0.0
 10
82.0998393387
 20
154.027706303
 30
0.0
 10
82.3254464059
 20
154.1030382287
 30
0.0
 10
82.5328197096
 20
154.2485810292
 30
0.0
 10
82.7077187182
 20
154.4413568092
 30
0.0
 10
82.8592961215
 20
154.6697246982
 30
0.0
 10
82.9309318075
 20
154.8766025698
 30
0.0
 10
82.9309303712
 20
155.0151456252
 30
0.0
  0
SPLINE
  5
2B9
100
AcDbEntity
  8
RUNDUNGEN
100
AcDbSpline
 62
7
  6
CONTINUOUS
 70
0
 71
3
 72
13
 73
9
 74
0
 42
0.0000001
 43
0.0000001
 44
0.0000000001
 40
0.0
 40
0.0
 40
0.0
 40
0.0
 40
0.2711679926
 40
0.4063077679
 40
0.5372094649
 40
0.7789662733
 40
0.8911564424
 40
1.0
 40
1.0
 40
1.0
 40
1.0
 10
82.9309303712
 20
168.0151739855
 30
0.0
 10
82.930931706
 20
168.1537169786
 30
0.0
 10
82.8592981974
 20
168.3605964318
 30
0.0
 10
82.7077159504
 20
168.5889600537
 30
0.0
 10
82.5328220557
 20
168.7817378838
 30
0.0
 10
82.3254503119
 20
168.9272835569
 30
0.0
 10
82.0998412004
 20
169.0026120443
 30
0.0
 10
81.9865398552
 20
169.01515301
 30
0.0
 10
81.9309303713
 20
169.0151603243
 30
0.0
  0
SPLINE
  5
2BA
100
AcDbEntity
  8
RUNDUNGEN
100
AcDbSpline
 62
7
  6
CONTINUOUS
 70
0
 71
3
 72
13
 73
9
 74
0
 42
0.0000001
 43
0.0000001
 44
0.0000000001
 40
0.0
 40
0.0
 40
0.0
 40
0.0
 40
0.2591761426
 40
0.5126591708
 40
0.6369360848
 40
0.759233761
 40
0.8801426277
 40
1.0
 40
1.0
 40
1.0
 40
1.0
 10
120.3486524882
 20
168.0151603243
 30
0.0
 10
120.3486524882
 20
168.1448443324
 30
0.0
 10
120.3023991134
 20
168.4037358016
 30
0.0
 10
120.1326423178
 20
168.6829819081
 30
0.0
 10
119.9453355698
 20
168.8510788595
 30
0.0
 10
119.7854318991
 20
168.9445890324
 30
0.0
 10
119.6117512697
 20
169.0020654056
 30
0.0
 10
119.490903424
 20
169.0151603243
 30
0.0
 10
119.4309303714
 20
169.0151603243
 30
0.0
  0
SPLINE
  5
2BB
100
AcDbEntity
  8
RUNDUNGEN
100
AcDbSpline
 62
7
  6
CONTINUOUS
 70
0
 71
3
 72
12
 73
8
 74
0
 42
0.0000001
 43
0.0000001
 44
0.0000000001
 40
0.0
 40
0.0
 40
0.0
 40
0.0
 40
0.2594802554
 40
0.5125498941
 40
0.6367375557
 40
0.7592653005
 40
1.0
 40
1.0
 40
1.0
 40
1.0
 10
113.2518567431
 20
168.1715854811
 30
0.0
 10
113.2351247945
 20
168.2866338876
 30
0.0
 10
113.1649999087
 20
168.510343366
 30
0.0
 10
112.9905868719
 20
168.7436815974
 30
0.0
 10
112.8128313806
 20
168.8817951625
 30
0.0
 10
112.6181390437
 20
168.9826954649
 30
0.0
 10
112.4533460296
 20
169.0151603242
 30
0.0
 10
112.3454861383
 20
169.0151603243
 30
0.0
  0
SPLINE
  5
2BC
100
AcDbEntity
  8
RUNDUNGEN
100
AcDbSpline
 62
7
  6
CONTINUOUS
 70
0
 71
3
 72
12
 73
8
 74
0
 42
0.0000001
 43
0.0000001
 44
0.0000000001
 40
0.0
 40
0.0
 40
0.0
 40
0.0
 40
0.282075211
 40
0.5462581805
 40
0.7829951496
 40
0.8931532437
 40
1.0
 40
1.0
 40
1.0
 40
1.0
 10
110.2525242851
 20
168.0151603243
 30
0.0
 10
110.2525244939
 20
168.1441308039
 30
0.0
 10
110.216516965
 20
168.395614402
 30
0.0
 10
110.0597712272
 20
168.7240287245
 30
0.0
 10
109.8493459316
 20
168.9219759499
 30
0.0
 10
109.6556869593
 20
169.0016949907
 30
0.0
 10
109.5560207861
 20
169.0151603243
 30
0.0
 10
109.5071682926
 20
169.0151603243
 30
0.0
  0
SPLINE
  5
2BD
100
AcDbEntity
  8
RUNDUNGEN
100
AcDbSpline
 62
7
  6
CONTINUOUS
 70
0
 71
3
 72
16
 73
12
 74
0
 42
0.0000001
 43
0.0000001
 44
0.0000000001
 40
0.0
 40
0.0
 40
0.0
 40
0.0
 40
0.2880621049
 40
0.4279388136
 40
0.5625256559
 40
0.6895553602
 40
0.8064006559
 40
0.8601637079
 40
0.910410586
 40
0.9569864609
 40
1.0
 40
1.0
 40
1.0
 40
1.0
 10
101.6809303714
 20
158.5151603243
 30
0.0
 10
102.3845248443
 20
157.9929324868
 30
0.0
 10
103.4294427546
 20
157.2165137701
 30
0.0
 10
104.8267591841
 20
156.2287529298
 30
0.0
 10
105.8427609589
 20
155.5506281806
 30
0.0
 10
106.8268976149
 20
154.9526353907
 30
0.0
 10
107.631446437
 20
154.5344010754
 30
0.0
 10
108.2523206471
 20
154.2766786227
 30
0.0
 10
108.6878353132
 20
154.1329123437
 30
0.0
 10
109.1036339753
 20
154.0396197879
 30
0.0
 10
109.3763303232
 20
154.0151603905
 30
0.0
 10
109.5071682926
 20
154.0151603243
 30
0.0
  0
SPLINE
  5
2BE
100
AcDbEntity
  8
RUNDUNGEN
100
AcDbSpline
 62
7
  6
CONTINUOUS
 70
0
 71
3
 72
13
 73
9
 74
0
 42
0.0000001
 43
0.0000001
 44
0.0000000001
 40
0.0
 40
0.0
 40
0.0
 40
0.0
 40
0.2591761429
 40
0.5126591712
 40
0.6369360841
 40
0.7592337611
 40
0.880142628
 40
1.0
 40
1.0
 40
1.0
 40
1.0
 10
120.3486524882
 20
155.0151603243
 30
0.0
 10
120.3486524882
 20
154.8854763159
 30
0.0
 10
120.3023991124
 20
154.626584847
 30
0.0
 10
120.1326423189
 20
154.3473387394
 30
0.0
 10
119.9453355696
 20
154.1792417894
 30
0.0
 10
119.7854318991
 20
154.0857316165
 30
0.0
 10
119.6117512696
 20
154.0282552423
 30
0.0
 10
119.4909034238
 20
154.0151603243
 30
0.0
 10
119.4309303714
 20
154.0151603243
 30
0.0
  0
SPLINE
  5
2BF
100
AcDbEntity
  8
RUNDUNGEN
100
AcDbSpline
 62
7
  6
CONTINUOUS
 70
0
 71
3
 72
12
 73
8
 74
0
 42
0.0000001
 43
0.0000001
 44
0.0000000001
 40
0.0
 40
0.0
 40
0.0
 40
0.0
 40
0.2594802564
 40
0.5125498925
 40
0.6367375531
 40
0.759265298
 40
1.0
 40
1.0
 40
1.0
 40
1.0
 10
113.2518567166
 20
154.8587349864
 30
0.0
 10
113.2351247507
 20
154.7436865977
 30
0.0
 10
113.1649998414
 20
154.5199771615
 30
0.0
 10
112.9905868031
 20
154.2866389831
 30
0.0
 10
112.8128313256
 20
154.1485254524
 30
0.0
 10
112.6181390084
 20
154.047625175
 30
0.0
 10
112.4533460157
 20
154.0151603243
 30
0.0
 10
112.3454861377
 20
154.0151603243
 30
0.0
  0
SPLINE
  5
2C0
100
AcDbEntity
  8
RUNDUNGEN
100
AcDbSpline
 62
7
  6
CONTINUOUS
 70
0
 71
3
 72
16
 73
12
 74
0
 42
0.0000001
 43
0.0000001
 44
0.0000000001
 40
0.0
 40
0.0
 40
0.0
 40
0.0
 40
0.2880019813
 40
0.4278513469
 40
0.5624331495
 40
0.6894718144
 40
0.8063382986
 40
0.8601108572
 40
0.9103723034
 40
0.9569801516
 40
1.0
 40
1.0
 40
1.0
 40
1.0
 10
101.6809303714
 20
164.5151603243
 30
0.0
 10
100.977473502
 20
165.0372675453
 30
0.0
 10
99.9328053439
 20
165.8135781826
 30
0.0
 10
98.5356987288
 20
166.8011504395
 30
0.0
 10
97.5197726253
 20
167.4792598
 30
0.0
 10
96.5356046869
 20
168.0773500177
 30
0.0
 10
95.7309626291
 20
168.4956676963
 30
0.0
 10
95.109987483
 20
168.7535020227
 30
0.0
 10
94.6743243681
 20
168.8973752188
 30
0.0
 10
94.2583558083
 20
168.9906399612
 30
0.0
 10
93.985548682
 20
169.0151595238
 30
0.0
 10
93.8546914459
 20
169.0151603242
 30
0.0
  0
SPLINE
  5
2C1
100
AcDbEntity
  8
RUNDUNGEN
100
AcDbSpline
 62
7
  6
CONTINUOUS
 70
0
 71
3
 72
12
 73
8
 74
0
 42
0.0000001
 43
0.0000001
 44
0.0000000001
 40
0.0
 40
0.0
 40
0.0
 40
0.0
 40
0.2820753476
 40
0.546258455
 40
0.7829954107
 40
0.8931534072
 40
1.0
 40
1.0
 40
1.0
 40
1.0
 10
110.2525242851
 20
155.0151603243
 30
0.0
 10
110.2525242851
 20
154.8861898242
 30
0.0
 10
110.2165164336
 20
154.6347062483
 30
0.0
 10
110.059770573
 20
154.3062920272
 30
0.0
 10
109.8493454621
 20
154.1083447569
 30
0.0
 10
109.6556867159
 20
154.0286256732
 30
0.0
 10
109.5560206954
 20
154.0151603243
 30
0.0
 10
109.5071682926
 20
154.0151603243
 30
0.0
  0
SPLINE
  5
2C2
100
AcDbEntity
  8
RUNDUNGEN
100
AcDbSpline
 62
7
  6
CONTINUOUS
 70
0
 71
3
 72
12
 73
8
 74
0
 42
0.0000001
 43
0.0000001
 44
0.0000000001
 40
0.0
 40
0.0
 40
0.0
 40
0.0
 40
0.2820753402
 40
0.5462584416
 40
0.7829953986
 40
0.8931534002
 40
1.0
 40
1.0
 40
1.0
 40
1.0
 10
93.1093364576
 20
155.0151603243
 30
0.0
 10
93.1093364497
 20
154.886189826
 30
0.0
 10
93.1453442886
 20
154.6347062506
 30
0.0
 10
93.302090143
 20
154.3062920266
 30
0.0
 10
93.5125152601
 20
154.1083447556
 30
0.0
 10
93.7061740164
 20
154.0286256735
 30
0.0
 10
93.8058400435
 20
154.0151603243
 30
0.0
 10
93.8546924501
 20
154.0151603243
 30
0.0
  0
SPLINE
  5
2C3
100
AcDbEntity
  8
RUNDUNGEN
100
AcDbSpline
 62
7
  6
CONTINUOUS
 70
0
 71
3
 72
12
 73
8
 74
0
 42
0.0000001
 43
0.0000001
 44
0.0000000001
 40
0.0
 40
0.0
 40
0.0
 40
0.0
 40
0.2594802554
 40
0.5125498941
 40
0.6367375557
 40
0.7592653005
 40
1.0
 40
1.0
 40
1.0
 40
1.0
 10
90.1100039996
 20
154.8587351674
 30
0.0
 10
90.1267359482
 20
154.7436867609
 30
0.0
 10
90.196860834
 20
154.5199772825
 30
0.0
 10
90.3712738708
 20
154.2866390511
 30
0.0
 10
90.5490293621
 20
154.148525486
 30
0.0
 10
90.743721699
 20
154.0476251836
 30
0.0
 10
90.9085147131
 20
154.0151603244
 30
0.0
 10
91.0163746044
 20
154.0151603243
 30
0.0
  0
SPLINE
  5
2C4
100
AcDbEntity
  8
RUNDUNGEN
100
AcDbSpline
 62
7
  6
CONTINUOUS
 70
0
 71
3
 72
13
 73
9
 74
0
 42
0.0000001
 43
0.0000001
 44
0.0000000001
 40
0.0
 40
0.0
 40
0.0
 40
0.0
 40
0.2591761426
 40
0.5126591708
 40
0.6369360848
 40
0.759233761
 40
0.8801426277
 40
1.0
 40
1.0
 40
1.0
 40
1.0
 10
83.0132082545
 20
155.0151603243
 30
0.0
 10
83.0132082545
 20
154.8854763161
 30
0.0
 10
83.0594616293
 20
154.6265848469
 30
0.0
 10
83.2292184249
 20
154.3473387404
 30
0.0
 10
83.4165251729
 20
154.179241789
 30
0.0
 10
83.5764288436
 20
154.0857316161
 30
0.0
 10
83.750109473
 20
154.0282552429
 30
0.0
 10
83.8709573187
 20
154.0151603243
 30
0.0
 10
83.9309303714
 20
154.0151603243
 30
0.0
  0
SPLINE
  5
2C5
100
AcDbEntity
  8
RUNDUNGEN
100
AcDbSpline
 62
7
  6
CONTINUOUS
 70
0
 71
3
 72
13
 73
9
 74
0
 42
0.0000001
 43
0.0000001
 44
0.0000000001
 40
0.0
 40
0.0
 40
0.0
 40
0.0
 40
0.1088420547
 40
0.2210298926
 40
0.4627876596
 40
0.5936921869
 40
0.7288314517
 40
1.0
 40
1.0
 40
1.0
 40
1.0
 10
121.4309303714
 20
169.0151603243
 30
0.0
 10
121.3753214367
 20
169.0151533349
 30
0.0
 10
121.2620211274
 20
169.0026151546
 30
0.0
 10
121.0364140524
 20
168.9272816078
 30
0.0
 10
120.8290397595
 20
168.7817390377
 30
0.0
 10
120.654139642
 20
168.5889624515
 30
0.0
 10
120.5025616821
 20
168.36059253
 30
0.0
 10
120.4309295193
 20
168.1537128694
 30
0.0
 10
120.4309303714
 20
168.0151690479
 30
0.0
  0
SPLINE
  5
2C6
100
AcDbEntity
  8
RUNDUNGEN
100
AcDbSpline
 62
7
  6
CONTINUOUS
 70
0
 71
3
 72
12
 73
8
 74
0
 42
0.0000001
 43
0.0000001
 44
0.0000000001
 40
0.0
 40
0.0
 40
0.0
 40
0.0
 40
0.2594801063
 40
0.5125501593
 40
0.6367378984
 40
0.7592656217
 40
1.0
 40
1.0
 40
1.0
 40
1.0
 10
83.0245525272
 20
168.1715361791
 30
0.0
 10
83.0412797813
 20
168.2865895055
 30
0.0
 10
83.111398384
 20
168.5103103743
 30
0.0
 10
83.2858107858
 20
168.7436630483
 30
0.0
 10
83.4635699239
 20
168.8817858422
 30
0.0
 10
83.6582676452
 20
168.9826930808
 30
0.0
 10
83.8230666718
 20
169.0151603243
 30
0.0
 10
83.9309303714
 20
169.0151603243
 30
0.0
  0
SPLINE
  5
2C7
100
AcDbEntity
  8
RUNDUNGEN
100
AcDbSpline
 62
7
  6
CONTINUOUS
 70
0
 71
3
 72
12
 73
8
 74
0
 42
0.0000001
 43
0.0000001
 44
0.0000000001
 40
0.0
 40
0.0
 40
0.0
 40
0.0
 40
0.2594802564
 40
0.5125498925
 40
0.6367375531
 40
0.759265298
 40
1.0
 40
1.0
 40
1.0
 40
1.0
 10
90.1100040261
 20
168.1715856621
 30
0.0
 10
90.126735992
 20
168.2866340509
 30
0.0
 10
90.1968609013
 20
168.510343487
 30
0.0
 10
90.3712739396
 20
168.7436816654
 30
0.0
 10
90.5490294171
 20
168.8817951961
 30
0.0
 10
90.7437217343
 20
168.9826954736
 30
0.0
 10
90.908514727
 20
169.0151603243
 30
0.0
 10
91.016374605
 20
169.0151603243
 30
0.0
  0
SPLINE
  5
2C8
100
AcDbEntity
  8
RUNDUNGEN
100
AcDbSpline
 62
7
  6
CONTINUOUS
 70
0
 71
3
 72
16
 73
12
 74
0
 42
0.0000001
 43
0.0000001
 44
0.0000000001
 40
0.0
 40
0.0
 40
0.0
 40
0.0
 40
0.0430198573
 40
0.0896277152
 40
0.1398891567
 40
0.1936617169
 40
0.3105282239
 40
0.4375668798
 40
0.5721486811
 40
0.7119980677
 40
1.0
 40
1.0
 40
1.0
 40
1.0
 10
109.5071694855
 20
169.0151603242
 30
0.0
 10
109.3763122198
 20
169.0151593735
 30
0.0
 10
109.1035050543
 20
168.9906398509
 30
0.0
 10
108.6875363777
 20
168.8973753408
 30
0.0
 10
108.2518732629
 20
168.7535020335
 30
0.0
 10
107.630898089
 20
168.4956675958
 30
0.0
 10
106.8262559154
 20
168.0773500055
 30
0.0
 10
105.8420879411
 20
167.4792597139
 30
0.0
 10
104.8261619148
 20
166.8011501528
 30
0.0
 10
103.4290548031
 20
165.8135786712
 30
0.0
 10
102.3843884109
 20
165.0372657479
 30
0.0
 10
101.6809303714
 20
164.5151603243
 30
0.0
  0
SPLINE
  5
2C9
100
AcDbEntity
  8
RUNDUNGEN
100
AcDbSpline
 62
7
  6
CONTINUOUS
 70
0
 71
3
 72
12
 73
8
 74
0
 42
0.0000001
 43
0.0000001
 44
0.0000000001
 40
0.0
 40
0.0
 40
0.0
 40
0.0
 40
0.2820753476
 40
0.546258455
 40
0.7829954107
 40
0.8931534072
 40
1.0
 40
1.0
 40
1.0
 40
1.0
 10
93.1093364576
 20
168.0151603243
 30
0.0
 10
93.1093364576
 20
168.1441308243
 30
0.0
 10
93.1453443091
 20
168.3956144003
 30
0.0
 10
93.3020901697
 20
168.7240286213
 30
0.0
 10
93.5125152806
 20
168.9219758917
 30
0.0
 10
93.7061740268
 20
169.0016949754
 30
0.0
 10
93.8058400473
 20
169.0151603243
 30
0.0
 10
93.8546924501
 20
169.0151603243
 30
0.0
  0
SPLINE
  5
2CA
100
AcDbEntity
  8
RUNDUNGEN
100
AcDbSpline
 62
7
  6
CONTINUOUS
 70
0
 71
3
 72
15
 73
11
 74
0
 42
0.0000001
 43
0.0000001
 44
0.0000000001
 40
0.0
 40
0.0
 40
0.0
 40
0.0
 40
0.1053063021
 40
0.2123648176
 40
0.3229161827
 40
0.4388530467
 40
0.5622057638
 40
0.6952050123
 40
0.8402828963
 40
1.0
 40
1.0
 40
1.0
 40
1.0
 10
257.6705397464
 20
164.5151603243
 30
0.0
 10
257.6704882556
 20
164.7171083544
 30
0.0
 10
257.631618224
 20
165.1253932727
 30
0.0
 10
257.4564890422
 20
165.7230808752
 30
0.0
 10
257.1622441627
 20
166.2953965054
 30
0.0
 10
256.7460289543
 20
166.8266923923
 30
0.0
 10
256.203884073
 20
167.2979251456
 30
0.0
 10
255.5320118692
 20
167.68390233
 30
0.0
 10
254.730171788
 20
167.9508804168
 30
0.0
 10
254.1434991503
 20
168.0151516152
 30
0.0
 10
253.837206413
 20
168.0151603243
 30
0.0
  0
SPLINE
  5
2CB
100
AcDbEntity
  8
RUNDUNGEN
100
AcDbSpline
 62
7
  6
CONTINUOUS
 70
0
 71
3
 72
13
 73
9
 74
0
 42
0.0000001
 43
0.0000001
 44
0.0000000001
 40
0.0
 40
0.0
 40
0.0
 40
0.0
 40
0.2929286732
 40
0.5623460693
 40
0.6839166706
 40
0.7959867931
 40
0.9003282674
 40
1.0
 40
1.0
 40
1.0
 40
1.0
 10
253.837206413
 20
168.0151603243
 30
0.0
 10
253.837206413
 20
168.1438531183
 30
0.0
 10
253.8059106165
 20
168.3920039098
 30
0.0
 10
253.6864999042
 20
168.673672751
 30
0.0
 10
253.5478216331
 20
168.8474477805
 30
0.0
 10
253.4318107861
 20
168.9422802753
 30
0.0
 10
253.30443769
 20
169.0014521526
 30
0.0
 10
253.2143286783
 20
169.0151603243
 30
0.0
 10
253.1705397464
 20
169.0151603243
 30
0.0
  0
SPLINE
  5
2CC
100
AcDbEntity
  8
RUNDUNGEN
100
AcDbSpline
 62
7
  6
CONTINUOUS
 70
0
 71
3
 72
11
 73
7
 74
0
 42
0.0000001
 43
0.0000001
 44
0.0000000001
 40
0.0
 40
0.0
 40
0.0
 40
0.0
 40
0.2535066842
 40
0.5040213005
 40
0.7524719292
 40
1.0
 40
1.0
 40
1.0
 40
1.0
 10
205.6477263308
 20
168.0151739855
 30
0.0
 10
205.1966909986
 20
168.1553763353
 30
0.0
 10
204.2971661883
 20
168.4257769293
 30
0.0
 10
202.9330065996
 20
168.7542816821
 30
0.0
 10
201.5564971514
 20
168.9663265767
 30
0.0
 10
200.631724217
 20
169.0151457451
 30
0.0
 10
200.1705397464
 20
169.0151603243
 30
0.0
  0
SPLINE
  5
2CD
100
AcDbEntity
  8
RUNDUNGEN
100
AcDbSpline
 62
7
  6
CONTINUOUS
 70
0
 71
3
 72
14
 73
10
 74
0
 42
0.0000001
 43
0.0000001
 44
0.0000000001
 40
0.0
 40
0.0
 40
0.0
 40
0.0
 40
0.3347521313
 40
0.4888297842
 40
0.6277685377
 40
0.7482551455
 40
0.8486317584
 40
0.9304345934
 40
1.0
 40
1.0
 40
1.0
 40
1.0
 10
230.9804494645
 20
168.0151603243
 30
0.0
 10
230.9804494645
 20
168.1431338736
 30
0.0
 10
230.9666992239
 20
168.3306113481
 30
0.0
 10
230.9177985937
 20
168.5658540436
 30
0.0
 10
230.86968958
 20
168.7168027484
 30
0.0
 10
230.8111450827
 20
168.8418405972
 30
0.0
 10
230.7436792714
 20
168.9368829091
 30
0.0
 10
230.6680620392
 20
168.9991564538
 30
0.0
 10
230.6098208585
 20
169.0151603243
 30
0.0
 10
230.5832264587
 20
169.0151603243
 30
0.0
  0
SPLINE
  5
2CE
100
AcDbEntity
  8
RUNDUNGEN
100
AcDbSpline
 62
7
  6
CONTINUOUS
 70
0
 71
3
 72
11
 73
7
 74
0
 42
0.0000001
 43
0.0000001
 44
0.0000000001
 40
0.0
 40
0.0
 40
0.0
 40
0.0
 40
0.2475262034
 40
0.4959772647
 40
0.7464931263
 40
1.0
 40
1.0
 40
1.0
 40
1.0
 10
200.1705397464
 20
154.0151603243
 30
0.0
 10
200.6317204853
 20
154.0151738907
 30
0.0
 10
201.5564901571
 20
154.0639944965
 30
0.0
 10
202.9329989487
 20
154.2760358496
 30
0.0
 10
204.2971610677
 20
154.6045421511
 30
0.0
 10
205.1966879049
 20
154.8749433756
 30
0.0
 10
205.6477233673
 20
155.0151456252
 30
0.0
  0
SPLINE
  5
2CF
100
AcDbEntity
  8
RUNDUNGEN
100
AcDbSpline
 62
7
  6
CONTINUOUS
 70
0
 71
3
 72
14
 73
10
 74
0
 42
0.0000001
 43
0.0000001
 44
0.0000000001
 40
0.0
 40
0.0
 40
0.0
 40
0.0
 40
0.3347516122
 40
0.4888294319
 40
0.6277683628
 40
0.748255042
 40
0.8486317069
 40
0.9304345788
 40
1.0
 40
1.0
 40
1.0
 40
1.0
 10
214.6106300282
 20
168.0151603243
 30
0.0
 10
214.6106300282
 20
168.1431336745
 30
0.0
 10
214.5968797871
 20
168.330611007
 30
0.0
 10
214.5479792584
 20
168.5658536529
 30
0.0
 10
214.4998702395
 20
168.7168025244
 30
0.0
 10
214.4413257111
 20
168.8418404835
 30
0.0
 10
214.3738598881
 20
168.9368828658
 30
0.0
 10
214.2982426225
 20
168.9991564289
 30
0.0
 10
214.2400014276
 20
169.0151603243
 30
0.0
 10
214.2134070224
 20
169.0151603243
 30
0.0
  0
SPLINE
  5
2D0
100
AcDbEntity
  8
RUNDUNGEN
100
AcDbSpline
 62
7
  6
CONTINUOUS
 70
0
 71
3
 72
15
 73
11
 74
0
 42
0.0000001
 43
0.0000001
 44
0.0000000001
 40
0.0
 40
0.0
 40
0.0
 40
0.0
 40
0.1596690212
 40
0.3047365061
 40
0.4377276751
 40
0.5610830545
 40
0.6770307685
 40
0.7875994479
 40
0.894662736
 40
1.0
 40
1.0
 40
1.0
 40
1.0
 10
253.837206413
 20
155.0151603243
 30
0.0
 10
254.143406093
 20
155.0151605433
 30
0.0
 10
254.7299527998
 20
155.0794766005
 30
0.0
 10
255.5317077623
 20
155.3462812382
 30
0.0
 10
256.2035725965
 20
155.7322116307
 30
0.0
 10
256.7457866576
 20
156.2033698124
 30
0.0
 10
257.1621052841
 20
156.7346683434
 30
0.0
 10
257.456347783
 20
157.3070507594
 30
0.0
 10
257.6316367843
 20
157.9047902303
 30
0.0
 10
257.6705215845
 20
158.313153472
 30
0.0
 10
257.6705397464
 20
158.5151603243
 30
0.0
  0
SPLINE
  5
2D1
100
AcDbEntity
  8
RUNDUNGEN
100
AcDbSpline
 62
7
  6
CONTINUOUS
 70
0
 71
3
 72
14
 73
10
 74
0
 42
0.0000001
 43
0.0000001
 44
0.0000000001
 40
0.0
 40
0.0
 40
0.0
 40
0.0
 40
0.3347516119
 40
0.4888294303
 40
0.6277683621
 40
0.7482550427
 40
0.848631707
 40
0.9304345786
 40
1.0
 40
1.0
 40
1.0
 40
1.0
 10
214.6106300282
 20
155.0151603243
 30
0.0
 10
214.6106300282
 20
154.8871869741
 30
0.0
 10
214.5968797872
 20
154.6997096423
 30
0.0
 10
214.547979259
 20
154.4644669965
 30
0.0
 10
214.4998702391
 20
154.3135181249
 30
0.0
 10
214.4413257113
 20
154.1884801649
 30
0.0
 10
214.3738598883
 20
154.0934377822
 30
0.0
 10
214.2982426224
 20
154.0311642201
 30
0.0
 10
214.2400014277
 20
154.0151603243
 30
0.0
 10
214.2134070224
 20
154.0151603243
 30
0.0
  0
SPLINE
  5
2D2
100
AcDbEntity
  8
RUNDUNGEN
100
AcDbSpline
 62
7
  6
CONTINUOUS
 70
0
 71
3
 72
14
 73
10
 74
0
 42
0.0000001
 43
0.0000001
 44
0.0000000001
 40
0.0
 40
0.0
 40
0.0
 40
0.0
 40
0.3347521292
 40
0.4888297824
 40
0.6277685373
 40
0.7482551463
 40
0.8486317593
 40
0.9304345939
 40
1.0
 40
1.0
 40
1.0
 40
1.0
 10
230.9804494645
 20
155.0151603243
 30
0.0
 10
230.9804494645
 20
154.8871867758
 30
0.0
 10
230.9666992239
 20
154.6997093021
 30
0.0
 10
230.9177985943
 20
154.4644666068
 30
0.0
 10
230.8696895802
 20
154.3135179011
 30
0.0
 10
230.8111450829
 20
154.1884800512
 30
0.0
 10
230.743679271
 20
154.0934377394
 30
0.0
 10
230.6680620394
 20
154.0311641944
 30
0.0
 10
230.609820859
 20
154.0151603243
 30
0.0
 10
230.5832264594
 20
154.0151603243
 30
0.0
  0
SPLINE
  5
2D3
100
AcDbEntity
  8
RUNDUNGEN
100
AcDbSpline
 62
7
  6
CONTINUOUS
 70
0
 71
3
 72
13
 73
9
 74
0
 42
0.0000001
 43
0.0000001
 44
0.0000000001
 40
0.0
 40
0.0
 40
0.0
 40
0.0
 40
0.2929286775
 40
0.5623460792
 40
0.6839166814
 40
0.7959868031
 40
0.9003282742
 40
1.0
 40
1.0
 40
1.0
 40
1.0
 10
253.837206413
 20
155.0151603243
 30
0.0
 10
253.8372064042
 20
154.8864675302
 30
0.0
 10
253.8059105945
 20
154.6383167406
 30
0.0
 10
253.686499878
 20
154.3566479021
 30
0.0
 10
253.5478216099
 20
154.1828728716
 30
0.0
 10
253.4318107687
 20
154.0880403753
 30
0.0
 10
253.3044376805
 20
154.0288684974
 30
0.0
 10
253.2143286747
 20
154.0151603243
 30
0.0
 10
253.1705397464
 20
154.0151603243
 30
0.0
  0
SPLINE
  5
2D4
100
AcDbEntity
  8
RUNDUNGEN
100
AcDbSpline
 62
7
  6
CONTINUOUS
 70
0
 71
3
 72
16
 73
12
 74
0
 42
0.0000001
 43
0.0000001
 44
0.0000000001
 40
0.0
 40
0.0
 40
0.0
 40
0.0
 40
0.357143426
 40
0.520034498
 40
0.664596601
 40
0.7861820407
 40
0.8815596089
 40
0.9190901284
 40
0.9501930362
 40
0.9762926763
 40
1.0
 40
1.0
 40
1.0
 40
1.0
 10
114.9499944207
 20
97.7463904816
 30
0.0
 10
114.8213122329
 20
97.7387068297
 30
0.0
 10
114.6337545499
 20
97.7245204702
 30
0.0
 10
114.3974528703
 20
97.6822323864
 30
0.0
 10
114.2469033136
 20
97.6452900768
 30
0.0
 10
114.1231996123
 20
97.6032608793
 30
0.0
 10
114.0402817725
 20
97.5624159577
 30
0.0
 10
113.9924312017
 20
97.5272785142
 30
0.0
 10
113.9683559214
 20
97.5026866788
 30
0.0
 10
113.9535272095
 20
97.4770016236
 30
0.0
 10
113.950701447
 20
97.4587064705
 30
0.0
 10
113.9511045458
 20
97.450158781
 30
0.0
  0
SPLINE
  5
2D5
100
AcDbEntity
  8
RUNDUNGEN
100
AcDbSpline
 62
7
  6
CONTINUOUS
 70
0
 71
3
 72
11
 73
7
 74
0
 42
0.0000001
 43
0.0000001
 44
0.0000000001
 40
0.0
 40
0.0
 40
0.0
 40
0.0
 40
0.250137015
 40
0.5002431795
 40
0.7502571339
 40
1.0
 40
1.0
 40
1.0
 40
1.0
 10
121.4306418891
 20
95.87742662
 30
0.0
 10
121.1924898768
 20
95.4481229365
 30
0.0
 10
120.7161946462
 20
94.5895897894
 30
0.0
 10
120.0711899411
 20
93.2638558449
 30
0.0
 10
119.5793388763
 20
91.8726269428
 30
0.0
 10
119.4309153481
 20
90.8908878338
 30
0.0
 10
119.4309303714
 20
90.400725542
 30
0.0
  0
SPLINE
  5
2D6
100
AcDbEntity
  8
RUNDUNGEN
100
AcDbSpline
 62
7
  6
CONTINUOUS
 70
0
 71
3
 72
15
 73
11
 74
0
 42
0.0000001
 43
0.0000001
 44
0.0000000001
 40
0.0
 40
0.0
 40
0.0
 40
0.0
 40
0.3763936591
 40
0.54218393
 40
0.6863361027
 40
0.8052332606
 40
0.8964158414
 40
0.9313143343
 40
0.959470799
 40
1.0
 40
1.0
 40
1.0
 40
1.0
 10
114.9499944207
 20
97.7463904816
 30
0.0
 10
114.8696558959
 20
97.8203646258
 30
0.0
 10
114.7481719015
 20
97.9207579401
 30
0.0
 10
114.5880309138
 20
98.0391340632
 30
0.0
 10
114.4845200748
 20
98.1083446388
 30
0.0
 10
114.3950028283
 20
98.1590247496
 30
0.0
 10
114.3297125803
 20
98.1877408079
 30
0.0
 10
114.2860405937
 20
98.1987413558
 30
0.0
 10
114.2564565027
 20
98.2018784907
 30
0.0
 10
114.2347583834
 20
98.1962471297
 30
0.0
 10
114.2266388735
 20
98.1877409765
 30
0.0
  0
SPLINE
  5
2D7
100
AcDbEntity
  8
RUNDUNGEN
100
AcDbSpline
 62
7
  6
CONTINUOUS
 70
0
 71
3
 72
11
 73
7
 74
0
 42
0.0000001
 43
0.0000001
 44
0.0000000001
 40
0.0
 40
0.0
 40
0.0
 40
0.0
 40
0.249742952
 40
0.4997549696
 40
0.7498611224
 40
1.0
 40
1.0
 40
1.0
 40
1.0
 10
83.9309303714
 20
90.400725542
 30
0.0
 10
83.9309474481
 20
90.8908855738
 30
0.0
 10
83.7825149368
 20
91.8726150372
 30
0.0
 10
83.2906764686
 20
93.2638356287
 30
0.0
 10
82.6456768773
 20
94.5895638439
 30
0.0
 10
82.169396477
 20
95.4481038271
 30
0.0
 10
81.9312321871
 20
95.8774020985
 30
0.0
  0
LINE
  5
2D8
100
AcDbEntity
  8
RUNDUNGEN
100
AcDbLine
 62
7
  6
CONTINUOUS
 10
88.411866322
 20
97.7463904816
 11
83.753064382
 21
103.3779093082
  0
LINE
  5
2D9
100
AcDbEntity
  8
RUNDUNGEN
100
AcDbLine
 62
7
  6
CONTINUOUS
 10
88.335498996
 20
95.8778920622
 11
88.411866322
 21
97.7463904816
  0
SPLINE
  5
2DA
100
AcDbEntity
  8
RUNDUNGEN
100
AcDbSpline
 62
7
  6
CONTINUOUS
 70
0
 71
3
 72
13
 73
9
 74
0
 42
0.0000001
 43
0.0000001
 44
0.0000000001
 40
0.0
 40
0.0
 40
0.0
 40
0.0
 40
0.1134706095
 40
0.2282711826
 40
0.3456105221
 40
0.4667091617
 40
0.7234325181
 40
1.0
 40
1.0
 40
1.0
 40
1.0
 10
101.6809303714
 20
38.3779511171
 30
0.0
 10
101.3262305026
 20
38.3780033376
 30
0.0
 10
100.6118183676
 20
38.4246957645
 30
0.0
 10
99.5491985908
 20
38.6348767325
 30
0.0
 10
98.4994849173
 20
38.9872462661
 30
0.0
 10
97.1021162295
 20
39.661222112
 30
0.0
 10
95.4407530799
 20
40.8895922186
 30
0.0
 10
94.3484488215
 20
42.1683144197
 30
0.0
 10
93.8546826529
 20
42.8779640442
 30
0.0
  0
SPLINE
  5
2DB
100
AcDbEntity
  8
RUNDUNGEN
100
AcDbSpline
 62
7
  6
CONTINUOUS
 70
0
 71
3
 72
13
 73
9
 74
0
 42
0.0000001
 43
0.0000001
 44
0.0000000001
 40
0.0
 40
0.0
 40
0.0
 40
0.0
 40
0.2765675025
 40
0.5332908753
 40
0.6543895091
 40
0.7717288835
 40
0.8865293804
 40
1.0
 40
1.0
 40
1.0
 40
1.0
 10
109.5071799302
 20
42.8779664726
 30
0.0
 10
109.0134138593
 20
42.1683163629
 30
0.0
 10
107.9211091937
 20
40.8895936301
 30
0.0
 10
106.2597456985
 20
39.661222658
 30
0.0
 10
104.8623763849
 20
38.9872466875
 30
0.0
 10
103.8126627712
 20
38.6348763339
 30
0.0
 10
102.7500424263
 20
38.4246961859
 30
0.0
 10
102.0356303856
 20
38.3780048439
 30
0.0
 10
101.6809303714
 20
38.3779511171
 30
0.0
  0
SPLINE
  5
2DC
100
AcDbEntity
  8
RUNDUNGEN
100
AcDbSpline
 62
7
  6
CONTINUOUS
 70
0
 71
3
 72
13
 73
9
 74
0
 42
0.0000001
 43
0.0000001
 44
0.0000000001
 40
0.0
 40
0.0
 40
0.0
 40
0.0
 40
0.1220026387
 40
0.2447406679
 40
0.3684208994
 40
0.4931327927
 40
0.7453695142
 40
1.0
 40
1.0
 40
1.0
 40
1.0
 10
82.9309303712
 20
90.4007645327
 30
0.0
 10
82.9309310506
 20
90.6276160571
 30
0.0
 10
82.9058039262
 20
91.0827379644
 30
0.0
 10
82.8209245958
 20
91.7627495008
 30
0.0
 10
82.7051626208
 20
92.4432139906
 30
0.0
 10
82.5226887934
 20
93.3560945166
 30
0.0
 10
82.2619081289
 20
94.5012677319
 30
0.0
 10
82.041573704
 20
95.4176012564
 30
0.0
 10
81.9309303713
 20
95.8779511171
 30
0.0
  0
SPLINE
  5
2DD
100
AcDbEntity
  8
RUNDUNGEN
100
AcDbSpline
 62
7
  6
CONTINUOUS
 70
0
 71
3
 72
13
 73
9
 74
0
 42
0.0000001
 43
0.0000001
 44
0.0000000001
 40
0.0
 40
0.0
 40
0.0
 40
0.0
 40
0.2546278689
 40
0.5068653092
 40
0.631578222
 40
0.7552588878
 40
0.8779972211
 40
1.0
 40
1.0
 40
1.0
 40
1.0
 10
121.4309303714
 20
95.8779511171
 30
0.0
 10
121.3202922794
 20
95.4176037593
 30
0.0
 10
121.0999547626
 20
94.5012720968
 30
0.0
 10
120.8391757232
 20
93.3560972567
 30
0.0
 10
120.6566911044
 20
92.4432122683
 30
0.0
 10
120.5409351217
 20
91.7627416237
 30
0.0
 10
120.4560553293
 20
91.0827267756
 30
0.0
 10
120.4309299377
 20
90.6276027994
 30
0.0
 10
120.4309303714
 20
90.4007504357
 30
0.0
  0
LINE
  5
2DE
100
AcDbEntity
  8
RUNDUNGEN
100
AcDbLine
 62
7
  6
CONTINUOUS
 10
114.9499944207
 20
97.7463904816
 11
115.026361563
 21
95.8778965622
  0
LINE
  5
2DF
100
AcDbEntity
  8
RUNDUNGEN
100
AcDbLine
 62
7
  6
CONTINUOUS
 10
119.6087963535
 20
103.3779093037
 11
114.9499944207
 21
97.7463904816
  0
SPLINE
  5
2E0
100
AcDbEntity
  8
RUNDUNGEN
100
AcDbSpline
 62
7
  6
CONTINUOUS
 70
0
 71
3
 72
15
 73
11
 74
0
 42
0.0000001
 43
0.0000001
 44
0.0000000001
 40
0.0
 40
0.0
 40
0.0
 40
0.0
 40
0.3763937136
 40
0.5421840102
 40
0.6863361796
 40
0.805233314
 40
0.8964158411
 40
0.9313142754
 40
0.959470672
 40
1.0
 40
1.0
 40
1.0
 40
1.0
 10
88.411866322
 20
97.7463904816
 30
0.0
 10
88.4922049526
 20
97.8203645402
 30
0.0
 10
88.613688852
 20
97.9207580018
 30
0.0
 10
88.773829895
 20
98.0391341065
 30
0.0
 10
88.8773407548
 20
98.1083446582
 30
0.0
 10
88.9668580086
 20
98.159024718
 30
0.0
 10
89.0321482191
 20
98.1877407598
 30
0.0
 10
89.0758201178
 20
98.1987414018
 30
0.0
 10
89.1054042191
 20
98.2018786419
 30
0.0
 10
89.1271023281
 20
98.1962471623
 30
0.0
 10
89.1352218638
 20
98.1877409822
 30
0.0
  0
SPLINE
  5
2E1
100
AcDbEntity
  8
RUNDUNGEN
100
AcDbSpline
 62
7
  6
CONTINUOUS
 70
0
 71
3
 72
16
 73
12
 74
0
 42
0.0000001
 43
0.0000001
 44
0.0000000001
 40
0.0
 40
0.0
 40
0.0
 40
0.0
 40
0.3571433755
 40
0.5200344357
 40
0.6645965399
 40
0.7861819927
 40
0.8815595766
 40
0.9190900837
 40
0.9501929744
 40
0.9762926191
 40
1.0
 40
1.0
 40
1.0
 40
1.0
 10
88.411866322
 20
97.7463904816
 30
0.0
 10
88.5405484985
 20
97.7387069167
 30
0.0
 10
88.7281061583
 20
97.7245204666
 30
0.0
 10
88.9644078139
 20
97.6822323762
 30
0.0
 10
89.1149573856
 20
97.6452901129
 30
0.0
 10
89.2386610935
 20
97.6032608859
 30
0.0
 10
89.3215789305
 20
97.5624159532
 30
0.0
 10
89.3694295252
 20
97.5272785521
 30
0.0
 10
89.3935048236
 20
97.5026867452
 30
0.0
 10
89.4083335467
 20
97.4770016727
 30
0.0
 10
89.4111592968
 20
97.4587064944
 30
0.0
 10
89.410756197
 20
97.4501587842
 30
0.0
  0
ELLIPSE
  5
2E2
100
AcDbEntity
  8
0
100
AcDbEllipse
 62
7
  6
CONTINUOUS
 10
113.3973482818
 20
161.5151603243
 30
0.0
 11
0.0
 21
3.4
 31
0.0
 40
0.4328358209
 41
-3.1415926536
 42
-0.0
  0
ELLIPSE
  5
2E3
100
AcDbEntity
  8
0
100
AcDbEllipse
 62
7
  6
CONTINUOUS
 10
89.9645124609
 20
161.5151603243
 30
0.0
 11
-0.0
 21
3.4
 31
0.0
 40
0.4328358209
 41
0.0
 42
3.1415926536
  0
ENDSEC
  0
SECTION
  2
OBJECTS
  0
DICTIONARY
  5
C
100
AcDbDictionary
280
0
281
1
  3
ACAD_GROUP
350
D
  3
ACAD_MLINESTYLE
350
17
  3
ACAD_LAYOUT
350
1A
  3
ACAD_PLOTSETTINGS
350
19
  3
ACAD_PLOTSTYLENAME
350
E
  0
DICTIONARY
  5
D
102
{ACAD_REACTORS
330
C
102
}
100
AcDbDictionary
280
0
281
1
  0
ACDBDICTIONARYWDFLT
  5
E
102
{ACAD_REACTORS
330
C
102
}
100
AcDbDictionary
281
1
  3
Normal
350
F
100
AcDbDictionaryWithDefault
340
F
  0
DICTIONARY
  5
17
102
{ACAD_REACTORS
330
C
102
}
100
AcDbDictionary
280
0
281
1
  3
Standard
350
18
  0
DICTIONARY
  5
19
102
{ACAD_REACTORS
330
C
102
}
100
AcDbDictionary
281
1
  0
DICTIONARY
  5
1A
102
{ACAD_REACTORS
330
C
102
}
100
AcDbDictionary
281
1
  3
Model
350
2E4
  3
Layout1
350
2E5
  0
ACDBPLACEHOLDER
  5
F
102
{ACAD_REACTORS
330
E
102
}
  0
MLINESTYLE
  5
18
102
{ACAD_REACTORS
330
17
102
}
100
AcDbMlineStyle
  2
STANDARD
 70
0
  3

 62
256
 51
90.0
 52
90.0
 71
2
 49
0.5
 62
256
  6
BYLAYER
 49
-0.5
 62
256
  6
BYLAYER
  0
LAYOUT
  5
2E4
102
{ACAD_REACTORS
330
1A
102
}
100
AcDbPlotSettings
  1

  2
none_device
  4
ISO_A4_(297.00_x_210.00_MM)
  6

 40
0.0
 41
0.0
 42
0.0
 43
0.0
 44
297.0
 45
210.0
 46
0.0
 47
0.0
 48
0.0
 49
0.0
140
0.0
141
0.0
142
1.0
143
1.0
 70
1024
 72
1
 73
0
 74
0
  7

 75
0
147
1.0
148
0.0
149
0.0
100
AcDbLayout
  1
Model
 70
0
 71
0
 10
0.0
 20
0.0
 11
297.0
 21
210.0
 12
0.0
 22
0.0
 32
0.0
 14
0.0
 24
0.0
 34
0.0
 15
0.0
 25
0.0
 35
0.0
146
0.0
 13
0.0
 23
0.0
 33
0.0
 16
1.0
 26
0.0
 36
0.0
 17
0.0
 27
1.0
 37
0.0
 76
0
330
20C
345
0
346
0
  0
LAYOUT
  5
2E5
102
{ACAD_REACTORS
330
1A
102
}
100
AcDbPlotSettings
  1

  2
none_device
  4
ISO_A4_(297.00_x_210.00_MM)
  6

 40
0.0
 41
0.0
 42
0.0
 43
0.0
 44
297.0
 45
210.0
 46
0.0
 47
0.0
 48
0.0
 49
0.0
140
0.0
141
0.0
142
1.0
143
1.0
 70
0
 72
1
 73
0
 74
0
  7

 75
0
147
1.0
148
0.0
149
0.0
100
AcDbLayout
  1
Layout1
 70
0
 71
1
 10
0.0
 20
0.0
 11
297.0
 21
210.0
 12
0.0
 22
0.0
 32
0.0
 14
0.0
 24
0.0
 34
0.0
 15
0.0
 25
0.0
 35
0.0
146
0.0
 13
0.0
 23
0.0
 33
0.0
 16
1.0
 26
0.0
 36
0.0
 17
0.0
 27
1.0
 37
0.0
 76
0
330
20D
345
0
346
0
  0
ENDSEC
  0
EOF
