999
DXF file: S:\Prolink\03_Konstruktion\CAD-Plots\Internet\2D_neu\S9\s9-57_grt_cm_w100.dxf
999
Pro/ENGINEER 2012230 by Parametric Technology Corporation
  0
SECTION
  2
HEADER
  9
$ACADVER
  1
AC1021
  9
$DWGCODEPAGE
  3
ANSI_1252
  9
$EXTMAX
 10
297.0
 20
210.0
 30
0.0
  9
$EXTMIN
 10
0.0
 20
0.0
 30
0.0
  9
$LIMMIN
 10
0.0
 20
0.0
  9
$LIMMAX
 10
297.0
 20
210.0
  9
$VIEWCTR
 10
148.5
 20
105.0
  9
$VIEWSIZE
 40
210.0
  9
$CLAYER
  8
0
  9
$LTSCALE
 40
16.335
  9
$CELTYPE
  6
BYLAYER
  9
$DIMSCALE
 40
1.0
  9
$DIMASZ
 40
3.5
  9
$DIMEXO
 40
0.0
  9
$DIMDLI
 40
11.286
  9
$DIMEXE
 40
1.5
  9
$DIMCEN
 40
2.673
  9
$DIMLFAC
 40
1.0
  9
$DIMBLK
  1
_FILLED
  9
$DIMTXT
 40
3.5
  9
$DIMTOL
 70
1
  9
$DIMLIM
 70
0
  9
$DIMTFAC
 40
1.0
  9
$DIMTP
 40
0.005
  9
$DIMTM
 40
0.005
  9
$DIMGAP
 40
0.625
  9
$DIMDSEP
 70
46
  9
$PDMODE
 70
3
  9
$PDSIZE
 40
0.3125
  9
$HANDSEED
  5
392
  9
$TILEMODE
 70
1
  9
$MEASUREMENT
 70
1
  9
$INSUNITS
 70
4
  0
ENDSEC
  0
SECTION
  2
CLASSES
  0
CLASS
  1
ACDBDICTIONARYWDFLT
  2
AcDbDictionaryWithDefault
  3
AutoCAD 2000
 90
0
 91
1
280
0
281
0
  0
CLASS
  1
ACDBPLACEHOLDER
  2
AcDbPlaceHolder
  3
AutoCAD 2000
 90
0
 91
1
280
0
281
0
  0
CLASS
  1
LAYOUT
  2
AcDbLayout
  3
AutoCAD 2000
 90
0
 91
0
280
0
281
0
  0
ENDSEC
  0
SECTION
  2
TABLES
  0
TABLE
  2
VPORT
  5
8
100
AcDbSymbolTable
 70
2
  0
VPORT
  5
1F4
100
AcDbSymbolTableRecord
100
AcDbViewportTableRecord
  2
*ACTIVE
 70
0
 10
0.0
 20
0.0
 11
1.0
 21
1.0
 12
148.5
 22
105.0
 13
0.0
 23
0.0
 14
1.0
 24
1.0
 15
0.0
 25
0.0
 16
0.0
 26
0.0
 36
1.0
 17
0.0
 27
0.0
 37
0.0
 40
210.0
 41
1.4142857143
 42
50.0
 43
0.0
 44
0.0
 50
0.0
 51
0.0
 71
0
 72
100
 73
1
 74
1
 75
0
 76
0
 77
0
 78
0
  0
ENDTAB
  0
TABLE
  2
LTYPE
  5
5
100
AcDbSymbolTable
 70
6
  0
LTYPE
  5
14
100
AcDbSymbolTableRecord
100
AcDbLinetypeTableRecord
  2
BYBLOCK
 70
0
  3

 72
65
 73
0
 40
0.0
  0
LTYPE
  5
15
100
AcDbSymbolTableRecord
100
AcDbLinetypeTableRecord
  2
BYLAYER
 70
0
  3

 72
65
 73
0
 40
0.0
  0
LTYPE
  5
16
100
AcDbSymbolTableRecord
100
AcDbLinetypeTableRecord
  2
CONTINUOUS
 70
64
  3
Solid line
 72
65
 73
0
 40
0.0
  0
LTYPE
  5
1F5
100
AcDbSymbolTableRecord
100
AcDbLinetypeTableRecord
  2
CENTER
 70
64
  3
____ _ ____ _ ____ _ ____ _ ____ _ ____ _ ____
 72
65
 73
4
 40
0.6
 49
0.375
 74
0
 49
-0.075
 74
0
 49
0.075
 74
0
 49
-0.075
 74
0
  0
LTYPE
  5
1F6
100
AcDbSymbolTableRecord
100
AcDbLinetypeTableRecord
  2
HIDDEN
 70
64
  3
- - - - - - - - - - - - - - - - - - - -
 72
65
 73
2
 40
0.2
 49
0.1
 74
0
 49
-0.1
 74
0
  0
LTYPE
  5
1F7
100
AcDbSymbolTableRecord
100
AcDbLinetypeTableRecord
  2
PHANTOM
 70
64
  3
_____ _ _ _____ _ _ _____ _ _ _____
 72
65
 73
6
 40
0.8
 49
0.45
 74
0
 49
-0.05
 74
0
 49
0.1
 74
0
 49
-0.05
 74
0
 49
0.1
 74
0
 49
-0.05
 74
0
  0
LTYPE
  5
1F8
100
AcDbSymbolTableRecord
100
AcDbLinetypeTableRecord
  2
DOT
 70
64
  3
. . . . . . . . . . . . . . . . . . . .
 72
65
 73
2
 40
0.2
 49
0.1
 74
0
 49
-0.1
 74
0
  0
LTYPE
  5
1F9
100
AcDbSymbolTableRecord
100
AcDbLinetypeTableRecord
  2
DASHED
 70
64
  3
- - - - - - - - - - - - - - - - - - - -
 72
65
 73
2
 40
0.2
 49
0.1
 74
0
 49
-0.1
 74
0
  0
ENDTAB
  0
TABLE
  2
LAYER
  5
2
100
AcDbSymbolTable
 70
36
  0
LAYER
  5
10
100
AcDbSymbolTableRecord
100
AcDbLayerTableRecord
  2
0
 70
0
 62
7
  6
CONTINUOUS
370
-3
390
F
  0
LAYER
  5
1FA
100
AcDbSymbolTableRecord
100
AcDbLayerTableRecord
  2
DEFAULT_1
 70
0
 62
7
  6
CENTER
370
-3
390
F
  0
LAYER
  5
1FB
100
AcDbSymbolTableRecord
100
AcDbLayerTableRecord
  2
DEFAULT_2
 70
0
 62
8
  6
HIDDEN
370
-3
390
F
  0
LAYER
  5
1FC
100
AcDbSymbolTableRecord
100
AcDbLayerTableRecord
  2
DEFAULT_3
 70
0
 62
7
  6
PHANTOM
370
-3
390
F
  0
LAYER
  5
1FD
100
AcDbSymbolTableRecord
100
AcDbLayerTableRecord
  2
01___PRT_ALL_DTM_PLN
 70
0
 62
7
  6
CONTINUOUS
370
-3
390
F
  0
LAYER
  5
1FE
100
AcDbSymbolTableRecord
100
AcDbLayerTableRecord
  2
01___PRT_DEF_DTM_PLN
 70
0
 62
7
  6
CONTINUOUS
370
-3
390
F
  0
LAYER
  5
1FF
100
AcDbSymbolTableRecord
100
AcDbLayerTableRecord
  2
02___PRT_ALL_AXES
 70
0
 62
7
  6
CONTINUOUS
370
-3
390
F
  0
LAYER
  5
200
100
AcDbSymbolTableRecord
100
AcDbLayerTableRecord
  2
03___PRT_ALL_CURVES
 70
0
 62
7
  6
CONTINUOUS
370
-3
390
F
  0
LAYER
  5
201
100
AcDbSymbolTableRecord
100
AcDbLayerTableRecord
  2
04___PRT_ALL_DTM_PNT
 70
0
 62
7
  6
CONTINUOUS
370
-3
390
F
  0
LAYER
  5
202
100
AcDbSymbolTableRecord
100
AcDbLayerTableRecord
  2
05___PRT_ALL_DTM_CSYS
 70
0
 62
7
  6
CONTINUOUS
370
-3
390
F
  0
LAYER
  5
203
100
AcDbSymbolTableRecord
100
AcDbLayerTableRecord
  2
05___PRT_DEF_DTM_CSYS
 70
0
 62
7
  6
CONTINUOUS
370
-3
390
F
  0
LAYER
  5
204
100
AcDbSymbolTableRecord
100
AcDbLayerTableRecord
  2
06___PRT_ALL_SURFS
 70
0
 62
7
  6
CONTINUOUS
370
-3
390
F
  0
LAYER
  5
205
100
AcDbSymbolTableRecord
100
AcDbLayerTableRecord
  2
AUSFORMSCHRAEGEN
 70
0
 62
7
  6
CONTINUOUS
370
-3
390
F
  0
LAYER
  5
206
100
AcDbSymbolTableRecord
100
AcDbLayerTableRecord
  2
BEZUGSACHSEN
 70
0
 62
7
  6
CONTINUOUS
370
-3
390
F
  0
LAYER
  5
207
100
AcDbSymbolTableRecord
100
AcDbLayerTableRecord
  2
BEZUGSEBENE
 70
0
 62
7
  6
CONTINUOUS
370
-3
390
F
  0
LAYER
  5
208
100
AcDbSymbolTableRecord
100
AcDbLayerTableRecord
  2
BEZUGSEBENEN-KES
 70
0
 62
7
  6
CONTINUOUS
370
-3
390
F
  0
LAYER
  5
209
100
AcDbSymbolTableRecord
100
AcDbLayerTableRecord
  2
RUNDUNGEN
 70
0
 62
7
  6
CONTINUOUS
370
-3
390
F
  0
ENDTAB
  0
TABLE
  2
STYLE
  5
3
100
AcDbSymbolTable
 70
1
  0
STYLE
  5
11
100
AcDbSymbolTableRecord
100
AcDbTextStyleTableRecord
  2
STANDARD
 70
0
 40
0.0
 41
0.7
 50
0.0
 71
0
 42
0.2
  3
txt
  4

  0
STYLE
  5
20A
100
AcDbSymbolTableRecord
100
AcDbTextStyleTableRecord
  2
TEXTSTYLE_1
 70
0
 40
0.0
 41
0.8
 50
0.0
 71
0
 42
0.2
  3
gdt
  4

  0
ENDTAB
  0
TABLE
  2
VIEW
  5
6
100
AcDbSymbolTable
 70
0
  0
ENDTAB
  0
TABLE
  2
UCS
  5
7
100
AcDbSymbolTable
 70
0
  0
ENDTAB
  0
TABLE
  2
APPID
  5
9
100
AcDbSymbolTable
 70
1
  0
APPID
  5
20B
100
AcDbSymbolTableRecord
100
AcDbRegAppTableRecord
  2
ACAD
 70
0
  0
ENDTAB
  0
TABLE
  2
BLOCK_RECORD
  5
1
100
AcDbSymbolTable
 70
0
  0
BLOCK_RECORD
  5
20C
100
AcDbSymbolTableRecord
100
AcDbBlockTableRecord
  2
*Model_Space
  0
BLOCK_RECORD
  5
20D
100
AcDbSymbolTableRecord
100
AcDbBlockTableRecord
  2
*Paper_Space
  0
ENDTAB
  0
TABLE
  2
DIMSTYLE
  5
A
100
AcDbSymbolTable
 70
1
100
AcDbDimStyleTable
 71
0
  0
DIMSTYLE
105
20E
100
AcDbSymbolTableRecord
100
AcDbDimStyleTableRecord
  2
STANDARD
 70
0
  3

  4

 40
1.0
 41
3.5
 42
0.0
 43
0.38
 44
1.5
 45
0.0
 46
0.0
 47
0.005
 48
0.005
140
3.5
141
0.09
142
0.0
143
25.4
144
1.0
145
0.0
146
1.0
147
0.625
 71
1.0
 72
0.0
 73
0
 74
0
 75
0
 76
0
 77
1
 78
8
170
0
171
2
172
0
173
0
174
0
175
0
176
0
177
0
178
5
270
2
271
3
272
3
273
2
274
2
275
0
280
0
281
0
282
0
283
1
284
8
285
0
286
0
287
3
288
0
340
11
278
46
  0
ENDTAB
  0
ENDSEC
  0
SECTION
  2
BLOCKS
  0
BLOCK
  5
20
100
AcDbEntity
  8
0
100
AcDbBlockBegin
  2
*Model_Space
 70
0
 10
0.0
 20
0.0
 30
0.0
  3
*Model_Space
  1

  0
ENDBLK
  5
21
100
AcDbEntity
  8
0
100
AcDbBlockEnd
  0
BLOCK
  5
1C
100
AcDbEntity
  8
0
100
AcDbBlockBegin
  2
*Paper_Space
 70
0
 10
0.0
 20
0.0
 30
0.0
  3
*Paper_Space
  1

  0
ENDBLK
  5
1D
100
AcDbEntity
  8
0
100
AcDbBlockEnd
  0
ENDSEC
  0
SECTION
  2
ENTITIES
  0
LINE
  5
20F
100
AcDbEntity
  8
0
100
AcDbLine
 62
7
  6
CONTINUOUS
 10
0.0
 20
0.0
 11
0.0
 21
210.0
  0
LINE
  5
210
100
AcDbEntity
  8
0
100
AcDbLine
 62
7
  6
CONTINUOUS
 10
0.0
 20
0.0
 11
297.0
 21
0.0
  0
LINE
  5
211
100
AcDbEntity
  8
0
100
AcDbLine
 62
7
  6
CONTINUOUS
 10
0.0
 20
210.0
 11
297.0
 21
210.0
  0
LINE
  5
212
100
AcDbEntity
  8
0
100
AcDbLine
 62
7
  6
CONTINUOUS
 10
297.0
 20
0.0
 11
297.0
 21
210.0
  0
LINE
  5
213
100
AcDbEntity
  8
0
100
AcDbLine
 62
7
  6
CONTINUOUS
 10
51.6809303713
 20
169.0151631989
 11
51.6809303713
 21
154.0151631989
  0
LINE
  5
214
100
AcDbEntity
  8
RUNDUNGEN
100
AcDbLine
 62
7
  6
CONTINUOUS
 10
56.9309303713
 20
154.0151631989
 11
56.9309303713
 21
169.0151631989
  0
LINE
  5
215
100
AcDbEntity
  8
RUNDUNGEN
100
AcDbLine
 62
7
  6
CONTINUOUS
 10
57.9309303713
 20
168.0151631989
 11
57.9309303713
 21
155.0151631989
  0
LINE
  5
216
100
AcDbEntity
  8
RUNDUNGEN
100
AcDbLine
 62
7
  6
CONTINUOUS
 10
58.0132082545
 20
168.0151631989
 11
58.0132082545
 21
155.0151631989
  0
LINE
  5
217
100
AcDbEntity
  8
RUNDUNGEN
100
AcDbLine
 62
7
  6
CONTINUOUS
 10
65.0986524882
 20
155.0151631989
 11
65.0986524882
 21
158.1151631989
  0
LINE
  5
218
100
AcDbEntity
  8
RUNDUNGEN
100
AcDbLine
 62
7
  6
CONTINUOUS
 10
65.0986524882
 20
164.9151631989
 11
65.0986524882
 21
168.0151631989
  0
LINE
  5
219
100
AcDbEntity
  8
RUNDUNGEN
100
AcDbLine
 62
7
  6
CONTINUOUS
 10
65.1809303713
 20
168.0151631989
 11
65.1809303713
 21
164.9151631989
  0
LINE
  5
21A
100
AcDbEntity
  8
RUNDUNGEN
100
AcDbLine
 62
7
  6
CONTINUOUS
 10
65.1809303713
 20
158.1151631989
 11
65.1809303713
 21
155.0151631989
  0
LINE
  5
21B
100
AcDbEntity
  8
RUNDUNGEN
100
AcDbLine
 62
7
  6
CONTINUOUS
 10
88.1809303714
 20
168.0151631989
 11
88.1809303714
 21
164.9151631989
  0
LINE
  5
21C
100
AcDbEntity
  8
0
100
AcDbLine
 62
7
  6
CONTINUOUS
 10
88.1809303714
 20
168.0151631989
 11
88.1809303714
 21
164.9151631989
  0
LINE
  5
21D
100
AcDbEntity
  8
RUNDUNGEN
100
AcDbLine
 62
7
  6
CONTINUOUS
 10
88.1809303714
 20
158.1151631989
 11
88.1809303714
 21
155.0151631989
  0
LINE
  5
21E
100
AcDbEntity
  8
0
100
AcDbLine
 62
7
  6
CONTINUOUS
 10
88.1809303714
 20
158.1151631989
 11
88.1809303714
 21
155.0151631989
  0
LINE
  5
21F
100
AcDbEntity
  8
RUNDUNGEN
100
AcDbLine
 62
7
  6
CONTINUOUS
 10
88.2632082545
 20
168.0151631989
 11
88.2632082545
 21
164.9151631989
  0
LINE
  5
220
100
AcDbEntity
  8
RUNDUNGEN
100
AcDbLine
 62
7
  6
CONTINUOUS
 10
88.2632082545
 20
158.1151631989
 11
88.2632082545
 21
155.0151631989
  0
LINE
  5
221
100
AcDbEntity
  8
RUNDUNGEN
100
AcDbLine
 62
7
  6
CONTINUOUS
 10
95.3486524882
 20
155.0151631989
 11
95.3486524882
 21
168.0151631989
  0
LINE
  5
222
100
AcDbEntity
  8
0
100
AcDbLine
 62
7
  6
CONTINUOUS
 10
51.6809303713
 20
154.0151631989
 11
58.9309303713
 21
154.0151631989
  0
LINE
  5
223
100
AcDbEntity
  8
0
100
AcDbLine
 62
7
  6
CONTINUOUS
 10
94.4309303713
 20
154.0151631989
 11
108.9309303714
 21
154.0151631989
  0
LINE
  5
224
100
AcDbEntity
  8
RUNDUNGEN
100
AcDbLine
 62
7
  6
CONTINUOUS
 10
51.6809303713
 20
154.0151631989
 11
151.6809303714
 21
154.0151631989
  0
LINE
  5
225
100
AcDbEntity
  8
0
100
AcDbLine
 62
7
  6
CONTINUOUS
 10
144.4309303713
 20
154.0151631989
 11
151.6809303714
 21
154.0151631989
  0
LINE
  5
226
100
AcDbEntity
  8
RUNDUNGEN
100
AcDbLine
 62
7
  6
CONTINUOUS
 10
57.9309303713
 20
155.0151631989
 11
68.1093364576
 21
155.0151631989
  0
LINE
  5
227
100
AcDbEntity
  8
RUNDUNGEN
100
AcDbLine
 62
7
  6
CONTINUOUS
 10
85.2525242851
 20
155.0151631989
 11
95.4309303713
 21
155.0151631989
  0
LINE
  5
228
100
AcDbEntity
  8
RUNDUNGEN
100
AcDbLine
 62
7
  6
CONTINUOUS
 10
107.9309303713
 20
155.0151631989
 11
118.1093364576
 21
155.0151631989
  0
LINE
  5
229
100
AcDbEntity
  8
RUNDUNGEN
100
AcDbLine
 62
7
  6
CONTINUOUS
 10
135.2525242851
 20
155.0151631989
 11
145.4309303713
 21
155.0151631989
  0
LINE
  5
22A
100
AcDbEntity
  8
RUNDUNGEN
100
AcDbLine
 62
7
  6
CONTINUOUS
 10
95.4309303713
 20
155.0151631989
 11
95.4309303713
 21
168.0151631989
  0
LINE
  5
22B
100
AcDbEntity
  8
RUNDUNGEN
100
AcDbLine
 62
7
  6
CONTINUOUS
 10
96.4309303714
 20
169.0151631989
 11
96.4309303714
 21
154.0151631989
  0
LINE
  5
22C
100
AcDbEntity
  8
0
100
AcDbLine
 62
7
  6
CONTINUOUS
 10
138.1809303713
 20
158.1151631989
 11
137.4628596978
 21
158.1151631989
  0
LINE
  5
22D
100
AcDbEntity
  8
0
100
AcDbLine
 62
7
  6
CONTINUOUS
 10
115.8990010449
 20
158.1151631989
 11
115.1809303713
 21
158.1151631989
  0
LINE
  5
22E
100
AcDbEntity
  8
0
100
AcDbLine
 62
7
  6
CONTINUOUS
 10
88.1809303714
 20
158.1151631989
 11
87.4628596978
 21
158.1151631989
  0
LINE
  5
22F
100
AcDbEntity
  8
0
100
AcDbLine
 62
7
  6
CONTINUOUS
 10
65.8990010449
 20
158.1151631989
 11
65.1809303713
 21
158.1151631989
  0
LINE
  5
230
100
AcDbEntity
  8
RUNDUNGEN
100
AcDbLine
 62
7
  6
CONTINUOUS
 10
64.9645124609
 20
158.1151631989
 11
65.1809303713
 21
158.1151631989
  0
LINE
  5
231
100
AcDbEntity
  8
RUNDUNGEN
100
AcDbLine
 62
7
  6
CONTINUOUS
 10
88.2632082545
 20
158.1151631989
 11
88.3973482818
 21
158.1151631989
  0
LINE
  5
232
100
AcDbEntity
  8
RUNDUNGEN
100
AcDbLine
 62
7
  6
CONTINUOUS
 10
114.9645124609
 20
158.1151631989
 11
115.1809303713
 21
158.1151631989
  0
LINE
  5
233
100
AcDbEntity
  8
RUNDUNGEN
100
AcDbLine
 62
7
  6
CONTINUOUS
 10
138.2632082545
 20
158.1151631989
 11
138.3973482818
 21
158.1151631989
  0
LINE
  5
234
100
AcDbEntity
  8
0
100
AcDbLine
 62
7
  6
CONTINUOUS
 10
138.1809303713
 20
164.9151631989
 11
137.4628596978
 21
164.9151631989
  0
LINE
  5
235
100
AcDbEntity
  8
0
100
AcDbLine
 62
7
  6
CONTINUOUS
 10
115.8990010449
 20
164.9151631989
 11
115.1809303713
 21
164.9151631989
  0
LINE
  5
236
100
AcDbEntity
  8
RUNDUNGEN
100
AcDbLine
 62
7
  6
CONTINUOUS
 10
115.0986524882
 20
164.9151631989
 11
114.9645124609
 21
164.9151631989
  0
LINE
  5
237
100
AcDbEntity
  8
0
100
AcDbLine
 62
7
  6
CONTINUOUS
 10
88.1809303714
 20
164.9151631989
 11
87.4628596978
 21
164.9151631989
  0
LINE
  5
238
100
AcDbEntity
  8
0
100
AcDbLine
 62
7
  6
CONTINUOUS
 10
65.8990010449
 20
164.9151631989
 11
65.1809303713
 21
164.9151631989
  0
LINE
  5
239
100
AcDbEntity
  8
RUNDUNGEN
100
AcDbLine
 62
7
  6
CONTINUOUS
 10
65.0986524882
 20
164.9151631989
 11
64.9645124609
 21
164.9151631989
  0
LINE
  5
23A
100
AcDbEntity
  8
RUNDUNGEN
100
AcDbLine
 62
7
  6
CONTINUOUS
 10
88.1809303714
 20
164.9151631989
 11
88.3973482818
 21
164.9151631989
  0
LINE
  5
23B
100
AcDbEntity
  8
RUNDUNGEN
100
AcDbLine
 62
7
  6
CONTINUOUS
 10
138.1809303713
 20
164.9151631989
 11
138.3973482818
 21
164.9151631989
  0
LINE
  5
23C
100
AcDbEntity
  8
RUNDUNGEN
100
AcDbLine
 62
7
  6
CONTINUOUS
 10
106.9309303713
 20
154.0151631989
 11
106.9309303713
 21
169.0151631989
  0
LINE
  5
23D
100
AcDbEntity
  8
RUNDUNGEN
100
AcDbLine
 62
7
  6
CONTINUOUS
 10
107.9309303713
 20
168.0151631989
 11
107.9309303713
 21
155.0151631989
  0
LINE
  5
23E
100
AcDbEntity
  8
RUNDUNGEN
100
AcDbLine
 62
7
  6
CONTINUOUS
 10
108.0132082545
 20
168.0151631989
 11
108.0132082545
 21
155.0151631989
  0
LINE
  5
23F
100
AcDbEntity
  8
RUNDUNGEN
100
AcDbLine
 62
7
  6
CONTINUOUS
 10
145.4309303713
 20
168.0151631989
 11
135.2525242851
 21
168.0151631989
  0
LINE
  5
240
100
AcDbEntity
  8
RUNDUNGEN
100
AcDbLine
 62
7
  6
CONTINUOUS
 10
118.1093364576
 20
168.0151631989
 11
107.9309303713
 21
168.0151631989
  0
LINE
  5
241
100
AcDbEntity
  8
RUNDUNGEN
100
AcDbLine
 62
7
  6
CONTINUOUS
 10
95.4309303713
 20
168.0151631989
 11
85.2525242851
 21
168.0151631989
  0
LINE
  5
242
100
AcDbEntity
  8
RUNDUNGEN
100
AcDbLine
 62
7
  6
CONTINUOUS
 10
68.1093364576
 20
168.0151631989
 11
65.1809303713
 21
168.0151631989
  0
LINE
  5
243
100
AcDbEntity
  8
RUNDUNGEN
100
AcDbLine
 62
7
  6
CONTINUOUS
 10
65.0986524882
 20
168.0151631989
 11
57.9309303713
 21
168.0151631989
  0
LINE
  5
244
100
AcDbEntity
  8
0
100
AcDbLine
 62
7
  6
CONTINUOUS
 10
134.5071682926
 20
169.0151631989
 11
118.8546924501
 21
169.0151631989
  0
LINE
  5
245
100
AcDbEntity
  8
0
100
AcDbLine
 62
7
  6
CONTINUOUS
 10
84.5071682926
 20
169.0151631989
 11
68.8546924501
 21
169.0151631989
  0
LINE
  5
246
100
AcDbEntity
  8
0
100
AcDbLine
 62
7
  6
CONTINUOUS
 10
51.6809303713
 20
169.0151631989
 11
58.9309303713
 21
169.0151631989
  0
LINE
  5
247
100
AcDbEntity
  8
RUNDUNGEN
100
AcDbLine
 62
7
  6
CONTINUOUS
 10
56.9311217161
 20
169.0151631989
 11
96.4307766286
 21
169.0151631989
  0
LINE
  5
248
100
AcDbEntity
  8
0
100
AcDbLine
 62
7
  6
CONTINUOUS
 10
94.4309303713
 20
169.0151631989
 11
108.9309303714
 21
169.0151631989
  0
LINE
  5
249
100
AcDbEntity
  8
RUNDUNGEN
100
AcDbLine
 62
7
  6
CONTINUOUS
 10
106.9311217161
 20
169.0151631989
 11
146.4307766286
 21
169.0151631989
  0
LINE
  5
24A
100
AcDbEntity
  8
0
100
AcDbLine
 62
7
  6
CONTINUOUS
 10
144.4309303713
 20
169.0151631989
 11
151.6809303714
 21
169.0151631989
  0
LINE
  5
24B
100
AcDbEntity
  8
RUNDUNGEN
100
AcDbLine
 62
7
  6
CONTINUOUS
 10
115.0986524882
 20
155.0151631989
 11
115.0986524882
 21
158.1151631989
  0
LINE
  5
24C
100
AcDbEntity
  8
RUNDUNGEN
100
AcDbLine
 62
7
  6
CONTINUOUS
 10
115.0986524882
 20
164.9151631989
 11
115.0986524882
 21
168.0151631989
  0
LINE
  5
24D
100
AcDbEntity
  8
RUNDUNGEN
100
AcDbLine
 62
7
  6
CONTINUOUS
 10
115.1809303713
 20
168.0151631989
 11
115.1809303713
 21
164.9151631989
  0
LINE
  5
24E
100
AcDbEntity
  8
RUNDUNGEN
100
AcDbLine
 62
7
  6
CONTINUOUS
 10
115.1809303713
 20
158.1151631989
 11
115.1809303713
 21
155.0151631989
  0
LINE
  5
24F
100
AcDbEntity
  8
RUNDUNGEN
100
AcDbLine
 62
7
  6
CONTINUOUS
 10
138.1809303714
 20
168.0151631989
 11
138.1809303714
 21
164.9151631989
  0
LINE
  5
250
100
AcDbEntity
  8
RUNDUNGEN
100
AcDbLine
 62
7
  6
CONTINUOUS
 10
138.1809303714
 20
158.1151631989
 11
138.1809303714
 21
155.0151631989
  0
LINE
  5
251
100
AcDbEntity
  8
0
100
AcDbLine
 62
7
  6
CONTINUOUS
 10
138.1809303714
 20
158.1151631989
 11
138.1809303714
 21
155.0151631989
  0
LINE
  5
252
100
AcDbEntity
  8
RUNDUNGEN
100
AcDbLine
 62
7
  6
CONTINUOUS
 10
138.2632082545
 20
168.0151631989
 11
138.2632082545
 21
164.9151631989
  0
LINE
  5
253
100
AcDbEntity
  8
RUNDUNGEN
100
AcDbLine
 62
7
  6
CONTINUOUS
 10
138.2632082545
 20
158.1151631989
 11
138.2632082545
 21
155.0151631989
  0
LINE
  5
254
100
AcDbEntity
  8
RUNDUNGEN
100
AcDbLine
 62
7
  6
CONTINUOUS
 10
145.3486524882
 20
155.0151631989
 11
145.3486524882
 21
168.0151631989
  0
LINE
  5
255
100
AcDbEntity
  8
RUNDUNGEN
100
AcDbLine
 62
7
  6
CONTINUOUS
 10
145.4309303714
 20
155.0151631989
 11
145.4309303714
 21
168.0151631989
  0
LINE
  5
256
100
AcDbEntity
  8
RUNDUNGEN
100
AcDbLine
 62
7
  6
CONTINUOUS
 10
146.4309303714
 20
169.0151631989
 11
146.4309303714
 21
154.0151631989
  0
LINE
  5
257
100
AcDbEntity
  8
0
100
AcDbLine
 62
7
  6
CONTINUOUS
 10
151.6809303714
 20
169.0151631989
 11
151.6809303714
 21
154.0151631989
  0
LINE
  5
258
100
AcDbEntity
  8
RUNDUNGEN
100
AcDbLine
 62
7
  6
CONTINUOUS
 10
205.6477653214
 20
155.0151631989
 11
205.6477653214
 21
154.0151631989
  0
LINE
  5
259
100
AcDbEntity
  8
RUNDUNGEN
100
AcDbLine
 62
7
  6
CONTINUOUS
 10
205.6477653214
 20
168.0151631989
 11
205.647765308
 21
169.0151631989
  0
LINE
  5
25A
100
AcDbEntity
  8
RUNDUNGEN
100
AcDbLine
 62
7
  6
CONTINUOUS
 10
214.2134070224
 20
154.0151631989
 11
214.2134070224
 21
169.0151631989
  0
LINE
  5
25B
100
AcDbEntity
  8
RUNDUNGEN
100
AcDbLine
 62
7
  6
CONTINUOUS
 10
214.6106300282
 20
168.0151631989
 11
214.6106300282
 21
155.0151631989
  0
LINE
  5
25C
100
AcDbEntity
  8
RUNDUNGEN
100
AcDbLine
 62
7
  6
CONTINUOUS
 10
200.1705397464
 20
154.0151631989
 11
253.1705447218
 21
154.0151631989
  0
LINE
  5
25D
100
AcDbEntity
  8
RUNDUNGEN
100
AcDbLine
 62
7
  6
CONTINUOUS
 10
205.6478456258
 20
155.0151631989
 11
253.837206413
 21
155.0151631989
  0
LINE
  5
25E
100
AcDbEntity
  8
0
100
AcDbLine
 62
7
  6
CONTINUOUS
 10
250.1705397464
 20
158.1151631989
 11
246.1705397464
 21
158.1151631989
  0
LINE
  5
25F
100
AcDbEntity
  8
RUNDUNGEN
100
AcDbLine
 62
7
  6
CONTINUOUS
 10
230.6705397464
 20
158.1151631989
 11
246.1705397464
 21
158.1151631989
  0
LINE
  5
260
100
AcDbEntity
  8
0
100
AcDbLine
 62
7
  6
CONTINUOUS
 10
250.1705397464
 20
164.9151631989
 11
246.1705397464
 21
164.9151631989
  0
LINE
  5
261
100
AcDbEntity
  8
RUNDUNGEN
100
AcDbLine
 62
7
  6
CONTINUOUS
 10
230.6705397464
 20
164.9151631989
 11
246.1705397464
 21
164.9151631989
  0
LINE
  5
262
100
AcDbEntity
  8
RUNDUNGEN
100
AcDbLine
 62
7
  6
CONTINUOUS
 10
230.9804494645
 20
155.0151631989
 11
230.9804494645
 21
158.1151631989
  0
LINE
  5
263
100
AcDbEntity
  8
RUNDUNGEN
100
AcDbLine
 62
7
  6
CONTINUOUS
 10
230.9804494645
 20
164.9151631989
 11
230.9804494645
 21
168.0151631989
  0
LINE
  5
264
100
AcDbEntity
  8
RUNDUNGEN
100
AcDbLine
 62
7
  6
CONTINUOUS
 10
231.3776724703
 20
154.0151631989
 11
231.3776724703
 21
158.1151631989
  0
LINE
  5
265
100
AcDbEntity
  8
RUNDUNGEN
100
AcDbLine
 62
7
  6
CONTINUOUS
 10
231.3776724703
 20
164.9151631989
 11
231.3776724608
 21
169.0151631989
  0
LINE
  5
266
100
AcDbEntity
  8
RUNDUNGEN
100
AcDbLine
 62
7
  6
CONTINUOUS
 10
253.837206413
 20
168.0151631989
 11
205.6478498043
 21
168.0151631989
  0
LINE
  5
267
100
AcDbEntity
  8
RUNDUNGEN
100
AcDbLine
 62
7
  6
CONTINUOUS
 10
253.1704997761
 20
169.0151631989
 11
200.1705397464
 21
169.0151631989
  0
LINE
  5
268
100
AcDbEntity
  8
RUNDUNGEN
100
AcDbLine
 62
7
  6
CONTINUOUS
 10
246.1705397464
 20
158.1151631989
 11
246.1705397464
 21
154.0151631989
  0
LINE
  5
269
100
AcDbEntity
  8
RUNDUNGEN
100
AcDbLine
 62
7
  6
CONTINUOUS
 10
246.1705397464
 20
164.9151631989
 11
246.1705397464
 21
169.0151631989
  0
LINE
  5
26A
100
AcDbEntity
  8
0
100
AcDbLine
 62
7
  6
CONTINUOUS
 10
257.6705397464
 20
164.5151631989
 11
257.6705397464
 21
158.5151631989
  0
LINE
  5
26B
100
AcDbEntity
  8
0
100
AcDbLine
 62
7
  6
CONTINUOUS
 10
51.6809303713
 20
103.3779511171
 11
51.6809303713
 21
88.3779511171
  0
LINE
  5
26C
100
AcDbEntity
  8
RUNDUNGEN
100
AcDbLine
 62
7
  6
CONTINUOUS
 10
56.9309303713
 20
88.3779511171
 11
56.9309303713
 21
95.8779511171
  0
LINE
  5
26D
100
AcDbEntity
  8
RUNDUNGEN
100
AcDbLine
 62
7
  6
CONTINUOUS
 10
57.9309303713
 20
81.835083841
 11
57.9309303713
 21
90.400725542
  0
LINE
  5
26E
100
AcDbEntity
  8
RUNDUNGEN
100
AcDbLine
 62
7
  6
CONTINUOUS
 10
58.9309303713
 20
81.835083841
 11
58.9309303713
 21
90.400725542
  0
LINE
  5
26F
100
AcDbEntity
  8
RUNDUNGEN
100
AcDbLine
 62
7
  6
CONTINUOUS
 10
62.7062615033
 20
82.534951186
 11
63.3355014068
 21
95.8779511171
  0
LINE
  5
270
100
AcDbEntity
  8
RUNDUNGEN
100
AcDbLine
 62
7
  6
CONTINUOUS
 10
65.1809303713
 20
49.8779511171
 11
65.1809303713
 21
64.6708183932
  0
LINE
  5
271
100
AcDbEntity
  8
RUNDUNGEN
100
AcDbLine
 62
7
  6
CONTINUOUS
 10
66.1809303714
 20
49.8779511171
 11
66.1809303714
 21
64.6708183932
  0
LINE
  5
272
100
AcDbEntity
  8
RUNDUNGEN
100
AcDbLine
 62
7
  6
CONTINUOUS
 10
63.7051513782
 20
82.4878447353
 11
64.410756197
 21
97.4501587823
  0
LINE
  5
273
100
AcDbEntity
  8
RUNDUNGEN
100
AcDbLine
 62
7
  6
CONTINUOUS
 10
65.0986524882
 20
65.068041399
 11
58.0132082545
 21
81.4378608352
  0
LINE
  5
274
100
AcDbEntity
  8
RUNDUNGEN
100
AcDbLine
 62
7
  6
CONTINUOUS
 10
85.2525242851
 20
42.2112844504
 11
84.5071682926
 21
42.8779511171
  0
LINE
  5
275
100
AcDbEntity
  8
RUNDUNGEN
100
AcDbLine
 62
7
  6
CONTINUOUS
 10
66.016374605
 20
65.4652644047
 11
58.9309303713
 21
81.835083841
  0
LINE
  5
276
100
AcDbEntity
  8
0
100
AcDbLine
 62
7
  6
CONTINUOUS
 10
71.9809303713
 20
58.8779511171
 11
71.9809303713
 21
48.3779511171
  0
LINE
  5
277
100
AcDbEntity
  8
RUNDUNGEN
100
AcDbLine
 62
7
  6
CONTINUOUS
 10
73.6088749496
 20
68.2779511171
 11
73.6088749498
 21
69.2779511171
  0
LINE
  5
278
100
AcDbEntity
  8
RUNDUNGEN
100
AcDbLine
 62
7
  6
CONTINUOUS
 10
93.8854754023
 20
103.0684268638
 11
89.2266388766
 21
98.1877409797
  0
LINE
  5
279
100
AcDbEntity
  8
RUNDUNGEN
100
AcDbLine
 62
7
  6
CONTINUOUS
 10
118.8546627804
 20
42.8779910873
 11
134.5072029491
 21
42.8779978052
  0
LINE
  5
27A
100
AcDbEntity
  8
RUNDUNGEN
100
AcDbLine
 62
7
  6
CONTINUOUS
 10
68.8546627804
 20
42.8779910873
 11
84.5072029491
 21
42.8779978052
  0
LINE
  5
27B
100
AcDbEntity
  8
RUNDUNGEN
100
AcDbLine
 62
7
  6
CONTINUOUS
 10
73.095234149
 20
68.3450328239
 11
73.3520545493
 21
69.3114919705
  0
LINE
  5
27C
100
AcDbEntity
  8
RUNDUNGEN
100
AcDbLine
 62
7
  6
CONTINUOUS
 10
58.0132082545
 20
81.4378608352
 11
58.9309303713
 21
81.835083841
  0
LINE
  5
27D
100
AcDbEntity
  8
RUNDUNGEN
100
AcDbLine
 62
7
  6
CONTINUOUS
 10
79.7529857931
 20
68.2779511171
 11
79.7529857931
 21
69.2779511171
  0
LINE
  5
27E
100
AcDbEntity
  8
0
100
AcDbLine
 62
7
  6
CONTINUOUS
 10
81.3809303713
 20
58.8779511171
 11
81.3809303713
 21
48.3779511171
  0
LINE
  5
27F
100
AcDbEntity
  8
RUNDUNGEN
100
AcDbLine
 62
7
  6
CONTINUOUS
 10
138.1809303713
 20
49.8779511171
 11
137.1809303713
 21
49.8779511171
  0
LINE
  5
280
100
AcDbEntity
  8
RUNDUNGEN
100
AcDbLine
 62
7
  6
CONTINUOUS
 10
88.1809303714
 20
49.8779511171
 11
87.1809303713
 21
49.8779511171
  0
LINE
  5
281
100
AcDbEntity
  8
RUNDUNGEN
100
AcDbLine
 62
7
  6
CONTINUOUS
 10
65.1809303713
 20
49.8779511171
 11
66.1809303714
 21
49.8779511171
  0
LINE
  5
282
100
AcDbEntity
  8
RUNDUNGEN
100
AcDbLine
 62
7
  6
CONTINUOUS
 10
115.1809303713
 20
49.8779511171
 11
116.1809303713
 21
49.8779511171
  0
LINE
  5
283
100
AcDbEntity
  8
RUNDUNGEN
100
AcDbLine
 62
7
  6
CONTINUOUS
 10
80.2666265939
 20
68.345032824
 11
80.0098061936
 21
69.3114919706
  0
LINE
  5
284
100
AcDbEntity
  8
RUNDUNGEN
100
AcDbLine
 62
7
  6
CONTINUOUS
 10
88.9511045457
 20
97.4501587823
 11
89.6567093645
 21
82.4878447353
  0
LINE
  5
285
100
AcDbEntity
  8
RUNDUNGEN
100
AcDbLine
 62
7
  6
CONTINUOUS
 10
87.1809303713
 20
64.6708183932
 11
87.1809303713
 21
49.8779511171
  0
LINE
  5
286
100
AcDbEntity
  8
RUNDUNGEN
100
AcDbLine
 62
7
  6
CONTINUOUS
 10
88.1809303714
 20
64.6708183932
 11
88.1809303714
 21
49.8779511171
  0
LINE
  5
287
100
AcDbEntity
  8
RUNDUNGEN
100
AcDbLine
 62
7
  6
CONTINUOUS
 10
90.0263593359
 20
95.8779511171
 11
90.6555992394
 21
82.534951186
  0
LINE
  5
288
100
AcDbEntity
  8
RUNDUNGEN
100
AcDbLine
 62
7
  6
CONTINUOUS
 10
94.4309303713
 20
81.835083841
 11
87.3454861377
 21
65.4652644047
  0
LINE
  5
289
100
AcDbEntity
  8
RUNDUNGEN
100
AcDbLine
 62
7
  6
CONTINUOUS
 10
95.3486524882
 20
81.4378608352
 11
88.2632082545
 21
65.068041399
  0
LINE
  5
28A
100
AcDbEntity
  8
RUNDUNGEN
100
AcDbLine
 62
7
  6
CONTINUOUS
 10
65.0986524882
 20
65.068041399
 11
66.016374605
 21
65.4652644047
  0
LINE
  5
28B
100
AcDbEntity
  8
RUNDUNGEN
100
AcDbLine
 62
7
  6
CONTINUOUS
 10
88.2632082545
 20
65.068041399
 11
87.3454861363
 21
65.465264396
  0
LINE
  5
28C
100
AcDbEntity
  8
RUNDUNGEN
100
AcDbLine
 62
7
  6
CONTINUOUS
 10
64.1352218661
 20
98.1877409797
 11
59.4763853404
 21
103.0684268638
  0
LINE
  5
28D
100
AcDbEntity
  8
RUNDUNGEN
100
AcDbLine
 62
7
  6
CONTINUOUS
 10
94.4309303713
 20
90.400725542
 11
94.4309303713
 21
81.835083841
  0
LINE
  5
28E
100
AcDbEntity
  8
RUNDUNGEN
100
AcDbLine
 62
7
  6
CONTINUOUS
 10
95.4309303713
 20
90.400725542
 11
95.4309303713
 21
81.835083841
  0
LINE
  5
28F
100
AcDbEntity
  8
RUNDUNGEN
100
AcDbLine
 62
7
  6
CONTINUOUS
 10
96.4309303714
 20
95.8779511171
 11
96.4309303714
 21
88.3779511171
  0
LINE
  5
290
100
AcDbEntity
  8
RUNDUNGEN
100
AcDbLine
 62
7
  6
CONTINUOUS
 10
108.0132082545
 20
81.4378608352
 11
108.9309303714
 21
81.835083841
  0
LINE
  5
291
100
AcDbEntity
  8
RUNDUNGEN
100
AcDbLine
 62
7
  6
CONTINUOUS
 10
138.1809303713
 20
64.6708183932
 11
137.1809303713
 21
64.6708183932
  0
LINE
  5
292
100
AcDbEntity
  8
RUNDUNGEN
100
AcDbLine
 62
7
  6
CONTINUOUS
 10
88.1809303714
 20
64.6708183932
 11
87.1809303713
 21
64.6708183932
  0
LINE
  5
293
100
AcDbEntity
  8
RUNDUNGEN
100
AcDbLine
 62
7
  6
CONTINUOUS
 10
115.1809303713
 20
64.6708183932
 11
116.1809303699
 21
64.6708184027
  0
LINE
  5
294
100
AcDbEntity
  8
RUNDUNGEN
100
AcDbLine
 62
7
  6
CONTINUOUS
 10
65.1809303713
 20
64.6708183932
 11
66.1809303699
 21
64.6708184027
  0
LINE
  5
295
100
AcDbEntity
  8
RUNDUNGEN
100
AcDbLine
 62
7
  6
CONTINUOUS
 10
68.1093364576
 20
42.2112844504
 11
68.8546924501
 21
42.8779511171
  0
LINE
  5
296
100
AcDbEntity
  8
RUNDUNGEN
100
AcDbLine
 62
7
  6
CONTINUOUS
 10
129.7529857931
 20
68.2779511171
 11
123.6088749496
 21
68.2779511171
  0
LINE
  5
297
100
AcDbEntity
  8
RUNDUNGEN
100
AcDbLine
 62
7
  6
CONTINUOUS
 10
79.7529857931
 20
68.2779511171
 11
73.6088749496
 21
68.2779511171
  0
LINE
  5
298
100
AcDbEntity
  8
RUNDUNGEN
100
AcDbLine
 62
7
  6
CONTINUOUS
 10
129.7529857931
 20
69.2779511171
 11
123.6088749496
 21
69.2779511171
  0
LINE
  5
299
100
AcDbEntity
  8
RUNDUNGEN
100
AcDbLine
 62
7
  6
CONTINUOUS
 10
79.7529857931
 20
69.2779511171
 11
73.6088749496
 21
69.2779511171
  0
LINE
  5
29A
100
AcDbEntity
  8
RUNDUNGEN
100
AcDbLine
 62
7
  6
CONTINUOUS
 10
135.2525242851
 20
42.2112844504
 11
134.5071682926
 21
42.8779511171
  0
LINE
  5
29B
100
AcDbEntity
  8
RUNDUNGEN
100
AcDbLine
 62
7
  6
CONTINUOUS
 10
106.9309303713
 20
88.3779511171
 11
106.9309303713
 21
95.8779511171
  0
LINE
  5
29C
100
AcDbEntity
  8
RUNDUNGEN
100
AcDbLine
 62
7
  6
CONTINUOUS
 10
107.9309303713
 20
81.835083841
 11
107.9309303713
 21
90.400725542
  0
LINE
  5
29D
100
AcDbEntity
  8
RUNDUNGEN
100
AcDbLine
 62
7
  6
CONTINUOUS
 10
108.9309303714
 20
81.835083841
 11
108.9309303714
 21
90.400725542
  0
LINE
  5
29E
100
AcDbEntity
  8
RUNDUNGEN
100
AcDbLine
 62
7
  6
CONTINUOUS
 10
143.8854754023
 20
103.0684268638
 11
139.2266388766
 21
98.1877409797
  0
LINE
  5
29F
100
AcDbEntity
  8
RUNDUNGEN
100
AcDbLine
 62
7
  6
CONTINUOUS
 10
95.3486524882
 20
81.4378608352
 11
94.4309303713
 21
81.835083841
  0
LINE
  5
2A0
100
AcDbEntity
  8
RUNDUNGEN
100
AcDbLine
 62
7
  6
CONTINUOUS
 10
112.7062615033
 20
82.534951186
 11
113.3355014068
 21
95.8779511171
  0
LINE
  5
2A1
100
AcDbEntity
  8
RUNDUNGEN
100
AcDbLine
 62
7
  6
CONTINUOUS
 10
113.7051513782
 20
82.4878447353
 11
114.410756197
 21
97.4501587823
  0
LINE
  5
2A2
100
AcDbEntity
  8
RUNDUNGEN
100
AcDbLine
 62
7
  6
CONTINUOUS
 10
115.0986524882
 20
65.068041399
 11
116.016374605
 21
65.4652644047
  0
LINE
  5
2A3
100
AcDbEntity
  8
RUNDUNGEN
100
AcDbLine
 62
7
  6
CONTINUOUS
 10
140.6555992394
 20
82.534951186
 11
139.6567093645
 21
82.4878447353
  0
LINE
  5
2A4
100
AcDbEntity
  8
RUNDUNGEN
100
AcDbLine
 62
7
  6
CONTINUOUS
 10
90.6555992394
 20
82.534951186
 11
89.6567093645
 21
82.4878447353
  0
LINE
  5
2A5
100
AcDbEntity
  8
RUNDUNGEN
100
AcDbLine
 62
7
  6
CONTINUOUS
 10
145.4309303713
 20
81.835083841
 11
144.4309303713
 21
81.835083841
  0
LINE
  5
2A6
100
AcDbEntity
  8
RUNDUNGEN
100
AcDbLine
 62
7
  6
CONTINUOUS
 10
95.4309303713
 20
81.835083841
 11
94.4309303713
 21
81.835083841
  0
LINE
  5
2A7
100
AcDbEntity
  8
RUNDUNGEN
100
AcDbLine
 62
7
  6
CONTINUOUS
 10
57.9309303713
 20
81.835083841
 11
58.9309303713
 21
81.835083841
  0
LINE
  5
2A8
100
AcDbEntity
  8
RUNDUNGEN
100
AcDbLine
 62
7
  6
CONTINUOUS
 10
107.9309303713
 20
81.835083841
 11
108.9309303714
 21
81.835083841
  0
LINE
  5
2A9
100
AcDbEntity
  8
RUNDUNGEN
100
AcDbLine
 62
7
  6
CONTINUOUS
 10
62.7062615033
 20
82.534951186
 11
63.7051513782
 21
82.4878447353
  0
LINE
  5
2AA
100
AcDbEntity
  8
RUNDUNGEN
100
AcDbLine
 62
7
  6
CONTINUOUS
 10
112.7062615033
 20
82.534951186
 11
113.7051513782
 21
82.4878447353
  0
LINE
  5
2AB
100
AcDbEntity
  8
RUNDUNGEN
100
AcDbLine
 62
7
  6
CONTINUOUS
 10
138.2632082545
 20
65.068041399
 11
137.3454861363
 21
65.465264396
  0
LINE
  5
2AC
100
AcDbEntity
  8
RUNDUNGEN
100
AcDbLine
 62
7
  6
CONTINUOUS
 10
115.0986524882
 20
65.068041399
 11
108.0132082545
 21
81.4378608352
  0
LINE
  5
2AD
100
AcDbEntity
  8
RUNDUNGEN
100
AcDbLine
 62
7
  6
CONTINUOUS
 10
116.016374605
 20
65.4652644047
 11
108.9309303714
 21
81.835083841
  0
LINE
  5
2AE
100
AcDbEntity
  8
RUNDUNGEN
100
AcDbLine
 62
7
  6
CONTINUOUS
 10
115.1809303713
 20
49.8779511171
 11
115.1809303713
 21
64.6708183932
  0
LINE
  5
2AF
100
AcDbEntity
  8
RUNDUNGEN
100
AcDbLine
 62
7
  6
CONTINUOUS
 10
116.1809303713
 20
49.8779511171
 11
116.1809303713
 21
64.6708183932
  0
LINE
  5
2B0
100
AcDbEntity
  8
0
100
AcDbLine
 62
7
  6
CONTINUOUS
 10
121.9809303713
 20
58.8779511171
 11
121.9809303713
 21
48.3779511171
  0
LINE
  5
2B1
100
AcDbEntity
  8
0
100
AcDbLine
 62
7
  6
CONTINUOUS
 10
51.6809303713
 20
88.3779511171
 11
56.9309303713
 21
88.3779511171
  0
LINE
  5
2B2
100
AcDbEntity
  8
0
100
AcDbLine
 62
7
  6
CONTINUOUS
 10
96.4309303714
 20
88.3779511171
 11
106.9309303714
 21
88.3779511171
  0
LINE
  5
2B3
100
AcDbEntity
  8
0
100
AcDbLine
 62
7
  6
CONTINUOUS
 10
146.4309303714
 20
88.3779511171
 11
151.6809303714
 21
88.3779511171
  0
LINE
  5
2B4
100
AcDbEntity
  8
RUNDUNGEN
100
AcDbLine
 62
7
  6
CONTINUOUS
 10
145.4309303713
 20
90.400725542
 11
144.4309303713
 21
90.400725542
  0
LINE
  5
2B5
100
AcDbEntity
  8
RUNDUNGEN
100
AcDbLine
 62
7
  6
CONTINUOUS
 10
95.4309303713
 20
90.400725542
 11
94.4309303713
 21
90.400725542
  0
LINE
  5
2B6
100
AcDbEntity
  8
RUNDUNGEN
100
AcDbLine
 62
7
  6
CONTINUOUS
 10
57.9309303713
 20
90.400725542
 11
58.9309303677
 21
90.4007255554
  0
LINE
  5
2B7
100
AcDbEntity
  8
RUNDUNGEN
100
AcDbLine
 62
7
  6
CONTINUOUS
 10
107.9309303713
 20
90.400725542
 11
108.9309303677
 21
90.4007255554
  0
LINE
  5
2B8
100
AcDbEntity
  8
RUNDUNGEN
100
AcDbLine
 62
7
  6
CONTINUOUS
 10
123.6088749496
 20
68.2779511171
 11
123.6088749498
 21
69.2779511171
  0
LINE
  5
2B9
100
AcDbEntity
  8
RUNDUNGEN
100
AcDbLine
 62
7
  6
CONTINUOUS
 10
123.095234149
 20
68.3450328239
 11
123.3520545493
 21
69.3114919705
  0
LINE
  5
2BA
100
AcDbEntity
  8
RUNDUNGEN
100
AcDbLine
 62
7
  6
CONTINUOUS
 10
140.0263593359
 20
95.8779511171
 11
139.0274694609
 21
95.8308446664
  0
LINE
  5
2BB
100
AcDbEntity
  8
RUNDUNGEN
100
AcDbLine
 62
7
  6
CONTINUOUS
 10
63.3355014068
 20
95.8779511171
 11
64.3343912818
 21
95.8308446664
  0
LINE
  5
2BC
100
AcDbEntity
  8
RUNDUNGEN
100
AcDbLine
 62
7
  6
CONTINUOUS
 10
129.7529857931
 20
68.2779511171
 11
129.7529857931
 21
69.2779511171
  0
LINE
  5
2BD
100
AcDbEntity
  8
RUNDUNGEN
100
AcDbLine
 62
7
  6
CONTINUOUS
 10
90.0263593359
 20
95.8779511171
 11
89.0274694609
 21
95.8308446664
  0
LINE
  5
2BE
100
AcDbEntity
  8
RUNDUNGEN
100
AcDbLine
 62
7
  6
CONTINUOUS
 10
106.9311217161
 20
95.8776037468
 11
113.3355014068
 21
95.8779511171
  0
LINE
  5
2BF
100
AcDbEntity
  8
RUNDUNGEN
100
AcDbLine
 62
7
  6
CONTINUOUS
 10
90.0263593359
 20
95.8779511171
 11
96.4307766286
 21
95.8776720234
  0
LINE
  5
2C0
100
AcDbEntity
  8
RUNDUNGEN
100
AcDbLine
 62
7
  6
CONTINUOUS
 10
140.0263593359
 20
95.8779511171
 11
146.4307766286
 21
95.8776720234
  0
LINE
  5
2C1
100
AcDbEntity
  8
RUNDUNGEN
100
AcDbLine
 62
7
  6
CONTINUOUS
 10
56.9311217161
 20
95.8776037468
 11
63.3355014068
 21
95.8779511171
  0
LINE
  5
2C2
100
AcDbEntity
  8
RUNDUNGEN
100
AcDbLine
 62
7
  6
CONTINUOUS
 10
113.3355014068
 20
95.8779511171
 11
114.3343912818
 21
95.8308446664
  0
LINE
  5
2C3
100
AcDbEntity
  8
RUNDUNGEN
100
AcDbLine
 62
7
  6
CONTINUOUS
 10
145.3486524882
 20
81.4378608352
 11
144.4309303713
 21
81.835083841
  0
LINE
  5
2C4
100
AcDbEntity
  8
RUNDUNGEN
100
AcDbLine
 62
7
  6
CONTINUOUS
 10
114.1352218661
 20
98.1877409797
 11
109.4763853404
 21
103.0684268638
  0
LINE
  5
2C5
100
AcDbEntity
  8
RUNDUNGEN
100
AcDbLine
 62
7
  6
CONTINUOUS
 10
130.2666265939
 20
68.345032824
 11
130.0098061936
 21
69.3114919706
  0
LINE
  5
2C6
100
AcDbEntity
  8
0
100
AcDbLine
 62
7
  6
CONTINUOUS
 10
131.3809303713
 20
58.8779511171
 11
131.3809303713
 21
48.3779511171
  0
LINE
  5
2C7
100
AcDbEntity
  8
RUNDUNGEN
100
AcDbLine
 62
7
  6
CONTINUOUS
 10
118.1093364576
 20
42.2112844504
 11
118.8546924501
 21
42.8779511171
  0
LINE
  5
2C8
100
AcDbEntity
  8
RUNDUNGEN
100
AcDbLine
 62
7
  6
CONTINUOUS
 10
137.1809303714
 20
64.6708183932
 11
137.1809303714
 21
49.8779511171
  0
LINE
  5
2C9
100
AcDbEntity
  8
RUNDUNGEN
100
AcDbLine
 62
7
  6
CONTINUOUS
 10
144.4309303714
 20
81.835083841
 11
137.3454861377
 21
65.4652644047
  0
LINE
  5
2CA
100
AcDbEntity
  8
RUNDUNGEN
100
AcDbLine
 62
7
  6
CONTINUOUS
 10
145.3486524882
 20
81.4378608352
 11
138.2632082545
 21
65.068041399
  0
LINE
  5
2CB
100
AcDbEntity
  8
0
100
AcDbLine
 62
7
  6
CONTINUOUS
 10
51.6809303713
 20
103.3779511171
 11
58.7530317932
 21
103.3779511171
  0
LINE
  5
2CC
100
AcDbEntity
  8
0
100
AcDbLine
 62
7
  6
CONTINUOUS
 10
94.6088291533
 20
103.3779511171
 11
108.7530317932
 21
103.3779511171
  0
LINE
  5
2CD
100
AcDbEntity
  8
0
100
AcDbLine
 62
7
  6
CONTINUOUS
 10
144.6088291533
 20
103.3779511171
 11
151.6809303714
 21
103.3779511171
  0
LINE
  5
2CE
100
AcDbEntity
  8
RUNDUNGEN
100
AcDbLine
 62
7
  6
CONTINUOUS
 10
138.9511045457
 20
97.4501587823
 11
139.6567093645
 21
82.4878447353
  0
LINE
  5
2CF
100
AcDbEntity
  8
RUNDUNGEN
100
AcDbLine
 62
7
  6
CONTINUOUS
 10
140.0263593359
 20
95.8779511171
 11
140.6555992394
 21
82.534951186
  0
LINE
  5
2D0
100
AcDbEntity
  8
RUNDUNGEN
100
AcDbLine
 62
7
  6
CONTINUOUS
 10
138.1809303714
 20
64.6708183932
 11
138.1809303714
 21
49.8779511171
  0
LINE
  5
2D1
100
AcDbEntity
  8
RUNDUNGEN
100
AcDbLine
 62
7
  6
CONTINUOUS
 10
144.4309303714
 20
90.400725542
 11
144.4309303714
 21
81.835083841
  0
LINE
  5
2D2
100
AcDbEntity
  8
RUNDUNGEN
100
AcDbLine
 62
7
  6
CONTINUOUS
 10
145.4309303714
 20
90.400725542
 11
145.4309303714
 21
81.835083841
  0
LINE
  5
2D3
100
AcDbEntity
  8
RUNDUNGEN
100
AcDbLine
 62
7
  6
CONTINUOUS
 10
146.4309303714
 20
95.8779511171
 11
146.4309303714
 21
88.3779511171
  0
LINE
  5
2D4
100
AcDbEntity
  8
0
100
AcDbLine
 62
7
  6
CONTINUOUS
 10
151.6809303714
 20
103.3779511171
 11
151.6809303714
 21
88.3779511171
  0
ARC
  5
2D5
100
AcDbEntity
  8
RUNDUNGEN
100
AcDbCircle
 62
7
  6
CONTINUOUS
 10
66.1869752638
 20
155.0155164979
 40
1.088322833
100
AcDbArc
 50
180.0185997594
 51
188.2825534654
  0
ARC
  5
2D6
100
AcDbEntity
  8
RUNDUNGEN
100
AcDbCircle
 62
7
  6
CONTINUOUS
 10
87.1748854831
 20
155.0155165011
 40
1.0883228288
100
AcDbArc
 50
351.717424148
 51
359.981400076
  0
ARC
  5
2D7
100
AcDbEntity
  8
RUNDUNGEN
100
AcDbCircle
 62
7
  6
CONTINUOUS
 10
94.4309303713
 20
155.0151631989
 40
1.0
100
AcDbArc
 50
270.0
 51
360.0
  0
ARC
  5
2D8
100
AcDbEntity
  8
RUNDUNGEN
100
AcDbCircle
 62
7
  6
CONTINUOUS
 10
87.1809303713
 20
155.0151631989
 40
1.0
100
AcDbArc
 50
270.0
 51
360.0
  0
ARC
  5
2D9
100
AcDbEntity
  8
RUNDUNGEN
100
AcDbCircle
 62
7
  6
CONTINUOUS
 10
66.1809303713
 20
155.0151631989
 40
1.0
100
AcDbArc
 50
180.0
 51
270.0
  0
ARC
  5
2DA
100
AcDbEntity
  8
RUNDUNGEN
100
AcDbCircle
 62
7
  6
CONTINUOUS
 10
58.9309303713
 20
155.0151631989
 40
1.0
100
AcDbArc
 50
180.0
 51
270.0
  0
ARC
  5
2DB
100
AcDbEntity
  8
RUNDUNGEN
100
AcDbCircle
 62
7
  6
CONTINUOUS
 10
59.1015322946
 20
168.0148107168
 40
1.0883240971
100
AcDbArc
 50
171.7232558451
 51
179.9814432701
  0
ARC
  5
2DC
100
AcDbEntity
  8
RUNDUNGEN
100
AcDbCircle
 62
7
  6
CONTINUOUS
 10
87.1748854789
 20
168.0148098999
 40
1.088322833
100
AcDbArc
 50
0.0185997594
 51
8.2825534654
  0
ARC
  5
2DD
100
AcDbEntity
  8
RUNDUNGEN
100
AcDbCircle
 62
7
  6
CONTINUOUS
 10
66.1869752596
 20
168.0148098968
 40
1.0883228288
100
AcDbArc
 50
171.717424148
 51
179.981400076
  0
ARC
  5
2DE
100
AcDbEntity
  8
RUNDUNGEN
100
AcDbCircle
 62
7
  6
CONTINUOUS
 10
58.9309303713
 20
168.0151631989
 40
1.0
100
AcDbArc
 50
90.0
 51
180.0
  0
ARC
  5
2DF
100
AcDbEntity
  8
RUNDUNGEN
100
AcDbCircle
 62
7
  6
CONTINUOUS
 10
66.1809303714
 20
168.0151631989
 40
1.0
100
AcDbArc
 50
90.0
 51
180.0
  0
ARC
  5
2E0
100
AcDbEntity
  8
RUNDUNGEN
100
AcDbCircle
 62
7
  6
CONTINUOUS
 10
87.1809303713
 20
168.0151631989
 40
1.0
100
AcDbArc
 50
0.0
 51
90.0
  0
ARC
  5
2E1
100
AcDbEntity
  8
RUNDUNGEN
100
AcDbCircle
 62
7
  6
CONTINUOUS
 10
94.4309303713
 20
168.0151631989
 40
1.0
100
AcDbArc
 50
0.0
 51
90.0
  0
ARC
  5
2E2
100
AcDbEntity
  8
RUNDUNGEN
100
AcDbCircle
 62
7
  6
CONTINUOUS
 10
144.2603284481
 20
155.015515681
 40
1.0883240971
100
AcDbArc
 50
351.7232558451
 51
359.9814432701
  0
ARC
  5
2E3
100
AcDbEntity
  8
RUNDUNGEN
100
AcDbCircle
 62
7
  6
CONTINUOUS
 10
116.1869752638
 20
155.0155164979
 40
1.088322833
100
AcDbArc
 50
180.0185997594
 51
188.2825534654
  0
ARC
  5
2E4
100
AcDbEntity
  8
RUNDUNGEN
100
AcDbCircle
 62
7
  6
CONTINUOUS
 10
137.1748854831
 20
155.0155165011
 40
1.0883228288
100
AcDbArc
 50
351.717424148
 51
359.981400076
  0
ARC
  5
2E5
100
AcDbEntity
  8
RUNDUNGEN
100
AcDbCircle
 62
7
  6
CONTINUOUS
 10
144.4309303714
 20
155.0151631989
 40
1.0
100
AcDbArc
 50
270.0
 51
360.0
  0
ARC
  5
2E6
100
AcDbEntity
  8
RUNDUNGEN
100
AcDbCircle
 62
7
  6
CONTINUOUS
 10
137.1809303714
 20
155.0151631989
 40
1.0
100
AcDbArc
 50
270.0
 51
360.0
  0
ARC
  5
2E7
100
AcDbEntity
  8
RUNDUNGEN
100
AcDbCircle
 62
7
  6
CONTINUOUS
 10
116.1809303713
 20
155.0151631989
 40
1.0
100
AcDbArc
 50
180.0
 51
270.0
  0
ARC
  5
2E8
100
AcDbEntity
  8
RUNDUNGEN
100
AcDbCircle
 62
7
  6
CONTINUOUS
 10
108.9309303714
 20
155.0151631989
 40
1.0
100
AcDbArc
 50
180.0
 51
270.0
  0
ARC
  5
2E9
100
AcDbEntity
  8
RUNDUNGEN
100
AcDbCircle
 62
7
  6
CONTINUOUS
 10
109.1015322946
 20
168.0148107168
 40
1.0883240971
100
AcDbArc
 50
171.7232558451
 51
179.9814432701
  0
ARC
  5
2EA
100
AcDbEntity
  8
RUNDUNGEN
100
AcDbCircle
 62
7
  6
CONTINUOUS
 10
137.1748854789
 20
168.0148098999
 40
1.088322833
100
AcDbArc
 50
0.0185997594
 51
8.2825534654
  0
ARC
  5
2EB
100
AcDbEntity
  8
RUNDUNGEN
100
AcDbCircle
 62
7
  6
CONTINUOUS
 10
116.1869752596
 20
168.0148098968
 40
1.0883228288
100
AcDbArc
 50
171.717424148
 51
179.981400076
  0
ARC
  5
2EC
100
AcDbEntity
  8
RUNDUNGEN
100
AcDbCircle
 62
7
  6
CONTINUOUS
 10
144.4309303714
 20
168.0151631989
 40
1.0
100
AcDbArc
 50
0.0
 51
90.0
  0
ARC
  5
2ED
100
AcDbEntity
  8
RUNDUNGEN
100
AcDbCircle
 62
7
  6
CONTINUOUS
 10
137.1809303714
 20
168.0151631989
 40
1.0
100
AcDbArc
 50
0.0
 51
90.0
  0
ARC
  5
2EE
100
AcDbEntity
  8
RUNDUNGEN
100
AcDbCircle
 62
7
  6
CONTINUOUS
 10
116.1809303713
 20
168.0151631989
 40
1.0
100
AcDbArc
 50
90.0
 51
180.0
  0
ARC
  5
2EF
100
AcDbEntity
  8
RUNDUNGEN
100
AcDbCircle
 62
7
  6
CONTINUOUS
 10
108.9309303714
 20
168.0151631989
 40
1.0
100
AcDbArc
 50
90.0
 51
180.0
  0
ARC
  5
2F0
100
AcDbEntity
  8
RUNDUNGEN
100
AcDbCircle
 62
7
  6
CONTINUOUS
 10
200.1705397464
 20
161.5151631989
 40
8.5
100
AcDbArc
 50
310.1195808357
 51
49.8803976259
  0
CIRCLE
  5
2F1
100
AcDbEntity
  8
0
100
AcDbCircle
 62
7
  6
CONTINUOUS
 10
200.1705397464
 20
161.5151631989
 40
7.5
  0
ARC
  5
2F2
100
AcDbEntity
  8
RUNDUNGEN
100
AcDbCircle
 62
7
  6
CONTINUOUS
 10
253.1705397464
 20
158.5151631989
 40
4.5
100
AcDbArc
 50
270.00006335
 51
360.0
  0
ARC
  5
2F3
100
AcDbEntity
  8
RUNDUNGEN
100
AcDbCircle
 62
7
  6
CONTINUOUS
 10
253.1705397464
 20
164.5151631989
 40
4.5
100
AcDbArc
 50
0.0
 51
90.0005089168
  0
ARC
  5
2F4
100
AcDbEntity
  8
0
100
AcDbCircle
 62
7
  6
CONTINUOUS
 10
250.1705397464
 20
161.5151631989
 40
3.4
100
AcDbArc
 50
270.0
 51
90.0
  0
ARC
  5
2F5
100
AcDbEntity
  8
0
100
AcDbCircle
 62
7
  6
CONTINUOUS
 10
230.6705397464
 20
161.5151631989
 40
3.4
100
AcDbArc
 50
90.0
 51
270.0
  0
CIRCLE
  5
2F6
100
AcDbEntity
  8
0
100
AcDbCircle
 62
7
  6
CONTINUOUS
 10
200.1705397464
 20
161.5151631989
 40
3.25
  0
ARC
  5
2F7
100
AcDbEntity
  8
RUNDUNGEN
100
AcDbCircle
 62
7
  6
CONTINUOUS
 10
73.6088749496
 20
70.2779511171
 40
2.0
100
AcDbArc
 50
255.1185207656
 51
270.0
  0
ARC
  5
2F8
100
AcDbEntity
  8
RUNDUNGEN
100
AcDbCircle
 62
7
  6
CONTINUOUS
 10
64.1809303713
 20
64.6708183932
 40
2.0
100
AcDbArc
 50
0.0
 51
23.404689551
  0
ARC
  5
2F9
100
AcDbEntity
  8
RUNDUNGEN
100
AcDbCircle
 62
7
  6
CONTINUOUS
 10
73.6088749496
 20
70.2779511171
 40
1.0
100
AcDbArc
 50
255.1185207656
 51
270.0
  0
ARC
  5
2FA
100
AcDbEntity
  8
RUNDUNGEN
100
AcDbCircle
 62
7
  6
CONTINUOUS
 10
64.1809303713
 20
64.6708183932
 40
1.0
100
AcDbArc
 50
0.0
 51
23.404689551
  0
ARC
  5
2FB
100
AcDbEntity
  8
0
100
AcDbCircle
 62
7
  6
CONTINUOUS
 10
76.6809303713
 20
49.8779511171
 40
11.5
100
AcDbArc
 50
190.8116964357
 51
195.066041546
  0
ARC
  5
2FC
100
AcDbEntity
  8
0
100
AcDbCircle
 62
7
  6
CONTINUOUS
 10
76.6809303713
 20
49.8779511171
 40
11.5
100
AcDbArc
 50
185.7515502934
 51
190.347611593
  0
ARC
  5
2FD
100
AcDbEntity
  8
RUNDUNGEN
100
AcDbCircle
 62
7
  6
CONTINUOUS
 10
76.6809303713
 20
49.8779511171
 40
11.5
100
AcDbArc
 50
180.0
 51
360.0
  0
ARC
  5
2FE
100
AcDbEntity
  8
0
100
AcDbCircle
 62
7
  6
CONTINUOUS
 10
76.6809303713
 20
49.8779511171
 40
11.5
100
AcDbArc
 50
343.8751716376
 51
344.9331969932
  0
ARC
  5
2FF
100
AcDbEntity
  8
RUNDUNGEN
100
AcDbCircle
 62
7
  6
CONTINUOUS
 10
76.6809303713
 20
49.8779511171
 40
10.5
100
AcDbArc
 50
318.1900010695
 51
360.0
  0
ARC
  5
300
100
AcDbEntity
  8
RUNDUNGEN
100
AcDbCircle
 62
7
  6
CONTINUOUS
 10
76.6809303713
 20
49.8779511171
 40
10.5
100
AcDbArc
 50
180.0
 51
221.8100443949
  0
ARC
  5
301
100
AcDbEntity
  8
0
100
AcDbCircle
 62
7
  6
CONTINUOUS
 10
76.6809303713
 20
48.3779511171
 40
4.7
100
AcDbArc
 50
180.0
 51
360.0
  0
ARC
  5
302
100
AcDbEntity
  8
0
100
AcDbCircle
 62
7
  6
CONTINUOUS
 10
76.6809303713
 20
58.8779511171
 40
4.7
100
AcDbArc
 50
0.0
 51
180.0
  0
ARC
  5
303
100
AcDbEntity
  8
RUNDUNGEN
100
AcDbCircle
 62
7
  6
CONTINUOUS
 10
79.7529857931
 20
70.2779511171
 40
2.0
100
AcDbArc
 50
270.0
 51
284.8814792344
  0
ARC
  5
304
100
AcDbEntity
  8
RUNDUNGEN
100
AcDbCircle
 62
7
  6
CONTINUOUS
 10
89.1809303713
 20
64.6708183932
 40
2.0
100
AcDbArc
 50
156.595310449
 51
180.0
  0
ARC
  5
305
100
AcDbEntity
  8
RUNDUNGEN
100
AcDbCircle
 62
7
  6
CONTINUOUS
 10
79.7529857931
 20
70.2779511171
 40
1.0
100
AcDbArc
 50
270.0
 51
284.8814792344
  0
ARC
  5
306
100
AcDbEntity
  8
RUNDUNGEN
100
AcDbCircle
 62
7
  6
CONTINUOUS
 10
89.1809303713
 20
64.6708183932
 40
1.0
100
AcDbArc
 50
156.595310449
 51
180.0
  0
ARC
  5
307
100
AcDbEntity
  8
RUNDUNGEN
100
AcDbCircle
 62
7
  6
CONTINUOUS
 10
76.6907197527
 20
81.8754608761
 40
14.0
100
AcDbArc
 50
177.3
 51
255.1185207656
  0
ARC
  5
308
100
AcDbEntity
  8
RUNDUNGEN
100
AcDbCircle
 62
7
  6
CONTINUOUS
 10
76.67114099
 20
81.8754608761
 40
14.0
100
AcDbArc
 50
284.8814792344
 51
2.7
  0
ARC
  5
309
100
AcDbEntity
  8
RUNDUNGEN
100
AcDbCircle
 62
7
  6
CONTINUOUS
 10
76.6907197527
 20
81.8754608761
 40
13.0
100
AcDbArc
 50
177.3
 51
255.1185207656
  0
ARC
  5
30A
100
AcDbEntity
  8
RUNDUNGEN
100
AcDbCircle
 62
7
  6
CONTINUOUS
 10
76.67114099
 20
81.8754608761
 40
13.0
100
AcDbArc
 50
284.8814792344
 51
2.7
  0
ARC
  5
30B
100
AcDbEntity
  8
RUNDUNGEN
100
AcDbCircle
 62
7
  6
CONTINUOUS
 10
58.7530297963
 20
102.3779511171
 40
1.0
100
AcDbArc
 50
43.6677801461
 51
90.0
  0
ARC
  5
30C
100
AcDbEntity
  8
RUNDUNGEN
100
AcDbCircle
 62
7
  6
CONTINUOUS
 10
94.6088309464
 20
102.3779511171
 40
1.0
100
AcDbArc
 50
90.0
 51
136.3322198539
  0
ARC
  5
30D
100
AcDbEntity
  8
RUNDUNGEN
100
AcDbCircle
 62
7
  6
CONTINUOUS
 10
56.9309303713
 20
87.3779511171
 40
1.0
100
AcDbArc
 50
0.0
 51
90.0
  0
ARC
  5
30E
100
AcDbEntity
  8
RUNDUNGEN
100
AcDbCircle
 62
7
  6
CONTINUOUS
 10
96.4309303714
 20
87.3779511171
 40
1.0
100
AcDbArc
 50
90.0
 51
180.0
  0
ARC
  5
30F
100
AcDbEntity
  8
RUNDUNGEN
100
AcDbCircle
 62
7
  6
CONTINUOUS
 10
63.411866322
 20
97.497265233
 40
1.0
100
AcDbArc
 50
357.3
 51
43.6677801461
  0
ARC
  5
310
100
AcDbEntity
  8
RUNDUNGEN
100
AcDbCircle
 62
7
  6
CONTINUOUS
 10
89.9499944207
 20
97.497265233
 40
1.0
100
AcDbArc
 50
136.3322198539
 51
182.7
  0
ARC
  5
311
100
AcDbEntity
  8
RUNDUNGEN
100
AcDbCircle
 62
7
  6
CONTINUOUS
 10
94.4309303713
 20
81.835083841
 40
1.0
100
AcDbArc
 50
336.595310449
 51
360.0
  0
ARC
  5
312
100
AcDbEntity
  8
RUNDUNGEN
100
AcDbCircle
 62
7
  6
CONTINUOUS
 10
58.9309303713
 20
81.835083841
 40
1.0
100
AcDbArc
 50
180.0
 51
203.404689551
  0
ARC
  5
313
100
AcDbEntity
  8
RUNDUNGEN
100
AcDbCircle
 62
7
  6
CONTINUOUS
 10
123.6088749496
 20
70.2779511171
 40
2.0
100
AcDbArc
 50
255.1185207656
 51
270.0
  0
ARC
  5
314
100
AcDbEntity
  8
RUNDUNGEN
100
AcDbCircle
 62
7
  6
CONTINUOUS
 10
114.1809303714
 20
64.6708183932
 40
2.0
100
AcDbArc
 50
0.0
 51
23.404689551
  0
ARC
  5
315
100
AcDbEntity
  8
RUNDUNGEN
100
AcDbCircle
 62
7
  6
CONTINUOUS
 10
123.6088749496
 20
70.2779511171
 40
1.0
100
AcDbArc
 50
255.1185207656
 51
270.0
  0
ARC
  5
316
100
AcDbEntity
  8
RUNDUNGEN
100
AcDbCircle
 62
7
  6
CONTINUOUS
 10
114.1809303714
 20
64.6708183932
 40
1.0
100
AcDbArc
 50
0.0
 51
23.404689551
  0
ARC
  5
317
100
AcDbEntity
  8
0
100
AcDbCircle
 62
7
  6
CONTINUOUS
 10
126.6809303713
 20
49.8779511171
 40
11.5
100
AcDbArc
 50
185.7542864548
 51
195.061631248
  0
ARC
  5
318
100
AcDbEntity
  8
RUNDUNGEN
100
AcDbCircle
 62
7
  6
CONTINUOUS
 10
126.6809303713
 20
49.8779511171
 40
11.5
100
AcDbArc
 50
180.0
 51
360.0
  0
ARC
  5
319
100
AcDbEntity
  8
0
100
AcDbCircle
 62
7
  6
CONTINUOUS
 10
126.6809303713
 20
49.8779511171
 40
11.5
100
AcDbArc
 50
349.1994539188
 51
349.6490850772
  0
ARC
  5
31A
100
AcDbEntity
  8
RUNDUNGEN
100
AcDbCircle
 62
7
  6
CONTINUOUS
 10
126.6809303713
 20
49.8779511171
 40
10.5
100
AcDbArc
 50
318.1900010695
 51
360.0
  0
ARC
  5
31B
100
AcDbEntity
  8
RUNDUNGEN
100
AcDbCircle
 62
7
  6
CONTINUOUS
 10
126.6809303713
 20
49.8779511171
 40
10.5
100
AcDbArc
 50
180.0
 51
221.8100443949
  0
ARC
  5
31C
100
AcDbEntity
  8
0
100
AcDbCircle
 62
7
  6
CONTINUOUS
 10
126.6809303713
 20
48.3779511171
 40
4.7
100
AcDbArc
 50
180.0
 51
360.0
  0
ARC
  5
31D
100
AcDbEntity
  8
0
100
AcDbCircle
 62
7
  6
CONTINUOUS
 10
126.6809303713
 20
58.8779511171
 40
4.7
100
AcDbArc
 50
0.0
 51
180.0
  0
ARC
  5
31E
100
AcDbEntity
  8
RUNDUNGEN
100
AcDbCircle
 62
7
  6
CONTINUOUS
 10
129.7529857931
 20
70.2779511171
 40
2.0
100
AcDbArc
 50
270.0
 51
284.8814792344
  0
ARC
  5
31F
100
AcDbEntity
  8
RUNDUNGEN
100
AcDbCircle
 62
7
  6
CONTINUOUS
 10
139.1809303714
 20
64.6708183932
 40
2.0
100
AcDbArc
 50
156.595310449
 51
180.0
  0
ARC
  5
320
100
AcDbEntity
  8
RUNDUNGEN
100
AcDbCircle
 62
7
  6
CONTINUOUS
 10
129.7529857931
 20
70.2779511171
 40
1.0
100
AcDbArc
 50
270.0
 51
284.8814792344
  0
ARC
  5
321
100
AcDbEntity
  8
RUNDUNGEN
100
AcDbCircle
 62
7
  6
CONTINUOUS
 10
139.1809303714
 20
64.6708183932
 40
1.0
100
AcDbArc
 50
156.595310449
 51
180.0
  0
ARC
  5
322
100
AcDbEntity
  8
RUNDUNGEN
100
AcDbCircle
 62
7
  6
CONTINUOUS
 10
126.6907197527
 20
81.8754608761
 40
14.0
100
AcDbArc
 50
177.3
 51
255.1185207656
  0
ARC
  5
323
100
AcDbEntity
  8
RUNDUNGEN
100
AcDbCircle
 62
7
  6
CONTINUOUS
 10
126.67114099
 20
81.8754608761
 40
14.0
100
AcDbArc
 50
284.8814792344
 51
2.7
  0
ARC
  5
324
100
AcDbEntity
  8
RUNDUNGEN
100
AcDbCircle
 62
7
  6
CONTINUOUS
 10
126.67114099
 20
81.8754608761
 40
13.0
100
AcDbArc
 50
284.8814792344
 51
2.7
  0
ARC
  5
325
100
AcDbEntity
  8
RUNDUNGEN
100
AcDbCircle
 62
7
  6
CONTINUOUS
 10
126.6907197527
 20
81.8754608761
 40
13.0
100
AcDbArc
 50
177.3
 51
255.1185207656
  0
ARC
  5
326
100
AcDbEntity
  8
RUNDUNGEN
100
AcDbCircle
 62
7
  6
CONTINUOUS
 10
108.7530297963
 20
102.3779511171
 40
1.0
100
AcDbArc
 50
43.6677801461
 51
90.0
  0
ARC
  5
327
100
AcDbEntity
  8
RUNDUNGEN
100
AcDbCircle
 62
7
  6
CONTINUOUS
 10
144.6088309464
 20
102.3779511171
 40
1.0
100
AcDbArc
 50
90.0
 51
136.3322198539
  0
ARC
  5
328
100
AcDbEntity
  8
RUNDUNGEN
100
AcDbCircle
 62
7
  6
CONTINUOUS
 10
106.9309303714
 20
87.3779511171
 40
1.0
100
AcDbArc
 50
0.0
 51
90.0
  0
ARC
  5
329
100
AcDbEntity
  8
RUNDUNGEN
100
AcDbCircle
 62
7
  6
CONTINUOUS
 10
146.4309303714
 20
87.3779511171
 40
1.0
100
AcDbArc
 50
90.0
 51
180.0
  0
ARC
  5
32A
100
AcDbEntity
  8
RUNDUNGEN
100
AcDbCircle
 62
7
  6
CONTINUOUS
 10
113.411866322
 20
97.497265233
 40
1.0
100
AcDbArc
 50
357.3
 51
43.6677801461
  0
ARC
  5
32B
100
AcDbEntity
  8
RUNDUNGEN
100
AcDbCircle
 62
7
  6
CONTINUOUS
 10
139.9499944207
 20
97.497265233
 40
1.0
100
AcDbArc
 50
136.3322198539
 51
182.7
  0
ARC
  5
32C
100
AcDbEntity
  8
RUNDUNGEN
100
AcDbCircle
 62
7
  6
CONTINUOUS
 10
144.4309303714
 20
81.835083841
 40
1.0
100
AcDbArc
 50
336.595310449
 51
360.0
  0
ARC
  5
32D
100
AcDbEntity
  8
RUNDUNGEN
100
AcDbCircle
 62
7
  6
CONTINUOUS
 10
108.9309303714
 20
81.835083841
 40
1.0
100
AcDbArc
 50
180.0
 51
203.404689551
  0
SPLINE
  5
32E
100
AcDbEntity
  8
0
100
AcDbSpline
 62
7
  6
CONTINUOUS
 70
0
 71
3
 72
25
 73
21
 74
0
 42
0.0000001
 43
0.0000001
 44
0.0000000001
 40
0.0
 40
0.0
 40
0.0
 40
0.0
 40
0.0330439078
 40
0.0529423304
 40
0.0752845493
 40
0.1271642613
 40
0.1880634114
 40
0.2570365551
 40
0.3330760834
 40
0.4148361963
 40
0.5000153895
 40
0.5851954358
 40
0.6669552733
 40
0.7429872937
 40
0.8119530495
 40
0.8728464642
 40
0.9247220122
 40
0.9470624671
 40
0.9669589762
 40
1.0
 40
1.0
 40
1.0
 40
1.0
 10
137.4628596978
 20
158.1151631989
 30
0.0
 10
137.3707553378
 20
158.1151631989
 30
0.0
 10
137.2237563722
 20
158.158341937
 30
0.0
 10
137.040229371
 20
158.2594111519
 30
0.0
 10
136.8264213078
 20
158.41276609
 30
0.0
 10
136.5548342299
 20
158.6762137622
 30
0.0
 10
136.2422106261
 20
159.0764815807
 30
0.0
 10
135.9479172258
 20
159.571074128
 30
0.0
 10
135.6979171271
 20
160.1538258981
 30
0.0
 10
135.5252484074
 20
160.8116817177
 30
0.0
 10
135.462742413
 20
161.5152985075
 30
0.0
 10
135.5252537045
 20
162.218917079
 30
0.0
 10
135.6979813399
 20
162.8767393039
 30
0.0
 10
135.9480100884
 20
163.4594307484
 30
0.0
 10
136.2422906453
 20
163.9539632608
 30
0.0
 10
136.5548981247
 20
164.3541824987
 30
0.0
 10
136.826469565
 20
164.6175991223
 30
0.0
 10
137.0402634985
 20
164.7709361554
 30
0.0
 10
137.2237776454
 20
164.8719910601
 30
0.0
 10
137.3707633763
 20
164.9151631989
 30
0.0
 10
137.4628596978
 20
164.9151631989
 30
0.0
  0
SPLINE
  5
32F
100
AcDbEntity
  8
0
100
AcDbSpline
 62
7
  6
CONTINUOUS
 70
0
 71
3
 72
25
 73
21
 74
0
 42
0.0000001
 43
0.0000001
 44
0.0000000001
 40
0.0
 40
0.0
 40
0.0
 40
0.0
 40
0.0330474956
 40
0.052948534
 40
0.0752937793
 40
0.1271813892
 40
0.1880881839
 40
0.2570661447
 40
0.3331041779
 40
0.4148516414
 40
0.500009617
 40
0.5851663844
 40
0.6669128266
 40
0.7429477387
 40
0.8119220636
 40
0.8728256336
 40
0.9247104307
 40
0.947054545
 40
0.9669542958
 40
1.0
 40
1.0
 40
1.0
 40
1.0
 10
87.4628596978
 20
158.1151631989
 30
0.0
 10
87.370745335
 20
158.1151631989
 30
0.0
 10
87.2237295689
 20
158.1583512534
 30
0.0
 10
87.0401835253
 20
158.259438885
 30
0.0
 10
86.8263506587
 20
158.4128242673
 30
0.0
 10
86.5547354866
 20
158.676317953
 30
0.0
 10
86.2420995451
 20
159.0766486538
 30
0.0
 10
85.9478163782
 20
159.5712830911
 30
0.0
 10
85.6978593243
 20
160.1540240452
 30
0.0
 10
85.5252165784
 20
160.8117829121
 30
0.0
 10
85.4627300151
 20
161.5152421524
 30
0.0
 10
85.5252419392
 20
162.2186957196
 30
0.0
 10
85.6978972174
 20
162.8764358661
 30
0.0
 10
85.9478648734
 20
163.4591485996
 30
0.0
 10
86.2421465419
 20
163.9537514902
 30
0.0
 10
86.5547777581
 20
164.3540512691
 30
0.0
 10
86.8263815438
 20
164.6175277625
 30
0.0
 10
87.040205557
 20
164.7709004142
 30
0.0
 10
87.2237428949
 20
164.8719796565
 30
0.0
 10
87.3707503281
 20
164.9151631989
 30
0.0
 10
87.4628596978
 20
164.9151631989
 30
0.0
  0
SPLINE
  5
330
100
AcDbEntity
  8
0
100
AcDbSpline
 62
7
  6
CONTINUOUS
 70
0
 71
3
 72
25
 73
21
 74
0
 42
0.0000001
 43
0.0000001
 44
0.0000000001
 40
0.0
 40
0.0
 40
0.0
 40
0.0
 40
0.033062005
 40
0.0529764869
 40
0.075332279
 40
0.1272434998
 40
0.1881624354
 40
0.2571148788
 40
0.3331103231
 40
0.4148075068
 40
0.499912952
 40
0.5850263741
 40
0.6667477066
 40
0.7427801935
 40
0.8117779711
 40
0.8727264529
 40
0.9246525755
 40
0.9470135136
 40
0.9669326322
 40
1.0
 40
1.0
 40
1.0
 40
1.0
 10
65.8990010449
 20
164.9151631989
 30
0.0
 10
65.9911562037
 20
164.9151631989
 30
0.0
 10
66.138238271
 20
164.871912171
 30
0.0
 10
66.3218893524
 20
164.7707928518
 30
0.0
 10
66.5357763583
 20
164.6172486334
 30
0.0
 10
66.8074623543
 20
164.3536486057
 30
0.0
 10
67.1200502991
 20
163.9532367207
 30
0.0
 10
67.4142015898
 20
163.4587071822
 30
0.0
 10
67.6640029149
 20
162.8762591958
 30
0.0
 10
67.8365947391
 20
162.2189107692
 30
0.0
 10
67.8991876044
 20
161.515872088
 30
0.0
 10
67.8368519742
 20
160.8127400104
 30
0.0
 10
67.6643956814
 20
160.1551525377
 30
0.0
 10
67.4146071987
 20
159.5723737731
 30
0.0
 10
67.120380111
 20
159.0775226147
 30
0.0
 10
66.8076652373
 20
158.6768894213
 30
0.0
 10
66.5358981156
 20
158.4131755087
 30
0.0
 10
66.3219674092
 20
158.25957189
 30
0.0
 10
66.1382762694
 20
158.1584395455
 30
0.0
 10
65.9911711518
 20
158.1151631989
 30
0.0
 10
65.8990010449
 20
158.1151631989
 30
0.0
  0
SPLINE
  5
331
100
AcDbEntity
  8
0
100
AcDbSpline
 62
7
  6
CONTINUOUS
 70
0
 71
3
 72
25
 73
21
 74
0
 42
0.0000001
 43
0.0000001
 44
0.0000000001
 40
0.0
 40
0.0
 40
0.0
 40
0.0
 40
0.0330568693
 40
0.0529663572
 40
0.0753155201
 40
0.1272134595
 40
0.1881279731
 40
0.2570938954
 40
0.333104137
 40
0.4148335262
 40
0.4999960376
 40
0.5851607403
 40
0.6668941671
 40
0.7429070179
 40
0.8118739176
 40
0.8727883393
 40
0.9246857114
 40
0.9470345
 40
0.966943584
 40
1.0
 40
1.0
 40
1.0
 40
1.0
 10
115.8990010449
 20
164.9151631989
 30
0.0
 10
115.9911418611
 20
164.9151631989
 30
0.0
 10
116.1381947723
 20
164.8719223621
 30
0.0
 10
116.3218140789
 20
164.7708422565
 30
0.0
 10
116.5356527423
 20
164.6173498433
 30
0.0
 10
116.8073084814
 20
164.3538177441
 30
0.0
 10
117.1199197256
 20
163.9534384342
 30
0.0
 10
117.414122617
 20
163.4588611497
 30
0.0
 10
117.6640095414
 20
162.8762667591
 30
0.0
 10
117.8366831768
 20
162.2186353295
 30
0.0
 10
117.8992156391
 20
161.5151903833
 30
0.0
 10
117.8366954289
 20
160.8117324274
 30
0.0
 10
117.664017113
 20
160.1540762021
 30
0.0
 10
117.4141216949
 20
159.5714622451
 30
0.0
 10
117.1199123177
 20
159.0768773768
 30
0.0
 10
116.8072991843
 20
158.6764984638
 30
0.0
 10
116.5356442818
 20
158.4129694764
 30
0.0
 10
116.3218075816
 20
158.2594809305
 30
0.0
 10
116.1381915174
 20
158.1584019156
 30
0.0
 10
115.9911405976
 20
158.1151631989
 30
0.0
 10
115.8990010449
 20
158.1151631989
 30
0.0
  0
SPLINE
  5
332
100
AcDbEntity
  8
RUNDUNGEN
100
AcDbSpline
 62
7
  6
CONTINUOUS
 70
0
 71
3
 72
13
 73
9
 74
0
 42
0.0000001
 43
0.0000001
 44
0.0000000001
 40
0.0
 40
0.0
 40
0.0
 40
0.0
 40
0.2711789313
 40
0.4063254952
 40
0.5372383906
 40
0.7789846326
 40
0.8911618283
 40
1.0
 40
1.0
 40
1.0
 40
1.0
 10
57.9309303669
 20
168.0151532731
 30
0.0
 10
57.9309158098
 20
168.1537047297
 30
0.0
 10
57.8593476959
 20
168.3606169479
 30
0.0
 10
57.7077060036
 20
168.5889718914
 30
0.0
 10
57.5328084745
 20
168.781755913
 30
0.0
 10
57.3254297836
 20
168.9272883657
 30
0.0
 10
57.0998341306
 20
169.0026250361
 30
0.0
 10
56.9865382579
 20
169.0151585691
 30
0.0
 10
56.9309303713
 20
169.0151631989
 30
0.0
  0
SPLINE
  5
333
100
AcDbEntity
  8
RUNDUNGEN
100
AcDbSpline
 62
7
  6
CONTINUOUS
 70
0
 71
3
 72
13
 73
9
 74
0
 42
0.0000001
 43
0.0000001
 44
0.0000000001
 40
0.0
 40
0.0
 40
0.0
 40
0.0
 40
0.271182021
 40
0.4063332348
 40
0.5372436397
 40
0.778988237
 40
0.8911627169
 40
1.0
 40
1.0
 40
1.0
 40
1.0
 10
95.4309303772
 20
155.0151749822
 30
0.0
 10
95.4309471887
 20
154.8766215737
 30
0.0
 10
95.5024949364
 20
154.6696960561
 30
0.0
 10
95.654164958
 20
154.4413546113
 30
0.0
 10
95.8290546518
 20
154.248563977
 30
0.0
 10
96.0364349814
 20
154.1030361149
 30
0.0
 10
96.2620282801
 20
154.0277005396
 30
0.0
 10
96.3753227888
 20
154.0151670632
 30
0.0
 10
96.4309303714
 20
154.0151631989
 30
0.0
  0
SPLINE
  5
334
100
AcDbEntity
  8
RUNDUNGEN
100
AcDbSpline
 62
7
  6
CONTINUOUS
 70
0
 71
3
 72
14
 73
10
 74
0
 42
0.0000001
 43
0.0000001
 44
0.0000000001
 40
0.0
 40
0.0
 40
0.0
 40
0.0
 40
0.2770117512
 40
0.4126674917
 40
0.5446951796
 40
0.6714879319
 40
0.7910985049
 40
0.9012933164
 40
1.0
 40
1.0
 40
1.0
 40
1.0
 10
76.6809303713
 20
164.5151631989
 30
0.0
 10
75.9197038714
 20
164.9165635099
 30
0.0
 10
74.7856974103
 20
165.5146811726
 30
0.0
 10
73.273692664
 20
166.2746354625
 30
0.0
 10
72.1667258164
 20
166.8008177782
 30
0.0
 10
71.0879035079
 20
167.2687323849
 30
0.0
 10
70.0485870702
 20
167.655124531
 30
0.0
 10
69.0644623396
 20
167.9295429413
 30
0.0
 10
68.4159820314
 20
168.0151458951
 30
0.0
 10
68.1093364576
 20
168.0151631989
 30
0.0
  0
SPLINE
  5
335
100
AcDbEntity
  8
RUNDUNGEN
100
AcDbSpline
 62
7
  6
CONTINUOUS
 70
0
 71
3
 72
14
 73
10
 74
0
 42
0.0000001
 43
0.0000001
 44
0.0000000001
 40
0.0
 40
0.0
 40
0.0
 40
0.0
 40
0.0894637775
 40
0.1934637674
 40
0.3103545057
 40
0.4374274077
 40
0.5720435154
 40
0.7119262146
 40
1.0
 40
1.0
 40
1.0
 40
1.0
 10
84.5071724887
 20
169.0151631982
 30
0.0
 10
84.2351165354
 20
169.0151571909
 30
0.0
 10
83.647964092
 20
168.9079625093
 30
0.0
 10
82.7665978506
 20
168.5657036001
 30
0.0
 10
81.826068593
 20
168.0774308362
 30
0.0
 10
80.8419672091
 20
167.4792203067
 30
0.0
 10
79.8260952693
 20
166.8010904323
 30
0.0
 10
78.4289931912
 20
165.813574399
 30
0.0
 10
77.3843897431
 20
165.0372345516
 30
0.0
 10
76.6809303713
 20
164.5151631989
 30
0.0
  0
SPLINE
  5
336
100
AcDbEntity
  8
RUNDUNGEN
100
AcDbSpline
 62
7
  6
CONTINUOUS
 70
0
 71
3
 72
14
 73
10
 74
0
 42
0.0000001
 43
0.0000001
 44
0.0000000001
 40
0.0
 40
0.0
 40
0.0
 40
0.0
 40
0.0987066788
 40
0.2089015042
 40
0.3285121013
 40
0.455304865
 40
0.5873325712
 40
0.7229883252
 40
1.0
 40
1.0
 40
1.0
 40
1.0
 10
85.2525242851
 20
168.0151631989
 30
0.0
 10
84.9458787242
 20
168.0151452322
 30
0.0
 10
84.2973982399
 20
167.9295442572
 30
0.0
 10
83.3132737568
 20
167.655123857
 30
0.0
 10
82.2739570138
 20
167.2687323956
 30
0.0
 10
81.1951344667
 20
166.8008177849
 30
0.0
 10
80.0881676509
 20
166.2746350953
 30
0.0
 10
78.576163025
 20
165.5146808589
 30
0.0
 10
77.442156254
 20
164.9165641831
 30
0.0
 10
76.6809303713
 20
164.5151631989
 30
0.0
  0
SPLINE
  5
337
100
AcDbEntity
  8
RUNDUNGEN
100
AcDbSpline
 62
7
  6
CONTINUOUS
 70
0
 71
3
 72
14
 73
10
 74
0
 42
0.0000001
 43
0.0000001
 44
0.0000000001
 40
0.0
 40
0.0
 40
0.0
 40
0.0
 40
0.2770113799
 40
0.4126670248
 40
0.5446947997
 40
0.6714878332
 40
0.791098499
 40
0.9012932371
 40
1.0
 40
1.0
 40
1.0
 40
1.0
 10
126.6809303713
 20
158.5151631989
 30
0.0
 10
127.4421577398
 20
158.1137676286
 30
0.0
 10
128.5761600295
 20
157.5156461203
 30
0.0
 10
130.0881626403
 20
156.7556914343
 30
0.0
 10
131.1951327835
 20
156.2295146737
 30
0.0
 10
132.2739562002
 20
155.7616014752
 30
0.0
 10
133.3132724125
 20
155.3752029379
 30
0.0
 10
134.2974015036
 20
155.1008100518
 30
0.0
 10
134.9458785678
 20
155.0151758315
 30
0.0
 10
135.2525242851
 20
155.0151631989
 30
0.0
  0
SPLINE
  5
338
100
AcDbEntity
  8
RUNDUNGEN
100
AcDbSpline
 62
7
  6
CONTINUOUS
 70
0
 71
3
 72
14
 73
10
 74
0
 42
0.0000001
 43
0.0000001
 44
0.0000000001
 40
0.0
 40
0.0
 40
0.0
 40
0.0
 40
0.0987067597
 40
0.2089014953
 40
0.3285121399
 40
0.455305153
 40
0.5873329185
 40
0.722988547
 40
1.0
 40
1.0
 40
1.0
 40
1.0
 10
118.1093364576
 20
155.0151631989
 30
0.0
 10
118.415982166
 20
155.0151761788
 30
0.0
 10
119.064459312
 20
155.1008092111
 30
0.0
 10
120.0485880892
 20
155.3752033315
 30
0.0
 10
121.0879042633
 20
155.7616013872
 30
0.0
 10
122.166727647
 20
156.229514344
 30
0.0
 10
123.2736975619
 20
156.7556912527
 30
0.0
 10
124.7857002583
 20
157.5156460999
 30
0.0
 10
125.9197031537
 20
158.113766849
 30
0.0
 10
126.6809303713
 20
158.5151631989
 30
0.0
  0
SPLINE
  5
339
100
AcDbEntity
  8
RUNDUNGEN
100
AcDbSpline
 62
7
  6
CONTINUOUS
 70
0
 71
3
 72
14
 73
10
 74
0
 42
0.0000001
 43
0.0000001
 44
0.0000000001
 40
0.0
 40
0.0
 40
0.0
 40
0.0
 40
0.0894637775
 40
0.1934637674
 40
0.3103545057
 40
0.4374274077
 40
0.5720435154
 40
0.7119262146
 40
1.0
 40
1.0
 40
1.0
 40
1.0
 10
134.5071724887
 20
169.0151631982
 30
0.0
 10
134.2351165354
 20
169.0151571909
 30
0.0
 10
133.647964092
 20
168.9079625093
 30
0.0
 10
132.7665978506
 20
168.5657036
 30
0.0
 10
131.826068593
 20
168.0774308362
 30
0.0
 10
130.8419672092
 20
167.4792203067
 30
0.0
 10
129.8260952693
 20
166.8010904323
 30
0.0
 10
128.4289931912
 20
165.813574399
 30
0.0
 10
127.3843897431
 20
165.0372345516
 30
0.0
 10
126.6809303713
 20
164.5151631989
 30
0.0
  0
SPLINE
  5
33A
100
AcDbEntity
  8
RUNDUNGEN
100
AcDbSpline
 62
7
  6
CONTINUOUS
 70
0
 71
3
 72
13
 73
9
 74
0
 42
0.0000001
 43
0.0000001
 44
0.0000000001
 40
0.0
 40
0.0
 40
0.0
 40
0.0
 40
0.1088376991
 40
0.2210131668
 40
0.4627555886
 40
0.5936637838
 40
0.7288162146
 40
1.0
 40
1.0
 40
1.0
 40
1.0
 10
96.4309303714
 20
169.0151631989
 30
0.0
 10
96.3753226093
 20
169.0151594801
 30
0.0
 10
96.2620276148
 20
169.0026246304
 30
0.0
 10
96.0364343187
 20
168.9272913098
 30
0.0
 10
95.8290557575
 20
168.7817625707
 30
0.0
 10
95.6541711474
 20
168.5889706222
 30
0.0
 10
95.5024902967
 20
168.3606360299
 30
0.0
 10
95.4309467179
 20
168.153706134
 30
0.0
 10
95.4309303769
 20
168.0151519063
 30
0.0
  0
SPLINE
  5
33B
100
AcDbEntity
  8
RUNDUNGEN
100
AcDbSpline
 62
7
  6
CONTINUOUS
 70
0
 71
3
 72
14
 73
10
 74
0
 42
0.0000001
 43
0.0000001
 44
0.0000000001
 40
0.0
 40
0.0
 40
0.0
 40
0.0
 40
0.2770117512
 40
0.4126674917
 40
0.5446951796
 40
0.6714879319
 40
0.7910985049
 40
0.9012933164
 40
1.0
 40
1.0
 40
1.0
 40
1.0
 10
126.6809303713
 20
164.5151631989
 30
0.0
 10
125.9197038714
 20
164.9165635099
 30
0.0
 10
124.7856974103
 20
165.5146811726
 30
0.0
 10
123.273692664
 20
166.2746354625
 30
0.0
 10
122.1667258164
 20
166.8008177782
 30
0.0
 10
121.0879035079
 20
167.2687323849
 30
0.0
 10
120.0485870702
 20
167.655124531
 30
0.0
 10
119.0644623396
 20
167.9295429413
 30
0.0
 10
118.4159820314
 20
168.0151458951
 30
0.0
 10
118.1093364576
 20
168.0151631989
 30
0.0
  0
SPLINE
  5
33C
100
AcDbEntity
  8
RUNDUNGEN
100
AcDbSpline
 62
7
  6
CONTINUOUS
 70
0
 71
3
 72
13
 73
9
 74
0
 42
0.0000001
 43
0.0000001
 44
0.0000000001
 40
0.0
 40
0.0
 40
0.0
 40
0.0
 40
0.1088379876
 40
0.221014521
 40
0.4627575549
 40
0.5936679046
 40
0.7288180513
 40
1.0
 40
1.0
 40
1.0
 40
1.0
 10
56.9309303713
 20
154.0151631989
 30
0.0
 10
56.9865381952
 20
154.0151668327
 30
0.0
 10
57.0998335933
 20
154.0277023995
 30
0.0
 10
57.3254278982
 20
154.1030354063
 30
0.0
 10
57.5328050409
 20
154.2485675256
 30
0.0
 10
57.7076952346
 20
154.4413550003
 30
0.0
 10
57.859362906
 20
154.6696960384
 30
0.0
 10
57.9309165218
 20
154.8766196931
 30
0.0
 10
57.9309303674
 20
155.0151727692
 30
0.0
  0
SPLINE
  5
33D
100
AcDbEntity
  8
RUNDUNGEN
100
AcDbSpline
 62
7
  6
CONTINUOUS
 70
0
 71
3
 72
14
 73
10
 74
0
 42
0.0000001
 43
0.0000001
 44
0.0000000001
 40
0.0
 40
0.0
 40
0.0
 40
0.0
 40
0.0987066788
 40
0.2089015042
 40
0.3285121013
 40
0.455304865
 40
0.5873325712
 40
0.7229883252
 40
1.0
 40
1.0
 40
1.0
 40
1.0
 10
135.2525242851
 20
168.0151631989
 30
0.0
 10
134.9458787242
 20
168.0151452322
 30
0.0
 10
134.2973982399
 20
167.9295442572
 30
0.0
 10
133.3132737568
 20
167.655123857
 30
0.0
 10
132.2739570138
 20
167.2687323956
 30
0.0
 10
131.1951344667
 20
166.8008177849
 30
0.0
 10
130.0881676509
 20
166.2746350954
 30
0.0
 10
128.576163025
 20
165.5146808589
 30
0.0
 10
127.4421562541
 20
164.9165641831
 30
0.0
 10
126.6809303713
 20
164.5151631989
 30
0.0
  0
SPLINE
  5
33E
100
AcDbEntity
  8
RUNDUNGEN
100
AcDbSpline
 62
7
  6
CONTINUOUS
 70
0
 71
3
 72
12
 73
8
 74
0
 42
0.0000001
 43
0.0000001
 44
0.0000000001
 40
0.0
 40
0.0
 40
0.0
 40
0.0
 40
0.2595253116
 40
0.5133505699
 40
0.6377953209
 40
0.7602581337
 40
1.0
 40
1.0
 40
1.0
 40
1.0
 10
145.3486524882
 20
168.0151631989
 30
0.0
 10
145.3486524882
 20
168.1448469259
 30
0.0
 10
145.3023751024
 20
168.403739151
 30
0.0
 10
145.1327071143
 20
168.6829817147
 30
0.0
 10
144.9452275966
 20
168.8510858832
 30
0.0
 10
144.7344340711
 20
168.9747250938
 30
0.0
 10
144.5507283924
 20
169.0151631989
 30
0.0
 10
144.4309303714
 20
169.0151631989
 30
0.0
  0
SPLINE
  5
33F
100
AcDbEntity
  8
RUNDUNGEN
100
AcDbSpline
 62
7
  6
CONTINUOUS
 70
0
 71
3
 72
11
 73
7
 74
0
 42
0.0000001
 43
0.0000001
 44
0.0000000001
 40
0.0
 40
0.0
 40
0.0
 40
0.0
 40
0.2597507805
 40
0.5130842637
 40
0.7590143192
 40
1.0
 40
1.0
 40
1.0
 40
1.0
 10
138.2518567778
 20
168.1715881196
 30
0.0
 10
138.2351248516
 20
168.2866365497
 30
0.0
 10
138.1648861344
 20
168.5104231024
 30
0.0
 10
137.9576929775
 20
168.7879449741
 30
0.0
 10
137.6734712093
 20
168.9720216079
 30
0.0
 10
137.453346046
 20
169.0151631987
 30
0.0
 10
137.3454861363
 20
169.0151631989
 30
0.0
  0
SPLINE
  5
340
100
AcDbEntity
  8
RUNDUNGEN
100
AcDbSpline
 62
7
  6
CONTINUOUS
 70
0
 71
3
 72
11
 73
7
 74
0
 42
0.0000001
 43
0.0000001
 44
0.0000000001
 40
0.0
 40
0.0
 40
0.0
 40
0.0
 40
0.2825353205
 40
0.5472250295
 40
0.7843963349
 40
1.0
 40
1.0
 40
1.0
 40
1.0
 10
135.2525242851
 20
168.0151631989
 30
0.0
 10
135.2525248564
 20
168.1441186458
 30
0.0
 10
135.216666061
 20
168.3955909531
 30
0.0
 10
135.0592923829
 20
168.7240853865
 30
0.0
 10
134.8148465232
 20
168.9559922663
 30
0.0
 10
134.6055746332
 20
169.0151631989
 30
0.0
 10
134.5071682926
 20
169.0151631989
 30
0.0
  0
SPLINE
  5
341
100
AcDbEntity
  8
RUNDUNGEN
100
AcDbSpline
 62
7
  6
CONTINUOUS
 70
0
 71
3
 72
11
 73
7
 74
0
 42
0.0000001
 43
0.0000001
 44
0.0000000001
 40
0.0
 40
0.0
 40
0.0
 40
0.0
 40
0.2825356835
 40
0.5472257537
 40
0.7843970358
 40
1.0
 40
1.0
 40
1.0
 40
1.0
 10
118.1093364576
 20
168.0151631989
 30
0.0
 10
118.1093364576
 20
168.1441186968
 30
0.0
 10
118.1451961144
 20
168.3955909319
 30
0.0
 10
118.3025701277
 20
168.7240850929
 30
0.0
 10
118.5470152165
 20
168.9559919597
 30
0.0
 10
118.7562865169
 20
169.0151631989
 30
0.0
 10
118.8546924501
 20
169.0151631989
 30
0.0
  0
SPLINE
  5
342
100
AcDbEntity
  8
RUNDUNGEN
100
AcDbSpline
 62
7
  6
CONTINUOUS
 70
0
 71
3
 72
11
 73
7
 74
0
 42
0.0000001
 43
0.0000001
 44
0.0000000001
 40
0.0
 40
0.0
 40
0.0
 40
0.0
 40
0.2597507826
 40
0.5130842613
 40
0.7590143154
 40
1.0
 40
1.0
 40
1.0
 40
1.0
 10
115.1100040261
 20
168.1715885367
 30
0.0
 10
115.126735992
 20
168.2866369255
 30
0.0
 10
115.1969747627
 20
168.5104233814
 30
0.0
 10
115.4041679257
 20
168.7879451082
 30
0.0
 10
115.6883896322
 20
168.9720216339
 30
0.0
 10
115.908514727
 20
169.0151631989
 30
0.0
 10
116.016374605
 20
169.0151631989
 30
0.0
  0
SPLINE
  5
343
100
AcDbEntity
  8
RUNDUNGEN
100
AcDbSpline
 62
7
  6
CONTINUOUS
 70
0
 71
3
 72
12
 73
8
 74
0
 42
0.0000001
 43
0.0000001
 44
0.0000000001
 40
0.0
 40
0.0
 40
0.0
 40
0.0
 40
0.2595253093
 40
0.5133505706
 40
0.6377953231
 40
0.7602581364
 40
1.0
 40
1.0
 40
1.0
 40
1.0
 10
95.3486524882
 20
155.0151631989
 30
0.0
 10
95.3486524882
 20
154.8854794731
 30
0.0
 10
95.3023751024
 20
154.6265872479
 30
0.0
 10
95.1327071142
 20
154.3473446828
 30
0.0
 10
94.9452275943
 20
154.1792405129
 30
0.0
 10
94.7344340684
 20
154.0556013038
 30
0.0
 10
94.550728391
 20
154.0151631989
 30
0.0
 10
94.4309303713
 20
154.0151631989
 30
0.0
  0
SPLINE
  5
344
100
AcDbEntity
  8
RUNDUNGEN
100
AcDbSpline
 62
7
  6
CONTINUOUS
 70
0
 71
3
 72
11
 73
7
 74
0
 42
0.0000001
 43
0.0000001
 44
0.0000000001
 40
0.0
 40
0.0
 40
0.0
 40
0.0
 40
0.2597507826
 40
0.5130842613
 40
0.7590143154
 40
1.0
 40
1.0
 40
1.0
 40
1.0
 10
88.2518567166
 20
154.8587378612
 30
0.0
 10
88.2351247507
 20
154.7436894724
 30
0.0
 10
88.16488598
 20
154.5199030165
 30
0.0
 10
87.957692817
 20
154.2423812897
 30
0.0
 10
87.6734711105
 20
154.058304764
 30
0.0
 10
87.4533460157
 20
154.0151631989
 30
0.0
 10
87.3454861377
 20
154.0151631989
 30
0.0
  0
SPLINE
  5
345
100
AcDbEntity
  8
RUNDUNGEN
100
AcDbSpline
 62
7
  6
CONTINUOUS
 70
0
 71
3
 72
13
 73
9
 74
0
 42
0.0000001
 43
0.0000001
 44
0.0000000001
 40
0.0
 40
0.0
 40
0.0
 40
0.0
 40
0.1088379876
 40
0.221014521
 40
0.4627575549
 40
0.5936679046
 40
0.7288180513
 40
1.0
 40
1.0
 40
1.0
 40
1.0
 10
106.9309303714
 20
154.0151631989
 30
0.0
 10
106.9865381952
 20
154.0151668327
 30
0.0
 10
107.0998335933
 20
154.0277023995
 30
0.0
 10
107.3254278982
 20
154.1030354063
 30
0.0
 10
107.5328050409
 20
154.2485675256
 30
0.0
 10
107.7076952346
 20
154.4413550003
 30
0.0
 10
107.859362906
 20
154.6696960384
 30
0.0
 10
107.9309165218
 20
154.8766196931
 30
0.0
 10
107.9309303674
 20
155.0151727692
 30
0.0
  0
SPLINE
  5
346
100
AcDbEntity
  8
RUNDUNGEN
100
AcDbSpline
 62
7
  6
CONTINUOUS
 70
0
 71
3
 72
11
 73
7
 74
0
 42
0.0000001
 43
0.0000001
 44
0.0000000001
 40
0.0
 40
0.0
 40
0.0
 40
0.0
 40
0.2825356835
 40
0.5472257537
 40
0.7843970358
 40
1.0
 40
1.0
 40
1.0
 40
1.0
 10
85.2525242851
 20
155.0151631989
 30
0.0
 10
85.2525242851
 20
154.886207701
 30
0.0
 10
85.2166646283
 20
154.6347354659
 30
0.0
 10
85.059290615
 20
154.3062413049
 30
0.0
 10
84.8148455262
 20
154.0743344381
 30
0.0
 10
84.6055742258
 20
154.0151631989
 30
0.0
 10
84.5071682926
 20
154.0151631989
 30
0.0
  0
SPLINE
  5
347
100
AcDbEntity
  8
RUNDUNGEN
100
AcDbSpline
 62
7
  6
CONTINUOUS
 70
0
 71
3
 72
11
 73
7
 74
0
 42
0.0000001
 43
0.0000001
 44
0.0000000001
 40
0.0
 40
0.0
 40
0.0
 40
0.0
 40
0.2825355199
 40
0.5472254266
 40
0.7843967178
 40
1.0
 40
1.0
 40
1.0
 40
1.0
 10
68.1093364576
 20
155.0151631989
 30
0.0
 10
68.1093361959
 20
154.8862077232
 30
0.0
 10
68.145195459
 20
154.6347354529
 30
0.0
 10
68.302569321
 20
154.3062411666
 30
0.0
 10
68.5470147633
 20
154.0743342959
 30
0.0
 10
68.7562863317
 20
154.0151631989
 30
0.0
 10
68.8546924501
 20
154.0151631989
 30
0.0
  0
SPLINE
  5
348
100
AcDbEntity
  8
RUNDUNGEN
100
AcDbSpline
 62
7
  6
CONTINUOUS
 70
0
 71
3
 72
11
 73
7
 74
0
 42
0.0000001
 43
0.0000001
 44
0.0000000001
 40
0.0
 40
0.0
 40
0.0
 40
0.0
 40
0.2597507805
 40
0.5130842637
 40
0.7590143192
 40
1.0
 40
1.0
 40
1.0
 40
1.0
 10
65.1100039649
 20
154.8587382782
 30
0.0
 10
65.1267358911
 20
154.7436898482
 30
0.0
 10
65.1969746083
 20
154.5199032955
 30
0.0
 10
65.4041677652
 20
154.2423814238
 30
0.0
 10
65.6883895334
 20
154.05830479
 30
0.0
 10
65.9085146967
 20
154.0151631992
 30
0.0
 10
66.0163746064
 20
154.0151631989
 30
0.0
  0
SPLINE
  5
349
100
AcDbEntity
  8
RUNDUNGEN
100
AcDbSpline
 62
7
  6
CONTINUOUS
 70
0
 71
3
 72
12
 73
8
 74
0
 42
0.0000001
 43
0.0000001
 44
0.0000000001
 40
0.0
 40
0.0
 40
0.0
 40
0.0
 40
0.2595253116
 40
0.5133505699
 40
0.6377953209
 40
0.7602581337
 40
1.0
 40
1.0
 40
1.0
 40
1.0
 10
58.0132082545
 20
155.0151631989
 30
0.0
 10
58.0132082545
 20
154.8854794719
 30
0.0
 10
58.0594856403
 20
154.6265872469
 30
0.0
 10
58.2291536284
 20
154.3473446831
 30
0.0
 10
58.4166331461
 20
154.1792405147
 30
0.0
 10
58.6274266716
 20
154.0556013041
 30
0.0
 10
58.8111323503
 20
154.0151631989
 30
0.0
 10
58.9309303713
 20
154.0151631989
 30
0.0
  0
SPLINE
  5
34A
100
AcDbEntity
  8
RUNDUNGEN
100
AcDbSpline
 62
7
  6
CONTINUOUS
 70
0
 71
3
 72
14
 73
10
 74
0
 42
0.0000001
 43
0.0000001
 44
0.0000000001
 40
0.0
 40
0.0
 40
0.0
 40
0.0
 40
0.2880734176
 40
0.4279560317
 40
0.5625724262
 40
0.6896458886
 40
0.8065370683
 40
0.9105369499
 40
1.0
 40
1.0
 40
1.0
 40
1.0
 10
76.6809303713
 20
158.5151631989
 30
0.0
 10
77.3843856426
 20
157.9930903577
 30
0.0
 10
78.4289895413
 20
157.2167566129
 30
0.0
 10
79.8260891945
 20
156.2292424634
 30
0.0
 10
80.8419621292
 20
155.5511129889
 30
0.0
 10
81.8260663355
 20
154.9529031922
 30
0.0
 10
82.7665975529
 20
154.4646303473
 30
0.0
 10
83.6479588322
 20
154.1223718684
 30
0.0
 10
84.2351074113
 20
154.0151627721
 30
0.0
 10
84.5071607527
 20
154.0151631989
 30
0.0
  0
SPLINE
  5
34B
100
AcDbEntity
  8
RUNDUNGEN
100
AcDbSpline
 62
7
  6
CONTINUOUS
 70
0
 71
3
 72
14
 73
10
 74
0
 42
0.0000001
 43
0.0000001
 44
0.0000000001
 40
0.0
 40
0.0
 40
0.0
 40
0.0
 40
0.0894630432
 40
0.1934628598
 40
0.3103539996
 40
0.4374274413
 40
0.5720438247
 40
0.7119264321
 40
1.0
 40
1.0
 40
1.0
 40
1.0
 10
68.8546962751
 20
154.0151631989
 30
0.0
 10
69.1267497058
 20
154.0151629822
 30
0.0
 10
69.7138985072
 20
154.1223702999
 30
0.0
 10
70.5952599031
 20
154.4646291176
 30
0.0
 10
71.5357913805
 20
154.9529013871
 30
0.0
 10
72.5198959256
 20
155.55111118
 30
0.0
 10
73.535769074
 20
156.2292409831
 30
0.0
 10
74.9328702791
 20
157.2167548716
 30
0.0
 10
75.9774727473
 20
157.9930921654
 30
0.0
 10
76.6809303713
 20
158.5151631989
 30
0.0
  0
SPLINE
  5
34C
100
AcDbEntity
  8
RUNDUNGEN
100
AcDbSpline
 62
7
  6
CONTINUOUS
 70
0
 71
3
 72
14
 73
10
 74
0
 42
0.0000001
 43
0.0000001
 44
0.0000000001
 40
0.0
 40
0.0
 40
0.0
 40
0.0
 40
0.2880738978
 40
0.4279565771
 40
0.5625726716
 40
0.6896455534
 40
0.806536257
 40
0.9105362584
 40
1.0
 40
1.0
 40
1.0
 40
1.0
 10
76.6809303713
 20
164.5151631989
 30
0.0
 10
75.9774724571
 20
165.0372369915
 30
0.0
 10
74.9328666039
 20
165.8135739203
 30
0.0
 10
73.5357651106
 20
166.801090965
 30
0.0
 10
72.5198932072
 20
167.4792204987
 30
0.0
 10
71.5357920255
 20
168.0774307264
 30
0.0
 10
70.5952630397
 20
168.5657038047
 30
0.0
 10
69.7138969705
 20
168.9079618152
 30
0.0
 10
69.126744684
 20
169.0151580555
 30
0.0
 10
68.8546888582
 20
169.0151631984
 30
0.0
  0
SPLINE
  5
34D
100
AcDbEntity
  8
RUNDUNGEN
100
AcDbSpline
 62
7
  6
CONTINUOUS
 70
0
 71
3
 72
11
 73
7
 74
0
 42
0.0000001
 43
0.0000001
 44
0.0000000001
 40
0.0
 40
0.0
 40
0.0
 40
0.0
 40
0.2597503134
 40
0.5130847735
 40
0.759014958
 40
1.0
 40
1.0
 40
1.0
 40
1.0
 10
58.0245438543
 20
168.1714799219
 30
0.0
 10
58.0412654685
 20
168.2865390696
 30
0.0
 10
58.1114903042
 20
168.5103506098
 30
0.0
 10
58.3186816337
 20
168.7879099576
 30
0.0
 10
58.6029191849
 20
168.9720146274
 30
0.0
 10
58.82306209
 20
169.0151631989
 30
0.0
 10
58.9309303713
 20
169.0151631989
 30
0.0
  0
SPLINE
  5
34E
100
AcDbEntity
  8
RUNDUNGEN
100
AcDbSpline
 62
7
  6
CONTINUOUS
 70
0
 71
3
 72
11
 73
7
 74
0
 42
0.0000001
 43
0.0000001
 44
0.0000000001
 40
0.0
 40
0.0
 40
0.0
 40
0.0
 40
0.2597507826
 40
0.5130842613
 40
0.7590143154
 40
1.0
 40
1.0
 40
1.0
 40
1.0
 10
65.1100040261
 20
168.1715885367
 30
0.0
 10
65.126735992
 20
168.2866369255
 30
0.0
 10
65.1969747627
 20
168.5104233814
 30
0.0
 10
65.4041679257
 20
168.7879451082
 30
0.0
 10
65.6883896322
 20
168.9720216339
 30
0.0
 10
65.908514727
 20
169.0151631989
 30
0.0
 10
66.016374605
 20
169.0151631989
 30
0.0
  0
SPLINE
  5
34F
100
AcDbEntity
  8
RUNDUNGEN
100
AcDbSpline
 62
7
  6
CONTINUOUS
 70
0
 71
3
 72
11
 73
7
 74
0
 42
0.0000001
 43
0.0000001
 44
0.0000000001
 40
0.0
 40
0.0
 40
0.0
 40
0.0
 40
0.2825356835
 40
0.5472257537
 40
0.7843970358
 40
1.0
 40
1.0
 40
1.0
 40
1.0
 10
68.1093364576
 20
168.0151631989
 30
0.0
 10
68.1093364576
 20
168.1441186968
 30
0.0
 10
68.1451961144
 20
168.3955909319
 30
0.0
 10
68.3025701277
 20
168.7240850929
 30
0.0
 10
68.5470152165
 20
168.9559919597
 30
0.0
 10
68.7562865169
 20
169.0151631989
 30
0.0
 10
68.8546924501
 20
169.0151631989
 30
0.0
  0
SPLINE
  5
350
100
AcDbEntity
  8
RUNDUNGEN
100
AcDbSpline
 62
7
  6
CONTINUOUS
 70
0
 71
3
 72
11
 73
7
 74
0
 42
0.0000001
 43
0.0000001
 44
0.0000000001
 40
0.0
 40
0.0
 40
0.0
 40
0.0
 40
0.2825353205
 40
0.5472250295
 40
0.7843963349
 40
1.0
 40
1.0
 40
1.0
 40
1.0
 10
85.2525242851
 20
168.0151631989
 30
0.0
 10
85.2525248564
 20
168.1441186458
 30
0.0
 10
85.216666061
 20
168.3955909531
 30
0.0
 10
85.0592923829
 20
168.7240853865
 30
0.0
 10
84.8148465232
 20
168.9559922663
 30
0.0
 10
84.6055746332
 20
169.0151631989
 30
0.0
 10
84.5071682926
 20
169.0151631989
 30
0.0
  0
SPLINE
  5
351
100
AcDbEntity
  8
RUNDUNGEN
100
AcDbSpline
 62
7
  6
CONTINUOUS
 70
0
 71
3
 72
14
 73
10
 74
0
 42
0.0000001
 43
0.0000001
 44
0.0000000001
 40
0.0
 40
0.0
 40
0.0
 40
0.0
 40
0.2770113799
 40
0.4126670248
 40
0.5446947997
 40
0.6714878332
 40
0.791098499
 40
0.9012932371
 40
1.0
 40
1.0
 40
1.0
 40
1.0
 10
76.6809303713
 20
158.5151631989
 30
0.0
 10
77.4421577398
 20
158.1137676286
 30
0.0
 10
78.5761600295
 20
157.5156461203
 30
0.0
 10
80.0881626403
 20
156.7556914343
 30
0.0
 10
81.1951327835
 20
156.2295146737
 30
0.0
 10
82.2739562002
 20
155.7616014752
 30
0.0
 10
83.3132724125
 20
155.3752029379
 30
0.0
 10
84.2974015036
 20
155.1008100518
 30
0.0
 10
84.9458785678
 20
155.0151758315
 30
0.0
 10
85.2525242851
 20
155.0151631989
 30
0.0
  0
SPLINE
  5
352
100
AcDbEntity
  8
RUNDUNGEN
100
AcDbSpline
 62
7
  6
CONTINUOUS
 70
0
 71
3
 72
13
 73
9
 74
0
 42
0.0000001
 43
0.0000001
 44
0.0000000001
 40
0.0
 40
0.0
 40
0.0
 40
0.0
 40
0.2711789313
 40
0.4063254952
 40
0.5372383906
 40
0.7789846326
 40
0.8911618283
 40
1.0
 40
1.0
 40
1.0
 40
1.0
 10
107.9309303669
 20
168.0151532731
 30
0.0
 10
107.9309158098
 20
168.1537047297
 30
0.0
 10
107.8593476959
 20
168.360616948
 30
0.0
 10
107.7077060036
 20
168.5889718914
 30
0.0
 10
107.5328084745
 20
168.781755913
 30
0.0
 10
107.3254297836
 20
168.9272883657
 30
0.0
 10
107.0998341306
 20
169.0026250361
 30
0.0
 10
106.9865382579
 20
169.0151585691
 30
0.0
 10
106.9309303714
 20
169.0151631989
 30
0.0
  0
SPLINE
  5
353
100
AcDbEntity
  8
RUNDUNGEN
100
AcDbSpline
 62
7
  6
CONTINUOUS
 70
0
 71
3
 72
11
 73
7
 74
0
 42
0.0000001
 43
0.0000001
 44
0.0000000001
 40
0.0
 40
0.0
 40
0.0
 40
0.0
 40
0.2597507805
 40
0.5130842637
 40
0.7590143192
 40
1.0
 40
1.0
 40
1.0
 40
1.0
 10
88.2518567778
 20
168.1715881196
 30
0.0
 10
88.2351248516
 20
168.2866365497
 30
0.0
 10
88.1648861344
 20
168.5104231024
 30
0.0
 10
87.9576929775
 20
168.7879449741
 30
0.0
 10
87.6734712093
 20
168.9720216079
 30
0.0
 10
87.453346046
 20
169.0151631987
 30
0.0
 10
87.3454861363
 20
169.0151631989
 30
0.0
  0
SPLINE
  5
354
100
AcDbEntity
  8
RUNDUNGEN
100
AcDbSpline
 62
7
  6
CONTINUOUS
 70
0
 71
3
 72
12
 73
8
 74
0
 42
0.0000001
 43
0.0000001
 44
0.0000000001
 40
0.0
 40
0.0
 40
0.0
 40
0.0
 40
0.2595253116
 40
0.5133505699
 40
0.6377953209
 40
0.7602581337
 40
1.0
 40
1.0
 40
1.0
 40
1.0
 10
95.3486524882
 20
168.0151631989
 30
0.0
 10
95.3486524882
 20
168.1448469259
 30
0.0
 10
95.3023751024
 20
168.403739151
 30
0.0
 10
95.1327071143
 20
168.6829817147
 30
0.0
 10
94.9452275966
 20
168.8510858832
 30
0.0
 10
94.7344340711
 20
168.9747250938
 30
0.0
 10
94.5507283924
 20
169.0151631989
 30
0.0
 10
94.4309303713
 20
169.0151631989
 30
0.0
  0
SPLINE
  5
355
100
AcDbEntity
  8
RUNDUNGEN
100
AcDbSpline
 62
7
  6
CONTINUOUS
 70
0
 71
3
 72
13
 73
9
 74
0
 42
0.0000001
 43
0.0000001
 44
0.0000000001
 40
0.0
 40
0.0
 40
0.0
 40
0.0
 40
0.1088376991
 40
0.2210131668
 40
0.4627555886
 40
0.5936637838
 40
0.7288162146
 40
1.0
 40
1.0
 40
1.0
 40
1.0
 10
146.4309303714
 20
169.0151631989
 30
0.0
 10
146.3753226093
 20
169.0151594801
 30
0.0
 10
146.2620276148
 20
169.0026246304
 30
0.0
 10
146.0364343187
 20
168.9272913098
 30
0.0
 10
145.8290557575
 20
168.7817625707
 30
0.0
 10
145.6541711474
 20
168.5889706222
 30
0.0
 10
145.5024902967
 20
168.3606360299
 30
0.0
 10
145.4309467179
 20
168.153706134
 30
0.0
 10
145.4309303769
 20
168.0151519063
 30
0.0
  0
SPLINE
  5
356
100
AcDbEntity
  8
RUNDUNGEN
100
AcDbSpline
 62
7
  6
CONTINUOUS
 70
0
 71
3
 72
14
 73
10
 74
0
 42
0.0000001
 43
0.0000001
 44
0.0000000001
 40
0.0
 40
0.0
 40
0.0
 40
0.0
 40
0.0987067597
 40
0.2089014953
 40
0.3285121399
 40
0.455305153
 40
0.5873329185
 40
0.722988547
 40
1.0
 40
1.0
 40
1.0
 40
1.0
 10
68.1093364576
 20
155.0151631989
 30
0.0
 10
68.415982166
 20
155.0151761788
 30
0.0
 10
69.064459312
 20
155.1008092111
 30
0.0
 10
70.0485880892
 20
155.3752033315
 30
0.0
 10
71.0879042633
 20
155.7616013872
 30
0.0
 10
72.166727647
 20
156.229514344
 30
0.0
 10
73.2736975619
 20
156.7556912527
 30
0.0
 10
74.7857002583
 20
157.5156460999
 30
0.0
 10
75.9197031537
 20
158.113766849
 30
0.0
 10
76.6809303713
 20
158.5151631989
 30
0.0
  0
SPLINE
  5
357
100
AcDbEntity
  8
RUNDUNGEN
100
AcDbSpline
 62
7
  6
CONTINUOUS
 70
0
 71
3
 72
13
 73
9
 74
0
 42
0.0000001
 43
0.0000001
 44
0.0000000001
 40
0.0
 40
0.0
 40
0.0
 40
0.0
 40
0.271182021
 40
0.4063332348
 40
0.5372436397
 40
0.778988237
 40
0.8911627169
 40
1.0
 40
1.0
 40
1.0
 40
1.0
 10
145.4309303772
 20
155.0151749822
 30
0.0
 10
145.4309471887
 20
154.8766215737
 30
0.0
 10
145.5024949364
 20
154.6696960561
 30
0.0
 10
145.654164958
 20
154.4413546113
 30
0.0
 10
145.8290546518
 20
154.248563977
 30
0.0
 10
146.0364349814
 20
154.1030361149
 30
0.0
 10
146.2620282801
 20
154.0277005396
 30
0.0
 10
146.3753227888
 20
154.0151670632
 30
0.0
 10
146.4309303714
 20
154.0151631989
 30
0.0
  0
SPLINE
  5
358
100
AcDbEntity
  8
RUNDUNGEN
100
AcDbSpline
 62
7
  6
CONTINUOUS
 70
0
 71
3
 72
11
 73
7
 74
0
 42
0.0000001
 43
0.0000001
 44
0.0000000001
 40
0.0
 40
0.0
 40
0.0
 40
0.0
 40
0.2597503134
 40
0.5130847735
 40
0.759014958
 40
1.0
 40
1.0
 40
1.0
 40
1.0
 10
145.3373168884
 20
154.858846476
 30
0.0
 10
145.3205952742
 20
154.7437873282
 30
0.0
 10
145.2503704385
 20
154.519975788
 30
0.0
 10
145.043179109
 20
154.2424164402
 30
0.0
 10
144.7589415578
 20
154.0583117704
 30
0.0
 10
144.5387986527
 20
154.0151631989
 30
0.0
 10
144.4309303714
 20
154.0151631989
 30
0.0
  0
SPLINE
  5
359
100
AcDbEntity
  8
RUNDUNGEN
100
AcDbSpline
 62
7
  6
CONTINUOUS
 70
0
 71
3
 72
11
 73
7
 74
0
 42
0.0000001
 43
0.0000001
 44
0.0000000001
 40
0.0
 40
0.0
 40
0.0
 40
0.0
 40
0.2597507826
 40
0.5130842613
 40
0.7590143154
 40
1.0
 40
1.0
 40
1.0
 40
1.0
 10
138.2518567166
 20
154.8587378612
 30
0.0
 10
138.2351247507
 20
154.7436894724
 30
0.0
 10
138.16488598
 20
154.5199030165
 30
0.0
 10
137.957692817
 20
154.2423812897
 30
0.0
 10
137.6734711105
 20
154.058304764
 30
0.0
 10
137.4533460157
 20
154.0151631989
 30
0.0
 10
137.3454861377
 20
154.0151631989
 30
0.0
  0
SPLINE
  5
35A
100
AcDbEntity
  8
RUNDUNGEN
100
AcDbSpline
 62
7
  6
CONTINUOUS
 70
0
 71
3
 72
14
 73
10
 74
0
 42
0.0000001
 43
0.0000001
 44
0.0000000001
 40
0.0
 40
0.0
 40
0.0
 40
0.0
 40
0.2880734176
 40
0.4279560317
 40
0.5625724262
 40
0.6896458886
 40
0.8065370683
 40
0.9105369499
 40
1.0
 40
1.0
 40
1.0
 40
1.0
 10
126.6809303713
 20
158.5151631989
 30
0.0
 10
127.3843856426
 20
157.9930903577
 30
0.0
 10
128.4289895413
 20
157.2167566129
 30
0.0
 10
129.8260891945
 20
156.2292424634
 30
0.0
 10
130.8419621292
 20
155.5511129889
 30
0.0
 10
131.8260663355
 20
154.9529031922
 30
0.0
 10
132.7665975529
 20
154.4646303473
 30
0.0
 10
133.6479588322
 20
154.1223718684
 30
0.0
 10
134.2351074113
 20
154.0151627721
 30
0.0
 10
134.5071607527
 20
154.0151631989
 30
0.0
  0
SPLINE
  5
35B
100
AcDbEntity
  8
RUNDUNGEN
100
AcDbSpline
 62
7
  6
CONTINUOUS
 70
0
 71
3
 72
11
 73
7
 74
0
 42
0.0000001
 43
0.0000001
 44
0.0000000001
 40
0.0
 40
0.0
 40
0.0
 40
0.0
 40
0.2825356835
 40
0.5472257537
 40
0.7843970358
 40
1.0
 40
1.0
 40
1.0
 40
1.0
 10
135.2525242851
 20
155.0151631989
 30
0.0
 10
135.2525242851
 20
154.886207701
 30
0.0
 10
135.2166646283
 20
154.6347354659
 30
0.0
 10
135.059290615
 20
154.3062413049
 30
0.0
 10
134.8148455262
 20
154.0743344381
 30
0.0
 10
134.6055742258
 20
154.0151631989
 30
0.0
 10
134.5071682926
 20
154.0151631989
 30
0.0
  0
SPLINE
  5
35C
100
AcDbEntity
  8
RUNDUNGEN
100
AcDbSpline
 62
7
  6
CONTINUOUS
 70
0
 71
3
 72
11
 73
7
 74
0
 42
0.0000001
 43
0.0000001
 44
0.0000000001
 40
0.0
 40
0.0
 40
0.0
 40
0.0
 40
0.2825355199
 40
0.5472254266
 40
0.7843967178
 40
1.0
 40
1.0
 40
1.0
 40
1.0
 10
118.1093364576
 20
155.0151631989
 30
0.0
 10
118.1093361959
 20
154.8862077232
 30
0.0
 10
118.145195459
 20
154.6347354529
 30
0.0
 10
118.302569321
 20
154.3062411666
 30
0.0
 10
118.5470147633
 20
154.0743342959
 30
0.0
 10
118.7562863317
 20
154.0151631989
 30
0.0
 10
118.8546924501
 20
154.0151631989
 30
0.0
  0
SPLINE
  5
35D
100
AcDbEntity
  8
RUNDUNGEN
100
AcDbSpline
 62
7
  6
CONTINUOUS
 70
0
 71
3
 72
11
 73
7
 74
0
 42
0.0000001
 43
0.0000001
 44
0.0000000001
 40
0.0
 40
0.0
 40
0.0
 40
0.0
 40
0.2597507805
 40
0.5130842637
 40
0.7590143192
 40
1.0
 40
1.0
 40
1.0
 40
1.0
 10
115.1100039649
 20
154.8587382782
 30
0.0
 10
115.1267358911
 20
154.7436898482
 30
0.0
 10
115.1969746083
 20
154.5199032955
 30
0.0
 10
115.4041677652
 20
154.2423814238
 30
0.0
 10
115.6883895334
 20
154.05830479
 30
0.0
 10
115.9085146967
 20
154.0151631992
 30
0.0
 10
116.0163746064
 20
154.0151631989
 30
0.0
  0
SPLINE
  5
35E
100
AcDbEntity
  8
RUNDUNGEN
100
AcDbSpline
 62
7
  6
CONTINUOUS
 70
0
 71
3
 72
12
 73
8
 74
0
 42
0.0000001
 43
0.0000001
 44
0.0000000001
 40
0.0
 40
0.0
 40
0.0
 40
0.0
 40
0.2595253116
 40
0.5133505699
 40
0.6377953209
 40
0.7602581337
 40
1.0
 40
1.0
 40
1.0
 40
1.0
 10
108.0132082545
 20
155.0151631989
 30
0.0
 10
108.0132082545
 20
154.8854794719
 30
0.0
 10
108.0594856403
 20
154.6265872469
 30
0.0
 10
108.2291536284
 20
154.3473446831
 30
0.0
 10
108.4166331461
 20
154.1792405147
 30
0.0
 10
108.6274266716
 20
154.0556013041
 30
0.0
 10
108.8111323503
 20
154.0151631989
 30
0.0
 10
108.9309303714
 20
154.0151631989
 30
0.0
  0
SPLINE
  5
35F
100
AcDbEntity
  8
RUNDUNGEN
100
AcDbSpline
 62
7
  6
CONTINUOUS
 70
0
 71
3
 72
14
 73
10
 74
0
 42
0.0000001
 43
0.0000001
 44
0.0000000001
 40
0.0
 40
0.0
 40
0.0
 40
0.0
 40
0.0894630432
 40
0.1934628598
 40
0.3103539996
 40
0.4374274413
 40
0.5720438247
 40
0.7119264321
 40
1.0
 40
1.0
 40
1.0
 40
1.0
 10
118.8546962751
 20
154.0151631989
 30
0.0
 10
119.1267497058
 20
154.0151629822
 30
0.0
 10
119.7138985072
 20
154.1223702999
 30
0.0
 10
120.5952599031
 20
154.4646291176
 30
0.0
 10
121.5357913805
 20
154.9529013871
 30
0.0
 10
122.5198959256
 20
155.55111118
 30
0.0
 10
123.535769074
 20
156.2292409831
 30
0.0
 10
124.9328702791
 20
157.2167548716
 30
0.0
 10
125.9774727473
 20
157.9930921654
 30
0.0
 10
126.6809303713
 20
158.5151631989
 30
0.0
  0
SPLINE
  5
360
100
AcDbEntity
  8
RUNDUNGEN
100
AcDbSpline
 62
7
  6
CONTINUOUS
 70
0
 71
3
 72
14
 73
10
 74
0
 42
0.0000001
 43
0.0000001
 44
0.0000000001
 40
0.0
 40
0.0
 40
0.0
 40
0.0
 40
0.2880738978
 40
0.4279565771
 40
0.5625726716
 40
0.6896455534
 40
0.806536257
 40
0.9105362584
 40
1.0
 40
1.0
 40
1.0
 40
1.0
 10
126.6809303713
 20
164.5151631989
 30
0.0
 10
125.9774724571
 20
165.0372369915
 30
0.0
 10
124.9328666039
 20
165.8135739203
 30
0.0
 10
123.5357651106
 20
166.8010909651
 30
0.0
 10
122.5198932072
 20
167.4792204987
 30
0.0
 10
121.5357920255
 20
168.0774307264
 30
0.0
 10
120.5952630397
 20
168.5657038047
 30
0.0
 10
119.7138969705
 20
168.9079618152
 30
0.0
 10
119.126744684
 20
169.0151580555
 30
0.0
 10
118.8546888582
 20
169.0151631984
 30
0.0
  0
SPLINE
  5
361
100
AcDbEntity
  8
RUNDUNGEN
100
AcDbSpline
 62
7
  6
CONTINUOUS
 70
0
 71
3
 72
11
 73
7
 74
0
 42
0.0000001
 43
0.0000001
 44
0.0000000001
 40
0.0
 40
0.0
 40
0.0
 40
0.0
 40
0.2597503134
 40
0.5130847735
 40
0.759014958
 40
1.0
 40
1.0
 40
1.0
 40
1.0
 10
108.0245438543
 20
168.1714799219
 30
0.0
 10
108.0412654685
 20
168.2865390696
 30
0.0
 10
108.1114903042
 20
168.5103506098
 30
0.0
 10
108.3186816337
 20
168.7879099576
 30
0.0
 10
108.6029191849
 20
168.9720146274
 30
0.0
 10
108.82306209
 20
169.0151631989
 30
0.0
 10
108.9309303713
 20
169.0151631989
 30
0.0
  0
SPLINE
  5
362
100
AcDbEntity
  8
RUNDUNGEN
100
AcDbSpline
 62
7
  6
CONTINUOUS
 70
0
 71
3
 72
14
 73
10
 74
0
 42
0.0000001
 43
0.0000001
 44
0.0000000001
 40
0.0
 40
0.0
 40
0.0
 40
0.0
 40
0.3347509042
 40
0.4888287867
 40
0.6277679646
 40
0.7482548358
 40
0.8486316172
 40
0.9304345565
 40
1.0
 40
1.0
 40
1.0
 40
1.0
 10
214.6106300282
 20
155.0151631989
 30
0.0
 10
214.6106300282
 20
154.8871901202
 30
0.0
 10
214.5968798011
 20
154.6997130451
 30
0.0
 10
214.547979438
 20
154.4644705218
 30
0.0
 10
214.4998704003
 20
154.3135214551
 30
0.0
 10
214.4413258577
 20
154.1884832714
 30
0.0
 10
214.3738599871
 20
154.0934407377
 30
0.0
 10
214.2982426562
 20
154.031167136
 30
0.0
 10
214.2400014359
 20
154.0151631989
 30
0.0
 10
214.2134070224
 20
154.0151631989
 30
0.0
  0
SPLINE
  5
363
100
AcDbEntity
  8
RUNDUNGEN
100
AcDbSpline
 62
7
  6
CONTINUOUS
 70
0
 71
3
 72
14
 73
10
 74
0
 42
0.0000001
 43
0.0000001
 44
0.0000000001
 40
0.0
 40
0.0
 40
0.0
 40
0.0
 40
0.3347521287
 40
0.4888297837
 40
0.6277685403
 40
0.7482551509
 40
0.8486317655
 40
0.9304345987
 40
1.0
 40
1.0
 40
1.0
 40
1.0
 10
230.9804494645
 20
155.0151631989
 30
0.0
 10
230.9804494645
 20
154.8871896515
 30
0.0
 10
230.966699224
 20
154.6997121786
 30
0.0
 10
230.9177985947
 20
154.4644694836
 30
0.0
 10
230.8696895809
 20
154.3135207768
 30
0.0
 10
230.8111450831
 20
154.1884829259
 30
0.0
 10
230.7436792702
 20
154.0934406152
 30
0.0
 10
230.6680620425
 20
154.0311670696
 30
0.0
 10
230.609820865
 20
154.0151631991
 30
0.0
 10
230.5832264674
 20
154.0151631989
 30
0.0
  0
SPLINE
  5
364
100
AcDbEntity
  8
RUNDUNGEN
100
AcDbSpline
 62
7
  6
CONTINUOUS
 70
0
 71
3
 72
13
 73
9
 74
0
 42
0.0000001
 43
0.0000001
 44
0.0000000001
 40
0.0
 40
0.0
 40
0.0
 40
0.0
 40
0.2928996196
 40
0.5623705191
 40
0.6838701012
 40
0.796023972
 40
0.9004425315
 40
1.0
 40
1.0
 40
1.0
 40
1.0
 10
253.837206413
 20
155.0151631989
 30
0.0
 10
253.8372061211
 20
154.8864853258
 30
0.0
 10
253.8058675163
 20
154.6383571231
 30
0.0
 10
253.686603597
 20
154.3566138786
 30
0.0
 10
253.5477850734
 20
154.1829369856
 30
0.0
 10
253.4318101401
 20
154.0879803451
 30
0.0
 10
253.3043378449
 20
154.0289925966
 30
0.0
 10
253.2142777455
 20
154.0151631989
 30
0.0
 10
253.1705397464
 20
154.0151631989
 30
0.0
  0
SPLINE
  5
365
100
AcDbEntity
  8
RUNDUNGEN
100
AcDbSpline
 62
7
  6
CONTINUOUS
 70
0
 71
3
 72
15
 73
11
 74
0
 42
0.0000001
 43
0.0000001
 44
0.0000000001
 40
0.0
 40
0.0
 40
0.0
 40
0.0
 40
0.1597276704
 40
0.3048163349
 40
0.4378020919
 40
0.5611527606
 40
0.6770943577
 40
0.7876411469
 40
0.8947037839
 40
1.0
 40
1.0
 40
1.0
 40
1.0
 10
253.837206413
 20
155.0151631989
 30
0.0
 10
254.1435197144
 20
155.0151747976
 30
0.0
 10
254.7302320857
 20
155.0794581982
 30
0.0
 10
255.5320889611
 20
155.3464507049
 30
0.0
 10
256.2039271832
 20
155.7324555373
 30
0.0
 10
256.7461140995
 20
156.2036142994
 30
0.0
 10
257.1622657636
 20
156.7349600713
 30
0.0
 10
257.4565232584
 20
157.3072764178
 30
0.0
 10
257.6315825193
 20
157.9049695007
 30
0.0
 10
257.6704448691
 20
158.3132343286
 30
0.0
 10
257.6705397464
 20
158.5151631989
 30
0.0
  0
SPLINE
  5
366
100
AcDbEntity
  8
RUNDUNGEN
100
AcDbSpline
 62
7
  6
CONTINUOUS
 70
0
 71
3
 72
15
 73
11
 74
0
 42
0.0000001
 43
0.0000001
 44
0.0000000001
 40
0.0
 40
0.0
 40
0.0
 40
0.0
 40
0.105296498
 40
0.2123588488
 40
0.322905671
 40
0.4388476671
 40
0.5621981409
 40
0.6951837649
 40
0.8402725534
 40
1.0
 40
1.0
 40
1.0
 40
1.0
 10
257.6705397464
 20
164.5151631989
 30
0.0
 10
257.6704432321
 20
164.7170928006
 30
0.0
 10
257.6315816172
 20
165.1253577899
 30
0.0
 10
257.4565228653
 20
165.7230519736
 30
0.0
 10
257.162263377
 20
166.2953681385
 30
0.0
 10
256.7461142646
 20
166.8267169797
 30
0.0
 10
256.2039267941
 20
167.2978774713
 30
0.0
 10
255.5320881067
 20
167.6838790272
 30
0.0
 10
254.7302354086
 20
167.9508924596
 30
0.0
 10
254.1435195754
 20
168.0151477362
 30
0.0
 10
253.837206413
 20
168.0151631989
 30
0.0
  0
SPLINE
  5
367
100
AcDbEntity
  8
RUNDUNGEN
100
AcDbSpline
 62
7
  6
CONTINUOUS
 70
0
 71
3
 72
11
 73
7
 74
0
 42
0.0000001
 43
0.0000001
 44
0.0000000001
 40
0.0
 40
0.0
 40
0.0
 40
0.0
 40
0.2535195632
 40
0.5040356385
 40
0.752483335
 40
1.0
 40
1.0
 40
1.0
 40
1.0
 10
205.647910827
 20
168.0151117745
 30
0.0
 10
205.1968380738
 20
168.1553305654
 30
0.0
 10
204.2972584999
 20
168.4257557542
 30
0.0
 10
202.9330344543
 20
168.7542975637
 30
0.0
 10
201.5564975445
 20
168.9663284407
 30
0.0
 10
200.631719192
 20
169.0151539715
 30
0.0
 10
200.1705397464
 20
169.0151631989
 30
0.0
  0
SPLINE
  5
368
100
AcDbEntity
  8
RUNDUNGEN
100
AcDbSpline
 62
7
  6
CONTINUOUS
 70
0
 71
3
 72
11
 73
7
 74
0
 42
0.0000001
 43
0.0000001
 44
0.0000000001
 40
0.0
 40
0.0
 40
0.0
 40
0.0
 40
0.2475161831
 40
0.4959615428
 40
0.7464767862
 40
1.0
 40
1.0
 40
1.0
 40
1.0
 10
200.1705397464
 20
154.0151631989
 30
0.0
 10
200.6317176953
 20
154.0151704411
 30
0.0
 10
201.5564898483
 20
154.0639962427
 30
0.0
 10
202.9330174342
 20
154.2760287049
 30
0.0
 10
204.2972428348
 20
154.6045614401
 30
0.0
 10
205.1968243215
 20
154.8749944825
 30
0.0
 10
205.647903865
 20
155.0152122774
 30
0.0
  0
SPLINE
  5
369
100
AcDbEntity
  8
RUNDUNGEN
100
AcDbSpline
 62
7
  6
CONTINUOUS
 70
0
 71
3
 72
13
 73
9
 74
0
 42
0.0000001
 43
0.0000001
 44
0.0000000001
 40
0.0
 40
0.0
 40
0.0
 40
0.0
 40
0.2928993951
 40
0.5623700806
 40
0.6838696363
 40
0.7960235654
 40
0.9004422843
 40
1.0
 40
1.0
 40
1.0
 40
1.0
 10
253.837206413
 20
168.0151631989
 30
0.0
 10
253.8372064131
 20
168.1438410352
 30
0.0
 10
253.8058682561
 20
168.391969246
 30
0.0
 10
253.6866045253
 20
168.6737125464
 30
0.0
 10
253.5477859346
 20
168.8473894299
 30
0.0
 10
253.4318107993
 20
168.9423460796
 30
0.0
 10
253.3043381963
 20
169.0013338119
 30
0.0
 10
253.2142778751
 20
169.0151631989
 30
0.0
 10
253.1705397464
 20
169.0151631989
 30
0.0
  0
SPLINE
  5
36A
100
AcDbEntity
  8
RUNDUNGEN
100
AcDbSpline
 62
7
  6
CONTINUOUS
 70
0
 71
3
 72
14
 73
10
 74
0
 42
0.0000001
 43
0.0000001
 44
0.0000000001
 40
0.0
 40
0.0
 40
0.0
 40
0.0
 40
0.3347521313
 40
0.4888297842
 40
0.6277685377
 40
0.7482551455
 40
0.8486317584
 40
0.9304345934
 40
1.0
 40
1.0
 40
1.0
 40
1.0
 10
230.9804494645
 20
168.0151631989
 30
0.0
 10
230.9804494645
 20
168.1431367483
 30
0.0
 10
230.9666992239
 20
168.3306142228
 30
0.0
 10
230.9177985937
 20
168.5658569182
 30
0.0
 10
230.86968958
 20
168.7168056231
 30
0.0
 10
230.8111450827
 20
168.8418434719
 30
0.0
 10
230.7436792714
 20
168.9368857837
 30
0.0
 10
230.6680620392
 20
168.9991593285
 30
0.0
 10
230.6098208585
 20
169.0151631989
 30
0.0
 10
230.5832264587
 20
169.0151631989
 30
0.0
  0
SPLINE
  5
36B
100
AcDbEntity
  8
RUNDUNGEN
100
AcDbSpline
 62
7
  6
CONTINUOUS
 70
0
 71
3
 72
14
 73
10
 74
0
 42
0.0000001
 43
0.0000001
 44
0.0000000001
 40
0.0
 40
0.0
 40
0.0
 40
0.0
 40
0.3347509012
 40
0.4888287854
 40
0.6277679652
 40
0.7482548376
 40
0.848631619
 40
0.9304345573
 40
1.0
 40
1.0
 40
1.0
 40
1.0
 10
214.6106300282
 20
168.0151631989
 30
0.0
 10
214.6106300282
 20
168.1431362765
 30
0.0
 10
214.596879801
 20
168.3306133511
 30
0.0
 10
214.5479794384
 20
168.5658558748
 30
0.0
 10
214.4998704
 20
168.7168049432
 30
0.0
 10
214.441325857
 20
168.8418431282
 30
0.0
 10
214.3738599854
 20
168.9368856611
 30
0.0
 10
214.2982426555
 20
168.9991592632
 30
0.0
 10
214.2400014357
 20
169.0151631989
 30
0.0
 10
214.2134070224
 20
169.0151631989
 30
0.0
  0
SPLINE
  5
36C
100
AcDbEntity
  8
RUNDUNGEN
100
AcDbSpline
 62
7
  6
CONTINUOUS
 70
0
 71
3
 72
15
 73
11
 74
0
 42
0.0000001
 43
0.0000001
 44
0.0000000001
 40
0.0
 40
0.0
 40
0.0
 40
0.0
 40
0.3763937262
 40
0.5421840287
 40
0.6863362031
 40
0.8052333405
 40
0.896415867
 40
0.9313142988
 40
0.9594706907
 40
1.0
 40
1.0
 40
1.0
 40
1.0
 10
63.411866322
 20
97.7463904816
 30
0.0
 10
63.4922049604
 20
97.8203645326
 30
0.0
 10
63.6136888736
 20
97.9207579787
 30
0.0
 10
63.7738299249
 20
98.039134074
 30
0.0
 10
63.8773407866
 20
98.1083446234
 30
0.0
 10
63.9668580391
 20
98.1590246843
 30
0.0
 10
64.0321482447
 20
98.1877407304
 30
0.0
 10
64.0758201383
 20
98.1987413791
 30
0.0
 10
64.1054042295
 20
98.2018786256
 30
0.0
 10
64.1271023345
 20
98.1962471557
 30
0.0
 10
64.1352218661
 20
98.1877409797
 30
0.0
  0
SPLINE
  5
36D
100
AcDbEntity
  8
RUNDUNGEN
100
AcDbSpline
 62
7
  6
CONTINUOUS
 70
0
 71
3
 72
17
 73
13
 74
0
 42
0.0000001
 43
0.0000001
 44
0.0000000001
 40
0.0
 40
0.0
 40
0.0
 40
0.0
 40
0.1813225744
 40
0.3570652938
 40
0.5199386316
 40
0.6645116971
 40
0.7860744585
 40
0.8812896221
 40
0.9185489936
 40
0.9495457415
 40
0.9758064407
 40
1.0
 40
1.0
 40
1.0
 40
1.0
 10
63.411866322
 20
97.7463904816
 30
0.0
 10
63.4771796642
 20
97.7419156464
 30
0.0
 10
63.6057602357
 20
97.7325699331
 30
0.0
 10
63.7925275454
 20
97.7127765253
 30
0.0
 10
63.9645419314
 20
97.6828904835
 30
0.0
 10
64.1150265934
 20
97.6453974141
 30
0.0
 10
64.2384266224
 20
97.6026519177
 30
0.0
 10
64.3214129151
 20
97.5624026415
 30
0.0
 10
64.369481153
 20
97.5278600112
 30
0.0
 10
64.3935978467
 20
97.5033769918
 30
0.0
 10
64.4084190983
 20
97.4774291248
 30
0.0
 10
64.4111676754
 20
97.4588841619
 30
0.0
 10
64.410756197
 20
97.4501587823
 30
0.0
  0
SPLINE
  5
36E
100
AcDbEntity
  8
RUNDUNGEN
100
AcDbSpline
 62
7
  6
CONTINUOUS
 70
0
 71
3
 72
11
 73
7
 74
0
 42
0.0000001
 43
0.0000001
 44
0.0000000001
 40
0.0
 40
0.0
 40
0.0
 40
0.0
 40
0.2768555181
 40
0.533811872
 40
0.771997556
 40
1.0
 40
1.0
 40
1.0
 40
1.0
 10
134.5072041858
 20
42.8779978052
 30
0.0
 10
134.0133530411
 20
42.1683047221
 30
0.0
 10
132.9205502824
 20
40.889316281
 30
0.0
 10
130.9644642931
 20
39.4424140318
 30
0.0
 10
128.8555657067
 20
38.5716592508
 30
0.0
 10
127.3929752395
 20
38.3781527948
 30
0.0
 10
126.6809303713
 20
38.3779511171
 30
0.0
  0
LINE
  5
36F
100
AcDbEntity
  8
RUNDUNGEN
100
AcDbLine
 62
7
  6
CONTINUOUS
 10
63.411866322
 20
97.7463904816
 11
59.1941079423
 21
102.8447926818
  0
LINE
  5
370
100
AcDbEntity
  8
RUNDUNGEN
100
AcDbLine
 62
7
  6
CONTINUOUS
 10
59.1941079423
 20
102.8447926818
 11
58.7530297963
 21
103.3779511171
  0
LINE
  5
371
100
AcDbEntity
  8
RUNDUNGEN
100
AcDbLine
 62
7
  6
CONTINUOUS
 10
63.3355014068
 20
95.8779511171
 11
63.411866322
 21
97.7463904816
  0
SPLINE
  5
372
100
AcDbEntity
  8
RUNDUNGEN
100
AcDbSpline
 62
7
  6
CONTINUOUS
 70
0
 71
3
 72
17
 73
13
 74
0
 42
0.0000001
 43
0.0000001
 44
0.0000000001
 40
0.0
 40
0.0
 40
0.0
 40
0.0
 40
0.1813225768
 40
0.3570653005
 40
0.5199386409
 40
0.6645117069
 40
0.7860744668
 40
0.8812896315
 40
0.9185490059
 40
0.9495457554
 40
0.975806452
 40
1.0
 40
1.0
 40
1.0
 40
1.0
 10
89.9499944207
 20
97.7463904816
 30
0.0
 10
89.8846810783
 20
97.7419156416
 30
0.0
 10
89.7561005055
 20
97.732569923
 30
0.0
 10
89.5693331929
 20
97.7127765205
 30
0.0
 10
89.3973188041
 20
97.6828904835
 30
0.0
 10
89.2468341426
 20
97.6453974132
 30
0.0
 10
89.1234341136
 20
97.6026519191
 30
0.0
 10
89.040447822
 20
97.562402638
 30
0.0
 10
88.9923795879
 20
97.5278599993
 30
0.0
 10
88.9682628968
 20
97.503376977
 30
0.0
 10
88.9534416466
 20
97.4774291152
 30
0.0
 10
88.9506930675
 20
97.4588841578
 30
0.0
 10
88.9511045457
 20
97.4501587823
 30
0.0
  0
SPLINE
  5
373
100
AcDbEntity
  8
RUNDUNGEN
100
AcDbSpline
 62
7
  6
CONTINUOUS
 70
0
 71
3
 72
15
 73
11
 74
0
 42
0.0000001
 43
0.0000001
 44
0.0000000001
 40
0.0
 40
0.0
 40
0.0
 40
0.0
 40
0.3763937033
 40
0.5421839951
 40
0.6863361613
 40
0.8052332946
 40
0.8964158242
 40
0.9313142627
 40
0.9594706652
 40
1.0
 40
1.0
 40
1.0
 40
1.0
 10
89.9499944207
 20
97.7463904816
 30
0.0
 10
89.8696557982
 20
97.8203645476
 30
0.0
 10
89.7481719045
 20
97.9207580143
 30
0.0
 10
89.5880308681
 20
98.0391341252
 30
0.0
 10
89.4845200098
 20
98.1083446785
 30
0.0
 10
89.3950027548
 20
98.1590247392
 30
0.0
 10
89.3297125392
 20
98.187740778
 30
0.0
 10
89.2860406332
 20
98.1987414113
 30
0.0
 10
89.2564565258
 20
98.2018786426
 30
0.0
 10
89.2347584137
 20
98.1962471615
 30
0.0
 10
89.2266388766
 20
98.1877409797
 30
0.0
  0
LINE
  5
374
100
AcDbEntity
  8
RUNDUNGEN
100
AcDbLine
 62
7
  6
CONTINUOUS
 10
139.9499944207
 20
97.7463904816
 11
140.0263593359
 21
95.8779511171
  0
LINE
  5
375
100
AcDbEntity
  8
RUNDUNGEN
100
AcDbLine
 62
7
  6
CONTINUOUS
 10
113.3355014068
 20
95.8779511171
 11
113.411866322
 21
97.7463904816
  0
LINE
  5
376
100
AcDbEntity
  8
RUNDUNGEN
100
AcDbLine
 62
7
  6
CONTINUOUS
 10
89.9499944207
 20
97.7463904816
 11
90.0263593359
 21
95.8779511171
  0
LINE
  5
377
100
AcDbEntity
  8
RUNDUNGEN
100
AcDbLine
 62
7
  6
CONTINUOUS
 10
113.411866322
 20
97.7463904816
 11
109.1941079423
 21
102.8447926818
  0
LINE
  5
378
100
AcDbEntity
  8
RUNDUNGEN
100
AcDbLine
 62
7
  6
CONTINUOUS
 10
109.1941079423
 20
102.8447926818
 11
108.7530297963
 21
103.3779511171
  0
SPLINE
  5
379
100
AcDbEntity
  8
RUNDUNGEN
100
AcDbSpline
 62
7
  6
CONTINUOUS
 70
0
 71
3
 72
11
 73
7
 74
0
 42
0.0000001
 43
0.0000001
 44
0.0000000001
 40
0.0
 40
0.0
 40
0.0
 40
0.0
 40
0.2501194327
 40
0.5002084808
 40
0.750217331
 40
1.0
 40
1.0
 40
1.0
 40
1.0
 10
96.4307766286
 20
95.8776720234
 30
0.0
 10
96.1926459426
 20
95.4483675652
 30
0.0
 10
95.7163224549
 20
94.5898674868
 30
0.0
 10
95.0713599253
 20
93.2641304949
 30
0.0
 10
94.5791976293
 20
91.8728783105
 30
0.0
 10
94.4309383571
 20
90.890990761
 30
0.0
 10
94.4309303713
 20
90.400725542
 30
0.0
  0
SPLINE
  5
37A
100
AcDbEntity
  8
RUNDUNGEN
100
AcDbSpline
 62
7
  6
CONTINUOUS
 70
0
 71
3
 72
11
 73
7
 74
0
 42
0.0000001
 43
0.0000001
 44
0.0000000001
 40
0.0
 40
0.0
 40
0.0
 40
0.0
 40
0.2280025706
 40
0.4661882059
 40
0.723144501
 40
1.0
 40
1.0
 40
1.0
 40
1.0
 10
76.6809303713
 20
38.3779511171
 30
0.0
 10
75.9688857583
 20
38.3781476422
 30
0.0
 10
74.5062965923
 20
38.5716624736
 30
0.0
 10
72.3973991671
 20
39.442411358
 30
0.0
 10
70.4413153285
 20
40.8893129866
 30
0.0
 10
69.3485119954
 20
42.1682984355
 30
0.0
 10
68.8546617215
 20
42.8779910873
 30
0.0
  0
SPLINE
  5
37B
100
AcDbEntity
  8
RUNDUNGEN
100
AcDbSpline
 62
7
  6
CONTINUOUS
 70
0
 71
3
 72
11
 73
7
 74
0
 42
0.0000001
 43
0.0000001
 44
0.0000000001
 40
0.0
 40
0.0
 40
0.0
 40
0.0
 40
0.2768555181
 40
0.533811872
 40
0.771997556
 40
1.0
 40
1.0
 40
1.0
 40
1.0
 10
84.5072041858
 20
42.8779978052
 30
0.0
 10
84.0133530411
 20
42.1683047222
 30
0.0
 10
82.9205502824
 20
40.889316281
 30
0.0
 10
80.9644642931
 20
39.4424140318
 30
0.0
 10
78.8555657067
 20
38.5716592508
 30
0.0
 10
77.3929752395
 20
38.3781527948
 30
0.0
 10
76.6809303713
 20
38.3779511171
 30
0.0
  0
SPLINE
  5
37C
100
AcDbEntity
  8
RUNDUNGEN
100
AcDbSpline
 62
7
  6
CONTINUOUS
 70
0
 71
3
 72
11
 73
7
 74
0
 42
0.0000001
 43
0.0000001
 44
0.0000000001
 40
0.0
 40
0.0
 40
0.0
 40
0.0
 40
0.2497690317
 40
0.4997813726
 40
0.749875866
 40
1.0
 40
1.0
 40
1.0
 40
1.0
 10
58.9309303713
 20
90.400725542
 30
0.0
 10
58.9309228517
 20
90.8909571649
 30
0.0
 10
58.7826279829
 20
91.8728020339
 30
0.0
 10
58.2905589181
 20
93.2640525158
 30
0.0
 10
57.6455716749
 20
94.5897882217
 30
0.0
 10
57.1692529881
 20
95.4482968823
 30
0.0
 10
56.9311217161
 20
95.8776037468
 30
0.0
  0
SPLINE
  5
37D
100
AcDbEntity
  8
RUNDUNGEN
100
AcDbSpline
 62
7
  6
CONTINUOUS
 70
0
 71
3
 72
12
 73
8
 74
0
 42
0.0000001
 43
0.0000001
 44
0.0000000001
 40
0.0
 40
0.0
 40
0.0
 40
0.0
 40
0.1220093467
 40
0.2447588636
 40
0.4931332884
 40
0.7453743738
 40
1.0
 40
1.0
 40
1.0
 40
1.0
 10
107.9309303669
 20
90.4007135348
 30
0.0
 10
107.9309229576
 20
90.627573528
 30
0.0
 10
107.9058495763
 20
91.0827228208
 30
0.0
 10
107.7920739964
 20
91.9929010345
 30
0.0
 10
107.5733607255
 20
93.1320172389
 30
0.0
 10
107.2619991868
 20
94.5012740292
 30
0.0
 10
107.0415574684
 20
95.4176152415
 30
0.0
 10
106.9309303714
 20
95.8779511171
 30
0.0
  0
SPLINE
  5
37E
100
AcDbEntity
  8
RUNDUNGEN
100
AcDbSpline
 62
7
  6
CONTINUOUS
 70
0
 71
3
 72
12
 73
8
 74
0
 42
0.0000001
 43
0.0000001
 44
0.0000000001
 40
0.0
 40
0.0
 40
0.0
 40
0.0
 40
0.2546241413
 40
0.5068619854
 40
0.7552356976
 40
0.8779896355
 40
1.0
 40
1.0
 40
1.0
 40
1.0
 10
146.4309303714
 20
95.8779511171
 30
0.0
 10
146.3203054585
 20
95.4176173453
 30
0.0
 10
146.0998618336
 20
94.5012851265
 30
0.0
 10
145.7885126553
 20
93.1320355131
 30
0.0
 10
145.56977577
 20
91.9929225436
 30
0.0
 10
145.4560013441
 20
91.082734234
 30
0.0
 10
145.430938694
 20
90.627574295
 30
0.0
 10
145.4309303769
 20
90.400712311
 30
0.0
  0
SPLINE
  5
37F
100
AcDbEntity
  8
RUNDUNGEN
100
AcDbSpline
 62
7
  6
CONTINUOUS
 70
0
 71
3
 72
12
 73
8
 74
0
 42
0.0000001
 43
0.0000001
 44
0.0000000001
 40
0.0
 40
0.0
 40
0.0
 40
0.0
 40
0.1220093467
 40
0.2447588636
 40
0.4931332884
 40
0.7453743738
 40
1.0
 40
1.0
 40
1.0
 40
1.0
 10
57.9309303669
 20
90.4007135348
 30
0.0
 10
57.9309229576
 20
90.627573528
 30
0.0
 10
57.9058495763
 20
91.0827228208
 30
0.0
 10
57.7920739964
 20
91.9929010344
 30
0.0
 10
57.5733607255
 20
93.1320172389
 30
0.0
 10
57.2619991868
 20
94.5012740292
 30
0.0
 10
57.0415574684
 20
95.4176152415
 30
0.0
 10
56.9309303713
 20
95.8779511171
 30
0.0
  0
SPLINE
  5
380
100
AcDbEntity
  8
RUNDUNGEN
100
AcDbSpline
 62
7
  6
CONTINUOUS
 70
0
 71
3
 72
12
 73
8
 74
0
 42
0.0000001
 43
0.0000001
 44
0.0000000001
 40
0.0
 40
0.0
 40
0.0
 40
0.0
 40
0.2546241413
 40
0.5068619854
 40
0.7552356976
 40
0.8779896355
 40
1.0
 40
1.0
 40
1.0
 40
1.0
 10
96.4309303714
 20
95.8779511171
 30
0.0
 10
96.3203054585
 20
95.4176173453
 30
0.0
 10
96.0998618336
 20
94.5012851265
 30
0.0
 10
95.7885126553
 20
93.1320355131
 30
0.0
 10
95.56977577
 20
91.9929225436
 30
0.0
 10
95.4560013441
 20
91.0827342339
 30
0.0
 10
95.430938694
 20
90.627574295
 30
0.0
 10
95.4309303769
 20
90.400712311
 30
0.0
  0
SPLINE
  5
381
100
AcDbEntity
  8
RUNDUNGEN
100
AcDbSpline
 62
7
  6
CONTINUOUS
 70
0
 71
3
 72
11
 73
7
 74
0
 42
0.0000001
 43
0.0000001
 44
0.0000000001
 40
0.0
 40
0.0
 40
0.0
 40
0.0
 40
0.2501194327
 40
0.5002084808
 40
0.750217331
 40
1.0
 40
1.0
 40
1.0
 40
1.0
 10
146.4307766286
 20
95.8776720234
 30
0.0
 10
146.1926459426
 20
95.4483675652
 30
0.0
 10
145.7163224549
 20
94.5898674868
 30
0.0
 10
145.0713599253
 20
93.2641304949
 30
0.0
 10
144.5791976293
 20
91.8728783105
 30
0.0
 10
144.4309383571
 20
90.890990761
 30
0.0
 10
144.4309303714
 20
90.400725542
 30
0.0
  0
LINE
  5
382
100
AcDbEntity
  8
RUNDUNGEN
100
AcDbLine
 62
7
  6
CONTINUOUS
 10
144.6088309464
 20
103.3779511171
 11
144.1677522576
 21
102.8447956597
  0
LINE
  5
383
100
AcDbEntity
  8
RUNDUNGEN
100
AcDbLine
 62
7
  6
CONTINUOUS
 10
144.1677522576
 20
102.8447956597
 11
139.9499944207
 21
97.7463904816
  0
LINE
  5
384
100
AcDbEntity
  8
RUNDUNGEN
100
AcDbLine
 62
7
  6
CONTINUOUS
 10
94.6088309464
 20
103.3779511171
 11
94.1677522576
 21
102.8447956597
  0
LINE
  5
385
100
AcDbEntity
  8
RUNDUNGEN
100
AcDbLine
 62
7
  6
CONTINUOUS
 10
94.1677522576
 20
102.8447956597
 11
89.9499944207
 21
97.7463904816
  0
SPLINE
  5
386
100
AcDbEntity
  8
RUNDUNGEN
100
AcDbSpline
 62
7
  6
CONTINUOUS
 70
0
 71
3
 72
15
 73
11
 74
0
 42
0.0000001
 43
0.0000001
 44
0.0000000001
 40
0.0
 40
0.0
 40
0.0
 40
0.0
 40
0.3763937262
 40
0.5421840287
 40
0.6863362031
 40
0.8052333405
 40
0.896415867
 40
0.9313142988
 40
0.9594706907
 40
1.0
 40
1.0
 40
1.0
 40
1.0
 10
113.411866322
 20
97.7463904816
 30
0.0
 10
113.4922049604
 20
97.8203645326
 30
0.0
 10
113.6136888736
 20
97.9207579787
 30
0.0
 10
113.7738299249
 20
98.039134074
 30
0.0
 10
113.8773407866
 20
98.1083446234
 30
0.0
 10
113.9668580391
 20
98.1590246843
 30
0.0
 10
114.0321482447
 20
98.1877407304
 30
0.0
 10
114.0758201383
 20
98.1987413791
 30
0.0
 10
114.1054042295
 20
98.2018786256
 30
0.0
 10
114.1271023345
 20
98.1962471557
 30
0.0
 10
114.1352218661
 20
98.1877409797
 30
0.0
  0
SPLINE
  5
387
100
AcDbEntity
  8
RUNDUNGEN
100
AcDbSpline
 62
7
  6
CONTINUOUS
 70
0
 71
3
 72
17
 73
13
 74
0
 42
0.0000001
 43
0.0000001
 44
0.0000000001
 40
0.0
 40
0.0
 40
0.0
 40
0.0
 40
0.1813225744
 40
0.3570652938
 40
0.5199386316
 40
0.6645116971
 40
0.7860744585
 40
0.8812896221
 40
0.9185489936
 40
0.9495457415
 40
0.9758064407
 40
1.0
 40
1.0
 40
1.0
 40
1.0
 10
113.411866322
 20
97.7463904816
 30
0.0
 10
113.4771796642
 20
97.7419156464
 30
0.0
 10
113.6057602357
 20
97.7325699331
 30
0.0
 10
113.7925275454
 20
97.7127765253
 30
0.0
 10
113.9645419314
 20
97.6828904835
 30
0.0
 10
114.1150265934
 20
97.6453974141
 30
0.0
 10
114.2384266224
 20
97.6026519177
 30
0.0
 10
114.3214129151
 20
97.5624026415
 30
0.0
 10
114.369481153
 20
97.5278600112
 30
0.0
 10
114.3935978467
 20
97.5033769918
 30
0.0
 10
114.4084190983
 20
97.4774291248
 30
0.0
 10
114.4111676754
 20
97.4588841619
 30
0.0
 10
114.410756197
 20
97.4501587823
 30
0.0
  0
SPLINE
  5
388
100
AcDbEntity
  8
RUNDUNGEN
100
AcDbSpline
 62
7
  6
CONTINUOUS
 70
0
 71
3
 72
11
 73
7
 74
0
 42
0.0000001
 43
0.0000001
 44
0.0000000001
 40
0.0
 40
0.0
 40
0.0
 40
0.0
 40
0.2497690317
 40
0.4997813726
 40
0.749875866
 40
1.0
 40
1.0
 40
1.0
 40
1.0
 10
108.9309303714
 20
90.400725542
 30
0.0
 10
108.9309228517
 20
90.8909571649
 30
0.0
 10
108.782627983
 20
91.872802034
 30
0.0
 10
108.2905589181
 20
93.2640525158
 30
0.0
 10
107.6455716749
 20
94.5897882217
 30
0.0
 10
107.1692529881
 20
95.4482968823
 30
0.0
 10
106.9311217161
 20
95.8776037468
 30
0.0
  0
SPLINE
  5
389
100
AcDbEntity
  8
RUNDUNGEN
100
AcDbSpline
 62
7
  6
CONTINUOUS
 70
0
 71
3
 72
17
 73
13
 74
0
 42
0.0000001
 43
0.0000001
 44
0.0000000001
 40
0.0
 40
0.0
 40
0.0
 40
0.0
 40
0.1813225768
 40
0.3570653005
 40
0.5199386409
 40
0.6645117069
 40
0.7860744668
 40
0.8812896315
 40
0.9185490059
 40
0.9495457554
 40
0.975806452
 40
1.0
 40
1.0
 40
1.0
 40
1.0
 10
139.9499944207
 20
97.7463904816
 30
0.0
 10
139.8846810783
 20
97.7419156416
 30
0.0
 10
139.7561005055
 20
97.732569923
 30
0.0
 10
139.5693331929
 20
97.7127765205
 30
0.0
 10
139.3973188041
 20
97.6828904835
 30
0.0
 10
139.2468341426
 20
97.6453974132
 30
0.0
 10
139.1234341136
 20
97.6026519191
 30
0.0
 10
139.040447822
 20
97.562402638
 30
0.0
 10
138.9923795879
 20
97.5278599993
 30
0.0
 10
138.9682628968
 20
97.503376977
 30
0.0
 10
138.9534416466
 20
97.4774291152
 30
0.0
 10
138.9506930675
 20
97.4588841578
 30
0.0
 10
138.9511045457
 20
97.4501587823
 30
0.0
  0
SPLINE
  5
38A
100
AcDbEntity
  8
RUNDUNGEN
100
AcDbSpline
 62
7
  6
CONTINUOUS
 70
0
 71
3
 72
15
 73
11
 74
0
 42
0.0000001
 43
0.0000001
 44
0.0000000001
 40
0.0
 40
0.0
 40
0.0
 40
0.0
 40
0.3763937033
 40
0.5421839951
 40
0.6863361613
 40
0.8052332946
 40
0.8964158242
 40
0.9313142627
 40
0.9594706652
 40
1.0
 40
1.0
 40
1.0
 40
1.0
 10
139.9499944207
 20
97.7463904816
 30
0.0
 10
139.8696557982
 20
97.8203645476
 30
0.0
 10
139.7481719045
 20
97.9207580143
 30
0.0
 10
139.5880308681
 20
98.0391341252
 30
0.0
 10
139.4845200098
 20
98.1083446785
 30
0.0
 10
139.3950027548
 20
98.1590247392
 30
0.0
 10
139.3297125392
 20
98.187740778
 30
0.0
 10
139.2860406332
 20
98.1987414113
 30
0.0
 10
139.2564565258
 20
98.2018786426
 30
0.0
 10
139.2347584137
 20
98.1962471615
 30
0.0
 10
139.2266388766
 20
98.1877409797
 30
0.0
  0
SPLINE
  5
38B
100
AcDbEntity
  8
RUNDUNGEN
100
AcDbSpline
 62
7
  6
CONTINUOUS
 70
0
 71
3
 72
11
 73
7
 74
0
 42
0.0000001
 43
0.0000001
 44
0.0000000001
 40
0.0
 40
0.0
 40
0.0
 40
0.0
 40
0.2280025706
 40
0.4661882059
 40
0.723144501
 40
1.0
 40
1.0
 40
1.0
 40
1.0
 10
126.6809303713
 20
38.3779511171
 30
0.0
 10
125.9688857583
 20
38.3781476422
 30
0.0
 10
124.5062965923
 20
38.5716624736
 30
0.0
 10
122.3973991671
 20
39.442411358
 30
0.0
 10
120.4413153285
 20
40.8893129866
 30
0.0
 10
119.3485119954
 20
42.1682984355
 30
0.0
 10
118.8546617215
 20
42.8779910873
 30
0.0
  0
ELLIPSE
  5
38C
100
AcDbEntity
  8
0
100
AcDbEllipse
 62
7
  6
CONTINUOUS
 10
88.3973482818
 20
161.5151631989
 30
0.0
 11
-0.0
 21
3.4
 31
0.0
 40
0.4328358209
 41
-3.1415926536
 42
0.0
  0
ELLIPSE
  5
38D
100
AcDbEntity
  8
0
100
AcDbEllipse
 62
7
  6
CONTINUOUS
 10
64.9645124609
 20
161.5151631989
 30
0.0
 11
0.0
 21
3.4
 31
0.0
 40
0.4328358209
 41
0.0
 42
3.1415926536
  0
ELLIPSE
  5
38E
100
AcDbEntity
  8
0
100
AcDbEllipse
 62
7
  6
CONTINUOUS
 10
138.3973482818
 20
161.5151631989
 30
0.0
 11
0.0
 21
3.4
 31
0.0
 40
0.4328358209
 41
-3.1415926536
 42
-0.0
  0
ELLIPSE
  5
38F
100
AcDbEntity
  8
0
100
AcDbEllipse
 62
7
  6
CONTINUOUS
 10
114.9645124609
 20
161.5151631989
 30
0.0
 11
-0.0
 21
3.4
 31
0.0
 40
0.4328358209
 41
-0.0
 42
3.1415926536
  0
ENDSEC
  0
SECTION
  2
OBJECTS
  0
DICTIONARY
  5
C
100
AcDbDictionary
280
0
281
1
  3
ACAD_GROUP
350
D
  3
ACAD_MLINESTYLE
350
17
  3
ACAD_LAYOUT
350
1A
  3
ACAD_PLOTSETTINGS
350
19
  3
ACAD_PLOTSTYLENAME
350
E
  0
DICTIONARY
  5
D
102
{ACAD_REACTORS
330
C
102
}
100
AcDbDictionary
280
0
281
1
  0
ACDBDICTIONARYWDFLT
  5
E
102
{ACAD_REACTORS
330
C
102
}
100
AcDbDictionary
281
1
  3
Normal
350
F
100
AcDbDictionaryWithDefault
340
F
  0
DICTIONARY
  5
17
102
{ACAD_REACTORS
330
C
102
}
100
AcDbDictionary
280
0
281
1
  3
Standard
350
18
  0
DICTIONARY
  5
19
102
{ACAD_REACTORS
330
C
102
}
100
AcDbDictionary
281
1
  0
DICTIONARY
  5
1A
102
{ACAD_REACTORS
330
C
102
}
100
AcDbDictionary
281
1
  3
Model
350
390
  3
Layout1
350
391
  0
ACDBPLACEHOLDER
  5
F
102
{ACAD_REACTORS
330
E
102
}
  0
MLINESTYLE
  5
18
102
{ACAD_REACTORS
330
17
102
}
100
AcDbMlineStyle
  2
STANDARD
 70
0
  3

 62
256
 51
90.0
 52
90.0
 71
2
 49
0.5
 62
256
  6
BYLAYER
 49
-0.5
 62
256
  6
BYLAYER
  0
LAYOUT
  5
390
102
{ACAD_REACTORS
330
1A
102
}
100
AcDbPlotSettings
  1

  2
none_device
  4
ISO_A4_(297.00_x_210.00_MM)
  6

 40
0.0
 41
0.0
 42
0.0
 43
0.0
 44
297.0
 45
210.0
 46
0.0
 47
0.0
 48
0.0
 49
0.0
140
0.0
141
0.0
142
1.0
143
1.0
 70
1024
 72
1
 73
0
 74
0
  7

 75
0
147
1.0
148
0.0
149
0.0
100
AcDbLayout
  1
Model
 70
0
 71
0
 10
0.0
 20
0.0
 11
297.0
 21
210.0
 12
0.0
 22
0.0
 32
0.0
 14
0.0
 24
0.0
 34
0.0
 15
0.0
 25
0.0
 35
0.0
146
0.0
 13
0.0
 23
0.0
 33
0.0
 16
1.0
 26
0.0
 36
0.0
 17
0.0
 27
1.0
 37
0.0
 76
0
330
20C
345
0
346
0
  0
LAYOUT
  5
391
102
{ACAD_REACTORS
330
1A
102
}
100
AcDbPlotSettings
  1

  2
none_device
  4
ISO_A4_(297.00_x_210.00_MM)
  6

 40
0.0
 41
0.0
 42
0.0
 43
0.0
 44
297.0
 45
210.0
 46
0.0
 47
0.0
 48
0.0
 49
0.0
140
0.0
141
0.0
142
1.0
143
1.0
 70
0
 72
1
 73
0
 74
0
  7

 75
0
147
1.0
148
0.0
149
0.0
100
AcDbLayout
  1
Layout1
 70
0
 71
1
 10
0.0
 20
0.0
 11
297.0
 21
210.0
 12
0.0
 22
0.0
 32
0.0
 14
0.0
 24
0.0
 34
0.0
 15
0.0
 25
0.0
 35
0.0
146
0.0
 13
0.0
 23
0.0
 33
0.0
 16
1.0
 26
0.0
 36
0.0
 17
0.0
 27
1.0
 37
0.0
 76
0
330
20D
345
0
346
0
  0
ENDSEC
  0
EOF
