  0
SECTION
  2
HEADER
  9
$ACADVER
  1
AC1018
  9
$ACADMAINTVER
 70
     0
  9
$DWGCODEPAGE
  3
ANSI_1252
  9
$INSBASE
 10
0.0
 20
0.0
 30
0.0
  9
$EXTMIN
 10
96.29140957608953
 20
0.96555390003368
 30
0.0
  9
$EXTMAX
 10
159.2835355603415
 20
51.35925468743528
 30
0.0
  9
$LIMMIN
 10
96.29140957608953
 20
0.96555390003368
  9
$LIMMAX
 10
159.2835355603415
 20
51.35925468743528
  9
$ORTHOMODE
 70
     1
  9
$REGENMODE
 70
     1
  9
$FILLMODE
 70
     1
  9
$QTEXTMODE
 70
     0
  9
$MIRRTEXT
 70
     1
  9
$LTSCALE
 40
1.0
  9
$ATTMODE
 70
     1
  9
$TEXTSIZE
 40
2.5
  9
$TRACEWID
 40
1.0
  9
$TEXTSTYLE
  7
Standard
  9
$CLAYER
  8
0
  9
$CELTYPE
  6
ByLayer
  9
$CECOLOR
 62
     7
  9
$CELTSCALE
 40
1.0
  9
$DISPSILH
 70
     0
  9
$DIMSCALE
 40
1.0
  9
$DIMASZ
 40
0.18
  9
$DIMEXO
 40
0.0625
  9
$DIMDLI
 40
0.38
  9
$DIMRND
 40
0.0000001
  9
$DIMDLE
 40
0.0
  9
$DIMEXE
 40
0.18
  9
$DIMTP
 40
0.0
  9
$DIMTM
 40
0.0
  9
$DIMTXT
 40
0.18
  9
$DIMCEN
 40
0.09
  9
$DIMTSZ
 40
0.0
  9
$DIMTOL
 70
     0
  9
$DIMLIM
 70
     0
  9
$DIMTIH
 70
     1
  9
$DIMTOH
 70
     1
  9
$DIMSE1
 70
     0
  9
$DIMSE2
 70
     0
  9
$DIMTAD
 70
     0
  9
$DIMZIN
 70
     0
  9
$DIMBLK
  1

  9
$DIMASO
 70
     1
  9
$DIMSHO
 70
     1
  9
$DIMPOST
  1

  9
$DIMAPOST
  1

  9
$DIMALT
 70
     0
  9
$DIMALTD
 70
     2
  9
$DIMALTF
 40
25.4
  9
$DIMLFAC
 40
1.0
  9
$DIMTOFL
 70
     0
  9
$DIMTVP
 40
0.0
  9
$DIMTIX
 70
     0
  9
$DIMSOXD
 70
     0
  9
$DIMSAH
 70
     0
  9
$DIMBLK1
  1

  9
$DIMBLK2
  1

  9
$DIMSTYLE
  2
Standard
  9
$DIMCLRD
 70
     0
  9
$DIMCLRE
 70
     0
  9
$DIMCLRT
 70
     0
  9
$DIMTFAC
 40
1.0
  9
$DIMGAP
 40
0.09
  9
$DIMJUST
 70
     0
  9
$DIMSD1
 70
     0
  9
$DIMSD2
 70
     0
  9
$DIMTOLJ
 70
     1
  9
$DIMTZIN
 70
     0
  9
$DIMALTZ
 70
     0
  9
$DIMALTTZ
 70
     0
  9
$DIMUPT
 70
     0
  9
$DIMDEC
 70
     4
  9
$DIMTDEC
 70
     4
  9
$DIMALTU
 70
     2
  9
$DIMALTTD
 70
     2
  9
$DIMTXSTY
  7
_TCW_TXTSTY_1
  9
$DIMAUNIT
 70
     0
  9
$DIMADEC
 70
     4
  9
$DIMALTRND
 40
0.0000001
  9
$DIMAZIN
 70
     0
  9
$DIMDSEP
 70
    46
  9
$DIMATFIT
 70
     3
  9
$DIMFRAC
 70
     0
  9
$DIMLDRBLK
  1

  9
$DIMLUNIT
 70
     2
  9
$DIMLWD
 70
    -2
  9
$DIMLWE
 70
    -2
  9
$DIMTMOVE
 70
     0
  9
$LUNITS
 70
     2
  9
$LUPREC
 70
     4
  9
$SKETCHINC
 40
1.0
  9
$FILLETRAD
 40
2.0
  9
$AUNITS
 70
     0
  9
$AUPREC
 70
     0
  9
$MENU
  1
.
  9
$ELEVATION
 40
0.0
  9
$PELEVATION
 40
0.0
  9
$THICKNESS
 40
0.0
  9
$LIMCHECK
 70
     0
  9
$CHAMFERA
 40
0.5
  9
$CHAMFERB
 40
0.5
  9
$CHAMFERC
 40
1.0
  9
$CHAMFERD
 40
0.0
  9
$SKPOLY
 70
     0
  9
$TDCREATE
 40
2454839.586064595
  9
$TDUCREATE
 40
2454839.544397928
  9
$TDUPDATE
 40
2454839.586064606
  9
$TDUUPDATE
 40
2454839.54439794
  9
$TDINDWG
 40
0.0
  9
$TDUSRTIMER
 40
0.0
  9
$USRTIMER
 70
     1
  9
$ANGBASE
 50
0.0
  9
$ANGDIR
 70
     0
  9
$PDMODE
 70
     0
  9
$PDSIZE
 40
0.0
  9
$PLINEWID
 40
0.0
  9
$SPLFRAME
 70
     0
  9
$SPLINETYPE
 70
     6
  9
$SPLINESEGS
 70
     8
  9
$HANDSEED
  5
4F0
  9
$SURFTAB1
 70
     6
  9
$SURFTAB2
 70
     6
  9
$SURFTYPE
 70
     6
  9
$SURFU
 70
     6
  9
$SURFV
 70
     6
  9
$UCSBASE
  2

  9
$UCSNAME
  2

  9
$UCSORG
 10
0.0
 20
0.0
 30
0.0
  9
$UCSXDIR
 10
1.0
 20
0.0
 30
0.0
  9
$UCSYDIR
 10
0.0
 20
1.0
 30
0.0
  9
$UCSORTHOREF
  2

  9
$UCSORTHOVIEW
 70
     0
  9
$UCSORGTOP
 10
0.0
 20
0.0
 30
0.0
  9
$UCSORGBOTTOM
 10
0.0
 20
0.0
 30
0.0
  9
$UCSORGLEFT
 10
0.0
 20
0.0
 30
0.0
  9
$UCSORGRIGHT
 10
0.0
 20
0.0
 30
0.0
  9
$UCSORGFRONT
 10
0.0
 20
0.0
 30
0.0
  9
$UCSORGBACK
 10
0.0
 20
0.0
 30
0.0
  9
$PUCSBASE
  2

  9
$PUCSNAME
  2

  9
$PUCSORG
 10
0.0
 20
0.0
 30
0.0
  9
$PUCSXDIR
 10
1.0
 20
0.0
 30
0.0
  9
$PUCSYDIR
 10
0.0
 20
1.0
 30
0.0
  9
$PUCSORTHOREF
  2

  9
$PUCSORTHOVIEW
 70
     0
  9
$PUCSORGTOP
 10
0.0
 20
0.0
 30
0.0
  9
$PUCSORGBOTTOM
 10
0.0
 20
0.0
 30
0.0
  9
$PUCSORGLEFT
 10
0.0
 20
0.0
 30
0.0
  9
$PUCSORGRIGHT
 10
0.0
 20
0.0
 30
0.0
  9
$PUCSORGFRONT
 10
0.0
 20
0.0
 30
0.0
  9
$PUCSORGBACK
 10
0.0
 20
0.0
 30
0.0
  9
$USERI1
 70
     0
  9
$USERI2
 70
     0
  9
$USERI3
 70
     0
  9
$USERI4
 70
     0
  9
$USERI5
 70
     0
  9
$USERR1
 40
0.0
  9
$USERR2
 40
0.0
  9
$USERR3
 40
0.0
  9
$USERR4
 40
0.0
  9
$USERR5
 40
0.0
  9
$WORLDVIEW
 70
     1
  9
$SHADEDGE
 70
     3
  9
$SHADEDIF
 70
    70
  9
$TILEMODE
 70
     1
  9
$MAXACTVP
 70
    64
  9
$PINSBASE
 10
0.0
 20
0.0
 30
0.0
  9
$PLIMCHECK
 70
     0
  9
$PEXTMIN
 10
-6.29708337783813
 20
-5.91606473922729
 30
0.0
  9
$PEXTMAX
 10
290.7029166221619
 20
204.0839352607727
 30
0.0
  9
$PLIMMIN
 10
-6.29708337783813
 20
-5.91606473922729
  9
$PLIMMAX
 10
290.7029166221619
 20
204.0839352607727
  9
$UNITMODE
 70
     0
  9
$VISRETAIN
 70
     1
  9
$PLINEGEN
 70
     0
  9
$PSLTSCALE
 70
     1
  9
$TREEDEPTH
 70
  3020
  9
$CMLSTYLE
  2
Standard
  9
$CMLJUST
 70
     0
  9
$CMLSCALE
 40
1.0
  9
$PROXYGRAPHICS
 70
     1
  9
$MEASUREMENT
 70
     0
  9
$CELWEIGHT
370
    -1
  9
$ENDCAPS
280
     0
  9
$JOINSTYLE
280
     0
  9
$LWDISPLAY
290
     0
  9
$INSUNITS
 70
     1
  9
$HYPERLINKBASE
  1

  9
$STYLESHEET
  1

  9
$XEDIT
290
     1
  9
$CEPSNTYPE
380
     0
  9
$PSTYLEMODE
290
     1
  9
$FINGERPRINTGUID
  2
{25CD53EE-DD0D-4FE7-8F75-E190612FC0F1}
  9
$VERSIONGUID
  2
{FAEB1C32-E019-11D5-929B-00C0DF256EC4}
  9
$EXTNAMES
290
     1
  9
$PSVPSCALE
 40
0.0
  9
$OLESTARTUP
290
     0
  9
$SORTENTS
280
   127
  9
$INDEXCTL
280
     0
  9
$HIDETEXT
280
     1
  9
$XCLIPFRAME
290
     0
  9
$HALOGAP
280
     0
  9
$OBSCOLOR
 70
   257
  9
$OBSLTYPE
280
     0
  9
$INTERSECTIONDISPLAY
280
     0
  9
$INTERSECTIONCOLOR
 70
   257
  9
$DIMASSOC
280
     2
  9
$PROJECTNAME
  1

  0
ENDSEC
  0
SECTION
  2
CLASSES
  0
CLASS
  1
ACDBDICTIONARYWDFLT
  2
AcDbDictionaryWithDefault
  3
ObjectDBX Classes
 90
        0
 91
        3
280
     0
281
     0
  0
CLASS
  1
VISUALSTYLE
  2
AcDbVisualStyle
  3
ObjectDBX Classes
 90
     4095
 91
        3
280
     0
281
     0
  0
CLASS
  1
TCOPTIONALDATA
  2
TcOptionalData
  3
ExTcadCustObjs|Description: TurboCAD extension data object
 90
        0
 91
        3
280
     0
281
     0
  0
ENDSEC
  0
SECTION
  2
TABLES
  0
TABLE
  2
VPORT
  5
8
330
0
100
AcDbSymbolTable
 70
     1
  0
VPORT
  5
29
330
8
100
AcDbSymbolTableRecord
100
AcDbViewportTableRecord
  2
*Active
 70
     0
 10
0.0
 20
0.0
 11
1.0
 21
1.0
 12
0.0
 22
0.0
 13
0.0
 23
0.0
 14
10.0
 24
10.0
 15
10.0
 25
10.0
 16
0.0
 26
0.0
 36
1.0
 17
66.38855670379513
 27
168.1100064330713
 37
0.0
 40
262.415659689154
 41
1.972704714640199
 42
50.0
 43
0.0
 44
0.0
 50
0.0
 51
0.0
 71
     0
 72
   100
 73
     1
 74
     3
 75
     0
 76
     0
 77
     0
 78
     0
281
     0
 65
     1
110
0.0
120
0.0
130
0.0
111
1.0
121
0.0
131
0.0
112
0.0
122
1.0
132
0.0
 79
     0
146
0.0
  0
ENDTAB
  0
TABLE
  2
LTYPE
  5
5
330
0
100
AcDbSymbolTable
 70
    14
  0
LTYPE
  5
14
330
5
100
AcDbSymbolTableRecord
100
AcDbLinetypeTableRecord
  2
ByBlock
 70
     0
  3

 72
    65
 73
     0
 40
0.0
  0
LTYPE
  5
15
330
5
100
AcDbSymbolTableRecord
100
AcDbLinetypeTableRecord
  2
ByLayer
 70
     0
  3

 72
    65
 73
     0
 40
0.0
  0
LTYPE
  5
16
330
5
100
AcDbSymbolTableRecord
100
AcDbLinetypeTableRecord
  2
Continuous
 70
     0
  3
Solid line
 72
    65
 73
     0
 40
0.0
  0
LTYPE
  5
40
330
5
100
AcDbSymbolTableRecord
100
AcDbLinetypeTableRecord
  2
Durchgehend
 70
     0
  3
Durchgehend
 72
    65
 73
     0
 40
0.0
  0
LTYPE
  5
41
330
5
100
AcDbSymbolTableRecord
100
AcDbLinetypeTableRecord
  2
Rand
 70
     0
  3
Rand
 72
    65
 73
     6
 40
1.75
 49
0.5
 74
     0
 49
-0.25
 74
     0
 49
0.5
 74
     0
 49
-0.25
 74
     0
 49
0.0
 74
     0
 49
-0.25
 74
     0
  0
LTYPE
  5
42
330
5
100
AcDbSymbolTableRecord
100
AcDbLinetypeTableRecord
  2
Mitte
 70
     0
  3
Mitte
 72
    65
 73
     4
 40
2.0
 49
1.25
 74
     0
 49
-0.25
 74
     0
 49
0.25
 74
     0
 49
-0.25
 74
     0
  0
LTYPE
  5
43
330
5
100
AcDbSymbolTableRecord
100
AcDbLinetypeTableRecord
  2
Strichpunkt
 70
     0
  3
Strichpunkt
 72
    65
 73
     4
 40
1.0
 49
0.5
 74
     0
 49
-0.25
 74
     0
 49
0.0
 74
     0
 49
-0.25
 74
     0
  0
LTYPE
  5
44
330
5
100
AcDbSymbolTableRecord
100
AcDbLinetypeTableRecord
  2
Gestrichelt
 70
     0
  3
Gestrichelt
 72
    65
 73
     2
 40
0.75
 49
0.5
 74
     0
 49
-0.25
 74
     0
  0
LTYPE
  5
45
330
5
100
AcDbSymbolTableRecord
100
AcDbLinetypeTableRecord
  2
Teilen
 70
     0
  3
Teilen
 72
    65
 73
     6
 40
1.25
 49
0.5
 74
     0
 49
-0.25
 74
     0
 49
0.0
 74
     0
 49
-0.25
 74
     0
 49
0.0
 74
     0
 49
-0.25
 74
     0
  0
LTYPE
  5
46
330
5
100
AcDbSymbolTableRecord
100
AcDbLinetypeTableRecord
  2
Punkt
 70
     0
  3
Punkt
 72
    65
 73
     2
 40
0.25
 49
0.0
 74
     0
 49
-0.25
 74
     0
  0
LTYPE
  5
47
330
5
100
AcDbSymbolTableRecord
100
AcDbLinetypeTableRecord
  2
Verdeckt
 70
     0
  3
Verdeckt
 72
    65
 73
     2
 40
0.375
 49
0.25
 74
     0
 49
-0.125
 74
     0
  0
LTYPE
  5
48
330
5
100
AcDbSymbolTableRecord
100
AcDbLinetypeTableRecord
  2
$INVISIBLE
 70
     0
  3
$INVISIBLE
 72
    65
 73
     2
 40
200.0
 49
-100.0
 74
     0
 49
-100.0
 74
     0
  0
LTYPE
  5
49
330
5
100
AcDbSymbolTableRecord
100
AcDbLinetypeTableRecord
  2
CENTER2
 70
     0
  3
CENTER2
 72
    65
 73
     4
 40
28.575
 49
19.05
 74
     0
 49
-3.175
 74
     0
 49
3.175
 74
     0
 49
-3.175
 74
     0
  0
LTYPE
  5
4A
330
5
100
AcDbSymbolTableRecord
100
AcDbLinetypeTableRecord
  2
HIDDEN
 70
     0
  3
HIDDEN
 72
    65
 73
     2
 40
9.524999999999999
 49
6.35
 74
     0
 49
-3.175
 74
     0
  0
LTYPE
  5
4B
330
5
100
AcDbSymbolTableRecord
100
AcDbLinetypeTableRecord
  2
$SNAPEXT
 70
     0
  3
$SNAPEXT
 72
    65
 73
     2
 40
0.04
 49
0.02
 74
     0
 49
-0.02
 74
     0
  0
LTYPE
  5
4C
330
5
100
AcDbSymbolTableRecord
100
AcDbLinetypeTableRecord
  2
$AUXILIARY
 70
     0
  3
$AUXILIARY
 72
    65
 73
     2
 40
0.1
 49
0.05
 74
     0
 49
-0.05
 74
     0
  0
ENDTAB
  0
TABLE
  2
LAYER
  5
2
330
0
100
AcDbSymbolTable
 70
     2
  0
LAYER
  5
10
330
2
100
AcDbSymbolTableRecord
100
AcDbLayerTableRecord
  2
0
 70
     0
 62
     7
  6
Continuous
370
     0
390
F
  0
LAYER
  5
4D
330
2
100
AcDbSymbolTableRecord
100
AcDbLayerTableRecord
  2
Main lines
 70
     0
 62
     1
420
 16711680
  6
Continuous
370
    50
390
F
  0
ENDTAB
  0
TABLE
  2
STYLE
  5
3
330
0
100
AcDbSymbolTable
 70
     2
  0
STYLE
  5
11
330
3
100
AcDbSymbolTableRecord
100
AcDbTextStyleTableRecord
  2
Standard
 70
     0
 40
0.0
 41
1.0
 50
0.0
 71
     0
 42
0.2
  3
txt
  4

  0
STYLE
  5
51
330
3
100
AcDbSymbolTableRecord
100
AcDbTextStyleTableRecord
  2
_TCW_TXTSTY_1
 70
     0
 40
0.0
 41
1.0
 50
0.0
 71
     0
 42
0.6000000238418579
  3
TXT.SHX
  4

  0
ENDTAB
  0
TABLE
  2
VIEW
  5
6
330
0
100
AcDbSymbolTable
 70
     3
  0
VIEW
  5
4E
330
6
100
AcDbSymbolTableRecord
100
AcDbViewTableRecord
  2
Ansicht_0
 70
     0
 40
210.0
 10
148.5
 20
105.0
 41
297.0
 11
0.0
 21
0.0
 31
1.0
 12
0.0
 22
0.0
 32
0.0
 42
50.0
 43
0.0
 44
0.0
 50
0.0
 71
     0
281
     0
 72
     0
  0
VIEW
  5
4F
330
6
100
AcDbSymbolTableRecord
100
AcDbViewTableRecord
  2
View_1
 70
     0
 40
393.1933409705475
 10
59.22178848924477
 20
140.7839583298343
 41
568.4922624002343
 11
0.0
 21
0.0
 31
1.0
 12
0.0
 22
0.0
 32
0.0
 42
50.0
 43
0.0
 44
0.0
 50
0.0
 71
     0
281
     0
 72
     0
  0
VIEW
  5
50
330
6
100
AcDbSymbolTableRecord
100
AcDbViewTableRecord
  2
View_2
 70
     0
 40
393.1933409705475
 10
59.22180340812574
 20
140.783964894142
 41
568.4922624002342
 11
0.0
 21
0.0
 31
1.0
 12
0.0
 22
0.0
 32
0.0
 42
50.0
 43
0.0
 44
0.0
 50
0.0
 71
     0
281
     0
 72
     0
  0
ENDTAB
  0
TABLE
  2
UCS
  5
7
330
0
100
AcDbSymbolTable
 70
     0
  0
ENDTAB
  0
TABLE
  2
APPID
  5
9
330
0
100
AcDbSymbolTable
 70
     2
  0
APPID
  5
12
330
9
100
AcDbSymbolTableRecord
100
AcDbRegAppTableRecord
  2
ACAD
 70
     0
  0
APPID
  5
3F
330
9
100
AcDbSymbolTableRecord
100
AcDbRegAppTableRecord
  2
TCAD
 70
     0
  0
ENDTAB
  0
TABLE
  2
DIMSTYLE
  5
A
330
0
100
AcDbSymbolTable
 70
     2
100
AcDbDimStyleTable
  0
DIMSTYLE
105
27
330
A
100
AcDbSymbolTableRecord
100
AcDbDimStyleTableRecord
  2
Standard
 70
     0
 45
0.0000001
148
0.0000001
179
     4
340
51
  0
DIMSTYLE
105
52
330
A
100
AcDbSymbolTableRecord
100
AcDbDimStyleTableRecord
  2
ISO-25
 70
     0
 41
2.5
 42
0.625
 43
3.75
 44
1.25
 45
0.0000001
 73
     0
 74
     0
 77
     1
 78
     8
140
2.5
143
0.03937007874016
147
0.625
148
0.0000001
171
     3
172
     1
179
     2
271
     2
272
     2
274
     3
283
     0
284
     8
340
51
  0
ENDTAB
  0
TABLE
  2
BLOCK_RECORD
  5
1
330
0
100
AcDbSymbolTable
 70
     2
  0
BLOCK_RECORD
  5
1F
330
1
100
AcDbSymbolTableRecord
100
AcDbBlockTableRecord
  2
*Model_Space
340
22
  0
BLOCK_RECORD
  5
1B
330
1
100
AcDbSymbolTableRecord
100
AcDbBlockTableRecord
  2
*Paper_Space
340
1E
  0
BLOCK_RECORD
  5
3B
330
1
100
AcDbSymbolTableRecord
100
AcDbBlockTableRecord
  2
*Paper_Space1
340
3C
  0
ENDTAB
  0
ENDSEC
  0
SECTION
  2
BLOCKS
  0
BLOCK
  5
20
330
1F
100
AcDbEntity
  8
0
100
AcDbBlockBegin
  2
*Model_Space
 70
     0
 71
     0
 10
0.0
 20
0.0
 30
0.0
  3
*Model_Space
  1

  0
ENDBLK
  5
21
330
1F
100
AcDbEntity
  8
0
100
AcDbBlockEnd
  0
BLOCK
  5
1C
330
1B
100
AcDbEntity
 67
     1
  8
0
100
AcDbBlockBegin
  2
*Paper_Space
 70
     0
 71
     0
 10
0.0
 20
0.0
 30
0.0
  3
*Paper_Space
  1

  0
ENDBLK
  5
1D
330
1B
100
AcDbEntity
 67
     1
  8
0
100
AcDbBlockEnd
  0
BLOCK
  5
3D
330
3B
100
AcDbEntity
  8
0
100
AcDbBlockBegin
  2
*Paper_Space1
 70
     0
 71
     0
 10
0.0
 20
0.0
 30
0.0
  3
*Paper_Space1
  1

  0
VIEWPORT
  5
4EE
330
3B
100
AcDbEntity
  8
0
100
AcDbViewport
 10
141.9542601108551
 20
98.18158221244812
 30
0.0
 40
227.1268161773681
 41
157.090531539917
 68
     1
 69
     1
 12
141.9542601108551
 22
98.18158221244812
 13
0.0
 23
0.0
 14
5.0
 24
5.0
 15
5.0
 25
5.0
 16
0.0
 26
0.0
 36
1.0
 17
0.0
 27
0.0
 37
0.0
 42
50.0
 43
0.0
 44
0.0
 45
157.090531539917
 50
0.0
 51
0.0
 72
  1000
 90
    32800
  1

281
     0
 71
     1
 74
     0
110
0.0
120
0.0
130
0.0
111
1.0
121
0.0
131
0.0
112
0.0
122
1.0
132
0.0
 79
     0
146
0.0
170
     0
  0
ENDBLK
  5
3E
330
3B
100
AcDbEntity
  8
0
100
AcDbBlockEnd
  0
ENDSEC
  0
SECTION
  2
ENTITIES
  0
LWPOLYLINE
  5
53
330
1F
100
AcDbEntity
  8
Main lines
370
    50
100
AcDbPolyline
 90
        2
 70
     1
 10
-14.63145085928716
 20
286.2185864115223
 40
0.0196850392967077
 41
0.0196850392967504
 42
2.414213562373
 10
103.4327770280691
 20
168.154358524166
 40
0.0
 41
0.0
  0
LWPOLYLINE
  5
54
330
1F
100
AcDbEntity
  8
Main lines
370
    50
100
AcDbPolyline
 90
        2
 70
     1
 10
-14.63145085928716
 20
281.154358524166
 40
0.0196850392967077
 41
0.0196850392967504
 42
2.414213562373
 10
98.36854914071284
 20
168.154358524166
 40
0.0
 41
0.0
  0
LINE
  5
57
102
{ACAD_XDICTIONARY
360
55
102
}
330
1F
100
AcDbEntity
  8
Main lines
100
AcDbLine
 10
265.4148782432359
 20
286.1781105618244
 30
0.0
 11
272.9085642668774
 21
286.1781105618244
 31
0.0
  0
LINE
  5
5A
102
{ACAD_XDICTIONARY
360
58
102
}
330
1F
100
AcDbEntity
  8
Main lines
100
AcDbLine
 10
262.9085642668775
 20
280.7397295618243
 30
0.0
 11
272.9085642668774
 21
280.7397295618242
 31
0.0
  0
ARC
  5
5D
102
{ACAD_XDICTIONARY
360
5B
102
}
330
1F
100
AcDbEntity
  8
Main lines
100
AcDbCircle
 10
262.9085642668775
 20
275.7397295618243
 30
0.0
 40
5.0
100
AcDbArc
 50
90.0
 51
180.0
  0
ARC
  5
60
102
{ACAD_XDICTIONARY
360
5E
102
}
330
1F
100
AcDbEntity
  8
Main lines
100
AcDbCircle
 10
246.9085642668774
 20
275.7397295618243
 30
0.0
 40
5.0
100
AcDbArc
 50
0.0
 51
90.0
  0
ARC
  5
63
102
{ACAD_XDICTIONARY
360
61
102
}
330
1F
100
AcDbEntity
  8
Main lines
100
AcDbCircle
 10
236.9085642668775
 20
284.1781105618243
 30
0.0
 40
2.0
100
AcDbArc
 50
90.0
 51
180.0
  0
LINE
  5
66
102
{ACAD_XDICTIONARY
360
64
102
}
330
1F
100
AcDbEntity
  8
Main lines
100
AcDbLine
 10
236.9085642668775
 20
280.7397295618243
 30
0.0
 11
246.9085642668774
 21
280.7397295618243
 31
0.0
  0
LINE
  5
69
102
{ACAD_XDICTIONARY
360
67
102
}
330
1F
100
AcDbEntity
  8
Main lines
100
AcDbLine
 10
234.9085642668775
 20
282.7397295618243
 30
0.0
 11
234.9085642668775
 21
284.1781105618243
 31
0.0
  0
ARC
  5
6C
102
{ACAD_XDICTIONARY
360
6A
102
}
330
1F
100
AcDbEntity
  8
Main lines
100
AcDbCircle
 10
236.9085642668775
 20
282.7397295618243
 30
0.0
 40
2.0
100
AcDbArc
 50
180.0
 51
270.0
  0
LINE
  5
6F
102
{ACAD_XDICTIONARY
360
6D
102
}
330
1F
100
AcDbEntity
  8
Main lines
100
AcDbLine
 10
236.9085642668775
 20
286.1781105618243
 30
0.0
 11
247.8192926527557
 21
286.1781105618244
 31
0.0
  0
LINE
  5
72
102
{ACAD_XDICTIONARY
360
70
102
}
330
1F
100
AcDbEntity
  8
Main lines
100
AcDbLine
 10
263.5772766734341
 20
286.1781105618244
 30
0.0
 11
269.1617212550566
 21
286.1781105618244
 31
0.0
  0
ARC
  5
75
102
{ACAD_XDICTIONARY
360
73
102
}
330
1F
100
AcDbEntity
  8
Main lines
100
AcDbCircle
 10
272.9085642668774
 20
284.1781105618244
 30
0.0
 40
2.0
100
AcDbArc
 50
0.0
 51
90.0
  0
LINE
  5
78
102
{ACAD_XDICTIONARY
360
76
102
}
330
1F
100
AcDbEntity
  8
Main lines
100
AcDbLine
 10
274.9085642668774
 20
284.1781105618244
 30
0.0
 11
274.9085642668774
 21
282.7397295618242
 31
0.0
  0
ARC
  5
7B
102
{ACAD_XDICTIONARY
360
79
102
}
330
1F
100
AcDbEntity
  8
Main lines
100
AcDbCircle
 10
272.9085642668774
 20
282.7397295618242
 30
0.0
 40
2.0
100
AcDbArc
 50
-90.0
 51
0.0
  0
LINE
  5
7E
102
{ACAD_XDICTIONARY
360
7C
102
}
330
1F
100
AcDbEntity
  8
Main lines
100
AcDbLine
 10
262.8853009019547
 20
55.56898748650011
 30
0.0
 11
272.885300876354
 21
55.56898748650016
 31
0.0
  0
LINE
  5
81
102
{ACAD_XDICTIONARY
360
7F
102
}
330
1F
100
AcDbEntity
  8
Main lines
100
AcDbLine
 10
272.8853008763541
 20
50.13060648650003
 30
0.0
 11
265.1685512930569
 21
50.1306064865
 31
0.0
  0
LINE
  5
84
102
{ACAD_XDICTIONARY
360
82
102
}
330
1F
100
AcDbEntity
  8
Main lines
100
AcDbLine
 10
234.8853008763542
 20
53.56898748650016
 30
0.0
 11
234.8853008763542
 21
52.13060648650003
 31
0.0
  0
LINE
  5
87
102
{ACAD_XDICTIONARY
360
85
102
}
330
1F
100
AcDbEntity
  8
Main lines
100
AcDbLine
 10
242.2291332894656
 20
50.13060648650003
 30
0.0
 11
249.4105672723786
 21
50.1306064865
 31
0.0
  0
LINE
  5
8A
102
{ACAD_XDICTIONARY
360
88
102
}
330
1F
100
AcDbEntity
  8
Main lines
100
AcDbLine
 10
247.5729657025768
 20
50.13060648650003
 30
0.0
 11
236.8853008763542
 21
50.13060648650003
 31
0.0
  0
ARC
  5
8D
102
{ACAD_XDICTIONARY
360
8B
102
}
330
1F
100
AcDbEntity
  8
Main lines
100
AcDbCircle
 10
236.8853008763542
 20
52.13060648650003
 30
0.0
 40
2.0
100
AcDbArc
 50
180.0
 51
270.0
  0
LINE
  5
90
102
{ACAD_XDICTIONARY
360
8E
102
}
330
1F
100
AcDbEntity
  8
Main lines
100
AcDbLine
 10
267.8947101708495
 20
50.1306064865
 30
0.0
 11
259.3853008763541
 21
50.13060648650003
 31
0.0
  0
LINE
  5
93
102
{ACAD_XDICTIONARY
360
91
102
}
330
1F
100
AcDbEntity
  8
Main lines
100
AcDbLine
 10
236.8853008763542
 20
55.56898748650016
 30
0.0
 11
246.8853008507537
 21
55.56898748650009
 31
0.0
  0
ARC
  5
96
102
{ACAD_XDICTIONARY
360
94
102
}
330
1F
100
AcDbEntity
  8
Main lines
100
AcDbCircle
 10
236.8853008763542
 20
53.56898748650016
 30
0.0
 40
2.0
100
AcDbArc
 50
90.0
 51
180.0
  0
LINE
  5
99
102
{ACAD_XDICTIONARY
360
97
102
}
330
1F
100
AcDbEntity
  8
Main lines
100
AcDbLine
 10
274.885300876354
 20
53.56898748650016
 30
0.0
 11
274.8853008763541
 21
52.13060648650003
 31
0.0
  0
ARC
  5
9C
102
{ACAD_XDICTIONARY
360
9A
102
}
330
1F
100
AcDbEntity
  8
Main lines
100
AcDbCircle
 10
272.8853008763541
 20
52.13060648650003
 30
0.0
 40
2.0
100
AcDbArc
 50
-90.0
 51
0.0
  0
ARC
  5
9F
102
{ACAD_XDICTIONARY
360
9D
102
}
330
1F
100
AcDbEntity
  8
Main lines
100
AcDbCircle
 10
272.885300876354
 20
53.56898748650016
 30
0.0
 40
2.0
100
AcDbArc
 50
0.0
 51
90.0
  0
LINE
  5
A2
102
{ACAD_XDICTIONARY
360
A0
102
}
330
1F
100
AcDbEntity
  8
Main lines
100
AcDbLine
 10
234.9016020855748
 20
214.154359169608
 30
0.0
 11
234.892263057786
 21
122.1543591489992
 31
0.0
  0
LINE
  5
A5
102
{ACAD_XDICTIONARY
360
A3
102
}
330
1F
100
AcDbEntity
  8
Main lines
100
AcDbLine
 10
274.9016234564781
 20
214.150310788196
 30
0.0
 11
274.8923136450186
 21
122.1503107646307
 31
0.0
  0
LINE
  5
A8
102
{ACAD_XDICTIONARY
360
A6
102
}
330
1F
100
AcDbEntity
  8
Main lines
100
AcDbLine
 10
236.9018044624748
 20
216.1541561370257
 30
0.0
 11
246.9025344600188
 21
216.1531441271267
 31
0.0
  0
LINE
  5
AB
102
{ACAD_XDICTIONARY
360
A9
102
}
330
1F
100
AcDbEntity
  8
Main lines
100
AcDbLine
 10
234.9010640762998
 20
208.8543585241662
 30
0.0
 11
274.9010875399883
 21
208.8543585241662
 31
0.0
  0
LINE
  5
AE
102
{ACAD_XDICTIONARY
360
AC
102
}
330
1F
100
AcDbEntity
  8
Main lines
100
AcDbLine
 10
234.901013320714
 20
208.3543585241662
 30
0.0
 11
274.9010365335809
 21
208.3503107777055
 31
0.0
  0
LINE
  5
B1
102
{ACAD_XDICTIONARY
360
AF
102
}
330
1F
100
AcDbEntity
  8
Main lines
100
AcDbLine
 10
234.8989627950478
 20
188.1543585241663
 30
0.0
 11
274.8989928324105
 21
188.1543585241663
 31
0.0
  0
LINE
  5
B4
102
{ACAD_XDICTIONARY
360
B2
102
}
330
1F
100
AcDbEntity
  8
Main lines
100
AcDbLine
 10
234.894902348184
 20
148.1543585241663
 30
0.0
 11
274.8949450882988
 21
148.1543585241663
 31
0.0
  0
LINE
  5
B7
102
{ACAD_XDICTIONARY
360
B5
102
}
330
1F
100
AcDbEntity
  8
Main lines
100
AcDbLine
 10
234.8928518225178
 20
127.9543585241663
 30
0.0
 11
274.8929009775223
 21
127.9543585241663
 31
0.0
  0
LINE
  5
BA
102
{ACAD_XDICTIONARY
360
B8
102
}
330
1F
100
AcDbEntity
  8
Main lines
100
AcDbLine
 10
234.892801066932
 20
127.4543585241662
 30
0.0
 11
274.8928503807209
 21
127.4543585241662
 31
0.0
  0
LINE
  5
BD
102
{ACAD_XDICTIONARY
360
BB
102
}
330
1F
100
AcDbEntity
  8
Main lines
100
AcDbLine
 10
236.8920606602769
 20
120.1541561368972
 30
0.0
 11
246.8913303862486
 21
120.1531442747683
 31
0.0
  0
LINE
  5
C0
102
{ACAD_XDICTIONARY
360
BE
102
}
330
1F
100
AcDbEntity
  8
Main lines
100
AcDbLine
 10
251.9085642668774
 20
275.7397295618243
 30
0.0
 11
251.9030404024298
 21
221.152638133515
 31
0.0
  0
LINE
  5
C3
102
{ACAD_XDICTIONARY
360
C1
102
}
330
1F
100
AcDbEntity
  8
Main lines
100
AcDbLine
 10
257.9085642668775
 20
275.7397295618243
 30
0.0
 11
257.9030403409889
 21
221.1520309719044
 31
0.0
  0
LINE
  5
C6
102
{ACAD_XDICTIONARY
360
C4
102
}
330
1F
100
AcDbEntity
  8
Main lines
100
AcDbLine
 10
251.8853008251534
 20
60.56848151848872
 30
0.0
 11
251.8908243926368
 21
115.1526383323573
 31
0.0
  0
LINE
  5
C9
102
{ACAD_XDICTIONARY
360
C7
102
}
330
1F
100
AcDbEntity
  8
Main lines
100
AcDbLine
 10
257.885300927555
 20
60.56949345451149
 30
0.0
 11
257.8908243311961
 21
115.1520311707467
 31
0.0
  0
LINE
  5
CC
102
{ACAD_XDICTIONARY
360
CA
102
}
330
1F
100
AcDbEntity
  8
Main lines
100
AcDbLine
 10
262.9025343473771
 20
216.1515250294934
 30
0.0
 11
272.9018258539228
 21
216.1505131651604
 31
0.0
  0
LINE
  5
CF
102
{ACAD_XDICTIONARY
360
CD
102
}
330
1F
100
AcDbEntity
  8
Main lines
100
AcDbLine
 10
262.8913302736071
 20
120.151525177135
 30
0.0
 11
272.8921112680542
 21
120.1505131620754
 31
0.0
  0
ARC
  5
D2
102
{ACAD_XDICTIONARY
360
D0
102
}
330
1F
100
AcDbEntity
  8
Main lines
100
AcDbCircle
 10
246.8908244182372
 20
115.1531443003687
 30
0.0
 40
4.999999999999991
100
AcDbArc
 50
-0.005797966334055
 51
89.99420203366611
  0
ARC
  5
D5
102
{ACAD_XDICTIONARY
360
D3
102
}
330
1F
100
AcDbEntity
  8
Main lines
100
AcDbCircle
 10
262.8908243055957
 20
115.1515252027354
 30
0.0
 40
5.00000000000002
100
AcDbArc
 50
89.99420203366579
 51
179.9942020336659
  0
ARC
  5
D8
102
{ACAD_XDICTIONARY
360
D6
102
}
330
1F
100
AcDbEntity
  8
Main lines
100
AcDbCircle
 10
246.9030404280302
 20
221.1531441015263
 30
0.0
 40
4.999999999999991
100
AcDbArc
 50
-90.00579796633389
 51
-0.0057979663338922
  0
ARC
  5
DB
102
{ACAD_XDICTIONARY
360
D9
102
}
330
1F
100
AcDbEntity
  8
Main lines
100
AcDbCircle
 10
262.9030403153885
 20
221.151525003893
 30
0.0
 40
5.000000000000005
100
AcDbArc
 50
179.9942020336661
 51
269.9942020336658
  0
ARC
  5
DE
102
{ACAD_XDICTIONARY
360
DC
102
}
330
1F
100
AcDbEntity
  8
Main lines
100
AcDbCircle
 10
236.9016020752702
 20
214.1541561472659
 30
0.0
 40
2.000000000000002
100
AcDbArc
 50
89.99420203366594
 51
179.9941838383145
  0
ARC
  5
E1
102
{ACAD_XDICTIONARY
360
DF
102
}
330
1F
100
AcDbEntity
  8
Main lines
100
AcDbCircle
 10
272.9016234667183
 20
214.1505131754006
 30
0.0
 40
1.999999999999974
100
AcDbArc
 50
-0.0057979663340551
 51
89.99420203366675
  0
ARC
  5
E4
102
{ACAD_XDICTIONARY
360
E2
102
}
330
1F
100
AcDbEntity
  8
Main lines
100
AcDbCircle
 10
236.8922630474815
 20
122.1541561266571
 30
0.0
 40
2.0
100
AcDbArc
 50
179.994183838314
 51
269.9942020336659
  0
ARC
  5
E7
102
{ACAD_XDICTIONARY
360
E5
102
}
330
1F
100
AcDbEntity
  8
Main lines
100
AcDbCircle
 10
272.8923136552588
 20
122.1505131518353
 30
0.0
 40
1.999999999999981
100
AcDbArc
 50
-90.00579796633325
 51
-0.0057979663340551
  0
ARC
  5
EA
102
{ACAD_XDICTIONARY
360
E8
102
}
330
1F
100
AcDbEntity
  8
Main lines
100
AcDbCircle
 10
246.8853008507537
 20
60.56898748650009
 30
0.0
 40
5.0
100
AcDbArc
 50
-90.0
 51
-0.005797966334055
  0
ARC
  5
ED
102
{ACAD_XDICTIONARY
360
EB
102
}
330
1F
100
AcDbEntity
  8
Main lines
100
AcDbCircle
 10
262.8853009019546
 20
60.56898748650011
 30
0.0
 40
5.000000000000016
100
AcDbArc
 50
179.9942020336659
 51
270.0
  0
LINE
  5
F0
102
{ACAD_XDICTIONARY
360
EE
102
}
330
1F
100
AcDbEntity
  8
Main lines
100
AcDbLine
 10
234.9085642668775
 20
283.4589200618243
 30
0.0
 11
234.9014291541558
 21
212.4507888514829
 31
0.0
  0
LINE
  5
F3
102
{ACAD_XDICTIONARY
360
F1
102
}
330
1F
100
AcDbEntity
  8
Main lines
100
AcDbLine
 10
274.9085642668774
 20
282.7397295618242
 30
0.0
 11
274.9013096932738
 21
212.0395168457898
 31
0.0
  0
LINE
  5
F6
102
{ACAD_XDICTIONARY
360
F4
102
}
330
1F
100
AcDbEntity
  8
Main lines
100
AcDbLine
 10
274.8927759215976
 20
126.7185499239565
 30
0.0
 11
274.885300876354
 21
53.56898748650032
 31
0.0
  0
LINE
  5
F9
102
{ACAD_XDICTIONARY
360
F7
102
}
330
1F
100
AcDbEntity
  8
Main lines
100
AcDbLine
 10
234.8853008763542
 20
53.56898748650016
 30
0.0
 11
234.892263057786
 21
122.1543591489992
 31
0.0
  0
LINE
  5
FC
102
{ACAD_XDICTIONARY
360
FA
102
}
330
1F
100
AcDbEntity
  8
Main lines
100
AcDbLine
 10
-52.63145085928716
 20
138.154358524166
 30
0.0
 11
-52.63145085928716
 21
198.154358524166
 31
0.0
  0
LINE
  5
FF
102
{ACAD_XDICTIONARY
360
FD
102
}
330
1F
100
AcDbEntity
  8
Main lines
100
AcDbLine
 10
23.36854914071284
 20
198.154358524166
 30
0.0
 11
23.36854914071284
 21
138.154358524166
 31
0.0
  0
LINE
  5
102
102
{ACAD_XDICTIONARY
360
100
102
}
330
1F
100
AcDbEntity
  8
Main lines
100
AcDbLine
 10
15.75139728755028
 20
138.554358524166
 30
0.0
 11
15.75139728755028
 21
152.254358524166
 31
0.0
  0
LINE
  5
105
102
{ACAD_XDICTIONARY
360
103
102
}
330
1F
100
AcDbEntity
  8
Main lines
100
AcDbLine
 10
-44.64860271244959
 20
138.554358524166
 30
0.0
 11
-44.64860271244982
 21
152.2543585241662
 31
0.0
  0
ARC
  5
108
102
{ACAD_XDICTIONARY
360
106
102
}
330
1F
100
AcDbEntity
  8
Main lines
100
AcDbCircle
 10
15.36854914071284
 20
138.154358524166
 30
0.0
 40
8.0
100
AcDbArc
 50
-90.0
 51
0.0
  0
LINE
  5
10B
102
{ACAD_XDICTIONARY
360
109
102
}
330
1F
100
AcDbEntity
  8
Main lines
100
AcDbLine
 10
15.36854914071284
 20
130.154358524166
 30
0.0
 11
-44.63145085928716
 21
130.154358524166
 31
0.0
  0
LINE
  5
10E
102
{ACAD_XDICTIONARY
360
10C
102
}
330
1F
100
AcDbEntity
  8
Main lines
100
AcDbLine
 10
-44.04860271244968
 20
137.9543585241661
 30
0.0
 11
-30.34860271244963
 21
137.9543585241661
 31
0.0
  0
ARC
  5
111
102
{ACAD_XDICTIONARY
360
10F
102
}
330
1F
100
AcDbEntity
  8
Main lines
100
AcDbCircle
 10
-44.63145085928716
 20
138.154358524166
 30
0.0
 40
8.0
100
AcDbArc
 50
180.0
 51
270.0
  0
ARC
  5
114
102
{ACAD_XDICTIONARY
360
112
102
}
330
1F
100
AcDbEntity
  8
Main lines
100
AcDbCircle
 10
-44.04860271244968
 20
138.554358524166
 30
0.0
 40
0.5
100
AcDbArc
 50
180.0
 51
270.0
  0
LINE
  5
117
102
{ACAD_XDICTIONARY
360
115
102
}
330
1F
100
AcDbEntity
  8
Main lines
100
AcDbLine
 10
-29.44860271244977
 20
137.054358524166
 30
0.0
 11
0.5513972875502304
 21
137.054358524166
 31
0.0
  0
LINE
  5
11A
102
{ACAD_XDICTIONARY
360
118
102
}
330
1F
100
AcDbEntity
  8
Main lines
100
AcDbLine
 10
-29.44860271244977
 20
137.054358524166
 30
0.0
 11
-30.34860271244963
 21
137.9543585241661
 31
0.0
  0
LINE
  5
11D
102
{ACAD_XDICTIONARY
360
11B
102
}
330
1F
100
AcDbEntity
  8
Main lines
100
AcDbLine
 10
1.451397287550321
 20
137.9543585241661
 30
0.0
 11
15.15139728755014
 21
137.9543585241661
 31
0.0
  0
LINE
  5
120
102
{ACAD_XDICTIONARY
360
11E
102
}
330
1F
100
AcDbEntity
  8
Main lines
100
AcDbLine
 10
0.5513972875502304
 20
137.054358524166
 30
0.0
 11
1.451397287550321
 21
137.9543585241661
 31
0.0
  0
ARC
  5
123
102
{ACAD_XDICTIONARY
360
121
102
}
330
1F
100
AcDbEntity
  8
Main lines
100
AcDbCircle
 10
15.15139728755014
 20
138.554358524166
 30
0.0
 40
0.5
100
AcDbArc
 50
-90.0
 51
0.0
  0
ARC
  5
126
102
{ACAD_XDICTIONARY
360
124
102
}
330
1F
100
AcDbEntity
  8
Main lines
100
AcDbCircle
 10
15.36854914071284
 20
198.154358524166
 30
0.0
 40
8.0
100
AcDbArc
 50
0.0
 51
90.0
  0
ARC
  5
129
102
{ACAD_XDICTIONARY
360
127
102
}
330
1F
100
AcDbEntity
  8
Main lines
100
AcDbCircle
 10
-44.63145085928716
 20
198.154358524166
 30
0.0
 40
8.0
100
AcDbArc
 50
90.0
 51
180.0
  0
LINE
  5
12C
102
{ACAD_XDICTIONARY
360
12A
102
}
330
1F
100
AcDbEntity
  8
Main lines
100
AcDbLine
 10
-44.14860271244982
 20
198.3543585241661
 30
0.0
 11
-30.34860271244963
 21
198.3543585241661
 31
0.0
  0
LINE
  5
12F
102
{ACAD_XDICTIONARY
360
12D
102
}
330
1F
100
AcDbEntity
  8
Main lines
100
AcDbLine
 10
-45.54860271244968
 20
153.1543585241661
 30
0.0
 11
-45.54860271244968
 21
183.1543585241661
 31
0.0
  0
LINE
  5
132
102
{ACAD_XDICTIONARY
360
130
102
}
330
1F
100
AcDbEntity
  8
Main lines
100
AcDbLine
 10
-45.54860271244968
 20
153.1543585241661
 30
0.0
 11
-44.64860271244982
 21
152.254358524166
 31
0.0
  0
LINE
  5
135
102
{ACAD_XDICTIONARY
360
133
102
}
330
1F
100
AcDbEntity
  8
Main lines
100
AcDbLine
 10
-44.64860271244982
 20
184.054358524166
 30
0.0
 11
-44.64860271244982
 21
197.8543585241661
 31
0.0
  0
LINE
  5
138
102
{ACAD_XDICTIONARY
360
136
102
}
330
1F
100
AcDbEntity
  8
Main lines
100
AcDbLine
 10
-45.54860271244968
 20
183.1543585241661
 30
0.0
 11
-44.64860271244959
 21
184.054358524166
 31
0.0
  0
ARC
  5
13B
102
{ACAD_XDICTIONARY
360
139
102
}
330
1F
100
AcDbEntity
  8
Main lines
100
AcDbCircle
 10
-44.14860271244982
 20
197.8543585241661
 30
0.0
 40
0.5
100
AcDbArc
 50
90.0
 51
180.0
  0
LINE
  5
13E
102
{ACAD_XDICTIONARY
360
13C
102
}
330
1F
100
AcDbEntity
  8
Main lines
100
AcDbLine
 10
16.65139728755037
 20
183.154358524166
 30
0.0
 11
16.65139728755037
 21
153.154358524166
 31
0.0
  0
LINE
  5
141
102
{ACAD_XDICTIONARY
360
13F
102
}
330
1F
100
AcDbEntity
  8
Main lines
100
AcDbLine
 10
16.65139728755037
 20
153.154358524166
 30
0.0
 11
15.75139728755028
 21
152.254358524166
 31
0.0
  0
LINE
  5
144
102
{ACAD_XDICTIONARY
360
142
102
}
330
1F
100
AcDbEntity
  8
Main lines
100
AcDbLine
 10
-29.44860271244977
 20
199.254358524166
 30
0.0
 11
0.5513972875502304
 21
199.254358524166
 31
0.0
  0
LINE
  5
147
102
{ACAD_XDICTIONARY
360
145
102
}
330
1F
100
AcDbEntity
  8
Main lines
100
AcDbLine
 10
-29.44860271244977
 20
199.254358524166
 30
0.0
 11
-30.34860271244963
 21
198.3543585241661
 31
0.0
  0
LINE
  5
14A
102
{ACAD_XDICTIONARY
360
148
102
}
330
1F
100
AcDbEntity
  8
Main lines
100
AcDbLine
 10
15.75139728755028
 20
184.054358524166
 30
0.0
 11
15.75139728755028
 21
197.8543585241661
 31
0.0
  0
LINE
  5
14D
102
{ACAD_XDICTIONARY
360
14B
102
}
330
1F
100
AcDbEntity
  8
Main lines
100
AcDbLine
 10
16.65139728755037
 20
183.154358524166
 30
0.0
 11
15.75139728755028
 21
184.054358524166
 31
0.0
  0
LINE
  5
150
102
{ACAD_XDICTIONARY
360
14E
102
}
330
1F
100
AcDbEntity
  8
Main lines
100
AcDbLine
 10
1.451397287550321
 20
198.3543585241661
 30
0.0
 11
15.25139728755028
 21
198.3543585241661
 31
0.0
  0
LINE
  5
153
102
{ACAD_XDICTIONARY
360
151
102
}
330
1F
100
AcDbEntity
  8
Main lines
100
AcDbLine
 10
0.5513972875502304
 20
199.254358524166
 30
0.0
 11
1.451397287550321
 21
198.3543585241661
 31
0.0
  0
ARC
  5
156
102
{ACAD_XDICTIONARY
360
154
102
}
330
1F
100
AcDbEntity
  8
Main lines
100
AcDbCircle
 10
15.25139728755028
 20
197.8543585241661
 30
0.0
 40
0.5
100
AcDbArc
 50
0.0
 51
90.0
  0
LINE
  5
159
102
{ACAD_XDICTIONARY
360
157
102
}
330
1F
100
AcDbEntity
  8
Main lines
100
AcDbLine
 10
-44.63145085928716
 20
206.154358524166
 30
0.0
 11
15.36854914071284
 21
206.154358524166
 31
0.0
  0
ARC
  5
15C
102
{ACAD_XDICTIONARY
360
15A
102
}
330
1F
100
AcDbEntity
  8
Main lines
100
AcDbCircle
 10
-2.085686700421661
 20
290.5774281931679
 30
0.0
 40
5.000000000000004
100
AcDbArc
 50
-169.9999999999988
 51
-95.851174576607
  0
ARC
  5
15F
102
{ACAD_XDICTIONARY
360
15D
102
}
330
1F
100
AcDbEntity
  8
Main lines
100
AcDbCircle
 10
-15.62279261697165
 20
288.2144937052764
 30
0.0
 40
2.000000000000001
100
AcDbArc
 50
180.0
 51
270.4730829920587
  0
ARC
  5
162
102
{ACAD_XDICTIONARY
360
160
102
}
330
1F
100
AcDbEntity
  8
Main lines
100
AcDbCircle
 10
-13.62279261697165
 20
288.2143494734295
 30
0.0
 40
1.999999999999993
100
AcDbArc
 50
-90.48134686814393
 51
0.0
  0
ARC
  5
165
102
{ACAD_XDICTIONARY
360
163
102
}
330
1F
100
AcDbEntity
  8
Main lines
100
AcDbCircle
 10
-27.1596220320622
 20
290.5792298231664
 30
0.0
 40
5.00000000000002
100
AcDbArc
 50
-84.1570591365037
 51
-9.999999999998495
  0
ARC
  5
168
102
{ACAD_XDICTIONARY
360
166
102
}
330
1F
100
AcDbEntity
  8
Main lines
100
AcDbCircle
 10
-14.63145085928716
 20
168.154358524166
 30
0.0
 40
127.5
100
AcDbArc
 50
87.3913726724708
 51
92.60073137423191
  0
LINE
  5
16B
102
{ACAD_XDICTIONARY
360
169
102
}
330
1F
100
AcDbEntity
  8
Main lines
100
AcDbLine
 10
-17.62279261697188
 20
294.5913752201217
 30
0.0
 11
-17.62279261697165
 21
288.2144937052763
 31
0.0
  0
LINE
  5
16E
102
{ACAD_XDICTIONARY
360
16C
102
}
330
1F
100
AcDbEntity
  8
Main lines
100
AcDbLine
 10
-21.35628970629068
 20
294.6977105197972
 30
0.0
 11
-22.23558326700118
 21
289.7109889348318
 31
0.0
  0
ARC
  5
171
102
{ACAD_XDICTIONARY
360
16F
102
}
330
1F
100
AcDbEntity
  8
Main lines
100
AcDbCircle
 10
-20.37148195327848
 20
294.5240623421303
 30
0.0
 40
0.9999999999999929
100
AcDbArc
 50
92.60073137423191
 51
170.0000000000014
  0
ARC
  5
174
102
{ACAD_XDICTIONARY
360
172
102
}
330
1F
100
AcDbEntity
  8
Main lines
100
AcDbCircle
 10
-18.62279261697188
 20
294.5913752201217
 30
0.0
 40
1.0
100
AcDbArc
 50
0.0
 51
91.80810275624445
  0
LINE
  5
177
102
{ACAD_XDICTIONARY
360
175
102
}
330
1F
100
AcDbEntity
  8
Main lines
100
AcDbLine
 10
-11.62279261697188
 20
294.5908273893486
 30
0.0
 11
-11.62279261697165
 21
288.2143494734296
 31
0.0
  0
LINE
  5
17A
102
{ACAD_XDICTIONARY
360
178
102
}
330
1F
100
AcDbEntity
  8
Main lines
100
AcDbLine
 10
-7.889197009613213
 20
294.6969182839307
 30
0.0
 11
-7.009725465482688
 21
289.7091873048331
 31
0.0
  0
ARC
  5
17D
102
{ACAD_XDICTIONARY
360
17B
102
}
330
1F
100
AcDbEntity
  8
Main lines
100
AcDbCircle
 10
-8.874004762625418
 20
294.5232701062637
 30
0.0
 40
1.000000000000002
100
AcDbArc
 50
10.00000000000182
 51
87.39137267247077
  0
ARC
  5
180
102
{ACAD_XDICTIONARY
360
17E
102
}
330
1F
100
AcDbEntity
  8
Main lines
100
AcDbCircle
 10
-10.62279261697188
 20
294.5908273893487
 30
0.0
 40
0.9999999999999897
100
AcDbArc
 50
88.18405014597194
 51
180.0000000000033
  0
ARC
  5
183
102
{ACAD_XDICTIONARY
360
181
102
}
330
1F
100
AcDbEntity
  8
Main lines
100
AcDbCircle
 10
-50.77273741304296
 20
282.6498878011921
 30
0.0
 40
2.000000000000012
100
AcDbArc
 50
-72.48134686814403
 51
18.00000000000388
  0
ARC
  5
186
102
{ACAD_XDICTIONARY
360
184
102
}
330
1F
100
AcDbEntity
  8
Main lines
100
AcDbCircle
 10
-52.6748950157251
 20
282.03199098508
 30
0.0
 40
2.000000000000019
100
AcDbArc
 50
-161.9999999999979
 51
-71.52691700794081
  0
ARC
  5
189
102
{ACAD_XDICTIONARY
360
187
102
}
330
1F
100
AcDbEntity
  8
Main lines
100
AcDbCircle
 10
-40.53052913536568
 20
288.4624710102354
 30
0.0
 40
5.000000000000009
100
AcDbArc
 50
-151.999999999999
 51
-77.8511745766069
  0
ARC
  5
18C
102
{ACAD_XDICTIONARY
360
18A
102
}
330
1F
100
AcDbEntity
  8
Main lines
100
AcDbCircle
 10
-14.63145085928716
 20
168.154358524166
 30
0.0
 40
127.5
100
AcDbArc
 50
105.3913726724708
 51
110.6007313742319
  0
LINE
  5
18F
102
{ACAD_XDICTIONARY
360
18D
102
}
330
1F
100
AcDbEntity
  8
Main lines
100
AcDbLine
 10
-60.13119895758558
 20
286.4261485452854
 30
0.0
 11
-59.42647511226501
 21
281.4117778336505
 31
0.0
  0
ARC
  5
192
102
{ACAD_XDICTIONARY
360
190
102
}
330
1F
100
AcDbEntity
  8
Main lines
100
AcDbCircle
 10
-59.14093088884403
 20
286.5653216462456
 30
0.0
 40
0.9999999999999956
100
AcDbArc
 50
110.6007313742319
 51
188.0000000000008
  0
LINE
  5
195
102
{ACAD_XDICTIONARY
360
193
102
}
330
1F
100
AcDbEntity
  8
Main lines
100
AcDbLine
 10
-47.32298787851332
 20
290.5869555922983
 30
0.0
 11
-44.94526709966026
 21
286.1151131963057
 31
0.0
  0
LINE
  5
198
102
{ACAD_XDICTIONARY
360
196
102
}
330
1F
100
AcDbEntity
  8
Main lines
100
AcDbLine
 10
-50.84106442072843
 20
289.332312662889
 30
0.0
 11
-48.87062438045268
 21
283.2679217899421
 31
0.0
  0
LINE
  5
19B
102
{ACAD_XDICTIONARY
360
199
102
}
330
1F
100
AcDbEntity
  8
Main lines
100
AcDbLine
 10
-56.54757280751828
 20
287.4787317146659
 30
0.0
 11
-54.57700804831538
 21
281.4139569963301
 31
0.0
  0
ARC
  5
19E
102
{ACAD_XDICTIONARY
360
19C
102
}
330
1F
100
AcDbEntity
  8
Main lines
100
AcDbCircle
 10
-48.20593547137223
 20
290.1174840295124
 30
0.0
 40
0.999999999999996
100
AcDbArc
 50
28.00000000000325
 51
105.3913726724713
  0
ARC
  5
1A1
102
{ACAD_XDICTIONARY
360
19F
102
}
330
1F
100
AcDbEntity
  8
Main lines
100
AcDbCircle
 10
-49.8900079044333
 20
289.641329657264
 30
0.0
 40
1.000000000000007
100
AcDbArc
 50
106.1840501459721
 51
198.0000000000021
  0
ARC
  5
1A4
102
{ACAD_XDICTIONARY
360
1A2
102
}
330
1F
100
AcDbEntity
  8
Main lines
100
AcDbCircle
 10
-57.49862932381342
 20
287.1697147202908
 30
0.0
 40
0.9999999999999882
100
AcDbArc
 50
18.00000000000257
 51
109.8081027562431
  0
ARC
  5
1A7
102
{ACAD_XDICTIONARY
360
1A5
102
}
330
1F
100
AcDbEntity
  8
Main lines
100
AcDbCircle
 10
-64.37781545597281
 20
280.71591232885
 30
0.0
 40
5.000000000000012
100
AcDbArc
 50
-66.15705913650368
 51
8.000000000001416
  0
ARC
  5
1AA
102
{ACAD_XDICTIONARY
360
1A8
102
}
330
1F
100
AcDbEntity
  8
Main lines
100
AcDbCircle
 10
-84.38492127008242
 20
265.8778059860589
 30
0.0
 40
2.000000000000012
100
AcDbArc
 50
-54.4813468681438
 51
36.00000000000291
  0
ARC
  5
1AD
102
{ACAD_XDICTIONARY
360
1AB
102
}
330
1F
100
AcDbEntity
  8
Main lines
100
AcDbCircle
 10
-86.00304003618484
 20
264.7023521674892
 30
0.0
 40
1.999999999999991
100
AcDbArc
 50
-143.9999999999986
 51
-53.5269170079408
  0
ARC
  5
1B0
102
{ACAD_XDICTIONARY
360
1AE
102
}
330
1F
100
AcDbEntity
  8
Main lines
100
AcDbCircle
 10
-76.44018933915812
 20
274.5709175412574
 30
0.0
 40
4.999999999999979
100
AcDbArc
 50
-133.9999999999989
 51
-59.85117457660707
  0
ARC
  5
1B3
102
{ACAD_XDICTIONARY
360
1B1
102
}
330
1F
100
AcDbEntity
  8
Main lines
100
AcDbCircle
 10
-14.63145085928717
 20
168.154358524166
 30
0.0
 40
127.5
100
AcDbArc
 50
123.3913726724708
 51
128.6007313742319
  0
LINE
  5
1B6
102
{ACAD_XDICTIONARY
360
1B4
102
}
330
1F
100
AcDbEntity
  8
Main lines
100
AcDbLine
 10
-94.45227584963312
 20
266.5773197154904
 30
0.0
 11
-92.23251787836121
 21
262.0261414196157
 31
0.0
  0
ARC
  5
1B9
102
{ACAD_XDICTIONARY
360
1B7
102
}
330
1F
100
AcDbEntity
  8
Main lines
100
AcDbCircle
 10
-93.55348180333398
 20
267.0156908622795
 30
0.0
 40
1.000000000000015
100
AcDbArc
 50
128.6007313742317
 51
206.0000000000012
  0
LINE
  5
1BC
102
{ACAD_XDICTIONARY
360
1BA
102
}
330
1F
100
AcDbEntity
  8
Main lines
100
AcDbLine
 10
-83.55670332863967
 20
274.4924372615735
 30
0.0
 11
-79.91348119145302
 21
270.9742185395639
 31
0.0
  0
LINE
  5
1BF
102
{ACAD_XDICTIONARY
360
1BD
102
}
330
1F
100
AcDbEntity
  8
Main lines
100
AcDbLine
 10
-86.51488696187862
 20
272.2120554888788
 30
0.0
 11
-82.76688728133259
 21
267.0533764906439
 31
0.0
  0
LINE
  5
1C2
102
{ACAD_XDICTIONARY
360
1C0
102
}
330
1F
100
AcDbEntity
  8
Main lines
100
AcDbLine
 10
-91.36931093497749
 20
268.6857871795295
 30
0.0
 11
-87.62107402493469
 21
263.5267816629042
 31
0.0
  0
ARC
  5
1C5
102
{ACAD_XDICTIONARY
360
1C3
102
}
330
1F
100
AcDbEntity
  8
Main lines
100
AcDbCircle
 10
-84.25136169909865
 20
273.7730974612348
 30
0.0
 40
0.9999999999999998
100
AcDbArc
 50
46.00000000000182
 51
123.3913726724695
  0
ARC
  5
1C8
102
{ACAD_XDICTIONARY
360
1C6
102
}
330
1F
100
AcDbEntity
  8
Main lines
100
AcDbCircle
 10
-85.70586996750373
 20
272.7998407411714
 30
0.0
 40
0.9999999999999829
100
AcDbArc
 50
124.184050145972
 51
216.000000000004
  0
ARC
  5
1CB
102
{ACAD_XDICTIONARY
360
1C9
102
}
330
1F
100
AcDbEntity
  8
Main lines
100
AcDbCircle
 10
-92.1783279293524
 20
268.098001927237
 30
0.0
 40
1.000000000000012
100
AcDbArc
 50
36.00000000000278
 51
127.8081027562438
  0
ARC
  5
1CE
102
{ACAD_XDICTIONARY
360
1CC
102
}
330
1F
100
AcDbEntity
  8
Main lines
100
AcDbCircle
 10
-96.72648810985697
 20
259.8342856856702
 30
0.0
 40
4.999999999999978
100
AcDbArc
 50
-48.15705913650373
 51
26.00000000000143
  0
ARC
  5
1D1
102
{ACAD_XDICTIONARY
360
1CF
102
}
330
1F
100
AcDbEntity
  8
Main lines
100
AcDbCircle
 10
-111.1691494423074
 20
239.5398722540605
 30
0.0
 40
2.000000000000005
100
AcDbArc
 50
-36.48134686814396
 51
54.00000000000342
  0
ARC
  5
1D4
102
{ACAD_XDICTIONARY
360
1D2
102
}
330
1F
100
AcDbEntity
  8
Main lines
100
AcDbCircle
 10
-112.3448366329076
 20
237.9219230426631
 30
0.0
 40
1.999999999999987
100
AcDbArc
 50
-125.9999999999985
 51
-35.52691700794168
  0
ARC
  5
1D7
102
{ACAD_XDICTIONARY
360
1D5
102
}
330
1F
100
AcDbEntity
  8
Main lines
100
AcDbCircle
 10
-106.2995795737372
 20
250.2625698279216
 30
0.0
 40
5.000000000000004
100
AcDbArc
 50
-115.9999999999988
 51
-41.85117457660704
  0
ARC
  5
1DA
102
{ACAD_XDICTIONARY
360
1D8
102
}
330
1F
100
AcDbEntity
  8
Main lines
100
AcDbCircle
 10
-14.63145085928717
 20
168.154358524166
 30
0.0
 40
127.5
100
AcDbArc
 50
141.3913726724708
 51
146.6007313742319
  0
LINE
  5
1DD
102
{ACAD_XDICTIONARY
360
1DB
102
}
330
1F
100
AcDbEntity
  8
Main lines
100
AcDbLine
 10
-120.9599342472358
 20
237.0941656911946
 30
0.0
 11
-117.4424275262039
 21
233.4516808526042
 31
0.0
  0
ARC
  5
1E0
102
{ACAD_XDICTIONARY
360
1DE
102
}
330
1F
100
AcDbEntity
  8
Main lines
100
AcDbCircle
 10
-120.2405944468972
 20
237.7888240616537
 30
0.0
 40
0.9999999999999947
100
AcDbArc
 50
146.6007313742322
 51
224.0000000000019
  0
LINE
  5
1E3
102
{ACAD_XDICTIONARY
360
1E1
102
}
330
1F
100
AcDbEntity
  8
Main lines
100
AcDbLine
 10
-113.0435348365936
 20
247.9888068830708
 30
0.0
 11
-108.4914353076825
 21
245.7685995964257
 31
0.0
  0
LINE
  5
1E6
102
{ACAD_XDICTIONARY
360
1E4
102
}
330
1F
100
AcDbEntity
  8
Main lines
100
AcDbLine
 10
-115.1522579359577
 20
244.9059059233562
 30
0.0
 11
-109.9935789377225
 21
241.1579062428105
 31
0.0
  0
LINE
  5
1E9
102
{ACAD_XDICTIONARY
360
1E7
102
}
330
1F
100
AcDbEntity
  8
Main lines
100
AcDbLine
 10
-118.679412654118
 20
240.0521259639556
 30
0.0
 11
-113.5204071374925
 21
236.3038890539132
 31
0.0
  0
ARC
  5
1EC
102
{ACAD_XDICTIONARY
360
1EA
102
}
330
1F
100
AcDbEntity
  8
Main lines
100
AcDbCircle
 10
-113.4819059833827
 20
247.0900128367716
 30
0.0
 40
1.000000000000001
100
AcDbArc
 50
64.00000000000175
 51
141.3913726724708
  0
ARC
  5
1EF
102
{ACAD_XDICTIONARY
360
1ED
102
}
330
1F
100
AcDbEntity
  8
Main lines
100
AcDbCircle
 10
-114.5644726836653
 20
245.7149229177311
 30
0.0
 40
1.00000000000001
100
AcDbArc
 50
142.1840501459725
 51
234.000000000003
  0
ARC
  5
1F2
102
{ACAD_XDICTIONARY
360
1F0
102
}
330
1F
100
AcDbEntity
  8
Main lines
100
AcDbCircle
 10
-119.2671979064104
 20
239.2431089695806
 30
0.0
 40
1.000000000000008
100
AcDbArc
 50
54.00000000000309
 51
145.8081027562451
  0
ARC
  5
1F5
102
{ACAD_XDICTIONARY
360
1F3
102
}
330
1F
100
AcDbEntity
  8
Main lines
100
AcDbCircle
 10
-121.0391265278971
 20
229.9783890003092
 30
0.0
 40
4.999999999999999
100
AcDbArc
 50
-30.15705913650372
 51
44.00000000000134
  0
ARC
  5
1F8
102
{ACAD_XDICTIONARY
360
1F6
102
}
330
1F
100
AcDbEntity
  8
Main lines
100
AcDbCircle
 10
-128.5035950595295
 20
206.2142270660598
 30
0.0
 40
2.000000000000005
100
AcDbArc
 50
-18.48134686814415
 51
72.00000000000271
  0
ARC
  5
1FB
102
{ACAD_XDICTIONARY
360
1F9
102
}
330
1F
100
AcDbEntity
  8
Main lines
100
AcDbCircle
 10
-129.1217662209172
 20
204.3121586035614
 30
0.0
 40
2.0
100
AcDbArc
 50
-107.9999999999981
 51
-17.52691700794103
  0
ARC
  5
1FE
102
{ACAD_XDICTIONARY
360
1FC
102
}
330
1F
100
AcDbEntity
  8
Main lines
100
AcDbCircle
 10
-127.1858546803373
 20
217.916898310627
 30
0.0
 40
5.000000000000004
100
AcDbArc
 50
-97.9999999999988
 51
-23.85117457660699
  0
ARC
  5
201
102
{ACAD_XDICTIONARY
360
1FF
102
}
330
1F
100
AcDbEntity
  8
Main lines
100
AcDbCircle
 10
-14.63145085928712
 20
168.154358524166
 30
0.0
 40
127.5
100
AcDbArc
 50
159.3913726724708
 51
164.6007313742319
  0
LINE
  5
204
102
{ACAD_XDICTIONARY
360
202
102
}
330
1F
100
AcDbEntity
  8
Main lines
100
AcDbLine
 10
-137.0594198567204
 20
200.8627030095095
 30
0.0
 11
-132.5884824516934
 21
198.4854634228888
 31
0.0
  0
ARC
  5
207
102
{ACAD_XDICTIONARY
360
205
102
}
330
1F
100
AcDbEntity
  8
Main lines
100
AcDbCircle
 10
-136.5899482939345
 20
201.7456506023685
 30
0.0
 40
1.0
100
AcDbArc
 50
164.6007313742325
 51
242.0000000000025
  0
LINE
  5
20A
102
{ACAD_XDICTIONARY
360
208
102
}
330
1F
100
AcDbEntity
  8
Main lines
100
AcDbLine
 10
-132.897105887541
 20
213.6704244598892
 30
0.0
 11
-127.8817201851376
 21
212.9655579669191
 31
0.0
  0
LINE
  5
20D
102
{ACAD_XDICTIONARY
360
20B
102
}
330
1F
100
AcDbEntity
  8
Main lines
100
AcDbLine
 10
-133.9499519437267
 20
210.0867801389255
 30
0.0
 11
-127.8855610707797
 21
208.1163400986501
 31
0.0
  0
LINE
  5
210
102
{ACAD_XDICTIONARY
360
20E
102
}
330
1F
100
AcDbEntity
  8
Main lines
100
AcDbLine
 10
-135.8045749280029
 20
204.3806103301735
 30
0.0
 11
-129.7398002096671
 21
202.410045570971
 31
0.0
  0
ARC
  5
213
102
{ACAD_XDICTIONARY
360
211
102
}
330
1F
100
AcDbEntity
  8
Main lines
100
AcDbCircle
 10
-133.0362789885011
 20
212.6801563911476
 30
0.0
 40
1.000000000000009
100
AcDbArc
 50
82.00000000000259
 51
159.391372672471
  0
ARC
  5
216
102
{ACAD_XDICTIONARY
360
214
102
}
330
1F
100
AcDbEntity
  8
Main lines
100
AcDbCircle
 10
-133.6409349493518
 20
211.0378366552207
 30
0.0
 40
1.000000000000001
100
AcDbArc
 50
160.1840501459714
 51
252.000000000003
  0
ARC
  5
219
102
{ACAD_XDICTIONARY
360
217
102
}
330
1F
100
AcDbEntity
  8
Main lines
100
AcDbCircle
 10
-136.1135919223779
 20
203.4295538138783
 30
0.0
 40
1.000000000000012
100
AcDbArc
 50
72.00000000000308
 51
163.808102756245
  0
ARC
  5
21C
102
{ACAD_XDICTIONARY
360
21A
102
}
330
1F
100
AcDbEntity
  8
Main lines
100
AcDbCircle
 10
-134.9358402656227
 20
194.0707254585941
 30
0.0
 40
5.000000000000015
100
AcDbArc
 50
-12.15705913650371
 51
62.00000000000164
  0
ARC
  5
21F
102
{ACAD_XDICTIONARY
360
21D
102
}
330
1F
100
AcDbEntity
  8
Main lines
100
AcDbCircle
 10
-134.6914418085506
 20
169.1630167664815
 30
0.0
 40
1.99999999999999
100
AcDbArc
 50
-0.4813468681439252
 51
90.00000000000325
  0
ARC
  5
222
102
{ACAD_XDICTIONARY
360
220
102
}
330
1F
100
AcDbEntity
  8
Main lines
100
AcDbCircle
 10
-134.6915860403975
 20
167.1630167664815
 30
0.0
 40
2.0
100
AcDbArc
 50
-90.0
 51
0.4730829920586981
  0
ARC
  5
225
102
{ACAD_XDICTIONARY
360
223
102
}
330
1F
100
AcDbEntity
  8
Main lines
100
AcDbCircle
 10
-137.054520528289
 20
180.7001226830315
 30
0.0
 40
5.000000000000005
100
AcDbArc
 50
-79.99999999999883
 51
-5.85117457660701
  0
ARC
  5
228
102
{ACAD_XDICTIONARY
360
226
102
}
330
1F
100
AcDbEntity
  8
Main lines
100
AcDbCircle
 10
-14.63145085928717
 20
168.154358524166
 30
0.0
 40
127.5
100
AcDbArc
 50
177.3913726724708
 51
182.6007313742319
  0
LINE
  5
22B
102
{ACAD_XDICTIONARY
360
229
102
}
330
1F
100
AcDbEntity
  8
Main lines
100
AcDbLine
 10
-141.1748028549183
 20
161.4295196771625
 30
0.0
 11
-136.188081269953
 21
160.550226116452
 31
0.0
  0
ARC
  5
22E
102
{ACAD_XDICTIONARY
360
22C
102
}
330
1F
100
AcDbEntity
  8
Main lines
100
AcDbCircle
 10
-141.0011546772514
 20
162.4143274301747
 30
0.0
 40
0.9999999999999911
100
AcDbArc
 50
-177.3992686257681
 51
-99.99999999999861
  0
LINE
  5
231
102
{ACAD_XDICTIONARY
360
22F
102
}
330
1F
100
AcDbEntity
  8
Main lines
100
AcDbLine
 10
-141.1740106190518
 20
174.89661237384
 30
0.0
 11
-136.1862796399543
 21
175.7760839179705
 31
0.0
  0
LINE
  5
234
102
{ACAD_XDICTIONARY
360
232
102
}
330
1F
100
AcDbEntity
  8
Main lines
100
AcDbLine
 10
-141.0679197244698
 20
171.1630167664813
 30
0.0
 11
-134.6914418085507
 21
171.1630167664815
 31
0.0
  0
LINE
  5
237
102
{ACAD_XDICTIONARY
360
235
102
}
330
1F
100
AcDbEntity
  8
Main lines
100
AcDbLine
 10
-141.0684675552429
 20
165.1630167664813
 30
0.0
 11
-134.6915860403975
 21
165.1630167664815
 31
0.0
  0
ARC
  5
23A
102
{ACAD_XDICTIONARY
360
238
102
}
330
1F
100
AcDbEntity
  8
Main lines
100
AcDbCircle
 10
-141.0003624413849
 20
173.9118046208278
 30
0.0
 40
1.000000000000003
100
AcDbArc
 50
100.0000000000018
 51
177.3913726724708
  0
ARC
  5
23D
102
{ACAD_XDICTIONARY
360
23B
102
}
330
1F
100
AcDbEntity
  8
Main lines
100
AcDbCircle
 10
-141.0679197244698
 20
172.1630167664813
 30
0.0
 40
0.999999999999987
100
AcDbArc
 50
178.1840501459719
 51
270.0000000000032
  0
ARC
  5
240
102
{ACAD_XDICTIONARY
360
23E
102
}
330
1F
100
AcDbEntity
  8
Main lines
100
AcDbCircle
 10
-141.0684675552428
 20
164.1630167664813
 30
0.0
 40
1.0
100
AcDbArc
 50
90.0
 51
181.8081027562444
  0
ARC
  5
243
102
{ACAD_XDICTIONARY
360
241
102
}
330
1F
100
AcDbEntity
  8
Main lines
100
AcDbCircle
 10
-137.0563221582875
 20
155.626187351391
 30
0.0
 40
4.999999999999996
100
AcDbArc
 50
5.84294086349632
 51
80.00000000000145
  0
ARC
  5
246
102
{ACAD_XDICTIONARY
360
244
102
}
330
1F
100
AcDbEntity
  8
Main lines
100
AcDbCircle
 10
-129.1269801363132
 20
132.0130719704103
 30
0.0
 40
1.999999999999997
100
AcDbArc
 50
17.51865313185635
 51
108.0000000000031
  0
ARC
  5
249
102
{ACAD_XDICTIONARY
360
247
102
}
330
1F
100
AcDbEntity
  8
Main lines
100
AcDbCircle
 10
-128.5090833202011
 20
130.1109143677281
 30
0.0
 40
1.999999999999995
100
AcDbArc
 50
-71.99999999999855
 51
18.47308299205903
  0
ARC
  5
24C
102
{ACAD_XDICTIONARY
360
24A
102
}
330
1F
100
AcDbEntity
  8
Main lines
100
AcDbCircle
 10
-134.9395633453565
 20
142.2552802480875
 30
0.0
 40
4.999999999999984
100
AcDbArc
 50
-61.99999999999886
 51
12.14882542339319
  0
ARC
  5
24F
102
{ACAD_XDICTIONARY
360
24D
102
}
330
1F
100
AcDbEntity
  8
Main lines
100
AcDbCircle
 10
-14.63145085928713
 20
168.154358524166
 30
0.0
 40
127.5
100
AcDbArc
 50
-164.6086273275293
 51
-159.3992686257681
  0
LINE
  5
252
102
{ACAD_XDICTIONARY
360
250
102
}
330
1F
100
AcDbEntity
  8
Main lines
100
AcDbLine
 10
-132.9032408804066
 20
122.6546104258676
 30
0.0
 11
-127.8888701687716
 21
123.3593342711882
 31
0.0
  0
ARC
  5
255
102
{ACAD_XDICTIONARY
360
253
102
}
330
1F
100
AcDbEntity
  8
Main lines
100
AcDbCircle
 10
-133.0424139813666
 20
123.6448784946092
 30
0.0
 40
0.9999999999999989
100
AcDbArc
 50
-159.3992686257682
 51
-81.99999999999918
  0
LINE
  5
258
102
{ACAD_XDICTIONARY
360
256
102
}
330
1F
100
AcDbEntity
  8
Main lines
100
AcDbLine
 10
-137.0640479274194
 20
135.4628215049399
 30
0.0
 11
-132.592205531427
 21
137.840542283793
 31
0.0
  0
LINE
  5
25B
102
{ACAD_XDICTIONARY
360
259
102
}
330
1F
100
AcDbEntity
  8
Main lines
100
AcDbLine
 10
-135.8094049980101
 20
131.9447449627248
 30
0.0
 11
-129.7450141250632
 21
133.9151850030005
 31
0.0
  0
LINE
  5
25E
102
{ACAD_XDICTIONARY
360
25C
102
}
330
1F
100
AcDbEntity
  8
Main lines
100
AcDbLine
 10
-133.955824049787
 20
126.2382365759349
 30
0.0
 11
-127.8910493314512
 21
128.2088013351378
 31
0.0
  0
ARC
  5
261
102
{ACAD_XDICTIONARY
360
25F
102
}
330
1F
100
AcDbEntity
  8
Main lines
100
AcDbCircle
 10
-136.5945763646335
 20
134.579873912081
 30
0.0
 40
1.000000000000009
100
AcDbArc
 50
118.0000000000011
 51
195.39137267247
  0
ARC
  5
264
102
{ACAD_XDICTIONARY
360
262
102
}
330
1F
100
AcDbEntity
  8
Main lines
100
AcDbCircle
 10
-136.1184219923851
 20
132.8958014790199
 30
0.0
 40
1.000000000000002
100
AcDbArc
 50
-163.8159498540284
 51
-71.99999999999586
  0
ARC
  5
267
102
{ACAD_XDICTIONARY
360
265
102
}
330
1F
100
AcDbEntity
  8
Main lines
100
AcDbCircle
 10
-133.646807055412
 20
125.2871800596398
 30
0.0
 40
0.9999999999999936
100
AcDbArc
 50
108.0000000000041
 51
199.8081027562445
  0
ARC
  5
26A
102
{ACAD_XDICTIONARY
360
268
102
}
330
1F
100
AcDbEntity
  8
Main lines
100
AcDbCircle
 10
-127.1930046639712
 20
118.4079939274804
 30
0.0
 40
4.999999999999997
100
AcDbArc
 50
23.84294086349628
 51
98.00000000000126
  0
ARC
  5
26D
102
{ACAD_XDICTIONARY
360
26B
102
}
330
1F
100
AcDbEntity
  8
Main lines
100
AcDbCircle
 10
-112.35489832118
 20
98.40088811337083
 30
0.0
 40
2.000000000000008
100
AcDbArc
 50
35.51865313185608
 51
126.0000000000033
  0
ARC
  5
270
102
{ACAD_XDICTIONARY
360
26E
102
}
330
1F
100
AcDbEntity
  8
Main lines
100
AcDbCircle
 10
-111.1794445026103
 20
96.78276934726841
 30
0.0
 40
1.999999999999999
100
AcDbArc
 50
-53.99999999999821
 51
36.47308299205871
  0
ARC
  5
273
102
{ACAD_XDICTIONARY
360
271
102
}
330
1F
100
AcDbEntity
  8
Main lines
100
AcDbCircle
 10
-121.0480098763785
 20
106.3456200442951
 30
0.0
 40
4.999999999999994
100
AcDbArc
 50
-43.9999999999988
 51
30.14882542339304
  0
ARC
  5
276
102
{ACAD_XDICTIONARY
360
274
102
}
330
1F
100
AcDbEntity
  8
Main lines
100
AcDbCircle
 10
-14.63145085928714
 20
168.154358524166
 30
0.0
 40
127.5
100
AcDbArc
 50
-146.6086273275293
 51
-141.3992686257681
  0
LINE
  5
279
102
{ACAD_XDICTIONARY
360
277
102
}
330
1F
100
AcDbEntity
  8
Main lines
100
AcDbLine
 10
-113.0544120506115
 20
88.33353353382012
 30
0.0
 11
-108.5032337547369
 21
90.55329150509203
 31
0.0
  0
ARC
  5
27C
102
{ACAD_XDICTIONARY
360
27A
102
}
330
1F
100
AcDbEntity
  8
Main lines
100
AcDbCircle
 10
-113.4927831974006
 20
89.23232758011926
 30
0.0
 40
0.9999999999999986
100
AcDbArc
 50
-141.3992686257676
 51
-63.99999999999891
  0
LINE
  5
27F
102
{ACAD_XDICTIONARY
360
27D
102
}
330
1F
100
AcDbEntity
  8
Main lines
100
AcDbLine
 10
-120.9695295966947
 20
99.22910605481357
 30
0.0
 11
-117.4513108746852
 21
102.8723281920002
 31
0.0
  0
LINE
  5
282
102
{ACAD_XDICTIONARY
360
280
102
}
330
1F
100
AcDbEntity
  8
Main lines
100
AcDbLine
 10
-118.689147824
 20
96.2709224215746
 30
0.0
 11
-113.5304688257651
 21
100.0189221021206
 31
0.0
  0
LINE
  5
285
102
{ACAD_XDICTIONARY
360
283
102
}
330
1F
100
AcDbEntity
  8
Main lines
100
AcDbLine
 10
-115.1628795146506
 20
91.41649844847575
 30
0.0
 11
-110.0038739980253
 21
95.16473535851853
 31
0.0
  0
ARC
  5
288
102
{ACAD_XDICTIONARY
360
286
102
}
330
1F
100
AcDbEntity
  8
Main lines
100
AcDbCircle
 10
-120.250189796356
 20
98.5344476843546
 30
0.0
 40
1.000000000000005
100
AcDbArc
 50
136.0000000000015
 51
213.3913726724709
  0
ARC
  5
28B
102
{ACAD_XDICTIONARY
360
289
102
}
330
1F
100
AcDbEntity
  8
Main lines
100
AcDbCircle
 10
-119.2769330762925
 20
97.07993941594953
 30
0.0
 40
1.0
100
AcDbArc
 50
-145.8159498540286
 51
-53.99999999999675
  0
ARC
  5
28E
102
{ACAD_XDICTIONARY
360
28C
102
}
330
1F
100
AcDbEntity
  8
Main lines
100
AcDbCircle
 10
-114.5750942623581
 20
90.60748145410084
 30
0.0
 40
1.000000000000001
100
AcDbArc
 50
126.0000000000033
 51
217.8081027562448
  0
ARC
  5
291
102
{ACAD_XDICTIONARY
360
28F
102
}
330
1F
100
AcDbEntity
  8
Main lines
100
AcDbCircle
 10
-106.3113780207914
 20
86.05932127359627
 30
0.0
 40
5.000000000000003
100
AcDbArc
 50
41.84294086349635
 51
116.0000000000013
  0
ARC
  5
294
102
{ACAD_XDICTIONARY
360
292
102
}
330
1F
100
AcDbEntity
  8
Main lines
100
AcDbCircle
 10
-86.01696458918168
 20
71.61665994114584
 30
0.0
 40
2.000000000000005
100
AcDbArc
 50
53.51865313185604
 51
144.0000000000034
  0
ARC
  5
297
102
{ACAD_XDICTIONARY
360
295
102
}
330
1F
100
AcDbEntity
  8
Main lines
100
AcDbCircle
 10
-84.3990153777843
 20
70.44097275054563
 30
0.0
 40
1.999999999999998
100
AcDbArc
 50
-35.99999999999829
 51
54.47308299205889
  0
ARC
  5
29A
102
{ACAD_XDICTIONARY
360
298
102
}
330
1F
100
AcDbEntity
  8
Main lines
100
AcDbCircle
 10
-96.73966216304278
 20
76.48622980971602
 30
0.0
 40
4.999999999999997
100
AcDbArc
 50
-25.99999999999877
 51
48.14882542339301
  0
ARC
  5
29D
102
{ACAD_XDICTIONARY
360
29B
102
}
330
1F
100
AcDbEntity
  8
Main lines
100
AcDbCircle
 10
-14.63145085928716
 20
168.154358524166
 30
0.0
 40
127.5
100
AcDbArc
 50
-128.6086273275293
 51
-123.3992686257681
  0
LINE
  5
2A0
102
{ACAD_XDICTIONARY
360
29E
102
}
330
1F
100
AcDbEntity
  8
Main lines
100
AcDbLine
 10
-83.57125802631582
 20
61.82587513621732
 30
0.0
 11
-79.92877318772541
 21
65.34338185724928
 31
0.0
  0
ARC
  5
2A3
102
{ACAD_XDICTIONARY
360
2A1
102
}
330
1F
100
AcDbEntity
  8
Main lines
100
AcDbCircle
 10
-84.26591639677484
 20
62.54521493655596
 30
0.0
 40
1.000000000000002
100
AcDbArc
 50
-123.3992686257685
 51
-45.99999999999896
  0
LINE
  5
2A6
102
{ACAD_XDICTIONARY
360
2A4
102
}
330
1F
100
AcDbEntity
  8
Main lines
100
AcDbLine
 10
-94.46589921819198
 20
69.74227454685953
 30
0.0
 11
-92.24569193154689
 21
74.29437407577069
 31
0.0
  0
LINE
  5
2A9
102
{ACAD_XDICTIONARY
360
2A7
102
}
330
1F
100
AcDbEntity
  8
Main lines
100
AcDbLine
 10
-91.38299825847731
 20
67.6335514474955
 30
0.0
 11
-87.63499857793165
 21
72.79223044573067
 31
0.0
  0
LINE
  5
2AC
102
{ACAD_XDICTIONARY
360
2AA
102
}
330
1F
100
AcDbEntity
  8
Main lines
100
AcDbLine
 10
-86.52921829907682
 20
64.10639672933516
 30
0.0
 11
-82.78098138903438
 21
69.2654022459607
 31
0.0
  0
ARC
  5
2AF
102
{ACAD_XDICTIONARY
360
2AD
102
}
330
1F
100
AcDbEntity
  8
Main lines
100
AcDbCircle
 10
-93.5671051718928
 20
69.30390340007051
 30
0.0
 40
1.000000000000007
100
AcDbArc
 50
154.0000000000018
 51
231.3913726724712
  0
ARC
  5
2B2
102
{ACAD_XDICTIONARY
360
2B0
102
}
330
1F
100
AcDbEntity
  8
Main lines
100
AcDbCircle
 10
-92.19201525285231
 20
68.22133669978791
 30
0.0
 40
0.9999999999999986
100
AcDbArc
 50
-127.815949854028
 51
-35.99999999999739
  0
ARC
  5
2B5
102
{ACAD_XDICTIONARY
360
2B3
102
}
330
1F
100
AcDbEntity
  8
Main lines
100
AcDbCircle
 10
-85.72020130470183
 20
63.51861147704275
 30
0.0
 40
1.000000000000007
100
AcDbArc
 50
144.0000000000027
 51
235.8081027562449
  0
ARC
  5
2B8
102
{ACAD_XDICTIONARY
360
2B6
102
}
330
1F
100
AcDbEntity
  8
Main lines
100
AcDbCircle
 10
-76.45548133543036
 20
61.74668285555613
 30
0.0
 40
4.999999999999999
100
AcDbArc
 50
59.84294086349629
 51
134.0000000000014
  0
ARC
  5
2BB
102
{ACAD_XDICTIONARY
360
2B9
102
}
330
1F
100
AcDbEntity
  8
Main lines
100
AcDbCircle
 10
-52.69131940118098
 20
54.28221432392367
 30
0.0
 40
2.000000000000003
100
AcDbArc
 50
71.51865313185598
 51
162.0000000000033
  0
ARC
  5
2BE
102
{ACAD_XDICTIONARY
360
2BC
102
}
330
1F
100
AcDbEntity
  8
Main lines
100
AcDbCircle
 10
-50.78925093868249
 20
53.66404316253593
 30
0.0
 40
1.999999999999998
100
AcDbArc
 50
-17.99999999999847
 51
72.47308299205861
  0
ARC
  5
2C1
102
{ACAD_XDICTIONARY
360
2BF
102
}
330
1F
100
AcDbEntity
  8
Main lines
100
AcDbCircle
 10
-64.39399064574816
 20
55.59995470311578
 30
0.0
 40
5.000000000000004
100
AcDbArc
 50
-7.999999999998805
 51
66.14882542339302
  0
ARC
  5
2C4
102
{ACAD_XDICTIONARY
360
2C2
102
}
330
1F
100
AcDbEntity
  8
Main lines
100
AcDbCircle
 10
-14.63145085928715
 20
168.154358524166
 30
0.0
 40
127.5
100
AcDbArc
 50
-110.6086273275292
 51
-105.3992686257681
  0
LINE
  5
2C7
102
{ACAD_XDICTIONARY
360
2C5
102
}
330
1F
100
AcDbEntity
  8
Main lines
100
AcDbLine
 10
-47.33979534463067
 20
45.72638952673276
 30
0.0
 11
-44.96255575800994
 21
50.19732693175973
 31
0.0
  0
ARC
  5
2CA
102
{ACAD_XDICTIONARY
360
2C8
102
}
330
1F
100
AcDbEntity
  8
Main lines
100
AcDbCircle
 10
-48.22274293748961
 20
46.19586108951862
 30
0.0
 40
1.000000000000002
100
AcDbArc
 50
-105.3992686257679
 51
-27.99999999999859
  0
LINE
  5
2CD
102
{ACAD_XDICTIONARY
360
2CB
102
}
330
1F
100
AcDbEntity
  8
Main lines
100
AcDbLine
 10
-60.14751679501036
 20
49.88870349591213
 30
0.0
 11
-59.44265030204031
 21
54.90408919831555
 31
0.0
  0
LINE
  5
2D0
102
{ACAD_XDICTIONARY
360
2CE
102
}
330
1F
100
AcDbEntity
  8
Main lines
100
AcDbLine
 10
-56.56387247404665
 20
48.83585743972645
 30
0.0
 11
-54.59343243377133
 21
54.90024831267345
 31
0.0
  0
LINE
  5
2D3
102
{ACAD_XDICTIONARY
360
2D1
102
}
330
1F
100
AcDbEntity
  8
Main lines
100
AcDbLine
 10
-50.85770266529465
 20
46.98123445545019
 30
0.0
 11
-48.88713790609216
 21
53.0460091737861
 31
0.0
  0
ARC
  5
2D6
102
{ACAD_XDICTIONARY
360
2D4
102
}
330
1F
100
AcDbEntity
  8
Main lines
100
AcDbCircle
 10
-59.15724872626878
 20
49.74953039495205
 30
0.0
 40
0.9999999999999967
100
AcDbArc
 50
172.0000000000017
 51
249.3913726724707
  0
ARC
  5
2D9
102
{ACAD_XDICTIONARY
360
2D7
102
}
330
1F
100
AcDbEntity
  8
Main lines
100
AcDbCircle
 10
-57.51492899034182
 20
49.14487443410133
 30
0.0
 40
0.9999999999999982
100
AcDbArc
 50
-109.8159498540282
 51
-17.9999999999968
  0
ARC
  5
2DC
102
{ACAD_XDICTIONARY
360
2DA
102
}
330
1F
100
AcDbEntity
  8
Main lines
100
AcDbCircle
 10
-49.90664614899948
 20
46.67221746107528
 30
0.0
 40
0.9999999999999969
100
AcDbArc
 50
162.0000000000032
 51
253.8081027562446
  0
ARC
  5
2DF
102
{ACAD_XDICTIONARY
360
2DD
102
}
330
1F
100
AcDbEntity
  8
Main lines
100
AcDbCircle
 10
-40.54781779371527
 20
47.84996911783037
 30
0.0
 40
5.0
100
AcDbArc
 50
77.84294086349634
 51
152.0000000000013
  0
ARC
  5
2E2
102
{ACAD_XDICTIONARY
360
2E0
102
}
330
1F
100
AcDbEntity
  8
Main lines
100
AcDbCircle
 10
-15.64010910160273
 20
48.09436757490255
 30
0.0
 40
1.999999999999998
100
AcDbArc
 50
89.51865313185608
 51
180.0000000000033
  0
ARC
  5
2E5
102
{ACAD_XDICTIONARY
360
2E3
102
}
330
1F
100
AcDbEntity
  8
Main lines
100
AcDbCircle
 10
-13.64010910160273
 20
48.09422334305566
 30
0.0
 40
2.0
100
AcDbArc
 50
0.0
 51
90.4730829920587
  0
ARC
  5
2E8
102
{ACAD_XDICTIONARY
360
2E6
102
}
330
1F
100
AcDbEntity
  8
Main lines
100
AcDbCircle
 10
-27.17721501815272
 20
45.73128885516418
 30
0.0
 40
4.999999999999999
100
AcDbArc
 50
10.00000000000127
 51
84.14882542339302
  0
ARC
  5
2EB
102
{ACAD_XDICTIONARY
360
2E9
102
}
330
1F
100
AcDbEntity
  8
Main lines
100
AcDbCircle
 10
-14.63145085928715
 20
168.154358524166
 30
0.0
 40
127.5
100
AcDbArc
 50
-92.60862732752923
 51
-87.3992686257681
  0
LINE
  5
2EE
102
{ACAD_XDICTIONARY
360
2EC
102
}
330
1F
100
AcDbEntity
  8
Main lines
100
AcDbLine
 10
-7.906612012283698
 20
41.61100652853486
 30
0.0
 11
-7.027318451573201
 21
46.59772811350018
 31
0.0
  0
ARC
  5
2F1
102
{ACAD_XDICTIONARY
360
2EF
102
}
330
1F
100
AcDbEntity
  8
Main lines
100
AcDbCircle
 10
-8.891419765295906
 20
41.78465470620176
 30
0.0
 40
0.9999999999999987
100
AcDbArc
 50
-87.39926862576809
 51
-9.999999999998554
  0
LINE
  5
2F4
102
{ACAD_XDICTIONARY
360
2F2
102
}
330
1F
100
AcDbEntity
  8
Main lines
100
AcDbLine
 10
-21.37370470896117
 20
41.61179876440133
 30
0.0
 11
-22.25317625309169
 21
46.59952974349892
 31
0.0
  0
LINE
  5
2F7
102
{ACAD_XDICTIONARY
360
2F5
102
}
330
1F
100
AcDbEntity
  8
Main lines
100
AcDbLine
 10
-17.6401091016025
 20
41.71788965898338
 30
0.0
 11
-17.64010910160273
 21
48.09436757490244
 31
0.0
  0
LINE
  5
2FA
102
{ACAD_XDICTIONARY
360
2F8
102
}
330
1F
100
AcDbEntity
  8
Main lines
100
AcDbLine
 10
-11.6401091016025
 20
41.71734182821029
 30
0.0
 11
-11.64010910160273
 21
48.09422334305572
 31
0.0
  0
ARC
  5
2FD
102
{ACAD_XDICTIONARY
360
2FB
102
}
330
1F
100
AcDbEntity
  8
Main lines
100
AcDbCircle
 10
-20.38889695594896
 20
41.7854469420683
 30
0.0
 40
1.000000000000001
100
AcDbArc
 50
-169.9999999999982
 51
-92.6086273275292
  0
ARC
  5
300
102
{ACAD_XDICTIONARY
360
2FE
102
}
330
1F
100
AcDbEntity
  8
Main lines
100
AcDbCircle
 10
-18.6401091016025
 20
41.71788965898332
 30
0.0
 40
1.000000000000001
100
AcDbArc
 50
-91.81594985402805
 51
0.0
  0
ARC
  5
303
102
{ACAD_XDICTIONARY
360
301
102
}
330
1F
100
AcDbEntity
  8
Main lines
100
AcDbCircle
 10
-10.6401091016025
 20
41.71734182821035
 30
0.0
 40
1.0
100
AcDbArc
 50
180.0
 51
271.8081027562444
  0
ARC
  5
306
102
{ACAD_XDICTIONARY
360
304
102
}
330
1F
100
AcDbEntity
  8
Main lines
100
AcDbCircle
 10
-2.103279686512176
 20
45.72948722516566
 30
0.0
 40
4.999999999999997
100
AcDbArc
 50
95.84294086349638
 51
170.0000000000013
  0
ARC
  5
309
102
{ACAD_XDICTIONARY
360
307
102
}
330
1F
100
AcDbEntity
  8
Main lines
100
AcDbCircle
 10
21.50983569446861
 20
53.65882924713996
 30
0.0
 40
2.000000000000001
100
AcDbArc
 50
107.5186531318561
 51
198.0000000000031
  0
ARC
  5
30C
102
{ACAD_XDICTIONARY
360
30A
102
}
330
1F
100
AcDbEntity
  8
Main lines
100
AcDbCircle
 10
23.41199329715073
 20
54.27672606325201
 30
0.0
 40
2.000000000000002
100
AcDbArc
 50
18.00000000000163
 51
108.4730829920587
  0
ARC
  5
30F
102
{ACAD_XDICTIONARY
360
30D
102
}
330
1F
100
AcDbEntity
  8
Main lines
100
AcDbCircle
 10
11.26762741679131
 20
47.84624603809667
 30
0.0
 40
5.000000000000003
100
AcDbArc
 50
28.0000000000012
 51
102.148825423393
  0
ARC
  5
312
102
{ACAD_XDICTIONARY
360
310
102
}
330
1F
100
AcDbEntity
  8
Main lines
100
AcDbCircle
 10
-14.63145085928715
 20
168.154358524166
 30
0.0
 40
127.5
100
AcDbArc
 50
-74.60862732752923
 51
-69.3992686257681
  0
LINE
  5
315
102
{ACAD_XDICTIONARY
360
313
102
}
330
1F
100
AcDbEntity
  8
Main lines
100
AcDbLine
 10
30.86829723901121
 20
49.88256850304657
 30
0.0
 11
30.16357339369064
 21
54.89693921468154
 31
0.0
  0
ARC
  5
318
102
{ACAD_XDICTIONARY
360
316
102
}
330
1F
100
AcDbEntity
  8
Main lines
100
AcDbCircle
 10
29.87802917026967
 20
49.74339540208649
 30
0.0
 40
0.9999999999999971
100
AcDbArc
 50
-69.39926862576804
 51
8.000000000001632
  0
LINE
  5
31B
102
{ACAD_XDICTIONARY
360
319
102
}
330
1F
100
AcDbEntity
  8
Main lines
100
AcDbLine
 10
18.06008615993895
 20
45.72176145603373
 30
0.0
 11
15.68236538108589
 21
50.19360385202617
 31
0.0
  0
LINE
  5
31E
102
{ACAD_XDICTIONARY
360
31C
102
}
330
1F
100
AcDbEntity
  8
Main lines
100
AcDbLine
 10
21.57816270215406
 20
46.97640438544306
 30
0.0
 11
19.60772266187831
 21
53.04079525839001
 31
0.0
  0
LINE
  5
321
102
{ACAD_XDICTIONARY
360
31F
102
}
330
1F
100
AcDbEntity
  8
Main lines
100
AcDbLine
 10
27.28467108894391
 20
48.82998533366617
 30
0.0
 11
25.31410632974101
 21
54.89476005200197
 31
0.0
  0
ARC
  5
324
102
{ACAD_XDICTIONARY
360
322
102
}
330
1F
100
AcDbEntity
  8
Main lines
100
AcDbCircle
 10
18.94303375279787
 20
46.19123301881967
 30
0.0
 40
1.0
100
AcDbArc
 50
-151.9999999999982
 51
-74.60862732752926
  0
ARC
  5
327
102
{ACAD_XDICTIONARY
360
325
102
}
330
1F
100
AcDbEntity
  8
Main lines
100
AcDbCircle
 10
20.62710618585894
 20
46.66738739106808
 30
0.0
 40
1.000000000000003
100
AcDbArc
 50
-73.8159498540282
 51
18.00000000000309
  0
ARC
  5
32A
102
{ACAD_XDICTIONARY
360
328
102
}
330
1F
100
AcDbEntity
  8
Main lines
100
AcDbCircle
 10
28.23572760523906
 20
49.13900232804119
 30
0.0
 40
1.000000000000003
100
AcDbArc
 50
-161.9999999999969
 51
-70.19189724375543
  0
ARC
  5
32D
102
{ACAD_XDICTIONARY
360
32B
102
}
330
1F
100
AcDbEntity
  8
Main lines
100
AcDbCircle
 10
35.11491373739845
 20
55.59280471948199
 30
0.0
 40
4.999999999999997
100
AcDbArc
 50
113.8429408634963
 51
188.0000000000014
  0
ARC
  5
330
102
{ACAD_XDICTIONARY
360
32E
102
}
330
1F
100
AcDbEntity
  8
Main lines
100
AcDbCircle
 10
55.12201955150805
 20
70.43091106227315
 30
0.0
 40
2.000000000000004
100
AcDbArc
 50
125.5186531318562
 51
216.000000000003
  0
ARC
  5
333
102
{ACAD_XDICTIONARY
360
331
102
}
330
1F
100
AcDbEntity
  8
Main lines
100
AcDbCircle
 10
56.74013831761044
 20
71.60636488084285
 30
0.0
 40
1.999999999999999
100
AcDbArc
 50
36.00000000000179
 51
126.4730829920587
  0
ARC
  5
336
102
{ACAD_XDICTIONARY
360
334
102
}
330
1F
100
AcDbEntity
  8
Main lines
100
AcDbCircle
 10
47.17728762058375
 20
61.7377995070747
 30
0.0
 40
4.999999999999996
100
AcDbArc
 50
46.00000000000123
 51
120.1488254233929
  0
ARC
  5
339
102
{ACAD_XDICTIONARY
360
337
102
}
330
1F
100
AcDbEntity
  8
Main lines
100
AcDbCircle
 10
-14.63145085928716
 20
168.154358524166
 30
0.0
 40
127.5
100
AcDbArc
 50
-56.60862732752923
 51
-51.39926862576811
  0
LINE
  5
33C
102
{ACAD_XDICTIONARY
360
33A
102
}
330
1F
100
AcDbEntity
  8
Main lines
100
AcDbLine
 10
65.18937413105876
 20
69.73139733284162
 30
0.0
 11
62.96961615978684
 21
74.2825756287163
 31
0.0
  0
ARC
  5
33F
102
{ACAD_XDICTIONARY
360
33D
102
}
330
1F
100
AcDbEntity
  8
Main lines
100
AcDbCircle
 10
64.2905800847596
 20
69.29302618605254
 30
0.0
 40
0.9999999999999986
100
AcDbArc
 50
-51.39926862576764
 51
26.0000000000011
  0
LINE
  5
342
102
{ACAD_XDICTIONARY
360
340
102
}
330
1F
100
AcDbEntity
  8
Main lines
100
AcDbLine
 10
54.2938016100653
 20
61.81627978675846
 30
0.0
 11
50.65057947287868
 21
65.33449850876798
 31
0.0
  0
LINE
  5
345
102
{ACAD_XDICTIONARY
360
343
102
}
330
1F
100
AcDbEntity
  8
Main lines
100
AcDbLine
 10
57.25198524330428
 20
64.09666155945317
 30
0.0
 11
53.50398556275825
 21
69.25534055768807
 31
0.0
  0
LINE
  5
348
102
{ACAD_XDICTIONARY
360
346
102
}
330
1F
100
AcDbEntity
  8
Main lines
100
AcDbLine
 10
62.10640921640312
 20
67.62292986880252
 30
0.0
 11
58.35817230636034
 21
72.78193538542783
 31
0.0
  0
ARC
  5
34B
102
{ACAD_XDICTIONARY
360
349
102
}
330
1F
100
AcDbEntity
  8
Main lines
100
AcDbCircle
 10
54.98845998052427
 20
62.53561958709716
 30
0.0
 40
0.9999999999999999
100
AcDbArc
 50
-133.9999999999982
 51
-56.60862732752912
  0
ARC
  5
34E
102
{ACAD_XDICTIONARY
360
34C
102
}
330
1F
100
AcDbEntity
  8
Main lines
100
AcDbCircle
 10
56.44296824892936
 20
63.50887630716068
 30
0.0
 40
0.9999999999999987
100
AcDbArc
 50
-55.81594985402801
 51
36.00000000000317
  0
ARC
  5
351
102
{ACAD_XDICTIONARY
360
34F
102
}
330
1F
100
AcDbEntity
  8
Main lines
100
AcDbCircle
 10
62.91542621077804
 20
68.21071512109508
 30
0.0
 40
1.000000000000001
100
AcDbArc
 50
-143.9999999999967
 51
-52.1918972437552
  0
ARC
  5
354
102
{ACAD_XDICTIONARY
360
352
102
}
330
1F
100
AcDbEntity
  8
Main lines
100
AcDbCircle
 10
67.4635863912826
 20
76.4744313626618
 30
0.0
 40
5.000000000000003
100
AcDbArc
 50
131.8429408634963
 51
206.0000000000013
  0
ARC
  5
357
102
{ACAD_XDICTIONARY
360
355
102
}
330
1F
100
AcDbEntity
  8
Main lines
100
AcDbCircle
 10
81.90624772373302
 20
96.76884479427143
 30
0.0
 40
2.000000000000005
100
AcDbArc
 50
143.518653131856
 51
234.0000000000034
  0
ARC
  5
35A
102
{ACAD_XDICTIONARY
360
358
102
}
330
1F
100
AcDbEntity
  8
Main lines
100
AcDbCircle
 10
83.08193491433323
 20
98.38679400566879
 30
0.0
 40
1.999999999999998
100
AcDbArc
 50
54.00000000000172
 51
144.4730829920586
  0
ARC
  5
35D
102
{ACAD_XDICTIONARY
360
35B
102
}
330
1F
100
AcDbEntity
  8
Main lines
100
AcDbCircle
 10
77.03667785516282
 20
86.04614722041033
 30
0.0
 40
5.000000000000004
100
AcDbArc
 50
64.0000000000011
 51
138.1488254233929
  0
ARC
  5
360
102
{ACAD_XDICTIONARY
360
35E
102
}
330
1F
100
AcDbEntity
  8
Main lines
100
AcDbCircle
 10
-14.63145085928711
 20
168.154358524166
 30
0.0
 40
127.5
100
AcDbArc
 50
-38.60862732752923
 51
-33.39926862576817
  0
LINE
  5
363
102
{ACAD_XDICTIONARY
360
361
102
}
330
1F
100
AcDbEntity
  8
Main lines
100
AcDbLine
 10
91.69703252866151
 20
99.21455135713728
 30
0.0
 11
88.17952580762957
 21
102.8570361957277
 31
0.0
  0
ARC
  5
366
102
{ACAD_XDICTIONARY
360
364
102
}
330
1F
100
AcDbEntity
  8
Main lines
100
AcDbCircle
 10
90.97769272832288
 20
98.51989298667826
 30
0.0
 40
1.000000000000002
100
AcDbArc
 50
-33.39926862576848
 51
44.00000000000133
  0
LINE
  5
369
102
{ACAD_XDICTIONARY
360
367
102
}
330
1F
100
AcDbEntity
  8
Main lines
100
AcDbLine
 10
83.78063311801927
 20
88.31991016526112
 30
0.0
 11
79.22853358910814
 21
90.54011745190624
 31
0.0
  0
LINE
  5
36C
102
{ACAD_XDICTIONARY
360
36A
102
}
330
1F
100
AcDbEntity
  8
Main lines
100
AcDbLine
 10
85.88935621738335
 20
91.40281112497578
 30
0.0
 11
80.73067721914816
 21
95.15081080552147
 31
0.0
  0
LINE
  5
36F
102
{ACAD_XDICTIONARY
360
36D
102
}
330
1F
100
AcDbEntity
  8
Main lines
100
AcDbLine
 10
89.41651093554364
 20
96.25659108437631
 30
0.0
 11
84.2575054189181
 21
100.0048279944187
 31
0.0
  0
ARC
  5
372
102
{ACAD_XDICTIONARY
360
370
102
}
330
1F
100
AcDbEntity
  8
Main lines
100
AcDbCircle
 10
84.21900426480833
 20
89.2187042115603
 30
0.0
 40
0.9999999999999943
100
AcDbArc
 50
-115.9999999999985
 51
-38.60862732752885
  0
ARC
  5
375
102
{ACAD_XDICTIONARY
360
373
102
}
330
1F
100
AcDbEntity
  8
Main lines
100
AcDbCircle
 10
85.30157096509093
 20
90.5937941306008
 30
0.0
 40
0.9999999999999986
100
AcDbArc
 50
-37.81594985402803
 51
54.00000000000261
  0
ARC
  5
378
102
{ACAD_XDICTIONARY
360
376
102
}
330
1F
100
AcDbEntity
  8
Main lines
100
AcDbCircle
 10
90.00429618783609
 20
97.06560807875125
 30
0.0
 40
1.000000000000008
100
AcDbArc
 50
-125.9999999999969
 51
-34.19189724375489
  0
ARC
  5
37B
102
{ACAD_XDICTIONARY
360
379
102
}
330
1F
100
AcDbEntity
  8
Main lines
100
AcDbCircle
 10
91.7762248093227
 20
106.3303280480227
 30
0.0
 40
4.999999999999999
100
AcDbArc
 50
149.8429408634963
 51
224.0000000000012
  0
ARC
  5
37E
102
{ACAD_XDICTIONARY
360
37C
102
}
330
1F
100
AcDbEntity
  8
Main lines
100
AcDbCircle
 10
99.24069334095509
 20
130.0944899822721
 30
0.0
 40
2.000000000000005
100
AcDbArc
 50
161.5186531318558
 51
252.0000000000027
  0
ARC
  5
381
102
{ACAD_XDICTIONARY
360
37F
102
}
330
1F
100
AcDbEntity
  8
Main lines
100
AcDbCircle
 10
99.85886450234283
 20
131.9965584447706
 30
0.0
 40
2.000000000000002
100
AcDbArc
 50
72.00000000000158
 51
162.4730829920589
  0
ARC
  5
384
102
{ACAD_XDICTIONARY
360
382
102
}
330
1F
100
AcDbEntity
  8
Main lines
100
AcDbCircle
 10
97.92295296176297
 20
118.391818737705
 30
0.0
 40
5.000000000000004
100
AcDbArc
 50
82.0000000000012
 51
156.148825423393
  0
ARC
  5
387
102
{ACAD_XDICTIONARY
360
385
102
}
330
1F
100
AcDbEntity
  8
Main lines
100
AcDbCircle
 10
-14.63145085928719
 20
168.154358524166
 30
0.0
 40
127.5
100
AcDbArc
 50
-20.60862732752929
 51
-15.39926862576815
  0
LINE
  5
38A
102
{ACAD_XDICTIONARY
360
388
102
}
330
1F
100
AcDbEntity
  8
Main lines
100
AcDbLine
 10
107.796518138146
 20
135.4460140388224
 30
0.0
 11
103.3255807331191
 21
137.8232536254432
 31
0.0
  0
ARC
  5
38D
102
{ACAD_XDICTIONARY
360
38B
102
}
330
1F
100
AcDbEntity
  8
Main lines
100
AcDbCircle
 10
107.3270465753602
 20
134.5630664459635
 30
0.0
 40
1.0
100
AcDbArc
 50
-15.3992686257675
 51
62.00000000000104
  0
LINE
  5
390
102
{ACAD_XDICTIONARY
360
38E
102
}
330
1F
100
AcDbEntity
  8
Main lines
100
AcDbLine
 10
103.6342041689667
 20
122.6382925884427
 30
0.0
 11
98.61881846656325
 21
123.3431590814128
 31
0.0
  0
LINE
  5
393
102
{ACAD_XDICTIONARY
360
391
102
}
330
1F
100
AcDbEntity
  8
Main lines
100
AcDbLine
 10
104.6870502251523
 20
126.2219369094065
 30
0.0
 11
98.62265935220535
 21
128.1923769496818
 31
0.0
  0
LINE
  5
396
102
{ACAD_XDICTIONARY
360
394
102
}
330
1F
100
AcDbEntity
  8
Main lines
100
AcDbLine
 10
106.5416732094286
 20
131.9281067181585
 30
0.0
 11
100.4768984910927
 21
133.8986714773609
 31
0.0
  0
ARC
  5
399
102
{ACAD_XDICTIONARY
360
397
102
}
330
1F
100
AcDbEntity
  8
Main lines
100
AcDbCircle
 10
103.7733772699267
 20
123.6285606571843
 30
0.0
 40
0.9999999999999967
100
AcDbArc
 50
-97.99999999999834
 51
-20.60862732752933
  0
ARC
  5
39C
102
{ACAD_XDICTIONARY
360
39A
102
}
330
1F
100
AcDbEntity
  8
Main lines
100
AcDbCircle
 10
104.3780332307774
 20
125.2708803931113
 30
0.0
 40
0.9999999999999958
100
AcDbArc
 50
-19.81594985402781
 51
72.00000000000283
  0
ARC
  5
39F
102
{ACAD_XDICTIONARY
360
39D
102
}
330
1F
100
AcDbEntity
  8
Main lines
100
AcDbCircle
 10
106.8506902038035
 20
132.8791632344536
 30
0.0
 40
1.000000000000006
100
AcDbArc
 50
-107.9999999999972
 51
-16.19189724375455
  0
ARC
  5
3A2
102
{ACAD_XDICTIONARY
360
3A0
102
}
330
1F
100
AcDbEntity
  8
Main lines
100
AcDbCircle
 10
105.6729385470484
 20
142.2379915897378
 30
0.0
 40
4.999999999999988
100
AcDbArc
 50
167.8429408634962
 51
242.0000000000013
  0
ARC
  5
3A5
102
{ACAD_XDICTIONARY
360
3A3
102
}
330
1F
100
AcDbEntity
  8
Main lines
100
AcDbCircle
 10
105.4285400899763
 20
167.1457002818504
 30
0.0
 40
1.99999999999999
100
AcDbArc
 50
179.5186531318561
 51
270.0000000000032
  0
ARC
  5
3A8
102
{ACAD_XDICTIONARY
360
3A6
102
}
330
1F
100
AcDbEntity
  8
Main lines
100
AcDbCircle
 10
105.4286843218232
 20
169.1457002818504
 30
0.0
 40
2.0
100
AcDbArc
 50
90.0
 51
180.4730829920587
  0
ARC
  5
3AB
102
{ACAD_XDICTIONARY
360
3A9
102
}
330
1F
100
AcDbEntity
  8
Main lines
100
AcDbCircle
 10
107.7916188097147
 20
155.6085943653004
 30
0.0
 40
5.000000000000005
100
AcDbArc
 50
100.0000000000012
 51
174.148825423393
  0
ARC
  5
3AE
102
{ACAD_XDICTIONARY
360
3AC
102
}
330
1F
100
AcDbEntity
  8
Main lines
100
AcDbCircle
 10
-14.63145085928718
 20
168.154358524166
 30
0.0
 40
127.5
100
AcDbArc
 50
-2.608627327529292
 51
2.600731374231843
  0
LINE
  5
3B1
102
{ACAD_XDICTIONARY
360
3AF
102
}
330
1F
100
AcDbEntity
  8
Main lines
100
AcDbLine
 10
111.911901136344
 20
174.8791973711694
 30
0.0
 11
106.9251795513786
 21
175.7584909318799
 31
0.0
  0
ARC
  5
3B4
102
{ACAD_XDICTIONARY
360
3B2
102
}
330
1F
100
AcDbEntity
  8
Main lines
100
AcDbCircle
 10
111.7382529586771
 20
173.8943896181572
 30
0.0
 40
0.9999999999999911
100
AcDbArc
 50
2.60073137423193
 51
80.00000000000139
  0
LINE
  5
3B7
102
{ACAD_XDICTIONARY
360
3B5
102
}
330
1F
100
AcDbEntity
  8
Main lines
100
AcDbLine
 10
111.9111089004775
 20
161.4121046744919
 30
0.0
 11
106.9233779213799
 21
160.5326331303614
 31
0.0
  0
LINE
  5
3BA
102
{ACAD_XDICTIONARY
360
3B8
102
}
330
1F
100
AcDbEntity
  8
Main lines
100
AcDbLine
 10
111.8050180058954
 20
165.1457002818506
 30
0.0
 11
105.4285400899764
 21
165.1457002818504
 31
0.0
  0
LINE
  5
3BD
102
{ACAD_XDICTIONARY
360
3BB
102
}
330
1F
100
AcDbEntity
  8
Main lines
100
AcDbLine
 10
111.8055658366685
 20
171.1457002818506
 30
0.0
 11
105.4286843218231
 21
171.1457002818504
 31
0.0
  0
ARC
  5
3C0
102
{ACAD_XDICTIONARY
360
3BE
102
}
330
1F
100
AcDbEntity
  8
Main lines
100
AcDbCircle
 10
111.7374607228105
 20
162.3969124275041
 30
0.0
 40
1.000000000000003
100
AcDbArc
 50
-79.9999999999982
 51
-2.60862732752921
  0
ARC
  5
3C3
102
{ACAD_XDICTIONARY
360
3C1
102
}
330
1F
100
AcDbEntity
  8
Main lines
100
AcDbCircle
 10
111.8050180058955
 20
164.1457002818506
 30
0.0
 40
0.999999999999987
100
AcDbArc
 50
-1.815949854028077
 51
90.00000000000325
  0
ARC
  5
3C6
102
{ACAD_XDICTIONARY
360
3C4
102
}
330
1F
100
AcDbEntity
  8
Main lines
100
AcDbCircle
 10
111.8055658366685
 20
172.1457002818506
 30
0.0
 40
1.0
100
AcDbArc
 50
-90.0
 51
1.808102756244431
  0
ARC
  5
3C9
102
{ACAD_XDICTIONARY
360
3C7
102
}
330
1F
100
AcDbEntity
  8
Main lines
100
AcDbCircle
 10
107.7934204397132
 20
180.6825296969409
 30
0.0
 40
4.999999999999996
100
AcDbArc
 50
-174.1570591365037
 51
-99.99999999999872
  0
ARC
  5
3CC
102
{ACAD_XDICTIONARY
360
3CA
102
}
330
1F
100
AcDbEntity
  8
Main lines
100
AcDbCircle
 10
99.86407841773888
 20
204.2956450779217
 30
0.0
 40
1.999999999999997
100
AcDbArc
 50
-162.4813468681436
 51
-71.9999999999969
  0
ARC
  5
3CF
102
{ACAD_XDICTIONARY
360
3CD
102
}
330
1F
100
AcDbEntity
  8
Main lines
100
AcDbCircle
 10
99.24618160162683
 20
206.1978026806038
 30
0.0
 40
1.999999999999995
100
AcDbArc
 50
108.0000000000014
 51
198.473082992059
  0
ARC
  5
3D2
102
{ACAD_XDICTIONARY
360
3D0
102
}
330
1F
100
AcDbEntity
  8
Main lines
100
AcDbCircle
 10
105.6766616267822
 20
194.0534368002444
 30
0.0
 40
4.999999999999994
100
AcDbArc
 50
118.0000000000012
 51
192.1488254233929
  0
ARC
  5
3D5
102
{ACAD_XDICTIONARY
360
3D3
102
}
330
1F
100
AcDbEntity
  8
Main lines
100
AcDbCircle
 10
-14.63145085928717
 20
168.154358524166
 30
0.0
 40
127.5
100
AcDbArc
 50
15.39137267247073
 51
20.60073137423186
  0
LINE
  5
3D8
102
{ACAD_XDICTIONARY
360
3D6
102
}
330
1F
100
AcDbEntity
  8
Main lines
100
AcDbLine
 10
103.6403391618323
 20
213.6541066224643
 30
0.0
 11
98.62596845019729
 21
212.9493827771437
 31
0.0
  0
ARC
  5
3DB
102
{ACAD_XDICTIONARY
360
3D9
102
}
330
1F
100
AcDbEntity
  8
Main lines
100
AcDbCircle
 10
103.7795122627924
 20
212.6638385537228
 30
0.0
 40
0.9999999999999948
100
AcDbArc
 50
20.6007313742327
 51
98.00000000000169
  0
LINE
  5
3DE
102
{ACAD_XDICTIONARY
360
3DC
102
}
330
1F
100
AcDbEntity
  8
Main lines
100
AcDbLine
 10
107.8011462088451
 20
200.845895543392
 30
0.0
 11
103.3293038128527
 21
198.468174764539
 31
0.0
  0
LINE
  5
3E1
102
{ACAD_XDICTIONARY
360
3DF
102
}
330
1F
100
AcDbEntity
  8
Main lines
100
AcDbLine
 10
106.5465032794358
 20
204.3639720856072
 30
0.0
 11
100.4821124064889
 21
202.3935320453314
 31
0.0
  0
LINE
  5
3E4
102
{ACAD_XDICTIONARY
360
3E2
102
}
330
1F
100
AcDbEntity
  8
Main lines
100
AcDbLine
 10
104.6929223312127
 20
210.070480472397
 30
0.0
 11
98.62814761287692
 21
208.0999157131941
 31
0.0
  0
ARC
  5
3E7
102
{ACAD_XDICTIONARY
360
3E5
102
}
330
1F
100
AcDbEntity
  8
Main lines
100
AcDbCircle
 10
107.3316746460592
 20
201.7288431362509
 30
0.0
 40
1.000000000000003
100
AcDbArc
 50
-61.99999999999859
 51
15.39137267246986
  0
ARC
  5
3EA
102
{ACAD_XDICTIONARY
360
3E8
102
}
330
1F
100
AcDbEntity
  8
Main lines
100
AcDbCircle
 10
106.8555202738108
 20
203.412915569312
 30
0.0
 40
1.000000000000002
100
AcDbArc
 50
16.18405014597159
 51
108.0000000000034
  0
ARC
  5
3ED
102
{ACAD_XDICTIONARY
360
3EB
102
}
330
1F
100
AcDbEntity
  8
Main lines
100
AcDbCircle
 10
104.3839053368377
 20
211.0215369886922
 30
0.0
 40
0.9999999999999981
100
AcDbArc
 50
-71.99999999999679
 51
19.80810275624545
  0
ARC
  5
3F0
102
{ACAD_XDICTIONARY
360
3EE
102
}
330
1F
100
AcDbEntity
  8
Main lines
100
AcDbCircle
 10
97.93010294539687
 20
217.9007231208516
 30
0.0
 40
5.000000000000004
100
AcDbArc
 50
-156.1570591365039
 51
-81.99999999999874
  0
ARC
  5
3F3
102
{ACAD_XDICTIONARY
360
3F1
102
}
330
1F
100
AcDbEntity
  8
Main lines
100
AcDbCircle
 10
83.09199660260573
 20
237.9078289349612
 30
0.0
 40
1.999999999999999
100
AcDbArc
 50
-144.4813468681442
 51
-53.99999999999675
  0
ARC
  5
3F6
102
{ACAD_XDICTIONARY
360
3F4
102
}
330
1F
100
AcDbEntity
  8
Main lines
100
AcDbCircle
 10
81.91654278403607
 20
239.5259477010636
 30
0.0
 40
1.999999999999995
100
AcDbArc
 50
126.0000000000017
 51
216.4730829920585
  0
ARC
  5
3F9
102
{ACAD_XDICTIONARY
360
3F7
102
}
330
1F
100
AcDbEntity
  8
Main lines
100
AcDbCircle
 10
91.78510815780422
 20
229.9630970040369
 30
0.0
 40
5.000000000000013
100
AcDbArc
 50
136.0000000000012
 51
210.148825423393
  0
ARC
  5
3FC
102
{ACAD_XDICTIONARY
360
3FA
102
}
330
1F
100
AcDbEntity
  8
Main lines
100
AcDbCircle
 10
-14.63145085928714
 20
168.154358524166
 30
0.0
 40
127.5
100
AcDbArc
 50
33.39137267247072
 51
38.60073137423181
  0
LINE
  5
3FF
102
{ACAD_XDICTIONARY
360
3FD
102
}
330
1F
100
AcDbEntity
  8
Main lines
100
AcDbLine
 10
83.79151033203729
 20
247.9751835145119
 30
0.0
 11
79.24033203616261
 21
245.75542554324
 31
0.0
  0
ARC
  5
402
102
{ACAD_XDICTIONARY
360
400
102
}
330
1F
100
AcDbEntity
  8
Main lines
100
AcDbCircle
 10
84.22988147882636
 20
247.0763894682127
 30
0.0
 40
0.9999999999999986
100
AcDbArc
 50
38.60073137423236
 51
116.0000000000015
  0
LINE
  5
405
102
{ACAD_XDICTIONARY
360
403
102
}
330
1F
100
AcDbEntity
  8
Main lines
100
AcDbLine
 10
91.70662787812043
 20
237.0796109935184
 30
0.0
 11
88.18840915611091
 21
233.4363888563318
 31
0.0
  0
LINE
  5
408
102
{ACAD_XDICTIONARY
360
406
102
}
330
1F
100
AcDbEntity
  8
Main lines
100
AcDbLine
 10
89.42624610542575
 20
240.0377946267574
 30
0.0
 11
84.26756710719081
 21
236.2897949462113
 31
0.0
  0
LINE
  5
40B
102
{ACAD_XDICTIONARY
360
409
102
}
330
1F
100
AcDbEntity
  8
Main lines
100
AcDbLine
 10
85.89997779607637
 20
244.8922185998562
 30
0.0
 11
80.74097227945111
 21
241.1439816898134
 31
0.0
  0
ARC
  5
40E
102
{ACAD_XDICTIONARY
360
40C
102
}
330
1F
100
AcDbEntity
  8
Main lines
100
AcDbCircle
 10
90.98728807778176
 20
237.7742693639774
 30
0.0
 40
0.9999999999999949
100
AcDbArc
 50
-43.99999999999788
 51
33.39137267247089
  0
ARC
  5
411
102
{ACAD_XDICTIONARY
360
40F
102
}
330
1F
100
AcDbEntity
  8
Main lines
100
AcDbCircle
 10
90.01403135771822
 20
239.2287776323825
 30
0.0
 40
1.0
100
AcDbArc
 50
34.18405014597144
 51
126.0000000000028
  0
ARC
  5
414
102
{ACAD_XDICTIONARY
360
412
102
}
330
1F
100
AcDbEntity
  8
Main lines
100
AcDbCircle
 10
85.31219254378382
 20
245.7012355942312
 30
0.0
 40
1.000000000000006
100
AcDbArc
 50
-53.99999999999691
 51
37.80810275624399
  0
ARC
  5
417
102
{ACAD_XDICTIONARY
360
415
102
}
330
1F
100
AcDbEntity
  8
Main lines
100
AcDbCircle
 10
77.0484763022171
 20
250.2493957747357
 30
0.0
 40
5.000000000000007
100
AcDbArc
 50
-138.1570591365037
 51
-63.9999999999985
  0
ARC
  5
41A
102
{ACAD_XDICTIONARY
360
418
102
}
330
1F
100
AcDbEntity
  8
Main lines
100
AcDbCircle
 10
56.7540628706074
 20
264.6920571071862
 30
0.0
 40
1.999999999999973
100
AcDbArc
 50
-126.4813468681439
 51
-35.99999999999783
  0
ARC
  5
41D
102
{ACAD_XDICTIONARY
360
41B
102
}
330
1F
100
AcDbEntity
  8
Main lines
100
AcDbCircle
 10
55.13611365921001
 20
265.8677442977864
 30
0.0
 40
2.000000000000004
100
AcDbArc
 50
144.0000000000009
 51
234.4730829920587
  0
ARC
  5
420
102
{ACAD_XDICTIONARY
360
41E
102
}
330
1F
100
AcDbEntity
  8
Main lines
100
AcDbCircle
 10
67.4767604444685
 20
259.822487238616
 30
0.0
 40
5.00000000000002
100
AcDbArc
 50
154.000000000001
 51
228.148825423393
  0
ARC
  5
423
102
{ACAD_XDICTIONARY
360
421
102
}
330
1F
100
AcDbEntity
  8
Main lines
100
AcDbCircle
 10
-14.63145085928717
 20
168.154358524166
 30
0.0
 40
127.5
100
AcDbArc
 50
51.39137267247074
 51
56.60073137423183
  0
LINE
  5
426
102
{ACAD_XDICTIONARY
360
424
102
}
330
1F
100
AcDbEntity
  8
Main lines
100
AcDbLine
 10
54.30835630774158
 20
274.4828419121147
 30
0.0
 11
50.66587146915114
 21
270.9653351910828
 31
0.0
  0
ARC
  5
429
102
{ACAD_XDICTIONARY
360
427
102
}
330
1F
100
AcDbEntity
  8
Main lines
100
AcDbCircle
 10
55.00301467820057
 20
273.763502111776
 30
0.0
 40
1.000000000000006
100
AcDbArc
 50
56.60073137423132
 51
134.000000000003
  0
LINE
  5
42C
102
{ACAD_XDICTIONARY
360
42A
102
}
330
1F
100
AcDbEntity
  8
Main lines
100
AcDbLine
 10
65.20299749961774
 20
266.5664425014725
 30
0.0
 11
62.98279021297262
 21
262.0143429725613
 31
0.0
  0
LINE
  5
42F
102
{ACAD_XDICTIONARY
360
42D
102
}
330
1F
100
AcDbEntity
  8
Main lines
100
AcDbLine
 10
62.12009653990307
 20
268.6751656008365
 30
0.0
 11
58.37209685935738
 21
263.5164866026013
 31
0.0
  0
LINE
  5
432
102
{ACAD_XDICTIONARY
360
430
102
}
330
1F
100
AcDbEntity
  8
Main lines
100
AcDbLine
 10
57.26631658050255
 20
272.2023203189968
 30
0.0
 11
53.51807967046011
 21
267.0433148023712
 31
0.0
  0
ARC
  5
435
102
{ACAD_XDICTIONARY
360
433
102
}
330
1F
100
AcDbEntity
  8
Main lines
100
AcDbCircle
 10
64.30420345331854
 20
267.0048136482615
 30
0.0
 40
1.000000000000013
100
AcDbArc
 50
-25.9999999999979
 51
51.39137267247067
  0
ARC
  5
438
102
{ACAD_XDICTIONARY
360
436
102
}
330
1F
100
AcDbEntity
  8
Main lines
100
AcDbCircle
 10
62.92911353427803
 20
268.0873803485441
 30
0.0
 40
1.00000000000002
100
AcDbArc
 50
52.18405014597143
 51
144.0000000000055
  0
ARC
  5
43B
102
{ACAD_XDICTIONARY
360
439
102
}
330
1F
100
AcDbEntity
  8
Main lines
100
AcDbCircle
 10
56.45729958612756
 20
272.7901055712892
 30
0.0
 40
0.9999999999999934
100
AcDbArc
 50
-35.99999999999571
 51
55.80810275624476
  0
ARC
  5
43E
102
{ACAD_XDICTIONARY
360
43C
102
}
330
1F
100
AcDbEntity
  8
Main lines
100
AcDbCircle
 10
47.19257961685609
 20
274.5620341927759
 30
0.0
 40
5.000000000000016
100
AcDbArc
 50
-120.1570591365037
 51
-45.9999999999987
  0
ARC
  5
441
102
{ACAD_XDICTIONARY
360
43F
102
}
330
1F
100
AcDbEntity
  8
Main lines
100
AcDbCircle
 10
23.42841768260674
 20
282.0265027244083
 30
0.0
 40
2.000000000000009
100
AcDbArc
 50
-108.481346868144
 51
-17.99999999999707
  0
ARC
  5
444
102
{ACAD_XDICTIONARY
360
442
102
}
330
1F
100
AcDbEntity
  8
Main lines
100
AcDbCircle
 10
21.52634922010824
 20
282.6446738857961
 30
0.0
 40
1.999999999999992
100
AcDbArc
 50
162.000000000001
 51
252.4730829920584
  0
ARC
  5
447
102
{ACAD_XDICTIONARY
360
445
102
}
330
1F
100
AcDbEntity
  8
Main lines
100
AcDbCircle
 10
35.13108892717393
 20
280.7087623452161
 30
0.0
 40
4.999999999999982
100
AcDbArc
 50
172.0000000000012
 51
246.1488254233931
  0
ARC
  5
44A
102
{ACAD_XDICTIONARY
360
448
102
}
330
1F
100
AcDbEntity
  8
Main lines
100
AcDbCircle
 10
-14.63145085928716
 20
168.154358524166
 30
0.0
 40
127.5
100
AcDbArc
 50
69.39137267247074
 51
74.60073137423184
  0
LINE
  5
44D
102
{ACAD_XDICTIONARY
360
44B
102
}
330
1F
100
AcDbEntity
  8
Main lines
100
AcDbLine
 10
18.07689362605644
 20
290.5823275215992
 30
0.0
 11
15.69965403943569
 21
286.1113901165722
 31
0.0
  0
ARC
  5
450
102
{ACAD_XDICTIONARY
360
44E
102
}
330
1F
100
AcDbEntity
  8
Main lines
100
AcDbCircle
 10
18.95984121891537
 20
290.1128559588134
 30
0.0
 40
0.9999999999999847
100
AcDbArc
 50
74.60073137423161
 51
151.9999999999999
  0
LINE
  5
453
102
{ACAD_XDICTIONARY
360
451
102
}
330
1F
100
AcDbEntity
  8
Main lines
100
AcDbLine
 10
30.88461507643611
 20
286.4200135524198
 30
0.0
 11
30.17974858346606
 21
281.4046278500164
 31
0.0
  0
LINE
  5
456
102
{ACAD_XDICTIONARY
360
454
102
}
330
1F
100
AcDbEntity
  8
Main lines
100
AcDbLine
 10
27.30097075547241
 20
287.4728596086055
 30
0.0
 11
25.33053071519708
 21
281.4084687356585
 31
0.0
  0
LINE
  5
459
102
{ACAD_XDICTIONARY
360
457
102
}
330
1F
100
AcDbEntity
  8
Main lines
100
AcDbLine
 10
21.5948009467204
 20
289.3274825928818
 30
0.0
 11
19.62423618751793
 21
283.2627078745459
 31
0.0
  0
ARC
  5
45C
102
{ACAD_XDICTIONARY
360
45A
102
}
330
1F
100
AcDbEntity
  8
Main lines
100
AcDbCircle
 10
29.89434700769454
 20
286.5591866533799
 30
0.0
 40
0.9999999999999858
100
AcDbArc
 50
-7.999999999997646
 51
69.39137267247096
  0
ARC
  5
45F
102
{ACAD_XDICTIONARY
360
45D
102
}
330
1F
100
AcDbEntity
  8
Main lines
100
AcDbCircle
 10
28.25202727176758
 20
287.1638426142306
 30
0.0
 40
1.000000000000015
100
AcDbArc
 50
70.18405014597225
 51
162.0000000000049
  0
ARC
  5
462
102
{ACAD_XDICTIONARY
360
460
102
}
330
1F
100
AcDbEntity
  8
Main lines
100
AcDbCircle
 10
20.64374443042524
 20
289.6364995872567
 30
0.0
 40
1.000000000000002
100
AcDbArc
 50
-17.99999999999539
 51
73.80810275624438
  0
ARC
  5
465
102
{ACAD_XDICTIONARY
360
463
102
}
330
1F
100
AcDbEntity
  8
Main lines
100
AcDbCircle
 10
11.28491607514103
 20
288.4587479305016
 30
0.0
 40
4.999999999999986
100
AcDbArc
 50
-102.1570591365037
 51
-27.99999999999892
  0
LINE
  5
468
102
{ACAD_XDICTIONARY
360
466
102
}
330
1F
100
AcDbEntity
  8
Main lines
100
AcDbLine
 10
252.3853008763541
 20
40.49169539289687
 30
0.0
 11
257.3853008763541
 21
40.49169539289687
 31
0.0
  0
LINE
  5
46B
102
{ACAD_XDICTIONARY
360
469
102
}
330
1F
100
AcDbEntity
  8
Main lines
100
AcDbLine
 10
253.3853008763541
 20
40.49169539289693
 30
0.0
 11
256.3853008763541
 21
40.49169539289693
 31
0.0
  0
LINE
  5
46E
102
{ACAD_XDICTIONARY
360
46C
102
}
330
1F
100
AcDbEntity
  8
Main lines
100
AcDbLine
 10
254.8853008763541
 20
40.49169539289693
 30
0.0
 11
252.3853008763541
 21
40.49169539289687
 31
0.0
  0
LINE
  5
471
102
{ACAD_XDICTIONARY
360
46F
102
}
330
1F
100
AcDbEntity
  8
Main lines
100
AcDbLine
 10
253.3853008763541
 20
40.49169539289693
 30
0.0
 11
256.3853008763541
 21
40.49169539289693
 31
0.0
  0
LINE
  5
474
102
{ACAD_XDICTIONARY
360
472
102
}
330
1F
100
AcDbEntity
  8
Main lines
100
AcDbLine
 10
258.3853008763541
 20
40.49169539289693
 30
0.0
 11
251.3853008763541
 21
40.4916953928969
 31
0.0
  0
LINE
  5
477
102
{ACAD_XDICTIONARY
360
475
102
}
330
1F
100
AcDbEntity
  8
Main lines
100
AcDbLine
 10
250.3853008763541
 20
41.4916953928969
 30
0.0
 11
250.3853008763541
 21
48.13060648650002
 31
0.0
  0
LINE
  5
47A
102
{ACAD_XDICTIONARY
360
478
102
}
330
1F
100
AcDbEntity
  8
Main lines
100
AcDbLine
 10
252.3853008763541
 20
41.49169539289693
 30
0.0
 11
252.3853008763541
 21
48.08906447973207
 31
0.0
  0
LINE
  5
47D
102
{ACAD_XDICTIONARY
360
47B
102
}
330
1F
100
AcDbEntity
  8
Main lines
100
AcDbLine
 10
252.3853008763541
 20
41.49169539289693
 30
0.0
 11
252.3853008763541
 21
48.05331439289685
 31
0.0
  0
LINE
  5
480
102
{ACAD_XDICTIONARY
360
47E
102
}
330
1F
100
AcDbEntity
  8
Main lines
100
AcDbLine
 10
252.3853008763541
 20
48.13060648650002
 30
0.0
 11
252.3853008763541
 21
41.49169539289693
 31
0.0
  0
ARC
  5
483
102
{ACAD_XDICTIONARY
360
481
102
}
330
1F
100
AcDbEntity
  8
Main lines
100
AcDbCircle
 10
251.3853008763541
 20
41.4916953928969
 30
0.0
 40
1.0
100
AcDbArc
 50
180.0
 51
270.0
  0
ARC
  5
486
102
{ACAD_XDICTIONARY
360
484
102
}
330
1F
100
AcDbEntity
  8
Main lines
100
AcDbCircle
 10
253.3853008763541
 20
41.49169539289693
 30
0.0
 40
1.0
100
AcDbArc
 50
180.0
 51
270.0
  0
LINE
  5
489
102
{ACAD_XDICTIONARY
360
487
102
}
330
1F
100
AcDbEntity
  8
Main lines
100
AcDbLine
 10
259.3853008763541
 20
41.49169539289693
 30
0.0
 11
259.3853008763541
 21
48.13060648650003
 31
0.0
  0
LINE
  5
48C
102
{ACAD_XDICTIONARY
360
48A
102
}
330
1F
100
AcDbEntity
  8
Main lines
100
AcDbLine
 10
257.3853008763541
 20
41.49169539289693
 30
0.0
 11
257.3853008763542
 21
48.08906447973209
 31
0.0
  0
LINE
  5
48F
102
{ACAD_XDICTIONARY
360
48D
102
}
330
1F
100
AcDbEntity
  8
Main lines
100
AcDbLine
 10
257.3853008763541
 20
41.49169539289693
 30
0.0
 11
257.3853008763541
 21
48.13060648650003
 31
0.0
  0
ARC
  5
492
102
{ACAD_XDICTIONARY
360
490
102
}
330
1F
100
AcDbEntity
  8
Main lines
100
AcDbCircle
 10
258.3853008763541
 20
41.49169539289693
 30
0.0
 40
1.0
100
AcDbArc
 50
-90.0
 51
0.0
  0
ARC
  5
495
102
{ACAD_XDICTIONARY
360
493
102
}
330
1F
100
AcDbEntity
  8
Main lines
100
AcDbCircle
 10
256.3853008763541
 20
41.49169539289693
 30
0.0
 40
1.0
100
AcDbArc
 50
-90.0
 51
0.0
  0
LINE
  5
498
102
{ACAD_XDICTIONARY
360
496
102
}
330
1F
100
AcDbEntity
  8
Main lines
100
AcDbLine
 10
258.4085642668775
 20
295.7283174732457
 30
0.0
 11
251.4085642668775
 21
295.7283174732457
 31
0.0
  0
LINE
  5
49B
102
{ACAD_XDICTIONARY
360
499
102
}
330
1F
100
AcDbEntity
  8
Main lines
100
AcDbLine
 10
253.4085642668775
 20
295.7283174732457
 30
0.0
 11
256.4085642668775
 21
295.7283174732457
 31
0.0
  0
LINE
  5
49E
102
{ACAD_XDICTIONARY
360
49C
102
}
330
1F
100
AcDbEntity
  8
Main lines
100
AcDbLine
 10
254.9085642668775
 20
295.7283174732457
 30
0.0
 11
252.4085642668775
 21
295.7283174732457
 31
0.0
  0
LINE
  5
4A1
102
{ACAD_XDICTIONARY
360
49F
102
}
330
1F
100
AcDbEntity
  8
Main lines
100
AcDbLine
 10
253.4085642668775
 20
295.7283174732457
 30
0.0
 11
256.4085642668775
 21
295.7283174732457
 31
0.0
  0
LINE
  5
4A4
102
{ACAD_XDICTIONARY
360
4A2
102
}
330
1F
100
AcDbEntity
  8
Main lines
100
AcDbLine
 10
252.4085642668775
 20
295.7283174732457
 30
0.0
 11
257.4085642668775
 21
295.7283174732457
 31
0.0
  0
LINE
  5
4A7
102
{ACAD_XDICTIONARY
360
4A5
102
}
330
1F
100
AcDbEntity
  8
Main lines
100
AcDbLine
 10
252.4085642668775
 20
288.1666984732458
 30
0.0
 11
252.4085642668775
 21
294.7283174732457
 31
0.0
  0
LINE
  5
4AA
102
{ACAD_XDICTIONARY
360
4A8
102
}
330
1F
100
AcDbEntity
  8
Main lines
100
AcDbLine
 10
252.4085642668775
 20
294.7283174732457
 30
0.0
 11
252.4085642668775
 21
288.1666984732458
 31
0.0
  0
LINE
  5
4AD
102
{ACAD_XDICTIONARY
360
4AB
102
}
330
1F
100
AcDbEntity
  8
Main lines
100
AcDbLine
 10
252.4085642668775
 20
294.7283174732457
 30
0.0
 11
252.4085642668775
 21
288.1781105618243
 31
0.0
  0
LINE
  5
4B0
102
{ACAD_XDICTIONARY
360
4AE
102
}
330
1F
100
AcDbEntity
  8
Main lines
100
AcDbLine
 10
250.4085642668775
 20
294.7283174732457
 30
0.0
 11
250.4085642668775
 21
288.1781105618244
 31
0.0
  0
ARC
  5
4B3
102
{ACAD_XDICTIONARY
360
4B1
102
}
330
1F
100
AcDbEntity
  8
Main lines
100
AcDbCircle
 10
253.4085642668775
 20
294.7283174732457
 30
0.0
 40
1.0
100
AcDbArc
 50
90.0
 51
180.0
  0
ARC
  5
4B6
102
{ACAD_XDICTIONARY
360
4B4
102
}
330
1F
100
AcDbEntity
  8
Main lines
100
AcDbCircle
 10
251.4085642668775
 20
294.7283174732457
 30
0.0
 40
1.0
100
AcDbArc
 50
90.0
 51
180.0
  0
LINE
  5
4B9
102
{ACAD_XDICTIONARY
360
4B7
102
}
330
1F
100
AcDbEntity
  8
Main lines
100
AcDbLine
 10
257.4085642668775
 20
294.7283174732457
 30
0.0
 11
257.4085642668775
 21
288.1666984732457
 31
0.0
  0
LINE
  5
4BC
102
{ACAD_XDICTIONARY
360
4BA
102
}
330
1F
100
AcDbEntity
  8
Main lines
100
AcDbLine
 10
257.4085642668775
 20
294.7283174732457
 30
0.0
 11
257.4085642668776
 21
288.1781105618243
 31
0.0
  0
LINE
  5
4BF
102
{ACAD_XDICTIONARY
360
4BD
102
}
330
1F
100
AcDbEntity
  8
Main lines
100
AcDbLine
 10
259.4085642668775
 20
294.7283174732457
 30
0.0
 11
259.4085642668775
 21
288.1781105618244
 31
0.0
  0
ARC
  5
4C2
102
{ACAD_XDICTIONARY
360
4C0
102
}
330
1F
100
AcDbEntity
  8
Main lines
100
AcDbCircle
 10
256.4085642668775
 20
294.7283174732457
 30
0.0
 40
1.0
100
AcDbArc
 50
0.0
 51
90.0
  0
ARC
  5
4C5
102
{ACAD_XDICTIONARY
360
4C3
102
}
330
1F
100
AcDbEntity
  8
Main lines
100
AcDbCircle
 10
258.4085642668775
 20
294.7283174732457
 30
0.0
 40
1.0
100
AcDbArc
 50
0.0
 51
90.0
  0
LINE
  5
4C8
102
{ACAD_XDICTIONARY
360
4C6
102
}
330
1F
100
AcDbEntity
  8
Main lines
100
AcDbLine
 10
237.8088706066274
 20
286.1781105618244
 30
0.0
 11
250.4085642668775
 21
286.1781105618243
 31
0.0
  0
LINE
  5
4CB
102
{ACAD_XDICTIONARY
360
4C9
102
}
330
1F
100
AcDbEntity
  8
Main lines
100
AcDbLine
 10
272.9085642668774
 20
286.1781105618244
 30
0.0
 11
259.4085642668776
 21
286.1781105618244
 31
0.0
  0
ARC
  5
4CE
102
{ACAD_XDICTIONARY
360
4CC
102
}
330
1F
100
AcDbEntity
  8
Main lines
100
AcDbCircle
 10
248.4085642668775
 20
288.1781105618244
 30
0.0
 40
2.0
100
AcDbArc
 50
-90.0
 51
0.0
  0
ARC
  5
4D1
102
{ACAD_XDICTIONARY
360
4CF
102
}
330
1F
100
AcDbEntity
  8
Main lines
100
AcDbCircle
 10
250.4085642668775
 20
288.1781105618243
 30
0.0
 40
2.0
100
AcDbArc
 50
-90.0
 51
0.0
  0
ARC
  5
4D4
102
{ACAD_XDICTIONARY
360
4D2
102
}
330
1F
100
AcDbEntity
  8
Main lines
100
AcDbCircle
 10
259.4085642668776
 20
288.1781105618244
 30
0.0
 40
2.0
100
AcDbArc
 50
180.0
 51
270.0
  0
ARC
  5
4D7
102
{ACAD_XDICTIONARY
360
4D5
102
}
330
1F
100
AcDbEntity
  8
Main lines
100
AcDbCircle
 10
261.4085642668775
 20
288.1781105618244
 30
0.0
 40
2.0
100
AcDbArc
 50
180.0
 51
270.0
  0
ARC
  5
4DA
102
{ACAD_XDICTIONARY
360
4D8
102
}
330
1F
100
AcDbEntity
  8
Main lines
100
AcDbCircle
 10
259.4085642668776
 20
288.1781105618244
 30
0.0
 40
2.0
100
AcDbArc
 50
180.0
 51
270.0
  0
LINE
  5
4DD
102
{ACAD_XDICTIONARY
360
4DB
102
}
330
1F
100
AcDbEntity
  8
Main lines
100
AcDbLine
 10
236.8853008763542
 20
50.13060648650003
 30
0.0
 11
250.3853008763541
 21
50.13060648650002
 31
0.0
  0
ARC
  5
4E0
102
{ACAD_XDICTIONARY
360
4DE
102
}
330
1F
100
AcDbEntity
  8
Main lines
100
AcDbCircle
 10
248.3853008763541
 20
48.13060648650002
 30
0.0
 40
2.0
100
AcDbArc
 50
0.0
 51
90.0
  0
ARC
  5
4E3
102
{ACAD_XDICTIONARY
360
4E1
102
}
330
1F
100
AcDbEntity
  8
Main lines
100
AcDbCircle
 10
250.3853008763541
 20
48.13060648650002
 30
0.0
 40
2.0
100
AcDbArc
 50
0.0
 51
90.0
  0
ARC
  5
4E6
102
{ACAD_XDICTIONARY
360
4E4
102
}
330
1F
100
AcDbEntity
  8
Main lines
100
AcDbCircle
 10
261.3853008763541
 20
48.13060648650003
 30
0.0
 40
2.0
100
AcDbArc
 50
90.0
 51
180.0
  0
ARC
  5
4E9
102
{ACAD_XDICTIONARY
360
4E7
102
}
330
1F
100
AcDbEntity
  8
Main lines
100
AcDbCircle
 10
259.3853008763541
 20
48.13060648650003
 30
0.0
 40
2.0
100
AcDbArc
 50
90.0
 51
180.0
  0
HATCH
  5
4EA
330
1F
100
AcDbEntity
  8
Main lines
  6
Durchgehend
100
AcDbHatch
 10
0.0
 20
0.0
 30
0.0
210
0.0
220
0.0
230
1.0
  2
ANSI31
 70
     0
 71
     0
 91
        2
 92
        3
 72
     0
 73
     1
 93
      118
 10
254.8853008763542
 20
127.4543585241662
 10
234.892801066932
 20
127.4543585241662
 10
234.892263057786
 20
122.1543591489992
 10
234.9018737086095
 20
121.9583238522367
 10
234.9306529045682
 20
121.7641745280916
 10
234.9783234861607
 20
121.5737809414437
 10
235.0444263594416
 20
121.388976687353
 10
235.1283249173482
 20
121.2115415325296
 10
235.2292111705781
 20
121.0431842752008
 10
235.3461135289699
 20
120.8855262884433
 10
235.4779061584522
 20
120.7400859054674
 10
235.6233198234451
 20
120.608263797233
 10
235.7809541102977
 20
120.4913294832166
 10
235.9492909140426
 20
120.3904091052399
 10
236.1267090585826
 20
120.3064745821043
 10
236.3114999095087
 20
120.2403342494773
 10
236.5018838291907
 20
120.1926250751754
 10
236.6960273156666
 20
120.1638065248134
 10
236.8920606602769
 20
120.1541561368972
 10
246.8913303862486
 20
120.1531442747683
 10
247.4139699281652
 20
120.1257008636912
 10
247.9308777783998
 20
120.043777082332
 10
248.4363905863753
 20
119.9082705047829
 10
248.9249698479821
 20
119.7206657694641
 10
249.3912625865884
 20
119.4830183131146
 10
249.8301600013719
 20
119.1979318509971
 10
250.236853440411
 20
118.8685298500486
 10
250.6068870852816
 20
118.4984213075235
 10
250.936206769936
 20
118.0916612100637
 10
251.2212043989945
 20
117.6527061064171
 10
251.4587574787936
 20
117.1863652805566
 10
251.6462633280797
 20
116.6977480601582
 10
251.78166759353
 20
116.1922078377385
 10
251.8634867576771
 20
115.6752834177653
 10
251.8908243926368
 20
115.1526383323573
 10
251.8853008251534
 20
60.56848151848871
 10
251.8578609432284
 20
60.04587552264482
 10
251.7759476651714
 20
59.52900011319879
 10
251.6404583344758
 20
59.02351755634871
 10
251.4528772095206
 20
58.53496531188291
 10
251.2152592038184
 20
58.06869537142121
 10
250.9302073748511
 20
57.62981562842267
 10
250.6008444080985
 20
57.22313392223968
 10
250.2307784086461
 20
56.85310536920436
 10
249.8240633751203
 20
56.52378355772488
 10
249.3851547889475
 20
56.23877614203927
 10
248.9188608054511
 20
56.00120532108863
 10
248.430289581477
 20
55.81367363545534
 10
247.9247933165616
 20
55.67823545705425
 10
247.4079096206623
 20
55.5963744839013
 10
246.8853008507537
 20
55.56898748650011
 10
236.8853008763543
 20
55.56898748650016
 10
236.6892665956951
 20
55.55935693984456
 10
236.495120232322
 20
55.53055804730663
 10
236.3047315218453
 20
55.48286815796459
 10
236.1199340116241
 20
55.41674655152274
 10
235.9425074027022
 20
55.33283001519688
 10
235.774160410315
 20
55.23192671110527
 10
235.616514308027
 20
55.11500839322565
 10
235.4710873139811
 20
54.98320104887327
 10
235.3392799696288
 20
54.83777405482746
 10
235.2223616517491
 20
54.68012795253938
 10
235.1214583476575
 20
54.51178096015217
 10
235.0375418113317
 20
54.33435435123035
 10
234.9714202048898
 20
54.14955684100909
 10
234.9237303155478
 20
53.95916813053243
 10
234.8949314230098
 20
53.76502176715929
 10
234.8853008763542
 20
53.56898748650016
 10
234.8853008763542
 20
52.13060648650003
 10
234.8962570856177
 20
51.92154955996472
 10
234.9290056748866
 20
51.71478310486451
 10
234.9831878437639
 20
51.51257249775013
 10
235.058209961069
 20
51.31713320034843
 10
235.1532500687854
 20
51.13060648650003
 10
235.2672668876043
 20
50.95503598191508
 10
235.3990112253994
 20
50.79234527378231
 10
235.5470396636365
 20
50.64431683554524
 10
235.7097303717693
 20
50.51257249775013
 10
235.8853008763542
 20
50.39855567893115
 10
236.0718275902026
 20
50.30351557121482
 10
236.2672668876043
 20
50.22849345390972
 10
236.4694774947187
 20
50.17431128503242
 10
236.6762439498189
 20
50.14156269576348
 10
236.8853008763542
 20
50.13060648650003
 10
250.3853008763541
 20
50.13060648650002
 10
250.5943578028894
 20
50.11965027723657
 10
250.8011242579896
 20
50.08690168796763
 10
251.003334865104
 20
50.03271951909033
 10
251.1987741625057
 20
49.95769740178523
 10
251.3853008763541
 20
49.8626572940689
 10
251.5608713809391
 20
49.74864047524991
 10
251.7235620890718
 20
49.61689613745481
 10
251.8715905273089
 20
49.46886769921774
 10
252.003334865104
 20
49.30617699108497
 10
252.117351683923
 20
49.13060648650002
 10
252.2123917916393
 20
48.94407977265162
 10
252.2874139089444
 20
48.74864047524991
 10
252.3415960778217
 20
48.54642986813554
 10
252.3743446670907
 20
48.33966341303532
 10
252.3853008763541
 20
48.13060648650002
 10
252.3853008763541
 20
41.49169539289693
 10
252.3901161496819
 20
41.39367825256737
 10
252.4045155959509
 20
41.29660507088079
 10
252.4283605406219
 20
41.20141071564246
 10
252.4614213438428
 20
41.10901196053183
 10
252.5033796120057
 20
41.02029865607092
 10
252.5538312640516
 20
40.93612515987731
 10
252.6122904229914
 20
40.85730210873326
 10
252.6781940951676
 20
40.78458861171036
 10
252.7509075921905
 20
40.71868493953417
 10
252.8297306433345
 20
40.66022578059436
 10
252.9139041395281
 20
40.60977412854855
 10
253.002617443989
 20
40.56781586038561
 10
253.0950161990996
 20
40.53475505716469
 10
253.190210554338
 20
40.51091011249367
 10
253.2872837360245
 20
40.4965106662247
 10
253.3853008763541
 20
40.4916953928969
 10
254.8853008763541
 20
40.49169539289691
 97
        0
 92
        3
 72
     0
 73
     1
 93
      120
 10
274.8927759215976
 20
126.7185499239565
 10
274.8928503807208
 20
127.4543585241662
 10
254.8853008763541
 20
127.4543585241662
 10
254.8853008763541
 20
40.49169539289692
 10
256.3853008763541
 20
40.49169539289692
 10
256.4898293396217
 20
40.49717349752865
 10
256.5932125671719
 20
40.51354779216312
 10
256.694317870729
 20
40.54063887660177
 10
256.7920375194299
 20
40.57814993525432
 10
256.8853008763541
 20
40.62566998911248
 10
256.9730861286466
 20
40.68267839852197
 10
257.054431482713
 20
40.74855056741953
 10
257.1284457018315
 20
40.82256478653807
 10
257.194317870729
 20
40.90391014060445
 10
257.2513262801385
 20
40.99169539289692
 10
257.2988463339967
 20
41.08495874982112
 10
257.3363573926492
 20
41.18267839852197
 10
257.3634484770879
 20
41.28378370207916
 10
257.3798227717224
 20
41.38716692962927
 10
257.3853008763541
 20
41.49169539289692
 10
257.3853008763541
 20
48.13060648650003
 10
257.3949314230097
 20
48.32664076715915
 10
257.4237303155476
 20
48.52078713053228
 10
257.4714202048897
 20
48.71117584100895
 10
257.5375418113316
 20
48.89597335123021
 10
257.6214583476574
 20
49.07339996015202
 10
257.722361651749
 20
49.24174695253923
 10
257.8392799696286
 20
49.39939305482732
 10
257.971087313981
 20
49.54482004887313
 10
258.1165143080268
 20
49.6766273932255
 10
258.2741604103149
 20
49.79354571110512
 10
258.4425074027021
 20
49.89444901519674
 10
258.6199340116239
 20
49.97836555152261
 10
258.8047315218452
 20
50.04448715796445
 10
258.9951202323218
 20
50.09217704730649
 10
259.189266595695
 20
50.12097593984443
 10
259.3853008763541
 20
50.13060648650004
 10
267.8947101708495
 20
50.1306064865
 10
272.8853008763541
 20
50.13060648650003
 10
273.0943578028894
 20
50.14156269576348
 10
273.3011242579896
 20
50.17431128503242
 10
273.503334865104
 20
50.22849345390972
 10
273.6987741625057
 20
50.30351557121482
 10
273.8853008763541
 20
50.39855567893115
 10
274.060871380939
 20
50.51257249775013
 10
274.2235620890718
 20
50.64431683554524
 10
274.3715905273089
 20
50.79234527378231
 10
274.503334865104
 20
50.95503598191508
 10
274.617351683923
 20
51.13060648650003
 10
274.7123917916393
 20
51.31713320034843
 10
274.7874139089444
 20
51.51257249775013
 10
274.8415960778217
 20
51.71478310486451
 10
274.8743446670907
 20
51.92154955996472
 10
274.8853008763541
 20
52.13060648650003
 10
274.885300876354
 20
53.56898748650032
 10
274.8743446670905
 20
53.77804441303562
 10
274.8415960778216
 20
53.98481086813581
 10
274.7874139089442
 20
54.18702147525018
 10
274.7123917916392
 20
54.38246077265187
 10
274.6173516839228
 20
54.56898748650025
 10
274.5033348651039
 20
54.74455799108518
 10
274.3715905273087
 20
54.90724869921794
 10
274.2235620890717
 20
55.05527713745499
 10
274.0608713809389
 20
55.18702147525009
 10
273.8853008763539
 20
55.30103829406906
 10
273.6987741625056
 20
55.39607840178538
 10
273.5033348651039
 20
55.47110051909048
 10
273.3011242579895
 20
55.52528268796777
 10
273.0943578028893
 20
55.55803127723671
 10
272.885300876354
 20
55.56898748650016
 10
262.8853009019546
 20
55.56898748650011
 10
262.3951837295892
 20
55.59306695283475
 10
261.9097872612047
 20
55.66507342355909
 10
261.4337867319687
 20
55.78431334771804
 10
260.9717668773689
 20
55.9496382318158
 10
260.5281777740191
 20
56.15945570186
 10
260.1072919774716
 20
56.41174484076812
 10
259.7131633698739
 20
56.70407565340935
 10
259.3495881138413
 20
57.0336324717991
 10
259.0200680886287
 20
57.39724107501184
 10
258.7277771607778
 20
57.79139926259956
 10
258.4755306141113
 20
58.21231058703884
 10
258.2657580335207
 20
58.655920920303
 10
258.1004799037228
 20
59.11795750235783
 10
257.9812881483826
 20
59.59397009547413
 10
257.9093307970441
 20
60.0793738479676
 10
257.885300927555
 20
60.56949345451148
 10
257.8908243311961
 20
115.1520311707467
 10
257.9149502912494
 20
115.642114433511
 10
257.9869966381503
 20
116.1274730537995
 10
258.1062695261936
 20
116.603432762775
 10
258.2716202922662
 20
117.0654098082538
 10
258.481456518101
 20
117.5089550987457
 10
258.7337573661349
 20
117.9297970506369
 10
259.0260930412798
 20
118.3238827258748
 10
259.3556481911771
 20
118.6874168639778
 10
259.7192490195801
 20
119.0168984324681
 10
260.1133938517468
 20
119.3091543437282
 10
260.534286857482
 20
119.5613700135692
 10
260.977874607057
 20
119.7711164672154
 10
261.4398851079536
 20
119.9363737316593
 10
261.9158689464875
 20
120.0555502891053
 10
262.4012421380944
 20
120.1274984041568
 10
262.8913302736072
 20
120.151525177135
 10
272.8921112680542
 20
120.1505131620754
 10
273.1008864687811
 20
120.1614185383341
 10
273.3073826980525
 20
120.1940577626903
 10
273.5093436742168
 20
120.2480742025639
 10
273.7045626700789
 20
120.322877647167
 10
273.8909066247107
 20
120.417650756444
 10
274.0663394503486
 20
120.5313579917398
 10
274.2289442797112
 20
120.6627569306162
 10
274.3769444106561
 20
120.8104118421842
 10
274.5087227193208
 20
120.9727093746218
 10
274.6228393296312
 20
121.1478761834674
 10
274.7180473461119
 20
121.333998308073
 10
274.7933064780929
 20
121.5290420845011
 10
274.8477944064491
 20
121.7308763663596
 10
274.8809157686724
 20
121.9372958107788
 10
274.8923086641017
 20
122.1460449750972
 97
        0
 75
     0
 76
     1
 52
0.0
 41
1.0
 77
     0
 78
     1
 53
45.0
 43
0.0
 44
0.0
 45
-2.245064030267288
 46
2.245064030267288
 79
     1
 49
1.0
 98
        0
  0
HATCH
  5
4EB
330
1F
100
AcDbEntity
  8
Main lines
  6
Durchgehend
100
AcDbHatch
 10
0.0
 20
0.0
 30
0.0
210
0.0
220
0.0
230
1.0
  2
ANSI31
 70
     0
 71
     0
 91
        2
 92
        3
 72
     0
 73
     1
 93
      118
 10
254.9085642668775
 20
295.7283174732457
 10
253.4085642668776
 20
295.7283174732457
 10
253.3040358036099
 20
295.722839368614
 10
253.2006525760598
 20
295.7064650739795
 10
253.0995472725026
 20
295.6793739895409
 10
253.0018276238018
 20
295.6418629308884
 10
252.9085642668776
 20
295.5943428770302
 10
252.8207790145851
 20
295.5373344676207
 10
252.7394336605187
 20
295.4714622987231
 10
252.6654194414002
 20
295.3974480796046
 10
252.5995472725026
 20
295.3161027255382
 10
252.5425388630931
 20
295.2283174732457
 10
252.4950188092349
 20
295.1350541163216
 10
252.4575077505824
 20
295.0373344676207
 10
252.4304166661437
 20
294.9362291640635
 10
252.4140423715093
 20
294.8328459365134
 10
252.4085642668775
 20
294.7283174732457
 10
252.4085642668775
 20
288.1781105618243
 10
252.3976080576141
 20
287.969053635289
 10
252.3648594683451
 20
287.7622871801888
 10
252.3106772994678
 20
287.5600765730744
 10
252.2356551821627
 20
287.3646372756727
 10
252.1406150744464
 20
287.1781105618243
 10
252.0265982556274
 20
287.0025400572394
 10
251.8948539178323
 20
286.8398493491066
 10
251.7468254795953
 20
286.6918209108695
 10
251.5841347714625
 20
286.5600765730744
 10
251.4085642668775
 20
286.4460597542554
 10
251.2220375530291
 20
286.3510196465391
 10
251.0265982556274
 20
286.275997529234
 10
250.824387648513
 20
286.2218153603567
 10
250.6176211934128
 20
286.1890667710878
 10
250.4085642668775
 20
286.1781105618243
 10
237.8088706066274
 20
286.1781105618244
 10
236.9085642668774
 20
286.1781105618243
 10
236.6995073403421
 20
286.1671543525609
 10
236.4927408852419
 20
286.1344057632919
 10
236.2905302781276
 20
286.0802235944146
 10
236.0950909807259
 20
286.0052014771095
 10
235.9085642668775
 20
285.9101613693932
 10
235.7329937622925
 20
285.7961445505742
 10
235.5703030541598
 20
285.6644002127791
 10
235.4222746159227
 20
285.516371774542
 10
235.2905302781276
 20
285.3536810664093
 10
235.1765134593086
 20
285.1781105618243
 10
235.0814733515923
 20
284.9915838479759
 10
235.0064512342872
 20
284.7961445505742
 10
234.9522690654099
 20
284.5939339434598
 10
234.919520476141
 20
284.3871674883596
 10
234.9085642668775
 20
284.1781105618243
 10
234.9085642668775
 20
282.7397295618243
 10
234.919520476141
 20
282.530672635289
 10
234.9522690654099
 20
282.3239061801888
 10
235.0064512342872
 20
282.1216955730744
 10
235.0814733515923
 20
281.9262562756727
 10
235.1765134593087
 20
281.7397295618243
 10
235.2905302781276
 20
281.5641590572394
 10
235.4222746159227
 20
281.4014683491066
 10
235.5703030541598
 20
281.2534399108695
 10
235.7329937622926
 20
281.1216955730744
 10
235.9085642668775
 20
281.0076787542554
 10
236.0950909807259
 20
280.9126386465391
 10
236.2905302781276
 20
280.837616529234
 10
236.492740885242
 20
280.7834343603567
 10
236.6995073403422
 20
280.7506857710877
 10
236.9085642668775
 20
280.7397295618243
 10
246.9085642668774
 20
280.7397295618243
 10
247.3987129099403
 20
280.715646995595
 10
247.8841399381397
 20
280.6436312849057
 10
248.3601692200532
 20
280.5243761590053
 10
248.8222151529972
 20
280.3590304056807
 10
249.2658268362594
 20
280.1491868049541
 10
249.6867309467428
 20
279.8968667857905
 10
250.0808729040007
 20
279.6045009536187
 10
250.4444559281174
 20
279.2749056762454
 10
250.7739776141895
 20
278.911255953709
 10
251.0662636710856
 20
278.5170548334205
 10
251.3184984994764
 20
278.0960996652146
 10
251.5282523145779
 20
277.6524455213785
 10
251.6935045523324
 20
277.1903661340328
 10
251.812663333556
 20
276.7143127261573
 10
251.8845807985523
 20
276.2288711328414
 10
251.9085641644759
 20
275.7387176258137
 10
251.9030404024298
 20
221.152638133515
 10
251.8789144423765
 20
220.6625548707507
 10
251.8068680954756
 20
220.1771962504622
 10
251.6875952074323
 20
219.7012365414867
 10
251.5222444413597
 20
219.2392594960079
 10
251.3124082155249
 20
218.795714205516
 10
251.060107367491
 20
218.3748722536249
 10
250.7677716923461
 20
217.980786578387
 10
250.4382165424488
 20
217.6172524402839
 10
250.0746157140458
 20
217.2877708717936
 10
249.6804708818791
 20
216.9955149605336
 10
249.2595778761439
 20
216.7432992906926
 10
248.8159901265689
 20
216.5335528370463
 10
248.3539796256724
 20
216.3682955726024
 10
247.8779957871385
 20
216.2491190151564
 10
247.3926225955315
 20
216.1771709001049
 10
246.9025344600188
 20
216.1531441271267
 10
236.9018044624748
 20
216.1541561370257
 10
236.6927464704226
 20
216.1432210874636
 10
236.4859767431585
 20
216.1104934349816
 10
236.2837606921688
 20
216.0563317504443
 10
236.0883138379293
 20
215.9813294403617
 10
235.90177753621
 20
215.8863082454065
 10
235.7261955169422
 20
215.7723092372544
 10
235.5634914926947
 20
215.64058141239
 10
235.4154480820851
 20
215.4925680078454
 10
235.2836872790448
 20
215.3298906887993
 10
235.1696526819215
 20
215.1543317812818
 10
235.0745936771199
 20
214.9678147446445
 10
234.9995517505681
 20
214.7723830977466
 10
234.9453490769849
 20
214.5701780297431
 10
234.9125795119649
 20
214.3634149407785
 10
234.9016020855747
 20
214.154359169608
 10
234.9010640762998
 20
208.8543585241662
 10
254.9085642668774
 20
208.8543585241662
 97
        0
 92
        3
 72
     0
 73
     1
 93
      119
 10
274.9085642668774
 20
284.1781105618244
 10
274.897608057614
 20
284.3871674883597
 10
274.864859468345
 20
284.5939339434599
 10
274.8106772994677
 20
284.7961445505743
 10
274.7356551821626
 20
284.991583847976
 10
274.6406150744463
 20
285.1781105618244
 10
274.5265982556273
 20
285.3536810664093
 10
274.3948539178322
 20
285.5163717745421
 10
274.2468254795951
 20
285.6644002127792
 10
274.0841347714623
 20
285.7961445505743
 10
273.9085642668774
 20
285.9101613693933
 10
273.722037553029
 20
286.0052014771096
 10
273.5265982556273
 20
286.0802235944147
 10
273.3243876485129
 20
286.134405763292
 10
273.1176211934127
 20
286.1671543525609
 10
272.9085642668774
 20
286.1781105618244
 10
259.4085642668776
 20
286.1781105618244
 10
259.2125299862185
 20
286.18774110848
 10
259.0183836228454
 20
286.2165400010179
 10
258.8279949123687
 20
286.26422989036
 10
258.6431974021475
 20
286.3303514968018
 10
258.4657707932256
 20
286.4142680331277
 10
258.2974238008384
 20
286.5151713372193
 10
258.1397776985503
 20
286.6320896550989
 10
257.9943507045045
 20
286.7638969994513
 10
257.8625433601521
 20
286.9093239934971
 10
257.7456250422725
 20
287.0669700957852
 10
257.6447217381809
 20
287.2353170881724
 10
257.560805201855
 20
287.4127436970942
 10
257.4946835954132
 20
287.5975412073154
 10
257.4469937060711
 20
287.7879299177921
 10
257.4181948135332
 20
287.9820762811652
 10
257.4085642668776
 20
288.1781105618244
 10
257.4085642668775
 20
294.7283174732457
 10
257.4030861622458
 20
294.8328459365134
 10
257.3867118676113
 20
294.9362291640635
 10
257.3596207831727
 20
295.0373344676207
 10
257.3221097245201
 20
295.1350541163216
 10
257.274589670662
 20
295.2283174732457
 10
257.2175812612525
 20
295.3161027255382
 10
257.1517090923549
 20
295.3974480796046
 10
257.0776948732364
 20
295.4714622987231
 10
256.99634951917
 20
295.5373344676207
 10
256.9085642668775
 20
295.5943428770302
 10
256.8153009099534
 20
295.6418629308884
 10
256.7175812612525
 20
295.6793739895409
 10
256.6164759576953
 20
295.7064650739795
 10
256.5130927301452
 20
295.722839368614
 10
256.4085642668775
 20
295.7283174732457
 10
254.9085642668775
 20
295.7283174732457
 10
254.9085642668774
 20
208.8543585241663
 10
274.9010875399883
 20
208.8543585241662
 10
274.9014098576333
 20
212.0395168356538
 10
274.9013096932738
 20
212.0395168457898
 10
274.9015283052661
 20
214.1700230896169
 10
274.8886829585497
 20
214.3776575698335
 10
274.8543390785326
 20
214.5828345135003
 10
274.7988682409282
 20
214.7833340558502
 10
274.7228705997098
 20
214.9769869381844
 10
274.6271683938831
 20
215.1616979776676
 10
274.5127970514598
 20
215.3354687356776
 10
274.3809939868825
 20
215.4964191394519
 10
274.233185213104
 20
215.6428078231033
 10
274.0709699131675
 20
215.773050967927
 10
273.8961031382136
 20
215.8857394381636
 10
273.7104768191078
 20
215.9796540268191
 10
273.5160992971301
 20
216.0537786465947
 10
273.3150735951875
 20
216.1073113232096
 10
273.1095746646417
 20
216.1396728721776
 10
272.9018258539228
 20
216.1505131651604
 10
262.9025343473771
 20
216.1515250294934
 10
262.4124510846129
 20
216.1756509895467
 10
261.9270924643243
 20
216.2476973364476
 10
261.4511327553489
 20
216.3669702244909
 10
260.9891557098701
 20
216.5323209905635
 10
260.5456104193781
 20
216.7421572163983
 10
260.1247684674871
 20
216.9944580644322
 10
259.7306827922491
 20
217.2867937395771
 10
259.3671486541461
 20
217.6163488894744
 10
259.0376670856558
 20
217.9799497178774
 10
258.7454111743958
 20
218.3740945500441
 10
258.4931955045548
 20
218.7949875557793
 10
258.2834490509085
 20
219.2385753053542
 10
258.1181917864646
 20
219.7005858062508
 10
257.9990152290186
 20
220.1765696447847
 10
257.9270671139671
 20
220.6619428363916
 10
257.9030403409889
 20
221.1520309719044
 10
257.9085642668775
 20
275.7397295618278
 10
257.9359547900365
 20
276.2623718781658
 10
258.0178262632091
 20
276.7792880159161
 10
258.1532816854026
 20
277.2848145337017
 10
258.3408369786656
 20
277.7734127772056
 10
258.5784372479565
 20
278.2397295618263
 10
258.863479295004
 20
278.6786558232884
 10
259.1928401394919
 20
279.08538259362
 10
259.5629112350845
 20
279.4554536892124
 10
259.9696380054164
 20
279.7848145336999
 10
260.4085642668786
 20
280.0698565807471
 10
260.8748810514994
 20
280.3074568500377
 10
261.3634792950035
 20
280.4950121433003
 10
261.8690058127892
 20
280.6304675654934
 10
262.3859219505396
 20
280.7123390386657
 10
262.9085642668776
 20
280.7397295618243
 10
272.9085642668774
 20
280.7397295618242
 10
273.1176211934127
 20
280.7506857710877
 10
273.3243876485129
 20
280.7834343603566
 10
273.5265982556273
 20
280.8376165292339
 10
273.722037553029
 20
280.912638646539
 10
273.9085642668774
 20
281.0076787542553
 10
274.0841347714623
 20
281.1216955730743
 10
274.2468254795951
 20
281.2534399108694
 10
274.3948539178322
 20
281.4014683491065
 10
274.5265982556273
 20
281.5641590572393
 10
274.6406150744463
 20
281.7397295618242
 10
274.7356551821626
 20
281.9262562756726
 10
274.8106772994677
 20
282.1216955730743
 10
274.864859468345
 20
282.3239061801887
 10
274.897608057614
 20
282.5306726352889
 10
274.9085642668774
 20
282.7397295618242
 97
        0
 75
     0
 76
     1
 52
0.0
 41
1.0
 77
     0
 78
     1
 53
45.0
 43
0.0
 44
0.0
 45
-2.245064030267288
 46
2.245064030267288
 79
     1
 49
1.0
 98
        0
  0
VIEWPORT
  5
4EC
330
1B
100
AcDbEntity
 67
     1
  8
0
100
AcDbViewport
 10
141.9542601108551
 20
98.18158221244812
 30
0.0
 40
227.1268161773681
 41
157.090531539917
 68
     1
 69
     1
 12
141.9542601108551
 22
98.18158221244812
 13
0.0
 23
0.0
 14
10.0
 24
10.0
 15
10.0
 25
10.0
 16
0.0
 26
0.0
 36
1.0
 17
0.0
 27
0.0
 37
0.0
 42
50.0
 43
0.0
 44
0.0
 45
157.090531539917
 50
0.0
 51
0.0
 72
  1000
 90
    32800
  1

281
     0
 71
     1
 74
     0
110
0.0
120
0.0
130
0.0
111
1.0
121
0.0
131
0.0
112
0.0
122
1.0
132
0.0
 79
     0
146
0.0
170
     0
  0
VIEWPORT
  5
4ED
330
1B
100
AcDbEntity
 67
     1
  8
0
  6
Durchgehend
100
AcDbViewport
 10
141.9542601108551
 20
98.18158221244812
 30
0.0
 40
227.1268161773681
 41
157.090531539917
 68
     2
 69
     2
 12
59.22181832700671
 22
140.7839714584496
 13
0.0
 23
0.0
 14
0.5
 24
0.5
 15
0.0
 25
0.0
 16
0.0
 26
0.0
 36
1.0
 17
0.0
 27
0.0
 37
0.0
 42
50.0
 43
0.0
 44
0.0
 45
393.1933409705475
 50
0.0
 51
0.0
 72
   100
331
4D
 90
   557152
  1

281
     0
 71
     1
 74
     0
110
0.0
120
0.0
130
0.0
111
1.0
121
0.0
131
0.0
112
0.0
122
1.0
132
0.0
 79
     0
146
0.0
170
     0
  0
ENDSEC
  0
SECTION
  2
OBJECTS
  0
DICTIONARY
  5
C
330
0
100
AcDbDictionary
281
     1
  3
ACAD_GROUP
350
D
  3
ACAD_LAYOUT
350
1A
  3
ACAD_MLINESTYLE
350
17
  3
ACAD_PLOTSETTINGS
350
19
  3
ACAD_PLOTSTYLENAME
350
E
  3
ACAD_TABLESTYLE
350
4EF
  3
ACAD_VISUALSTYLE
350
2A
  0
DICTIONARY
  5
55
330
57
100
AcDbDictionary
280
     1
281
     1
  3
TC_OPTIONAL_DATA
360
56
  0
DICTIONARY
  5
58
330
5A
100
AcDbDictionary
280
     1
281
     1
  3
TC_OPTIONAL_DATA
360
59
  0
DICTIONARY
  5
5B
330
5D
100
AcDbDictionary
280
     1
281
     1
  3
TC_OPTIONAL_DATA
360
5C
  0
DICTIONARY
  5
5E
330
60
100
AcDbDictionary
280
     1
281
     1
  3
TC_OPTIONAL_DATA
360
5F
  0
DICTIONARY
  5
61
330
63
100
AcDbDictionary
280
     1
281
     1
  3
TC_OPTIONAL_DATA
360
62
  0
DICTIONARY
  5
64
330
66
100
AcDbDictionary
280
     1
281
     1
  3
TC_OPTIONAL_DATA
360
65
  0
DICTIONARY
  5
67
330
69
100
AcDbDictionary
280
     1
281
     1
  3
TC_OPTIONAL_DATA
360
68
  0
DICTIONARY
  5
6A
330
6C
100
AcDbDictionary
280
     1
281
     1
  3
TC_OPTIONAL_DATA
360
6B
  0
DICTIONARY
  5
6D
330
6F
100
AcDbDictionary
280
     1
281
     1
  3
TC_OPTIONAL_DATA
360
6E
  0
DICTIONARY
  5
70
330
72
100
AcDbDictionary
280
     1
281
     1
  3
TC_OPTIONAL_DATA
360
71
  0
DICTIONARY
  5
73
330
75
100
AcDbDictionary
280
     1
281
     1
  3
TC_OPTIONAL_DATA
360
74
  0
DICTIONARY
  5
76
330
78
100
AcDbDictionary
280
     1
281
     1
  3
TC_OPTIONAL_DATA
360
77
  0
DICTIONARY
  5
79
330
7B
100
AcDbDictionary
280
     1
281
     1
  3
TC_OPTIONAL_DATA
360
7A
  0
DICTIONARY
  5
7C
330
7E
100
AcDbDictionary
280
     1
281
     1
  3
TC_OPTIONAL_DATA
360
7D
  0
DICTIONARY
  5
7F
330
81
100
AcDbDictionary
280
     1
281
     1
  3
TC_OPTIONAL_DATA
360
80
  0
DICTIONARY
  5
82
330
84
100
AcDbDictionary
280
     1
281
     1
  3
TC_OPTIONAL_DATA
360
83
  0
DICTIONARY
  5
85
330
87
100
AcDbDictionary
280
     1
281
     1
  3
TC_OPTIONAL_DATA
360
86
  0
DICTIONARY
  5
88
330
8A
100
AcDbDictionary
280
     1
281
     1
  3
TC_OPTIONAL_DATA
360
89
  0
DICTIONARY
  5
8B
330
8D
100
AcDbDictionary
280
     1
281
     1
  3
TC_OPTIONAL_DATA
360
8C
  0
DICTIONARY
  5
8E
330
90
100
AcDbDictionary
280
     1
281
     1
  3
TC_OPTIONAL_DATA
360
8F
  0
DICTIONARY
  5
91
330
93
100
AcDbDictionary
280
     1
281
     1
  3
TC_OPTIONAL_DATA
360
92
  0
DICTIONARY
  5
94
330
96
100
AcDbDictionary
280
     1
281
     1
  3
TC_OPTIONAL_DATA
360
95
  0
DICTIONARY
  5
97
330
99
100
AcDbDictionary
280
     1
281
     1
  3
TC_OPTIONAL_DATA
360
98
  0
DICTIONARY
  5
9A
330
9C
100
AcDbDictionary
280
     1
281
     1
  3
TC_OPTIONAL_DATA
360
9B
  0
DICTIONARY
  5
9D
330
9F
100
AcDbDictionary
280
     1
281
     1
  3
TC_OPTIONAL_DATA
360
9E
  0
DICTIONARY
  5
A0
330
A2
100
AcDbDictionary
280
     1
281
     1
  3
TC_OPTIONAL_DATA
360
A1
  0
DICTIONARY
  5
A3
330
A5
100
AcDbDictionary
280
     1
281
     1
  3
TC_OPTIONAL_DATA
360
A4
  0
DICTIONARY
  5
A6
330
A8
100
AcDbDictionary
280
     1
281
     1
  3
TC_OPTIONAL_DATA
360
A7
  0
DICTIONARY
  5
A9
330
AB
100
AcDbDictionary
280
     1
281
     1
  3
TC_OPTIONAL_DATA
360
AA
  0
DICTIONARY
  5
AC
330
AE
100
AcDbDictionary
280
     1
281
     1
  3
TC_OPTIONAL_DATA
360
AD
  0
DICTIONARY
  5
AF
330
B1
100
AcDbDictionary
280
     1
281
     1
  3
TC_OPTIONAL_DATA
360
B0
  0
DICTIONARY
  5
B2
330
B4
100
AcDbDictionary
280
     1
281
     1
  3
TC_OPTIONAL_DATA
360
B3
  0
DICTIONARY
  5
B5
330
B7
100
AcDbDictionary
280
     1
281
     1
  3
TC_OPTIONAL_DATA
360
B6
  0
DICTIONARY
  5
B8
330
BA
100
AcDbDictionary
280
     1
281
     1
  3
TC_OPTIONAL_DATA
360
B9
  0
DICTIONARY
  5
BB
330
BD
100
AcDbDictionary
280
     1
281
     1
  3
TC_OPTIONAL_DATA
360
BC
  0
DICTIONARY
  5
BE
330
C0
100
AcDbDictionary
280
     1
281
     1
  3
TC_OPTIONAL_DATA
360
BF
  0
DICTIONARY
  5
C1
330
C3
100
AcDbDictionary
280
     1
281
     1
  3
TC_OPTIONAL_DATA
360
C2
  0
DICTIONARY
  5
C4
330
C6
100
AcDbDictionary
280
     1
281
     1
  3
TC_OPTIONAL_DATA
360
C5
  0
DICTIONARY
  5
C7
330
C9
100
AcDbDictionary
280
     1
281
     1
  3
TC_OPTIONAL_DATA
360
C8
  0
DICTIONARY
  5
CA
330
CC
100
AcDbDictionary
280
     1
281
     1
  3
TC_OPTIONAL_DATA
360
CB
  0
DICTIONARY
  5
CD
330
CF
100
AcDbDictionary
280
     1
281
     1
  3
TC_OPTIONAL_DATA
360
CE
  0
DICTIONARY
  5
D0
330
D2
100
AcDbDictionary
280
     1
281
     1
  3
TC_OPTIONAL_DATA
360
D1
  0
DICTIONARY
  5
D3
330
D5
100
AcDbDictionary
280
     1
281
     1
  3
TC_OPTIONAL_DATA
360
D4
  0
DICTIONARY
  5
D6
330
D8
100
AcDbDictionary
280
     1
281
     1
  3
TC_OPTIONAL_DATA
360
D7
  0
DICTIONARY
  5
D9
330
DB
100
AcDbDictionary
280
     1
281
     1
  3
TC_OPTIONAL_DATA
360
DA
  0
DICTIONARY
  5
DC
330
DE
100
AcDbDictionary
280
     1
281
     1
  3
TC_OPTIONAL_DATA
360
DD
  0
DICTIONARY
  5
DF
330
E1
100
AcDbDictionary
280
     1
281
     1
  3
TC_OPTIONAL_DATA
360
E0
  0
DICTIONARY
  5
E2
330
E4
100
AcDbDictionary
280
     1
281
     1
  3
TC_OPTIONAL_DATA
360
E3
  0
DICTIONARY
  5
E5
330
E7
100
AcDbDictionary
280
     1
281
     1
  3
TC_OPTIONAL_DATA
360
E6
  0
DICTIONARY
  5
E8
330
EA
100
AcDbDictionary
280
     1
281
     1
  3
TC_OPTIONAL_DATA
360
E9
  0
DICTIONARY
  5
EB
330
ED
100
AcDbDictionary
280
     1
281
     1
  3
TC_OPTIONAL_DATA
360
EC
  0
DICTIONARY
  5
EE
330
F0
100
AcDbDictionary
280
     1
281
     1
  3
TC_OPTIONAL_DATA
360
EF
  0
DICTIONARY
  5
F1
330
F3
100
AcDbDictionary
280
     1
281
     1
  3
TC_OPTIONAL_DATA
360
F2
  0
DICTIONARY
  5
F4
330
F6
100
AcDbDictionary
280
     1
281
     1
  3
TC_OPTIONAL_DATA
360
F5
  0
DICTIONARY
  5
F7
330
F9
100
AcDbDictionary
280
     1
281
     1
  3
TC_OPTIONAL_DATA
360
F8
  0
DICTIONARY
  5
FA
330
FC
100
AcDbDictionary
280
     1
281
     1
  3
TC_OPTIONAL_DATA
360
FB
  0
DICTIONARY
  5
FD
330
FF
100
AcDbDictionary
280
     1
281
     1
  3
TC_OPTIONAL_DATA
360
FE
  0
DICTIONARY
  5
100
330
102
100
AcDbDictionary
280
     1
281
     1
  3
TC_OPTIONAL_DATA
360
101
  0
DICTIONARY
  5
103
330
105
100
AcDbDictionary
280
     1
281
     1
  3
TC_OPTIONAL_DATA
360
104
  0
DICTIONARY
  5
106
330
108
100
AcDbDictionary
280
     1
281
     1
  3
TC_OPTIONAL_DATA
360
107
  0
DICTIONARY
  5
109
330
10B
100
AcDbDictionary
280
     1
281
     1
  3
TC_OPTIONAL_DATA
360
10A
  0
DICTIONARY
  5
10C
330
10E
100
AcDbDictionary
280
     1
281
     1
  3
TC_OPTIONAL_DATA
360
10D
  0
DICTIONARY
  5
10F
330
111
100
AcDbDictionary
280
     1
281
     1
  3
TC_OPTIONAL_DATA
360
110
  0
DICTIONARY
  5
112
330
114
100
AcDbDictionary
280
     1
281
     1
  3
TC_OPTIONAL_DATA
360
113
  0
DICTIONARY
  5
115
330
117
100
AcDbDictionary
280
     1
281
     1
  3
TC_OPTIONAL_DATA
360
116
  0
DICTIONARY
  5
118
330
11A
100
AcDbDictionary
280
     1
281
     1
  3
TC_OPTIONAL_DATA
360
119
  0
DICTIONARY
  5
11B
330
11D
100
AcDbDictionary
280
     1
281
     1
  3
TC_OPTIONAL_DATA
360
11C
  0
DICTIONARY
  5
11E
330
120
100
AcDbDictionary
280
     1
281
     1
  3
TC_OPTIONAL_DATA
360
11F
  0
DICTIONARY
  5
121
330
123
100
AcDbDictionary
280
     1
281
     1
  3
TC_OPTIONAL_DATA
360
122
  0
DICTIONARY
  5
124
330
126
100
AcDbDictionary
280
     1
281
     1
  3
TC_OPTIONAL_DATA
360
125
  0
DICTIONARY
  5
127
330
129
100
AcDbDictionary
280
     1
281
     1
  3
TC_OPTIONAL_DATA
360
128
  0
DICTIONARY
  5
12A
330
12C
100
AcDbDictionary
280
     1
281
     1
  3
TC_OPTIONAL_DATA
360
12B
  0
DICTIONARY
  5
12D
330
12F
100
AcDbDictionary
280
     1
281
     1
  3
TC_OPTIONAL_DATA
360
12E
  0
DICTIONARY
  5
130
330
132
100
AcDbDictionary
280
     1
281
     1
  3
TC_OPTIONAL_DATA
360
131
  0
DICTIONARY
  5
133
330
135
100
AcDbDictionary
280
     1
281
     1
  3
TC_OPTIONAL_DATA
360
134
  0
DICTIONARY
  5
136
330
138
100
AcDbDictionary
280
     1
281
     1
  3
TC_OPTIONAL_DATA
360
137
  0
DICTIONARY
  5
139
330
13B
100
AcDbDictionary
280
     1
281
     1
  3
TC_OPTIONAL_DATA
360
13A
  0
DICTIONARY
  5
13C
330
13E
100
AcDbDictionary
280
     1
281
     1
  3
TC_OPTIONAL_DATA
360
13D
  0
DICTIONARY
  5
13F
330
141
100
AcDbDictionary
280
     1
281
     1
  3
TC_OPTIONAL_DATA
360
140
  0
DICTIONARY
  5
142
330
144
100
AcDbDictionary
280
     1
281
     1
  3
TC_OPTIONAL_DATA
360
143
  0
DICTIONARY
  5
145
330
147
100
AcDbDictionary
280
     1
281
     1
  3
TC_OPTIONAL_DATA
360
146
  0
DICTIONARY
  5
148
330
14A
100
AcDbDictionary
280
     1
281
     1
  3
TC_OPTIONAL_DATA
360
149
  0
DICTIONARY
  5
14B
330
14D
100
AcDbDictionary
280
     1
281
     1
  3
TC_OPTIONAL_DATA
360
14C
  0
DICTIONARY
  5
14E
330
150
100
AcDbDictionary
280
     1
281
     1
  3
TC_OPTIONAL_DATA
360
14F
  0
DICTIONARY
  5
151
330
153
100
AcDbDictionary
280
     1
281
     1
  3
TC_OPTIONAL_DATA
360
152
  0
DICTIONARY
  5
154
330
156
100
AcDbDictionary
280
     1
281
     1
  3
TC_OPTIONAL_DATA
360
155
  0
DICTIONARY
  5
157
330
159
100
AcDbDictionary
280
     1
281
     1
  3
TC_OPTIONAL_DATA
360
158
  0
DICTIONARY
  5
15A
330
15C
100
AcDbDictionary
280
     1
281
     1
  3
TC_OPTIONAL_DATA
360
15B
  0
DICTIONARY
  5
15D
330
15F
100
AcDbDictionary
280
     1
281
     1
  3
TC_OPTIONAL_DATA
360
15E
  0
DICTIONARY
  5
160
330
162
100
AcDbDictionary
280
     1
281
     1
  3
TC_OPTIONAL_DATA
360
161
  0
DICTIONARY
  5
163
330
165
100
AcDbDictionary
280
     1
281
     1
  3
TC_OPTIONAL_DATA
360
164
  0
DICTIONARY
  5
166
330
168
100
AcDbDictionary
280
     1
281
     1
  3
TC_OPTIONAL_DATA
360
167
  0
DICTIONARY
  5
169
330
16B
100
AcDbDictionary
280
     1
281
     1
  3
TC_OPTIONAL_DATA
360
16A
  0
DICTIONARY
  5
16C
330
16E
100
AcDbDictionary
280
     1
281
     1
  3
TC_OPTIONAL_DATA
360
16D
  0
DICTIONARY
  5
16F
330
171
100
AcDbDictionary
280
     1
281
     1
  3
TC_OPTIONAL_DATA
360
170
  0
DICTIONARY
  5
172
330
174
100
AcDbDictionary
280
     1
281
     1
  3
TC_OPTIONAL_DATA
360
173
  0
DICTIONARY
  5
175
330
177
100
AcDbDictionary
280
     1
281
     1
  3
TC_OPTIONAL_DATA
360
176
  0
DICTIONARY
  5
178
330
17A
100
AcDbDictionary
280
     1
281
     1
  3
TC_OPTIONAL_DATA
360
179
  0
DICTIONARY
  5
17B
330
17D
100
AcDbDictionary
280
     1
281
     1
  3
TC_OPTIONAL_DATA
360
17C
  0
DICTIONARY
  5
17E
330
180
100
AcDbDictionary
280
     1
281
     1
  3
TC_OPTIONAL_DATA
360
17F
  0
DICTIONARY
  5
181
330
183
100
AcDbDictionary
280
     1
281
     1
  3
TC_OPTIONAL_DATA
360
182
  0
DICTIONARY
  5
184
330
186
100
AcDbDictionary
280
     1
281
     1
  3
TC_OPTIONAL_DATA
360
185
  0
DICTIONARY
  5
187
330
189
100
AcDbDictionary
280
     1
281
     1
  3
TC_OPTIONAL_DATA
360
188
  0
DICTIONARY
  5
18A
330
18C
100
AcDbDictionary
280
     1
281
     1
  3
TC_OPTIONAL_DATA
360
18B
  0
DICTIONARY
  5
18D
330
18F
100
AcDbDictionary
280
     1
281
     1
  3
TC_OPTIONAL_DATA
360
18E
  0
DICTIONARY
  5
190
330
192
100
AcDbDictionary
280
     1
281
     1
  3
TC_OPTIONAL_DATA
360
191
  0
DICTIONARY
  5
193
330
195
100
AcDbDictionary
280
     1
281
     1
  3
TC_OPTIONAL_DATA
360
194
  0
DICTIONARY
  5
196
330
198
100
AcDbDictionary
280
     1
281
     1
  3
TC_OPTIONAL_DATA
360
197
  0
DICTIONARY
  5
199
330
19B
100
AcDbDictionary
280
     1
281
     1
  3
TC_OPTIONAL_DATA
360
19A
  0
DICTIONARY
  5
19C
330
19E
100
AcDbDictionary
280
     1
281
     1
  3
TC_OPTIONAL_DATA
360
19D
  0
DICTIONARY
  5
19F
330
1A1
100
AcDbDictionary
280
     1
281
     1
  3
TC_OPTIONAL_DATA
360
1A0
  0
DICTIONARY
  5
1A2
330
1A4
100
AcDbDictionary
280
     1
281
     1
  3
TC_OPTIONAL_DATA
360
1A3
  0
DICTIONARY
  5
1A5
330
1A7
100
AcDbDictionary
280
     1
281
     1
  3
TC_OPTIONAL_DATA
360
1A6
  0
DICTIONARY
  5
1A8
330
1AA
100
AcDbDictionary
280
     1
281
     1
  3
TC_OPTIONAL_DATA
360
1A9
  0
DICTIONARY
  5
1AB
330
1AD
100
AcDbDictionary
280
     1
281
     1
  3
TC_OPTIONAL_DATA
360
1AC
  0
DICTIONARY
  5
1AE
330
1B0
100
AcDbDictionary
280
     1
281
     1
  3
TC_OPTIONAL_DATA
360
1AF
  0
DICTIONARY
  5
1B1
330
1B3
100
AcDbDictionary
280
     1
281
     1
  3
TC_OPTIONAL_DATA
360
1B2
  0
DICTIONARY
  5
1B4
330
1B6
100
AcDbDictionary
280
     1
281
     1
  3
TC_OPTIONAL_DATA
360
1B5
  0
DICTIONARY
  5
1B7
330
1B9
100
AcDbDictionary
280
     1
281
     1
  3
TC_OPTIONAL_DATA
360
1B8
  0
DICTIONARY
  5
1BA
330
1BC
100
AcDbDictionary
280
     1
281
     1
  3
TC_OPTIONAL_DATA
360
1BB
  0
DICTIONARY
  5
1BD
330
1BF
100
AcDbDictionary
280
     1
281
     1
  3
TC_OPTIONAL_DATA
360
1BE
  0
DICTIONARY
  5
1C0
330
1C2
100
AcDbDictionary
280
     1
281
     1
  3
TC_OPTIONAL_DATA
360
1C1
  0
DICTIONARY
  5
1C3
330
1C5
100
AcDbDictionary
280
     1
281
     1
  3
TC_OPTIONAL_DATA
360
1C4
  0
DICTIONARY
  5
1C6
330
1C8
100
AcDbDictionary
280
     1
281
     1
  3
TC_OPTIONAL_DATA
360
1C7
  0
DICTIONARY
  5
1C9
330
1CB
100
AcDbDictionary
280
     1
281
     1
  3
TC_OPTIONAL_DATA
360
1CA
  0
DICTIONARY
  5
1CC
330
1CE
100
AcDbDictionary
280
     1
281
     1
  3
TC_OPTIONAL_DATA
360
1CD
  0
DICTIONARY
  5
1CF
330
1D1
100
AcDbDictionary
280
     1
281
     1
  3
TC_OPTIONAL_DATA
360
1D0
  0
DICTIONARY
  5
1D2
330
1D4
100
AcDbDictionary
280
     1
281
     1
  3
TC_OPTIONAL_DATA
360
1D3
  0
DICTIONARY
  5
1D5
330
1D7
100
AcDbDictionary
280
     1
281
     1
  3
TC_OPTIONAL_DATA
360
1D6
  0
DICTIONARY
  5
1D8
330
1DA
100
AcDbDictionary
280
     1
281
     1
  3
TC_OPTIONAL_DATA
360
1D9
  0
DICTIONARY
  5
1DB
330
1DD
100
AcDbDictionary
280
     1
281
     1
  3
TC_OPTIONAL_DATA
360
1DC
  0
DICTIONARY
  5
1DE
330
1E0
100
AcDbDictionary
280
     1
281
     1
  3
TC_OPTIONAL_DATA
360
1DF
  0
DICTIONARY
  5
1E1
330
1E3
100
AcDbDictionary
280
     1
281
     1
  3
TC_OPTIONAL_DATA
360
1E2
  0
DICTIONARY
  5
1E4
330
1E6
100
AcDbDictionary
280
     1
281
     1
  3
TC_OPTIONAL_DATA
360
1E5
  0
DICTIONARY
  5
1E7
330
1E9
100
AcDbDictionary
280
     1
281
     1
  3
TC_OPTIONAL_DATA
360
1E8
  0
DICTIONARY
  5
1EA
330
1EC
100
AcDbDictionary
280
     1
281
     1
  3
TC_OPTIONAL_DATA
360
1EB
  0
DICTIONARY
  5
1ED
330
1EF
100
AcDbDictionary
280
     1
281
     1
  3
TC_OPTIONAL_DATA
360
1EE
  0
DICTIONARY
  5
1F0
330
1F2
100
AcDbDictionary
280
     1
281
     1
  3
TC_OPTIONAL_DATA
360
1F1
  0
DICTIONARY
  5
1F3
330
1F5
100
AcDbDictionary
280
     1
281
     1
  3
TC_OPTIONAL_DATA
360
1F4
  0
DICTIONARY
  5
1F6
330
1F8
100
AcDbDictionary
280
     1
281
     1
  3
TC_OPTIONAL_DATA
360
1F7
  0
DICTIONARY
  5
1F9
330
1FB
100
AcDbDictionary
280
     1
281
     1
  3
TC_OPTIONAL_DATA
360
1FA
  0
DICTIONARY
  5
1FC
330
1FE
100
AcDbDictionary
280
     1
281
     1
  3
TC_OPTIONAL_DATA
360
1FD
  0
DICTIONARY
  5
1FF
330
201
100
AcDbDictionary
280
     1
281
     1
  3
TC_OPTIONAL_DATA
360
200
  0
DICTIONARY
  5
202
330
204
100
AcDbDictionary
280
     1
281
     1
  3
TC_OPTIONAL_DATA
360
203
  0
DICTIONARY
  5
205
330
207
100
AcDbDictionary
280
     1
281
     1
  3
TC_OPTIONAL_DATA
360
206
  0
DICTIONARY
  5
208
330
20A
100
AcDbDictionary
280
     1
281
     1
  3
TC_OPTIONAL_DATA
360
209
  0
DICTIONARY
  5
20B
330
20D
100
AcDbDictionary
280
     1
281
     1
  3
TC_OPTIONAL_DATA
360
20C
  0
DICTIONARY
  5
20E
330
210
100
AcDbDictionary
280
     1
281
     1
  3
TC_OPTIONAL_DATA
360
20F
  0
DICTIONARY
  5
211
330
213
100
AcDbDictionary
280
     1
281
     1
  3
TC_OPTIONAL_DATA
360
212
  0
DICTIONARY
  5
214
330
216
100
AcDbDictionary
280
     1
281
     1
  3
TC_OPTIONAL_DATA
360
215
  0
DICTIONARY
  5
217
330
219
100
AcDbDictionary
280
     1
281
     1
  3
TC_OPTIONAL_DATA
360
218
  0
DICTIONARY
  5
21A
330
21C
100
AcDbDictionary
280
     1
281
     1
  3
TC_OPTIONAL_DATA
360
21B
  0
DICTIONARY
  5
21D
330
21F
100
AcDbDictionary
280
     1
281
     1
  3
TC_OPTIONAL_DATA
360
21E
  0
DICTIONARY
  5
220
330
222
100
AcDbDictionary
280
     1
281
     1
  3
TC_OPTIONAL_DATA
360
221
  0
DICTIONARY
  5
223
330
225
100
AcDbDictionary
280
     1
281
     1
  3
TC_OPTIONAL_DATA
360
224
  0
DICTIONARY
  5
226
330
228
100
AcDbDictionary
280
     1
281
     1
  3
TC_OPTIONAL_DATA
360
227
  0
DICTIONARY
  5
229
330
22B
100
AcDbDictionary
280
     1
281
     1
  3
TC_OPTIONAL_DATA
360
22A
  0
DICTIONARY
  5
22C
330
22E
100
AcDbDictionary
280
     1
281
     1
  3
TC_OPTIONAL_DATA
360
22D
  0
DICTIONARY
  5
22F
330
231
100
AcDbDictionary
280
     1
281
     1
  3
TC_OPTIONAL_DATA
360
230
  0
DICTIONARY
  5
232
330
234
100
AcDbDictionary
280
     1
281
     1
  3
TC_OPTIONAL_DATA
360
233
  0
DICTIONARY
  5
235
330
237
100
AcDbDictionary
280
     1
281
     1
  3
TC_OPTIONAL_DATA
360
236
  0
DICTIONARY
  5
238
330
23A
100
AcDbDictionary
280
     1
281
     1
  3
TC_OPTIONAL_DATA
360
239
  0
DICTIONARY
  5
23B
330
23D
100
AcDbDictionary
280
     1
281
     1
  3
TC_OPTIONAL_DATA
360
23C
  0
DICTIONARY
  5
23E
330
240
100
AcDbDictionary
280
     1
281
     1
  3
TC_OPTIONAL_DATA
360
23F
  0
DICTIONARY
  5
241
330
243
100
AcDbDictionary
280
     1
281
     1
  3
TC_OPTIONAL_DATA
360
242
  0
DICTIONARY
  5
244
330
246
100
AcDbDictionary
280
     1
281
     1
  3
TC_OPTIONAL_DATA
360
245
  0
DICTIONARY
  5
247
330
249
100
AcDbDictionary
280
     1
281
     1
  3
TC_OPTIONAL_DATA
360
248
  0
DICTIONARY
  5
24A
330
24C
100
AcDbDictionary
280
     1
281
     1
  3
TC_OPTIONAL_DATA
360
24B
  0
DICTIONARY
  5
24D
330
24F
100
AcDbDictionary
280
     1
281
     1
  3
TC_OPTIONAL_DATA
360
24E
  0
DICTIONARY
  5
250
330
252
100
AcDbDictionary
280
     1
281
     1
  3
TC_OPTIONAL_DATA
360
251
  0
DICTIONARY
  5
253
330
255
100
AcDbDictionary
280
     1
281
     1
  3
TC_OPTIONAL_DATA
360
254
  0
DICTIONARY
  5
256
330
258
100
AcDbDictionary
280
     1
281
     1
  3
TC_OPTIONAL_DATA
360
257
  0
DICTIONARY
  5
259
330
25B
100
AcDbDictionary
280
     1
281
     1
  3
TC_OPTIONAL_DATA
360
25A
  0
DICTIONARY
  5
25C
330
25E
100
AcDbDictionary
280
     1
281
     1
  3
TC_OPTIONAL_DATA
360
25D
  0
DICTIONARY
  5
25F
330
261
100
AcDbDictionary
280
     1
281
     1
  3
TC_OPTIONAL_DATA
360
260
  0
DICTIONARY
  5
262
330
264
100
AcDbDictionary
280
     1
281
     1
  3
TC_OPTIONAL_DATA
360
263
  0
DICTIONARY
  5
265
330
267
100
AcDbDictionary
280
     1
281
     1
  3
TC_OPTIONAL_DATA
360
266
  0
DICTIONARY
  5
268
330
26A
100
AcDbDictionary
280
     1
281
     1
  3
TC_OPTIONAL_DATA
360
269
  0
DICTIONARY
  5
26B
330
26D
100
AcDbDictionary
280
     1
281
     1
  3
TC_OPTIONAL_DATA
360
26C
  0
DICTIONARY
  5
26E
330
270
100
AcDbDictionary
280
     1
281
     1
  3
TC_OPTIONAL_DATA
360
26F
  0
DICTIONARY
  5
271
330
273
100
AcDbDictionary
280
     1
281
     1
  3
TC_OPTIONAL_DATA
360
272
  0
DICTIONARY
  5
274
330
276
100
AcDbDictionary
280
     1
281
     1
  3
TC_OPTIONAL_DATA
360
275
  0
DICTIONARY
  5
277
330
279
100
AcDbDictionary
280
     1
281
     1
  3
TC_OPTIONAL_DATA
360
278
  0
DICTIONARY
  5
27A
330
27C
100
AcDbDictionary
280
     1
281
     1
  3
TC_OPTIONAL_DATA
360
27B
  0
DICTIONARY
  5
27D
330
27F
100
AcDbDictionary
280
     1
281
     1
  3
TC_OPTIONAL_DATA
360
27E
  0
DICTIONARY
  5
280
330
282
100
AcDbDictionary
280
     1
281
     1
  3
TC_OPTIONAL_DATA
360
281
  0
DICTIONARY
  5
283
330
285
100
AcDbDictionary
280
     1
281
     1
  3
TC_OPTIONAL_DATA
360
284
  0
DICTIONARY
  5
286
330
288
100
AcDbDictionary
280
     1
281
     1
  3
TC_OPTIONAL_DATA
360
287
  0
DICTIONARY
  5
289
330
28B
100
AcDbDictionary
280
     1
281
     1
  3
TC_OPTIONAL_DATA
360
28A
  0
DICTIONARY
  5
28C
330
28E
100
AcDbDictionary
280
     1
281
     1
  3
TC_OPTIONAL_DATA
360
28D
  0
DICTIONARY
  5
28F
330
291
100
AcDbDictionary
280
     1
281
     1
  3
TC_OPTIONAL_DATA
360
290
  0
DICTIONARY
  5
292
330
294
100
AcDbDictionary
280
     1
281
     1
  3
TC_OPTIONAL_DATA
360
293
  0
DICTIONARY
  5
295
330
297
100
AcDbDictionary
280
     1
281
     1
  3
TC_OPTIONAL_DATA
360
296
  0
DICTIONARY
  5
298
330
29A
100
AcDbDictionary
280
     1
281
     1
  3
TC_OPTIONAL_DATA
360
299
  0
DICTIONARY
  5
29B
330
29D
100
AcDbDictionary
280
     1
281
     1
  3
TC_OPTIONAL_DATA
360
29C
  0
DICTIONARY
  5
29E
330
2A0
100
AcDbDictionary
280
     1
281
     1
  3
TC_OPTIONAL_DATA
360
29F
  0
DICTIONARY
  5
2A1
330
2A3
100
AcDbDictionary
280
     1
281
     1
  3
TC_OPTIONAL_DATA
360
2A2
  0
DICTIONARY
  5
2A4
330
2A6
100
AcDbDictionary
280
     1
281
     1
  3
TC_OPTIONAL_DATA
360
2A5
  0
DICTIONARY
  5
2A7
330
2A9
100
AcDbDictionary
280
     1
281
     1
  3
TC_OPTIONAL_DATA
360
2A8
  0
DICTIONARY
  5
2AA
330
2AC
100
AcDbDictionary
280
     1
281
     1
  3
TC_OPTIONAL_DATA
360
2AB
  0
DICTIONARY
  5
2AD
330
2AF
100
AcDbDictionary
280
     1
281
     1
  3
TC_OPTIONAL_DATA
360
2AE
  0
DICTIONARY
  5
2B0
330
2B2
100
AcDbDictionary
280
     1
281
     1
  3
TC_OPTIONAL_DATA
360
2B1
  0
DICTIONARY
  5
2B3
330
2B5
100
AcDbDictionary
280
     1
281
     1
  3
TC_OPTIONAL_DATA
360
2B4
  0
DICTIONARY
  5
2B6
330
2B8
100
AcDbDictionary
280
     1
281
     1
  3
TC_OPTIONAL_DATA
360
2B7
  0
DICTIONARY
  5
2B9
330
2BB
100
AcDbDictionary
280
     1
281
     1
  3
TC_OPTIONAL_DATA
360
2BA
  0
DICTIONARY
  5
2BC
330
2BE
100
AcDbDictionary
280
     1
281
     1
  3
TC_OPTIONAL_DATA
360
2BD
  0
DICTIONARY
  5
2BF
330
2C1
100
AcDbDictionary
280
     1
281
     1
  3
TC_OPTIONAL_DATA
360
2C0
  0
DICTIONARY
  5
2C2
330
2C4
100
AcDbDictionary
280
     1
281
     1
  3
TC_OPTIONAL_DATA
360
2C3
  0
DICTIONARY
  5
2C5
330
2C7
100
AcDbDictionary
280
     1
281
     1
  3
TC_OPTIONAL_DATA
360
2C6
  0
DICTIONARY
  5
2C8
330
2CA
100
AcDbDictionary
280
     1
281
     1
  3
TC_OPTIONAL_DATA
360
2C9
  0
DICTIONARY
  5
2CB
330
2CD
100
AcDbDictionary
280
     1
281
     1
  3
TC_OPTIONAL_DATA
360
2CC
  0
DICTIONARY
  5
2CE
330
2D0
100
AcDbDictionary
280
     1
281
     1
  3
TC_OPTIONAL_DATA
360
2CF
  0
DICTIONARY
  5
2D1
330
2D3
100
AcDbDictionary
280
     1
281
     1
  3
TC_OPTIONAL_DATA
360
2D2
  0
DICTIONARY
  5
2D4
330
2D6
100
AcDbDictionary
280
     1
281
     1
  3
TC_OPTIONAL_DATA
360
2D5
  0
DICTIONARY
  5
2D7
330
2D9
100
AcDbDictionary
280
     1
281
     1
  3
TC_OPTIONAL_DATA
360
2D8
  0
DICTIONARY
  5
2DA
330
2DC
100
AcDbDictionary
280
     1
281
     1
  3
TC_OPTIONAL_DATA
360
2DB
  0
DICTIONARY
  5
2DD
330
2DF
100
AcDbDictionary
280
     1
281
     1
  3
TC_OPTIONAL_DATA
360
2DE
  0
DICTIONARY
  5
2E0
330
2E2
100
AcDbDictionary
280
     1
281
     1
  3
TC_OPTIONAL_DATA
360
2E1
  0
DICTIONARY
  5
2E3
330
2E5
100
AcDbDictionary
280
     1
281
     1
  3
TC_OPTIONAL_DATA
360
2E4
  0
DICTIONARY
  5
2E6
330
2E8
100
AcDbDictionary
280
     1
281
     1
  3
TC_OPTIONAL_DATA
360
2E7
  0
DICTIONARY
  5
2E9
330
2EB
100
AcDbDictionary
280
     1
281
     1
  3
TC_OPTIONAL_DATA
360
2EA
  0
DICTIONARY
  5
2EC
330
2EE
100
AcDbDictionary
280
     1
281
     1
  3
TC_OPTIONAL_DATA
360
2ED
  0
DICTIONARY
  5
2EF
330
2F1
100
AcDbDictionary
280
     1
281
     1
  3
TC_OPTIONAL_DATA
360
2F0
  0
DICTIONARY
  5
2F2
330
2F4
100
AcDbDictionary
280
     1
281
     1
  3
TC_OPTIONAL_DATA
360
2F3
  0
DICTIONARY
  5
2F5
330
2F7
100
AcDbDictionary
280
     1
281
     1
  3
TC_OPTIONAL_DATA
360
2F6
  0
DICTIONARY
  5
2F8
330
2FA
100
AcDbDictionary
280
     1
281
     1
  3
TC_OPTIONAL_DATA
360
2F9
  0
DICTIONARY
  5
2FB
330
2FD
100
AcDbDictionary
280
     1
281
     1
  3
TC_OPTIONAL_DATA
360
2FC
  0
DICTIONARY
  5
2FE
330
300
100
AcDbDictionary
280
     1
281
     1
  3
TC_OPTIONAL_DATA
360
2FF
  0
DICTIONARY
  5
301
330
303
100
AcDbDictionary
280
     1
281
     1
  3
TC_OPTIONAL_DATA
360
302
  0
DICTIONARY
  5
304
330
306
100
AcDbDictionary
280
     1
281
     1
  3
TC_OPTIONAL_DATA
360
305
  0
DICTIONARY
  5
307
330
309
100
AcDbDictionary
280
     1
281
     1
  3
TC_OPTIONAL_DATA
360
308
  0
DICTIONARY
  5
30A
330
30C
100
AcDbDictionary
280
     1
281
     1
  3
TC_OPTIONAL_DATA
360
30B
  0
DICTIONARY
  5
30D
330
30F
100
AcDbDictionary
280
     1
281
     1
  3
TC_OPTIONAL_DATA
360
30E
  0
DICTIONARY
  5
310
330
312
100
AcDbDictionary
280
     1
281
     1
  3
TC_OPTIONAL_DATA
360
311
  0
DICTIONARY
  5
313
330
315
100
AcDbDictionary
280
     1
281
     1
  3
TC_OPTIONAL_DATA
360
314
  0
DICTIONARY
  5
316
330
318
100
AcDbDictionary
280
     1
281
     1
  3
TC_OPTIONAL_DATA
360
317
  0
DICTIONARY
  5
319
330
31B
100
AcDbDictionary
280
     1
281
     1
  3
TC_OPTIONAL_DATA
360
31A
  0
DICTIONARY
  5
31C
330
31E
100
AcDbDictionary
280
     1
281
     1
  3
TC_OPTIONAL_DATA
360
31D
  0
DICTIONARY
  5
31F
330
321
100
AcDbDictionary
280
     1
281
     1
  3
TC_OPTIONAL_DATA
360
320
  0
DICTIONARY
  5
322
330
324
100
AcDbDictionary
280
     1
281
     1
  3
TC_OPTIONAL_DATA
360
323
  0
DICTIONARY
  5
325
330
327
100
AcDbDictionary
280
     1
281
     1
  3
TC_OPTIONAL_DATA
360
326
  0
DICTIONARY
  5
328
330
32A
100
AcDbDictionary
280
     1
281
     1
  3
TC_OPTIONAL_DATA
360
329
  0
DICTIONARY
  5
32B
330
32D
100
AcDbDictionary
280
     1
281
     1
  3
TC_OPTIONAL_DATA
360
32C
  0
DICTIONARY
  5
32E
330
330
100
AcDbDictionary
280
     1
281
     1
  3
TC_OPTIONAL_DATA
360
32F
  0
DICTIONARY
  5
331
330
333
100
AcDbDictionary
280
     1
281
     1
  3
TC_OPTIONAL_DATA
360
332
  0
DICTIONARY
  5
334
330
336
100
AcDbDictionary
280
     1
281
     1
  3
TC_OPTIONAL_DATA
360
335
  0
DICTIONARY
  5
337
330
339
100
AcDbDictionary
280
     1
281
     1
  3
TC_OPTIONAL_DATA
360
338
  0
DICTIONARY
  5
33A
330
33C
100
AcDbDictionary
280
     1
281
     1
  3
TC_OPTIONAL_DATA
360
33B
  0
DICTIONARY
  5
33D
330
33F
100
AcDbDictionary
280
     1
281
     1
  3
TC_OPTIONAL_DATA
360
33E
  0
DICTIONARY
  5
340
330
342
100
AcDbDictionary
280
     1
281
     1
  3
TC_OPTIONAL_DATA
360
341
  0
DICTIONARY
  5
343
330
345
100
AcDbDictionary
280
     1
281
     1
  3
TC_OPTIONAL_DATA
360
344
  0
DICTIONARY
  5
346
330
348
100
AcDbDictionary
280
     1
281
     1
  3
TC_OPTIONAL_DATA
360
347
  0
DICTIONARY
  5
349
330
34B
100
AcDbDictionary
280
     1
281
     1
  3
TC_OPTIONAL_DATA
360
34A
  0
DICTIONARY
  5
34C
330
34E
100
AcDbDictionary
280
     1
281
     1
  3
TC_OPTIONAL_DATA
360
34D
  0
DICTIONARY
  5
34F
330
351
100
AcDbDictionary
280
     1
281
     1
  3
TC_OPTIONAL_DATA
360
350
  0
DICTIONARY
  5
352
330
354
100
AcDbDictionary
280
     1
281
     1
  3
TC_OPTIONAL_DATA
360
353
  0
DICTIONARY
  5
355
330
357
100
AcDbDictionary
280
     1
281
     1
  3
TC_OPTIONAL_DATA
360
356
  0
DICTIONARY
  5
358
330
35A
100
AcDbDictionary
280
     1
281
     1
  3
TC_OPTIONAL_DATA
360
359
  0
DICTIONARY
  5
35B
330
35D
100
AcDbDictionary
280
     1
281
     1
  3
TC_OPTIONAL_DATA
360
35C
  0
DICTIONARY
  5
35E
330
360
100
AcDbDictionary
280
     1
281
     1
  3
TC_OPTIONAL_DATA
360
35F
  0
DICTIONARY
  5
361
330
363
100
AcDbDictionary
280
     1
281
     1
  3
TC_OPTIONAL_DATA
360
362
  0
DICTIONARY
  5
364
330
366
100
AcDbDictionary
280
     1
281
     1
  3
TC_OPTIONAL_DATA
360
365
  0
DICTIONARY
  5
367
330
369
100
AcDbDictionary
280
     1
281
     1
  3
TC_OPTIONAL_DATA
360
368
  0
DICTIONARY
  5
36A
330
36C
100
AcDbDictionary
280
     1
281
     1
  3
TC_OPTIONAL_DATA
360
36B
  0
DICTIONARY
  5
36D
330
36F
100
AcDbDictionary
280
     1
281
     1
  3
TC_OPTIONAL_DATA
360
36E
  0
DICTIONARY
  5
370
330
372
100
AcDbDictionary
280
     1
281
     1
  3
TC_OPTIONAL_DATA
360
371
  0
DICTIONARY
  5
373
330
375
100
AcDbDictionary
280
     1
281
     1
  3
TC_OPTIONAL_DATA
360
374
  0
DICTIONARY
  5
376
330
378
100
AcDbDictionary
280
     1
281
     1
  3
TC_OPTIONAL_DATA
360
377
  0
DICTIONARY
  5
379
330
37B
100
AcDbDictionary
280
     1
281
     1
  3
TC_OPTIONAL_DATA
360
37A
  0
DICTIONARY
  5
37C
330
37E
100
AcDbDictionary
280
     1
281
     1
  3
TC_OPTIONAL_DATA
360
37D
  0
DICTIONARY
  5
37F
330
381
100
AcDbDictionary
280
     1
281
     1
  3
TC_OPTIONAL_DATA
360
380
  0
DICTIONARY
  5
382
330
384
100
AcDbDictionary
280
     1
281
     1
  3
TC_OPTIONAL_DATA
360
383
  0
DICTIONARY
  5
385
330
387
100
AcDbDictionary
280
     1
281
     1
  3
TC_OPTIONAL_DATA
360
386
  0
DICTIONARY
  5
388
330
38A
100
AcDbDictionary
280
     1
281
     1
  3
TC_OPTIONAL_DATA
360
389
  0
DICTIONARY
  5
38B
330
38D
100
AcDbDictionary
280
     1
281
     1
  3
TC_OPTIONAL_DATA
360
38C
  0
DICTIONARY
  5
38E
330
390
100
AcDbDictionary
280
     1
281
     1
  3
TC_OPTIONAL_DATA
360
38F
  0
DICTIONARY
  5
391
330
393
100
AcDbDictionary
280
     1
281
     1
  3
TC_OPTIONAL_DATA
360
392
  0
DICTIONARY
  5
394
330
396
100
AcDbDictionary
280
     1
281
     1
  3
TC_OPTIONAL_DATA
360
395
  0
DICTIONARY
  5
397
330
399
100
AcDbDictionary
280
     1
281
     1
  3
TC_OPTIONAL_DATA
360
398
  0
DICTIONARY
  5
39A
330
39C
100
AcDbDictionary
280
     1
281
     1
  3
TC_OPTIONAL_DATA
360
39B
  0
DICTIONARY
  5
39D
330
39F
100
AcDbDictionary
280
     1
281
     1
  3
TC_OPTIONAL_DATA
360
39E
  0
DICTIONARY
  5
3A0
330
3A2
100
AcDbDictionary
280
     1
281
     1
  3
TC_OPTIONAL_DATA
360
3A1
  0
DICTIONARY
  5
3A3
330
3A5
100
AcDbDictionary
280
     1
281
     1
  3
TC_OPTIONAL_DATA
360
3A4
  0
DICTIONARY
  5
3A6
330
3A8
100
AcDbDictionary
280
     1
281
     1
  3
TC_OPTIONAL_DATA
360
3A7
  0
DICTIONARY
  5
3A9
330
3AB
100
AcDbDictionary
280
     1
281
     1
  3
TC_OPTIONAL_DATA
360
3AA
  0
DICTIONARY
  5
3AC
330
3AE
100
AcDbDictionary
280
     1
281
     1
  3
TC_OPTIONAL_DATA
360
3AD
  0
DICTIONARY
  5
3AF
330
3B1
100
AcDbDictionary
280
     1
281
     1
  3
TC_OPTIONAL_DATA
360
3B0
  0
DICTIONARY
  5
3B2
330
3B4
100
AcDbDictionary
280
     1
281
     1
  3
TC_OPTIONAL_DATA
360
3B3
  0
DICTIONARY
  5
3B5
330
3B7
100
AcDbDictionary
280
     1
281
     1
  3
TC_OPTIONAL_DATA
360
3B6
  0
DICTIONARY
  5
3B8
330
3BA
100
AcDbDictionary
280
     1
281
     1
  3
TC_OPTIONAL_DATA
360
3B9
  0
DICTIONARY
  5
3BB
330
3BD
100
AcDbDictionary
280
     1
281
     1
  3
TC_OPTIONAL_DATA
360
3BC
  0
DICTIONARY
  5
3BE
330
3C0
100
AcDbDictionary
280
     1
281
     1
  3
TC_OPTIONAL_DATA
360
3BF
  0
DICTIONARY
  5
3C1
330
3C3
100
AcDbDictionary
280
     1
281
     1
  3
TC_OPTIONAL_DATA
360
3C2
  0
DICTIONARY
  5
3C4
330
3C6
100
AcDbDictionary
280
     1
281
     1
  3
TC_OPTIONAL_DATA
360
3C5
  0
DICTIONARY
  5
3C7
330
3C9
100
AcDbDictionary
280
     1
281
     1
  3
TC_OPTIONAL_DATA
360
3C8
  0
DICTIONARY
  5
3CA
330
3CC
100
AcDbDictionary
280
     1
281
     1
  3
TC_OPTIONAL_DATA
360
3CB
  0
DICTIONARY
  5
3CD
330
3CF
100
AcDbDictionary
280
     1
281
     1
  3
TC_OPTIONAL_DATA
360
3CE
  0
DICTIONARY
  5
3D0
330
3D2
100
AcDbDictionary
280
     1
281
     1
  3
TC_OPTIONAL_DATA
360
3D1
  0
DICTIONARY
  5
3D3
330
3D5
100
AcDbDictionary
280
     1
281
     1
  3
TC_OPTIONAL_DATA
360
3D4
  0
DICTIONARY
  5
3D6
330
3D8
100
AcDbDictionary
280
     1
281
     1
  3
TC_OPTIONAL_DATA
360
3D7
  0
DICTIONARY
  5
3D9
330
3DB
100
AcDbDictionary
280
     1
281
     1
  3
TC_OPTIONAL_DATA
360
3DA
  0
DICTIONARY
  5
3DC
330
3DE
100
AcDbDictionary
280
     1
281
     1
  3
TC_OPTIONAL_DATA
360
3DD
  0
DICTIONARY
  5
3DF
330
3E1
100
AcDbDictionary
280
     1
281
     1
  3
TC_OPTIONAL_DATA
360
3E0
  0
DICTIONARY
  5
3E2
330
3E4
100
AcDbDictionary
280
     1
281
     1
  3
TC_OPTIONAL_DATA
360
3E3
  0
DICTIONARY
  5
3E5
330
3E7
100
AcDbDictionary
280
     1
281
     1
  3
TC_OPTIONAL_DATA
360
3E6
  0
DICTIONARY
  5
3E8
330
3EA
100
AcDbDictionary
280
     1
281
     1
  3
TC_OPTIONAL_DATA
360
3E9
  0
DICTIONARY
  5
3EB
330
3ED
100
AcDbDictionary
280
     1
281
     1
  3
TC_OPTIONAL_DATA
360
3EC
  0
DICTIONARY
  5
3EE
330
3F0
100
AcDbDictionary
280
     1
281
     1
  3
TC_OPTIONAL_DATA
360
3EF
  0
DICTIONARY
  5
3F1
330
3F3
100
AcDbDictionary
280
     1
281
     1
  3
TC_OPTIONAL_DATA
360
3F2
  0
DICTIONARY
  5
3F4
330
3F6
100
AcDbDictionary
280
     1
281
     1
  3
TC_OPTIONAL_DATA
360
3F5
  0
DICTIONARY
  5
3F7
330
3F9
100
AcDbDictionary
280
     1
281
     1
  3
TC_OPTIONAL_DATA
360
3F8
  0
DICTIONARY
  5
3FA
330
3FC
100
AcDbDictionary
280
     1
281
     1
  3
TC_OPTIONAL_DATA
360
3FB
  0
DICTIONARY
  5
3FD
330
3FF
100
AcDbDictionary
280
     1
281
     1
  3
TC_OPTIONAL_DATA
360
3FE
  0
DICTIONARY
  5
400
330
402
100
AcDbDictionary
280
     1
281
     1
  3
TC_OPTIONAL_DATA
360
401
  0
DICTIONARY
  5
403
330
405
100
AcDbDictionary
280
     1
281
     1
  3
TC_OPTIONAL_DATA
360
404
  0
DICTIONARY
  5
406
330
408
100
AcDbDictionary
280
     1
281
     1
  3
TC_OPTIONAL_DATA
360
407
  0
DICTIONARY
  5
409
330
40B
100
AcDbDictionary
280
     1
281
     1
  3
TC_OPTIONAL_DATA
360
40A
  0
DICTIONARY
  5
40C
330
40E
100
AcDbDictionary
280
     1
281
     1
  3
TC_OPTIONAL_DATA
360
40D
  0
DICTIONARY
  5
40F
330
411
100
AcDbDictionary
280
     1
281
     1
  3
TC_OPTIONAL_DATA
360
410
  0
DICTIONARY
  5
412
330
414
100
AcDbDictionary
280
     1
281
     1
  3
TC_OPTIONAL_DATA
360
413
  0
DICTIONARY
  5
415
330
417
100
AcDbDictionary
280
     1
281
     1
  3
TC_OPTIONAL_DATA
360
416
  0
DICTIONARY
  5
418
330
41A
100
AcDbDictionary
280
     1
281
     1
  3
TC_OPTIONAL_DATA
360
419
  0
DICTIONARY
  5
41B
330
41D
100
AcDbDictionary
280
     1
281
     1
  3
TC_OPTIONAL_DATA
360
41C
  0
DICTIONARY
  5
41E
330
420
100
AcDbDictionary
280
     1
281
     1
  3
TC_OPTIONAL_DATA
360
41F
  0
DICTIONARY
  5
421
330
423
100
AcDbDictionary
280
     1
281
     1
  3
TC_OPTIONAL_DATA
360
422
  0
DICTIONARY
  5
424
330
426
100
AcDbDictionary
280
     1
281
     1
  3
TC_OPTIONAL_DATA
360
425
  0
DICTIONARY
  5
427
330
429
100
AcDbDictionary
280
     1
281
     1
  3
TC_OPTIONAL_DATA
360
428
  0
DICTIONARY
  5
42A
330
42C
100
AcDbDictionary
280
     1
281
     1
  3
TC_OPTIONAL_DATA
360
42B
  0
DICTIONARY
  5
42D
330
42F
100
AcDbDictionary
280
     1
281
     1
  3
TC_OPTIONAL_DATA
360
42E
  0
DICTIONARY
  5
430
330
432
100
AcDbDictionary
280
     1
281
     1
  3
TC_OPTIONAL_DATA
360
431
  0
DICTIONARY
  5
433
330
435
100
AcDbDictionary
280
     1
281
     1
  3
TC_OPTIONAL_DATA
360
434
  0
DICTIONARY
  5
436
330
438
100
AcDbDictionary
280
     1
281
     1
  3
TC_OPTIONAL_DATA
360
437
  0
DICTIONARY
  5
439
330
43B
100
AcDbDictionary
280
     1
281
     1
  3
TC_OPTIONAL_DATA
360
43A
  0
DICTIONARY
  5
43C
330
43E
100
AcDbDictionary
280
     1
281
     1
  3
TC_OPTIONAL_DATA
360
43D
  0
DICTIONARY
  5
43F
330
441
100
AcDbDictionary
280
     1
281
     1
  3
TC_OPTIONAL_DATA
360
440
  0
DICTIONARY
  5
442
330
444
100
AcDbDictionary
280
     1
281
     1
  3
TC_OPTIONAL_DATA
360
443
  0
DICTIONARY
  5
445
330
447
100
AcDbDictionary
280
     1
281
     1
  3
TC_OPTIONAL_DATA
360
446
  0
DICTIONARY
  5
448
330
44A
100
AcDbDictionary
280
     1
281
     1
  3
TC_OPTIONAL_DATA
360
449
  0
DICTIONARY
  5
44B
330
44D
100
AcDbDictionary
280
     1
281
     1
  3
TC_OPTIONAL_DATA
360
44C
  0
DICTIONARY
  5
44E
330
450
100
AcDbDictionary
280
     1
281
     1
  3
TC_OPTIONAL_DATA
360
44F
  0
DICTIONARY
  5
451
330
453
100
AcDbDictionary
280
     1
281
     1
  3
TC_OPTIONAL_DATA
360
452
  0
DICTIONARY
  5
454
330
456
100
AcDbDictionary
280
     1
281
     1
  3
TC_OPTIONAL_DATA
360
455
  0
DICTIONARY
  5
457
330
459
100
AcDbDictionary
280
     1
281
     1
  3
TC_OPTIONAL_DATA
360
458
  0
DICTIONARY
  5
45A
330
45C
100
AcDbDictionary
280
     1
281
     1
  3
TC_OPTIONAL_DATA
360
45B
  0
DICTIONARY
  5
45D
330
45F
100
AcDbDictionary
280
     1
281
     1
  3
TC_OPTIONAL_DATA
360
45E
  0
DICTIONARY
  5
460
330
462
100
AcDbDictionary
280
     1
281
     1
  3
TC_OPTIONAL_DATA
360
461
  0
DICTIONARY
  5
463
330
465
100
AcDbDictionary
280
     1
281
     1
  3
TC_OPTIONAL_DATA
360
464
  0
DICTIONARY
  5
466
330
468
100
AcDbDictionary
280
     1
281
     1
  3
TC_OPTIONAL_DATA
360
467
  0
DICTIONARY
  5
469
330
46B
100
AcDbDictionary
280
     1
281
     1
  3
TC_OPTIONAL_DATA
360
46A
  0
DICTIONARY
  5
46C
330
46E
100
AcDbDictionary
280
     1
281
     1
  3
TC_OPTIONAL_DATA
360
46D
  0
DICTIONARY
  5
46F
330
471
100
AcDbDictionary
280
     1
281
     1
  3
TC_OPTIONAL_DATA
360
470
  0
DICTIONARY
  5
472
330
474
100
AcDbDictionary
280
     1
281
     1
  3
TC_OPTIONAL_DATA
360
473
  0
DICTIONARY
  5
475
330
477
100
AcDbDictionary
280
     1
281
     1
  3
TC_OPTIONAL_DATA
360
476
  0
DICTIONARY
  5
478
330
47A
100
AcDbDictionary
280
     1
281
     1
  3
TC_OPTIONAL_DATA
360
479
  0
DICTIONARY
  5
47B
330
47D
100
AcDbDictionary
280
     1
281
     1
  3
TC_OPTIONAL_DATA
360
47C
  0
DICTIONARY
  5
47E
330
480
100
AcDbDictionary
280
     1
281
     1
  3
TC_OPTIONAL_DATA
360
47F
  0
DICTIONARY
  5
481
330
483
100
AcDbDictionary
280
     1
281
     1
  3
TC_OPTIONAL_DATA
360
482
  0
DICTIONARY
  5
484
330
486
100
AcDbDictionary
280
     1
281
     1
  3
TC_OPTIONAL_DATA
360
485
  0
DICTIONARY
  5
487
330
489
100
AcDbDictionary
280
     1
281
     1
  3
TC_OPTIONAL_DATA
360
488
  0
DICTIONARY
  5
48A
330
48C
100
AcDbDictionary
280
     1
281
     1
  3
TC_OPTIONAL_DATA
360
48B
  0
DICTIONARY
  5
48D
330
48F
100
AcDbDictionary
280
     1
281
     1
  3
TC_OPTIONAL_DATA
360
48E
  0
DICTIONARY
  5
490
330
492
100
AcDbDictionary
280
     1
281
     1
  3
TC_OPTIONAL_DATA
360
491
  0
DICTIONARY
  5
493
330
495
100
AcDbDictionary
280
     1
281
     1
  3
TC_OPTIONAL_DATA
360
494
  0
DICTIONARY
  5
496
330
498
100
AcDbDictionary
280
     1
281
     1
  3
TC_OPTIONAL_DATA
360
497
  0
DICTIONARY
  5
499
330
49B
100
AcDbDictionary
280
     1
281
     1
  3
TC_OPTIONAL_DATA
360
49A
  0
DICTIONARY
  5
49C
330
49E
100
AcDbDictionary
280
     1
281
     1
  3
TC_OPTIONAL_DATA
360
49D
  0
DICTIONARY
  5
49F
330
4A1
100
AcDbDictionary
280
     1
281
     1
  3
TC_OPTIONAL_DATA
360
4A0
  0
DICTIONARY
  5
4A2
330
4A4
100
AcDbDictionary
280
     1
281
     1
  3
TC_OPTIONAL_DATA
360
4A3
  0
DICTIONARY
  5
4A5
330
4A7
100
AcDbDictionary
280
     1
281
     1
  3
TC_OPTIONAL_DATA
360
4A6
  0
DICTIONARY
  5
4A8
330
4AA
100
AcDbDictionary
280
     1
281
     1
  3
TC_OPTIONAL_DATA
360
4A9
  0
DICTIONARY
  5
4AB
330
4AD
100
AcDbDictionary
280
     1
281
     1
  3
TC_OPTIONAL_DATA
360
4AC
  0
DICTIONARY
  5
4AE
330
4B0
100
AcDbDictionary
280
     1
281
     1
  3
TC_OPTIONAL_DATA
360
4AF
  0
DICTIONARY
  5
4B1
330
4B3
100
AcDbDictionary
280
     1
281
     1
  3
TC_OPTIONAL_DATA
360
4B2
  0
DICTIONARY
  5
4B4
330
4B6
100
AcDbDictionary
280
     1
281
     1
  3
TC_OPTIONAL_DATA
360
4B5
  0
DICTIONARY
  5
4B7
330
4B9
100
AcDbDictionary
280
     1
281
     1
  3
TC_OPTIONAL_DATA
360
4B8
  0
DICTIONARY
  5
4BA
330
4BC
100
AcDbDictionary
280
     1
281
     1
  3
TC_OPTIONAL_DATA
360
4BB
  0
DICTIONARY
  5
4BD
330
4BF
100
AcDbDictionary
280
     1
281
     1
  3
TC_OPTIONAL_DATA
360
4BE
  0
DICTIONARY
  5
4C0
330
4C2
100
AcDbDictionary
280
     1
281
     1
  3
TC_OPTIONAL_DATA
360
4C1
  0
DICTIONARY
  5
4C3
330
4C5
100
AcDbDictionary
280
     1
281
     1
  3
TC_OPTIONAL_DATA
360
4C4
  0
DICTIONARY
  5
4C6
330
4C8
100
AcDbDictionary
280
     1
281
     1
  3
TC_OPTIONAL_DATA
360
4C7
  0
DICTIONARY
  5
4C9
330
4CB
100
AcDbDictionary
280
     1
281
     1
  3
TC_OPTIONAL_DATA
360
4CA
  0
DICTIONARY
  5
4CC
330
4CE
100
AcDbDictionary
280
     1
281
     1
  3
TC_OPTIONAL_DATA
360
4CD
  0
DICTIONARY
  5
4CF
330
4D1
100
AcDbDictionary
280
     1
281
     1
  3
TC_OPTIONAL_DATA
360
4D0
  0
DICTIONARY
  5
4D2
330
4D4
100
AcDbDictionary
280
     1
281
     1
  3
TC_OPTIONAL_DATA
360
4D3
  0
DICTIONARY
  5
4D5
330
4D7
100
AcDbDictionary
280
     1
281
     1
  3
TC_OPTIONAL_DATA
360
4D6
  0
DICTIONARY
  5
4D8
330
4DA
100
AcDbDictionary
280
     1
281
     1
  3
TC_OPTIONAL_DATA
360
4D9
  0
DICTIONARY
  5
4DB
330
4DD
100
AcDbDictionary
280
     1
281
     1
  3
TC_OPTIONAL_DATA
360
4DC
  0
DICTIONARY
  5
4DE
330
4E0
100
AcDbDictionary
280
     1
281
     1
  3
TC_OPTIONAL_DATA
360
4DF
  0
DICTIONARY
  5
4E1
330
4E3
100
AcDbDictionary
280
     1
281
     1
  3
TC_OPTIONAL_DATA
360
4E2
  0
DICTIONARY
  5
4E4
330
4E6
100
AcDbDictionary
280
     1
281
     1
  3
TC_OPTIONAL_DATA
360
4E5
  0
DICTIONARY
  5
4E7
330
4E9
100
AcDbDictionary
280
     1
281
     1
  3
TC_OPTIONAL_DATA
360
4E8
  0
DICTIONARY
  5
D
102
{ACAD_REACTORS
330
C
102
}
330
C
100
AcDbDictionary
281
     1
  0
DICTIONARY
  5
1A
102
{ACAD_REACTORS
330
C
102
}
330
C
100
AcDbDictionary
281
     1
  3
Layout1
350
1E
  3
Layout2
350
3C
  3
Model
350
22
  0
DICTIONARY
  5
17
102
{ACAD_REACTORS
330
C
102
}
330
C
100
AcDbDictionary
281
     1
  3
Standard
350
18
  0
DICTIONARY
  5
19
102
{ACAD_REACTORS
330
C
102
}
330
C
100
AcDbDictionary
281
     1
  0
ACDBDICTIONARYWDFLT
  5
E
102
{ACAD_REACTORS
330
C
102
}
330
C
100
AcDbDictionary
281
     1
  3
Normal
350
F
100
AcDbDictionaryWithDefault
340
F
  0
DICTIONARY
  5
4EF
102
{ACAD_REACTORS
330
C
102
}
330
C
100
AcDbDictionary
281
     1
  0
DICTIONARY
  5
2A
102
{ACAD_REACTORS
330
C
102
}
330
C
100
AcDbDictionary
281
     1
  3
2dWireframe
350
2F
  3
3D Hidden
350
31
  3
3dWireframe
350
30
  3
Basic
350
32
  3
Brighten
350
36
  3
ColorChange
350
3A
  3
Conceptual
350
34
  3
Dim
350
35
  3
Facepattern
350
39
  3
Flat
350
2B
  3
FlatWithEdges
350
2C
  3
Gouraud
350
2D
  3
GouraudWithEdges
350
2E
  3
Linepattern
350
38
  3
Realistic
350
33
  3
Thicken
350
37
  0
TCOPTIONALDATA
  5
56
102
{ACAD_REACTORS
330
55
102
}
330
55
100
TcOptionalData
 70
     1
 70
    32
 40
-3.0
  0
TCOPTIONALDATA
  5
59
102
{ACAD_REACTORS
330
58
102
}
330
58
100
TcOptionalData
 70
     1
 70
    32
 40
-3.0
  0
TCOPTIONALDATA
  5
5C
102
{ACAD_REACTORS
330
5B
102
}
330
5B
100
TcOptionalData
 70
     1
 70
    32
 40
-3.0
  0
TCOPTIONALDATA
  5
5F
102
{ACAD_REACTORS
330
5E
102
}
330
5E
100
TcOptionalData
 70
     1
 70
    32
 40
-3.0
  0
TCOPTIONALDATA
  5
62
102
{ACAD_REACTORS
330
61
102
}
330
61
100
TcOptionalData
 70
     1
 70
    32
 40
-3.0
  0
TCOPTIONALDATA
  5
65
102
{ACAD_REACTORS
330
64
102
}
330
64
100
TcOptionalData
 70
     1
 70
    32
 40
-3.0
  0
TCOPTIONALDATA
  5
68
102
{ACAD_REACTORS
330
67
102
}
330
67
100
TcOptionalData
 70
     1
 70
    32
 40
-3.0
  0
TCOPTIONALDATA
  5
6B
102
{ACAD_REACTORS
330
6A
102
}
330
6A
100
TcOptionalData
 70
     1
 70
    32
 40
-3.0
  0
TCOPTIONALDATA
  5
6E
102
{ACAD_REACTORS
330
6D
102
}
330
6D
100
TcOptionalData
 70
     1
 70
    32
 40
-3.0
  0
TCOPTIONALDATA
  5
71
102
{ACAD_REACTORS
330
70
102
}
330
70
100
TcOptionalData
 70
     1
 70
    32
 40
-3.0
  0
TCOPTIONALDATA
  5
74
102
{ACAD_REACTORS
330
73
102
}
330
73
100
TcOptionalData
 70
     1
 70
    32
 40
-3.0
  0
TCOPTIONALDATA
  5
77
102
{ACAD_REACTORS
330
76
102
}
330
76
100
TcOptionalData
 70
     1
 70
    32
 40
-3.0
  0
TCOPTIONALDATA
  5
7A
102
{ACAD_REACTORS
330
79
102
}
330
79
100
TcOptionalData
 70
     1
 70
    32
 40
-3.0
  0
TCOPTIONALDATA
  5
7D
102
{ACAD_REACTORS
330
7C
102
}
330
7C
100
TcOptionalData
 70
     1
 70
    32
 40
-3.0
  0
TCOPTIONALDATA
  5
80
102
{ACAD_REACTORS
330
7F
102
}
330
7F
100
TcOptionalData
 70
     1
 70
    32
 40
-3.0
  0
TCOPTIONALDATA
  5
83
102
{ACAD_REACTORS
330
82
102
}
330
82
100
TcOptionalData
 70
     1
 70
    32
 40
-3.0
  0
TCOPTIONALDATA
  5
86
102
{ACAD_REACTORS
330
85
102
}
330
85
100
TcOptionalData
 70
     1
 70
    32
 40
-3.0
  0
TCOPTIONALDATA
  5
89
102
{ACAD_REACTORS
330
88
102
}
330
88
100
TcOptionalData
 70
     1
 70
    32
 40
-3.0
  0
TCOPTIONALDATA
  5
8C
102
{ACAD_REACTORS
330
8B
102
}
330
8B
100
TcOptionalData
 70
     1
 70
    32
 40
-3.0
  0
TCOPTIONALDATA
  5
8F
102
{ACAD_REACTORS
330
8E
102
}
330
8E
100
TcOptionalData
 70
     1
 70
    32
 40
-3.0
  0
TCOPTIONALDATA
  5
92
102
{ACAD_REACTORS
330
91
102
}
330
91
100
TcOptionalData
 70
     1
 70
    32
 40
-3.0
  0
TCOPTIONALDATA
  5
95
102
{ACAD_REACTORS
330
94
102
}
330
94
100
TcOptionalData
 70
     1
 70
    32
 40
-3.0
  0
TCOPTIONALDATA
  5
98
102
{ACAD_REACTORS
330
97
102
}
330
97
100
TcOptionalData
 70
     1
 70
    32
 40
-3.0
  0
TCOPTIONALDATA
  5
9B
102
{ACAD_REACTORS
330
9A
102
}
330
9A
100
TcOptionalData
 70
     1
 70
    32
 40
-3.0
  0
TCOPTIONALDATA
  5
9E
102
{ACAD_REACTORS
330
9D
102
}
330
9D
100
TcOptionalData
 70
     1
 70
    32
 40
-3.0
  0
TCOPTIONALDATA
  5
A1
102
{ACAD_REACTORS
330
A0
102
}
330
A0
100
TcOptionalData
 70
     1
 70
    32
 40
-3.0
  0
TCOPTIONALDATA
  5
A4
102
{ACAD_REACTORS
330
A3
102
}
330
A3
100
TcOptionalData
 70
     1
 70
    32
 40
-3.0
  0
TCOPTIONALDATA
  5
A7
102
{ACAD_REACTORS
330
A6
102
}
330
A6
100
TcOptionalData
 70
     1
 70
    32
 40
-3.0
  0
TCOPTIONALDATA
  5
AA
102
{ACAD_REACTORS
330
A9
102
}
330
A9
100
TcOptionalData
 70
     1
 70
    32
 40
-3.0
  0
TCOPTIONALDATA
  5
AD
102
{ACAD_REACTORS
330
AC
102
}
330
AC
100
TcOptionalData
 70
     1
 70
    32
 40
-3.0
  0
TCOPTIONALDATA
  5
B0
102
{ACAD_REACTORS
330
AF
102
}
330
AF
100
TcOptionalData
 70
     1
 70
    32
 40
-3.0
  0
TCOPTIONALDATA
  5
B3
102
{ACAD_REACTORS
330
B2
102
}
330
B2
100
TcOptionalData
 70
     1
 70
    32
 40
-3.0
  0
TCOPTIONALDATA
  5
B6
102
{ACAD_REACTORS
330
B5
102
}
330
B5
100
TcOptionalData
 70
     1
 70
    32
 40
-3.0
  0
TCOPTIONALDATA
  5
B9
102
{ACAD_REACTORS
330
B8
102
}
330
B8
100
TcOptionalData
 70
     1
 70
    32
 40
-3.0
  0
TCOPTIONALDATA
  5
BC
102
{ACAD_REACTORS
330
BB
102
}
330
BB
100
TcOptionalData
 70
     1
 70
    32
 40
-3.0
  0
TCOPTIONALDATA
  5
BF
102
{ACAD_REACTORS
330
BE
102
}
330
BE
100
TcOptionalData
 70
     1
 70
    32
 40
-3.0
  0
TCOPTIONALDATA
  5
C2
102
{ACAD_REACTORS
330
C1
102
}
330
C1
100
TcOptionalData
 70
     1
 70
    32
 40
-3.0
  0
TCOPTIONALDATA
  5
C5
102
{ACAD_REACTORS
330
C4
102
}
330
C4
100
TcOptionalData
 70
     1
 70
    32
 40
-3.0
  0
TCOPTIONALDATA
  5
C8
102
{ACAD_REACTORS
330
C7
102
}
330
C7
100
TcOptionalData
 70
     1
 70
    32
 40
-3.0
  0
TCOPTIONALDATA
  5
CB
102
{ACAD_REACTORS
330
CA
102
}
330
CA
100
TcOptionalData
 70
     1
 70
    32
 40
-3.0
  0
TCOPTIONALDATA
  5
CE
102
{ACAD_REACTORS
330
CD
102
}
330
CD
100
TcOptionalData
 70
     1
 70
    32
 40
-3.0
  0
TCOPTIONALDATA
  5
D1
102
{ACAD_REACTORS
330
D0
102
}
330
D0
100
TcOptionalData
 70
     1
 70
    32
 40
-3.0
  0
TCOPTIONALDATA
  5
D4
102
{ACAD_REACTORS
330
D3
102
}
330
D3
100
TcOptionalData
 70
     1
 70
    32
 40
-3.0
  0
TCOPTIONALDATA
  5
D7
102
{ACAD_REACTORS
330
D6
102
}
330
D6
100
TcOptionalData
 70
     1
 70
    32
 40
-3.0
  0
TCOPTIONALDATA
  5
DA
102
{ACAD_REACTORS
330
D9
102
}
330
D9
100
TcOptionalData
 70
     1
 70
    32
 40
-3.0
  0
TCOPTIONALDATA
  5
DD
102
{ACAD_REACTORS
330
DC
102
}
330
DC
100
TcOptionalData
 70
     1
 70
    32
 40
-3.0
  0
TCOPTIONALDATA
  5
E0
102
{ACAD_REACTORS
330
DF
102
}
330
DF
100
TcOptionalData
 70
     1
 70
    32
 40
-3.0
  0
TCOPTIONALDATA
  5
E3
102
{ACAD_REACTORS
330
E2
102
}
330
E2
100
TcOptionalData
 70
     1
 70
    32
 40
-3.0
  0
TCOPTIONALDATA
  5
E6
102
{ACAD_REACTORS
330
E5
102
}
330
E5
100
TcOptionalData
 70
     1
 70
    32
 40
-3.0
  0
TCOPTIONALDATA
  5
E9
102
{ACAD_REACTORS
330
E8
102
}
330
E8
100
TcOptionalData
 70
     1
 70
    32
 40
-3.0
  0
TCOPTIONALDATA
  5
EC
102
{ACAD_REACTORS
330
EB
102
}
330
EB
100
TcOptionalData
 70
     1
 70
    32
 40
-3.0
  0
TCOPTIONALDATA
  5
EF
102
{ACAD_REACTORS
330
EE
102
}
330
EE
100
TcOptionalData
 70
     1
 70
    32
 40
-3.0
  0
TCOPTIONALDATA
  5
F2
102
{ACAD_REACTORS
330
F1
102
}
330
F1
100
TcOptionalData
 70
     1
 70
    32
 40
-3.0
  0
TCOPTIONALDATA
  5
F5
102
{ACAD_REACTORS
330
F4
102
}
330
F4
100
TcOptionalData
 70
     1
 70
    32
 40
-3.0
  0
TCOPTIONALDATA
  5
F8
102
{ACAD_REACTORS
330
F7
102
}
330
F7
100
TcOptionalData
 70
     1
 70
    32
 40
-3.0
  0
TCOPTIONALDATA
  5
FB
102
{ACAD_REACTORS
330
FA
102
}
330
FA
100
TcOptionalData
 70
     1
 70
    32
 40
-3.0
  0
TCOPTIONALDATA
  5
FE
102
{ACAD_REACTORS
330
FD
102
}
330
FD
100
TcOptionalData
 70
     1
 70
    32
 40
-3.0
  0
TCOPTIONALDATA
  5
101
102
{ACAD_REACTORS
330
100
102
}
330
100
100
TcOptionalData
 70
     1
 70
    32
 40
-3.0
  0
TCOPTIONALDATA
  5
104
102
{ACAD_REACTORS
330
103
102
}
330
103
100
TcOptionalData
 70
     1
 70
    32
 40
-3.0
  0
TCOPTIONALDATA
  5
107
102
{ACAD_REACTORS
330
106
102
}
330
106
100
TcOptionalData
 70
     1
 70
    32
 40
-3.0
  0
TCOPTIONALDATA
  5
10A
102
{ACAD_REACTORS
330
109
102
}
330
109
100
TcOptionalData
 70
     1
 70
    32
 40
-3.0
  0
TCOPTIONALDATA
  5
10D
102
{ACAD_REACTORS
330
10C
102
}
330
10C
100
TcOptionalData
 70
     1
 70
    32
 40
-3.0
  0
TCOPTIONALDATA
  5
110
102
{ACAD_REACTORS
330
10F
102
}
330
10F
100
TcOptionalData
 70
     1
 70
    32
 40
-3.0
  0
TCOPTIONALDATA
  5
113
102
{ACAD_REACTORS
330
112
102
}
330
112
100
TcOptionalData
 70
     1
 70
    32
 40
-3.0
  0
TCOPTIONALDATA
  5
116
102
{ACAD_REACTORS
330
115
102
}
330
115
100
TcOptionalData
 70
     1
 70
    32
 40
-3.0
  0
TCOPTIONALDATA
  5
119
102
{ACAD_REACTORS
330
118
102
}
330
118
100
TcOptionalData
 70
     1
 70
    32
 40
-3.0
  0
TCOPTIONALDATA
  5
11C
102
{ACAD_REACTORS
330
11B
102
}
330
11B
100
TcOptionalData
 70
     1
 70
    32
 40
-3.0
  0
TCOPTIONALDATA
  5
11F
102
{ACAD_REACTORS
330
11E
102
}
330
11E
100
TcOptionalData
 70
     1
 70
    32
 40
-3.0
  0
TCOPTIONALDATA
  5
122
102
{ACAD_REACTORS
330
121
102
}
330
121
100
TcOptionalData
 70
     1
 70
    32
 40
-3.0
  0
TCOPTIONALDATA
  5
125
102
{ACAD_REACTORS
330
124
102
}
330
124
100
TcOptionalData
 70
     1
 70
    32
 40
-3.0
  0
TCOPTIONALDATA
  5
128
102
{ACAD_REACTORS
330
127
102
}
330
127
100
TcOptionalData
 70
     1
 70
    32
 40
-3.0
  0
TCOPTIONALDATA
  5
12B
102
{ACAD_REACTORS
330
12A
102
}
330
12A
100
TcOptionalData
 70
     1
 70
    32
 40
-3.0
  0
TCOPTIONALDATA
  5
12E
102
{ACAD_REACTORS
330
12D
102
}
330
12D
100
TcOptionalData
 70
     1
 70
    32
 40
-3.0
  0
TCOPTIONALDATA
  5
131
102
{ACAD_REACTORS
330
130
102
}
330
130
100
TcOptionalData
 70
     1
 70
    32
 40
-3.0
  0
TCOPTIONALDATA
  5
134
102
{ACAD_REACTORS
330
133
102
}
330
133
100
TcOptionalData
 70
     1
 70
    32
 40
-3.0
  0
TCOPTIONALDATA
  5
137
102
{ACAD_REACTORS
330
136
102
}
330
136
100
TcOptionalData
 70
     1
 70
    32
 40
-3.0
  0
TCOPTIONALDATA
  5
13A
102
{ACAD_REACTORS
330
139
102
}
330
139
100
TcOptionalData
 70
     1
 70
    32
 40
-3.0
  0
TCOPTIONALDATA
  5
13D
102
{ACAD_REACTORS
330
13C
102
}
330
13C
100
TcOptionalData
 70
     1
 70
    32
 40
-3.0
  0
TCOPTIONALDATA
  5
140
102
{ACAD_REACTORS
330
13F
102
}
330
13F
100
TcOptionalData
 70
     1
 70
    32
 40
-3.0
  0
TCOPTIONALDATA
  5
143
102
{ACAD_REACTORS
330
142
102
}
330
142
100
TcOptionalData
 70
     1
 70
    32
 40
-3.0
  0
TCOPTIONALDATA
  5
146
102
{ACAD_REACTORS
330
145
102
}
330
145
100
TcOptionalData
 70
     1
 70
    32
 40
-3.0
  0
TCOPTIONALDATA
  5
149
102
{ACAD_REACTORS
330
148
102
}
330
148
100
TcOptionalData
 70
     1
 70
    32
 40
-3.0
  0
TCOPTIONALDATA
  5
14C
102
{ACAD_REACTORS
330
14B
102
}
330
14B
100
TcOptionalData
 70
     1
 70
    32
 40
-3.0
  0
TCOPTIONALDATA
  5
14F
102
{ACAD_REACTORS
330
14E
102
}
330
14E
100
TcOptionalData
 70
     1
 70
    32
 40
-3.0
  0
TCOPTIONALDATA
  5
152
102
{ACAD_REACTORS
330
151
102
}
330
151
100
TcOptionalData
 70
     1
 70
    32
 40
-3.0
  0
TCOPTIONALDATA
  5
155
102
{ACAD_REACTORS
330
154
102
}
330
154
100
TcOptionalData
 70
     1
 70
    32
 40
-3.0
  0
TCOPTIONALDATA
  5
158
102
{ACAD_REACTORS
330
157
102
}
330
157
100
TcOptionalData
 70
     1
 70
    32
 40
-3.0
  0
TCOPTIONALDATA
  5
15B
102
{ACAD_REACTORS
330
15A
102
}
330
15A
100
TcOptionalData
 70
     1
 70
    32
 40
-3.0
  0
TCOPTIONALDATA
  5
15E
102
{ACAD_REACTORS
330
15D
102
}
330
15D
100
TcOptionalData
 70
     1
 70
    32
 40
-3.0
  0
TCOPTIONALDATA
  5
161
102
{ACAD_REACTORS
330
160
102
}
330
160
100
TcOptionalData
 70
     1
 70
    32
 40
-3.0
  0
TCOPTIONALDATA
  5
164
102
{ACAD_REACTORS
330
163
102
}
330
163
100
TcOptionalData
 70
     1
 70
    32
 40
-3.0
  0
TCOPTIONALDATA
  5
167
102
{ACAD_REACTORS
330
166
102
}
330
166
100
TcOptionalData
 70
     1
 70
    32
 40
-3.0
  0
TCOPTIONALDATA
  5
16A
102
{ACAD_REACTORS
330
169
102
}
330
169
100
TcOptionalData
 70
     1
 70
    32
 40
-3.0
  0
TCOPTIONALDATA
  5
16D
102
{ACAD_REACTORS
330
16C
102
}
330
16C
100
TcOptionalData
 70
     1
 70
    32
 40
-3.0
  0
TCOPTIONALDATA
  5
170
102
{ACAD_REACTORS
330
16F
102
}
330
16F
100
TcOptionalData
 70
     1
 70
    32
 40
-3.0
  0
TCOPTIONALDATA
  5
173
102
{ACAD_REACTORS
330
172
102
}
330
172
100
TcOptionalData
 70
     1
 70
    32
 40
-3.0
  0
TCOPTIONALDATA
  5
176
102
{ACAD_REACTORS
330
175
102
}
330
175
100
TcOptionalData
 70
     1
 70
    32
 40
-3.0
  0
TCOPTIONALDATA
  5
179
102
{ACAD_REACTORS
330
178
102
}
330
178
100
TcOptionalData
 70
     1
 70
    32
 40
-3.0
  0
TCOPTIONALDATA
  5
17C
102
{ACAD_REACTORS
330
17B
102
}
330
17B
100
TcOptionalData
 70
     1
 70
    32
 40
-3.0
  0
TCOPTIONALDATA
  5
17F
102
{ACAD_REACTORS
330
17E
102
}
330
17E
100
TcOptionalData
 70
     1
 70
    32
 40
-3.0
  0
TCOPTIONALDATA
  5
182
102
{ACAD_REACTORS
330
181
102
}
330
181
100
TcOptionalData
 70
     1
 70
    32
 40
-3.0
  0
TCOPTIONALDATA
  5
185
102
{ACAD_REACTORS
330
184
102
}
330
184
100
TcOptionalData
 70
     1
 70
    32
 40
-3.0
  0
TCOPTIONALDATA
  5
188
102
{ACAD_REACTORS
330
187
102
}
330
187
100
TcOptionalData
 70
     1
 70
    32
 40
-3.0
  0
TCOPTIONALDATA
  5
18B
102
{ACAD_REACTORS
330
18A
102
}
330
18A
100
TcOptionalData
 70
     1
 70
    32
 40
-3.0
  0
TCOPTIONALDATA
  5
18E
102
{ACAD_REACTORS
330
18D
102
}
330
18D
100
TcOptionalData
 70
     1
 70
    32
 40
-3.0
  0
TCOPTIONALDATA
  5
191
102
{ACAD_REACTORS
330
190
102
}
330
190
100
TcOptionalData
 70
     1
 70
    32
 40
-3.0
  0
TCOPTIONALDATA
  5
194
102
{ACAD_REACTORS
330
193
102
}
330
193
100
TcOptionalData
 70
     1
 70
    32
 40
-3.0
  0
TCOPTIONALDATA
  5
197
102
{ACAD_REACTORS
330
196
102
}
330
196
100
TcOptionalData
 70
     1
 70
    32
 40
-3.0
  0
TCOPTIONALDATA
  5
19A
102
{ACAD_REACTORS
330
199
102
}
330
199
100
TcOptionalData
 70
     1
 70
    32
 40
-3.0
  0
TCOPTIONALDATA
  5
19D
102
{ACAD_REACTORS
330
19C
102
}
330
19C
100
TcOptionalData
 70
     1
 70
    32
 40
-3.0
  0
TCOPTIONALDATA
  5
1A0
102
{ACAD_REACTORS
330
19F
102
}
330
19F
100
TcOptionalData
 70
     1
 70
    32
 40
-3.0
  0
TCOPTIONALDATA
  5
1A3
102
{ACAD_REACTORS
330
1A2
102
}
330
1A2
100
TcOptionalData
 70
     1
 70
    32
 40
-3.0
  0
TCOPTIONALDATA
  5
1A6
102
{ACAD_REACTORS
330
1A5
102
}
330
1A5
100
TcOptionalData
 70
     1
 70
    32
 40
-3.0
  0
TCOPTIONALDATA
  5
1A9
102
{ACAD_REACTORS
330
1A8
102
}
330
1A8
100
TcOptionalData
 70
     1
 70
    32
 40
-3.0
  0
TCOPTIONALDATA
  5
1AC
102
{ACAD_REACTORS
330
1AB
102
}
330
1AB
100
TcOptionalData
 70
     1
 70
    32
 40
-3.0
  0
TCOPTIONALDATA
  5
1AF
102
{ACAD_REACTORS
330
1AE
102
}
330
1AE
100
TcOptionalData
 70
     1
 70
    32
 40
-3.0
  0
TCOPTIONALDATA
  5
1B2
102
{ACAD_REACTORS
330
1B1
102
}
330
1B1
100
TcOptionalData
 70
     1
 70
    32
 40
-3.0
  0
TCOPTIONALDATA
  5
1B5
102
{ACAD_REACTORS
330
1B4
102
}
330
1B4
100
TcOptionalData
 70
     1
 70
    32
 40
-3.0
  0
TCOPTIONALDATA
  5
1B8
102
{ACAD_REACTORS
330
1B7
102
}
330
1B7
100
TcOptionalData
 70
     1
 70
    32
 40
-3.0
  0
TCOPTIONALDATA
  5
1BB
102
{ACAD_REACTORS
330
1BA
102
}
330
1BA
100
TcOptionalData
 70
     1
 70
    32
 40
-3.0
  0
TCOPTIONALDATA
  5
1BE
102
{ACAD_REACTORS
330
1BD
102
}
330
1BD
100
TcOptionalData
 70
     1
 70
    32
 40
-3.0
  0
TCOPTIONALDATA
  5
1C1
102
{ACAD_REACTORS
330
1C0
102
}
330
1C0
100
TcOptionalData
 70
     1
 70
    32
 40
-3.0
  0
TCOPTIONALDATA
  5
1C4
102
{ACAD_REACTORS
330
1C3
102
}
330
1C3
100
TcOptionalData
 70
     1
 70
    32
 40
-3.0
  0
TCOPTIONALDATA
  5
1C7
102
{ACAD_REACTORS
330
1C6
102
}
330
1C6
100
TcOptionalData
 70
     1
 70
    32
 40
-3.0
  0
TCOPTIONALDATA
  5
1CA
102
{ACAD_REACTORS
330
1C9
102
}
330
1C9
100
TcOptionalData
 70
     1
 70
    32
 40
-3.0
  0
TCOPTIONALDATA
  5
1CD
102
{ACAD_REACTORS
330
1CC
102
}
330
1CC
100
TcOptionalData
 70
     1
 70
    32
 40
-3.0
  0
TCOPTIONALDATA
  5
1D0
102
{ACAD_REACTORS
330
1CF
102
}
330
1CF
100
TcOptionalData
 70
     1
 70
    32
 40
-3.0
  0
TCOPTIONALDATA
  5
1D3
102
{ACAD_REACTORS
330
1D2
102
}
330
1D2
100
TcOptionalData
 70
     1
 70
    32
 40
-3.0
  0
TCOPTIONALDATA
  5
1D6
102
{ACAD_REACTORS
330
1D5
102
}
330
1D5
100
TcOptionalData
 70
     1
 70
    32
 40
-3.0
  0
TCOPTIONALDATA
  5
1D9
102
{ACAD_REACTORS
330
1D8
102
}
330
1D8
100
TcOptionalData
 70
     1
 70
    32
 40
-3.0
  0
TCOPTIONALDATA
  5
1DC
102
{ACAD_REACTORS
330
1DB
102
}
330
1DB
100
TcOptionalData
 70
     1
 70
    32
 40
-3.0
  0
TCOPTIONALDATA
  5
1DF
102
{ACAD_REACTORS
330
1DE
102
}
330
1DE
100
TcOptionalData
 70
     1
 70
    32
 40
-3.0
  0
TCOPTIONALDATA
  5
1E2
102
{ACAD_REACTORS
330
1E1
102
}
330
1E1
100
TcOptionalData
 70
     1
 70
    32
 40
-3.0
  0
TCOPTIONALDATA
  5
1E5
102
{ACAD_REACTORS
330
1E4
102
}
330
1E4
100
TcOptionalData
 70
     1
 70
    32
 40
-3.0
  0
TCOPTIONALDATA
  5
1E8
102
{ACAD_REACTORS
330
1E7
102
}
330
1E7
100
TcOptionalData
 70
     1
 70
    32
 40
-3.0
  0
TCOPTIONALDATA
  5
1EB
102
{ACAD_REACTORS
330
1EA
102
}
330
1EA
100
TcOptionalData
 70
     1
 70
    32
 40
-3.0
  0
TCOPTIONALDATA
  5
1EE
102
{ACAD_REACTORS
330
1ED
102
}
330
1ED
100
TcOptionalData
 70
     1
 70
    32
 40
-3.0
  0
TCOPTIONALDATA
  5
1F1
102
{ACAD_REACTORS
330
1F0
102
}
330
1F0
100
TcOptionalData
 70
     1
 70
    32
 40
-3.0
  0
TCOPTIONALDATA
  5
1F4
102
{ACAD_REACTORS
330
1F3
102
}
330
1F3
100
TcOptionalData
 70
     1
 70
    32
 40
-3.0
  0
TCOPTIONALDATA
  5
1F7
102
{ACAD_REACTORS
330
1F6
102
}
330
1F6
100
TcOptionalData
 70
     1
 70
    32
 40
-3.0
  0
TCOPTIONALDATA
  5
1FA
102
{ACAD_REACTORS
330
1F9
102
}
330
1F9
100
TcOptionalData
 70
     1
 70
    32
 40
-3.0
  0
TCOPTIONALDATA
  5
1FD
102
{ACAD_REACTORS
330
1FC
102
}
330
1FC
100
TcOptionalData
 70
     1
 70
    32
 40
-3.0
  0
TCOPTIONALDATA
  5
200
102
{ACAD_REACTORS
330
1FF
102
}
330
1FF
100
TcOptionalData
 70
     1
 70
    32
 40
-3.0
  0
TCOPTIONALDATA
  5
203
102
{ACAD_REACTORS
330
202
102
}
330
202
100
TcOptionalData
 70
     1
 70
    32
 40
-3.0
  0
TCOPTIONALDATA
  5
206
102
{ACAD_REACTORS
330
205
102
}
330
205
100
TcOptionalData
 70
     1
 70
    32
 40
-3.0
  0
TCOPTIONALDATA
  5
209
102
{ACAD_REACTORS
330
208
102
}
330
208
100
TcOptionalData
 70
     1
 70
    32
 40
-3.0
  0
TCOPTIONALDATA
  5
20C
102
{ACAD_REACTORS
330
20B
102
}
330
20B
100
TcOptionalData
 70
     1
 70
    32
 40
-3.0
  0
TCOPTIONALDATA
  5
20F
102
{ACAD_REACTORS
330
20E
102
}
330
20E
100
TcOptionalData
 70
     1
 70
    32
 40
-3.0
  0
TCOPTIONALDATA
  5
212
102
{ACAD_REACTORS
330
211
102
}
330
211
100
TcOptionalData
 70
     1
 70
    32
 40
-3.0
  0
TCOPTIONALDATA
  5
215
102
{ACAD_REACTORS
330
214
102
}
330
214
100
TcOptionalData
 70
     1
 70
    32
 40
-3.0
  0
TCOPTIONALDATA
  5
218
102
{ACAD_REACTORS
330
217
102
}
330
217
100
TcOptionalData
 70
     1
 70
    32
 40
-3.0
  0
TCOPTIONALDATA
  5
21B
102
{ACAD_REACTORS
330
21A
102
}
330
21A
100
TcOptionalData
 70
     1
 70
    32
 40
-3.0
  0
TCOPTIONALDATA
  5
21E
102
{ACAD_REACTORS
330
21D
102
}
330
21D
100
TcOptionalData
 70
     1
 70
    32
 40
-3.0
  0
TCOPTIONALDATA
  5
221
102
{ACAD_REACTORS
330
220
102
}
330
220
100
TcOptionalData
 70
     1
 70
    32
 40
-3.0
  0
TCOPTIONALDATA
  5
224
102
{ACAD_REACTORS
330
223
102
}
330
223
100
TcOptionalData
 70
     1
 70
    32
 40
-3.0
  0
TCOPTIONALDATA
  5
227
102
{ACAD_REACTORS
330
226
102
}
330
226
100
TcOptionalData
 70
     1
 70
    32
 40
-3.0
  0
TCOPTIONALDATA
  5
22A
102
{ACAD_REACTORS
330
229
102
}
330
229
100
TcOptionalData
 70
     1
 70
    32
 40
-3.0
  0
TCOPTIONALDATA
  5
22D
102
{ACAD_REACTORS
330
22C
102
}
330
22C
100
TcOptionalData
 70
     1
 70
    32
 40
-3.0
  0
TCOPTIONALDATA
  5
230
102
{ACAD_REACTORS
330
22F
102
}
330
22F
100
TcOptionalData
 70
     1
 70
    32
 40
-3.0
  0
TCOPTIONALDATA
  5
233
102
{ACAD_REACTORS
330
232
102
}
330
232
100
TcOptionalData
 70
     1
 70
    32
 40
-3.0
  0
TCOPTIONALDATA
  5
236
102
{ACAD_REACTORS
330
235
102
}
330
235
100
TcOptionalData
 70
     1
 70
    32
 40
-3.0
  0
TCOPTIONALDATA
  5
239
102
{ACAD_REACTORS
330
238
102
}
330
238
100
TcOptionalData
 70
     1
 70
    32
 40
-3.0
  0
TCOPTIONALDATA
  5
23C
102
{ACAD_REACTORS
330
23B
102
}
330
23B
100
TcOptionalData
 70
     1
 70
    32
 40
-3.0
  0
TCOPTIONALDATA
  5
23F
102
{ACAD_REACTORS
330
23E
102
}
330
23E
100
TcOptionalData
 70
     1
 70
    32
 40
-3.0
  0
TCOPTIONALDATA
  5
242
102
{ACAD_REACTORS
330
241
102
}
330
241
100
TcOptionalData
 70
     1
 70
    32
 40
-3.0
  0
TCOPTIONALDATA
  5
245
102
{ACAD_REACTORS
330
244
102
}
330
244
100
TcOptionalData
 70
     1
 70
    32
 40
-3.0
  0
TCOPTIONALDATA
  5
248
102
{ACAD_REACTORS
330
247
102
}
330
247
100
TcOptionalData
 70
     1
 70
    32
 40
-3.0
  0
TCOPTIONALDATA
  5
24B
102
{ACAD_REACTORS
330
24A
102
}
330
24A
100
TcOptionalData
 70
     1
 70
    32
 40
-3.0
  0
TCOPTIONALDATA
  5
24E
102
{ACAD_REACTORS
330
24D
102
}
330
24D
100
TcOptionalData
 70
     1
 70
    32
 40
-3.0
  0
TCOPTIONALDATA
  5
251
102
{ACAD_REACTORS
330
250
102
}
330
250
100
TcOptionalData
 70
     1
 70
    32
 40
-3.0
  0
TCOPTIONALDATA
  5
254
102
{ACAD_REACTORS
330
253
102
}
330
253
100
TcOptionalData
 70
     1
 70
    32
 40
-3.0
  0
TCOPTIONALDATA
  5
257
102
{ACAD_REACTORS
330
256
102
}
330
256
100
TcOptionalData
 70
     1
 70
    32
 40
-3.0
  0
TCOPTIONALDATA
  5
25A
102
{ACAD_REACTORS
330
259
102
}
330
259
100
TcOptionalData
 70
     1
 70
    32
 40
-3.0
  0
TCOPTIONALDATA
  5
25D
102
{ACAD_REACTORS
330
25C
102
}
330
25C
100
TcOptionalData
 70
     1
 70
    32
 40
-3.0
  0
TCOPTIONALDATA
  5
260
102
{ACAD_REACTORS
330
25F
102
}
330
25F
100
TcOptionalData
 70
     1
 70
    32
 40
-3.0
  0
TCOPTIONALDATA
  5
263
102
{ACAD_REACTORS
330
262
102
}
330
262
100
TcOptionalData
 70
     1
 70
    32
 40
-3.0
  0
TCOPTIONALDATA
  5
266
102
{ACAD_REACTORS
330
265
102
}
330
265
100
TcOptionalData
 70
     1
 70
    32
 40
-3.0
  0
TCOPTIONALDATA
  5
269
102
{ACAD_REACTORS
330
268
102
}
330
268
100
TcOptionalData
 70
     1
 70
    32
 40
-3.0
  0
TCOPTIONALDATA
  5
26C
102
{ACAD_REACTORS
330
26B
102
}
330
26B
100
TcOptionalData
 70
     1
 70
    32
 40
-3.0
  0
TCOPTIONALDATA
  5
26F
102
{ACAD_REACTORS
330
26E
102
}
330
26E
100
TcOptionalData
 70
     1
 70
    32
 40
-3.0
  0
TCOPTIONALDATA
  5
272
102
{ACAD_REACTORS
330
271
102
}
330
271
100
TcOptionalData
 70
     1
 70
    32
 40
-3.0
  0
TCOPTIONALDATA
  5
275
102
{ACAD_REACTORS
330
274
102
}
330
274
100
TcOptionalData
 70
     1
 70
    32
 40
-3.0
  0
TCOPTIONALDATA
  5
278
102
{ACAD_REACTORS
330
277
102
}
330
277
100
TcOptionalData
 70
     1
 70
    32
 40
-3.0
  0
TCOPTIONALDATA
  5
27B
102
{ACAD_REACTORS
330
27A
102
}
330
27A
100
TcOptionalData
 70
     1
 70
    32
 40
-3.0
  0
TCOPTIONALDATA
  5
27E
102
{ACAD_REACTORS
330
27D
102
}
330
27D
100
TcOptionalData
 70
     1
 70
    32
 40
-3.0
  0
TCOPTIONALDATA
  5
281
102
{ACAD_REACTORS
330
280
102
}
330
280
100
TcOptionalData
 70
     1
 70
    32
 40
-3.0
  0
TCOPTIONALDATA
  5
284
102
{ACAD_REACTORS
330
283
102
}
330
283
100
TcOptionalData
 70
     1
 70
    32
 40
-3.0
  0
TCOPTIONALDATA
  5
287
102
{ACAD_REACTORS
330
286
102
}
330
286
100
TcOptionalData
 70
     1
 70
    32
 40
-3.0
  0
TCOPTIONALDATA
  5
28A
102
{ACAD_REACTORS
330
289
102
}
330
289
100
TcOptionalData
 70
     1
 70
    32
 40
-3.0
  0
TCOPTIONALDATA
  5
28D
102
{ACAD_REACTORS
330
28C
102
}
330
28C
100
TcOptionalData
 70
     1
 70
    32
 40
-3.0
  0
TCOPTIONALDATA
  5
290
102
{ACAD_REACTORS
330
28F
102
}
330
28F
100
TcOptionalData
 70
     1
 70
    32
 40
-3.0
  0
TCOPTIONALDATA
  5
293
102
{ACAD_REACTORS
330
292
102
}
330
292
100
TcOptionalData
 70
     1
 70
    32
 40
-3.0
  0
TCOPTIONALDATA
  5
296
102
{ACAD_REACTORS
330
295
102
}
330
295
100
TcOptionalData
 70
     1
 70
    32
 40
-3.0
  0
TCOPTIONALDATA
  5
299
102
{ACAD_REACTORS
330
298
102
}
330
298
100
TcOptionalData
 70
     1
 70
    32
 40
-3.0
  0
TCOPTIONALDATA
  5
29C
102
{ACAD_REACTORS
330
29B
102
}
330
29B
100
TcOptionalData
 70
     1
 70
    32
 40
-3.0
  0
TCOPTIONALDATA
  5
29F
102
{ACAD_REACTORS
330
29E
102
}
330
29E
100
TcOptionalData
 70
     1
 70
    32
 40
-3.0
  0
TCOPTIONALDATA
  5
2A2
102
{ACAD_REACTORS
330
2A1
102
}
330
2A1
100
TcOptionalData
 70
     1
 70
    32
 40
-3.0
  0
TCOPTIONALDATA
  5
2A5
102
{ACAD_REACTORS
330
2A4
102
}
330
2A4
100
TcOptionalData
 70
     1
 70
    32
 40
-3.0
  0
TCOPTIONALDATA
  5
2A8
102
{ACAD_REACTORS
330
2A7
102
}
330
2A7
100
TcOptionalData
 70
     1
 70
    32
 40
-3.0
  0
TCOPTIONALDATA
  5
2AB
102
{ACAD_REACTORS
330
2AA
102
}
330
2AA
100
TcOptionalData
 70
     1
 70
    32
 40
-3.0
  0
TCOPTIONALDATA
  5
2AE
102
{ACAD_REACTORS
330
2AD
102
}
330
2AD
100
TcOptionalData
 70
     1
 70
    32
 40
-3.0
  0
TCOPTIONALDATA
  5
2B1
102
{ACAD_REACTORS
330
2B0
102
}
330
2B0
100
TcOptionalData
 70
     1
 70
    32
 40
-3.0
  0
TCOPTIONALDATA
  5
2B4
102
{ACAD_REACTORS
330
2B3
102
}
330
2B3
100
TcOptionalData
 70
     1
 70
    32
 40
-3.0
  0
TCOPTIONALDATA
  5
2B7
102
{ACAD_REACTORS
330
2B6
102
}
330
2B6
100
TcOptionalData
 70
     1
 70
    32
 40
-3.0
  0
TCOPTIONALDATA
  5
2BA
102
{ACAD_REACTORS
330
2B9
102
}
330
2B9
100
TcOptionalData
 70
     1
 70
    32
 40
-3.0
  0
TCOPTIONALDATA
  5
2BD
102
{ACAD_REACTORS
330
2BC
102
}
330
2BC
100
TcOptionalData
 70
     1
 70
    32
 40
-3.0
  0
TCOPTIONALDATA
  5
2C0
102
{ACAD_REACTORS
330
2BF
102
}
330
2BF
100
TcOptionalData
 70
     1
 70
    32
 40
-3.0
  0
TCOPTIONALDATA
  5
2C3
102
{ACAD_REACTORS
330
2C2
102
}
330
2C2
100
TcOptionalData
 70
     1
 70
    32
 40
-3.0
  0
TCOPTIONALDATA
  5
2C6
102
{ACAD_REACTORS
330
2C5
102
}
330
2C5
100
TcOptionalData
 70
     1
 70
    32
 40
-3.0
  0
TCOPTIONALDATA
  5
2C9
102
{ACAD_REACTORS
330
2C8
102
}
330
2C8
100
TcOptionalData
 70
     1
 70
    32
 40
-3.0
  0
TCOPTIONALDATA
  5
2CC
102
{ACAD_REACTORS
330
2CB
102
}
330
2CB
100
TcOptionalData
 70
     1
 70
    32
 40
-3.0
  0
TCOPTIONALDATA
  5
2CF
102
{ACAD_REACTORS
330
2CE
102
}
330
2CE
100
TcOptionalData
 70
     1
 70
    32
 40
-3.0
  0
TCOPTIONALDATA
  5
2D2
102
{ACAD_REACTORS
330
2D1
102
}
330
2D1
100
TcOptionalData
 70
     1
 70
    32
 40
-3.0
  0
TCOPTIONALDATA
  5
2D5
102
{ACAD_REACTORS
330
2D4
102
}
330
2D4
100
TcOptionalData
 70
     1
 70
    32
 40
-3.0
  0
TCOPTIONALDATA
  5
2D8
102
{ACAD_REACTORS
330
2D7
102
}
330
2D7
100
TcOptionalData
 70
     1
 70
    32
 40
-3.0
  0
TCOPTIONALDATA
  5
2DB
102
{ACAD_REACTORS
330
2DA
102
}
330
2DA
100
TcOptionalData
 70
     1
 70
    32
 40
-3.0
  0
TCOPTIONALDATA
  5
2DE
102
{ACAD_REACTORS
330
2DD
102
}
330
2DD
100
TcOptionalData
 70
     1
 70
    32
 40
-3.0
  0
TCOPTIONALDATA
  5
2E1
102
{ACAD_REACTORS
330
2E0
102
}
330
2E0
100
TcOptionalData
 70
     1
 70
    32
 40
-3.0
  0
TCOPTIONALDATA
  5
2E4
102
{ACAD_REACTORS
330
2E3
102
}
330
2E3
100
TcOptionalData
 70
     1
 70
    32
 40
-3.0
  0
TCOPTIONALDATA
  5
2E7
102
{ACAD_REACTORS
330
2E6
102
}
330
2E6
100
TcOptionalData
 70
     1
 70
    32
 40
-3.0
  0
TCOPTIONALDATA
  5
2EA
102
{ACAD_REACTORS
330
2E9
102
}
330
2E9
100
TcOptionalData
 70
     1
 70
    32
 40
-3.0
  0
TCOPTIONALDATA
  5
2ED
102
{ACAD_REACTORS
330
2EC
102
}
330
2EC
100
TcOptionalData
 70
     1
 70
    32
 40
-3.0
  0
TCOPTIONALDATA
  5
2F0
102
{ACAD_REACTORS
330
2EF
102
}
330
2EF
100
TcOptionalData
 70
     1
 70
    32
 40
-3.0
  0
TCOPTIONALDATA
  5
2F3
102
{ACAD_REACTORS
330
2F2
102
}
330
2F2
100
TcOptionalData
 70
     1
 70
    32
 40
-3.0
  0
TCOPTIONALDATA
  5
2F6
102
{ACAD_REACTORS
330
2F5
102
}
330
2F5
100
TcOptionalData
 70
     1
 70
    32
 40
-3.0
  0
TCOPTIONALDATA
  5
2F9
102
{ACAD_REACTORS
330
2F8
102
}
330
2F8
100
TcOptionalData
 70
     1
 70
    32
 40
-3.0
  0
TCOPTIONALDATA
  5
2FC
102
{ACAD_REACTORS
330
2FB
102
}
330
2FB
100
TcOptionalData
 70
     1
 70
    32
 40
-3.0
  0
TCOPTIONALDATA
  5
2FF
102
{ACAD_REACTORS
330
2FE
102
}
330
2FE
100
TcOptionalData
 70
     1
 70
    32
 40
-3.0
  0
TCOPTIONALDATA
  5
302
102
{ACAD_REACTORS
330
301
102
}
330
301
100
TcOptionalData
 70
     1
 70
    32
 40
-3.0
  0
TCOPTIONALDATA
  5
305
102
{ACAD_REACTORS
330
304
102
}
330
304
100
TcOptionalData
 70
     1
 70
    32
 40
-3.0
  0
TCOPTIONALDATA
  5
308
102
{ACAD_REACTORS
330
307
102
}
330
307
100
TcOptionalData
 70
     1
 70
    32
 40
-3.0
  0
TCOPTIONALDATA
  5
30B
102
{ACAD_REACTORS
330
30A
102
}
330
30A
100
TcOptionalData
 70
     1
 70
    32
 40
-3.0
  0
TCOPTIONALDATA
  5
30E
102
{ACAD_REACTORS
330
30D
102
}
330
30D
100
TcOptionalData
 70
     1
 70
    32
 40
-3.0
  0
TCOPTIONALDATA
  5
311
102
{ACAD_REACTORS
330
310
102
}
330
310
100
TcOptionalData
 70
     1
 70
    32
 40
-3.0
  0
TCOPTIONALDATA
  5
314
102
{ACAD_REACTORS
330
313
102
}
330
313
100
TcOptionalData
 70
     1
 70
    32
 40
-3.0
  0
TCOPTIONALDATA
  5
317
102
{ACAD_REACTORS
330
316
102
}
330
316
100
TcOptionalData
 70
     1
 70
    32
 40
-3.0
  0
TCOPTIONALDATA
  5
31A
102
{ACAD_REACTORS
330
319
102
}
330
319
100
TcOptionalData
 70
     1
 70
    32
 40
-3.0
  0
TCOPTIONALDATA
  5
31D
102
{ACAD_REACTORS
330
31C
102
}
330
31C
100
TcOptionalData
 70
     1
 70
    32
 40
-3.0
  0
TCOPTIONALDATA
  5
320
102
{ACAD_REACTORS
330
31F
102
}
330
31F
100
TcOptionalData
 70
     1
 70
    32
 40
-3.0
  0
TCOPTIONALDATA
  5
323
102
{ACAD_REACTORS
330
322
102
}
330
322
100
TcOptionalData
 70
     1
 70
    32
 40
-3.0
  0
TCOPTIONALDATA
  5
326
102
{ACAD_REACTORS
330
325
102
}
330
325
100
TcOptionalData
 70
     1
 70
    32
 40
-3.0
  0
TCOPTIONALDATA
  5
329
102
{ACAD_REACTORS
330
328
102
}
330
328
100
TcOptionalData
 70
     1
 70
    32
 40
-3.0
  0
TCOPTIONALDATA
  5
32C
102
{ACAD_REACTORS
330
32B
102
}
330
32B
100
TcOptionalData
 70
     1
 70
    32
 40
-3.0
  0
TCOPTIONALDATA
  5
32F
102
{ACAD_REACTORS
330
32E
102
}
330
32E
100
TcOptionalData
 70
     1
 70
    32
 40
-3.0
  0
TCOPTIONALDATA
  5
332
102
{ACAD_REACTORS
330
331
102
}
330
331
100
TcOptionalData
 70
     1
 70
    32
 40
-3.0
  0
TCOPTIONALDATA
  5
335
102
{ACAD_REACTORS
330
334
102
}
330
334
100
TcOptionalData
 70
     1
 70
    32
 40
-3.0
  0
TCOPTIONALDATA
  5
338
102
{ACAD_REACTORS
330
337
102
}
330
337
100
TcOptionalData
 70
     1
 70
    32
 40
-3.0
  0
TCOPTIONALDATA
  5
33B
102
{ACAD_REACTORS
330
33A
102
}
330
33A
100
TcOptionalData
 70
     1
 70
    32
 40
-3.0
  0
TCOPTIONALDATA
  5
33E
102
{ACAD_REACTORS
330
33D
102
}
330
33D
100
TcOptionalData
 70
     1
 70
    32
 40
-3.0
  0
TCOPTIONALDATA
  5
341
102
{ACAD_REACTORS
330
340
102
}
330
340
100
TcOptionalData
 70
     1
 70
    32
 40
-3.0
  0
TCOPTIONALDATA
  5
344
102
{ACAD_REACTORS
330
343
102
}
330
343
100
TcOptionalData
 70
     1
 70
    32
 40
-3.0
  0
TCOPTIONALDATA
  5
347
102
{ACAD_REACTORS
330
346
102
}
330
346
100
TcOptionalData
 70
     1
 70
    32
 40
-3.0
  0
TCOPTIONALDATA
  5
34A
102
{ACAD_REACTORS
330
349
102
}
330
349
100
TcOptionalData
 70
     1
 70
    32
 40
-3.0
  0
TCOPTIONALDATA
  5
34D
102
{ACAD_REACTORS
330
34C
102
}
330
34C
100
TcOptionalData
 70
     1
 70
    32
 40
-3.0
  0
TCOPTIONALDATA
  5
350
102
{ACAD_REACTORS
330
34F
102
}
330
34F
100
TcOptionalData
 70
     1
 70
    32
 40
-3.0
  0
TCOPTIONALDATA
  5
353
102
{ACAD_REACTORS
330
352
102
}
330
352
100
TcOptionalData
 70
     1
 70
    32
 40
-3.0
  0
TCOPTIONALDATA
  5
356
102
{ACAD_REACTORS
330
355
102
}
330
355
100
TcOptionalData
 70
     1
 70
    32
 40
-3.0
  0
TCOPTIONALDATA
  5
359
102
{ACAD_REACTORS
330
358
102
}
330
358
100
TcOptionalData
 70
     1
 70
    32
 40
-3.0
  0
TCOPTIONALDATA
  5
35C
102
{ACAD_REACTORS
330
35B
102
}
330
35B
100
TcOptionalData
 70
     1
 70
    32
 40
-3.0
  0
TCOPTIONALDATA
  5
35F
102
{ACAD_REACTORS
330
35E
102
}
330
35E
100
TcOptionalData
 70
     1
 70
    32
 40
-3.0
  0
TCOPTIONALDATA
  5
362
102
{ACAD_REACTORS
330
361
102
}
330
361
100
TcOptionalData
 70
     1
 70
    32
 40
-3.0
  0
TCOPTIONALDATA
  5
365
102
{ACAD_REACTORS
330
364
102
}
330
364
100
TcOptionalData
 70
     1
 70
    32
 40
-3.0
  0
TCOPTIONALDATA
  5
368
102
{ACAD_REACTORS
330
367
102
}
330
367
100
TcOptionalData
 70
     1
 70
    32
 40
-3.0
  0
TCOPTIONALDATA
  5
36B
102
{ACAD_REACTORS
330
36A
102
}
330
36A
100
TcOptionalData
 70
     1
 70
    32
 40
-3.0
  0
TCOPTIONALDATA
  5
36E
102
{ACAD_REACTORS
330
36D
102
}
330
36D
100
TcOptionalData
 70
     1
 70
    32
 40
-3.0
  0
TCOPTIONALDATA
  5
371
102
{ACAD_REACTORS
330
370
102
}
330
370
100
TcOptionalData
 70
     1
 70
    32
 40
-3.0
  0
TCOPTIONALDATA
  5
374
102
{ACAD_REACTORS
330
373
102
}
330
373
100
TcOptionalData
 70
     1
 70
    32
 40
-3.0
  0
TCOPTIONALDATA
  5
377
102
{ACAD_REACTORS
330
376
102
}
330
376
100
TcOptionalData
 70
     1
 70
    32
 40
-3.0
  0
TCOPTIONALDATA
  5
37A
102
{ACAD_REACTORS
330
379
102
}
330
379
100
TcOptionalData
 70
     1
 70
    32
 40
-3.0
  0
TCOPTIONALDATA
  5
37D
102
{ACAD_REACTORS
330
37C
102
}
330
37C
100
TcOptionalData
 70
     1
 70
    32
 40
-3.0
  0
TCOPTIONALDATA
  5
380
102
{ACAD_REACTORS
330
37F
102
}
330
37F
100
TcOptionalData
 70
     1
 70
    32
 40
-3.0
  0
TCOPTIONALDATA
  5
383
102
{ACAD_REACTORS
330
382
102
}
330
382
100
TcOptionalData
 70
     1
 70
    32
 40
-3.0
  0
TCOPTIONALDATA
  5
386
102
{ACAD_REACTORS
330
385
102
}
330
385
100
TcOptionalData
 70
     1
 70
    32
 40
-3.0
  0
TCOPTIONALDATA
  5
389
102
{ACAD_REACTORS
330
388
102
}
330
388
100
TcOptionalData
 70
     1
 70
    32
 40
-3.0
  0
TCOPTIONALDATA
  5
38C
102
{ACAD_REACTORS
330
38B
102
}
330
38B
100
TcOptionalData
 70
     1
 70
    32
 40
-3.0
  0
TCOPTIONALDATA
  5
38F
102
{ACAD_REACTORS
330
38E
102
}
330
38E
100
TcOptionalData
 70
     1
 70
    32
 40
-3.0
  0
TCOPTIONALDATA
  5
392
102
{ACAD_REACTORS
330
391
102
}
330
391
100
TcOptionalData
 70
     1
 70
    32
 40
-3.0
  0
TCOPTIONALDATA
  5
395
102
{ACAD_REACTORS
330
394
102
}
330
394
100
TcOptionalData
 70
     1
 70
    32
 40
-3.0
  0
TCOPTIONALDATA
  5
398
102
{ACAD_REACTORS
330
397
102
}
330
397
100
TcOptionalData
 70
     1
 70
    32
 40
-3.0
  0
TCOPTIONALDATA
  5
39B
102
{ACAD_REACTORS
330
39A
102
}
330
39A
100
TcOptionalData
 70
     1
 70
    32
 40
-3.0
  0
TCOPTIONALDATA
  5
39E
102
{ACAD_REACTORS
330
39D
102
}
330
39D
100
TcOptionalData
 70
     1
 70
    32
 40
-3.0
  0
TCOPTIONALDATA
  5
3A1
102
{ACAD_REACTORS
330
3A0
102
}
330
3A0
100
TcOptionalData
 70
     1
 70
    32
 40
-3.0
  0
TCOPTIONALDATA
  5
3A4
102
{ACAD_REACTORS
330
3A3
102
}
330
3A3
100
TcOptionalData
 70
     1
 70
    32
 40
-3.0
  0
TCOPTIONALDATA
  5
3A7
102
{ACAD_REACTORS
330
3A6
102
}
330
3A6
100
TcOptionalData
 70
     1
 70
    32
 40
-3.0
  0
TCOPTIONALDATA
  5
3AA
102
{ACAD_REACTORS
330
3A9
102
}
330
3A9
100
TcOptionalData
 70
     1
 70
    32
 40
-3.0
  0
TCOPTIONALDATA
  5
3AD
102
{ACAD_REACTORS
330
3AC
102
}
330
3AC
100
TcOptionalData
 70
     1
 70
    32
 40
-3.0
  0
TCOPTIONALDATA
  5
3B0
102
{ACAD_REACTORS
330
3AF
102
}
330
3AF
100
TcOptionalData
 70
     1
 70
    32
 40
-3.0
  0
TCOPTIONALDATA
  5
3B3
102
{ACAD_REACTORS
330
3B2
102
}
330
3B2
100
TcOptionalData
 70
     1
 70
    32
 40
-3.0
  0
TCOPTIONALDATA
  5
3B6
102
{ACAD_REACTORS
330
3B5
102
}
330
3B5
100
TcOptionalData
 70
     1
 70
    32
 40
-3.0
  0
TCOPTIONALDATA
  5
3B9
102
{ACAD_REACTORS
330
3B8
102
}
330
3B8
100
TcOptionalData
 70
     1
 70
    32
 40
-3.0
  0
TCOPTIONALDATA
  5
3BC
102
{ACAD_REACTORS
330
3BB
102
}
330
3BB
100
TcOptionalData
 70
     1
 70
    32
 40
-3.0
  0
TCOPTIONALDATA
  5
3BF
102
{ACAD_REACTORS
330
3BE
102
}
330
3BE
100
TcOptionalData
 70
     1
 70
    32
 40
-3.0
  0
TCOPTIONALDATA
  5
3C2
102
{ACAD_REACTORS
330
3C1
102
}
330
3C1
100
TcOptionalData
 70
     1
 70
    32
 40
-3.0
  0
TCOPTIONALDATA
  5
3C5
102
{ACAD_REACTORS
330
3C4
102
}
330
3C4
100
TcOptionalData
 70
     1
 70
    32
 40
-3.0
  0
TCOPTIONALDATA
  5
3C8
102
{ACAD_REACTORS
330
3C7
102
}
330
3C7
100
TcOptionalData
 70
     1
 70
    32
 40
-3.0
  0
TCOPTIONALDATA
  5
3CB
102
{ACAD_REACTORS
330
3CA
102
}
330
3CA
100
TcOptionalData
 70
     1
 70
    32
 40
-3.0
  0
TCOPTIONALDATA
  5
3CE
102
{ACAD_REACTORS
330
3CD
102
}
330
3CD
100
TcOptionalData
 70
     1
 70
    32
 40
-3.0
  0
TCOPTIONALDATA
  5
3D1
102
{ACAD_REACTORS
330
3D0
102
}
330
3D0
100
TcOptionalData
 70
     1
 70
    32
 40
-3.0
  0
TCOPTIONALDATA
  5
3D4
102
{ACAD_REACTORS
330
3D3
102
}
330
3D3
100
TcOptionalData
 70
     1
 70
    32
 40
-3.0
  0
TCOPTIONALDATA
  5
3D7
102
{ACAD_REACTORS
330
3D6
102
}
330
3D6
100
TcOptionalData
 70
     1
 70
    32
 40
-3.0
  0
TCOPTIONALDATA
  5
3DA
102
{ACAD_REACTORS
330
3D9
102
}
330
3D9
100
TcOptionalData
 70
     1
 70
    32
 40
-3.0
  0
TCOPTIONALDATA
  5
3DD
102
{ACAD_REACTORS
330
3DC
102
}
330
3DC
100
TcOptionalData
 70
     1
 70
    32
 40
-3.0
  0
TCOPTIONALDATA
  5
3E0
102
{ACAD_REACTORS
330
3DF
102
}
330
3DF
100
TcOptionalData
 70
     1
 70
    32
 40
-3.0
  0
TCOPTIONALDATA
  5
3E3
102
{ACAD_REACTORS
330
3E2
102
}
330
3E2
100
TcOptionalData
 70
     1
 70
    32
 40
-3.0
  0
TCOPTIONALDATA
  5
3E6
102
{ACAD_REACTORS
330
3E5
102
}
330
3E5
100
TcOptionalData
 70
     1
 70
    32
 40
-3.0
  0
TCOPTIONALDATA
  5
3E9
102
{ACAD_REACTORS
330
3E8
102
}
330
3E8
100
TcOptionalData
 70
     1
 70
    32
 40
-3.0
  0
TCOPTIONALDATA
  5
3EC
102
{ACAD_REACTORS
330
3EB
102
}
330
3EB
100
TcOptionalData
 70
     1
 70
    32
 40
-3.0
  0
TCOPTIONALDATA
  5
3EF
102
{ACAD_REACTORS
330
3EE
102
}
330
3EE
100
TcOptionalData
 70
     1
 70
    32
 40
-3.0
  0
TCOPTIONALDATA
  5
3F2
102
{ACAD_REACTORS
330
3F1
102
}
330
3F1
100
TcOptionalData
 70
     1
 70
    32
 40
-3.0
  0
TCOPTIONALDATA
  5
3F5
102
{ACAD_REACTORS
330
3F4
102
}
330
3F4
100
TcOptionalData
 70
     1
 70
    32
 40
-3.0
  0
TCOPTIONALDATA
  5
3F8
102
{ACAD_REACTORS
330
3F7
102
}
330
3F7
100
TcOptionalData
 70
     1
 70
    32
 40
-3.0
  0
TCOPTIONALDATA
  5
3FB
102
{ACAD_REACTORS
330
3FA
102
}
330
3FA
100
TcOptionalData
 70
     1
 70
    32
 40
-3.0
  0
TCOPTIONALDATA
  5
3FE
102
{ACAD_REACTORS
330
3FD
102
}
330
3FD
100
TcOptionalData
 70
     1
 70
    32
 40
-3.0
  0
TCOPTIONALDATA
  5
401
102
{ACAD_REACTORS
330
400
102
}
330
400
100
TcOptionalData
 70
     1
 70
    32
 40
-3.0
  0
TCOPTIONALDATA
  5
404
102
{ACAD_REACTORS
330
403
102
}
330
403
100
TcOptionalData
 70
     1
 70
    32
 40
-3.0
  0
TCOPTIONALDATA
  5
407
102
{ACAD_REACTORS
330
406
102
}
330
406
100
TcOptionalData
 70
     1
 70
    32
 40
-3.0
  0
TCOPTIONALDATA
  5
40A
102
{ACAD_REACTORS
330
409
102
}
330
409
100
TcOptionalData
 70
     1
 70
    32
 40
-3.0
  0
TCOPTIONALDATA
  5
40D
102
{ACAD_REACTORS
330
40C
102
}
330
40C
100
TcOptionalData
 70
     1
 70
    32
 40
-3.0
  0
TCOPTIONALDATA
  5
410
102
{ACAD_REACTORS
330
40F
102
}
330
40F
100
TcOptionalData
 70
     1
 70
    32
 40
-3.0
  0
TCOPTIONALDATA
  5
413
102
{ACAD_REACTORS
330
412
102
}
330
412
100
TcOptionalData
 70
     1
 70
    32
 40
-3.0
  0
TCOPTIONALDATA
  5
416
102
{ACAD_REACTORS
330
415
102
}
330
415
100
TcOptionalData
 70
     1
 70
    32
 40
-3.0
  0
TCOPTIONALDATA
  5
419
102
{ACAD_REACTORS
330
418
102
}
330
418
100
TcOptionalData
 70
     1
 70
    32
 40
-3.0
  0
TCOPTIONALDATA
  5
41C
102
{ACAD_REACTORS
330
41B
102
}
330
41B
100
TcOptionalData
 70
     1
 70
    32
 40
-3.0
  0
TCOPTIONALDATA
  5
41F
102
{ACAD_REACTORS
330
41E
102
}
330
41E
100
TcOptionalData
 70
     1
 70
    32
 40
-3.0
  0
TCOPTIONALDATA
  5
422
102
{ACAD_REACTORS
330
421
102
}
330
421
100
TcOptionalData
 70
     1
 70
    32
 40
-3.0
  0
TCOPTIONALDATA
  5
425
102
{ACAD_REACTORS
330
424
102
}
330
424
100
TcOptionalData
 70
     1
 70
    32
 40
-3.0
  0
TCOPTIONALDATA
  5
428
102
{ACAD_REACTORS
330
427
102
}
330
427
100
TcOptionalData
 70
     1
 70
    32
 40
-3.0
  0
TCOPTIONALDATA
  5
42B
102
{ACAD_REACTORS
330
42A
102
}
330
42A
100
TcOptionalData
 70
     1
 70
    32
 40
-3.0
  0
TCOPTIONALDATA
  5
42E
102
{ACAD_REACTORS
330
42D
102
}
330
42D
100
TcOptionalData
 70
     1
 70
    32
 40
-3.0
  0
TCOPTIONALDATA
  5
431
102
{ACAD_REACTORS
330
430
102
}
330
430
100
TcOptionalData
 70
     1
 70
    32
 40
-3.0
  0
TCOPTIONALDATA
  5
434
102
{ACAD_REACTORS
330
433
102
}
330
433
100
TcOptionalData
 70
     1
 70
    32
 40
-3.0
  0
TCOPTIONALDATA
  5
437
102
{ACAD_REACTORS
330
436
102
}
330
436
100
TcOptionalData
 70
     1
 70
    32
 40
-3.0
  0
TCOPTIONALDATA
  5
43A
102
{ACAD_REACTORS
330
439
102
}
330
439
100
TcOptionalData
 70
     1
 70
    32
 40
-3.0
  0
TCOPTIONALDATA
  5
43D
102
{ACAD_REACTORS
330
43C
102
}
330
43C
100
TcOptionalData
 70
     1
 70
    32
 40
-3.0
  0
TCOPTIONALDATA
  5
440
102
{ACAD_REACTORS
330
43F
102
}
330
43F
100
TcOptionalData
 70
     1
 70
    32
 40
-3.0
  0
TCOPTIONALDATA
  5
443
102
{ACAD_REACTORS
330
442
102
}
330
442
100
TcOptionalData
 70
     1
 70
    32
 40
-3.0
  0
TCOPTIONALDATA
  5
446
102
{ACAD_REACTORS
330
445
102
}
330
445
100
TcOptionalData
 70
     1
 70
    32
 40
-3.0
  0
TCOPTIONALDATA
  5
449
102
{ACAD_REACTORS
330
448
102
}
330
448
100
TcOptionalData
 70
     1
 70
    32
 40
-3.0
  0
TCOPTIONALDATA
  5
44C
102
{ACAD_REACTORS
330
44B
102
}
330
44B
100
TcOptionalData
 70
     1
 70
    32
 40
-3.0
  0
TCOPTIONALDATA
  5
44F
102
{ACAD_REACTORS
330
44E
102
}
330
44E
100
TcOptionalData
 70
     1
 70
    32
 40
-3.0
  0
TCOPTIONALDATA
  5
452
102
{ACAD_REACTORS
330
451
102
}
330
451
100
TcOptionalData
 70
     1
 70
    32
 40
-3.0
  0
TCOPTIONALDATA
  5
455
102
{ACAD_REACTORS
330
454
102
}
330
454
100
TcOptionalData
 70
     1
 70
    32
 40
-3.0
  0
TCOPTIONALDATA
  5
458
102
{ACAD_REACTORS
330
457
102
}
330
457
100
TcOptionalData
 70
     1
 70
    32
 40
-3.0
  0
TCOPTIONALDATA
  5
45B
102
{ACAD_REACTORS
330
45A
102
}
330
45A
100
TcOptionalData
 70
     1
 70
    32
 40
-3.0
  0
TCOPTIONALDATA
  5
45E
102
{ACAD_REACTORS
330
45D
102
}
330
45D
100
TcOptionalData
 70
     1
 70
    32
 40
-3.0
  0
TCOPTIONALDATA
  5
461
102
{ACAD_REACTORS
330
460
102
}
330
460
100
TcOptionalData
 70
     1
 70
    32
 40
-3.0
  0
TCOPTIONALDATA
  5
464
102
{ACAD_REACTORS
330
463
102
}
330
463
100
TcOptionalData
 70
     1
 70
    32
 40
-3.0
  0
TCOPTIONALDATA
  5
467
102
{ACAD_REACTORS
330
466
102
}
330
466
100
TcOptionalData
 70
     1
 70
    32
 40
-3.0
  0
TCOPTIONALDATA
  5
46A
102
{ACAD_REACTORS
330
469
102
}
330
469
100
TcOptionalData
 70
     1
 70
    32
 40
-3.0
  0
TCOPTIONALDATA
  5
46D
102
{ACAD_REACTORS
330
46C
102
}
330
46C
100
TcOptionalData
 70
     1
 70
    32
 40
-3.0
  0
TCOPTIONALDATA
  5
470
102
{ACAD_REACTORS
330
46F
102
}
330
46F
100
TcOptionalData
 70
     1
 70
    32
 40
-3.0
  0
TCOPTIONALDATA
  5
473
102
{ACAD_REACTORS
330
472
102
}
330
472
100
TcOptionalData
 70
     1
 70
    32
 40
-3.0
  0
TCOPTIONALDATA
  5
476
102
{ACAD_REACTORS
330
475
102
}
330
475
100
TcOptionalData
 70
     1
 70
    32
 40
-3.0
  0
TCOPTIONALDATA
  5
479
102
{ACAD_REACTORS
330
478
102
}
330
478
100
TcOptionalData
 70
     1
 70
    32
 40
-3.0
  0
TCOPTIONALDATA
  5
47C
102
{ACAD_REACTORS
330
47B
102
}
330
47B
100
TcOptionalData
 70
     1
 70
    32
 40
-3.0
  0
TCOPTIONALDATA
  5
47F
102
{ACAD_REACTORS
330
47E
102
}
330
47E
100
TcOptionalData
 70
     1
 70
    32
 40
-3.0
  0
TCOPTIONALDATA
  5
482
102
{ACAD_REACTORS
330
481
102
}
330
481
100
TcOptionalData
 70
     1
 70
    32
 40
-3.0
  0
TCOPTIONALDATA
  5
485
102
{ACAD_REACTORS
330
484
102
}
330
484
100
TcOptionalData
 70
     1
 70
    32
 40
-3.0
  0
TCOPTIONALDATA
  5
488
102
{ACAD_REACTORS
330
487
102
}
330
487
100
TcOptionalData
 70
     1
 70
    32
 40
-3.0
  0
TCOPTIONALDATA
  5
48B
102
{ACAD_REACTORS
330
48A
102
}
330
48A
100
TcOptionalData
 70
     1
 70
    32
 40
-3.0
  0
TCOPTIONALDATA
  5
48E
102
{ACAD_REACTORS
330
48D
102
}
330
48D
100
TcOptionalData
 70
     1
 70
    32
 40
-3.0
  0
TCOPTIONALDATA
  5
491
102
{ACAD_REACTORS
330
490
102
}
330
490
100
TcOptionalData
 70
     1
 70
    32
 40
-3.0
  0
TCOPTIONALDATA
  5
494
102
{ACAD_REACTORS
330
493
102
}
330
493
100
TcOptionalData
 70
     1
 70
    32
 40
-3.0
  0
TCOPTIONALDATA
  5
497
102
{ACAD_REACTORS
330
496
102
}
330
496
100
TcOptionalData
 70
     1
 70
    32
 40
-3.0
  0
TCOPTIONALDATA
  5
49A
102
{ACAD_REACTORS
330
499
102
}
330
499
100
TcOptionalData
 70
     1
 70
    32
 40
-3.0
  0
TCOPTIONALDATA
  5
49D
102
{ACAD_REACTORS
330
49C
102
}
330
49C
100
TcOptionalData
 70
     1
 70
    32
 40
-3.0
  0
TCOPTIONALDATA
  5
4A0
102
{ACAD_REACTORS
330
49F
102
}
330
49F
100
TcOptionalData
 70
     1
 70
    32
 40
-3.0
  0
TCOPTIONALDATA
  5
4A3
102
{ACAD_REACTORS
330
4A2
102
}
330
4A2
100
TcOptionalData
 70
     1
 70
    32
 40
-3.0
  0
TCOPTIONALDATA
  5
4A6
102
{ACAD_REACTORS
330
4A5
102
}
330
4A5
100
TcOptionalData
 70
     1
 70
    32
 40
-3.0
  0
TCOPTIONALDATA
  5
4A9
102
{ACAD_REACTORS
330
4A8
102
}
330
4A8
100
TcOptionalData
 70
     1
 70
    32
 40
-3.0
  0
TCOPTIONALDATA
  5
4AC
102
{ACAD_REACTORS
330
4AB
102
}
330
4AB
100
TcOptionalData
 70
     1
 70
    32
 40
-3.0
  0
TCOPTIONALDATA
  5
4AF
102
{ACAD_REACTORS
330
4AE
102
}
330
4AE
100
TcOptionalData
 70
     1
 70
    32
 40
-3.0
  0
TCOPTIONALDATA
  5
4B2
102
{ACAD_REACTORS
330
4B1
102
}
330
4B1
100
TcOptionalData
 70
     1
 70
    32
 40
-3.0
  0
TCOPTIONALDATA
  5
4B5
102
{ACAD_REACTORS
330
4B4
102
}
330
4B4
100
TcOptionalData
 70
     1
 70
    32
 40
-3.0
  0
TCOPTIONALDATA
  5
4B8
102
{ACAD_REACTORS
330
4B7
102
}
330
4B7
100
TcOptionalData
 70
     1
 70
    32
 40
-3.0
  0
TCOPTIONALDATA
  5
4BB
102
{ACAD_REACTORS
330
4BA
102
}
330
4BA
100
TcOptionalData
 70
     1
 70
    32
 40
-3.0
  0
TCOPTIONALDATA
  5
4BE
102
{ACAD_REACTORS
330
4BD
102
}
330
4BD
100
TcOptionalData
 70
     1
 70
    32
 40
-3.0
  0
TCOPTIONALDATA
  5
4C1
102
{ACAD_REACTORS
330
4C0
102
}
330
4C0
100
TcOptionalData
 70
     1
 70
    32
 40
-3.0
  0
TCOPTIONALDATA
  5
4C4
102
{ACAD_REACTORS
330
4C3
102
}
330
4C3
100
TcOptionalData
 70
     1
 70
    32
 40
-3.0
  0
TCOPTIONALDATA
  5
4C7
102
{ACAD_REACTORS
330
4C6
102
}
330
4C6
100
TcOptionalData
 70
     1
 70
    32
 40
-3.0
  0
TCOPTIONALDATA
  5
4CA
102
{ACAD_REACTORS
330
4C9
102
}
330
4C9
100
TcOptionalData
 70
     1
 70
    32
 40
-3.0
  0
TCOPTIONALDATA
  5
4CD
102
{ACAD_REACTORS
330
4CC
102
}
330
4CC
100
TcOptionalData
 70
     1
 70
    32
 40
-3.0
  0
TCOPTIONALDATA
  5
4D0
102
{ACAD_REACTORS
330
4CF
102
}
330
4CF
100
TcOptionalData
 70
     1
 70
    32
 40
-3.0
  0
TCOPTIONALDATA
  5
4D3
102
{ACAD_REACTORS
330
4D2
102
}
330
4D2
100
TcOptionalData
 70
     1
 70
    32
 40
-3.0
  0
TCOPTIONALDATA
  5
4D6
102
{ACAD_REACTORS
330
4D5
102
}
330
4D5
100
TcOptionalData
 70
     1
 70
    32
 40
-3.0
  0
TCOPTIONALDATA
  5
4D9
102
{ACAD_REACTORS
330
4D8
102
}
330
4D8
100
TcOptionalData
 70
     1
 70
    32
 40
-3.0
  0
TCOPTIONALDATA
  5
4DC
102
{ACAD_REACTORS
330
4DB
102
}
330
4DB
100
TcOptionalData
 70
     1
 70
    32
 40
-3.0
  0
TCOPTIONALDATA
  5
4DF
102
{ACAD_REACTORS
330
4DE
102
}
330
4DE
100
TcOptionalData
 70
     1
 70
    32
 40
-3.0
  0
TCOPTIONALDATA
  5
4E2
102
{ACAD_REACTORS
330
4E1
102
}
330
4E1
100
TcOptionalData
 70
     1
 70
    32
 40
-3.0
  0
TCOPTIONALDATA
  5
4E5
102
{ACAD_REACTORS
330
4E4
102
}
330
4E4
100
TcOptionalData
 70
     1
 70
    32
 40
-3.0
  0
TCOPTIONALDATA
  5
4E8
102
{ACAD_REACTORS
330
4E7
102
}
330
4E7
100
TcOptionalData
 70
     1
 70
    32
 40
-3.0
  0
LAYOUT
  5
1E
102
{ACAD_REACTORS
330
1A
102
}
330
1A
100
AcDbPlotSettings
  1

  2
none_device
  4
ISO_C5_(229.00_x_162.00_MM)
  6

 40
6.29708337783813
 41
5.91606473922729
 42
7.31307983398438
 43
7.14373779296875
 44
229.0
 45
162.0
 46
-6.049166709419306
 47
-5.683148804612042
 48
0.0
 49
0.0
140
0.0
141
0.0
142
1.0
143
25.4
 70
   672
 72
     1
 73
     1
 74
     5
  7

 75
    16
 76
     0
 77
     2
 78
   300
147
1.0
148
0.0
149
0.0
100
AcDbLayout
  1
Layout1
 70
     1
 71
     1
 10
-6.29708337783813
 20
-5.91606473922729
 11
290.7029166221619
 21
204.0839352607727
 12
0.0
 22
0.0
 32
0.0
 14
-6.29708337783813
 24
-5.91606473922729
 34
0.0
 15
290.7029166221619
 25
204.0839352607727
 35
0.0
146
0.0
 13
0.0
 23
0.0
 33
0.0
 16
1.0
 26
0.0
 36
0.0
 17
0.0
 27
1.0
 37
0.0
 76
     0
330
1B
331
4EC
  0
LAYOUT
  5
3C
102
{ACAD_REACTORS
330
1A
102
}
330
1A
100
AcDbPlotSettings
  1

  2
none_device
  4
ISO_C5_(229.00_x_162.00_MM)
  6

 40
0.0
 41
0.0
 42
0.0
 43
0.0
 44
229.0
 45
162.0
 46
0.0
 47
0.0
 48
0.0
 49
0.0
140
0.0
141
0.0
142
1.0
143
0.999998
 70
   672
 72
     1
 73
     0
 74
     5
  7

 75
    16
 76
     0
 77
     2
 78
   300
147
1.0
148
0.0
149
0.0
100
AcDbLayout
  1
Layout2
 70
     1
 71
     2
 10
0.0
 20
0.0
 11
6.37795275590551
 21
9.01574803149607
 12
0.0
 22
0.0
 32
0.0
 14
0.0
 24
0.0
 34
0.0
 15
6.37795275590551
 25
9.01574803149607
 35
0.0
146
0.0
 13
0.0
 23
0.0
 33
0.0
 16
1.0
 26
0.0
 36
0.0
 17
0.0
 27
1.0
 37
0.0
 76
     0
330
3B
331
4EE
  0
LAYOUT
  5
22
102
{ACAD_REACTORS
330
1A
102
}
330
1A
100
AcDbPlotSettings
  1

  2
none_device
  4
Sun_Hi-Res_(1280.00_x_1600.00_Pixels)
  6

 40
6.29708337783813
 41
5.91606473922729
 42
7.31307983398438
 43
7.14373779296875
 44
1280.0
 45
1600.0
 46
-102.588685537132
 47
-6.881620570372632
 48
0.0
 49
0.0
140
0.0
141
0.0
142
1.0
143
0.999998
 70
  1696
 72
     2
 73
     1
 74
     0
  7

 75
     0
 76
     0
 77
     2
 78
   300
147
1.0
148
0.0
149
0.0
100
AcDbLayout
  1
Model
 70
     1
 71
     0
 10
96.29140957608953
 20
0.96555390003368
 11
159.2835355603415
 21
51.35925468743528
 12
0.0
 22
0.0
 32
0.0
 14
96.29140957608953
 24
0.96555390003368
 34
0.0
 15
159.2835355603415
 25
51.35925468743528
 35
0.0
146
0.0
 13
0.0
 23
0.0
 33
0.0
 16
1.0
 26
0.0
 36
0.0
 17
0.0
 27
1.0
 37
0.0
 76
     0
330
1F
331
29
  0
MLINESTYLE
  5
18
102
{ACAD_REACTORS
330
17
102
}
330
17
100
AcDbMlineStyle
  2
Standard
 70
     0
  3

 62
   256
 51
90.0
 52
90.0
 71
     6
 49
0.5
 62
   256
  6
BYLAYER
 49
-0.5
 62
   256
  6
BYLAYER
 49
0.5
 62
   256
  6
BYLAYER
 49
-0.5
 62
   256
  6
BYLAYER
 49
0.5
 62
   256
  6
BYLAYER
 49
-0.5
 62
   256
  6
BYLAYER
  0
ACDBPLACEHOLDER
  5
F
102
{ACAD_REACTORS
330
E
102
}
330
E
  0
VISUALSTYLE
  5
2F
102
{ACAD_REACTORS
330
2A
102
}
330
2A
100
AcDbVisualStyle
  2
2dWireframe
 70
     4
 71
     0
 72
     2
 73
     0
 90
        0
 40
-0.6
 41
-30.0
 62
     5
 63
     7
421
 16777215
 74
     1
 91
        4
 64
     7
 65
   257
 75
     1
175
     1
 42
1.0
 92
        0
 66
   257
 43
1.0
 76
     1
 77
     6
 78
     2
 67
     7
 79
     5
170
     0
171
     0
290
     0
174
     0
 93
        1
 44
0.0
173
     0
291
     0
 45
0.0
1001
ACAD
1000
AcDbSavedByObjectVersion
1070
     0
  0
VISUALSTYLE
  5
31
102
{ACAD_REACTORS
330
2A
102
}
330
2A
100
AcDbVisualStyle
  2
3D Hidden
 70
     6
 71
     1
 72
     2
 73
     2
 90
        0
 40
-0.6
 41
-30.0
 62
     5
 63
     7
421
 16777215
 74
     2
 91
        2
 64
     7
 65
   257
 75
     2
175
     1
 42
40.0
 92
        0
 66
   257
 43
1.0
 76
     1
 77
     6
 78
     2
 67
     7
 79
     3
170
     0
171
     0
290
     0
174
     0
 93
        1
 44
0.0
173
     0
291
     0
 45
0.0
1001
ACAD
1000
AcDbSavedByObjectVersion
1070
     0
  0
VISUALSTYLE
  5
30
102
{ACAD_REACTORS
330
2A
102
}
330
2A
100
AcDbVisualStyle
  2
3dWireframe
 70
     5
 71
     0
 72
     2
 73
     0
 90
        0
 40
-0.6
 41
-30.0
 62
     5
 63
     7
421
 16777215
 74
     1
 91
        4
 64
     7
 65
   257
 75
     1
175
     1
 42
1.0
 92
        0
 66
   257
 43
1.0
 76
     1
 77
     6
 78
     2
 67
     7
 79
     5
170
     0
171
     0
290
     0
174
     0
 93
        1
 44
0.0
173
     0
291
     0
 45
0.0
1001
ACAD
1000
AcDbSavedByObjectVersion
1070
     0
  0
VISUALSTYLE
  5
32
102
{ACAD_REACTORS
330
2A
102
}
330
2A
100
AcDbVisualStyle
  2
Basic
 70
     7
 71
     1
 72
     0
 73
     1
 90
        0
 40
-0.6
 41
-30.0
 62
     5
 63
     7
421
 16777215
 74
     0
 91
        4
 64
     7
 65
   257
 75
     1
175
     1
 42
1.0
 92
        8
 66
     7
 43
1.0
 76
     1
 77
     6
 78
     2
 67
     7
 79
     5
170
     0
171
     0
290
     0
174
     0
 93
        1
 44
0.0
173
     0
291
     1
 45
0.0
1001
ACAD
1000
AcDbSavedByObjectVersion
1070
     0
  0
VISUALSTYLE
  5
36
102
{ACAD_REACTORS
330
2A
102
}
330
2A
100
AcDbVisualStyle
  2
Brighten
 70
    12
 71
     2
 72
     2
 73
     0
 90
        0
 40
-0.6
 41
-30.0
 62
     5
 63
     7
421
 16777215
 74
     1
 91
        4
 64
     7
 65
   257
 75
     1
175
     1
 42
1.0
 92
        8
 66
     7
 43
1.0
 76
     1
 77
     6
 78
     2
 67
     7
 79
     5
170
     0
171
     0
290
     0
174
     0
 93
        1
 44
50.0
173
     0
291
     1
 45
0.0
1001
ACAD
1000
AcDbSavedByObjectVersion
1070
     0
  0
VISUALSTYLE
  5
3A
102
{ACAD_REACTORS
330
2A
102
}
330
2A
100
AcDbVisualStyle
  2
ColorChange
 70
    16
 71
     2
 72
     2
 73
     3
 90
        0
 40
-0.6
 41
-30.0
 62
     5
 63
     8
421
  8421504
 74
     1
 91
        4
 64
     7
 65
   257
 75
     1
175
     1
 42
1.0
 92
        8
 66
     8
424
  8421504
 43
1.0
 76
     1
 77
     6
 78
     2
 67
     7
 79
     5
170
     0
171
     0
290
     0
174
     0
 93
        1
 44
0.0
173
     0
291
     1
 45
0.0
1001
ACAD
1000
AcDbSavedByObjectVersion
1070
     0
  0
VISUALSTYLE
  5
34
102
{ACAD_REACTORS
330
2A
102
}
330
2A
100
AcDbVisualStyle
  2
Conceptual
 70
     9
 71
     3
 72
     2
 73
     0
 90
        0
 40
-0.6
 41
-30.0
 62
     5
 63
     7
421
 16777215
 74
     2
 91
        2
 64
     7
 65
   257
 75
     1
175
     1
 42
40.0
 92
        8
 66
     7
 43
1.0
 76
     1
 77
     6
 78
     2
 67
     7
 79
     3
170
     0
171
     0
290
     0
174
     0
 93
        1
 44
0.0
173
     0
291
     0
 45
0.0
1001
ACAD
1000
AcDbSavedByObjectVersion
1070
     0
  0
VISUALSTYLE
  5
35
102
{ACAD_REACTORS
330
2A
102
}
330
2A
100
AcDbVisualStyle
  2
Dim
 70
    11
 71
     2
 72
     2
 73
     0
 90
        0
 40
-0.6
 41
-30.0
 62
     5
 63
     7
421
 16777215
 74
     1
 91
        4
 64
     7
 65
   257
 75
     1
175
     1
 42
1.0
 92
        8
 66
     7
 43
1.0
 76
     1
 77
     6
 78
     2
 67
     7
 79
     5
170
     0
171
     0
290
     0
174
     0
 93
        1
 44
-50.0
173
     0
291
     1
 45
0.0
1001
ACAD
1000
AcDbSavedByObjectVersion
1070
     0
  0
VISUALSTYLE
  5
39
102
{ACAD_REACTORS
330
2A
102
}
330
2A
100
AcDbVisualStyle
  2
Facepattern
 70
    15
 71
     2
 72
     2
 73
     0
 90
        0
 40
-0.6
 41
-30.0
 62
     5
 63
     7
421
 16777215
 74
     1
 91
        4
 64
     7
 65
   257
 75
     1
175
     1
 42
1.0
 92
        8
 66
     7
 43
1.0
 76
     1
 77
     6
 78
     2
 67
     7
 79
     5
170
     0
171
     0
290
     0
174
     0
 93
        1
 44
0.0
173
     0
291
     1
 45
0.0
1001
ACAD
1000
AcDbSavedByObjectVersion
1070
     0
  0
VISUALSTYLE
  5
2B
102
{ACAD_REACTORS
330
2A
102
}
330
2A
100
AcDbVisualStyle
  2
Flat
 70
     0
 71
     2
 72
     1
 73
     1
 90
        2
 40
-0.6
 41
30.0
 62
     5
 63
     7
421
 16777215
 74
     0
 91
        4
 64
     7
 65
   257
 75
     1
175
     1
 42
1.0
 92
        8
 66
     7
 43
1.0
 76
     1
 77
     6
 78
     2
 67
     7
 79
     5
170
     0
171
     0
290
     0
174
     0
 93
       13
 44
0.0
173
     0
291
     1
 45
0.0
1001
ACAD
1000
AcDbSavedByObjectVersion
1070
     0
  0
VISUALSTYLE
  5
2C
102
{ACAD_REACTORS
330
2A
102
}
330
2A
100
AcDbVisualStyle
  2
FlatWithEdges
 70
     1
 71
     2
 72
     1
 73
     1
 90
        2
 40
-0.6
 41
30.0
 62
     5
 63
     7
421
 16777215
 74
     1
 91
        4
 64
     7
 65
   257
 75
     1
175
     1
 42
1.0
 92
        0
 66
   257
 43
1.0
 76
     1
 77
     6
 78
     2
 67
     7
 79
     5
170
     0
171
     0
290
     0
174
     0
 93
       13
 44
0.0
173
     0
291
     1
 45
0.0
1001
ACAD
1000
AcDbSavedByObjectVersion
1070
     0
  0
VISUALSTYLE
  5
2D
102
{ACAD_REACTORS
330
2A
102
}
330
2A
100
AcDbVisualStyle
  2
Gouraud
 70
     2
 71
     2
 72
     2
 73
     1
 90
        2
 40
-0.6
 41
30.0
 62
     5
 63
     7
421
 16777215
 74
     0
 91
        4
 64
     7
 65
   257
 75
     1
175
     1
 42
1.0
 92
        0
 66
     7
 43
1.0
 76
     1
 77
     6
 78
     2
 67
     7
 79
     5
170
     0
171
     0
290
     0
174
     0
 93
       13
 44
0.0
173
     0
291
     1
 45
0.0
1001
ACAD
1000
AcDbSavedByObjectVersion
1070
     0
  0
VISUALSTYLE
  5
2E
102
{ACAD_REACTORS
330
2A
102
}
330
2A
100
AcDbVisualStyle
  2
GouraudWithEdges
 70
     3
 71
     2
 72
     2
 73
     1
 90
        2
 40
-0.6
 41
30.0
 62
     5
 63
     7
421
 16777215
 74
     1
 91
        4
 64
     7
 65
   257
 75
     1
175
     1
 42
1.0
 92
        0
 66
   257
 43
1.0
 76
     1
 77
     6
 78
     2
 67
     7
 79
     5
170
     0
171
     0
290
     0
174
     0
 93
       13
 44
0.0
173
     0
291
     1
 45
0.0
1001
ACAD
1000
AcDbSavedByObjectVersion
1070
     0
  0
VISUALSTYLE
  5
38
102
{ACAD_REACTORS
330
2A
102
}
330
2A
100
AcDbVisualStyle
  2
Linepattern
 70
    14
 71
     2
 72
     2
 73
     0
 90
        0
 40
-0.6
 41
-30.0
 62
     5
 63
     7
421
 16777215
 74
     1
 91
        4
 64
     7
 65
   257
 75
     7
175
     7
 42
1.0
 92
        8
 66
     7
 43
1.0
 76
     1
 77
     6
 78
     2
 67
     7
 79
     5
170
     0
171
     0
290
     0
174
     0
 93
        1
 44
0.0
173
     0
291
     1
 45
0.0
1001
ACAD
1000
AcDbSavedByObjectVersion
1070
     0
  0
VISUALSTYLE
  5
33
102
{ACAD_REACTORS
330
2A
102
}
330
2A
100
AcDbVisualStyle
  2
Realistic
 70
     8
 71
     2
 72
     2
 73
     0
 90
        0
 40
-0.6
 41
-30.0
 62
     5
 63
     7
421
 16777215
 74
     1
 91
        0
 64
     7
 65
   257
 75
     1
175
     1
 42
1.0
 92
        8
 66
     8
424
  7895160
 43
1.0
 76
     1
 77
     6
 78
     2
 67
     7
 79
     5
170
     0
171
     0
290
     0
174
     0
 93
       13
 44
0.0
173
     0
291
     0
 45
0.0
1001
ACAD
1000
AcDbSavedByObjectVersion
1070
     0
  0
VISUALSTYLE
  5
37
102
{ACAD_REACTORS
330
2A
102
}
330
2A
100
AcDbVisualStyle
  2
Thicken
 70
    13
 71
     2
 72
     2
 73
     0
 90
        0
 40
-0.6
 41
-30.0
 62
     5
 63
     7
421
 16777215
 74
     1
 91
        4
 64
     7
 65
   257
 75
     1
175
     1
 42
1.0
 92
       12
 66
     7
 43
1.0
 76
     1
 77
     6
 78
     2
 67
     7
 79
     5
170
     0
171
     0
290
     0
174
     0
 93
        1
 44
0.0
173
     0
291
     1
 45
0.0
1001
ACAD
1000
AcDbSavedByObjectVersion
1070
     0
  0
ENDSEC
  0
SECTION
  2
THUMBNAILIMAGE
 90
    16364
310
28000000B40000005500000001000800000000000000000000000000000000000000000000000000FFFFFF000000FF0000FFFF0000FF0000FFFF0000FF000000FF00FF000000000080808000C0C0C0000000FF007F7FFF000000A5005252A50000007F003F3F7F0000004C0026264C000000260013132600003FFF007F9FFF
310
000029A5005267A500001F7F003F4F7F0000134C00262F4C000009260013172600007FFF007FBFFF000052A500527CA500003F7F003F5F7F0000264C0026394C0000132600131C260000BFFF007FDFFF00007CA5005291A500005F7F003F6F7F0000394C0026424C00001C26001321260000FFFF007FFFFF0000A5A50052A5
310
A500007F7F003F7F7F00004C4C00264C4C00002626001326260000FFBF007FFFDF0000A57C0052A59100007F5F003F7F6F00004C3900264C420000261C001326210000FF7F007FFFBF0000A5520052A57C00007F3F003F7F5F00004C2600264C39000026130013261C0000FF3F007FFF9F0000A5290052A56700007F1F003F
310
7F4F00004C1300264C2F00002609001326170000FF00007FFF7F0000A5000052A55200007F00003F7F3F00004C0000264C260000260000132613003FFF00009FFF7F0029A5000067A552001F7F00004F7F3F00134C00002F4C260009260000172613007FFF0000BFFF7F0052A500007CA552003F7F00005F7F3F00264C0000
310
394C2600132600001C261300BFFF0000DFFF7F007CA5000091A552005F7F00006F7F3F00394C0000424C26001C26000021261300FFFF0000FFFF7F00A5A50000A5A552007F7F00007F7F3F004C4C00004C4C26002626000026261300FFBF0000FFDF7F00A57C0000A59152007F5F00007F6F3F004C3900004C422600261C00
310
0026211300FF7F0000FFBF7F00A5520000A57C52007F3F00007F5F3F004C2600004C39260026130000261C1300FF3F0000FF9F7F00A5290000A56752007F1F00007F4F3F004C1300004C2F26002609000026171300FF000000FF7F7F00A5000000A55252007F0000007F3F3F004C0000004C2626002600000026131300FF00
310
3F00FF7F9F00A5002900A55267007F001F007F3F4F004C0013004C262F002600090026131700FF007F00FF7FBF00A5005200A5527C007F003F007F3F5F004C0026004C2639002600130026131C00FF00BF00FF7FDF00A5007C00A55291007F005F007F3F6F004C0039004C26420026001C0026132100FF00FF00FF7FFF00A5
310
00A500A552A5007F007F007F3F7F004C004C004C264C002600260026132600BF00FF00DF7FFF007C00A5009152A5005F007F006F3F7F0039004C0042264C001C002600211326007F00FF00BF7FFF005200A5007C52A5003F007F005F3F7F0026004C0039264C00130026001C1326003F00FF009F7FFF002900A5006752A500
310
1F007F004F3F7F0013004C002F264C000900260017132600000000002D2D2D005B5B5B0089898900B7B7B700B3B3B30000000000000000000000000000000000000000000000000000000000000000000000000000000000000000000000000000000000000000000000000000000101010101000000000000000000000000
310
00000000000000000000000000000000000000000000000000000000000000000000000000000000000000000000000000000000000000000000000000000000000000000000000101010100000000000000000000000000000000000000000000000000000000000000000000000000000000000000000000000000000000
310
00000000000000000000000000000000000000000000000000000000000000000000000001010001010000000000000000000000000000000000000000000000000000000000000000000000000000000000000000000000000000000000000000000000000000000000000000000000000000000000000000000000010101
310
01000000000000000000000000000000000000000000000000000000000000000000000000000000000000000000000000000000000000000000000000000000000000000000000000000000000000010100000000000000010001000101000000000000000101010000000000000000000000000000000000000000000000
310
00000000000000000000000000000000000000000000000000000000000000000000000000000000000000000000000000000101010100000000000000000000000000000000000000000000000000000000000000000000000000000000000000000000000000000000000000000000000000000000000000000000000000
310
00000101010100010000000000010001010101010101000000000001010001010000000000000000000000000000000000000000000000000000000000000000000000000000000000000000000000000000000000000000000000000000000000000101010101010101010101010100000000000000000000000000000000
310
00000000000000000000000000000000000000000000000000000000000000000000000000000000000000000000000000000000000000010100000100010101010101010000000000010101010101010001000101000000000000000000000000000000000000000000000000000000000000000000000000000000000000
310
00000000000000000000000000000000000000000000000001010101010101010101010101010000000000000000000000000000000000000000000000000000000000000000000000000000000000000000000000000000000000000000000000000000000000000000000001000101010101000000000000010101010100
310
00000000000101010101010000000000000000000000000000000000000000000000000000000000000000000000000000000000000000000000000000000000000000000000000000000000000101010101010101010101010101000000000000000000000000000000000000000000000000000000000000000000000000
310
00000000000000000000000000000000000000000000000000000000000000000001000101000000000101010101010000000000010101010101000000000101000000000000000000000000000000000000000000000000000000000000000000000000000000000000000000000000000000000000000000000000000000
310
00000001000000010101010100000000010000000000000000000000000000000000000000000000000000000000000000000000000000000000000000000000000000000000000000000000000000010000000000000101000001010101000000000000000000000000000000000001010100000001010000000000010000
310
00000000000000000000000000000000000000000000000000000000000000000000000000000000000000000000000000000000000000000100000000010101000000000001000000000000000000000000000000000000000000000000000000000000000000000000000000000000000000000000000000000000000000
310
00000001010101010101010100000101000000000000000000000000000000000000000000000000010100000001000101010001010000000000000000000000000000000000000000000000000000000000000000000000000000000000000000000000000000000000000000010000000001010100000000000100000000
310
00000000000000000000000000000000000000000000000000000000000000000000000000000000000000000000000000000000000000010100010100010100000101000000000000000000000000000000000000000000000000000000000101000001010000010000010100000000000000000000000000000000000000
310
00000000000000000000000000000000000000000000000000000000000000000000000100000000010101000000000001000000000000000000000000000000000000000000000000000000000000000000000000000000000000000000000000000000000000000000000001010000010100000101000000000000000000
310
00000000000000000000000000000000000000000000000101000001010100010001000000000000000000000000000000000000000000000000000000000000000000000000000000000000000000000000000000000000010000000001010100000000000100000000000000000000000000000000000000000000000000
310
00000000000000000000000000000000000000000000000000000000000000000000000101010000010100000000000000000000000000000000000000000000000000000000000000000000000001010000010100010000000000000000000000000000000000000000000000000000000000000000000000000000000000
310
00000000000000000000000000000100000000010101000000000001000000000000000000000000000000000000000000000000000000000000000000000000000000000000000000000000000000000000000000000001000100010100000000000000000000000000000000000000000000000000000000000000000000
310
00000000000001010001000100000000000000000000000000000000000000000000000000000000000000000000000000000000000000000000000000000000000000010000000001010100000000000100000000000000000000000000000000000000000000000000000000000000000000000000000000000000000000
310
00000000000000000000000000010100010000000000000000000000000000000000000000000000000000000000000000000000000000000000000000010001010000000000000000000000000000000000000000000000000000000000000000000000000000000000000000000000000000000000000001000000000101
310
01000000000001000000000000000000000000000000000000000000000000000000000000000000000000000000000000000000000000000000000000000000000001000100000000000000000000000000000000000000000000000000000000000000000000000000000000000000000000010001000000000000000000
310
00000000000000000000000000000000000000000000000000000000000000000000000000000000000000000000010000000001010100000000000100000000000000000000000000000000000000000000000000000000000000000000000000000000000000000000000000000000000000000000010001000000000000
310
00000000000000000000000000000000000000000000000000000000000000000000000000000000000001000101000000000000000000000000000000000000000000000000000000000000000000000000000000000000000000000000000000000001000000000101010000000000010000000000000000000000000000
310
00000000000000000000000000000000000000000000000000000000000000000000000000000101010101010001000000000000000000000000000000000000000000000000000000000000000000000000000000000000000000000000000001000001010101010000000000000000000000000000000000000000000000
310
00000000000000000000000000000000000000000000000000010000000001010100000000000100000000000000000000000000000000000000000000000000000000000000000000000000000000000000000000000000000001010000000100010000000000000000000000000000000000000000000000000000000000
310
00000000000000000000000000000000000000000000000100000100000101000000000000000000000000000000000000000000000000000000000000000000000000000000000000000000000001000000000101010000000000010000000000000000000000000000000000000000000000000000000000000000000000
310
00000000000000000000000000000000010001010100010000000000000000000000000000000000000000000000000000000000000000000000000000000000000000000000000000000000000100000101000101000000000000000000000000000000000000000000000000000000000000000000000000000000000000
310
00000000010000000001010100000000000100000000000000000000000000000000000000000000000000000000000000000000000000000000000000000000000000000101010101000100000000000000000000000000000000000000000000000000000000000000000000000000000000000000000000000000000000
310
00000000010000010100010000000000000000000000000000000000000000000000000000000000000000000000000000000000000000000001000000000101010000000000010000000000000000000000000000000000000000000000000000000000000000000000000000000000000000000000000000000100010001
310
00000000000000000000000000000000000000000000000000000000000000000000000000000000000000000000000000000000000000000000010001000100000000000000000000000000000000000000000000000000000000000000000000000000000000000000000000000100000000010101000000000001000000
310
00000000000000000000000000000000000000000000000000000000000000000000000000000000000000000000000001000101000000000000000000000000000000000000000000000000000000000000000000000000000000000000000000000000000000000000000000000000010001010000000000000000000000
310
00000000000000000000000000000000000000000000000000000000000000000000000001000000000101010000000000010000000000000000000000000000000000000000000000000000000000000000000000000000000000000000000000000000000001000100000000000000000000000000000000000000000000
310
00000000000000000000000000000000000000000000000000000000000000000000000000000100010100000000000000000000000000000000000000000000000000000000000000000000000000000000000000000000000100000000010101000000000001000000000000000000000000000000000000000000000000
310
00000000000000000000000000000000000000000000000000000000010100000000000000000000000000000000000000000000000000000000000000000000000000000000000000000000000000000000000000000000000000000100010000000000000000000000000000000000000000000000000000000000000000
310
00000000000000000000000000000001000000000101010000000000010000000000000000000000000000000000000000000000000000000000000000000000000000000000000000000000000000000100010000000000000000000000000000000000000000000000000000000000000000000000000000000000000000
310
00000000000000000000000000000000000001000100000000000000000000000000000000000000000000000000000000000000000000000000000000000000000000000100000000010101000000000001000000000000000000000000000000000000000000000000000000000000000000000000000000000000000000
310
00000000000001010000000000000000000000000000000000000000000000000000000000000000000000000000000000000000000000000000000000000000000000000000000001000100000000000000000000000000000000000000000000000000000000000000000000000000000000000000000000010000000101
310
01010100000000010000000000000000000000000000000000000000000000000000000000000000000000000000000000000000000000000000010001000000000000000000000000000000000000000000000000000000000000000000000000000000000000000000000000000000000000000000000000000000000001
310
01010000000000000000000000000000000000000000000000000000000000000000000000000000000000000000000101010101010101010101010101000000000000000000000000000000000000000000000000000000000000000000000000000000000000000000000101010101010000000000000000000000000000
310
00000000000000000000000000000000000000000000000000000000000000000000000000000000000000000000000000000000010001010101000000000000000000000000000000000000000000000000000000000000000000000000000000000000010101010101010101010101010100000000000000000000000000
310
00000000000000000000000000000000000000000000000000000000000000000001000001000100000000000000000000000000000000000000000000000000000000000000000000000000000000000000000000000000000000000000000000000000000000000000010100000100000000000000000000000000000000
310
00000000000000000000000000000000000000000000000000000101010101010101010101010101000000000000000000000000000000000000000000000000000000000000000000000000000000000000000000010001010101000000000000000000000000000000000000000000000000010101010101010101010101
310
01010101010101010000000000000000000000000000000000000000000000000100010100010000000000000000000000000000000000000000000000000000000000000000000000000000000000010000000000000000000000000100000000000000000000000000000000000000000000000000000000000000000000
310
00000000000000000000000101010100010000000000000000000000000000000000000000000001010000000000000000000000000000000000000000010100000000000000000000000000000000000000000000000101010101000000000000000000000000000000000000000000000000000000000000000000000000
310
00000000000100000000000000000000000001000000000000000000000000000000000000000000000000000000000000000000000000000000000000000000010000010001000000000000000000000000000000000000000000010000000000000001010101010101010101010000000000010000000000000000000000
310
00000000000000000000000001010000010100000000000000000000000000000000000000000000000000000000000000000000000000000000010000000000000000000000000100000000000000000000000000000000000000000000000000000000000000000000000000000000000000000000010101000100000000
310
00000000000000000000000000000000000100000101010101010000000000000000000101010101010001000000000000000000000000000000000000000000000101000100000000000000000000000000000000000000000000000000000000000000000000000000000000000001000000000000000000000000010000
310
00000000000000000000000000000000000000000000000000000000000000000000000000000000000000000001010100000000000000000000000000000000000000000000010000010000000000000000000000000000000000000001000100000000000000000000000000000000000000000000010101000000000000
310
00000000000000000000000000000000000000000000000000000000000000000000000000010000000000000000000000000100000000000000000000000000000000000000000000000000000000000000000000000000000000000000000000000001010000000000000000000000000000000000000000000001000001
310
00000000000000000000000000000000000000010001000000000000000000000000000000000000000000000100010000000000000000000000000000000000000000000000000000000000000000000000000000000000000001000000000000000000000000010000000000000000000000000000000000000000000000
310
00000000000000000000000000000000000000000000000000010100000000000000000000000000000000000000000000010000010000000000000000000000000000000000000001000100000000000000000000000000000000000000000000010001000000000000000000000000000000000000000000000000000000
310
00000000000000000000000000000000010101010101010101010101010100000000000000000000000000000000000000000000000000000000000000000000000000000000000000000000000100010000000000000000000000000000000000000000000001000001000000000000000000000000000000000000000100
310
01000000000000000000000000000000000000000000000100010000000000000000000000000000000000000000000000000000000000000000000000000000000000000001000000000000000000000000010000000000000000000000000000000000000000000000000000000000000000000000000000000000000000
310
00000001000100000000000000000000000000000000000000000000010000010000000000000000000000000000000000000001000100000000000000000000000000000000000000000000000101000000000000000000000000000000000000000000000000000000000000000000000000000000000000000100000000
310
00000000000000000100000000000000000000000000000000000000000000000000000000000000000000000000000000000000000000000100010000000000000000000000000000000000000000000001000001000000000000000000000000000000000000000100010000000000000000000000000000000000000000
310
00000001010100000000000000000000000000000000000000000000000000000000000000000000000000000000000001000000000000000000000000010000000000000000000000000000000000000000000000000000000000000000000000000000000000000000010101010100000000000000000000000000000000
310
00000000000000010000010000000000000000000000000000000000000001000100000000000000000000000000000000000000000000000101000101010000000000000000000000000000000000000000000000000000000000000000000000000000000100000000000000000000000001000000000000000000000000
310
00000000000000000000000000000000000000000000000000000000000000000100000101000000000000000000000000000000000000000000000001000001000000000000000000000000000000000000000100010000000000000000000000000000000000000000000000010001000001000000000000000000000000
310
00000000000000000000000000000000000000000000000000000001000000000000000000000000010000000000000000000000000000000000000000000000000000000000000000000000000000000000000000010101010100000000000000000000000000000000000000000000000100000100000000000000000000
310
00000000000000000001000100000000000000000000000000000000000000000000000100010101010000000000000000000000000000000000000000000000000000000000000000000000000000000100000000000000000000000001000000000000000000000000000000000000000000000000000000000000000000
310
00000000000000000000000101010101000000000000000000000000000000000000000000000001000001000000000000000000000000000000000000000100010000000000000000000000000000000000000000000000010001010101000000000000000000000000000000000000000000000000000000000000000000
310
00000000000001000000000000000000000000010000000000000000000000000000000000000000000000000000000000000000000000000000000000000000010000010100000000000000000000000000000000000000000000000100000100000000000000000000000000000000000000010001000000000000000000
310
00000000000000000000000000010001000000010000000000000000000000000000000000000000000000000000000000000000000000000000000100000000000000000000000001000000000000000000000000000000000000000000000000000000000000000000000000000000000000000001010001010000000000
310
00000000000000000000000000000000000001000001000000000000000000000000000000000000000100010000000000000000000000000000000000000000000100010000010101000000000000000000000000000000000000000000000000000000000000000000000000000000010000000000000000000000000100
310
00000000000000000000000000000000000000000000000000000000000000000000000000000000000000000001010001000000000000000000000000000000000000000000000100000100000000000000000000000000000000000000010001000000000000000000000000000000000000000001000100000100000000
310
00000000000000000000000000000000000000000000000000000000000000000000000000000100000000000000000000000001000000000000000000000000000000000000000000000000000000000000000000000000000000000000000000000001000100000000000000000000000000000000000000000000010000
310
01000000000000000000000000000000000000000100010000000000000000000000000000000000000001000100000000000000000000000000000000000000000000000000000000000000000000000000000000000000000000010000000000000000000000000100000000000000000000000000000000000000000000
310
00000000000000000000000000000000000000000000000000010001000000000000000000000000000000000000000000000100000100000000000000000000000000000000000000010001000000000000000000000000000000000000010001000000000000000000000000000000000000000000000000000000000000
310
00000000000000000000000000000000000100000000000000000000000001000000000000000000000000000000000000000000000000000000000000000000000000000000000000000000000000010100000000000000000000000000000000000000000000010000010000000000000000000000000000000000000001
310
00010000000000000000000000000000000000010001000000000000000000000000000000000000000000000000000000000000000000000000000000000000000000000000010101010101010101010101010100000000000000000000000000000000000000000000000000000000000000000000000000000000000000
310
00000000000101000000000000000000000000000000000000000000000100000100000000000000000000000000000000000000010001000000000000000000000000000000000100010000000000000000000000000000000000000000000000000000000000000000000000000000000000000000000000000001000000
310
00000000000000000001000000000000000000000000000000000000000000000000000000000000000000000000000000000000000000000001010100000000000000000000000000000000000000000000010000010000000000000000000000000000000000000001000100000000000000000000000000000001000100
310
00000000000100000000000000000000000000000000000000000000000000000000000000000000000000000000000000010000000000000000000000000100000000000000000000000000000000000000000000000000000000000000000000000000000000000000000000000101000100000000000000000000000000
310
00000000000000000100000101010101010000000000000000000101010101010001000000000000000000000000000001000100000000000000000100000000000000000000000000000000000000000000000000000000000000000000000000000000000001000000000000000000000000010000000000000000000000
310
00000000000000000000000000000000000000000000000000000000000000000000010100010001000000000000000000000000000000000000000000010000000000000001010101010101010101010000000000010000000000000000000000000000010001000000000000000000000101000000000000000000000000
310
00000000000000000000000000000000000000000000000000000000010000000000000000000000000100000000000000000000000000000000000000000000000000000000000000000000000000000000000000000001010101000100000000000000000000000000000000000000000000010000000000000000000000
310
00000000000000000000000100000000000000000000000000010001000000000000000001010101000000000000000000000000000000000000000000000000000000000000000000000000000000000001000000000000000000000000010000000000000000000000000000000000000000000000000000000000000000
310
00000000000000000000000000010000010101000000000000000000000000000000000000000000000001010101010101010101010101010101010101010101000000000000000000000000000100010000000000000000000100000100000000000000000000000000000000000000000000000000000000000000000000
310
00000000000000010000000000000000000000000100000000000000000000000000000000000000000000000000000000000000000000000000000000000000000000010100010001000000000000000000000000000000000000000000000000000000000000000000000000000000000000000000000000000000000000
310
00000100010000000000000000000000010100000000000000000000000000000000000000000000000000000000000000000000000000000000000001010101010101010101010101010000000000000000000000000000000000000000000000000000000000000000000000000000000000000000000001010100010100
310
00000000000000000000000000000000000000000000000000000000000000000000000000000000000000000000000000000000000001000100000000000000000000000101010000000000000000000000000000000000000000000000000000000000000000000000000000000000000101010101010101010101010101
310
00000000000000000000000000000000000000000000000000000000000000000000000000000000000000000000000000010100010000000000000000000000000000000000000000000000000000000000000000000000000000000000000000000000000000000000010001000000000000000000000001000000000000
310
00000000000000000000000000000000000000000000000000000000000000000000000000000001010101010101010101010101010000000000000000000000000000000000000000000000000000000000000000000000000000000000000000000000000000000101000000000000000000000000000000000000000000
310
00000000000000000000000000000000000000000000000000000000000000010001000000000000000000000000000000000000000000000000000000000000000000000000000000000000000000000000000000000000000000000100000001010101010000000001000000000000000000000000000000000000000000
310
00000000000000000000000000000000000000000000000000000000000001000100000000000000000000000000000000000000000000000000000000000000000000000000000000000000000000000000000100010000000000000000000000000000000000000000000000000000000000000000000000000000000000
310
00000000000000000000000000000000000001000000000101010000000000010000000000000000000000000000000000000000000000000000000000000000000000000000000000000000000000000000000001010000000000000000000000000000000000000000000000000000000000000000000000000000000000
310
00000000000000000100010000000000000000000000000000000000000000000000000000000000000000000000000000000000000000000000000000000000000000000000000100000000010101000000000001000000000000000000000000000000000000000000000000000000000000000000000000000000000000
310
00000000000000000000010001000000000000000000000000000000000000000000000000000000000000000000000000000000000000000000000001000100000000000000000000000000010000000000000000000000000000000000000000000000000000000000000000000000000000000000000000000000010000
310
00000101010000000000010000000000000000000000000000000000000000000000000000000000000000000000000000000000000000000000000000000100010100000000000000000000000000000000000000000000000000000000000000000000000000000000000000000000010001000000000000000000000000
310
00000100000000000000000000000000000000000000000000000000000000000000000000000000000000000000000000000100000000010101000000000001000000000000000000000000000000000000000000000000000000000000000000000000000000000000000000000000000000010001000100000000000000
310
00000000000000000000000000000000000000000000000000000000000000000000000000010001000000000000000000000000000000010000000000000000000000000000000000000000000000000000000000000000000000000000000000000000000000010000000001010100000000000100000000000000000000
310
00000000000000000000000000000000000000000000000000000000000000000000000000000000010100010100010000000000000000000000000000000000000000000000000000000000000000000000000000000000000100010000000000000000000000000000010100010000000000000000000000000000000000
310
00000000000000000000000000000000000000000000000000000000000100000000010101000000000001000000000000000000000000000000000000000000000000000000000000000000000000000000000000000000000000000000010100010100010000000000000000000000000000000000000000000000000000
310
00000000000000000000000000000100010000000000000000000000000000000100010100000000000000000000000000000000000000000000000000000000000000000000000000000000000000000000010000000001010100000000000100000000000000000000000000000000000000000000000000000000000000
310
00000000000000000000000000000000000000000101010000010001000000000000000000000000000000000000000000000000000000000000000000000000000001000100000000000000000000000000000000000101000000000000000000000000000000000000000000000000000000000000000000000000000000
310
00000000000000000100000000010101000000000001000000000000000000000000000000000000000000000000000000000000000000000000000000000000000000000000000000000101010101010001000000000000000000000000000000000000000000000000000000000000000000000000010001000000000000
310
00000000000000000101010101000000000000000000000000000000000000000000000000000000000000000000000000000000000000000000000000010000000001010100000000000100000000000000000000000000000000000000000000000000000000000000000000000000000000000000000000000000000000
310
00000000000001000100000000000000000000000000000000000000000000000000000000000000000000010001000000000000000000000000000000000000000000000000000000000000000000000000000000000000000000000000000000000000000000000000000000000000000001000000000101010000000000
310
01000000000000000000000000000000000000000000000000000000000000000000000000000000000000000000000000000000000000000000000001000100000000000000000000000000000000000000000000000000000000000000000100010000000000000000000000000000000000000000000000000000000000
310
00000000000000000000000000000000000000000000000000000000000000000000000000000000010000000001010100000000000100000000000000000000000000000000000000000000000000000000000000000000000000000000000000000000000000000000000000000000000101000100000000000000000000
310
00000000000000000000000000000000000000000100010000000000000000000000000000010000000000000000000000000000000000000000000000000000000000000000000000000000000000000000000000000000000000000001000000000101010000000000010000000000000000000000000000000000000000
310
00000000000000000000000000000000000000000000000000000000000000000000000000000001000100010000000000000000000000000000000000000000000000000000000001000100000000000000000000000000000001000000000000000000000000000000000000000000000000000000000000000000000000
310
00000000000000000000000000000000000000010000000001010100000000000100000000000000000000000000000000000000000000000000000000000000000000000000000000000000000000000000000000000000000000000001010100010100000000000000000000000000000000000000000000000000010001
310
00000000000000000000000000010100010000000000000000000000000000000000000000000000000000000000000000000000000000000000000000000000000000000000000001000000000101010000000000010000000000000000000000000000000000000000000000000000000000000000000000000000000000
310
00000000000000000000000000000000000001010000010100010100000000000000000000000000000000000000000000010001000000000000000000000000000001000100010000000000000000000000000000000000000000000000000000000000000000000000000000000000000000000000000000000000000100
310
00000001010100000000000100000000000000000000000000000000000000000000000000000000000000000000000000000000000000000000000000000000000000000000000101000001000101000101000000000000000000000000000000000000000100010000000000000000000000000000000100000101000000
310
00000000000000000000000000000000000000000000000000000000000000000000000000000000000000000000000000000001000000000101010000000000010000000000000000000000000000000000000000000000000000000000000000000000000000000000000000000000000000000000000000000000000101
310
01000101010101000101000000000000000000000000000000000100010000000000000000000000000001010100010101000000000000000000000000000000000000000000000000000000000000000000000000000000000000000000000000000000000000000100000000010101000000000001000000000000000000
310
00000000000000000000000000000000000000000000000000000000000000000000000000000000000000000000000000000000000101000000000001010001010101000000000000000000000001000100000000000000000000010000000000000101000000000000000000000000000000000000000000000000000000
310
00000000000000000000000000000000000000000000000000000000000001000000000101010000000000010000000000000000000000000000000000000000000000000000000000000000000000000000000000000000000000000000000000000000000000000000000000000000000100010100000001010101010100
310
00000001000100000000000000000000010000000000000000000000000000000000000000000000000000000000000000000000000000000000000000000000000000000000000000000000000000000000000100000001010101010000000001000000000000000000000000000000000000000000000000000000000000
310
00000000000000000000000000000000000000000000000000000000000000000000000000000000010001010101000000000000010101010001000000000000000001010101000000000000000000000000000000000000000000000000000000000000000000000000000000000000000000000000000000000000000000
310
00000000000000000001010101010101010101010101010000000000000000000000000000000000000000000000000000000000000000000000000000000000000000000000000000000000000000000000000000000000000000000001010000010001010101010100000000010000000000000100000100010100000000
310
00000000000000000000000000000000000000000000000000000000000000000000000000000000000000000000000000000000000000000000000000000101010101010101010101010101000000000000000000000000000000000000000000000000000000000000000000000000000000000000000000000000000000
310
00000000000000000000000000000000000000010100010001010000000001010101010100000100000000010101000101000000000000000000000000000000000000000000000000000000000000000000000000000000000000000000000000000000000000000000000000000000000000010101010101010101010101
310
01000000000000000000000000000000000000000000000000000000000000000000000000000000000000000000000000000000000000000000000000000000000000000000000000000101010000000000000001000100010101000000000000010101000000000000000000000000000000000000000000000000000000
310
00000000000000000000000000000000000000000000000000000000000000000000000000000000000000000000010101010000000000000000000000000000000000000000000000000000000000000000000000000000000000000000000000000000000000000000000000000000000000000000000000000000000000
310
00000000000000000000010101000101000000000000000000000000000000000000000000000000000000000000000000000000000000000000000000000000000000000000000000000000000000000000000000000000000000000000000000000001010101000000000000000000000000000000000000000000000000
310
00000000000000000000000000000000000000000000000000000000000000000000000000000000000000000000000000000000000000000000000000000000010101010100000000000000000000000000000000000000000000000000000000000000000000000000000000000000000000000000000000000000000000
310
00000000000000000000000000000000000000000000000000010101010000000000000000000000000000000000000000000000000000000000000000000000000000000000000000000000000000000000000000000000000000000000000000000000000000000000000000000000000000000000000000000000000000
310
000000000000000000000000000000000000000000000000000000000000000000000000000000000000000000000000000000000000000000000000000000000000000000000000000000000000000000000000000000000000000000000000000000000000000000000000
  0
ENDSEC
  0
EOF
