  0
SECTION
  2
HEADER
  9
$ACADVER
  1
AC1018
  9
$ACADMAINTVER
 70
     0
  9
$DWGCODEPAGE
  3
ANSI_1252
  9
$INSBASE
 10
0.0
 20
0.0
 30
0.0
  9
$EXTMIN
 10
190.510094758968
 20
356.0157454927792
 30
0.0
  9
$EXTMAX
 10
253.50222074322
 20
406.4094462801808
 30
0.0
  9
$LIMMIN
 10
190.510094758968
 20
356.0157454927792
  9
$LIMMAX
 10
253.50222074322
 20
406.4094462801808
  9
$ORTHOMODE
 70
     1
  9
$REGENMODE
 70
     1
  9
$FILLMODE
 70
     1
  9
$QTEXTMODE
 70
     0
  9
$MIRRTEXT
 70
     1
  9
$LTSCALE
 40
1.0
  9
$ATTMODE
 70
     1
  9
$TEXTSIZE
 40
2.5
  9
$TRACEWID
 40
1.0
  9
$TEXTSTYLE
  7
Standard
  9
$CLAYER
  8
0
  9
$CELTYPE
  6
ByLayer
  9
$CECOLOR
 62
     7
  9
$CELTSCALE
 40
1.0
  9
$DISPSILH
 70
     0
  9
$DIMSCALE
 40
1.0
  9
$DIMASZ
 40
2.5
  9
$DIMEXO
 40
0.625
  9
$DIMDLI
 40
3.75
  9
$DIMRND
 40
0.0000002
  9
$DIMDLE
 40
0.0
  9
$DIMEXE
 40
1.25
  9
$DIMTP
 40
0.0
  9
$DIMTM
 40
0.0
  9
$DIMTXT
 40
1.5
  9
$DIMCEN
 40
0.09
  9
$DIMTSZ
 40
0.0
  9
$DIMTOL
 70
     0
  9
$DIMLIM
 70
     0
  9
$DIMTIH
 70
     0
  9
$DIMTOH
 70
     0
  9
$DIMSE1
 70
     0
  9
$DIMSE2
 70
     0
  9
$DIMTAD
 70
     1
  9
$DIMZIN
 70
     8
  9
$DIMBLK
  1

  9
$DIMASO
 70
     1
  9
$DIMSHO
 70
     1
  9
$DIMPOST
  1

  9
$DIMAPOST
  1

  9
$DIMALT
 70
     0
  9
$DIMALTD
 70
     3
  9
$DIMALTF
 40
1.0
  9
$DIMLFAC
 40
1.0
  9
$DIMTOFL
 70
     1
  9
$DIMTVP
 40
0.0
  9
$DIMTIX
 70
     0
  9
$DIMSOXD
 70
     0
  9
$DIMSAH
 70
     0
  9
$DIMBLK1
  1

  9
$DIMBLK2
  1

  9
$DIMSTYLE
  2
Standard
  9
$DIMCLRD
 70
     0
  9
$DIMCLRE
 70
     0
  9
$DIMCLRT
 70
     0
  9
$DIMTFAC
 40
1.0
  9
$DIMGAP
 40
0.625
  9
$DIMJUST
 70
     0
  9
$DIMSD1
 70
     0
  9
$DIMSD2
 70
     0
  9
$DIMTOLJ
 70
     1
  9
$DIMTZIN
 70
     0
  9
$DIMALTZ
 70
     0
  9
$DIMALTTZ
 70
     0
  9
$DIMUPT
 70
     0
  9
$DIMDEC
 70
     2
  9
$DIMTDEC
 70
     2
  9
$DIMALTU
 70
     2
  9
$DIMALTTD
 70
     3
  9
$DIMTXSTY
  7
_TCW_TXTSTY_1
  9
$DIMAUNIT
 70
     0
  9
$DIMADEC
 70
     2
  9
$DIMALTRND
 40
0.01
  9
$DIMAZIN
 70
     0
  9
$DIMDSEP
 70
    46
  9
$DIMATFIT
 70
     3
  9
$DIMFRAC
 70
     2
  9
$DIMLDRBLK
  1

  9
$DIMLUNIT
 70
     2
  9
$DIMLWD
 70
    -2
  9
$DIMLWE
 70
    -2
  9
$DIMTMOVE
 70
     0
  9
$LUNITS
 70
     2
  9
$LUPREC
 70
     4
  9
$SKETCHINC
 40
1.0
  9
$FILLETRAD
 40
10.0
  9
$AUNITS
 70
     0
  9
$AUPREC
 70
     0
  9
$MENU
  1
.
  9
$ELEVATION
 40
0.0
  9
$PELEVATION
 40
0.0
  9
$THICKNESS
 40
0.0
  9
$LIMCHECK
 70
     0
  9
$CHAMFERA
 40
0.5
  9
$CHAMFERB
 40
0.5
  9
$CHAMFERC
 40
1.0
  9
$CHAMFERD
 40
0.0
  9
$SKPOLY
 70
     0
  9
$TDCREATE
 40
2454839.58641522
  9
$TDUCREATE
 40
2454839.544748553
  9
$TDUPDATE
 40
2454839.586415232
  9
$TDUUPDATE
 40
2454839.544748565
  9
$TDINDWG
 40
0.0
  9
$TDUSRTIMER
 40
0.0
  9
$USRTIMER
 70
     1
  9
$ANGBASE
 50
0.0
  9
$ANGDIR
 70
     0
  9
$PDMODE
 70
     0
  9
$PDSIZE
 40
0.0
  9
$PLINEWID
 40
0.0
  9
$SPLFRAME
 70
     0
  9
$SPLINETYPE
 70
     6
  9
$SPLINESEGS
 70
     8
  9
$HANDSEED
  5
4FC
  9
$SURFTAB1
 70
     6
  9
$SURFTAB2
 70
     6
  9
$SURFTYPE
 70
     6
  9
$SURFU
 70
     6
  9
$SURFV
 70
     6
  9
$UCSBASE
  2

  9
$UCSNAME
  2

  9
$UCSORG
 10
0.0
 20
0.0
 30
0.0
  9
$UCSXDIR
 10
1.0
 20
0.0
 30
0.0
  9
$UCSYDIR
 10
0.0
 20
1.0
 30
0.0
  9
$UCSORTHOREF
  2

  9
$UCSORTHOVIEW
 70
     0
  9
$UCSORGTOP
 10
0.0
 20
0.0
 30
0.0
  9
$UCSORGBOTTOM
 10
0.0
 20
0.0
 30
0.0
  9
$UCSORGLEFT
 10
0.0
 20
0.0
 30
0.0
  9
$UCSORGRIGHT
 10
0.0
 20
0.0
 30
0.0
  9
$UCSORGFRONT
 10
0.0
 20
0.0
 30
0.0
  9
$UCSORGBACK
 10
0.0
 20
0.0
 30
0.0
  9
$PUCSBASE
  2

  9
$PUCSNAME
  2

  9
$PUCSORG
 10
0.0
 20
0.0
 30
0.0
  9
$PUCSXDIR
 10
1.0
 20
0.0
 30
0.0
  9
$PUCSYDIR
 10
0.0
 20
1.0
 30
0.0
  9
$PUCSORTHOREF
  2

  9
$PUCSORTHOVIEW
 70
     0
  9
$PUCSORGTOP
 10
0.0
 20
0.0
 30
0.0
  9
$PUCSORGBOTTOM
 10
0.0
 20
0.0
 30
0.0
  9
$PUCSORGLEFT
 10
0.0
 20
0.0
 30
0.0
  9
$PUCSORGRIGHT
 10
0.0
 20
0.0
 30
0.0
  9
$PUCSORGFRONT
 10
0.0
 20
0.0
 30
0.0
  9
$PUCSORGBACK
 10
0.0
 20
0.0
 30
0.0
  9
$USERI1
 70
     0
  9
$USERI2
 70
     0
  9
$USERI3
 70
     0
  9
$USERI4
 70
     0
  9
$USERI5
 70
     0
  9
$USERR1
 40
0.0
  9
$USERR2
 40
0.0
  9
$USERR3
 40
0.0
  9
$USERR4
 40
0.0
  9
$USERR5
 40
0.0
  9
$WORLDVIEW
 70
     1
  9
$SHADEDGE
 70
     3
  9
$SHADEDIF
 70
    70
  9
$TILEMODE
 70
     1
  9
$MAXACTVP
 70
    64
  9
$PINSBASE
 10
0.0
 20
0.0
 30
0.0
  9
$PLIMCHECK
 70
     0
  9
$PEXTMIN
 10
0.0
 20
0.0
 30
0.0
  9
$PEXTMAX
 10
420.0
 20
297.0
 30
0.0
  9
$PLIMMIN
 10
0.0
 20
0.0
  9
$PLIMMAX
 10
420.0
 20
297.0
  9
$UNITMODE
 70
     0
  9
$VISRETAIN
 70
     1
  9
$PLINEGEN
 70
     0
  9
$PSLTSCALE
 70
     1
  9
$TREEDEPTH
 70
  3020
  9
$CMLSTYLE
  2
Standard
  9
$CMLJUST
 70
     0
  9
$CMLSCALE
 40
1.0
  9
$PROXYGRAPHICS
 70
     1
  9
$MEASUREMENT
 70
     0
  9
$CELWEIGHT
370
    -1
  9
$ENDCAPS
280
     0
  9
$JOINSTYLE
280
     0
  9
$LWDISPLAY
290
     0
  9
$INSUNITS
 70
     1
  9
$HYPERLINKBASE
  1

  9
$STYLESHEET
  1

  9
$XEDIT
290
     1
  9
$CEPSNTYPE
380
     0
  9
$PSTYLEMODE
290
     1
  9
$FINGERPRINTGUID
  2
{5FA1E167-F7C4-4779-8590-CA1D24D8FBB3}
  9
$VERSIONGUID
  2
{FAEB1C32-E019-11D5-929B-00C0DF256EC4}
  9
$EXTNAMES
290
     1
  9
$PSVPSCALE
 40
0.0
  9
$OLESTARTUP
290
     0
  9
$SORTENTS
280
   127
  9
$INDEXCTL
280
     0
  9
$HIDETEXT
280
     1
  9
$XCLIPFRAME
290
     0
  9
$HALOGAP
280
     0
  9
$OBSCOLOR
 70
   257
  9
$OBSLTYPE
280
     0
  9
$INTERSECTIONDISPLAY
280
     0
  9
$INTERSECTIONCOLOR
 70
   257
  9
$DIMASSOC
280
     2
  9
$PROJECTNAME
  1

  0
ENDSEC
  0
SECTION
  2
CLASSES
  0
CLASS
  1
ACDBDICTIONARYWDFLT
  2
AcDbDictionaryWithDefault
  3
ObjectDBX Classes
 90
        0
 91
        3
280
     0
281
     0
  0
CLASS
  1
VISUALSTYLE
  2
AcDbVisualStyle
  3
ObjectDBX Classes
 90
     4095
 91
        3
280
     0
281
     0
  0
CLASS
  1
TCOPTIONALDATA
  2
TcOptionalData
  3
ExTcadCustObjs|Description: TurboCAD extension data object
 90
        0
 91
        3
280
     0
281
     0
  0
ENDSEC
  0
SECTION
  2
TABLES
  0
TABLE
  2
VPORT
  5
8
330
0
100
AcDbSymbolTable
 70
     1
  0
VPORT
  5
29
330
8
100
AcDbSymbolTableRecord
100
AcDbViewportTableRecord
  2
*Active
 70
     0
 10
0.0
 20
0.0
 11
1.0
 21
1.0
 12
0.0
 22
0.0
 13
0.0
 23
0.0
 14
10.0
 24
10.0
 15
10.0
 25
10.0
 16
0.0
 26
0.0
 36
1.0
 17
408.7066521065404
 27
263.1151238747785
 37
0.0
 40
261.393751650334
 41
1.972704714640198
 42
50.0
 43
0.0
 44
0.0
 50
0.0
 51
0.0
 71
     0
 72
   100
 73
     1
 74
     3
 75
     0
 76
     0
 77
     0
 78
     0
281
     0
 65
     1
110
0.0
120
0.0
130
0.0
111
1.0
121
0.0
131
0.0
112
0.0
122
1.0
132
0.0
 79
     0
146
0.0
  0
ENDTAB
  0
TABLE
  2
LTYPE
  5
5
330
0
100
AcDbSymbolTable
 70
    14
  0
LTYPE
  5
14
330
5
100
AcDbSymbolTableRecord
100
AcDbLinetypeTableRecord
  2
ByBlock
 70
     0
  3

 72
    65
 73
     0
 40
0.0
  0
LTYPE
  5
15
330
5
100
AcDbSymbolTableRecord
100
AcDbLinetypeTableRecord
  2
ByLayer
 70
     0
  3

 72
    65
 73
     0
 40
0.0
  0
LTYPE
  5
16
330
5
100
AcDbSymbolTableRecord
100
AcDbLinetypeTableRecord
  2
Continuous
 70
     0
  3
Solid line
 72
    65
 73
     0
 40
0.0
  0
LTYPE
  5
40
330
5
100
AcDbSymbolTableRecord
100
AcDbLinetypeTableRecord
  2
Durchgehend
 70
     0
  3
Durchgehend
 72
    65
 73
     0
 40
0.0
  0
LTYPE
  5
41
330
5
100
AcDbSymbolTableRecord
100
AcDbLinetypeTableRecord
  2
Rand
 70
     0
  3
Rand
 72
    65
 73
     6
 40
1.75
 49
0.5
 74
     0
 49
-0.25
 74
     0
 49
0.5
 74
     0
 49
-0.25
 74
     0
 49
0.0
 74
     0
 49
-0.25
 74
     0
  0
LTYPE
  5
42
330
5
100
AcDbSymbolTableRecord
100
AcDbLinetypeTableRecord
  2
Mitte
 70
     0
  3
Mitte
 72
    65
 73
     4
 40
2.0
 49
1.25
 74
     0
 49
-0.25
 74
     0
 49
0.25
 74
     0
 49
-0.25
 74
     0
  0
LTYPE
  5
43
330
5
100
AcDbSymbolTableRecord
100
AcDbLinetypeTableRecord
  2
Strichpunkt
 70
     0
  3
Strichpunkt
 72
    65
 73
     4
 40
1.0
 49
0.5
 74
     0
 49
-0.25
 74
     0
 49
0.0
 74
     0
 49
-0.25
 74
     0
  0
LTYPE
  5
44
330
5
100
AcDbSymbolTableRecord
100
AcDbLinetypeTableRecord
  2
Gestrichelt
 70
     0
  3
Gestrichelt
 72
    65
 73
     2
 40
0.75
 49
0.5
 74
     0
 49
-0.25
 74
     0
  0
LTYPE
  5
45
330
5
100
AcDbSymbolTableRecord
100
AcDbLinetypeTableRecord
  2
Teilen
 70
     0
  3
Teilen
 72
    65
 73
     6
 40
1.25
 49
0.5
 74
     0
 49
-0.25
 74
     0
 49
0.0
 74
     0
 49
-0.25
 74
     0
 49
0.0
 74
     0
 49
-0.25
 74
     0
  0
LTYPE
  5
46
330
5
100
AcDbSymbolTableRecord
100
AcDbLinetypeTableRecord
  2
Punkt
 70
     0
  3
Punkt
 72
    65
 73
     2
 40
0.25
 49
0.0
 74
     0
 49
-0.25
 74
     0
  0
LTYPE
  5
47
330
5
100
AcDbSymbolTableRecord
100
AcDbLinetypeTableRecord
  2
Verdeckt
 70
     0
  3
Verdeckt
 72
    65
 73
     2
 40
0.375
 49
0.25
 74
     0
 49
-0.125
 74
     0
  0
LTYPE
  5
48
330
5
100
AcDbSymbolTableRecord
100
AcDbLinetypeTableRecord
  2
$INVISIBLE
 70
     0
  3
$INVISIBLE
 72
    65
 73
     2
 40
200.0
 49
-100.0
 74
     0
 49
-100.0
 74
     0
  0
LTYPE
  5
49
330
5
100
AcDbSymbolTableRecord
100
AcDbLinetypeTableRecord
  2
CENTER2
 70
     0
  3
CENTER2
 72
    65
 73
     4
 40
28.575
 49
19.05
 74
     0
 49
-3.175
 74
     0
 49
3.175
 74
     0
 49
-3.175
 74
     0
  0
LTYPE
  5
4A
330
5
100
AcDbSymbolTableRecord
100
AcDbLinetypeTableRecord
  2
HIDDEN
 70
     0
  3
HIDDEN
 72
    65
 73
     2
 40
9.524999999999999
 49
6.35
 74
     0
 49
-3.175
 74
     0
  0
LTYPE
  5
4B
330
5
100
AcDbSymbolTableRecord
100
AcDbLinetypeTableRecord
  2
$SNAPEXT
 70
     0
  3
$SNAPEXT
 72
    65
 73
     2
 40
0.04
 49
0.02
 74
     0
 49
-0.02
 74
     0
  0
LTYPE
  5
4C
330
5
100
AcDbSymbolTableRecord
100
AcDbLinetypeTableRecord
  2
$AUXILIARY
 70
     0
  3
$AUXILIARY
 72
    65
 73
     2
 40
0.1
 49
0.05
 74
     0
 49
-0.05
 74
     0
  0
ENDTAB
  0
TABLE
  2
LAYER
  5
2
330
0
100
AcDbSymbolTable
 70
     4
  0
LAYER
  5
10
330
2
100
AcDbSymbolTableRecord
100
AcDbLayerTableRecord
  2
0
 70
     0
 62
     7
  6
Continuous
370
     0
390
F
  0
LAYER
  5
4D
330
2
100
AcDbSymbolTableRecord
100
AcDbLayerTableRecord
  2
Main lines
 70
     0
 62
     1
420
 16711680
  6
Continuous
370
    50
390
F
  0
LAYER
  5
4E
330
2
100
AcDbSymbolTableRecord
100
AcDbLayerTableRecord
  2
HJL
 70
     0
 62
     7
  6
Continuous
370
     0
390
F
  0
LAYER
  5
4F
330
2
100
AcDbSymbolTableRecord
100
AcDbLayerTableRecord
  2
Defpoints
 70
     0
 62
     7
  6
Continuous
290
     0
370
     0
390
F
  0
ENDTAB
  0
TABLE
  2
STYLE
  5
3
330
0
100
AcDbSymbolTable
 70
     3
  0
STYLE
  5
11
330
3
100
AcDbSymbolTableRecord
100
AcDbTextStyleTableRecord
  2
Standard
 70
     0
 40
0.0
 41
1.0
 50
0.0
 71
     0
 42
0.2
  3
txt
  4

  0
STYLE
  5
51
330
3
100
AcDbSymbolTableRecord
100
AcDbTextStyleTableRecord
  2
_TCW_TXTSTY_1
 70
     0
 40
0.0
 41
1.0
 50
0.0
 71
     0
 42
0.6000000238418579
  3

  4

1001
ACAD
1000
Times New Roman
1071
      290
  0
STYLE
  5
53
330
3
100
AcDbSymbolTableRecord
100
AcDbTextStyleTableRecord
  2
_TCW_TXTSTY_2
 70
     0
 40
0.0
 41
1.0
 50
0.0
 71
     0
 42
0.6000000238418579
  3
TXT.SHX
  4

  0
ENDTAB
  0
TABLE
  2
VIEW
  5
6
330
0
100
AcDbSymbolTable
 70
     1
  0
VIEW
  5
50
330
6
100
AcDbSymbolTableRecord
100
AcDbViewTableRecord
  2
Ansicht_0
 70
     0
 40
210.0
 10
148.5
 20
105.0
 41
297.0
 11
0.0
 21
0.0
 31
1.0
 12
0.0
 22
0.0
 32
0.0
 42
50.0
 43
0.0
 44
0.0
 50
0.0
 71
     0
281
     0
 72
     0
  0
ENDTAB
  0
TABLE
  2
UCS
  5
7
330
0
100
AcDbSymbolTable
 70
     0
  0
ENDTAB
  0
TABLE
  2
APPID
  5
9
330
0
100
AcDbSymbolTable
 70
     2
  0
APPID
  5
12
330
9
100
AcDbSymbolTableRecord
100
AcDbRegAppTableRecord
  2
ACAD
 70
     0
  0
APPID
  5
3F
330
9
100
AcDbSymbolTableRecord
100
AcDbRegAppTableRecord
  2
TCAD
 70
     0
  0
ENDTAB
  0
TABLE
  2
DIMSTYLE
  5
A
330
0
100
AcDbSymbolTable
 70
     2
100
AcDbDimStyleTable
  0
DIMSTYLE
105
27
330
A
100
AcDbSymbolTableRecord
100
AcDbDimStyleTableRecord
  2
Standard
 70
     0
 41
2.5
 42
0.625
 43
3.75
 44
1.25
 45
0.0000002
 73
     0
 74
     0
 77
     1
 78
     8
140
1.5
143
1.0
147
0.625
148
0.01
171
     3
172
     1
179
     2
271
     2
272
     2
274
     3
276
     2
340
51
  0
DIMSTYLE
105
52
330
A
100
AcDbSymbolTableRecord
100
AcDbDimStyleTableRecord
  2
ISO-25
 70
     0
 41
2.5
 42
0.625
 43
3.75
 44
1.25
 45
0.0000001
 73
     0
 74
     0
 77
     1
 78
     8
140
2.5
143
0.03937007874016
147
0.625
148
0.0000001
171
     3
172
     1
179
     2
271
     2
272
     2
274
     3
283
     0
284
     8
340
53
  0
ENDTAB
  0
TABLE
  2
BLOCK_RECORD
  5
1
330
0
100
AcDbSymbolTable
 70
     2
  0
BLOCK_RECORD
  5
1F
330
1
100
AcDbSymbolTableRecord
100
AcDbBlockTableRecord
  2
*Model_Space
340
22
  0
BLOCK_RECORD
  5
1B
330
1
100
AcDbSymbolTableRecord
100
AcDbBlockTableRecord
  2
*Paper_Space
340
1E
  0
BLOCK_RECORD
  5
3B
330
1
100
AcDbSymbolTableRecord
100
AcDbBlockTableRecord
  2
*Paper_Space1
340
3C
  0
ENDTAB
  0
ENDSEC
  0
SECTION
  2
BLOCKS
  0
BLOCK
  5
20
330
1F
100
AcDbEntity
  8
0
100
AcDbBlockBegin
  2
*Model_Space
 70
     0
 71
     0
 10
0.0
 20
0.0
 30
0.0
  3
*Model_Space
  1

  0
ENDBLK
  5
21
330
1F
100
AcDbEntity
  8
0
100
AcDbBlockEnd
  0
BLOCK
  5
1C
330
1B
100
AcDbEntity
 67
     1
  8
0
100
AcDbBlockBegin
  2
*Paper_Space
 70
     0
 71
     0
 10
0.0
 20
0.0
 30
0.0
  3
*Paper_Space
  1

  0
ENDBLK
  5
1D
330
1B
100
AcDbEntity
 67
     1
  8
0
100
AcDbBlockEnd
  0
BLOCK
  5
3D
330
3B
100
AcDbEntity
  8
0
100
AcDbBlockBegin
  2
*Paper_Space1
 70
     0
 71
     0
 10
0.0
 20
0.0
 30
0.0
  3
*Paper_Space1
  1

  0
VIEWPORT
  5
4FA
330
3B
100
AcDbEntity
  8
0
100
AcDbViewport
 10
222.006157751094
 20
381.21259588648
 30
0.0
 40
62.992125984252
 41
50.3937007874016
 68
     1
 69
     1
 12
222.006157751094
 22
381.21259588648
 13
0.0
 23
0.0
 14
5.0
 24
5.0
 15
5.0
 25
5.0
 16
0.0
 26
0.0
 36
1.0
 17
0.0
 27
0.0
 37
0.0
 42
50.0
 43
0.0
 44
0.0
 45
50.3937007874016
 50
0.0
 51
0.0
 72
  1000
 90
    32800
  1

281
     0
 71
     1
 74
     0
110
0.0
120
0.0
130
0.0
111
1.0
121
0.0
131
0.0
112
0.0
122
1.0
132
0.0
 79
     0
146
0.0
170
     0
  0
ENDBLK
  5
3E
330
3B
100
AcDbEntity
  8
0
100
AcDbBlockEnd
  0
ENDSEC
  0
SECTION
  2
ENTITIES
  0
LINE
  5
56
102
{ACAD_XDICTIONARY
360
54
102
}
330
1F
100
AcDbEntity
  8
Main lines
100
AcDbLine
 10
454.2292043032228
 20
256.3728700251045
 30
0.0
 11
449.2414733241252
 21
255.4933984809739
 31
0.0
  0
LINE
  5
59
102
{ACAD_XDICTIONARY
360
57
102
}
330
1F
100
AcDbEntity
  8
Main lines
100
AcDbLine
 10
454.1231134086407
 20
260.1064656324631
 30
0.0
 11
447.7466354927217
 21
260.1064656324629
 31
0.0
  0
LINE
  5
5C
102
{ACAD_XDICTIONARY
360
5A
102
}
330
1F
100
AcDbEntity
  8
Main lines
100
AcDbLine
 10
454.2299965390893
 20
269.8399627217819
 30
0.0
 11
449.2432749541239
 21
270.7192562824924
 31
0.0
  0
LINE
  5
5F
102
{ACAD_XDICTIONARY
360
5D
102
}
330
1F
100
AcDbEntity
  8
Main lines
100
AcDbLine
 10
454.1236612394138
 20
266.1064656324631
 30
0.0
 11
447.7467797245683
 21
266.1064656324629
 31
0.0
  0
ARC
  5
62
102
{ACAD_XDICTIONARY
360
60
102
}
330
1F
100
AcDbEntity
  8
Main lines
100
AcDbCircle
 10
447.9910339497936
 20
237.1987569403504
 30
0.0
 40
4.99999999999999
100
AcDbArc
 50
167.8429408634962
 51
242.0000000000005
  0
ARC
  5
65
102
{ACAD_XDICTIONARY
360
63
102
}
330
1F
100
AcDbEntity
  8
Main lines
100
AcDbCircle
 10
207.3785320573888
 20
237.2160455987
 30
0.0
 40
5.000000000000005
100
AcDbArc
 50
-62.00000000000047
 51
12.14882542339312
  0
LINE
  5
68
102
{ACAD_XDICTIONARY
360
66
102
}
330
1F
100
AcDbEntity
  8
Main lines
100
AcDbLine
 10
375.6866445434581
 20
303.1151238747785
 30
0.0
 11
375.6866445434581
 21
223.1151238747785
 31
0.0
  0
LINE
  5
6B
102
{ACAD_XDICTIONARY
360
69
102
}
330
1F
100
AcDbEntity
  8
Main lines
100
AcDbLine
 10
279.6866445434581
 20
223.1151238747785
 30
0.0
 11
279.6866445434581
 21
303.1151238747785
 31
0.0
  0
LINE
  5
6E
102
{ACAD_XDICTIONARY
360
6C
102
}
330
1F
100
AcDbEntity
  8
Main lines
100
AcDbLine
 10
367.8866445434579
 20
223.4151238747788
 30
0.0
 11
367.8866445434579
 21
242.6151238747788
 31
0.0
  0
LINE
  5
71
102
{ACAD_XDICTIONARY
360
6F
102
}
330
1F
100
AcDbEntity
  8
Main lines
100
AcDbLine
 10
287.486644543458
 20
223.4151238747788
 30
0.0
 11
287.486644543458
 21
242.6151238747788
 31
0.0
  0
LWPOLYLINE
  5
72
330
1F
100
AcDbEntity
  8
Main lines
370
    50
100
AcDbPolyline
 90
        2
 70
     1
 10
327.6866445434581
 20
376.1151238747785
 40
0.0196850392966701
 41
0.0196850392966701
 42
2.414213562373001
 10
440.6866445434581
 20
263.1151238747785
 40
0.0
 41
0.0
  0
LWPOLYLINE
  5
73
330
1F
100
AcDbEntity
  8
Main lines
370
    50
100
AcDbPolyline
 90
        2
 70
     1
 10
327.6866445434581
 20
381.1793517621348
 40
0.0196850392966701
 41
0.0196850392966701
 42
2.414213562373
 10
445.7508724308144
 20
263.1151238747785
 40
0.0
 41
0.0
  0
ARC
  5
76
102
{ACAD_XDICTIONARY
360
74
102
}
330
1F
100
AcDbEntity
  8
Main lines
100
AcDbCircle
 10
327.6866445434581
 20
263.1151238747785
 30
0.0
 40
127.5
100
AcDbArc
 50
-128.6086273275288
 51
-123.3992686257694
  0
ARC
  5
79
102
{ACAD_XDICTIONARY
360
77
102
}
330
1F
100
AcDbEntity
  8
Main lines
100
AcDbCircle
 10
256.3011308135636
 20
166.5774252917583
 30
0.0
 40
2.000000000000011
100
AcDbArc
 50
53.51865313185718
 51
144.0000000000038
  0
LINE
  5
7C
102
{ACAD_XDICTIONARY
360
7A
102
}
330
1F
100
AcDbEntity
  8
Main lines
100
AcDbLine
 10
255.7888771036684
 20
159.0671620799477
 30
0.0
 11
259.5371140137109
 21
164.2261675965732
 31
0.0
  0
ARC
  5
7F
102
{ACAD_XDICTIONARY
360
7D
102
}
330
1F
100
AcDbEntity
  8
Main lines
100
AcDbCircle
 10
245.5784332397025
 20
171.4469951603285
 30
0.0
 40
4.999999999999985
100
AcDbArc
 50
-25.99999999999811
 51
48.14882542339256
  0
ARC
  5
82
102
{ACAD_XDICTIONARY
360
80
102
}
330
1F
100
AcDbEntity
  8
Main lines
100
AcDbCircle
 10
256.5978940980434
 20
158.4793768276553
 30
0.0
 40
0.9999999999999997
100
AcDbArc
 50
144.0000000000035
 51
235.808102756242
  0
LINE
  5
85
102
{ACAD_XDICTIONARY
360
83
102
}
330
1F
100
AcDbEntity
  8
Main lines
100
AcDbLine
 10
247.8521961845533
 20
164.7030398974721
 30
0.0
 11
250.0724034711984
 21
169.2551394263832
 31
0.0
  0
LINE
  5
88
102
{ACAD_XDICTIONARY
360
86
102
}
330
1F
100
AcDbEntity
  8
Main lines
100
AcDbLine
 10
250.935097144268
 20
162.594316798108
 30
0.0
 11
254.6830968248136
 21
167.7529957963432
 31
0.0
  0
ARC
  5
8B
102
{ACAD_XDICTIONARY
360
89
102
}
330
1F
100
AcDbEntity
  8
Main lines
100
AcDbCircle
 10
248.7509902308524
 20
164.264668750683
 30
0.0
 40
0.9999999999999943
100
AcDbArc
 50
154.0000000000015
 51
231.3913726724717
  0
ARC
  5
8E
102
{ACAD_XDICTIONARY
360
8C
102
}
330
1F
100
AcDbEntity
  8
Main lines
100
AcDbCircle
 10
250.1260801498929
 20
163.1821020504004
 30
0.0
 40
1.000000000000005
100
AcDbArc
 50
-127.8159498540298
 51
-35.99999999999692
  0
ARC
  5
91
102
{ACAD_XDICTIONARY
360
8F
102
}
330
1F
100
AcDbEntity
  8
Main lines
100
AcDbCircle
 10
209.2756814213786
 20
218.6056438452217
 30
0.0
 40
0.9999999999999848
100
AcDbArc
 50
-159.3992686257688
 51
-81.99999999999912
  0
LINE
  5
94
102
{ACAD_XDICTIONARY
360
92
102
}
330
1F
100
AcDbEntity
  8
Main lines
100
AcDbLine
 10
205.2540474753258
 20
230.4235868555524
 30
0.0
 11
209.7258898713183
 21
232.8013076344055
 31
0.0
  0
LINE
  5
97
102
{ACAD_XDICTIONARY
360
95
102
}
330
1F
100
AcDbEntity
  8
Main lines
100
AcDbLine
 10
206.5086904047352
 20
226.9055103133373
 30
0.0
 11
212.5730812776821
 21
228.875950353613
 31
0.0
  0
LINE
  5
9A
102
{ACAD_XDICTIONARY
360
98
102
}
330
1F
100
AcDbEntity
  8
Main lines
100
AcDbLine
 10
208.3622713529583
 20
221.1990019265475
 30
0.0
 11
214.4270460712941
 21
223.1695666857503
 31
0.0
  0
ARC
  5
9D
102
{ACAD_XDICTIONARY
360
9B
102
}
330
1F
100
AcDbEntity
  8
Main lines
100
AcDbCircle
 10
327.6866445434581
 20
263.1151238747785
 30
0.0
 40
127.5
100
AcDbArc
 50
-164.6086273275289
 51
-159.3992686257684
  0
ARC
  5
A0
102
{ACAD_XDICTIONARY
360
9E
102
}
330
1F
100
AcDbEntity
  8
Main lines
100
AcDbCircle
 10
206.1996734103602
 20
227.8565668296324
 30
0.0
 40
1.000000000000002
100
AcDbArc
 50
-163.8159498540284
 51
-71.99999999999793
  0
ARC
  5
A3
102
{ACAD_XDICTIONARY
360
A1
102
}
330
1F
100
AcDbEntity
  8
Main lines
100
AcDbCircle
 10
208.6712883473333
 20
220.2479454102523
 30
0.0
 40
1.000000000000012
100
AcDbArc
 50
108.0000000000021
 51
199.8081027562432
  0
ARC
  5
A6
102
{ACAD_XDICTIONARY
360
A4
102
}
330
1F
100
AcDbEntity
  8
Main lines
100
AcDbCircle
 10
205.7235190381118
 20
229.5406392626935
 30
0.0
 40
0.9999999999999977
100
AcDbArc
 50
118.0000000000033
 51
195.391372672472
  0
ARC
  5
A9
102
{ACAD_XDICTIONARY
360
A7
102
}
330
1F
100
AcDbEntity
  8
Main lines
100
AcDbCircle
 10
231.1386509001349
 20
191.7435346978809
 30
0.0
 40
2.000000000000008
100
AcDbArc
 50
-53.99999999999788
 51
36.47308299205904
  0
LINE
  5
AC
102
{ACAD_XDICTIONARY
360
AA
102
}
330
1F
100
AcDbEntity
  8
Main lines
100
AcDbLine
 10
229.2636833521337
 20
183.2942988844326
 30
0.0
 11
233.8148616480084
 21
185.5140568557046
 31
0.0
  0
ARC
  5
AF
102
{ACAD_XDICTIONARY
360
AD
102
}
330
1F
100
AcDbEntity
  8
Main lines
100
AcDbCircle
 10
327.6866445434581
 20
263.1151238747785
 30
0.0
 40
127.5
100
AcDbArc
 50
-146.6086273275295
 51
-141.3992686257688
  0
LINE
  5
B2
102
{ACAD_XDICTIONARY
360
B0
102
}
330
1F
100
AcDbEntity
  8
Main lines
100
AcDbLine
 10
227.1552158880946
 20
186.3772637990883
 30
0.0
 11
232.3142214047199
 21
190.125500709131
 31
0.0
  0
ARC
  5
B5
102
{ACAD_XDICTIONARY
360
B3
102
}
330
1F
100
AcDbEntity
  8
Main lines
100
AcDbCircle
 10
227.7430011403872
 20
185.5682468047133
 30
0.0
 40
0.9999999999999892
100
AcDbArc
 50
126.0000000000037
 51
217.8081027562435
  0
ARC
  5
B8
102
{ACAD_XDICTIONARY
360
B6
102
}
330
1F
100
AcDbEntity
  8
Main lines
100
AcDbCircle
 10
228.8253122053446
 20
184.1930929307318
 30
0.0
 40
0.9999999999999808
100
AcDbArc
 50
-141.3992686257689
 51
-63.99999999999783
  0
LINE
  5
BB
102
{ACAD_XDICTIONARY
360
B9
102
}
330
1F
100
AcDbEntity
  8
Main lines
100
AcDbLine
 10
221.3485658060505
 20
194.1898714054261
 30
0.0
 11
224.8667845280601
 21
197.8330935426127
 31
0.0
  0
LINE
  5
BE
102
{ACAD_XDICTIONARY
360
BC
102
}
330
1F
100
AcDbEntity
  8
Main lines
100
AcDbLine
 10
223.6289475787453
 20
191.2316877721871
 30
0.0
 11
228.7876265769802
 21
194.9796874527331
 31
0.0
  0
ARC
  5
C1
102
{ACAD_XDICTIONARY
360
BF
102
}
330
1F
100
AcDbEntity
  8
Main lines
100
AcDbCircle
 10
222.0679056063892
 20
193.4952130349671
 30
0.0
 40
0.9999999999999949
100
AcDbArc
 50
136.0000000000021
 51
213.3913726724713
  0
ARC
  5
C4
102
{ACAD_XDICTIONARY
360
C2
102
}
330
1F
100
AcDbEntity
  8
Main lines
100
AcDbCircle
 10
223.0411623264528
 20
192.040704766562
 30
0.0
 40
1.000000000000016
100
AcDbArc
 50
-145.8159498540272
 51
-53.99999999999591
  0
ARC
  5
C7
102
{ACAD_XDICTIONARY
360
C5
102
}
330
1F
100
AcDbEntity
  8
Main lines
100
AcDbCircle
 10
229.9631970815653
 20
193.3616534639833
 30
0.0
 40
1.999999999999999
100
AcDbArc
 50
35.51865313185576
 51
126.0000000000033
  0
ARC
  5
CA
102
{ACAD_XDICTIONARY
360
C8
102
}
330
1F
100
AcDbEntity
  8
Main lines
100
AcDbCircle
 10
221.2700855263668
 20
201.3063853949076
 30
0.0
 40
4.999999999999994
100
AcDbArc
 50
-43.99999999999856
 51
30.14882542339268
  0
ARC
  5
CD
102
{ACAD_XDICTIONARY
360
CB
102
}
330
1F
100
AcDbEntity
  8
Main lines
100
AcDbCircle
 10
236.0067173819539
 20
181.0200866242088
 30
0.0
 40
4.999999999999996
100
AcDbArc
 50
41.84294086349554
 51
116.000000000002
  0
ARC
  5
D0
102
{ACAD_XDICTIONARY
360
CE
102
}
330
1F
100
AcDbEntity
  8
Main lines
100
AcDbCircle
 10
215.1250907387741
 20
213.3687592780929
 30
0.0
 40
5.000000000000004
100
AcDbArc
 50
23.84294086349606
 51
98.00000000000078
  0
LINE
  5
D3
102
{ACAD_XDICTIONARY
360
D1
102
}
330
1F
100
AcDbEntity
  8
Main lines
100
AcDbLine
 10
209.4148545223387
 20
217.6153757764801
 30
0.0
 11
214.4292252339737
 21
218.3200996218007
 31
0.0
  0
ARC
  5
D6
102
{ACAD_XDICTIONARY
360
D4
102
}
330
1F
100
AcDbEntity
  8
Main lines
100
AcDbCircle
 10
213.8090120825441
 20
225.0716797183406
 30
0.0
 40
1.999999999999997
100
AcDbArc
 50
-71.99999999999767
 51
18.47308299205891
  0
ARC
  5
D9
102
{ACAD_XDICTIONARY
360
D7
102
}
330
1F
100
AcDbEntity
  8
Main lines
100
AcDbCircle
 10
213.1911152664321
 20
226.9738373210228
 30
0.0
 40
1.999999999999997
100
AcDbArc
 50
17.51865313185635
 51
108.0000000000023
  0
ARC
  5
DC
102
{ACAD_XDICTIONARY
360
DA
102
}
330
1F
100
AcDbEntity
  8
Main lines
100
AcDbCircle
 10
353.5857228195366
 20
142.8070113887092
 30
0.0
 40
4.999999999999986
100
AcDbArc
 50
28.00000000000187
 51
102.1488254233926
  0
LINE
  5
DF
102
{ACAD_XDICTIONARY
360
DD
102
}
330
1F
100
AcDbEntity
  8
Main lines
100
AcDbLine
 10
367.6866445434581
 20
215.1151238747785
 30
0.0
 11
287.6866445434581
 21
215.1151238747785
 31
0.0
  0
LINE
  5
E2
102
{ACAD_XDICTIONARY
360
E0
102
}
330
1F
100
AcDbEntity
  8
Main lines
100
AcDbLine
 10
348.1866445434583
 20
222.9151238747788
 30
0.0
 11
367.3866445434579
 21
222.9151238747788
 31
0.0
  0
ARC
  5
E5
102
{ACAD_XDICTIONARY
360
E3
102
}
330
1F
100
AcDbEntity
  8
Main lines
100
AcDbCircle
 10
283.1608466764765
 20
144.7102957455646
 30
0.0
 40
0.9999999999999826
100
AcDbArc
 50
172.0000000000008
 51
249.3913726724724
  0
LINE
  5
E8
102
{ACAD_XDICTIONARY
360
E6
102
}
330
1F
100
AcDbEntity
  8
Main lines
100
AcDbLine
 10
285.7542229286986
 20
143.796622790339
 30
0.0
 11
287.7246629689739
 21
149.861013663286
 31
0.0
  0
LINE
  5
EB
102
{ACAD_XDICTIONARY
360
E9
102
}
330
1F
100
AcDbEntity
  8
Main lines
100
AcDbLine
 10
294.9783000581146
 20
140.6871548773453
 30
0.0
 11
297.3555396447353
 21
145.1580922823723
 31
0.0
  0
LINE
  5
EE
102
{ACAD_XDICTIONARY
360
EC
102
}
330
1F
100
AcDbEntity
  8
Main lines
100
AcDbLine
 10
291.4603927374506
 20
141.9419998060627
 30
0.0
 11
293.4309574966531
 21
148.0067745243986
 31
0.0
  0
ARC
  5
F1
102
{ACAD_XDICTIONARY
360
EF
102
}
330
1F
100
AcDbEntity
  8
Main lines
100
AcDbCircle
 10
327.6866445434581
 20
263.1151238747785
 30
0.0
 40
127.5
100
AcDbArc
 50
-110.6086273275277
 51
-105.3992686257692
  0
ARC
  5
F4
102
{ACAD_XDICTIONARY
360
F2
102
}
330
1F
100
AcDbEntity
  8
Main lines
100
AcDbCircle
 10
284.8031664124035
 20
144.1056397847138
 30
0.0
 40
1.000000000000018
100
AcDbArc
 50
-109.8159498540265
 51
-17.99999999999693
  0
ARC
  5
F7
102
{ACAD_XDICTIONARY
360
F5
102
}
330
1F
100
AcDbEntity
  8
Main lines
100
AcDbCircle
 10
292.4114492537458
 20
141.6329828116878
 30
0.0
 40
1.000000000000008
100
AcDbArc
 50
162.0000000000032
 51
253.8081027562433
  0
ARC
  5
FA
102
{ACAD_XDICTIONARY
360
F8
102
}
330
1F
100
AcDbEntity
  8
Main lines
100
AcDbCircle
 10
294.0953524652556
 20
141.1566264401311
 30
0.0
 40
0.9999999999999801
100
AcDbArc
 50
-105.3992686257695
 51
-27.99999999999605
  0
ARC
  5
FD
102
{ACAD_XDICTIONARY
360
FB
102
}
330
1F
100
AcDbEntity
  8
Main lines
100
AcDbCircle
 10
277.9241047569971
 20
150.5607200537283
 30
0.0
 40
4.999999999999989
100
AcDbArc
 50
-7.999999999998805
 51
66.14882542339392
  0
LINE
  5
100
102
{ACAD_XDICTIONARY
360
FE
102
}
330
1F
100
AcDbEntity
  8
Main lines
100
AcDbLine
 10
258.7468373764294
 20
156.7866404868298
 30
0.0
 11
262.3893222150198
 21
160.3041472078618
 31
0.0
  0
ARC
  5
103
102
{ACAD_XDICTIONARY
360
101
102
}
330
1F
100
AcDbEntity
  8
Main lines
100
AcDbCircle
 10
258.0521790059704
 20
157.5059802871685
 30
0.0
 40
1.00000000000001
100
AcDbArc
 50
-123.3992686257692
 51
-45.99999999999752
  0
ARC
  5
106
102
{ACAD_XDICTIONARY
360
104
102
}
330
1F
100
AcDbEntity
  8
Main lines
100
AcDbCircle
 10
257.919080024961
 20
165.4017381011581
 30
0.0
 40
1.999999999999982
100
AcDbArc
 50
-35.99999999999756
 51
54.47308299205957
  0
ARC
  5
109
102
{ACAD_XDICTIONARY
360
107
102
}
330
1F
100
AcDbEntity
  8
Main lines
100
AcDbCircle
 10
265.8626140673149
 20
156.7074482061686
 30
0.0
 40
4.999999999999995
100
AcDbArc
 50
59.84294086349701
 51
134.000000000002
  0
ARC
  5
10C
102
{ACAD_XDICTIONARY
360
10A
102
}
330
1F
100
AcDbEntity
  8
Main lines
100
AcDbCircle
 10
291.5288444640628
 20
148.6248085131485
 30
0.0
 40
1.999999999999975
100
AcDbArc
 50
-17.99999999999813
 51
72.47308299205777
  0
ARC
  5
10F
102
{ACAD_XDICTIONARY
360
10D
102
}
330
1F
100
AcDbEntity
  8
Main lines
100
AcDbCircle
 10
289.6267760015643
 20
149.2429796745362
 30
0.0
 40
1.999999999999994
100
AcDbArc
 50
71.5186531318574
 51
162.0000000000026
  0
LINE
  5
112
102
{ACAD_XDICTIONARY
360
110
102
}
330
1F
100
AcDbEntity
  8
Main lines
100
AcDbLine
 10
282.1705786077349
 20
144.8494688465246
 30
0.0
 11
282.875445100705
 21
149.8648545489281
 31
0.0
  0
ARC
  5
115
102
{ACAD_XDICTIONARY
360
113
102
}
330
1F
100
AcDbEntity
  8
Main lines
100
AcDbCircle
 10
301.77027760903
 20
142.8107344684429
 30
0.0
 40
4.999999999999981
100
AcDbArc
 50
77.84294086349654
 51
152.0000000000022
  0
ARC
  5
118
102
{ACAD_XDICTIONARY
360
116
102
}
330
1F
100
AcDbEntity
  8
Main lines
100
AcDbCircle
 10
315.1408803845925
 20
140.6920542057767
 30
0.0
 40
5.000000000000007
100
AcDbArc
 50
10.00000000000149
 51
84.14882542339299
  0
ARC
  5
11B
102
{ACAD_XDICTIONARY
360
119
102
}
330
1F
100
AcDbEntity
  8
Main lines
100
AcDbCircle
 10
328.6779863011425
 20
143.0549886936682
 30
0.0
 40
2.0
100
AcDbArc
 50
0.0
 51
90.4730829920587
  0
ARC
  5
11E
102
{ACAD_XDICTIONARY
360
11C
102
}
330
1F
100
AcDbEntity
  8
Main lines
100
AcDbCircle
 10
326.6779863011425
 20
143.0551329255151
 30
0.0
 40
1.99999999999999
100
AcDbArc
 50
89.51865313185607
 51
180.0000000000033
  0
ARC
  5
121
102
{ACAD_XDICTIONARY
360
11F
102
}
330
1F
100
AcDbEntity
  8
Main lines
100
AcDbCircle
 10
340.2148157162331
 20
140.6902525757782
 30
0.0
 40
5.000000000000011
100
AcDbArc
 50
95.84294086349628
 51
170.0000000000011
  0
ARC
  5
124
102
{ACAD_XDICTIONARY
360
122
102
}
330
1F
100
AcDbEntity
  8
Main lines
100
AcDbCircle
 10
327.6866445434581
 20
263.1151238747785
 30
0.0
 40
127.5
100
AcDbArc
 50
-92.60862732752923
 51
-87.39926862576809
  0
ARC
  5
127
102
{ACAD_XDICTIONARY
360
125
102
}
330
1F
100
AcDbEntity
  8
Main lines
100
AcDbCircle
 10
323.6779863011428
 20
136.6786550095958
 30
0.0
 40
0.999999999999987
100
AcDbArc
 50
-91.81594985402808
 51
0.0
  0
LINE
  5
12A
102
{ACAD_XDICTIONARY
360
128
102
}
330
1F
100
AcDbEntity
  8
Main lines
100
AcDbLine
 10
320.9443906937841
 20
136.5725641150138
 30
0.0
 11
320.0649191496536
 21
141.5602950941114
 31
0.0
  0
ARC
  5
12D
102
{ACAD_XDICTIONARY
360
12B
102
}
330
1F
100
AcDbEntity
  8
Main lines
100
AcDbCircle
 10
321.9291984467963
 20
136.7462122926808
 30
0.0
 40
1.000000000000003
100
AcDbArc
 50
-169.9999999999982
 51
-92.60862732752918
  0
LINE
  5
130
102
{ACAD_XDICTIONARY
360
12E
102
}
330
1F
100
AcDbEntity
  8
Main lines
100
AcDbLine
 10
324.6779863011428
 20
136.6786550095959
 30
0.0
 11
324.6779863011425
 21
143.055132925515
 31
0.0
  0
ARC
  5
133
102
{ACAD_XDICTIONARY
360
131
102
}
330
1F
100
AcDbEntity
  8
Main lines
100
AcDbCircle
 10
331.6779863011428
 20
136.6781071788229
 30
0.0
 40
1.0
100
AcDbArc
 50
180.0
 51
271.8081027562445
  0
LINE
  5
136
102
{ACAD_XDICTIONARY
360
134
102
}
330
1F
100
AcDbEntity
  8
Main lines
100
AcDbLine
 10
334.4114833904616
 20
136.5717718791474
 30
0.0
 11
335.2907769511721
 21
141.5584934641127
 31
0.0
  0
ARC
  5
139
102
{ACAD_XDICTIONARY
360
137
102
}
330
1F
100
AcDbEntity
  8
Main lines
100
AcDbCircle
 10
333.4266756374494
 20
136.7454200568143
 30
0.0
 40
0.9999999999999911
100
AcDbArc
 50
-87.39926862576807
 51
-9.999999999998607
  0
LINE
  5
13C
102
{ACAD_XDICTIONARY
360
13A
102
}
330
1F
100
AcDbEntity
  8
Main lines
100
AcDbLine
 10
330.6779863011428
 20
136.6781071788228
 30
0.0
 11
330.6779863011425
 21
143.0549886936682
 31
0.0
  0
LINE
  5
13F
102
{ACAD_XDICTIONARY
360
13D
102
}
330
1F
100
AcDbEntity
  8
Main lines
100
AcDbLine
 10
287.986644543458
 20
222.9151238747788
 30
0.0
 11
307.186644543458
 21
222.9151238747788
 31
0.0
  0
ARC
  5
142
102
{ACAD_XDICTIONARY
360
140
102
}
330
1F
100
AcDbEntity
  8
Main lines
100
AcDbCircle
 10
287.6866445434581
 20
223.1151238747785
 30
0.0
 40
8.0
100
AcDbArc
 50
180.0
 51
270.0
  0
ARC
  5
145
102
{ACAD_XDICTIONARY
360
143
102
}
330
1F
100
AcDbEntity
  8
Main lines
100
AcDbCircle
 10
287.986644543458
 20
223.4151238747788
 30
0.0
 40
0.5
100
AcDbArc
 50
180.0
 51
270.0
  0
LINE
  5
148
102
{ACAD_XDICTIONARY
360
146
102
}
330
1F
100
AcDbEntity
  8
Main lines
100
AcDbLine
 10
307.686644543458
 20
222.4151238747788
 30
0.0
 11
347.686644543458
 21
222.4151238747787
 31
0.0
  0
LINE
  5
14B
102
{ACAD_XDICTIONARY
360
149
102
}
330
1F
100
AcDbEntity
  8
Main lines
100
AcDbLine
 10
307.686644543458
 20
222.4151238747787
 30
0.0
 11
307.186644543458
 21
222.9151238747788
 31
0.0
  0
LINE
  5
14E
102
{ACAD_XDICTIONARY
360
14C
102
}
330
1F
100
AcDbEntity
  8
Main lines
100
AcDbLine
 10
347.686644543458
 20
222.4151238747787
 30
0.0
 11
348.1866445434583
 21
222.9151238747788
 31
0.0
  0
ARC
  5
151
102
{ACAD_XDICTIONARY
360
14F
102
}
330
1F
100
AcDbEntity
  8
Main lines
100
AcDbCircle
 10
409.7816817940279
 20
171.4351967132743
 30
0.0
 40
5.000000000000011
100
AcDbArc
 50
131.8429408634967
 51
206.0000000000013
  0
ARC
  5
154
102
{ACAD_XDICTIONARY
360
152
102
}
330
1F
100
AcDbEntity
  8
Main lines
100
AcDbCircle
 10
327.6866445434581
 20
263.1151238747785
 30
0.0
 40
127.5
100
AcDbArc
 50
-56.60862732752913
 51
-51.39926862576787
  0
LINE
  5
157
102
{ACAD_XDICTIONARY
360
155
102
}
330
1F
100
AcDbEntity
  8
Main lines
100
AcDbLine
 10
404.4245046191484
 20
162.583695219415
 30
0.0
 11
400.6762677091056
 21
167.7427007360403
 31
0.0
  0
ARC
  5
15A
102
{ACAD_XDICTIONARY
360
158
102
}
330
1F
100
AcDbEntity
  8
Main lines
100
AcDbCircle
 10
372.1961245730149
 20
144.704160752699
 30
0.0
 40
0.9999999999999948
100
AcDbArc
 50
-69.3992686257673
 51
8.000000000000874
  0
LINE
  5
15D
102
{ACAD_XDICTIONARY
360
15B
102
}
330
1F
100
AcDbEntity
  8
Main lines
100
AcDbLine
 10
360.3781815626842
 20
140.6825268066463
 30
0.0
 11
358.0004607838312
 21
145.1543692026387
 31
0.0
  0
LINE
  5
160
102
{ACAD_XDICTIONARY
360
15E
102
}
330
1F
100
AcDbEntity
  8
Main lines
100
AcDbLine
 10
363.8962581048993
 20
141.9371697360556
 30
0.0
 11
361.9258180646236
 21
148.0015606090025
 31
0.0
  0
LINE
  5
163
102
{ACAD_XDICTIONARY
360
161
102
}
330
1F
100
AcDbEntity
  8
Main lines
100
AcDbLine
 10
369.6027664916892
 20
143.7907506842787
 30
0.0
 11
367.6322017324862
 21
149.8555254026145
 31
0.0
  0
ARC
  5
166
102
{ACAD_XDICTIONARY
360
164
102
}
330
1F
100
AcDbEntity
  8
Main lines
100
AcDbCircle
 10
327.6866445434581
 20
263.1151238747785
 30
0.0
 40
127.5
100
AcDbArc
 50
-74.60862732752824
 51
-69.39926862576745
  0
ARC
  5
169
102
{ACAD_XDICTIONARY
360
167
102
}
330
1F
100
AcDbEntity
  8
Main lines
100
AcDbCircle
 10
361.2611291555431
 20
141.1519983694322
 30
0.0
 40
0.999999999999991
100
AcDbArc
 50
-151.9999999999978
 51
-74.60862732752815
  0
ARC
  5
16C
102
{ACAD_XDICTIONARY
360
16A
102
}
330
1F
100
AcDbEntity
  8
Main lines
100
AcDbCircle
 10
362.9452015886042
 20
141.6281527416806
 30
0.0
 40
1.00000000000001
100
AcDbArc
 50
-73.81594985402685
 51
18.00000000000259
  0
ARC
  5
16F
102
{ACAD_XDICTIONARY
360
16D
102
}
330
1F
100
AcDbEntity
  8
Main lines
100
AcDbCircle
 10
370.5538230079843
 20
144.0997676786537
 30
0.0
 40
0.9999999999999848
100
AcDbArc
 50
-161.9999999999974
 51
-70.19189724375472
  0
ARC
  5
172
102
{ACAD_XDICTIONARY
360
170
102
}
330
1F
100
AcDbEntity
  8
Main lines
100
AcDbCircle
 10
365.730088699896
 20
149.2374914138645
 30
0.0
 40
2.00000000000001
100
AcDbArc
 50
18.00000000000231
 51
108.4730829920595
  0
ARC
  5
175
102
{ACAD_XDICTIONARY
360
173
102
}
330
1F
100
AcDbEntity
  8
Main lines
100
AcDbCircle
 10
363.8279310972139
 20
148.6195945977525
 30
0.0
 40
1.999999999999978
100
AcDbArc
 50
107.5186531318574
 51
198.0000000000034
  0
ARC
  5
178
102
{ACAD_XDICTIONARY
360
176
102
}
330
1F
100
AcDbEntity
  8
Main lines
100
AcDbCircle
 10
377.4330091401437
 20
150.5535700700945
 30
0.0
 40
5.00000000000001
100
AcDbArc
 50
113.8429408634978
 51
188.0000000000011
  0
LINE
  5
17B
102
{ACAD_XDICTIONARY
360
179
102
}
330
1F
100
AcDbEntity
  8
Main lines
100
AcDbLine
 10
373.1863926417565
 20
144.8433338536591
 30
0.0
 11
372.4816687964359
 21
149.8577045652941
 31
0.0
  0
LINE
  5
17E
102
{ACAD_XDICTIONARY
360
17C
102
}
330
1F
100
AcDbEntity
  8
Main lines
100
AcDbLine
 10
396.6118970128106
 20
156.777045137371
 30
0.0
 11
392.9686748756239
 21
160.2952638593805
 31
0.0
  0
LINE
  5
181
102
{ACAD_XDICTIONARY
360
17F
102
}
330
1F
100
AcDbEntity
  8
Main lines
100
AcDbLine
 10
399.5700806460495
 20
159.0574269100657
 30
0.0
 11
395.8220809655035
 21
164.2161059083006
 31
0.0
  0
ARC
  5
184
102
{ACAD_XDICTIONARY
360
182
102
}
330
1F
100
AcDbEntity
  8
Main lines
100
AcDbCircle
 10
397.3065553832695
 20
157.4963849377097
 30
0.0
 40
0.9999999999999949
100
AcDbArc
 50
-133.9999999999979
 51
-56.60862732752867
  0
ARC
  5
187
102
{ACAD_XDICTIONARY
360
185
102
}
330
1F
100
AcDbEntity
  8
Main lines
100
AcDbCircle
 10
398.7610636516746
 20
158.4696416577732
 30
0.0
 40
0.999999999999977
100
AcDbArc
 50
-55.81594985402764
 51
36.00000000000146
  0
ARC
  5
18A
102
{ACAD_XDICTIONARY
360
188
102
}
330
1F
100
AcDbEntity
  8
Main lines
100
AcDbCircle
 10
389.495383023329
 20
156.6985648576872
 30
0.0
 40
4.999999999999984
100
AcDbArc
 50
46.00000000000201
 51
120.148825423394
  0
ARC
  5
18D
102
{ACAD_XDICTIONARY
360
18B
102
}
330
1F
100
AcDbEntity
  8
Main lines
100
AcDbCircle
 10
397.4401149542533
 20
165.3916764128857
 30
0.0
 40
2.000000000000016
100
AcDbArc
 50
125.5186531318564
 51
216.0000000000028
  0
ARC
  5
190
102
{ACAD_XDICTIONARY
360
18E
102
}
330
1F
100
AcDbEntity
  8
Main lines
100
AcDbCircle
 10
399.0582337203557
 20
166.5671302314554
 30
0.0
 40
1.999999999999999
100
AcDbArc
 50
36.0000000000019
 51
126.4730829920586
  0
LINE
  5
193
102
{ACAD_XDICTIONARY
360
191
102
}
330
1F
100
AcDbEntity
  8
Main lines
100
AcDbLine
 10
407.507469533804
 20
164.6921626834541
 30
0.0
 11
405.2877115625321
 21
169.2433409793288
 31
0.0
  0
ARC
  5
196
102
{ACAD_XDICTIONARY
360
194
102
}
330
1F
100
AcDbEntity
  8
Main lines
100
AcDbCircle
 10
405.2335216135233
 20
163.1714804717076
 30
0.0
 40
1.000000000000012
100
AcDbArc
 50
-143.9999999999972
 51
-52.1918972437552
  0
ARC
  5
199
102
{ACAD_XDICTIONARY
360
197
102
}
330
1F
100
AcDbEntity
  8
Main lines
100
AcDbCircle
 10
406.6086754875049
 20
164.2537915366651
 30
0.0
 40
1.000000000000021
100
AcDbArc
 50
-51.39926862576866
 51
26.00000000000365
  0
ARC
  5
19C
102
{ACAD_XDICTIONARY
360
19A
102
}
330
1F
100
AcDbEntity
  8
Main lines
100
AcDbCircle
 10
367.6866445434581
 20
223.1151238747785
 30
0.0
 40
8.0
100
AcDbArc
 50
-90.0
 51
0.0
  0
ARC
  5
19F
102
{ACAD_XDICTIONARY
360
19D
102
}
330
1F
100
AcDbEntity
  8
Main lines
100
AcDbCircle
 10
367.3866445434579
 20
223.4151238747788
 30
0.0
 40
0.5
100
AcDbArc
 50
-90.0
 51
0.0
  0
ARC
  5
1A2
102
{ACAD_XDICTIONARY
360
1A0
102
}
330
1F
100
AcDbEntity
  8
Main lines
100
AcDbCircle
 10
426.5370996675536
 20
184.1794695621728
 30
0.0
 40
1.00000000000002
100
AcDbArc
 50
-115.9999999999978
 51
-38.60862732752835
  0
LINE
  5
1A5
102
{ACAD_XDICTIONARY
360
1A3
102
}
330
1F
100
AcDbEntity
  8
Main lines
100
AcDbLine
 10
428.2074516201286
 20
186.3635764755883
 30
0.0
 11
423.0487726218934
 21
190.111576156134
 31
0.0
  0
LINE
  5
1A8
102
{ACAD_XDICTIONARY
360
1A6
102
}
330
1F
100
AcDbEntity
  8
Main lines
100
AcDbLine
 10
431.7346063382889
 20
191.2173564349888
 30
0.0
 11
426.5756008216633
 21
194.9655933450313
 31
0.0
  0
ARC
  5
1AB
102
{ACAD_XDICTIONARY
360
1A9
102
}
330
1F
100
AcDbEntity
  8
Main lines
100
AcDbCircle
 10
419.3547732579081
 20
181.0069125710228
 30
0.0
 40
4.999999999999997
100
AcDbArc
 50
64.0000000000016
 51
138.148825423393
  0
LINE
  5
1AE
102
{ACAD_XDICTIONARY
360
1AC
102
}
330
1F
100
AcDbEntity
  8
Main lines
100
AcDbLine
 10
426.0987285207646
 20
183.2806755158736
 30
0.0
 11
421.5466289918534
 21
185.5008828025188
 31
0.0
  0
ARC
  5
1B1
102
{ACAD_XDICTIONARY
360
1AF
102
}
330
1F
100
AcDbEntity
  8
Main lines
100
AcDbCircle
 10
425.4000303170785
 20
193.3475593562813
 30
0.0
 40
2.000000000000004
100
AcDbArc
 50
54.00000000000082
 51
144.4730829920563
  0
ARC
  5
1B4
102
{ACAD_XDICTIONARY
360
1B2
102
}
330
1F
100
AcDbEntity
  8
Main lines
100
AcDbCircle
 10
424.2243431264783
 20
191.729610144884
 30
0.0
 40
1.999999999999999
100
AcDbArc
 50
143.5186531318549
 51
234.0000000000044
  0
ARC
  5
1B7
102
{ACAD_XDICTIONARY
360
1B5
102
}
330
1F
100
AcDbEntity
  8
Main lines
100
AcDbCircle
 10
327.6866445434582
 20
263.1151238747785
 30
0.0
 40
127.5
100
AcDbArc
 50
-38.60862732752889
 51
-33.39926862576814
  0
ARC
  5
1BA
102
{ACAD_XDICTIONARY
360
1B8
102
}
330
1F
100
AcDbEntity
  8
Main lines
100
AcDbCircle
 10
427.6196663678362
 20
185.5545594812133
 30
0.0
 40
1.000000000000001
100
AcDbArc
 50
-37.81594985402705
 51
54.00000000000393
  0
LINE
  5
1BD
102
{ACAD_XDICTIONARY
360
1BB
102
}
330
1F
100
AcDbEntity
  8
Main lines
100
AcDbLine
 10
434.0151279314068
 20
194.1753167077498
 30
0.0
 11
430.4976212103749
 21
197.8178015463402
 31
0.0
  0
ARC
  5
1C0
102
{ACAD_XDICTIONARY
360
1BE
102
}
330
1F
100
AcDbEntity
  8
Main lines
100
AcDbCircle
 10
432.3223915905813
 20
192.0263734293638
 30
0.0
 40
0.9999999999999913
100
AcDbArc
 50
-125.9999999999956
 51
-34.19189724375535
  0
ARC
  5
1C3
102
{ACAD_XDICTIONARY
360
1C1
102
}
330
1F
100
AcDbEntity
  8
Main lines
100
AcDbCircle
 10
433.2957881310682
 20
193.4806583372908
 30
0.0
 40
1.000000000000002
100
AcDbArc
 50
-33.39926862576821
 51
44.00000000000293
  0
ARC
  5
1C6
102
{ACAD_XDICTIONARY
360
1C4
102
}
330
1F
100
AcDbEntity
  8
Main lines
100
AcDbCircle
 10
434.0943202120679
 20
201.2910933986352
 30
0.0
 40
4.999999999999981
100
AcDbArc
 50
149.8429408634959
 51
224.0000000000017
  0
ARC
  5
1C9
102
{ACAD_XDICTIONARY
360
1C7
102
}
330
1F
100
AcDbEntity
  8
Main lines
100
AcDbCircle
 10
440.2410483645082
 20
213.3525840883175
 30
0.0
 40
5.000000000000016
100
AcDbArc
 50
82.00000000000253
 51
156.1488254233919
  0
ARC
  5
1CC
102
{ACAD_XDICTIONARY
360
1CA
102
}
330
1F
100
AcDbEntity
  8
Main lines
100
AcDbCircle
 10
327.6866445434581
 20
263.1151238747785
 30
0.0
 40
127.5
100
AcDbArc
 50
-20.60862732752975
 51
-15.39926862576867
  0
LINE
  5
1CF
102
{ACAD_XDICTIONARY
360
1CD
102
}
330
1F
100
AcDbEntity
  8
Main lines
100
AcDbLine
 10
445.9522995717119
 20
217.5990579390553
 30
0.0
 11
440.9369138693085
 21
218.3039244320253
 31
0.0
  0
ARC
  5
1D2
102
{ACAD_XDICTIONARY
360
1D0
102
}
330
1F
100
AcDbEntity
  8
Main lines
100
AcDbCircle
 10
446.091472672672
 20
218.5893260077968
 30
0.0
 40
0.9999999999999806
100
AcDbArc
 50
-97.99999999999766
 51
-20.60862732752961
  0
ARC
  5
1D5
102
{ACAD_XDICTIONARY
360
1D3
102
}
330
1F
100
AcDbEntity
  8
Main lines
100
AcDbCircle
 10
441.5587887437003
 20
225.0552553328847
 30
0.0
 40
2.000000000000007
100
AcDbArc
 50
161.5186531318566
 51
252.0000000000047
  0
ARC
  5
1D8
102
{ACAD_XDICTIONARY
360
1D6
102
}
330
1F
100
AcDbEntity
  8
Main lines
100
AcDbCircle
 10
449.1687856065487
 20
227.8399285850662
 30
0.0
 40
1.000000000000004
100
AcDbArc
 50
-107.9999999999954
 51
-16.19189724375499
  0
LINE
  5
1DB
102
{ACAD_XDICTIONARY
360
1D9
102
}
330
1F
100
AcDbEntity
  8
Main lines
100
AcDbLine
 10
447.0051456278976
 20
221.182702260019
 30
0.0
 11
440.9407547549506
 21
223.1531423002943
 31
0.0
  0
ARC
  5
1DE
102
{ACAD_XDICTIONARY
360
1DC
102
}
330
1F
100
AcDbEntity
  8
Main lines
100
AcDbCircle
 10
446.6961286335227
 20
220.2316457437238
 30
0.0
 40
1.000000000000009
100
AcDbArc
 50
-19.81594985402833
 51
72.00000000000492
  0
LINE
  5
1E1
102
{ACAD_XDICTIONARY
360
1DF
102
}
330
1F
100
AcDbEntity
  8
Main lines
100
AcDbLine
 10
448.8597686121739
 20
226.888872068771
 30
0.0
 11
442.794993893838
 21
228.8594368279735
 31
0.0
  0
ARC
  5
1E4
102
{ACAD_XDICTIONARY
360
1E2
102
}
330
1F
100
AcDbEntity
  8
Main lines
100
AcDbCircle
 10
442.1769599050881
 20
226.9573237953831
 30
0.0
 40
1.999999999999989
100
AcDbArc
 50
72.00000000000102
 51
162.4730829920586
  0
ARC
  5
1E7
102
{ACAD_XDICTIONARY
360
1E5
102
}
330
1F
100
AcDbEntity
  8
Main lines
100
AcDbCircle
 10
449.6451419781054
 20
229.523831796576
 30
0.0
 40
0.9999999999999938
100
AcDbArc
 50
-15.3992686257691
 51
61.99999999999967
  0
LINE
  5
1EA
102
{ACAD_XDICTIONARY
360
1E8
102
}
330
1F
100
AcDbEntity
  8
Main lines
100
AcDbLine
 10
450.1146135408913
 20
230.4067793894349
 30
0.0
 11
445.6436761358643
 21
232.7840189760557
 31
0.0
  0
ARC
  5
1ED
102
{ACAD_XDICTIONARY
360
1EB
102
}
330
1F
100
AcDbEntity
  8
Main lines
100
AcDbCircle
 10
327.6866445434581
 20
263.1151238747785
 30
0.0
 40
127.5
100
AcDbArc
 50
123.3913726724709
 51
128.6007313742321
  0
ARC
  5
1F0
102
{ACAD_XDICTIONARY
360
1EE
102
}
330
1F
100
AcDbEntity
  8
Main lines
100
AcDbCircle
 10
256.3150553665604
 20
359.6631175181017
 30
0.0
 40
1.999999999999991
100
AcDbArc
 50
-143.9999999999986
 51
-53.5269170079421
  0
LINE
  5
1F3
102
{ACAD_XDICTIONARY
360
1F1
102
}
330
1F
100
AcDbEntity
  8
Main lines
100
AcDbLine
 10
255.8032084408666
 20
367.1728208394914
 30
0.0
 11
259.5512081214127
 21
362.0141418412564
 31
0.0
  0
ARC
  5
1F6
102
{ACAD_XDICTIONARY
360
1F4
102
}
330
1F
100
AcDbEntity
  8
Main lines
100
AcDbCircle
 10
245.5916072928883
 20
354.7950510362828
 30
0.0
 40
5.000000000000011
100
AcDbArc
 50
-48.15705913650331
 51
26.00000000000117
  0
LINE
  5
1F9
102
{ACAD_XDICTIONARY
360
1F7
102
}
330
1F
100
AcDbEntity
  8
Main lines
100
AcDbLine
 10
205.2586755460248
 20
295.823468360122
 30
0.0
 11
209.7296129510518
 21
293.4462287735013
 31
0.0
  0
ARC
  5
1FC
102
{ACAD_XDICTIONARY
360
1FA
102
}
330
1F
100
AcDbEntity
  8
Main lines
100
AcDbCircle
 10
205.2635748744563
 20
275.660888033644
 30
0.0
 40
5.000000000000015
100
AcDbArc
 50
-79.9999999999982
 51
-5.85117457660701
  0
ARC
  5
1FF
102
{ACAD_XDICTIONARY
360
1FD
102
}
330
1F
100
AcDbEntity
  8
Main lines
100
AcDbCircle
 10
207.6265093623477
 20
262.123782117094
 30
0.0
 40
2.0
100
AcDbArc
 50
-90.0
 51
0.4730829920586981
  0
ARC
  5
202
102
{ACAD_XDICTIONARY
360
200
102
}
330
1F
100
AcDbEntity
  8
Main lines
100
AcDbCircle
 10
207.6266535941946
 20
264.123782117094
 30
0.0
 40
1.99999999999999
100
AcDbArc
 50
-0.4813468681439252
 51
90.00000000000325
  0
ARC
  5
205
102
{ACAD_XDICTIONARY
360
203
102
}
330
1F
100
AcDbEntity
  8
Main lines
100
AcDbCircle
 10
205.2617732444577
 20
250.5869527020035
 30
0.0
 40
4.999999999999996
100
AcDbArc
 50
5.84294086349632
 51
80.00000000000145
  0
ARC
  5
208
102
{ACAD_XDICTIONARY
360
206
102
}
330
1F
100
AcDbEntity
  8
Main lines
100
AcDbCircle
 10
327.6866445434581
 20
263.1151238747785
 30
0.0
 40
127.5
100
AcDbArc
 50
177.3913726724708
 51
182.6007313742319
  0
ARC
  5
20B
102
{ACAD_XDICTIONARY
360
209
102
}
330
1F
100
AcDbEntity
  8
Main lines
100
AcDbCircle
 10
201.3169407254939
 20
257.3750927807872
 30
0.0
 40
0.9999999999999911
100
AcDbArc
 50
-177.3992686257681
 51
-99.99999999999861
  0
LINE
  5
20E
102
{ACAD_XDICTIONARY
360
20C
102
}
330
1F
100
AcDbEntity
  8
Main lines
100
AcDbLine
 10
201.1432925478269
 20
256.390285027775
 30
0.0
 11
206.1300141327923
 21
255.5109914670645
 31
0.0
  0
LINE
  5
211
102
{ACAD_XDICTIONARY
360
20F
102
}
330
1F
100
AcDbEntity
  8
Main lines
100
AcDbLine
 10
201.2496278475024
 20
260.1237821170938
 30
0.0
 11
207.6265093623478
 21
260.123782117094
 31
0.0
  0
ARC
  5
214
102
{ACAD_XDICTIONARY
360
212
102
}
330
1F
100
AcDbEntity
  8
Main lines
100
AcDbCircle
 10
201.2496278475024
 20
259.1237821170938
 30
0.0
 40
1.0
100
AcDbArc
 50
90.0
 51
181.8081027562444
  0
LINE
  5
217
102
{ACAD_XDICTIONARY
360
215
102
}
330
1F
100
AcDbEntity
  8
Main lines
100
AcDbLine
 10
201.1440847836934
 20
269.8573777244525
 30
0.0
 11
206.131815762791
 21
270.736849268583
 31
0.0
  0
LINE
  5
21A
102
{ACAD_XDICTIONARY
360
218
102
}
330
1F
100
AcDbEntity
  8
Main lines
100
AcDbLine
 10
201.2501756782755
 20
266.1237821170938
 30
0.0
 11
207.6266535941945
 21
266.123782117094
 31
0.0
  0
ARC
  5
21D
102
{ACAD_XDICTIONARY
360
21B
102
}
330
1F
100
AcDbEntity
  8
Main lines
100
AcDbCircle
 10
201.3177329613604
 20
268.8725699714403
 30
0.0
 40
1.000000000000003
100
AcDbArc
 50
100.0000000000018
 51
177.3913726724708
  0
ARC
  5
220
102
{ACAD_XDICTIONARY
360
21E
102
}
330
1F
100
AcDbEntity
  8
Main lines
100
AcDbCircle
 10
201.2501756782754
 20
267.1237821170938
 30
0.0
 40
0.999999999999987
100
AcDbArc
 50
178.1840501459719
 51
270.0000000000032
  0
ARC
  5
223
102
{ACAD_XDICTIONARY
360
221
102
}
330
1F
100
AcDbEntity
  8
Main lines
100
AcDbCircle
 10
207.3822551371225
 20
289.0314908092066
 30
0.0
 40
4.999999999999993
100
AcDbArc
 50
-12.1570591365041
 51
62.00000000000047
  0
ARC
  5
226
102
{ACAD_XDICTIONARY
360
224
102
}
330
1F
100
AcDbEntity
  8
Main lines
100
AcDbCircle
 10
209.2818164142442
 20
307.6409217417602
 30
0.0
 40
0.9999999999999947
100
AcDbArc
 50
82.00000000000257
 51
159.3913726724683
  0
LINE
  5
229
102
{ACAD_XDICTIONARY
360
227
102
}
330
1F
100
AcDbEntity
  8
Main lines
100
AcDbLine
 10
208.3681434590186
 20
305.047545489538
 30
0.0
 11
214.4325343319656
 21
303.0771054492627
 31
0.0
  0
LINE
  5
22C
102
{ACAD_XDICTIONARY
360
22A
102
}
330
1F
100
AcDbEntity
  8
Main lines
100
AcDbLine
 10
206.5135204747423
 20
299.341375680786
 30
0.0
 11
212.5782951930782
 21
297.3708109215835
 31
0.0
  0
ARC
  5
22F
102
{ACAD_XDICTIONARY
360
22D
102
}
330
1F
100
AcDbEntity
  8
Main lines
100
AcDbCircle
 10
327.6866445434581
 20
263.1151238747785
 30
0.0
 40
127.5
100
AcDbArc
 50
159.3913726724703
 51
164.6007313742317
  0
ARC
  5
232
102
{ACAD_XDICTIONARY
360
230
102
}
330
1F
100
AcDbEntity
  8
Main lines
100
AcDbCircle
 10
206.2045034803674
 20
298.3903191644908
 30
0.0
 40
1.000000000000004
100
AcDbArc
 50
72.00000000000462
 51
163.8081027562434
  0
ARC
  5
235
102
{ACAD_XDICTIONARY
360
233
102
}
330
1F
100
AcDbEntity
  8
Main lines
100
AcDbCircle
 10
205.7281471088108
 20
296.706415952981
 30
0.0
 40
0.9999999999999801
100
AcDbArc
 50
164.6007313742305
 51
242.0000000000025
  0
ARC
  5
238
102
{ACAD_XDICTIONARY
360
236
102
}
330
1F
100
AcDbEntity
  8
Main lines
100
AcDbCircle
 10
208.6771604533935
 20
305.9986020058332
 30
0.0
 40
1.000000000000018
100
AcDbArc
 50
160.1840501459735
 51
252.0000000000046
  0
ARC
  5
23B
102
{ACAD_XDICTIONARY
360
239
102
}
330
1F
100
AcDbEntity
  8
Main lines
100
AcDbCircle
 10
221.2789688748482
 20
324.9391543509217
 30
0.0
 40
4.999999999999987
100
AcDbArc
 50
-30.15705913650384
 51
44.00000000000239
  0
ARC
  5
23E
102
{ACAD_XDICTIONARY
360
23C
102
}
330
1F
100
AcDbEntity
  8
Main lines
100
AcDbCircle
 10
215.1322407224079
 20
312.8776636612396
 30
0.0
 40
5.000000000000002
100
AcDbArc
 50
-97.99999999999751
 51
-23.85117457660717
  0
ARC
  5
241
102
{ACAD_XDICTIONARY
360
23F
102
}
330
1F
100
AcDbEntity
  8
Main lines
100
AcDbCircle
 10
213.8145003432158
 20
301.1749924166724
 30
0.0
 40
2.000000000000012
100
AcDbArc
 50
-18.48134686814414
 51
72.00000000000462
  0
ARC
  5
244
102
{ACAD_XDICTIONARY
360
242
102
}
330
1F
100
AcDbEntity
  8
Main lines
100
AcDbCircle
 10
213.1963291818281
 20
299.2729239541738
 30
0.0
 40
1.999999999999989
100
AcDbArc
 50
-107.999999999999
 51
-17.52691700794216
  0
LINE
  5
247
102
{ACAD_XDICTIONARY
360
245
102
}
330
1F
100
AcDbEntity
  8
Main lines
100
AcDbLine
 10
209.4209895152042
 20
308.6311898105017
 30
0.0
 11
214.4363752176076
 21
307.9263233175317
 31
0.0
  0
ARC
  5
24A
102
{ACAD_XDICTIONARY
360
248
102
}
330
1F
100
AcDbEntity
  8
Main lines
100
AcDbCircle
 10
231.1489459604379
 20
334.500637604673
 30
0.0
 40
1.999999999999999
100
AcDbArc
 50
-36.4813468681451
 51
54.00000000000375
  0
LINE
  5
24D
102
{ACAD_XDICTIONARY
360
24B
102
}
330
1F
100
AcDbEntity
  8
Main lines
100
AcDbLine
 10
229.2745605661516
 20
342.9495722336833
 30
0.0
 11
233.8266600950628
 21
340.7293649470382
 31
0.0
  0
ARC
  5
250
102
{ACAD_XDICTIONARY
360
24E
102
}
330
1F
100
AcDbEntity
  8
Main lines
100
AcDbCircle
 10
327.6866445434581
 20
263.1151238747785
 30
0.0
 40
127.5
100
AcDbArc
 50
141.3913726724712
 51
146.6007313742319
  0
LINE
  5
253
102
{ACAD_XDICTIONARY
360
251
102
}
330
1F
100
AcDbEntity
  8
Main lines
100
AcDbLine
 10
227.1658374667876
 20
339.8666712739687
 30
0.0
 11
232.3245164650228
 21
336.118671593423
 31
0.0
  0
ARC
  5
256
102
{ACAD_XDICTIONARY
360
254
102
}
330
1F
100
AcDbEntity
  8
Main lines
100
AcDbCircle
 10
229.9732587698377
 20
332.8826883932757
 30
0.0
 40
2.000000000000004
100
AcDbArc
 50
-125.9999999999992
 51
-35.52691700794144
  0
LINE
  5
259
102
{ACAD_XDICTIONARY
360
257
102
}
330
1F
100
AcDbEntity
  8
Main lines
100
AcDbLine
 10
221.3581611555094
 20
332.0549310418072
 30
0.0
 11
224.8756678765414
 21
328.4124462032167
 31
0.0
  0
LINE
  5
25C
102
{ACAD_XDICTIONARY
360
25A
102
}
330
1F
100
AcDbEntity
  8
Main lines
100
AcDbLine
 10
223.6386827486272
 20
335.0128913145682
 30
0.0
 11
228.7976882652528
 21
331.2646544045257
 31
0.0
  0
ARC
  5
25F
102
{ACAD_XDICTIONARY
360
25D
102
}
330
1F
100
AcDbEntity
  8
Main lines
100
AcDbCircle
 10
223.0508974963348
 20
334.2038743201932
 30
0.0
 40
0.9999999999999913
100
AcDbArc
 50
54.00000000000441
 51
145.8081027562424
  0
ARC
  5
262
102
{ACAD_XDICTIONARY
360
260
102
}
330
1F
100
AcDbEntity
  8
Main lines
100
AcDbCircle
 10
222.0775009558481
 20
332.7495894122662
 30
0.0
 40
1.00000000000001
100
AcDbArc
 50
146.6007313742308
 51
224.0000000000025
  0
ARC
  5
265
102
{ACAD_XDICTIONARY
360
263
102
}
330
1F
100
AcDbEntity
  8
Main lines
100
AcDbCircle
 10
227.75362271908
 20
340.6756882683437
 30
0.0
 40
0.9999999999999923
100
AcDbArc
 50
142.1840501459737
 51
234.0000000000044
  0
ARC
  5
268
102
{ACAD_XDICTIONARY
360
266
102
}
330
1F
100
AcDbEntity
  8
Main lines
100
AcDbCircle
 10
228.8361894193626
 20
342.0507781873841
 30
0.0
 40
1.000000000000007
100
AcDbArc
 50
64.0000000000016
 51
141.3913726724724
  0
ARC
  5
26B
102
{ACAD_XDICTIONARY
360
269
102
}
330
1F
100
AcDbEntity
  8
Main lines
100
AcDbCircle
 10
236.0185158290081
 20
345.2233351785341
 30
0.0
 40
4.999999999999997
100
AcDbArc
 50
-115.9999999999984
 51
-41.85117457660676
  0
ARC
  5
26E
102
{ACAD_XDICTIONARY
360
26C
102
}
330
1F
100
AcDbEntity
  8
Main lines
100
AcDbCircle
 10
248.7646135994113
 20
361.976456212892
 30
0.0
 40
1.00000000000001
100
AcDbArc
 50
128.600731374232
 51
206.000000000001
  0
LINE
  5
271
102
{ACAD_XDICTIONARY
360
26F
102
}
330
1F
100
AcDbEntity
  8
Main lines
100
AcDbLine
 10
250.9487844677678
 20
363.646552530142
 30
0.0
 11
254.6970213778106
 21
358.4875470135167
 31
0.0
  0
LINE
  5
274
102
{ACAD_XDICTIONARY
360
272
102
}
330
1F
100
AcDbEntity
  8
Main lines
100
AcDbLine
 10
247.8658195531121
 20
361.5380850661029
 30
0.0
 11
250.0855775243841
 21
356.9869067702282
 31
0.0
  0
ARC
  5
277
102
{ACAD_XDICTIONARY
360
275
102
}
330
1F
100
AcDbEntity
  8
Main lines
100
AcDbCircle
 10
250.1397674733929
 20
363.0587672778495
 30
0.0
 40
1.000000000000012
100
AcDbArc
 50
36.00000000000278
 51
127.8081027562438
  0
ARC
  5
27A
102
{ACAD_XDICTIONARY
360
278
102
}
330
1F
100
AcDbEntity
  8
Main lines
100
AcDbCircle
 10
256.6122254352415
 20
367.7606060917839
 30
0.0
 40
0.9999999999999887
100
AcDbArc
 50
124.1840501459717
 51
216.0000000000044
  0
ARC
  5
27D
102
{ACAD_XDICTIONARY
360
27B
102
}
330
1F
100
AcDbEntity
  8
Main lines
100
AcDbCircle
 10
409.7948558472137
 20
354.7832525892285
 30
0.0
 40
4.999999999999997
100
AcDbArc
 50
154.0000000000016
 51
228.1488254233923
  0
LINE
  5
280
102
{ACAD_XDICTIONARY
360
27E
102
}
330
1F
100
AcDbEntity
  8
Main lines
100
AcDbLine
 10
287.6866445434581
 20
311.1151238747785
 30
0.0
 11
367.6866445434581
 21
311.1151238747785
 31
0.0
  0
LINE
  5
283
102
{ACAD_XDICTIONARY
360
281
102
}
330
1F
100
AcDbEntity
  8
Main lines
100
AcDbLine
 10
348.1866445434583
 20
303.3151238747787
 30
0.0
 11
367.3866445434579
 21
303.3151238747787
 31
0.0
  0
LINE
  5
286
102
{ACAD_XDICTIONARY
360
284
102
}
330
1F
100
AcDbEntity
  8
Main lines
100
AcDbLine
 10
287.4866445434582
 20
283.615123874779
 30
0.0
 11
287.486644543458
 21
302.8151238747787
 31
0.0
  0
LINE
  5
289
102
{ACAD_XDICTIONARY
360
287
102
}
330
1F
100
AcDbEntity
  8
Main lines
100
AcDbLine
 10
286.986644543458
 20
243.1151238747788
 30
0.0
 11
286.986644543458
 21
283.1151238747788
 31
0.0
  0
LINE
  5
28C
102
{ACAD_XDICTIONARY
360
28A
102
}
330
1F
100
AcDbEntity
  8
Main lines
100
AcDbLine
 10
286.986644543458
 20
243.1151238747788
 30
0.0
 11
287.486644543458
 21
242.6151238747788
 31
0.0
  0
LINE
  5
28F
102
{ACAD_XDICTIONARY
360
28D
102
}
330
1F
100
AcDbEntity
  8
Main lines
100
AcDbLine
 10
286.986644543458
 20
283.1151238747788
 30
0.0
 11
287.4866445434582
 21
283.615123874779
 31
0.0
  0
LINE
  5
292
102
{ACAD_XDICTIONARY
360
290
102
}
330
1F
100
AcDbEntity
  8
Main lines
100
AcDbLine
 10
287.986644543458
 20
303.3151238747787
 30
0.0
 11
307.186644543458
 21
303.3151238747787
 31
0.0
  0
ARC
  5
295
102
{ACAD_XDICTIONARY
360
293
102
}
330
1F
100
AcDbEntity
  8
Main lines
100
AcDbCircle
 10
287.6866445434581
 20
303.1151238747785
 30
0.0
 40
8.0
100
AcDbArc
 50
90.0
 51
180.0
  0
ARC
  5
298
102
{ACAD_XDICTIONARY
360
296
102
}
330
1F
100
AcDbEntity
  8
Main lines
100
AcDbCircle
 10
287.986644543458
 20
302.8151238747787
 30
0.0
 40
0.5
100
AcDbArc
 50
90.0
 51
180.0
  0
LINE
  5
29B
102
{ACAD_XDICTIONARY
360
299
102
}
330
1F
100
AcDbEntity
  8
Main lines
100
AcDbLine
 10
307.686644543458
 20
303.8151238747787
 30
0.0
 11
347.686644543458
 21
303.8151238747788
 31
0.0
  0
LINE
  5
29E
102
{ACAD_XDICTIONARY
360
29C
102
}
330
1F
100
AcDbEntity
  8
Main lines
100
AcDbLine
 10
307.686644543458
 20
303.8151238747788
 30
0.0
 11
307.186644543458
 21
303.3151238747787
 31
0.0
  0
LINE
  5
2A1
102
{ACAD_XDICTIONARY
360
29F
102
}
330
1F
100
AcDbEntity
  8
Main lines
100
AcDbLine
 10
347.686644543458
 20
303.8151238747788
 30
0.0
 11
348.1866445434583
 21
303.3151238747787
 31
0.0
  0
LINE
  5
2A4
102
{ACAD_XDICTIONARY
360
2A2
102
}
330
1F
100
AcDbEntity
  8
Main lines
100
AcDbLine
 10
450.1192416115904
 20
295.8066608940046
 30
0.0
 11
445.6473992155979
 21
293.4289401151515
 31
0.0
  0
LINE
  5
2A7
102
{ACAD_XDICTIONARY
360
2A5
102
}
330
1F
100
AcDbEntity
  8
Main lines
100
AcDbLine
 10
367.8866445434579
 20
283.615123874779
 30
0.0
 11
367.8866445434579
 21
302.8151238747787
 31
0.0
  0
LINE
  5
2AA
102
{ACAD_XDICTIONARY
360
2A8
102
}
330
1F
100
AcDbEntity
  8
Main lines
100
AcDbLine
 10
368.3866445434579
 20
243.1151238747788
 30
0.0
 11
368.3866445434581
 21
283.1151238747788
 31
0.0
  0
LINE
  5
2AD
102
{ACAD_XDICTIONARY
360
2AB
102
}
330
1F
100
AcDbEntity
  8
Main lines
100
AcDbLine
 10
368.3866445434581
 20
243.1151238747788
 30
0.0
 11
367.8866445434579
 21
242.6151238747788
 31
0.0
  0
LINE
  5
2B0
102
{ACAD_XDICTIONARY
360
2AE
102
}
330
1F
100
AcDbEntity
  8
Main lines
100
AcDbLine
 10
368.3866445434581
 20
283.1151238747788
 30
0.0
 11
367.8866445434579
 21
283.615123874779
 31
0.0
  0
ARC
  5
2B3
102
{ACAD_XDICTIONARY
360
2B1
102
}
330
1F
100
AcDbEntity
  8
Main lines
100
AcDbCircle
 10
447.7467797245685
 20
264.1064656324629
 30
0.0
 40
2.0
100
AcDbArc
 50
90.0
 51
180.4730829920587
  0
ARC
  5
2B6
102
{ACAD_XDICTIONARY
360
2B4
102
}
330
1F
100
AcDbEntity
  8
Main lines
100
AcDbCircle
 10
450.1097142124599
 20
250.5693597159129
 30
0.0
 40
5.000000000000015
100
AcDbArc
 50
100.0000000000018
 51
174.148825423393
  0
ARC
  5
2B9
102
{ACAD_XDICTIONARY
360
2B7
102
}
330
1F
100
AcDbEntity
  8
Main lines
100
AcDbCircle
 10
447.7466354927216
 20
262.1064656324629
 30
0.0
 40
1.99999999999999
100
AcDbArc
 50
179.5186531318561
 51
270.0000000000032
  0
ARC
  5
2BC
102
{ACAD_XDICTIONARY
360
2BA
102
}
330
1F
100
AcDbEntity
  8
Main lines
100
AcDbCircle
 10
450.1115158424585
 20
275.6432950475535
 30
0.0
 40
5.000000000000025
100
AcDbArc
 50
-174.1570591365037
 51
-99.9999999999985
  0
ARC
  5
2BF
102
{ACAD_XDICTIONARY
360
2BD
102
}
330
1F
100
AcDbEntity
  8
Main lines
100
AcDbCircle
 10
447.9947570295275
 20
289.0142021508569
 30
0.0
 40
5.000000000000005
100
AcDbArc
 50
117.9999999999995
 51
192.1488254233932
  0
ARC
  5
2C2
102
{ACAD_XDICTIONARY
360
2C0
102
}
330
1F
100
AcDbEntity
  8
Main lines
100
AcDbCircle
 10
367.6866445434581
 20
303.1151238747785
 30
0.0
 40
8.0
100
AcDbArc
 50
0.0
 51
90.0
  0
ARC
  5
2C5
102
{ACAD_XDICTIONARY
360
2C3
102
}
330
1F
100
AcDbEntity
  8
Main lines
100
AcDbCircle
 10
367.3866445434579
 20
302.8151238747787
 30
0.0
 40
0.5
100
AcDbArc
 50
0.0
 51
90.0
  0
ARC
  5
2C8
102
{ACAD_XDICTIONARY
360
2C6
102
}
330
1F
100
AcDbEntity
  8
Main lines
100
AcDbCircle
 10
434.1032035605494
 20
324.9238623546494
 30
0.0
 40
5.000000000000014
100
AcDbArc
 50
136.0000000000017
 51
210.1488254233928
  0
ARC
  5
2CB
102
{ACAD_XDICTIONARY
360
2C9
102
}
330
1F
100
AcDbEntity
  8
Main lines
100
AcDbCircle
 10
440.2481983481421
 20
312.8614884714641
 30
0.0
 40
4.999999999999993
100
AcDbArc
 50
-156.1570591365042
 51
-81.99999999999922
  0
ARC
  5
2CE
102
{ACAD_XDICTIONARY
360
2CC
102
}
330
1F
100
AcDbEntity
  8
Main lines
100
AcDbCircle
 10
441.5642770043721
 20
301.1585680312163
 30
0.0
 40
2.000000000000024
100
AcDbArc
 50
108.0000000000021
 51
198.4730829920576
  0
ARC
  5
2D1
102
{ACAD_XDICTIONARY
360
2CF
102
}
330
1F
100
AcDbEntity
  8
Main lines
100
AcDbCircle
 10
327.6866445434581
 20
263.1151238747785
 30
0.0
 40
127.5
100
AcDbArc
 50
15.39137267247104
 51
20.60073137423204
  0
LINE
  5
2D4
102
{ACAD_XDICTIONARY
360
2D2
102
}
330
1F
100
AcDbEntity
  8
Main lines
100
AcDbLine
 10
448.8645986821811
 20
299.3247374362197
 30
0.0
 11
442.8002078092342
 21
297.3542973959439
 31
0.0
  0
ARC
  5
2D7
102
{ACAD_XDICTIONARY
360
2D5
102
}
330
1F
100
AcDbEntity
  8
Main lines
100
AcDbCircle
 10
442.1821738204841
 20
299.2564104285342
 30
0.0
 40
2.000000000000032
100
AcDbArc
 50
-162.4813468681431
 51
-71.99999999999793
  0
ARC
  5
2DA
102
{ACAD_XDICTIONARY
360
2D8
102
}
330
1F
100
AcDbEntity
  8
Main lines
100
AcDbCircle
 10
449.6497700488044
 20
296.6896084868634
 30
0.0
 40
0.9999999999999977
100
AcDbArc
 50
-61.99999999999667
 51
15.39137267247204
  0
ARC
  5
2DD
102
{ACAD_XDICTIONARY
360
2DB
102
}
330
1F
100
AcDbEntity
  8
Main lines
100
AcDbCircle
 10
449.173615676556
 20
298.3736809199246
 30
0.0
 40
1.00000000000001
100
AcDbArc
 50
16.18405014597315
 51
108.0000000000026
  0
LINE
  5
2E0
102
{ACAD_XDICTIONARY
360
2DE
102
}
330
1F
100
AcDbEntity
  8
Main lines
100
AcDbLine
 10
445.9584345645775
 20
308.6148719730768
 30
0.0
 11
440.9440638529426
 21
307.9101481277563
 31
0.0
  0
LINE
  5
2E3
102
{ACAD_XDICTIONARY
360
2E1
102
}
330
1F
100
AcDbEntity
  8
Main lines
100
AcDbLine
 10
447.0110177339579
 20
305.0312458230096
 30
0.0
 11
440.9462430156221
 21
303.0606810638067
 31
0.0
  0
ARC
  5
2E6
102
{ACAD_XDICTIONARY
360
2E4
102
}
330
1F
100
AcDbEntity
  8
Main lines
100
AcDbCircle
 10
446.7020007395829
 20
305.9823023393047
 30
0.0
 40
0.9999999999999848
100
AcDbArc
 50
-71.99999999999741
 51
19.80810275624584
  0
ARC
  5
2E9
102
{ACAD_XDICTIONARY
360
2E7
102
}
330
1F
100
AcDbEntity
  8
Main lines
100
AcDbCircle
 10
446.0976076655376
 20
307.6246039043353
 30
0.0
 40
0.9999999999999948
100
AcDbArc
 50
20.6007313742327
 51
98.00000000000088
  0
ARC
  5
2EC
102
{ACAD_XDICTIONARY
360
2EA
102
}
330
1F
100
AcDbEntity
  8
Main lines
100
AcDbCircle
 10
426.5479768815716
 20
342.0371548188252
 30
0.0
 40
1.000000000000021
100
AcDbArc
 50
38.60073137423134
 51
116.0000000000022
  0
LINE
  5
2EF
102
{ACAD_XDICTIONARY
360
2ED
102
}
330
1F
100
AcDbEntity
  8
Main lines
100
AcDbLine
 10
431.744341508171
 20
334.9985599773699
 30
0.0
 11
426.5856625099361
 21
331.2505602968239
 31
0.0
  0
LINE
  5
2F2
102
{ACAD_XDICTIONARY
360
2F0
102
}
330
1F
100
AcDbEntity
  8
Main lines
100
AcDbLine
 10
428.2180731988216
 20
339.8529839504688
 30
0.0
 11
423.0590676821964
 21
336.104747040426
 31
0.0
  0
ARC
  5
2F5
102
{ACAD_XDICTIONARY
360
2F3
102
}
330
1F
100
AcDbEntity
  8
Main lines
100
AcDbCircle
 10
425.410092005351
 20
332.8685942855737
 30
0.0
 40
2.000000000000016
100
AcDbArc
 50
-144.4813468681436
 51
-53.99999999999723
  0
ARC
  5
2F8
102
{ACAD_XDICTIONARY
360
2F6
102
}
330
1F
100
AcDbEntity
  8
Main lines
100
AcDbCircle
 10
424.2346381867814
 20
334.4867130516761
 30
0.0
 40
2.000000000000024
100
AcDbArc
 50
126.0000000000028
 51
216.4730829920592
  0
ARC
  5
2FB
102
{ACAD_XDICTIONARY
360
2F9
102
}
330
1F
100
AcDbEntity
  8
Main lines
100
AcDbCircle
 10
419.3665717049623
 20
345.2101611253482
 30
0.0
 40
5.000000000000016
100
AcDbArc
 50
-138.1570591365042
 51
-63.9999999999981
  0
LINE
  5
2FE
102
{ACAD_XDICTIONARY
360
2FC
102
}
330
1F
100
AcDbEntity
  8
Main lines
100
AcDbLine
 10
426.1096057347826
 20
342.9359488651244
 30
0.0
 11
421.5584274389079
 21
340.7161908938525
 31
0.0
  0
ARC
  5
301
102
{ACAD_XDICTIONARY
360
2FF
102
}
330
1F
100
AcDbEntity
  8
Main lines
100
AcDbCircle
 10
327.6866445434581
 20
263.1151238747785
 30
0.0
 40
127.5
100
AcDbArc
 50
33.39137267247056
 51
38.6007313742312
  0
LINE
  5
304
102
{ACAD_XDICTIONARY
360
302
102
}
330
1F
100
AcDbEntity
  8
Main lines
100
AcDbLine
 10
434.0247232808657
 20
332.0403763441309
 30
0.0
 11
430.5065045588561
 21
328.3971542069443
 31
0.0
  0
ARC
  5
307
102
{ACAD_XDICTIONARY
360
305
102
}
330
1F
100
AcDbEntity
  8
Main lines
100
AcDbCircle
 10
432.3321267604635
 20
334.189542982995
 30
0.0
 40
0.999999999999977
100
AcDbArc
 50
34.18405014597236
 51
126.0000000000047
  0
ARC
  5
30A
102
{ACAD_XDICTIONARY
360
308
102
}
330
1F
100
AcDbEntity
  8
Main lines
100
AcDbCircle
 10
433.305383480527
 20
332.7350347145899
 30
0.0
 40
0.9999999999999949
100
AcDbArc
 50
-43.99999999999788
 51
33.39137267247043
  0
ARC
  5
30D
102
{ACAD_XDICTIONARY
360
30B
102
}
330
1F
100
AcDbEntity
  8
Main lines
100
AcDbCircle
 10
427.6302879465291
 20
340.6620009448437
 30
0.0
 40
1.000000000000012
100
AcDbArc
 50
-53.99999999999722
 51
37.80810275624381
  0
ARC
  5
310
102
{ACAD_XDICTIONARY
360
30E
102
}
330
1F
100
AcDbEntity
  8
Main lines
100
AcDbCircle
 10
353.6030114778863
 20
383.4195132811141
 30
0.0
 40
4.999999999999981
100
AcDbArc
 50
-102.1570591365035
 51
-27.99999999999807
  0
ARC
  5
313
102
{ACAD_XDICTIONARY
360
311
102
}
330
1F
100
AcDbEntity
  8
Main lines
100
AcDbCircle
 10
327.6866445434581
 20
263.1151238747785
 30
0.0
 40
127.5
100
AcDbArc
 50
105.3913726724718
 51
110.6007313742326
  0
LINE
  5
316
102
{ACAD_XDICTIONARY
360
314
102
}
330
1F
100
AcDbEntity
  8
Main lines
100
AcDbLine
 10
294.9951075242319
 20
385.5477209429108
 30
0.0
 11
297.372828303085
 21
381.0758785469183
 31
0.0
  0
LINE
  5
319
102
{ACAD_XDICTIONARY
360
317
102
}
330
1F
100
AcDbEntity
  8
Main lines
100
AcDbLine
 10
291.4770309820168
 20
384.2930780135015
 30
0.0
 11
293.4474710222926
 21
378.2286871405546
 31
0.0
  0
ARC
  5
31C
102
{ACAD_XDICTIONARY
360
31A
102
}
330
1F
100
AcDbEntity
  8
Main lines
100
AcDbCircle
 10
277.9402799467724
 20
375.6766776794626
 30
0.0
 40
5.00000000000001
100
AcDbArc
 50
-66.15705913650218
 51
8.000000000001428
  0
LINE
  5
31F
102
{ACAD_XDICTIONARY
360
31D
102
}
330
1F
100
AcDbEntity
  8
Main lines
100
AcDbLine
 10
258.7613920741056
 20
369.453202612186
 30
0.0
 11
262.4046142112923
 21
365.9349838901765
 31
0.0
  0
ARC
  5
322
102
{ACAD_XDICTIONARY
360
320
102
}
330
1F
100
AcDbEntity
  8
Main lines
100
AcDbCircle
 10
257.9331741326628
 20
360.8385713366714
 30
0.0
 40
2.000000000000016
100
AcDbArc
 50
-54.48134686814358
 51
36.00000000000278
  0
ARC
  5
325
102
{ACAD_XDICTIONARY
360
323
102
}
330
1F
100
AcDbEntity
  8
Main lines
100
AcDbCircle
 10
265.8779060635871
 20
369.5316828918699
 30
0.0
 40
5.000000000000014
100
AcDbArc
 50
-133.9999999999984
 51
-59.85117457660631
  0
ARC
  5
328
102
{ACAD_XDICTIONARY
360
326
102
}
330
1F
100
AcDbEntity
  8
Main lines
100
AcDbCircle
 10
258.0667337036466
 20
368.7338628118474
 30
0.0
 40
0.9999999999999949
100
AcDbArc
 50
46.00000000000213
 51
123.3913726724704
  0
ARC
  5
32B
102
{ACAD_XDICTIONARY
360
329
102
}
330
1F
100
AcDbEntity
  8
Main lines
100
AcDbCircle
 10
291.5453579897023
 20
377.6106531518046
 30
0.0
 40
1.999999999999978
100
AcDbArc
 50
-72.48134686814262
 51
18.00000000000259
  0
LINE
  5
32E
102
{ACAD_XDICTIONARY
360
32C
102
}
330
1F
100
AcDbEntity
  8
Main lines
100
AcDbLine
 10
282.1868964451597
 20
381.3869138958979
 30
0.0
 11
282.8916202904803
 21
376.372543184263
 31
0.0
  0
LINE
  5
331
102
{ACAD_XDICTIONARY
360
32F
102
}
330
1F
100
AcDbEntity
  8
Main lines
100
AcDbLine
 10
285.770522595227
 20
382.4394970652784
 30
0.0
 11
287.7410873544299
 21
376.3747223469426
 31
0.0
  0
ARC
  5
334
102
{ACAD_XDICTIONARY
360
332
102
}
330
1F
100
AcDbEntity
  8
Main lines
100
AcDbCircle
 10
289.6432003870202
 20
376.9927563356925
 30
0.0
 40
2.000000000000024
100
AcDbArc
 50
-161.9999999999979
 51
-71.52691700794031
  0
ARC
  5
337
102
{ACAD_XDICTIONARY
360
335
102
}
330
1F
100
AcDbEntity
  8
Main lines
100
AcDbCircle
 10
284.8194660789318
 20
382.1304800709033
 30
0.0
 40
0.9999999999999848
100
AcDbArc
 50
18.00000000000258
 51
109.8081027562458
  0
ARC
  5
33A
102
{ACAD_XDICTIONARY
360
338
102
}
330
1F
100
AcDbEntity
  8
Main lines
100
AcDbCircle
 10
283.1771645139012
 20
381.5260869968581
 30
0.0
 40
0.9999999999999948
100
AcDbArc
 50
110.6007313742327
 51
188.0000000000009
  0
ARC
  5
33D
102
{ACAD_XDICTIONARY
360
33B
102
}
330
1F
100
AcDbEntity
  8
Main lines
100
AcDbCircle
 10
301.7875662673796
 20
383.4232363608479
 30
0.0
 40
4.999999999999986
100
AcDbArc
 50
-151.9999999999981
 51
-77.85117457660746
  0
ARC
  5
340
102
{ACAD_XDICTIONARY
360
33E
102
}
330
1F
100
AcDbEntity
  8
Main lines
100
AcDbCircle
 10
292.4280874983119
 20
384.6020950078765
 30
0.0
 40
1.00000000000001
100
AcDbArc
 50
106.1840501459732
 51
198.0000000000026
  0
ARC
  5
343
102
{ACAD_XDICTIONARY
360
341
102
}
330
1F
100
AcDbEntity
  8
Main lines
100
AcDbCircle
 10
294.112159931373
 20
385.0782493801249
 30
0.0
 40
0.9999999999999977
100
AcDbArc
 50
28.00000000000333
 51
105.391372672472
  0
ARC
  5
346
102
{ACAD_XDICTIONARY
360
344
102
}
330
1F
100
AcDbEntity
  8
Main lines
100
AcDbCircle
 10
315.1584733706831
 20
385.5399951737789
 30
0.0
 40
5.000000000000025
100
AcDbArc
 50
-84.15705913650372
 51
-9.999999999998495
  0
ARC
  5
349
102
{ACAD_XDICTIONARY
360
347
102
}
330
1F
100
AcDbEntity
  8
Main lines
100
AcDbCircle
 10
340.2324087023236
 20
385.5381935437804
 30
0.0
 40
5.000000000000005
100
AcDbArc
 50
-169.9999999999988
 51
-95.85117457660701
  0
LINE
  5
34C
102
{ACAD_XDICTIONARY
360
34A
102
}
330
1F
100
AcDbEntity
  8
Main lines
100
AcDbLine
 10
324.6953027857734
 20
389.5521405707343
 30
0.0
 11
324.6953027857736
 21
383.1752590558888
 31
0.0
  0
LINE
  5
34F
102
{ACAD_XDICTIONARY
360
34D
102
}
330
1F
100
AcDbEntity
  8
Main lines
100
AcDbLine
 10
330.6953027857734
 20
389.5515927399612
 30
0.0
 11
330.6953027857736
 21
383.1751148240421
 31
0.0
  0
ARC
  5
352
102
{ACAD_XDICTIONARY
360
350
102
}
330
1F
100
AcDbEntity
  8
Main lines
100
AcDbCircle
 10
328.6953027857736
 20
383.175114824042
 30
0.0
 40
1.99999999999999
100
AcDbArc
 50
-90.48134686814393
 51
0.0
  0
ARC
  5
355
102
{ACAD_XDICTIONARY
360
353
102
}
330
1F
100
AcDbEntity
  8
Main lines
100
AcDbCircle
 10
326.6953027857736
 20
383.1752590558889
 30
0.0
 40
2.0
100
AcDbArc
 50
180.0
 51
270.4730829920587
  0
ARC
  5
358
102
{ACAD_XDICTIONARY
360
356
102
}
330
1F
100
AcDbEntity
  8
Main lines
100
AcDbCircle
 10
327.6866445434581
 20
263.1151238747785
 30
0.0
 40
127.5
100
AcDbArc
 50
87.3913726724708
 51
92.60073137423191
  0
ARC
  5
35B
102
{ACAD_XDICTIONARY
360
359
102
}
330
1F
100
AcDbEntity
  8
Main lines
100
AcDbCircle
 10
323.6953027857734
 20
389.5521405707342
 30
0.0
 40
1.0
100
AcDbArc
 50
0.0
 51
91.80810275624445
  0
ARC
  5
35E
102
{ACAD_XDICTIONARY
360
35C
102
}
330
1F
100
AcDbEntity
  8
Main lines
100
AcDbCircle
 10
321.9466134494668
 20
389.4848276927428
 30
0.0
 40
0.9999999999999911
100
AcDbArc
 50
92.60073137423193
 51
170.0000000000014
  0
LINE
  5
361
102
{ACAD_XDICTIONARY
360
35F
102
}
330
1F
100
AcDbEntity
  8
Main lines
100
AcDbLine
 10
320.9618056964546
 20
389.6584758704097
 30
0.0
 11
320.0825121357441
 21
384.6717542854444
 31
0.0
  0
ARC
  5
364
102
{ACAD_XDICTIONARY
360
362
102
}
330
1F
100
AcDbEntity
  8
Main lines
100
AcDbCircle
 10
333.4440906401198
 20
389.4840354568763
 30
0.0
 40
1.000000000000003
100
AcDbArc
 50
10.00000000000181
 51
87.39137267247077
  0
ARC
  5
367
102
{ACAD_XDICTIONARY
360
365
102
}
330
1F
100
AcDbEntity
  8
Main lines
100
AcDbCircle
 10
331.6953027857734
 20
389.5515927399612
 30
0.0
 40
0.999999999999987
100
AcDbArc
 50
88.18405014597192
 51
180.0000000000033
  0
LINE
  5
36A
102
{ACAD_XDICTIONARY
360
368
102
}
330
1F
100
AcDbEntity
  8
Main lines
100
AcDbLine
 10
334.428898393132
 20
389.6576836345432
 30
0.0
 11
335.3083699372626
 21
384.6699526554456
 31
0.0
  0
ARC
  5
36D
102
{ACAD_XDICTIONARY
360
36B
102
}
330
1F
100
AcDbEntity
  8
Main lines
100
AcDbCircle
 10
327.6866445434581
 20
263.1151238747785
 30
0.0
 40
127.5
100
AcDbArc
 50
51.39137267247116
 51
56.60073137423062
  0
LINE
  5
370
102
{ACAD_XDICTIONARY
360
36E
102
}
330
1F
100
AcDbEntity
  8
Main lines
100
AcDbLine
 10
404.4381919426484
 20
363.635930951449
 30
0.0
 11
400.6901922621026
 21
358.4772519532139
 31
0.0
  0
ARC
  5
373
102
{ACAD_XDICTIONARY
360
371
102
}
330
1F
100
AcDbEntity
  8
Main lines
100
AcDbCircle
 10
327.6866445434581
 20
263.1151238747785
 30
0.0
 40
127.5
100
AcDbArc
 50
69.39137267247233
 51
74.60073137423082
  0
LINE
  5
376
102
{ACAD_XDICTIONARY
360
374
102
}
330
1F
100
AcDbEntity
  8
Main lines
100
AcDbLine
 10
360.3949890288017
 20
385.5430928722117
 30
0.0
 11
358.017749442181
 21
381.0721554671848
 31
0.0
  0
LINE
  5
379
102
{ACAD_XDICTIONARY
360
377
102
}
330
1F
100
AcDbEntity
  8
Main lines
100
AcDbLine
 10
363.9128963494657
 20
384.2882479434943
 30
0.0
 11
361.9423315902632
 21
378.2234732251584
 31
0.0
  0
ARC
  5
37C
102
{ACAD_XDICTIONARY
360
37A
102
}
330
1F
100
AcDbEntity
  8
Main lines
100
AcDbCircle
 10
365.746513085352
 20
376.9872680750208
 30
0.0
 40
1.999999999999994
100
AcDbArc
 50
-108.4813468681426
 51
-17.99999999999743
  0
ARC
  5
37F
102
{ACAD_XDICTIONARY
360
37D
102
}
330
1F
100
AcDbEntity
  8
Main lines
100
AcDbCircle
 10
363.8444446228535
 20
377.6054392364086
 30
0.0
 40
1.999999999999971
100
AcDbArc
 50
162.0000000000026
 51
252.4730829920578
  0
LINE
  5
382
102
{ACAD_XDICTIONARY
360
380
102
}
330
1F
100
AcDbEntity
  8
Main lines
100
AcDbLine
 10
373.2027104791813
 20
381.3807789030324
 30
0.0
 11
372.4978439862113
 21
376.3653932006289
 31
0.0
  0
LINE
  5
385
102
{ACAD_XDICTIONARY
360
383
102
}
330
1F
100
AcDbEntity
  8
Main lines
100
AcDbLine
 10
369.6190661582177
 20
382.433624959218
 30
0.0
 11
367.6486261179423
 21
376.369234086271
 31
0.0
  0
ARC
  5
388
102
{ACAD_XDICTIONARY
360
386
102
}
330
1F
100
AcDbEntity
  8
Main lines
100
AcDbCircle
 10
377.4491843299192
 20
375.6695276958287
 30
0.0
 40
4.999999999999975
100
AcDbArc
 50
172.0000000000012
 51
246.1488254233939
  0
ARC
  5
38B
102
{ACAD_XDICTIONARY
360
389
102
}
330
1F
100
AcDbEntity
  8
Main lines
100
AcDbCircle
 10
370.5701226745128
 20
382.1246079648432
 30
0.0
 40
1.000000000000018
100
AcDbArc
 50
70.18405014597352
 51
162.0000000000046
  0
ARC
  5
38E
102
{ACAD_XDICTIONARY
360
38C
102
}
330
1F
100
AcDbEntity
  8
Main lines
100
AcDbCircle
 10
372.2124424104398
 20
381.5199520039924
 30
0.0
 40
0.9999999999999806
100
AcDbArc
 50
-7.99999999999765
 51
69.3913726724719
  0
LINE
  5
391
102
{ACAD_XDICTIONARY
360
38F
102
}
330
1F
100
AcDbEntity
  8
Main lines
100
AcDbLine
 10
396.6264517104868
 20
369.4436072627272
 30
0.0
 11
392.9839668718964
 21
365.9261005416953
 31
0.0
  0
ARC
  5
394
102
{ACAD_XDICTIONARY
360
392
102
}
330
1F
100
AcDbEntity
  8
Main lines
100
AcDbCircle
 10
389.5106750196014
 20
369.5227995433884
 30
0.0
 40
4.999999999999995
100
AcDbArc
 50
-120.157059136503
 51
-45.99999999999797
  0
ARC
  5
397
102
{ACAD_XDICTIONARY
360
395
102
}
330
1F
100
AcDbEntity
  8
Main lines
100
AcDbCircle
 10
397.4542090619553
 20
360.8285096483989
 30
0.0
 40
1.99999999999997
100
AcDbArc
 50
144.0000000000021
 51
234.4730829920599
  0
ARC
  5
39A
102
{ACAD_XDICTIONARY
360
398
102
}
330
1F
100
AcDbEntity
  8
Main lines
100
AcDbCircle
 10
399.0721582733527
 20
359.6528224577987
 30
0.0
 40
2.000000000000011
100
AcDbArc
 50
-126.4813468681428
 51
-35.99999999999692
  0
LINE
  5
39D
102
{ACAD_XDICTIONARY
360
39B
102
}
330
1F
100
AcDbEntity
  8
Main lines
100
AcDbLine
 10
399.5844119832478
 20
367.1630856696094
 30
0.0
 11
395.8361750732054
 21
362.0040801529838
 31
0.0
  0
ARC
  5
3A0
102
{ACAD_XDICTIONARY
360
39E
102
}
330
1F
100
AcDbEntity
  8
Main lines
100
AcDbCircle
 10
398.7753949888728
 20
367.7508709219018
 30
0.0
 40
0.9999999999999913
100
AcDbArc
 50
-35.99999999999559
 51
55.8081027562433
  0
ARC
  5
3A3
102
{ACAD_XDICTIONARY
360
3A1
102
}
330
1F
100
AcDbEntity
  8
Main lines
100
AcDbCircle
 10
397.3211100809458
 20
368.7242674623885
 30
0.0
 40
1.00000000000001
100
AcDbArc
 50
56.60073137423085
 51
134.0000000000025
  0
ARC
  5
3A6
102
{ACAD_XDICTIONARY
360
3A4
102
}
330
1F
100
AcDbEntity
  8
Main lines
100
AcDbCircle
 10
362.9618398331705
 20
384.5972649378692
 30
0.0
 40
1.000000000000004
100
AcDbArc
 50
-17.99999999999539
 51
73.80810275624346
  0
ARC
  5
3A9
102
{ACAD_XDICTIONARY
360
3A7
102
}
330
1F
100
AcDbEntity
  8
Main lines
100
AcDbCircle
 10
361.2779366216606
 20
385.0736213094259
 30
0.0
 40
0.9999999999999801
100
AcDbArc
 50
74.6007313742305
 51
151.9999999999995
  0
ARC
  5
3AC
102
{ACAD_XDICTIONARY
360
3AA
102
}
330
1F
100
AcDbEntity
  8
Main lines
100
AcDbCircle
 10
406.6222988560638
 20
361.965578998874
 30
0.0
 40
1.00000000000002
100
AcDbArc
 50
-25.99999999999783
 51
51.39137267247166
  0
LINE
  5
3AF
102
{ACAD_XDICTIONARY
360
3AD
102
}
330
1F
100
AcDbEntity
  8
Main lines
100
AcDbLine
 10
407.521092902363
 20
361.527207852085
 30
0.0
 11
405.3008856157179
 21
356.9751083231738
 31
0.0
  0
ARC
  5
3B2
102
{ACAD_XDICTIONARY
360
3B0
102
}
330
1F
100
AcDbEntity
  8
Main lines
100
AcDbCircle
 10
405.2472089370233
 20
363.0481456991566
 30
0.0
 40
1.000000000000027
100
AcDbArc
 50
52.18405014597118
 51
144.0000000000063
  0
LINE
  5
3B5
102
{ACAD_XDICTIONARY
360
3B3
102
}
330
1F
100
AcDbEntity
  8
Main lines
100
AcDbLine
 10
577.21969748832
 20
217.1151232293365
 30
0.0
 11
577.2150404201011
 21
262.992519241335
 31
0.0
  0
LINE
  5
3B8
102
{ACAD_XDICTIONARY
360
3B6
102
}
330
1F
100
AcDbEntity
  8
Main lines
100
AcDbLine
 10
617.2197188592233
 20
217.1191716107485
 30
0.0
 11
617.2150817561467
 21
262.9432449577245
 31
0.0
  0
LINE
  5
3BB
102
{ACAD_XDICTIONARY
360
3B9
102
}
330
1F
100
AcDbEntity
  8
Main lines
100
AcDbLine
 10
617.2197108795858
 20
217.1980267692774
 30
0.0
 11
617.2266596696227
 21
147.0913718371202
 31
0.0
  0
LINE
  5
3BE
102
{ACAD_XDICTIONARY
360
3BC
102
}
330
1F
100
AcDbEntity
  8
Main lines
100
AcDbLine
 10
577.218622749183
 20
227.7025208534759
 30
0.0
 11
577.2266596696228
 21
147.8105623371202
 31
0.0
  0
HATCH
  5
3BF
330
1F
100
AcDbEntity
  8
Main lines
  6
Durchgehend
100
AcDbHatch
 10
0.0
 20
0.0
 30
0.0
210
0.0
220
0.0
230
1.0
  2
ANSI31
 70
     0
 71
     0
 91
        2
 92
        3
 72
     0
 73
     1
 93
      117
 10
597.2033962790995
 20
222.4151238747783
 10
577.2191594790451
 20
222.4151238747783
 10
577.21969748832
 20
217.1151232293365
 10
577.2306749147101
 20
216.9060674581661
 10
577.2634444797302
 20
216.6993043692014
 10
577.3176471533134
 20
216.497099301198
 10
577.3926890798651
 20
216.3016676543
 10
577.4877480846668
 20
216.1151506176628
 10
577.60178268179
 20
215.9395917101452
 10
577.7335434848303
 20
215.7769143910992
 10
577.88158689544
 20
215.6289009865545
 10
578.0442909196875
 20
215.4971731616901
 10
578.2198729389553
 20
215.383174153538
 10
578.4064092406745
 20
215.2881529585828
 10
578.6018560949141
 20
215.2131506485002
 10
578.8040721459039
 20
215.1589889639629
 10
579.0108418731679
 20
215.1262613114809
 10
579.2198998652201
 20
215.1153262619188
 10
589.220629862764
 20
215.1163382718179
 10
589.743274948172
 20
215.0890006368581
 10
590.2601993681452
 20
215.007181472711
 10
590.7657395905649
 20
214.8717772072607
 10
591.2543568109633
 20
214.6842713579746
 10
591.7206976368238
 20
214.4467182781755
 10
592.1596527404704
 20
214.161720649117
 10
592.5664128379301
 20
213.8324009644627
 10
592.9365213804552
 20
213.462367319592
 10
593.2659233814037
 20
213.0556738805529
 10
593.5510098435212
 20
212.6167764657694
 10
593.7886572998708
 20
212.1504837271631
 10
593.9762620351896
 20
211.6619044655563
 10
594.1117686127387
 20
211.1563916575808
 10
594.1936923940979
 20
210.6394838073462
 10
594.221135805175
 20
210.1168442654296
 10
594.2266595672212
 20
155.5307647731378
 10
594.2026762012982
 20
155.0406112661096
 10
594.1307587363025
 20
154.5551696727932
 10
594.0115999550794
 20
154.0791162649171
 10
593.8463477173251
 20
153.6170368775709
 10
593.6365939022239
 20
153.1733827337342
 10
593.3843590738333
 20
152.7524275655277
 10
593.0920730169372
 20
152.3582264452386
 10
592.7625513308651
 20
151.9945767227016
 10
592.3989683067483
 20
151.6649814453278
 10
592.0048263494903
 20
151.3726156131555
 10
591.5839222390066
 20
151.1202955939914
 10
591.1403105557441
 20
150.9104519932645
 10
590.6782646227997
 20
150.7451062399397
 10
590.2022353408859
 20
150.625851114039
 10
589.716808312686
 20
150.5538354033496
 10
589.2266596696227
 20
150.5297528371203
 10
579.2266596696228
 20
150.5297528371203
 10
579.0176027430875
 20
150.5187966278568
 10
578.8108362879873
 20
150.4860480385879
 10
578.6086256808729
 20
150.4318658697106
 10
578.4131863834712
 20
150.3568437524055
 10
578.2266596696228
 20
150.2618036446891
 10
578.0510891650379
 20
150.1477868258702
 10
577.8883984569051
 20
150.0160424880751
 10
577.740370018668
 20
149.868014049838
 10
577.6086256808729
 20
149.7053233417052
 10
577.494608862054
 20
149.5297528371203
 10
577.3995687543376
 20
149.3432261232719
 10
577.3245466370325
 20
149.1477868258702
 10
577.2703644681552
 20
148.9455762187558
 10
577.2376158788862
 20
148.7388097636556
 10
577.2266596696228
 20
148.5297528371203
 10
577.2266596696228
 20
147.0913718371202
 10
577.2376158788862
 20
146.8823149105849
 10
577.2703644681552
 20
146.6755484554847
 10
577.3245466370325
 20
146.4733378483703
 10
577.3995687543376
 20
146.2778985509686
 10
577.494608862054
 20
146.0913718371202
 10
577.6086256808729
 20
145.9158013325353
 10
577.740370018668
 20
145.7531106244025
 10
577.8883984569051
 20
145.6050821861654
 10
578.0510891650379
 20
145.4733378483703
 10
578.2266596696228
 20
145.3593210295514
 10
578.4131863834712
 20
145.264280921835
 10
578.6086256808729
 20
145.1892588045299
 10
578.8108362879873
 20
145.1350766356526
 10
579.0176027430875
 20
145.1023280463837
 10
579.2266596696228
 20
145.0913718371202
 10
592.7266596696228
 20
145.09137183712
 10
592.935716596158
 20
145.0804156278566
 10
593.1424830512583
 20
145.0476670385876
 10
593.3446936583726
 20
144.9934848697103
 10
593.5401329557744
 20
144.9184627524052
 10
593.7266596696228
 20
144.8234226446889
 10
593.9022301742077
 20
144.7094058258699
 10
594.0649208823405
 20
144.5776614880748
 10
594.2129493205775
 20
144.4296330498377
 10
594.3446936583726
 20
144.2669423417049
 10
594.4587104771916
 20
144.09137183712
 10
594.553750584908
 20
143.9048451232716
 10
594.628772702213
 20
143.7094058258699
 10
594.6829548710904
 20
143.5071952187555
 10
594.7157034603594
 20
143.3004287636553
 10
594.7266596696228
 20
143.09137183712
 10
594.7266596696228
 20
136.4096683078064
 10
594.7314749429506
 20
136.3116511674768
 10
594.7458743892196
 20
136.2145779857902
 10
594.7697193338905
 20
136.1193836305519
 10
594.8027801371114
 20
136.0269848754413
 10
594.8447384052744
 20
135.9382715709804
 10
594.8951900573202
 20
135.8540980747867
 10
594.95364921626
 20
135.7752750236427
 10
595.0195528884362
 20
135.7025615266198
 10
595.0922663854591
 20
135.6366578544436
 10
595.1710894366031
 20
135.5781986955038
 10
595.2552629327968
 20
135.527747043458
 10
595.3439762372577
 20
135.485788775295
 10
595.4363749923683
 20
135.4527279720741
 10
595.5315693476066
 20
135.4288830274031
 10
595.6286425292932
 20
135.4144835811341
 10
595.7266596696228
 20
135.4096683078063
 10
597.2033962790994
 20
135.4096683078063
 97
        0
 92
        3
 72
     0
 73
     1
 93
      120
 10
617.2191829427336
 20
222.4151238747783
 10
597.2033962790995
 20
222.4151238747783
 10
597.2033962790994
 20
135.4096683078063
 10
598.7266596696228
 20
135.4096683078063
 10
598.8311881328905
 20
135.415146412438
 10
598.9345713604406
 20
135.4315207070725
 10
599.0356766639977
 20
135.4586117915112
 10
599.1333963126986
 20
135.4961228501637
 10
599.2266596696228
 20
135.5436429040219
 10
599.3144449219153
 20
135.6006513134314
 10
599.3957902759817
 20
135.6665234823289
 10
599.4698044951002
 20
135.7405377014475
 10
599.5356766639977
 20
135.8218830555139
 10
599.5926850734072
 20
135.9096683078063
 10
599.6402051272654
 20
136.0029316647305
 10
599.6777161859179
 20
136.1006513134314
 10
599.7048072703566
 20
136.2017566169886
 10
599.7211815649911
 20
136.3051398445387
 10
599.7266596696228
 20
136.4096683078063
 10
599.7266596696229
 20
142.9598752192277
 10
599.7266596696228
 20
143.0913718371183
 10
599.7362902162782
 20
143.2874061177776
 10
599.765089108816
 20
143.4815524811508
 10
599.812778998158
 20
143.6719411916276
 10
599.8789006045997
 20
143.856738701849
 10
599.9628171409255
 20
144.034165310771
 10
600.0637204450171
 20
144.2025123031584
 10
600.1806387628967
 20
144.3601584054466
 10
600.3124461072491
 20
144.5055853994925
 10
600.4578731012949
 20
144.637392743845
 10
600.6155192035831
 20
144.7543110617248
 10
600.7838661959703
 20
144.8552143658165
 10
600.9612928048922
 20
144.9391309021424
 10
601.1460903151136
 20
145.0052525085844
 10
601.3364790255903
 20
145.0529423979265
 10
601.5306253889636
 20
145.0817412904644
 10
601.7266596696228
 20
145.0913718371201
 10
611.4798166578018
 20
145.0913718371202
 10
615.2266596696227
 20
145.0913718371202
 10
615.4357165961579
 20
145.1023280463836
 10
615.6424830512582
 20
145.1350766356526
 10
615.8446936583725
 20
145.1892588045299
 10
616.0401329557743
 20
145.264280921835
 10
616.2266596696227
 20
145.3593210295513
 10
616.4022301742076
 20
145.4733378483703
 10
616.5649208823404
 20
145.6050821861654
 10
616.7129493205774
 20
145.7531106244024
 10
616.8446936583725
 20
145.9158013325352
 10
616.9587104771915
 20
146.0913718371202
 10
617.0537505849079
 20
146.2778985509686
 10
617.1287727022129
 20
146.4733378483703
 10
617.1829548710903
 20
146.6755484554847
 10
617.2157034603592
 20
146.8823149105849
 10
617.2266596696227
 20
147.0913718371202
 10
617.2266596696227
 20
148.5297528371203
 10
617.2157034603592
 20
148.7388097636556
 10
617.1829548710903
 20
148.9455762187558
 10
617.1287727022129
 20
149.1477868258702
 10
617.0537505849079
 20
149.3432261232719
 10
616.9587104771915
 20
149.5297528371203
 10
616.8446936583725
 20
149.7053233417053
 10
616.7129493205774
 20
149.8680140498381
 10
616.5649208823404
 20
150.0160424880751
 10
616.4022301742076
 20
150.1477868258702
 10
616.2266596696227
 20
150.2618036446892
 10
616.0401329557743
 20
150.3568437524055
 10
615.8446936583725
 20
150.4318658697106
 10
615.6424830512582
 20
150.4860480385879
 10
615.4357165961579
 20
150.5187966278569
 10
615.2266596696227
 20
150.5297528371203
 10
605.2266596696229
 20
150.5297528371203
 10
604.7365739679399
 20
150.5538292037627
 10
604.2512080594729
 20
150.6258264351179
 10
603.7752362832491
 20
150.74505115849
 10
603.3132425076668
 20
150.9103551746179
 10
602.869675985337
 20
151.1201465154617
 10
602.4488085043486
 20
151.3724047757253
 10
602.0546932486134
 20
151.6647005704634
 10
601.6911257634902
 20
151.9942189313873
 10
601.3616074026073
 20
152.3577864165478
 10
601.0693116079137
 20
152.751901672316
 10
600.8170533476978
 20
153.172769153333
 10
600.6072620069041
 20
153.6163356756865
 10
600.4419579908283
 20
154.0783294512874
 10
600.3227332675101
 20
154.5543012275247
 10
600.2507360362098
 20
155.0396671359998
 10
600.2266596696227
 20
155.5297528376855
 10
600.2211357437341
 20
210.1174514270402
 10
600.2484733786938
 20
210.6400965124482
 10
600.3302925428409
 20
211.1570209324213
 10
600.4656968082912
 20
211.6625611548411
 10
600.6532026575774
 20
212.1511783752395
 10
600.8907557373764
 20
212.6175192011
 10
601.1757533664348
 20
213.0564743047466
 10
601.5050730510893
 20
213.4632344022064
 10
601.8751066959599
 20
213.8333429447315
 10
602.2818001349991
 20
214.16274494568
 10
602.7206975497826
 20
214.4478314077976
 10
603.1869902883889
 20
214.6854788641471
 10
603.6755695499957
 20
214.8730835994659
 10
604.1810823579711
 20
215.008590177015
 10
604.6979902082057
 20
215.0905139583742
 10
605.2206297501224
 20
215.1179573694513
 10
615.219921256668
 20
215.1189692337841
 10
615.4159545617738
 20
215.1286196178054
 10
615.6100980098892
 20
215.1574381565658
 10
615.8004818934794
 20
215.2051473117831
 10
615.9852727116709
 20
215.2712876182121
 10
616.1626908278677
 20
215.355222108546
 10
616.3310276086241
 20
215.4561424477596
 10
616.4886618787193
 20
215.5730767178176
 10
616.6340755339605
 20
215.7048987777765
 10
616.7658681613567
 20
215.8503391091376
 10
616.8827705258607
 20
216.0079970420043
 10
616.9836567937971
 20
216.1763542442984
 10
617.0675553752557
 20
216.3537893441284
 10
617.1336582810331
 20
216.538593544487
 10
617.1813289040116
 20
216.7289870799006
 10
617.2101081500322
 20
216.9231363565434
 10
617.2197188592235
 20
217.1191716107485
 97
        0
 75
     0
 76
     1
 52
0.0
 41
1.0
 77
     0
 78
     1
 53
45.0
 43
342.3180954027453
 44
94.96076535061252
 45
-2.245064030267288
 46
2.245064030267288
 79
     1
 49
1.0
 98
        0
  0
LINE
  5
3C2
102
{ACAD_XDICTIONARY
360
3C0
102
}
330
1F
100
AcDbEntity
  8
Main lines
100
AcDbLine
 10
594.2266596696227
 20
155.5297528371203
 30
0.0
 11
594.221135805175
 21
210.1168442654296
 31
0.0
  0
LINE
  5
3C5
102
{ACAD_XDICTIONARY
360
3C3
102
}
330
1F
100
AcDbEntity
  8
Main lines
100
AcDbLine
 10
600.2266596696228
 20
155.5297528371203
 30
0.0
 11
600.2211357437341
 21
210.1174514270402
 31
0.0
  0
LINE
  5
3C8
102
{ACAD_XDICTIONARY
360
3C6
102
}
330
1F
100
AcDbEntity
  8
Main lines
100
AcDbLine
 10
594.7266596696228
 20
135.4096683078063
 30
0.0
 11
599.7266596696228
 21
135.4096683078063
 31
0.0
  0
LINE
  5
3CB
102
{ACAD_XDICTIONARY
360
3C9
102
}
330
1F
100
AcDbEntity
  8
Main lines
100
AcDbLine
 10
595.7266596696228
 20
135.4096683078064
 30
0.0
 11
598.7266596696228
 21
135.4096683078064
 31
0.0
  0
LINE
  5
3CE
102
{ACAD_XDICTIONARY
360
3CC
102
}
330
1F
100
AcDbEntity
  8
Main lines
100
AcDbLine
 10
595.7266596696228
 20
135.4096683078064
 30
0.0
 11
598.7266596696228
 21
135.4096683078064
 31
0.0
  0
LINE
  5
3D1
102
{ACAD_XDICTIONARY
360
3CF
102
}
330
1F
100
AcDbEntity
  8
Main lines
100
AcDbLine
 10
600.7266596696228
 20
135.4096683078064
 30
0.0
 11
593.7266596696228
 21
135.4096683078063
 31
0.0
  0
LINE
  5
3D4
102
{ACAD_XDICTIONARY
360
3D2
102
}
330
1F
100
AcDbEntity
  8
Main lines
100
AcDbLine
 10
597.2266596696228
 20
135.4096683078064
 30
0.0
 11
594.7266596696228
 21
135.4096683078063
 31
0.0
  0
ARC
  5
3D7
102
{ACAD_XDICTIONARY
360
3D5
102
}
330
1F
100
AcDbEntity
  8
Main lines
100
AcDbCircle
 10
592.7266596696228
 20
143.09137183712
 30
0.0
 40
2.0
100
AcDbArc
 50
0.0
 51
90.0
  0
ARC
  5
3DA
102
{ACAD_XDICTIONARY
360
3D8
102
}
330
1F
100
AcDbEntity
  8
Main lines
100
AcDbCircle
 10
590.7266596696228
 20
143.09137183712
 30
0.0
 40
2.0
100
AcDbArc
 50
0.0
 51
90.0
  0
ARC
  5
3DD
102
{ACAD_XDICTIONARY
360
3DB
102
}
330
1F
100
AcDbEntity
  8
Main lines
100
AcDbCircle
 10
592.7266596696228
 20
143.09137183712
 30
0.0
 40
2.0
100
AcDbArc
 50
0.0
 51
90.0
  0
LINE
  5
3E0
102
{ACAD_XDICTIONARY
360
3DE
102
}
330
1F
100
AcDbEntity
  8
Main lines
100
AcDbLine
 10
592.7266596696228
 20
136.4096683078063
 30
0.0
 11
592.7266596696228
 21
143.09137183712
 31
0.0
  0
LINE
  5
3E3
102
{ACAD_XDICTIONARY
360
3E1
102
}
330
1F
100
AcDbEntity
  8
Main lines
100
AcDbLine
 10
594.7266596696228
 20
136.4096683078064
 30
0.0
 11
594.7266596696228
 21
142.9598752192277
 31
0.0
  0
LINE
  5
3E6
102
{ACAD_XDICTIONARY
360
3E4
102
}
330
1F
100
AcDbEntity
  8
Main lines
100
AcDbLine
 10
594.7266596696228
 20
136.4096683078064
 30
0.0
 11
594.7266596696228
 21
142.9712873078063
 31
0.0
  0
LINE
  5
3E9
102
{ACAD_XDICTIONARY
360
3E7
102
}
330
1F
100
AcDbEntity
  8
Main lines
100
AcDbLine
 10
594.7266596696228
 20
143.09137183712
 30
0.0
 11
594.7266596696228
 21
136.4096683078064
 31
0.0
  0
ARC
  5
3EC
102
{ACAD_XDICTIONARY
360
3EA
102
}
330
1F
100
AcDbEntity
  8
Main lines
100
AcDbCircle
 10
593.7266596696228
 20
136.4096683078063
 30
0.0
 40
1.0
100
AcDbArc
 50
180.0
 51
270.0
  0
ARC
  5
3EF
102
{ACAD_XDICTIONARY
360
3ED
102
}
330
1F
100
AcDbEntity
  8
Main lines
100
AcDbCircle
 10
595.7266596696228
 20
136.4096683078064
 30
0.0
 40
1.0
100
AcDbArc
 50
180.0
 51
270.0
  0
LINE
  5
3F2
102
{ACAD_XDICTIONARY
360
3F0
102
}
330
1F
100
AcDbEntity
  8
Main lines
100
AcDbLine
 10
579.2266596696228
 20
150.5297528371203
 30
0.0
 11
589.2266596696227
 21
150.5297528371203
 31
0.0
  0
LINE
  5
3F5
102
{ACAD_XDICTIONARY
360
3F3
102
}
330
1F
100
AcDbEntity
  8
Main lines
100
AcDbLine
 10
579.2266596696228
 20
145.0913718371202
 30
0.0
 11
592.7266596696229
 21
145.09137183712
 31
0.0
  0
ARC
  5
3F8
102
{ACAD_XDICTIONARY
360
3F6
102
}
330
1F
100
AcDbEntity
  8
Main lines
100
AcDbCircle
 10
579.2266596696228
 20
148.5297528371203
 30
0.0
 40
2.0
100
AcDbArc
 50
90.0
 51
180.0
  0
ARC
  5
3FB
102
{ACAD_XDICTIONARY
360
3F9
102
}
330
1F
100
AcDbEntity
  8
Main lines
100
AcDbCircle
 10
579.2266596696228
 20
147.0913718371202
 30
0.0
 40
2.0
100
AcDbArc
 50
180.0
 51
270.0
  0
LINE
  5
3FE
102
{ACAD_XDICTIONARY
360
3FC
102
}
330
1F
100
AcDbEntity
  8
Main lines
100
AcDbLine
 10
577.2266596696228
 20
148.5297528371203
 30
0.0
 11
577.2266596696228
 21
147.0913718371202
 31
0.0
  0
ARC
  5
401
102
{ACAD_XDICTIONARY
360
3FF
102
}
330
1F
100
AcDbEntity
  8
Main lines
100
AcDbCircle
 10
589.2266596696227
 20
155.5297528371203
 30
0.0
 40
5.0
100
AcDbArc
 50
-90.0
 51
0.0
  0
ARC
  5
404
102
{ACAD_XDICTIONARY
360
402
102
}
330
1F
100
AcDbEntity
  8
Main lines
100
AcDbCircle
 10
603.7266596696227
 20
143.0913718371201
 30
0.0
 40
2.0
100
AcDbArc
 50
90.0
 51
180.0
  0
ARC
  5
407
102
{ACAD_XDICTIONARY
360
405
102
}
330
1F
100
AcDbEntity
  8
Main lines
100
AcDbCircle
 10
601.7266596696228
 20
143.0913718371201
 30
0.0
 40
2.0
100
AcDbArc
 50
90.0
 51
180.0
  0
LINE
  5
40A
102
{ACAD_XDICTIONARY
360
408
102
}
330
1F
100
AcDbEntity
  8
Main lines
100
AcDbLine
 10
601.7266596696228
 20
136.4096683078064
 30
0.0
 11
601.7266596696227
 21
143.0913718371201
 31
0.0
  0
LINE
  5
40D
102
{ACAD_XDICTIONARY
360
40B
102
}
330
1F
100
AcDbEntity
  8
Main lines
100
AcDbLine
 10
599.7266596696228
 20
136.4096683078064
 30
0.0
 11
599.7266596696229
 21
142.9598752192277
 31
0.0
  0
LINE
  5
410
102
{ACAD_XDICTIONARY
360
40E
102
}
330
1F
100
AcDbEntity
  8
Main lines
100
AcDbLine
 10
599.7266596696228
 20
136.4096683078064
 30
0.0
 11
599.7266596696228
 21
143.0913718371201
 31
0.0
  0
ARC
  5
413
102
{ACAD_XDICTIONARY
360
411
102
}
330
1F
100
AcDbEntity
  8
Main lines
100
AcDbCircle
 10
600.7266596696228
 20
136.4096683078064
 30
0.0
 40
1.0
100
AcDbArc
 50
-90.0
 51
0.0
  0
ARC
  5
416
102
{ACAD_XDICTIONARY
360
414
102
}
330
1F
100
AcDbEntity
  8
Main lines
100
AcDbCircle
 10
598.7266596696228
 20
136.4096683078064
 30
0.0
 40
1.0
100
AcDbArc
 50
-90.0
 51
0.0
  0
LINE
  5
419
102
{ACAD_XDICTIONARY
360
417
102
}
330
1F
100
AcDbEntity
  8
Main lines
100
AcDbLine
 10
607.7329736459811
 20
145.0913718371202
 30
0.0
 11
615.2266596696227
 21
145.0913718371202
 31
0.0
  0
LINE
  5
41C
102
{ACAD_XDICTIONARY
360
41A
102
}
330
1F
100
AcDbEntity
  8
Main lines
100
AcDbLine
 10
605.2266596696228
 20
150.5297528371203
 30
0.0
 11
615.2266596696227
 21
150.5297528371203
 31
0.0
  0
LINE
  5
41F
102
{ACAD_XDICTIONARY
360
41D
102
}
330
1F
100
AcDbEntity
  8
Main lines
100
AcDbLine
 10
601.7266596696227
 20
145.0913718371201
 30
0.0
 11
611.4798166578018
 21
145.0913718371202
 31
0.0
  0
ARC
  5
422
102
{ACAD_XDICTIONARY
360
420
102
}
330
1F
100
AcDbEntity
  8
Main lines
100
AcDbCircle
 10
605.2266596696228
 20
155.5297528371203
 30
0.0
 40
5.0
100
AcDbArc
 50
180.0
 51
270.0
  0
ARC
  5
425
102
{ACAD_XDICTIONARY
360
423
102
}
330
1F
100
AcDbEntity
  8
Main lines
100
AcDbCircle
 10
615.2266596696227
 20
148.5297528371203
 30
0.0
 40
2.0
100
AcDbArc
 50
0.0
 51
90.0
  0
ARC
  5
428
102
{ACAD_XDICTIONARY
360
426
102
}
330
1F
100
AcDbEntity
  8
Main lines
100
AcDbCircle
 10
615.2266596696227
 20
147.0913718371202
 30
0.0
 40
2.0
100
AcDbArc
 50
-90.0
 51
0.0
  0
LINE
  5
42B
102
{ACAD_XDICTIONARY
360
429
102
}
330
1F
100
AcDbEntity
  8
Main lines
100
AcDbLine
 10
617.2266596696227
 20
147.0913718371202
 30
0.0
 11
617.2266596696227
 21
148.5297528371203
 31
0.0
  0
LINE
  5
42E
102
{ACAD_XDICTIONARY
360
42C
102
}
330
1F
100
AcDbEntity
  8
Main lines
100
AcDbLine
 10
577.2191594790451
 20
222.4151238747783
 30
0.0
 11
617.2191829427336
 21
222.4151238747783
 31
0.0
  0
LINE
  5
431
102
{ACAD_XDICTIONARY
360
42F
102
}
330
1F
100
AcDbEntity
  8
Main lines
100
AcDbLine
 10
577.2191594790451
 20
222.4151238747783
 30
0.0
 11
617.2191829427336
 21
222.4151238747783
 31
0.0
  0
LINE
  5
434
102
{ACAD_XDICTIONARY
360
432
102
}
330
1F
100
AcDbEntity
  8
Main lines
100
AcDbLine
 10
577.2191087234593
 20
222.9151238747783
 30
0.0
 11
617.2191319363262
 21
222.9191716212391
 31
0.0
  0
LINE
  5
437
102
{ACAD_XDICTIONARY
360
435
102
}
330
1F
100
AcDbEntity
  8
Main lines
100
AcDbLine
 10
579.21989986522
 20
215.1153262619188
 30
0.0
 11
589.2206298627641
 21
215.1163382718179
 31
0.0
  0
ARC
  5
43A
102
{ACAD_XDICTIONARY
360
438
102
}
330
1F
100
AcDbEntity
  8
Main lines
100
AcDbCircle
 10
579.2196974780155
 20
217.1153262516787
 30
0.0
 40
2.000000000000042
100
AcDbArc
 50
-179.9941838383136
 51
-89.99420203366513
  0
ARC
  5
43D
102
{ACAD_XDICTIONARY
360
43B
102
}
330
1F
100
AcDbEntity
  8
Main lines
100
AcDbCircle
 10
589.2211358307754
 20
210.1163382974182
 30
0.0
 40
5.000000000000005
100
AcDbArc
 50
0.0057979663338922
 51
90.00579796633487
  0
LINE
  5
440
102
{ACAD_XDICTIONARY
360
43E
102
}
330
1F
100
AcDbEntity
  8
Main lines
100
AcDbLine
 10
605.2206297501224
 20
215.1179573694512
 30
0.0
 11
615.219921256668
 21
215.1189692337841
 31
0.0
  0
ARC
  5
443
102
{ACAD_XDICTIONARY
360
441
102
}
330
1F
100
AcDbEntity
  8
Main lines
100
AcDbCircle
 10
605.2211357181338
 20
210.1179573950515
 30
0.0
 40
5.000000000000005
100
AcDbArc
 50
90.00579796633487
 51
180.0057979663339
  0
ARC
  5
446
102
{ACAD_XDICTIONARY
360
444
102
}
330
1F
100
AcDbEntity
  8
Main lines
100
AcDbCircle
 10
615.2197188694636
 20
217.118969223544
 30
0.0
 40
2.000000000000016
100
AcDbArc
 50
-89.99420203366513
 51
0.005797966334055
  0
HATCH
  5
447
330
1F
100
AcDbEntity
  8
Main lines
  6
Durchgehend
100
AcDbHatch
 10
0.0
 20
0.0
 30
0.0
210
0.0
220
0.0
230
1.0
  2
ANSI31
 70
     0
 71
     0
 91
        2
 92
        3
 72
     0
 73
     1
 93
      117
 10
579.2266596696227
 20
381.1388759124368
 10
579.0176027430874
 20
381.1279197031734
 10
578.8108362879872
 20
381.0951711139044
 10
578.6086256808728
 20
381.0409889450272
 10
578.413186383471
 20
380.9659668277221
 10
578.2266596696227
 20
380.8709267200057
 10
578.0510891650378
 20
380.7569099011868
 10
577.888398456905
 20
380.6251655633916
 10
577.7403700186679
 20
380.4771371251546
 10
577.6086256808728
 20
380.3144464170218
 10
577.4946088620538
 20
380.1388759124368
 10
577.3995687543375
 20
379.9523491985884
 10
577.3245466370324
 20
379.7569099011868
 10
577.2703644681551
 20
379.5546992940723
 10
577.2376158788861
 20
379.3479328389722
 10
577.2266596696227
 20
379.1388759124368
 10
577.2266596696228
 20
377.7004949124368
 10
577.2376158788862
 20
377.4914379859015
 10
577.2703644681552
 20
377.2846715308013
 10
577.3245466370325
 20
377.0824609236869
 10
577.3995687543376
 20
376.8870216262852
 10
577.494608862054
 20
376.7004949124368
 10
577.6086256808729
 20
376.5249244078519
 10
577.740370018668
 20
376.3622336997191
 10
577.8883984569051
 20
376.214205261482
 10
578.0510891650379
 20
376.0824609236869
 10
578.2266596696228
 20
375.9684441048679
 10
578.4131863834712
 20
375.8734039971516
 10
578.6086256808729
 20
375.7983818798465
 10
578.8108362879873
 20
375.7441997109692
 10
579.0176027430875
 20
375.7114511217002
 10
579.2266596696228
 20
375.7004949124368
 10
589.2266596696227
 20
375.7004949124368
 10
589.7168083126855
 20
375.6764123462075
 10
590.202235340885
 20
375.6043966355182
 10
590.6782646227985
 20
375.4851415096178
 10
591.1403105557425
 20
375.3197957562932
 10
591.5839222390047
 20
375.1099521555666
 10
592.0048263494881
 20
374.857632136403
 10
592.398968306746
 20
374.5652663042312
 10
592.7625513308627
 20
374.2356710268579
 10
593.0920730169348
 20
373.8720213043215
 10
593.3843590738309
 20
373.477820184033
 10
593.6365939022216
 20
373.0568650158271
 10
593.8463477173232
 20
372.613210871991
 10
594.0115999550777
 20
372.1511314846454
 10
594.1307587363013
 20
371.6750780767699
 10
594.2026762012977
 20
371.189636483454
 10
594.2266595672212
 20
370.6994829764262
 10
594.221135805175
 20
316.1134034841275
 10
594.1970098451217
 20
315.6233202213633
 10
594.1249634982207
 20
315.1379616010747
 10
594.0056906101775
 20
314.6620018920993
 10
593.8403398441048
 20
314.2000248466205
 10
593.6305036182702
 20
313.7564795561285
 10
593.3782027702362
 20
313.3356376042374
 10
593.0858670950913
 20
312.9415519289994
 10
592.756311945194
 20
312.5780177908964
 10
592.392711116791
 20
312.2485362224061
 10
591.9985662846243
 20
311.9562803111461
 10
591.5776732788892
 20
311.7040646413051
 10
591.1340855293141
 20
311.4943181876588
 10
590.6720750284176
 20
311.3290609232149
 10
590.1960911898838
 20
311.2098843657689
 10
589.7107179982768
 20
311.1379362507174
 10
589.220629862764
 20
311.1139094777392
 10
579.2198998652201
 20
311.1149214876382
 10
579.0108418731679
 20
311.1039864380761
 10
578.8040721459039
 20
311.0712587855941
 10
578.6018560949141
 20
311.0170971010568
 10
578.4064092406745
 20
310.9420947909743
 10
578.2198729389553
 20
310.847073596019
 10
578.0442909196875
 20
310.733074587867
 10
577.88158689544
 20
310.6013467630025
 10
577.7335434848303
 20
310.4533333584579
 10
577.60178268179
 20
310.2906560394118
 10
577.4877480846668
 20
310.1150971318943
 10
577.3926890798651
 20
309.928580095257
 10
577.3176471533134
 20
309.7331484483591
 10
577.2634444797302
 20
309.5309433803557
 10
577.2306749147102
 20
309.324180291391
 10
577.21969748832
 20
309.1151245202205
 10
577.2191594790451
 20
303.8151238747787
 10
597.2266596696227
 20
303.8151238747788
 10
597.2266596696228
 20
390.8205794417506
 10
595.7266596696229
 20
390.8205794417507
 10
595.6221312063552
 20
390.815101337119
 10
595.5187479788052
 20
390.7987270424845
 10
595.417642675248
 20
390.7716359580459
 10
595.3199230265471
 20
390.7341248993933
 10
595.2266596696229
 20
390.6866048455351
 10
595.1388744173305
 20
390.6295964361256
 10
595.057529063264
 20
390.5637242672281
 10
594.9835148441455
 20
390.4897100481095
 10
594.917642675248
 20
390.4083646940431
 10
594.8606342658385
 20
390.3205794417507
 10
594.8131142119803
 20
390.2273160848265
 10
594.7756031533278
 20
390.1295964361256
 10
594.7485120688891
 20
390.0284911325684
 10
594.7321377742546
 20
389.9251079050183
 10
594.7266596696229
 20
389.8205794417507
 10
594.7266596696228
 20
383.1388759124371
 10
594.7157034603594
 20
382.9298189859018
 10
594.6829548710904
 20
382.7230525308016
 10
594.6287727022132
 20
382.5208419236872
 10
594.553750584908
 20
382.3254026262855
 10
594.4587104771916
 20
382.1388759124371
 10
594.3446936583728
 20
381.9633054078522
 10
594.2129493205776
 20
381.8006146997194
 10
594.0649208823405
 20
381.6525862614823
 10
593.9022301742078
 20
381.5208419236873
 10
593.7266596696228
 20
381.4068251048683
 10
593.5401329557744
 20
381.311784997152
 10
593.3446936583728
 20
381.2367628798468
 10
593.1424830512584
 20
381.1825807109695
 10
592.9357165961582
 20
381.1498321217006
 10
592.7266596696229
 20
381.1388759124371
 97
        0
 92
        3
 72
     0
 73
     1
 93
      119
 10
607.7329736459811
 20
381.1388759124369
 10
601.7266596696227
 20
381.138875912437
 10
601.5306253889636
 20
381.1485064590926
 10
601.3364790255904
 20
381.1773053516305
 10
601.1460903151137
 20
381.2249952409726
 10
600.9612928048925
 20
381.2911168474145
 10
600.7838661959706
 20
381.3750333837403
 10
600.6155192035834
 20
381.4759366878319
 10
600.4578731012954
 20
381.5928550057116
 10
600.3124461072496
 20
381.7246623500639
 10
600.1806387628972
 20
381.8700893441097
 10
600.0637204450176
 20
382.0277354463978
 10
599.962817140926
 20
382.196082438785
 10
599.8789006046001
 20
382.3735090477068
 10
599.8127789981583
 20
382.5583065579281
 10
599.7650891088163
 20
382.7486952684048
 10
599.7362902162782
 20
382.9428416317779
 10
599.7266596696227
 20
383.138875912437
 10
599.7266596696228
 20
389.8205794417507
 10
599.7211815649911
 20
389.9251079050183
 10
599.7048072703566
 20
390.0284911325684
 10
599.6777161859179
 20
390.1295964361256
 10
599.6402051272654
 20
390.2273160848265
 10
599.5926850734072
 20
390.3205794417507
 10
599.5356766639977
 20
390.4083646940431
 10
599.4698044951002
 20
390.4897100481095
 10
599.3957902759817
 20
390.5637242672281
 10
599.3144449219153
 20
390.6295964361256
 10
599.2266596696228
 20
390.6866048455351
 10
599.1333963126986
 20
390.7341248993933
 10
599.0356766639977
 20
390.7716359580458
 10
598.9345713604406
 20
390.7987270424845
 10
598.8311881328905
 20
390.815101337119
 10
598.7266596696228
 20
390.8205794417507
 10
597.2266596696228
 20
390.8205794417507
 10
597.2266596696227
 20
303.8151238747788
 10
617.2191829427336
 20
303.8151238747787
 10
617.2195052603786
 20
307.0002821862663
 10
617.219405096019
 20
307.0002821964023
 10
617.2196237080113
 20
309.1307884402295
 10
617.2067783612949
 20
309.3384229204461
 10
617.1724344812778
 20
309.5435998641128
 10
617.1169636436734
 20
309.7440994064627
 10
617.040966002455
 20
309.9377522887969
 10
616.9452637966283
 20
310.1224633282801
 10
616.8308924542049
 20
310.29623408629
 10
616.6990893896277
 20
310.4571844900644
 10
616.5512806158492
 20
310.6035731737157
 10
616.3890653159127
 20
310.7338163185395
 10
616.2141985409588
 20
310.8465047887761
 10
616.0285722218531
 20
310.9404193774316
 10
615.8341946998753
 20
311.0145439972072
 10
615.6331689979328
 20
311.0680766738221
 10
615.427670067387
 20
311.1004382227901
 10
615.219921256668
 20
311.1112785157729
 10
605.2206297501224
 20
311.1122903801059
 10
604.6979902082057
 20
311.139733791183
 10
604.1810823579713
 20
311.2216575725422
 10
603.6755695499958
 20
311.3571641500913
 10
603.1869902883889
 20
311.5447688854101
 10
602.7206975497826
 20
311.7824163417596
 10
602.2818001349991
 20
312.0675028038772
 10
601.87510669596
 20
312.3969048048256
 10
601.5050730510893
 20
312.7670133473508
 10
601.175753366435
 20
313.1737734448105
 10
600.8907557373765
 20
313.6127285484571
 10
600.6532026575775
 20
314.0790693743177
 10
600.4656968082913
 20
314.567686594716
 10
600.330292542841
 20
315.0732268171358
 10
600.2484733786939
 20
315.590151237109
 10
600.2211357437342
 20
316.1127963225169
 10
600.2266596696228
 20
370.7004949124403
 10
600.2540501927817
 20
371.2231372287783
 10
600.3359216659544
 20
371.7400533665286
 10
600.471377088148
 20
372.2455798843142
 10
600.6589323814109
 20
372.7341781278182
 10
600.8965326507018
 20
373.2004949124388
 10
601.1815746977494
 20
373.6394211739009
 10
601.5109355422371
 20
374.0461479442325
 10
601.8810066378298
 20
374.4162190398249
 10
602.2877334081617
 20
374.7455798843124
 10
602.7266596696239
 20
375.0306219313596
 10
603.1929764542448
 20
375.2682222006502
 10
603.6815746977488
 20
375.4557774939128
 10
604.1871012155345
 20
375.591232916106
 10
604.7040173532848
 20
375.6731043892783
 10
605.2266596696229
 20
375.7004949124369
 10
615.2266596696227
 20
375.7004949124367
 10
615.4357165961579
 20
375.7114511217002
 10
615.6424830512582
 20
375.7441997109692
 10
615.8446936583725
 20
375.7983818798464
 10
616.0401329557743
 20
375.8734039971515
 10
616.2266596696227
 20
375.9684441048678
 10
616.4022301742076
 20
376.0824609236868
 10
616.5649208823404
 20
376.2142052614819
 10
616.7129493205774
 20
376.362233699719
 10
616.8446936583725
 20
376.5249244078518
 10
616.9587104771915
 20
376.7004949124367
 10
617.0537505849079
 20
376.8870216262852
 10
617.1287727022129
 20
377.0824609236868
 10
617.1829548710903
 20
377.2846715308012
 10
617.2157034603592
 20
377.4914379859014
 10
617.2266596696227
 20
377.7004949124367
 10
617.2266596696227
 20
379.1388759124369
 10
617.2157034603592
 20
379.3479328389722
 10
617.1829548710903
 20
379.5546992940724
 10
617.1287727022129
 20
379.7569099011868
 10
617.0537505849079
 20
379.9523491985885
 10
616.9587104771915
 20
380.1388759124369
 10
616.8446936583725
 20
380.3144464170218
 10
616.7129493205774
 20
380.4771371251546
 10
616.5649208823404
 20
380.6251655633917
 10
616.4022301742076
 20
380.7569099011868
 10
616.2266596696227
 20
380.8709267200058
 10
616.0401329557743
 20
380.9659668277221
 10
615.8446936583725
 20
381.0409889450272
 10
615.6424830512582
 20
381.0951711139045
 10
615.4357165961579
 20
381.1279197031735
 10
615.2266596696227
 20
381.1388759124369
 97
        0
 75
     0
 76
     1
 52
0.0
 41
1.0
 77
     0
 78
     1
 53
45.0
 43
342.3180954027453
 44
94.96076535061252
 45
-2.245064030267288
 46
2.245064030267288
 79
     1
 49
1.0
 98
        0
  0
LINE
  5
44A
102
{ACAD_XDICTIONARY
360
448
102
}
330
1F
100
AcDbEntity
  8
Main lines
100
AcDbLine
 10
617.2266596696227
 20
377.7004949124367
 30
0.0
 11
617.219405096019
 21
307.0002821964023
 31
0.0
  0
LINE
  5
44D
102
{ACAD_XDICTIONARY
360
44B
102
}
330
1F
100
AcDbEntity
  8
Main lines
100
AcDbLine
 10
577.2266596696228
 20
378.4196854124368
 30
0.0
 11
577.2195245569011
 21
307.4115542020954
 31
0.0
  0
LINE
  5
450
102
{ACAD_XDICTIONARY
360
44E
102
}
330
1F
100
AcDbEntity
  8
Main lines
100
AcDbLine
 10
600.2266596696228
 20
370.7004949124368
 30
0.0
 11
600.2211357437341
 21
316.1127963225169
 31
0.0
  0
LINE
  5
453
102
{ACAD_XDICTIONARY
360
451
102
}
330
1F
100
AcDbEntity
  8
Main lines
100
AcDbLine
 10
594.2266596696227
 20
370.7004949124368
 30
0.0
 11
594.221135805175
 21
316.1134034841275
 31
0.0
  0
ARC
  5
456
102
{ACAD_XDICTIONARY
360
454
102
}
330
1F
100
AcDbEntity
  8
Main lines
100
AcDbCircle
 10
327.6866445434581
 20
263.1151238747785
 30
0.0
 40
127.5
100
AcDbArc
 50
-2.608627327529254
 51
2.600731374231881
  0
ARC
  5
459
102
{ACAD_XDICTIONARY
360
457
102
}
330
1F
100
AcDbEntity
  8
Main lines
100
AcDbCircle
 10
454.0555561255558
 20
257.3576777781167
 30
0.0
 40
1.000000000000003
100
AcDbArc
 50
-79.9999999999982
 51
-2.608627327529247
  0
ARC
  5
45C
102
{ACAD_XDICTIONARY
360
45A
102
}
330
1F
100
AcDbEntity
  8
Main lines
100
AcDbCircle
 10
454.1231134086407
 20
259.1064656324631
 30
0.0
 40
0.999999999999987
100
AcDbArc
 50
-1.815949854028077
 51
90.00000000000325
  0
ARC
  5
45F
102
{ACAD_XDICTIONARY
360
45D
102
}
330
1F
100
AcDbEntity
  8
Main lines
100
AcDbCircle
 10
454.1236612394138
 20
267.1064656324631
 30
0.0
 40
1.0
100
AcDbArc
 50
-90.0
 51
1.808102756244457
  0
ARC
  5
462
102
{ACAD_XDICTIONARY
360
460
102
}
330
1F
100
AcDbEntity
  8
Main lines
100
AcDbCircle
 10
454.0563483614224
 20
268.8551549687697
 30
0.0
 40
0.9999999999999911
100
AcDbArc
 50
2.60073137423193
 51
80.00000000000139
  0
LINE
  5
465
102
{ACAD_XDICTIONARY
360
463
102
}
330
1F
100
AcDbEntity
  8
Main lines
100
AcDbLine
 10
617.2197188592233
 20
309.1110761388086
 30
0.0
 11
617.2150817561467
 21
263.2870027918326
 31
0.0
  0
LINE
  5
468
102
{ACAD_XDICTIONARY
360
466
102
}
330
1F
100
AcDbEntity
  8
Main lines
100
AcDbLine
 10
577.21969748832
 20
309.1151245202205
 30
0.0
 11
577.2150404201011
 21
263.2377285082221
 31
0.0
  0
LINE
  5
46B
102
{ACAD_XDICTIONARY
360
469
102
}
330
1F
100
AcDbEntity
  8
Main lines
100
AcDbLine
 10
577.217058197793
 20
243.1151238747783
 30
0.0
 11
617.2170882351558
 21
243.1151238747783
 31
0.0
  0
LINE
  5
46E
102
{ACAD_XDICTIONARY
360
46C
102
}
330
1F
100
AcDbEntity
  8
Main lines
100
AcDbLine
 10
577.217058197793
 20
283.1151238747788
 30
0.0
 11
617.2170882351558
 21
283.1151238747788
 31
0.0
  0
LINE
  5
471
102
{ACAD_XDICTIONARY
360
46F
102
}
330
1F
100
AcDbEntity
  8
Main lines
100
AcDbLine
 10
577.21535492884
 20
263.1151238747785
 30
0.0
 11
577.2150404201011
 21
262.992519241335
 31
0.0
  0
LINE
  5
474
102
{ACAD_XDICTIONARY
360
472
102
}
330
1F
100
AcDbEntity
  8
Main lines
100
AcDbLine
 10
577.21535492884
 20
263.1151238747785
 30
0.0
 11
577.2150404201011
 21
263.2377285082221
 31
0.0
  0
LINE
  5
477
102
{ACAD_XDICTIONARY
360
475
102
}
330
1F
100
AcDbEntity
  8
Main lines
100
AcDbLine
 10
617.2155226100336
 20
263.1151238747785
 30
0.0
 11
617.2150817561467
 21
262.9432449577245
 31
0.0
  0
LINE
  5
47A
102
{ACAD_XDICTIONARY
360
478
102
}
330
1F
100
AcDbEntity
  8
Main lines
100
AcDbLine
 10
617.2155226100336
 20
263.1151238747785
 30
0.0
 11
617.2150817561467
 21
263.2870027918326
 31
0.0
  0
LINE
  5
47D
102
{ACAD_XDICTIONARY
360
47B
102
}
330
1F
100
AcDbEntity
  8
Main lines
100
AcDbLine
 10
577.2191087234593
 20
303.3151238747787
 30
0.0
 11
617.2191319363262
 21
303.3110761283179
 31
0.0
  0
LINE
  5
480
102
{ACAD_XDICTIONARY
360
47E
102
}
330
1F
100
AcDbEntity
  8
Main lines
100
AcDbLine
 10
577.2191594790451
 20
303.8151238747787
 30
0.0
 11
617.2191829427336
 21
303.8151238747787
 31
0.0
  0
ARC
  5
483
102
{ACAD_XDICTIONARY
360
481
102
}
330
1F
100
AcDbEntity
  8
Main lines
100
AcDbCircle
 10
579.2196974780155
 20
309.1149214978784
 30
0.0
 40
2.000000000000031
100
AcDbArc
 50
89.99420203366513
 51
179.9941838383145
  0
LINE
  5
486
102
{ACAD_XDICTIONARY
360
484
102
}
330
1F
100
AcDbEntity
  8
Main lines
100
AcDbLine
 10
579.21989986522
 20
311.1149214876382
 30
0.0
 11
589.2206298627641
 21
311.1139094777392
 31
0.0
  0
ARC
  5
489
102
{ACAD_XDICTIONARY
360
487
102
}
330
1F
100
AcDbEntity
  8
Main lines
100
AcDbCircle
 10
589.2211358307754
 20
316.1139094521388
 30
0.0
 40
5.00000000000002
100
AcDbArc
 50
-90.00579796633487
 51
-0.0057979663342178
  0
ARC
  5
48C
102
{ACAD_XDICTIONARY
360
48A
102
}
330
1F
100
AcDbEntity
  8
Main lines
100
AcDbCircle
 10
615.2197188694636
 20
309.1112785260131
 30
0.0
 40
2.000000000000002
100
AcDbArc
 50
-0.0057979663332409
 51
89.99420203366513
  0
LINE
  5
48F
102
{ACAD_XDICTIONARY
360
48D
102
}
330
1F
100
AcDbEntity
  8
Main lines
100
AcDbLine
 10
605.2206297501224
 20
311.1122903801059
 30
0.0
 11
615.219921256668
 21
311.1112785157729
 31
0.0
  0
ARC
  5
492
102
{ACAD_XDICTIONARY
360
490
102
}
330
1F
100
AcDbEntity
  8
Main lines
100
AcDbCircle
 10
605.2211357181338
 20
316.1122903545055
 30
0.0
 40
5.00000000000002
100
AcDbArc
 50
179.9942020336658
 51
269.9942020336651
  0
LINE
  5
495
102
{ACAD_XDICTIONARY
360
493
102
}
330
1F
100
AcDbEntity
  8
Main lines
100
AcDbLine
 10
597.2266596696228
 20
390.8205794417507
 30
0.0
 11
594.7266596696228
 21
390.8205794417507
 31
0.0
  0
LINE
  5
498
102
{ACAD_XDICTIONARY
360
496
102
}
330
1F
100
AcDbEntity
  8
Main lines
100
AcDbLine
 10
600.7266596696228
 20
390.8205794417507
 30
0.0
 11
593.7266596696228
 21
390.8205794417507
 31
0.0
  0
LINE
  5
49B
102
{ACAD_XDICTIONARY
360
499
102
}
330
1F
100
AcDbEntity
  8
Main lines
100
AcDbLine
 10
595.7266596696228
 20
390.8205794417507
 30
0.0
 11
598.7266596696228
 21
390.8205794417507
 31
0.0
  0
LINE
  5
49E
102
{ACAD_XDICTIONARY
360
49C
102
}
330
1F
100
AcDbEntity
  8
Main lines
100
AcDbLine
 10
595.7266596696228
 20
390.8205794417507
 30
0.0
 11
598.7266596696228
 21
390.8205794417507
 31
0.0
  0
LINE
  5
4A1
102
{ACAD_XDICTIONARY
360
49F
102
}
330
1F
100
AcDbEntity
  8
Main lines
100
AcDbLine
 10
594.7266596696228
 20
390.8205794417507
 30
0.0
 11
599.7266596696228
 21
390.8205794417507
 31
0.0
  0
LINE
  5
4A4
102
{ACAD_XDICTIONARY
360
4A2
102
}
330
1F
100
AcDbEntity
  8
Main lines
100
AcDbLine
 10
594.7266596696228
 20
383.1388759124371
 30
0.0
 11
594.7266596696228
 21
389.8205794417507
 31
0.0
  0
LINE
  5
4A7
102
{ACAD_XDICTIONARY
360
4A5
102
}
330
1F
100
AcDbEntity
  8
Main lines
100
AcDbLine
 10
594.7266596696228
 20
389.8205794417507
 30
0.0
 11
594.7266596696228
 21
383.2589604417508
 31
0.0
  0
LINE
  5
4AA
102
{ACAD_XDICTIONARY
360
4A8
102
}
330
1F
100
AcDbEntity
  8
Main lines
100
AcDbLine
 10
594.7266596696228
 20
389.8205794417507
 30
0.0
 11
594.7266596696228
 21
383.2703725303293
 31
0.0
  0
LINE
  5
4AD
102
{ACAD_XDICTIONARY
360
4AB
102
}
330
1F
100
AcDbEntity
  8
Main lines
100
AcDbLine
 10
592.7266596696228
 20
389.8205794417507
 30
0.0
 11
592.7266596696228
 21
383.1388759124371
 31
0.0
  0
LINE
  5
4B0
102
{ACAD_XDICTIONARY
360
4AE
102
}
330
1F
100
AcDbEntity
  8
Main lines
100
AcDbLine
 10
579.2266596696228
 20
381.1388759124368
 30
0.0
 11
592.7266596696229
 21
381.1388759124371
 31
0.0
  0
LINE
  5
4B3
102
{ACAD_XDICTIONARY
360
4B1
102
}
330
1F
100
AcDbEntity
  8
Main lines
100
AcDbLine
 10
579.2266596696228
 20
375.7004949124368
 30
0.0
 11
589.2266596696227
 21
375.7004949124368
 31
0.0
  0
ARC
  5
4B6
102
{ACAD_XDICTIONARY
360
4B4
102
}
330
1F
100
AcDbEntity
  8
Main lines
100
AcDbCircle
 10
579.2266596696228
 20
377.7004949124368
 30
0.0
 40
2.0
100
AcDbArc
 50
180.0
 51
270.0
  0
ARC
  5
4B9
102
{ACAD_XDICTIONARY
360
4B7
102
}
330
1F
100
AcDbEntity
  8
Main lines
100
AcDbCircle
 10
579.2266596696228
 20
379.1388759124368
 30
0.0
 40
2.0
100
AcDbArc
 50
90.0
 51
180.0
  0
LINE
  5
4BC
102
{ACAD_XDICTIONARY
360
4BA
102
}
330
1F
100
AcDbEntity
  8
Main lines
100
AcDbLine
 10
577.2266596696228
 20
377.7004949124368
 30
0.0
 11
577.2266596696228
 21
379.1388759124368
 31
0.0
  0
ARC
  5
4BF
102
{ACAD_XDICTIONARY
360
4BD
102
}
330
1F
100
AcDbEntity
  8
Main lines
100
AcDbCircle
 10
589.2266596696227
 20
370.7004949124368
 30
0.0
 40
5.0
100
AcDbArc
 50
0.0
 51
90.0
  0
ARC
  5
4C2
102
{ACAD_XDICTIONARY
360
4C0
102
}
330
1F
100
AcDbEntity
  8
Main lines
100
AcDbCircle
 10
590.7266596696228
 20
383.1388759124371
 30
0.0
 40
2.0
100
AcDbArc
 50
-90.0
 51
0.0
  0
ARC
  5
4C5
102
{ACAD_XDICTIONARY
360
4C3
102
}
330
1F
100
AcDbEntity
  8
Main lines
100
AcDbCircle
 10
592.7266596696228
 20
383.1388759124371
 30
0.0
 40
2.0
100
AcDbArc
 50
-90.0
 51
0.0
  0
ARC
  5
4C8
102
{ACAD_XDICTIONARY
360
4C6
102
}
330
1F
100
AcDbEntity
  8
Main lines
100
AcDbCircle
 10
592.7266596696228
 20
383.1388759124371
 30
0.0
 40
2.0
100
AcDbArc
 50
-90.0
 51
0.0
  0
ARC
  5
4CB
102
{ACAD_XDICTIONARY
360
4C9
102
}
330
1F
100
AcDbEntity
  8
Main lines
100
AcDbCircle
 10
595.7266596696228
 20
389.8205794417507
 30
0.0
 40
1.0
100
AcDbArc
 50
90.0
 51
180.0
  0
ARC
  5
4CE
102
{ACAD_XDICTIONARY
360
4CC
102
}
330
1F
100
AcDbEntity
  8
Main lines
100
AcDbCircle
 10
593.7266596696228
 20
389.8205794417507
 30
0.0
 40
1.0
100
AcDbArc
 50
90.0
 51
180.0
  0
LINE
  5
4D1
102
{ACAD_XDICTIONARY
360
4CF
102
}
330
1F
100
AcDbEntity
  8
Main lines
100
AcDbLine
 10
599.7266596696228
 20
389.8205794417507
 30
0.0
 11
599.7266596696228
 21
383.138875912437
 31
0.0
  0
LINE
  5
4D4
102
{ACAD_XDICTIONARY
360
4D2
102
}
330
1F
100
AcDbEntity
  8
Main lines
100
AcDbLine
 10
599.7266596696228
 20
389.8205794417507
 30
0.0
 11
599.7266596696229
 21
383.2703725303293
 31
0.0
  0
LINE
  5
4D7
102
{ACAD_XDICTIONARY
360
4D5
102
}
330
1F
100
AcDbEntity
  8
Main lines
100
AcDbLine
 10
601.7266596696228
 20
389.8205794417507
 30
0.0
 11
601.7266596696227
 21
383.138875912437
 31
0.0
  0
LINE
  5
4DA
102
{ACAD_XDICTIONARY
360
4D8
102
}
330
1F
100
AcDbEntity
  8
Main lines
100
AcDbLine
 10
601.7266596696227
 20
381.138875912437
 30
0.0
 11
611.4798166578018
 21
381.1388759124369
 31
0.0
  0
LINE
  5
4DD
102
{ACAD_XDICTIONARY
360
4DB
102
}
330
1F
100
AcDbEntity
  8
Main lines
100
AcDbLine
 10
605.2266596696228
 20
375.7004949124368
 30
0.0
 11
615.2266596696227
 21
375.7004949124367
 31
0.0
  0
LINE
  5
4E0
102
{ACAD_XDICTIONARY
360
4DE
102
}
330
1F
100
AcDbEntity
  8
Main lines
100
AcDbLine
 10
607.7329736459811
 20
381.1388759124369
 30
0.0
 11
615.2266596696227
 21
381.1388759124369
 31
0.0
  0
ARC
  5
4E3
102
{ACAD_XDICTIONARY
360
4E1
102
}
330
1F
100
AcDbEntity
  8
Main lines
100
AcDbCircle
 10
605.2266596696228
 20
370.7004949124368
 30
0.0
 40
5.0
100
AcDbArc
 50
90.0
 51
180.0
  0
ARC
  5
4E6
102
{ACAD_XDICTIONARY
360
4E4
102
}
330
1F
100
AcDbEntity
  8
Main lines
100
AcDbCircle
 10
603.7266596696227
 20
383.138875912437
 30
0.0
 40
2.0
100
AcDbArc
 50
180.0
 51
270.0
  0
ARC
  5
4E9
102
{ACAD_XDICTIONARY
360
4E7
102
}
330
1F
100
AcDbEntity
  8
Main lines
100
AcDbCircle
 10
601.7266596696228
 20
383.138875912437
 30
0.0
 40
2.0
100
AcDbArc
 50
180.0
 51
270.0
  0
ARC
  5
4EC
102
{ACAD_XDICTIONARY
360
4EA
102
}
330
1F
100
AcDbEntity
  8
Main lines
100
AcDbCircle
 10
615.2266596696227
 20
377.7004949124367
 30
0.0
 40
2.0
100
AcDbArc
 50
-90.0
 51
0.0
  0
ARC
  5
4EF
102
{ACAD_XDICTIONARY
360
4ED
102
}
330
1F
100
AcDbEntity
  8
Main lines
100
AcDbCircle
 10
615.2266596696227
 20
379.1388759124369
 30
0.0
 40
2.0
100
AcDbArc
 50
0.0
 51
90.0
  0
LINE
  5
4F2
102
{ACAD_XDICTIONARY
360
4F0
102
}
330
1F
100
AcDbEntity
  8
Main lines
100
AcDbLine
 10
617.2266596696227
 20
379.1388759124369
 30
0.0
 11
617.2266596696227
 21
377.7004949124367
 31
0.0
  0
ARC
  5
4F5
102
{ACAD_XDICTIONARY
360
4F3
102
}
330
1F
100
AcDbEntity
  8
Main lines
100
AcDbCircle
 10
598.7266596696228
 20
389.8205794417507
 30
0.0
 40
1.0
100
AcDbArc
 50
0.0
 51
90.0
  0
ARC
  5
4F8
102
{ACAD_XDICTIONARY
360
4F6
102
}
330
1F
100
AcDbEntity
  8
Main lines
100
AcDbCircle
 10
600.7266596696228
 20
389.8205794417507
 30
0.0
 40
1.0
100
AcDbArc
 50
0.0
 51
90.0
  0
VIEWPORT
  5
4F9
330
1B
100
AcDbEntity
 67
     1
  8
0
100
AcDbViewport
 10
222.006157751094
 20
381.21259588648
 30
0.0
 40
62.992125984252
 41
50.3937007874016
 68
     1
 69
     1
 12
222.006157751094
 22
381.21259588648
 13
0.0
 23
0.0
 14
5.0
 24
5.0
 15
5.0
 25
5.0
 16
0.0
 26
0.0
 36
1.0
 17
0.0
 27
0.0
 37
0.0
 42
50.0
 43
0.0
 44
0.0
 45
50.3937007874016
 50
0.0
 51
0.0
 72
  1000
 90
    32800
  1

281
     0
 71
     1
 74
     0
110
0.0
120
0.0
130
0.0
111
1.0
121
0.0
131
0.0
112
0.0
122
1.0
132
0.0
 79
     0
146
0.0
170
     0
  0
ENDSEC
  0
SECTION
  2
OBJECTS
  0
DICTIONARY
  5
C
330
0
100
AcDbDictionary
281
     1
  3
ACAD_GROUP
350
D
  3
ACAD_LAYOUT
350
1A
  3
ACAD_MLINESTYLE
350
17
  3
ACAD_PLOTSETTINGS
350
19
  3
ACAD_PLOTSTYLENAME
350
E
  3
ACAD_TABLESTYLE
350
4FB
  3
ACAD_VISUALSTYLE
350
2A
  0
DICTIONARY
  5
54
330
56
100
AcDbDictionary
280
     1
281
     1
  3
TC_OPTIONAL_DATA
360
55
  0
DICTIONARY
  5
57
330
59
100
AcDbDictionary
280
     1
281
     1
  3
TC_OPTIONAL_DATA
360
58
  0
DICTIONARY
  5
5A
330
5C
100
AcDbDictionary
280
     1
281
     1
  3
TC_OPTIONAL_DATA
360
5B
  0
DICTIONARY
  5
5D
330
5F
100
AcDbDictionary
280
     1
281
     1
  3
TC_OPTIONAL_DATA
360
5E
  0
DICTIONARY
  5
60
330
62
100
AcDbDictionary
280
     1
281
     1
  3
TC_OPTIONAL_DATA
360
61
  0
DICTIONARY
  5
63
330
65
100
AcDbDictionary
280
     1
281
     1
  3
TC_OPTIONAL_DATA
360
64
  0
DICTIONARY
  5
66
330
68
100
AcDbDictionary
280
     1
281
     1
  3
TC_OPTIONAL_DATA
360
67
  0
DICTIONARY
  5
69
330
6B
100
AcDbDictionary
280
     1
281
     1
  3
TC_OPTIONAL_DATA
360
6A
  0
DICTIONARY
  5
6C
330
6E
100
AcDbDictionary
280
     1
281
     1
  3
TC_OPTIONAL_DATA
360
6D
  0
DICTIONARY
  5
6F
330
71
100
AcDbDictionary
280
     1
281
     1
  3
TC_OPTIONAL_DATA
360
70
  0
DICTIONARY
  5
74
330
76
100
AcDbDictionary
280
     1
281
     1
  3
TC_OPTIONAL_DATA
360
75
  0
DICTIONARY
  5
77
330
79
100
AcDbDictionary
280
     1
281
     1
  3
TC_OPTIONAL_DATA
360
78
  0
DICTIONARY
  5
7A
330
7C
100
AcDbDictionary
280
     1
281
     1
  3
TC_OPTIONAL_DATA
360
7B
  0
DICTIONARY
  5
7D
330
7F
100
AcDbDictionary
280
     1
281
     1
  3
TC_OPTIONAL_DATA
360
7E
  0
DICTIONARY
  5
80
330
82
100
AcDbDictionary
280
     1
281
     1
  3
TC_OPTIONAL_DATA
360
81
  0
DICTIONARY
  5
83
330
85
100
AcDbDictionary
280
     1
281
     1
  3
TC_OPTIONAL_DATA
360
84
  0
DICTIONARY
  5
86
330
88
100
AcDbDictionary
280
     1
281
     1
  3
TC_OPTIONAL_DATA
360
87
  0
DICTIONARY
  5
89
330
8B
100
AcDbDictionary
280
     1
281
     1
  3
TC_OPTIONAL_DATA
360
8A
  0
DICTIONARY
  5
8C
330
8E
100
AcDbDictionary
280
     1
281
     1
  3
TC_OPTIONAL_DATA
360
8D
  0
DICTIONARY
  5
8F
330
91
100
AcDbDictionary
280
     1
281
     1
  3
TC_OPTIONAL_DATA
360
90
  0
DICTIONARY
  5
92
330
94
100
AcDbDictionary
280
     1
281
     1
  3
TC_OPTIONAL_DATA
360
93
  0
DICTIONARY
  5
95
330
97
100
AcDbDictionary
280
     1
281
     1
  3
TC_OPTIONAL_DATA
360
96
  0
DICTIONARY
  5
98
330
9A
100
AcDbDictionary
280
     1
281
     1
  3
TC_OPTIONAL_DATA
360
99
  0
DICTIONARY
  5
9B
330
9D
100
AcDbDictionary
280
     1
281
     1
  3
TC_OPTIONAL_DATA
360
9C
  0
DICTIONARY
  5
9E
330
A0
100
AcDbDictionary
280
     1
281
     1
  3
TC_OPTIONAL_DATA
360
9F
  0
DICTIONARY
  5
A1
330
A3
100
AcDbDictionary
280
     1
281
     1
  3
TC_OPTIONAL_DATA
360
A2
  0
DICTIONARY
  5
A4
330
A6
100
AcDbDictionary
280
     1
281
     1
  3
TC_OPTIONAL_DATA
360
A5
  0
DICTIONARY
  5
A7
330
A9
100
AcDbDictionary
280
     1
281
     1
  3
TC_OPTIONAL_DATA
360
A8
  0
DICTIONARY
  5
AA
330
AC
100
AcDbDictionary
280
     1
281
     1
  3
TC_OPTIONAL_DATA
360
AB
  0
DICTIONARY
  5
AD
330
AF
100
AcDbDictionary
280
     1
281
     1
  3
TC_OPTIONAL_DATA
360
AE
  0
DICTIONARY
  5
B0
330
B2
100
AcDbDictionary
280
     1
281
     1
  3
TC_OPTIONAL_DATA
360
B1
  0
DICTIONARY
  5
B3
330
B5
100
AcDbDictionary
280
     1
281
     1
  3
TC_OPTIONAL_DATA
360
B4
  0
DICTIONARY
  5
B6
330
B8
100
AcDbDictionary
280
     1
281
     1
  3
TC_OPTIONAL_DATA
360
B7
  0
DICTIONARY
  5
B9
330
BB
100
AcDbDictionary
280
     1
281
     1
  3
TC_OPTIONAL_DATA
360
BA
  0
DICTIONARY
  5
BC
330
BE
100
AcDbDictionary
280
     1
281
     1
  3
TC_OPTIONAL_DATA
360
BD
  0
DICTIONARY
  5
BF
330
C1
100
AcDbDictionary
280
     1
281
     1
  3
TC_OPTIONAL_DATA
360
C0
  0
DICTIONARY
  5
C2
330
C4
100
AcDbDictionary
280
     1
281
     1
  3
TC_OPTIONAL_DATA
360
C3
  0
DICTIONARY
  5
C5
330
C7
100
AcDbDictionary
280
     1
281
     1
  3
TC_OPTIONAL_DATA
360
C6
  0
DICTIONARY
  5
C8
330
CA
100
AcDbDictionary
280
     1
281
     1
  3
TC_OPTIONAL_DATA
360
C9
  0
DICTIONARY
  5
CB
330
CD
100
AcDbDictionary
280
     1
281
     1
  3
TC_OPTIONAL_DATA
360
CC
  0
DICTIONARY
  5
CE
330
D0
100
AcDbDictionary
280
     1
281
     1
  3
TC_OPTIONAL_DATA
360
CF
  0
DICTIONARY
  5
D1
330
D3
100
AcDbDictionary
280
     1
281
     1
  3
TC_OPTIONAL_DATA
360
D2
  0
DICTIONARY
  5
D4
330
D6
100
AcDbDictionary
280
     1
281
     1
  3
TC_OPTIONAL_DATA
360
D5
  0
DICTIONARY
  5
D7
330
D9
100
AcDbDictionary
280
     1
281
     1
  3
TC_OPTIONAL_DATA
360
D8
  0
DICTIONARY
  5
DA
330
DC
100
AcDbDictionary
280
     1
281
     1
  3
TC_OPTIONAL_DATA
360
DB
  0
DICTIONARY
  5
DD
330
DF
100
AcDbDictionary
280
     1
281
     1
  3
TC_OPTIONAL_DATA
360
DE
  0
DICTIONARY
  5
E0
330
E2
100
AcDbDictionary
280
     1
281
     1
  3
TC_OPTIONAL_DATA
360
E1
  0
DICTIONARY
  5
E3
330
E5
100
AcDbDictionary
280
     1
281
     1
  3
TC_OPTIONAL_DATA
360
E4
  0
DICTIONARY
  5
E6
330
E8
100
AcDbDictionary
280
     1
281
     1
  3
TC_OPTIONAL_DATA
360
E7
  0
DICTIONARY
  5
E9
330
EB
100
AcDbDictionary
280
     1
281
     1
  3
TC_OPTIONAL_DATA
360
EA
  0
DICTIONARY
  5
EC
330
EE
100
AcDbDictionary
280
     1
281
     1
  3
TC_OPTIONAL_DATA
360
ED
  0
DICTIONARY
  5
EF
330
F1
100
AcDbDictionary
280
     1
281
     1
  3
TC_OPTIONAL_DATA
360
F0
  0
DICTIONARY
  5
F2
330
F4
100
AcDbDictionary
280
     1
281
     1
  3
TC_OPTIONAL_DATA
360
F3
  0
DICTIONARY
  5
F5
330
F7
100
AcDbDictionary
280
     1
281
     1
  3
TC_OPTIONAL_DATA
360
F6
  0
DICTIONARY
  5
F8
330
FA
100
AcDbDictionary
280
     1
281
     1
  3
TC_OPTIONAL_DATA
360
F9
  0
DICTIONARY
  5
FB
330
FD
100
AcDbDictionary
280
     1
281
     1
  3
TC_OPTIONAL_DATA
360
FC
  0
DICTIONARY
  5
FE
330
100
100
AcDbDictionary
280
     1
281
     1
  3
TC_OPTIONAL_DATA
360
FF
  0
DICTIONARY
  5
101
330
103
100
AcDbDictionary
280
     1
281
     1
  3
TC_OPTIONAL_DATA
360
102
  0
DICTIONARY
  5
104
330
106
100
AcDbDictionary
280
     1
281
     1
  3
TC_OPTIONAL_DATA
360
105
  0
DICTIONARY
  5
107
330
109
100
AcDbDictionary
280
     1
281
     1
  3
TC_OPTIONAL_DATA
360
108
  0
DICTIONARY
  5
10A
330
10C
100
AcDbDictionary
280
     1
281
     1
  3
TC_OPTIONAL_DATA
360
10B
  0
DICTIONARY
  5
10D
330
10F
100
AcDbDictionary
280
     1
281
     1
  3
TC_OPTIONAL_DATA
360
10E
  0
DICTIONARY
  5
110
330
112
100
AcDbDictionary
280
     1
281
     1
  3
TC_OPTIONAL_DATA
360
111
  0
DICTIONARY
  5
113
330
115
100
AcDbDictionary
280
     1
281
     1
  3
TC_OPTIONAL_DATA
360
114
  0
DICTIONARY
  5
116
330
118
100
AcDbDictionary
280
     1
281
     1
  3
TC_OPTIONAL_DATA
360
117
  0
DICTIONARY
  5
119
330
11B
100
AcDbDictionary
280
     1
281
     1
  3
TC_OPTIONAL_DATA
360
11A
  0
DICTIONARY
  5
11C
330
11E
100
AcDbDictionary
280
     1
281
     1
  3
TC_OPTIONAL_DATA
360
11D
  0
DICTIONARY
  5
11F
330
121
100
AcDbDictionary
280
     1
281
     1
  3
TC_OPTIONAL_DATA
360
120
  0
DICTIONARY
  5
122
330
124
100
AcDbDictionary
280
     1
281
     1
  3
TC_OPTIONAL_DATA
360
123
  0
DICTIONARY
  5
125
330
127
100
AcDbDictionary
280
     1
281
     1
  3
TC_OPTIONAL_DATA
360
126
  0
DICTIONARY
  5
128
330
12A
100
AcDbDictionary
280
     1
281
     1
  3
TC_OPTIONAL_DATA
360
129
  0
DICTIONARY
  5
12B
330
12D
100
AcDbDictionary
280
     1
281
     1
  3
TC_OPTIONAL_DATA
360
12C
  0
DICTIONARY
  5
12E
330
130
100
AcDbDictionary
280
     1
281
     1
  3
TC_OPTIONAL_DATA
360
12F
  0
DICTIONARY
  5
131
330
133
100
AcDbDictionary
280
     1
281
     1
  3
TC_OPTIONAL_DATA
360
132
  0
DICTIONARY
  5
134
330
136
100
AcDbDictionary
280
     1
281
     1
  3
TC_OPTIONAL_DATA
360
135
  0
DICTIONARY
  5
137
330
139
100
AcDbDictionary
280
     1
281
     1
  3
TC_OPTIONAL_DATA
360
138
  0
DICTIONARY
  5
13A
330
13C
100
AcDbDictionary
280
     1
281
     1
  3
TC_OPTIONAL_DATA
360
13B
  0
DICTIONARY
  5
13D
330
13F
100
AcDbDictionary
280
     1
281
     1
  3
TC_OPTIONAL_DATA
360
13E
  0
DICTIONARY
  5
140
330
142
100
AcDbDictionary
280
     1
281
     1
  3
TC_OPTIONAL_DATA
360
141
  0
DICTIONARY
  5
143
330
145
100
AcDbDictionary
280
     1
281
     1
  3
TC_OPTIONAL_DATA
360
144
  0
DICTIONARY
  5
146
330
148
100
AcDbDictionary
280
     1
281
     1
  3
TC_OPTIONAL_DATA
360
147
  0
DICTIONARY
  5
149
330
14B
100
AcDbDictionary
280
     1
281
     1
  3
TC_OPTIONAL_DATA
360
14A
  0
DICTIONARY
  5
14C
330
14E
100
AcDbDictionary
280
     1
281
     1
  3
TC_OPTIONAL_DATA
360
14D
  0
DICTIONARY
  5
14F
330
151
100
AcDbDictionary
280
     1
281
     1
  3
TC_OPTIONAL_DATA
360
150
  0
DICTIONARY
  5
152
330
154
100
AcDbDictionary
280
     1
281
     1
  3
TC_OPTIONAL_DATA
360
153
  0
DICTIONARY
  5
155
330
157
100
AcDbDictionary
280
     1
281
     1
  3
TC_OPTIONAL_DATA
360
156
  0
DICTIONARY
  5
158
330
15A
100
AcDbDictionary
280
     1
281
     1
  3
TC_OPTIONAL_DATA
360
159
  0
DICTIONARY
  5
15B
330
15D
100
AcDbDictionary
280
     1
281
     1
  3
TC_OPTIONAL_DATA
360
15C
  0
DICTIONARY
  5
15E
330
160
100
AcDbDictionary
280
     1
281
     1
  3
TC_OPTIONAL_DATA
360
15F
  0
DICTIONARY
  5
161
330
163
100
AcDbDictionary
280
     1
281
     1
  3
TC_OPTIONAL_DATA
360
162
  0
DICTIONARY
  5
164
330
166
100
AcDbDictionary
280
     1
281
     1
  3
TC_OPTIONAL_DATA
360
165
  0
DICTIONARY
  5
167
330
169
100
AcDbDictionary
280
     1
281
     1
  3
TC_OPTIONAL_DATA
360
168
  0
DICTIONARY
  5
16A
330
16C
100
AcDbDictionary
280
     1
281
     1
  3
TC_OPTIONAL_DATA
360
16B
  0
DICTIONARY
  5
16D
330
16F
100
AcDbDictionary
280
     1
281
     1
  3
TC_OPTIONAL_DATA
360
16E
  0
DICTIONARY
  5
170
330
172
100
AcDbDictionary
280
     1
281
     1
  3
TC_OPTIONAL_DATA
360
171
  0
DICTIONARY
  5
173
330
175
100
AcDbDictionary
280
     1
281
     1
  3
TC_OPTIONAL_DATA
360
174
  0
DICTIONARY
  5
176
330
178
100
AcDbDictionary
280
     1
281
     1
  3
TC_OPTIONAL_DATA
360
177
  0
DICTIONARY
  5
179
330
17B
100
AcDbDictionary
280
     1
281
     1
  3
TC_OPTIONAL_DATA
360
17A
  0
DICTIONARY
  5
17C
330
17E
100
AcDbDictionary
280
     1
281
     1
  3
TC_OPTIONAL_DATA
360
17D
  0
DICTIONARY
  5
17F
330
181
100
AcDbDictionary
280
     1
281
     1
  3
TC_OPTIONAL_DATA
360
180
  0
DICTIONARY
  5
182
330
184
100
AcDbDictionary
280
     1
281
     1
  3
TC_OPTIONAL_DATA
360
183
  0
DICTIONARY
  5
185
330
187
100
AcDbDictionary
280
     1
281
     1
  3
TC_OPTIONAL_DATA
360
186
  0
DICTIONARY
  5
188
330
18A
100
AcDbDictionary
280
     1
281
     1
  3
TC_OPTIONAL_DATA
360
189
  0
DICTIONARY
  5
18B
330
18D
100
AcDbDictionary
280
     1
281
     1
  3
TC_OPTIONAL_DATA
360
18C
  0
DICTIONARY
  5
18E
330
190
100
AcDbDictionary
280
     1
281
     1
  3
TC_OPTIONAL_DATA
360
18F
  0
DICTIONARY
  5
191
330
193
100
AcDbDictionary
280
     1
281
     1
  3
TC_OPTIONAL_DATA
360
192
  0
DICTIONARY
  5
194
330
196
100
AcDbDictionary
280
     1
281
     1
  3
TC_OPTIONAL_DATA
360
195
  0
DICTIONARY
  5
197
330
199
100
AcDbDictionary
280
     1
281
     1
  3
TC_OPTIONAL_DATA
360
198
  0
DICTIONARY
  5
19A
330
19C
100
AcDbDictionary
280
     1
281
     1
  3
TC_OPTIONAL_DATA
360
19B
  0
DICTIONARY
  5
19D
330
19F
100
AcDbDictionary
280
     1
281
     1
  3
TC_OPTIONAL_DATA
360
19E
  0
DICTIONARY
  5
1A0
330
1A2
100
AcDbDictionary
280
     1
281
     1
  3
TC_OPTIONAL_DATA
360
1A1
  0
DICTIONARY
  5
1A3
330
1A5
100
AcDbDictionary
280
     1
281
     1
  3
TC_OPTIONAL_DATA
360
1A4
  0
DICTIONARY
  5
1A6
330
1A8
100
AcDbDictionary
280
     1
281
     1
  3
TC_OPTIONAL_DATA
360
1A7
  0
DICTIONARY
  5
1A9
330
1AB
100
AcDbDictionary
280
     1
281
     1
  3
TC_OPTIONAL_DATA
360
1AA
  0
DICTIONARY
  5
1AC
330
1AE
100
AcDbDictionary
280
     1
281
     1
  3
TC_OPTIONAL_DATA
360
1AD
  0
DICTIONARY
  5
1AF
330
1B1
100
AcDbDictionary
280
     1
281
     1
  3
TC_OPTIONAL_DATA
360
1B0
  0
DICTIONARY
  5
1B2
330
1B4
100
AcDbDictionary
280
     1
281
     1
  3
TC_OPTIONAL_DATA
360
1B3
  0
DICTIONARY
  5
1B5
330
1B7
100
AcDbDictionary
280
     1
281
     1
  3
TC_OPTIONAL_DATA
360
1B6
  0
DICTIONARY
  5
1B8
330
1BA
100
AcDbDictionary
280
     1
281
     1
  3
TC_OPTIONAL_DATA
360
1B9
  0
DICTIONARY
  5
1BB
330
1BD
100
AcDbDictionary
280
     1
281
     1
  3
TC_OPTIONAL_DATA
360
1BC
  0
DICTIONARY
  5
1BE
330
1C0
100
AcDbDictionary
280
     1
281
     1
  3
TC_OPTIONAL_DATA
360
1BF
  0
DICTIONARY
  5
1C1
330
1C3
100
AcDbDictionary
280
     1
281
     1
  3
TC_OPTIONAL_DATA
360
1C2
  0
DICTIONARY
  5
1C4
330
1C6
100
AcDbDictionary
280
     1
281
     1
  3
TC_OPTIONAL_DATA
360
1C5
  0
DICTIONARY
  5
1C7
330
1C9
100
AcDbDictionary
280
     1
281
     1
  3
TC_OPTIONAL_DATA
360
1C8
  0
DICTIONARY
  5
1CA
330
1CC
100
AcDbDictionary
280
     1
281
     1
  3
TC_OPTIONAL_DATA
360
1CB
  0
DICTIONARY
  5
1CD
330
1CF
100
AcDbDictionary
280
     1
281
     1
  3
TC_OPTIONAL_DATA
360
1CE
  0
DICTIONARY
  5
1D0
330
1D2
100
AcDbDictionary
280
     1
281
     1
  3
TC_OPTIONAL_DATA
360
1D1
  0
DICTIONARY
  5
1D3
330
1D5
100
AcDbDictionary
280
     1
281
     1
  3
TC_OPTIONAL_DATA
360
1D4
  0
DICTIONARY
  5
1D6
330
1D8
100
AcDbDictionary
280
     1
281
     1
  3
TC_OPTIONAL_DATA
360
1D7
  0
DICTIONARY
  5
1D9
330
1DB
100
AcDbDictionary
280
     1
281
     1
  3
TC_OPTIONAL_DATA
360
1DA
  0
DICTIONARY
  5
1DC
330
1DE
100
AcDbDictionary
280
     1
281
     1
  3
TC_OPTIONAL_DATA
360
1DD
  0
DICTIONARY
  5
1DF
330
1E1
100
AcDbDictionary
280
     1
281
     1
  3
TC_OPTIONAL_DATA
360
1E0
  0
DICTIONARY
  5
1E2
330
1E4
100
AcDbDictionary
280
     1
281
     1
  3
TC_OPTIONAL_DATA
360
1E3
  0
DICTIONARY
  5
1E5
330
1E7
100
AcDbDictionary
280
     1
281
     1
  3
TC_OPTIONAL_DATA
360
1E6
  0
DICTIONARY
  5
1E8
330
1EA
100
AcDbDictionary
280
     1
281
     1
  3
TC_OPTIONAL_DATA
360
1E9
  0
DICTIONARY
  5
1EB
330
1ED
100
AcDbDictionary
280
     1
281
     1
  3
TC_OPTIONAL_DATA
360
1EC
  0
DICTIONARY
  5
1EE
330
1F0
100
AcDbDictionary
280
     1
281
     1
  3
TC_OPTIONAL_DATA
360
1EF
  0
DICTIONARY
  5
1F1
330
1F3
100
AcDbDictionary
280
     1
281
     1
  3
TC_OPTIONAL_DATA
360
1F2
  0
DICTIONARY
  5
1F4
330
1F6
100
AcDbDictionary
280
     1
281
     1
  3
TC_OPTIONAL_DATA
360
1F5
  0
DICTIONARY
  5
1F7
330
1F9
100
AcDbDictionary
280
     1
281
     1
  3
TC_OPTIONAL_DATA
360
1F8
  0
DICTIONARY
  5
1FA
330
1FC
100
AcDbDictionary
280
     1
281
     1
  3
TC_OPTIONAL_DATA
360
1FB
  0
DICTIONARY
  5
1FD
330
1FF
100
AcDbDictionary
280
     1
281
     1
  3
TC_OPTIONAL_DATA
360
1FE
  0
DICTIONARY
  5
200
330
202
100
AcDbDictionary
280
     1
281
     1
  3
TC_OPTIONAL_DATA
360
201
  0
DICTIONARY
  5
203
330
205
100
AcDbDictionary
280
     1
281
     1
  3
TC_OPTIONAL_DATA
360
204
  0
DICTIONARY
  5
206
330
208
100
AcDbDictionary
280
     1
281
     1
  3
TC_OPTIONAL_DATA
360
207
  0
DICTIONARY
  5
209
330
20B
100
AcDbDictionary
280
     1
281
     1
  3
TC_OPTIONAL_DATA
360
20A
  0
DICTIONARY
  5
20C
330
20E
100
AcDbDictionary
280
     1
281
     1
  3
TC_OPTIONAL_DATA
360
20D
  0
DICTIONARY
  5
20F
330
211
100
AcDbDictionary
280
     1
281
     1
  3
TC_OPTIONAL_DATA
360
210
  0
DICTIONARY
  5
212
330
214
100
AcDbDictionary
280
     1
281
     1
  3
TC_OPTIONAL_DATA
360
213
  0
DICTIONARY
  5
215
330
217
100
AcDbDictionary
280
     1
281
     1
  3
TC_OPTIONAL_DATA
360
216
  0
DICTIONARY
  5
218
330
21A
100
AcDbDictionary
280
     1
281
     1
  3
TC_OPTIONAL_DATA
360
219
  0
DICTIONARY
  5
21B
330
21D
100
AcDbDictionary
280
     1
281
     1
  3
TC_OPTIONAL_DATA
360
21C
  0
DICTIONARY
  5
21E
330
220
100
AcDbDictionary
280
     1
281
     1
  3
TC_OPTIONAL_DATA
360
21F
  0
DICTIONARY
  5
221
330
223
100
AcDbDictionary
280
     1
281
     1
  3
TC_OPTIONAL_DATA
360
222
  0
DICTIONARY
  5
224
330
226
100
AcDbDictionary
280
     1
281
     1
  3
TC_OPTIONAL_DATA
360
225
  0
DICTIONARY
  5
227
330
229
100
AcDbDictionary
280
     1
281
     1
  3
TC_OPTIONAL_DATA
360
228
  0
DICTIONARY
  5
22A
330
22C
100
AcDbDictionary
280
     1
281
     1
  3
TC_OPTIONAL_DATA
360
22B
  0
DICTIONARY
  5
22D
330
22F
100
AcDbDictionary
280
     1
281
     1
  3
TC_OPTIONAL_DATA
360
22E
  0
DICTIONARY
  5
230
330
232
100
AcDbDictionary
280
     1
281
     1
  3
TC_OPTIONAL_DATA
360
231
  0
DICTIONARY
  5
233
330
235
100
AcDbDictionary
280
     1
281
     1
  3
TC_OPTIONAL_DATA
360
234
  0
DICTIONARY
  5
236
330
238
100
AcDbDictionary
280
     1
281
     1
  3
TC_OPTIONAL_DATA
360
237
  0
DICTIONARY
  5
239
330
23B
100
AcDbDictionary
280
     1
281
     1
  3
TC_OPTIONAL_DATA
360
23A
  0
DICTIONARY
  5
23C
330
23E
100
AcDbDictionary
280
     1
281
     1
  3
TC_OPTIONAL_DATA
360
23D
  0
DICTIONARY
  5
23F
330
241
100
AcDbDictionary
280
     1
281
     1
  3
TC_OPTIONAL_DATA
360
240
  0
DICTIONARY
  5
242
330
244
100
AcDbDictionary
280
     1
281
     1
  3
TC_OPTIONAL_DATA
360
243
  0
DICTIONARY
  5
245
330
247
100
AcDbDictionary
280
     1
281
     1
  3
TC_OPTIONAL_DATA
360
246
  0
DICTIONARY
  5
248
330
24A
100
AcDbDictionary
280
     1
281
     1
  3
TC_OPTIONAL_DATA
360
249
  0
DICTIONARY
  5
24B
330
24D
100
AcDbDictionary
280
     1
281
     1
  3
TC_OPTIONAL_DATA
360
24C
  0
DICTIONARY
  5
24E
330
250
100
AcDbDictionary
280
     1
281
     1
  3
TC_OPTIONAL_DATA
360
24F
  0
DICTIONARY
  5
251
330
253
100
AcDbDictionary
280
     1
281
     1
  3
TC_OPTIONAL_DATA
360
252
  0
DICTIONARY
  5
254
330
256
100
AcDbDictionary
280
     1
281
     1
  3
TC_OPTIONAL_DATA
360
255
  0
DICTIONARY
  5
257
330
259
100
AcDbDictionary
280
     1
281
     1
  3
TC_OPTIONAL_DATA
360
258
  0
DICTIONARY
  5
25A
330
25C
100
AcDbDictionary
280
     1
281
     1
  3
TC_OPTIONAL_DATA
360
25B
  0
DICTIONARY
  5
25D
330
25F
100
AcDbDictionary
280
     1
281
     1
  3
TC_OPTIONAL_DATA
360
25E
  0
DICTIONARY
  5
260
330
262
100
AcDbDictionary
280
     1
281
     1
  3
TC_OPTIONAL_DATA
360
261
  0
DICTIONARY
  5
263
330
265
100
AcDbDictionary
280
     1
281
     1
  3
TC_OPTIONAL_DATA
360
264
  0
DICTIONARY
  5
266
330
268
100
AcDbDictionary
280
     1
281
     1
  3
TC_OPTIONAL_DATA
360
267
  0
DICTIONARY
  5
269
330
26B
100
AcDbDictionary
280
     1
281
     1
  3
TC_OPTIONAL_DATA
360
26A
  0
DICTIONARY
  5
26C
330
26E
100
AcDbDictionary
280
     1
281
     1
  3
TC_OPTIONAL_DATA
360
26D
  0
DICTIONARY
  5
26F
330
271
100
AcDbDictionary
280
     1
281
     1
  3
TC_OPTIONAL_DATA
360
270
  0
DICTIONARY
  5
272
330
274
100
AcDbDictionary
280
     1
281
     1
  3
TC_OPTIONAL_DATA
360
273
  0
DICTIONARY
  5
275
330
277
100
AcDbDictionary
280
     1
281
     1
  3
TC_OPTIONAL_DATA
360
276
  0
DICTIONARY
  5
278
330
27A
100
AcDbDictionary
280
     1
281
     1
  3
TC_OPTIONAL_DATA
360
279
  0
DICTIONARY
  5
27B
330
27D
100
AcDbDictionary
280
     1
281
     1
  3
TC_OPTIONAL_DATA
360
27C
  0
DICTIONARY
  5
27E
330
280
100
AcDbDictionary
280
     1
281
     1
  3
TC_OPTIONAL_DATA
360
27F
  0
DICTIONARY
  5
281
330
283
100
AcDbDictionary
280
     1
281
     1
  3
TC_OPTIONAL_DATA
360
282
  0
DICTIONARY
  5
284
330
286
100
AcDbDictionary
280
     1
281
     1
  3
TC_OPTIONAL_DATA
360
285
  0
DICTIONARY
  5
287
330
289
100
AcDbDictionary
280
     1
281
     1
  3
TC_OPTIONAL_DATA
360
288
  0
DICTIONARY
  5
28A
330
28C
100
AcDbDictionary
280
     1
281
     1
  3
TC_OPTIONAL_DATA
360
28B
  0
DICTIONARY
  5
28D
330
28F
100
AcDbDictionary
280
     1
281
     1
  3
TC_OPTIONAL_DATA
360
28E
  0
DICTIONARY
  5
290
330
292
100
AcDbDictionary
280
     1
281
     1
  3
TC_OPTIONAL_DATA
360
291
  0
DICTIONARY
  5
293
330
295
100
AcDbDictionary
280
     1
281
     1
  3
TC_OPTIONAL_DATA
360
294
  0
DICTIONARY
  5
296
330
298
100
AcDbDictionary
280
     1
281
     1
  3
TC_OPTIONAL_DATA
360
297
  0
DICTIONARY
  5
299
330
29B
100
AcDbDictionary
280
     1
281
     1
  3
TC_OPTIONAL_DATA
360
29A
  0
DICTIONARY
  5
29C
330
29E
100
AcDbDictionary
280
     1
281
     1
  3
TC_OPTIONAL_DATA
360
29D
  0
DICTIONARY
  5
29F
330
2A1
100
AcDbDictionary
280
     1
281
     1
  3
TC_OPTIONAL_DATA
360
2A0
  0
DICTIONARY
  5
2A2
330
2A4
100
AcDbDictionary
280
     1
281
     1
  3
TC_OPTIONAL_DATA
360
2A3
  0
DICTIONARY
  5
2A5
330
2A7
100
AcDbDictionary
280
     1
281
     1
  3
TC_OPTIONAL_DATA
360
2A6
  0
DICTIONARY
  5
2A8
330
2AA
100
AcDbDictionary
280
     1
281
     1
  3
TC_OPTIONAL_DATA
360
2A9
  0
DICTIONARY
  5
2AB
330
2AD
100
AcDbDictionary
280
     1
281
     1
  3
TC_OPTIONAL_DATA
360
2AC
  0
DICTIONARY
  5
2AE
330
2B0
100
AcDbDictionary
280
     1
281
     1
  3
TC_OPTIONAL_DATA
360
2AF
  0
DICTIONARY
  5
2B1
330
2B3
100
AcDbDictionary
280
     1
281
     1
  3
TC_OPTIONAL_DATA
360
2B2
  0
DICTIONARY
  5
2B4
330
2B6
100
AcDbDictionary
280
     1
281
     1
  3
TC_OPTIONAL_DATA
360
2B5
  0
DICTIONARY
  5
2B7
330
2B9
100
AcDbDictionary
280
     1
281
     1
  3
TC_OPTIONAL_DATA
360
2B8
  0
DICTIONARY
  5
2BA
330
2BC
100
AcDbDictionary
280
     1
281
     1
  3
TC_OPTIONAL_DATA
360
2BB
  0
DICTIONARY
  5
2BD
330
2BF
100
AcDbDictionary
280
     1
281
     1
  3
TC_OPTIONAL_DATA
360
2BE
  0
DICTIONARY
  5
2C0
330
2C2
100
AcDbDictionary
280
     1
281
     1
  3
TC_OPTIONAL_DATA
360
2C1
  0
DICTIONARY
  5
2C3
330
2C5
100
AcDbDictionary
280
     1
281
     1
  3
TC_OPTIONAL_DATA
360
2C4
  0
DICTIONARY
  5
2C6
330
2C8
100
AcDbDictionary
280
     1
281
     1
  3
TC_OPTIONAL_DATA
360
2C7
  0
DICTIONARY
  5
2C9
330
2CB
100
AcDbDictionary
280
     1
281
     1
  3
TC_OPTIONAL_DATA
360
2CA
  0
DICTIONARY
  5
2CC
330
2CE
100
AcDbDictionary
280
     1
281
     1
  3
TC_OPTIONAL_DATA
360
2CD
  0
DICTIONARY
  5
2CF
330
2D1
100
AcDbDictionary
280
     1
281
     1
  3
TC_OPTIONAL_DATA
360
2D0
  0
DICTIONARY
  5
2D2
330
2D4
100
AcDbDictionary
280
     1
281
     1
  3
TC_OPTIONAL_DATA
360
2D3
  0
DICTIONARY
  5
2D5
330
2D7
100
AcDbDictionary
280
     1
281
     1
  3
TC_OPTIONAL_DATA
360
2D6
  0
DICTIONARY
  5
2D8
330
2DA
100
AcDbDictionary
280
     1
281
     1
  3
TC_OPTIONAL_DATA
360
2D9
  0
DICTIONARY
  5
2DB
330
2DD
100
AcDbDictionary
280
     1
281
     1
  3
TC_OPTIONAL_DATA
360
2DC
  0
DICTIONARY
  5
2DE
330
2E0
100
AcDbDictionary
280
     1
281
     1
  3
TC_OPTIONAL_DATA
360
2DF
  0
DICTIONARY
  5
2E1
330
2E3
100
AcDbDictionary
280
     1
281
     1
  3
TC_OPTIONAL_DATA
360
2E2
  0
DICTIONARY
  5
2E4
330
2E6
100
AcDbDictionary
280
     1
281
     1
  3
TC_OPTIONAL_DATA
360
2E5
  0
DICTIONARY
  5
2E7
330
2E9
100
AcDbDictionary
280
     1
281
     1
  3
TC_OPTIONAL_DATA
360
2E8
  0
DICTIONARY
  5
2EA
330
2EC
100
AcDbDictionary
280
     1
281
     1
  3
TC_OPTIONAL_DATA
360
2EB
  0
DICTIONARY
  5
2ED
330
2EF
100
AcDbDictionary
280
     1
281
     1
  3
TC_OPTIONAL_DATA
360
2EE
  0
DICTIONARY
  5
2F0
330
2F2
100
AcDbDictionary
280
     1
281
     1
  3
TC_OPTIONAL_DATA
360
2F1
  0
DICTIONARY
  5
2F3
330
2F5
100
AcDbDictionary
280
     1
281
     1
  3
TC_OPTIONAL_DATA
360
2F4
  0
DICTIONARY
  5
2F6
330
2F8
100
AcDbDictionary
280
     1
281
     1
  3
TC_OPTIONAL_DATA
360
2F7
  0
DICTIONARY
  5
2F9
330
2FB
100
AcDbDictionary
280
     1
281
     1
  3
TC_OPTIONAL_DATA
360
2FA
  0
DICTIONARY
  5
2FC
330
2FE
100
AcDbDictionary
280
     1
281
     1
  3
TC_OPTIONAL_DATA
360
2FD
  0
DICTIONARY
  5
2FF
330
301
100
AcDbDictionary
280
     1
281
     1
  3
TC_OPTIONAL_DATA
360
300
  0
DICTIONARY
  5
302
330
304
100
AcDbDictionary
280
     1
281
     1
  3
TC_OPTIONAL_DATA
360
303
  0
DICTIONARY
  5
305
330
307
100
AcDbDictionary
280
     1
281
     1
  3
TC_OPTIONAL_DATA
360
306
  0
DICTIONARY
  5
308
330
30A
100
AcDbDictionary
280
     1
281
     1
  3
TC_OPTIONAL_DATA
360
309
  0
DICTIONARY
  5
30B
330
30D
100
AcDbDictionary
280
     1
281
     1
  3
TC_OPTIONAL_DATA
360
30C
  0
DICTIONARY
  5
30E
330
310
100
AcDbDictionary
280
     1
281
     1
  3
TC_OPTIONAL_DATA
360
30F
  0
DICTIONARY
  5
311
330
313
100
AcDbDictionary
280
     1
281
     1
  3
TC_OPTIONAL_DATA
360
312
  0
DICTIONARY
  5
314
330
316
100
AcDbDictionary
280
     1
281
     1
  3
TC_OPTIONAL_DATA
360
315
  0
DICTIONARY
  5
317
330
319
100
AcDbDictionary
280
     1
281
     1
  3
TC_OPTIONAL_DATA
360
318
  0
DICTIONARY
  5
31A
330
31C
100
AcDbDictionary
280
     1
281
     1
  3
TC_OPTIONAL_DATA
360
31B
  0
DICTIONARY
  5
31D
330
31F
100
AcDbDictionary
280
     1
281
     1
  3
TC_OPTIONAL_DATA
360
31E
  0
DICTIONARY
  5
320
330
322
100
AcDbDictionary
280
     1
281
     1
  3
TC_OPTIONAL_DATA
360
321
  0
DICTIONARY
  5
323
330
325
100
AcDbDictionary
280
     1
281
     1
  3
TC_OPTIONAL_DATA
360
324
  0
DICTIONARY
  5
326
330
328
100
AcDbDictionary
280
     1
281
     1
  3
TC_OPTIONAL_DATA
360
327
  0
DICTIONARY
  5
329
330
32B
100
AcDbDictionary
280
     1
281
     1
  3
TC_OPTIONAL_DATA
360
32A
  0
DICTIONARY
  5
32C
330
32E
100
AcDbDictionary
280
     1
281
     1
  3
TC_OPTIONAL_DATA
360
32D
  0
DICTIONARY
  5
32F
330
331
100
AcDbDictionary
280
     1
281
     1
  3
TC_OPTIONAL_DATA
360
330
  0
DICTIONARY
  5
332
330
334
100
AcDbDictionary
280
     1
281
     1
  3
TC_OPTIONAL_DATA
360
333
  0
DICTIONARY
  5
335
330
337
100
AcDbDictionary
280
     1
281
     1
  3
TC_OPTIONAL_DATA
360
336
  0
DICTIONARY
  5
338
330
33A
100
AcDbDictionary
280
     1
281
     1
  3
TC_OPTIONAL_DATA
360
339
  0
DICTIONARY
  5
33B
330
33D
100
AcDbDictionary
280
     1
281
     1
  3
TC_OPTIONAL_DATA
360
33C
  0
DICTIONARY
  5
33E
330
340
100
AcDbDictionary
280
     1
281
     1
  3
TC_OPTIONAL_DATA
360
33F
  0
DICTIONARY
  5
341
330
343
100
AcDbDictionary
280
     1
281
     1
  3
TC_OPTIONAL_DATA
360
342
  0
DICTIONARY
  5
344
330
346
100
AcDbDictionary
280
     1
281
     1
  3
TC_OPTIONAL_DATA
360
345
  0
DICTIONARY
  5
347
330
349
100
AcDbDictionary
280
     1
281
     1
  3
TC_OPTIONAL_DATA
360
348
  0
DICTIONARY
  5
34A
330
34C
100
AcDbDictionary
280
     1
281
     1
  3
TC_OPTIONAL_DATA
360
34B
  0
DICTIONARY
  5
34D
330
34F
100
AcDbDictionary
280
     1
281
     1
  3
TC_OPTIONAL_DATA
360
34E
  0
DICTIONARY
  5
350
330
352
100
AcDbDictionary
280
     1
281
     1
  3
TC_OPTIONAL_DATA
360
351
  0
DICTIONARY
  5
353
330
355
100
AcDbDictionary
280
     1
281
     1
  3
TC_OPTIONAL_DATA
360
354
  0
DICTIONARY
  5
356
330
358
100
AcDbDictionary
280
     1
281
     1
  3
TC_OPTIONAL_DATA
360
357
  0
DICTIONARY
  5
359
330
35B
100
AcDbDictionary
280
     1
281
     1
  3
TC_OPTIONAL_DATA
360
35A
  0
DICTIONARY
  5
35C
330
35E
100
AcDbDictionary
280
     1
281
     1
  3
TC_OPTIONAL_DATA
360
35D
  0
DICTIONARY
  5
35F
330
361
100
AcDbDictionary
280
     1
281
     1
  3
TC_OPTIONAL_DATA
360
360
  0
DICTIONARY
  5
362
330
364
100
AcDbDictionary
280
     1
281
     1
  3
TC_OPTIONAL_DATA
360
363
  0
DICTIONARY
  5
365
330
367
100
AcDbDictionary
280
     1
281
     1
  3
TC_OPTIONAL_DATA
360
366
  0
DICTIONARY
  5
368
330
36A
100
AcDbDictionary
280
     1
281
     1
  3
TC_OPTIONAL_DATA
360
369
  0
DICTIONARY
  5
36B
330
36D
100
AcDbDictionary
280
     1
281
     1
  3
TC_OPTIONAL_DATA
360
36C
  0
DICTIONARY
  5
36E
330
370
100
AcDbDictionary
280
     1
281
     1
  3
TC_OPTIONAL_DATA
360
36F
  0
DICTIONARY
  5
371
330
373
100
AcDbDictionary
280
     1
281
     1
  3
TC_OPTIONAL_DATA
360
372
  0
DICTIONARY
  5
374
330
376
100
AcDbDictionary
280
     1
281
     1
  3
TC_OPTIONAL_DATA
360
375
  0
DICTIONARY
  5
377
330
379
100
AcDbDictionary
280
     1
281
     1
  3
TC_OPTIONAL_DATA
360
378
  0
DICTIONARY
  5
37A
330
37C
100
AcDbDictionary
280
     1
281
     1
  3
TC_OPTIONAL_DATA
360
37B
  0
DICTIONARY
  5
37D
330
37F
100
AcDbDictionary
280
     1
281
     1
  3
TC_OPTIONAL_DATA
360
37E
  0
DICTIONARY
  5
380
330
382
100
AcDbDictionary
280
     1
281
     1
  3
TC_OPTIONAL_DATA
360
381
  0
DICTIONARY
  5
383
330
385
100
AcDbDictionary
280
     1
281
     1
  3
TC_OPTIONAL_DATA
360
384
  0
DICTIONARY
  5
386
330
388
100
AcDbDictionary
280
     1
281
     1
  3
TC_OPTIONAL_DATA
360
387
  0
DICTIONARY
  5
389
330
38B
100
AcDbDictionary
280
     1
281
     1
  3
TC_OPTIONAL_DATA
360
38A
  0
DICTIONARY
  5
38C
330
38E
100
AcDbDictionary
280
     1
281
     1
  3
TC_OPTIONAL_DATA
360
38D
  0
DICTIONARY
  5
38F
330
391
100
AcDbDictionary
280
     1
281
     1
  3
TC_OPTIONAL_DATA
360
390
  0
DICTIONARY
  5
392
330
394
100
AcDbDictionary
280
     1
281
     1
  3
TC_OPTIONAL_DATA
360
393
  0
DICTIONARY
  5
395
330
397
100
AcDbDictionary
280
     1
281
     1
  3
TC_OPTIONAL_DATA
360
396
  0
DICTIONARY
  5
398
330
39A
100
AcDbDictionary
280
     1
281
     1
  3
TC_OPTIONAL_DATA
360
399
  0
DICTIONARY
  5
39B
330
39D
100
AcDbDictionary
280
     1
281
     1
  3
TC_OPTIONAL_DATA
360
39C
  0
DICTIONARY
  5
39E
330
3A0
100
AcDbDictionary
280
     1
281
     1
  3
TC_OPTIONAL_DATA
360
39F
  0
DICTIONARY
  5
3A1
330
3A3
100
AcDbDictionary
280
     1
281
     1
  3
TC_OPTIONAL_DATA
360
3A2
  0
DICTIONARY
  5
3A4
330
3A6
100
AcDbDictionary
280
     1
281
     1
  3
TC_OPTIONAL_DATA
360
3A5
  0
DICTIONARY
  5
3A7
330
3A9
100
AcDbDictionary
280
     1
281
     1
  3
TC_OPTIONAL_DATA
360
3A8
  0
DICTIONARY
  5
3AA
330
3AC
100
AcDbDictionary
280
     1
281
     1
  3
TC_OPTIONAL_DATA
360
3AB
  0
DICTIONARY
  5
3AD
330
3AF
100
AcDbDictionary
280
     1
281
     1
  3
TC_OPTIONAL_DATA
360
3AE
  0
DICTIONARY
  5
3B0
330
3B2
100
AcDbDictionary
280
     1
281
     1
  3
TC_OPTIONAL_DATA
360
3B1
  0
DICTIONARY
  5
3B3
330
3B5
100
AcDbDictionary
280
     1
281
     1
  3
TC_OPTIONAL_DATA
360
3B4
  0
DICTIONARY
  5
3B6
330
3B8
100
AcDbDictionary
280
     1
281
     1
  3
TC_OPTIONAL_DATA
360
3B7
  0
DICTIONARY
  5
3B9
330
3BB
100
AcDbDictionary
280
     1
281
     1
  3
TC_OPTIONAL_DATA
360
3BA
  0
DICTIONARY
  5
3BC
330
3BE
100
AcDbDictionary
280
     1
281
     1
  3
TC_OPTIONAL_DATA
360
3BD
  0
DICTIONARY
  5
3C0
330
3C2
100
AcDbDictionary
280
     1
281
     1
  3
TC_OPTIONAL_DATA
360
3C1
  0
DICTIONARY
  5
3C3
330
3C5
100
AcDbDictionary
280
     1
281
     1
  3
TC_OPTIONAL_DATA
360
3C4
  0
DICTIONARY
  5
3C6
330
3C8
100
AcDbDictionary
280
     1
281
     1
  3
TC_OPTIONAL_DATA
360
3C7
  0
DICTIONARY
  5
3C9
330
3CB
100
AcDbDictionary
280
     1
281
     1
  3
TC_OPTIONAL_DATA
360
3CA
  0
DICTIONARY
  5
3CC
330
3CE
100
AcDbDictionary
280
     1
281
     1
  3
TC_OPTIONAL_DATA
360
3CD
  0
DICTIONARY
  5
3CF
330
3D1
100
AcDbDictionary
280
     1
281
     1
  3
TC_OPTIONAL_DATA
360
3D0
  0
DICTIONARY
  5
3D2
330
3D4
100
AcDbDictionary
280
     1
281
     1
  3
TC_OPTIONAL_DATA
360
3D3
  0
DICTIONARY
  5
3D5
330
3D7
100
AcDbDictionary
280
     1
281
     1
  3
TC_OPTIONAL_DATA
360
3D6
  0
DICTIONARY
  5
3D8
330
3DA
100
AcDbDictionary
280
     1
281
     1
  3
TC_OPTIONAL_DATA
360
3D9
  0
DICTIONARY
  5
3DB
330
3DD
100
AcDbDictionary
280
     1
281
     1
  3
TC_OPTIONAL_DATA
360
3DC
  0
DICTIONARY
  5
3DE
330
3E0
100
AcDbDictionary
280
     1
281
     1
  3
TC_OPTIONAL_DATA
360
3DF
  0
DICTIONARY
  5
3E1
330
3E3
100
AcDbDictionary
280
     1
281
     1
  3
TC_OPTIONAL_DATA
360
3E2
  0
DICTIONARY
  5
3E4
330
3E6
100
AcDbDictionary
280
     1
281
     1
  3
TC_OPTIONAL_DATA
360
3E5
  0
DICTIONARY
  5
3E7
330
3E9
100
AcDbDictionary
280
     1
281
     1
  3
TC_OPTIONAL_DATA
360
3E8
  0
DICTIONARY
  5
3EA
330
3EC
100
AcDbDictionary
280
     1
281
     1
  3
TC_OPTIONAL_DATA
360
3EB
  0
DICTIONARY
  5
3ED
330
3EF
100
AcDbDictionary
280
     1
281
     1
  3
TC_OPTIONAL_DATA
360
3EE
  0
DICTIONARY
  5
3F0
330
3F2
100
AcDbDictionary
280
     1
281
     1
  3
TC_OPTIONAL_DATA
360
3F1
  0
DICTIONARY
  5
3F3
330
3F5
100
AcDbDictionary
280
     1
281
     1
  3
TC_OPTIONAL_DATA
360
3F4
  0
DICTIONARY
  5
3F6
330
3F8
100
AcDbDictionary
280
     1
281
     1
  3
TC_OPTIONAL_DATA
360
3F7
  0
DICTIONARY
  5
3F9
330
3FB
100
AcDbDictionary
280
     1
281
     1
  3
TC_OPTIONAL_DATA
360
3FA
  0
DICTIONARY
  5
3FC
330
3FE
100
AcDbDictionary
280
     1
281
     1
  3
TC_OPTIONAL_DATA
360
3FD
  0
DICTIONARY
  5
3FF
330
401
100
AcDbDictionary
280
     1
281
     1
  3
TC_OPTIONAL_DATA
360
400
  0
DICTIONARY
  5
402
330
404
100
AcDbDictionary
280
     1
281
     1
  3
TC_OPTIONAL_DATA
360
403
  0
DICTIONARY
  5
405
330
407
100
AcDbDictionary
280
     1
281
     1
  3
TC_OPTIONAL_DATA
360
406
  0
DICTIONARY
  5
408
330
40A
100
AcDbDictionary
280
     1
281
     1
  3
TC_OPTIONAL_DATA
360
409
  0
DICTIONARY
  5
40B
330
40D
100
AcDbDictionary
280
     1
281
     1
  3
TC_OPTIONAL_DATA
360
40C
  0
DICTIONARY
  5
40E
330
410
100
AcDbDictionary
280
     1
281
     1
  3
TC_OPTIONAL_DATA
360
40F
  0
DICTIONARY
  5
411
330
413
100
AcDbDictionary
280
     1
281
     1
  3
TC_OPTIONAL_DATA
360
412
  0
DICTIONARY
  5
414
330
416
100
AcDbDictionary
280
     1
281
     1
  3
TC_OPTIONAL_DATA
360
415
  0
DICTIONARY
  5
417
330
419
100
AcDbDictionary
280
     1
281
     1
  3
TC_OPTIONAL_DATA
360
418
  0
DICTIONARY
  5
41A
330
41C
100
AcDbDictionary
280
     1
281
     1
  3
TC_OPTIONAL_DATA
360
41B
  0
DICTIONARY
  5
41D
330
41F
100
AcDbDictionary
280
     1
281
     1
  3
TC_OPTIONAL_DATA
360
41E
  0
DICTIONARY
  5
420
330
422
100
AcDbDictionary
280
     1
281
     1
  3
TC_OPTIONAL_DATA
360
421
  0
DICTIONARY
  5
423
330
425
100
AcDbDictionary
280
     1
281
     1
  3
TC_OPTIONAL_DATA
360
424
  0
DICTIONARY
  5
426
330
428
100
AcDbDictionary
280
     1
281
     1
  3
TC_OPTIONAL_DATA
360
427
  0
DICTIONARY
  5
429
330
42B
100
AcDbDictionary
280
     1
281
     1
  3
TC_OPTIONAL_DATA
360
42A
  0
DICTIONARY
  5
42C
330
42E
100
AcDbDictionary
280
     1
281
     1
  3
TC_OPTIONAL_DATA
360
42D
  0
DICTIONARY
  5
42F
330
431
100
AcDbDictionary
280
     1
281
     1
  3
TC_OPTIONAL_DATA
360
430
  0
DICTIONARY
  5
432
330
434
100
AcDbDictionary
280
     1
281
     1
  3
TC_OPTIONAL_DATA
360
433
  0
DICTIONARY
  5
435
330
437
100
AcDbDictionary
280
     1
281
     1
  3
TC_OPTIONAL_DATA
360
436
  0
DICTIONARY
  5
438
330
43A
100
AcDbDictionary
280
     1
281
     1
  3
TC_OPTIONAL_DATA
360
439
  0
DICTIONARY
  5
43B
330
43D
100
AcDbDictionary
280
     1
281
     1
  3
TC_OPTIONAL_DATA
360
43C
  0
DICTIONARY
  5
43E
330
440
100
AcDbDictionary
280
     1
281
     1
  3
TC_OPTIONAL_DATA
360
43F
  0
DICTIONARY
  5
441
330
443
100
AcDbDictionary
280
     1
281
     1
  3
TC_OPTIONAL_DATA
360
442
  0
DICTIONARY
  5
444
330
446
100
AcDbDictionary
280
     1
281
     1
  3
TC_OPTIONAL_DATA
360
445
  0
DICTIONARY
  5
448
330
44A
100
AcDbDictionary
280
     1
281
     1
  3
TC_OPTIONAL_DATA
360
449
  0
DICTIONARY
  5
44B
330
44D
100
AcDbDictionary
280
     1
281
     1
  3
TC_OPTIONAL_DATA
360
44C
  0
DICTIONARY
  5
44E
330
450
100
AcDbDictionary
280
     1
281
     1
  3
TC_OPTIONAL_DATA
360
44F
  0
DICTIONARY
  5
451
330
453
100
AcDbDictionary
280
     1
281
     1
  3
TC_OPTIONAL_DATA
360
452
  0
DICTIONARY
  5
454
330
456
100
AcDbDictionary
280
     1
281
     1
  3
TC_OPTIONAL_DATA
360
455
  0
DICTIONARY
  5
457
330
459
100
AcDbDictionary
280
     1
281
     1
  3
TC_OPTIONAL_DATA
360
458
  0
DICTIONARY
  5
45A
330
45C
100
AcDbDictionary
280
     1
281
     1
  3
TC_OPTIONAL_DATA
360
45B
  0
DICTIONARY
  5
45D
330
45F
100
AcDbDictionary
280
     1
281
     1
  3
TC_OPTIONAL_DATA
360
45E
  0
DICTIONARY
  5
460
330
462
100
AcDbDictionary
280
     1
281
     1
  3
TC_OPTIONAL_DATA
360
461
  0
DICTIONARY
  5
463
330
465
100
AcDbDictionary
280
     1
281
     1
  3
TC_OPTIONAL_DATA
360
464
  0
DICTIONARY
  5
466
330
468
100
AcDbDictionary
280
     1
281
     1
  3
TC_OPTIONAL_DATA
360
467
  0
DICTIONARY
  5
469
330
46B
100
AcDbDictionary
280
     1
281
     1
  3
TC_OPTIONAL_DATA
360
46A
  0
DICTIONARY
  5
46C
330
46E
100
AcDbDictionary
280
     1
281
     1
  3
TC_OPTIONAL_DATA
360
46D
  0
DICTIONARY
  5
46F
330
471
100
AcDbDictionary
280
     1
281
     1
  3
TC_OPTIONAL_DATA
360
470
  0
DICTIONARY
  5
472
330
474
100
AcDbDictionary
280
     1
281
     1
  3
TC_OPTIONAL_DATA
360
473
  0
DICTIONARY
  5
475
330
477
100
AcDbDictionary
280
     1
281
     1
  3
TC_OPTIONAL_DATA
360
476
  0
DICTIONARY
  5
478
330
47A
100
AcDbDictionary
280
     1
281
     1
  3
TC_OPTIONAL_DATA
360
479
  0
DICTIONARY
  5
47B
330
47D
100
AcDbDictionary
280
     1
281
     1
  3
TC_OPTIONAL_DATA
360
47C
  0
DICTIONARY
  5
47E
330
480
100
AcDbDictionary
280
     1
281
     1
  3
TC_OPTIONAL_DATA
360
47F
  0
DICTIONARY
  5
481
330
483
100
AcDbDictionary
280
     1
281
     1
  3
TC_OPTIONAL_DATA
360
482
  0
DICTIONARY
  5
484
330
486
100
AcDbDictionary
280
     1
281
     1
  3
TC_OPTIONAL_DATA
360
485
  0
DICTIONARY
  5
487
330
489
100
AcDbDictionary
280
     1
281
     1
  3
TC_OPTIONAL_DATA
360
488
  0
DICTIONARY
  5
48A
330
48C
100
AcDbDictionary
280
     1
281
     1
  3
TC_OPTIONAL_DATA
360
48B
  0
DICTIONARY
  5
48D
330
48F
100
AcDbDictionary
280
     1
281
     1
  3
TC_OPTIONAL_DATA
360
48E
  0
DICTIONARY
  5
490
330
492
100
AcDbDictionary
280
     1
281
     1
  3
TC_OPTIONAL_DATA
360
491
  0
DICTIONARY
  5
493
330
495
100
AcDbDictionary
280
     1
281
     1
  3
TC_OPTIONAL_DATA
360
494
  0
DICTIONARY
  5
496
330
498
100
AcDbDictionary
280
     1
281
     1
  3
TC_OPTIONAL_DATA
360
497
  0
DICTIONARY
  5
499
330
49B
100
AcDbDictionary
280
     1
281
     1
  3
TC_OPTIONAL_DATA
360
49A
  0
DICTIONARY
  5
49C
330
49E
100
AcDbDictionary
280
     1
281
     1
  3
TC_OPTIONAL_DATA
360
49D
  0
DICTIONARY
  5
49F
330
4A1
100
AcDbDictionary
280
     1
281
     1
  3
TC_OPTIONAL_DATA
360
4A0
  0
DICTIONARY
  5
4A2
330
4A4
100
AcDbDictionary
280
     1
281
     1
  3
TC_OPTIONAL_DATA
360
4A3
  0
DICTIONARY
  5
4A5
330
4A7
100
AcDbDictionary
280
     1
281
     1
  3
TC_OPTIONAL_DATA
360
4A6
  0
DICTIONARY
  5
4A8
330
4AA
100
AcDbDictionary
280
     1
281
     1
  3
TC_OPTIONAL_DATA
360
4A9
  0
DICTIONARY
  5
4AB
330
4AD
100
AcDbDictionary
280
     1
281
     1
  3
TC_OPTIONAL_DATA
360
4AC
  0
DICTIONARY
  5
4AE
330
4B0
100
AcDbDictionary
280
     1
281
     1
  3
TC_OPTIONAL_DATA
360
4AF
  0
DICTIONARY
  5
4B1
330
4B3
100
AcDbDictionary
280
     1
281
     1
  3
TC_OPTIONAL_DATA
360
4B2
  0
DICTIONARY
  5
4B4
330
4B6
100
AcDbDictionary
280
     1
281
     1
  3
TC_OPTIONAL_DATA
360
4B5
  0
DICTIONARY
  5
4B7
330
4B9
100
AcDbDictionary
280
     1
281
     1
  3
TC_OPTIONAL_DATA
360
4B8
  0
DICTIONARY
  5
4BA
330
4BC
100
AcDbDictionary
280
     1
281
     1
  3
TC_OPTIONAL_DATA
360
4BB
  0
DICTIONARY
  5
4BD
330
4BF
100
AcDbDictionary
280
     1
281
     1
  3
TC_OPTIONAL_DATA
360
4BE
  0
DICTIONARY
  5
4C0
330
4C2
100
AcDbDictionary
280
     1
281
     1
  3
TC_OPTIONAL_DATA
360
4C1
  0
DICTIONARY
  5
4C3
330
4C5
100
AcDbDictionary
280
     1
281
     1
  3
TC_OPTIONAL_DATA
360
4C4
  0
DICTIONARY
  5
4C6
330
4C8
100
AcDbDictionary
280
     1
281
     1
  3
TC_OPTIONAL_DATA
360
4C7
  0
DICTIONARY
  5
4C9
330
4CB
100
AcDbDictionary
280
     1
281
     1
  3
TC_OPTIONAL_DATA
360
4CA
  0
DICTIONARY
  5
4CC
330
4CE
100
AcDbDictionary
280
     1
281
     1
  3
TC_OPTIONAL_DATA
360
4CD
  0
DICTIONARY
  5
4CF
330
4D1
100
AcDbDictionary
280
     1
281
     1
  3
TC_OPTIONAL_DATA
360
4D0
  0
DICTIONARY
  5
4D2
330
4D4
100
AcDbDictionary
280
     1
281
     1
  3
TC_OPTIONAL_DATA
360
4D3
  0
DICTIONARY
  5
4D5
330
4D7
100
AcDbDictionary
280
     1
281
     1
  3
TC_OPTIONAL_DATA
360
4D6
  0
DICTIONARY
  5
4D8
330
4DA
100
AcDbDictionary
280
     1
281
     1
  3
TC_OPTIONAL_DATA
360
4D9
  0
DICTIONARY
  5
4DB
330
4DD
100
AcDbDictionary
280
     1
281
     1
  3
TC_OPTIONAL_DATA
360
4DC
  0
DICTIONARY
  5
4DE
330
4E0
100
AcDbDictionary
280
     1
281
     1
  3
TC_OPTIONAL_DATA
360
4DF
  0
DICTIONARY
  5
4E1
330
4E3
100
AcDbDictionary
280
     1
281
     1
  3
TC_OPTIONAL_DATA
360
4E2
  0
DICTIONARY
  5
4E4
330
4E6
100
AcDbDictionary
280
     1
281
     1
  3
TC_OPTIONAL_DATA
360
4E5
  0
DICTIONARY
  5
4E7
330
4E9
100
AcDbDictionary
280
     1
281
     1
  3
TC_OPTIONAL_DATA
360
4E8
  0
DICTIONARY
  5
4EA
330
4EC
100
AcDbDictionary
280
     1
281
     1
  3
TC_OPTIONAL_DATA
360
4EB
  0
DICTIONARY
  5
4ED
330
4EF
100
AcDbDictionary
280
     1
281
     1
  3
TC_OPTIONAL_DATA
360
4EE
  0
DICTIONARY
  5
4F0
330
4F2
100
AcDbDictionary
280
     1
281
     1
  3
TC_OPTIONAL_DATA
360
4F1
  0
DICTIONARY
  5
4F3
330
4F5
100
AcDbDictionary
280
     1
281
     1
  3
TC_OPTIONAL_DATA
360
4F4
  0
DICTIONARY
  5
4F6
330
4F8
100
AcDbDictionary
280
     1
281
     1
  3
TC_OPTIONAL_DATA
360
4F7
  0
DICTIONARY
  5
D
102
{ACAD_REACTORS
330
C
102
}
330
C
100
AcDbDictionary
281
     1
  0
DICTIONARY
  5
1A
102
{ACAD_REACTORS
330
C
102
}
330
C
100
AcDbDictionary
281
     1
  3
Layout1
350
1E
  3
Layout2
350
3C
  3
Model
350
22
  0
DICTIONARY
  5
17
102
{ACAD_REACTORS
330
C
102
}
330
C
100
AcDbDictionary
281
     1
  3
Standard
350
18
  0
DICTIONARY
  5
19
102
{ACAD_REACTORS
330
C
102
}
330
C
100
AcDbDictionary
281
     1
  0
ACDBDICTIONARYWDFLT
  5
E
102
{ACAD_REACTORS
330
C
102
}
330
C
100
AcDbDictionary
281
     1
  3
Normal
350
F
100
AcDbDictionaryWithDefault
340
F
  0
DICTIONARY
  5
4FB
102
{ACAD_REACTORS
330
C
102
}
330
C
100
AcDbDictionary
281
     1
  0
DICTIONARY
  5
2A
102
{ACAD_REACTORS
330
C
102
}
330
C
100
AcDbDictionary
281
     1
  3
2dWireframe
350
2F
  3
3D Hidden
350
31
  3
3dWireframe
350
30
  3
Basic
350
32
  3
Brighten
350
36
  3
ColorChange
350
3A
  3
Conceptual
350
34
  3
Dim
350
35
  3
Facepattern
350
39
  3
Flat
350
2B
  3
FlatWithEdges
350
2C
  3
Gouraud
350
2D
  3
GouraudWithEdges
350
2E
  3
Linepattern
350
38
  3
Realistic
350
33
  3
Thicken
350
37
  0
TCOPTIONALDATA
  5
55
102
{ACAD_REACTORS
330
54
102
}
330
54
100
TcOptionalData
 70
     1
 70
    32
 40
-3.0
  0
TCOPTIONALDATA
  5
58
102
{ACAD_REACTORS
330
57
102
}
330
57
100
TcOptionalData
 70
     1
 70
    32
 40
-3.0
  0
TCOPTIONALDATA
  5
5B
102
{ACAD_REACTORS
330
5A
102
}
330
5A
100
TcOptionalData
 70
     1
 70
    32
 40
-3.0
  0
TCOPTIONALDATA
  5
5E
102
{ACAD_REACTORS
330
5D
102
}
330
5D
100
TcOptionalData
 70
     1
 70
    32
 40
-3.0
  0
TCOPTIONALDATA
  5
61
102
{ACAD_REACTORS
330
60
102
}
330
60
100
TcOptionalData
 70
     1
 70
    32
 40
-3.0
  0
TCOPTIONALDATA
  5
64
102
{ACAD_REACTORS
330
63
102
}
330
63
100
TcOptionalData
 70
     1
 70
    32
 40
-3.0
  0
TCOPTIONALDATA
  5
67
102
{ACAD_REACTORS
330
66
102
}
330
66
100
TcOptionalData
 70
     1
 70
    32
 40
-3.0
  0
TCOPTIONALDATA
  5
6A
102
{ACAD_REACTORS
330
69
102
}
330
69
100
TcOptionalData
 70
     1
 70
    32
 40
-3.0
  0
TCOPTIONALDATA
  5
6D
102
{ACAD_REACTORS
330
6C
102
}
330
6C
100
TcOptionalData
 70
     1
 70
    32
 40
-3.0
  0
TCOPTIONALDATA
  5
70
102
{ACAD_REACTORS
330
6F
102
}
330
6F
100
TcOptionalData
 70
     1
 70
    32
 40
-3.0
  0
TCOPTIONALDATA
  5
75
102
{ACAD_REACTORS
330
74
102
}
330
74
100
TcOptionalData
 70
     1
 70
    32
 40
-3.0
  0
TCOPTIONALDATA
  5
78
102
{ACAD_REACTORS
330
77
102
}
330
77
100
TcOptionalData
 70
     1
 70
    32
 40
-3.0
  0
TCOPTIONALDATA
  5
7B
102
{ACAD_REACTORS
330
7A
102
}
330
7A
100
TcOptionalData
 70
     1
 70
    32
 40
-3.0
  0
TCOPTIONALDATA
  5
7E
102
{ACAD_REACTORS
330
7D
102
}
330
7D
100
TcOptionalData
 70
     1
 70
    32
 40
-3.0
  0
TCOPTIONALDATA
  5
81
102
{ACAD_REACTORS
330
80
102
}
330
80
100
TcOptionalData
 70
     1
 70
    32
 40
-3.0
  0
TCOPTIONALDATA
  5
84
102
{ACAD_REACTORS
330
83
102
}
330
83
100
TcOptionalData
 70
     1
 70
    32
 40
-3.0
  0
TCOPTIONALDATA
  5
87
102
{ACAD_REACTORS
330
86
102
}
330
86
100
TcOptionalData
 70
     1
 70
    32
 40
-3.0
  0
TCOPTIONALDATA
  5
8A
102
{ACAD_REACTORS
330
89
102
}
330
89
100
TcOptionalData
 70
     1
 70
    32
 40
-3.0
  0
TCOPTIONALDATA
  5
8D
102
{ACAD_REACTORS
330
8C
102
}
330
8C
100
TcOptionalData
 70
     1
 70
    32
 40
-3.0
  0
TCOPTIONALDATA
  5
90
102
{ACAD_REACTORS
330
8F
102
}
330
8F
100
TcOptionalData
 70
     1
 70
    32
 40
-3.0
  0
TCOPTIONALDATA
  5
93
102
{ACAD_REACTORS
330
92
102
}
330
92
100
TcOptionalData
 70
     1
 70
    32
 40
-3.0
  0
TCOPTIONALDATA
  5
96
102
{ACAD_REACTORS
330
95
102
}
330
95
100
TcOptionalData
 70
     1
 70
    32
 40
-3.0
  0
TCOPTIONALDATA
  5
99
102
{ACAD_REACTORS
330
98
102
}
330
98
100
TcOptionalData
 70
     1
 70
    32
 40
-3.0
  0
TCOPTIONALDATA
  5
9C
102
{ACAD_REACTORS
330
9B
102
}
330
9B
100
TcOptionalData
 70
     1
 70
    32
 40
-3.0
  0
TCOPTIONALDATA
  5
9F
102
{ACAD_REACTORS
330
9E
102
}
330
9E
100
TcOptionalData
 70
     1
 70
    32
 40
-3.0
  0
TCOPTIONALDATA
  5
A2
102
{ACAD_REACTORS
330
A1
102
}
330
A1
100
TcOptionalData
 70
     1
 70
    32
 40
-3.0
  0
TCOPTIONALDATA
  5
A5
102
{ACAD_REACTORS
330
A4
102
}
330
A4
100
TcOptionalData
 70
     1
 70
    32
 40
-3.0
  0
TCOPTIONALDATA
  5
A8
102
{ACAD_REACTORS
330
A7
102
}
330
A7
100
TcOptionalData
 70
     1
 70
    32
 40
-3.0
  0
TCOPTIONALDATA
  5
AB
102
{ACAD_REACTORS
330
AA
102
}
330
AA
100
TcOptionalData
 70
     1
 70
    32
 40
-3.0
  0
TCOPTIONALDATA
  5
AE
102
{ACAD_REACTORS
330
AD
102
}
330
AD
100
TcOptionalData
 70
     1
 70
    32
 40
-3.0
  0
TCOPTIONALDATA
  5
B1
102
{ACAD_REACTORS
330
B0
102
}
330
B0
100
TcOptionalData
 70
     1
 70
    32
 40
-3.0
  0
TCOPTIONALDATA
  5
B4
102
{ACAD_REACTORS
330
B3
102
}
330
B3
100
TcOptionalData
 70
     1
 70
    32
 40
-3.0
  0
TCOPTIONALDATA
  5
B7
102
{ACAD_REACTORS
330
B6
102
}
330
B6
100
TcOptionalData
 70
     1
 70
    32
 40
-3.0
  0
TCOPTIONALDATA
  5
BA
102
{ACAD_REACTORS
330
B9
102
}
330
B9
100
TcOptionalData
 70
     1
 70
    32
 40
-3.0
  0
TCOPTIONALDATA
  5
BD
102
{ACAD_REACTORS
330
BC
102
}
330
BC
100
TcOptionalData
 70
     1
 70
    32
 40
-3.0
  0
TCOPTIONALDATA
  5
C0
102
{ACAD_REACTORS
330
BF
102
}
330
BF
100
TcOptionalData
 70
     1
 70
    32
 40
-3.0
  0
TCOPTIONALDATA
  5
C3
102
{ACAD_REACTORS
330
C2
102
}
330
C2
100
TcOptionalData
 70
     1
 70
    32
 40
-3.0
  0
TCOPTIONALDATA
  5
C6
102
{ACAD_REACTORS
330
C5
102
}
330
C5
100
TcOptionalData
 70
     1
 70
    32
 40
-3.0
  0
TCOPTIONALDATA
  5
C9
102
{ACAD_REACTORS
330
C8
102
}
330
C8
100
TcOptionalData
 70
     1
 70
    32
 40
-3.0
  0
TCOPTIONALDATA
  5
CC
102
{ACAD_REACTORS
330
CB
102
}
330
CB
100
TcOptionalData
 70
     1
 70
    32
 40
-3.0
  0
TCOPTIONALDATA
  5
CF
102
{ACAD_REACTORS
330
CE
102
}
330
CE
100
TcOptionalData
 70
     1
 70
    32
 40
-3.0
  0
TCOPTIONALDATA
  5
D2
102
{ACAD_REACTORS
330
D1
102
}
330
D1
100
TcOptionalData
 70
     1
 70
    32
 40
-3.0
  0
TCOPTIONALDATA
  5
D5
102
{ACAD_REACTORS
330
D4
102
}
330
D4
100
TcOptionalData
 70
     1
 70
    32
 40
-3.0
  0
TCOPTIONALDATA
  5
D8
102
{ACAD_REACTORS
330
D7
102
}
330
D7
100
TcOptionalData
 70
     1
 70
    32
 40
-3.0
  0
TCOPTIONALDATA
  5
DB
102
{ACAD_REACTORS
330
DA
102
}
330
DA
100
TcOptionalData
 70
     1
 70
    32
 40
-3.0
  0
TCOPTIONALDATA
  5
DE
102
{ACAD_REACTORS
330
DD
102
}
330
DD
100
TcOptionalData
 70
     1
 70
    32
 40
-3.0
  0
TCOPTIONALDATA
  5
E1
102
{ACAD_REACTORS
330
E0
102
}
330
E0
100
TcOptionalData
 70
     1
 70
    32
 40
-3.0
  0
TCOPTIONALDATA
  5
E4
102
{ACAD_REACTORS
330
E3
102
}
330
E3
100
TcOptionalData
 70
     1
 70
    32
 40
-3.0
  0
TCOPTIONALDATA
  5
E7
102
{ACAD_REACTORS
330
E6
102
}
330
E6
100
TcOptionalData
 70
     1
 70
    32
 40
-3.0
  0
TCOPTIONALDATA
  5
EA
102
{ACAD_REACTORS
330
E9
102
}
330
E9
100
TcOptionalData
 70
     1
 70
    32
 40
-3.0
  0
TCOPTIONALDATA
  5
ED
102
{ACAD_REACTORS
330
EC
102
}
330
EC
100
TcOptionalData
 70
     1
 70
    32
 40
-3.0
  0
TCOPTIONALDATA
  5
F0
102
{ACAD_REACTORS
330
EF
102
}
330
EF
100
TcOptionalData
 70
     1
 70
    32
 40
-3.0
  0
TCOPTIONALDATA
  5
F3
102
{ACAD_REACTORS
330
F2
102
}
330
F2
100
TcOptionalData
 70
     1
 70
    32
 40
-3.0
  0
TCOPTIONALDATA
  5
F6
102
{ACAD_REACTORS
330
F5
102
}
330
F5
100
TcOptionalData
 70
     1
 70
    32
 40
-3.0
  0
TCOPTIONALDATA
  5
F9
102
{ACAD_REACTORS
330
F8
102
}
330
F8
100
TcOptionalData
 70
     1
 70
    32
 40
-3.0
  0
TCOPTIONALDATA
  5
FC
102
{ACAD_REACTORS
330
FB
102
}
330
FB
100
TcOptionalData
 70
     1
 70
    32
 40
-3.0
  0
TCOPTIONALDATA
  5
FF
102
{ACAD_REACTORS
330
FE
102
}
330
FE
100
TcOptionalData
 70
     1
 70
    32
 40
-3.0
  0
TCOPTIONALDATA
  5
102
102
{ACAD_REACTORS
330
101
102
}
330
101
100
TcOptionalData
 70
     1
 70
    32
 40
-3.0
  0
TCOPTIONALDATA
  5
105
102
{ACAD_REACTORS
330
104
102
}
330
104
100
TcOptionalData
 70
     1
 70
    32
 40
-3.0
  0
TCOPTIONALDATA
  5
108
102
{ACAD_REACTORS
330
107
102
}
330
107
100
TcOptionalData
 70
     1
 70
    32
 40
-3.0
  0
TCOPTIONALDATA
  5
10B
102
{ACAD_REACTORS
330
10A
102
}
330
10A
100
TcOptionalData
 70
     1
 70
    32
 40
-3.0
  0
TCOPTIONALDATA
  5
10E
102
{ACAD_REACTORS
330
10D
102
}
330
10D
100
TcOptionalData
 70
     1
 70
    32
 40
-3.0
  0
TCOPTIONALDATA
  5
111
102
{ACAD_REACTORS
330
110
102
}
330
110
100
TcOptionalData
 70
     1
 70
    32
 40
-3.0
  0
TCOPTIONALDATA
  5
114
102
{ACAD_REACTORS
330
113
102
}
330
113
100
TcOptionalData
 70
     1
 70
    32
 40
-3.0
  0
TCOPTIONALDATA
  5
117
102
{ACAD_REACTORS
330
116
102
}
330
116
100
TcOptionalData
 70
     1
 70
    32
 40
-3.0
  0
TCOPTIONALDATA
  5
11A
102
{ACAD_REACTORS
330
119
102
}
330
119
100
TcOptionalData
 70
     1
 70
    32
 40
-3.0
  0
TCOPTIONALDATA
  5
11D
102
{ACAD_REACTORS
330
11C
102
}
330
11C
100
TcOptionalData
 70
     1
 70
    32
 40
-3.0
  0
TCOPTIONALDATA
  5
120
102
{ACAD_REACTORS
330
11F
102
}
330
11F
100
TcOptionalData
 70
     1
 70
    32
 40
-3.0
  0
TCOPTIONALDATA
  5
123
102
{ACAD_REACTORS
330
122
102
}
330
122
100
TcOptionalData
 70
     1
 70
    32
 40
-3.0
  0
TCOPTIONALDATA
  5
126
102
{ACAD_REACTORS
330
125
102
}
330
125
100
TcOptionalData
 70
     1
 70
    32
 40
-3.0
  0
TCOPTIONALDATA
  5
129
102
{ACAD_REACTORS
330
128
102
}
330
128
100
TcOptionalData
 70
     1
 70
    32
 40
-3.0
  0
TCOPTIONALDATA
  5
12C
102
{ACAD_REACTORS
330
12B
102
}
330
12B
100
TcOptionalData
 70
     1
 70
    32
 40
-3.0
  0
TCOPTIONALDATA
  5
12F
102
{ACAD_REACTORS
330
12E
102
}
330
12E
100
TcOptionalData
 70
     1
 70
    32
 40
-3.0
  0
TCOPTIONALDATA
  5
132
102
{ACAD_REACTORS
330
131
102
}
330
131
100
TcOptionalData
 70
     1
 70
    32
 40
-3.0
  0
TCOPTIONALDATA
  5
135
102
{ACAD_REACTORS
330
134
102
}
330
134
100
TcOptionalData
 70
     1
 70
    32
 40
-3.0
  0
TCOPTIONALDATA
  5
138
102
{ACAD_REACTORS
330
137
102
}
330
137
100
TcOptionalData
 70
     1
 70
    32
 40
-3.0
  0
TCOPTIONALDATA
  5
13B
102
{ACAD_REACTORS
330
13A
102
}
330
13A
100
TcOptionalData
 70
     1
 70
    32
 40
-3.0
  0
TCOPTIONALDATA
  5
13E
102
{ACAD_REACTORS
330
13D
102
}
330
13D
100
TcOptionalData
 70
     1
 70
    32
 40
-3.0
  0
TCOPTIONALDATA
  5
141
102
{ACAD_REACTORS
330
140
102
}
330
140
100
TcOptionalData
 70
     1
 70
    32
 40
-3.0
  0
TCOPTIONALDATA
  5
144
102
{ACAD_REACTORS
330
143
102
}
330
143
100
TcOptionalData
 70
     1
 70
    32
 40
-3.0
  0
TCOPTIONALDATA
  5
147
102
{ACAD_REACTORS
330
146
102
}
330
146
100
TcOptionalData
 70
     1
 70
    32
 40
-3.0
  0
TCOPTIONALDATA
  5
14A
102
{ACAD_REACTORS
330
149
102
}
330
149
100
TcOptionalData
 70
     1
 70
    32
 40
-3.0
  0
TCOPTIONALDATA
  5
14D
102
{ACAD_REACTORS
330
14C
102
}
330
14C
100
TcOptionalData
 70
     1
 70
    32
 40
-3.0
  0
TCOPTIONALDATA
  5
150
102
{ACAD_REACTORS
330
14F
102
}
330
14F
100
TcOptionalData
 70
     1
 70
    32
 40
-3.0
  0
TCOPTIONALDATA
  5
153
102
{ACAD_REACTORS
330
152
102
}
330
152
100
TcOptionalData
 70
     1
 70
    32
 40
-3.0
  0
TCOPTIONALDATA
  5
156
102
{ACAD_REACTORS
330
155
102
}
330
155
100
TcOptionalData
 70
     1
 70
    32
 40
-3.0
  0
TCOPTIONALDATA
  5
159
102
{ACAD_REACTORS
330
158
102
}
330
158
100
TcOptionalData
 70
     1
 70
    32
 40
-3.0
  0
TCOPTIONALDATA
  5
15C
102
{ACAD_REACTORS
330
15B
102
}
330
15B
100
TcOptionalData
 70
     1
 70
    32
 40
-3.0
  0
TCOPTIONALDATA
  5
15F
102
{ACAD_REACTORS
330
15E
102
}
330
15E
100
TcOptionalData
 70
     1
 70
    32
 40
-3.0
  0
TCOPTIONALDATA
  5
162
102
{ACAD_REACTORS
330
161
102
}
330
161
100
TcOptionalData
 70
     1
 70
    32
 40
-3.0
  0
TCOPTIONALDATA
  5
165
102
{ACAD_REACTORS
330
164
102
}
330
164
100
TcOptionalData
 70
     1
 70
    32
 40
-3.0
  0
TCOPTIONALDATA
  5
168
102
{ACAD_REACTORS
330
167
102
}
330
167
100
TcOptionalData
 70
     1
 70
    32
 40
-3.0
  0
TCOPTIONALDATA
  5
16B
102
{ACAD_REACTORS
330
16A
102
}
330
16A
100
TcOptionalData
 70
     1
 70
    32
 40
-3.0
  0
TCOPTIONALDATA
  5
16E
102
{ACAD_REACTORS
330
16D
102
}
330
16D
100
TcOptionalData
 70
     1
 70
    32
 40
-3.0
  0
TCOPTIONALDATA
  5
171
102
{ACAD_REACTORS
330
170
102
}
330
170
100
TcOptionalData
 70
     1
 70
    32
 40
-3.0
  0
TCOPTIONALDATA
  5
174
102
{ACAD_REACTORS
330
173
102
}
330
173
100
TcOptionalData
 70
     1
 70
    32
 40
-3.0
  0
TCOPTIONALDATA
  5
177
102
{ACAD_REACTORS
330
176
102
}
330
176
100
TcOptionalData
 70
     1
 70
    32
 40
-3.0
  0
TCOPTIONALDATA
  5
17A
102
{ACAD_REACTORS
330
179
102
}
330
179
100
TcOptionalData
 70
     1
 70
    32
 40
-3.0
  0
TCOPTIONALDATA
  5
17D
102
{ACAD_REACTORS
330
17C
102
}
330
17C
100
TcOptionalData
 70
     1
 70
    32
 40
-3.0
  0
TCOPTIONALDATA
  5
180
102
{ACAD_REACTORS
330
17F
102
}
330
17F
100
TcOptionalData
 70
     1
 70
    32
 40
-3.0
  0
TCOPTIONALDATA
  5
183
102
{ACAD_REACTORS
330
182
102
}
330
182
100
TcOptionalData
 70
     1
 70
    32
 40
-3.0
  0
TCOPTIONALDATA
  5
186
102
{ACAD_REACTORS
330
185
102
}
330
185
100
TcOptionalData
 70
     1
 70
    32
 40
-3.0
  0
TCOPTIONALDATA
  5
189
102
{ACAD_REACTORS
330
188
102
}
330
188
100
TcOptionalData
 70
     1
 70
    32
 40
-3.0
  0
TCOPTIONALDATA
  5
18C
102
{ACAD_REACTORS
330
18B
102
}
330
18B
100
TcOptionalData
 70
     1
 70
    32
 40
-3.0
  0
TCOPTIONALDATA
  5
18F
102
{ACAD_REACTORS
330
18E
102
}
330
18E
100
TcOptionalData
 70
     1
 70
    32
 40
-3.0
  0
TCOPTIONALDATA
  5
192
102
{ACAD_REACTORS
330
191
102
}
330
191
100
TcOptionalData
 70
     1
 70
    32
 40
-3.0
  0
TCOPTIONALDATA
  5
195
102
{ACAD_REACTORS
330
194
102
}
330
194
100
TcOptionalData
 70
     1
 70
    32
 40
-3.0
  0
TCOPTIONALDATA
  5
198
102
{ACAD_REACTORS
330
197
102
}
330
197
100
TcOptionalData
 70
     1
 70
    32
 40
-3.0
  0
TCOPTIONALDATA
  5
19B
102
{ACAD_REACTORS
330
19A
102
}
330
19A
100
TcOptionalData
 70
     1
 70
    32
 40
-3.0
  0
TCOPTIONALDATA
  5
19E
102
{ACAD_REACTORS
330
19D
102
}
330
19D
100
TcOptionalData
 70
     1
 70
    32
 40
-3.0
  0
TCOPTIONALDATA
  5
1A1
102
{ACAD_REACTORS
330
1A0
102
}
330
1A0
100
TcOptionalData
 70
     1
 70
    32
 40
-3.0
  0
TCOPTIONALDATA
  5
1A4
102
{ACAD_REACTORS
330
1A3
102
}
330
1A3
100
TcOptionalData
 70
     1
 70
    32
 40
-3.0
  0
TCOPTIONALDATA
  5
1A7
102
{ACAD_REACTORS
330
1A6
102
}
330
1A6
100
TcOptionalData
 70
     1
 70
    32
 40
-3.0
  0
TCOPTIONALDATA
  5
1AA
102
{ACAD_REACTORS
330
1A9
102
}
330
1A9
100
TcOptionalData
 70
     1
 70
    32
 40
-3.0
  0
TCOPTIONALDATA
  5
1AD
102
{ACAD_REACTORS
330
1AC
102
}
330
1AC
100
TcOptionalData
 70
     1
 70
    32
 40
-3.0
  0
TCOPTIONALDATA
  5
1B0
102
{ACAD_REACTORS
330
1AF
102
}
330
1AF
100
TcOptionalData
 70
     1
 70
    32
 40
-3.0
  0
TCOPTIONALDATA
  5
1B3
102
{ACAD_REACTORS
330
1B2
102
}
330
1B2
100
TcOptionalData
 70
     1
 70
    32
 40
-3.0
  0
TCOPTIONALDATA
  5
1B6
102
{ACAD_REACTORS
330
1B5
102
}
330
1B5
100
TcOptionalData
 70
     1
 70
    32
 40
-3.0
  0
TCOPTIONALDATA
  5
1B9
102
{ACAD_REACTORS
330
1B8
102
}
330
1B8
100
TcOptionalData
 70
     1
 70
    32
 40
-3.0
  0
TCOPTIONALDATA
  5
1BC
102
{ACAD_REACTORS
330
1BB
102
}
330
1BB
100
TcOptionalData
 70
     1
 70
    32
 40
-3.0
  0
TCOPTIONALDATA
  5
1BF
102
{ACAD_REACTORS
330
1BE
102
}
330
1BE
100
TcOptionalData
 70
     1
 70
    32
 40
-3.0
  0
TCOPTIONALDATA
  5
1C2
102
{ACAD_REACTORS
330
1C1
102
}
330
1C1
100
TcOptionalData
 70
     1
 70
    32
 40
-3.0
  0
TCOPTIONALDATA
  5
1C5
102
{ACAD_REACTORS
330
1C4
102
}
330
1C4
100
TcOptionalData
 70
     1
 70
    32
 40
-3.0
  0
TCOPTIONALDATA
  5
1C8
102
{ACAD_REACTORS
330
1C7
102
}
330
1C7
100
TcOptionalData
 70
     1
 70
    32
 40
-3.0
  0
TCOPTIONALDATA
  5
1CB
102
{ACAD_REACTORS
330
1CA
102
}
330
1CA
100
TcOptionalData
 70
     1
 70
    32
 40
-3.0
  0
TCOPTIONALDATA
  5
1CE
102
{ACAD_REACTORS
330
1CD
102
}
330
1CD
100
TcOptionalData
 70
     1
 70
    32
 40
-3.0
  0
TCOPTIONALDATA
  5
1D1
102
{ACAD_REACTORS
330
1D0
102
}
330
1D0
100
TcOptionalData
 70
     1
 70
    32
 40
-3.0
  0
TCOPTIONALDATA
  5
1D4
102
{ACAD_REACTORS
330
1D3
102
}
330
1D3
100
TcOptionalData
 70
     1
 70
    32
 40
-3.0
  0
TCOPTIONALDATA
  5
1D7
102
{ACAD_REACTORS
330
1D6
102
}
330
1D6
100
TcOptionalData
 70
     1
 70
    32
 40
-3.0
  0
TCOPTIONALDATA
  5
1DA
102
{ACAD_REACTORS
330
1D9
102
}
330
1D9
100
TcOptionalData
 70
     1
 70
    32
 40
-3.0
  0
TCOPTIONALDATA
  5
1DD
102
{ACAD_REACTORS
330
1DC
102
}
330
1DC
100
TcOptionalData
 70
     1
 70
    32
 40
-3.0
  0
TCOPTIONALDATA
  5
1E0
102
{ACAD_REACTORS
330
1DF
102
}
330
1DF
100
TcOptionalData
 70
     1
 70
    32
 40
-3.0
  0
TCOPTIONALDATA
  5
1E3
102
{ACAD_REACTORS
330
1E2
102
}
330
1E2
100
TcOptionalData
 70
     1
 70
    32
 40
-3.0
  0
TCOPTIONALDATA
  5
1E6
102
{ACAD_REACTORS
330
1E5
102
}
330
1E5
100
TcOptionalData
 70
     1
 70
    32
 40
-3.0
  0
TCOPTIONALDATA
  5
1E9
102
{ACAD_REACTORS
330
1E8
102
}
330
1E8
100
TcOptionalData
 70
     1
 70
    32
 40
-3.0
  0
TCOPTIONALDATA
  5
1EC
102
{ACAD_REACTORS
330
1EB
102
}
330
1EB
100
TcOptionalData
 70
     1
 70
    32
 40
-3.0
  0
TCOPTIONALDATA
  5
1EF
102
{ACAD_REACTORS
330
1EE
102
}
330
1EE
100
TcOptionalData
 70
     1
 70
    32
 40
-3.0
  0
TCOPTIONALDATA
  5
1F2
102
{ACAD_REACTORS
330
1F1
102
}
330
1F1
100
TcOptionalData
 70
     1
 70
    32
 40
-3.0
  0
TCOPTIONALDATA
  5
1F5
102
{ACAD_REACTORS
330
1F4
102
}
330
1F4
100
TcOptionalData
 70
     1
 70
    32
 40
-3.0
  0
TCOPTIONALDATA
  5
1F8
102
{ACAD_REACTORS
330
1F7
102
}
330
1F7
100
TcOptionalData
 70
     1
 70
    32
 40
-3.0
  0
TCOPTIONALDATA
  5
1FB
102
{ACAD_REACTORS
330
1FA
102
}
330
1FA
100
TcOptionalData
 70
     1
 70
    32
 40
-3.0
  0
TCOPTIONALDATA
  5
1FE
102
{ACAD_REACTORS
330
1FD
102
}
330
1FD
100
TcOptionalData
 70
     1
 70
    32
 40
-3.0
  0
TCOPTIONALDATA
  5
201
102
{ACAD_REACTORS
330
200
102
}
330
200
100
TcOptionalData
 70
     1
 70
    32
 40
-3.0
  0
TCOPTIONALDATA
  5
204
102
{ACAD_REACTORS
330
203
102
}
330
203
100
TcOptionalData
 70
     1
 70
    32
 40
-3.0
  0
TCOPTIONALDATA
  5
207
102
{ACAD_REACTORS
330
206
102
}
330
206
100
TcOptionalData
 70
     1
 70
    32
 40
-3.0
  0
TCOPTIONALDATA
  5
20A
102
{ACAD_REACTORS
330
209
102
}
330
209
100
TcOptionalData
 70
     1
 70
    32
 40
-3.0
  0
TCOPTIONALDATA
  5
20D
102
{ACAD_REACTORS
330
20C
102
}
330
20C
100
TcOptionalData
 70
     1
 70
    32
 40
-3.0
  0
TCOPTIONALDATA
  5
210
102
{ACAD_REACTORS
330
20F
102
}
330
20F
100
TcOptionalData
 70
     1
 70
    32
 40
-3.0
  0
TCOPTIONALDATA
  5
213
102
{ACAD_REACTORS
330
212
102
}
330
212
100
TcOptionalData
 70
     1
 70
    32
 40
-3.0
  0
TCOPTIONALDATA
  5
216
102
{ACAD_REACTORS
330
215
102
}
330
215
100
TcOptionalData
 70
     1
 70
    32
 40
-3.0
  0
TCOPTIONALDATA
  5
219
102
{ACAD_REACTORS
330
218
102
}
330
218
100
TcOptionalData
 70
     1
 70
    32
 40
-3.0
  0
TCOPTIONALDATA
  5
21C
102
{ACAD_REACTORS
330
21B
102
}
330
21B
100
TcOptionalData
 70
     1
 70
    32
 40
-3.0
  0
TCOPTIONALDATA
  5
21F
102
{ACAD_REACTORS
330
21E
102
}
330
21E
100
TcOptionalData
 70
     1
 70
    32
 40
-3.0
  0
TCOPTIONALDATA
  5
222
102
{ACAD_REACTORS
330
221
102
}
330
221
100
TcOptionalData
 70
     1
 70
    32
 40
-3.0
  0
TCOPTIONALDATA
  5
225
102
{ACAD_REACTORS
330
224
102
}
330
224
100
TcOptionalData
 70
     1
 70
    32
 40
-3.0
  0
TCOPTIONALDATA
  5
228
102
{ACAD_REACTORS
330
227
102
}
330
227
100
TcOptionalData
 70
     1
 70
    32
 40
-3.0
  0
TCOPTIONALDATA
  5
22B
102
{ACAD_REACTORS
330
22A
102
}
330
22A
100
TcOptionalData
 70
     1
 70
    32
 40
-3.0
  0
TCOPTIONALDATA
  5
22E
102
{ACAD_REACTORS
330
22D
102
}
330
22D
100
TcOptionalData
 70
     1
 70
    32
 40
-3.0
  0
TCOPTIONALDATA
  5
231
102
{ACAD_REACTORS
330
230
102
}
330
230
100
TcOptionalData
 70
     1
 70
    32
 40
-3.0
  0
TCOPTIONALDATA
  5
234
102
{ACAD_REACTORS
330
233
102
}
330
233
100
TcOptionalData
 70
     1
 70
    32
 40
-3.0
  0
TCOPTIONALDATA
  5
237
102
{ACAD_REACTORS
330
236
102
}
330
236
100
TcOptionalData
 70
     1
 70
    32
 40
-3.0
  0
TCOPTIONALDATA
  5
23A
102
{ACAD_REACTORS
330
239
102
}
330
239
100
TcOptionalData
 70
     1
 70
    32
 40
-3.0
  0
TCOPTIONALDATA
  5
23D
102
{ACAD_REACTORS
330
23C
102
}
330
23C
100
TcOptionalData
 70
     1
 70
    32
 40
-3.0
  0
TCOPTIONALDATA
  5
240
102
{ACAD_REACTORS
330
23F
102
}
330
23F
100
TcOptionalData
 70
     1
 70
    32
 40
-3.0
  0
TCOPTIONALDATA
  5
243
102
{ACAD_REACTORS
330
242
102
}
330
242
100
TcOptionalData
 70
     1
 70
    32
 40
-3.0
  0
TCOPTIONALDATA
  5
246
102
{ACAD_REACTORS
330
245
102
}
330
245
100
TcOptionalData
 70
     1
 70
    32
 40
-3.0
  0
TCOPTIONALDATA
  5
249
102
{ACAD_REACTORS
330
248
102
}
330
248
100
TcOptionalData
 70
     1
 70
    32
 40
-3.0
  0
TCOPTIONALDATA
  5
24C
102
{ACAD_REACTORS
330
24B
102
}
330
24B
100
TcOptionalData
 70
     1
 70
    32
 40
-3.0
  0
TCOPTIONALDATA
  5
24F
102
{ACAD_REACTORS
330
24E
102
}
330
24E
100
TcOptionalData
 70
     1
 70
    32
 40
-3.0
  0
TCOPTIONALDATA
  5
252
102
{ACAD_REACTORS
330
251
102
}
330
251
100
TcOptionalData
 70
     1
 70
    32
 40
-3.0
  0
TCOPTIONALDATA
  5
255
102
{ACAD_REACTORS
330
254
102
}
330
254
100
TcOptionalData
 70
     1
 70
    32
 40
-3.0
  0
TCOPTIONALDATA
  5
258
102
{ACAD_REACTORS
330
257
102
}
330
257
100
TcOptionalData
 70
     1
 70
    32
 40
-3.0
  0
TCOPTIONALDATA
  5
25B
102
{ACAD_REACTORS
330
25A
102
}
330
25A
100
TcOptionalData
 70
     1
 70
    32
 40
-3.0
  0
TCOPTIONALDATA
  5
25E
102
{ACAD_REACTORS
330
25D
102
}
330
25D
100
TcOptionalData
 70
     1
 70
    32
 40
-3.0
  0
TCOPTIONALDATA
  5
261
102
{ACAD_REACTORS
330
260
102
}
330
260
100
TcOptionalData
 70
     1
 70
    32
 40
-3.0
  0
TCOPTIONALDATA
  5
264
102
{ACAD_REACTORS
330
263
102
}
330
263
100
TcOptionalData
 70
     1
 70
    32
 40
-3.0
  0
TCOPTIONALDATA
  5
267
102
{ACAD_REACTORS
330
266
102
}
330
266
100
TcOptionalData
 70
     1
 70
    32
 40
-3.0
  0
TCOPTIONALDATA
  5
26A
102
{ACAD_REACTORS
330
269
102
}
330
269
100
TcOptionalData
 70
     1
 70
    32
 40
-3.0
  0
TCOPTIONALDATA
  5
26D
102
{ACAD_REACTORS
330
26C
102
}
330
26C
100
TcOptionalData
 70
     1
 70
    32
 40
-3.0
  0
TCOPTIONALDATA
  5
270
102
{ACAD_REACTORS
330
26F
102
}
330
26F
100
TcOptionalData
 70
     1
 70
    32
 40
-3.0
  0
TCOPTIONALDATA
  5
273
102
{ACAD_REACTORS
330
272
102
}
330
272
100
TcOptionalData
 70
     1
 70
    32
 40
-3.0
  0
TCOPTIONALDATA
  5
276
102
{ACAD_REACTORS
330
275
102
}
330
275
100
TcOptionalData
 70
     1
 70
    32
 40
-3.0
  0
TCOPTIONALDATA
  5
279
102
{ACAD_REACTORS
330
278
102
}
330
278
100
TcOptionalData
 70
     1
 70
    32
 40
-3.0
  0
TCOPTIONALDATA
  5
27C
102
{ACAD_REACTORS
330
27B
102
}
330
27B
100
TcOptionalData
 70
     1
 70
    32
 40
-3.0
  0
TCOPTIONALDATA
  5
27F
102
{ACAD_REACTORS
330
27E
102
}
330
27E
100
TcOptionalData
 70
     1
 70
    32
 40
-3.0
  0
TCOPTIONALDATA
  5
282
102
{ACAD_REACTORS
330
281
102
}
330
281
100
TcOptionalData
 70
     1
 70
    32
 40
-3.0
  0
TCOPTIONALDATA
  5
285
102
{ACAD_REACTORS
330
284
102
}
330
284
100
TcOptionalData
 70
     1
 70
    32
 40
-3.0
  0
TCOPTIONALDATA
  5
288
102
{ACAD_REACTORS
330
287
102
}
330
287
100
TcOptionalData
 70
     1
 70
    32
 40
-3.0
  0
TCOPTIONALDATA
  5
28B
102
{ACAD_REACTORS
330
28A
102
}
330
28A
100
TcOptionalData
 70
     1
 70
    32
 40
-3.0
  0
TCOPTIONALDATA
  5
28E
102
{ACAD_REACTORS
330
28D
102
}
330
28D
100
TcOptionalData
 70
     1
 70
    32
 40
-3.0
  0
TCOPTIONALDATA
  5
291
102
{ACAD_REACTORS
330
290
102
}
330
290
100
TcOptionalData
 70
     1
 70
    32
 40
-3.0
  0
TCOPTIONALDATA
  5
294
102
{ACAD_REACTORS
330
293
102
}
330
293
100
TcOptionalData
 70
     1
 70
    32
 40
-3.0
  0
TCOPTIONALDATA
  5
297
102
{ACAD_REACTORS
330
296
102
}
330
296
100
TcOptionalData
 70
     1
 70
    32
 40
-3.0
  0
TCOPTIONALDATA
  5
29A
102
{ACAD_REACTORS
330
299
102
}
330
299
100
TcOptionalData
 70
     1
 70
    32
 40
-3.0
  0
TCOPTIONALDATA
  5
29D
102
{ACAD_REACTORS
330
29C
102
}
330
29C
100
TcOptionalData
 70
     1
 70
    32
 40
-3.0
  0
TCOPTIONALDATA
  5
2A0
102
{ACAD_REACTORS
330
29F
102
}
330
29F
100
TcOptionalData
 70
     1
 70
    32
 40
-3.0
  0
TCOPTIONALDATA
  5
2A3
102
{ACAD_REACTORS
330
2A2
102
}
330
2A2
100
TcOptionalData
 70
     1
 70
    32
 40
-3.0
  0
TCOPTIONALDATA
  5
2A6
102
{ACAD_REACTORS
330
2A5
102
}
330
2A5
100
TcOptionalData
 70
     1
 70
    32
 40
-3.0
  0
TCOPTIONALDATA
  5
2A9
102
{ACAD_REACTORS
330
2A8
102
}
330
2A8
100
TcOptionalData
 70
     1
 70
    32
 40
-3.0
  0
TCOPTIONALDATA
  5
2AC
102
{ACAD_REACTORS
330
2AB
102
}
330
2AB
100
TcOptionalData
 70
     1
 70
    32
 40
-3.0
  0
TCOPTIONALDATA
  5
2AF
102
{ACAD_REACTORS
330
2AE
102
}
330
2AE
100
TcOptionalData
 70
     1
 70
    32
 40
-3.0
  0
TCOPTIONALDATA
  5
2B2
102
{ACAD_REACTORS
330
2B1
102
}
330
2B1
100
TcOptionalData
 70
     1
 70
    32
 40
-3.0
  0
TCOPTIONALDATA
  5
2B5
102
{ACAD_REACTORS
330
2B4
102
}
330
2B4
100
TcOptionalData
 70
     1
 70
    32
 40
-3.0
  0
TCOPTIONALDATA
  5
2B8
102
{ACAD_REACTORS
330
2B7
102
}
330
2B7
100
TcOptionalData
 70
     1
 70
    32
 40
-3.0
  0
TCOPTIONALDATA
  5
2BB
102
{ACAD_REACTORS
330
2BA
102
}
330
2BA
100
TcOptionalData
 70
     1
 70
    32
 40
-3.0
  0
TCOPTIONALDATA
  5
2BE
102
{ACAD_REACTORS
330
2BD
102
}
330
2BD
100
TcOptionalData
 70
     1
 70
    32
 40
-3.0
  0
TCOPTIONALDATA
  5
2C1
102
{ACAD_REACTORS
330
2C0
102
}
330
2C0
100
TcOptionalData
 70
     1
 70
    32
 40
-3.0
  0
TCOPTIONALDATA
  5
2C4
102
{ACAD_REACTORS
330
2C3
102
}
330
2C3
100
TcOptionalData
 70
     1
 70
    32
 40
-3.0
  0
TCOPTIONALDATA
  5
2C7
102
{ACAD_REACTORS
330
2C6
102
}
330
2C6
100
TcOptionalData
 70
     1
 70
    32
 40
-3.0
  0
TCOPTIONALDATA
  5
2CA
102
{ACAD_REACTORS
330
2C9
102
}
330
2C9
100
TcOptionalData
 70
     1
 70
    32
 40
-3.0
  0
TCOPTIONALDATA
  5
2CD
102
{ACAD_REACTORS
330
2CC
102
}
330
2CC
100
TcOptionalData
 70
     1
 70
    32
 40
-3.0
  0
TCOPTIONALDATA
  5
2D0
102
{ACAD_REACTORS
330
2CF
102
}
330
2CF
100
TcOptionalData
 70
     1
 70
    32
 40
-3.0
  0
TCOPTIONALDATA
  5
2D3
102
{ACAD_REACTORS
330
2D2
102
}
330
2D2
100
TcOptionalData
 70
     1
 70
    32
 40
-3.0
  0
TCOPTIONALDATA
  5
2D6
102
{ACAD_REACTORS
330
2D5
102
}
330
2D5
100
TcOptionalData
 70
     1
 70
    32
 40
-3.0
  0
TCOPTIONALDATA
  5
2D9
102
{ACAD_REACTORS
330
2D8
102
}
330
2D8
100
TcOptionalData
 70
     1
 70
    32
 40
-3.0
  0
TCOPTIONALDATA
  5
2DC
102
{ACAD_REACTORS
330
2DB
102
}
330
2DB
100
TcOptionalData
 70
     1
 70
    32
 40
-3.0
  0
TCOPTIONALDATA
  5
2DF
102
{ACAD_REACTORS
330
2DE
102
}
330
2DE
100
TcOptionalData
 70
     1
 70
    32
 40
-3.0
  0
TCOPTIONALDATA
  5
2E2
102
{ACAD_REACTORS
330
2E1
102
}
330
2E1
100
TcOptionalData
 70
     1
 70
    32
 40
-3.0
  0
TCOPTIONALDATA
  5
2E5
102
{ACAD_REACTORS
330
2E4
102
}
330
2E4
100
TcOptionalData
 70
     1
 70
    32
 40
-3.0
  0
TCOPTIONALDATA
  5
2E8
102
{ACAD_REACTORS
330
2E7
102
}
330
2E7
100
TcOptionalData
 70
     1
 70
    32
 40
-3.0
  0
TCOPTIONALDATA
  5
2EB
102
{ACAD_REACTORS
330
2EA
102
}
330
2EA
100
TcOptionalData
 70
     1
 70
    32
 40
-3.0
  0
TCOPTIONALDATA
  5
2EE
102
{ACAD_REACTORS
330
2ED
102
}
330
2ED
100
TcOptionalData
 70
     1
 70
    32
 40
-3.0
  0
TCOPTIONALDATA
  5
2F1
102
{ACAD_REACTORS
330
2F0
102
}
330
2F0
100
TcOptionalData
 70
     1
 70
    32
 40
-3.0
  0
TCOPTIONALDATA
  5
2F4
102
{ACAD_REACTORS
330
2F3
102
}
330
2F3
100
TcOptionalData
 70
     1
 70
    32
 40
-3.0
  0
TCOPTIONALDATA
  5
2F7
102
{ACAD_REACTORS
330
2F6
102
}
330
2F6
100
TcOptionalData
 70
     1
 70
    32
 40
-3.0
  0
TCOPTIONALDATA
  5
2FA
102
{ACAD_REACTORS
330
2F9
102
}
330
2F9
100
TcOptionalData
 70
     1
 70
    32
 40
-3.0
  0
TCOPTIONALDATA
  5
2FD
102
{ACAD_REACTORS
330
2FC
102
}
330
2FC
100
TcOptionalData
 70
     1
 70
    32
 40
-3.0
  0
TCOPTIONALDATA
  5
300
102
{ACAD_REACTORS
330
2FF
102
}
330
2FF
100
TcOptionalData
 70
     1
 70
    32
 40
-3.0
  0
TCOPTIONALDATA
  5
303
102
{ACAD_REACTORS
330
302
102
}
330
302
100
TcOptionalData
 70
     1
 70
    32
 40
-3.0
  0
TCOPTIONALDATA
  5
306
102
{ACAD_REACTORS
330
305
102
}
330
305
100
TcOptionalData
 70
     1
 70
    32
 40
-3.0
  0
TCOPTIONALDATA
  5
309
102
{ACAD_REACTORS
330
308
102
}
330
308
100
TcOptionalData
 70
     1
 70
    32
 40
-3.0
  0
TCOPTIONALDATA
  5
30C
102
{ACAD_REACTORS
330
30B
102
}
330
30B
100
TcOptionalData
 70
     1
 70
    32
 40
-3.0
  0
TCOPTIONALDATA
  5
30F
102
{ACAD_REACTORS
330
30E
102
}
330
30E
100
TcOptionalData
 70
     1
 70
    32
 40
-3.0
  0
TCOPTIONALDATA
  5
312
102
{ACAD_REACTORS
330
311
102
}
330
311
100
TcOptionalData
 70
     1
 70
    32
 40
-3.0
  0
TCOPTIONALDATA
  5
315
102
{ACAD_REACTORS
330
314
102
}
330
314
100
TcOptionalData
 70
     1
 70
    32
 40
-3.0
  0
TCOPTIONALDATA
  5
318
102
{ACAD_REACTORS
330
317
102
}
330
317
100
TcOptionalData
 70
     1
 70
    32
 40
-3.0
  0
TCOPTIONALDATA
  5
31B
102
{ACAD_REACTORS
330
31A
102
}
330
31A
100
TcOptionalData
 70
     1
 70
    32
 40
-3.0
  0
TCOPTIONALDATA
  5
31E
102
{ACAD_REACTORS
330
31D
102
}
330
31D
100
TcOptionalData
 70
     1
 70
    32
 40
-3.0
  0
TCOPTIONALDATA
  5
321
102
{ACAD_REACTORS
330
320
102
}
330
320
100
TcOptionalData
 70
     1
 70
    32
 40
-3.0
  0
TCOPTIONALDATA
  5
324
102
{ACAD_REACTORS
330
323
102
}
330
323
100
TcOptionalData
 70
     1
 70
    32
 40
-3.0
  0
TCOPTIONALDATA
  5
327
102
{ACAD_REACTORS
330
326
102
}
330
326
100
TcOptionalData
 70
     1
 70
    32
 40
-3.0
  0
TCOPTIONALDATA
  5
32A
102
{ACAD_REACTORS
330
329
102
}
330
329
100
TcOptionalData
 70
     1
 70
    32
 40
-3.0
  0
TCOPTIONALDATA
  5
32D
102
{ACAD_REACTORS
330
32C
102
}
330
32C
100
TcOptionalData
 70
     1
 70
    32
 40
-3.0
  0
TCOPTIONALDATA
  5
330
102
{ACAD_REACTORS
330
32F
102
}
330
32F
100
TcOptionalData
 70
     1
 70
    32
 40
-3.0
  0
TCOPTIONALDATA
  5
333
102
{ACAD_REACTORS
330
332
102
}
330
332
100
TcOptionalData
 70
     1
 70
    32
 40
-3.0
  0
TCOPTIONALDATA
  5
336
102
{ACAD_REACTORS
330
335
102
}
330
335
100
TcOptionalData
 70
     1
 70
    32
 40
-3.0
  0
TCOPTIONALDATA
  5
339
102
{ACAD_REACTORS
330
338
102
}
330
338
100
TcOptionalData
 70
     1
 70
    32
 40
-3.0
  0
TCOPTIONALDATA
  5
33C
102
{ACAD_REACTORS
330
33B
102
}
330
33B
100
TcOptionalData
 70
     1
 70
    32
 40
-3.0
  0
TCOPTIONALDATA
  5
33F
102
{ACAD_REACTORS
330
33E
102
}
330
33E
100
TcOptionalData
 70
     1
 70
    32
 40
-3.0
  0
TCOPTIONALDATA
  5
342
102
{ACAD_REACTORS
330
341
102
}
330
341
100
TcOptionalData
 70
     1
 70
    32
 40
-3.0
  0
TCOPTIONALDATA
  5
345
102
{ACAD_REACTORS
330
344
102
}
330
344
100
TcOptionalData
 70
     1
 70
    32
 40
-3.0
  0
TCOPTIONALDATA
  5
348
102
{ACAD_REACTORS
330
347
102
}
330
347
100
TcOptionalData
 70
     1
 70
    32
 40
-3.0
  0
TCOPTIONALDATA
  5
34B
102
{ACAD_REACTORS
330
34A
102
}
330
34A
100
TcOptionalData
 70
     1
 70
    32
 40
-3.0
  0
TCOPTIONALDATA
  5
34E
102
{ACAD_REACTORS
330
34D
102
}
330
34D
100
TcOptionalData
 70
     1
 70
    32
 40
-3.0
  0
TCOPTIONALDATA
  5
351
102
{ACAD_REACTORS
330
350
102
}
330
350
100
TcOptionalData
 70
     1
 70
    32
 40
-3.0
  0
TCOPTIONALDATA
  5
354
102
{ACAD_REACTORS
330
353
102
}
330
353
100
TcOptionalData
 70
     1
 70
    32
 40
-3.0
  0
TCOPTIONALDATA
  5
357
102
{ACAD_REACTORS
330
356
102
}
330
356
100
TcOptionalData
 70
     1
 70
    32
 40
-3.0
  0
TCOPTIONALDATA
  5
35A
102
{ACAD_REACTORS
330
359
102
}
330
359
100
TcOptionalData
 70
     1
 70
    32
 40
-3.0
  0
TCOPTIONALDATA
  5
35D
102
{ACAD_REACTORS
330
35C
102
}
330
35C
100
TcOptionalData
 70
     1
 70
    32
 40
-3.0
  0
TCOPTIONALDATA
  5
360
102
{ACAD_REACTORS
330
35F
102
}
330
35F
100
TcOptionalData
 70
     1
 70
    32
 40
-3.0
  0
TCOPTIONALDATA
  5
363
102
{ACAD_REACTORS
330
362
102
}
330
362
100
TcOptionalData
 70
     1
 70
    32
 40
-3.0
  0
TCOPTIONALDATA
  5
366
102
{ACAD_REACTORS
330
365
102
}
330
365
100
TcOptionalData
 70
     1
 70
    32
 40
-3.0
  0
TCOPTIONALDATA
  5
369
102
{ACAD_REACTORS
330
368
102
}
330
368
100
TcOptionalData
 70
     1
 70
    32
 40
-3.0
  0
TCOPTIONALDATA
  5
36C
102
{ACAD_REACTORS
330
36B
102
}
330
36B
100
TcOptionalData
 70
     1
 70
    32
 40
-3.0
  0
TCOPTIONALDATA
  5
36F
102
{ACAD_REACTORS
330
36E
102
}
330
36E
100
TcOptionalData
 70
     1
 70
    32
 40
-3.0
  0
TCOPTIONALDATA
  5
372
102
{ACAD_REACTORS
330
371
102
}
330
371
100
TcOptionalData
 70
     1
 70
    32
 40
-3.0
  0
TCOPTIONALDATA
  5
375
102
{ACAD_REACTORS
330
374
102
}
330
374
100
TcOptionalData
 70
     1
 70
    32
 40
-3.0
  0
TCOPTIONALDATA
  5
378
102
{ACAD_REACTORS
330
377
102
}
330
377
100
TcOptionalData
 70
     1
 70
    32
 40
-3.0
  0
TCOPTIONALDATA
  5
37B
102
{ACAD_REACTORS
330
37A
102
}
330
37A
100
TcOptionalData
 70
     1
 70
    32
 40
-3.0
  0
TCOPTIONALDATA
  5
37E
102
{ACAD_REACTORS
330
37D
102
}
330
37D
100
TcOptionalData
 70
     1
 70
    32
 40
-3.0
  0
TCOPTIONALDATA
  5
381
102
{ACAD_REACTORS
330
380
102
}
330
380
100
TcOptionalData
 70
     1
 70
    32
 40
-3.0
  0
TCOPTIONALDATA
  5
384
102
{ACAD_REACTORS
330
383
102
}
330
383
100
TcOptionalData
 70
     1
 70
    32
 40
-3.0
  0
TCOPTIONALDATA
  5
387
102
{ACAD_REACTORS
330
386
102
}
330
386
100
TcOptionalData
 70
     1
 70
    32
 40
-3.0
  0
TCOPTIONALDATA
  5
38A
102
{ACAD_REACTORS
330
389
102
}
330
389
100
TcOptionalData
 70
     1
 70
    32
 40
-3.0
  0
TCOPTIONALDATA
  5
38D
102
{ACAD_REACTORS
330
38C
102
}
330
38C
100
TcOptionalData
 70
     1
 70
    32
 40
-3.0
  0
TCOPTIONALDATA
  5
390
102
{ACAD_REACTORS
330
38F
102
}
330
38F
100
TcOptionalData
 70
     1
 70
    32
 40
-3.0
  0
TCOPTIONALDATA
  5
393
102
{ACAD_REACTORS
330
392
102
}
330
392
100
TcOptionalData
 70
     1
 70
    32
 40
-3.0
  0
TCOPTIONALDATA
  5
396
102
{ACAD_REACTORS
330
395
102
}
330
395
100
TcOptionalData
 70
     1
 70
    32
 40
-3.0
  0
TCOPTIONALDATA
  5
399
102
{ACAD_REACTORS
330
398
102
}
330
398
100
TcOptionalData
 70
     1
 70
    32
 40
-3.0
  0
TCOPTIONALDATA
  5
39C
102
{ACAD_REACTORS
330
39B
102
}
330
39B
100
TcOptionalData
 70
     1
 70
    32
 40
-3.0
  0
TCOPTIONALDATA
  5
39F
102
{ACAD_REACTORS
330
39E
102
}
330
39E
100
TcOptionalData
 70
     1
 70
    32
 40
-3.0
  0
TCOPTIONALDATA
  5
3A2
102
{ACAD_REACTORS
330
3A1
102
}
330
3A1
100
TcOptionalData
 70
     1
 70
    32
 40
-3.0
  0
TCOPTIONALDATA
  5
3A5
102
{ACAD_REACTORS
330
3A4
102
}
330
3A4
100
TcOptionalData
 70
     1
 70
    32
 40
-3.0
  0
TCOPTIONALDATA
  5
3A8
102
{ACAD_REACTORS
330
3A7
102
}
330
3A7
100
TcOptionalData
 70
     1
 70
    32
 40
-3.0
  0
TCOPTIONALDATA
  5
3AB
102
{ACAD_REACTORS
330
3AA
102
}
330
3AA
100
TcOptionalData
 70
     1
 70
    32
 40
-3.0
  0
TCOPTIONALDATA
  5
3AE
102
{ACAD_REACTORS
330
3AD
102
}
330
3AD
100
TcOptionalData
 70
     1
 70
    32
 40
-3.0
  0
TCOPTIONALDATA
  5
3B1
102
{ACAD_REACTORS
330
3B0
102
}
330
3B0
100
TcOptionalData
 70
     1
 70
    32
 40
-3.0
  0
TCOPTIONALDATA
  5
3B4
102
{ACAD_REACTORS
330
3B3
102
}
330
3B3
100
TcOptionalData
 70
     1
 70
    32
 40
-3.0
  0
TCOPTIONALDATA
  5
3B7
102
{ACAD_REACTORS
330
3B6
102
}
330
3B6
100
TcOptionalData
 70
     1
 70
    32
 40
-3.0
  0
TCOPTIONALDATA
  5
3BA
102
{ACAD_REACTORS
330
3B9
102
}
330
3B9
100
TcOptionalData
 70
     1
 70
    32
 40
-3.0
  0
TCOPTIONALDATA
  5
3BD
102
{ACAD_REACTORS
330
3BC
102
}
330
3BC
100
TcOptionalData
 70
     1
 70
    32
 40
-3.0
  0
TCOPTIONALDATA
  5
3C1
102
{ACAD_REACTORS
330
3C0
102
}
330
3C0
100
TcOptionalData
 70
     1
 70
    32
 40
-3.0
  0
TCOPTIONALDATA
  5
3C4
102
{ACAD_REACTORS
330
3C3
102
}
330
3C3
100
TcOptionalData
 70
     1
 70
    32
 40
-3.0
  0
TCOPTIONALDATA
  5
3C7
102
{ACAD_REACTORS
330
3C6
102
}
330
3C6
100
TcOptionalData
 70
     1
 70
    32
 40
-3.0
  0
TCOPTIONALDATA
  5
3CA
102
{ACAD_REACTORS
330
3C9
102
}
330
3C9
100
TcOptionalData
 70
     1
 70
    32
 40
-3.0
  0
TCOPTIONALDATA
  5
3CD
102
{ACAD_REACTORS
330
3CC
102
}
330
3CC
100
TcOptionalData
 70
     1
 70
    32
 40
-3.0
  0
TCOPTIONALDATA
  5
3D0
102
{ACAD_REACTORS
330
3CF
102
}
330
3CF
100
TcOptionalData
 70
     1
 70
    32
 40
-3.0
  0
TCOPTIONALDATA
  5
3D3
102
{ACAD_REACTORS
330
3D2
102
}
330
3D2
100
TcOptionalData
 70
     1
 70
    32
 40
-3.0
  0
TCOPTIONALDATA
  5
3D6
102
{ACAD_REACTORS
330
3D5
102
}
330
3D5
100
TcOptionalData
 70
     1
 70
    32
 40
-3.0
  0
TCOPTIONALDATA
  5
3D9
102
{ACAD_REACTORS
330
3D8
102
}
330
3D8
100
TcOptionalData
 70
     1
 70
    32
 40
-3.0
  0
TCOPTIONALDATA
  5
3DC
102
{ACAD_REACTORS
330
3DB
102
}
330
3DB
100
TcOptionalData
 70
     1
 70
    32
 40
-3.0
  0
TCOPTIONALDATA
  5
3DF
102
{ACAD_REACTORS
330
3DE
102
}
330
3DE
100
TcOptionalData
 70
     1
 70
    32
 40
-3.0
  0
TCOPTIONALDATA
  5
3E2
102
{ACAD_REACTORS
330
3E1
102
}
330
3E1
100
TcOptionalData
 70
     1
 70
    32
 40
-3.0
  0
TCOPTIONALDATA
  5
3E5
102
{ACAD_REACTORS
330
3E4
102
}
330
3E4
100
TcOptionalData
 70
     1
 70
    32
 40
-3.0
  0
TCOPTIONALDATA
  5
3E8
102
{ACAD_REACTORS
330
3E7
102
}
330
3E7
100
TcOptionalData
 70
     1
 70
    32
 40
-3.0
  0
TCOPTIONALDATA
  5
3EB
102
{ACAD_REACTORS
330
3EA
102
}
330
3EA
100
TcOptionalData
 70
     1
 70
    32
 40
-3.0
  0
TCOPTIONALDATA
  5
3EE
102
{ACAD_REACTORS
330
3ED
102
}
330
3ED
100
TcOptionalData
 70
     1
 70
    32
 40
-3.0
  0
TCOPTIONALDATA
  5
3F1
102
{ACAD_REACTORS
330
3F0
102
}
330
3F0
100
TcOptionalData
 70
     1
 70
    32
 40
-3.0
  0
TCOPTIONALDATA
  5
3F4
102
{ACAD_REACTORS
330
3F3
102
}
330
3F3
100
TcOptionalData
 70
     1
 70
    32
 40
-3.0
  0
TCOPTIONALDATA
  5
3F7
102
{ACAD_REACTORS
330
3F6
102
}
330
3F6
100
TcOptionalData
 70
     1
 70
    32
 40
-3.0
  0
TCOPTIONALDATA
  5
3FA
102
{ACAD_REACTORS
330
3F9
102
}
330
3F9
100
TcOptionalData
 70
     1
 70
    32
 40
-3.0
  0
TCOPTIONALDATA
  5
3FD
102
{ACAD_REACTORS
330
3FC
102
}
330
3FC
100
TcOptionalData
 70
     1
 70
    32
 40
-3.0
  0
TCOPTIONALDATA
  5
400
102
{ACAD_REACTORS
330
3FF
102
}
330
3FF
100
TcOptionalData
 70
     1
 70
    32
 40
-3.0
  0
TCOPTIONALDATA
  5
403
102
{ACAD_REACTORS
330
402
102
}
330
402
100
TcOptionalData
 70
     1
 70
    32
 40
-3.0
  0
TCOPTIONALDATA
  5
406
102
{ACAD_REACTORS
330
405
102
}
330
405
100
TcOptionalData
 70
     1
 70
    32
 40
-3.0
  0
TCOPTIONALDATA
  5
409
102
{ACAD_REACTORS
330
408
102
}
330
408
100
TcOptionalData
 70
     1
 70
    32
 40
-3.0
  0
TCOPTIONALDATA
  5
40C
102
{ACAD_REACTORS
330
40B
102
}
330
40B
100
TcOptionalData
 70
     1
 70
    32
 40
-3.0
  0
TCOPTIONALDATA
  5
40F
102
{ACAD_REACTORS
330
40E
102
}
330
40E
100
TcOptionalData
 70
     1
 70
    32
 40
-3.0
  0
TCOPTIONALDATA
  5
412
102
{ACAD_REACTORS
330
411
102
}
330
411
100
TcOptionalData
 70
     1
 70
    32
 40
-3.0
  0
TCOPTIONALDATA
  5
415
102
{ACAD_REACTORS
330
414
102
}
330
414
100
TcOptionalData
 70
     1
 70
    32
 40
-3.0
  0
TCOPTIONALDATA
  5
418
102
{ACAD_REACTORS
330
417
102
}
330
417
100
TcOptionalData
 70
     1
 70
    32
 40
-3.0
  0
TCOPTIONALDATA
  5
41B
102
{ACAD_REACTORS
330
41A
102
}
330
41A
100
TcOptionalData
 70
     1
 70
    32
 40
-3.0
  0
TCOPTIONALDATA
  5
41E
102
{ACAD_REACTORS
330
41D
102
}
330
41D
100
TcOptionalData
 70
     1
 70
    32
 40
-3.0
  0
TCOPTIONALDATA
  5
421
102
{ACAD_REACTORS
330
420
102
}
330
420
100
TcOptionalData
 70
     1
 70
    32
 40
-3.0
  0
TCOPTIONALDATA
  5
424
102
{ACAD_REACTORS
330
423
102
}
330
423
100
TcOptionalData
 70
     1
 70
    32
 40
-3.0
  0
TCOPTIONALDATA
  5
427
102
{ACAD_REACTORS
330
426
102
}
330
426
100
TcOptionalData
 70
     1
 70
    32
 40
-3.0
  0
TCOPTIONALDATA
  5
42A
102
{ACAD_REACTORS
330
429
102
}
330
429
100
TcOptionalData
 70
     1
 70
    32
 40
-3.0
  0
TCOPTIONALDATA
  5
42D
102
{ACAD_REACTORS
330
42C
102
}
330
42C
100
TcOptionalData
 70
     1
 70
    32
 40
-3.0
  0
TCOPTIONALDATA
  5
430
102
{ACAD_REACTORS
330
42F
102
}
330
42F
100
TcOptionalData
 70
     1
 70
    32
 40
-3.0
  0
TCOPTIONALDATA
  5
433
102
{ACAD_REACTORS
330
432
102
}
330
432
100
TcOptionalData
 70
     1
 70
    32
 40
-3.0
  0
TCOPTIONALDATA
  5
436
102
{ACAD_REACTORS
330
435
102
}
330
435
100
TcOptionalData
 70
     1
 70
    32
 40
-3.0
  0
TCOPTIONALDATA
  5
439
102
{ACAD_REACTORS
330
438
102
}
330
438
100
TcOptionalData
 70
     1
 70
    32
 40
-3.0
  0
TCOPTIONALDATA
  5
43C
102
{ACAD_REACTORS
330
43B
102
}
330
43B
100
TcOptionalData
 70
     1
 70
    32
 40
-3.0
  0
TCOPTIONALDATA
  5
43F
102
{ACAD_REACTORS
330
43E
102
}
330
43E
100
TcOptionalData
 70
     1
 70
    32
 40
-3.0
  0
TCOPTIONALDATA
  5
442
102
{ACAD_REACTORS
330
441
102
}
330
441
100
TcOptionalData
 70
     1
 70
    32
 40
-3.0
  0
TCOPTIONALDATA
  5
445
102
{ACAD_REACTORS
330
444
102
}
330
444
100
TcOptionalData
 70
     1
 70
    32
 40
-3.0
  0
TCOPTIONALDATA
  5
449
102
{ACAD_REACTORS
330
448
102
}
330
448
100
TcOptionalData
 70
     1
 70
    32
 40
-3.0
  0
TCOPTIONALDATA
  5
44C
102
{ACAD_REACTORS
330
44B
102
}
330
44B
100
TcOptionalData
 70
     1
 70
    32
 40
-3.0
  0
TCOPTIONALDATA
  5
44F
102
{ACAD_REACTORS
330
44E
102
}
330
44E
100
TcOptionalData
 70
     1
 70
    32
 40
-3.0
  0
TCOPTIONALDATA
  5
452
102
{ACAD_REACTORS
330
451
102
}
330
451
100
TcOptionalData
 70
     1
 70
    32
 40
-3.0
  0
TCOPTIONALDATA
  5
455
102
{ACAD_REACTORS
330
454
102
}
330
454
100
TcOptionalData
 70
     1
 70
    32
 40
-3.0
  0
TCOPTIONALDATA
  5
458
102
{ACAD_REACTORS
330
457
102
}
330
457
100
TcOptionalData
 70
     1
 70
    32
 40
-3.0
  0
TCOPTIONALDATA
  5
45B
102
{ACAD_REACTORS
330
45A
102
}
330
45A
100
TcOptionalData
 70
     1
 70
    32
 40
-3.0
  0
TCOPTIONALDATA
  5
45E
102
{ACAD_REACTORS
330
45D
102
}
330
45D
100
TcOptionalData
 70
     1
 70
    32
 40
-3.0
  0
TCOPTIONALDATA
  5
461
102
{ACAD_REACTORS
330
460
102
}
330
460
100
TcOptionalData
 70
     1
 70
    32
 40
-3.0
  0
TCOPTIONALDATA
  5
464
102
{ACAD_REACTORS
330
463
102
}
330
463
100
TcOptionalData
 70
     1
 70
    32
 40
-3.0
  0
TCOPTIONALDATA
  5
467
102
{ACAD_REACTORS
330
466
102
}
330
466
100
TcOptionalData
 70
     1
 70
    32
 40
-3.0
  0
TCOPTIONALDATA
  5
46A
102
{ACAD_REACTORS
330
469
102
}
330
469
100
TcOptionalData
 70
     1
 70
    32
 40
-3.0
  0
TCOPTIONALDATA
  5
46D
102
{ACAD_REACTORS
330
46C
102
}
330
46C
100
TcOptionalData
 70
     1
 70
    32
 40
-3.0
  0
TCOPTIONALDATA
  5
470
102
{ACAD_REACTORS
330
46F
102
}
330
46F
100
TcOptionalData
 70
     1
 70
    32
 40
-3.0
  0
TCOPTIONALDATA
  5
473
102
{ACAD_REACTORS
330
472
102
}
330
472
100
TcOptionalData
 70
     1
 70
    32
 40
-3.0
  0
TCOPTIONALDATA
  5
476
102
{ACAD_REACTORS
330
475
102
}
330
475
100
TcOptionalData
 70
     1
 70
    32
 40
-3.0
  0
TCOPTIONALDATA
  5
479
102
{ACAD_REACTORS
330
478
102
}
330
478
100
TcOptionalData
 70
     1
 70
    32
 40
-3.0
  0
TCOPTIONALDATA
  5
47C
102
{ACAD_REACTORS
330
47B
102
}
330
47B
100
TcOptionalData
 70
     1
 70
    32
 40
-3.0
  0
TCOPTIONALDATA
  5
47F
102
{ACAD_REACTORS
330
47E
102
}
330
47E
100
TcOptionalData
 70
     1
 70
    32
 40
-3.0
  0
TCOPTIONALDATA
  5
482
102
{ACAD_REACTORS
330
481
102
}
330
481
100
TcOptionalData
 70
     1
 70
    32
 40
-3.0
  0
TCOPTIONALDATA
  5
485
102
{ACAD_REACTORS
330
484
102
}
330
484
100
TcOptionalData
 70
     1
 70
    32
 40
-3.0
  0
TCOPTIONALDATA
  5
488
102
{ACAD_REACTORS
330
487
102
}
330
487
100
TcOptionalData
 70
     1
 70
    32
 40
-3.0
  0
TCOPTIONALDATA
  5
48B
102
{ACAD_REACTORS
330
48A
102
}
330
48A
100
TcOptionalData
 70
     1
 70
    32
 40
-3.0
  0
TCOPTIONALDATA
  5
48E
102
{ACAD_REACTORS
330
48D
102
}
330
48D
100
TcOptionalData
 70
     1
 70
    32
 40
-3.0
  0
TCOPTIONALDATA
  5
491
102
{ACAD_REACTORS
330
490
102
}
330
490
100
TcOptionalData
 70
     1
 70
    32
 40
-3.0
  0
TCOPTIONALDATA
  5
494
102
{ACAD_REACTORS
330
493
102
}
330
493
100
TcOptionalData
 70
     1
 70
    32
 40
-3.0
  0
TCOPTIONALDATA
  5
497
102
{ACAD_REACTORS
330
496
102
}
330
496
100
TcOptionalData
 70
     1
 70
    32
 40
-3.0
  0
TCOPTIONALDATA
  5
49A
102
{ACAD_REACTORS
330
499
102
}
330
499
100
TcOptionalData
 70
     1
 70
    32
 40
-3.0
  0
TCOPTIONALDATA
  5
49D
102
{ACAD_REACTORS
330
49C
102
}
330
49C
100
TcOptionalData
 70
     1
 70
    32
 40
-3.0
  0
TCOPTIONALDATA
  5
4A0
102
{ACAD_REACTORS
330
49F
102
}
330
49F
100
TcOptionalData
 70
     1
 70
    32
 40
-3.0
  0
TCOPTIONALDATA
  5
4A3
102
{ACAD_REACTORS
330
4A2
102
}
330
4A2
100
TcOptionalData
 70
     1
 70
    32
 40
-3.0
  0
TCOPTIONALDATA
  5
4A6
102
{ACAD_REACTORS
330
4A5
102
}
330
4A5
100
TcOptionalData
 70
     1
 70
    32
 40
-3.0
  0
TCOPTIONALDATA
  5
4A9
102
{ACAD_REACTORS
330
4A8
102
}
330
4A8
100
TcOptionalData
 70
     1
 70
    32
 40
-3.0
  0
TCOPTIONALDATA
  5
4AC
102
{ACAD_REACTORS
330
4AB
102
}
330
4AB
100
TcOptionalData
 70
     1
 70
    32
 40
-3.0
  0
TCOPTIONALDATA
  5
4AF
102
{ACAD_REACTORS
330
4AE
102
}
330
4AE
100
TcOptionalData
 70
     1
 70
    32
 40
-3.0
  0
TCOPTIONALDATA
  5
4B2
102
{ACAD_REACTORS
330
4B1
102
}
330
4B1
100
TcOptionalData
 70
     1
 70
    32
 40
-3.0
  0
TCOPTIONALDATA
  5
4B5
102
{ACAD_REACTORS
330
4B4
102
}
330
4B4
100
TcOptionalData
 70
     1
 70
    32
 40
-3.0
  0
TCOPTIONALDATA
  5
4B8
102
{ACAD_REACTORS
330
4B7
102
}
330
4B7
100
TcOptionalData
 70
     1
 70
    32
 40
-3.0
  0
TCOPTIONALDATA
  5
4BB
102
{ACAD_REACTORS
330
4BA
102
}
330
4BA
100
TcOptionalData
 70
     1
 70
    32
 40
-3.0
  0
TCOPTIONALDATA
  5
4BE
102
{ACAD_REACTORS
330
4BD
102
}
330
4BD
100
TcOptionalData
 70
     1
 70
    32
 40
-3.0
  0
TCOPTIONALDATA
  5
4C1
102
{ACAD_REACTORS
330
4C0
102
}
330
4C0
100
TcOptionalData
 70
     1
 70
    32
 40
-3.0
  0
TCOPTIONALDATA
  5
4C4
102
{ACAD_REACTORS
330
4C3
102
}
330
4C3
100
TcOptionalData
 70
     1
 70
    32
 40
-3.0
  0
TCOPTIONALDATA
  5
4C7
102
{ACAD_REACTORS
330
4C6
102
}
330
4C6
100
TcOptionalData
 70
     1
 70
    32
 40
-3.0
  0
TCOPTIONALDATA
  5
4CA
102
{ACAD_REACTORS
330
4C9
102
}
330
4C9
100
TcOptionalData
 70
     1
 70
    32
 40
-3.0
  0
TCOPTIONALDATA
  5
4CD
102
{ACAD_REACTORS
330
4CC
102
}
330
4CC
100
TcOptionalData
 70
     1
 70
    32
 40
-3.0
  0
TCOPTIONALDATA
  5
4D0
102
{ACAD_REACTORS
330
4CF
102
}
330
4CF
100
TcOptionalData
 70
     1
 70
    32
 40
-3.0
  0
TCOPTIONALDATA
  5
4D3
102
{ACAD_REACTORS
330
4D2
102
}
330
4D2
100
TcOptionalData
 70
     1
 70
    32
 40
-3.0
  0
TCOPTIONALDATA
  5
4D6
102
{ACAD_REACTORS
330
4D5
102
}
330
4D5
100
TcOptionalData
 70
     1
 70
    32
 40
-3.0
  0
TCOPTIONALDATA
  5
4D9
102
{ACAD_REACTORS
330
4D8
102
}
330
4D8
100
TcOptionalData
 70
     1
 70
    32
 40
-3.0
  0
TCOPTIONALDATA
  5
4DC
102
{ACAD_REACTORS
330
4DB
102
}
330
4DB
100
TcOptionalData
 70
     1
 70
    32
 40
-3.0
  0
TCOPTIONALDATA
  5
4DF
102
{ACAD_REACTORS
330
4DE
102
}
330
4DE
100
TcOptionalData
 70
     1
 70
    32
 40
-3.0
  0
TCOPTIONALDATA
  5
4E2
102
{ACAD_REACTORS
330
4E1
102
}
330
4E1
100
TcOptionalData
 70
     1
 70
    32
 40
-3.0
  0
TCOPTIONALDATA
  5
4E5
102
{ACAD_REACTORS
330
4E4
102
}
330
4E4
100
TcOptionalData
 70
     1
 70
    32
 40
-3.0
  0
TCOPTIONALDATA
  5
4E8
102
{ACAD_REACTORS
330
4E7
102
}
330
4E7
100
TcOptionalData
 70
     1
 70
    32
 40
-3.0
  0
TCOPTIONALDATA
  5
4EB
102
{ACAD_REACTORS
330
4EA
102
}
330
4EA
100
TcOptionalData
 70
     1
 70
    32
 40
-3.0
  0
TCOPTIONALDATA
  5
4EE
102
{ACAD_REACTORS
330
4ED
102
}
330
4ED
100
TcOptionalData
 70
     1
 70
    32
 40
-3.0
  0
TCOPTIONALDATA
  5
4F1
102
{ACAD_REACTORS
330
4F0
102
}
330
4F0
100
TcOptionalData
 70
     1
 70
    32
 40
-3.0
  0
TCOPTIONALDATA
  5
4F4
102
{ACAD_REACTORS
330
4F3
102
}
330
4F3
100
TcOptionalData
 70
     1
 70
    32
 40
-3.0
  0
TCOPTIONALDATA
  5
4F7
102
{ACAD_REACTORS
330
4F6
102
}
330
4F6
100
TcOptionalData
 70
     1
 70
    32
 40
-3.0
  0
LAYOUT
  5
1E
102
{ACAD_REACTORS
330
1A
102
}
330
1A
100
AcDbPlotSettings
  1

  2
none_device
  4
ISO_C5_(229.00_x_162.00_MM)
  6

 40
0.0
 41
0.0
 42
0.0
 43
0.0
 44
229.0
 45
162.0
 46
0.0
 47
0.0
 48
0.0
 49
0.0
140
0.0
141
0.0
142
1.0
143
25.4
 70
   672
 72
     1
 73
     1
 74
     5
  7

 75
    16
 76
     0
 77
     2
 78
   300
147
1.0
148
0.0
149
0.0
100
AcDbLayout
  1
Layout1
 70
     1
 71
     1
 10
0.0
 20
0.0
 11
420.0
 21
297.0
 12
0.0
 22
0.0
 32
0.0
 14
0.0
 24
0.0
 34
0.0
 15
420.0
 25
297.0
 35
0.0
146
0.0
 13
0.0
 23
0.0
 33
0.0
 16
1.0
 26
0.0
 36
0.0
 17
0.0
 27
1.0
 37
0.0
 76
     0
330
1B
331
4F9
  0
LAYOUT
  5
3C
102
{ACAD_REACTORS
330
1A
102
}
330
1A
100
AcDbPlotSettings
  1

  2
none_device
  4
ISO_C5_(229.00_x_162.00_MM)
  6

 40
0.0
 41
0.0
 42
0.0
 43
0.0
 44
229.0
 45
162.0
 46
0.0
 47
0.0
 48
0.0
 49
0.0
140
0.0
141
0.0
142
1.0
143
0.999998
 70
   672
 72
     1
 73
     0
 74
     5
  7

 75
    16
 76
     0
 77
     2
 78
   300
147
1.0
148
0.0
149
0.0
100
AcDbLayout
  1
Layout2
 70
     1
 71
     2
 10
0.0
 20
0.0
 11
6.37795275590551
 21
9.01574803149607
 12
0.0
 22
0.0
 32
0.0
 14
0.0
 24
0.0
 34
0.0
 15
6.37795275590551
 25
9.01574803149607
 35
0.0
146
0.0
 13
0.0
 23
0.0
 33
0.0
 16
1.0
 26
0.0
 36
0.0
 17
0.0
 27
1.0
 37
0.0
 76
     0
330
3B
331
4FA
  0
LAYOUT
  5
22
102
{ACAD_REACTORS
330
1A
102
}
330
1A
100
AcDbPlotSettings
  1

  2
none_device
  4
Sun_Hi-Res_(1280.00_x_1600.00_Pixels)
  6

 40
0.0
 41
0.0
 42
0.0
 43
0.0
 44
1280.0
 45
1600.0
 46
-190.5104757799196
 47
-356.0164575256942
 48
0.0
 49
0.0
140
0.0
141
0.0
142
1.0
143
0.999998
 70
  1696
 72
     2
 73
     1
 74
     0
  7

 75
     0
 76
     0
 77
     2
 78
   300
147
1.0
148
0.0
149
0.0
100
AcDbLayout
  1
Model
 70
     1
 71
     0
 10
190.510094758968
 20
356.0157454927792
 11
253.50222074322
 21
406.4094462801808
 12
0.0
 22
0.0
 32
0.0
 14
190.510094758968
 24
356.0157454927792
 34
0.0
 15
253.50222074322
 25
406.4094462801808
 35
0.0
146
0.0
 13
0.0
 23
0.0
 33
0.0
 16
1.0
 26
0.0
 36
0.0
 17
0.0
 27
1.0
 37
0.0
 76
     0
330
1F
331
29
  0
MLINESTYLE
  5
18
102
{ACAD_REACTORS
330
17
102
}
330
17
100
AcDbMlineStyle
  2
Standard
 70
     0
  3

 62
   256
 51
90.0
 52
90.0
 71
     6
 49
0.5
 62
   256
  6
BYLAYER
 49
-0.5
 62
   256
  6
BYLAYER
 49
0.5
 62
   256
  6
BYLAYER
 49
-0.5
 62
   256
  6
BYLAYER
 49
0.5
 62
   256
  6
BYLAYER
 49
-0.5
 62
   256
  6
BYLAYER
  0
ACDBPLACEHOLDER
  5
F
102
{ACAD_REACTORS
330
E
102
}
330
E
  0
VISUALSTYLE
  5
2F
102
{ACAD_REACTORS
330
2A
102
}
330
2A
100
AcDbVisualStyle
  2
2dWireframe
 70
     4
 71
     0
 72
     2
 73
     0
 90
        0
 40
-0.6
 41
-30.0
 62
     5
 63
     7
421
 16777215
 74
     1
 91
        4
 64
     7
 65
   257
 75
     1
175
     1
 42
1.0
 92
        0
 66
   257
 43
1.0
 76
     1
 77
     6
 78
     2
 67
     7
 79
     5
170
     0
171
     0
290
     0
174
     0
 93
        1
 44
0.0
173
     0
291
     0
 45
0.0
1001
ACAD
1000
AcDbSavedByObjectVersion
1070
     0
  0
VISUALSTYLE
  5
31
102
{ACAD_REACTORS
330
2A
102
}
330
2A
100
AcDbVisualStyle
  2
3D Hidden
 70
     6
 71
     1
 72
     2
 73
     2
 90
        0
 40
-0.6
 41
-30.0
 62
     5
 63
     7
421
 16777215
 74
     2
 91
        2
 64
     7
 65
   257
 75
     2
175
     1
 42
40.0
 92
        0
 66
   257
 43
1.0
 76
     1
 77
     6
 78
     2
 67
     7
 79
     3
170
     0
171
     0
290
     0
174
     0
 93
        1
 44
0.0
173
     0
291
     0
 45
0.0
1001
ACAD
1000
AcDbSavedByObjectVersion
1070
     0
  0
VISUALSTYLE
  5
30
102
{ACAD_REACTORS
330
2A
102
}
330
2A
100
AcDbVisualStyle
  2
3dWireframe
 70
     5
 71
     0
 72
     2
 73
     0
 90
        0
 40
-0.6
 41
-30.0
 62
     5
 63
     7
421
 16777215
 74
     1
 91
        4
 64
     7
 65
   257
 75
     1
175
     1
 42
1.0
 92
        0
 66
   257
 43
1.0
 76
     1
 77
     6
 78
     2
 67
     7
 79
     5
170
     0
171
     0
290
     0
174
     0
 93
        1
 44
0.0
173
     0
291
     0
 45
0.0
1001
ACAD
1000
AcDbSavedByObjectVersion
1070
     0
  0
VISUALSTYLE
  5
32
102
{ACAD_REACTORS
330
2A
102
}
330
2A
100
AcDbVisualStyle
  2
Basic
 70
     7
 71
     1
 72
     0
 73
     1
 90
        0
 40
-0.6
 41
-30.0
 62
     5
 63
     7
421
 16777215
 74
     0
 91
        4
 64
     7
 65
   257
 75
     1
175
     1
 42
1.0
 92
        8
 66
     7
 43
1.0
 76
     1
 77
     6
 78
     2
 67
     7
 79
     5
170
     0
171
     0
290
     0
174
     0
 93
        1
 44
0.0
173
     0
291
     1
 45
0.0
1001
ACAD
1000
AcDbSavedByObjectVersion
1070
     0
  0
VISUALSTYLE
  5
36
102
{ACAD_REACTORS
330
2A
102
}
330
2A
100
AcDbVisualStyle
  2
Brighten
 70
    12
 71
     2
 72
     2
 73
     0
 90
        0
 40
-0.6
 41
-30.0
 62
     5
 63
     7
421
 16777215
 74
     1
 91
        4
 64
     7
 65
   257
 75
     1
175
     1
 42
1.0
 92
        8
 66
     7
 43
1.0
 76
     1
 77
     6
 78
     2
 67
     7
 79
     5
170
     0
171
     0
290
     0
174
     0
 93
        1
 44
50.0
173
     0
291
     1
 45
0.0
1001
ACAD
1000
AcDbSavedByObjectVersion
1070
     0
  0
VISUALSTYLE
  5
3A
102
{ACAD_REACTORS
330
2A
102
}
330
2A
100
AcDbVisualStyle
  2
ColorChange
 70
    16
 71
     2
 72
     2
 73
     3
 90
        0
 40
-0.6
 41
-30.0
 62
     5
 63
     8
421
  8421504
 74
     1
 91
        4
 64
     7
 65
   257
 75
     1
175
     1
 42
1.0
 92
        8
 66
     8
424
  8421504
 43
1.0
 76
     1
 77
     6
 78
     2
 67
     7
 79
     5
170
     0
171
     0
290
     0
174
     0
 93
        1
 44
0.0
173
     0
291
     1
 45
0.0
1001
ACAD
1000
AcDbSavedByObjectVersion
1070
     0
  0
VISUALSTYLE
  5
34
102
{ACAD_REACTORS
330
2A
102
}
330
2A
100
AcDbVisualStyle
  2
Conceptual
 70
     9
 71
     3
 72
     2
 73
     0
 90
        0
 40
-0.6
 41
-30.0
 62
     5
 63
     7
421
 16777215
 74
     2
 91
        2
 64
     7
 65
   257
 75
     1
175
     1
 42
40.0
 92
        8
 66
     7
 43
1.0
 76
     1
 77
     6
 78
     2
 67
     7
 79
     3
170
     0
171
     0
290
     0
174
     0
 93
        1
 44
0.0
173
     0
291
     0
 45
0.0
1001
ACAD
1000
AcDbSavedByObjectVersion
1070
     0
  0
VISUALSTYLE
  5
35
102
{ACAD_REACTORS
330
2A
102
}
330
2A
100
AcDbVisualStyle
  2
Dim
 70
    11
 71
     2
 72
     2
 73
     0
 90
        0
 40
-0.6
 41
-30.0
 62
     5
 63
     7
421
 16777215
 74
     1
 91
        4
 64
     7
 65
   257
 75
     1
175
     1
 42
1.0
 92
        8
 66
     7
 43
1.0
 76
     1
 77
     6
 78
     2
 67
     7
 79
     5
170
     0
171
     0
290
     0
174
     0
 93
        1
 44
-50.0
173
     0
291
     1
 45
0.0
1001
ACAD
1000
AcDbSavedByObjectVersion
1070
     0
  0
VISUALSTYLE
  5
39
102
{ACAD_REACTORS
330
2A
102
}
330
2A
100
AcDbVisualStyle
  2
Facepattern
 70
    15
 71
     2
 72
     2
 73
     0
 90
        0
 40
-0.6
 41
-30.0
 62
     5
 63
     7
421
 16777215
 74
     1
 91
        4
 64
     7
 65
   257
 75
     1
175
     1
 42
1.0
 92
        8
 66
     7
 43
1.0
 76
     1
 77
     6
 78
     2
 67
     7
 79
     5
170
     0
171
     0
290
     0
174
     0
 93
        1
 44
0.0
173
     0
291
     1
 45
0.0
1001
ACAD
1000
AcDbSavedByObjectVersion
1070
     0
  0
VISUALSTYLE
  5
2B
102
{ACAD_REACTORS
330
2A
102
}
330
2A
100
AcDbVisualStyle
  2
Flat
 70
     0
 71
     2
 72
     1
 73
     1
 90
        2
 40
-0.6
 41
30.0
 62
     5
 63
     7
421
 16777215
 74
     0
 91
        4
 64
     7
 65
   257
 75
     1
175
     1
 42
1.0
 92
        8
 66
     7
 43
1.0
 76
     1
 77
     6
 78
     2
 67
     7
 79
     5
170
     0
171
     0
290
     0
174
     0
 93
       13
 44
0.0
173
     0
291
     1
 45
0.0
1001
ACAD
1000
AcDbSavedByObjectVersion
1070
     0
  0
VISUALSTYLE
  5
2C
102
{ACAD_REACTORS
330
2A
102
}
330
2A
100
AcDbVisualStyle
  2
FlatWithEdges
 70
     1
 71
     2
 72
     1
 73
     1
 90
        2
 40
-0.6
 41
30.0
 62
     5
 63
     7
421
 16777215
 74
     1
 91
        4
 64
     7
 65
   257
 75
     1
175
     1
 42
1.0
 92
        0
 66
   257
 43
1.0
 76
     1
 77
     6
 78
     2
 67
     7
 79
     5
170
     0
171
     0
290
     0
174
     0
 93
       13
 44
0.0
173
     0
291
     1
 45
0.0
1001
ACAD
1000
AcDbSavedByObjectVersion
1070
     0
  0
VISUALSTYLE
  5
2D
102
{ACAD_REACTORS
330
2A
102
}
330
2A
100
AcDbVisualStyle
  2
Gouraud
 70
     2
 71
     2
 72
     2
 73
     1
 90
        2
 40
-0.6
 41
30.0
 62
     5
 63
     7
421
 16777215
 74
     0
 91
        4
 64
     7
 65
   257
 75
     1
175
     1
 42
1.0
 92
        0
 66
     7
 43
1.0
 76
     1
 77
     6
 78
     2
 67
     7
 79
     5
170
     0
171
     0
290
     0
174
     0
 93
       13
 44
0.0
173
     0
291
     1
 45
0.0
1001
ACAD
1000
AcDbSavedByObjectVersion
1070
     0
  0
VISUALSTYLE
  5
2E
102
{ACAD_REACTORS
330
2A
102
}
330
2A
100
AcDbVisualStyle
  2
GouraudWithEdges
 70
     3
 71
     2
 72
     2
 73
     1
 90
        2
 40
-0.6
 41
30.0
 62
     5
 63
     7
421
 16777215
 74
     1
 91
        4
 64
     7
 65
   257
 75
     1
175
     1
 42
1.0
 92
        0
 66
   257
 43
1.0
 76
     1
 77
     6
 78
     2
 67
     7
 79
     5
170
     0
171
     0
290
     0
174
     0
 93
       13
 44
0.0
173
     0
291
     1
 45
0.0
1001
ACAD
1000
AcDbSavedByObjectVersion
1070
     0
  0
VISUALSTYLE
  5
38
102
{ACAD_REACTORS
330
2A
102
}
330
2A
100
AcDbVisualStyle
  2
Linepattern
 70
    14
 71
     2
 72
     2
 73
     0
 90
        0
 40
-0.6
 41
-30.0
 62
     5
 63
     7
421
 16777215
 74
     1
 91
        4
 64
     7
 65
   257
 75
     7
175
     7
 42
1.0
 92
        8
 66
     7
 43
1.0
 76
     1
 77
     6
 78
     2
 67
     7
 79
     5
170
     0
171
     0
290
     0
174
     0
 93
        1
 44
0.0
173
     0
291
     1
 45
0.0
1001
ACAD
1000
AcDbSavedByObjectVersion
1070
     0
  0
VISUALSTYLE
  5
33
102
{ACAD_REACTORS
330
2A
102
}
330
2A
100
AcDbVisualStyle
  2
Realistic
 70
     8
 71
     2
 72
     2
 73
     0
 90
        0
 40
-0.6
 41
-30.0
 62
     5
 63
     7
421
 16777215
 74
     1
 91
        0
 64
     7
 65
   257
 75
     1
175
     1
 42
1.0
 92
        8
 66
     8
424
  7895160
 43
1.0
 76
     1
 77
     6
 78
     2
 67
     7
 79
     5
170
     0
171
     0
290
     0
174
     0
 93
       13
 44
0.0
173
     0
291
     0
 45
0.0
1001
ACAD
1000
AcDbSavedByObjectVersion
1070
     0
  0
VISUALSTYLE
  5
37
102
{ACAD_REACTORS
330
2A
102
}
330
2A
100
AcDbVisualStyle
  2
Thicken
 70
    13
 71
     2
 72
     2
 73
     0
 90
        0
 40
-0.6
 41
-30.0
 62
     5
 63
     7
421
 16777215
 74
     1
 91
        4
 64
     7
 65
   257
 75
     1
175
     1
 42
1.0
 92
       12
 66
     7
 43
1.0
 76
     1
 77
     6
 78
     2
 67
     7
 79
     5
170
     0
171
     0
290
     0
174
     0
 93
        1
 44
0.0
173
     0
291
     1
 45
0.0
1001
ACAD
1000
AcDbSavedByObjectVersion
1070
     0
  0
ENDSEC
  0
SECTION
  2
THUMBNAILIMAGE
 90
    16364
310
28000000B40000005500000001000800000000000000000000000000000000000000000000000000FFFFFF000000FF0000FFFF0000FF0000FFFF0000FF000000FF00FF000000000080808000C0C0C0000000FF007F7FFF000000A5005252A50000007F003F3F7F0000004C0026264C000000260013132600003FFF007F9FFF
310
000029A5005267A500001F7F003F4F7F0000134C00262F4C000009260013172600007FFF007FBFFF000052A500527CA500003F7F003F5F7F0000264C0026394C0000132600131C260000BFFF007FDFFF00007CA5005291A500005F7F003F6F7F0000394C0026424C00001C26001321260000FFFF007FFFFF0000A5A50052A5
310
A500007F7F003F7F7F00004C4C00264C4C00002626001326260000FFBF007FFFDF0000A57C0052A59100007F5F003F7F6F00004C3900264C420000261C001326210000FF7F007FFFBF0000A5520052A57C00007F3F003F7F5F00004C2600264C39000026130013261C0000FF3F007FFF9F0000A5290052A56700007F1F003F
310
7F4F00004C1300264C2F00002609001326170000FF00007FFF7F0000A5000052A55200007F00003F7F3F00004C0000264C260000260000132613003FFF00009FFF7F0029A5000067A552001F7F00004F7F3F00134C00002F4C260009260000172613007FFF0000BFFF7F0052A500007CA552003F7F00005F7F3F00264C0000
310
394C2600132600001C261300BFFF0000DFFF7F007CA5000091A552005F7F00006F7F3F00394C0000424C26001C26000021261300FFFF0000FFFF7F00A5A50000A5A552007F7F00007F7F3F004C4C00004C4C26002626000026261300FFBF0000FFDF7F00A57C0000A59152007F5F00007F6F3F004C3900004C422600261C00
310
0026211300FF7F0000FFBF7F00A5520000A57C52007F3F00007F5F3F004C2600004C39260026130000261C1300FF3F0000FF9F7F00A5290000A56752007F1F00007F4F3F004C1300004C2F26002609000026171300FF000000FF7F7F00A5000000A55252007F0000007F3F3F004C0000004C2626002600000026131300FF00
310
3F00FF7F9F00A5002900A55267007F001F007F3F4F004C0013004C262F002600090026131700FF007F00FF7FBF00A5005200A5527C007F003F007F3F5F004C0026004C2639002600130026131C00FF00BF00FF7FDF00A5007C00A55291007F005F007F3F6F004C0039004C26420026001C0026132100FF00FF00FF7FFF00A5
310
00A500A552A5007F007F007F3F7F004C004C004C264C002600260026132600BF00FF00DF7FFF007C00A5009152A5005F007F006F3F7F0039004C0042264C001C002600211326007F00FF00BF7FFF005200A5007C52A5003F007F005F3F7F0026004C0039264C00130026001C1326003F00FF009F7FFF002900A5006752A500
310
1F007F004F3F7F0013004C002F264C000900260017132600000000002D2D2D005B5B5B0089898900B7B7B700B3B3B30000000000000000000000000000000000000000000000000000000000000000000000000000000000000000000000000000000000000000000000000000010101010101000000000000000000000000
310
00000000000000000000000000000000000000000000000000000000000000000000000000000000000000000000000000000000000000000000000000000000000000000000000101010100000000000000000000000000000000000000000000000000000000000000000000000000000000000000000000000000000000
310
00000000000000000000000000000000000000000000000000000000000000000000000100010001010000000000000000000000000000000000000000000000000000000000000000000000000000000000000000000000000000000000000000000000000000000000000000000000000000000000000000000000010101
310
01000000000000000000000000000000000000000000000000000000000000000000000000000000000000000000000000000000000000000000000000000000000000000000000000000000000000010100000000000000010001000101000000000000000101010000000000000000000000000000000000000000000000
310
00000000000000000000000000000000000000000000000000000000000000000000000000000000000000000000000000000101010100000000000000000000000000000000000000000000000000000000000000000000000000000000000000000000000000000000000000000000000000000000000000000000000000
310
00000101010100010000000000010001010101010101000000000001010001010000000000000000000000000000000000000000000000000000000000000000000000000000000000000000000000000000000000000000000000000000000000000101010101010101010101010100000000000000000000000000000000
310
00000000000000000000000000000000000000000000000000000000000000000000000000000000000000000000000000000000000000010100000100010101010101010000000000010101010101010001000101000000000000000000000000000000000000000000000000000000000000000000000000000000000000
310
00000000000000000000000000000000000000000000000001010101010101010101010101010000000000000000000000000000000000000000000000000000000000000000000000000000000000000000000000000000000000000000000000000000000000000000000001000101010101000000000000010101010100
310
00000000000101010101010000000000000000000000000000000000000000000000000000000000000000000000000000000000000000000000000000000000000000000000000000000000000101010101010101010101010101000000000000000000000000000000000000000000000000000000000000000000000000
310
00000000000000000000000000000000000000000000000000000000000000000001010100000000000101010101010000000000010101010101000000000101010000000000000000000000000000000000000000000000000000000000000000000000000000000000000000000000000000000000000000000000000000
310
00000001000000010101010100000000010000000000000000000000000000000000000000000000000000000000000000000000000000000000000000000000000000000000000000000000000000010000000000010100000001010101000000000000000000000000000000000001010100000001010000000000010100
310
00000000000000000000000000000000000000000000000000000000000000000000000000000000000000000000000000000000000000000100000000010101000000000001000000000000000000000000000000000000000000000000000000000000000000000000000000000000000000000000000000000000000000
310
00000001010001010101010000000101000000000000000000000000000000000000000000000000010100000001010101010001010000000000000000000000000000000000000000000000000000000000000000000000000000000000000000000000000000000000000000010000000001010100000000000100000000
310
00000000000000000000000000000000000000000000000000000000000000000000000000000000000000000000000000000000000000010100010001010000000101000000000000000000000000000000000000000000000000000000000101000000010100010000010100000000000000000000000000000000000000
310
00000000000000000000000000000000000000000000000000000000000000000000000100000000010101000000000001000000000000000000000000000000000000000000000000000000000000000000000000000000000000000000000000000000000000000000000001000101010000000101000000000000000000
310
00000000000000000000000000000000000000000000000101000000010101010100000000000000000000000000000000000000000000000000000000000000000000000000000000000000000000000000000000000000010000000001010100000000000100000000000000000000000000000000000000000000000000
310
00000000000000000000000000000000000000000000000000000000000000000000010001010000010100000000000000000000000000000000000000000000000000000000000000000000000001010000010100010000000000000000000000000000000000000000000000000000000000000000000000000000000000
310
00000000000000000000000000000100000000010101000000000001000000000000000000000000000000000000000000000000000000000000000000000000000000000000000000000000000000000000000000000001010000010100000000000000000000000000000000000000000000000000000000000000000000
310
00000000000001010000010100000000000000000000000000000000000000000000000000000000000000000000000000000000000000000000000000000000000000010000000001010100000000000100000000000000000000000000000000000000000000000000000000000000000000000000000000000000000000
310
00000000000000000000000000010000010000000000000000000000000000000000000000000000000000000000000000000000000000000000000000010000010000000000000000000000000000000000000000000000000000000000000000000000000000000000000000000000000000000000000001000000000101
310
01000000000001000000000000000000000000000000000000000000000000000000000000000000000000000000000000000000000000000000000000000000000100000100000000000000000000000000000000000000000000000000000000000000000000000000000000000000000000010000010000000000000000
310
00000000000000000000000000000000000000000000000000000000000000000000000000000000000000000000010000000001010100000000000100000000000000000000000000000000000000000000000000000000000000000000000000000000000000000000000000000000000000000000010001000000000000
310
00000000000000000000000000000000000000000000000000000000000000000000000000000000000001000001000000000000000000000000000000000000000000000000000000000000000000000000000000000000000000000000000000000001000000000101010000000000010000000000000000000000000000
310
00000000000000000000000000000000000000000000000000000000000000000000000000000101010101010001000000000000000000000000000000000000000000000000000000000000000000000000000000000000000000000000000001000001010101010000000000000000000000000000000000000000000000
310
00000000000000000000000000000000000000000000000000010000000001010100000000000100000000000000000000000000000000000000000000000000000000000000000000000000000000000000000000000000000001010000000100010000000000000000000000000000000000000000000000000000000000
310
00000000000000000000000000000000000000000000000100000100000101000000000000000000000000000000000000000000000000000000000000000000000000000000000000000000000001000000000101010000000000010000000000000000000000000000000000000000000000000000000000000000000000
310
00000000000000000000000000000000010001010100010000000000000000000000000000000000000000000000000000000000000000000000000000000000000000000000000000000000000100000101000101000000000000000000000000000000000000000000000000000000000000000000000000000000000000
310
00000000010000000001010100000000000100000000000000000000000000000000000000000000000000000000000000000000000000000000000000000000000000000100010101000100000000000000000000000000000000000000000000000000000000000000000000000000000000000000000000000000000000
310
00000000010000010100010000000000000000000000000000000000000000000000000000000000000000000000000000000000000000000001000000000101010000000000010000000000000000000000000000000000000000000000000000000000000000000000000000000000000000000000000000000100010001
310
00000000000000000000000000000000000000000000000000000000000000000000000000000000000000000000000000000000000000000000010001000100000000000000000000000000000000000000000000000000000000000000000000000000000000000000000000000100000000010101000000000001000000
310
00000000000000000000000000000000000000000000000000000000000000000000000000000000000000000000000001000101000000000000000000000000000000000000000000000000000000000000000000000000000000000000000000000000000000000000000000000000010001010000000000000000000000
310
00000000000000000000000000000000000000000000000000000000000000000000000001000000000101010000000000010000000000000000000000000000000000000000000000000000000000000000000000000000000000000000000000000000000101000100000000000000000000000000000000000000000000
310
00000000000000000000000000000000000000000000000000000000000000000000000000000100010100000000000000000000000000000000000000000000000000000000000000000000000000000000000000000000000100000000010101000000000001000000000000000000000000000000000000000000000000
310
00000000000000000000000000000000000000000000000000000000010100000000000000000000000000000000000000000000000000000000000000000000000000000000000000000000000000000000000000000000000000000100010000000000000000000000000000000000000000000000000000000000000000
310
00000000000000000000000000000001000000000101010000000000010000000000000000000000000000000000000000000000000000000000000000000000000000000000000000000000000000000100010000000000000000000000000000000000000000000000000000000000000000000000000000000000000000
310
00000000000000000000000000000000000001000100000000000000000000000000000000000000000000000000000000000000000000000000000000000000000000000100000000010101000000000001000000000000000000000000000000000000000000000000000000000000000000000000000000000000000000
310
00000000000001010000000000000000000000000000000000000000000000000000000000000000000000000000000000000000000000000000000000000000000000000000000001000100000000000000000000000000000000000000000000000000000000000000000000000000000000000000000000010000000101
310
01010100000000010000000000000000000000000000000000000000000000000000000000000000000000000000000000000000000000000000010001000000000000000000000000000000000000000101010101010101010101010101010101010101010101010101010000000000000000000000000000000000000001
310
01010000000000000000000000000000000000000000000000000000000000000000000000000000000000000000000101010101010101010101010101000000000000000000000000000000000000000000000000000000000000000000000000000000000000000000000101010101010000000000000000000000000000
310
00000000010100000000000000000000000000000000000000000000000000000001010000000000000000000000000000000000010001010101000000000000000000000000000000000000000000000000000000000000000000000000000000000000010101010101010101010101010100000000000000000000000000
310
00000000000000000000000000000000000000000000000000000000000000000001000001000100000000000000000000000000000000000100000101010101010101010101010101010101010101010101010101010001000000000000000000000000000000000000010100000101000000000000000000000000000000
310
00000000000000000000000000000000000000000000000000000101010101010101010101010101000000000000000000000000000000000000000000000000000000000000000000000000000000000000000000010001010101000000000000000000000000000000000000010000010000000000000000000000000000
310
00000000000000000000000100010000000000000000000000000000000000000100010100010000000000000000000000000000000000000000000000000000000000000000000000000000000000010000000000000000000000000100000000000000000000000000000000000000000000000000000000000000000000
310
00000000000000000000000101010100010000000000000000000000000000000000000100000100000000000000000000000000000000000000000000000000010001000000000000000000000000000000000000000101010101010000000000000000000000000000000000000000000000000000000000000000000000
310
00000000000100000000000000000000000001000000000000000000000000000000000000000000000000000000000000000000000000000000000000000000010000010001000000000000000000000000000000000000010000010000000000000000000000000000000000000000000000000001000100000000000000
310
00000000000000000000000001010000010000000000000000000000000000000000000000000000000000000000000000000000000000000000010000000000000000000000000100000000000000000000000000000000000000000000000000000000000000000000000000000000000000000000010001000100000000
310
00000000000000000000000000000100000100000000000000000000000000000000000000000000000000010001000000000000000000000000000000000000000101000100000000000000000000000000000000000000000000000000000000000000000000000000000000000001000000000000000000000000010000
310
00000000000000000000000000000000000000000000000000000000000000000000000000000000000000000001000100000000000000000000000000000000000000010000010000000000000000000000000000000000000000000000000001000100000000000000000000000000000000000000010001000000000000
310
00000000000000000000000000000000000000000000000000000000000000000000000000010000000000000000000000000100000000000000000000000000000000000000000000000000000000000000000000000000000000000000000000000100010000000000000000000000000000000000000001000001000000
310
00000000000000000000000000000000000000000000010001000000000000000000000000000000000000000100010000000000000000000000000000000000000000000000000000000000000000000000000000000000000001000000000000000000000000010000000000000000000000000000000000000000000000
310
00000000000000000000000000000000000000000000000001000100000000000000000000000000000000000000010001010000000000000000000000000000000000000000000000000001000100000000000000000000000000000000000000010001000000000000000000000000000000000000000000000000000000
310
00000000000000000000000000000000010101010101010101010101010100000000000000000000000000000000000000000000000000000000000000000000000000000000000000000000000100010000000000000000000000000000000000000001000100000000000000000000000000000000000000000000000000
310
00010001000000000000000000000000000000000000000100010000000000000000000000000000000000000000000000000000000000000000000000000000000000000001000000000000000000000000010000000000000000000000000000000000000000000000000000000000000000000000000000000000000000
310
00000001000100000000000000000000000000000000000000010001000000000000000000000000000000000000000000000000000001000100000000000000000000000000000000000000000101000000000000000000000000000000000000000000000000000000000000000000000000000000000000000100000000
310
00000000000000000100000000000000000000000000000000000000000000000000000000000000000000000000000000000000000000010100010000000000000000000000000000000000000001000100000000000000000000000000000000000000000000000000000100010000000000000000000000000000000000
310
00000001010100000000000000000000000000000000000000000000000000000000000000000000000000000000000001000000000000000000000000010000000000000000000000000000000000000000000000000000000000000000000000000000000000000000010101000100000000000000000000000000000000
310
00000000010001000000000000000000000000000000000000000000000000000001000100000000000000000000000000000000000000000100010101010000000000000000000000000000000000000000000000000000000000000000000000000000000100000000000000000000000001000000000000000000000000
310
00000000000000000000000000000000000000000000000000000000000000010100010001000000000000000000000000000000000000000001000100000000000000000000000000000000000000000000000000000100010000000000000000000000000000000000000000010001000001000000000000000000000000
310
00000000000000000000000000000000000000000000000000000001000000000000000000000000010000000000000000000000000000000000000000000000000000000000000000000000000000000000000001010101000100000000000000000000000000000000000000000100010000000000000000000000000000
310
00000000000000000000000001000100000000000000000000000000000000000000000100010101010000000000000000000000000000000000000000000000000000000000000000000000000000000100000000000000000000000001000000000000000000000000000000000000000000000000000000000000000000
310
00000000000000000000010101010001000000000000000000000000000000000000000001000100000000000000000000000000000000000000000000000000000100010000000000000000000000000000000000000001010101010101000000000000000000000000000000000000000000000000000000000000000000
310
00000000000001000000000000000000000000010000000000000000000000000000000000000000000000000000000000000000000000000000000000000001010001000100000000000000000000000000000000000000000100010000000000000000000000000000000000000000000000000000010001000000000000
310
00000000000000000000000001000100000000010000000000000000000000000000000000000000000000000000000000000000000000000000000100000000000000000000000001000000000000000000000000000000000000000000000000000000000000000000000000000000000000000001010100010000000000
310
00000000000000000000000000000001000100000000000000000000000000000000000000000000000000000100010000000000000000000000000000000000010001000000010101000000000000000000000000000000000000000000000000000000000000000000000000000000010000000000000000000000000100
310
00000000000000000000000000000000000000000000000000000000000000000000000000000000000000000001010001000000000000000000000000000000000000000100010000000000000000000000000000000000000000000000000000010001000000000000000000000000000000000100010000000100000000
310
00000000000000000000000000000000000000000000000000000000000000000000000000000100000000000000000000000001000000000000000000000000000000000000000000000000000000000000000000000000000000000000000000000001000100000000000000000000000000000000000000010001000000
310
00000000000000000000000000000000000000000000000100010000000000000000000000000000000100010000000000000000000000000000000000000000000000000000000000000000000000000000000000000000000000010000000000000000000000000100000000000000000000000000000000000000000000
310
00000000000000000000000000000000000000000000000000010001000000000000000000000000000000000000000100010000000000000000000000000000000000000000000000000000010001000000000000000000000000000001000100000000000000000000000000000000000000000000000000000000000000
310
00000000000000000000000000000000000100000000000000000000000001000000000000000000000000000000000000000000000000000000000000000000000000000000000000000000000001000100000000000000000000000000000000000000010001010000000000000000000000000000000000000000000000
310
00000100010000000000000000000000000001000100000000000000000000000000000000000000000000000000000000000000000000000000000000000000000000000000010101010101010101010101010100000000000000000000000000000000000000000000000000000000000000000000000000000000000000
310
00000000010001000000000000000000000000000000000000000100000100000000000000000000000000000000000000000000000000010001000000000000000000000000010001000000000000000000000000000000000000000000000000000000000000000000000000000000000000000000000000000001000000
310
00000000000000000001000000000000000000000000000000000000000000000000000000000000000000000000000000000000000000000001000100000000000000000000000000000000000000010000010000000000000000000000000000000000000000000000000001000100000000000000000000000100010000
310
00000000000100000000000000000000000000000000000000000000000000000000000000000000000000000000000000010000000000000000000000000100000000000000000000000000000000000000000000000000000000000000000000000000000000000000000000010001000100000000000000000000000000
310
00000000000100000100000000000000000000000000000000000000000000000000010001000000000000000000000100010000000000000000000100000000000000000000000000000000000000000000000000000000000000000000000000000000000001000000000000000000000000010000000000000000000000
310
00000000000000000000000000000000000000000000000000000000000000000000010000010001000000000000000000000000000000000000010000010000000000000000000000000000000000000000000000000001000100000000000000000001000100000000000000000000000100000000000000000000000000
310
00000000000000000000000000000000000000000000000000000000010000000000000000000000000100000000000000000000000000000000000000000000000000000000000000000000000000000000000000000001010101000100000000000000000000000000000000000001000001000000000000000000000000
310
00000000000000000000000000010001000000000000000001000100000000000000000001010101010000000000000000000000000000000000000000000000000000000000000000000000000000000001000000000000000000000000010000000000000000000000000000000000000000000000000000000000000000
310
00000000000000000000000000010000010101000000000000000000000000000000000000010000010000000000000000000000000000000000000000000000000001000100000000000000010001000000000000000000000100000100000000000000000000000000000000000000000000000000000000000000000000
310
00000000000000010000000000000000000000000100000000000000000000000000000000000000000000000000000000000000000000000000000000000000000000010100010001000000000000000000000000000000000001000001010101010101010101010101010101010101010101010101010100010000000000
310
00010001000000000000000000000000010101000000000000000000000000000000000000000000000000000000000000000000000000000000000001010101010101010101010101010000000000000000000000000000000000000000000000000000000000000000000000000000000000000000000001010100010100
310
00000000000000000000000000000000000100000000000000000000000000000000000000000000000000000000000100000000000100010000000000000000000000000101010000000000000000000000000000000000000000000000000000000000000000000000000000000000000101010101010101010101010101
310
00000000000000000000000000000000000000000000000000000000000000000000000000000000000000000000000000010100010000000000000000000000000000000000000101010101010101010101010101010101010101010101010101010101000000000001000100000000000000000000000001000000000000
310
00000000000000000000000000000000000000000000000000000000000000000000000000000001010101010101010101010101010000000000000000000000000000000000000000000000000000000000000000000000000000000000000000000000000000000101000000000000000000000000000000000000000000
310
00000000000000000000000000000000000000000000000000000000000001000100000000000000000000000000000000000000000000000000000000000000000000000000000000000000000000000000000000000000000000000100000001010101010000000001000000000000000000000000000000000000000000
310
00000000000000000000000000000000000000000000000000000000000001000100000000000000000000000000000000000000000000000000000000000000000000000000000000000000000000000000010001000000000000000000000000000000000000000000000000000000000000000000000000000000000000
310
00000000000000000000000000000000000001000000000101010000000000010000000000000000000000000000000000000000000000000000000000000000000000000000000000000000000000000000000001010000000000000000000000000000000000000000000000000000000000000000000000000000000000
310
00000000000000000101000000000000000000000000000000000000000000000000000000000000000000000000000000000000000000000000000000000000000000000000000100000000010101000000000001000000000000000000000000000000000000000000000000000000000000000000000000000000000000
310
00000000000000000001010001000000000000000000000000000000000000000000000000000000000000000000000000000000000000000000000001000100000000000000000000000000010000000000000000000000000000000000000000000000000000000000000000000000000000000000000000000000010000
310
00000101010000000000010000000000000000000000000000000000000000000000000000000000000000000000000000000000000000000000000000000100010100000000000000000000000000000000000000000000000000000000000000000000000000000000000000000000010001000000000000000000000000
310
00000100000000000000000000000000000000000000000000000000000000000000000000000000000000000000000000000100000000010101000000000001000000000000000000000000000000000000000000000000000000000000000000000000000000000000000000000000000000010001000100000000000000
310
00000000000000000000000000000000000000000000000000000000000000000000000000010001000000000000000000000000000000010000000000000000000000000000000000000000000000000000000000000000000000000000000000000000000000010000000001010100000000000100000000000000000000
310
00000000000000000000000000000000000000000000000000000000000000000000000000000000010001010100010000000000000000000000000000000000000000000000000000000000000000000000000000000000000100010000000000000000000000000000010100010000000000000000000000000000000000
310
00000000000000000000000000000000000000000000000000000000000100000000010101000000000001000000000000000000000000000000000000000000000000000000000000000000000000000000000000000000000000000000010000010100010000000000000000000000000000000000000000000000000000
310
00000000000000000000000000000100010000000000000000000000000000000100010100000000000000000000000000000000000000000000000000000000000000000000000000000000000000000000010000000001010100000000000100000000000000000000000000000000000000000000000000000000000000
310
00000000000000000000000000000000000000000101010000010001000000000000000000000000000000000000000000000000000000000000000000000000000001000100000000000000000000000000000000000101000000000000000000000000000000000000000000000000000000000000000000000000000000
310
00000000000000000100000000010101000000000001000000000000000000000000000000000000000000000000000000000000000000000000000000000000000000000000000000000101010101010001000000000000000000000000000000000000000000000000000000000000000000000000010001000000000000
310
00000000000000000101010101000000000000000000000000000000000000000000000000000000000000000000000000000000000000000000000000010000000001010100000000000100000000000000000000000000000000000000000000000000000000000000000000000000000000000000000000000000000000
310
00000000000001000100000000000000000000000000000000000000000000000000000000000000000000010001000000000000000000000000000000000000000000000000000000000000000000000000000000000000000000000000000000000000000000000000000000000000000001000000000101010000000000
310
01000000000000000000000000000000000000000000000000000000000000000000000000000000000000000000000000000000000000000000000100000100000000000000000000000000000000000000000000000000000000000000000100010000000000000000000000000000000000000000000000000000000000
310
00000000000000000000000000000000000000000000000000000000000000000000000000000000010000000001010100000000000100000000000000000000000000000000000000000000000000000000000000000000000000000000000000000000000000000000000000000000000100000100000000000000000000
310
00000000000000000000000000000000000000000100010000000000000000000000000000010000000000000000000000000000000000000000000000000000000000000000000000000000000000000000000000000000000000000001000000000101010000000000010000000000000000000000000000000000000000
310
00000000000000000000000000000000000000000000000000000000000000000000000000000001010000010000000000000000000000000000000000000000000000000000000001000100000000000000000000000000000001000000000000000000000000000000000000000000000000000000000000000000000000
310
00000000000000000000000000000000000000010000000001010100000000000100000000000000000000000000000000000000000000000000000000000000000000000000000000000000000000000000000000000000000000000100010100010100000000000000000000000000000000000000000000000000010001
310
00000000000000000000000000010000010000000000000000000000000000000000000000000000000000000000000000000000000000000000000000000000000000000000000001000000000101010000000000010000000000000000000000000000000000000000000000000000000000000000000000000000000000
310
00000000000000000000000000000000000001000101010000010100000000000000000000000000000000000000000000010001000000000000000000000000000001010001000000000000000000000000000000000000000000000000000000000000000000000000000000000000000000000000000000000000000100
310
00000001010100000000000100000000000000000000000000000000000000000000000000000000000000000000000000000000000000000000000000000000000000000000000101000100010100000101000000000000000000000000000000000000000100010000000000000000000000000000000100010101000000
310
00000000000000000000000000000000000000000000000000000000000000000000000000000000000000000000000000000001000000000101010000000000010000000000000000000000000000000000000000000000000000000000000000000000000000000000000000000000000000000000000000000000000101
310
00010101010100000101000000000000000000000000000000000100010000000000000000000000000001010100010101000000000000000000000000000000000000000000000000000000000000000000000000000000000000000000000000000000000000000100000000010101000000000001000000000000000000
310
00000000000000000000000000000000000000000000000000000000000000000000000000000000000000000000000000000000000100000000000101000001010101000000000000000000000001000100000000000000000000000000000000000101000000000000000000000000000000000000000000000000000000
310
00000000000000000000000000000000000000000000000000000000000001000000000101010000000000010000000000000000000000000000000000000000000000000000000000000000000000000000000000000000000000000000000000000000000000000000000000000000000101010000000001010101010100
310
00000001000100000000000000000000000100000000000000000000000000000000000000000000000000000000000000000000000000000000000000000000000000000000000000000000000000000000000100000001010101010000000001000000000000000000000000000000000000000000000000000000000000
310
00000000000000000000000000000000000000000000000000000000000000000000000000000000010001010101000000000000010101010001000000000000000001010101000000000000000000000000000000000000000000000000000000000000000000000000000000000000000000000000000000000000000000
310
00000000000000000001010101010101010101010101010000000000000000000000000000000000000000000000000000000000000000000000000000000000000000000000000000000000000000000000000000000000000000000001010000010001010101010100000000010000000000000100000100010100000000
310
00000000000000000000000000000000000000000000000000000000000000000000000000000000000000000000000000000000000000000000000000000101010101010101010101010101000000000000000000000000000000000000000000000000000000000000000000000000000000000000000000000000000000
310
00000000000000000000000000000000000000010100010001010000000001010101010000000100000000010101000101000000000000000000000000000000000000000000000000000000000000000000000000000000000000000000000000000000000000000000000000000000000000010101010101010101010101
310
01000000000000000000000000000000000000000000000000000000000000000000000000000000000000000000000000000000000000000000000000000000000000000000000000000101010000000000000001000100010101000000000000010101000000000000000000000000000000000000000000000000000000
310
00000000000000000000000000000000000000000000000000000000000000000000000000000000000000000000010101010000000000000000000000000000000000000000000000000000000000000000000000000000000000000000000000000000000000000000000000000000000000000000000000000000000000
310
00000000000000000000010001000101000000000000000000000000000000000000000000000000000000000000000000000000000000000000000000000000000000000000000000000000000000000000000000000000000000000000000000000001010101000000000000000000000000000000000000000000000000
310
00000000000000000000000000000000000000000000000000000000000000000000000000000000000000000000000000000000000000000000000000000001010101010100000000000000000000000000000000000000000000000000000000000000000000000000000000000000000000000000000000000000000000
310
00000000000000000000000000000000000000000000000000010101010000000000000000000000000000000000000000000000000000000000000000000000000000000000000000000000000000000000000000000000000000000000000000000000000000000000000000000000000000000000000000000000000000
310
000000000000000000000000000000000000000000000000000000000000000000000000000000000000000000000000000000000000000000000000000000000000000000000000000000000000000000000000000000000000000000000000000000000000000000000000
  0
ENDSEC
  0
EOF
