  0
SECTION
  2
HEADER
  9
$ACADVER
  1
AC1018
  9
$ACADMAINTVER
 70
     0
  9
$DWGCODEPAGE
  3
ANSI_1252
  9
$INSBASE
 10
0.0
 20
0.0
 30
0.0
  9
$EXTMIN
 10
-1.8539105664517
 20
-85.40634383593815
 30
0.0
  9
$EXTMAX
 10
295.1144121874545
 20
124.5669838007806
 30
0.0
  9
$LIMMIN
 10
-1.8539105664517
 20
-85.40634383593815
  9
$LIMMAX
 10
295.1144121874545
 20
124.5669838007806
  9
$ORTHOMODE
 70
     0
  9
$REGENMODE
 70
     1
  9
$FILLMODE
 70
     1
  9
$QTEXTMODE
 70
     0
  9
$MIRRTEXT
 70
     1
  9
$LTSCALE
 40
1.0
  9
$ATTMODE
 70
     1
  9
$TEXTSIZE
 40
2.5
  9
$TRACEWID
 40
1.0
  9
$TEXTSTYLE
  7
Standard
  9
$CLAYER
  8
0
  9
$CELTYPE
  6
ByLayer
  9
$CECOLOR
 62
     7
  9
$CELTSCALE
 40
1.0
  9
$DISPSILH
 70
     0
  9
$DIMSCALE
 40
1.0
  9
$DIMASZ
 40
0.18
  9
$DIMEXO
 40
0.0625
  9
$DIMDLI
 40
0.38
  9
$DIMRND
 40
0.0000001
  9
$DIMDLE
 40
0.0
  9
$DIMEXE
 40
0.18
  9
$DIMTP
 40
0.0
  9
$DIMTM
 40
0.0
  9
$DIMTXT
 40
0.18
  9
$DIMCEN
 40
0.09
  9
$DIMTSZ
 40
0.0
  9
$DIMTOL
 70
     0
  9
$DIMLIM
 70
     0
  9
$DIMTIH
 70
     1
  9
$DIMTOH
 70
     1
  9
$DIMSE1
 70
     0
  9
$DIMSE2
 70
     0
  9
$DIMTAD
 70
     0
  9
$DIMZIN
 70
     0
  9
$DIMBLK
  1

  9
$DIMASO
 70
     1
  9
$DIMSHO
 70
     1
  9
$DIMPOST
  1

  9
$DIMAPOST
  1

  9
$DIMALT
 70
     0
  9
$DIMALTD
 70
     2
  9
$DIMALTF
 40
25.4
  9
$DIMLFAC
 40
1.0
  9
$DIMTOFL
 70
     0
  9
$DIMTVP
 40
0.0
  9
$DIMTIX
 70
     0
  9
$DIMSOXD
 70
     0
  9
$DIMSAH
 70
     0
  9
$DIMBLK1
  1

  9
$DIMBLK2
  1

  9
$DIMSTYLE
  2
Standard
  9
$DIMCLRD
 70
     0
  9
$DIMCLRE
 70
     0
  9
$DIMCLRT
 70
     0
  9
$DIMTFAC
 40
1.0
  9
$DIMGAP
 40
0.09
  9
$DIMJUST
 70
     0
  9
$DIMSD1
 70
     0
  9
$DIMSD2
 70
     0
  9
$DIMTOLJ
 70
     1
  9
$DIMTZIN
 70
     0
  9
$DIMALTZ
 70
     0
  9
$DIMALTTZ
 70
     0
  9
$DIMUPT
 70
     0
  9
$DIMDEC
 70
     4
  9
$DIMTDEC
 70
     4
  9
$DIMALTU
 70
     2
  9
$DIMALTTD
 70
     2
  9
$DIMTXSTY
  7
_TCW_TXTSTY_1
  9
$DIMAUNIT
 70
     0
  9
$DIMADEC
 70
     4
  9
$DIMALTRND
 40
0.0000001
  9
$DIMAZIN
 70
     0
  9
$DIMDSEP
 70
    46
  9
$DIMATFIT
 70
     3
  9
$DIMFRAC
 70
     0
  9
$DIMLDRBLK
  1

  9
$DIMLUNIT
 70
     2
  9
$DIMLWD
 70
    -2
  9
$DIMLWE
 70
    -2
  9
$DIMTMOVE
 70
     0
  9
$LUNITS
 70
     2
  9
$LUPREC
 70
     4
  9
$SKETCHINC
 40
1.0
  9
$FILLETRAD
 40
2.0
  9
$AUNITS
 70
     0
  9
$AUPREC
 70
     0
  9
$MENU
  1
.
  9
$ELEVATION
 40
0.0
  9
$PELEVATION
 40
0.0
  9
$THICKNESS
 40
0.0
  9
$LIMCHECK
 70
     0
  9
$CHAMFERA
 40
0.5
  9
$CHAMFERB
 40
0.5
  9
$CHAMFERC
 40
1.0
  9
$CHAMFERD
 40
0.0
  9
$SKPOLY
 70
     0
  9
$TDCREATE
 40
2454839.590236771
  9
$TDUCREATE
 40
2454839.548570104
  9
$TDUPDATE
 40
2454839.590236783
  9
$TDUUPDATE
 40
2454839.548570116
  9
$TDINDWG
 40
0.0
  9
$TDUSRTIMER
 40
0.0
  9
$USRTIMER
 70
     1
  9
$ANGBASE
 50
0.0
  9
$ANGDIR
 70
     0
  9
$PDMODE
 70
     0
  9
$PDSIZE
 40
0.0
  9
$PLINEWID
 40
0.0
  9
$SPLFRAME
 70
     0
  9
$SPLINETYPE
 70
     6
  9
$SPLINESEGS
 70
     8
  9
$HANDSEED
  5
45F
  9
$SURFTAB1
 70
     6
  9
$SURFTAB2
 70
     6
  9
$SURFTYPE
 70
     6
  9
$SURFU
 70
     6
  9
$SURFV
 70
     6
  9
$UCSBASE
  2

  9
$UCSNAME
  2

  9
$UCSORG
 10
0.0
 20
0.0
 30
0.0
  9
$UCSXDIR
 10
1.0
 20
0.0
 30
0.0
  9
$UCSYDIR
 10
0.0
 20
1.0
 30
0.0
  9
$UCSORTHOREF
  2

  9
$UCSORTHOVIEW
 70
     0
  9
$UCSORGTOP
 10
0.0
 20
0.0
 30
0.0
  9
$UCSORGBOTTOM
 10
0.0
 20
0.0
 30
0.0
  9
$UCSORGLEFT
 10
0.0
 20
0.0
 30
0.0
  9
$UCSORGRIGHT
 10
0.0
 20
0.0
 30
0.0
  9
$UCSORGFRONT
 10
0.0
 20
0.0
 30
0.0
  9
$UCSORGBACK
 10
0.0
 20
0.0
 30
0.0
  9
$PUCSBASE
  2

  9
$PUCSNAME
  2

  9
$PUCSORG
 10
0.0
 20
0.0
 30
0.0
  9
$PUCSXDIR
 10
1.0
 20
0.0
 30
0.0
  9
$PUCSYDIR
 10
0.0
 20
1.0
 30
0.0
  9
$PUCSORTHOREF
  2

  9
$PUCSORTHOVIEW
 70
     0
  9
$PUCSORGTOP
 10
0.0
 20
0.0
 30
0.0
  9
$PUCSORGBOTTOM
 10
0.0
 20
0.0
 30
0.0
  9
$PUCSORGLEFT
 10
0.0
 20
0.0
 30
0.0
  9
$PUCSORGRIGHT
 10
0.0
 20
0.0
 30
0.0
  9
$PUCSORGFRONT
 10
0.0
 20
0.0
 30
0.0
  9
$PUCSORGBACK
 10
0.0
 20
0.0
 30
0.0
  9
$USERI1
 70
     0
  9
$USERI2
 70
     0
  9
$USERI3
 70
     0
  9
$USERI4
 70
     0
  9
$USERI5
 70
     0
  9
$USERR1
 40
0.0
  9
$USERR2
 40
0.0
  9
$USERR3
 40
0.0
  9
$USERR4
 40
0.0
  9
$USERR5
 40
0.0
  9
$WORLDVIEW
 70
     1
  9
$SHADEDGE
 70
     3
  9
$SHADEDIF
 70
    70
  9
$TILEMODE
 70
     1
  9
$MAXACTVP
 70
    64
  9
$PINSBASE
 10
0.0
 20
0.0
 30
0.0
  9
$PLIMCHECK
 70
     0
  9
$PEXTMIN
 10
0.0
 20
0.0
 30
0.0
  9
$PEXTMAX
 10
0.0
 20
0.0
 30
0.0
  9
$PLIMMIN
 10
0.0
 20
0.0
  9
$PLIMMAX
 10
0.0
 20
0.0
  9
$UNITMODE
 70
     0
  9
$VISRETAIN
 70
     1
  9
$PLINEGEN
 70
     0
  9
$PSLTSCALE
 70
     1
  9
$TREEDEPTH
 70
  3020
  9
$CMLSTYLE
  2
Standard
  9
$CMLJUST
 70
     0
  9
$CMLSCALE
 40
1.0
  9
$PROXYGRAPHICS
 70
     1
  9
$MEASUREMENT
 70
     0
  9
$CELWEIGHT
370
    -1
  9
$ENDCAPS
280
     0
  9
$JOINSTYLE
280
     0
  9
$LWDISPLAY
290
     0
  9
$INSUNITS
 70
     1
  9
$HYPERLINKBASE
  1

  9
$STYLESHEET
  1

  9
$XEDIT
290
     1
  9
$CEPSNTYPE
380
     0
  9
$PSTYLEMODE
290
     1
  9
$FINGERPRINTGUID
  2
{CDFBC965-A7D9-48D3-BE9D-5770104923DB}
  9
$VERSIONGUID
  2
{FAEB1C32-E019-11D5-929B-00C0DF256EC4}
  9
$EXTNAMES
290
     1
  9
$PSVPSCALE
 40
0.0
  9
$OLESTARTUP
290
     0
  9
$SORTENTS
280
   127
  9
$INDEXCTL
280
     0
  9
$HIDETEXT
280
     1
  9
$XCLIPFRAME
290
     0
  9
$HALOGAP
280
     0
  9
$OBSCOLOR
 70
   257
  9
$OBSLTYPE
280
     0
  9
$INTERSECTIONDISPLAY
280
     0
  9
$INTERSECTIONCOLOR
 70
   257
  9
$DIMASSOC
280
     2
  9
$PROJECTNAME
  1

  0
ENDSEC
  0
SECTION
  2
CLASSES
  0
CLASS
  1
ACDBDICTIONARYWDFLT
  2
AcDbDictionaryWithDefault
  3
ObjectDBX Classes
 90
        0
 91
        3
280
     0
281
     0
  0
CLASS
  1
VISUALSTYLE
  2
AcDbVisualStyle
  3
ObjectDBX Classes
 90
     4095
 91
        3
280
     0
281
     0
  0
CLASS
  1
TCOPTIONALDATA
  2
TcOptionalData
  3
ExTcadCustObjs|Description: TurboCAD extension data object
 90
        0
 91
        3
280
     0
281
     0
  0
ENDSEC
  0
SECTION
  2
TABLES
  0
TABLE
  2
VPORT
  5
8
330
0
100
AcDbSymbolTable
 70
     1
  0
VPORT
  5
29
330
8
100
AcDbSymbolTableRecord
100
AcDbViewportTableRecord
  2
*Active
 70
     0
 10
0.0
 20
0.0
 11
1.0
 21
1.0
 12
0.0
 22
0.0
 13
0.0
 23
0.0
 14
10.0
 24
10.0
 15
10.0
 25
10.0
 16
0.0
 26
0.0
 36
1.0
 17
643.25208401025
 27
150.0811818808627
 37
0.0
 40
208.6215281751511
 41
1.972704714640199
 42
50.0
 43
0.0
 44
0.0
 50
0.0
 51
0.0
 71
     0
 72
   100
 73
     1
 74
     3
 75
     0
 76
     0
 77
     0
 78
     0
281
     0
 65
     1
110
0.0
120
0.0
130
0.0
111
1.0
121
0.0
131
0.0
112
0.0
122
1.0
132
0.0
 79
     0
146
0.0
  0
ENDTAB
  0
TABLE
  2
LTYPE
  5
5
330
0
100
AcDbSymbolTable
 70
    14
  0
LTYPE
  5
14
330
5
100
AcDbSymbolTableRecord
100
AcDbLinetypeTableRecord
  2
ByBlock
 70
     0
  3

 72
    65
 73
     0
 40
0.0
  0
LTYPE
  5
15
330
5
100
AcDbSymbolTableRecord
100
AcDbLinetypeTableRecord
  2
ByLayer
 70
     0
  3

 72
    65
 73
     0
 40
0.0
  0
LTYPE
  5
16
330
5
100
AcDbSymbolTableRecord
100
AcDbLinetypeTableRecord
  2
Continuous
 70
     0
  3
Solid line
 72
    65
 73
     0
 40
0.0
  0
LTYPE
  5
40
330
5
100
AcDbSymbolTableRecord
100
AcDbLinetypeTableRecord
  2
Durchgehend
 70
     0
  3
Durchgehend
 72
    65
 73
     0
 40
0.0
  0
LTYPE
  5
41
330
5
100
AcDbSymbolTableRecord
100
AcDbLinetypeTableRecord
  2
Rand
 70
     0
  3
Rand
 72
    65
 73
     6
 40
1.75
 49
0.5
 74
     0
 49
-0.25
 74
     0
 49
0.5
 74
     0
 49
-0.25
 74
     0
 49
0.0
 74
     0
 49
-0.25
 74
     0
  0
LTYPE
  5
42
330
5
100
AcDbSymbolTableRecord
100
AcDbLinetypeTableRecord
  2
Mitte
 70
     0
  3
Mitte
 72
    65
 73
     4
 40
2.0
 49
1.25
 74
     0
 49
-0.25
 74
     0
 49
0.25
 74
     0
 49
-0.25
 74
     0
  0
LTYPE
  5
43
330
5
100
AcDbSymbolTableRecord
100
AcDbLinetypeTableRecord
  2
Strichpunkt
 70
     0
  3
Strichpunkt
 72
    65
 73
     4
 40
1.0
 49
0.5
 74
     0
 49
-0.25
 74
     0
 49
0.0
 74
     0
 49
-0.25
 74
     0
  0
LTYPE
  5
44
330
5
100
AcDbSymbolTableRecord
100
AcDbLinetypeTableRecord
  2
Gestrichelt
 70
     0
  3
Gestrichelt
 72
    65
 73
     2
 40
0.75
 49
0.5
 74
     0
 49
-0.25
 74
     0
  0
LTYPE
  5
45
330
5
100
AcDbSymbolTableRecord
100
AcDbLinetypeTableRecord
  2
Teilen
 70
     0
  3
Teilen
 72
    65
 73
     6
 40
1.25
 49
0.5
 74
     0
 49
-0.25
 74
     0
 49
0.0
 74
     0
 49
-0.25
 74
     0
 49
0.0
 74
     0
 49
-0.25
 74
     0
  0
LTYPE
  5
46
330
5
100
AcDbSymbolTableRecord
100
AcDbLinetypeTableRecord
  2
Punkt
 70
     0
  3
Punkt
 72
    65
 73
     2
 40
0.25
 49
0.0
 74
     0
 49
-0.25
 74
     0
  0
LTYPE
  5
47
330
5
100
AcDbSymbolTableRecord
100
AcDbLinetypeTableRecord
  2
Verdeckt
 70
     0
  3
Verdeckt
 72
    65
 73
     2
 40
0.375
 49
0.25
 74
     0
 49
-0.125
 74
     0
  0
LTYPE
  5
48
330
5
100
AcDbSymbolTableRecord
100
AcDbLinetypeTableRecord
  2
$INVISIBLE
 70
     0
  3
$INVISIBLE
 72
    65
 73
     2
 40
200.0
 49
-100.0
 74
     0
 49
-100.0
 74
     0
  0
LTYPE
  5
49
330
5
100
AcDbSymbolTableRecord
100
AcDbLinetypeTableRecord
  2
CENTER2
 70
     0
  3
CENTER2
 72
    65
 73
     4
 40
28.575
 49
19.05
 74
     0
 49
-3.175
 74
     0
 49
3.175
 74
     0
 49
-3.175
 74
     0
  0
LTYPE
  5
4A
330
5
100
AcDbSymbolTableRecord
100
AcDbLinetypeTableRecord
  2
HIDDEN
 70
     0
  3
HIDDEN
 72
    65
 73
     2
 40
9.524999999999999
 49
6.35
 74
     0
 49
-3.175
 74
     0
  0
LTYPE
  5
4B
330
5
100
AcDbSymbolTableRecord
100
AcDbLinetypeTableRecord
  2
$SNAPEXT
 70
     0
  3
$SNAPEXT
 72
    65
 73
     2
 40
0.04
 49
0.02
 74
     0
 49
-0.02
 74
     0
  0
LTYPE
  5
4C
330
5
100
AcDbSymbolTableRecord
100
AcDbLinetypeTableRecord
  2
$AUXILIARY
 70
     0
  3
$AUXILIARY
 72
    65
 73
     2
 40
0.1
 49
0.05
 74
     0
 49
-0.05
 74
     0
  0
ENDTAB
  0
TABLE
  2
LAYER
  5
2
330
0
100
AcDbSymbolTable
 70
     2
  0
LAYER
  5
10
330
2
100
AcDbSymbolTableRecord
100
AcDbLayerTableRecord
  2
0
 70
     0
 62
     7
  6
Continuous
370
     0
390
F
  0
LAYER
  5
4D
330
2
100
AcDbSymbolTableRecord
100
AcDbLayerTableRecord
  2
Main lines
 70
     0
 62
     1
420
 16711680
  6
Continuous
370
    50
390
F
  0
ENDTAB
  0
TABLE
  2
STYLE
  5
3
330
0
100
AcDbSymbolTable
 70
     2
  0
STYLE
  5
11
330
3
100
AcDbSymbolTableRecord
100
AcDbTextStyleTableRecord
  2
Standard
 70
     0
 40
0.0
 41
1.0
 50
0.0
 71
     0
 42
0.2
  3
txt
  4

  0
STYLE
  5
50
330
3
100
AcDbSymbolTableRecord
100
AcDbTextStyleTableRecord
  2
_TCW_TXTSTY_1
 70
     0
 40
0.0
 41
1.0
 50
0.0
 71
     0
 42
0.6000000238418579
  3
TXT.SHX
  4

  0
ENDTAB
  0
TABLE
  2
VIEW
  5
6
330
0
100
AcDbSymbolTable
 70
     2
  0
VIEW
  5
4E
330
6
100
AcDbSymbolTableRecord
100
AcDbViewTableRecord
  2
Ansicht_0
 70
     0
 40
210.0
 10
148.5
 20
105.0
 41
297.0
 11
0.0
 21
0.0
 31
1.0
 12
0.0
 22
0.0
 32
0.0
 42
50.0
 43
0.0
 44
0.0
 50
0.0
 71
     0
281
     0
 72
     0
  0
VIEW
  5
4F
330
6
100
AcDbSymbolTableRecord
100
AcDbViewTableRecord
  2
View_1
 70
     0
 40
354.3018345834937
 10
642.6673091712973
 20
101.7093739678451
 41
512.2616039675281
 11
0.0
 21
0.0
 31
1.0
 12
0.0
 22
0.0
 32
0.0
 42
50.0
 43
0.0
 44
0.0
 50
0.0
 71
     0
281
     0
 72
     0
  0
ENDTAB
  0
TABLE
  2
UCS
  5
7
330
0
100
AcDbSymbolTable
 70
     0
  0
ENDTAB
  0
TABLE
  2
APPID
  5
9
330
0
100
AcDbSymbolTable
 70
     2
  0
APPID
  5
12
330
9
100
AcDbSymbolTableRecord
100
AcDbRegAppTableRecord
  2
ACAD
 70
     0
  0
APPID
  5
3F
330
9
100
AcDbSymbolTableRecord
100
AcDbRegAppTableRecord
  2
TCAD
 70
     0
  0
ENDTAB
  0
TABLE
  2
DIMSTYLE
  5
A
330
0
100
AcDbSymbolTable
 70
     2
100
AcDbDimStyleTable
  0
DIMSTYLE
105
27
330
A
100
AcDbSymbolTableRecord
100
AcDbDimStyleTableRecord
  2
Standard
 70
     0
 45
0.0000001
148
0.0000001
179
     4
340
50
  0
DIMSTYLE
105
51
330
A
100
AcDbSymbolTableRecord
100
AcDbDimStyleTableRecord
  2
ISO-25
 70
     0
 41
2.5
 42
0.625
 43
3.75
 44
1.25
 45
0.0000001
 73
     0
 74
     0
 77
     1
 78
     8
140
2.5
143
0.03937007874016
147
0.625
148
0.0000001
171
     3
172
     1
179
     2
271
     2
272
     2
274
     3
283
     0
284
     8
340
50
  0
ENDTAB
  0
TABLE
  2
BLOCK_RECORD
  5
1
330
0
100
AcDbSymbolTable
 70
     2
  0
BLOCK_RECORD
  5
1F
330
1
100
AcDbSymbolTableRecord
100
AcDbBlockTableRecord
  2
*Model_Space
340
22
  0
BLOCK_RECORD
  5
1B
330
1
100
AcDbSymbolTableRecord
100
AcDbBlockTableRecord
  2
*Paper_Space
340
1E
  0
BLOCK_RECORD
  5
3B
330
1
100
AcDbSymbolTableRecord
100
AcDbBlockTableRecord
  2
*Paper_Space1
340
3C
  0
ENDTAB
  0
ENDSEC
  0
SECTION
  2
BLOCKS
  0
BLOCK
  5
20
330
1F
100
AcDbEntity
  8
0
100
AcDbBlockBegin
  2
*Model_Space
 70
     0
 71
     0
 10
0.0
 20
0.0
 30
0.0
  3
*Model_Space
  1

  0
ENDBLK
  5
21
330
1F
100
AcDbEntity
  8
0
100
AcDbBlockEnd
  0
BLOCK
  5
1C
330
1B
100
AcDbEntity
 67
     1
  8
0
100
AcDbBlockBegin
  2
*Paper_Space
 70
     0
 71
     0
 10
0.0
 20
0.0
 30
0.0
  3
*Paper_Space
  1

  0
ENDBLK
  5
1D
330
1B
100
AcDbEntity
 67
     1
  8
0
100
AcDbBlockEnd
  0
BLOCK
  5
3D
330
3B
100
AcDbEntity
  8
0
100
AcDbBlockBegin
  2
*Paper_Space1
 70
     0
 71
     0
 10
0.0
 20
0.0
 30
0.0
  3
*Paper_Space1
  1

  0
VIEWPORT
  5
45B
330
3B
100
AcDbEntity
  8
0
100
AcDbViewport
 10
146.6302508105014
 20
19.58031998242123
 30
0.0
 40
296.9683227539062
 41
209.9733276367188
 68
     1
 69
     1
 12
146.6302508105014
 22
19.58031998242123
 13
0.0
 23
0.0
 14
10.0
 24
10.0
 15
10.0
 25
10.0
 16
0.0
 26
0.0
 36
1.0
 17
0.0
 27
0.0
 37
0.0
 42
50.0
 43
0.0
 44
0.0
 45
209.9733276367188
 50
0.0
 51
0.0
 72
  1000
 90
    32800
  1

281
     0
 71
     1
 74
     0
110
0.0
120
0.0
130
0.0
111
1.0
121
0.0
131
0.0
112
0.0
122
1.0
132
0.0
 79
     0
146
0.0
170
     0
  0
VIEWPORT
  5
45C
330
3B
100
AcDbEntity
  8
0
  6
Durchgehend
100
AcDbViewport
 10
141.9542601108551
 20
98.18158221244812
 30
0.0
 40
227.1268161773681
 41
157.090531539917
 68
     2
 69
     2
 12
642.6673226145232
 22
101.7093798828645
 13
0.0
 23
0.0
 14
0.5
 24
0.5
 15
0.0
 25
0.0
 16
0.0
 26
0.0
 36
1.0
 17
0.0
 27
0.0
 37
0.0
 42
50.0
 43
0.0
 44
0.0
 45
354.3018345834937
 50
0.0
 51
0.0
 72
   100
331
4D
 90
   557152
  1

281
     0
 71
     1
 74
     0
110
0.0
120
0.0
130
0.0
111
1.0
121
0.0
131
0.0
112
0.0
122
1.0
132
0.0
 79
     0
146
0.0
170
     0
  0
ENDBLK
  5
3E
330
3B
100
AcDbEntity
  8
0
100
AcDbBlockEnd
  0
ENDSEC
  0
SECTION
  2
ENTITIES
  0
LWPOLYLINE
  5
52
330
1F
100
AcDbEntity
  8
Main lines
370
    50
100
AcDbPolyline
 90
        3
 70
     1
 10
670.7466557372628
 20
150.0853213866853
 40
0.0196850392967463
 41
0.0196850392967463
 42
0.4142135623731
 10
578.5714451665776
 20
242.2605319573705
 40
0.0196850392967463
 41
0.0196850392967463
 42
2.414213562373
 10
670.7466557372628
 20
150.0853213866853
 40
0.0196850392967463
 41
0.0196850392967463
  0
LWPOLYLINE
  5
53
330
1F
100
AcDbEntity
  8
Main lines
370
    50
100
AcDbPolyline
 90
        3
 70
     1
 10
665.5714451665776
 20
150.0853213866853
 40
0.0196850392967463
 41
0.0196850392967463
 42
0.4142135623731
 10
578.5714451665776
 20
237.0853213866853
 40
0.0196850392967463
 41
0.0196850392967463
 42
2.414213562373
 10
665.5714451665776
 20
150.0853213866853
 40
0.0196850392967463
 41
0.0196850392967463
  0
LINE
  5
56
102
{ACAD_XDICTIONARY
360
54
102
}
330
1F
100
AcDbEntity
  8
Main lines
100
AcDbLine
 10
771.4327228539225
 20
236.8221508473253
 30
0.0
 11
781.4327228539225
 21
236.8221508473254
 31
0.0
  0
LINE
  5
59
102
{ACAD_XDICTIONARY
360
57
102
}
330
1F
100
AcDbEntity
  8
Main lines
100
AcDbLine
 10
771.4327228539225
 20
242.2605318473254
 30
0.0
 11
782.3434512398007
 21
242.2605318473255
 31
0.0
  0
ARC
  5
5C
102
{ACAD_XDICTIONARY
360
5A
102
}
330
1F
100
AcDbEntity
  8
Main lines
100
AcDbCircle
 10
771.4327228539225
 20
238.8221508473253
 30
0.0
 40
2.0
100
AcDbArc
 50
180.0
 51
270.0
  0
LINE
  5
5F
102
{ACAD_XDICTIONARY
360
5D
102
}
330
1F
100
AcDbEntity
  8
Main lines
100
AcDbLine
 10
769.4327228539225
 20
238.8221508473253
 30
0.0
 11
769.4327228539225
 21
240.2605318473254
 31
0.0
  0
ARC
  5
62
102
{ACAD_XDICTIONARY
360
60
102
}
330
1F
100
AcDbEntity
  8
Main lines
100
AcDbCircle
 10
771.4327228539225
 20
240.2605318473254
 30
0.0
 40
2.0
100
AcDbArc
 50
90.0
 51
180.0
  0
ARC
  5
65
102
{ACAD_XDICTIONARY
360
63
102
}
330
1F
100
AcDbEntity
  8
Main lines
100
AcDbCircle
 10
807.4327228539225
 20
238.8221508473253
 30
0.0
 40
2.0
100
AcDbArc
 50
-90.0
 51
0.0
  0
ARC
  5
68
102
{ACAD_XDICTIONARY
360
66
102
}
330
1F
100
AcDbEntity
  8
Main lines
100
AcDbCircle
 10
797.4327228539225
 20
231.8221508473254
 30
0.0
 40
5.0
100
AcDbArc
 50
90.0
 51
180.0
  0
LINE
  5
6B
102
{ACAD_XDICTIONARY
360
69
102
}
330
1F
100
AcDbEntity
  8
Main lines
100
AcDbLine
 10
792.4327228539225
 20
231.8221508473254
 30
0.0
 11
792.4327228539225
 21
219.3221508519708
 31
0.0
  0
LINE
  5
6E
102
{ACAD_XDICTIONARY
360
6C
102
}
330
1F
100
AcDbEntity
  8
Main lines
100
AcDbLine
 10
786.4327228539225
 20
231.8221508473254
 30
0.0
 11
786.4327228539225
 21
219.3221508519708
 31
0.0
  0
ARC
  5
71
102
{ACAD_XDICTIONARY
360
6F
102
}
330
1F
100
AcDbEntity
  8
Main lines
100
AcDbCircle
 10
781.4327228539225
 20
231.8221508473254
 30
0.0
 40
5.0
100
AcDbArc
 50
0.0
 51
90.0
  0
LINE
  5
74
102
{ACAD_XDICTIONARY
360
72
102
}
330
1F
100
AcDbEntity
  8
Main lines
100
AcDbLine
 10
797.4327228539225
 20
236.8221508473254
 30
0.0
 11
807.4327228539225
 21
236.8221508473253
 31
0.0
  0
LINE
  5
77
102
{ACAD_XDICTIONARY
360
75
102
}
330
1F
100
AcDbEntity
  8
Main lines
100
AcDbLine
 10
799.9390368302809
 20
242.2605318473254
 30
0.0
 11
807.4327228539225
 21
242.2605318473254
 31
0.0
  0
LINE
  5
7A
102
{ACAD_XDICTIONARY
360
78
102
}
330
1F
100
AcDbEntity
  8
Main lines
100
AcDbLine
 10
798.1014352604793
 20
242.2605318473255
 30
0.0
 11
803.6858798421017
 21
242.2605318473254
 31
0.0
  0
LINE
  5
7D
102
{ACAD_XDICTIONARY
360
7B
102
}
330
1F
100
AcDbEntity
  8
Main lines
100
AcDbLine
 10
809.4327228539225
 20
240.2605318473254
 30
0.0
 11
809.4327228539225
 21
238.8221508473253
 31
0.0
  0
ARC
  5
80
102
{ACAD_XDICTIONARY
360
7E
102
}
330
1F
100
AcDbEntity
  8
Main lines
100
AcDbCircle
 10
807.4327228539225
 20
240.2605318473254
 30
0.0
 40
2.0
100
AcDbArc
 50
0.0
 51
90.0
  0
LINE
  5
83
102
{ACAD_XDICTIONARY
360
81
102
}
330
1F
100
AcDbEntity
  8
Main lines
100
AcDbLine
 10
789.4327228539225
 20
238.8221508473253
 30
0.0
 11
789.4327228539225
 21
240.2605318473254
 31
0.0
  0
LINE
  5
86
102
{ACAD_XDICTIONARY
360
84
102
}
330
1F
100
AcDbEntity
  8
Main lines
100
AcDbLine
 10
771.4327228539228
 20
63.34849192605304
 30
0.0
 11
781.4327228539225
 21
63.34849192605299
 31
0.0
  0
ARC
  5
89
102
{ACAD_XDICTIONARY
360
87
102
}
330
1F
100
AcDbEntity
  8
Main lines
100
AcDbCircle
 10
771.4327228539228
 20
61.34849192605304
 30
0.0
 40
2.0
100
AcDbArc
 50
90.0
 51
180.0000000000002
  0
LINE
  5
8C
102
{ACAD_XDICTIONARY
360
8A
102
}
330
1F
100
AcDbEntity
  8
Main lines
100
AcDbLine
 10
769.4327228539228
 20
61.34849192605304
 30
0.0
 11
769.4327228539228
 21
59.91011092605289
 31
0.0
  0
ARC
  5
8F
102
{ACAD_XDICTIONARY
360
8D
102
}
330
1F
100
AcDbEntity
  8
Main lines
100
AcDbCircle
 10
797.4327228539225
 20
68.34849192605299
 30
0.0
 40
5.0
100
AcDbArc
 50
180.0
 51
270.0
  0
ARC
  5
92
102
{ACAD_XDICTIONARY
360
90
102
}
330
1F
100
AcDbEntity
  8
Main lines
100
AcDbCircle
 10
781.4327228539225
 20
68.34849192605299
 30
0.0
 40
5.0
100
AcDbArc
 50
-90.0
 51
0.0
  0
LINE
  5
95
102
{ACAD_XDICTIONARY
360
93
102
}
330
1F
100
AcDbEntity
  8
Main lines
100
AcDbLine
 10
797.4327228539225
 20
63.34849192605299
 30
0.0
 11
807.4327228539225
 21
63.34849192605304
 31
0.0
  0
LINE
  5
98
102
{ACAD_XDICTIONARY
360
96
102
}
330
1F
100
AcDbEntity
  8
Main lines
100
AcDbLine
 10
809.4327228539225
 20
61.34849192605304
 30
0.0
 11
809.4327228539225
 21
59.91011092605289
 31
0.0
  0
ARC
  5
9B
102
{ACAD_XDICTIONARY
360
99
102
}
330
1F
100
AcDbEntity
  8
Main lines
100
AcDbCircle
 10
807.4327228539225
 20
61.34849192605304
 30
0.0
 40
2.0
100
AcDbArc
 50
0.0
 51
90.0
  0
LINE
  5
9E
102
{ACAD_XDICTIONARY
360
9C
102
}
330
1F
100
AcDbEntity
  8
Main lines
100
AcDbLine
 10
769.4327228539227
 20
186.0853213866853
 30
0.0
 11
769.4327228539228
 21
114.0853213866853
 31
0.0
  0
LINE
  5
A1
102
{ACAD_XDICTIONARY
360
9F
102
}
330
1F
100
AcDbEntity
  8
Main lines
100
AcDbLine
 10
809.4327228539225
 20
186.0853213866853
 30
0.0
 11
809.4327228539225
 21
114.0853213866853
 31
0.0
  0
LINE
  5
A4
102
{ACAD_XDICTIONARY
360
A2
102
}
330
1F
100
AcDbEntity
  8
Main lines
100
AcDbLine
 10
771.4327228539227
 20
188.0853213866853
 30
0.0
 11
781.4327228539225
 21
188.0853213866853
 31
0.0
  0
LINE
  5
A7
102
{ACAD_XDICTIONARY
360
A5
102
}
330
1F
100
AcDbEntity
  8
Main lines
100
AcDbLine
 10
769.4327228539227
 20
181.1853213866854
 30
0.0
 11
809.4327228539225
 21
181.1853213866854
 31
0.0
  0
LINE
  5
AA
102
{ACAD_XDICTIONARY
360
A8
102
}
330
1F
100
AcDbEntity
  8
Main lines
100
AcDbLine
 10
769.4327228539227
 20
180.2853213866854
 30
0.0
 11
809.4327228539225
 21
180.2853213866854
 31
0.0
  0
LINE
  5
AD
102
{ACAD_XDICTIONARY
360
AB
102
}
330
1F
100
AcDbEntity
  8
Main lines
100
AcDbLine
 10
769.4327228539227
 20
165.0853213866853
 30
0.0
 11
809.4327228539225
 21
165.0853213866853
 31
0.0
  0
LINE
  5
B0
102
{ACAD_XDICTIONARY
360
AE
102
}
330
1F
100
AcDbEntity
  8
Main lines
100
AcDbLine
 10
769.4327228539227
 20
135.0853213866853
 30
0.0
 11
809.4327228539225
 21
135.0853213866853
 31
0.0
  0
LINE
  5
B3
102
{ACAD_XDICTIONARY
360
B1
102
}
330
1F
100
AcDbEntity
  8
Main lines
100
AcDbLine
 10
769.4327228539227
 20
119.8853213866854
 30
0.0
 11
809.4327228539225
 21
119.8853213866854
 31
0.0
  0
LINE
  5
B6
102
{ACAD_XDICTIONARY
360
B4
102
}
330
1F
100
AcDbEntity
  8
Main lines
100
AcDbLine
 10
769.4327228539227
 20
118.9853213866853
 30
0.0
 11
809.4327228539225
 21
118.9853213866853
 31
0.0
  0
LINE
  5
B9
102
{ACAD_XDICTIONARY
360
B7
102
}
330
1F
100
AcDbEntity
  8
Main lines
100
AcDbLine
 10
786.4327228539225
 20
231.8221508473254
 30
0.0
 11
786.4327228539225
 21
193.0853213866853
 31
0.0
  0
LINE
  5
BC
102
{ACAD_XDICTIONARY
360
BA
102
}
330
1F
100
AcDbEntity
  8
Main lines
100
AcDbLine
 10
792.4327228539225
 20
231.8221508473254
 30
0.0
 11
792.4327228539225
 21
193.0853213866853
 31
0.0
  0
LINE
  5
BF
102
{ACAD_XDICTIONARY
360
BD
102
}
330
1F
100
AcDbEntity
  8
Main lines
100
AcDbLine
 10
771.4327228539228
 20
112.0853213866853
 30
0.0
 11
781.4327228539225
 21
112.0853213866853
 31
0.0
  0
LINE
  5
C2
102
{ACAD_XDICTIONARY
360
C0
102
}
330
1F
100
AcDbEntity
  8
Main lines
100
AcDbLine
 10
786.4327228539225
 20
68.34849192605299
 30
0.0
 11
786.4327228539225
 21
107.0853213866853
 31
0.0
  0
LINE
  5
C5
102
{ACAD_XDICTIONARY
360
C3
102
}
330
1F
100
AcDbEntity
  8
Main lines
100
AcDbLine
 10
792.4327228539225
 20
68.34849192605299
 30
0.0
 11
792.4327228539225
 21
107.0853213866853
 31
0.0
  0
LINE
  5
C8
102
{ACAD_XDICTIONARY
360
C6
102
}
330
1F
100
AcDbEntity
  8
Main lines
100
AcDbLine
 10
797.4327228539225
 20
112.0853213866853
 30
0.0
 11
807.4327228539225
 21
112.0853213866853
 31
0.0
  0
LINE
  5
CB
102
{ACAD_XDICTIONARY
360
C9
102
}
330
1F
100
AcDbEntity
  8
Main lines
100
AcDbLine
 10
797.4327228539225
 20
188.0853213866853
 30
0.0
 11
807.4327228539225
 21
188.0853213866853
 31
0.0
  0
ARC
  5
CE
102
{ACAD_XDICTIONARY
360
CC
102
}
330
1F
100
AcDbEntity
  8
Main lines
100
AcDbCircle
 10
781.4327228539225
 20
193.0853213866853
 30
0.0
 40
5.0
100
AcDbArc
 50
-90.0
 51
0.0
  0
ARC
  5
D1
102
{ACAD_XDICTIONARY
360
CF
102
}
330
1F
100
AcDbEntity
  8
Main lines
100
AcDbCircle
 10
797.4327228539225
 20
193.0853213866853
 30
0.0
 40
5.0
100
AcDbArc
 50
180.0
 51
270.0
  0
ARC
  5
D4
102
{ACAD_XDICTIONARY
360
D2
102
}
330
1F
100
AcDbEntity
  8
Main lines
100
AcDbCircle
 10
781.4327228539225
 20
107.0853213866853
 30
0.0
 40
5.0
100
AcDbArc
 50
0.0
 51
90.0
  0
ARC
  5
D7
102
{ACAD_XDICTIONARY
360
D5
102
}
330
1F
100
AcDbEntity
  8
Main lines
100
AcDbCircle
 10
797.4327228539225
 20
107.0853213866853
 30
0.0
 40
5.0
100
AcDbArc
 50
90.0
 51
180.0
  0
ARC
  5
DA
102
{ACAD_XDICTIONARY
360
D8
102
}
330
1F
100
AcDbEntity
  8
Main lines
100
AcDbCircle
 10
771.4327228539227
 20
186.0853213866853
 30
0.0
 40
2.0
100
AcDbArc
 50
90.0
 51
180.0
  0
ARC
  5
DD
102
{ACAD_XDICTIONARY
360
DB
102
}
330
1F
100
AcDbEntity
  8
Main lines
100
AcDbCircle
 10
807.4327228539225
 20
186.0853213866853
 30
0.0
 40
2.0
100
AcDbArc
 50
0.0
 51
90.0
  0
ARC
  5
E0
102
{ACAD_XDICTIONARY
360
DE
102
}
330
1F
100
AcDbEntity
  8
Main lines
100
AcDbCircle
 10
807.4327228539225
 20
114.0853213866853
 30
0.0
 40
2.0
100
AcDbArc
 50
-90.0
 51
0.0
  0
ARC
  5
E3
102
{ACAD_XDICTIONARY
360
E1
102
}
330
1F
100
AcDbEntity
  8
Main lines
100
AcDbCircle
 10
771.4327228539228
 20
114.0853213866853
 30
0.0
 40
2.0
100
AcDbArc
 50
180.0
 51
270.0
  0
LINE
  5
E6
102
{ACAD_XDICTIONARY
360
E4
102
}
330
1F
100
AcDbEntity
  8
Main lines
100
AcDbLine
 10
769.4987227317931
 20
238.3125985658039
 30
0.0
 11
769.4327228539228
 21
60.62930142605297
 31
0.0
  0
LINE
  5
E9
102
{ACAD_XDICTIONARY
360
E7
102
}
330
1F
100
AcDbEntity
  8
Main lines
100
AcDbLine
 10
809.4327228539225
 20
238.8221508473253
 30
0.0
 11
809.4327228539225
 21
61.34849192605304
 31
0.0
  0
LINE
  5
EC
102
{ACAD_XDICTIONARY
360
EA
102
}
330
1F
100
AcDbEntity
  8
Main lines
100
AcDbLine
 10
799.9390368302809
 20
242.294422349139
 30
0.0
 11
807.4327228539225
 21
242.294422349139
 31
0.0
  0
LINE
  5
EF
102
{ACAD_XDICTIONARY
360
ED
102
}
330
1F
100
AcDbEntity
  8
Main lines
100
AcDbLine
 10
793.9327228539225
 20
250.856041349139
 30
0.0
 11
793.9327228539225
 21
244.294422349139
 31
0.0
  0
LINE
  5
F2
102
{ACAD_XDICTIONARY
360
F0
102
}
330
1F
100
AcDbEntity
  8
Main lines
100
AcDbLine
 10
791.9327228539225
 20
250.856041349139
 30
0.0
 11
791.9327228539225
 21
244.294422349139
 31
0.0
  0
LINE
  5
F5
102
{ACAD_XDICTIONARY
360
F3
102
}
330
1F
100
AcDbEntity
  8
Main lines
100
AcDbLine
 10
784.9327228539225
 20
250.8560413491391
 30
0.0
 11
784.9327228539225
 21
244.2944223491391
 31
0.0
  0
LINE
  5
F8
102
{ACAD_XDICTIONARY
360
F6
102
}
330
1F
100
AcDbEntity
  8
Main lines
100
AcDbLine
 10
786.9327228539225
 20
250.856041349139
 30
0.0
 11
786.9327228539225
 21
244.2944223491392
 31
0.0
  0
LINE
  5
FB
102
{ACAD_XDICTIONARY
360
F9
102
}
330
1F
100
AcDbEntity
  8
Main lines
100
AcDbLine
 10
771.4327228539225
 20
242.294422349139
 30
0.0
 11
782.9327228539225
 21
242.2944223491391
 31
0.0
  0
ARC
  5
FE
102
{ACAD_XDICTIONARY
360
FC
102
}
330
1F
100
AcDbEntity
  8
Main lines
100
AcDbCircle
 10
771.4327228539225
 20
240.294422349139
 30
0.0
 40
2.0
100
AcDbArc
 50
90.0
 51
180.0
  0
LINE
  5
101
102
{ACAD_XDICTIONARY
360
FF
102
}
330
1F
100
AcDbEntity
  8
Main lines
100
AcDbLine
 10
780.9327228539225
 20
242.2944223491391
 30
0.0
 11
776.8880870468618
 21
242.2944223491391
 31
0.0
  0
ARC
  5
104
102
{ACAD_XDICTIONARY
360
102
102
}
330
1F
100
AcDbEntity
  8
Main lines
100
AcDbCircle
 10
795.9327228539225
 20
244.294422349139
 30
0.0
 40
2.0
100
AcDbArc
 50
180.0
 51
270.0
  0
LINE
  5
107
102
{ACAD_XDICTIONARY
360
105
102
}
330
1F
100
AcDbEntity
  8
Main lines
100
AcDbLine
 10
796.7414073642146
 20
242.294422349139
 30
0.0
 11
793.9327228539225
 21
242.294422349139
 31
0.0
  0
ARC
  5
10A
102
{ACAD_XDICTIONARY
360
108
102
}
330
1F
100
AcDbEntity
  8
Main lines
100
AcDbCircle
 10
793.9327228539225
 20
244.294422349139
 30
0.0
 40
2.0
100
AcDbArc
 50
180.0
 51
270.0
  0
ARC
  5
10D
102
{ACAD_XDICTIONARY
360
10B
102
}
330
1F
100
AcDbEntity
  8
Main lines
100
AcDbCircle
 10
782.9327228539225
 20
244.2944223491391
 30
0.0
 40
2.0
100
AcDbArc
 50
-90.0
 51
0.0
  0
LINE
  5
110
102
{ACAD_XDICTIONARY
360
10E
102
}
330
1F
100
AcDbEntity
  8
Main lines
100
AcDbLine
 10
783.1380870468618
 20
242.2944223491391
 30
0.0
 11
784.9327228539225
 21
242.2944223491391
 31
0.0
  0
LINE
  5
113
102
{ACAD_XDICTIONARY
360
111
102
}
330
1F
100
AcDbEntity
  8
Main lines
100
AcDbLine
 10
782.3434512398007
 20
242.2944223491391
 30
0.0
 11
783.9327228539225
 21
242.2944223491391
 31
0.0
  0
ARC
  5
116
102
{ACAD_XDICTIONARY
360
114
102
}
330
1F
100
AcDbEntity
  8
Main lines
100
AcDbCircle
 10
784.9327228539225
 20
244.2944223491392
 30
0.0
 40
2.0
100
AcDbArc
 50
-90.0
 51
0.0
  0
LINE
  5
119
102
{ACAD_XDICTIONARY
360
117
102
}
330
1F
100
AcDbEntity
  8
Main lines
100
AcDbLine
 10
795.9327228539225
 20
242.294422349139
 30
0.0
 11
803.6858798421017
 21
242.294422349139
 31
0.0
  0
ARC
  5
11C
102
{ACAD_XDICTIONARY
360
11A
102
}
330
1F
100
AcDbEntity
  8
Main lines
100
AcDbCircle
 10
792.9327228539225
 20
250.856041349139
 30
0.0
 40
1.0
100
AcDbArc
 50
0.0
 51
90.0
  0
LINE
  5
11F
102
{ACAD_XDICTIONARY
360
11D
102
}
330
1F
100
AcDbEntity
  8
Main lines
100
AcDbLine
 10
789.4327228539225
 20
251.856041349139
 30
0.0
 11
792.9327228539225
 21
251.856041349139
 31
0.0
  0
ARC
  5
122
102
{ACAD_XDICTIONARY
360
120
102
}
330
1F
100
AcDbEntity
  8
Main lines
100
AcDbCircle
 10
790.9327228539225
 20
250.856041349139
 30
0.0
 40
1.0
100
AcDbArc
 50
0.0
 51
90.0
  0
LINE
  5
125
102
{ACAD_XDICTIONARY
360
123
102
}
330
1F
100
AcDbEntity
  8
Main lines
100
AcDbLine
 10
787.9327228539225
 20
251.856041349139
 30
0.0
 11
790.9327228539225
 21
251.856041349139
 31
0.0
  0
ARC
  5
128
102
{ACAD_XDICTIONARY
360
126
102
}
330
1F
100
AcDbEntity
  8
Main lines
100
AcDbCircle
 10
785.9327228539225
 20
250.8560413491391
 30
0.0
 40
1.0
100
AcDbArc
 50
90.0
 51
180.0
  0
LINE
  5
12B
102
{ACAD_XDICTIONARY
360
129
102
}
330
1F
100
AcDbEntity
  8
Main lines
100
AcDbLine
 10
792.9327228539225
 20
251.856041349139
 30
0.0
 11
785.9327228539225
 21
251.8560413491391
 31
0.0
  0
LINE
  5
12E
102
{ACAD_XDICTIONARY
360
12C
102
}
330
1F
100
AcDbEntity
  8
Main lines
100
AcDbLine
 10
786.9327228539225
 20
251.8560413491392
 30
0.0
 11
791.9327228539225
 21
251.8560413491392
 31
0.0
  0
LINE
  5
131
102
{ACAD_XDICTIONARY
360
12F
102
}
330
1F
100
AcDbEntity
  8
Main lines
100
AcDbLine
 10
789.4327228539225
 20
251.856041349139
 30
0.0
 11
786.9327228539225
 21
251.8560413491392
 31
0.0
  0
ARC
  5
134
102
{ACAD_XDICTIONARY
360
132
102
}
330
1F
100
AcDbEntity
  8
Main lines
100
AcDbCircle
 10
787.9327228539225
 20
250.856041349139
 30
0.0
 40
1.0
100
AcDbArc
 50
90.0
 51
180.0
  0
ARC
  5
137
102
{ACAD_XDICTIONARY
360
135
102
}
330
1F
100
AcDbEntity
  8
Main lines
100
AcDbCircle
 10
807.4327228539225
 20
240.294422349139
 30
0.0
 40
2.0
100
AcDbArc
 50
0.0
 51
90.0
  0
LINE
  5
13A
102
{ACAD_XDICTIONARY
360
138
102
}
330
1F
100
AcDbEntity
  8
Main lines
100
AcDbLine
 10
807.4327228539225
 20
57.86794141258633
 30
0.0
 11
799.7159732706255
 21
57.8679414125863
 31
0.0
  0
LINE
  5
13D
102
{ACAD_XDICTIONARY
360
13B
102
}
330
1F
100
AcDbEntity
  8
Main lines
100
AcDbLine
 10
793.9327228539225
 20
49.3063224125863
 30
0.0
 11
793.9327228539225
 21
55.86794141258633
 31
0.0
  0
LINE
  5
140
102
{ACAD_XDICTIONARY
360
13E
102
}
330
1F
100
AcDbEntity
  8
Main lines
100
AcDbLine
 10
791.9327228539225
 20
49.3063224125863
 30
0.0
 11
791.9327228539225
 21
55.86794141258633
 31
0.0
  0
LINE
  5
143
102
{ACAD_XDICTIONARY
360
141
102
}
330
1F
100
AcDbEntity
  8
Main lines
100
AcDbLine
 10
791.9327228539225
 20
49.3063224125863
 30
0.0
 11
791.9327228539225
 21
55.86794141258633
 31
0.0
  0
LINE
  5
146
102
{ACAD_XDICTIONARY
360
144
102
}
330
1F
100
AcDbEntity
  8
Main lines
100
AcDbLine
 10
784.9327228539225
 20
49.30632241258627
 30
0.0
 11
784.9327228539225
 21
55.86794141258625
 31
0.0
  0
LINE
  5
149
102
{ACAD_XDICTIONARY
360
147
102
}
330
1F
100
AcDbEntity
  8
Main lines
100
AcDbLine
 10
786.9327228539225
 20
49.3063224125863
 30
0.0
 11
786.9327228539225
 21
55.86794141258622
 31
0.0
  0
LINE
  5
14C
102
{ACAD_XDICTIONARY
360
14A
102
}
330
1F
100
AcDbEntity
  8
Main lines
100
AcDbLine
 10
786.9327228539225
 20
49.3063224125863
 30
0.0
 11
786.9327228539225
 21
55.86794141258622
 31
0.0
  0
LINE
  5
14F
102
{ACAD_XDICTIONARY
360
14D
102
}
330
1F
100
AcDbEntity
  8
Main lines
100
AcDbLine
 10
787.9327228539225
 20
48.3063224125863
 30
0.0
 11
790.9327228539225
 21
48.3063224125863
 31
0.0
  0
LINE
  5
152
102
{ACAD_XDICTIONARY
360
150
102
}
330
1F
100
AcDbEntity
  8
Main lines
100
AcDbLine
 10
792.9327228539225
 20
48.3063224125863
 30
0.0
 11
785.9327228539225
 21
48.30632241258627
 31
0.0
  0
LINE
  5
155
102
{ACAD_XDICTIONARY
360
153
102
}
330
1F
100
AcDbEntity
  8
Main lines
100
AcDbLine
 10
789.4327228539225
 20
48.3063224125863
 30
0.0
 11
786.9327228539225
 21
48.30632241258624
 31
0.0
  0
LINE
  5
158
102
{ACAD_XDICTIONARY
360
156
102
}
330
1F
100
AcDbEntity
  8
Main lines
100
AcDbLine
 10
786.9327228539225
 20
48.30632241258624
 30
0.0
 11
791.9327228539225
 21
48.30632241258624
 31
0.0
  0
ARC
  5
15B
102
{ACAD_XDICTIONARY
360
159
102
}
330
1F
100
AcDbEntity
  8
Main lines
100
AcDbCircle
 10
792.9327228539225
 20
49.3063224125863
 30
0.0
 40
1.0
100
AcDbArc
 50
-90.0
 51
0.0
  0
ARC
  5
15E
102
{ACAD_XDICTIONARY
360
15C
102
}
330
1F
100
AcDbEntity
  8
Main lines
100
AcDbCircle
 10
790.9327228539225
 20
49.3063224125863
 30
0.0
 40
1.0
100
AcDbArc
 50
-90.0
 51
0.0
  0
ARC
  5
161
102
{ACAD_XDICTIONARY
360
15F
102
}
330
1F
100
AcDbEntity
  8
Main lines
100
AcDbCircle
 10
785.9327228539225
 20
49.30632241258627
 30
0.0
 40
1.0
100
AcDbArc
 50
180.0
 51
270.0
  0
ARC
  5
164
102
{ACAD_XDICTIONARY
360
162
102
}
330
1F
100
AcDbEntity
  8
Main lines
100
AcDbCircle
 10
787.9327228539225
 20
49.3063224125863
 30
0.0
 40
1.0
100
AcDbArc
 50
180.0
 51
270.0
  0
LINE
  5
167
102
{ACAD_XDICTIONARY
360
165
102
}
330
1F
100
AcDbEntity
  8
Main lines
100
AcDbLine
 10
780.3672722584906
 20
57.86794141258633
 30
0.0
 11
784.9327228539225
 21
57.86794141258622
 31
0.0
  0
LINE
  5
16A
102
{ACAD_XDICTIONARY
360
168
102
}
330
1F
100
AcDbEntity
  8
Main lines
100
AcDbLine
 10
782.1203876801453
 20
57.86794141258633
 30
0.0
 11
771.4327228539228
 21
57.86794141258633
 31
0.0
  0
LINE
  5
16D
102
{ACAD_XDICTIONARY
360
16B
102
}
330
1F
100
AcDbEntity
  8
Main lines
100
AcDbLine
 10
776.7765552670339
 20
57.86794141258633
 30
0.0
 11
783.9579892499469
 21
57.8679414125863
 31
0.0
  0
ARC
  5
170
102
{ACAD_XDICTIONARY
360
16E
102
}
330
1F
100
AcDbEntity
  8
Main lines
100
AcDbCircle
 10
795.9327228539225
 20
55.86794141258633
 30
0.0
 40
2.0
100
AcDbArc
 50
90.0
 51
180.0
  0
ARC
  5
173
102
{ACAD_XDICTIONARY
360
171
102
}
330
1F
100
AcDbEntity
  8
Main lines
100
AcDbCircle
 10
793.9327228539225
 20
55.86794141258633
 30
0.0
 40
2.0
100
AcDbArc
 50
90.0
 51
180.0
  0
ARC
  5
176
102
{ACAD_XDICTIONARY
360
174
102
}
330
1F
100
AcDbEntity
  8
Main lines
100
AcDbCircle
 10
782.9327228539225
 20
55.86794141258625
 30
0.0
 40
2.0
100
AcDbArc
 50
0.0
 51
90.0
  0
ARC
  5
179
102
{ACAD_XDICTIONARY
360
177
102
}
330
1F
100
AcDbEntity
  8
Main lines
100
AcDbCircle
 10
784.9327228539225
 20
55.86794141258622
 30
0.0
 40
2.0
100
AcDbArc
 50
0.0
 51
90.0
  0
LINE
  5
17C
102
{ACAD_XDICTIONARY
360
17A
102
}
330
1F
100
AcDbEntity
  8
Main lines
100
AcDbLine
 10
802.4421321484178
 20
57.8679414125863
 30
0.0
 11
793.9327228539225
 21
57.86794141258633
 31
0.0
  0
LINE
  5
17F
102
{ACAD_XDICTIONARY
360
17D
102
}
330
1F
100
AcDbEntity
  8
Main lines
100
AcDbLine
 10
809.4327228539225
 20
60.36288880437019
 30
0.0
 11
809.4327228539225
 21
59.86794141258633
 31
0.0
  0
LINE
  5
182
102
{ACAD_XDICTIONARY
360
180
102
}
330
1F
100
AcDbEntity
  8
Main lines
100
AcDbLine
 10
769.4327228539228
 20
60.3955904685813
 30
0.0
 11
769.4327228539228
 21
59.86794141258633
 31
0.0
  0
HATCH
  5
183
330
1F
100
AcDbEntity
  8
Main lines
  6
Durchgehend
100
AcDbHatch
 10
0.0
 20
0.0
 30
0.0
210
0.0
220
0.0
230
1.0
  2
ANSI31
 70
     0
 71
     0
 91
        2
 92
        3
 72
     0
 73
     1
 93
      118
 10
789.4327228539225
 20
251.856041349139
 10
787.9327228539225
 20
251.8560413491391
 10
787.8347057135929
 20
251.8512260758113
 10
787.7376325319065
 20
251.8368266295423
 10
787.6424381766681
 20
251.8129816848713
 10
787.5500394215575
 20
251.7799208816504
 10
787.4613261170965
 20
251.7379626134875
 10
787.377152620903
 20
251.6875109614417
 10
787.2983295697588
 20
251.6290518025018
 10
787.225616072736
 20
251.5631481303257
 10
787.1597124005598
 20
251.4904346333028
 10
787.10125324162
 20
251.4116115821587
 10
787.0508015895741
 20
251.3274380859651
 10
787.0088433214113
 20
251.2387247815042
 10
786.9757825181903
 20
251.1463260263936
 10
786.9519375735193
 20
251.0511316711552
 10
786.9375381272504
 20
250.9540584894687
 10
786.9327228539225
 20
250.8560413491391
 10
786.9327228539225
 20
244.2944223491392
 10
786.9217666446591
 20
244.0853654226038
 10
786.8890180553901
 20
243.8785989675036
 10
786.8348358865128
 20
243.6763883603893
 10
786.7598137692078
 20
243.4809490629875
 10
786.6647736614914
 20
243.2944223491392
 10
786.5507568426724
 20
243.1188518445542
 10
786.4190125048773
 20
242.9561611364214
 10
786.2709840666403
 20
242.8081326981844
 10
786.1082933585075
 20
242.6763883603892
 10
785.9327228539225
 20
242.5623715415703
 10
785.7461961400742
 20
242.4673314338539
 10
785.5507568426724
 20
242.3923093165488
 10
785.348546235558
 20
242.3381271476715
 10
785.1417797804578
 20
242.3053785584026
 10
784.9327228539225
 20
242.2944223491391
 10
783.1380870468618
 20
242.2944223491391
 10
782.3434512398007
 20
242.2944223491391
 10
771.4327228539225
 20
242.294422349139
 10
771.2356346097573
 20
242.2846877143634
 10
771.0404649476675
 20
242.2555785731508
 10
770.849113773033
 20
242.2073782923597
 10
770.6634438196527
 20
242.1405560841194
 10
770.4852625167115
 20
242.0557624382223
 10
770.3163043941174
 20
241.9538227898423
 10
770.1582141974862
 20
241.8357294842256
 10
770.0125308771438
 20
241.7026321165718
 10
769.8806726070065
 20
241.5558263411447
 10
769.7639229791763
 20
241.3967412585509
 10
769.6634185086403
 20
241.2269255039677
 10
769.5801375697125
 20
241.0480321717452
 10
769.5148908719171
 20
240.8618027231364
 10
769.4683135680276
 20
240.6700500338078
 10
769.4408590710859
 20
240.4746407461574
 10
769.432794640593
 20
240.2774770982322
 10
769.4327228539225
 20
240.2605318473272
 10
769.4327228539225
 20
238.8221508473253
 10
769.443679063186
 20
238.61309392079
 10
769.476427652455
 20
238.4063274656898
 10
769.5306098213323
 20
238.2041168585754
 10
769.6056319386373
 20
238.0086775611737
 10
769.7006720463537
 20
237.8221508473253
 10
769.8146888651727
 20
237.6465803427404
 10
769.9464332029678
 20
237.4838896346076
 10
770.0944616412048
 20
237.3358611963705
 10
770.2571523493376
 20
237.2041168585754
 10
770.4327228539225
 20
237.0901000397564
 10
770.6192495677709
 20
236.9950599320401
 10
770.8146888651727
 20
236.920037814735
 10
771.016899472287
 20
236.8658556458577
 10
771.2236659273873
 20
236.8331070565887
 10
771.4327228539225
 20
236.8221508473253
 10
781.4327228539225
 20
236.8221508473254
 10
781.9553651702608
 20
236.7947603241667
 10
782.4722813080114
 20
236.7128888509944
 10
782.9778078257973
 20
236.5774334288011
 10
783.4664060693016
 20
236.3898781355384
 10
783.9327228539225
 20
236.1522778662475
 10
784.3716491153849
 20
235.8672358192001
 10
784.7783758857169
 20
235.5378749747123
 10
785.1484469813095
 20
235.1678038791196
 10
785.4778078257973
 20
234.7610771087877
 10
785.7628498728448
 20
234.3221508473254
 10
786.0004501421355
 20
233.8558340627044
 10
786.1880054353983
 20
233.3672358192001
 10
786.3234608575916
 20
232.8617093014142
 10
786.4053323307639
 20
232.3447931636636
 10
786.4327228539225
 20
231.8221508473254
 10
786.4327228539225
 20
193.0853213866853
 10
786.4053323307639
 20
192.5626790703471
 10
786.3234608575916
 20
192.0457629325965
 10
786.1880054353983
 20
191.5402364148106
 10
786.0004501421355
 20
191.0516381713063
 10
785.7628498728448
 20
190.5853213866853
 10
785.4778078257973
 20
190.146395125223
 10
785.1484469813095
 20
189.7396683548911
 10
784.7783758857169
 20
189.3695972592984
 10
784.3716491153849
 20
189.0402364148106
 10
783.9327228539225
 20
188.7551943677632
 10
783.4664060693016
 20
188.5175940984723
 10
782.9778078257973
 20
188.3300388052096
 10
782.4722813080114
 20
188.1945833830163
 10
781.9553651702608
 20
188.112711909844
 10
781.4327228539225
 20
188.0853213866853
 10
771.4327228539227
 20
188.0853213866853
 10
771.2247713281496
 20
188.0744810491883
 10
771.0190740670988
 20
188.042077549614
 10
770.8178608985025
 20
187.988462152834
 10
770.6233130410172
 20
187.9142160678446
 10
770.4375394590772
 20
187.8201441472647
 10
770.2625540010088
 20
187.7072661624624
 10
770.1002535682346
 20
187.5768057488891
 10
769.9523975522218
 20
187.4301771414578
 10
769.820588762085
 20
187.2689698437598
 10
769.7062560495941
 20
187.0949313973093
 10
769.6106388199398
 20
186.9099484376031
 10
769.534773596162
 20
186.7160262423558
 10
769.4794827828907
 20
186.5152669936118
 10
769.4775029920788
 20
181.1853213866853
 10
789.4327228539225
 20
181.1853213866853
 97
        0
 92
        3
 72
     0
 73
     1
 93
      120
 10
809.4327228539225
 20
240.2605318473254
 10
809.4326510672522
 20
240.2774770982323
 10
809.4245866367592
 20
240.4746407461575
 10
809.3971321398176
 20
240.6700500338079
 10
809.3505548359279
 20
240.8618027231365
 10
809.2853081381326
 20
241.0480321717453
 10
809.2020271992047
 20
241.2269255039678
 10
809.1015227286688
 20
241.3967412585509
 10
808.9847731008387
 20
241.5558263411447
 10
808.8529148307014
 20
241.7026321165719
 10
808.707231510359
 20
241.8357294842257
 10
808.5491413137278
 20
241.9538227898423
 10
808.3801831911336
 20
242.0557624382223
 10
808.2020018881924
 20
242.1405560841195
 10
808.0163319348121
 20
242.2073782923597
 10
807.8249807601776
 20
242.2555785731509
 10
807.6298110980878
 20
242.2846877143635
 10
807.4327228539225
 20
242.2944223491391
 10
799.9390368302809
 20
242.294422349139
 10
795.9327228539225
 20
242.294422349139
 10
793.9327228539225
 20
242.294422349139
 10
793.7236659273873
 20
242.3053785584025
 10
793.516899472287
 20
242.3381271476714
 10
793.3146888651727
 20
242.3923093165487
 10
793.1192495677709
 20
242.4673314338538
 10
792.9327228539225
 20
242.5623715415702
 10
792.7571523493376
 20
242.6763883603892
 10
792.5944616412048
 20
242.8081326981842
 10
792.4464332029678
 20
242.9561611364213
 10
792.3146888651727
 20
243.1188518445541
 10
792.2006720463537
 20
243.294422349139
 10
792.1056319386373
 20
243.4809490629874
 10
792.0306098213323
 20
243.6763883603892
 10
791.976427652455
 20
243.8785989675035
 10
791.943679063186
 20
244.0853654226037
 10
791.9327228539225
 20
244.294422349139
 10
791.9327228539225
 20
250.856041349139
 10
791.9272447492908
 20
250.9605698124068
 10
791.9108704546563
 20
251.0639530399569
 10
791.8837793702177
 20
251.1650583435141
 10
791.8462683115652
 20
251.262777992215
 10
791.798748257707
 20
251.3560413491392
 10
791.7417398482975
 20
251.4438266014316
 10
791.6758676794
 20
251.525171955498
 10
791.6018534602814
 20
251.5991861746166
 10
791.5205081062151
 20
251.6650583435141
 10
791.4327228539225
 20
251.7220667529236
 10
791.3394594969983
 20
251.7695868067818
 10
791.2417398482975
 20
251.8070978654343
 10
791.1406345447404
 20
251.834188949873
 10
791.0372513171902
 20
251.8505632445074
 10
790.9327228539225
 20
251.8560413491392
 10
789.4327228539225
 20
251.8560413491392
 10
789.4327228539225
 20
181.1853213866854
 10
809.4327228539225
 20
181.1853213866854
 10
809.4327228539225
 20
186.0853213866853
 10
809.4217666446591
 20
186.2943783132206
 10
809.3890180553901
 20
186.5011447683208
 10
809.3348358865128
 20
186.7033553754352
 10
809.2598137692078
 20
186.8987946728369
 10
809.1647736614914
 20
187.0853213866853
 10
809.0507568426724
 20
187.2608918912703
 10
808.9190125048773
 20
187.4235825994031
 10
808.7709840666403
 20
187.5716110376401
 10
808.6082933585075
 20
187.7033553754352
 10
808.4327228539225
 20
187.8173721942542
 10
808.2461961400742
 20
187.9124123019705
 10
808.0507568426724
 20
187.9874344192756
 10
807.848546235558
 20
188.0416165881529
 10
807.6417797804578
 20
188.0743651774219
 10
807.4327228539225
 20
188.0853213866853
 10
797.4327228539225
 20
188.0853213866853
 10
796.9100805375842
 20
188.112711909844
 10
796.3931643998337
 20
188.1945833830163
 10
795.8876378820478
 20
188.3300388052096
 10
795.3990396385435
 20
188.5175940984723
 10
794.9327228539225
 20
188.7551943677632
 10
794.4937965924602
 20
189.0402364148106
 10
794.0870698221282
 20
189.3695972592984
 10
793.7169987265356
 20
189.7396683548911
 10
793.3876378820478
 20
190.146395125223
 10
793.1025958350003
 20
190.5853213866853
 10
792.8649955657096
 20
191.0516381713063
 10
792.6774402724468
 20
191.5402364148106
 10
792.5419848502535
 20
192.0457629325965
 10
792.4601133770811
 20
192.5626790703471
 10
792.4327228539225
 20
193.0853213866853
 10
792.4327228539225
 20
231.8221508473254
 10
792.4567992205616
 20
232.3122365489732
 10
792.5287964519064
 20
232.797602457406
 10
792.6480211752615
 20
233.2735742335977
 10
792.8133251913661
 20
233.7355680091508
 10
793.0231165321808
 20
234.1791345314554
 10
793.2753747924098
 20
234.6000020124234
 10
793.5676705871089
 20
234.9941172681436
 10
793.8971889479898
 20
235.3576847532581
 10
794.2607564331043
 20
235.6872031141391
 10
794.6548716888245
 20
235.9794989088381
 10
795.0757391697925
 20
236.2317571690672
 10
795.5193056920971
 20
236.4415485098818
 10
795.9812994676503
 20
236.6068525259864
 10
796.4572712438419
 20
236.7260772493415
 10
796.9426371522748
 20
236.7980744806864
 10
797.4327228539225
 20
236.8221508473254
 10
807.4327228539225
 20
236.8221508473253
 10
807.6417797804578
 20
236.8331070565887
 10
807.848546235558
 20
236.8658556458577
 10
808.0507568426724
 20
236.920037814735
 10
808.2461961400742
 20
236.9950599320401
 10
808.4327228539225
 20
237.0901000397564
 10
808.6082933585075
 20
237.2041168585754
 10
808.7709840666403
 20
237.3358611963705
 10
808.9190125048773
 20
237.4838896346076
 10
809.0507568426724
 20
237.6465803427403
 10
809.1647736614914
 20
237.8221508473253
 10
809.2598137692078
 20
238.0086775611737
 10
809.3348358865128
 20
238.2041168585754
 10
809.3890180553901
 20
238.4063274656898
 10
809.4217666446591
 20
238.61309392079
 10
809.4327228539225
 20
238.8221508473253
 97
        0
 75
     0
 76
     1
 52
0.0
 41
1.0
 77
     0
 78
     1
 53
45.0
 43
461.1102672246054
 44
-0.9078938240927528
 45
-2.245064030267288
 46
2.245064030267288
 79
     1
 49
1.0
 98
        0
  0
ARC
  5
186
102
{ACAD_XDICTIONARY
360
184
102
}
330
1F
100
AcDbEntity
  8
Main lines
100
AcDbCircle
 10
771.4327228539228
 20
59.86794141258633
 30
0.0
 40
2.0
100
AcDbArc
 50
180.0
 51
270.0
  0
ARC
  5
189
102
{ACAD_XDICTIONARY
360
187
102
}
330
1F
100
AcDbEntity
  8
Main lines
100
AcDbCircle
 10
807.4327228539225
 20
59.86794141258633
 30
0.0
 40
2.0
100
AcDbArc
 50
-90.0
 51
0.0
  0
HATCH
  5
18A
330
1F
100
AcDbEntity
  8
Main lines
  6
Durchgehend
100
AcDbHatch
 10
0.0
 20
0.0
 30
0.0
210
0.0
220
0.0
230
1.0
  2
ANSI31
 70
     0
 71
     0
 91
        2
 92
        3
 72
     0
 73
     1
 93
      118
 10
789.4327228539225
 20
118.9853213866853
 10
769.4543990061127
 20
118.9853213866853
 10
769.4524747679254
 20
113.8049332309011
 10
769.4913905592647
 20
113.6044587017971
 10
769.5505469119495
 20
113.4089977042245
 10
769.6293270548125
 20
113.2205881377861
 10
769.7269096167166
 20
113.041194383025
 10
769.842277190268
 20
112.87268682056
 10
769.9742269394266
 20
112.7168223302742
 10
770.1213831404176
 20
112.5752259738771
 10
770.2822115251914
 20
112.4493740518176
 10
770.4550352778843
 20
112.3405787111998
 10
770.6380525175008
 20
112.2499742651818
 10
770.8293550845381
 20
112.1785053664915
 10
771.0269484356846
 20
112.1269171583648
 10
771.2287724391658
 20
112.095747505594
 10
771.4327228539228
 20
112.0853213866853
 10
781.4327228539225
 20
112.0853213866853
 10
781.9553651702608
 20
112.0579308635267
 10
782.4722813080114
 20
111.9760593903544
 10
782.9778078257973
 20
111.8406039681611
 10
783.4664060693016
 20
111.6530486748983
 10
783.9327228539225
 20
111.4154484056075
 10
784.3716491153849
 20
111.1304063585601
 10
784.7783758857169
 20
110.8010455140723
 10
785.1484469813095
 20
110.4309744184796
 10
785.4778078257973
 20
110.0242476481477
 10
785.7628498728448
 20
109.5853213866853
 10
786.0004501421355
 20
109.1190046020643
 10
786.1880054353983
 20
108.6304063585601
 10
786.3234608575916
 20
108.1248798407741
 10
786.4053323307639
 20
107.6079637030236
 10
786.4327228539225
 20
107.0853213866853
 10
786.4327228539225
 20
68.34849192605299
 10
786.4086464872835
 20
67.85840622440519
 10
786.3366492559387
 20
67.37304031597235
 10
786.2174245325835
 20
66.89706853978068
 10
786.052120516479
 20
66.43507476422754
 10
785.8423291756643
 20
65.991508241923
 10
785.5900709154353
 20
65.57064076095497
 10
785.2977751207362
 20
65.17652550523475
 10
784.9682567598553
 20
64.81295802012023
 10
784.6046892747407
 20
64.4834396592393
 10
784.2105740190206
 20
64.19114386454025
 10
783.7897065380525
 20
63.9388856043112
 10
783.346140015748
 20
63.72909426349653
 10
782.8841462401948
 20
63.56379024739192
 10
782.4081744640032
 20
63.44456552403681
 10
781.9228085555703
 20
63.37256829269197
 10
781.4327228539225
 20
63.34849192605296
 10
771.4327228539228
 20
63.34849192605304
 10
771.2258832168147
 20
63.33776751392944
 10
771.0212618132185
 20
63.30570929057405
 10
770.8210530873956
 20
63.25266106158606
 10
770.6274041602325
 20
63.17919173803558
 10
770.4423918026313
 20
63.08608923522682
 10
770.268000163363
 20
62.97435202276961
 10
770.106099490238
 20
62.84517841657991
 10
769.9584260727979
 20
62.69995372764596
 10
769.8265636216311
 20
62.54023540538244
 10
769.7119262840075
 20
62.36773633490098
 10
769.6157434779806
 20
62.18430646732436
 10
769.5390467076013
 20
61.99191298014825
 10
769.4826585006438
 20
61.79261918041902
 10
769.4471835874784
 20
61.58856237697865
 10
769.433002415694
 20
61.38193095908386
 10
769.4327228539228
 20
60.62930142605297
 10
769.4327228539228
 20
59.86794141258633
 10
769.4436790631862
 20
59.65888448605102
 10
769.4764276524552
 20
59.45211803095081
 10
769.5306098213325
 20
59.24990742383643
 10
769.6056319386375
 20
59.05446812643473
 10
769.7006720463539
 20
58.86794141258633
 10
769.8146888651729
 20
58.69237090800138
 10
769.946433202968
 20
58.52968019986861
 10
770.094461641205
 20
58.38165176163154
 10
770.2571523493378
 20
58.24990742383643
 10
770.4327228539228
 20
58.13589060501745
 10
770.6192495677711
 20
58.04085049730112
 10
770.8146888651729
 20
57.96582837999602
 10
771.0168994722873
 20
57.91164621111871
 10
771.2236659273875
 20
57.87889762184978
 10
771.4327228539228
 20
57.86794141258633
 10
782.1203876801453
 20
57.86794141258633
 10
783.9579892499469
 20
57.8679414125863
 10
784.9327228539228
 20
57.86794141258622
 10
785.141779780458
 20
57.85698520332274
 10
785.3485462355583
 20
57.82423661405379
 10
785.5507568426726
 20
57.77005444517647
 10
785.7461961400743
 20
57.69503232787136
 10
785.9327228539227
 20
57.59999222015502
 10
786.1082933585076
 20
57.48597540133604
 10
786.2709840666404
 20
57.35423106354094
 10
786.4190125048774
 20
57.20620262530387
 10
786.5507568426725
 20
57.0435119171711
 10
786.6647736614915
 20
56.86794141258617
 10
786.7598137692078
 20
56.68141469873778
 10
786.8348358865129
 20
56.48597540133609
 10
786.8890180553901
 20
56.28376479422173
 10
786.9217666446591
 20
56.07699833912154
 10
786.9327228539225
 20
55.86794141258625
 10
786.9327228539225
 20
49.3063224125863
 10
786.9382009585543
 20
49.20179394931864
 10
786.9545752531888
 20
49.09841072176854
 10
786.9816663376274
 20
48.99730541821135
 10
787.0191773962799
 20
48.89958576951049
 10
787.0666974501381
 20
48.80632241258629
 10
787.1237058595476
 20
48.71853716029381
 10
787.1895780284451
 20
48.63719180622743
 10
787.2635922475637
 20
48.56317758710888
 10
787.34493760163
 20
48.49730541821133
 10
787.4327228539225
 20
48.44029700880183
 10
787.5259862108468
 20
48.39277695494366
 10
787.6237058595476
 20
48.35526589629111
 10
787.7248111631047
 20
48.32817481185245
 10
787.8281943906549
 20
48.31180051721797
 10
787.9327228539225
 20
48.30632241258624
 10
789.4327228539225
 20
48.30632241258624
 97
        0
 92
        3
 72
     0
 73
     1
 93
      117
 10
807.4327228539225
 20
63.34849192605304
 10
797.4327228539225
 20
63.34849192605299
 10
796.9100805375842
 20
63.37588244921162
 10
796.3931643998337
 20
63.45775392238396
 10
795.8876378820478
 20
63.59320934457722
 10
795.3990396385435
 20
63.78076463783998
 10
794.9327228539225
 20
64.01836490713079
 10
794.4937965924602
 20
64.30340695417824
 10
794.0870698221282
 20
64.63276779866601
 10
793.7169987265356
 20
65.00283889425869
 10
793.3876378820478
 20
65.40956566459062
 10
793.1025958350003
 20
65.84849192605297
 10
792.8649955657096
 20
66.31480871067397
 10
792.6774402724468
 20
66.80340695417824
 10
792.5419848502535
 20
67.30893347196418
 10
792.4601133770811
 20
67.82584960971471
 10
792.4327228539225
 20
68.34849192605297
 10
792.4327228539225
 20
107.0853213866853
 10
792.4601133770811
 20
107.6079637030236
 10
792.5419848502535
 20
108.1248798407741
 10
792.6774402724468
 20
108.6304063585601
 10
792.8649955657096
 20
109.1190046020643
 10
793.1025958350003
 20
109.5853213866853
 10
793.3876378820478
 20
110.0242476481477
 10
793.7169987265356
 20
110.4309744184796
 10
794.0870698221282
 20
110.8010455140723
 10
794.4937965924602
 20
111.1304063585601
 10
794.9327228539225
 20
111.4154484056075
 10
795.3990396385435
 20
111.6530486748983
 10
795.8876378820478
 20
111.8406039681611
 10
796.3931643998337
 20
111.9760593903544
 10
796.9100805375842
 20
112.0579308635267
 10
797.4327228539225
 20
112.0853213866854
 10
807.4327228539225
 20
112.0853213866853
 10
807.6417797804578
 20
112.0962775959488
 10
807.848546235558
 20
112.1290261852177
 10
808.0507568426724
 20
112.183208354095
 10
808.2461961400742
 20
112.2582304714001
 10
808.4327228539225
 20
112.3532705791165
 10
808.6082933585075
 20
112.4672873979354
 10
808.7709840666403
 20
112.5990317357305
 10
808.9190125048773
 20
112.7470601739676
 10
809.0507568426724
 20
112.9097508821004
 10
809.1647736614914
 20
113.0853213866853
 10
809.2598137692078
 20
113.2718481005337
 10
809.3348358865128
 20
113.4672873979355
 10
809.3890180553901
 20
113.6694980050498
 10
809.4217666446591
 20
113.87626446015
 10
809.4327228539225
 20
114.0853213866854
 10
809.4327228539225
 20
118.9853213866853
 10
789.4327228539225
 20
118.9853213866853
 10
789.4327228539225
 20
48.30632241258624
 10
790.9327228539225
 20
48.30632241258624
 10
791.0372513171902
 20
48.31180051721797
 10
791.1406345447404
 20
48.32817481185243
 10
791.2417398482975
 20
48.35526589629109
 10
791.3394594969983
 20
48.39277695494364
 10
791.4327228539225
 20
48.4402970088018
 10
791.5205081062151
 20
48.49730541821129
 10
791.6018534602814
 20
48.56317758710885
 10
791.6758676794
 20
48.63719180622738
 10
791.7417398482975
 20
48.71853716029377
 10
791.798748257707
 20
48.80632241258624
 10
791.8462683115652
 20
48.89958576951044
 10
791.8837793702177
 20
48.99730541821129
 10
791.9108704546563
 20
49.09841072176848
 10
791.9272447492908
 20
49.20179394931858
 10
791.9327228539225
 20
49.30632241258624
 10
791.9327228539225
 20
55.86794141258633
 10
791.943679063186
 20
56.07699833912164
 10
791.976427652455
 20
56.28376479422185
 10
792.0306098213323
 20
56.48597540133623
 10
792.1056319386373
 20
56.68141469873793
 10
792.2006720463537
 20
56.86794141258633
 10
792.3146888651727
 20
57.04351191717128
 10
792.4464332029678
 20
57.20620262530405
 10
792.5944616412048
 20
57.35423106354112
 10
792.7571523493376
 20
57.48597540133623
 10
792.9327228539225
 20
57.59999222015521
 10
793.1192495677709
 20
57.69503232787154
 10
793.3146888651727
 20
57.77005444517664
 10
793.516899472287
 20
57.82423661405394
 10
793.7236659273873
 20
57.85698520332288
 10
793.9327228539225
 20
57.86794141258633
 10
802.4421321484178
 20
57.8679414125863
 10
807.4327228539225
 20
57.86794141258633
 10
807.6417797804578
 20
57.87889762184979
 10
807.848546235558
 20
57.91164621111872
 10
808.0507568426724
 20
57.96582837999603
 10
808.2461961400742
 20
58.04085049730113
 10
808.4327228539225
 20
58.13589060501746
 10
808.6082933585075
 20
58.24990742383644
 10
808.7709840666403
 20
58.38165176163155
 10
808.9190125048773
 20
58.52968019986861
 10
809.0507568426724
 20
58.69237090800139
 10
809.1647736614914
 20
58.86794141258633
 10
809.2598137692078
 20
59.05446812643473
 10
809.3348358865128
 20
59.24990742383644
 10
809.3890180553901
 20
59.45211803095081
 10
809.4217666446591
 20
59.65888448605103
 10
809.4327228539225
 20
59.86794141258633
 10
809.4327228539225
 20
60.36288880437019
 10
809.4327228539225
 20
61.34849192605304
 10
809.4217666446591
 20
61.55754885258835
 10
809.3890180553901
 20
61.76431530768856
 10
809.3348358865128
 20
61.96652591480294
 10
809.2598137692078
 20
62.16196521220464
 10
809.1647736614914
 20
62.34849192605304
 10
809.0507568426724
 20
62.52406243063799
 10
808.9190125048773
 20
62.68675313877076
 10
808.7709840666403
 20
62.83478157700783
 10
808.6082933585075
 20
62.96652591480294
 10
808.4327228539225
 20
63.08054273362192
 10
808.2461961400742
 20
63.17558284133825
 10
808.0507568426724
 20
63.25060495864335
 10
807.848546235558
 20
63.30478712752065
 10
807.6417797804578
 20
63.33753571678959
 97
        0
 75
     0
 76
     1
 52
0.0
 41
1.0
 77
     0
 78
     1
 53
45.0
 43
461.1102672246054
 44
-0.9078938240927528
 45
-2.245064030267288
 46
2.245064030267288
 79
     1
 49
1.0
 98
        0
  0
LINE
  5
18D
102
{ACAD_XDICTIONARY
360
18B
102
}
330
1F
100
AcDbEntity
  8
Main lines
100
AcDbLine
 10
608.5714451665776
 20
112.0853213866853
 30
0.0
 11
548.5714451665776
 21
112.0853213866853
 31
0.0
  0
LINE
  5
190
102
{ACAD_XDICTIONARY
360
18E
102
}
330
1F
100
AcDbEntity
  8
Main lines
100
AcDbLine
 10
548.5714451665776
 20
188.0853213866853
 30
0.0
 11
608.5714451665776
 21
188.0853213866853
 31
0.0
  0
LINE
  5
193
102
{ACAD_XDICTIONARY
360
191
102
}
330
1F
100
AcDbEntity
  8
Main lines
100
AcDbLine
 10
563.754293313415
 20
181.1853213866854
 30
0.0
 11
593.754293313415
 21
181.1853213866854
 31
0.0
  0
LINE
  5
196
102
{ACAD_XDICTIONARY
360
194
102
}
330
1F
100
AcDbEntity
  8
Main lines
100
AcDbLine
 10
563.754293313415
 20
118.9853213866853
 30
0.0
 11
593.754293313415
 21
118.9853213866853
 31
0.0
  0
LINE
  5
199
102
{ACAD_XDICTIONARY
360
197
102
}
330
1F
100
AcDbEntity
  8
Main lines
100
AcDbLine
 10
540.5714451665776
 20
120.0853213866853
 30
0.0
 11
540.5714451665776
 21
180.0853213866853
 31
0.0
  0
LINE
  5
19C
102
{ACAD_XDICTIONARY
360
19A
102
}
330
1F
100
AcDbEntity
  8
Main lines
100
AcDbLine
 10
548.554293313415
 20
165.9853213866853
 30
0.0
 11
548.554293313415
 21
179.7853213866854
 31
0.0
  0
ARC
  5
19F
102
{ACAD_XDICTIONARY
360
19D
102
}
330
1F
100
AcDbEntity
  8
Main lines
100
AcDbCircle
 10
548.5714451665776
 20
120.0853213866853
 30
0.0
 40
8.0
100
AcDbArc
 50
180.0
 51
270.0
  0
LINE
  5
1A2
102
{ACAD_XDICTIONARY
360
1A0
102
}
330
1F
100
AcDbEntity
  8
Main lines
100
AcDbLine
 10
547.6542933134151
 20
165.0853213866855
 30
0.0
 11
548.5542933134152
 21
165.9853213866853
 31
0.0
  0
LINE
  5
1A5
102
{ACAD_XDICTIONARY
360
1A3
102
}
330
1F
100
AcDbEntity
  8
Main lines
100
AcDbLine
 10
547.6542933134151
 20
135.0853213866855
 30
0.0
 11
548.554293313415
 21
134.1853213866854
 31
0.0
  0
LINE
  5
1A8
102
{ACAD_XDICTIONARY
360
1A6
102
}
330
1F
100
AcDbEntity
  8
Main lines
100
AcDbLine
 10
547.6542933134151
 20
135.0853213866855
 30
0.0
 11
547.6542933134151
 21
165.0853213866855
 31
0.0
  0
LINE
  5
1AB
102
{ACAD_XDICTIONARY
360
1A9
102
}
330
1F
100
AcDbEntity
  8
Main lines
100
AcDbLine
 10
548.5542933134152
 20
120.4853213866853
 30
0.0
 11
548.554293313415
 21
134.1853213866855
 31
0.0
  0
LINE
  5
1AE
102
{ACAD_XDICTIONARY
360
1AC
102
}
330
1F
100
AcDbEntity
  8
Main lines
100
AcDbLine
 10
549.1542933134151
 20
119.8853213866854
 30
0.0
 11
562.8542933134152
 21
119.8853213866854
 31
0.0
  0
ARC
  5
1B1
102
{ACAD_XDICTIONARY
360
1AF
102
}
330
1F
100
AcDbEntity
  8
Main lines
100
AcDbCircle
 10
549.1542933134151
 20
120.4853213866853
 30
0.0
 40
0.5
100
AcDbArc
 50
180.0
 51
270.0
  0
LINE
  5
1B4
102
{ACAD_XDICTIONARY
360
1B2
102
}
330
1F
100
AcDbEntity
  8
Main lines
100
AcDbLine
 10
563.754293313415
 20
118.9853213866853
 30
0.0
 11
562.8542933134152
 21
119.8853213866854
 31
0.0
  0
ARC
  5
1B7
102
{ACAD_XDICTIONARY
360
1B5
102
}
330
1F
100
AcDbEntity
  8
Main lines
100
AcDbCircle
 10
548.5714451665776
 20
180.0853213866853
 30
0.0
 40
8.0
100
AcDbArc
 50
90.0
 51
180.0
  0
LINE
  5
1BA
102
{ACAD_XDICTIONARY
360
1B8
102
}
330
1F
100
AcDbEntity
  8
Main lines
100
AcDbLine
 10
549.054293313415
 20
180.2853213866854
 30
0.0
 11
562.8542933134152
 21
180.2853213866854
 31
0.0
  0
ARC
  5
1BD
102
{ACAD_XDICTIONARY
360
1BB
102
}
330
1F
100
AcDbEntity
  8
Main lines
100
AcDbCircle
 10
549.054293313415
 20
179.7853213866854
 30
0.0
 40
0.5
100
AcDbArc
 50
90.0
 51
180.0
  0
LINE
  5
1C0
102
{ACAD_XDICTIONARY
360
1BE
102
}
330
1F
100
AcDbEntity
  8
Main lines
100
AcDbLine
 10
563.754293313415
 20
181.1853213866854
 30
0.0
 11
562.8542933134152
 21
180.2853213866854
 31
0.0
  0
LINE
  5
1C3
102
{ACAD_XDICTIONARY
360
1C1
102
}
330
1F
100
AcDbEntity
  8
Main lines
100
AcDbLine
 10
616.5714451665776
 20
180.0853213866853
 30
0.0
 11
616.5714451665776
 21
120.0853213866853
 31
0.0
  0
LINE
  5
1C6
102
{ACAD_XDICTIONARY
360
1C4
102
}
330
1F
100
AcDbEntity
  8
Main lines
100
AcDbLine
 10
608.9542933134151
 20
165.9853213866853
 30
0.0
 11
608.9542933134151
 21
179.7853213866854
 31
0.0
  0
LINE
  5
1C9
102
{ACAD_XDICTIONARY
360
1C7
102
}
330
1F
100
AcDbEntity
  8
Main lines
100
AcDbLine
 10
609.8542933134152
 20
165.0853213866853
 30
0.0
 11
609.8542933134152
 21
135.0853213866853
 31
0.0
  0
LINE
  5
1CC
102
{ACAD_XDICTIONARY
360
1CA
102
}
330
1F
100
AcDbEntity
  8
Main lines
100
AcDbLine
 10
594.6542933134151
 20
119.8853213866854
 30
0.0
 11
608.3542933134149
 21
119.8853213866854
 31
0.0
  0
LINE
  5
1CF
102
{ACAD_XDICTIONARY
360
1CD
102
}
330
1F
100
AcDbEntity
  8
Main lines
100
AcDbLine
 10
593.754293313415
 20
118.9853213866853
 30
0.0
 11
594.6542933134151
 21
119.8853213866854
 31
0.0
  0
LINE
  5
1D2
102
{ACAD_XDICTIONARY
360
1D0
102
}
330
1F
100
AcDbEntity
  8
Main lines
100
AcDbLine
 10
608.9542933134151
 20
120.4853213866853
 30
0.0
 11
608.9542933134151
 21
134.1853213866854
 31
0.0
  0
ARC
  5
1D5
102
{ACAD_XDICTIONARY
360
1D3
102
}
330
1F
100
AcDbEntity
  8
Main lines
100
AcDbCircle
 10
608.5714451665776
 20
120.0853213866853
 30
0.0
 40
8.0
100
AcDbArc
 50
-90.0
 51
0.0
  0
ARC
  5
1D8
102
{ACAD_XDICTIONARY
360
1D6
102
}
330
1F
100
AcDbEntity
  8
Main lines
100
AcDbCircle
 10
608.3542933134149
 20
120.4853213866853
 30
0.0
 40
0.5
100
AcDbArc
 50
-90.0
 51
0.0
  0
LINE
  5
1DB
102
{ACAD_XDICTIONARY
360
1D9
102
}
330
1F
100
AcDbEntity
  8
Main lines
100
AcDbLine
 10
609.8542933134152
 20
135.0853213866853
 30
0.0
 11
608.9542933134151
 21
134.1853213866854
 31
0.0
  0
LINE
  5
1DE
102
{ACAD_XDICTIONARY
360
1DC
102
}
330
1F
100
AcDbEntity
  8
Main lines
100
AcDbLine
 10
609.8542933134152
 20
165.0853213866853
 30
0.0
 11
608.9542933134151
 21
165.9853213866853
 31
0.0
  0
LINE
  5
1E1
102
{ACAD_XDICTIONARY
360
1DF
102
}
330
1F
100
AcDbEntity
  8
Main lines
100
AcDbLine
 10
594.6542933134151
 20
180.2853213866854
 30
0.0
 11
608.4542933134151
 21
180.2853213866854
 31
0.0
  0
LINE
  5
1E4
102
{ACAD_XDICTIONARY
360
1E2
102
}
330
1F
100
AcDbEntity
  8
Main lines
100
AcDbLine
 10
593.754293313415
 20
181.1853213866854
 30
0.0
 11
594.6542933134151
 21
180.2853213866854
 31
0.0
  0
ARC
  5
1E7
102
{ACAD_XDICTIONARY
360
1E5
102
}
330
1F
100
AcDbEntity
  8
Main lines
100
AcDbCircle
 10
608.5714451665776
 20
180.0853213866853
 30
0.0
 40
8.0
100
AcDbArc
 50
0.0
 51
90.0
  0
ARC
  5
1EA
102
{ACAD_XDICTIONARY
360
1E8
102
}
330
1F
100
AcDbEntity
  8
Main lines
100
AcDbCircle
 10
608.4542933134151
 20
179.7853213866854
 30
0.0
 40
0.5
100
AcDbArc
 50
0.0
 51
90.0
  0
ARC
  5
1ED
102
{ACAD_XDICTIONARY
360
1EB
102
}
330
1F
100
AcDbEntity
  8
Main lines
100
AcDbCircle
 10
591.1482696060602
 20
246.4432221342392
 30
0.0
 40
4.999999999999985
100
AcDbArc
 50
-170.0000000000001
 51
-97.43632064213789
  0
ARC
  5
1F0
102
{ACAD_XDICTIONARY
360
1EE
102
}
330
1F
100
AcDbEntity
  8
Main lines
100
AcDbCircle
 10
579.5801034088931
 20
244.2551302140537
 30
0.0
 40
2.000000000000006
100
AcDbArc
 50
-90.6136749244427
 51
0.0
  0
ARC
  5
1F3
102
{ACAD_XDICTIONARY
360
1F1
102
}
330
1F
100
AcDbEntity
  8
Main lines
100
AcDbCircle
 10
577.5801034088931
 20
244.2553140996105
 30
0.0
 40
2.0
100
AcDbArc
 50
180.0
 51
270.6031390581567
  0
ARC
  5
1F6
102
{ACAD_XDICTIONARY
360
1F4
102
}
330
1F
100
AcDbEntity
  8
Main lines
100
AcDbCircle
 10
566.0123026886204
 20
246.4455283690044
 30
0.0
 40
5.000000000000015
100
AcDbArc
 50
-82.57419317804877
 51
-9.999999999999947
  0
ARC
  5
1F9
102
{ACAD_XDICTIONARY
360
1F7
102
}
330
1F
100
AcDbEntity
  8
Main lines
100
AcDbCircle
 10
582.5801034088931
 20
250.5053425930977
 30
0.0
 40
0.9999999999999933
100
AcDbArc
 50
87.71402840684358
 51
180.0
  0
ARC
  5
1FC
102
{ACAD_XDICTIONARY
360
1FA
102
}
330
1F
100
AcDbEntity
  8
Main lines
100
AcDbCircle
 10
578.5714451665776
 20
150.0853213866853
 30
0.0
 40
101.5
100
AcDbArc
 50
86.70109577455372
 51
93.28893800886723
  0
LINE
  5
1FF
102
{ACAD_XDICTIONARY
360
1FD
102
}
330
1F
100
AcDbEntity
  8
Main lines
100
AcDbLine
 10
581.5801034088931
 20
250.5053425930977
 30
0.0
 11
581.5801034088931
 21
244.2551302140537
 31
0.0
  0
LINE
  5
202
102
{ACAD_XDICTIONARY
360
200
102
}
330
1F
100
AcDbEntity
  8
Main lines
100
AcDbLine
 10
575.5801034088931
 20
250.5060323529664
 30
0.0
 11
575.5801034088931
 21
244.2553140996105
 31
0.0
  0
LINE
  5
205
102
{ACAD_XDICTIONARY
360
203
102
}
330
1F
100
AcDbEntity
  8
Main lines
100
AcDbLine
 10
571.8208239883111
 20
250.5934371990846
 30
0.0
 11
570.9363414536813
 21
245.5772874806697
 31
0.0
  0
ARC
  5
208
102
{ACAD_XDICTIONARY
360
206
102
}
330
1F
100
AcDbEntity
  8
Main lines
100
AcDbCircle
 10
574.5801034088931
 20
250.5060323529664
 30
0.0
 40
1.0
100
AcDbArc
 50
0.0
 51
92.27609151084104
  0
ARC
  5
20B
102
{ACAD_XDICTIONARY
360
209
102
}
330
1F
100
AcDbEntity
  8
Main lines
100
AcDbCircle
 10
572.8056317413234
 20
250.4197890214177
 30
0.0
 40
1.000000000000006
100
AcDbArc
 50
93.28893800886716
 51
170.0000000000027
  0
LINE
  5
20E
102
{ACAD_XDICTIONARY
360
20C
102
}
330
1F
100
AcDbEntity
  8
Main lines
100
AcDbLine
 10
585.33951876526
 20
250.5924327566407
 30
0.0
 11
586.2242308409993
 21
245.5749812459046
 31
0.0
  0
ARC
  5
211
102
{ACAD_XDICTIONARY
360
20F
102
}
330
1F
100
AcDbEntity
  8
Main lines
100
AcDbCircle
 10
584.3547110122479
 20
250.4187845789738
 30
0.0
 40
0.9999999999999956
100
AcDbArc
 50
10.00000000000016
 51
86.7010957745537
  0
ARC
  5
214
102
{ACAD_XDICTIONARY
360
212
102
}
330
1F
100
AcDbEntity
  8
Main lines
100
AcDbCircle
 10
530.0928557338954
 20
234.3043686151742
 30
0.0
 40
5.000000000000019
100
AcDbArc
 50
-60.07419317804891
 51
12.50000000000009
  0
ARC
  5
217
102
{ACAD_XDICTIONARY
360
215
102
}
330
1F
100
AcDbEntity
  8
Main lines
100
AcDbCircle
 10
541.6182687697514
 20
236.7076801644163
 30
0.0
 40
2.000000000000015
100
AcDbArc
 50
-157.5000000000006
 51
-66.89686094184457
  0
ARC
  5
21A
102
{ACAD_XDICTIONARY
360
218
102
}
330
1F
100
AcDbEntity
  8
Main lines
100
AcDbCircle
 10
543.4660982047301
 20
237.4728771410443
 30
0.0
 40
1.999999999999978
100
AcDbArc
 50
-68.11367492444272
 51
22.49999999999862
  0
ARC
  5
21D
102
{ACAD_XDICTIONARY
360
21B
102
}
330
1F
100
AcDbEntity
  8
Main lines
100
AcDbCircle
 10
553.3163436566347
 20
243.9213560278587
 30
0.0
 40
4.999999999999996
100
AcDbArc
 50
-147.4999999999999
 51
-74.9363206421376
  0
ARC
  5
220
102
{ACAD_XDICTIONARY
360
21E
102
}
330
1F
100
AcDbEntity
  8
Main lines
100
AcDbCircle
 10
578.5714451665775
 20
150.0853213866853
 30
0.0
 40
101.5
100
AcDbArc
 50
109.2010957745538
 51
115.7889380088673
  0
LINE
  5
223
102
{ACAD_XDICTIONARY
360
221
102
}
330
1F
100
AcDbEntity
  8
Main lines
100
AcDbLine
 10
533.871893688603
 20
240.3593615539395
 30
0.0
 11
534.974335769495
 21
235.3865666848646
 31
0.0
  0
LINE
  5
226
102
{ACAD_XDICTIONARY
360
224
102
}
330
1F
100
AcDbEntity
  8
Main lines
100
AcDbLine
 10
537.3784633887875
 20
241.7172239574563
 30
0.0
 11
539.770509704729
 21
235.9423132996861
 31
0.0
  0
ARC
  5
229
102
{ACAD_XDICTIONARY
360
227
102
}
330
1F
100
AcDbEntity
  8
Main lines
100
AcDbCircle
 10
534.8481896957229
 20
240.5758011678777
 30
0.0
 40
0.9999999999999829
100
AcDbArc
 50
115.7889380088656
 51
192.5000000000026
  0
ARC
  5
22C
102
{ACAD_XDICTIONARY
360
22A
102
}
330
1F
100
AcDbEntity
  8
Main lines
100
AcDbCircle
 10
536.4545838562761
 20
241.3345405250913
 30
0.0
 40
0.9999999999999776
100
AcDbArc
 50
22.5000000000005
 51
114.7760915108404
  0
LINE
  5
22F
102
{ACAD_XDICTIONARY
360
22D
102
}
330
1F
100
AcDbEntity
  8
Main lines
100
AcDbLine
 10
546.3619234827754
 20
245.5318140884629
 30
0.0
 11
549.0993864275705
 21
241.2348579861246
 31
0.0
  0
LINE
  5
232
102
{ACAD_XDICTIONARY
360
230
102
}
330
1F
100
AcDbEntity
  8
Main lines
100
AcDbLine
 10
542.9220045435293
 20
244.0126872966219
 30
0.0
 11
545.3138572697526
 21
238.2382440057744
 31
0.0
  0
ARC
  5
235
102
{ACAD_XDICTIONARY
360
233
102
}
330
1F
100
AcDbEntity
  8
Main lines
100
AcDbCircle
 10
545.5185320369626
 20
244.9945144801161
 30
0.0
 40
1.000000000000032
100
AcDbArc
 50
32.49999999999967
 51
109.20109577455
  0
ARC
  5
238
102
{ACAD_XDICTIONARY
360
236
102
}
330
1F
100
AcDbEntity
  8
Main lines
100
AcDbCircle
 10
543.8458840760405
 20
244.395370728987
 30
0.0
 40
1.000000000000019
100
AcDbArc
 50
110.2140284068442
 51
202.5000000000025
  0
ARC
  5
23B
102
{ACAD_XDICTIONARY
360
239
102
}
330
1F
100
AcDbEntity
  8
Main lines
100
AcDbCircle
 10
501.553834560789
 20
209.3416223683708
 30
0.0
 40
5.000000000000002
100
AcDbArc
 50
-37.57419317804888
 51
35.00000000000034
  0
ARC
  5
23E
102
{ACAD_XDICTIONARY
360
23C
102
}
330
1F
100
AcDbEntity
  8
Main lines
100
AcDbCircle
 10
511.2822202556484
 20
215.9725773389503
 30
0.0
 40
1.999999999999996
100
AcDbArc
 50
-135.0000000000006
 51
-44.39686094184255
  0
ARC
  5
241
102
{ACAD_XDICTIONARY
360
23F
102
}
330
1F
100
AcDbEntity
  8
Main lines
100
AcDbCircle
 10
512.6965638447457
 20
217.3866608745993
 30
0.0
 40
2.000000000000012
100
AcDbArc
 50
-45.61367492444214
 51
45.00000000000027
  0
ARC
  5
244
102
{ACAD_XDICTIONARY
360
242
102
}
330
1F
100
AcDbEntity
  8
Main lines
100
AcDbCircle
 10
519.3292779740328
 20
227.1138042731318
 30
0.0
 40
5.000000000000002
100
AcDbArc
 50
-125.0000000000002
 51
-52.43632064213807
  0
ARC
  5
247
102
{ACAD_XDICTIONARY
360
245
102
}
330
1F
100
AcDbEntity
  8
Main lines
100
AcDbCircle
 10
578.5714451665776
 20
150.0853213866853
 30
0.0
 40
101.5
100
AcDbArc
 50
131.7010957745537
 51
138.2889380088672
  0
LINE
  5
24A
102
{ACAD_XDICTIONARY
360
248
102
}
330
1F
100
AcDbEntity
  8
Main lines
100
AcDbLine
 10
502.7280648989735
 20
216.3818816295419
 30
0.0
 11
505.6495947822339
 21
212.209504550126
 31
0.0
  0
LINE
  5
24D
102
{ACAD_XDICTIONARY
360
24B
102
}
330
1F
100
AcDbEntity
  8
Main lines
100
AcDbLine
 10
505.4480814290408
 20
218.9782890408118
 30
0.0
 11
509.8680066932753
 21
214.5583637765773
 31
0.0
  0
ARC
  5
250
102
{ACAD_XDICTIONARY
360
24E
102
}
330
1F
100
AcDbEntity
  8
Main lines
100
AcDbCircle
 10
503.5472169432625
 20
216.9554580658931
 30
0.0
 40
1.000000000000016
100
AcDbArc
 50
138.2889380088673
 51
215.0000000000032
  0
ARC
  5
253
102
{ACAD_XDICTIONARY
360
251
102
}
330
1F
100
AcDbEntity
  8
Main lines
100
AcDbCircle
 10
504.7409746478543
 20
218.2711822596252
 30
0.0
 40
1.000000000000008
100
AcDbArc
 50
45.0
 51
137.2760915108412
  0
LINE
  5
256
102
{ACAD_XDICTIONARY
360
254
102
}
330
1F
100
AcDbEntity
  8
Main lines
100
AcDbLine
 10
512.2879358966086
 20
225.9403321310502
 30
0.0
 11
516.4613957922777
 21
223.018044051687
 31
0.0
  0
LINE
  5
259
102
{ACAD_XDICTIONARY
360
257
102
}
330
1F
100
AcDbEntity
  8
Main lines
100
AcDbLine
 10
509.6912098500406
 20
223.2204419940505
 30
0.0
 11
514.1107774071188
 21
218.8008744369723
 31
0.0
  0
ARC
  5
25C
102
{ACAD_XDICTIONARY
360
25A
102
}
330
1F
100
AcDbEntity
  8
Main lines
100
AcDbCircle
 10
511.7143594602576
 20
225.1211800867614
 30
0.0
 40
0.9999999999999893
100
AcDbArc
 50
55.0000000000019
 51
131.7010957745541
  0
ARC
  5
25F
102
{ACAD_XDICTIONARY
360
25D
102
}
330
1F
100
AcDbEntity
  8
Main lines
100
AcDbCircle
 10
510.3983166312272
 20
223.9275487752371
 30
0.0
 40
0.9999999999999959
100
AcDbArc
 50
132.7140284068438
 51
224.9999999999989
  0
ARC
  5
262
102
{ACAD_XDICTIONARY
360
260
102
}
330
1F
100
AcDbEntity
  8
Main lines
100
AcDbCircle
 10
484.7400464360351
 20
175.3576414568119
 30
0.0
 40
5.000000000000011
100
AcDbArc
 50
-15.07419317804877
 51
57.50000000000015
  0
ARC
  5
265
102
{ACAD_XDICTIONARY
360
263
102
}
330
1F
100
AcDbEntity
  8
Main lines
100
AcDbCircle
 10
491.1903462558915
 20
185.2067370642146
 30
0.0
 40
2.0
100
AcDbArc
 50
-112.5000000000005
 51
-21.89686094184356
  0
ARC
  5
268
102
{ACAD_XDICTIONARY
360
266
102
}
330
1F
100
AcDbEntity
  8
Main lines
100
AcDbCircle
 10
491.955883008724
 20
187.0544257592811
 30
0.0
 40
2.000000000000003
100
AcDbArc
 50
-23.11367492444291
 51
67.49999999999983
  0
ARC
  5
26B
102
{ACAD_XDICTIONARY
360
269
102
}
330
1F
100
AcDbEntity
  8
Main lines
100
AcDbCircle
 10
494.361295214913
 20
198.5793642638797
 30
0.0
 40
5.000000000000016
100
AcDbArc
 50
-102.5000000000003
 51
-29.93632064213786
  0
ARC
  5
26E
102
{ACAD_XDICTIONARY
360
26C
102
}
330
1F
100
AcDbEntity
  8
Main lines
100
AcDbCircle
 10
578.5714451665776
 20
150.0853213866854
 30
0.0
 40
101.5
100
AcDbArc
 50
154.2010957745537
 51
160.7889380088672
  0
LINE
  5
271
102
{ACAD_XDICTIONARY
360
26F
102
}
330
1F
100
AcDbEntity
  8
Main lines
100
AcDbLine
 10
483.1307032331324
 20
182.3113513879846
 30
0.0
 11
487.4265444777691
 21
179.5745986858763
 31
0.0
  0
LINE
  5
274
102
{ACAD_XDICTIONARY
360
272
102
}
330
1F
100
AcDbEntity
  8
Main lines
100
AcDbLine
 10
484.6500687333911
 20
185.7510243151333
 30
0.0
 11
490.4249793911613
 21
183.358977999192
 31
0.0
  0
ARC
  5
277
102
{ACAD_XDICTIONARY
360
275
102
}
330
1F
100
AcDbEntity
  8
Main lines
100
AcDbCircle
 10
483.6680028414793
 20
183.1547428337976
 30
0.0
 40
1.0
100
AcDbArc
 50
160.7889380088676
 51
237.5000000000045
  0
ARC
  5
27A
102
{ACAD_XDICTIONARY
360
278
102
}
330
1F
100
AcDbEntity
  8
Main lines
100
AcDbCircle
 10
484.2673853010261
 20
184.8271447826221
 30
0.0
 40
1.000000000000004
100
AcDbArc
 50
67.50000000000118
 51
159.776091510841
  0
LINE
  5
27D
102
{ACAD_XDICTIONARY
360
27B
102
}
330
1F
100
AcDbEntity
  8
Main lines
100
AcDbLine
 10
488.3050117352867
 20
194.8006124151929
 30
0.0
 11
493.2790971452225
 21
193.6978842282801
 31
0.0
  0
LINE
  5
280
102
{ACAD_XDICTIONARY
360
27E
102
}
330
1F
100
AcDbEntity
  8
Main lines
100
AcDbLine
 10
486.9468065826067
 20
191.294037550527
 30
0.0
 11
492.7212498734541
 21
188.9021848243037
 31
0.0
  0
ARC
  5
283
102
{ACAD_XDICTIONARY
360
281
102
}
330
1F
100
AcDbEntity
  8
Main lines
100
AcDbCircle
 10
488.0885721213487
 20
193.8243164080731
 30
0.0
 40
0.9999999999999949
100
AcDbArc
 50
77.49999999999883
 51
154.2010957745537
  0
ARC
  5
286
102
{ACAD_XDICTIONARY
360
284
102
}
330
1F
100
AcDbEntity
  8
Main lines
100
AcDbCircle
 10
487.3294900149718
 20
192.2179170830384
 30
0.0
 40
0.9999999999999998
100
AcDbArc
 50
155.2140284068437
 51
247.5000000000009
  0
ARC
  5
289
102
{ACAD_XDICTIONARY
360
287
102
}
330
1F
100
AcDbEntity
  8
Main lines
100
AcDbCircle
 10
482.2112381842585
 20
137.5261789087282
 30
0.0
 40
4.999999999999987
100
AcDbArc
 50
7.425806821951278
 51
80.00000000000011
  0
ARC
  5
28C
102
{ACAD_XDICTIONARY
360
28A
102
}
330
1F
100
AcDbEntity
  8
Main lines
100
AcDbCircle
 10
484.4014524536524
 20
149.0939796290009
 30
0.0
 40
2.0
100
AcDbArc
 50
-90.0
 51
0.6031390581567626
  0
ARC
  5
28F
102
{ACAD_XDICTIONARY
360
28D
102
}
330
1F
100
AcDbEntity
  8
Main lines
100
AcDbCircle
 10
484.4016363392092
 20
151.0939796290009
 30
0.0
 40
2.000000000000006
100
AcDbArc
 50
-0.6136749244427031
 51
90.0
  0
ARC
  5
292
102
{ACAD_XDICTIONARY
360
290
102
}
330
1F
100
AcDbEntity
  8
Main lines
100
AcDbCircle
 10
482.2135444190237
 20
162.662145826168
 30
0.0
 40
4.999999999999999
100
AcDbArc
 50
-80.00000000000011
 51
-7.436320642137833
  0
ARC
  5
295
102
{ACAD_XDICTIONARY
360
293
102
}
330
1F
100
AcDbEntity
  8
Main lines
100
AcDbCircle
 10
578.5714451665775
 20
150.0853213866854
 30
0.0
 40
101.5
100
AcDbArc
 50
176.7010957745537
 51
183.2889380088672
  0
LINE
  5
298
102
{ACAD_XDICTIONARY
360
296
102
}
330
1F
100
AcDbEntity
  8
Main lines
100
AcDbLine
 10
478.0633293541783
 20
143.3347002084189
 30
0.0
 11
483.0794790725932
 21
142.4502176737891
 31
0.0
  0
LINE
  5
29B
102
{ACAD_XDICTIONARY
360
299
102
}
330
1F
100
AcDbEntity
  8
Main lines
100
AcDbLine
 10
478.1507342002965
 20
147.093979629001
 30
0.0
 11
484.4014524536524
 21
147.093979629001
 31
0.0
  0
ARC
  5
29E
102
{ACAD_XDICTIONARY
360
29C
102
}
330
1F
100
AcDbEntity
  8
Main lines
100
AcDbCircle
 10
478.2369775318452
 20
144.3195079614312
 30
0.0
 40
1.000000000000006
100
AcDbArc
 50
-176.7110619911327
 51
-99.99999999999834
  0
ARC
  5
2A1
102
{ACAD_XDICTIONARY
360
29F
102
}
330
1F
100
AcDbEntity
  8
Main lines
100
AcDbCircle
 10
478.1507342002965
 20
146.0939796290009
 30
0.0
 40
1.0
100
AcDbArc
 50
90.0
 51
182.276091510841
  0
LINE
  5
2A4
102
{ACAD_XDICTIONARY
360
2A2
102
}
330
1F
100
AcDbEntity
  8
Main lines
100
AcDbLine
 10
478.0643337966222
 20
156.8533949853678
 30
0.0
 11
483.0817853073584
 21
157.7381070611071
 31
0.0
  0
LINE
  5
2A7
102
{ACAD_XDICTIONARY
360
2A5
102
}
330
1F
100
AcDbEntity
  8
Main lines
100
AcDbLine
 10
478.1514239601652
 20
153.093979629001
 30
0.0
 11
484.4016363392092
 21
153.093979629001
 31
0.0
  0
ARC
  5
2AA
102
{ACAD_XDICTIONARY
360
2A8
102
}
330
1F
100
AcDbEntity
  8
Main lines
100
AcDbCircle
 10
478.2379819742891
 20
155.8685872323557
 30
0.0
 40
0.9999999999999956
100
AcDbArc
 50
99.99999999999865
 51
176.7010957745538
  0
ARC
  5
2AD
102
{ACAD_XDICTIONARY
360
2AB
102
}
330
1F
100
AcDbEntity
  8
Main lines
100
AcDbCircle
 10
478.1514239601652
 20
154.0939796290009
 30
0.0
 40
0.9999999999999933
100
AcDbArc
 50
177.7140284068437
 51
270.0
  0
ARC
  5
2B0
102
{ACAD_XDICTIONARY
360
2AE
102
}
330
1F
100
AcDbEntity
  8
Main lines
100
AcDbCircle
 10
494.3523979380888
 20
101.6067319540032
 30
0.0
 40
4.999999999999994
100
AcDbArc
 50
29.92580682195126
 51
102.4999999999998
  0
ARC
  5
2B3
102
{ACAD_XDICTIONARY
360
2B1
102
}
330
1F
100
AcDbEntity
  8
Main lines
100
AcDbCircle
 10
491.9490863888466
 20
113.1321449898592
 30
0.0
 40
1.999999999999996
100
AcDbArc
 50
-67.49999999999945
 51
23.10313905815633
  0
ARC
  5
2B6
102
{ACAD_XDICTIONARY
360
2B4
102
}
330
1F
100
AcDbEntity
  8
Main lines
100
AcDbCircle
 10
491.1838894122187
 20
114.9799744248378
 30
0.0
 40
2.000000000000002
100
AcDbArc
 50
21.88632507555698
 51
112.5000000000005
  0
ARC
  5
2B9
102
{ACAD_XDICTIONARY
360
2B7
102
}
330
1F
100
AcDbEntity
  8
Main lines
100
AcDbCircle
 10
484.7354105254042
 20
124.8302198767425
 30
0.0
 40
4.999999999999992
100
AcDbArc
 50
-57.49999999999989
 51
15.06367935786204
  0
ARC
  5
2BC
102
{ACAD_XDICTIONARY
360
2BA
102
}
330
1F
100
AcDbEntity
  8
Main lines
100
AcDbCircle
 10
578.5714451665776
 20
150.0853213866853
 30
0.0
 40
101.5
100
AcDbArc
 50
-160.7989042254463
 51
-154.2110619911329
  0
LINE
  5
2BF
102
{ACAD_XDICTIONARY
360
2BD
102
}
330
1F
100
AcDbEntity
  8
Main lines
100
AcDbLine
 10
488.2974049993234
 20
105.3857699087108
 30
0.0
 11
493.2701998683982
 21
106.4882119896027
 31
0.0
  0
LINE
  5
2C2
102
{ACAD_XDICTIONARY
360
2C0
102
}
330
1F
100
AcDbEntity
  8
Main lines
100
AcDbLine
 10
486.9395425958065
 20
108.8923396088953
 30
0.0
 11
492.7144532535767
 21
111.2843859248366
 31
0.0
  0
ARC
  5
2C5
102
{ACAD_XDICTIONARY
360
2C3
102
}
330
1F
100
AcDbEntity
  8
Main lines
100
AcDbCircle
 10
488.0809653853852
 20
106.3620659158308
 30
0.0
 40
0.9999999999999984
100
AcDbArc
 50
-154.2110619911329
 51
-77.49999999999565
  0
ARC
  5
2C8
102
{ACAD_XDICTIONARY
360
2C6
102
}
330
1F
100
AcDbEntity
  8
Main lines
100
AcDbCircle
 10
487.3222260281717
 20
107.968460076384
 30
0.0
 40
1.000000000000008
100
AcDbArc
 50
112.4999999999987
 51
204.7760915108419
  0
LINE
  5
2CB
102
{ACAD_XDICTIONARY
360
2C9
102
}
330
1F
100
AcDbEntity
  8
Main lines
100
AcDbLine
 10
483.1249524648
 20
117.8757997028832
 30
0.0
 11
487.4219085671382
 21
120.6132626476781
 31
0.0
  0
LINE
  5
2CE
102
{ACAD_XDICTIONARY
360
2CC
102
}
330
1F
100
AcDbEntity
  8
Main lines
100
AcDbLine
 10
484.6440792566409
 20
114.435880763637
 30
0.0
 11
490.4185225474885
 21
116.8277334898603
 31
0.0
  0
ARC
  5
2D1
102
{ACAD_XDICTIONARY
360
2CF
102
}
330
1F
100
AcDbEntity
  8
Main lines
100
AcDbCircle
 10
483.6622520731469
 20
117.0324082570703
 30
0.0
 40
0.9999999999999909
100
AcDbArc
 50
122.5000000000001
 51
199.2010957745529
  0
ARC
  5
2D4
102
{ACAD_XDICTIONARY
360
2D2
102
}
330
1F
100
AcDbEntity
  8
Main lines
100
AcDbCircle
 10
484.2613958242759
 20
115.3597602961483
 30
0.0
 40
0.9999999999999987
100
AcDbArc
 50
-159.7859715931562
 51
-67.50000000000112
  0
ARC
  5
2D7
102
{ACAD_XDICTIONARY
360
2D5
102
}
330
1F
100
AcDbEntity
  8
Main lines
100
AcDbCircle
 10
519.315144184892
 20
73.06771078089668
 30
0.0
 40
5.000000000000024
100
AcDbArc
 50
52.4258068219513
 51
124.9999999999998
  0
ARC
  5
2DA
102
{ACAD_XDICTIONARY
360
2D8
102
}
330
1F
100
AcDbEntity
  8
Main lines
100
AcDbCircle
 10
512.6841892143125
 20
82.79609647575612
 30
0.0
 40
2.000000000000006
100
AcDbArc
 50
-45.0
 51
45.60313905815805
  0
ARC
  5
2DD
102
{ACAD_XDICTIONARY
360
2DB
102
}
330
1F
100
AcDbEntity
  8
Main lines
100
AcDbCircle
 10
511.2701056786635
 20
84.21044006485343
 30
0.0
 40
1.999999999999991
100
AcDbArc
 50
44.38632507555754
 51
135.0000000000006
  0
ARC
  5
2E0
102
{ACAD_XDICTIONARY
360
2DE
102
}
330
1F
100
AcDbEntity
  8
Main lines
100
AcDbCircle
 10
501.5429622801311
 20
90.84315419414062
 30
0.0
 40
4.999999999999998
100
AcDbArc
 50
-35.00000000000016
 51
37.56367935786223
  0
ARC
  5
2E3
102
{ACAD_XDICTIONARY
360
2E1
102
}
330
1F
100
AcDbEntity
  8
Main lines
100
AcDbCircle
 10
578.5714451665776
 20
150.0853213866853
 30
0.0
 40
101.5
100
AcDbArc
 50
-138.2989042254463
 51
-131.7110619911328
  0
LINE
  5
2E6
102
{ACAD_XDICTIONARY
360
2E4
102
}
330
1F
100
AcDbEntity
  8
Main lines
100
AcDbLine
 10
512.274884923721
 20
74.24194111908116
 30
0.0
 11
516.447262003137
 21
77.16347100234151
 31
0.0
  0
LINE
  5
2E9
102
{ACAD_XDICTIONARY
360
2E7
102
}
330
1F
100
AcDbEntity
  8
Main lines
100
AcDbLine
 10
509.6784775124511
 20
76.9619576491485
 30
0.0
 11
514.0984027766856
 21
81.38188291338301
 31
0.0
  0
ARC
  5
2EC
102
{ACAD_XDICTIONARY
360
2EA
102
}
330
1F
100
AcDbEntity
  8
Main lines
100
AcDbCircle
 10
511.7013084873698
 20
75.0610931633702
 30
0.0
 40
0.9999999999999847
100
AcDbArc
 50
-131.7110619911339
 51
-54.99999999999483
  0
ARC
  5
2EF
102
{ACAD_XDICTIONARY
360
2ED
102
}
330
1F
100
AcDbEntity
  8
Main lines
100
AcDbCircle
 10
510.3855842936376
 20
76.25485086796203
 30
0.0
 40
1.000000000000008
100
AcDbArc
 50
135.0
 51
227.2760915108418
  0
LINE
  5
2F2
102
{ACAD_XDICTIONARY
360
2F0
102
}
330
1F
100
AcDbEntity
  8
Main lines
100
AcDbLine
 10
502.7164344222126
 20
83.80181211671629
 30
0.0
 11
505.6387225015759
 21
87.97527201238543
 31
0.0
  0
LINE
  5
2F5
102
{ACAD_XDICTIONARY
360
2F3
102
}
330
1F
100
AcDbEntity
  8
Main lines
100
AcDbLine
 10
505.4363245592124
 20
81.20508607014833
 30
0.0
 11
509.8558921162905
 21
85.62465362722648
 31
0.0
  0
ARC
  5
2F8
102
{ACAD_XDICTIONARY
360
2F6
102
}
330
1F
100
AcDbEntity
  8
Main lines
100
AcDbCircle
 10
503.5355864665015
 20
83.22823568036529
 30
0.0
 40
1.000000000000016
100
AcDbArc
 50
145.0000000000001
 51
221.7010957745537
  0
ARC
  5
2FB
102
{ACAD_XDICTIONARY
360
2F9
102
}
330
1F
100
AcDbEntity
  8
Main lines
100
AcDbCircle
 10
504.7292177780258
 20
81.91219285133491
 30
0.0
 40
0.9999999999999858
100
AcDbArc
 50
-137.2859715931563
 51
-44.99999999999942
  0
ARC
  5
2FE
102
{ACAD_XDICTIONARY
360
2FC
102
}
330
1F
100
AcDbEntity
  8
Main lines
100
AcDbCircle
 10
553.2991250964511
 20
56.25392265614289
 30
0.0
 40
5.000000000000009
100
AcDbArc
 50
74.92580682195161
 51
147.4999999999999
  0
ARC
  5
301
102
{ACAD_XDICTIONARY
360
2FF
102
}
330
1F
100
AcDbEntity
  8
Main lines
100
AcDbCircle
 10
543.4500294890485
 20
62.70422247599942
 30
0.0
 40
2.000000000000012
100
AcDbArc
 50
-22.49999999999987
 51
68.10313905815742
  0
ARC
  5
304
102
{ACAD_XDICTIONARY
360
302
102
}
330
1F
100
AcDbEntity
  8
Main lines
100
AcDbCircle
 10
541.602340793982
 20
63.46975922883186
 30
0.0
 40
2.000000000000006
100
AcDbArc
 50
66.88632507555792
 51
157.5000000000003
  0
ARC
  5
307
102
{ACAD_XDICTIONARY
360
305
102
}
330
1F
100
AcDbEntity
  8
Main lines
100
AcDbCircle
 10
530.0774022893834
 20
65.87517143502086
 30
0.0
 40
5.000000000000011
100
AcDbArc
 50
-12.50000000000023
 51
60.06367935786246
  0
ARC
  5
30A
102
{ACAD_XDICTIONARY
360
308
102
}
330
1F
100
AcDbEntity
  8
Main lines
100
AcDbCircle
 10
578.5714451665777
 20
150.0853213866855
 30
0.0
 40
101.5
100
AcDbArc
 50
-115.7989042254463
 51
-109.2110619911328
  0
LINE
  5
30D
102
{ACAD_XDICTIONARY
360
30B
102
}
330
1F
100
AcDbEntity
  8
Main lines
100
AcDbLine
 10
546.3454151652785
 20
54.64457945324014
 30
0.0
 11
549.0821678673868
 21
58.94042069787682
 31
0.0
  0
LINE
  5
310
102
{ACAD_XDICTIONARY
360
30E
102
}
330
1F
100
AcDbEntity
  8
Main lines
100
AcDbLine
 10
542.9057422381296
 20
56.16394495349888
 30
0.0
 11
545.297788554071
 21
61.9388556112691
 31
0.0
  0
ARC
  5
313
102
{ACAD_XDICTIONARY
360
311
102
}
330
1F
100
AcDbEntity
  8
Main lines
100
AcDbCircle
 10
545.5020237194655
 20
55.18187906158713
 30
0.0
 40
1.00000000000001
100
AcDbArc
 50
-109.2110619911352
 51
-32.49999999999697
  0
ARC
  5
316
102
{ACAD_XDICTIONARY
360
314
102
}
330
1F
100
AcDbEntity
  8
Main lines
100
AcDbCircle
 10
543.829621770641
 20
55.78126152113396
 30
0.0
 40
0.9999999999999796
100
AcDbArc
 50
157.4999999999999
 51
249.7760915108416
  0
LINE
  5
319
102
{ACAD_XDICTIONARY
360
317
102
}
330
1F
100
AcDbEntity
  8
Main lines
100
AcDbLine
 10
533.8561541380701
 20
59.81888795539444
 30
0.0
 11
534.9588823249829
 21
64.79297336533023
 31
0.0
  0
LINE
  5
31C
102
{ACAD_XDICTIONARY
360
31A
102
}
330
1F
100
AcDbEntity
  8
Main lines
100
AcDbLine
 10
537.362729002736
 20
58.46068280271439
 30
0.0
 11
539.7545817289595
 21
64.23512609356189
 31
0.0
  0
ARC
  5
31F
102
{ACAD_XDICTIONARY
360
31D
102
}
330
1F
100
AcDbEntity
  8
Main lines
100
AcDbCircle
 10
534.83245014519
 20
59.60244834145652
 30
0.0
 40
0.9999999999999862
100
AcDbArc
 50
167.5000000000003
 51
244.2010957745555
  0
ARC
  5
322
102
{ACAD_XDICTIONARY
360
320
102
}
330
1F
100
AcDbEntity
  8
Main lines
100
AcDbCircle
 10
536.4388494702247
 20
58.84336623507966
 30
0.0
 40
0.9999999999999998
100
AcDbArc
 50
-114.7859715931564
 51
-22.50000000000088
  0
ARC
  5
325
102
{ACAD_XDICTIONARY
360
323
102
}
330
1F
100
AcDbEntity
  8
Main lines
100
AcDbCircle
 10
591.1305876445347
 20
53.72511440436631
 30
0.0
 40
5.000000000000014
100
AcDbArc
 50
97.42580682195123
 51
170.0000000000001
  0
ARC
  5
328
102
{ACAD_XDICTIONARY
360
326
102
}
330
1F
100
AcDbEntity
  8
Main lines
100
AcDbCircle
 10
579.5627869242619
 20
55.91532867376021
 30
0.0
 40
2.0
100
AcDbArc
 50
0.0
 51
90.60313905815676
  0
ARC
  5
32B
102
{ACAD_XDICTIONARY
360
329
102
}
330
1F
100
AcDbEntity
  8
Main lines
100
AcDbCircle
 10
577.5627869242619
 20
55.91551255931701
 30
0.0
 40
2.000000000000003
100
AcDbArc
 50
89.38632507555731
 51
180.0
  0
ARC
  5
32E
102
{ACAD_XDICTIONARY
360
32C
102
}
330
1F
100
AcDbEntity
  8
Main lines
100
AcDbCircle
 10
565.9946207270948
 20
53.72742063913151
 30
0.0
 40
4.999999999999992
100
AcDbArc
 50
9.999999999999861
 51
82.56367935786209
  0
ARC
  5
331
102
{ACAD_XDICTIONARY
360
32F
102
}
330
1F
100
AcDbEntity
  8
Main lines
100
AcDbCircle
 10
578.5714451665775
 20
150.0853213866853
 30
0.0
 40
101.5
100
AcDbArc
 50
-93.29890422544635
 51
-86.71106199113284
  0
LINE
  5
334
102
{ACAD_XDICTIONARY
360
332
102
}
330
1F
100
AcDbEntity
  8
Main lines
100
AcDbLine
 10
585.3220663448441
 20
49.57720557428601
 30
0.0
 11
586.2065488794739
 21
54.59335529270092
 31
0.0
  0
LINE
  5
337
102
{ACAD_XDICTIONARY
360
335
102
}
330
1F
100
AcDbEntity
  8
Main lines
100
AcDbLine
 10
581.562786924262
 20
49.66461042040427
 30
0.0
 11
581.562786924262
 21
55.91532867376017
 31
0.0
  0
ARC
  5
33A
102
{ACAD_XDICTIONARY
360
338
102
}
330
1F
100
AcDbEntity
  8
Main lines
100
AcDbCircle
 10
584.3372585918316
 20
49.75085375195295
 30
0.0
 40
1.00000000000001
100
AcDbArc
 50
-86.71106199113284
 51
-9.999999999997213
  0
ARC
  5
33D
102
{ACAD_XDICTIONARY
360
33B
102
}
330
1F
100
AcDbEntity
  8
Main lines
100
AcDbCircle
 10
582.5627869242619
 20
49.66461042040432
 30
0.0
 40
1.0
100
AcDbArc
 50
180.0
 51
272.2760915108411
  0
LINE
  5
340
102
{ACAD_XDICTIONARY
360
33E
102
}
330
1F
100
AcDbEntity
  8
Main lines
100
AcDbLine
 10
571.8033715678952
 20
49.57821001672994
 30
0.0
 11
570.9186594921558
 21
54.59566152746612
 31
0.0
  0
LINE
  5
343
102
{ACAD_XDICTIONARY
360
341
102
}
330
1F
100
AcDbEntity
  8
Main lines
100
AcDbLine
 10
575.562786924262
 20
49.66530018027294
 30
0.0
 11
575.562786924262
 21
55.91551255931699
 31
0.0
  0
ARC
  5
346
102
{ACAD_XDICTIONARY
360
344
102
}
330
1F
100
AcDbEntity
  8
Main lines
100
AcDbCircle
 10
572.7881793209071
 20
49.75185819439686
 30
0.0
 40
0.9999999999999956
100
AcDbArc
 50
-169.9999999999998
 51
-93.29890422544631
  0
ARC
  5
349
102
{ACAD_XDICTIONARY
360
347
102
}
330
1F
100
AcDbEntity
  8
Main lines
100
AcDbCircle
 10
574.5627869242619
 20
49.66530018027295
 30
0.0
 40
0.9999999999999898
100
AcDbArc
 50
-92.28597159315642
 51
0.0
  0
ARC
  5
34C
102
{ACAD_XDICTIONARY
360
34A
102
}
330
1F
100
AcDbEntity
  8
Main lines
100
AcDbCircle
 10
627.0500345992598
 20
65.86627415819643
 30
0.0
 40
5.000000000000017
100
AcDbArc
 50
119.9258068219511
 51
192.5000000000001
  0
ARC
  5
34F
102
{ACAD_XDICTIONARY
360
34D
102
}
330
1F
100
AcDbEntity
  8
Main lines
100
AcDbCircle
 10
615.5246215634037
 20
63.46296260895426
 30
0.0
 40
2.000000000000012
100
AcDbArc
 50
22.49999999999987
 51
113.1031390581554
  0
ARC
  5
352
102
{ACAD_XDICTIONARY
360
350
102
}
330
1F
100
AcDbEntity
  8
Main lines
100
AcDbCircle
 10
613.6767921284252
 20
62.69776563232634
 30
0.0
 40
1.99999999999997
100
AcDbArc
 50
111.8863250755573
 51
202.4999999999989
  0
ARC
  5
355
102
{ACAD_XDICTIONARY
360
353
102
}
330
1F
100
AcDbEntity
  8
Main lines
100
AcDbCircle
 10
603.8265466765205
 20
56.24928674551191
 30
0.0
 40
4.999999999999992
100
AcDbArc
 50
32.49999999999999
 51
105.0636793578624
  0
ARC
  5
358
102
{ACAD_XDICTIONARY
360
356
102
}
330
1F
100
AcDbEntity
  8
Main lines
100
AcDbCircle
 10
578.5714451665776
 20
150.0853213866853
 30
0.0
 40
101.5
100
AcDbArc
 50
-70.7989042254463
 51
-64.21106199113284
  0
LINE
  5
35B
102
{ACAD_XDICTIONARY
360
359
102
}
330
1F
100
AcDbEntity
  8
Main lines
100
AcDbLine
 10
623.2709966445523
 20
59.81128121943112
 30
0.0
 11
622.1685545636602
 21
64.78407608850597
 31
0.0
  0
LINE
  5
35E
102
{ACAD_XDICTIONARY
360
35C
102
}
330
1F
100
AcDbEntity
  8
Main lines
100
AcDbLine
 10
619.7644269443676
 20
58.45341881591429
 30
0.0
 11
617.3723806284263
 21
64.22832947368448
 31
0.0
  0
ARC
  5
361
102
{ACAD_XDICTIONARY
360
35F
102
}
330
1F
100
AcDbEntity
  8
Main lines
100
AcDbCircle
 10
622.2947006374321
 20
59.59484160549289
 30
0.0
 40
0.9999999999999846
100
AcDbArc
 50
-64.21106199113454
 51
12.50000000000292
  0
ARC
  5
364
102
{ACAD_XDICTIONARY
360
362
102
}
330
1F
100
AcDbEntity
  8
Main lines
100
AcDbCircle
 10
620.6883064768789
 20
58.83610224827933
 30
0.0
 40
0.9999999999999796
100
AcDbArc
 50
-157.4999999999999
 51
-65.2239084891594
  0
LINE
  5
367
102
{ACAD_XDICTIONARY
360
365
102
}
330
1F
100
AcDbEntity
  8
Main lines
100
AcDbLine
 10
610.7809668503799
 20
54.63882868490776
 30
0.0
 11
608.0435039055848
 21
58.93578478724606
 31
0.0
  0
LINE
  5
36A
102
{ACAD_XDICTIONARY
360
368
102
}
330
1F
100
AcDbEntity
  8
Main lines
100
AcDbLine
 10
614.220885789626
 20
56.15795547674873
 30
0.0
 11
611.8290330634026
 21
61.93239876759623
 31
0.0
  0
ARC
  5
36D
102
{ACAD_XDICTIONARY
360
36B
102
}
330
1F
100
AcDbEntity
  8
Main lines
100
AcDbCircle
 10
611.6243582961926
 20
55.17612829325452
 30
0.0
 40
1.00000000000003
100
AcDbArc
 50
-147.4999999999995
 51
-70.79890422544995
  0
ARC
  5
370
102
{ACAD_XDICTIONARY
360
36E
102
}
330
1F
100
AcDbEntity
  8
Main lines
100
AcDbCircle
 10
613.2970062571146
 20
55.7752720443836
 30
0.0
 40
1.000000000000025
100
AcDbArc
 50
-69.78597159315581
 51
22.50000000000189
  0
ARC
  5
373
102
{ACAD_XDICTIONARY
360
371
102
}
330
1F
100
AcDbEntity
  8
Main lines
100
AcDbCircle
 10
655.5890557723665
 20
90.82902040499977
 30
0.0
 40
5.000000000000024
100
AcDbArc
 50
142.4258068219513
 51
215.0000000000005
  0
ARC
  5
376
102
{ACAD_XDICTIONARY
360
374
102
}
330
1F
100
AcDbEntity
  8
Main lines
100
AcDbCircle
 10
645.8606700775069
 20
84.19806543442024
 30
0.0
 40
2.000000000000006
100
AcDbArc
 50
45.0
 51
135.6031390581558
  0
ARC
  5
379
102
{ACAD_XDICTIONARY
360
377
102
}
330
1F
100
AcDbEntity
  8
Main lines
100
AcDbCircle
 10
644.4463264884097
 20
82.78398189877129
 30
0.0
 40
2.000000000000006
100
AcDbArc
 50
134.386325075558
 51
225.0000000000001
  0
ARC
  5
37C
102
{ACAD_XDICTIONARY
360
37A
102
}
330
1F
100
AcDbEntity
  8
Main lines
100
AcDbCircle
 10
637.8136123591225
 20
73.05683850023877
 30
0.0
 40
4.999999999999998
100
AcDbArc
 50
54.9999999999998
 51
127.5636793578618
  0
ARC
  5
37F
102
{ACAD_XDICTIONARY
360
37D
102
}
330
1F
100
AcDbEntity
  8
Main lines
100
AcDbCircle
 10
578.5714451665777
 20
150.0853213866853
 30
0.0
 40
101.5
100
AcDbArc
 50
-48.29890422544634
 51
-41.71106199113282
  0
LINE
  5
382
102
{ACAD_XDICTIONARY
360
380
102
}
330
1F
100
AcDbEntity
  8
Main lines
100
AcDbLine
 10
654.4148254341819
 20
83.78876114382865
 30
0.0
 11
651.4932955509215
 21
87.96113822324469
 31
0.0
  0
LINE
  5
385
102
{ACAD_XDICTIONARY
360
383
102
}
330
1F
100
AcDbEntity
  8
Main lines
100
AcDbLine
 10
651.6948089041146
 20
81.19235373255879
 30
0.0
 11
647.27488363988
 21
85.6122789967933
 31
0.0
  0
ARC
  5
388
102
{ACAD_XDICTIONARY
360
386
102
}
330
1F
100
AcDbEntity
  8
Main lines
100
AcDbCircle
 10
653.5956733898929
 20
83.21518470747753
 30
0.0
 40
0.9999999999999657
100
AcDbArc
 50
-41.71106199113253
 51
34.99999999999974
  0
ARC
  5
38B
102
{ACAD_XDICTIONARY
360
389
102
}
330
1F
100
AcDbEntity
  8
Main lines
100
AcDbCircle
 10
652.401915685301
 20
81.89946051374534
 30
0.0
 40
1.000000000000008
100
AcDbArc
 50
-135.0
 51
-42.72390848916101
  0
LINE
  5
38E
102
{ACAD_XDICTIONARY
360
38C
102
}
330
1F
100
AcDbEntity
  8
Main lines
100
AcDbLine
 10
644.8549544365467
 20
74.23031064232032
 30
0.0
 11
640.6814945408776
 21
77.1525987216836
 31
0.0
  0
LINE
  5
391
102
{ACAD_XDICTIONARY
360
38F
102
}
330
1F
100
AcDbEntity
  8
Main lines
100
AcDbLine
 10
647.4516804831147
 20
76.95020077932008
 30
0.0
 11
643.0321129260366
 21
81.36976833639824
 31
0.0
  0
ARC
  5
394
102
{ACAD_XDICTIONARY
360
392
102
}
330
1F
100
AcDbEntity
  8
Main lines
100
AcDbCircle
 10
645.4285308728978
 20
75.04946268660922
 30
0.0
 40
0.9999999999999992
100
AcDbArc
 50
-124.9999999999982
 51
-48.29890422544594
  0
ARC
  5
397
102
{ACAD_XDICTIONARY
360
395
102
}
330
1F
100
AcDbEntity
  8
Main lines
100
AcDbCircle
 10
646.7445737019282
 20
76.24309399813347
 30
0.0
 40
0.9999999999999858
100
AcDbArc
 50
-47.28597159315625
 51
44.99999999999942
  0
ARC
  5
39A
102
{ACAD_XDICTIONARY
360
398
102
}
330
1F
100
AcDbEntity
  8
Main lines
100
AcDbCircle
 10
672.4028438971201
 20
124.8130013165587
 30
0.0
 40
5.000000000000005
100
AcDbArc
 50
164.9258068219511
 51
237.5000000000001
  0
ARC
  5
39D
102
{ACAD_XDICTIONARY
360
39B
102
}
330
1F
100
AcDbEntity
  8
Main lines
100
AcDbCircle
 10
665.9525440772636
 20
114.9639057091561
 30
0.0
 40
2.000000000000012
100
AcDbArc
 50
67.50000000000126
 51
158.1031390581571
  0
ARC
  5
3A0
102
{ACAD_XDICTIONARY
360
39E
102
}
330
1F
100
AcDbEntity
  8
Main lines
100
AcDbCircle
 10
665.1870073244311
 20
113.1162170140895
 30
0.0
 40
2.000000000000006
100
AcDbArc
 50
156.8863250755576
 51
247.5000000000011
  0
ARC
  5
3A3
102
{ACAD_XDICTIONARY
360
3A1
102
}
330
1F
100
AcDbEntity
  8
Main lines
100
AcDbCircle
 10
662.7815951182421
 20
101.591278509491
 30
0.0
 40
5.00000000000001
100
AcDbArc
 50
77.49999999999967
 51
150.0636793578621
  0
ARC
  5
3A6
102
{ACAD_XDICTIONARY
360
3A4
102
}
330
1F
100
AcDbEntity
  8
Main lines
100
AcDbCircle
 10
578.5714451665775
 20
150.0853213866853
 30
0.0
 40
101.5
100
AcDbArc
 50
-25.79890422544635
 51
-19.21106199113284
  0
LINE
  5
3A9
102
{ACAD_XDICTIONARY
360
3A7
102
}
330
1F
100
AcDbEntity
  8
Main lines
100
AcDbLine
 10
674.0121871000227
 20
117.8592913853861
 30
0.0
 11
669.7163458553861
 21
120.5960440874943
 31
0.0
  0
LINE
  5
3AC
102
{ACAD_XDICTIONARY
360
3AA
102
}
330
1F
100
AcDbEntity
  8
Main lines
100
AcDbLine
 10
672.492821599764
 20
114.4196184582372
 30
0.0
 11
666.7179109419938
 21
116.8116647741786
 31
0.0
  0
ARC
  5
3AF
102
{ACAD_XDICTIONARY
360
3AD
102
}
330
1F
100
AcDbEntity
  8
Main lines
100
AcDbCircle
 10
673.474887491676
 20
117.015899939573
 30
0.0
 40
1.000000000000009
100
AcDbArc
 50
-19.21106199113275
 51
57.50000000000454
  0
ARC
  5
3B2
102
{ACAD_XDICTIONARY
360
3B0
102
}
330
1F
100
AcDbEntity
  8
Main lines
100
AcDbCircle
 10
672.875505032129
 20
115.3434979907486
 30
0.0
 40
0.9999999999999813
100
AcDbArc
 50
-112.4999999999997
 51
-20.22390848915898
  0
LINE
  5
3B5
102
{ACAD_XDICTIONARY
360
3B3
102
}
330
1F
100
AcDbEntity
  8
Main lines
100
AcDbLine
 10
668.8378785978684
 20
105.3700303581777
 30
0.0
 11
663.8637931879327
 21
106.4727585450904
 31
0.0
  0
LINE
  5
3B8
102
{ACAD_XDICTIONARY
360
3B6
102
}
330
1F
100
AcDbEntity
  8
Main lines
100
AcDbLine
 10
670.1960837505485
 20
108.8766052228436
 30
0.0
 11
664.421640459701
 21
111.2684579490669
 31
0.0
  0
ARC
  5
3BB
102
{ACAD_XDICTIONARY
360
3B9
102
}
330
1F
100
AcDbEntity
  8
Main lines
100
AcDbCircle
 10
669.0543182118065
 20
106.3463263652976
 30
0.0
 40
0.9999999999999835
100
AcDbArc
 50
-102.4999999999982
 51
-25.79890422544416
  0
ARC
  5
3BE
102
{ACAD_XDICTIONARY
360
3BC
102
}
330
1F
100
AcDbEntity
  8
Main lines
100
AcDbCircle
 10
669.8134003181833
 20
107.9527256903323
 30
0.0
 40
0.9999999999999998
100
AcDbArc
 50
-24.78597159315637
 51
67.50000000000118
  0
ARC
  5
3C1
102
{ACAD_XDICTIONARY
360
3BF
102
}
330
1F
100
AcDbEntity
  8
Main lines
100
AcDbCircle
 10
674.9316521488968
 20
162.6444638646425
 30
0.0
 40
5.000000000000015
100
AcDbArc
 50
-172.5741931780487
 51
-99.99999999999979
  0
ARC
  5
3C4
102
{ACAD_XDICTIONARY
360
3C2
102
}
330
1F
100
AcDbEntity
  8
Main lines
100
AcDbCircle
 10
672.7414378795028
 20
151.0766631443697
 30
0.0
 40
2.0
100
AcDbArc
 50
90.0
 51
180.6031390581568
  0
ARC
  5
3C7
102
{ACAD_XDICTIONARY
360
3C5
102
}
330
1F
100
AcDbEntity
  8
Main lines
100
AcDbCircle
 10
672.7412539939459
 20
149.0766631443697
 30
0.0
 40
2.000000000000006
100
AcDbArc
 50
179.3863250755573
 51
270.0
  0
ARC
  5
3CA
102
{ACAD_XDICTIONARY
360
3C8
102
}
330
1F
100
AcDbEntity
  8
Main lines
100
AcDbCircle
 10
674.9293459141314
 20
137.5084969472026
 30
0.0
 40
4.999999999999999
100
AcDbArc
 50
99.9999999999999
 51
172.5636793578621
  0
ARC
  5
3CD
102
{ACAD_XDICTIONARY
360
3CB
102
}
330
1F
100
AcDbEntity
  8
Main lines
100
AcDbCircle
 10
578.5714451665775
 20
150.0853213866853
 30
0.0
 40
101.5
100
AcDbArc
 50
-3.298904225446326
 51
3.288938008867146
  0
LINE
  5
3D0
102
{ACAD_XDICTIONARY
360
3CE
102
}
330
1F
100
AcDbEntity
  8
Main lines
100
AcDbLine
 10
679.0795609789769
 20
156.8359425649518
 30
0.0
 11
674.063411260562
 21
157.7204250995816
 31
0.0
  0
LINE
  5
3D3
102
{ACAD_XDICTIONARY
360
3D1
102
}
330
1F
100
AcDbEntity
  8
Main lines
100
AcDbLine
 10
678.9921561328587
 20
153.0766631443697
 30
0.0
 11
672.7414378795028
 21
153.0766631443697
 31
0.0
  0
ARC
  5
3D6
102
{ACAD_XDICTIONARY
360
3D4
102
}
330
1F
100
AcDbEntity
  8
Main lines
100
AcDbCircle
 10
678.9059128013099
 20
155.8511348119394
 30
0.0
 40
1.000000000000006
100
AcDbArc
 50
3.288938008867253
 51
80.00000000000168
  0
ARC
  5
3D9
102
{ACAD_XDICTIONARY
360
3D7
102
}
330
1F
100
AcDbEntity
  8
Main lines
100
AcDbCircle
 10
678.9921561328587
 20
154.0766631443697
 30
0.0
 40
1.0
100
AcDbArc
 50
-90.0
 51
2.276091510840901
  0
LINE
  5
3DC
102
{ACAD_XDICTIONARY
360
3DA
102
}
330
1F
100
AcDbEntity
  8
Main lines
100
AcDbLine
 10
679.078556536533
 20
143.3172477880029
 30
0.0
 11
674.0611050257969
 21
142.4325357122635
 31
0.0
  0
LINE
  5
3DF
102
{ACAD_XDICTIONARY
360
3DD
102
}
330
1F
100
AcDbEntity
  8
Main lines
100
AcDbLine
 10
678.9914663729901
 20
147.0766631443697
 30
0.0
 11
672.741253993946
 21
147.0766631443697
 31
0.0
  0
ARC
  5
3E2
102
{ACAD_XDICTIONARY
360
3E0
102
}
330
1F
100
AcDbEntity
  8
Main lines
100
AcDbCircle
 10
678.904908358866
 20
144.3020555410149
 30
0.0
 40
0.9999999999999956
100
AcDbArc
 50
-80.00000000000135
 51
-3.298904225446172
  0
ARC
  5
3E5
102
{ACAD_XDICTIONARY
360
3E3
102
}
330
1F
100
AcDbEntity
  8
Main lines
100
AcDbCircle
 10
678.99146637299
 20
146.0766631443697
 30
0.0
 40
0.9999999999999933
100
AcDbArc
 50
-2.285971593156358
 51
90.0
  0
ARC
  5
3E8
102
{ACAD_XDICTIONARY
360
3E6
102
}
330
1F
100
AcDbEntity
  8
Main lines
100
AcDbCircle
 10
662.7904923950666
 20
198.5639108193673
 30
0.0
 40
5.000000000000019
100
AcDbArc
 50
-150.0741931780488
 51
-77.4999999999997
  0
ARC
  5
3EB
102
{ACAD_XDICTIONARY
360
3E9
102
}
330
1F
100
AcDbEntity
  8
Main lines
100
AcDbCircle
 10
665.1938039443088
 20
187.0384977835113
 30
0.0
 40
2.000000000000015
100
AcDbArc
 50
112.4999999999987
 51
203.1031390581562
  0
ARC
  5
3EE
102
{ACAD_XDICTIONARY
360
3EC
102
}
330
1F
100
AcDbEntity
  8
Main lines
100
AcDbCircle
 10
665.9590009209368
 20
185.1906683485327
 30
0.0
 40
1.999999999999978
100
AcDbArc
 50
-158.1136749244426
 51
-67.50000000000054
  0
ARC
  5
3F1
102
{ACAD_XDICTIONARY
360
3EF
102
}
330
1F
100
AcDbEntity
  8
Main lines
100
AcDbCircle
 10
672.4074798077512
 20
175.3404228966281
 30
0.0
 40
4.999999999999988
100
AcDbArc
 50
122.5000000000001
 51
195.0636793578619
  0
ARC
  5
3F4
102
{ACAD_XDICTIONARY
360
3F2
102
}
330
1F
100
AcDbEntity
  8
Main lines
100
AcDbCircle
 10
578.5714451665777
 20
150.0853213866853
 30
0.0
 40
101.5
100
AcDbArc
 50
19.20109577455364
 51
25.78893800886713
  0
LINE
  5
3F7
102
{ACAD_XDICTIONARY
360
3F5
102
}
330
1F
100
AcDbEntity
  8
Main lines
100
AcDbLine
 10
668.8454853338319
 20
194.7848728646598
 30
0.0
 11
663.872690464757
 21
193.6824307837677
 31
0.0
  0
LINE
  5
3FA
102
{ACAD_XDICTIONARY
360
3F8
102
}
330
1F
100
AcDbEntity
  8
Main lines
100
AcDbLine
 10
670.2033477373487
 20
191.2783031644752
 30
0.0
 11
664.4284370795785
 21
188.8862568485338
 31
0.0
  0
ARC
  5
3FD
102
{ACAD_XDICTIONARY
360
3FB
102
}
330
1F
100
AcDbEntity
  8
Main lines
100
AcDbCircle
 10
669.0619249477702
 20
193.8085768575398
 30
0.0
 40
0.9999999999999829
100
AcDbArc
 50
25.78893800886739
 51
102.5000000000047
  0
ARC
  5
400
102
{ACAD_XDICTIONARY
360
3FE
102
}
330
1F
100
AcDbEntity
  8
Main lines
100
AcDbCircle
 10
669.8206643049838
 20
192.2021826969866
 30
0.0
 40
0.9999999999999776
100
AcDbArc
 50
-67.50000000000013
 51
24.7760915108409
  0
LINE
  5
403
102
{ACAD_XDICTIONARY
360
401
102
}
330
1F
100
AcDbEntity
  8
Main lines
100
AcDbLine
 10
674.0179378683553
 20
182.2948430704874
 30
0.0
 11
669.7209817660171
 21
179.5573801256922
 31
0.0
  0
LINE
  5
406
102
{ACAD_XDICTIONARY
360
404
102
}
330
1F
100
AcDbEntity
  8
Main lines
100
AcDbLine
 10
672.4988110765144
 20
185.7347620097336
 30
0.0
 11
666.7243677856668
 21
183.3429092835102
 31
0.0
  0
ARC
  5
409
102
{ACAD_XDICTIONARY
360
407
102
}
330
1F
100
AcDbEntity
  8
Main lines
100
AcDbCircle
 10
673.4806382600086
 20
183.1382345163002
 30
0.0
 40
1.000000000000032
100
AcDbArc
 50
-57.49999999999954
 51
19.20109577455608
  0
ARC
  5
40C
102
{ACAD_XDICTIONARY
360
40A
102
}
330
1F
100
AcDbEntity
  8
Main lines
100
AcDbCircle
 10
672.8814945088795
 20
184.8108824772222
 30
0.0
 40
1.000000000000019
100
AcDbArc
 50
20.21402840684392
 51
112.4999999999979
  0
ARC
  5
40F
102
{ACAD_XDICTIONARY
360
40D
102
}
330
1F
100
AcDbEntity
  8
Main lines
100
AcDbCircle
 10
637.8277461482634
 20
227.102931992474
 30
0.0
 40
4.999999999999979
100
AcDbArc
 50
-127.5741931780492
 51
-54.99999999999961
  0
ARC
  5
412
102
{ACAD_XDICTIONARY
360
410
102
}
330
1F
100
AcDbEntity
  8
Main lines
100
AcDbCircle
 10
644.4587011188429
 20
217.3745462976145
 30
0.0
 40
2.000000000000016
100
AcDbArc
 50
135.0
 51
225.6031390581575
  0
ARC
  5
415
102
{ACAD_XDICTIONARY
360
413
102
}
330
1F
100
AcDbEntity
  8
Main lines
100
AcDbCircle
 10
645.8727846544917
 20
215.9602027085172
 30
0.0
 40
2.000000000000012
100
AcDbArc
 50
-135.6136749244422
 51
-45.00000000000027
  0
ARC
  5
418
102
{ACAD_XDICTIONARY
360
416
102
}
330
1F
100
AcDbEntity
  8
Main lines
100
AcDbCircle
 10
655.5999280530243
 20
209.32748857923
 30
0.0
 40
5.000000000000002
100
AcDbArc
 50
144.9999999999998
 51
217.5636793578618
  0
ARC
  5
41B
102
{ACAD_XDICTIONARY
360
419
102
}
330
1F
100
AcDbEntity
  8
Main lines
100
AcDbCircle
 10
578.5714451665776
 20
150.0853213866854
 30
0.0
 40
101.5
100
AcDbArc
 50
41.70109577455362
 51
48.28893800886712
  0
LINE
  5
41E
102
{ACAD_XDICTIONARY
360
41C
102
}
330
1F
100
AcDbEntity
  8
Main lines
100
AcDbLine
 10
644.8680054094345
 20
225.9287016542894
 30
0.0
 11
640.6956283300185
 21
223.0071717710291
 31
0.0
  0
LINE
  5
421
102
{ACAD_XDICTIONARY
360
41F
102
}
330
1F
100
AcDbEntity
  8
Main lines
100
AcDbLine
 10
647.4644128207042
 20
223.208685124222
 30
0.0
 11
643.0444875564698
 21
218.7887598599876
 31
0.0
  0
ARC
  5
424
102
{ACAD_XDICTIONARY
360
422
102
}
330
1F
100
AcDbEntity
  8
Main lines
100
AcDbCircle
 10
645.4415818457855
 20
225.1095496100004
 30
0.0
 40
0.9999999999999651
100
AcDbArc
 50
48.28893800886699
 51
125.0000000000062
  0
ARC
  5
427
102
{ACAD_XDICTIONARY
360
425
102
}
330
1F
100
AcDbEntity
  8
Main lines
100
AcDbCircle
 10
646.7573060395177
 20
223.9157919054086
 30
0.0
 40
1.000000000000008
100
AcDbArc
 50
-45.0
 51
47.27609151084
  0
LINE
  5
42A
102
{ACAD_XDICTIONARY
360
428
102
}
330
1F
100
AcDbEntity
  8
Main lines
100
AcDbLine
 10
654.4264559109428
 20
216.3688306566543
 30
0.0
 11
651.5041678315795
 21
212.1953707609852
 31
0.0
  0
LINE
  5
42D
102
{ACAD_XDICTIONARY
360
42B
102
}
330
1F
100
AcDbEntity
  8
Main lines
100
AcDbLine
 10
651.7065657739431
 20
218.9655567032223
 30
0.0
 11
647.286998216865
 21
214.5459891461441
 31
0.0
  0
ARC
  5
430
102
{ACAD_XDICTIONARY
360
42E
102
}
330
1F
100
AcDbEntity
  8
Main lines
100
AcDbCircle
 10
653.6073038666539
 20
216.9424070930053
 30
0.0
 40
0.9999999999999893
100
AcDbArc
 50
-34.99999999999888
 51
41.70109577455337
  0
ARC
  5
433
102
{ACAD_XDICTIONARY
360
431
102
}
330
1F
100
AcDbEntity
  8
Main lines
100
AcDbCircle
 10
652.4136725551296
 20
218.2584499220358
 30
0.0
 40
0.9999999999999862
100
AcDbArc
 50
42.71402840684313
 51
135.0000000000006
  0
ARC
  5
436
102
{ACAD_XDICTIONARY
360
434
102
}
330
1F
100
AcDbEntity
  8
Main lines
100
AcDbCircle
 10
603.8437652367045
 20
243.9167201172279
 30
0.0
 40
5.000000000000008
100
AcDbArc
 50
-105.0741931780484
 51
-32.50000000000027
  0
ARC
  5
439
102
{ACAD_XDICTIONARY
360
437
102
}
330
1F
100
AcDbEntity
  8
Main lines
100
AcDbCircle
 10
613.6928608441071
 20
237.4664202973714
 30
0.0
 40
2.000000000000008
100
AcDbArc
 50
157.4999999999997
 51
248.1031390581576
  0
ARC
  5
43C
102
{ACAD_XDICTIONARY
360
43A
102
}
330
1F
100
AcDbEntity
  8
Main lines
100
AcDbCircle
 10
615.5405495391736
 20
236.700883544539
 30
0.0
 40
2.000000000000003
100
AcDbArc
 50
-113.1136749244422
 51
-22.50000000000016
  0
ARC
  5
43F
102
{ACAD_XDICTIONARY
360
43D
102
}
330
1F
100
AcDbEntity
  8
Main lines
100
AcDbCircle
 10
627.0654880437721
 20
234.2954713383499
 30
0.0
 40
5.000000000000005
100
AcDbArc
 50
167.4999999999996
 51
240.0636793578626
  0
ARC
  5
442
102
{ACAD_XDICTIONARY
360
440
102
}
330
1F
100
AcDbEntity
  8
Main lines
100
AcDbCircle
 10
578.5714451665776
 20
150.0853213866854
 30
0.0
 40
101.5
100
AcDbArc
 50
64.20109577455356
 51
70.78893800886705
  0
LINE
  5
445
102
{ACAD_XDICTIONARY
360
443
102
}
330
1F
100
AcDbEntity
  8
Main lines
100
AcDbLine
 10
610.7974751678771
 20
245.5260633201305
 30
0.0
 11
608.0607224657687
 21
241.2302220754938
 31
0.0
  0
LINE
  5
448
102
{ACAD_XDICTIONARY
360
446
102
}
330
1F
100
AcDbEntity
  8
Main lines
100
AcDbLine
 10
614.2371480950259
 20
244.0066978198717
 30
0.0
 11
611.8451017790845
 21
238.2317871621015
 31
0.0
  0
ARC
  5
44B
102
{ACAD_XDICTIONARY
360
449
102
}
330
1F
100
AcDbEntity
  8
Main lines
100
AcDbCircle
 10
611.6408666136902
 20
244.9887637117837
 30
0.0
 40
1.000000000000009
100
AcDbArc
 50
70.78893800886485
 51
147.5000000000026
  0
ARC
  5
44E
102
{ACAD_XDICTIONARY
360
44C
102
}
330
1F
100
AcDbEntity
  8
Main lines
100
AcDbCircle
 10
613.3132685625146
 20
244.3893812522369
 30
0.0
 40
0.9999999999999776
100
AcDbArc
 50
-22.5000000000005
 51
69.7760915108416
  0
LINE
  5
451
102
{ACAD_XDICTIONARY
360
44F
102
}
330
1F
100
AcDbEntity
  8
Main lines
100
AcDbLine
 10
623.2867361950854
 20
240.3517548179761
 30
0.0
 11
622.1840080081726
 21
235.3776694080404
 31
0.0
  0
LINE
  5
454
102
{ACAD_XDICTIONARY
360
452
102
}
330
1F
100
AcDbEntity
  8
Main lines
100
AcDbLine
 10
619.7801613304196
 20
241.7099599706562
 30
0.0
 11
617.3883086041961
 21
235.9355166798088
 31
0.0
  0
ARC
  5
457
102
{ACAD_XDICTIONARY
360
455
102
}
330
1F
100
AcDbEntity
  8
Main lines
100
AcDbCircle
 10
622.3104401879656
 20
240.5681944319142
 30
0.0
 40
0.9999999999999889
100
AcDbArc
 50
-12.49999999999927
 51
64.20109577455534
  0
ARC
  5
45A
102
{ACAD_XDICTIONARY
360
458
102
}
330
1F
100
AcDbEntity
  8
Main lines
100
AcDbCircle
 10
620.7040408629309
 20
241.3272765382912
 30
0.0
 40
0.9999999999999998
100
AcDbArc
 50
65.21402840684362
 51
157.4999999999987
  0
VIEWPORT
  5
45D
330
1B
100
AcDbEntity
 67
     1
  8
0
100
AcDbViewport
 10
146.6302508105014
 20
19.58031998242123
 30
0.0
 40
296.9683227539062
 41
209.9733276367188
 68
     1
 69
     1
 12
146.6302508105014
 22
19.58031998242123
 13
0.0
 23
0.0
 14
5.0
 24
5.0
 15
5.0
 25
5.0
 16
0.0
 26
0.0
 36
1.0
 17
0.0
 27
0.0
 37
0.0
 42
50.0
 43
0.0
 44
0.0
 45
209.9733276367188
 50
0.0
 51
0.0
 72
  1000
 90
    32800
  1

281
     0
 71
     1
 74
     0
110
0.0
120
0.0
130
0.0
111
1.0
121
0.0
131
0.0
112
0.0
122
1.0
132
0.0
 79
     0
146
0.0
170
     0
  0
ENDSEC
  0
SECTION
  2
OBJECTS
  0
DICTIONARY
  5
C
330
0
100
AcDbDictionary
281
     1
  3
ACAD_GROUP
350
D
  3
ACAD_LAYOUT
350
1A
  3
ACAD_MLINESTYLE
350
17
  3
ACAD_PLOTSETTINGS
350
19
  3
ACAD_PLOTSTYLENAME
350
E
  3
ACAD_TABLESTYLE
350
45E
  3
ACAD_VISUALSTYLE
350
2A
  0
DICTIONARY
  5
54
330
56
100
AcDbDictionary
280
     1
281
     1
  3
TC_OPTIONAL_DATA
360
55
  0
DICTIONARY
  5
57
330
59
100
AcDbDictionary
280
     1
281
     1
  3
TC_OPTIONAL_DATA
360
58
  0
DICTIONARY
  5
5A
330
5C
100
AcDbDictionary
280
     1
281
     1
  3
TC_OPTIONAL_DATA
360
5B
  0
DICTIONARY
  5
5D
330
5F
100
AcDbDictionary
280
     1
281
     1
  3
TC_OPTIONAL_DATA
360
5E
  0
DICTIONARY
  5
60
330
62
100
AcDbDictionary
280
     1
281
     1
  3
TC_OPTIONAL_DATA
360
61
  0
DICTIONARY
  5
63
330
65
100
AcDbDictionary
280
     1
281
     1
  3
TC_OPTIONAL_DATA
360
64
  0
DICTIONARY
  5
66
330
68
100
AcDbDictionary
280
     1
281
     1
  3
TC_OPTIONAL_DATA
360
67
  0
DICTIONARY
  5
69
330
6B
100
AcDbDictionary
280
     1
281
     1
  3
TC_OPTIONAL_DATA
360
6A
  0
DICTIONARY
  5
6C
330
6E
100
AcDbDictionary
280
     1
281
     1
  3
TC_OPTIONAL_DATA
360
6D
  0
DICTIONARY
  5
6F
330
71
100
AcDbDictionary
280
     1
281
     1
  3
TC_OPTIONAL_DATA
360
70
  0
DICTIONARY
  5
72
330
74
100
AcDbDictionary
280
     1
281
     1
  3
TC_OPTIONAL_DATA
360
73
  0
DICTIONARY
  5
75
330
77
100
AcDbDictionary
280
     1
281
     1
  3
TC_OPTIONAL_DATA
360
76
  0
DICTIONARY
  5
78
330
7A
100
AcDbDictionary
280
     1
281
     1
  3
TC_OPTIONAL_DATA
360
79
  0
DICTIONARY
  5
7B
330
7D
100
AcDbDictionary
280
     1
281
     1
  3
TC_OPTIONAL_DATA
360
7C
  0
DICTIONARY
  5
7E
330
80
100
AcDbDictionary
280
     1
281
     1
  3
TC_OPTIONAL_DATA
360
7F
  0
DICTIONARY
  5
81
330
83
100
AcDbDictionary
280
     1
281
     1
  3
TC_OPTIONAL_DATA
360
82
  0
DICTIONARY
  5
84
330
86
100
AcDbDictionary
280
     1
281
     1
  3
TC_OPTIONAL_DATA
360
85
  0
DICTIONARY
  5
87
330
89
100
AcDbDictionary
280
     1
281
     1
  3
TC_OPTIONAL_DATA
360
88
  0
DICTIONARY
  5
8A
330
8C
100
AcDbDictionary
280
     1
281
     1
  3
TC_OPTIONAL_DATA
360
8B
  0
DICTIONARY
  5
8D
330
8F
100
AcDbDictionary
280
     1
281
     1
  3
TC_OPTIONAL_DATA
360
8E
  0
DICTIONARY
  5
90
330
92
100
AcDbDictionary
280
     1
281
     1
  3
TC_OPTIONAL_DATA
360
91
  0
DICTIONARY
  5
93
330
95
100
AcDbDictionary
280
     1
281
     1
  3
TC_OPTIONAL_DATA
360
94
  0
DICTIONARY
  5
96
330
98
100
AcDbDictionary
280
     1
281
     1
  3
TC_OPTIONAL_DATA
360
97
  0
DICTIONARY
  5
99
330
9B
100
AcDbDictionary
280
     1
281
     1
  3
TC_OPTIONAL_DATA
360
9A
  0
DICTIONARY
  5
9C
330
9E
100
AcDbDictionary
280
     1
281
     1
  3
TC_OPTIONAL_DATA
360
9D
  0
DICTIONARY
  5
9F
330
A1
100
AcDbDictionary
280
     1
281
     1
  3
TC_OPTIONAL_DATA
360
A0
  0
DICTIONARY
  5
A2
330
A4
100
AcDbDictionary
280
     1
281
     1
  3
TC_OPTIONAL_DATA
360
A3
  0
DICTIONARY
  5
A5
330
A7
100
AcDbDictionary
280
     1
281
     1
  3
TC_OPTIONAL_DATA
360
A6
  0
DICTIONARY
  5
A8
330
AA
100
AcDbDictionary
280
     1
281
     1
  3
TC_OPTIONAL_DATA
360
A9
  0
DICTIONARY
  5
AB
330
AD
100
AcDbDictionary
280
     1
281
     1
  3
TC_OPTIONAL_DATA
360
AC
  0
DICTIONARY
  5
AE
330
B0
100
AcDbDictionary
280
     1
281
     1
  3
TC_OPTIONAL_DATA
360
AF
  0
DICTIONARY
  5
B1
330
B3
100
AcDbDictionary
280
     1
281
     1
  3
TC_OPTIONAL_DATA
360
B2
  0
DICTIONARY
  5
B4
330
B6
100
AcDbDictionary
280
     1
281
     1
  3
TC_OPTIONAL_DATA
360
B5
  0
DICTIONARY
  5
B7
330
B9
100
AcDbDictionary
280
     1
281
     1
  3
TC_OPTIONAL_DATA
360
B8
  0
DICTIONARY
  5
BA
330
BC
100
AcDbDictionary
280
     1
281
     1
  3
TC_OPTIONAL_DATA
360
BB
  0
DICTIONARY
  5
BD
330
BF
100
AcDbDictionary
280
     1
281
     1
  3
TC_OPTIONAL_DATA
360
BE
  0
DICTIONARY
  5
C0
330
C2
100
AcDbDictionary
280
     1
281
     1
  3
TC_OPTIONAL_DATA
360
C1
  0
DICTIONARY
  5
C3
330
C5
100
AcDbDictionary
280
     1
281
     1
  3
TC_OPTIONAL_DATA
360
C4
  0
DICTIONARY
  5
C6
330
C8
100
AcDbDictionary
280
     1
281
     1
  3
TC_OPTIONAL_DATA
360
C7
  0
DICTIONARY
  5
C9
330
CB
100
AcDbDictionary
280
     1
281
     1
  3
TC_OPTIONAL_DATA
360
CA
  0
DICTIONARY
  5
CC
330
CE
100
AcDbDictionary
280
     1
281
     1
  3
TC_OPTIONAL_DATA
360
CD
  0
DICTIONARY
  5
CF
330
D1
100
AcDbDictionary
280
     1
281
     1
  3
TC_OPTIONAL_DATA
360
D0
  0
DICTIONARY
  5
D2
330
D4
100
AcDbDictionary
280
     1
281
     1
  3
TC_OPTIONAL_DATA
360
D3
  0
DICTIONARY
  5
D5
330
D7
100
AcDbDictionary
280
     1
281
     1
  3
TC_OPTIONAL_DATA
360
D6
  0
DICTIONARY
  5
D8
330
DA
100
AcDbDictionary
280
     1
281
     1
  3
TC_OPTIONAL_DATA
360
D9
  0
DICTIONARY
  5
DB
330
DD
100
AcDbDictionary
280
     1
281
     1
  3
TC_OPTIONAL_DATA
360
DC
  0
DICTIONARY
  5
DE
330
E0
100
AcDbDictionary
280
     1
281
     1
  3
TC_OPTIONAL_DATA
360
DF
  0
DICTIONARY
  5
E1
330
E3
100
AcDbDictionary
280
     1
281
     1
  3
TC_OPTIONAL_DATA
360
E2
  0
DICTIONARY
  5
E4
330
E6
100
AcDbDictionary
280
     1
281
     1
  3
TC_OPTIONAL_DATA
360
E5
  0
DICTIONARY
  5
E7
330
E9
100
AcDbDictionary
280
     1
281
     1
  3
TC_OPTIONAL_DATA
360
E8
  0
DICTIONARY
  5
EA
330
EC
100
AcDbDictionary
280
     1
281
     1
  3
TC_OPTIONAL_DATA
360
EB
  0
DICTIONARY
  5
ED
330
EF
100
AcDbDictionary
280
     1
281
     1
  3
TC_OPTIONAL_DATA
360
EE
  0
DICTIONARY
  5
F0
330
F2
100
AcDbDictionary
280
     1
281
     1
  3
TC_OPTIONAL_DATA
360
F1
  0
DICTIONARY
  5
F3
330
F5
100
AcDbDictionary
280
     1
281
     1
  3
TC_OPTIONAL_DATA
360
F4
  0
DICTIONARY
  5
F6
330
F8
100
AcDbDictionary
280
     1
281
     1
  3
TC_OPTIONAL_DATA
360
F7
  0
DICTIONARY
  5
F9
330
FB
100
AcDbDictionary
280
     1
281
     1
  3
TC_OPTIONAL_DATA
360
FA
  0
DICTIONARY
  5
FC
330
FE
100
AcDbDictionary
280
     1
281
     1
  3
TC_OPTIONAL_DATA
360
FD
  0
DICTIONARY
  5
FF
330
101
100
AcDbDictionary
280
     1
281
     1
  3
TC_OPTIONAL_DATA
360
100
  0
DICTIONARY
  5
102
330
104
100
AcDbDictionary
280
     1
281
     1
  3
TC_OPTIONAL_DATA
360
103
  0
DICTIONARY
  5
105
330
107
100
AcDbDictionary
280
     1
281
     1
  3
TC_OPTIONAL_DATA
360
106
  0
DICTIONARY
  5
108
330
10A
100
AcDbDictionary
280
     1
281
     1
  3
TC_OPTIONAL_DATA
360
109
  0
DICTIONARY
  5
10B
330
10D
100
AcDbDictionary
280
     1
281
     1
  3
TC_OPTIONAL_DATA
360
10C
  0
DICTIONARY
  5
10E
330
110
100
AcDbDictionary
280
     1
281
     1
  3
TC_OPTIONAL_DATA
360
10F
  0
DICTIONARY
  5
111
330
113
100
AcDbDictionary
280
     1
281
     1
  3
TC_OPTIONAL_DATA
360
112
  0
DICTIONARY
  5
114
330
116
100
AcDbDictionary
280
     1
281
     1
  3
TC_OPTIONAL_DATA
360
115
  0
DICTIONARY
  5
117
330
119
100
AcDbDictionary
280
     1
281
     1
  3
TC_OPTIONAL_DATA
360
118
  0
DICTIONARY
  5
11A
330
11C
100
AcDbDictionary
280
     1
281
     1
  3
TC_OPTIONAL_DATA
360
11B
  0
DICTIONARY
  5
11D
330
11F
100
AcDbDictionary
280
     1
281
     1
  3
TC_OPTIONAL_DATA
360
11E
  0
DICTIONARY
  5
120
330
122
100
AcDbDictionary
280
     1
281
     1
  3
TC_OPTIONAL_DATA
360
121
  0
DICTIONARY
  5
123
330
125
100
AcDbDictionary
280
     1
281
     1
  3
TC_OPTIONAL_DATA
360
124
  0
DICTIONARY
  5
126
330
128
100
AcDbDictionary
280
     1
281
     1
  3
TC_OPTIONAL_DATA
360
127
  0
DICTIONARY
  5
129
330
12B
100
AcDbDictionary
280
     1
281
     1
  3
TC_OPTIONAL_DATA
360
12A
  0
DICTIONARY
  5
12C
330
12E
100
AcDbDictionary
280
     1
281
     1
  3
TC_OPTIONAL_DATA
360
12D
  0
DICTIONARY
  5
12F
330
131
100
AcDbDictionary
280
     1
281
     1
  3
TC_OPTIONAL_DATA
360
130
  0
DICTIONARY
  5
132
330
134
100
AcDbDictionary
280
     1
281
     1
  3
TC_OPTIONAL_DATA
360
133
  0
DICTIONARY
  5
135
330
137
100
AcDbDictionary
280
     1
281
     1
  3
TC_OPTIONAL_DATA
360
136
  0
DICTIONARY
  5
138
330
13A
100
AcDbDictionary
280
     1
281
     1
  3
TC_OPTIONAL_DATA
360
139
  0
DICTIONARY
  5
13B
330
13D
100
AcDbDictionary
280
     1
281
     1
  3
TC_OPTIONAL_DATA
360
13C
  0
DICTIONARY
  5
13E
330
140
100
AcDbDictionary
280
     1
281
     1
  3
TC_OPTIONAL_DATA
360
13F
  0
DICTIONARY
  5
141
330
143
100
AcDbDictionary
280
     1
281
     1
  3
TC_OPTIONAL_DATA
360
142
  0
DICTIONARY
  5
144
330
146
100
AcDbDictionary
280
     1
281
     1
  3
TC_OPTIONAL_DATA
360
145
  0
DICTIONARY
  5
147
330
149
100
AcDbDictionary
280
     1
281
     1
  3
TC_OPTIONAL_DATA
360
148
  0
DICTIONARY
  5
14A
330
14C
100
AcDbDictionary
280
     1
281
     1
  3
TC_OPTIONAL_DATA
360
14B
  0
DICTIONARY
  5
14D
330
14F
100
AcDbDictionary
280
     1
281
     1
  3
TC_OPTIONAL_DATA
360
14E
  0
DICTIONARY
  5
150
330
152
100
AcDbDictionary
280
     1
281
     1
  3
TC_OPTIONAL_DATA
360
151
  0
DICTIONARY
  5
153
330
155
100
AcDbDictionary
280
     1
281
     1
  3
TC_OPTIONAL_DATA
360
154
  0
DICTIONARY
  5
156
330
158
100
AcDbDictionary
280
     1
281
     1
  3
TC_OPTIONAL_DATA
360
157
  0
DICTIONARY
  5
159
330
15B
100
AcDbDictionary
280
     1
281
     1
  3
TC_OPTIONAL_DATA
360
15A
  0
DICTIONARY
  5
15C
330
15E
100
AcDbDictionary
280
     1
281
     1
  3
TC_OPTIONAL_DATA
360
15D
  0
DICTIONARY
  5
15F
330
161
100
AcDbDictionary
280
     1
281
     1
  3
TC_OPTIONAL_DATA
360
160
  0
DICTIONARY
  5
162
330
164
100
AcDbDictionary
280
     1
281
     1
  3
TC_OPTIONAL_DATA
360
163
  0
DICTIONARY
  5
165
330
167
100
AcDbDictionary
280
     1
281
     1
  3
TC_OPTIONAL_DATA
360
166
  0
DICTIONARY
  5
168
330
16A
100
AcDbDictionary
280
     1
281
     1
  3
TC_OPTIONAL_DATA
360
169
  0
DICTIONARY
  5
16B
330
16D
100
AcDbDictionary
280
     1
281
     1
  3
TC_OPTIONAL_DATA
360
16C
  0
DICTIONARY
  5
16E
330
170
100
AcDbDictionary
280
     1
281
     1
  3
TC_OPTIONAL_DATA
360
16F
  0
DICTIONARY
  5
171
330
173
100
AcDbDictionary
280
     1
281
     1
  3
TC_OPTIONAL_DATA
360
172
  0
DICTIONARY
  5
174
330
176
100
AcDbDictionary
280
     1
281
     1
  3
TC_OPTIONAL_DATA
360
175
  0
DICTIONARY
  5
177
330
179
100
AcDbDictionary
280
     1
281
     1
  3
TC_OPTIONAL_DATA
360
178
  0
DICTIONARY
  5
17A
330
17C
100
AcDbDictionary
280
     1
281
     1
  3
TC_OPTIONAL_DATA
360
17B
  0
DICTIONARY
  5
17D
330
17F
100
AcDbDictionary
280
     1
281
     1
  3
TC_OPTIONAL_DATA
360
17E
  0
DICTIONARY
  5
180
330
182
100
AcDbDictionary
280
     1
281
     1
  3
TC_OPTIONAL_DATA
360
181
  0
DICTIONARY
  5
184
330
186
100
AcDbDictionary
280
     1
281
     1
  3
TC_OPTIONAL_DATA
360
185
  0
DICTIONARY
  5
187
330
189
100
AcDbDictionary
280
     1
281
     1
  3
TC_OPTIONAL_DATA
360
188
  0
DICTIONARY
  5
18B
330
18D
100
AcDbDictionary
280
     1
281
     1
  3
TC_OPTIONAL_DATA
360
18C
  0
DICTIONARY
  5
18E
330
190
100
AcDbDictionary
280
     1
281
     1
  3
TC_OPTIONAL_DATA
360
18F
  0
DICTIONARY
  5
191
330
193
100
AcDbDictionary
280
     1
281
     1
  3
TC_OPTIONAL_DATA
360
192
  0
DICTIONARY
  5
194
330
196
100
AcDbDictionary
280
     1
281
     1
  3
TC_OPTIONAL_DATA
360
195
  0
DICTIONARY
  5
197
330
199
100
AcDbDictionary
280
     1
281
     1
  3
TC_OPTIONAL_DATA
360
198
  0
DICTIONARY
  5
19A
330
19C
100
AcDbDictionary
280
     1
281
     1
  3
TC_OPTIONAL_DATA
360
19B
  0
DICTIONARY
  5
19D
330
19F
100
AcDbDictionary
280
     1
281
     1
  3
TC_OPTIONAL_DATA
360
19E
  0
DICTIONARY
  5
1A0
330
1A2
100
AcDbDictionary
280
     1
281
     1
  3
TC_OPTIONAL_DATA
360
1A1
  0
DICTIONARY
  5
1A3
330
1A5
100
AcDbDictionary
280
     1
281
     1
  3
TC_OPTIONAL_DATA
360
1A4
  0
DICTIONARY
  5
1A6
330
1A8
100
AcDbDictionary
280
     1
281
     1
  3
TC_OPTIONAL_DATA
360
1A7
  0
DICTIONARY
  5
1A9
330
1AB
100
AcDbDictionary
280
     1
281
     1
  3
TC_OPTIONAL_DATA
360
1AA
  0
DICTIONARY
  5
1AC
330
1AE
100
AcDbDictionary
280
     1
281
     1
  3
TC_OPTIONAL_DATA
360
1AD
  0
DICTIONARY
  5
1AF
330
1B1
100
AcDbDictionary
280
     1
281
     1
  3
TC_OPTIONAL_DATA
360
1B0
  0
DICTIONARY
  5
1B2
330
1B4
100
AcDbDictionary
280
     1
281
     1
  3
TC_OPTIONAL_DATA
360
1B3
  0
DICTIONARY
  5
1B5
330
1B7
100
AcDbDictionary
280
     1
281
     1
  3
TC_OPTIONAL_DATA
360
1B6
  0
DICTIONARY
  5
1B8
330
1BA
100
AcDbDictionary
280
     1
281
     1
  3
TC_OPTIONAL_DATA
360
1B9
  0
DICTIONARY
  5
1BB
330
1BD
100
AcDbDictionary
280
     1
281
     1
  3
TC_OPTIONAL_DATA
360
1BC
  0
DICTIONARY
  5
1BE
330
1C0
100
AcDbDictionary
280
     1
281
     1
  3
TC_OPTIONAL_DATA
360
1BF
  0
DICTIONARY
  5
1C1
330
1C3
100
AcDbDictionary
280
     1
281
     1
  3
TC_OPTIONAL_DATA
360
1C2
  0
DICTIONARY
  5
1C4
330
1C6
100
AcDbDictionary
280
     1
281
     1
  3
TC_OPTIONAL_DATA
360
1C5
  0
DICTIONARY
  5
1C7
330
1C9
100
AcDbDictionary
280
     1
281
     1
  3
TC_OPTIONAL_DATA
360
1C8
  0
DICTIONARY
  5
1CA
330
1CC
100
AcDbDictionary
280
     1
281
     1
  3
TC_OPTIONAL_DATA
360
1CB
  0
DICTIONARY
  5
1CD
330
1CF
100
AcDbDictionary
280
     1
281
     1
  3
TC_OPTIONAL_DATA
360
1CE
  0
DICTIONARY
  5
1D0
330
1D2
100
AcDbDictionary
280
     1
281
     1
  3
TC_OPTIONAL_DATA
360
1D1
  0
DICTIONARY
  5
1D3
330
1D5
100
AcDbDictionary
280
     1
281
     1
  3
TC_OPTIONAL_DATA
360
1D4
  0
DICTIONARY
  5
1D6
330
1D8
100
AcDbDictionary
280
     1
281
     1
  3
TC_OPTIONAL_DATA
360
1D7
  0
DICTIONARY
  5
1D9
330
1DB
100
AcDbDictionary
280
     1
281
     1
  3
TC_OPTIONAL_DATA
360
1DA
  0
DICTIONARY
  5
1DC
330
1DE
100
AcDbDictionary
280
     1
281
     1
  3
TC_OPTIONAL_DATA
360
1DD
  0
DICTIONARY
  5
1DF
330
1E1
100
AcDbDictionary
280
     1
281
     1
  3
TC_OPTIONAL_DATA
360
1E0
  0
DICTIONARY
  5
1E2
330
1E4
100
AcDbDictionary
280
     1
281
     1
  3
TC_OPTIONAL_DATA
360
1E3
  0
DICTIONARY
  5
1E5
330
1E7
100
AcDbDictionary
280
     1
281
     1
  3
TC_OPTIONAL_DATA
360
1E6
  0
DICTIONARY
  5
1E8
330
1EA
100
AcDbDictionary
280
     1
281
     1
  3
TC_OPTIONAL_DATA
360
1E9
  0
DICTIONARY
  5
1EB
330
1ED
100
AcDbDictionary
280
     1
281
     1
  3
TC_OPTIONAL_DATA
360
1EC
  0
DICTIONARY
  5
1EE
330
1F0
100
AcDbDictionary
280
     1
281
     1
  3
TC_OPTIONAL_DATA
360
1EF
  0
DICTIONARY
  5
1F1
330
1F3
100
AcDbDictionary
280
     1
281
     1
  3
TC_OPTIONAL_DATA
360
1F2
  0
DICTIONARY
  5
1F4
330
1F6
100
AcDbDictionary
280
     1
281
     1
  3
TC_OPTIONAL_DATA
360
1F5
  0
DICTIONARY
  5
1F7
330
1F9
100
AcDbDictionary
280
     1
281
     1
  3
TC_OPTIONAL_DATA
360
1F8
  0
DICTIONARY
  5
1FA
330
1FC
100
AcDbDictionary
280
     1
281
     1
  3
TC_OPTIONAL_DATA
360
1FB
  0
DICTIONARY
  5
1FD
330
1FF
100
AcDbDictionary
280
     1
281
     1
  3
TC_OPTIONAL_DATA
360
1FE
  0
DICTIONARY
  5
200
330
202
100
AcDbDictionary
280
     1
281
     1
  3
TC_OPTIONAL_DATA
360
201
  0
DICTIONARY
  5
203
330
205
100
AcDbDictionary
280
     1
281
     1
  3
TC_OPTIONAL_DATA
360
204
  0
DICTIONARY
  5
206
330
208
100
AcDbDictionary
280
     1
281
     1
  3
TC_OPTIONAL_DATA
360
207
  0
DICTIONARY
  5
209
330
20B
100
AcDbDictionary
280
     1
281
     1
  3
TC_OPTIONAL_DATA
360
20A
  0
DICTIONARY
  5
20C
330
20E
100
AcDbDictionary
280
     1
281
     1
  3
TC_OPTIONAL_DATA
360
20D
  0
DICTIONARY
  5
20F
330
211
100
AcDbDictionary
280
     1
281
     1
  3
TC_OPTIONAL_DATA
360
210
  0
DICTIONARY
  5
212
330
214
100
AcDbDictionary
280
     1
281
     1
  3
TC_OPTIONAL_DATA
360
213
  0
DICTIONARY
  5
215
330
217
100
AcDbDictionary
280
     1
281
     1
  3
TC_OPTIONAL_DATA
360
216
  0
DICTIONARY
  5
218
330
21A
100
AcDbDictionary
280
     1
281
     1
  3
TC_OPTIONAL_DATA
360
219
  0
DICTIONARY
  5
21B
330
21D
100
AcDbDictionary
280
     1
281
     1
  3
TC_OPTIONAL_DATA
360
21C
  0
DICTIONARY
  5
21E
330
220
100
AcDbDictionary
280
     1
281
     1
  3
TC_OPTIONAL_DATA
360
21F
  0
DICTIONARY
  5
221
330
223
100
AcDbDictionary
280
     1
281
     1
  3
TC_OPTIONAL_DATA
360
222
  0
DICTIONARY
  5
224
330
226
100
AcDbDictionary
280
     1
281
     1
  3
TC_OPTIONAL_DATA
360
225
  0
DICTIONARY
  5
227
330
229
100
AcDbDictionary
280
     1
281
     1
  3
TC_OPTIONAL_DATA
360
228
  0
DICTIONARY
  5
22A
330
22C
100
AcDbDictionary
280
     1
281
     1
  3
TC_OPTIONAL_DATA
360
22B
  0
DICTIONARY
  5
22D
330
22F
100
AcDbDictionary
280
     1
281
     1
  3
TC_OPTIONAL_DATA
360
22E
  0
DICTIONARY
  5
230
330
232
100
AcDbDictionary
280
     1
281
     1
  3
TC_OPTIONAL_DATA
360
231
  0
DICTIONARY
  5
233
330
235
100
AcDbDictionary
280
     1
281
     1
  3
TC_OPTIONAL_DATA
360
234
  0
DICTIONARY
  5
236
330
238
100
AcDbDictionary
280
     1
281
     1
  3
TC_OPTIONAL_DATA
360
237
  0
DICTIONARY
  5
239
330
23B
100
AcDbDictionary
280
     1
281
     1
  3
TC_OPTIONAL_DATA
360
23A
  0
DICTIONARY
  5
23C
330
23E
100
AcDbDictionary
280
     1
281
     1
  3
TC_OPTIONAL_DATA
360
23D
  0
DICTIONARY
  5
23F
330
241
100
AcDbDictionary
280
     1
281
     1
  3
TC_OPTIONAL_DATA
360
240
  0
DICTIONARY
  5
242
330
244
100
AcDbDictionary
280
     1
281
     1
  3
TC_OPTIONAL_DATA
360
243
  0
DICTIONARY
  5
245
330
247
100
AcDbDictionary
280
     1
281
     1
  3
TC_OPTIONAL_DATA
360
246
  0
DICTIONARY
  5
248
330
24A
100
AcDbDictionary
280
     1
281
     1
  3
TC_OPTIONAL_DATA
360
249
  0
DICTIONARY
  5
24B
330
24D
100
AcDbDictionary
280
     1
281
     1
  3
TC_OPTIONAL_DATA
360
24C
  0
DICTIONARY
  5
24E
330
250
100
AcDbDictionary
280
     1
281
     1
  3
TC_OPTIONAL_DATA
360
24F
  0
DICTIONARY
  5
251
330
253
100
AcDbDictionary
280
     1
281
     1
  3
TC_OPTIONAL_DATA
360
252
  0
DICTIONARY
  5
254
330
256
100
AcDbDictionary
280
     1
281
     1
  3
TC_OPTIONAL_DATA
360
255
  0
DICTIONARY
  5
257
330
259
100
AcDbDictionary
280
     1
281
     1
  3
TC_OPTIONAL_DATA
360
258
  0
DICTIONARY
  5
25A
330
25C
100
AcDbDictionary
280
     1
281
     1
  3
TC_OPTIONAL_DATA
360
25B
  0
DICTIONARY
  5
25D
330
25F
100
AcDbDictionary
280
     1
281
     1
  3
TC_OPTIONAL_DATA
360
25E
  0
DICTIONARY
  5
260
330
262
100
AcDbDictionary
280
     1
281
     1
  3
TC_OPTIONAL_DATA
360
261
  0
DICTIONARY
  5
263
330
265
100
AcDbDictionary
280
     1
281
     1
  3
TC_OPTIONAL_DATA
360
264
  0
DICTIONARY
  5
266
330
268
100
AcDbDictionary
280
     1
281
     1
  3
TC_OPTIONAL_DATA
360
267
  0
DICTIONARY
  5
269
330
26B
100
AcDbDictionary
280
     1
281
     1
  3
TC_OPTIONAL_DATA
360
26A
  0
DICTIONARY
  5
26C
330
26E
100
AcDbDictionary
280
     1
281
     1
  3
TC_OPTIONAL_DATA
360
26D
  0
DICTIONARY
  5
26F
330
271
100
AcDbDictionary
280
     1
281
     1
  3
TC_OPTIONAL_DATA
360
270
  0
DICTIONARY
  5
272
330
274
100
AcDbDictionary
280
     1
281
     1
  3
TC_OPTIONAL_DATA
360
273
  0
DICTIONARY
  5
275
330
277
100
AcDbDictionary
280
     1
281
     1
  3
TC_OPTIONAL_DATA
360
276
  0
DICTIONARY
  5
278
330
27A
100
AcDbDictionary
280
     1
281
     1
  3
TC_OPTIONAL_DATA
360
279
  0
DICTIONARY
  5
27B
330
27D
100
AcDbDictionary
280
     1
281
     1
  3
TC_OPTIONAL_DATA
360
27C
  0
DICTIONARY
  5
27E
330
280
100
AcDbDictionary
280
     1
281
     1
  3
TC_OPTIONAL_DATA
360
27F
  0
DICTIONARY
  5
281
330
283
100
AcDbDictionary
280
     1
281
     1
  3
TC_OPTIONAL_DATA
360
282
  0
DICTIONARY
  5
284
330
286
100
AcDbDictionary
280
     1
281
     1
  3
TC_OPTIONAL_DATA
360
285
  0
DICTIONARY
  5
287
330
289
100
AcDbDictionary
280
     1
281
     1
  3
TC_OPTIONAL_DATA
360
288
  0
DICTIONARY
  5
28A
330
28C
100
AcDbDictionary
280
     1
281
     1
  3
TC_OPTIONAL_DATA
360
28B
  0
DICTIONARY
  5
28D
330
28F
100
AcDbDictionary
280
     1
281
     1
  3
TC_OPTIONAL_DATA
360
28E
  0
DICTIONARY
  5
290
330
292
100
AcDbDictionary
280
     1
281
     1
  3
TC_OPTIONAL_DATA
360
291
  0
DICTIONARY
  5
293
330
295
100
AcDbDictionary
280
     1
281
     1
  3
TC_OPTIONAL_DATA
360
294
  0
DICTIONARY
  5
296
330
298
100
AcDbDictionary
280
     1
281
     1
  3
TC_OPTIONAL_DATA
360
297
  0
DICTIONARY
  5
299
330
29B
100
AcDbDictionary
280
     1
281
     1
  3
TC_OPTIONAL_DATA
360
29A
  0
DICTIONARY
  5
29C
330
29E
100
AcDbDictionary
280
     1
281
     1
  3
TC_OPTIONAL_DATA
360
29D
  0
DICTIONARY
  5
29F
330
2A1
100
AcDbDictionary
280
     1
281
     1
  3
TC_OPTIONAL_DATA
360
2A0
  0
DICTIONARY
  5
2A2
330
2A4
100
AcDbDictionary
280
     1
281
     1
  3
TC_OPTIONAL_DATA
360
2A3
  0
DICTIONARY
  5
2A5
330
2A7
100
AcDbDictionary
280
     1
281
     1
  3
TC_OPTIONAL_DATA
360
2A6
  0
DICTIONARY
  5
2A8
330
2AA
100
AcDbDictionary
280
     1
281
     1
  3
TC_OPTIONAL_DATA
360
2A9
  0
DICTIONARY
  5
2AB
330
2AD
100
AcDbDictionary
280
     1
281
     1
  3
TC_OPTIONAL_DATA
360
2AC
  0
DICTIONARY
  5
2AE
330
2B0
100
AcDbDictionary
280
     1
281
     1
  3
TC_OPTIONAL_DATA
360
2AF
  0
DICTIONARY
  5
2B1
330
2B3
100
AcDbDictionary
280
     1
281
     1
  3
TC_OPTIONAL_DATA
360
2B2
  0
DICTIONARY
  5
2B4
330
2B6
100
AcDbDictionary
280
     1
281
     1
  3
TC_OPTIONAL_DATA
360
2B5
  0
DICTIONARY
  5
2B7
330
2B9
100
AcDbDictionary
280
     1
281
     1
  3
TC_OPTIONAL_DATA
360
2B8
  0
DICTIONARY
  5
2BA
330
2BC
100
AcDbDictionary
280
     1
281
     1
  3
TC_OPTIONAL_DATA
360
2BB
  0
DICTIONARY
  5
2BD
330
2BF
100
AcDbDictionary
280
     1
281
     1
  3
TC_OPTIONAL_DATA
360
2BE
  0
DICTIONARY
  5
2C0
330
2C2
100
AcDbDictionary
280
     1
281
     1
  3
TC_OPTIONAL_DATA
360
2C1
  0
DICTIONARY
  5
2C3
330
2C5
100
AcDbDictionary
280
     1
281
     1
  3
TC_OPTIONAL_DATA
360
2C4
  0
DICTIONARY
  5
2C6
330
2C8
100
AcDbDictionary
280
     1
281
     1
  3
TC_OPTIONAL_DATA
360
2C7
  0
DICTIONARY
  5
2C9
330
2CB
100
AcDbDictionary
280
     1
281
     1
  3
TC_OPTIONAL_DATA
360
2CA
  0
DICTIONARY
  5
2CC
330
2CE
100
AcDbDictionary
280
     1
281
     1
  3
TC_OPTIONAL_DATA
360
2CD
  0
DICTIONARY
  5
2CF
330
2D1
100
AcDbDictionary
280
     1
281
     1
  3
TC_OPTIONAL_DATA
360
2D0
  0
DICTIONARY
  5
2D2
330
2D4
100
AcDbDictionary
280
     1
281
     1
  3
TC_OPTIONAL_DATA
360
2D3
  0
DICTIONARY
  5
2D5
330
2D7
100
AcDbDictionary
280
     1
281
     1
  3
TC_OPTIONAL_DATA
360
2D6
  0
DICTIONARY
  5
2D8
330
2DA
100
AcDbDictionary
280
     1
281
     1
  3
TC_OPTIONAL_DATA
360
2D9
  0
DICTIONARY
  5
2DB
330
2DD
100
AcDbDictionary
280
     1
281
     1
  3
TC_OPTIONAL_DATA
360
2DC
  0
DICTIONARY
  5
2DE
330
2E0
100
AcDbDictionary
280
     1
281
     1
  3
TC_OPTIONAL_DATA
360
2DF
  0
DICTIONARY
  5
2E1
330
2E3
100
AcDbDictionary
280
     1
281
     1
  3
TC_OPTIONAL_DATA
360
2E2
  0
DICTIONARY
  5
2E4
330
2E6
100
AcDbDictionary
280
     1
281
     1
  3
TC_OPTIONAL_DATA
360
2E5
  0
DICTIONARY
  5
2E7
330
2E9
100
AcDbDictionary
280
     1
281
     1
  3
TC_OPTIONAL_DATA
360
2E8
  0
DICTIONARY
  5
2EA
330
2EC
100
AcDbDictionary
280
     1
281
     1
  3
TC_OPTIONAL_DATA
360
2EB
  0
DICTIONARY
  5
2ED
330
2EF
100
AcDbDictionary
280
     1
281
     1
  3
TC_OPTIONAL_DATA
360
2EE
  0
DICTIONARY
  5
2F0
330
2F2
100
AcDbDictionary
280
     1
281
     1
  3
TC_OPTIONAL_DATA
360
2F1
  0
DICTIONARY
  5
2F3
330
2F5
100
AcDbDictionary
280
     1
281
     1
  3
TC_OPTIONAL_DATA
360
2F4
  0
DICTIONARY
  5
2F6
330
2F8
100
AcDbDictionary
280
     1
281
     1
  3
TC_OPTIONAL_DATA
360
2F7
  0
DICTIONARY
  5
2F9
330
2FB
100
AcDbDictionary
280
     1
281
     1
  3
TC_OPTIONAL_DATA
360
2FA
  0
DICTIONARY
  5
2FC
330
2FE
100
AcDbDictionary
280
     1
281
     1
  3
TC_OPTIONAL_DATA
360
2FD
  0
DICTIONARY
  5
2FF
330
301
100
AcDbDictionary
280
     1
281
     1
  3
TC_OPTIONAL_DATA
360
300
  0
DICTIONARY
  5
302
330
304
100
AcDbDictionary
280
     1
281
     1
  3
TC_OPTIONAL_DATA
360
303
  0
DICTIONARY
  5
305
330
307
100
AcDbDictionary
280
     1
281
     1
  3
TC_OPTIONAL_DATA
360
306
  0
DICTIONARY
  5
308
330
30A
100
AcDbDictionary
280
     1
281
     1
  3
TC_OPTIONAL_DATA
360
309
  0
DICTIONARY
  5
30B
330
30D
100
AcDbDictionary
280
     1
281
     1
  3
TC_OPTIONAL_DATA
360
30C
  0
DICTIONARY
  5
30E
330
310
100
AcDbDictionary
280
     1
281
     1
  3
TC_OPTIONAL_DATA
360
30F
  0
DICTIONARY
  5
311
330
313
100
AcDbDictionary
280
     1
281
     1
  3
TC_OPTIONAL_DATA
360
312
  0
DICTIONARY
  5
314
330
316
100
AcDbDictionary
280
     1
281
     1
  3
TC_OPTIONAL_DATA
360
315
  0
DICTIONARY
  5
317
330
319
100
AcDbDictionary
280
     1
281
     1
  3
TC_OPTIONAL_DATA
360
318
  0
DICTIONARY
  5
31A
330
31C
100
AcDbDictionary
280
     1
281
     1
  3
TC_OPTIONAL_DATA
360
31B
  0
DICTIONARY
  5
31D
330
31F
100
AcDbDictionary
280
     1
281
     1
  3
TC_OPTIONAL_DATA
360
31E
  0
DICTIONARY
  5
320
330
322
100
AcDbDictionary
280
     1
281
     1
  3
TC_OPTIONAL_DATA
360
321
  0
DICTIONARY
  5
323
330
325
100
AcDbDictionary
280
     1
281
     1
  3
TC_OPTIONAL_DATA
360
324
  0
DICTIONARY
  5
326
330
328
100
AcDbDictionary
280
     1
281
     1
  3
TC_OPTIONAL_DATA
360
327
  0
DICTIONARY
  5
329
330
32B
100
AcDbDictionary
280
     1
281
     1
  3
TC_OPTIONAL_DATA
360
32A
  0
DICTIONARY
  5
32C
330
32E
100
AcDbDictionary
280
     1
281
     1
  3
TC_OPTIONAL_DATA
360
32D
  0
DICTIONARY
  5
32F
330
331
100
AcDbDictionary
280
     1
281
     1
  3
TC_OPTIONAL_DATA
360
330
  0
DICTIONARY
  5
332
330
334
100
AcDbDictionary
280
     1
281
     1
  3
TC_OPTIONAL_DATA
360
333
  0
DICTIONARY
  5
335
330
337
100
AcDbDictionary
280
     1
281
     1
  3
TC_OPTIONAL_DATA
360
336
  0
DICTIONARY
  5
338
330
33A
100
AcDbDictionary
280
     1
281
     1
  3
TC_OPTIONAL_DATA
360
339
  0
DICTIONARY
  5
33B
330
33D
100
AcDbDictionary
280
     1
281
     1
  3
TC_OPTIONAL_DATA
360
33C
  0
DICTIONARY
  5
33E
330
340
100
AcDbDictionary
280
     1
281
     1
  3
TC_OPTIONAL_DATA
360
33F
  0
DICTIONARY
  5
341
330
343
100
AcDbDictionary
280
     1
281
     1
  3
TC_OPTIONAL_DATA
360
342
  0
DICTIONARY
  5
344
330
346
100
AcDbDictionary
280
     1
281
     1
  3
TC_OPTIONAL_DATA
360
345
  0
DICTIONARY
  5
347
330
349
100
AcDbDictionary
280
     1
281
     1
  3
TC_OPTIONAL_DATA
360
348
  0
DICTIONARY
  5
34A
330
34C
100
AcDbDictionary
280
     1
281
     1
  3
TC_OPTIONAL_DATA
360
34B
  0
DICTIONARY
  5
34D
330
34F
100
AcDbDictionary
280
     1
281
     1
  3
TC_OPTIONAL_DATA
360
34E
  0
DICTIONARY
  5
350
330
352
100
AcDbDictionary
280
     1
281
     1
  3
TC_OPTIONAL_DATA
360
351
  0
DICTIONARY
  5
353
330
355
100
AcDbDictionary
280
     1
281
     1
  3
TC_OPTIONAL_DATA
360
354
  0
DICTIONARY
  5
356
330
358
100
AcDbDictionary
280
     1
281
     1
  3
TC_OPTIONAL_DATA
360
357
  0
DICTIONARY
  5
359
330
35B
100
AcDbDictionary
280
     1
281
     1
  3
TC_OPTIONAL_DATA
360
35A
  0
DICTIONARY
  5
35C
330
35E
100
AcDbDictionary
280
     1
281
     1
  3
TC_OPTIONAL_DATA
360
35D
  0
DICTIONARY
  5
35F
330
361
100
AcDbDictionary
280
     1
281
     1
  3
TC_OPTIONAL_DATA
360
360
  0
DICTIONARY
  5
362
330
364
100
AcDbDictionary
280
     1
281
     1
  3
TC_OPTIONAL_DATA
360
363
  0
DICTIONARY
  5
365
330
367
100
AcDbDictionary
280
     1
281
     1
  3
TC_OPTIONAL_DATA
360
366
  0
DICTIONARY
  5
368
330
36A
100
AcDbDictionary
280
     1
281
     1
  3
TC_OPTIONAL_DATA
360
369
  0
DICTIONARY
  5
36B
330
36D
100
AcDbDictionary
280
     1
281
     1
  3
TC_OPTIONAL_DATA
360
36C
  0
DICTIONARY
  5
36E
330
370
100
AcDbDictionary
280
     1
281
     1
  3
TC_OPTIONAL_DATA
360
36F
  0
DICTIONARY
  5
371
330
373
100
AcDbDictionary
280
     1
281
     1
  3
TC_OPTIONAL_DATA
360
372
  0
DICTIONARY
  5
374
330
376
100
AcDbDictionary
280
     1
281
     1
  3
TC_OPTIONAL_DATA
360
375
  0
DICTIONARY
  5
377
330
379
100
AcDbDictionary
280
     1
281
     1
  3
TC_OPTIONAL_DATA
360
378
  0
DICTIONARY
  5
37A
330
37C
100
AcDbDictionary
280
     1
281
     1
  3
TC_OPTIONAL_DATA
360
37B
  0
DICTIONARY
  5
37D
330
37F
100
AcDbDictionary
280
     1
281
     1
  3
TC_OPTIONAL_DATA
360
37E
  0
DICTIONARY
  5
380
330
382
100
AcDbDictionary
280
     1
281
     1
  3
TC_OPTIONAL_DATA
360
381
  0
DICTIONARY
  5
383
330
385
100
AcDbDictionary
280
     1
281
     1
  3
TC_OPTIONAL_DATA
360
384
  0
DICTIONARY
  5
386
330
388
100
AcDbDictionary
280
     1
281
     1
  3
TC_OPTIONAL_DATA
360
387
  0
DICTIONARY
  5
389
330
38B
100
AcDbDictionary
280
     1
281
     1
  3
TC_OPTIONAL_DATA
360
38A
  0
DICTIONARY
  5
38C
330
38E
100
AcDbDictionary
280
     1
281
     1
  3
TC_OPTIONAL_DATA
360
38D
  0
DICTIONARY
  5
38F
330
391
100
AcDbDictionary
280
     1
281
     1
  3
TC_OPTIONAL_DATA
360
390
  0
DICTIONARY
  5
392
330
394
100
AcDbDictionary
280
     1
281
     1
  3
TC_OPTIONAL_DATA
360
393
  0
DICTIONARY
  5
395
330
397
100
AcDbDictionary
280
     1
281
     1
  3
TC_OPTIONAL_DATA
360
396
  0
DICTIONARY
  5
398
330
39A
100
AcDbDictionary
280
     1
281
     1
  3
TC_OPTIONAL_DATA
360
399
  0
DICTIONARY
  5
39B
330
39D
100
AcDbDictionary
280
     1
281
     1
  3
TC_OPTIONAL_DATA
360
39C
  0
DICTIONARY
  5
39E
330
3A0
100
AcDbDictionary
280
     1
281
     1
  3
TC_OPTIONAL_DATA
360
39F
  0
DICTIONARY
  5
3A1
330
3A3
100
AcDbDictionary
280
     1
281
     1
  3
TC_OPTIONAL_DATA
360
3A2
  0
DICTIONARY
  5
3A4
330
3A6
100
AcDbDictionary
280
     1
281
     1
  3
TC_OPTIONAL_DATA
360
3A5
  0
DICTIONARY
  5
3A7
330
3A9
100
AcDbDictionary
280
     1
281
     1
  3
TC_OPTIONAL_DATA
360
3A8
  0
DICTIONARY
  5
3AA
330
3AC
100
AcDbDictionary
280
     1
281
     1
  3
TC_OPTIONAL_DATA
360
3AB
  0
DICTIONARY
  5
3AD
330
3AF
100
AcDbDictionary
280
     1
281
     1
  3
TC_OPTIONAL_DATA
360
3AE
  0
DICTIONARY
  5
3B0
330
3B2
100
AcDbDictionary
280
     1
281
     1
  3
TC_OPTIONAL_DATA
360
3B1
  0
DICTIONARY
  5
3B3
330
3B5
100
AcDbDictionary
280
     1
281
     1
  3
TC_OPTIONAL_DATA
360
3B4
  0
DICTIONARY
  5
3B6
330
3B8
100
AcDbDictionary
280
     1
281
     1
  3
TC_OPTIONAL_DATA
360
3B7
  0
DICTIONARY
  5
3B9
330
3BB
100
AcDbDictionary
280
     1
281
     1
  3
TC_OPTIONAL_DATA
360
3BA
  0
DICTIONARY
  5
3BC
330
3BE
100
AcDbDictionary
280
     1
281
     1
  3
TC_OPTIONAL_DATA
360
3BD
  0
DICTIONARY
  5
3BF
330
3C1
100
AcDbDictionary
280
     1
281
     1
  3
TC_OPTIONAL_DATA
360
3C0
  0
DICTIONARY
  5
3C2
330
3C4
100
AcDbDictionary
280
     1
281
     1
  3
TC_OPTIONAL_DATA
360
3C3
  0
DICTIONARY
  5
3C5
330
3C7
100
AcDbDictionary
280
     1
281
     1
  3
TC_OPTIONAL_DATA
360
3C6
  0
DICTIONARY
  5
3C8
330
3CA
100
AcDbDictionary
280
     1
281
     1
  3
TC_OPTIONAL_DATA
360
3C9
  0
DICTIONARY
  5
3CB
330
3CD
100
AcDbDictionary
280
     1
281
     1
  3
TC_OPTIONAL_DATA
360
3CC
  0
DICTIONARY
  5
3CE
330
3D0
100
AcDbDictionary
280
     1
281
     1
  3
TC_OPTIONAL_DATA
360
3CF
  0
DICTIONARY
  5
3D1
330
3D3
100
AcDbDictionary
280
     1
281
     1
  3
TC_OPTIONAL_DATA
360
3D2
  0
DICTIONARY
  5
3D4
330
3D6
100
AcDbDictionary
280
     1
281
     1
  3
TC_OPTIONAL_DATA
360
3D5
  0
DICTIONARY
  5
3D7
330
3D9
100
AcDbDictionary
280
     1
281
     1
  3
TC_OPTIONAL_DATA
360
3D8
  0
DICTIONARY
  5
3DA
330
3DC
100
AcDbDictionary
280
     1
281
     1
  3
TC_OPTIONAL_DATA
360
3DB
  0
DICTIONARY
  5
3DD
330
3DF
100
AcDbDictionary
280
     1
281
     1
  3
TC_OPTIONAL_DATA
360
3DE
  0
DICTIONARY
  5
3E0
330
3E2
100
AcDbDictionary
280
     1
281
     1
  3
TC_OPTIONAL_DATA
360
3E1
  0
DICTIONARY
  5
3E3
330
3E5
100
AcDbDictionary
280
     1
281
     1
  3
TC_OPTIONAL_DATA
360
3E4
  0
DICTIONARY
  5
3E6
330
3E8
100
AcDbDictionary
280
     1
281
     1
  3
TC_OPTIONAL_DATA
360
3E7
  0
DICTIONARY
  5
3E9
330
3EB
100
AcDbDictionary
280
     1
281
     1
  3
TC_OPTIONAL_DATA
360
3EA
  0
DICTIONARY
  5
3EC
330
3EE
100
AcDbDictionary
280
     1
281
     1
  3
TC_OPTIONAL_DATA
360
3ED
  0
DICTIONARY
  5
3EF
330
3F1
100
AcDbDictionary
280
     1
281
     1
  3
TC_OPTIONAL_DATA
360
3F0
  0
DICTIONARY
  5
3F2
330
3F4
100
AcDbDictionary
280
     1
281
     1
  3
TC_OPTIONAL_DATA
360
3F3
  0
DICTIONARY
  5
3F5
330
3F7
100
AcDbDictionary
280
     1
281
     1
  3
TC_OPTIONAL_DATA
360
3F6
  0
DICTIONARY
  5
3F8
330
3FA
100
AcDbDictionary
280
     1
281
     1
  3
TC_OPTIONAL_DATA
360
3F9
  0
DICTIONARY
  5
3FB
330
3FD
100
AcDbDictionary
280
     1
281
     1
  3
TC_OPTIONAL_DATA
360
3FC
  0
DICTIONARY
  5
3FE
330
400
100
AcDbDictionary
280
     1
281
     1
  3
TC_OPTIONAL_DATA
360
3FF
  0
DICTIONARY
  5
401
330
403
100
AcDbDictionary
280
     1
281
     1
  3
TC_OPTIONAL_DATA
360
402
  0
DICTIONARY
  5
404
330
406
100
AcDbDictionary
280
     1
281
     1
  3
TC_OPTIONAL_DATA
360
405
  0
DICTIONARY
  5
407
330
409
100
AcDbDictionary
280
     1
281
     1
  3
TC_OPTIONAL_DATA
360
408
  0
DICTIONARY
  5
40A
330
40C
100
AcDbDictionary
280
     1
281
     1
  3
TC_OPTIONAL_DATA
360
40B
  0
DICTIONARY
  5
40D
330
40F
100
AcDbDictionary
280
     1
281
     1
  3
TC_OPTIONAL_DATA
360
40E
  0
DICTIONARY
  5
410
330
412
100
AcDbDictionary
280
     1
281
     1
  3
TC_OPTIONAL_DATA
360
411
  0
DICTIONARY
  5
413
330
415
100
AcDbDictionary
280
     1
281
     1
  3
TC_OPTIONAL_DATA
360
414
  0
DICTIONARY
  5
416
330
418
100
AcDbDictionary
280
     1
281
     1
  3
TC_OPTIONAL_DATA
360
417
  0
DICTIONARY
  5
419
330
41B
100
AcDbDictionary
280
     1
281
     1
  3
TC_OPTIONAL_DATA
360
41A
  0
DICTIONARY
  5
41C
330
41E
100
AcDbDictionary
280
     1
281
     1
  3
TC_OPTIONAL_DATA
360
41D
  0
DICTIONARY
  5
41F
330
421
100
AcDbDictionary
280
     1
281
     1
  3
TC_OPTIONAL_DATA
360
420
  0
DICTIONARY
  5
422
330
424
100
AcDbDictionary
280
     1
281
     1
  3
TC_OPTIONAL_DATA
360
423
  0
DICTIONARY
  5
425
330
427
100
AcDbDictionary
280
     1
281
     1
  3
TC_OPTIONAL_DATA
360
426
  0
DICTIONARY
  5
428
330
42A
100
AcDbDictionary
280
     1
281
     1
  3
TC_OPTIONAL_DATA
360
429
  0
DICTIONARY
  5
42B
330
42D
100
AcDbDictionary
280
     1
281
     1
  3
TC_OPTIONAL_DATA
360
42C
  0
DICTIONARY
  5
42E
330
430
100
AcDbDictionary
280
     1
281
     1
  3
TC_OPTIONAL_DATA
360
42F
  0
DICTIONARY
  5
431
330
433
100
AcDbDictionary
280
     1
281
     1
  3
TC_OPTIONAL_DATA
360
432
  0
DICTIONARY
  5
434
330
436
100
AcDbDictionary
280
     1
281
     1
  3
TC_OPTIONAL_DATA
360
435
  0
DICTIONARY
  5
437
330
439
100
AcDbDictionary
280
     1
281
     1
  3
TC_OPTIONAL_DATA
360
438
  0
DICTIONARY
  5
43A
330
43C
100
AcDbDictionary
280
     1
281
     1
  3
TC_OPTIONAL_DATA
360
43B
  0
DICTIONARY
  5
43D
330
43F
100
AcDbDictionary
280
     1
281
     1
  3
TC_OPTIONAL_DATA
360
43E
  0
DICTIONARY
  5
440
330
442
100
AcDbDictionary
280
     1
281
     1
  3
TC_OPTIONAL_DATA
360
441
  0
DICTIONARY
  5
443
330
445
100
AcDbDictionary
280
     1
281
     1
  3
TC_OPTIONAL_DATA
360
444
  0
DICTIONARY
  5
446
330
448
100
AcDbDictionary
280
     1
281
     1
  3
TC_OPTIONAL_DATA
360
447
  0
DICTIONARY
  5
449
330
44B
100
AcDbDictionary
280
     1
281
     1
  3
TC_OPTIONAL_DATA
360
44A
  0
DICTIONARY
  5
44C
330
44E
100
AcDbDictionary
280
     1
281
     1
  3
TC_OPTIONAL_DATA
360
44D
  0
DICTIONARY
  5
44F
330
451
100
AcDbDictionary
280
     1
281
     1
  3
TC_OPTIONAL_DATA
360
450
  0
DICTIONARY
  5
452
330
454
100
AcDbDictionary
280
     1
281
     1
  3
TC_OPTIONAL_DATA
360
453
  0
DICTIONARY
  5
455
330
457
100
AcDbDictionary
280
     1
281
     1
  3
TC_OPTIONAL_DATA
360
456
  0
DICTIONARY
  5
458
330
45A
100
AcDbDictionary
280
     1
281
     1
  3
TC_OPTIONAL_DATA
360
459
  0
DICTIONARY
  5
D
102
{ACAD_REACTORS
330
C
102
}
330
C
100
AcDbDictionary
281
     1
  0
DICTIONARY
  5
1A
102
{ACAD_REACTORS
330
C
102
}
330
C
100
AcDbDictionary
281
     1
  3
Layout1
350
3C
  3
Layout2
350
1E
  3
Model
350
22
  0
DICTIONARY
  5
17
102
{ACAD_REACTORS
330
C
102
}
330
C
100
AcDbDictionary
281
     1
  3
Standard
350
18
  0
DICTIONARY
  5
19
102
{ACAD_REACTORS
330
C
102
}
330
C
100
AcDbDictionary
281
     1
  0
ACDBDICTIONARYWDFLT
  5
E
102
{ACAD_REACTORS
330
C
102
}
330
C
100
AcDbDictionary
281
     1
  3
Normal
350
F
100
AcDbDictionaryWithDefault
340
F
  0
DICTIONARY
  5
45E
102
{ACAD_REACTORS
330
C
102
}
330
C
100
AcDbDictionary
281
     1
  0
DICTIONARY
  5
2A
102
{ACAD_REACTORS
330
C
102
}
330
C
100
AcDbDictionary
281
     1
  3
2dWireframe
350
2F
  3
3D Hidden
350
31
  3
3dWireframe
350
30
  3
Basic
350
32
  3
Brighten
350
36
  3
ColorChange
350
3A
  3
Conceptual
350
34
  3
Dim
350
35
  3
Facepattern
350
39
  3
Flat
350
2B
  3
FlatWithEdges
350
2C
  3
Gouraud
350
2D
  3
GouraudWithEdges
350
2E
  3
Linepattern
350
38
  3
Realistic
350
33
  3
Thicken
350
37
  0
TCOPTIONALDATA
  5
55
102
{ACAD_REACTORS
330
54
102
}
330
54
100
TcOptionalData
 70
     1
 70
    32
 40
-3.0
  0
TCOPTIONALDATA
  5
58
102
{ACAD_REACTORS
330
57
102
}
330
57
100
TcOptionalData
 70
     1
 70
    32
 40
-3.0
  0
TCOPTIONALDATA
  5
5B
102
{ACAD_REACTORS
330
5A
102
}
330
5A
100
TcOptionalData
 70
     1
 70
    32
 40
-3.0
  0
TCOPTIONALDATA
  5
5E
102
{ACAD_REACTORS
330
5D
102
}
330
5D
100
TcOptionalData
 70
     1
 70
    32
 40
-3.0
  0
TCOPTIONALDATA
  5
61
102
{ACAD_REACTORS
330
60
102
}
330
60
100
TcOptionalData
 70
     1
 70
    32
 40
-3.0
  0
TCOPTIONALDATA
  5
64
102
{ACAD_REACTORS
330
63
102
}
330
63
100
TcOptionalData
 70
     1
 70
    32
 40
-3.0
  0
TCOPTIONALDATA
  5
67
102
{ACAD_REACTORS
330
66
102
}
330
66
100
TcOptionalData
 70
     1
 70
    32
 40
-3.0
  0
TCOPTIONALDATA
  5
6A
102
{ACAD_REACTORS
330
69
102
}
330
69
100
TcOptionalData
 70
     1
 70
    32
 40
-3.0
  0
TCOPTIONALDATA
  5
6D
102
{ACAD_REACTORS
330
6C
102
}
330
6C
100
TcOptionalData
 70
     1
 70
    32
 40
-3.0
  0
TCOPTIONALDATA
  5
70
102
{ACAD_REACTORS
330
6F
102
}
330
6F
100
TcOptionalData
 70
     1
 70
    32
 40
-3.0
  0
TCOPTIONALDATA
  5
73
102
{ACAD_REACTORS
330
72
102
}
330
72
100
TcOptionalData
 70
     1
 70
    32
 40
-3.0
  0
TCOPTIONALDATA
  5
76
102
{ACAD_REACTORS
330
75
102
}
330
75
100
TcOptionalData
 70
     1
 70
    32
 40
-3.0
  0
TCOPTIONALDATA
  5
79
102
{ACAD_REACTORS
330
78
102
}
330
78
100
TcOptionalData
 70
     1
 70
    32
 40
-3.0
  0
TCOPTIONALDATA
  5
7C
102
{ACAD_REACTORS
330
7B
102
}
330
7B
100
TcOptionalData
 70
     1
 70
    32
 40
-3.0
  0
TCOPTIONALDATA
  5
7F
102
{ACAD_REACTORS
330
7E
102
}
330
7E
100
TcOptionalData
 70
     1
 70
    32
 40
-3.0
  0
TCOPTIONALDATA
  5
82
102
{ACAD_REACTORS
330
81
102
}
330
81
100
TcOptionalData
 70
     1
 70
    32
 40
-3.0
  0
TCOPTIONALDATA
  5
85
102
{ACAD_REACTORS
330
84
102
}
330
84
100
TcOptionalData
 70
     1
 70
    32
 40
-3.0
  0
TCOPTIONALDATA
  5
88
102
{ACAD_REACTORS
330
87
102
}
330
87
100
TcOptionalData
 70
     1
 70
    32
 40
-3.0
  0
TCOPTIONALDATA
  5
8B
102
{ACAD_REACTORS
330
8A
102
}
330
8A
100
TcOptionalData
 70
     1
 70
    32
 40
-3.0
  0
TCOPTIONALDATA
  5
8E
102
{ACAD_REACTORS
330
8D
102
}
330
8D
100
TcOptionalData
 70
     1
 70
    32
 40
-3.0
  0
TCOPTIONALDATA
  5
91
102
{ACAD_REACTORS
330
90
102
}
330
90
100
TcOptionalData
 70
     1
 70
    32
 40
-3.0
  0
TCOPTIONALDATA
  5
94
102
{ACAD_REACTORS
330
93
102
}
330
93
100
TcOptionalData
 70
     1
 70
    32
 40
-3.0
  0
TCOPTIONALDATA
  5
97
102
{ACAD_REACTORS
330
96
102
}
330
96
100
TcOptionalData
 70
     1
 70
    32
 40
-3.0
  0
TCOPTIONALDATA
  5
9A
102
{ACAD_REACTORS
330
99
102
}
330
99
100
TcOptionalData
 70
     1
 70
    32
 40
-3.0
  0
TCOPTIONALDATA
  5
9D
102
{ACAD_REACTORS
330
9C
102
}
330
9C
100
TcOptionalData
 70
     1
 70
    32
 40
-3.0
  0
TCOPTIONALDATA
  5
A0
102
{ACAD_REACTORS
330
9F
102
}
330
9F
100
TcOptionalData
 70
     1
 70
    32
 40
-3.0
  0
TCOPTIONALDATA
  5
A3
102
{ACAD_REACTORS
330
A2
102
}
330
A2
100
TcOptionalData
 70
     1
 70
    32
 40
-3.0
  0
TCOPTIONALDATA
  5
A6
102
{ACAD_REACTORS
330
A5
102
}
330
A5
100
TcOptionalData
 70
     1
 70
    32
 40
-3.0
  0
TCOPTIONALDATA
  5
A9
102
{ACAD_REACTORS
330
A8
102
}
330
A8
100
TcOptionalData
 70
     1
 70
    32
 40
-3.0
  0
TCOPTIONALDATA
  5
AC
102
{ACAD_REACTORS
330
AB
102
}
330
AB
100
TcOptionalData
 70
     1
 70
    32
 40
-3.0
  0
TCOPTIONALDATA
  5
AF
102
{ACAD_REACTORS
330
AE
102
}
330
AE
100
TcOptionalData
 70
     1
 70
    32
 40
-3.0
  0
TCOPTIONALDATA
  5
B2
102
{ACAD_REACTORS
330
B1
102
}
330
B1
100
TcOptionalData
 70
     1
 70
    32
 40
-3.0
  0
TCOPTIONALDATA
  5
B5
102
{ACAD_REACTORS
330
B4
102
}
330
B4
100
TcOptionalData
 70
     1
 70
    32
 40
-3.0
  0
TCOPTIONALDATA
  5
B8
102
{ACAD_REACTORS
330
B7
102
}
330
B7
100
TcOptionalData
 70
     1
 70
    32
 40
-3.0
  0
TCOPTIONALDATA
  5
BB
102
{ACAD_REACTORS
330
BA
102
}
330
BA
100
TcOptionalData
 70
     1
 70
    32
 40
-3.0
  0
TCOPTIONALDATA
  5
BE
102
{ACAD_REACTORS
330
BD
102
}
330
BD
100
TcOptionalData
 70
     1
 70
    32
 40
-3.0
  0
TCOPTIONALDATA
  5
C1
102
{ACAD_REACTORS
330
C0
102
}
330
C0
100
TcOptionalData
 70
     1
 70
    32
 40
-3.0
  0
TCOPTIONALDATA
  5
C4
102
{ACAD_REACTORS
330
C3
102
}
330
C3
100
TcOptionalData
 70
     1
 70
    32
 40
-3.0
  0
TCOPTIONALDATA
  5
C7
102
{ACAD_REACTORS
330
C6
102
}
330
C6
100
TcOptionalData
 70
     1
 70
    32
 40
-3.0
  0
TCOPTIONALDATA
  5
CA
102
{ACAD_REACTORS
330
C9
102
}
330
C9
100
TcOptionalData
 70
     1
 70
    32
 40
-3.0
  0
TCOPTIONALDATA
  5
CD
102
{ACAD_REACTORS
330
CC
102
}
330
CC
100
TcOptionalData
 70
     1
 70
    32
 40
-3.0
  0
TCOPTIONALDATA
  5
D0
102
{ACAD_REACTORS
330
CF
102
}
330
CF
100
TcOptionalData
 70
     1
 70
    32
 40
-3.0
  0
TCOPTIONALDATA
  5
D3
102
{ACAD_REACTORS
330
D2
102
}
330
D2
100
TcOptionalData
 70
     1
 70
    32
 40
-3.0
  0
TCOPTIONALDATA
  5
D6
102
{ACAD_REACTORS
330
D5
102
}
330
D5
100
TcOptionalData
 70
     1
 70
    32
 40
-3.0
  0
TCOPTIONALDATA
  5
D9
102
{ACAD_REACTORS
330
D8
102
}
330
D8
100
TcOptionalData
 70
     1
 70
    32
 40
-3.0
  0
TCOPTIONALDATA
  5
DC
102
{ACAD_REACTORS
330
DB
102
}
330
DB
100
TcOptionalData
 70
     1
 70
    32
 40
-3.0
  0
TCOPTIONALDATA
  5
DF
102
{ACAD_REACTORS
330
DE
102
}
330
DE
100
TcOptionalData
 70
     1
 70
    32
 40
-3.0
  0
TCOPTIONALDATA
  5
E2
102
{ACAD_REACTORS
330
E1
102
}
330
E1
100
TcOptionalData
 70
     1
 70
    32
 40
-3.0
  0
TCOPTIONALDATA
  5
E5
102
{ACAD_REACTORS
330
E4
102
}
330
E4
100
TcOptionalData
 70
     1
 70
    32
 40
-3.0
  0
TCOPTIONALDATA
  5
E8
102
{ACAD_REACTORS
330
E7
102
}
330
E7
100
TcOptionalData
 70
     1
 70
    32
 40
-3.0
  0
TCOPTIONALDATA
  5
EB
102
{ACAD_REACTORS
330
EA
102
}
330
EA
100
TcOptionalData
 70
     1
 70
    32
 40
-3.0
  0
TCOPTIONALDATA
  5
EE
102
{ACAD_REACTORS
330
ED
102
}
330
ED
100
TcOptionalData
 70
     1
 70
    32
 40
-3.0
  0
TCOPTIONALDATA
  5
F1
102
{ACAD_REACTORS
330
F0
102
}
330
F0
100
TcOptionalData
 70
     1
 70
    32
 40
-3.0
  0
TCOPTIONALDATA
  5
F4
102
{ACAD_REACTORS
330
F3
102
}
330
F3
100
TcOptionalData
 70
     1
 70
    32
 40
-3.0
  0
TCOPTIONALDATA
  5
F7
102
{ACAD_REACTORS
330
F6
102
}
330
F6
100
TcOptionalData
 70
     1
 70
    32
 40
-3.0
  0
TCOPTIONALDATA
  5
FA
102
{ACAD_REACTORS
330
F9
102
}
330
F9
100
TcOptionalData
 70
     1
 70
    32
 40
-3.0
  0
TCOPTIONALDATA
  5
FD
102
{ACAD_REACTORS
330
FC
102
}
330
FC
100
TcOptionalData
 70
     1
 70
    32
 40
-3.0
  0
TCOPTIONALDATA
  5
100
102
{ACAD_REACTORS
330
FF
102
}
330
FF
100
TcOptionalData
 70
     1
 70
    32
 40
-3.0
  0
TCOPTIONALDATA
  5
103
102
{ACAD_REACTORS
330
102
102
}
330
102
100
TcOptionalData
 70
     1
 70
    32
 40
-3.0
  0
TCOPTIONALDATA
  5
106
102
{ACAD_REACTORS
330
105
102
}
330
105
100
TcOptionalData
 70
     1
 70
    32
 40
-3.0
  0
TCOPTIONALDATA
  5
109
102
{ACAD_REACTORS
330
108
102
}
330
108
100
TcOptionalData
 70
     1
 70
    32
 40
-3.0
  0
TCOPTIONALDATA
  5
10C
102
{ACAD_REACTORS
330
10B
102
}
330
10B
100
TcOptionalData
 70
     1
 70
    32
 40
-3.0
  0
TCOPTIONALDATA
  5
10F
102
{ACAD_REACTORS
330
10E
102
}
330
10E
100
TcOptionalData
 70
     1
 70
    32
 40
-3.0
  0
TCOPTIONALDATA
  5
112
102
{ACAD_REACTORS
330
111
102
}
330
111
100
TcOptionalData
 70
     1
 70
    32
 40
-3.0
  0
TCOPTIONALDATA
  5
115
102
{ACAD_REACTORS
330
114
102
}
330
114
100
TcOptionalData
 70
     1
 70
    32
 40
-3.0
  0
TCOPTIONALDATA
  5
118
102
{ACAD_REACTORS
330
117
102
}
330
117
100
TcOptionalData
 70
     1
 70
    32
 40
-3.0
  0
TCOPTIONALDATA
  5
11B
102
{ACAD_REACTORS
330
11A
102
}
330
11A
100
TcOptionalData
 70
     1
 70
    32
 40
-3.0
  0
TCOPTIONALDATA
  5
11E
102
{ACAD_REACTORS
330
11D
102
}
330
11D
100
TcOptionalData
 70
     1
 70
    32
 40
-3.0
  0
TCOPTIONALDATA
  5
121
102
{ACAD_REACTORS
330
120
102
}
330
120
100
TcOptionalData
 70
     1
 70
    32
 40
-3.0
  0
TCOPTIONALDATA
  5
124
102
{ACAD_REACTORS
330
123
102
}
330
123
100
TcOptionalData
 70
     1
 70
    32
 40
-3.0
  0
TCOPTIONALDATA
  5
127
102
{ACAD_REACTORS
330
126
102
}
330
126
100
TcOptionalData
 70
     1
 70
    32
 40
-3.0
  0
TCOPTIONALDATA
  5
12A
102
{ACAD_REACTORS
330
129
102
}
330
129
100
TcOptionalData
 70
     1
 70
    32
 40
-3.0
  0
TCOPTIONALDATA
  5
12D
102
{ACAD_REACTORS
330
12C
102
}
330
12C
100
TcOptionalData
 70
     1
 70
    32
 40
-3.0
  0
TCOPTIONALDATA
  5
130
102
{ACAD_REACTORS
330
12F
102
}
330
12F
100
TcOptionalData
 70
     1
 70
    32
 40
-3.0
  0
TCOPTIONALDATA
  5
133
102
{ACAD_REACTORS
330
132
102
}
330
132
100
TcOptionalData
 70
     1
 70
    32
 40
-3.0
  0
TCOPTIONALDATA
  5
136
102
{ACAD_REACTORS
330
135
102
}
330
135
100
TcOptionalData
 70
     1
 70
    32
 40
-3.0
  0
TCOPTIONALDATA
  5
139
102
{ACAD_REACTORS
330
138
102
}
330
138
100
TcOptionalData
 70
     1
 70
    32
 40
-3.0
  0
TCOPTIONALDATA
  5
13C
102
{ACAD_REACTORS
330
13B
102
}
330
13B
100
TcOptionalData
 70
     1
 70
    32
 40
-3.0
  0
TCOPTIONALDATA
  5
13F
102
{ACAD_REACTORS
330
13E
102
}
330
13E
100
TcOptionalData
 70
     1
 70
    32
 40
-3.0
  0
TCOPTIONALDATA
  5
142
102
{ACAD_REACTORS
330
141
102
}
330
141
100
TcOptionalData
 70
     1
 70
    32
 40
-3.0
  0
TCOPTIONALDATA
  5
145
102
{ACAD_REACTORS
330
144
102
}
330
144
100
TcOptionalData
 70
     1
 70
    32
 40
-3.0
  0
TCOPTIONALDATA
  5
148
102
{ACAD_REACTORS
330
147
102
}
330
147
100
TcOptionalData
 70
     1
 70
    32
 40
-3.0
  0
TCOPTIONALDATA
  5
14B
102
{ACAD_REACTORS
330
14A
102
}
330
14A
100
TcOptionalData
 70
     1
 70
    32
 40
-3.0
  0
TCOPTIONALDATA
  5
14E
102
{ACAD_REACTORS
330
14D
102
}
330
14D
100
TcOptionalData
 70
     1
 70
    32
 40
-3.0
  0
TCOPTIONALDATA
  5
151
102
{ACAD_REACTORS
330
150
102
}
330
150
100
TcOptionalData
 70
     1
 70
    32
 40
-3.0
  0
TCOPTIONALDATA
  5
154
102
{ACAD_REACTORS
330
153
102
}
330
153
100
TcOptionalData
 70
     1
 70
    32
 40
-3.0
  0
TCOPTIONALDATA
  5
157
102
{ACAD_REACTORS
330
156
102
}
330
156
100
TcOptionalData
 70
     1
 70
    32
 40
-3.0
  0
TCOPTIONALDATA
  5
15A
102
{ACAD_REACTORS
330
159
102
}
330
159
100
TcOptionalData
 70
     1
 70
    32
 40
-3.0
  0
TCOPTIONALDATA
  5
15D
102
{ACAD_REACTORS
330
15C
102
}
330
15C
100
TcOptionalData
 70
     1
 70
    32
 40
-3.0
  0
TCOPTIONALDATA
  5
160
102
{ACAD_REACTORS
330
15F
102
}
330
15F
100
TcOptionalData
 70
     1
 70
    32
 40
-3.0
  0
TCOPTIONALDATA
  5
163
102
{ACAD_REACTORS
330
162
102
}
330
162
100
TcOptionalData
 70
     1
 70
    32
 40
-3.0
  0
TCOPTIONALDATA
  5
166
102
{ACAD_REACTORS
330
165
102
}
330
165
100
TcOptionalData
 70
     1
 70
    32
 40
-3.0
  0
TCOPTIONALDATA
  5
169
102
{ACAD_REACTORS
330
168
102
}
330
168
100
TcOptionalData
 70
     1
 70
    32
 40
-3.0
  0
TCOPTIONALDATA
  5
16C
102
{ACAD_REACTORS
330
16B
102
}
330
16B
100
TcOptionalData
 70
     1
 70
    32
 40
-3.0
  0
TCOPTIONALDATA
  5
16F
102
{ACAD_REACTORS
330
16E
102
}
330
16E
100
TcOptionalData
 70
     1
 70
    32
 40
-3.0
  0
TCOPTIONALDATA
  5
172
102
{ACAD_REACTORS
330
171
102
}
330
171
100
TcOptionalData
 70
     1
 70
    32
 40
-3.0
  0
TCOPTIONALDATA
  5
175
102
{ACAD_REACTORS
330
174
102
}
330
174
100
TcOptionalData
 70
     1
 70
    32
 40
-3.0
  0
TCOPTIONALDATA
  5
178
102
{ACAD_REACTORS
330
177
102
}
330
177
100
TcOptionalData
 70
     1
 70
    32
 40
-3.0
  0
TCOPTIONALDATA
  5
17B
102
{ACAD_REACTORS
330
17A
102
}
330
17A
100
TcOptionalData
 70
     1
 70
    32
 40
-3.0
  0
TCOPTIONALDATA
  5
17E
102
{ACAD_REACTORS
330
17D
102
}
330
17D
100
TcOptionalData
 70
     1
 70
    32
 40
-3.0
  0
TCOPTIONALDATA
  5
181
102
{ACAD_REACTORS
330
180
102
}
330
180
100
TcOptionalData
 70
     1
 70
    32
 40
-3.0
  0
TCOPTIONALDATA
  5
185
102
{ACAD_REACTORS
330
184
102
}
330
184
100
TcOptionalData
 70
     1
 70
    32
 40
-3.0
  0
TCOPTIONALDATA
  5
188
102
{ACAD_REACTORS
330
187
102
}
330
187
100
TcOptionalData
 70
     1
 70
    32
 40
-3.0
  0
TCOPTIONALDATA
  5
18C
102
{ACAD_REACTORS
330
18B
102
}
330
18B
100
TcOptionalData
 70
     1
 70
    32
 40
-3.0
  0
TCOPTIONALDATA
  5
18F
102
{ACAD_REACTORS
330
18E
102
}
330
18E
100
TcOptionalData
 70
     1
 70
    32
 40
-3.0
  0
TCOPTIONALDATA
  5
192
102
{ACAD_REACTORS
330
191
102
}
330
191
100
TcOptionalData
 70
     1
 70
    32
 40
-3.0
  0
TCOPTIONALDATA
  5
195
102
{ACAD_REACTORS
330
194
102
}
330
194
100
TcOptionalData
 70
     1
 70
    32
 40
-3.0
  0
TCOPTIONALDATA
  5
198
102
{ACAD_REACTORS
330
197
102
}
330
197
100
TcOptionalData
 70
     1
 70
    32
 40
-3.0
  0
TCOPTIONALDATA
  5
19B
102
{ACAD_REACTORS
330
19A
102
}
330
19A
100
TcOptionalData
 70
     1
 70
    32
 40
-3.0
  0
TCOPTIONALDATA
  5
19E
102
{ACAD_REACTORS
330
19D
102
}
330
19D
100
TcOptionalData
 70
     1
 70
    32
 40
-3.0
  0
TCOPTIONALDATA
  5
1A1
102
{ACAD_REACTORS
330
1A0
102
}
330
1A0
100
TcOptionalData
 70
     1
 70
    32
 40
-3.0
  0
TCOPTIONALDATA
  5
1A4
102
{ACAD_REACTORS
330
1A3
102
}
330
1A3
100
TcOptionalData
 70
     1
 70
    32
 40
-3.0
  0
TCOPTIONALDATA
  5
1A7
102
{ACAD_REACTORS
330
1A6
102
}
330
1A6
100
TcOptionalData
 70
     1
 70
    32
 40
-3.0
  0
TCOPTIONALDATA
  5
1AA
102
{ACAD_REACTORS
330
1A9
102
}
330
1A9
100
TcOptionalData
 70
     1
 70
    32
 40
-3.0
  0
TCOPTIONALDATA
  5
1AD
102
{ACAD_REACTORS
330
1AC
102
}
330
1AC
100
TcOptionalData
 70
     1
 70
    32
 40
-3.0
  0
TCOPTIONALDATA
  5
1B0
102
{ACAD_REACTORS
330
1AF
102
}
330
1AF
100
TcOptionalData
 70
     1
 70
    32
 40
-3.0
  0
TCOPTIONALDATA
  5
1B3
102
{ACAD_REACTORS
330
1B2
102
}
330
1B2
100
TcOptionalData
 70
     1
 70
    32
 40
-3.0
  0
TCOPTIONALDATA
  5
1B6
102
{ACAD_REACTORS
330
1B5
102
}
330
1B5
100
TcOptionalData
 70
     1
 70
    32
 40
-3.0
  0
TCOPTIONALDATA
  5
1B9
102
{ACAD_REACTORS
330
1B8
102
}
330
1B8
100
TcOptionalData
 70
     1
 70
    32
 40
-3.0
  0
TCOPTIONALDATA
  5
1BC
102
{ACAD_REACTORS
330
1BB
102
}
330
1BB
100
TcOptionalData
 70
     1
 70
    32
 40
-3.0
  0
TCOPTIONALDATA
  5
1BF
102
{ACAD_REACTORS
330
1BE
102
}
330
1BE
100
TcOptionalData
 70
     1
 70
    32
 40
-3.0
  0
TCOPTIONALDATA
  5
1C2
102
{ACAD_REACTORS
330
1C1
102
}
330
1C1
100
TcOptionalData
 70
     1
 70
    32
 40
-3.0
  0
TCOPTIONALDATA
  5
1C5
102
{ACAD_REACTORS
330
1C4
102
}
330
1C4
100
TcOptionalData
 70
     1
 70
    32
 40
-3.0
  0
TCOPTIONALDATA
  5
1C8
102
{ACAD_REACTORS
330
1C7
102
}
330
1C7
100
TcOptionalData
 70
     1
 70
    32
 40
-3.0
  0
TCOPTIONALDATA
  5
1CB
102
{ACAD_REACTORS
330
1CA
102
}
330
1CA
100
TcOptionalData
 70
     1
 70
    32
 40
-3.0
  0
TCOPTIONALDATA
  5
1CE
102
{ACAD_REACTORS
330
1CD
102
}
330
1CD
100
TcOptionalData
 70
     1
 70
    32
 40
-3.0
  0
TCOPTIONALDATA
  5
1D1
102
{ACAD_REACTORS
330
1D0
102
}
330
1D0
100
TcOptionalData
 70
     1
 70
    32
 40
-3.0
  0
TCOPTIONALDATA
  5
1D4
102
{ACAD_REACTORS
330
1D3
102
}
330
1D3
100
TcOptionalData
 70
     1
 70
    32
 40
-3.0
  0
TCOPTIONALDATA
  5
1D7
102
{ACAD_REACTORS
330
1D6
102
}
330
1D6
100
TcOptionalData
 70
     1
 70
    32
 40
-3.0
  0
TCOPTIONALDATA
  5
1DA
102
{ACAD_REACTORS
330
1D9
102
}
330
1D9
100
TcOptionalData
 70
     1
 70
    32
 40
-3.0
  0
TCOPTIONALDATA
  5
1DD
102
{ACAD_REACTORS
330
1DC
102
}
330
1DC
100
TcOptionalData
 70
     1
 70
    32
 40
-3.0
  0
TCOPTIONALDATA
  5
1E0
102
{ACAD_REACTORS
330
1DF
102
}
330
1DF
100
TcOptionalData
 70
     1
 70
    32
 40
-3.0
  0
TCOPTIONALDATA
  5
1E3
102
{ACAD_REACTORS
330
1E2
102
}
330
1E2
100
TcOptionalData
 70
     1
 70
    32
 40
-3.0
  0
TCOPTIONALDATA
  5
1E6
102
{ACAD_REACTORS
330
1E5
102
}
330
1E5
100
TcOptionalData
 70
     1
 70
    32
 40
-3.0
  0
TCOPTIONALDATA
  5
1E9
102
{ACAD_REACTORS
330
1E8
102
}
330
1E8
100
TcOptionalData
 70
     1
 70
    32
 40
-3.0
  0
TCOPTIONALDATA
  5
1EC
102
{ACAD_REACTORS
330
1EB
102
}
330
1EB
100
TcOptionalData
 70
     1
 70
    32
 40
-3.0
  0
TCOPTIONALDATA
  5
1EF
102
{ACAD_REACTORS
330
1EE
102
}
330
1EE
100
TcOptionalData
 70
     1
 70
    32
 40
-3.0
  0
TCOPTIONALDATA
  5
1F2
102
{ACAD_REACTORS
330
1F1
102
}
330
1F1
100
TcOptionalData
 70
     1
 70
    32
 40
-3.0
  0
TCOPTIONALDATA
  5
1F5
102
{ACAD_REACTORS
330
1F4
102
}
330
1F4
100
TcOptionalData
 70
     1
 70
    32
 40
-3.0
  0
TCOPTIONALDATA
  5
1F8
102
{ACAD_REACTORS
330
1F7
102
}
330
1F7
100
TcOptionalData
 70
     1
 70
    32
 40
-3.0
  0
TCOPTIONALDATA
  5
1FB
102
{ACAD_REACTORS
330
1FA
102
}
330
1FA
100
TcOptionalData
 70
     1
 70
    32
 40
-3.0
  0
TCOPTIONALDATA
  5
1FE
102
{ACAD_REACTORS
330
1FD
102
}
330
1FD
100
TcOptionalData
 70
     1
 70
    32
 40
-3.0
  0
TCOPTIONALDATA
  5
201
102
{ACAD_REACTORS
330
200
102
}
330
200
100
TcOptionalData
 70
     1
 70
    32
 40
-3.0
  0
TCOPTIONALDATA
  5
204
102
{ACAD_REACTORS
330
203
102
}
330
203
100
TcOptionalData
 70
     1
 70
    32
 40
-3.0
  0
TCOPTIONALDATA
  5
207
102
{ACAD_REACTORS
330
206
102
}
330
206
100
TcOptionalData
 70
     1
 70
    32
 40
-3.0
  0
TCOPTIONALDATA
  5
20A
102
{ACAD_REACTORS
330
209
102
}
330
209
100
TcOptionalData
 70
     1
 70
    32
 40
-3.0
  0
TCOPTIONALDATA
  5
20D
102
{ACAD_REACTORS
330
20C
102
}
330
20C
100
TcOptionalData
 70
     1
 70
    32
 40
-3.0
  0
TCOPTIONALDATA
  5
210
102
{ACAD_REACTORS
330
20F
102
}
330
20F
100
TcOptionalData
 70
     1
 70
    32
 40
-3.0
  0
TCOPTIONALDATA
  5
213
102
{ACAD_REACTORS
330
212
102
}
330
212
100
TcOptionalData
 70
     1
 70
    32
 40
-3.0
  0
TCOPTIONALDATA
  5
216
102
{ACAD_REACTORS
330
215
102
}
330
215
100
TcOptionalData
 70
     1
 70
    32
 40
-3.0
  0
TCOPTIONALDATA
  5
219
102
{ACAD_REACTORS
330
218
102
}
330
218
100
TcOptionalData
 70
     1
 70
    32
 40
-3.0
  0
TCOPTIONALDATA
  5
21C
102
{ACAD_REACTORS
330
21B
102
}
330
21B
100
TcOptionalData
 70
     1
 70
    32
 40
-3.0
  0
TCOPTIONALDATA
  5
21F
102
{ACAD_REACTORS
330
21E
102
}
330
21E
100
TcOptionalData
 70
     1
 70
    32
 40
-3.0
  0
TCOPTIONALDATA
  5
222
102
{ACAD_REACTORS
330
221
102
}
330
221
100
TcOptionalData
 70
     1
 70
    32
 40
-3.0
  0
TCOPTIONALDATA
  5
225
102
{ACAD_REACTORS
330
224
102
}
330
224
100
TcOptionalData
 70
     1
 70
    32
 40
-3.0
  0
TCOPTIONALDATA
  5
228
102
{ACAD_REACTORS
330
227
102
}
330
227
100
TcOptionalData
 70
     1
 70
    32
 40
-3.0
  0
TCOPTIONALDATA
  5
22B
102
{ACAD_REACTORS
330
22A
102
}
330
22A
100
TcOptionalData
 70
     1
 70
    32
 40
-3.0
  0
TCOPTIONALDATA
  5
22E
102
{ACAD_REACTORS
330
22D
102
}
330
22D
100
TcOptionalData
 70
     1
 70
    32
 40
-3.0
  0
TCOPTIONALDATA
  5
231
102
{ACAD_REACTORS
330
230
102
}
330
230
100
TcOptionalData
 70
     1
 70
    32
 40
-3.0
  0
TCOPTIONALDATA
  5
234
102
{ACAD_REACTORS
330
233
102
}
330
233
100
TcOptionalData
 70
     1
 70
    32
 40
-3.0
  0
TCOPTIONALDATA
  5
237
102
{ACAD_REACTORS
330
236
102
}
330
236
100
TcOptionalData
 70
     1
 70
    32
 40
-3.0
  0
TCOPTIONALDATA
  5
23A
102
{ACAD_REACTORS
330
239
102
}
330
239
100
TcOptionalData
 70
     1
 70
    32
 40
-3.0
  0
TCOPTIONALDATA
  5
23D
102
{ACAD_REACTORS
330
23C
102
}
330
23C
100
TcOptionalData
 70
     1
 70
    32
 40
-3.0
  0
TCOPTIONALDATA
  5
240
102
{ACAD_REACTORS
330
23F
102
}
330
23F
100
TcOptionalData
 70
     1
 70
    32
 40
-3.0
  0
TCOPTIONALDATA
  5
243
102
{ACAD_REACTORS
330
242
102
}
330
242
100
TcOptionalData
 70
     1
 70
    32
 40
-3.0
  0
TCOPTIONALDATA
  5
246
102
{ACAD_REACTORS
330
245
102
}
330
245
100
TcOptionalData
 70
     1
 70
    32
 40
-3.0
  0
TCOPTIONALDATA
  5
249
102
{ACAD_REACTORS
330
248
102
}
330
248
100
TcOptionalData
 70
     1
 70
    32
 40
-3.0
  0
TCOPTIONALDATA
  5
24C
102
{ACAD_REACTORS
330
24B
102
}
330
24B
100
TcOptionalData
 70
     1
 70
    32
 40
-3.0
  0
TCOPTIONALDATA
  5
24F
102
{ACAD_REACTORS
330
24E
102
}
330
24E
100
TcOptionalData
 70
     1
 70
    32
 40
-3.0
  0
TCOPTIONALDATA
  5
252
102
{ACAD_REACTORS
330
251
102
}
330
251
100
TcOptionalData
 70
     1
 70
    32
 40
-3.0
  0
TCOPTIONALDATA
  5
255
102
{ACAD_REACTORS
330
254
102
}
330
254
100
TcOptionalData
 70
     1
 70
    32
 40
-3.0
  0
TCOPTIONALDATA
  5
258
102
{ACAD_REACTORS
330
257
102
}
330
257
100
TcOptionalData
 70
     1
 70
    32
 40
-3.0
  0
TCOPTIONALDATA
  5
25B
102
{ACAD_REACTORS
330
25A
102
}
330
25A
100
TcOptionalData
 70
     1
 70
    32
 40
-3.0
  0
TCOPTIONALDATA
  5
25E
102
{ACAD_REACTORS
330
25D
102
}
330
25D
100
TcOptionalData
 70
     1
 70
    32
 40
-3.0
  0
TCOPTIONALDATA
  5
261
102
{ACAD_REACTORS
330
260
102
}
330
260
100
TcOptionalData
 70
     1
 70
    32
 40
-3.0
  0
TCOPTIONALDATA
  5
264
102
{ACAD_REACTORS
330
263
102
}
330
263
100
TcOptionalData
 70
     1
 70
    32
 40
-3.0
  0
TCOPTIONALDATA
  5
267
102
{ACAD_REACTORS
330
266
102
}
330
266
100
TcOptionalData
 70
     1
 70
    32
 40
-3.0
  0
TCOPTIONALDATA
  5
26A
102
{ACAD_REACTORS
330
269
102
}
330
269
100
TcOptionalData
 70
     1
 70
    32
 40
-3.0
  0
TCOPTIONALDATA
  5
26D
102
{ACAD_REACTORS
330
26C
102
}
330
26C
100
TcOptionalData
 70
     1
 70
    32
 40
-3.0
  0
TCOPTIONALDATA
  5
270
102
{ACAD_REACTORS
330
26F
102
}
330
26F
100
TcOptionalData
 70
     1
 70
    32
 40
-3.0
  0
TCOPTIONALDATA
  5
273
102
{ACAD_REACTORS
330
272
102
}
330
272
100
TcOptionalData
 70
     1
 70
    32
 40
-3.0
  0
TCOPTIONALDATA
  5
276
102
{ACAD_REACTORS
330
275
102
}
330
275
100
TcOptionalData
 70
     1
 70
    32
 40
-3.0
  0
TCOPTIONALDATA
  5
279
102
{ACAD_REACTORS
330
278
102
}
330
278
100
TcOptionalData
 70
     1
 70
    32
 40
-3.0
  0
TCOPTIONALDATA
  5
27C
102
{ACAD_REACTORS
330
27B
102
}
330
27B
100
TcOptionalData
 70
     1
 70
    32
 40
-3.0
  0
TCOPTIONALDATA
  5
27F
102
{ACAD_REACTORS
330
27E
102
}
330
27E
100
TcOptionalData
 70
     1
 70
    32
 40
-3.0
  0
TCOPTIONALDATA
  5
282
102
{ACAD_REACTORS
330
281
102
}
330
281
100
TcOptionalData
 70
     1
 70
    32
 40
-3.0
  0
TCOPTIONALDATA
  5
285
102
{ACAD_REACTORS
330
284
102
}
330
284
100
TcOptionalData
 70
     1
 70
    32
 40
-3.0
  0
TCOPTIONALDATA
  5
288
102
{ACAD_REACTORS
330
287
102
}
330
287
100
TcOptionalData
 70
     1
 70
    32
 40
-3.0
  0
TCOPTIONALDATA
  5
28B
102
{ACAD_REACTORS
330
28A
102
}
330
28A
100
TcOptionalData
 70
     1
 70
    32
 40
-3.0
  0
TCOPTIONALDATA
  5
28E
102
{ACAD_REACTORS
330
28D
102
}
330
28D
100
TcOptionalData
 70
     1
 70
    32
 40
-3.0
  0
TCOPTIONALDATA
  5
291
102
{ACAD_REACTORS
330
290
102
}
330
290
100
TcOptionalData
 70
     1
 70
    32
 40
-3.0
  0
TCOPTIONALDATA
  5
294
102
{ACAD_REACTORS
330
293
102
}
330
293
100
TcOptionalData
 70
     1
 70
    32
 40
-3.0
  0
TCOPTIONALDATA
  5
297
102
{ACAD_REACTORS
330
296
102
}
330
296
100
TcOptionalData
 70
     1
 70
    32
 40
-3.0
  0
TCOPTIONALDATA
  5
29A
102
{ACAD_REACTORS
330
299
102
}
330
299
100
TcOptionalData
 70
     1
 70
    32
 40
-3.0
  0
TCOPTIONALDATA
  5
29D
102
{ACAD_REACTORS
330
29C
102
}
330
29C
100
TcOptionalData
 70
     1
 70
    32
 40
-3.0
  0
TCOPTIONALDATA
  5
2A0
102
{ACAD_REACTORS
330
29F
102
}
330
29F
100
TcOptionalData
 70
     1
 70
    32
 40
-3.0
  0
TCOPTIONALDATA
  5
2A3
102
{ACAD_REACTORS
330
2A2
102
}
330
2A2
100
TcOptionalData
 70
     1
 70
    32
 40
-3.0
  0
TCOPTIONALDATA
  5
2A6
102
{ACAD_REACTORS
330
2A5
102
}
330
2A5
100
TcOptionalData
 70
     1
 70
    32
 40
-3.0
  0
TCOPTIONALDATA
  5
2A9
102
{ACAD_REACTORS
330
2A8
102
}
330
2A8
100
TcOptionalData
 70
     1
 70
    32
 40
-3.0
  0
TCOPTIONALDATA
  5
2AC
102
{ACAD_REACTORS
330
2AB
102
}
330
2AB
100
TcOptionalData
 70
     1
 70
    32
 40
-3.0
  0
TCOPTIONALDATA
  5
2AF
102
{ACAD_REACTORS
330
2AE
102
}
330
2AE
100
TcOptionalData
 70
     1
 70
    32
 40
-3.0
  0
TCOPTIONALDATA
  5
2B2
102
{ACAD_REACTORS
330
2B1
102
}
330
2B1
100
TcOptionalData
 70
     1
 70
    32
 40
-3.0
  0
TCOPTIONALDATA
  5
2B5
102
{ACAD_REACTORS
330
2B4
102
}
330
2B4
100
TcOptionalData
 70
     1
 70
    32
 40
-3.0
  0
TCOPTIONALDATA
  5
2B8
102
{ACAD_REACTORS
330
2B7
102
}
330
2B7
100
TcOptionalData
 70
     1
 70
    32
 40
-3.0
  0
TCOPTIONALDATA
  5
2BB
102
{ACAD_REACTORS
330
2BA
102
}
330
2BA
100
TcOptionalData
 70
     1
 70
    32
 40
-3.0
  0
TCOPTIONALDATA
  5
2BE
102
{ACAD_REACTORS
330
2BD
102
}
330
2BD
100
TcOptionalData
 70
     1
 70
    32
 40
-3.0
  0
TCOPTIONALDATA
  5
2C1
102
{ACAD_REACTORS
330
2C0
102
}
330
2C0
100
TcOptionalData
 70
     1
 70
    32
 40
-3.0
  0
TCOPTIONALDATA
  5
2C4
102
{ACAD_REACTORS
330
2C3
102
}
330
2C3
100
TcOptionalData
 70
     1
 70
    32
 40
-3.0
  0
TCOPTIONALDATA
  5
2C7
102
{ACAD_REACTORS
330
2C6
102
}
330
2C6
100
TcOptionalData
 70
     1
 70
    32
 40
-3.0
  0
TCOPTIONALDATA
  5
2CA
102
{ACAD_REACTORS
330
2C9
102
}
330
2C9
100
TcOptionalData
 70
     1
 70
    32
 40
-3.0
  0
TCOPTIONALDATA
  5
2CD
102
{ACAD_REACTORS
330
2CC
102
}
330
2CC
100
TcOptionalData
 70
     1
 70
    32
 40
-3.0
  0
TCOPTIONALDATA
  5
2D0
102
{ACAD_REACTORS
330
2CF
102
}
330
2CF
100
TcOptionalData
 70
     1
 70
    32
 40
-3.0
  0
TCOPTIONALDATA
  5
2D3
102
{ACAD_REACTORS
330
2D2
102
}
330
2D2
100
TcOptionalData
 70
     1
 70
    32
 40
-3.0
  0
TCOPTIONALDATA
  5
2D6
102
{ACAD_REACTORS
330
2D5
102
}
330
2D5
100
TcOptionalData
 70
     1
 70
    32
 40
-3.0
  0
TCOPTIONALDATA
  5
2D9
102
{ACAD_REACTORS
330
2D8
102
}
330
2D8
100
TcOptionalData
 70
     1
 70
    32
 40
-3.0
  0
TCOPTIONALDATA
  5
2DC
102
{ACAD_REACTORS
330
2DB
102
}
330
2DB
100
TcOptionalData
 70
     1
 70
    32
 40
-3.0
  0
TCOPTIONALDATA
  5
2DF
102
{ACAD_REACTORS
330
2DE
102
}
330
2DE
100
TcOptionalData
 70
     1
 70
    32
 40
-3.0
  0
TCOPTIONALDATA
  5
2E2
102
{ACAD_REACTORS
330
2E1
102
}
330
2E1
100
TcOptionalData
 70
     1
 70
    32
 40
-3.0
  0
TCOPTIONALDATA
  5
2E5
102
{ACAD_REACTORS
330
2E4
102
}
330
2E4
100
TcOptionalData
 70
     1
 70
    32
 40
-3.0
  0
TCOPTIONALDATA
  5
2E8
102
{ACAD_REACTORS
330
2E7
102
}
330
2E7
100
TcOptionalData
 70
     1
 70
    32
 40
-3.0
  0
TCOPTIONALDATA
  5
2EB
102
{ACAD_REACTORS
330
2EA
102
}
330
2EA
100
TcOptionalData
 70
     1
 70
    32
 40
-3.0
  0
TCOPTIONALDATA
  5
2EE
102
{ACAD_REACTORS
330
2ED
102
}
330
2ED
100
TcOptionalData
 70
     1
 70
    32
 40
-3.0
  0
TCOPTIONALDATA
  5
2F1
102
{ACAD_REACTORS
330
2F0
102
}
330
2F0
100
TcOptionalData
 70
     1
 70
    32
 40
-3.0
  0
TCOPTIONALDATA
  5
2F4
102
{ACAD_REACTORS
330
2F3
102
}
330
2F3
100
TcOptionalData
 70
     1
 70
    32
 40
-3.0
  0
TCOPTIONALDATA
  5
2F7
102
{ACAD_REACTORS
330
2F6
102
}
330
2F6
100
TcOptionalData
 70
     1
 70
    32
 40
-3.0
  0
TCOPTIONALDATA
  5
2FA
102
{ACAD_REACTORS
330
2F9
102
}
330
2F9
100
TcOptionalData
 70
     1
 70
    32
 40
-3.0
  0
TCOPTIONALDATA
  5
2FD
102
{ACAD_REACTORS
330
2FC
102
}
330
2FC
100
TcOptionalData
 70
     1
 70
    32
 40
-3.0
  0
TCOPTIONALDATA
  5
300
102
{ACAD_REACTORS
330
2FF
102
}
330
2FF
100
TcOptionalData
 70
     1
 70
    32
 40
-3.0
  0
TCOPTIONALDATA
  5
303
102
{ACAD_REACTORS
330
302
102
}
330
302
100
TcOptionalData
 70
     1
 70
    32
 40
-3.0
  0
TCOPTIONALDATA
  5
306
102
{ACAD_REACTORS
330
305
102
}
330
305
100
TcOptionalData
 70
     1
 70
    32
 40
-3.0
  0
TCOPTIONALDATA
  5
309
102
{ACAD_REACTORS
330
308
102
}
330
308
100
TcOptionalData
 70
     1
 70
    32
 40
-3.0
  0
TCOPTIONALDATA
  5
30C
102
{ACAD_REACTORS
330
30B
102
}
330
30B
100
TcOptionalData
 70
     1
 70
    32
 40
-3.0
  0
TCOPTIONALDATA
  5
30F
102
{ACAD_REACTORS
330
30E
102
}
330
30E
100
TcOptionalData
 70
     1
 70
    32
 40
-3.0
  0
TCOPTIONALDATA
  5
312
102
{ACAD_REACTORS
330
311
102
}
330
311
100
TcOptionalData
 70
     1
 70
    32
 40
-3.0
  0
TCOPTIONALDATA
  5
315
102
{ACAD_REACTORS
330
314
102
}
330
314
100
TcOptionalData
 70
     1
 70
    32
 40
-3.0
  0
TCOPTIONALDATA
  5
318
102
{ACAD_REACTORS
330
317
102
}
330
317
100
TcOptionalData
 70
     1
 70
    32
 40
-3.0
  0
TCOPTIONALDATA
  5
31B
102
{ACAD_REACTORS
330
31A
102
}
330
31A
100
TcOptionalData
 70
     1
 70
    32
 40
-3.0
  0
TCOPTIONALDATA
  5
31E
102
{ACAD_REACTORS
330
31D
102
}
330
31D
100
TcOptionalData
 70
     1
 70
    32
 40
-3.0
  0
TCOPTIONALDATA
  5
321
102
{ACAD_REACTORS
330
320
102
}
330
320
100
TcOptionalData
 70
     1
 70
    32
 40
-3.0
  0
TCOPTIONALDATA
  5
324
102
{ACAD_REACTORS
330
323
102
}
330
323
100
TcOptionalData
 70
     1
 70
    32
 40
-3.0
  0
TCOPTIONALDATA
  5
327
102
{ACAD_REACTORS
330
326
102
}
330
326
100
TcOptionalData
 70
     1
 70
    32
 40
-3.0
  0
TCOPTIONALDATA
  5
32A
102
{ACAD_REACTORS
330
329
102
}
330
329
100
TcOptionalData
 70
     1
 70
    32
 40
-3.0
  0
TCOPTIONALDATA
  5
32D
102
{ACAD_REACTORS
330
32C
102
}
330
32C
100
TcOptionalData
 70
     1
 70
    32
 40
-3.0
  0
TCOPTIONALDATA
  5
330
102
{ACAD_REACTORS
330
32F
102
}
330
32F
100
TcOptionalData
 70
     1
 70
    32
 40
-3.0
  0
TCOPTIONALDATA
  5
333
102
{ACAD_REACTORS
330
332
102
}
330
332
100
TcOptionalData
 70
     1
 70
    32
 40
-3.0
  0
TCOPTIONALDATA
  5
336
102
{ACAD_REACTORS
330
335
102
}
330
335
100
TcOptionalData
 70
     1
 70
    32
 40
-3.0
  0
TCOPTIONALDATA
  5
339
102
{ACAD_REACTORS
330
338
102
}
330
338
100
TcOptionalData
 70
     1
 70
    32
 40
-3.0
  0
TCOPTIONALDATA
  5
33C
102
{ACAD_REACTORS
330
33B
102
}
330
33B
100
TcOptionalData
 70
     1
 70
    32
 40
-3.0
  0
TCOPTIONALDATA
  5
33F
102
{ACAD_REACTORS
330
33E
102
}
330
33E
100
TcOptionalData
 70
     1
 70
    32
 40
-3.0
  0
TCOPTIONALDATA
  5
342
102
{ACAD_REACTORS
330
341
102
}
330
341
100
TcOptionalData
 70
     1
 70
    32
 40
-3.0
  0
TCOPTIONALDATA
  5
345
102
{ACAD_REACTORS
330
344
102
}
330
344
100
TcOptionalData
 70
     1
 70
    32
 40
-3.0
  0
TCOPTIONALDATA
  5
348
102
{ACAD_REACTORS
330
347
102
}
330
347
100
TcOptionalData
 70
     1
 70
    32
 40
-3.0
  0
TCOPTIONALDATA
  5
34B
102
{ACAD_REACTORS
330
34A
102
}
330
34A
100
TcOptionalData
 70
     1
 70
    32
 40
-3.0
  0
TCOPTIONALDATA
  5
34E
102
{ACAD_REACTORS
330
34D
102
}
330
34D
100
TcOptionalData
 70
     1
 70
    32
 40
-3.0
  0
TCOPTIONALDATA
  5
351
102
{ACAD_REACTORS
330
350
102
}
330
350
100
TcOptionalData
 70
     1
 70
    32
 40
-3.0
  0
TCOPTIONALDATA
  5
354
102
{ACAD_REACTORS
330
353
102
}
330
353
100
TcOptionalData
 70
     1
 70
    32
 40
-3.0
  0
TCOPTIONALDATA
  5
357
102
{ACAD_REACTORS
330
356
102
}
330
356
100
TcOptionalData
 70
     1
 70
    32
 40
-3.0
  0
TCOPTIONALDATA
  5
35A
102
{ACAD_REACTORS
330
359
102
}
330
359
100
TcOptionalData
 70
     1
 70
    32
 40
-3.0
  0
TCOPTIONALDATA
  5
35D
102
{ACAD_REACTORS
330
35C
102
}
330
35C
100
TcOptionalData
 70
     1
 70
    32
 40
-3.0
  0
TCOPTIONALDATA
  5
360
102
{ACAD_REACTORS
330
35F
102
}
330
35F
100
TcOptionalData
 70
     1
 70
    32
 40
-3.0
  0
TCOPTIONALDATA
  5
363
102
{ACAD_REACTORS
330
362
102
}
330
362
100
TcOptionalData
 70
     1
 70
    32
 40
-3.0
  0
TCOPTIONALDATA
  5
366
102
{ACAD_REACTORS
330
365
102
}
330
365
100
TcOptionalData
 70
     1
 70
    32
 40
-3.0
  0
TCOPTIONALDATA
  5
369
102
{ACAD_REACTORS
330
368
102
}
330
368
100
TcOptionalData
 70
     1
 70
    32
 40
-3.0
  0
TCOPTIONALDATA
  5
36C
102
{ACAD_REACTORS
330
36B
102
}
330
36B
100
TcOptionalData
 70
     1
 70
    32
 40
-3.0
  0
TCOPTIONALDATA
  5
36F
102
{ACAD_REACTORS
330
36E
102
}
330
36E
100
TcOptionalData
 70
     1
 70
    32
 40
-3.0
  0
TCOPTIONALDATA
  5
372
102
{ACAD_REACTORS
330
371
102
}
330
371
100
TcOptionalData
 70
     1
 70
    32
 40
-3.0
  0
TCOPTIONALDATA
  5
375
102
{ACAD_REACTORS
330
374
102
}
330
374
100
TcOptionalData
 70
     1
 70
    32
 40
-3.0
  0
TCOPTIONALDATA
  5
378
102
{ACAD_REACTORS
330
377
102
}
330
377
100
TcOptionalData
 70
     1
 70
    32
 40
-3.0
  0
TCOPTIONALDATA
  5
37B
102
{ACAD_REACTORS
330
37A
102
}
330
37A
100
TcOptionalData
 70
     1
 70
    32
 40
-3.0
  0
TCOPTIONALDATA
  5
37E
102
{ACAD_REACTORS
330
37D
102
}
330
37D
100
TcOptionalData
 70
     1
 70
    32
 40
-3.0
  0
TCOPTIONALDATA
  5
381
102
{ACAD_REACTORS
330
380
102
}
330
380
100
TcOptionalData
 70
     1
 70
    32
 40
-3.0
  0
TCOPTIONALDATA
  5
384
102
{ACAD_REACTORS
330
383
102
}
330
383
100
TcOptionalData
 70
     1
 70
    32
 40
-3.0
  0
TCOPTIONALDATA
  5
387
102
{ACAD_REACTORS
330
386
102
}
330
386
100
TcOptionalData
 70
     1
 70
    32
 40
-3.0
  0
TCOPTIONALDATA
  5
38A
102
{ACAD_REACTORS
330
389
102
}
330
389
100
TcOptionalData
 70
     1
 70
    32
 40
-3.0
  0
TCOPTIONALDATA
  5
38D
102
{ACAD_REACTORS
330
38C
102
}
330
38C
100
TcOptionalData
 70
     1
 70
    32
 40
-3.0
  0
TCOPTIONALDATA
  5
390
102
{ACAD_REACTORS
330
38F
102
}
330
38F
100
TcOptionalData
 70
     1
 70
    32
 40
-3.0
  0
TCOPTIONALDATA
  5
393
102
{ACAD_REACTORS
330
392
102
}
330
392
100
TcOptionalData
 70
     1
 70
    32
 40
-3.0
  0
TCOPTIONALDATA
  5
396
102
{ACAD_REACTORS
330
395
102
}
330
395
100
TcOptionalData
 70
     1
 70
    32
 40
-3.0
  0
TCOPTIONALDATA
  5
399
102
{ACAD_REACTORS
330
398
102
}
330
398
100
TcOptionalData
 70
     1
 70
    32
 40
-3.0
  0
TCOPTIONALDATA
  5
39C
102
{ACAD_REACTORS
330
39B
102
}
330
39B
100
TcOptionalData
 70
     1
 70
    32
 40
-3.0
  0
TCOPTIONALDATA
  5
39F
102
{ACAD_REACTORS
330
39E
102
}
330
39E
100
TcOptionalData
 70
     1
 70
    32
 40
-3.0
  0
TCOPTIONALDATA
  5
3A2
102
{ACAD_REACTORS
330
3A1
102
}
330
3A1
100
TcOptionalData
 70
     1
 70
    32
 40
-3.0
  0
TCOPTIONALDATA
  5
3A5
102
{ACAD_REACTORS
330
3A4
102
}
330
3A4
100
TcOptionalData
 70
     1
 70
    32
 40
-3.0
  0
TCOPTIONALDATA
  5
3A8
102
{ACAD_REACTORS
330
3A7
102
}
330
3A7
100
TcOptionalData
 70
     1
 70
    32
 40
-3.0
  0
TCOPTIONALDATA
  5
3AB
102
{ACAD_REACTORS
330
3AA
102
}
330
3AA
100
TcOptionalData
 70
     1
 70
    32
 40
-3.0
  0
TCOPTIONALDATA
  5
3AE
102
{ACAD_REACTORS
330
3AD
102
}
330
3AD
100
TcOptionalData
 70
     1
 70
    32
 40
-3.0
  0
TCOPTIONALDATA
  5
3B1
102
{ACAD_REACTORS
330
3B0
102
}
330
3B0
100
TcOptionalData
 70
     1
 70
    32
 40
-3.0
  0
TCOPTIONALDATA
  5
3B4
102
{ACAD_REACTORS
330
3B3
102
}
330
3B3
100
TcOptionalData
 70
     1
 70
    32
 40
-3.0
  0
TCOPTIONALDATA
  5
3B7
102
{ACAD_REACTORS
330
3B6
102
}
330
3B6
100
TcOptionalData
 70
     1
 70
    32
 40
-3.0
  0
TCOPTIONALDATA
  5
3BA
102
{ACAD_REACTORS
330
3B9
102
}
330
3B9
100
TcOptionalData
 70
     1
 70
    32
 40
-3.0
  0
TCOPTIONALDATA
  5
3BD
102
{ACAD_REACTORS
330
3BC
102
}
330
3BC
100
TcOptionalData
 70
     1
 70
    32
 40
-3.0
  0
TCOPTIONALDATA
  5
3C0
102
{ACAD_REACTORS
330
3BF
102
}
330
3BF
100
TcOptionalData
 70
     1
 70
    32
 40
-3.0
  0
TCOPTIONALDATA
  5
3C3
102
{ACAD_REACTORS
330
3C2
102
}
330
3C2
100
TcOptionalData
 70
     1
 70
    32
 40
-3.0
  0
TCOPTIONALDATA
  5
3C6
102
{ACAD_REACTORS
330
3C5
102
}
330
3C5
100
TcOptionalData
 70
     1
 70
    32
 40
-3.0
  0
TCOPTIONALDATA
  5
3C9
102
{ACAD_REACTORS
330
3C8
102
}
330
3C8
100
TcOptionalData
 70
     1
 70
    32
 40
-3.0
  0
TCOPTIONALDATA
  5
3CC
102
{ACAD_REACTORS
330
3CB
102
}
330
3CB
100
TcOptionalData
 70
     1
 70
    32
 40
-3.0
  0
TCOPTIONALDATA
  5
3CF
102
{ACAD_REACTORS
330
3CE
102
}
330
3CE
100
TcOptionalData
 70
     1
 70
    32
 40
-3.0
  0
TCOPTIONALDATA
  5
3D2
102
{ACAD_REACTORS
330
3D1
102
}
330
3D1
100
TcOptionalData
 70
     1
 70
    32
 40
-3.0
  0
TCOPTIONALDATA
  5
3D5
102
{ACAD_REACTORS
330
3D4
102
}
330
3D4
100
TcOptionalData
 70
     1
 70
    32
 40
-3.0
  0
TCOPTIONALDATA
  5
3D8
102
{ACAD_REACTORS
330
3D7
102
}
330
3D7
100
TcOptionalData
 70
     1
 70
    32
 40
-3.0
  0
TCOPTIONALDATA
  5
3DB
102
{ACAD_REACTORS
330
3DA
102
}
330
3DA
100
TcOptionalData
 70
     1
 70
    32
 40
-3.0
  0
TCOPTIONALDATA
  5
3DE
102
{ACAD_REACTORS
330
3DD
102
}
330
3DD
100
TcOptionalData
 70
     1
 70
    32
 40
-3.0
  0
TCOPTIONALDATA
  5
3E1
102
{ACAD_REACTORS
330
3E0
102
}
330
3E0
100
TcOptionalData
 70
     1
 70
    32
 40
-3.0
  0
TCOPTIONALDATA
  5
3E4
102
{ACAD_REACTORS
330
3E3
102
}
330
3E3
100
TcOptionalData
 70
     1
 70
    32
 40
-3.0
  0
TCOPTIONALDATA
  5
3E7
102
{ACAD_REACTORS
330
3E6
102
}
330
3E6
100
TcOptionalData
 70
     1
 70
    32
 40
-3.0
  0
TCOPTIONALDATA
  5
3EA
102
{ACAD_REACTORS
330
3E9
102
}
330
3E9
100
TcOptionalData
 70
     1
 70
    32
 40
-3.0
  0
TCOPTIONALDATA
  5
3ED
102
{ACAD_REACTORS
330
3EC
102
}
330
3EC
100
TcOptionalData
 70
     1
 70
    32
 40
-3.0
  0
TCOPTIONALDATA
  5
3F0
102
{ACAD_REACTORS
330
3EF
102
}
330
3EF
100
TcOptionalData
 70
     1
 70
    32
 40
-3.0
  0
TCOPTIONALDATA
  5
3F3
102
{ACAD_REACTORS
330
3F2
102
}
330
3F2
100
TcOptionalData
 70
     1
 70
    32
 40
-3.0
  0
TCOPTIONALDATA
  5
3F6
102
{ACAD_REACTORS
330
3F5
102
}
330
3F5
100
TcOptionalData
 70
     1
 70
    32
 40
-3.0
  0
TCOPTIONALDATA
  5
3F9
102
{ACAD_REACTORS
330
3F8
102
}
330
3F8
100
TcOptionalData
 70
     1
 70
    32
 40
-3.0
  0
TCOPTIONALDATA
  5
3FC
102
{ACAD_REACTORS
330
3FB
102
}
330
3FB
100
TcOptionalData
 70
     1
 70
    32
 40
-3.0
  0
TCOPTIONALDATA
  5
3FF
102
{ACAD_REACTORS
330
3FE
102
}
330
3FE
100
TcOptionalData
 70
     1
 70
    32
 40
-3.0
  0
TCOPTIONALDATA
  5
402
102
{ACAD_REACTORS
330
401
102
}
330
401
100
TcOptionalData
 70
     1
 70
    32
 40
-3.0
  0
TCOPTIONALDATA
  5
405
102
{ACAD_REACTORS
330
404
102
}
330
404
100
TcOptionalData
 70
     1
 70
    32
 40
-3.0
  0
TCOPTIONALDATA
  5
408
102
{ACAD_REACTORS
330
407
102
}
330
407
100
TcOptionalData
 70
     1
 70
    32
 40
-3.0
  0
TCOPTIONALDATA
  5
40B
102
{ACAD_REACTORS
330
40A
102
}
330
40A
100
TcOptionalData
 70
     1
 70
    32
 40
-3.0
  0
TCOPTIONALDATA
  5
40E
102
{ACAD_REACTORS
330
40D
102
}
330
40D
100
TcOptionalData
 70
     1
 70
    32
 40
-3.0
  0
TCOPTIONALDATA
  5
411
102
{ACAD_REACTORS
330
410
102
}
330
410
100
TcOptionalData
 70
     1
 70
    32
 40
-3.0
  0
TCOPTIONALDATA
  5
414
102
{ACAD_REACTORS
330
413
102
}
330
413
100
TcOptionalData
 70
     1
 70
    32
 40
-3.0
  0
TCOPTIONALDATA
  5
417
102
{ACAD_REACTORS
330
416
102
}
330
416
100
TcOptionalData
 70
     1
 70
    32
 40
-3.0
  0
TCOPTIONALDATA
  5
41A
102
{ACAD_REACTORS
330
419
102
}
330
419
100
TcOptionalData
 70
     1
 70
    32
 40
-3.0
  0
TCOPTIONALDATA
  5
41D
102
{ACAD_REACTORS
330
41C
102
}
330
41C
100
TcOptionalData
 70
     1
 70
    32
 40
-3.0
  0
TCOPTIONALDATA
  5
420
102
{ACAD_REACTORS
330
41F
102
}
330
41F
100
TcOptionalData
 70
     1
 70
    32
 40
-3.0
  0
TCOPTIONALDATA
  5
423
102
{ACAD_REACTORS
330
422
102
}
330
422
100
TcOptionalData
 70
     1
 70
    32
 40
-3.0
  0
TCOPTIONALDATA
  5
426
102
{ACAD_REACTORS
330
425
102
}
330
425
100
TcOptionalData
 70
     1
 70
    32
 40
-3.0
  0
TCOPTIONALDATA
  5
429
102
{ACAD_REACTORS
330
428
102
}
330
428
100
TcOptionalData
 70
     1
 70
    32
 40
-3.0
  0
TCOPTIONALDATA
  5
42C
102
{ACAD_REACTORS
330
42B
102
}
330
42B
100
TcOptionalData
 70
     1
 70
    32
 40
-3.0
  0
TCOPTIONALDATA
  5
42F
102
{ACAD_REACTORS
330
42E
102
}
330
42E
100
TcOptionalData
 70
     1
 70
    32
 40
-3.0
  0
TCOPTIONALDATA
  5
432
102
{ACAD_REACTORS
330
431
102
}
330
431
100
TcOptionalData
 70
     1
 70
    32
 40
-3.0
  0
TCOPTIONALDATA
  5
435
102
{ACAD_REACTORS
330
434
102
}
330
434
100
TcOptionalData
 70
     1
 70
    32
 40
-3.0
  0
TCOPTIONALDATA
  5
438
102
{ACAD_REACTORS
330
437
102
}
330
437
100
TcOptionalData
 70
     1
 70
    32
 40
-3.0
  0
TCOPTIONALDATA
  5
43B
102
{ACAD_REACTORS
330
43A
102
}
330
43A
100
TcOptionalData
 70
     1
 70
    32
 40
-3.0
  0
TCOPTIONALDATA
  5
43E
102
{ACAD_REACTORS
330
43D
102
}
330
43D
100
TcOptionalData
 70
     1
 70
    32
 40
-3.0
  0
TCOPTIONALDATA
  5
441
102
{ACAD_REACTORS
330
440
102
}
330
440
100
TcOptionalData
 70
     1
 70
    32
 40
-3.0
  0
TCOPTIONALDATA
  5
444
102
{ACAD_REACTORS
330
443
102
}
330
443
100
TcOptionalData
 70
     1
 70
    32
 40
-3.0
  0
TCOPTIONALDATA
  5
447
102
{ACAD_REACTORS
330
446
102
}
330
446
100
TcOptionalData
 70
     1
 70
    32
 40
-3.0
  0
TCOPTIONALDATA
  5
44A
102
{ACAD_REACTORS
330
449
102
}
330
449
100
TcOptionalData
 70
     1
 70
    32
 40
-3.0
  0
TCOPTIONALDATA
  5
44D
102
{ACAD_REACTORS
330
44C
102
}
330
44C
100
TcOptionalData
 70
     1
 70
    32
 40
-3.0
  0
TCOPTIONALDATA
  5
450
102
{ACAD_REACTORS
330
44F
102
}
330
44F
100
TcOptionalData
 70
     1
 70
    32
 40
-3.0
  0
TCOPTIONALDATA
  5
453
102
{ACAD_REACTORS
330
452
102
}
330
452
100
TcOptionalData
 70
     1
 70
    32
 40
-3.0
  0
TCOPTIONALDATA
  5
456
102
{ACAD_REACTORS
330
455
102
}
330
455
100
TcOptionalData
 70
     1
 70
    32
 40
-3.0
  0
TCOPTIONALDATA
  5
459
102
{ACAD_REACTORS
330
458
102
}
330
458
100
TcOptionalData
 70
     1
 70
    32
 40
-3.0
  0
LAYOUT
  5
3C
102
{ACAD_REACTORS
330
1A
102
}
330
1A
100
AcDbPlotSettings
  1

  2
none_device
  4
ISO_A4_(210.00_x_297.00_MM)
  6

 40
7.14373779296875
 41
7.31307983398438
 42
5.91606473922729
 43
6.29708337783813
 44
210.0
 45
297.0
 46
-1.22767305374146
 47
-1.01599645614625
 48
0.0
 49
0.0
140
0.0
141
0.0
142
1.0
143
1.0
 70
   672
 72
     1
 73
     1
 74
     5
  7

 75
    16
 76
     0
 77
     2
 78
   300
147
1.0
148
0.0
149
0.0
100
AcDbLayout
  1
Layout1
 70
     1
 71
     1
 10
-5.91606473922729
 20
-6.29708337783813
 11
291.052258014679
 21
203.6762442588806
 12
0.0
 22
0.0
 32
0.0
 14
-5.91606473922729
 24
-6.29708337783813
 34
0.0
 15
291.052258014679
 25
203.6762442588806
 35
0.0
146
0.0
 13
0.0
 23
0.0
 33
0.0
 16
1.0
 26
0.0
 36
0.0
 17
0.0
 27
1.0
 37
0.0
 76
     0
330
3B
331
45B
  0
LAYOUT
  5
1E
102
{ACAD_REACTORS
330
1A
102
}
330
1A
100
AcDbPlotSettings
  1

  2
none_device
  4
ISO_C5_(229.00_x_162.00_MM)
  6

 40
0.0
 41
0.0
 42
0.0
 43
0.0
 44
229.0
 45
162.0
 46
0.0
 47
0.0
 48
0.0
 49
0.0
140
0.0
141
0.0
142
1.0
143
0.0393700787401575
 70
   672
 72
     1
 73
     0
 74
     5
  7

 75
    16
 76
     0
 77
     2
 78
   300
147
1.0
148
0.0
149
0.0
100
AcDbLayout
  1
Layout2
 70
     1
 71
     2
 10
0.0
 20
0.0
 11
0.0
 21
0.0
 12
0.0
 22
0.0
 32
0.0
 14
0.0
 24
0.0
 34
0.0
 15
0.0
 25
0.0
 35
0.0
146
0.0
 13
0.0
 23
0.0
 33
0.0
 16
1.0
 26
0.0
 36
0.0
 17
0.0
 27
1.0
 37
0.0
 76
     0
330
1B
331
45D
  0
LAYOUT
  5
22
102
{ACAD_REACTORS
330
1A
102
}
330
1A
100
AcDbPlotSettings
  1

  2
none_device
  4
Sun_Hi-Res_(1280.00_x_1600.00_Pixels)
  6

 40
0.0
 41
0.0
 42
0.0
 43
0.0
 44
1280.0
 45
1600.0
 46
47.08932838787317
 47
2169.321133432829
 48
0.0
 49
0.0
140
0.0
141
0.0
142
1.0
143
0.0393700787401575
 70
  1696
 72
     2
 73
     1
 74
     0
  7

 75
     0
 76
     0
 77
     2
 78
   300
147
1.0
148
0.0
149
0.0
100
AcDbLayout
  1
Model
 70
     1
 71
     0
 10
-1.8539105664517
 20
-85.40634383593815
 11
295.1144121874545
 21
124.5669838007806
 12
0.0
 22
0.0
 32
0.0
 14
-1.8539105664517
 24
-85.40634383593815
 34
0.0
 15
295.1144121874545
 25
124.5669838007806
 35
0.0
146
0.0
 13
0.0
 23
0.0
 33
0.0
 16
1.0
 26
0.0
 36
0.0
 17
0.0
 27
1.0
 37
0.0
 76
     0
330
1F
331
29
  0
MLINESTYLE
  5
18
102
{ACAD_REACTORS
330
17
102
}
330
17
100
AcDbMlineStyle
  2
Standard
 70
     0
  3

 62
   256
 51
90.0
 52
90.0
 71
     4
 49
0.5
 62
   256
  6
BYLAYER
 49
-0.5
 62
   256
  6
BYLAYER
 49
0.5
 62
   256
  6
BYLAYER
 49
-0.5
 62
   256
  6
BYLAYER
  0
ACDBPLACEHOLDER
  5
F
102
{ACAD_REACTORS
330
E
102
}
330
E
  0
VISUALSTYLE
  5
2F
102
{ACAD_REACTORS
330
2A
102
}
330
2A
100
AcDbVisualStyle
  2
2dWireframe
 70
     4
 71
     0
 72
     2
 73
     0
 90
        0
 40
-0.6
 41
-30.0
 62
     5
 63
     7
421
 16777215
 74
     1
 91
        4
 64
     7
 65
   257
 75
     1
175
     1
 42
1.0
 92
        0
 66
   257
 43
1.0
 76
     1
 77
     6
 78
     2
 67
     7
 79
     5
170
     0
171
     0
290
     0
174
     0
 93
        1
 44
0.0
173
     0
291
     0
 45
0.0
1001
ACAD
1000
AcDbSavedByObjectVersion
1070
     0
  0
VISUALSTYLE
  5
31
102
{ACAD_REACTORS
330
2A
102
}
330
2A
100
AcDbVisualStyle
  2
3D Hidden
 70
     6
 71
     1
 72
     2
 73
     2
 90
        0
 40
-0.6
 41
-30.0
 62
     5
 63
     7
421
 16777215
 74
     2
 91
        2
 64
     7
 65
   257
 75
     2
175
     1
 42
40.0
 92
        0
 66
   257
 43
1.0
 76
     1
 77
     6
 78
     2
 67
     7
 79
     3
170
     0
171
     0
290
     0
174
     0
 93
        1
 44
0.0
173
     0
291
     0
 45
0.0
1001
ACAD
1000
AcDbSavedByObjectVersion
1070
     0
  0
VISUALSTYLE
  5
30
102
{ACAD_REACTORS
330
2A
102
}
330
2A
100
AcDbVisualStyle
  2
3dWireframe
 70
     5
 71
     0
 72
     2
 73
     0
 90
        0
 40
-0.6
 41
-30.0
 62
     5
 63
     7
421
 16777215
 74
     1
 91
        4
 64
     7
 65
   257
 75
     1
175
     1
 42
1.0
 92
        0
 66
   257
 43
1.0
 76
     1
 77
     6
 78
     2
 67
     7
 79
     5
170
     0
171
     0
290
     0
174
     0
 93
        1
 44
0.0
173
     0
291
     0
 45
0.0
1001
ACAD
1000
AcDbSavedByObjectVersion
1070
     0
  0
VISUALSTYLE
  5
32
102
{ACAD_REACTORS
330
2A
102
}
330
2A
100
AcDbVisualStyle
  2
Basic
 70
     7
 71
     1
 72
     0
 73
     1
 90
        0
 40
-0.6
 41
-30.0
 62
     5
 63
     7
421
 16777215
 74
     0
 91
        4
 64
     7
 65
   257
 75
     1
175
     1
 42
1.0
 92
        8
 66
     7
 43
1.0
 76
     1
 77
     6
 78
     2
 67
     7
 79
     5
170
     0
171
     0
290
     0
174
     0
 93
        1
 44
0.0
173
     0
291
     1
 45
0.0
1001
ACAD
1000
AcDbSavedByObjectVersion
1070
     0
  0
VISUALSTYLE
  5
36
102
{ACAD_REACTORS
330
2A
102
}
330
2A
100
AcDbVisualStyle
  2
Brighten
 70
    12
 71
     2
 72
     2
 73
     0
 90
        0
 40
-0.6
 41
-30.0
 62
     5
 63
     7
421
 16777215
 74
     1
 91
        4
 64
     7
 65
   257
 75
     1
175
     1
 42
1.0
 92
        8
 66
     7
 43
1.0
 76
     1
 77
     6
 78
     2
 67
     7
 79
     5
170
     0
171
     0
290
     0
174
     0
 93
        1
 44
50.0
173
     0
291
     1
 45
0.0
1001
ACAD
1000
AcDbSavedByObjectVersion
1070
     0
  0
VISUALSTYLE
  5
3A
102
{ACAD_REACTORS
330
2A
102
}
330
2A
100
AcDbVisualStyle
  2
ColorChange
 70
    16
 71
     2
 72
     2
 73
     3
 90
        0
 40
-0.6
 41
-30.0
 62
     5
 63
     8
421
  8421504
 74
     1
 91
        4
 64
     7
 65
   257
 75
     1
175
     1
 42
1.0
 92
        8
 66
     8
424
  8421504
 43
1.0
 76
     1
 77
     6
 78
     2
 67
     7
 79
     5
170
     0
171
     0
290
     0
174
     0
 93
        1
 44
0.0
173
     0
291
     1
 45
0.0
1001
ACAD
1000
AcDbSavedByObjectVersion
1070
     0
  0
VISUALSTYLE
  5
34
102
{ACAD_REACTORS
330
2A
102
}
330
2A
100
AcDbVisualStyle
  2
Conceptual
 70
     9
 71
     3
 72
     2
 73
     0
 90
        0
 40
-0.6
 41
-30.0
 62
     5
 63
     7
421
 16777215
 74
     2
 91
        2
 64
     7
 65
   257
 75
     1
175
     1
 42
40.0
 92
        8
 66
     7
 43
1.0
 76
     1
 77
     6
 78
     2
 67
     7
 79
     3
170
     0
171
     0
290
     0
174
     0
 93
        1
 44
0.0
173
     0
291
     0
 45
0.0
1001
ACAD
1000
AcDbSavedByObjectVersion
1070
     0
  0
VISUALSTYLE
  5
35
102
{ACAD_REACTORS
330
2A
102
}
330
2A
100
AcDbVisualStyle
  2
Dim
 70
    11
 71
     2
 72
     2
 73
     0
 90
        0
 40
-0.6
 41
-30.0
 62
     5
 63
     7
421
 16777215
 74
     1
 91
        4
 64
     7
 65
   257
 75
     1
175
     1
 42
1.0
 92
        8
 66
     7
 43
1.0
 76
     1
 77
     6
 78
     2
 67
     7
 79
     5
170
     0
171
     0
290
     0
174
     0
 93
        1
 44
-50.0
173
     0
291
     1
 45
0.0
1001
ACAD
1000
AcDbSavedByObjectVersion
1070
     0
  0
VISUALSTYLE
  5
39
102
{ACAD_REACTORS
330
2A
102
}
330
2A
100
AcDbVisualStyle
  2
Facepattern
 70
    15
 71
     2
 72
     2
 73
     0
 90
        0
 40
-0.6
 41
-30.0
 62
     5
 63
     7
421
 16777215
 74
     1
 91
        4
 64
     7
 65
   257
 75
     1
175
     1
 42
1.0
 92
        8
 66
     7
 43
1.0
 76
     1
 77
     6
 78
     2
 67
     7
 79
     5
170
     0
171
     0
290
     0
174
     0
 93
        1
 44
0.0
173
     0
291
     1
 45
0.0
1001
ACAD
1000
AcDbSavedByObjectVersion
1070
     0
  0
VISUALSTYLE
  5
2B
102
{ACAD_REACTORS
330
2A
102
}
330
2A
100
AcDbVisualStyle
  2
Flat
 70
     0
 71
     2
 72
     1
 73
     1
 90
        2
 40
-0.6
 41
30.0
 62
     5
 63
     7
421
 16777215
 74
     0
 91
        4
 64
     7
 65
   257
 75
     1
175
     1
 42
1.0
 92
        8
 66
     7
 43
1.0
 76
     1
 77
     6
 78
     2
 67
     7
 79
     5
170
     0
171
     0
290
     0
174
     0
 93
       13
 44
0.0
173
     0
291
     1
 45
0.0
1001
ACAD
1000
AcDbSavedByObjectVersion
1070
     0
  0
VISUALSTYLE
  5
2C
102
{ACAD_REACTORS
330
2A
102
}
330
2A
100
AcDbVisualStyle
  2
FlatWithEdges
 70
     1
 71
     2
 72
     1
 73
     1
 90
        2
 40
-0.6
 41
30.0
 62
     5
 63
     7
421
 16777215
 74
     1
 91
        4
 64
     7
 65
   257
 75
     1
175
     1
 42
1.0
 92
        0
 66
   257
 43
1.0
 76
     1
 77
     6
 78
     2
 67
     7
 79
     5
170
     0
171
     0
290
     0
174
     0
 93
       13
 44
0.0
173
     0
291
     1
 45
0.0
1001
ACAD
1000
AcDbSavedByObjectVersion
1070
     0
  0
VISUALSTYLE
  5
2D
102
{ACAD_REACTORS
330
2A
102
}
330
2A
100
AcDbVisualStyle
  2
Gouraud
 70
     2
 71
     2
 72
     2
 73
     1
 90
        2
 40
-0.6
 41
30.0
 62
     5
 63
     7
421
 16777215
 74
     0
 91
        4
 64
     7
 65
   257
 75
     1
175
     1
 42
1.0
 92
        0
 66
     7
 43
1.0
 76
     1
 77
     6
 78
     2
 67
     7
 79
     5
170
     0
171
     0
290
     0
174
     0
 93
       13
 44
0.0
173
     0
291
     1
 45
0.0
1001
ACAD
1000
AcDbSavedByObjectVersion
1070
     0
  0
VISUALSTYLE
  5
2E
102
{ACAD_REACTORS
330
2A
102
}
330
2A
100
AcDbVisualStyle
  2
GouraudWithEdges
 70
     3
 71
     2
 72
     2
 73
     1
 90
        2
 40
-0.6
 41
30.0
 62
     5
 63
     7
421
 16777215
 74
     1
 91
        4
 64
     7
 65
   257
 75
     1
175
     1
 42
1.0
 92
        0
 66
   257
 43
1.0
 76
     1
 77
     6
 78
     2
 67
     7
 79
     5
170
     0
171
     0
290
     0
174
     0
 93
       13
 44
0.0
173
     0
291
     1
 45
0.0
1001
ACAD
1000
AcDbSavedByObjectVersion
1070
     0
  0
VISUALSTYLE
  5
38
102
{ACAD_REACTORS
330
2A
102
}
330
2A
100
AcDbVisualStyle
  2
Linepattern
 70
    14
 71
     2
 72
     2
 73
     0
 90
        0
 40
-0.6
 41
-30.0
 62
     5
 63
     7
421
 16777215
 74
     1
 91
        4
 64
     7
 65
   257
 75
     7
175
     7
 42
1.0
 92
        8
 66
     7
 43
1.0
 76
     1
 77
     6
 78
     2
 67
     7
 79
     5
170
     0
171
     0
290
     0
174
     0
 93
        1
 44
0.0
173
     0
291
     1
 45
0.0
1001
ACAD
1000
AcDbSavedByObjectVersion
1070
     0
  0
VISUALSTYLE
  5
33
102
{ACAD_REACTORS
330
2A
102
}
330
2A
100
AcDbVisualStyle
  2
Realistic
 70
     8
 71
     2
 72
     2
 73
     0
 90
        0
 40
-0.6
 41
-30.0
 62
     5
 63
     7
421
 16777215
 74
     1
 91
        0
 64
     7
 65
   257
 75
     1
175
     1
 42
1.0
 92
        8
 66
     8
424
  7895160
 43
1.0
 76
     1
 77
     6
 78
     2
 67
     7
 79
     5
170
     0
171
     0
290
     0
174
     0
 93
       13
 44
0.0
173
     0
291
     0
 45
0.0
1001
ACAD
1000
AcDbSavedByObjectVersion
1070
     0
  0
VISUALSTYLE
  5
37
102
{ACAD_REACTORS
330
2A
102
}
330
2A
100
AcDbVisualStyle
  2
Thicken
 70
    13
 71
     2
 72
     2
 73
     0
 90
        0
 40
-0.6
 41
-30.0
 62
     5
 63
     7
421
 16777215
 74
     1
 91
        4
 64
     7
 65
   257
 75
     1
175
     1
 42
1.0
 92
       12
 66
     7
 43
1.0
 76
     1
 77
     6
 78
     2
 67
     7
 79
     5
170
     0
171
     0
290
     0
174
     0
 93
        1
 44
0.0
173
     0
291
     1
 45
0.0
1001
ACAD
1000
AcDbSavedByObjectVersion
1070
     0
  0
ENDSEC
  0
SECTION
  2
THUMBNAILIMAGE
 90
    16364
310
28000000B40000005500000001000800000000000000000000000000000000000000000000000000FFFFFF000000FF0000FFFF0000FF0000FFFF0000FF000000FF00FF000000000080808000C0C0C0000000FF007F7FFF000000A5005252A50000007F003F3F7F0000004C0026264C000000260013132600003FFF007F9FFF
310
000029A5005267A500001F7F003F4F7F0000134C00262F4C000009260013172600007FFF007FBFFF000052A500527CA500003F7F003F5F7F0000264C0026394C0000132600131C260000BFFF007FDFFF00007CA5005291A500005F7F003F6F7F0000394C0026424C00001C26001321260000FFFF007FFFFF0000A5A50052A5
310
A500007F7F003F7F7F00004C4C00264C4C00002626001326260000FFBF007FFFDF0000A57C0052A59100007F5F003F7F6F00004C3900264C420000261C001326210000FF7F007FFFBF0000A5520052A57C00007F3F003F7F5F00004C2600264C39000026130013261C0000FF3F007FFF9F0000A5290052A56700007F1F003F
310
7F4F00004C1300264C2F00002609001326170000FF00007FFF7F0000A5000052A55200007F00003F7F3F00004C0000264C260000260000132613003FFF00009FFF7F0029A5000067A552001F7F00004F7F3F00134C00002F4C260009260000172613007FFF0000BFFF7F0052A500007CA552003F7F00005F7F3F00264C0000
310
394C2600132600001C261300BFFF0000DFFF7F007CA5000091A552005F7F00006F7F3F00394C0000424C26001C26000021261300FFFF0000FFFF7F00A5A50000A5A552007F7F00007F7F3F004C4C00004C4C26002626000026261300FFBF0000FFDF7F00A57C0000A59152007F5F00007F6F3F004C3900004C422600261C00
310
0026211300FF7F0000FFBF7F00A5520000A57C52007F3F00007F5F3F004C2600004C39260026130000261C1300FF3F0000FF9F7F00A5290000A56752007F1F00007F4F3F004C1300004C2F26002609000026171300FF000000FF7F7F00A5000000A55252007F0000007F3F3F004C0000004C2626002600000026131300FF00
310
3F00FF7F9F00A5002900A55267007F001F007F3F4F004C0013004C262F002600090026131700FF007F00FF7FBF00A5005200A5527C007F003F007F3F5F004C0026004C2639002600130026131C00FF00BF00FF7FDF00A5007C00A55291007F005F007F3F6F004C0039004C26420026001C0026132100FF00FF00FF7FFF00A5
310
00A500A552A5007F007F007F3F7F004C004C004C264C002600260026132600BF00FF00DF7FFF007C00A5009152A5005F007F006F3F7F0039004C0042264C001C002600211326007F00FF00BF7FFF005200A5007C52A5003F007F005F3F7F0026004C0039264C00130026001C1326003F00FF009F7FFF002900A5006752A500
310
1F007F004F3F7F0013004C002F264C000900260017132600000000002D2D2D005B5B5B0089898900B7B7B700B3B3B30000000000000000000000000000000000000000000000000000000000000000000000000000000000000000000000000000000000000000000000000000010101010101000000000000000000000000
310
00000000000000000000000000000000000000000000000000000000000000000000000000000000000000000000000000000000000000000000000000000000000000000001010101000000000000000000000000000000000000000000000000000000000000000000000000000000000000000000000000000000000000
310
00000000000000000000000000000000000000000000000000000000000000000000000101000001010000000000000000000000000000000000000000000000000000000000000000000000000000000000000000000000000000000000000000000000000000000000000000000000000000000000000000000101010100
310
00000000000000000000000000000000000000000000000000000000000000000000000000000000000000000000000000000000000000000000000000000000000000000000000000000000000100000000000000000000010100000101000000000000000000000101000000000000000000000000000000000000000000
310
00000000000000000000000000000000000000000000000000000000000000000000000000000000000000000000000001010101000000000000000000000000000000000000000000000000000000000000000000000000000000000000000000000000000000000000000000000000000000000000000000000000000000
310
00010101010000000000000000000101000001000100000000000000000001010101000000000000000000000000000000000000000000000000000000000000000000000000000000000000000000000000000000000000000000000000000000000000000101010100000000000000000000000000000000000000000000
310
00000000000000000000000000000000000000000000000000000000000000000000000000000000000000000000000000000000010100010000010000000000000101000101010101000101000000000001010001000101010000000000000000000000000000000000000000000000000000000000000000000000000000
310
00000000000000000000000000000000000000000001010101010101010101010101010101000000000000000000000000000000000000000000000000000000000000000000000000000000000000000000000000000000000000000000000000000000000000000101010000010000010100010101010101000000000001
310
01010101010101000001000001010100000000000000000000000000000000000000000000000000000000000000000000000000000000000000000000000000000000000000000000010101010100010101010101010101010001000000000000000000000000000000000000000000000000000000000000000000000000
310
00000000000000000000000000000000000000000000000000000000000001000001000100010101010000000000000101010101000000000000010101010100010001000000000000000000000000000000000000000000000000000000000000000000000000000000000000000000000000000000000000000000000001
310
01010101010101010101010101010101010000000000000000000000000000000000000000000000000000000000000000000000000000000000000000000000000000000000000000000000000000000000000001000101010100000000010101010101000000000001010101010100000000010101000100000000000000
310
00000000000000000000000000000000000000000000000000000000000000000000000000000000000000000000000000000000010000000000010101010101000000000001000000000000000000000000000000000000000000000000000000000000000000000000000000000000000000000000000000000000000000
310
00000000000000000001000001010000000101010000000000000000000000000000000000010101000000010101000000000000000000000000000000000000000000000000000000000000000000000000000000000000000000000000000000000000000000000001000000000000010001010000000000000100000000
310
00000000000000000000000000000000000000000000000000000000000000000000000000000000000000000000000000000000000000000000000000000101010000000101000000000000000000000000000000000000000000000001010000000101000000000000000000000000000000000000000000000000000000
310
00000000000000000000000000000000000000000000000000000000000000010000000000000101010100000000000001000000000000000000000000000000000000000000000000000000000000000000000000000000000000000000000000000000000000000000000000000000000001010000000101000000000000
310
00000000000000000000000000000000000000000001010000000101000000000000000000000000000000000000000000000000000000000000000000000000000000000000000000000000000000000000000001000000000000010101010000000000000100000000000000000000000000000000000000000000000000
310
00000000000000000000000000000000000000000000000000000000000000000101000000000101000000010100000000000000000000000000000000000000000000000000000000000000010100000001010000000001000000000000000000000000000000000000000000000000000000000000000000000000000000
310
00000000000000000000010000000000000101010100000000000001000000000000000000000000000000000000000000000000000000000000000000000000000000000000000000000000000000000000000001010001010101000000010100000000000000000000000000000000000000000000000000000000000000
310
00000000010100000001010101000100000000000000000000000000000000000000000000000000000000000000000000000000000000000000000000000001000000000000010101010000000000000100000000000000000000000000000000000000000000000000000000000000000000000000000000000000000000
310
00000000000000000001000100000001000001010000000000000000000000000000000000000000000000000000000000000000000000000000000100000001000001000101000000000000000000000000000000000000000000000000000000000000000000000000000000000000000000000100000000000001010101
310
00000000000001000000000000000000000000000000000000000000000000000000000000000000000000000000000000000000000000000000000000010101000100010000010000000000000000000000000000000000000000000000000000000000000000000000000000000000000100000001010001000101000000
310
00000000000000000000000000000000000000000000000000000000000000000000000000000000000001000000000000010101010000000000000100000000000000000000000000000000000000000000000000000000000000000000000000000000000000000000000000000000000001000001010100000100000000
310
00000000000000000000000000000000000000000000000000000000000000000000000000000000010000000101010001000000000000000000000000000000000000000000000000000000000000000000000000000000000000000000000100000000000001010101000000000000010000000000000000000000000000
310
00000000000000000000000000000000000000000000000000000000000000000000000000000000000100010000000100000000000000000000000000000000000000000000000000000000000000000000000000000000000000000000010000000100010000000000000000000000000000000000000000000000000000
310
00000000000000000000000000000000000000000001000000000000010101010000000000000100000000000000000000000000000000000000000000000000000000000000000000000000000000000000000000000000000000000000010100000001000000000000000000000000000000000000000000000000000000
310
00000000000000000000000000000000000000000001000000010100000000000000000000000000000000000000000000000000000000000000000000000000000000000000000000000100000000000001000101000000000000010000000000000000000000000000000000000000000000000000000000000000000000
310
00000000000000000000000000000000000000000100000001000000000000000000000000000000000000000000000000000000000000000000000000000000000000000000000000000001000000010000000000000000000000000000000000000000000000000000000000000000000000000000000000000000000000
310
01000000000000010101010000000000000100000000000000000000000000000000000000000000000000000000000000000000000000000000000000000000000000000000000001010000010000000000000000000000000000000000000000000000000000000000000000000000000000000000000000000000000000
310
00000100000101000000000000000000000000000000000000000000000000000000000000000000000000000000000000000000000100000000000001010101000000000000010000000000000000000000000000000000000000000000000000000000000000000000000000000000000000000000000000000000000100
310
00010000000000000000000000000000000000000000000000000000000000000000000000000000000000000000000000000000000000000100000100000000000000000000000000000000000000000000000000000000000000000000000000000000000000000000010000000000000101010100000000000001000000
310
00000000000000000000000000000000000000000000000000000000000000000000000000000000000000000000000000000100000100000000000000000000000000000000000000000000000000000000000000000000000000000000000000000000000000000000000000000100000100000000000000000000000000
310
00000000000000000000000000000000000000000000000000000000000000000100000000000001010101000000000000010000000000000000000000000000000000000000000000000000000000000000000000000000000000000000000000000000000000010001000000000000000000000000000000000000000000
310
00000000000000000000000000000000000000000000000000000000000000000000000001000001000000000000000000000000000000000000000000000000000000000000000000000000000000000000000000010000000000000101010100000000000001000000000000000000000000000000000000000000000000
310
00000000000000000000000000000000000000000000000001000000010000010000000000000000000000000000000000000000000000000000000000000000000000000000000000000000000000000000000000000000000001000001000000010000000000000000000000000000000000000000000000000000000000
310
00000000000000000000000100000000000001010101000000000000010000000000000000000000000000000000000000000000000000000000000000000000000000000000000000000000010101010101000100000000000000000000000000000000000000000000000000000000000000000000000000000000000000
310
00000000000000000000000000000000010000010101010001000000000000000000000000000000000000000000000000000000000000000000000000000000010000000000000101010100000000000001000000000000000000000000000000000000000000000000000000000000000000000000000000000000000000
310
00000101000001000001000000000000000000000000000000000000000000000000000000000000000000000000000000000000000000000000000000000000000000000000010000010000000100000000000000000000000000000000000000000000000000000000000000000000000000000001000000000000010101
310
01000000000000010000000000000000000000000000000000000000000000000000000000000000000000000000000000000000000001000001010100010000000000000000000000000000000000000101010101010101010101010101010101010101010101010101000000000000000000000000000000000001000001
310
00010100010000000000000000000000000000000000000000000000000000000000000000000000000000010101010101010101010101010101010101000000000000000000000000000000000000000000000000000000000000000000000000000000000000000000000101000001000001000000000000000000000000
310
00000000010100000000000000000000000000000000000000000000000000000101000000000000000000000000000000000100000100000001000000000000000000000000000000000000000000000000000000000000000000000000000001010101010001010101010101010101000100000000000000000000000000
310
00000000000000000000000000000000000000000000000000000000000000000001000101010001000000000000000000000000000000000100000000000000000000000000000000000000000000000000000000000100000000000000000000000000000000010000010101010101000000000000000000000000000000
310
00000000000000000000000000000000000000000000010101010101010100010101010101010101000000000000000000000000000000000000000000000000000000000000000000000000000000000000000000000001010100000100000000000000000000000000000000010000010101010101010101010101010101
310
01010101010101010101010000010000000000000000000000000000000001000001000101000000000000000000000000000000000000000000000000000000000000000000000000000001010101010101010101010101010101010100000000000000000000000000000000000000000000000000000000000000000000
310
00000000000000000000000000000101000100000000000000000000000000000000000100000100000000000000000000000000000000000000000000000001000001000000000000000000000000000000000100000100010000000000000000000000000000000000000000000000000000000000000000000000000000
310
00010000000000000000000000000000000001000000000000000000000000000000000000000000000000000000000000000000000000000000000000000000000000010100010000000000000000000000000000000000010000010000000000000000000000000000000000000000000000000100000100000000000000
310
00000000000000000000010001010000000000000000000000000000000000000000000000000000000000000000000000000000000001000000000000000000000000000000000100000000000000000000000000000000000000000000000000000000000000000000000000000000000000000000000001010001000000
310
00000000000000000000000000000100000100000000000000000000000000000000000000000000000001000001000000000000000000000000000000000001000101000000000000000000000000000000000000000000000000000000000000000000000000000000000100000000000000000000000000000000010000
310
00000000000000000000000000000000000000000000000000000000000000000000000000000000000000000000010000010000000000000000000000000000000000010000010000000000000000000000000000000000000000000000000100000100000000000000000000000000000000000100010000000000000000
310
00000000000000000000000000000000000000000000000000000000000000000001000000000000000000000000000000000100000000000000000000000000000000000000000000000000000000000000000000000000000000000000000000000001000100000000000000000000000000000000000001000001000000
310
00000000000000000000000000000000000000000001000001000000000000000000000000000000000000010001000000000000000000000000000000000000000000000000000000000000000000000000000000000100000000000000000000000000000000010000000000000000000000000000000000000000000000
310
00000000000000000000000000000000000000000000000000010001000000000000000000000000000000000000010000010000000000000000000000000000000000000000000000000100000100000000000000000000000000000000000001000100000000000000000000000000000000000000000000000000000000
310
00000000000000000000000001010101010101010101010101010101010100000000000000000000000000000000000000000000000000000000000000000000000000000000000000000000000001000100000000000000000000000000000000000001000001000000000000000000000000000000000000000000000000
310
01000001000000000000000000000000000000000000010001000000000000000000000000000000000000000000000000000000000000000000000000000000000100000000000000000000000000000000010000000000000000000000000000000000000000000000000000000000000000000000000000000000000000
310
00000001010001000000000000000000000000000000000000010000010000000000000000000000000000000000000000000000000100000100000000000000000000000000000000000001000101000000000000000000000000000000000000000000000000000000000000000000000000000000010000000000000000
310
00000000000000000100000000000000000000000000000000000000000000000000000000000000000000000000000000000000000000010001000100000000000000000000000000000000000001000001000000000000000000000000000000000000000000000000010000010000000000000000000000000000000000
310
00010001000101000000000000000000000000000000000000000000000000000000000000000000000000000100000000000000000000000000000000010000000000000000000000000000000000000000000000000000000000000000000000000000000000000001010100010000010000000000000000000000000000
310
00000000010000010000000000000000000000000000000000000000000000000100000100000000000000000000000000000000000001000100000001010000000000000000000000000000000000000000000000000000000000000000000000010000000000000000000000000000000001000000000000000000000000
310
00000000000000000000000000000000000000000000000000000000000000010101010100010000000000000000000000000000000000000001000001000000000000000000000000000000000000000000000000010000010000000000000000000000000000000000000001000101010101000000000000000000000000
310
00000000000000000000000000000000000000000000000100000000000000000000000000000000010000000000000000000000000000000000000000000000000000000000000000000000000000000000000001000000010001000000000000000000000000000000000000000100000100000000000000000000000000
310
00000000000000000000000100000100000000000000000000000000000000000000010001000000010000000000000000000000000000000000000000000000000000000000000000000000010000000000000000000000000000000001000000000000000000000000000000000000000000000000000000000000000000
310
00000000000000000000010000000100010000000000000000000000000000000000000001000001000000000000000000000000000000000000000000000000010000010000000000000000000000000000000000000001000100000001000000000000000000000000000000000000000000000000000000000000000000
310
00000100000000000000000000000000000000010000000000000000000000000000000000000000000000000000000000000000000000000000000000000001010101010001000000000000000000000000000000000000000100000100000000000000000000000000000000000000000000000001000001000000000000
310
00000000000000000000000000010001010101010000000000000000000000000000000000000000000000000000000000000000000000010000000000000000000000000000000001000000000000000000000000000000000000000000000000000000000000000000000000000000000000000101000001000100000000
310
00000000000000000000000000000001000001000000000000000000000000000000000000000000000000010000010000000000000000000000000000000000000001000100000001000000000000000000000000000000000000000000000000000000000000000000000001000000000000000000000000000000000100
310
00000000000000000000000000000000000000000000000000000000000000000000000000000000000000000101000100010000000000000000000000000000000000000100000100000000000000000000000000000000000000000000000001000001000000000000000000000000000000000000010001000001010000
310
00000000000000000000000000000000000000000000000000000000000000000000010000000000000000000000000000000001000000000000000000000000000000000000000000000000000000000000000000000000000000000000000000000001010001000000000000000000000000000000000000010000010000
310
00000000000000000000000000000000000000000000010000010000000000000000000000000000000000000100010101000000000000000000000000000000000000000000000000000000000000000000000000000001000000000000000000000000000000000100000000000000000000000000000000000000000000
310
00000000000000000000000000000000000000000000000000000100010000000000000000000000000000000000000100000100000000000000000000000000000000000000000000000001000001000000000000000000000000000000000000010001000000000000000000000000000000000000000000000000000000
310
00000000000000000000000000010000000000000000000000000000000001000000000000000000000000000000000000000000000000000000000000000000000000000000000000000000000000010001000000000000000000000000000000000000010000010000000000000000000000000000000000000000000000
310
00010000010000000000000000000000000000000000000100010000000000000000000000000000000000000000000000000000000000000000000000000000000001010101010101010101010101010101010100000000000000000000000000000000000000000000000000000000000000000000000000000000000000
310
00000000000100010000000000000000000000000000000000000100000100000000000000000000000000000000000000000000000001000001000000000000000000000000000000000000010001000000000000000000000000000000000000000000000000000000000000000000000000000000000100000000000000
310
00000000000000000001000000000000000000000000000000000000000000000000000000000000000000000000000000000000000000000000010000010000000000000000000000000000000000010000010000000000000000000000000000000000000000000000000100000100000000000000000000000000000000
310
00010000010000000000000000000000000000000000000000000000000000000000000000000000000000000001000000000000000000000000000000000100000000000000000000000000000000000000000000000000000000000000000000000000000000000000000000000001010001000000000000000000000000
310
00000000000100000100000000000000000000000000000000000000000000000001000001000000000000000000000000000000000001000101000000000000000000000000000000000000000000000000000000000000000000000000000000000100000000000000000000000000000000010000000000000000000000
310
00000000000000000000000000000000000000000000000000000000000000000000000000010100010000000000000000000000000000000000010000010000000000000000000000000000000000000000000000000100000100000000000000000000000000000000000100010100000000000000000000000000000000
310
00000000000000000000000000000000000000000000000001000000000000000000000000000000000100000000000000000000000000000000000000000000000000000000000000000000000000000000000000000000000001010001000000000000000000000000000000000001000001000000000000000000000000
310
00000000000000000000000001000001000000000000000000000000000000000100000100010000000000000000000000000000000000000000000000000000000000000000000000000000000100000000000000000000000000000000010000000000000000000000000000000000000000000000000000000000000000
310
00000000000000000000000000000000010100000100000000000000000000000000000000010000010101010101010101010101010101010101010101010101010100000100000000000000000000000000000000010000010001000000000000000000000000000000000000000000000000000000000000000000000000
310
00000001010101010101010101010101010101010100000000000000000000000000000000000000000000000000000000000000000000000000000000000000000000010101010100010000000000000000000000000000000001000000000000000000000000000000000000000000000000000000000001000000000000
310
00000000000000000000010000010001000101000000000000000000000000000000000000000000000000000000000000000000000000000101010101010101010101000101010101010000000000000000000000000000000000000000000000000000000000000000000000000000000000000000000001010000010000
310
01000000000000000000000000000000000100000000000000000000000000000000000000000000000000000000010000000000000000000000000000000001000001010001010000000000000000000000000000000000000000000000000000000000000000000000000000010101000101010101010101010100010101
310
00000000000000000000000000000000000000000000000000000000000000000000000000000000000000000000010000010101000100000000000000000000000000000000000101010101010101010101010101010101010101010101010101010100000000000000000000000000000000010000010001000001000000
310
00000000000000000000000000000000000000000000000000000000000000000000000101010101010101010101010101010101010000000000000000000000000000000000000000000000000000000000000000000000000000000000000000000000010100000100000100000000000000000000000000000000000000
310
00000000000000000000000000000000000000000000000000000000000000000000000000000000000100000100000101000000000000000000000000000000000000000000000000000000000000000000000000000000010000000000010101010101000000000001000000000000000000000000000000000000000000
310
00000000000000000000000000000000000000000000000000000101000100010001000000000000000000000000000000000000000000000000000000000000000000000000000000000000000000000000000000000000000000000001000001000100000100000000000000000000000000000000000000000000000000
310
00000000000000000000000000000100000000000001010101000000000000010000000000000000000000000000000000000000000000000000000000000000000000000000000000000000000000000101000101000001000000000000000000000000000000000000000000000000000000000000000000000000000000
310
00000000000000000000000000000000000000010000010100010100000000000000000000000000000000000000000000000000000000000000000000000000000000010000000000000101010100000000000001000000000000000000000000000000000000000000000000000000000000000000000000000000000000
310
00000000000000000000000100010000000000000000000000000000000000000000000000000000000000000000000000000000000000000000000000000000000000000000000100000100000000000000000000000000000000000000000000000000000000000000000000000000000000000000000001000000000000
310
01010101000000000000010000000000000000000000000000000000000000000000000000000000000000000000000000000000000000000000000000000000010000010000000000000000000000000000000000000000000000000000000000000000000000000000000000000000000000000000000000000000010000
310
01000000000000000000000000000000000000000000000000000000000000000000000000000000000000000000010000000000000101000100000000000001000000000000000000000000000000000000000000000000000000000000000000000000000000000000000000000000000000000000010000010000000000
310
00000000000000000000000000000000000000000000000000000000000000000000000000000000000000000000000000010000010000000000000000000000000000000000000000000000000000000000000000000000000000000000000000000001000000000000010101010000000000000100000000000000000000
310
00000000000000000000000000000000000000000000000000000000000000000000000000000000000000000101000001000000000000000000000000000000000000000000000000000000000000000000000000000000000000000000000000000000000100000101000000000000000000000000000000000000000000
310
00000000000000000000000000000000000000000000000000010000000000000101010100000000000001000000000000000000000000000000000000000000000000000000000000000000000000000000000000000000000000000000000000000100000001000000000000000000000000000000000000000000000000
310
00000000000000000000000000000000000000000000000000000100000001000000000000000000000000000000000000000000000000000000000000000000000000000000000000000000000001000000000000010101010000000000000100000000000000000000000000000000000000000000000000000000000000
310
00000000000000000000000000000000000000000000000001010000000100000000000000000000000000000000000000000000000000000000000000000000000000000000000000000000000001000000010100000000000000000000000000000000000000000000000000000000000000000000000000000000000000
310
00000000010000000000000101010100000000000001000000000000000000000000000000000000000000000000000000000000000000000000000000000000000000000000000000000000000100010000000100000000000000000000000000000000000000000000000000000000000000000000000000000000000000
310
00000001000000010001000000000000000000000000000000000000000000000000000000000000000000000000000000000000000000000001000000000000010101010000000000000100000000000000000000000000000000000000000000000000000000000000000000000000000000000000000000000000000000
310
00000100000101010000010000000000000000000000000000000000000000000000000000000000000000000000000000000000000000010000000101010001000000000000000000000000000000000000000000000000000000000000000000000000000000000000000000000100000000000001010101000000000000
310
01000000000000000000000000000000000000000000000000000000000000000000000000000000000000000000000000000000000000010101000100010000010000000000000000000000000000000000000000000000000000000000000000000000000000000000000100000001010001000101000000000000000000
310
00000000000000000000000000000000000000000000000000000000000000000000000001000000000000010101010000000000000100000000000000000000000000000000000000000000000000000000000000000000000000000000000000000000000000000000000000010001000000010000010000000000000000
310
00000000000000000000000000000000000000000000000000000000000000000100000001000001000101000000000000000000000000000000000000000000000000000000000000000000000000000000000000000000000100000000000001010101000000000000010000000000000000000000000000000000000000
310
00000000000000000000000000000000000000000000000000000000000000000000000001010001010101000001010000000000000000000000000000000000000000000000000000000000000000000000000101000000010101000001010000000000000000000000000000000000000000000000000000000000000000
310
00000000000000000000000000000001000000000000010101010000000000000100000000000000000000000000000000000000000000000000000000000000000000000000000000000000000000000000000000000000000001010000000001000000010100000000000000000000000000000000000000000000000000
310
00000000000000010100000001010000000101000000000000000000000000000000000000000000000000000000000000000000000000000000000000000000000000000100000000000001010101000000000000010000000000000000000000000000000000000000000000000000000000000000000000000000000000
310
00000000000000000000000000000000000000000000000101000000010100000000000000000000000000000000000000000000000000000000010100000001010000000000000000000000000000000000000000000000000000000000000000000000000000000000000000000000000000000000000000010000000000
310
00010100010000000000000100000000000000000000000000000000000000000000000000000000000000000000000000000000000000000000000000000000000000000000000000000000000001010000000101000000000000000000000000000000000000000000000000010100000001010000000000000000000000
310
00000000000000000000000000000000000000000000000000000000000000000000000000000000000000000000000100000000000001010101000000000000010000000000000000000000000000000000000000000000000000000000000000000000000000000000000000000000000000000000000000000000000000
310
00000000010001010000000101010100000000000000000000000000000000000101010000000101010000000000000000000000000000000000000000000000000000000000000000000000000000000000000000000000000000000000000000000000010000000000000101010100000000000001000000000000000000
310
00000000000000000000000000000000000000000000000000000000000000000000000000000000000000000000000000000000000000000000010001010100000000000101010101010000000000010101010101000000000101010001000000000000000000000000000000000000000000000000000000000000000000
310
00000000000000000000000000000000000000000000000000000100000000000001010101000000000000010000000000000000000000000000000000000000000000000000000000000000000000000000000000000000000000000000000000000000000000000000000000000100000100010101010100000000000000
310
01010101010000000000000101010101000100010000000000000000000000000000000000000000000000000000000000000000000000000000000000000000000000000000000000000000000000010101010101010101010101010101010101000000000000000000000000000000000000000000000000000000000000
310
00000000000000000000000000000000000000000000000000000000000000000000000001010100000100000001010101010101000000000000010101010101010100000100000101010000000000000000000000000000000000000000000000000000000000000000000000000000000000000000000000000000000000
310
00000000000101010001010101010101010101000101010000000000000000000000000000000000000000000000000000000000000000000000000000000000000000000000000000000000000000000000000000000000000001010001000001010000000000010001010101010100000100000000000101000100010101
310
00000000000000000000000000000000000000000000000000000000000000000000000000000000000000000000000000000000000000000000000101010101010101010101010101010100000000000000000000000000000000000000000000000000000000000000000000000000000000000000000000000000000000
310
00000000000000000000000000000000000101010101000000000000000001010100000100010100000000000000000101010100000000000000000000000000000000000000000000000000000000000000000000000000000000000000000000000000000000000000000000000000000000000000010101010000000000
310
00000000000000000000000000000000000000000000000000000000000000000000000000000000000000000000000000000000000000000000000000000000000000000000000001010000000000000000000001010000010100000000000000000000010100000000000000000000000000000000000000000000000000
310
00000000000000000000000000000000000000000000000000000000000000000000000000000000000000000101010100000000000000000000000000000000000000000000000000000000000000000000000000000000000000000000000000000000000000000000000000000000000000000000000000000000000000
310
00000000000000000000010100000101000000000000000000000000000000000000000000000000000000000000000000000000000000000000000000000000000000000000000000000000000000000000000000000000000000000000000000010101010000000000000000000000000000000000000000000000000000
310
00000000000000000000000000000000000000000000000000000000000000000000000000000000000000000000000000000000000000000000000000000001010101010100000000000000000000000000000000000000000000000000000000000000000000000000000000000000000000000000000000000000000000
310
00000000000000000000000000000000000000000000000101010100000000000000000000000000000000000000000000000000000000000000000000000000000000000000000000000000000000000000000000000000000000000000000000000000000000000000000000000000000000000000000000000000000000
310
000000000000000000000000000000000000000000000000000000000000000000000000000000000000000000000000000000000000000000000000000000000000000000000000000000000000000000000000000000000000000000000000000000000000000000000000
  0
ENDSEC
  0
EOF
