  0
SECTION
  2
HEADER
  9
$ACADVER
  1
AC1018
  9
$ACADMAINTVER
 70
     0
  9
$DWGCODEPAGE
  3
ANSI_1252
  9
$INSBASE
 10
0.0
 20
0.0
 30
0.0
  9
$EXTMIN
 10
-350.9187281719101
 20
128.8606135911385
 30
0.0
  9
$EXTMAX
 10
-287.926602187658
 20
179.2543143785401
 30
0.0
  9
$LIMMIN
 10
-350.9187281719101
 20
128.8606135911385
  9
$LIMMAX
 10
-287.926602187658
 20
179.2543143785401
  9
$ORTHOMODE
 70
     1
  9
$REGENMODE
 70
     1
  9
$FILLMODE
 70
     1
  9
$QTEXTMODE
 70
     0
  9
$MIRRTEXT
 70
     1
  9
$LTSCALE
 40
1.0
  9
$ATTMODE
 70
     1
  9
$TEXTSIZE
 40
2.5
  9
$TRACEWID
 40
1.0
  9
$TEXTSTYLE
  7
Standard
  9
$CLAYER
  8
0
  9
$CELTYPE
  6
ByLayer
  9
$CECOLOR
 62
     7
  9
$CELTSCALE
 40
1.0
  9
$DISPSILH
 70
     0
  9
$DIMSCALE
 40
1.0
  9
$DIMASZ
 40
2.5
  9
$DIMEXO
 40
0.625
  9
$DIMDLI
 40
3.75
  9
$DIMRND
 40
0.0000002
  9
$DIMDLE
 40
0.0
  9
$DIMEXE
 40
1.25
  9
$DIMTP
 40
0.0
  9
$DIMTM
 40
0.0
  9
$DIMTXT
 40
1.5
  9
$DIMCEN
 40
0.09
  9
$DIMTSZ
 40
0.0
  9
$DIMTOL
 70
     0
  9
$DIMLIM
 70
     0
  9
$DIMTIH
 70
     0
  9
$DIMTOH
 70
     0
  9
$DIMSE1
 70
     0
  9
$DIMSE2
 70
     0
  9
$DIMTAD
 70
     1
  9
$DIMZIN
 70
     8
  9
$DIMBLK
  1

  9
$DIMASO
 70
     1
  9
$DIMSHO
 70
     1
  9
$DIMPOST
  1

  9
$DIMAPOST
  1

  9
$DIMALT
 70
     0
  9
$DIMALTD
 70
     3
  9
$DIMALTF
 40
1.0
  9
$DIMLFAC
 40
1.0
  9
$DIMTOFL
 70
     1
  9
$DIMTVP
 40
0.0
  9
$DIMTIX
 70
     0
  9
$DIMSOXD
 70
     0
  9
$DIMSAH
 70
     0
  9
$DIMBLK1
  1

  9
$DIMBLK2
  1

  9
$DIMSTYLE
  2
Standard
  9
$DIMCLRD
 70
     0
  9
$DIMCLRE
 70
     0
  9
$DIMCLRT
 70
     0
  9
$DIMTFAC
 40
1.0
  9
$DIMGAP
 40
0.625
  9
$DIMJUST
 70
     0
  9
$DIMSD1
 70
     0
  9
$DIMSD2
 70
     0
  9
$DIMTOLJ
 70
     1
  9
$DIMTZIN
 70
     0
  9
$DIMALTZ
 70
     0
  9
$DIMALTTZ
 70
     0
  9
$DIMUPT
 70
     0
  9
$DIMDEC
 70
     2
  9
$DIMTDEC
 70
     2
  9
$DIMALTU
 70
     2
  9
$DIMALTTD
 70
     3
  9
$DIMTXSTY
  7
_TCW_TXTSTY_1
  9
$DIMAUNIT
 70
     0
  9
$DIMADEC
 70
     2
  9
$DIMALTRND
 40
0.01
  9
$DIMAZIN
 70
     0
  9
$DIMDSEP
 70
    46
  9
$DIMATFIT
 70
     3
  9
$DIMFRAC
 70
     2
  9
$DIMLDRBLK
  1

  9
$DIMLUNIT
 70
     2
  9
$DIMLWD
 70
    -2
  9
$DIMLWE
 70
    -2
  9
$DIMTMOVE
 70
     0
  9
$LUNITS
 70
     2
  9
$LUPREC
 70
     4
  9
$SKETCHINC
 40
1.0
  9
$FILLETRAD
 40
1.0
  9
$AUNITS
 70
     0
  9
$AUPREC
 70
     0
  9
$MENU
  1
.
  9
$ELEVATION
 40
0.0
  9
$PELEVATION
 40
0.0
  9
$THICKNESS
 40
0.0
  9
$LIMCHECK
 70
     0
  9
$CHAMFERA
 40
0.5
  9
$CHAMFERB
 40
0.5
  9
$CHAMFERC
 40
1.0
  9
$CHAMFERD
 40
0.0
  9
$SKPOLY
 70
     0
  9
$TDCREATE
 40
2454839.585649965
  9
$TDUCREATE
 40
2454839.543983299
  9
$TDUPDATE
 40
2454839.585649977
  9
$TDUUPDATE
 40
2454839.54398331
  9
$TDINDWG
 40
1.0
  9
$TDUSRTIMER
 40
1.0
  9
$USRTIMER
 70
     1
  9
$ANGBASE
 50
0.0
  9
$ANGDIR
 70
     0
  9
$PDMODE
 70
     0
  9
$PDSIZE
 40
0.0
  9
$PLINEWID
 40
0.0
  9
$SPLFRAME
 70
     0
  9
$SPLINETYPE
 70
     6
  9
$SPLINESEGS
 70
     8
  9
$HANDSEED
  5
3C0
  9
$SURFTAB1
 70
     6
  9
$SURFTAB2
 70
     6
  9
$SURFTYPE
 70
     6
  9
$SURFU
 70
     6
  9
$SURFV
 70
     6
  9
$UCSBASE
  2

  9
$UCSNAME
  2

  9
$UCSORG
 10
0.0
 20
0.0
 30
0.0
  9
$UCSXDIR
 10
1.0
 20
0.0
 30
0.0
  9
$UCSYDIR
 10
0.0
 20
1.0
 30
0.0
  9
$UCSORTHOREF
  2

  9
$UCSORTHOVIEW
 70
     0
  9
$UCSORGTOP
 10
0.0
 20
0.0
 30
0.0
  9
$UCSORGBOTTOM
 10
0.0
 20
0.0
 30
0.0
  9
$UCSORGLEFT
 10
0.0
 20
0.0
 30
0.0
  9
$UCSORGRIGHT
 10
0.0
 20
0.0
 30
0.0
  9
$UCSORGFRONT
 10
0.0
 20
0.0
 30
0.0
  9
$UCSORGBACK
 10
0.0
 20
0.0
 30
0.0
  9
$PUCSBASE
  2

  9
$PUCSNAME
  2

  9
$PUCSORG
 10
0.0
 20
0.0
 30
0.0
  9
$PUCSXDIR
 10
1.0
 20
0.0
 30
0.0
  9
$PUCSYDIR
 10
0.0
 20
1.0
 30
0.0
  9
$PUCSORTHOREF
  2

  9
$PUCSORTHOVIEW
 70
     0
  9
$PUCSORGTOP
 10
0.0
 20
0.0
 30
0.0
  9
$PUCSORGBOTTOM
 10
0.0
 20
0.0
 30
0.0
  9
$PUCSORGLEFT
 10
0.0
 20
0.0
 30
0.0
  9
$PUCSORGRIGHT
 10
0.0
 20
0.0
 30
0.0
  9
$PUCSORGFRONT
 10
0.0
 20
0.0
 30
0.0
  9
$PUCSORGBACK
 10
0.0
 20
0.0
 30
0.0
  9
$USERI1
 70
     0
  9
$USERI2
 70
     0
  9
$USERI3
 70
     0
  9
$USERI4
 70
     0
  9
$USERI5
 70
     0
  9
$USERR1
 40
0.0
  9
$USERR2
 40
0.0
  9
$USERR3
 40
0.0
  9
$USERR4
 40
0.0
  9
$USERR5
 40
0.0
  9
$WORLDVIEW
 70
     1
  9
$SHADEDGE
 70
     3
  9
$SHADEDIF
 70
    70
  9
$TILEMODE
 70
     1
  9
$MAXACTVP
 70
    64
  9
$PINSBASE
 10
0.0
 20
0.0
 30
0.0
  9
$PLIMCHECK
 70
     0
  9
$PEXTMIN
 10
-7.14375
 20
-6.127735
 30
0.0
  9
$PEXTMAX
 10
289.85625
 20
203.872265
 30
0.0
  9
$PLIMMIN
 10
-7.14375
 20
-6.127735
  9
$PLIMMAX
 10
289.85625
 20
203.872265
  9
$UNITMODE
 70
     0
  9
$VISRETAIN
 70
     1
  9
$PLINEGEN
 70
     0
  9
$PSLTSCALE
 70
     1
  9
$TREEDEPTH
 70
  3020
  9
$CMLSTYLE
  2
Standard
  9
$CMLJUST
 70
     0
  9
$CMLSCALE
 40
1.0
  9
$PROXYGRAPHICS
 70
     1
  9
$MEASUREMENT
 70
     0
  9
$CELWEIGHT
370
    -1
  9
$ENDCAPS
280
     0
  9
$JOINSTYLE
280
     0
  9
$LWDISPLAY
290
     0
  9
$INSUNITS
 70
     1
  9
$HYPERLINKBASE
  1

  9
$STYLESHEET
  1

  9
$XEDIT
290
     1
  9
$CEPSNTYPE
380
     0
  9
$PSTYLEMODE
290
     1
  9
$FINGERPRINTGUID
  2
{591E257A-B0F8-435E-A9D9-0B12430D192C}
  9
$VERSIONGUID
  2
{FAEB1C32-E019-11D5-929B-00C0DF256EC4}
  9
$EXTNAMES
290
     1
  9
$PSVPSCALE
 40
0.0
  9
$OLESTARTUP
290
     0
  9
$SORTENTS
280
   127
  9
$INDEXCTL
280
     0
  9
$HIDETEXT
280
     1
  9
$XCLIPFRAME
290
     0
  9
$HALOGAP
280
     0
  9
$OBSCOLOR
 70
   257
  9
$OBSLTYPE
280
     0
  9
$INTERSECTIONDISPLAY
280
     0
  9
$INTERSECTIONCOLOR
 70
   257
  9
$DIMASSOC
280
     2
  9
$PROJECTNAME
  1

  0
ENDSEC
  0
SECTION
  2
CLASSES
  0
CLASS
  1
ACDBDICTIONARYWDFLT
  2
AcDbDictionaryWithDefault
  3
ObjectDBX Classes
 90
        0
 91
        3
280
     0
281
     0
  0
CLASS
  1
VISUALSTYLE
  2
AcDbVisualStyle
  3
ObjectDBX Classes
 90
     4095
 91
        3
280
     0
281
     0
  0
CLASS
  1
TCOPTIONALDATA
  2
TcOptionalData
  3
ExTcadCustObjs|Description: TurboCAD extension data object
 90
        0
 91
        3
280
     0
281
     0
  0
ENDSEC
  0
SECTION
  2
TABLES
  0
TABLE
  2
VPORT
  5
8
330
0
100
AcDbSymbolTable
 70
     1
  0
VPORT
  5
29
330
8
100
AcDbSymbolTableRecord
100
AcDbViewportTableRecord
  2
*Active
 70
     0
 10
0.0
 20
0.0
 11
1.0
 21
1.0
 12
0.0
 22
0.0
 13
0.0
 23
0.0
 14
10.0
 24
10.0
 15
10.0
 25
10.0
 16
0.0
 26
0.0
 36
1.0
 17
522.2418771217427
 27
159.2453856087711
 37
0.0
 40
128.6585892033579
 41
1.972704714640199
 42
50.0
 43
0.0
 44
0.0
 50
0.0
 51
0.0
 71
     0
 72
   100
 73
     1
 74
     3
 75
     0
 76
     0
 77
     0
 78
     0
281
     0
 65
     1
110
0.0
120
0.0
130
0.0
111
1.0
121
0.0
131
0.0
112
0.0
122
1.0
132
0.0
 79
     0
146
0.0
  0
ENDTAB
  0
TABLE
  2
LTYPE
  5
5
330
0
100
AcDbSymbolTable
 70
    14
  0
LTYPE
  5
14
330
5
100
AcDbSymbolTableRecord
100
AcDbLinetypeTableRecord
  2
ByBlock
 70
     0
  3

 72
    65
 73
     0
 40
0.0
  0
LTYPE
  5
15
330
5
100
AcDbSymbolTableRecord
100
AcDbLinetypeTableRecord
  2
ByLayer
 70
     0
  3

 72
    65
 73
     0
 40
0.0
  0
LTYPE
  5
16
330
5
100
AcDbSymbolTableRecord
100
AcDbLinetypeTableRecord
  2
Continuous
 70
     0
  3
Solid line
 72
    65
 73
     0
 40
0.0
  0
LTYPE
  5
40
330
5
100
AcDbSymbolTableRecord
100
AcDbLinetypeTableRecord
  2
Durchgehend
 70
     0
  3
Durchgehend
 72
    65
 73
     0
 40
0.0
  0
LTYPE
  5
41
330
5
100
AcDbSymbolTableRecord
100
AcDbLinetypeTableRecord
  2
Rand
 70
     0
  3
Rand
 72
    65
 73
     6
 40
1.75
 49
0.5
 74
     0
 49
-0.25
 74
     0
 49
0.5
 74
     0
 49
-0.25
 74
     0
 49
0.0
 74
     0
 49
-0.25
 74
     0
  0
LTYPE
  5
42
330
5
100
AcDbSymbolTableRecord
100
AcDbLinetypeTableRecord
  2
Mitte
 70
     0
  3
Mitte
 72
    65
 73
     4
 40
2.0
 49
1.25
 74
     0
 49
-0.25
 74
     0
 49
0.25
 74
     0
 49
-0.25
 74
     0
  0
LTYPE
  5
43
330
5
100
AcDbSymbolTableRecord
100
AcDbLinetypeTableRecord
  2
Strichpunkt
 70
     0
  3
Strichpunkt
 72
    65
 73
     4
 40
1.0
 49
0.5
 74
     0
 49
-0.25
 74
     0
 49
0.0
 74
     0
 49
-0.25
 74
     0
  0
LTYPE
  5
44
330
5
100
AcDbSymbolTableRecord
100
AcDbLinetypeTableRecord
  2
Gestrichelt
 70
     0
  3
Gestrichelt
 72
    65
 73
     2
 40
0.75
 49
0.5
 74
     0
 49
-0.25
 74
     0
  0
LTYPE
  5
45
330
5
100
AcDbSymbolTableRecord
100
AcDbLinetypeTableRecord
  2
Teilen
 70
     0
  3
Teilen
 72
    65
 73
     6
 40
1.25
 49
0.5
 74
     0
 49
-0.25
 74
     0
 49
0.0
 74
     0
 49
-0.25
 74
     0
 49
0.0
 74
     0
 49
-0.25
 74
     0
  0
LTYPE
  5
46
330
5
100
AcDbSymbolTableRecord
100
AcDbLinetypeTableRecord
  2
Punkt
 70
     0
  3
Punkt
 72
    65
 73
     2
 40
0.25
 49
0.0
 74
     0
 49
-0.25
 74
     0
  0
LTYPE
  5
47
330
5
100
AcDbSymbolTableRecord
100
AcDbLinetypeTableRecord
  2
Verdeckt
 70
     0
  3
Verdeckt
 72
    65
 73
     2
 40
0.375
 49
0.25
 74
     0
 49
-0.125
 74
     0
  0
LTYPE
  5
48
330
5
100
AcDbSymbolTableRecord
100
AcDbLinetypeTableRecord
  2
$INVISIBLE
 70
     0
  3
$INVISIBLE
 72
    65
 73
     2
 40
200.0
 49
-100.0
 74
     0
 49
-100.0
 74
     0
  0
LTYPE
  5
49
330
5
100
AcDbSymbolTableRecord
100
AcDbLinetypeTableRecord
  2
CENTER2
 70
     0
  3
CENTER2
 72
    65
 73
     4
 40
28.575
 49
19.05
 74
     0
 49
-3.175
 74
     0
 49
3.175
 74
     0
 49
-3.175
 74
     0
  0
LTYPE
  5
4A
330
5
100
AcDbSymbolTableRecord
100
AcDbLinetypeTableRecord
  2
HIDDEN
 70
     0
  3
HIDDEN
 72
    65
 73
     2
 40
9.524999999999999
 49
6.35
 74
     0
 49
-3.175
 74
     0
  0
LTYPE
  5
4B
330
5
100
AcDbSymbolTableRecord
100
AcDbLinetypeTableRecord
  2
$SNAPEXT
 70
     0
  3
$SNAPEXT
 72
    65
 73
     2
 40
0.04
 49
0.02
 74
     0
 49
-0.02
 74
     0
  0
LTYPE
  5
4C
330
5
100
AcDbSymbolTableRecord
100
AcDbLinetypeTableRecord
  2
$AUXILIARY
 70
     0
  3
$AUXILIARY
 72
    65
 73
     2
 40
0.1
 49
0.05
 74
     0
 49
-0.05
 74
     0
  0
ENDTAB
  0
TABLE
  2
LAYER
  5
2
330
0
100
AcDbSymbolTable
 70
     2
  0
LAYER
  5
10
330
2
100
AcDbSymbolTableRecord
100
AcDbLayerTableRecord
  2
0
 70
     0
 62
     7
  6
Continuous
370
     0
390
F
  0
LAYER
  5
4D
330
2
100
AcDbSymbolTableRecord
100
AcDbLayerTableRecord
  2
Main lines
 70
     0
 62
     1
420
 16711680
  6
Continuous
370
    50
390
F
  0
ENDTAB
  0
TABLE
  2
STYLE
  5
3
330
0
100
AcDbSymbolTable
 70
     3
  0
STYLE
  5
11
330
3
100
AcDbSymbolTableRecord
100
AcDbTextStyleTableRecord
  2
Standard
 70
     0
 40
0.0
 41
1.0
 50
0.0
 71
     0
 42
0.2
  3
txt
  4

  0
STYLE
  5
51
330
3
100
AcDbSymbolTableRecord
100
AcDbTextStyleTableRecord
  2
_TCW_TXTSTY_1
 70
     0
 40
0.0
 41
1.0
 50
0.0
 71
     0
 42
0.6000000238418579
  3

  4

1001
ACAD
1000
Times New Roman
1071
      290
  0
STYLE
  5
53
330
3
100
AcDbSymbolTableRecord
100
AcDbTextStyleTableRecord
  2
_TCW_TXTSTY_2
 70
     0
 40
0.0
 41
1.0
 50
0.0
 71
     0
 42
0.6000000238418579
  3
TXT.SHX
  4

  0
ENDTAB
  0
TABLE
  2
VIEW
  5
6
330
0
100
AcDbSymbolTable
 70
     3
  0
VIEW
  5
4E
330
6
100
AcDbSymbolTableRecord
100
AcDbViewTableRecord
  2
Ansicht_0
 70
     0
 40
210.0
 10
148.5
 20
105.0
 41
297.0
 11
0.0
 21
0.0
 31
1.0
 12
0.0
 22
0.0
 32
0.0
 42
50.0
 43
0.0
 44
0.0
 50
0.0
 71
     0
281
     0
 72
     0
  0
VIEW
  5
4F
330
6
100
AcDbSymbolTableRecord
100
AcDbViewTableRecord
  2
View_1
 70
     0
 40
284.0433161658299
 10
512.838463245629
 20
124.8560872510085
 41
408.4701786252729
 11
0.0
 21
0.0
 31
1.0
 12
0.0
 22
0.0
 32
0.0
 42
50.0
 43
0.0
 44
0.0
 50
0.0
 71
     0
281
     0
 72
     0
  0
VIEW
  5
50
330
6
100
AcDbSymbolTableRecord
100
AcDbViewTableRecord
  2
View_2
 70
     0
 40
284.0433161658299
 10
512.8384652027845
 20
124.8560919880454
 41
408.4701786252729
 11
0.0
 21
0.0
 31
1.0
 12
0.0
 22
0.0
 32
0.0
 42
50.0
 43
0.0
 44
0.0
 50
0.0
 71
     0
281
     0
 72
     0
  0
ENDTAB
  0
TABLE
  2
UCS
  5
7
330
0
100
AcDbSymbolTable
 70
     0
  0
ENDTAB
  0
TABLE
  2
APPID
  5
9
330
0
100
AcDbSymbolTable
 70
     2
  0
APPID
  5
12
330
9
100
AcDbSymbolTableRecord
100
AcDbRegAppTableRecord
  2
ACAD
 70
     0
  0
APPID
  5
3F
330
9
100
AcDbSymbolTableRecord
100
AcDbRegAppTableRecord
  2
TCAD
 70
     0
  0
ENDTAB
  0
TABLE
  2
DIMSTYLE
  5
A
330
0
100
AcDbSymbolTable
 70
     2
100
AcDbDimStyleTable
  0
DIMSTYLE
105
27
330
A
100
AcDbSymbolTableRecord
100
AcDbDimStyleTableRecord
  2
Standard
 70
     0
 41
2.5
 42
0.625
 43
3.75
 44
1.25
 45
0.0000002
 73
     0
 74
     0
 77
     1
 78
     8
140
1.5
143
1.0
147
0.625
148
0.01
171
     3
172
     1
179
     2
271
     2
272
     2
274
     3
276
     2
340
51
  0
DIMSTYLE
105
52
330
A
100
AcDbSymbolTableRecord
100
AcDbDimStyleTableRecord
  2
ISO-25
 70
     0
 41
2.5
 42
0.625
 43
3.75
 44
1.25
 45
0.0000001
 73
     0
 74
     0
 77
     1
 78
     8
140
2.5
143
0.03937007874016
147
0.625
148
0.0000001
171
     3
172
     1
179
     2
271
     2
272
     2
274
     3
283
     0
284
     8
340
53
  0
ENDTAB
  0
TABLE
  2
BLOCK_RECORD
  5
1
330
0
100
AcDbSymbolTable
 70
     3
  0
BLOCK_RECORD
  5
1F
330
1
100
AcDbSymbolTableRecord
100
AcDbBlockTableRecord
  2
*Model_Space
340
22
  0
BLOCK_RECORD
  5
1B
330
1
100
AcDbSymbolTableRecord
100
AcDbBlockTableRecord
  2
*Paper_Space
340
1E
  0
BLOCK_RECORD
  5
3B
330
1
100
AcDbSymbolTableRecord
100
AcDbBlockTableRecord
  2
*Paper_Space1
340
3C
  0
BLOCK_RECORD
  5
54
330
1
100
AcDbSymbolTableRecord
100
AcDbBlockTableRecord
  2
A$C51CF3487
340
0
  0
ENDTAB
  0
ENDSEC
  0
SECTION
  2
BLOCKS
  0
BLOCK
  5
20
330
1F
100
AcDbEntity
  8
0
100
AcDbBlockBegin
  2
*Model_Space
 70
     0
 71
     0
 10
0.0
 20
0.0
 30
0.0
  3
*Model_Space
  1

  0
ENDBLK
  5
21
330
1F
100
AcDbEntity
  8
0
100
AcDbBlockEnd
  0
BLOCK
  5
1C
330
1B
100
AcDbEntity
 67
     1
  8
0
100
AcDbBlockBegin
  2
*Paper_Space
 70
     0
 71
     0
 10
0.0
 20
0.0
 30
0.0
  3
*Paper_Space
  1

  0
ENDBLK
  5
1D
330
1B
100
AcDbEntity
 67
     1
  8
0
100
AcDbBlockEnd
  0
BLOCK
  5
3D
330
3B
100
AcDbEntity
  8
0
100
AcDbBlockBegin
  2
*Paper_Space1
 70
     0
 71
     0
 10
0.0
 20
0.0
 30
0.0
  3
*Paper_Space1
  1

  0
VIEWPORT
  5
3BE
330
3B
100
AcDbEntity
  8
0
100
AcDbViewport
 10
141.5032972770365
 20
98.74341916923657
 30
0.0
 40
287.7219291732101
 41
200.0770072641286
 68
     1
 69
     1
 12
141.5032972770365
 22
98.74341916923657
 13
0.0
 23
0.0
 14
5.0
 24
5.0
 15
5.0
 25
5.0
 16
0.0
 26
0.0
 36
1.0
 17
0.0
 27
0.0
 37
0.0
 42
50.0
 43
0.0
 44
0.0
 45
200.0770072641286
 50
0.0
 51
0.0
 72
  1000
 90
    32800
  1

281
     0
 71
     1
 74
     0
110
0.0
120
0.0
130
0.0
111
1.0
121
0.0
131
0.0
112
0.0
122
1.0
132
0.0
 79
     0
146
0.0
170
     0
  0
ENDBLK
  5
3E
330
3B
100
AcDbEntity
  8
0
100
AcDbBlockEnd
  0
BLOCK
  5
55
330
54
100
AcDbEntity
  8
0
100
AcDbBlockBegin
  2
A$C51CF3487
 70
     0
 71
     0
 10
0.0
 20
0.0
 30
0.0
  3
A$C51CF3487
  1

  0
ARC
  5
58
102
{ACAD_XDICTIONARY
360
56
102
}
330
54
100
AcDbEntity
  8
Main lines
100
AcDbCircle
 10
8.000000321640414
 20
7.999999737960735
 30
0.0
 40
8.0
100
AcDbArc
 50
180.0
 51
270.0
  0
LINE
  5
5B
102
{ACAD_XDICTIONARY
360
59
102
}
330
54
100
AcDbEntity
  8
Main lines
100
AcDbLine
 10
0.0000003216404139
 20
47.99999973796074
 30
0.0
 11
0.0000003216404139
 21
7.999999737960735
 31
0.0
  0
LINE
  5
5E
102
{ACAD_XDICTIONARY
360
5C
102
}
330
54
100
AcDbEntity
  8
Main lines
100
AcDbLine
 10
8.750000321640414
 20
17.99999973796074
 30
0.0
 11
8.750000321640414
 21
9.249999737960735
 31
0.0
  0
LINE
  5
61
102
{ACAD_XDICTIONARY
360
5F
102
}
330
54
100
AcDbEntity
  8
Main lines
100
AcDbLine
 10
8.000000321640414
 20
-0.000000262039265
 30
0.0
 11
48.00000032164041
 21
-0.000000262039265
 31
0.0
  0
LINE
  5
64
102
{ACAD_XDICTIONARY
360
62
102
}
330
54
100
AcDbEntity
  8
Main lines
100
AcDbLine
 10
9.250000321640414
 20
8.749999737960735
 30
0.0
 11
18.00000032164041
 21
8.749999737960735
 31
0.0
  0
ARC
  5
67
102
{ACAD_XDICTIONARY
360
65
102
}
330
54
100
AcDbEntity
  8
Main lines
100
AcDbCircle
 10
9.250000321640414
 20
9.249999737960735
 30
0.0
 40
0.5
100
AcDbArc
 50
180.0
 51
270.0
  0
LINE
  5
6A
102
{ACAD_XDICTIONARY
360
68
102
}
330
54
100
AcDbEntity
  8
Main lines
100
AcDbLine
 10
8.250000321640414
 20
18.49999973796074
 30
0.0
 11
8.250000321640414
 21
37.49999973796079
 31
0.0
  0
LINE
  5
6D
102
{ACAD_XDICTIONARY
360
6B
102
}
330
54
100
AcDbEntity
  8
Main lines
100
AcDbLine
 10
8.750000321640414
 20
17.99999973796074
 30
0.0
 11
8.250000321640414
 21
18.49999973796074
 31
0.0
  0
LINE
  5
70
102
{ACAD_XDICTIONARY
360
6E
102
}
330
54
100
AcDbEntity
  8
Main lines
100
AcDbLine
 10
18.50000032164041
 20
8.249999737960735
 30
0.0
 11
37.50000032164041
 21
8.249999737960735
 31
0.0
  0
LINE
  5
73
102
{ACAD_XDICTIONARY
360
71
102
}
330
54
100
AcDbEntity
  8
Main lines
100
AcDbLine
 10
18.00000032164041
 20
8.749999737960735
 30
0.0
 11
18.50000032164041
 21
8.249999737960735
 31
0.0
  0
LINE
  5
76
102
{ACAD_XDICTIONARY
360
74
102
}
330
54
100
AcDbEntity
  8
Main lines
100
AcDbLine
 10
38.00000032164041
 20
8.749999737960735
 30
0.0
 11
46.75000032164041
 21
8.749999737960735
 31
0.0
  0
LINE
  5
79
102
{ACAD_XDICTIONARY
360
77
102
}
330
54
100
AcDbEntity
  8
Main lines
100
AcDbLine
 10
38.00000032164041
 20
8.749999737960735
 30
0.0
 11
37.50000032164041
 21
8.249999737960735
 31
0.0
  0
ARC
  5
7C
102
{ACAD_XDICTIONARY
360
7A
102
}
330
54
100
AcDbEntity
  8
Main lines
100
AcDbCircle
 10
46.75000032164041
 20
9.249999737960735
 30
0.0
 40
0.5
100
AcDbArc
 50
-90.0
 51
0.0
  0
LINE
  5
7F
102
{ACAD_XDICTIONARY
360
7D
102
}
330
54
100
AcDbEntity
  8
Main lines
100
AcDbLine
 10
47.25000032164041
 20
9.249999737960735
 30
0.0
 11
47.25000032164041
 21
17.99999973796076
 31
0.0
  0
LINE
  5
82
102
{ACAD_XDICTIONARY
360
80
102
}
330
54
100
AcDbEntity
  8
Main lines
100
AcDbLine
 10
47.25000032164041
 20
17.99999973796074
 30
0.0
 11
47.75000032164041
 21
18.49999973796068
 31
0.0
  0
LINE
  5
85
102
{ACAD_XDICTIONARY
360
83
102
}
330
54
100
AcDbEntity
  8
Main lines
100
AcDbLine
 10
47.75000032164041
 20
37.49999973796074
 30
0.0
 11
47.75000032164041
 21
18.49999973796068
 31
0.0
  0
LINE
  5
88
102
{ACAD_XDICTIONARY
360
86
102
}
330
54
100
AcDbEntity
  8
Main lines
100
AcDbLine
 10
47.25000032164041
 20
37.99999973796074
 30
0.0
 11
47.75000032164041
 21
37.49999973796074
 31
0.0
  0
LINE
  5
8B
102
{ACAD_XDICTIONARY
360
89
102
}
330
54
100
AcDbEntity
  8
Main lines
100
AcDbLine
 10
47.25000032164041
 20
37.99999973796071
 30
0.0
 11
47.25000032164036
 21
46.74999973796074
 31
0.0
  0
ARC
  5
8E
102
{ACAD_XDICTIONARY
360
8C
102
}
330
54
100
AcDbEntity
  8
Main lines
100
AcDbCircle
 10
46.75000032164036
 20
46.74999973796074
 30
0.0
 40
0.5
100
AcDbArc
 50
0.0
 51
90.0
  0
LINE
  5
91
102
{ACAD_XDICTIONARY
360
8F
102
}
330
54
100
AcDbEntity
  8
Main lines
100
AcDbLine
 10
46.75000032164036
 20
47.24999973796074
 30
0.0
 11
38.0000003216403
 21
47.24999973796074
 31
0.0
  0
LINE
  5
94
102
{ACAD_XDICTIONARY
360
92
102
}
330
54
100
AcDbEntity
  8
Main lines
100
AcDbLine
 10
38.00000032164041
 20
47.24999973796074
 30
0.0
 11
37.50000032164041
 21
47.74999973796071
 31
0.0
  0
LINE
  5
97
102
{ACAD_XDICTIONARY
360
95
102
}
330
54
100
AcDbEntity
  8
Main lines
100
AcDbLine
 10
37.50000032164041
 20
47.74999973796071
 30
0.0
 11
18.50000032164041
 21
47.74999973796074
 31
0.0
  0
LINE
  5
9A
102
{ACAD_XDICTIONARY
360
98
102
}
330
54
100
AcDbEntity
  8
Main lines
100
AcDbLine
 10
18.00000032164041
 20
47.24999973796074
 30
0.0
 11
18.50000032164041
 21
47.74999973796071
 31
0.0
  0
LINE
  5
9D
102
{ACAD_XDICTIONARY
360
9B
102
}
330
54
100
AcDbEntity
  8
Main lines
100
AcDbLine
 10
18.00000032164041
 20
47.24999973796074
 30
0.0
 11
9.250000321640357
 21
47.24999973796074
 31
0.0
  0
ARC
  5
A0
102
{ACAD_XDICTIONARY
360
9E
102
}
330
54
100
AcDbEntity
  8
Main lines
100
AcDbCircle
 10
9.250000321640357
 20
46.74999973796074
 30
0.0
 40
0.5
100
AcDbArc
 50
90.0
 51
180.0
  0
LINE
  5
A3
102
{ACAD_XDICTIONARY
360
A1
102
}
330
54
100
AcDbEntity
  8
Main lines
100
AcDbLine
 10
8.750000321640357
 20
46.74999973796074
 30
0.0
 11
8.750000321640414
 21
37.99999973796076
 31
0.0
  0
LINE
  5
A6
102
{ACAD_XDICTIONARY
360
A4
102
}
330
54
100
AcDbEntity
  8
Main lines
100
AcDbLine
 10
8.750000321640414
 20
37.99999973796074
 30
0.0
 11
8.250000321640414
 21
37.49999973796079
 31
0.0
  0
ARC
  5
A9
102
{ACAD_XDICTIONARY
360
A7
102
}
330
54
100
AcDbEntity
  8
Main lines
100
AcDbCircle
 10
8.000000321640414
 20
47.99999973796074
 30
0.0
 40
8.0
100
AcDbArc
 50
90.0
 51
180.0
  0
LINE
  5
AC
102
{ACAD_XDICTIONARY
360
AA
102
}
330
54
100
AcDbEntity
  8
Main lines
100
AcDbLine
 10
48.00000032164041
 20
55.99999973796071
 30
0.0
 11
8.000000321640414
 21
55.99999973796074
 31
0.0
  0
ARC
  5
AF
102
{ACAD_XDICTIONARY
360
AD
102
}
330
54
100
AcDbEntity
  8
Main lines
100
AcDbCircle
 10
48.00000032164041
 20
47.99999973796071
 30
0.0
 40
8.0
100
AcDbArc
 50
0.0
 51
90.0
  0
LINE
  5
B2
102
{ACAD_XDICTIONARY
360
B0
102
}
330
54
100
AcDbEntity
  8
Main lines
100
AcDbLine
 10
56.00000032164041
 20
7.999999737960735
 30
0.0
 11
56.00000032164041
 21
47.99999973796071
 31
0.0
  0
ARC
  5
B5
102
{ACAD_XDICTIONARY
360
B3
102
}
330
54
100
AcDbEntity
  8
Main lines
100
AcDbCircle
 10
48.00000032164041
 20
7.999999737960735
 30
0.0
 40
8.0
100
AcDbArc
 50
-90.0
 51
0.0
  0
ENDBLK
  5
B6
330
54
100
AcDbEntity
  8
0
100
AcDbBlockEnd
  0
ENDSEC
  0
SECTION
  2
ENTITIES
  0
LWPOLYLINE
  5
B7
330
1F
100
AcDbEntity
  8
Main lines
370
    50
100
AcDbPolyline
 90
        2
 70
     1
 10
466.9717022617319
 20
212.1837666087711
 40
0.0196850392967103
 41
0.0196850392967906
 42
2.414213562373
 10
519.910083261732
 20
159.2453856087711
 40
0.0
 41
0.0
  0
LINE
  5
BA
102
{ACAD_XDICTIONARY
360
B8
102
}
330
1F
100
AcDbEntity
  8
Main lines
100
AcDbLine
 10
600.3839696784096
 20
212.1837666087711
 30
0.0
 11
611.8839696784096
 21
212.1837666087712
 31
0.0
  0
LINE
  5
BD
102
{ACAD_XDICTIONARY
360
BB
102
}
330
1F
100
AcDbEntity
  8
Main lines
100
AcDbLine
 10
638.3839696784096
 20
210.1837666087711
 30
0.0
 11
638.3839696784096
 21
208.745385608771
 31
0.0
  0
LINE
  5
C0
102
{ACAD_XDICTIONARY
360
BE
102
}
330
1F
100
AcDbEntity
  8
Main lines
100
AcDbLine
 10
636.3839696784096
 20
106.3070046087711
 30
0.0
 11
628.6672200951124
 21
106.3070046087711
 31
0.0
  0
LINE
  5
C3
102
{ACAD_XDICTIONARY
360
C1
102
}
330
1F
100
AcDbEntity
  8
Main lines
100
AcDbLine
 10
598.3839696784096
 20
208.745385608771
 30
0.0
 11
598.3839696784096
 21
210.1837666087711
 31
0.0
  0
POINT
  5
C4
330
1F
100
AcDbEntity
  8
Main lines
  6
Durchgehend
100
AcDbPoint
 10
466.9717022605984
 20
159.2453856134165
 30
0.0
  0
LWPOLYLINE
  5
C5
330
1F
100
AcDbEntity
  8
Main lines
370
    50
100
AcDbPolyline
 90
        2
 70
     1
 10
466.9717022617319
 20
206.745385608771
 40
0.0196850392967103
 41
0.0196850392967906
 42
2.414213562372999
 10
514.4717022617319
 20
159.245385608771
 40
0.0
 41
0.0
  0
LINE
  5
C8
102
{ACAD_XDICTIONARY
360
C6
102
}
330
1F
100
AcDbEntity
  8
Main lines
100
AcDbLine
 10
600.3839696784096
 20
206.745385608771
 30
0.0
 11
610.3839696784096
 21
206.745385608771
 31
0.0
  0
LINE
  5
CB
102
{ACAD_XDICTIONARY
360
C9
102
}
330
1F
100
AcDbEntity
  8
Main lines
100
AcDbLine
 10
598.3839696784096
 20
179.2953856134166
 30
0.0
 11
638.3839696784096
 21
179.2953856134166
 31
0.0
  0
LINE
  5
CE
102
{ACAD_XDICTIONARY
360
CC
102
}
330
1F
100
AcDbEntity
  8
Main lines
100
AcDbLine
 10
598.3839696784096
 20
178.4953856134166
 30
0.0
 11
638.3839696784096
 21
178.4953856134166
 31
0.0
  0
LINE
  5
D1
102
{ACAD_XDICTIONARY
360
CF
102
}
330
1F
100
AcDbEntity
  8
Main lines
100
AcDbLine
 10
615.3839696784096
 20
201.745385608771
 30
0.0
 11
615.3839696784096
 21
191.2953856134166
 31
0.0
  0
LINE
  5
D4
102
{ACAD_XDICTIONARY
360
D2
102
}
330
1F
100
AcDbEntity
  8
Main lines
100
AcDbLine
 10
621.3839696784096
 20
201.745385608771
 30
0.0
 11
621.3839696784096
 21
191.2953856134166
 31
0.0
  0
LINE
  5
D7
102
{ACAD_XDICTIONARY
360
D5
102
}
330
1F
100
AcDbEntity
  8
Main lines
100
AcDbLine
 10
626.3839696784096
 20
206.745385608771
 30
0.0
 11
636.3839696784096
 21
206.745385608771
 31
0.0
  0
ARC
  5
DA
102
{ACAD_XDICTIONARY
360
D8
102
}
330
1F
100
AcDbEntity
  8
Main lines
100
AcDbCircle
 10
626.3839696784096
 20
201.745385608771
 30
0.0
 40
5.0
100
AcDbArc
 50
90.0
 51
180.0
  0
ARC
  5
DD
102
{ACAD_XDICTIONARY
360
DB
102
}
330
1F
100
AcDbEntity
  8
Main lines
100
AcDbCircle
 10
610.3839696784096
 20
201.745385608771
 30
0.0
 40
5.0
100
AcDbArc
 50
0.0
 51
90.0
  0
LINE
  5
E0
102
{ACAD_XDICTIONARY
360
DE
102
}
330
1F
100
AcDbEntity
  8
Main lines
100
AcDbLine
 10
628.8902836547679
 20
212.1837666087711
 30
0.0
 11
636.3839696784096
 21
212.1837666087711
 31
0.0
  0
LINE
  5
E3
102
{ACAD_XDICTIONARY
360
E1
102
}
330
1F
100
AcDbEntity
  8
Main lines
100
AcDbLine
 10
615.3839696784096
 20
116.7453856087712
 30
0.0
 11
615.3839696784096
 21
126.2453856072231
 31
0.0
  0
LINE
  5
E6
102
{ACAD_XDICTIONARY
360
E4
102
}
330
1F
100
AcDbEntity
  8
Main lines
100
AcDbLine
 10
621.3839696784096
 20
116.7453856087712
 30
0.0
 11
621.3839696784096
 21
126.2453856072231
 31
0.0
  0
LINE
  5
E9
102
{ACAD_XDICTIONARY
360
E7
102
}
330
1F
100
AcDbEntity
  8
Main lines
100
AcDbLine
 10
598.3839696784096
 20
139.1953856041257
 30
0.0
 11
638.3839696784096
 21
139.1953856041257
 31
0.0
  0
LINE
  5
EC
102
{ACAD_XDICTIONARY
360
EA
102
}
330
1F
100
AcDbEntity
  8
Main lines
100
AcDbLine
 10
598.3839696784096
 20
139.9953856041257
 30
0.0
 11
638.3839696784096
 21
139.9953856041257
 31
0.0
  0
LINE
  5
EF
102
{ACAD_XDICTIONARY
360
ED
102
}
330
1F
100
AcDbEntity
  8
Main lines
100
AcDbLine
 10
600.3839696784098
 20
111.7453856087713
 30
0.0
 11
610.3839696784096
 21
111.7453856087712
 31
0.0
  0
ARC
  5
F2
102
{ACAD_XDICTIONARY
360
F0
102
}
330
1F
100
AcDbEntity
  8
Main lines
100
AcDbCircle
 10
610.3839696784096
 20
116.7453856087712
 30
0.0
 40
5.0
100
AcDbArc
 50
-90.0
 51
0.0
  0
LINE
  5
F5
102
{ACAD_XDICTIONARY
360
F3
102
}
330
1F
100
AcDbEntity
  8
Main lines
100
AcDbLine
 10
626.3839696784096
 20
111.7453856087712
 30
0.0
 11
636.3839696784096
 21
111.7453856087713
 31
0.0
  0
ARC
  5
F8
102
{ACAD_XDICTIONARY
360
F6
102
}
330
1F
100
AcDbEntity
  8
Main lines
100
AcDbCircle
 10
626.3839696784096
 20
116.7453856087712
 30
0.0
 40
5.0
100
AcDbArc
 50
180.0
 51
270.0
  0
LINE
  5
FB
102
{ACAD_XDICTIONARY
360
F9
102
}
330
1F
100
AcDbEntity
  8
Main lines
100
AcDbLine
 10
611.0716345046324
 20
106.3070046087712
 30
0.0
 11
600.3839696784098
 21
106.3070046087711
 31
0.0
  0
ARC
  5
FE
102
{ACAD_XDICTIONARY
360
FC
102
}
330
1F
100
AcDbEntity
  8
Main lines
100
AcDbCircle
 10
600.3839696784096
 20
210.1837666087711
 30
0.0
 40
2.0
100
AcDbArc
 50
90.0
 51
180.0
  0
ARC
  5
101
102
{ACAD_XDICTIONARY
360
FF
102
}
330
1F
100
AcDbEntity
  8
Main lines
100
AcDbCircle
 10
600.3839696784096
 20
208.745385608771
 30
0.0
 40
2.0
100
AcDbArc
 50
180.0
 51
270.0
  0
ARC
  5
104
102
{ACAD_XDICTIONARY
360
102
102
}
330
1F
100
AcDbEntity
  8
Main lines
100
AcDbCircle
 10
636.3839696784096
 20
208.745385608771
 30
0.0
 40
2.0
100
AcDbArc
 50
-90.0
 51
0.0
  0
ARC
  5
107
102
{ACAD_XDICTIONARY
360
105
102
}
330
1F
100
AcDbEntity
  8
Main lines
100
AcDbCircle
 10
636.3839696784096
 20
210.1837666087711
 30
0.0
 40
2.0
100
AcDbArc
 50
0.0
 51
90.0
  0
LINE
  5
10A
102
{ACAD_XDICTIONARY
360
108
102
}
330
1F
100
AcDbEntity
  8
Main lines
100
AcDbLine
 10
598.3839696784098
 20
109.7453856087713
 30
0.0
 11
598.3839696784098
 21
108.3070046087711
 31
0.0
  0
LINE
  5
10D
102
{ACAD_XDICTIONARY
360
10B
102
}
330
1F
100
AcDbEntity
  8
Main lines
100
AcDbLine
 10
638.3839696784096
 20
109.7453856087713
 30
0.0
 11
638.3839696784096
 21
108.3070046087711
 31
0.0
  0
ARC
  5
110
102
{ACAD_XDICTIONARY
360
10E
102
}
330
1F
100
AcDbEntity
  8
Main lines
100
AcDbCircle
 10
600.3839696784098
 20
108.3070046087711
 30
0.0
 40
2.0
100
AcDbArc
 50
180.0
 51
270.0
  0
ARC
  5
113
102
{ACAD_XDICTIONARY
360
111
102
}
330
1F
100
AcDbEntity
  8
Main lines
100
AcDbCircle
 10
636.3839696784096
 20
108.3070046087711
 30
0.0
 40
2.0
100
AcDbArc
 50
-90.0
 51
0.0
  0
ARC
  5
116
102
{ACAD_XDICTIONARY
360
114
102
}
330
1F
100
AcDbEntity
  8
Main lines
100
AcDbCircle
 10
636.3839696784096
 20
109.7453856087713
 30
0.0
 40
2.0
100
AcDbArc
 50
0.0
 51
90.0
  0
ARC
  5
119
102
{ACAD_XDICTIONARY
360
117
102
}
330
1F
100
AcDbEntity
  8
Main lines
100
AcDbCircle
 10
600.3839696784098
 20
109.7453856087713
 30
0.0
 40
2.0
100
AcDbArc
 50
90.0
 51
180.0
  0
LINE
  5
11C
102
{ACAD_XDICTIONARY
360
11A
102
}
330
1F
100
AcDbEntity
  8
Main lines
100
AcDbLine
 10
598.3839696784096
 20
137.1953856041257
 30
0.0
 11
598.3839696784096
 21
139.1953856041257
 31
0.0
  0
LINE
  5
11F
102
{ACAD_XDICTIONARY
360
11D
102
}
330
1F
100
AcDbEntity
  8
Main lines
100
AcDbLine
 10
638.3839696784096
 20
137.1953856041257
 30
0.0
 11
638.3839696784096
 21
139.1953856041257
 31
0.0
  0
LINE
  5
122
102
{ACAD_XDICTIONARY
360
120
102
}
330
1F
100
AcDbEntity
  8
Main lines
100
AcDbLine
 10
598.3839696784097
 20
184.2953856134166
 30
0.0
 11
598.3839696784097
 21
134.195385607223
 31
0.0
  0
LINE
  5
125
102
{ACAD_XDICTIONARY
360
123
102
}
330
1F
100
AcDbEntity
  8
Main lines
100
AcDbLine
 10
638.3839696784096
 20
184.2953856134166
 30
0.0
 11
638.3839696784095
 21
134.195385607223
 31
0.0
  0
LINE
  5
128
102
{ACAD_XDICTIONARY
360
126
102
}
330
1F
100
AcDbEntity
  8
Main lines
100
AcDbLine
 10
605.727802091521
 20
106.3070046087711
 30
0.0
 11
612.909236074434
 21
106.3070046087711
 31
0.0
  0
LINE
  5
12B
102
{ACAD_XDICTIONARY
360
129
102
}
330
1F
100
AcDbEntity
  8
Main lines
100
AcDbLine
 10
631.393378972905
 20
106.3070046087711
 30
0.0
 11
622.8839696784096
 21
106.3070046087711
 31
0.0
  0
LINE
  5
12E
102
{ACAD_XDICTIONARY
360
12C
102
}
330
1F
100
AcDbEntity
  8
Main lines
100
AcDbLine
 10
611.2946980642878
 20
212.1837666087712
 30
0.0
 11
612.8839696784096
 21
212.1837666087712
 31
0.0
  0
LINE
  5
131
102
{ACAD_XDICTIONARY
360
12F
102
}
330
1F
100
AcDbEntity
  8
Main lines
100
AcDbLine
 10
624.8839696784096
 20
212.1837666087711
 30
0.0
 11
632.6371266665888
 21
212.1837666087711
 31
0.0
  0
LINE
  5
134
102
{ACAD_XDICTIONARY
360
132
102
}
330
1F
100
AcDbEntity
  8
Main lines
100
AcDbLine
 10
460.2038152579378
 20
220.6465275647984
 30
0.0
 11
459.1915232738169
 21
214.9055344391091
 31
0.0
  0
LINE
  5
137
102
{ACAD_XDICTIONARY
360
135
102
}
330
1F
100
AcDbEntity
  8
Main lines
100
AcDbLine
 10
473.7420541510877
 20
220.6462947005636
 30
0.0
 11
474.7544051000655
 21
214.9049671685524
 31
0.0
  0
ARC
  5
13A
102
{ACAD_XDICTIONARY
360
138
102
}
330
1F
100
AcDbEntity
  8
Main lines
100
AcDbCircle
 10
454.2674845087559
 20
215.7737753274437
 30
0.0
 40
5.000000000000008
100
AcDbArc
 50
-77.33376990124495
 51
-10.00000000000021
  0
ARC
  5
13D
102
{ACAD_XDICTIONARY
360
13B
102
}
330
1F
100
AcDbEntity
  8
Main lines
100
AcDbCircle
 10
479.6784438651266
 20
215.7732080568871
 30
0.0
 40
4.999999999999988
100
AcDbArc
 50
-169.9999999999998
 51
-102.6687882240327
  0
LINE
  5
140
102
{ACAD_XDICTIONARY
360
13E
102
}
330
1F
100
AcDbEntity
  8
Main lines
100
AcDbLine
 10
616.8839696784096
 20
221.7453856087712
 30
0.0
 11
619.8839696784096
 21
221.7453856087712
 31
0.0
  0
LINE
  5
143
102
{ACAD_XDICTIONARY
360
141
102
}
330
1F
100
AcDbEntity
  8
Main lines
100
AcDbLine
 10
609.8839696784096
 20
212.1837666087712
 30
0.0
 11
605.8393338713488
 21
212.1837666087712
 31
0.0
  0
LINE
  5
146
102
{ACAD_XDICTIONARY
360
144
102
}
330
1F
100
AcDbEntity
  8
Main lines
100
AcDbLine
 10
612.0893338713488
 20
212.1837666087712
 30
0.0
 11
613.8839696784096
 21
212.1837666087712
 31
0.0
  0
LINE
  5
149
102
{ACAD_XDICTIONARY
360
147
102
}
330
1F
100
AcDbEntity
  8
Main lines
100
AcDbLine
 10
625.6926541887017
 20
212.1837666087711
 30
0.0
 11
622.8839696784096
 21
212.1837666087711
 31
0.0
  0
ARC
  5
14C
102
{ACAD_XDICTIONARY
360
14A
102
}
330
1F
100
AcDbEntity
  8
Main lines
100
AcDbCircle
 10
613.8839696784096
 20
214.1837666087712
 30
0.0
 40
2.0
100
AcDbArc
 50
-90.0
 51
0.0
  0
ARC
  5
14F
102
{ACAD_XDICTIONARY
360
14D
102
}
330
1F
100
AcDbEntity
  8
Main lines
100
AcDbCircle
 10
622.8839696784096
 20
214.1837666087711
 30
0.0
 40
2.0
100
AcDbArc
 50
180.0
 51
270.0
  0
ARC
  5
152
102
{ACAD_XDICTIONARY
360
150
102
}
330
1F
100
AcDbEntity
  8
Main lines
100
AcDbCircle
 10
616.8839696784096
 20
220.7453856087712
 30
0.0
 40
1.0
100
AcDbArc
 50
90.0
 51
180.0
  0
ARC
  5
155
102
{ACAD_XDICTIONARY
360
153
102
}
330
1F
100
AcDbEntity
  8
Main lines
100
AcDbCircle
 10
619.8839696784096
 20
220.7453856087712
 30
0.0
 40
1.0
100
AcDbArc
 50
0.0
 51
90.0
  0
LINE
  5
158
102
{ACAD_XDICTIONARY
360
156
102
}
330
1F
100
AcDbEntity
  8
Main lines
100
AcDbLine
 10
618.3839696784096
 20
221.7453856087712
 30
0.0
 11
615.8839696784096
 21
221.7453856087712
 31
0.0
  0
LINE
  5
15B
102
{ACAD_XDICTIONARY
360
159
102
}
330
1F
100
AcDbEntity
  8
Main lines
100
AcDbLine
 10
615.8839696784096
 20
221.7453856087712
 30
0.0
 11
620.8839696784096
 21
221.7453856087712
 31
0.0
  0
LINE
  5
15E
102
{ACAD_XDICTIONARY
360
15C
102
}
330
1F
100
AcDbEntity
  8
Main lines
100
AcDbLine
 10
615.8839696784096
 20
220.7453856087712
 30
0.0
 11
615.8839696784096
 21
214.1837666087712
 31
0.0
  0
LINE
  5
161
102
{ACAD_XDICTIONARY
360
15F
102
}
330
1F
100
AcDbEntity
  8
Main lines
100
AcDbLine
 10
620.8839696784096
 20
220.7453856087712
 30
0.0
 11
620.8839696784096
 21
214.1837666087711
 31
0.0
  0
ARC
  5
164
102
{ACAD_XDICTIONARY
360
162
102
}
330
1F
100
AcDbEntity
  8
Main lines
100
AcDbCircle
 10
622.8839696784096
 20
104.3070046087711
 30
0.0
 40
2.0
100
AcDbArc
 50
90.0
 51
180.0
  0
ARC
  5
167
102
{ACAD_XDICTIONARY
360
165
102
}
330
1F
100
AcDbEntity
  8
Main lines
100
AcDbCircle
 10
613.8839696784096
 20
104.307004608771
 30
0.0
 40
2.0
100
AcDbArc
 50
0.0
 51
90.0
  0
LINE
  5
16A
102
{ACAD_XDICTIONARY
360
168
102
}
330
1F
100
AcDbEntity
  8
Main lines
100
AcDbLine
 10
620.8839696784096
 20
97.7453856087711
 30
0.0
 11
620.8839696784096
 21
104.3070046087711
 31
0.0
  0
LINE
  5
16D
102
{ACAD_XDICTIONARY
360
16B
102
}
330
1F
100
AcDbEntity
  8
Main lines
100
AcDbLine
 10
615.8839696784096
 20
97.7453856087711
 30
0.0
 11
615.8839696784096
 21
104.307004608771
 31
0.0
  0
LINE
  5
170
102
{ACAD_XDICTIONARY
360
16E
102
}
330
1F
100
AcDbEntity
  8
Main lines
100
AcDbLine
 10
620.8839696784096
 20
97.7453856087711
 30
0.0
 11
620.8839696784096
 21
104.3070046087711
 31
0.0
  0
LINE
  5
173
102
{ACAD_XDICTIONARY
360
171
102
}
330
1F
100
AcDbEntity
  8
Main lines
100
AcDbLine
 10
615.8839696784096
 20
97.7453856087711
 30
0.0
 11
615.8839696784096
 21
104.307004608771
 31
0.0
  0
LINE
  5
176
102
{ACAD_XDICTIONARY
360
174
102
}
330
1F
100
AcDbEntity
  8
Main lines
100
AcDbLine
 10
615.8839696784096
 20
96.74538560877104
 30
0.0
 11
620.8839696784096
 21
96.74538560877104
 31
0.0
  0
ARC
  5
179
102
{ACAD_XDICTIONARY
360
177
102
}
330
1F
100
AcDbEntity
  8
Main lines
100
AcDbCircle
 10
619.8839696784096
 20
97.7453856087711
 30
0.0
 40
1.0
100
AcDbArc
 50
-90.0
 51
0.0
  0
LINE
  5
17C
102
{ACAD_XDICTIONARY
360
17A
102
}
330
1F
100
AcDbEntity
  8
Main lines
100
AcDbLine
 10
618.3839696784096
 20
96.7453856087711
 30
0.0
 11
615.8839696784096
 21
96.74538560877104
 31
0.0
  0
LINE
  5
17F
102
{ACAD_XDICTIONARY
360
17D
102
}
330
1F
100
AcDbEntity
  8
Main lines
100
AcDbLine
 10
616.8839696784096
 20
96.7453856087711
 30
0.0
 11
619.8839696784096
 21
96.7453856087711
 31
0.0
  0
ARC
  5
182
102
{ACAD_XDICTIONARY
360
180
102
}
330
1F
100
AcDbEntity
  8
Main lines
100
AcDbCircle
 10
616.8839696784096
 20
97.7453856087711
 30
0.0
 40
1.0
100
AcDbArc
 50
180.0
 51
270.0
  0
LINE
  5
185
102
{ACAD_XDICTIONARY
360
183
102
}
330
1F
100
AcDbEntity
  8
Main lines
100
AcDbLine
 10
609.3185190829776
 20
106.3070046087711
 30
0.0
 11
613.8839696784096
 21
106.307004608771
 31
0.0
  0
LINE
  5
188
102
{ACAD_XDICTIONARY
360
186
102
}
330
1F
100
AcDbEntity
  8
Main lines
100
AcDbLine
 10
463.9729347616483
 20
220.6152467661852
 30
0.0
 11
463.9729347616483
 21
214.1746871734364
 31
0.0
  0
LINE
  5
18B
102
{ACAD_XDICTIONARY
360
189
102
}
330
1F
100
AcDbEntity
  8
Main lines
100
AcDbLine
 10
469.9729347616483
 20
220.6150861008022
 30
0.0
 11
469.9729347616483
 21
214.1746422975547
 31
0.0
  0
ARC
  5
18E
102
{ACAD_XDICTIONARY
360
18C
102
}
330
1F
100
AcDbEntity
  8
Main lines
100
AcDbCircle
 10
462.9729347616483
 20
220.6152467661852
 30
0.0
 40
1.0
100
AcDbArc
 50
0.0
 51
93.72803649787815
  0
ARC
  5
191
102
{ACAD_XDICTIONARY
360
18F
102
}
330
1F
100
AcDbEntity
  8
Main lines
100
AcDbCircle
 10
466.9717022617319
 20
159.245385608771
 30
0.0
 40
62.50000000000001
100
AcDbArc
 50
84.60198119215768
 51
95.39571220014874
  0
ARC
  5
194
102
{ACAD_XDICTIONARY
360
192
102
}
330
1F
100
AcDbEntity
  8
Main lines
100
AcDbCircle
 10
470.9729347616483
 20
220.6150861008022
 30
0.0
 40
1.000000000000019
100
AcDbArc
 50
86.26966214003122
 51
180.0000000000016
  0
ARC
  5
197
102
{ACAD_XDICTIONARY
360
195
102
}
330
1F
100
AcDbEntity
  8
Main lines
100
AcDbCircle
 10
465.9729347616482
 20
214.1746871734364
 30
0.0
 40
2.0
100
AcDbArc
 50
180.0
 51
271.0416818641255
  0
ARC
  5
19A
102
{ACAD_XDICTIONARY
360
198
102
}
330
1F
100
AcDbEntity
  8
Main lines
100
AcDbCircle
 10
467.9729347616483
 20
214.1746422975546
 30
0.0
 40
2.000000000000017
100
AcDbArc
 50
-91.04425306274906
 51
0.0
  0
LINE
  5
19D
102
{ACAD_XDICTIONARY
360
19B
102
}
330
1F
100
AcDbEntity
  8
Main lines
100
AcDbLine
 10
433.3275454714127
 20
210.6585964486765
 30
0.0
 11
437.11314335718
 21
205.4481679605325
 31
0.0
  0
LINE
  5
1A0
102
{ACAD_XDICTIONARY
360
19E
102
}
330
1F
100
AcDbEntity
  8
Main lines
100
AcDbLine
 10
428.4733490684204
 20
207.1320149159469
 30
0.0
 11
432.2590150135489
 21
201.9214927521286
 31
0.0
  0
LINE
  5
1A3
102
{ACAD_XDICTIONARY
360
1A1
102
}
330
1F
100
AcDbEntity
  8
Main lines
100
AcDbLine
 10
436.910059435012
 20
212.3666265069962
 30
0.0
 11
440.5521599305044
 21
208.8494909417799
 31
0.0
  0
LINE
  5
1A6
102
{ACAD_XDICTIONARY
360
1A4
102
}
330
1F
100
AcDbEntity
  8
Main lines
100
AcDbLine
 10
425.7418298278798
 20
204.2526814072189
 30
0.0
 11
427.961190618353
 21
199.7023174526611
 31
0.0
  0
ARC
  5
1A9
102
{ACAD_XDICTIONARY
360
1A7
102
}
330
1F
100
AcDbEntity
  8
Main lines
100
AcDbCircle
 10
423.4672203868572
 20
197.5104617187158
 30
0.0
 40
4.999999999999998
100
AcDbArc
 50
-41.33376990124297
 51
26.00000000000053
  0
ARC
  5
1AC
102
{ACAD_XDICTIONARY
360
1AA
102
}
330
1F
100
AcDbEntity
  8
Main lines
100
AcDbCircle
 10
444.0254517827995
 20
212.4461899434731
 30
0.0
 40
4.999999999999973
100
AcDbArc
 50
-133.9999999999988
 51
-66.66878822403535
  0
ARC
  5
1AF
102
{ACAD_XDICTIONARY
360
1AD
102
}
330
1F
100
AcDbEntity
  8
Main lines
100
AcDbCircle
 10
435.4951093684301
 20
204.2725974559474
 30
0.0
 40
1.999999999999988
100
AcDbArc
 50
-55.04425306274968
 51
36.00000000000146
  0
ARC
  5
1B2
102
{ACAD_XDICTIONARY
360
1B0
102
}
330
1F
100
AcDbEntity
  8
Main lines
100
AcDbCircle
 10
433.8770490022987
 20
203.0970632567135
 30
0.0
 40
1.999999999999994
100
AcDbArc
 50
-143.9999999999993
 51
-52.95831813587356
  0
ARC
  5
1B5
102
{ACAD_XDICTIONARY
360
1B3
102
}
330
1F
100
AcDbEntity
  8
Main lines
100
AcDbCircle
 10
466.971702261732
 20
159.245385608771
 30
0.0
 40
62.49999999999999
100
AcDbArc
 50
121.322228654673
 51
130.6754345168468
  0
ARC
  5
1B8
102
{ACAD_XDICTIONARY
360
1B6
102
}
330
1F
100
AcDbEntity
  8
Main lines
100
AcDbCircle
 10
434.1365624657876
 20
211.246381700969
 30
0.0
 40
0.9999999999999899
100
AcDbArc
 50
122.2696621400337
 51
216.0000000000014
  0
ARC
  5
1BB
102
{ACAD_XDICTIONARY
360
1B9
102
}
330
1F
100
AcDbEntity
  8
Main lines
100
AcDbCircle
 10
427.6643320740454
 20
206.5442296636544
 30
0.0
 40
1.000000000000016
100
AcDbArc
 50
35.99999999999736
 51
129.728036497876
  0
LINE
  5
1BE
102
{ACAD_XDICTIONARY
360
1BC
102
}
330
1F
100
AcDbEntity
  8
Main lines
100
AcDbLine
 10
409.5330805522485
 20
181.0640077264715
 30
0.0
 11
415.6583065991598
 21
179.0738011399513
 31
0.0
  0
LINE
  5
1C1
102
{ACAD_XDICTIONARY
360
1BF
102
}
330
1F
100
AcDbEntity
  8
Main lines
100
AcDbLine
 10
407.6788257841393
 20
175.3577182770344
 30
0.0
 11
413.8041619534104
 21
173.3674759095905
 31
0.0
  0
LINE
  5
1C4
102
{ACAD_XDICTIONARY
360
1C2
102
}
330
1F
100
AcDbEntity
  8
Main lines
100
AcDbLine
 10
411.4274403526333
 20
184.5515819444909
 30
0.0
 11
416.4412819642556
 21
183.846932459328
 31
0.0
  0
LINE
  5
1C7
102
{ACAD_XDICTIONARY
360
1C5
102
}
330
1F
100
AcDbEntity
  8
Main lines
100
AcDbLine
 10
407.1614100709418
 20
171.4227418100573
 30
0.0
 11
411.6315474921364
 21
169.0459275823852
 31
0.0
  0
ARC
  5
1CA
102
{ACAD_XDICTIONARY
360
1C8
102
}
330
1F
100
AcDbEntity
  8
Main lines
100
AcDbCircle
 10
409.2841896782069
 20
164.6311896180906
 30
0.0
 40
5.000000000000005
100
AcDbArc
 50
-5.333769901243623
 51
62.00000000000048
  0
ARC
  5
1CD
102
{ACAD_XDICTIONARY
360
1CB
102
}
330
1F
100
AcDbEntity
  8
Main lines
100
AcDbCircle
 10
417.1371474690559
 20
188.7982728030358
 30
0.0
 40
4.999999999999999
100
AcDbArc
 50
-98.00000000000078
 51
-30.6687882240341
  0
ARC
  5
1D0
102
{ACAD_XDICTIONARY
360
1CE
102
}
330
1F
100
AcDbEntity
  8
Main lines
100
AcDbCircle
 10
415.0402726104099
 20
177.171688107361
 30
0.0
 40
1.999999999999998
100
AcDbArc
 50
-19.04425306274788
 51
72.00000000000102
  0
ARC
  5
1D3
102
{ACAD_XDICTIONARY
360
1D1
102
}
330
1F
100
AcDbEntity
  8
Main lines
100
AcDbCircle
 10
414.4221959421602
 20
175.2695889421807
 30
0.0
 40
1.999999999999989
100
AcDbArc
 50
-107.999999999999
 51
-16.95831813587241
  0
ARC
  5
1D6
102
{ACAD_XDICTIONARY
360
1D4
102
}
330
1F
100
AcDbEntity
  8
Main lines
100
AcDbCircle
 10
466.971702261732
 20
159.2453856087711
 30
0.0
 40
62.5
100
AcDbArc
 50
157.3222286546731
 51
166.6754345168462
  0
ARC
  5
1D9
102
{ACAD_XDICTIONARY
360
1D7
102
}
330
1F
100
AcDbEntity
  8
Main lines
100
AcDbCircle
 10
409.8420975466234
 20
182.0150642427668
 30
0.0
 40
0.9999999999999996
100
AcDbArc
 50
158.2696621400331
 51
252.000000000001
  0
ARC
  5
1DC
102
{ACAD_XDICTIONARY
360
1DA
102
}
330
1F
100
AcDbEntity
  8
Main lines
100
AcDbCircle
 10
407.3698087897644
 20
174.4066617607393
 30
0.0
 40
0.9999999999999848
100
AcDbArc
 50
71.99999999999741
 51
165.7280364978791
  0
LINE
  5
1DF
102
{ACAD_XDICTIONARY
360
1DD
102
}
330
1F
100
AcDbEntity
  8
Main lines
100
AcDbLine
 10
407.6782168591594
 20
143.1354469429953
 30
0.0
 11
413.8034429060706
 21
145.1256535295155
 31
0.0
  0
LINE
  5
1E2
102
{ACAD_XDICTIONARY
360
1E0
102
}
330
1F
100
AcDbEntity
  8
Main lines
100
AcDbLine
 10
409.5321660235496
 20
137.4290581968906
 30
0.0
 11
415.6575021928206
 21
139.4193005643345
 31
0.0
  0
LINE
  5
1E5
102
{ACAD_XDICTIONARY
360
1E3
102
}
330
1F
100
AcDbEntity
  8
Main lines
100
AcDbLine
 10
407.1608414395041
 20
147.0704305077188
 30
0.0
 11
411.6313070858251
 21
149.4474192557863
 31
0.0
  0
LINE
  5
1E8
102
{ACAD_XDICTIONARY
360
1E6
102
}
330
1F
100
AcDbEntity
  8
Main lines
100
AcDbLine
 10
411.4264890538231
 20
133.9414660371187
 30
0.0
 11
416.4399625452256
 21
134.6460637863587
 31
0.0
  0
ARC
  5
1EB
102
{ACAD_XDICTIONARY
360
1E9
102
}
330
1F
100
AcDbEntity
  8
Main lines
100
AcDbCircle
 10
417.1358280500259
 20
129.6947234426509
 30
0.0
 40
5.000000000000008
100
AcDbArc
 50
30.66623009875614
 51
98.00000000000075
  0
ARC
  5
1EE
102
{ACAD_XDICTIONARY
360
1EC
102
}
330
1F
100
AcDbEntity
  8
Main lines
100
AcDbCircle
 10
409.2839492718956
 20
153.8621572200809
 30
0.0
 40
5.000000000000005
100
AcDbArc
 50
-62.00000000000047
 51
5.331211775965758
  0
ARC
  5
1F1
102
{ACAD_XDICTIONARY
360
1EF
102
}
330
1F
100
AcDbEntity
  8
Main lines
100
AcDbCircle
 10
414.4214768948206
 20
143.2235404969252
 30
0.0
 40
2.000000000000012
100
AcDbArc
 50
16.95574693725244
 51
108.0000000000021
  0
ARC
  5
1F4
102
{ACAD_XDICTIONARY
360
1F2
102
}
330
1F
100
AcDbEntity
  8
Main lines
100
AcDbCircle
 10
415.0394682040707
 20
141.3214135969247
 30
0.0
 40
1.999999999999989
100
AcDbArc
 50
-72.00000000000102
 51
19.04168186412696
  0
ARC
  5
1F7
102
{ACAD_XDICTIONARY
360
1F5
102
}
330
1F
100
AcDbEntity
  8
Main lines
100
AcDbCircle
 10
466.971702261732
 20
159.2453856087711
 30
0.0
 40
62.5
100
AcDbArc
 50
-166.6777713453265
 51
-157.3245654831537
  0
ARC
  5
1FA
102
{ACAD_XDICTIONARY
360
1F8
102
}
330
1F
100
AcDbEntity
  8
Main lines
100
AcDbCircle
 10
407.3691998647844
 20
144.0865034592904
 30
0.0
 40
1.000000000000005
100
AcDbArc
 50
-165.7303378599672
 51
-71.9999999999985
  0
ARC
  5
1FD
102
{ACAD_XDICTIONARY
360
1FB
102
}
330
1F
100
AcDbEntity
  8
Main lines
100
AcDbCircle
 10
409.8411830179245
 20
136.4780016805954
 30
0.0
 40
1.000000000000021
100
AcDbArc
 50
107.9999999999985
 51
201.7280364978778
  0
LINE
  5
200
102
{ACAD_XDICTIONARY
360
1FE
102
}
330
1F
100
AcDbEntity
  8
Main lines
100
AcDbLine
 10
428.4714492784072
 20
111.3603351731692
 30
0.0
 11
432.2570471641745
 21
116.5707636613133
 31
0.0
  0
LINE
  5
203
102
{ACAD_XDICTIONARY
360
201
102
}
330
1F
100
AcDbEntity
  8
Main lines
100
AcDbLine
 10
433.3254568079142
 20
107.8334936783891
 30
0.0
 11
437.1111227530428
 21
113.0440158422075
 31
0.0
  0
LINE
  5
206
102
{ACAD_XDICTIONARY
360
204
102
}
330
1F
100
AcDbEntity
  8
Main lines
100
AcDbLine
 10
425.7399584640766
 20
114.2396981080447
 30
0.0
 11
427.9594822137404
 21
118.790396178457
 31
0.0
  0
LINE
  5
209
102
{ACAD_XDICTIONARY
360
207
102
}
330
1F
100
AcDbEntity
  8
Main lines
100
AcDbLine
 10
436.9079515697661
 20
106.1254274919576
 30
0.0
 11
440.5497846593573
 21
109.6423048262967
 31
0.0
  0
ARC
  5
20C
102
{ACAD_XDICTIONARY
360
20A
102
}
330
1F
100
AcDbEntity
  8
Main lines
100
AcDbCircle
 10
444.0230765116523
 20
106.0456058246035
 30
0.0
 40
4.999999999999988
100
AcDbArc
 50
66.66623009875553
 51
133.9999999999986
  0
ARC
  5
20F
102
{ACAD_XDICTIONARY
360
20D
102
}
330
1F
100
AcDbEntity
  8
Main lines
100
AcDbCircle
 10
423.4655119822446
 20
120.9822519124023
 30
0.0
 40
5.000000000000014
100
AcDbArc
 50
-26.0000000000005
 51
41.33121177596679
  0
ARC
  5
212
102
{ACAD_XDICTIONARY
360
210
102
}
330
1F
100
AcDbEntity
  8
Main lines
100
AcDbCircle
 10
433.8750811529245
 20
115.3951931567283
 30
0.0
 40
1.999999999999994
100
AcDbArc
 50
52.95574693725015
 51
144.000000000001
  0
ARC
  5
215
102
{ACAD_XDICTIONARY
360
213
102
}
330
1F
100
AcDbEntity
  8
Main lines
100
AcDbCircle
 10
435.493088764293
 20
114.2195863467924
 30
0.0
 40
1.999999999999992
100
AcDbArc
 50
-36.00000000000109
 51
55.04168186412705
  0
ARC
  5
218
102
{ACAD_XDICTIONARY
360
216
102
}
330
1F
100
AcDbEntity
  8
Main lines
100
AcDbCircle
 10
466.9717022617322
 20
159.2453856087712
 30
0.0
 40
62.5
100
AcDbArc
 50
-130.6777713453262
 51
-121.324565483155
  0
ARC
  5
21B
102
{ACAD_XDICTIONARY
360
219
102
}
330
1F
100
AcDbEntity
  8
Main lines
100
AcDbCircle
 10
427.6624322840323
 20
111.9481204254617
 30
0.0
 40
0.9999999999999942
100
AcDbArc
 50
-129.7303378599671
 51
-35.99999999999626
  0
ARC
  5
21E
102
{ACAD_XDICTIONARY
360
21C
102
}
330
1F
100
AcDbEntity
  8
Main lines
100
AcDbCircle
 10
434.1344738022892
 20
107.2457084260966
 30
0.0
 40
1.000000000000008
100
AcDbArc
 50
143.9999999999977
 51
237.7280364978799
  0
LINE
  5
221
102
{ACAD_XDICTIONARY
360
21F
102
}
330
1F
100
AcDbEntity
  8
Main lines
100
AcDbLine
 10
463.9704697618156
 20
97.87568511674019
 30
0.0
 11
463.9704697618156
 21
104.3161289199877
 31
0.0
  0
LINE
  5
224
102
{ACAD_XDICTIONARY
360
222
102
}
330
1F
100
AcDbEntity
  8
Main lines
100
AcDbLine
 10
469.9704697618156
 20
97.87552445135717
 30
0.0
 11
469.9704697618156
 21
104.316084044106
 31
0.0
  0
LINE
  5
227
102
{ACAD_XDICTIONARY
360
225
102
}
330
1F
100
AcDbEntity
  8
Main lines
100
AcDbLine
 10
460.0682002039256
 20
98.59960864659182
 30
0.0
 11
459.1889994233983
 21
103.5858040489899
 31
0.0
  0
LINE
  5
22A
102
{ACAD_XDICTIONARY
360
228
102
}
330
1F
100
AcDbEntity
  8
Main lines
100
AcDbLine
 10
473.8727450207369
 20
98.59940746644847
 30
0.0
 11
474.7518812496469
 21
103.5852367784333
 31
0.0
  0
ARC
  5
22D
102
{ACAD_XDICTIONARY
360
22B
102
}
330
1F
100
AcDbEntity
  8
Main lines
100
AcDbCircle
 10
479.675920014708
 20
102.7169958900986
 30
0.0
 40
5.000000000000002
100
AcDbArc
 50
102.6662300987551
 51
169.9999999999996
  0
ARC
  5
230
102
{ACAD_XDICTIONARY
360
22E
102
}
330
1F
100
AcDbEntity
  8
Main lines
100
AcDbCircle
 10
454.2649606583373
 20
102.7175631606553
 30
0.0
 40
4.999999999999988
100
AcDbArc
 50
10.0000000000002
 51
77.33121177596398
  0
ARC
  5
233
102
{ACAD_XDICTIONARY
360
231
102
}
330
1F
100
AcDbEntity
  8
Main lines
100
AcDbCircle
 10
465.9704697618156
 20
104.3161289199877
 30
0.0
 40
2.000000000000017
100
AcDbArc
 50
88.95574693725094
 51
180.0000000000008
  0
ARC
  5
236
102
{ACAD_XDICTIONARY
360
234
102
}
330
1F
100
AcDbEntity
  8
Main lines
100
AcDbCircle
 10
467.9704697618157
 20
104.316084044106
 30
0.0
 40
2.0
100
AcDbArc
 50
0.0
 51
91.04168186412554
  0
ARC
  5
239
102
{ACAD_XDICTIONARY
360
237
102
}
330
1F
100
AcDbEntity
  8
Main lines
100
AcDbCircle
 10
466.971702261732
 20
159.2453856087714
 30
0.0
 40
62.49999999999998
100
AcDbArc
 50
-94.67777134532663
 51
-85.32456548315474
  0
ARC
  5
23C
102
{ACAD_XDICTIONARY
360
23A
102
}
330
1F
100
AcDbEntity
  8
Main lines
100
AcDbCircle
 10
462.9704697618156
 20
97.87568511674016
 30
0.0
 40
1.000000000000019
100
AcDbArc
 50
-93.73033785996878
 51
0.0
  0
ARC
  5
23F
102
{ACAD_XDICTIONARY
360
23D
102
}
330
1F
100
AcDbEntity
  8
Main lines
100
AcDbCircle
 10
470.9704697618156
 20
97.87552445135714
 30
0.0
 40
1.0
100
AcDbArc
 50
180.0
 51
273.7280364978782
  0
LINE
  5
242
102
{ACAD_XDICTIONARY
360
240
102
}
330
1F
100
AcDbEntity
  8
Main lines
100
AcDbLine
 10
500.6158590520511
 20
107.8321747688658
 30
0.0
 11
496.8302611662838
 21
113.0426032570099
 31
0.0
  0
LINE
  5
245
102
{ACAD_XDICTIONARY
360
243
102
}
330
1F
100
AcDbEntity
  8
Main lines
100
AcDbLine
 10
505.4700554550435
 20
111.3587563015953
 30
0.0
 11
501.684389509915
 21
116.5692784654138
 31
0.0
  0
LINE
  5
248
102
{ACAD_XDICTIONARY
360
246
102
}
330
1F
100
AcDbEntity
  8
Main lines
100
AcDbLine
 10
497.0333450884518
 20
106.1241447105461
 30
0.0
 11
493.3912445929594
 21
109.6412802757624
 31
0.0
  0
LINE
  5
24B
102
{ACAD_XDICTIONARY
360
249
102
}
330
1F
100
AcDbEntity
  8
Main lines
100
AcDbLine
 10
508.2015746955841
 20
114.2380898103234
 30
0.0
 11
505.9822139051108
 21
118.7884537648812
 31
0.0
  0
ARC
  5
24E
102
{ACAD_XDICTIONARY
360
24C
102
}
330
1F
100
AcDbEntity
  8
Main lines
100
AcDbCircle
 10
510.4761841366067
 20
120.9803094988266
 30
0.0
 40
5.000000000000004
100
AcDbArc
 50
138.666230098757
 51
206.0000000000003
  0
ARC
  5
251
102
{ACAD_XDICTIONARY
360
24F
102
}
330
1F
100
AcDbEntity
  8
Main lines
100
AcDbCircle
 10
489.9179527406644
 20
106.0445812740692
 30
0.0
 40
5.00000000000001
100
AcDbArc
 50
45.99999999999889
 51
113.3312117759645
  0
ARC
  5
254
102
{ACAD_XDICTIONARY
360
252
102
}
330
1F
100
AcDbEntity
  8
Main lines
100
AcDbCircle
 10
498.4482951550337
 20
114.2181737615949
 30
0.0
 40
1.999999999999988
100
AcDbArc
 50
124.9557469372503
 51
216.0000000000014
  0
ARC
  5
257
102
{ACAD_XDICTIONARY
360
255
102
}
330
1F
100
AcDbEntity
  8
Main lines
100
AcDbCircle
 10
500.0663555211652
 20
115.3937079608289
 30
0.0
 40
1.999999999999992
100
AcDbArc
 50
36.00000000000109
 51
127.0416818641266
  0
ARC
  5
25A
102
{ACAD_XDICTIONARY
360
258
102
}
330
1F
100
AcDbEntity
  8
Main lines
100
AcDbCircle
 10
466.9717022617319
 20
159.2453856087714
 30
0.0
 40
62.5
100
AcDbArc
 50
-58.67777134532714
 51
-49.32456548315333
  0
ARC
  5
25D
102
{ACAD_XDICTIONARY
360
25B
102
}
330
1F
100
AcDbEntity
  8
Main lines
100
AcDbCircle
 10
499.8068420576762
 20
107.2443895165734
 30
0.0
 40
0.9999999999999899
100
AcDbArc
 50
-57.73033785996633
 51
36.00000000000147
  0
ARC
  5
260
102
{ACAD_XDICTIONARY
360
25E
102
}
330
1F
100
AcDbEntity
  8
Main lines
100
AcDbCircle
 10
506.2790724494185
 20
111.9465415538879
 30
0.0
 40
1.00000000000002
100
AcDbArc
 50
-144.0000000000022
 51
-50.27196350212323
  0
LINE
  5
263
102
{ACAD_XDICTIONARY
360
261
102
}
330
1F
100
AcDbEntity
  8
Main lines
100
AcDbLine
 10
524.4103239712153
 20
137.4267634910707
 30
0.0
 11
518.2850979243041
 21
139.416970077591
 31
0.0
  0
LINE
  5
266
102
{ACAD_XDICTIONARY
360
264
102
}
330
1F
100
AcDbEntity
  8
Main lines
100
AcDbLine
 10
526.2645787393245
 20
143.1330529405079
 30
0.0
 11
520.1392425700535
 21
145.1232953079518
 31
0.0
  0
LINE
  5
269
102
{ACAD_XDICTIONARY
360
267
102
}
330
1F
100
AcDbEntity
  8
Main lines
100
AcDbLine
 10
522.5159641708306
 20
133.9391892730513
 30
0.0
 11
517.5021225592081
 21
134.6438387582143
 31
0.0
  0
LINE
  5
26C
102
{ACAD_XDICTIONARY
360
26A
102
}
330
1F
100
AcDbEntity
  8
Main lines
100
AcDbLine
 10
526.781994452522
 20
147.0680294074849
 30
0.0
 11
522.3118570313275
 21
149.444843635157
 31
0.0
  0
ARC
  5
26F
102
{ACAD_XDICTIONARY
360
26D
102
}
330
1F
100
AcDbEntity
  8
Main lines
100
AcDbCircle
 10
524.6592148452569
 20
153.8595815994516
 30
0.0
 40
5.000000000000002
100
AcDbArc
 50
174.6662300987564
 51
242.0000000000004
  0
ARC
  5
272
102
{ACAD_XDICTIONARY
360
270
102
}
330
1F
100
AcDbEntity
  8
Main lines
100
AcDbCircle
 10
516.8062570544079
 20
129.6924984145064
 30
0.0
 40
4.999999999999999
100
AcDbArc
 50
81.99999999999922
 51
149.3312117759662
  0
ARC
  5
275
102
{ACAD_XDICTIONARY
360
273
102
}
330
1F
100
AcDbEntity
  8
Main lines
100
AcDbCircle
 10
518.9031319130539
 20
141.3190831101813
 30
0.0
 40
2.000000000000008
100
AcDbArc
 50
160.9557469372519
 51
252.0000000000014
  0
ARC
  5
278
102
{ACAD_XDICTIONARY
360
276
102
}
330
1F
100
AcDbEntity
  8
Main lines
100
AcDbCircle
 10
519.5212085813037
 20
143.2211822753616
 30
0.0
 40
2.000000000000029
100
AcDbArc
 50
72.0000000000015
 51
163.0416818641274
  0
ARC
  5
27B
102
{ACAD_XDICTIONARY
360
279
102
}
330
1F
100
AcDbEntity
  8
Main lines
100
AcDbCircle
 10
466.9717022617318
 20
159.2453856087712
 30
0.0
 40
62.5
100
AcDbArc
 50
-22.6777713453269
 51
-13.32456548315386
  0
ARC
  5
27E
102
{ACAD_XDICTIONARY
360
27C
102
}
330
1F
100
AcDbEntity
  8
Main lines
100
AcDbCircle
 10
524.1013069768404
 20
136.4757069747756
 30
0.0
 40
0.9999999999999996
100
AcDbArc
 50
-21.73033785996691
 51
72.00000000000102
  0
ARC
  5
281
102
{ACAD_XDICTIONARY
360
27F
102
}
330
1F
100
AcDbEntity
  8
Main lines
100
AcDbCircle
 10
526.5735957336994
 20
144.084109456803
 30
0.0
 40
0.9999999999999808
100
AcDbArc
 50
-107.9999999999994
 51
-14.27196350212133
  0
LINE
  5
284
102
{ACAD_XDICTIONARY
360
282
102
}
330
1F
100
AcDbEntity
  8
Main lines
100
AcDbLine
 10
526.2651876643044
 20
175.355324274547
 30
0.0
 11
520.1399616173932
 21
173.3651176880267
 31
0.0
  0
LINE
  5
287
102
{ACAD_XDICTIONARY
360
285
102
}
330
1F
100
AcDbEntity
  8
Main lines
100
AcDbLine
 10
524.4112384999142
 20
181.0617130206517
 30
0.0
 11
518.2859023306432
 21
179.0714706532077
 31
0.0
  0
LINE
  5
28A
102
{ACAD_XDICTIONARY
360
288
102
}
330
1F
100
AcDbEntity
  8
Main lines
100
AcDbLine
 10
526.7825630839598
 20
171.4203407098235
 30
0.0
 11
522.3120974376387
 21
169.043351961756
 31
0.0
  0
LINE
  5
28D
102
{ACAD_XDICTIONARY
360
28B
102
}
330
1F
100
AcDbEntity
  8
Main lines
100
AcDbLine
 10
522.5169154696409
 20
184.5493051804236
 30
0.0
 11
517.5034419782382
 21
183.8447074311836
 31
0.0
  0
ARC
  5
290
102
{ACAD_XDICTIONARY
360
28E
102
}
330
1F
100
AcDbEntity
  8
Main lines
100
AcDbCircle
 10
516.807576473438
 20
188.7960477748913
 30
0.0
 40
4.999999999999986
100
AcDbArc
 50
-149.3337699012442
 51
-81.99999999999923
  0
ARC
  5
293
102
{ACAD_XDICTIONARY
360
291
102
}
330
1F
100
AcDbEntity
  8
Main lines
100
AcDbCircle
 10
524.6594552515681
 20
164.6286139974613
 30
0.0
 40
5.000000000000005
100
AcDbArc
 50
117.9999999999995
 51
185.3312117759657
  0
ARC
  5
296
102
{ACAD_XDICTIONARY
360
294
102
}
330
1F
100
AcDbEntity
  8
Main lines
100
AcDbCircle
 10
519.5219276286433
 20
175.267230720617
 30
0.0
 40
1.999999999999967
100
AcDbArc
 50
-163.044253062748
 51
-71.99999999999727
  0
ARC
  5
299
102
{ACAD_XDICTIONARY
360
297
102
}
330
1F
100
AcDbEntity
  8
Main lines
100
AcDbCircle
 10
518.9039363193931
 20
177.1693576206175
 30
0.0
 40
2.000000000000029
100
AcDbArc
 50
107.9999999999985
 51
199.041681864128
  0
ARC
  5
29C
102
{ACAD_XDICTIONARY
360
29A
102
}
330
1F
100
AcDbEntity
  8
Main lines
100
AcDbCircle
 10
466.9717022617317
 20
159.2453856087711
 30
0.0
 40
62.50000000000001
100
AcDbArc
 50
13.32222865467363
 51
22.67543451684625
  0
ARC
  5
29F
102
{ACAD_XDICTIONARY
360
29D
102
}
330
1F
100
AcDbEntity
  8
Main lines
100
AcDbCircle
 10
466.9717022617319
 20
159.2453856087711
 30
0.0
 40
62.50000000000003
100
AcDbArc
 50
21.72803649787932
 51
22.67543451684628
  0
ARC
  5
2A2
102
{ACAD_XDICTIONARY
360
2A0
102
}
330
1F
100
AcDbEntity
  8
Main lines
100
AcDbCircle
 10
526.5742046586795
 20
174.4042677582518
 30
0.0
 40
0.9999999999999567
100
AcDbArc
 50
14.26966214003307
 51
107.9999999999996
  0
ARC
  5
2A5
102
{ACAD_XDICTIONARY
360
2A3
102
}
330
1F
100
AcDbEntity
  8
Main lines
100
AcDbCircle
 10
524.1022215055393
 20
182.0127695369468
 30
0.0
 40
0.9999999999999672
100
AcDbArc
 50
-72.00000000000051
 51
21.72803649787632
  0
LINE
  5
2A8
102
{ACAD_XDICTIONARY
360
2A6
102
}
330
1F
100
AcDbEntity
  8
Main lines
100
AcDbLine
 10
505.4719552450567
 20
207.1304360443731
 30
0.0
 11
501.6863573592893
 21
201.920007556229
 31
0.0
  0
LINE
  5
2AB
102
{ACAD_XDICTIONARY
360
2A9
102
}
330
1F
100
AcDbEntity
  8
Main lines
100
AcDbLine
 10
500.6179477155497
 20
210.6572775391532
 30
0.0
 11
496.8322817704211
 21
205.4467553753348
 31
0.0
  0
LINE
  5
2AE
102
{ACAD_XDICTIONARY
360
2AC
102
}
330
1F
100
AcDbEntity
  8
Main lines
100
AcDbLine
 10
508.2034460593874
 20
204.2510731094976
 30
0.0
 11
505.9839223097235
 21
199.7003750390854
 31
0.0
  0
LINE
  5
2B1
102
{ACAD_XDICTIONARY
360
2AF
102
}
330
1F
100
AcDbEntity
  8
Main lines
100
AcDbLine
 10
497.0354529536978
 20
212.3653437255846
 30
0.0
 11
493.3936198641067
 21
208.8484663912456
 31
0.0
  0
ARC
  5
2B4
102
{ACAD_XDICTIONARY
360
2B2
102
}
330
1F
100
AcDbEntity
  8
Main lines
100
AcDbCircle
 10
489.9203280118116
 20
212.4451653929388
 30
0.0
 40
4.999999999999988
100
AcDbArc
 50
-113.3337699012445
 51
-46.00000000000144
  0
ARC
  5
2B7
102
{ACAD_XDICTIONARY
360
2B5
102
}
330
1F
100
AcDbEntity
  8
Main lines
100
AcDbCircle
 10
510.4778925412194
 20
197.5085193051399
 30
0.0
 40
5.000000000000009
100
AcDbArc
 50
153.9999999999995
 51
221.3312117759667
  0
ARC
  5
2BA
102
{ACAD_XDICTIONARY
360
2B8
102
}
330
1F
100
AcDbEntity
  8
Main lines
100
AcDbCircle
 10
500.0683233705394
 20
203.0955780608139
 30
0.0
 40
1.999999999999988
100
AcDbArc
 50
-127.04425306275
 51
-35.99999999999918
  0
ARC
  5
2BD
102
{ACAD_XDICTIONARY
360
2BB
102
}
330
1F
100
AcDbEntity
  8
Main lines
100
AcDbCircle
 10
498.450315759171
 20
204.2711848707499
 30
0.0
 40
1.999999999999994
100
AcDbArc
 50
143.9999999999993
 51
235.0416818641268
  0
ARC
  5
2C0
102
{ACAD_XDICTIONARY
360
2BE
102
}
330
1F
100
AcDbEntity
  8
Main lines
100
AcDbCircle
 10
466.9717022617318
 20
159.245385608771
 30
0.0
 40
62.49999999999999
100
AcDbArc
 50
49.32222865467377
 51
58.67543451684499
  0
ARC
  5
2C3
102
{ACAD_XDICTIONARY
360
2C1
102
}
330
1F
100
AcDbEntity
  8
Main lines
100
AcDbCircle
 10
506.2809722394317
 20
206.5426507920807
 30
0.0
 40
0.9999999999999942
100
AcDbArc
 50
50.26966214003292
 51
144.0000000000031
  0
ARC
  5
2C6
102
{ACAD_XDICTIONARY
360
2C4
102
}
330
1F
100
AcDbEntity
  8
Main lines
100
AcDbCircle
 10
499.8089307211748
 20
211.2450627914457
 30
0.0
 40
1.000000000000004
100
AcDbArc
 50
-36.00000000000192
 51
57.72803649787966
  0
LINE
  5
2C9
102
{ACAD_XDICTIONARY
360
2C7
102
}
330
1F
100
AcDbEntity
  8
Main lines
100
AcDbLine
 10
618.3839696784096
 20
221.7453856087712
 30
0.0
 11
621.8839696784096
 21
221.7453856087712
 31
0.0
  0
LINE
  5
2CC
102
{ACAD_XDICTIONARY
360
2CA
102
}
330
1F
100
AcDbEntity
  8
Main lines
100
AcDbLine
 10
621.8839696784096
 20
221.7453856087712
 30
0.0
 11
614.8839696784096
 21
221.7453856087712
 31
0.0
  0
LINE
  5
2CF
102
{ACAD_XDICTIONARY
360
2CD
102
}
330
1F
100
AcDbEntity
  8
Main lines
100
AcDbLine
 10
613.8839696784096
 20
220.7453856087712
 30
0.0
 11
613.8839696784096
 21
214.1837666087712
 31
0.0
  0
LINE
  5
2D2
102
{ACAD_XDICTIONARY
360
2D0
102
}
330
1F
100
AcDbEntity
  8
Main lines
100
AcDbLine
 10
622.8839696784096
 20
220.7453856087712
 30
0.0
 11
622.8839696784096
 21
214.1837666087711
 31
0.0
  0
ARC
  5
2D5
102
{ACAD_XDICTIONARY
360
2D3
102
}
330
1F
100
AcDbEntity
  8
Main lines
100
AcDbCircle
 10
611.8839696784096
 20
214.1837666087712
 30
0.0
 40
2.0
100
AcDbArc
 50
-90.0
 51
0.0
  0
ARC
  5
2D8
102
{ACAD_XDICTIONARY
360
2D6
102
}
330
1F
100
AcDbEntity
  8
Main lines
100
AcDbCircle
 10
624.8839696784096
 20
214.1837666087711
 30
0.0
 40
2.0
100
AcDbArc
 50
180.0
 51
270.0
  0
ARC
  5
2DB
102
{ACAD_XDICTIONARY
360
2D9
102
}
330
1F
100
AcDbEntity
  8
Main lines
100
AcDbCircle
 10
614.8839696784096
 20
220.7453856087712
 30
0.0
 40
1.0
100
AcDbArc
 50
90.0
 51
180.0
  0
ARC
  5
2DE
102
{ACAD_XDICTIONARY
360
2DC
102
}
330
1F
100
AcDbEntity
  8
Main lines
100
AcDbCircle
 10
621.8839696784096
 20
220.7453856087712
 30
0.0
 40
1.0
100
AcDbArc
 50
0.0
 51
90.0
  0
ARC
  5
2E1
102
{ACAD_XDICTIONARY
360
2DF
102
}
330
1F
100
AcDbEntity
  8
Main lines
100
AcDbCircle
 10
611.8839696784096
 20
104.3070046087711
 30
0.0
 40
2.0
100
AcDbArc
 50
0.0
 51
90.0
  0
LINE
  5
2E4
102
{ACAD_XDICTIONARY
360
2E2
102
}
330
1F
100
AcDbEntity
  8
Main lines
100
AcDbLine
 10
613.8839696784096
 20
97.74538560877107
 30
0.0
 11
613.8839696784096
 21
104.3070046087711
 31
0.0
  0
ARC
  5
2E7
102
{ACAD_XDICTIONARY
360
2E5
102
}
330
1F
100
AcDbEntity
  8
Main lines
100
AcDbCircle
 10
614.8839696784096
 20
97.74538560877107
 30
0.0
 40
1.0
100
AcDbArc
 50
180.0
 51
270.0
  0
LINE
  5
2EA
102
{ACAD_XDICTIONARY
360
2E8
102
}
330
1F
100
AcDbEntity
  8
Main lines
100
AcDbLine
 10
621.8839696784096
 20
96.7453856087711
 30
0.0
 11
614.8839696784096
 21
96.74538560877107
 31
0.0
  0
ARC
  5
2ED
102
{ACAD_XDICTIONARY
360
2EB
102
}
330
1F
100
AcDbEntity
  8
Main lines
100
AcDbCircle
 10
621.8839696784096
 20
97.7453856087711
 30
0.0
 40
1.0
100
AcDbArc
 50
-90.0
 51
0.0
  0
LINE
  5
2F0
102
{ACAD_XDICTIONARY
360
2EE
102
}
330
1F
100
AcDbEntity
  8
Main lines
100
AcDbLine
 10
622.8839696784096
 20
97.7453856087711
 30
0.0
 11
622.8839696784096
 21
104.3070046087711
 31
0.0
  0
ARC
  5
2F3
102
{ACAD_XDICTIONARY
360
2F1
102
}
330
1F
100
AcDbEntity
  8
Main lines
100
AcDbCircle
 10
624.8839696784096
 20
104.3070046087711
 30
0.0
 40
2.0
100
AcDbArc
 50
90.0
 51
180.0
  0
ARC
  5
2F6
102
{ACAD_XDICTIONARY
360
2F4
102
}
330
1F
100
AcDbEntity
  8
Main lines
100
AcDbCircle
 10
498.4247696946157
 20
210.9266641249074
 30
0.0
 40
1.999999999999992
100
AcDbArc
 50
58.67543451684443
 51
134.0000000000019
  0
ARC
  5
2F9
102
{ACAD_XDICTIONARY
360
2F7
102
}
330
1F
100
AcDbEntity
  8
Main lines
100
AcDbCircle
 10
506.4058579667891
 20
205.1278154030758
 30
0.0
 40
2.000000000000001
100
AcDbArc
 50
-26.0000000000003
 51
49.32222865467442
  0
ARC
  5
2FC
102
{ACAD_XDICTIONARY
360
2FA
102
}
330
1F
100
AcDbEntity
  8
Main lines
100
AcDbCircle
 10
522.795261671561
 20
182.5687690429405
 30
0.0
 40
2.000000000000002
100
AcDbArc
 50
22.67543451684651
 51
98.00000000000072
  0
ARC
  5
2FF
102
{ACAD_XDICTIONARY
360
2FD
102
}
330
1F
100
AcDbEntity
  8
Main lines
100
AcDbCircle
 10
525.8436199583879
 20
173.1862358955414
 30
0.0
 40
2.00000000000003
100
AcDbArc
 50
-62.00000000000099
 51
13.32222865467422
  0
ARC
  5
302
102
{ACAD_XDICTIONARY
360
300
102
}
330
1F
100
AcDbEntity
  8
Main lines
100
AcDbCircle
 10
525.8430513269502
 20
145.3021342217671
 30
0.0
 40
2.000000000000009
100
AcDbArc
 50
-13.32456548315421
 51
62.00000000000077
  0
ARC
  5
305
102
{ACAD_XDICTIONARY
360
303
102
}
330
1F
100
AcDbEntity
  8
Main lines
100
AcDbCircle
 10
522.7943103727507
 20
135.9197254105345
 30
0.0
 40
1.999999999999977
100
AcDbArc
 50
-98.00000000000088
 51
-22.67777134532722
  0
ARC
  5
308
102
{ACAD_XDICTIONARY
360
306
102
}
330
1F
100
AcDbEntity
  8
Main lines
100
AcDbCircle
 10
506.4039866029857
 20
113.3613475167452
 30
0.0
 40
1.999999999999998
100
AcDbArc
 50
-49.32456548315304
 51
26.00000000000011
  0
ARC
  5
30B
102
{ACAD_XDICTIONARY
360
309
102
}
330
1F
100
AcDbEntity
  8
Main lines
100
AcDbCircle
 10
498.4226618293698
 20
107.5628243112234
 30
0.0
 40
1.999999999999995
100
AcDbArc
 50
-133.999999999998
 51
-58.677771345327
  0
ARC
  5
30E
102
{ACAD_XDICTIONARY
360
30C
102
}
330
1F
100
AcDbEntity
  8
Main lines
100
AcDbCircle
 10
471.9031295147124
 20
98.94670382178234
 30
0.0
 40
1.999999999999986
100
AcDbArc
 50
-85.32456548315469
 51
-10.00000000000014
  0
ARC
  5
311
102
{ACAD_XDICTIONARY
360
30F
102
}
330
1F
100
AcDbEntity
  8
Main lines
100
AcDbCircle
 10
462.03781570995
 20
98.94690500192567
 30
0.0
 40
1.999999999999995
100
AcDbArc
 50
-170.0000000000002
 51
-94.67777134532662
  0
ARC
  5
314
102
{ACAD_XDICTIONARY
360
312
102
}
330
1F
100
AcDbEntity
  8
Main lines
100
AcDbCircle
 10
435.5186348288481
 20
107.5641070926349
 30
0.0
 40
1.999999999999992
100
AcDbArc
 50
-121.3245654831556
 51
-46.00000000000212
  0
ARC
  5
317
102
{ACAD_XDICTIONARY
360
315
102
}
330
1F
100
AcDbEntity
  8
Main lines
100
AcDbCircle
 10
427.5375465566749
 20
113.3629558144665
 30
0.0
 40
2.000000000000007
100
AcDbArc
 50
153.9999999999999
 51
229.3222286546745
  0
ARC
  5
31A
102
{ACAD_XDICTIONARY
360
318
102
}
330
1F
100
AcDbEntity
  8
Main lines
100
AcDbCircle
 10
411.148142851903
 20
135.9220021746018
 30
0.0
 40
1.999999999999986
100
AcDbArc
 50
-157.3245654831544
 51
-81.99999999999912
  0
ARC
  5
31D
102
{ACAD_XDICTIONARY
360
31B
102
}
330
1F
100
AcDbEntity
  8
Main lines
100
AcDbCircle
 10
408.0997845650759
 20
145.3045353220009
 30
0.0
 40
1.999999999999992
100
AcDbArc
 50
117.9999999999997
 51
193.3222286546733
  0
ARC
  5
320
102
{ACAD_XDICTIONARY
360
31E
102
}
330
1F
100
AcDbEntity
  8
Main lines
100
AcDbCircle
 10
408.1003531965135
 20
173.1886369957752
 30
0.0
 40
2.000000000000003
100
AcDbArc
 50
166.6754345168459
 51
242.0000000000002
  0
ARC
  5
323
102
{ACAD_XDICTIONARY
360
321
102
}
330
1F
100
AcDbEntity
  8
Main lines
100
AcDbCircle
 10
411.1490941507132
 20
182.5710458070078
 30
0.0
 40
1.999999999999977
100
AcDbArc
 50
81.99999999999912
 51
157.3222286546728
  0
ARC
  5
326
102
{ACAD_XDICTIONARY
360
324
102
}
330
1F
100
AcDbEntity
  8
Main lines
100
AcDbCircle
 10
427.5394179204781
 20
205.1294237007971
 30
0.0
 40
2.000000000000002
100
AcDbArc
 50
130.6754345168471
 51
206.0
  0
ARC
  5
329
102
{ACAD_XDICTIONARY
360
327
102
}
330
1F
100
AcDbEntity
  8
Main lines
100
AcDbCircle
 10
435.520742694094
 20
210.9279469063189
 30
0.0
 40
2.000000000000018
100
AcDbArc
 50
45.99999999999838
 51
121.3222286546724
  0
LINE
  5
32C
102
{ACAD_XDICTIONARY
360
32A
102
}
330
1F
100
AcDbEntity
  8
Main lines
100
AcDbLine
 10
600.3839696784097
 20
186.2953856134166
 30
0.0
 11
610.3839696784096
 21
186.2953856134166
 31
0.0
  0
LINE
  5
32F
102
{ACAD_XDICTIONARY
360
32D
102
}
330
1F
100
AcDbEntity
  8
Main lines
100
AcDbLine
 10
636.3839696784096
 20
186.2953856134166
 30
0.0
 11
626.3839696784096
 21
186.2953856134166
 31
0.0
  0
LINE
  5
332
102
{ACAD_XDICTIONARY
360
330
102
}
330
1F
100
AcDbEntity
  8
Main lines
100
AcDbLine
 10
600.3839696784097
 20
132.195385607223
 30
0.0
 11
610.3839696784096
 21
132.195385607223
 31
0.0
  0
LINE
  5
335
102
{ACAD_XDICTIONARY
360
333
102
}
330
1F
100
AcDbEntity
  8
Main lines
100
AcDbLine
 10
636.3839696784095
 20
132.195385607223
 30
0.0
 11
626.3839696784096
 21
132.195385607223
 31
0.0
  0
ARC
  5
338
102
{ACAD_XDICTIONARY
360
336
102
}
330
1F
100
AcDbEntity
  8
Main lines
100
AcDbCircle
 10
610.3839696784096
 20
191.2953856134166
 30
0.0
 40
5.0
100
AcDbArc
 50
-90.0
 51
0.0
  0
ARC
  5
33B
102
{ACAD_XDICTIONARY
360
339
102
}
330
1F
100
AcDbEntity
  8
Main lines
100
AcDbCircle
 10
626.3839696784096
 20
191.2953856134166
 30
0.0
 40
5.0
100
AcDbArc
 50
180.0
 51
270.0
  0
ARC
  5
33E
102
{ACAD_XDICTIONARY
360
33C
102
}
330
1F
100
AcDbEntity
  8
Main lines
100
AcDbCircle
 10
609.4974786728304
 20
126.3745948462322
 30
0.0
 40
5.887908914564639
100
AcDbArc
 50
-1.257447848094325
 51
81.34054600912368
  0
ARC
  5
341
102
{ACAD_XDICTIONARY
360
33F
102
}
330
1F
100
AcDbEntity
  8
Main lines
100
AcDbCircle
 10
627.2704606839887
 20
126.3745948462322
 30
0.0
 40
5.887908914564651
100
AcDbArc
 50
98.65945399087627
 51
181.2574478480943
  0
ARC
  5
344
102
{ACAD_XDICTIONARY
360
342
102
}
330
1F
100
AcDbEntity
  8
Main lines
100
AcDbCircle
 10
600.3839696784097
 20
184.2953856134166
 30
0.0
 40
2.0
100
AcDbArc
 50
90.0
 51
180.0
  0
ARC
  5
347
102
{ACAD_XDICTIONARY
360
345
102
}
330
1F
100
AcDbEntity
  8
Main lines
100
AcDbCircle
 10
636.3839696784096
 20
184.2953856134166
 30
0.0
 40
2.0
100
AcDbArc
 50
0.0
 51
90.0
  0
ARC
  5
34A
102
{ACAD_XDICTIONARY
360
348
102
}
330
1F
100
AcDbEntity
  8
Main lines
100
AcDbCircle
 10
600.3839696784097
 20
134.195385607223
 30
0.0
 40
2.0
100
AcDbArc
 50
180.0
 51
270.0
  0
ARC
  5
34D
102
{ACAD_XDICTIONARY
360
34B
102
}
330
1F
100
AcDbEntity
  8
Main lines
100
AcDbCircle
 10
636.3839696784095
 20
134.195385607223
 30
0.0
 40
2.0
100
AcDbArc
 50
-90.0
 51
0.0
  0
LINE
  5
350
102
{ACAD_XDICTIONARY
360
34E
102
}
330
1F
100
AcDbEntity
  8
Main lines
100
AcDbLine
 10
598.3839696784096
 20
210.1837666087711
 30
0.0
 11
598.3839696784098
 21
108.3070046087711
 31
0.0
  0
LINE
  5
353
102
{ACAD_XDICTIONARY
360
351
102
}
330
1F
100
AcDbEntity
  8
Main lines
100
AcDbLine
 10
638.3839696784096
 20
109.0261951087712
 30
0.0
 11
638.3839696784096
 21
210.1837666087711
 31
0.0
  0
HATCH
  5
354
330
1F
100
AcDbEntity
  8
Main lines
  6
Durchgehend
100
AcDbHatch
 10
0.0
 20
0.0
 30
0.0
210
0.0
220
0.0
230
1.0
  2
ANSI31
 70
     0
 71
     0
 91
        2
 92
        3
 72
     0
 73
     1
 93
      117
 10
600.3839696784096
 20
212.1837666087711
 10
600.1749127518743
 20
212.1728103995077
 10
599.9681462967741
 20
212.1400618102387
 10
599.7659356896597
 20
212.0858796413614
 10
599.570496392258
 20
212.0108575240563
 10
599.3839696784096
 20
211.91581741634
 10
599.2083991738247
 20
211.801800597521
 10
599.0457084656919
 20
211.6700562597259
 10
598.8976800274548
 20
211.5220278214888
 10
598.7659356896597
 20
211.359337113356
 10
598.6519188708407
 20
211.1837666087711
 10
598.5568787631244
 20
210.9972398949227
 10
598.4818566458193
 20
210.801800597521
 10
598.427674476942
 20
210.5995899904066
 10
598.394925887673
 20
210.3928235353064
 10
598.3839696784096
 20
210.1837666087711
 10
598.3839696784096
 20
208.745385608771
 10
598.394925887673
 20
208.5363286822357
 10
598.427674476942
 20
208.3295622271355
 10
598.4818566458193
 20
208.1273516200211
 10
598.5568787631244
 20
207.9319123226194
 10
598.6519188708407
 20
207.745385608771
 10
598.7659356896597
 20
207.569815104186
 10
598.8976800274548
 20
207.4071243960533
 10
599.0457084656919
 20
207.2590959578162
 10
599.2083991738247
 20
207.1273516200211
 10
599.3839696784096
 20
207.0133348012021
 10
599.570496392258
 20
206.9182946934858
 10
599.7659356896597
 20
206.8432725761807
 10
599.9681462967741
 20
206.7890904073034
 10
600.1749127518743
 20
206.7563418180344
 10
600.3839696784096
 20
206.745385608771
 10
610.3839696784096
 20
206.745385608771
 10
610.9066119947479
 20
206.7179950856124
 10
611.4235281324984
 20
206.6361236124401
 10
611.9290546502843
 20
206.5006681902468
 10
612.4176528937886
 20
206.3131128969841
 10
612.8839696784096
 20
206.0755126276932
 10
613.322895939872
 20
205.7904705806458
 10
613.7296227102039
 20
205.461109736158
 10
614.0996938057965
 20
205.0910386405653
 10
614.4290546502843
 20
204.6843118702334
 10
614.7140966973318
 20
204.245385608771
 10
614.9516969666225
 20
203.77906882415
 10
615.1392522598853
 20
203.2904705806458
 10
615.2747076820787
 20
202.7849440628598
 10
615.356579155251
 20
202.2680279251093
 10
615.3839696784096
 20
201.745385608771
 10
615.3839696784096
 20
191.2953856134166
 10
615.356579155251
 20
190.7727432970783
 10
615.2747076820787
 20
190.2558271593278
 10
615.1392522598853
 20
189.7503006415419
 10
614.9516969666225
 20
189.2617023980376
 10
614.7140966973318
 20
188.7953856134166
 10
614.4290546502843
 20
188.3564593519542
 10
614.0996938057965
 20
187.9497325816223
 10
613.7296227102039
 20
187.5796614860296
 10
613.322895939872
 20
187.2503006415419
 10
612.8839696784096
 20
186.9652585944944
 10
612.4176528937886
 20
186.7276583252036
 10
611.9290546502843
 20
186.5401030319408
 10
611.4235281324984
 20
186.4046476097476
 10
610.9066119947479
 20
186.3227761365752
 10
610.3839696784096
 20
186.2953856134166
 10
600.3839696784097
 20
186.2953856134166
 10
600.1749127518744
 20
186.2844294041531
 10
599.9681462967742
 20
186.2516808148842
 10
599.7659356896598
 20
186.1974986460069
 10
599.5704963922581
 20
186.1224765287018
 10
599.3839696784097
 20
186.0274364209855
 10
599.2083991738248
 20
185.9134196021665
 10
599.045708465692
 20
185.7816752643714
 10
598.897680027455
 20
185.6336468261343
 10
598.7659356896598
 20
185.4709561180015
 10
598.6519188708409
 20
185.2953856134166
 10
598.5568787631245
 20
185.1088588995682
 10
598.4818566458194
 20
184.9134196021665
 10
598.4276744769421
 20
184.7112089950521
 10
598.3949258876731
 20
184.5044425399519
 10
598.3839696784097
 20
184.2953856134166
 10
598.3839696784097
 20
179.2953856134166
 10
618.3839696784096
 20
179.2953856134166
 10
618.3839696784096
 20
221.7453856087712
 10
616.8839696784096
 20
221.7453856087712
 10
616.7794412151419
 20
221.7399075041394
 10
616.6760579875918
 20
221.723533209505
 10
616.5749526840347
 20
221.6964421250663
 10
616.4772330353338
 20
221.6589310664138
 10
616.3839696784096
 20
221.6114110125556
 10
616.2961844261171
 20
221.5544026031461
 10
616.2148390720507
 20
221.4885304342486
 10
616.1408248529322
 20
221.41451621513
 10
616.0749526840347
 20
221.3331708610636
 10
616.0179442746252
 20
221.2453856087712
 10
615.970424220767
 20
221.1521222518469
 10
615.9329131621145
 20
221.0544026031461
 10
615.9058220776758
 20
220.9532972995889
 10
615.8894477830413
 20
220.8499140720388
 10
615.8839696784096
 20
220.7453856087712
 10
615.8839696784096
 20
214.1837666087712
 10
615.8730134691461
 20
213.9747096822359
 10
615.8402648798772
 20
213.7679432271357
 10
615.7860827109998
 20
213.5657326200214
 10
615.7110605936948
 20
213.3702933226196
 10
615.6160204859784
 20
213.1837666087712
 10
615.5020036671594
 20
213.0081961041863
 10
615.3702593293643
 20
212.8455053960535
 10
615.2222308911273
 20
212.6974769578164
 10
615.0595401829945
 20
212.5657326200213
 10
614.8839696784096
 20
212.4517158012023
 10
614.6974429645612
 20
212.356675693486
 10
614.5020036671594
 20
212.2816535761809
 10
614.2997930600451
 20
212.2274714073036
 10
614.0930266049448
 20
212.1947228180346
 10
613.8839696784096
 20
212.1837666087712
 10
612.0893338713488
 20
212.1837666087712
 10
611.2946980642878
 20
212.1837666087712
 97
        0
 92
        3
 72
     0
 73
     1
 93
      117
 10
628.8902836547679
 20
212.1837666087711
 10
624.8839696784096
 20
212.1837666087711
 10
622.8839696784096
 20
212.1837666087711
 10
622.6749127518743
 20
212.1947228180346
 10
622.4681462967741
 20
212.2274714073035
 10
622.2659356896597
 20
212.2816535761808
 10
622.070496392258
 20
212.3566756934859
 10
621.8839696784096
 20
212.4517158012023
 10
621.7083991738247
 20
212.5657326200212
 10
621.5457084656919
 20
212.6974769578163
 10
621.3976800274548
 20
212.8455053960534
 10
621.2659356896597
 20
213.0081961041862
 10
621.1519188708407
 20
213.1837666087711
 10
621.0568787631244
 20
213.3702933226195
 10
620.9818566458193
 20
213.5657326200212
 10
620.927674476942
 20
213.7679432271356
 10
620.894925887673
 20
213.9747096822358
 10
620.8839696784096
 20
214.1837666087711
 10
620.8839696784096
 20
220.7453856087712
 10
620.8784915737779
 20
220.8499140720388
 10
620.8621172791434
 20
220.9532972995889
 10
620.8350261947047
 20
221.0544026031461
 10
620.7975151360522
 20
221.1521222518469
 10
620.749995082194
 20
221.2453856087712
 10
620.6929866727845
 20
221.3331708610636
 10
620.627114503887
 20
221.41451621513
 10
620.5531002847684
 20
221.4885304342486
 10
620.4717549307021
 20
221.5544026031461
 10
620.3839696784096
 20
221.6114110125556
 10
620.2907063214853
 20
221.6589310664138
 10
620.1929866727845
 20
221.6964421250663
 10
620.0918813692274
 20
221.723533209505
 10
619.9884981416773
 20
221.7399075041394
 10
619.8839696784096
 20
221.7453856087712
 10
618.3839696784097
 20
221.7453856087712
 10
618.3839696784097
 20
179.2953856134166
 10
638.3839696784096
 20
179.2953856134166
 10
638.3839696784096
 20
184.2953856134166
 10
638.3730134691461
 20
184.5044425399519
 10
638.3402648798772
 20
184.7112089950521
 10
638.2860827109998
 20
184.9134196021664
 10
638.2110605936948
 20
185.1088588995682
 10
638.1160204859784
 20
185.2953856134166
 10
638.0020036671594
 20
185.4709561180015
 10
637.8702593293643
 20
185.6336468261343
 10
637.7222308911273
 20
185.7816752643714
 10
637.5595401829945
 20
185.9134196021664
 10
637.3839696784096
 20
186.0274364209854
 10
637.1974429645612
 20
186.1224765287018
 10
637.0020036671594
 20
186.1974986460069
 10
636.7997930600451
 20
186.2516808148842
 10
636.5930266049448
 20
186.2844294041531
 10
636.3839696784096
 20
186.2953856134166
 10
626.3839696784096
 20
186.2953856134166
 10
625.8613273620713
 20
186.3227761365752
 10
625.3444112243208
 20
186.4046476097475
 10
624.8388847065348
 20
186.5401030319408
 10
624.3502864630306
 20
186.7276583252035
 10
623.8839696784096
 20
186.9652585944944
 10
623.4450434169472
 20
187.2503006415418
 10
623.0383166466153
 20
187.5796614860296
 10
622.6682455510227
 20
187.9497325816223
 10
622.3388847065348
 20
188.3564593519542
 10
622.0538426594874
 20
188.7953856134166
 10
621.8162423901966
 20
189.2617023980376
 10
621.6286870969338
 20
189.7503006415418
 10
621.4932316747405
 20
190.2558271593278
 10
621.4113602015682
 20
190.7727432970783
 10
621.3839696784096
 20
191.2953856134166
 10
621.3839696784096
 20
201.745385608771
 10
621.4113602015682
 20
202.2680279251093
 10
621.4932316747405
 20
202.7849440628598
 10
621.6286870969338
 20
203.2904705806458
 10
621.8162423901966
 20
203.77906882415
 10
622.0538426594874
 20
204.245385608771
 10
622.3388847065348
 20
204.6843118702334
 10
622.6682455510227
 20
205.0910386405653
 10
623.0383166466153
 20
205.461109736158
 10
623.4450434169472
 20
205.7904705806458
 10
623.8839696784096
 20
206.0755126276932
 10
624.3502864630306
 20
206.3131128969841
 10
624.8388847065348
 20
206.5006681902468
 10
625.3444112243208
 20
206.6361236124401
 10
625.8613273620713
 20
206.7179950856124
 10
626.3839696784096
 20
206.745385608771
 10
636.3839696784096
 20
206.745385608771
 10
636.5930266049448
 20
206.7563418180344
 10
636.7997930600451
 20
206.7890904073033
 10
637.0020036671594
 20
206.8432725761807
 10
637.1974429645612
 20
206.9182946934858
 10
637.3839696784096
 20
207.0133348012021
 10
637.5595401829945
 20
207.1273516200211
 10
637.7222308911273
 20
207.2590959578162
 10
637.8702593293643
 20
207.4071243960532
 10
638.0020036671594
 20
207.569815104186
 10
638.1160204859784
 20
207.745385608771
 10
638.2110605936948
 20
207.9319123226194
 10
638.2860827109998
 20
208.1273516200211
 10
638.3402648798772
 20
208.3295622271355
 10
638.3730134691461
 20
208.5363286822356
 10
638.3839696784096
 20
208.745385608771
 10
638.3839696784096
 20
210.1837666087711
 10
638.3730134691461
 20
210.3928235353064
 10
638.3402648798772
 20
210.5995899904066
 10
638.2860827109998
 20
210.801800597521
 10
638.2110605936948
 20
210.9972398949227
 10
638.1160204859784
 20
211.1837666087711
 10
638.0020036671594
 20
211.3593371133561
 10
637.8702593293643
 20
211.5220278214888
 10
637.7222308911273
 20
211.6700562597259
 10
637.5595401829945
 20
211.801800597521
 10
637.3839696784096
 20
211.91581741634
 10
637.1974429645612
 20
212.0108575240563
 10
637.0020036671594
 20
212.0858796413614
 10
636.7997930600451
 20
212.1400618102387
 10
636.5930266049448
 20
212.1728103995077
 10
636.3839696784096
 20
212.1837666087711
 97
        0
 75
     0
 76
     1
 52
0.0
 41
1.0
 77
     0
 78
     1
 53
45.0
 43
0.0
 44
0.0
 45
-2.245064030267288
 46
2.245064030267288
 79
     1
 49
1.0
 98
        0
  0
HATCH
  5
355
330
1F
100
AcDbEntity
  8
Main lines
  6
Durchgehend
100
AcDbHatch
 10
0.0
 20
0.0
 30
0.0
210
0.0
220
0.0
230
1.0
  2
ANSI31
 70
     0
 71
     0
 91
        2
 92
        3
 72
     0
 73
     1
 93
      116
 10
610.3839696784096
 20
132.195385607223
 10
610.9775933691576
 20
132.0734308565001
 10
611.5555369444519
 20
131.891103482754
 10
612.111677755819
 20
131.6503350351262
 10
612.6401241300308
 20
131.3536761788223
 10
613.1352777846168
 20
131.0042696737438
 10
613.5918931352381
 20
130.6058170805559
 10
614.0051328666289
 20
130.1625395469031
 10
614.3706191783966
 20
129.6791330891975
 10
614.6844801627904
 20
129.1607188437175
 10
614.9433908231163
 20
128.6127888140506
 10
615.1446082982595
 20
128.041147689622
 10
615.2860009201479
 20
127.4518513516759
 10
615.3660707963267
 20
126.8511427181689
 10
615.3839696784096
 20
126.2453856072231
 10
615.3839696784096
 20
116.7453856087712
 10
615.356579155251
 20
116.222743292433
 10
615.2747076820787
 20
115.7058271546824
 10
615.1392522598853
 20
115.2003006368965
 10
614.9516969666225
 20
114.7117023933922
 10
614.7140966973318
 20
114.2453856087712
 10
614.4290546502843
 20
113.8064593473088
 10
614.0996938057965
 20
113.3997325769769
 10
613.7296227102039
 20
113.0296614813842
 10
613.322895939872
 20
112.7003006368965
 10
612.8839696784096
 20
112.415258589849
 10
612.4176528937886
 20
112.1776583205582
 10
611.9290546502843
 20
111.9901030272954
 10
611.4235281324984
 20
111.8546476051022
 10
610.9066119947479
 20
111.7727761319298
 10
610.3839696784096
 20
111.7453856087712
 10
600.3839696784098
 20
111.7453856087713
 10
600.1749127518746
 20
111.7344293995078
 10
599.9681462967743
 20
111.7016808102389
 10
599.76593568966
 20
111.6474986413616
 10
599.5704963922582
 20
111.5724765240565
 10
599.3839696784098
 20
111.4774364163402
 10
599.2083991738249
 20
111.3634195975212
 10
599.0457084656921
 20
111.2316752597261
 10
598.8976800274551
 20
111.083646821489
 10
598.76593568966
 20
110.9209561133562
 10
598.651918870841
 20
110.7453856087713
 10
598.5568787631246
 20
110.5588588949229
 10
598.4818566458196
 20
110.3634195975212
 10
598.4276744769422
 20
110.1612089904068
 10
598.3949258876733
 20
109.9544425353066
 10
598.3839696784098
 20
109.7453856087713
 10
598.3839696784098
 20
108.3070046087711
 10
598.3949258876733
 20
108.0979476822358
 10
598.4276744769422
 20
107.8911812271356
 10
598.4818566458196
 20
107.6889706200212
 10
598.5568787631246
 20
107.4935313226195
 10
598.651918870841
 20
107.3070046087711
 10
598.76593568966
 20
107.1314341041862
 10
598.8976800274551
 20
106.9687433960534
 10
599.0457084656921
 20
106.8207149578163
 10
599.2083991738249
 20
106.6889706200212
 10
599.3839696784098
 20
106.5749538012022
 10
599.5704963922582
 20
106.4799136934859
 10
599.76593568966
 20
106.4048915761808
 10
599.9681462967743
 20
106.3507094073035
 10
600.1749127518746
 20
106.3179608180346
 10
600.3839696784098
 20
106.3070046087711
 10
611.0716345046324
 20
106.3070046087712
 10
613.8839696784097
 20
106.307004608771
 10
614.093026604945
 20
106.2960483995076
 10
614.2997930600452
 20
106.2632998102386
 10
614.5020036671596
 20
106.2091176413613
 10
614.6974429645612
 20
106.1340955240562
 10
614.8839696784096
 20
106.0390554163398
 10
615.0595401829945
 20
105.9250385975208
 10
615.2222308911273
 20
105.7932942597257
 10
615.3702593293643
 20
105.6452658214887
 10
615.5020036671594
 20
105.4825751133559
 10
615.6160204859784
 20
105.307004608771
 10
615.7110605936947
 20
105.1204778949226
 10
615.7860827109998
 20
104.9250385975209
 10
615.840264879877
 20
104.7228279904065
 10
615.873013469146
 20
104.5160615353063
 10
615.8839696784095
 20
104.307004608771
 10
615.8839696784096
 20
97.7453856087711
 10
615.8894477830413
 20
97.64085714550345
 10
615.9058220776758
 20
97.53747391795335
 10
615.9329131621145
 20
97.43636861439616
 10
615.970424220767
 20
97.3386489656953
 10
616.0179442746252
 20
97.2453856087711
 10
616.0749526840347
 20
97.15760035647862
 10
616.1408248529322
 20
97.07625500241224
 10
616.2148390720507
 20
97.00224078329371
 10
616.2961844261171
 20
96.93636861439616
 10
616.3839696784096
 20
96.87936020498667
 10
616.4772330353338
 20
96.8318401511285
 10
616.5749526840347
 20
96.79432909247595
 10
616.6760579875918
 20
96.7672380080373
 10
616.7794412151419
 20
96.75086371340282
 10
616.8839696784096
 20
96.7453856087711
 10
618.3839696784097
 20
96.7453856087711
 10
618.3839696784097
 20
139.1953856041257
 10
598.3839696784098
 20
139.1953856041257
 10
598.3839696784098
 20
134.195385607223
 10
598.3936002250654
 20
133.9993513265639
 10
598.4223991176034
 20
133.8052049631908
 10
598.4700890069454
 20
133.6148162527141
 10
598.5362106133872
 20
133.4300187424928
 10
598.6201271497131
 20
133.252592133571
 10
598.7210304538047
 20
133.0842451411838
 10
598.8379487716844
 20
132.9265990388957
 10
598.9697561160367
 20
132.7811720448499
 10
599.1151831100826
 20
132.6493647004975
 10
599.2728292123707
 20
132.5324463826179
 10
599.4411762047579
 20
132.4315430785263
 10
599.6186028136797
 20
132.3476265422004
 10
599.803400323901
 20
132.2815049357586
 10
599.9937890343776
 20
132.2338150464166
 10
600.1879353977508
 20
132.2050161538786
 10
600.3839696784099
 20
132.195385607223
 97
        0
 92
        3
 72
     0
 73
     1
 93
      116
 10
626.3839696784096
 20
132.195385607223
 10
636.3839696784095
 20
132.195385607223
 10
636.5800039590686
 20
132.2050161538786
 10
636.7741503224418
 20
132.2338150464165
 10
636.9645390329184
 20
132.2815049357586
 10
637.1493365431397
 20
132.3476265422004
 10
637.3267631520615
 20
132.4315430785263
 10
637.4951101444487
 20
132.5324463826179
 10
637.6527562467368
 20
132.6493647004975
 10
637.7981832407827
 20
132.7811720448499
 10
637.929990585135
 20
132.9265990388957
 10
638.0469089030147
 20
133.0842451411838
 10
638.1478122071063
 20
133.252592133571
 10
638.2317287434322
 20
133.4300187424928
 10
638.297850349874
 20
133.6148162527141
 10
638.345540239216
 20
133.8052049631907
 10
638.374339131754
 20
133.9993513265639
 10
638.3839696784096
 20
134.195385607223
 10
638.3839696784096
 20
139.1953856041257
 10
618.3839696784097
 20
139.1953856041257
 10
618.3839696784097
 20
96.7453856087711
 10
619.8839696784096
 20
96.7453856087711
 10
619.9884981416773
 20
96.75086371340282
 10
620.0918813692274
 20
96.7672380080373
 10
620.1929866727845
 20
96.79432909247595
 10
620.2907063214853
 20
96.8318401511285
 10
620.3839696784096
 20
96.87936020498667
 10
620.4717549307021
 20
96.93636861439616
 10
620.5531002847684
 20
97.0022407832937
 10
620.627114503887
 20
97.07625500241224
 10
620.6929866727845
 20
97.15760035647862
 10
620.749995082194
 20
97.2453856087711
 10
620.7975151360522
 20
97.3386489656953
 10
620.8350261947047
 20
97.43636861439616
 10
620.8621172791434
 20
97.53747391795335
 10
620.8784915737779
 20
97.64085714550345
 10
620.8839696784096
 20
97.7453856087711
 10
620.8839696784096
 20
104.3070046087711
 10
620.894925887673
 20
104.5160615353064
 10
620.927674476942
 20
104.7228279904067
 10
620.9818566458193
 20
104.925038597521
 10
621.0568787631244
 20
105.1204778949227
 10
621.1519188708407
 20
105.3070046087711
 10
621.2659356896597
 20
105.4825751133561
 10
621.3976800274548
 20
105.6452658214888
 10
621.5457084656919
 20
105.7932942597259
 10
621.7083991738247
 20
105.925038597521
 10
621.8839696784096
 20
106.03905541634
 10
622.070496392258
 20
106.1340955240563
 10
622.2659356896597
 20
106.2091176413614
 10
622.4681462967741
 20
106.2632998102387
 10
622.6749127518743
 20
106.2960483995077
 10
622.8839696784096
 20
106.3070046087711
 10
631.393378972905
 20
106.3070046087711
 10
636.3839696784096
 20
106.3070046087711
 10
636.5930266049448
 20
106.3179608180346
 10
636.7997930600451
 20
106.3507094073035
 10
637.0020036671594
 20
106.4048915761808
 10
637.1974429645612
 20
106.4799136934859
 10
637.3839696784096
 20
106.5749538012022
 10
637.5595401829945
 20
106.6889706200212
 10
637.7222308911273
 20
106.8207149578163
 10
637.8702593293643
 20
106.9687433960534
 10
638.0020036671594
 20
107.1314341041862
 10
638.1160204859784
 20
107.3070046087711
 10
638.2110605936948
 20
107.4935313226195
 10
638.2860827109998
 20
107.6889706200212
 10
638.3402648798772
 20
107.8911812271356
 10
638.3730134691461
 20
108.0979476822358
 10
638.3839696784096
 20
108.3070046087711
 10
638.3839696784096
 20
109.7453856087713
 10
638.3730134691461
 20
109.9544425353066
 10
638.3402648798772
 20
110.1612089904068
 10
638.2860827109998
 20
110.3634195975212
 10
638.2110605936948
 20
110.5588588949229
 10
638.1160204859784
 20
110.7453856087713
 10
638.0020036671594
 20
110.9209561133562
 10
637.8702593293643
 20
111.083646821489
 10
637.7222308911273
 20
111.2316752597261
 10
637.5595401829945
 20
111.3634195975212
 10
637.3839696784096
 20
111.4774364163402
 10
637.1974429645612
 20
111.5724765240565
 10
637.0020036671594
 20
111.6474986413616
 10
636.7997930600451
 20
111.7016808102389
 10
636.5930266049448
 20
111.7344293995078
 10
636.3839696784096
 20
111.7453856087713
 10
626.3839696784096
 20
111.7453856087712
 10
625.8613273620713
 20
111.7727761319298
 10
625.3444112243208
 20
111.8546476051022
 10
624.8388847065348
 20
111.9901030272954
 10
624.3502864630306
 20
112.1776583205582
 10
623.8839696784096
 20
112.415258589849
 10
623.4450434169472
 20
112.7003006368965
 10
623.0383166466153
 20
113.0296614813842
 10
622.6682455510227
 20
113.3997325769769
 10
622.3388847065348
 20
113.8064593473088
 10
622.0538426594874
 20
114.2453856087712
 10
621.8162423901966
 20
114.7117023933922
 10
621.6286870969338
 20
115.2003006368965
 10
621.4932316747405
 20
115.7058271546824
 10
621.4113602015682
 20
116.222743292433
 10
621.3839696784096
 20
116.7453856087712
 10
621.3839696784096
 20
126.2453856072231
 10
621.4018685604925
 20
126.8511427181689
 10
621.4819384366713
 20
127.4518513516759
 10
621.6233310585596
 20
128.041147689622
 10
621.8245485337029
 20
128.6127888140506
 10
622.0834591940289
 20
129.1607188437175
 10
622.3973201784227
 20
129.6791330891974
 10
622.7628064901903
 20
130.1625395469031
 10
623.176046221581
 20
130.6058170805559
 10
623.6326615722023
 20
131.0042696737438
 10
624.1278152267884
 20
131.3536761788223
 10
624.6562616010002
 20
131.6503350351261
 10
625.2124024123673
 20
131.891103482754
 10
625.7903459876617
 20
132.0734308565
 97
        0
 75
     0
 76
     1
 52
0.0
 41
1.0
 77
     0
 78
     1
 53
45.0
 43
0.0
 44
0.0
 45
-2.245064030267288
 46
2.245064030267288
 79
     1
 49
1.0
 98
        0
  0
ARC
  5
358
102
{ACAD_XDICTIONARY
360
356
102
}
330
1F
100
AcDbEntity
  8
Main lines
100
AcDbCircle
 10
461.1886230109499
 20
220.4728793871315
 30
0.0
 40
1.000000000000013
100
AcDbArc
 50
95.3957122001468
 51
169.9999999999998
  0
ARC
  5
35B
102
{ACAD_XDICTIONARY
360
359
102
}
330
1F
100
AcDbEntity
  8
Main lines
100
AcDbCircle
 10
472.7572463980754
 20
220.4726465228966
 30
0.0
 40
1.000000000000003
100
AcDbArc
 50
10.00000000000181
 51
84.60198119215795
  0
LINE
  5
35E
102
{ACAD_XDICTIONARY
360
35C
102
}
330
1F
100
AcDbEntity
  8
Main lines
100
AcDbLine
 10
494.9717022617319
 20
139.245385608771
 30
0.0
 11
494.9717022617319
 21
179.245385608771
 31
0.0
  0
LINE
  5
361
102
{ACAD_XDICTIONARY
360
35F
102
}
330
1F
100
AcDbEntity
  8
Main lines
100
AcDbLine
 10
486.2217022617319
 20
140.495385608771
 30
0.0
 11
486.2217022617319
 21
149.245385608771
 31
0.0
  0
LINE
  5
364
102
{ACAD_XDICTIONARY
360
362
102
}
330
1F
100
AcDbEntity
  8
Main lines
100
AcDbLine
 10
447.7217022617319
 20
149.245385608771
 30
0.0
 11
447.7217022617319
 21
140.495385608771
 31
0.0
  0
LINE
  5
367
102
{ACAD_XDICTIONARY
360
365
102
}
330
1F
100
AcDbEntity
  8
Main lines
100
AcDbLine
 10
438.9717022617319
 20
179.245385608771
 30
0.0
 11
438.9717022617319
 21
139.245385608771
 31
0.0
  0
LINE
  5
36A
102
{ACAD_XDICTIONARY
360
368
102
}
330
1F
100
AcDbEntity
  8
Main lines
100
AcDbLine
 10
457.4717022617319
 20
139.495385608771
 30
0.0
 11
476.4717022617319
 21
139.495385608771
 31
0.0
  0
LINE
  5
36D
102
{ACAD_XDICTIONARY
360
36B
102
}
330
1F
100
AcDbEntity
  8
Main lines
100
AcDbLine
 10
446.9717022617319
 20
131.245385608771
 30
0.0
 11
486.9717022617319
 21
131.245385608771
 31
0.0
  0
ARC
  5
370
102
{ACAD_XDICTIONARY
360
36E
102
}
330
1F
100
AcDbEntity
  8
Main lines
100
AcDbCircle
 10
446.9717022617319
 20
139.245385608771
 30
0.0
 40
8.0
100
AcDbArc
 50
180.0
 51
270.0
  0
LINE
  5
373
102
{ACAD_XDICTIONARY
360
371
102
}
330
1F
100
AcDbEntity
  8
Main lines
100
AcDbLine
 10
448.2217022617319
 20
139.995385608771
 30
0.0
 11
456.9717022617319
 21
139.995385608771
 31
0.0
  0
ARC
  5
376
102
{ACAD_XDICTIONARY
360
374
102
}
330
1F
100
AcDbEntity
  8
Main lines
100
AcDbCircle
 10
448.2217022617319
 20
140.495385608771
 30
0.0
 40
0.5
100
AcDbArc
 50
180.0
 51
270.0
  0
LINE
  5
379
102
{ACAD_XDICTIONARY
360
377
102
}
330
1F
100
AcDbEntity
  8
Main lines
100
AcDbLine
 10
456.9717022617319
 20
139.995385608771
 30
0.0
 11
457.4717022617319
 21
139.495385608771
 31
0.0
  0
ARC
  5
37C
102
{ACAD_XDICTIONARY
360
37A
102
}
330
1F
100
AcDbEntity
  8
Main lines
100
AcDbCircle
 10
486.9717022617319
 20
139.245385608771
 30
0.0
 40
8.0
100
AcDbArc
 50
-90.0
 51
0.0
  0
LINE
  5
37F
102
{ACAD_XDICTIONARY
360
37D
102
}
330
1F
100
AcDbEntity
  8
Main lines
100
AcDbLine
 10
476.9717022617319
 20
139.995385608771
 30
0.0
 11
485.7217022617319
 21
139.995385608771
 31
0.0
  0
LINE
  5
382
102
{ACAD_XDICTIONARY
360
380
102
}
330
1F
100
AcDbEntity
  8
Main lines
100
AcDbLine
 10
476.9717022617319
 20
139.995385608771
 30
0.0
 11
476.4717022617319
 21
139.495385608771
 31
0.0
  0
ARC
  5
385
102
{ACAD_XDICTIONARY
360
383
102
}
330
1F
100
AcDbEntity
  8
Main lines
100
AcDbCircle
 10
485.7217022617319
 20
140.495385608771
 30
0.0
 40
0.5
100
AcDbArc
 50
-90.0
 51
0.0
  0
LINE
  5
388
102
{ACAD_XDICTIONARY
360
386
102
}
330
1F
100
AcDbEntity
  8
Main lines
100
AcDbLine
 10
486.9717022617319
 20
187.245385608771
 30
0.0
 11
446.9717022617319
 21
187.245385608771
 31
0.0
  0
LINE
  5
38B
102
{ACAD_XDICTIONARY
360
389
102
}
330
1F
100
AcDbEntity
  8
Main lines
100
AcDbLine
 10
476.4717022617319
 20
178.995385608771
 30
0.0
 11
457.4717022617319
 21
178.995385608771
 31
0.0
  0
LINE
  5
38E
102
{ACAD_XDICTIONARY
360
38C
102
}
330
1F
100
AcDbEntity
  8
Main lines
100
AcDbLine
 10
447.7217022617319
 20
169.245385608771
 30
0.0
 11
447.2217022617319
 21
168.7453856087711
 31
0.0
  0
LINE
  5
391
102
{ACAD_XDICTIONARY
360
38F
102
}
330
1F
100
AcDbEntity
  8
Main lines
100
AcDbLine
 10
447.2217022617319
 20
149.745385608771
 30
0.0
 11
447.2217022617319
 21
168.7453856087711
 31
0.0
  0
LINE
  5
394
102
{ACAD_XDICTIONARY
360
392
102
}
330
1F
100
AcDbEntity
  8
Main lines
100
AcDbLine
 10
447.7217022617319
 20
149.245385608771
 30
0.0
 11
447.2217022617319
 21
149.745385608771
 31
0.0
  0
ARC
  5
397
102
{ACAD_XDICTIONARY
360
395
102
}
330
1F
100
AcDbEntity
  8
Main lines
100
AcDbCircle
 10
446.9717022617319
 20
179.245385608771
 30
0.0
 40
8.0
100
AcDbArc
 50
90.0
 51
180.0
  0
LINE
  5
39A
102
{ACAD_XDICTIONARY
360
398
102
}
330
1F
100
AcDbEntity
  8
Main lines
100
AcDbLine
 10
456.9717022617319
 20
178.495385608771
 30
0.0
 11
448.2217022617318
 21
178.495385608771
 31
0.0
  0
LINE
  5
39D
102
{ACAD_XDICTIONARY
360
39B
102
}
330
1F
100
AcDbEntity
  8
Main lines
100
AcDbLine
 10
447.7217022617318
 20
177.995385608771
 30
0.0
 11
447.7217022617319
 21
169.245385608771
 31
0.0
  0
ARC
  5
3A0
102
{ACAD_XDICTIONARY
360
39E
102
}
330
1F
100
AcDbEntity
  8
Main lines
100
AcDbCircle
 10
448.2217022617318
 20
177.995385608771
 30
0.0
 40
0.5
100
AcDbArc
 50
90.0
 51
180.0
  0
LINE
  5
3A3
102
{ACAD_XDICTIONARY
360
3A1
102
}
330
1F
100
AcDbEntity
  8
Main lines
100
AcDbLine
 10
456.9717022617319
 20
178.495385608771
 30
0.0
 11
457.4717022617319
 21
178.995385608771
 31
0.0
  0
LINE
  5
3A6
102
{ACAD_XDICTIONARY
360
3A4
102
}
330
1F
100
AcDbEntity
  8
Main lines
100
AcDbLine
 10
486.2217022617319
 20
169.245385608771
 30
0.0
 11
486.7217022617319
 21
168.745385608771
 31
0.0
  0
LINE
  5
3A9
102
{ACAD_XDICTIONARY
360
3A7
102
}
330
1F
100
AcDbEntity
  8
Main lines
100
AcDbLine
 10
486.7217022617319
 20
168.745385608771
 30
0.0
 11
486.7217022617319
 21
149.745385608771
 31
0.0
  0
LINE
  5
3AC
102
{ACAD_XDICTIONARY
360
3AA
102
}
330
1F
100
AcDbEntity
  8
Main lines
100
AcDbLine
 10
486.2217022617319
 20
149.245385608771
 30
0.0
 11
486.7217022617319
 21
149.745385608771
 31
0.0
  0
ARC
  5
3AF
102
{ACAD_XDICTIONARY
360
3AD
102
}
330
1F
100
AcDbEntity
  8
Main lines
100
AcDbCircle
 10
486.9717022617319
 20
179.245385608771
 30
0.0
 40
8.0
100
AcDbArc
 50
0.0
 51
90.0
  0
LINE
  5
3B2
102
{ACAD_XDICTIONARY
360
3B0
102
}
330
1F
100
AcDbEntity
  8
Main lines
100
AcDbLine
 10
485.7217022617318
 20
178.495385608771
 30
0.0
 11
476.9717022617318
 21
178.495385608771
 31
0.0
  0
LINE
  5
3B5
102
{ACAD_XDICTIONARY
360
3B3
102
}
330
1F
100
AcDbEntity
  8
Main lines
100
AcDbLine
 10
476.9717022617319
 20
178.495385608771
 30
0.0
 11
476.4717022617319
 21
178.995385608771
 31
0.0
  0
LINE
  5
3B8
102
{ACAD_XDICTIONARY
360
3B6
102
}
330
1F
100
AcDbEntity
  8
Main lines
100
AcDbLine
 10
486.2217022617319
 20
169.245385608771
 30
0.0
 11
486.2217022617318
 21
177.995385608771
 31
0.0
  0
ARC
  5
3BB
102
{ACAD_XDICTIONARY
360
3B9
102
}
330
1F
100
AcDbEntity
  8
Main lines
100
AcDbCircle
 10
485.7217022617318
 20
177.995385608771
 30
0.0
 40
0.5
100
AcDbArc
 50
0.0
 51
90.0
  0
VIEWPORT
  5
3BC
330
1B
100
AcDbEntity
 67
     1
  8
0
100
AcDbViewport
 10
141.5032972770365
 20
98.74341916923657
 30
0.0
 40
287.7219291732101
 41
200.0770072641286
 68
     1
 69
     1
 12
141.5032972770365
 22
98.74341916923657
 13
0.0
 23
0.0
 14
10.0
 24
10.0
 15
10.0
 25
10.0
 16
0.0
 26
0.0
 36
1.0
 17
0.0
 27
0.0
 37
0.0
 42
50.0
 43
0.0
 44
0.0
 45
200.0770072641286
 50
0.0
 51
0.0
 72
  1000
 90
    32800
  1

281
     0
 71
     1
 74
     0
110
0.0
120
0.0
130
0.0
111
1.0
121
0.0
131
0.0
112
0.0
122
1.0
132
0.0
 79
     0
146
0.0
170
     0
  0
VIEWPORT
  5
3BD
330
1B
100
AcDbEntity
 67
     1
  8
0
  6
Durchgehend
100
AcDbViewport
 10
141.5032972770365
 20
98.74341916923657
 30
0.0
 40
287.7219291732101
 41
200.0770072641286
 68
     2
 69
     2
 12
512.83846715994
 22
124.8560967250824
 13
0.0
 23
0.0
 14
0.5
 24
0.5
 15
0.0
 25
0.0
 16
0.0
 26
0.0
 36
1.0
 17
0.0
 27
0.0
 37
0.0
 42
50.0
 43
0.0
 44
0.0
 45
284.0433161658299
 50
0.0
 51
0.0
 72
   100
331
4D
 90
   557152
  1

281
     0
 71
     1
 74
     0
110
0.0
120
0.0
130
0.0
111
1.0
121
0.0
131
0.0
112
0.0
122
1.0
132
0.0
 79
     0
146
0.0
170
     0
  0
ENDSEC
  0
SECTION
  2
OBJECTS
  0
DICTIONARY
  5
C
330
0
100
AcDbDictionary
281
     1
  3
ACAD_GROUP
350
D
  3
ACAD_LAYOUT
350
1A
  3
ACAD_MLINESTYLE
350
17
  3
ACAD_PLOTSETTINGS
350
19
  3
ACAD_PLOTSTYLENAME
350
E
  3
ACAD_TABLESTYLE
350
3BF
  3
ACAD_VISUALSTYLE
350
2A
  0
DICTIONARY
  5
56
330
58
100
AcDbDictionary
280
     1
281
     1
  3
TC_OPTIONAL_DATA
360
57
  0
DICTIONARY
  5
59
330
5B
100
AcDbDictionary
280
     1
281
     1
  3
TC_OPTIONAL_DATA
360
5A
  0
DICTIONARY
  5
5C
330
5E
100
AcDbDictionary
280
     1
281
     1
  3
TC_OPTIONAL_DATA
360
5D
  0
DICTIONARY
  5
5F
330
61
100
AcDbDictionary
280
     1
281
     1
  3
TC_OPTIONAL_DATA
360
60
  0
DICTIONARY
  5
62
330
64
100
AcDbDictionary
280
     1
281
     1
  3
TC_OPTIONAL_DATA
360
63
  0
DICTIONARY
  5
65
330
67
100
AcDbDictionary
280
     1
281
     1
  3
TC_OPTIONAL_DATA
360
66
  0
DICTIONARY
  5
68
330
6A
100
AcDbDictionary
280
     1
281
     1
  3
TC_OPTIONAL_DATA
360
69
  0
DICTIONARY
  5
6B
330
6D
100
AcDbDictionary
280
     1
281
     1
  3
TC_OPTIONAL_DATA
360
6C
  0
DICTIONARY
  5
6E
330
70
100
AcDbDictionary
280
     1
281
     1
  3
TC_OPTIONAL_DATA
360
6F
  0
DICTIONARY
  5
71
330
73
100
AcDbDictionary
280
     1
281
     1
  3
TC_OPTIONAL_DATA
360
72
  0
DICTIONARY
  5
74
330
76
100
AcDbDictionary
280
     1
281
     1
  3
TC_OPTIONAL_DATA
360
75
  0
DICTIONARY
  5
77
330
79
100
AcDbDictionary
280
     1
281
     1
  3
TC_OPTIONAL_DATA
360
78
  0
DICTIONARY
  5
7A
330
7C
100
AcDbDictionary
280
     1
281
     1
  3
TC_OPTIONAL_DATA
360
7B
  0
DICTIONARY
  5
7D
330
7F
100
AcDbDictionary
280
     1
281
     1
  3
TC_OPTIONAL_DATA
360
7E
  0
DICTIONARY
  5
80
330
82
100
AcDbDictionary
280
     1
281
     1
  3
TC_OPTIONAL_DATA
360
81
  0
DICTIONARY
  5
83
330
85
100
AcDbDictionary
280
     1
281
     1
  3
TC_OPTIONAL_DATA
360
84
  0
DICTIONARY
  5
86
330
88
100
AcDbDictionary
280
     1
281
     1
  3
TC_OPTIONAL_DATA
360
87
  0
DICTIONARY
  5
89
330
8B
100
AcDbDictionary
280
     1
281
     1
  3
TC_OPTIONAL_DATA
360
8A
  0
DICTIONARY
  5
8C
330
8E
100
AcDbDictionary
280
     1
281
     1
  3
TC_OPTIONAL_DATA
360
8D
  0
DICTIONARY
  5
8F
330
91
100
AcDbDictionary
280
     1
281
     1
  3
TC_OPTIONAL_DATA
360
90
  0
DICTIONARY
  5
92
330
94
100
AcDbDictionary
280
     1
281
     1
  3
TC_OPTIONAL_DATA
360
93
  0
DICTIONARY
  5
95
330
97
100
AcDbDictionary
280
     1
281
     1
  3
TC_OPTIONAL_DATA
360
96
  0
DICTIONARY
  5
98
330
9A
100
AcDbDictionary
280
     1
281
     1
  3
TC_OPTIONAL_DATA
360
99
  0
DICTIONARY
  5
9B
330
9D
100
AcDbDictionary
280
     1
281
     1
  3
TC_OPTIONAL_DATA
360
9C
  0
DICTIONARY
  5
9E
330
A0
100
AcDbDictionary
280
     1
281
     1
  3
TC_OPTIONAL_DATA
360
9F
  0
DICTIONARY
  5
A1
330
A3
100
AcDbDictionary
280
     1
281
     1
  3
TC_OPTIONAL_DATA
360
A2
  0
DICTIONARY
  5
A4
330
A6
100
AcDbDictionary
280
     1
281
     1
  3
TC_OPTIONAL_DATA
360
A5
  0
DICTIONARY
  5
A7
330
A9
100
AcDbDictionary
280
     1
281
     1
  3
TC_OPTIONAL_DATA
360
A8
  0
DICTIONARY
  5
AA
330
AC
100
AcDbDictionary
280
     1
281
     1
  3
TC_OPTIONAL_DATA
360
AB
  0
DICTIONARY
  5
AD
330
AF
100
AcDbDictionary
280
     1
281
     1
  3
TC_OPTIONAL_DATA
360
AE
  0
DICTIONARY
  5
B0
330
B2
100
AcDbDictionary
280
     1
281
     1
  3
TC_OPTIONAL_DATA
360
B1
  0
DICTIONARY
  5
B3
330
B5
100
AcDbDictionary
280
     1
281
     1
  3
TC_OPTIONAL_DATA
360
B4
  0
DICTIONARY
  5
B8
330
BA
100
AcDbDictionary
280
     1
281
     1
  3
TC_OPTIONAL_DATA
360
B9
  0
DICTIONARY
  5
BB
330
BD
100
AcDbDictionary
280
     1
281
     1
  3
TC_OPTIONAL_DATA
360
BC
  0
DICTIONARY
  5
BE
330
C0
100
AcDbDictionary
280
     1
281
     1
  3
TC_OPTIONAL_DATA
360
BF
  0
DICTIONARY
  5
C1
330
C3
100
AcDbDictionary
280
     1
281
     1
  3
TC_OPTIONAL_DATA
360
C2
  0
DICTIONARY
  5
C6
330
C8
100
AcDbDictionary
280
     1
281
     1
  3
TC_OPTIONAL_DATA
360
C7
  0
DICTIONARY
  5
C9
330
CB
100
AcDbDictionary
280
     1
281
     1
  3
TC_OPTIONAL_DATA
360
CA
  0
DICTIONARY
  5
CC
330
CE
100
AcDbDictionary
280
     1
281
     1
  3
TC_OPTIONAL_DATA
360
CD
  0
DICTIONARY
  5
CF
330
D1
100
AcDbDictionary
280
     1
281
     1
  3
TC_OPTIONAL_DATA
360
D0
  0
DICTIONARY
  5
D2
330
D4
100
AcDbDictionary
280
     1
281
     1
  3
TC_OPTIONAL_DATA
360
D3
  0
DICTIONARY
  5
D5
330
D7
100
AcDbDictionary
280
     1
281
     1
  3
TC_OPTIONAL_DATA
360
D6
  0
DICTIONARY
  5
D8
330
DA
100
AcDbDictionary
280
     1
281
     1
  3
TC_OPTIONAL_DATA
360
D9
  0
DICTIONARY
  5
DB
330
DD
100
AcDbDictionary
280
     1
281
     1
  3
TC_OPTIONAL_DATA
360
DC
  0
DICTIONARY
  5
DE
330
E0
100
AcDbDictionary
280
     1
281
     1
  3
TC_OPTIONAL_DATA
360
DF
  0
DICTIONARY
  5
E1
330
E3
100
AcDbDictionary
280
     1
281
     1
  3
TC_OPTIONAL_DATA
360
E2
  0
DICTIONARY
  5
E4
330
E6
100
AcDbDictionary
280
     1
281
     1
  3
TC_OPTIONAL_DATA
360
E5
  0
DICTIONARY
  5
E7
330
E9
100
AcDbDictionary
280
     1
281
     1
  3
TC_OPTIONAL_DATA
360
E8
  0
DICTIONARY
  5
EA
330
EC
100
AcDbDictionary
280
     1
281
     1
  3
TC_OPTIONAL_DATA
360
EB
  0
DICTIONARY
  5
ED
330
EF
100
AcDbDictionary
280
     1
281
     1
  3
TC_OPTIONAL_DATA
360
EE
  0
DICTIONARY
  5
F0
330
F2
100
AcDbDictionary
280
     1
281
     1
  3
TC_OPTIONAL_DATA
360
F1
  0
DICTIONARY
  5
F3
330
F5
100
AcDbDictionary
280
     1
281
     1
  3
TC_OPTIONAL_DATA
360
F4
  0
DICTIONARY
  5
F6
330
F8
100
AcDbDictionary
280
     1
281
     1
  3
TC_OPTIONAL_DATA
360
F7
  0
DICTIONARY
  5
F9
330
FB
100
AcDbDictionary
280
     1
281
     1
  3
TC_OPTIONAL_DATA
360
FA
  0
DICTIONARY
  5
FC
330
FE
100
AcDbDictionary
280
     1
281
     1
  3
TC_OPTIONAL_DATA
360
FD
  0
DICTIONARY
  5
FF
330
101
100
AcDbDictionary
280
     1
281
     1
  3
TC_OPTIONAL_DATA
360
100
  0
DICTIONARY
  5
102
330
104
100
AcDbDictionary
280
     1
281
     1
  3
TC_OPTIONAL_DATA
360
103
  0
DICTIONARY
  5
105
330
107
100
AcDbDictionary
280
     1
281
     1
  3
TC_OPTIONAL_DATA
360
106
  0
DICTIONARY
  5
108
330
10A
100
AcDbDictionary
280
     1
281
     1
  3
TC_OPTIONAL_DATA
360
109
  0
DICTIONARY
  5
10B
330
10D
100
AcDbDictionary
280
     1
281
     1
  3
TC_OPTIONAL_DATA
360
10C
  0
DICTIONARY
  5
10E
330
110
100
AcDbDictionary
280
     1
281
     1
  3
TC_OPTIONAL_DATA
360
10F
  0
DICTIONARY
  5
111
330
113
100
AcDbDictionary
280
     1
281
     1
  3
TC_OPTIONAL_DATA
360
112
  0
DICTIONARY
  5
114
330
116
100
AcDbDictionary
280
     1
281
     1
  3
TC_OPTIONAL_DATA
360
115
  0
DICTIONARY
  5
117
330
119
100
AcDbDictionary
280
     1
281
     1
  3
TC_OPTIONAL_DATA
360
118
  0
DICTIONARY
  5
11A
330
11C
100
AcDbDictionary
280
     1
281
     1
  3
TC_OPTIONAL_DATA
360
11B
  0
DICTIONARY
  5
11D
330
11F
100
AcDbDictionary
280
     1
281
     1
  3
TC_OPTIONAL_DATA
360
11E
  0
DICTIONARY
  5
120
330
122
100
AcDbDictionary
280
     1
281
     1
  3
TC_OPTIONAL_DATA
360
121
  0
DICTIONARY
  5
123
330
125
100
AcDbDictionary
280
     1
281
     1
  3
TC_OPTIONAL_DATA
360
124
  0
DICTIONARY
  5
126
330
128
100
AcDbDictionary
280
     1
281
     1
  3
TC_OPTIONAL_DATA
360
127
  0
DICTIONARY
  5
129
330
12B
100
AcDbDictionary
280
     1
281
     1
  3
TC_OPTIONAL_DATA
360
12A
  0
DICTIONARY
  5
12C
330
12E
100
AcDbDictionary
280
     1
281
     1
  3
TC_OPTIONAL_DATA
360
12D
  0
DICTIONARY
  5
12F
330
131
100
AcDbDictionary
280
     1
281
     1
  3
TC_OPTIONAL_DATA
360
130
  0
DICTIONARY
  5
132
330
134
100
AcDbDictionary
280
     1
281
     1
  3
TC_OPTIONAL_DATA
360
133
  0
DICTIONARY
  5
135
330
137
100
AcDbDictionary
280
     1
281
     1
  3
TC_OPTIONAL_DATA
360
136
  0
DICTIONARY
  5
138
330
13A
100
AcDbDictionary
280
     1
281
     1
  3
TC_OPTIONAL_DATA
360
139
  0
DICTIONARY
  5
13B
330
13D
100
AcDbDictionary
280
     1
281
     1
  3
TC_OPTIONAL_DATA
360
13C
  0
DICTIONARY
  5
13E
330
140
100
AcDbDictionary
280
     1
281
     1
  3
TC_OPTIONAL_DATA
360
13F
  0
DICTIONARY
  5
141
330
143
100
AcDbDictionary
280
     1
281
     1
  3
TC_OPTIONAL_DATA
360
142
  0
DICTIONARY
  5
144
330
146
100
AcDbDictionary
280
     1
281
     1
  3
TC_OPTIONAL_DATA
360
145
  0
DICTIONARY
  5
147
330
149
100
AcDbDictionary
280
     1
281
     1
  3
TC_OPTIONAL_DATA
360
148
  0
DICTIONARY
  5
14A
330
14C
100
AcDbDictionary
280
     1
281
     1
  3
TC_OPTIONAL_DATA
360
14B
  0
DICTIONARY
  5
14D
330
14F
100
AcDbDictionary
280
     1
281
     1
  3
TC_OPTIONAL_DATA
360
14E
  0
DICTIONARY
  5
150
330
152
100
AcDbDictionary
280
     1
281
     1
  3
TC_OPTIONAL_DATA
360
151
  0
DICTIONARY
  5
153
330
155
100
AcDbDictionary
280
     1
281
     1
  3
TC_OPTIONAL_DATA
360
154
  0
DICTIONARY
  5
156
330
158
100
AcDbDictionary
280
     1
281
     1
  3
TC_OPTIONAL_DATA
360
157
  0
DICTIONARY
  5
159
330
15B
100
AcDbDictionary
280
     1
281
     1
  3
TC_OPTIONAL_DATA
360
15A
  0
DICTIONARY
  5
15C
330
15E
100
AcDbDictionary
280
     1
281
     1
  3
TC_OPTIONAL_DATA
360
15D
  0
DICTIONARY
  5
15F
330
161
100
AcDbDictionary
280
     1
281
     1
  3
TC_OPTIONAL_DATA
360
160
  0
DICTIONARY
  5
162
330
164
100
AcDbDictionary
280
     1
281
     1
  3
TC_OPTIONAL_DATA
360
163
  0
DICTIONARY
  5
165
330
167
100
AcDbDictionary
280
     1
281
     1
  3
TC_OPTIONAL_DATA
360
166
  0
DICTIONARY
  5
168
330
16A
100
AcDbDictionary
280
     1
281
     1
  3
TC_OPTIONAL_DATA
360
169
  0
DICTIONARY
  5
16B
330
16D
100
AcDbDictionary
280
     1
281
     1
  3
TC_OPTIONAL_DATA
360
16C
  0
DICTIONARY
  5
16E
330
170
100
AcDbDictionary
280
     1
281
     1
  3
TC_OPTIONAL_DATA
360
16F
  0
DICTIONARY
  5
171
330
173
100
AcDbDictionary
280
     1
281
     1
  3
TC_OPTIONAL_DATA
360
172
  0
DICTIONARY
  5
174
330
176
100
AcDbDictionary
280
     1
281
     1
  3
TC_OPTIONAL_DATA
360
175
  0
DICTIONARY
  5
177
330
179
100
AcDbDictionary
280
     1
281
     1
  3
TC_OPTIONAL_DATA
360
178
  0
DICTIONARY
  5
17A
330
17C
100
AcDbDictionary
280
     1
281
     1
  3
TC_OPTIONAL_DATA
360
17B
  0
DICTIONARY
  5
17D
330
17F
100
AcDbDictionary
280
     1
281
     1
  3
TC_OPTIONAL_DATA
360
17E
  0
DICTIONARY
  5
180
330
182
100
AcDbDictionary
280
     1
281
     1
  3
TC_OPTIONAL_DATA
360
181
  0
DICTIONARY
  5
183
330
185
100
AcDbDictionary
280
     1
281
     1
  3
TC_OPTIONAL_DATA
360
184
  0
DICTIONARY
  5
186
330
188
100
AcDbDictionary
280
     1
281
     1
  3
TC_OPTIONAL_DATA
360
187
  0
DICTIONARY
  5
189
330
18B
100
AcDbDictionary
280
     1
281
     1
  3
TC_OPTIONAL_DATA
360
18A
  0
DICTIONARY
  5
18C
330
18E
100
AcDbDictionary
280
     1
281
     1
  3
TC_OPTIONAL_DATA
360
18D
  0
DICTIONARY
  5
18F
330
191
100
AcDbDictionary
280
     1
281
     1
  3
TC_OPTIONAL_DATA
360
190
  0
DICTIONARY
  5
192
330
194
100
AcDbDictionary
280
     1
281
     1
  3
TC_OPTIONAL_DATA
360
193
  0
DICTIONARY
  5
195
330
197
100
AcDbDictionary
280
     1
281
     1
  3
TC_OPTIONAL_DATA
360
196
  0
DICTIONARY
  5
198
330
19A
100
AcDbDictionary
280
     1
281
     1
  3
TC_OPTIONAL_DATA
360
199
  0
DICTIONARY
  5
19B
330
19D
100
AcDbDictionary
280
     1
281
     1
  3
TC_OPTIONAL_DATA
360
19C
  0
DICTIONARY
  5
19E
330
1A0
100
AcDbDictionary
280
     1
281
     1
  3
TC_OPTIONAL_DATA
360
19F
  0
DICTIONARY
  5
1A1
330
1A3
100
AcDbDictionary
280
     1
281
     1
  3
TC_OPTIONAL_DATA
360
1A2
  0
DICTIONARY
  5
1A4
330
1A6
100
AcDbDictionary
280
     1
281
     1
  3
TC_OPTIONAL_DATA
360
1A5
  0
DICTIONARY
  5
1A7
330
1A9
100
AcDbDictionary
280
     1
281
     1
  3
TC_OPTIONAL_DATA
360
1A8
  0
DICTIONARY
  5
1AA
330
1AC
100
AcDbDictionary
280
     1
281
     1
  3
TC_OPTIONAL_DATA
360
1AB
  0
DICTIONARY
  5
1AD
330
1AF
100
AcDbDictionary
280
     1
281
     1
  3
TC_OPTIONAL_DATA
360
1AE
  0
DICTIONARY
  5
1B0
330
1B2
100
AcDbDictionary
280
     1
281
     1
  3
TC_OPTIONAL_DATA
360
1B1
  0
DICTIONARY
  5
1B3
330
1B5
100
AcDbDictionary
280
     1
281
     1
  3
TC_OPTIONAL_DATA
360
1B4
  0
DICTIONARY
  5
1B6
330
1B8
100
AcDbDictionary
280
     1
281
     1
  3
TC_OPTIONAL_DATA
360
1B7
  0
DICTIONARY
  5
1B9
330
1BB
100
AcDbDictionary
280
     1
281
     1
  3
TC_OPTIONAL_DATA
360
1BA
  0
DICTIONARY
  5
1BC
330
1BE
100
AcDbDictionary
280
     1
281
     1
  3
TC_OPTIONAL_DATA
360
1BD
  0
DICTIONARY
  5
1BF
330
1C1
100
AcDbDictionary
280
     1
281
     1
  3
TC_OPTIONAL_DATA
360
1C0
  0
DICTIONARY
  5
1C2
330
1C4
100
AcDbDictionary
280
     1
281
     1
  3
TC_OPTIONAL_DATA
360
1C3
  0
DICTIONARY
  5
1C5
330
1C7
100
AcDbDictionary
280
     1
281
     1
  3
TC_OPTIONAL_DATA
360
1C6
  0
DICTIONARY
  5
1C8
330
1CA
100
AcDbDictionary
280
     1
281
     1
  3
TC_OPTIONAL_DATA
360
1C9
  0
DICTIONARY
  5
1CB
330
1CD
100
AcDbDictionary
280
     1
281
     1
  3
TC_OPTIONAL_DATA
360
1CC
  0
DICTIONARY
  5
1CE
330
1D0
100
AcDbDictionary
280
     1
281
     1
  3
TC_OPTIONAL_DATA
360
1CF
  0
DICTIONARY
  5
1D1
330
1D3
100
AcDbDictionary
280
     1
281
     1
  3
TC_OPTIONAL_DATA
360
1D2
  0
DICTIONARY
  5
1D4
330
1D6
100
AcDbDictionary
280
     1
281
     1
  3
TC_OPTIONAL_DATA
360
1D5
  0
DICTIONARY
  5
1D7
330
1D9
100
AcDbDictionary
280
     1
281
     1
  3
TC_OPTIONAL_DATA
360
1D8
  0
DICTIONARY
  5
1DA
330
1DC
100
AcDbDictionary
280
     1
281
     1
  3
TC_OPTIONAL_DATA
360
1DB
  0
DICTIONARY
  5
1DD
330
1DF
100
AcDbDictionary
280
     1
281
     1
  3
TC_OPTIONAL_DATA
360
1DE
  0
DICTIONARY
  5
1E0
330
1E2
100
AcDbDictionary
280
     1
281
     1
  3
TC_OPTIONAL_DATA
360
1E1
  0
DICTIONARY
  5
1E3
330
1E5
100
AcDbDictionary
280
     1
281
     1
  3
TC_OPTIONAL_DATA
360
1E4
  0
DICTIONARY
  5
1E6
330
1E8
100
AcDbDictionary
280
     1
281
     1
  3
TC_OPTIONAL_DATA
360
1E7
  0
DICTIONARY
  5
1E9
330
1EB
100
AcDbDictionary
280
     1
281
     1
  3
TC_OPTIONAL_DATA
360
1EA
  0
DICTIONARY
  5
1EC
330
1EE
100
AcDbDictionary
280
     1
281
     1
  3
TC_OPTIONAL_DATA
360
1ED
  0
DICTIONARY
  5
1EF
330
1F1
100
AcDbDictionary
280
     1
281
     1
  3
TC_OPTIONAL_DATA
360
1F0
  0
DICTIONARY
  5
1F2
330
1F4
100
AcDbDictionary
280
     1
281
     1
  3
TC_OPTIONAL_DATA
360
1F3
  0
DICTIONARY
  5
1F5
330
1F7
100
AcDbDictionary
280
     1
281
     1
  3
TC_OPTIONAL_DATA
360
1F6
  0
DICTIONARY
  5
1F8
330
1FA
100
AcDbDictionary
280
     1
281
     1
  3
TC_OPTIONAL_DATA
360
1F9
  0
DICTIONARY
  5
1FB
330
1FD
100
AcDbDictionary
280
     1
281
     1
  3
TC_OPTIONAL_DATA
360
1FC
  0
DICTIONARY
  5
1FE
330
200
100
AcDbDictionary
280
     1
281
     1
  3
TC_OPTIONAL_DATA
360
1FF
  0
DICTIONARY
  5
201
330
203
100
AcDbDictionary
280
     1
281
     1
  3
TC_OPTIONAL_DATA
360
202
  0
DICTIONARY
  5
204
330
206
100
AcDbDictionary
280
     1
281
     1
  3
TC_OPTIONAL_DATA
360
205
  0
DICTIONARY
  5
207
330
209
100
AcDbDictionary
280
     1
281
     1
  3
TC_OPTIONAL_DATA
360
208
  0
DICTIONARY
  5
20A
330
20C
100
AcDbDictionary
280
     1
281
     1
  3
TC_OPTIONAL_DATA
360
20B
  0
DICTIONARY
  5
20D
330
20F
100
AcDbDictionary
280
     1
281
     1
  3
TC_OPTIONAL_DATA
360
20E
  0
DICTIONARY
  5
210
330
212
100
AcDbDictionary
280
     1
281
     1
  3
TC_OPTIONAL_DATA
360
211
  0
DICTIONARY
  5
213
330
215
100
AcDbDictionary
280
     1
281
     1
  3
TC_OPTIONAL_DATA
360
214
  0
DICTIONARY
  5
216
330
218
100
AcDbDictionary
280
     1
281
     1
  3
TC_OPTIONAL_DATA
360
217
  0
DICTIONARY
  5
219
330
21B
100
AcDbDictionary
280
     1
281
     1
  3
TC_OPTIONAL_DATA
360
21A
  0
DICTIONARY
  5
21C
330
21E
100
AcDbDictionary
280
     1
281
     1
  3
TC_OPTIONAL_DATA
360
21D
  0
DICTIONARY
  5
21F
330
221
100
AcDbDictionary
280
     1
281
     1
  3
TC_OPTIONAL_DATA
360
220
  0
DICTIONARY
  5
222
330
224
100
AcDbDictionary
280
     1
281
     1
  3
TC_OPTIONAL_DATA
360
223
  0
DICTIONARY
  5
225
330
227
100
AcDbDictionary
280
     1
281
     1
  3
TC_OPTIONAL_DATA
360
226
  0
DICTIONARY
  5
228
330
22A
100
AcDbDictionary
280
     1
281
     1
  3
TC_OPTIONAL_DATA
360
229
  0
DICTIONARY
  5
22B
330
22D
100
AcDbDictionary
280
     1
281
     1
  3
TC_OPTIONAL_DATA
360
22C
  0
DICTIONARY
  5
22E
330
230
100
AcDbDictionary
280
     1
281
     1
  3
TC_OPTIONAL_DATA
360
22F
  0
DICTIONARY
  5
231
330
233
100
AcDbDictionary
280
     1
281
     1
  3
TC_OPTIONAL_DATA
360
232
  0
DICTIONARY
  5
234
330
236
100
AcDbDictionary
280
     1
281
     1
  3
TC_OPTIONAL_DATA
360
235
  0
DICTIONARY
  5
237
330
239
100
AcDbDictionary
280
     1
281
     1
  3
TC_OPTIONAL_DATA
360
238
  0
DICTIONARY
  5
23A
330
23C
100
AcDbDictionary
280
     1
281
     1
  3
TC_OPTIONAL_DATA
360
23B
  0
DICTIONARY
  5
23D
330
23F
100
AcDbDictionary
280
     1
281
     1
  3
TC_OPTIONAL_DATA
360
23E
  0
DICTIONARY
  5
240
330
242
100
AcDbDictionary
280
     1
281
     1
  3
TC_OPTIONAL_DATA
360
241
  0
DICTIONARY
  5
243
330
245
100
AcDbDictionary
280
     1
281
     1
  3
TC_OPTIONAL_DATA
360
244
  0
DICTIONARY
  5
246
330
248
100
AcDbDictionary
280
     1
281
     1
  3
TC_OPTIONAL_DATA
360
247
  0
DICTIONARY
  5
249
330
24B
100
AcDbDictionary
280
     1
281
     1
  3
TC_OPTIONAL_DATA
360
24A
  0
DICTIONARY
  5
24C
330
24E
100
AcDbDictionary
280
     1
281
     1
  3
TC_OPTIONAL_DATA
360
24D
  0
DICTIONARY
  5
24F
330
251
100
AcDbDictionary
280
     1
281
     1
  3
TC_OPTIONAL_DATA
360
250
  0
DICTIONARY
  5
252
330
254
100
AcDbDictionary
280
     1
281
     1
  3
TC_OPTIONAL_DATA
360
253
  0
DICTIONARY
  5
255
330
257
100
AcDbDictionary
280
     1
281
     1
  3
TC_OPTIONAL_DATA
360
256
  0
DICTIONARY
  5
258
330
25A
100
AcDbDictionary
280
     1
281
     1
  3
TC_OPTIONAL_DATA
360
259
  0
DICTIONARY
  5
25B
330
25D
100
AcDbDictionary
280
     1
281
     1
  3
TC_OPTIONAL_DATA
360
25C
  0
DICTIONARY
  5
25E
330
260
100
AcDbDictionary
280
     1
281
     1
  3
TC_OPTIONAL_DATA
360
25F
  0
DICTIONARY
  5
261
330
263
100
AcDbDictionary
280
     1
281
     1
  3
TC_OPTIONAL_DATA
360
262
  0
DICTIONARY
  5
264
330
266
100
AcDbDictionary
280
     1
281
     1
  3
TC_OPTIONAL_DATA
360
265
  0
DICTIONARY
  5
267
330
269
100
AcDbDictionary
280
     1
281
     1
  3
TC_OPTIONAL_DATA
360
268
  0
DICTIONARY
  5
26A
330
26C
100
AcDbDictionary
280
     1
281
     1
  3
TC_OPTIONAL_DATA
360
26B
  0
DICTIONARY
  5
26D
330
26F
100
AcDbDictionary
280
     1
281
     1
  3
TC_OPTIONAL_DATA
360
26E
  0
DICTIONARY
  5
270
330
272
100
AcDbDictionary
280
     1
281
     1
  3
TC_OPTIONAL_DATA
360
271
  0
DICTIONARY
  5
273
330
275
100
AcDbDictionary
280
     1
281
     1
  3
TC_OPTIONAL_DATA
360
274
  0
DICTIONARY
  5
276
330
278
100
AcDbDictionary
280
     1
281
     1
  3
TC_OPTIONAL_DATA
360
277
  0
DICTIONARY
  5
279
330
27B
100
AcDbDictionary
280
     1
281
     1
  3
TC_OPTIONAL_DATA
360
27A
  0
DICTIONARY
  5
27C
330
27E
100
AcDbDictionary
280
     1
281
     1
  3
TC_OPTIONAL_DATA
360
27D
  0
DICTIONARY
  5
27F
330
281
100
AcDbDictionary
280
     1
281
     1
  3
TC_OPTIONAL_DATA
360
280
  0
DICTIONARY
  5
282
330
284
100
AcDbDictionary
280
     1
281
     1
  3
TC_OPTIONAL_DATA
360
283
  0
DICTIONARY
  5
285
330
287
100
AcDbDictionary
280
     1
281
     1
  3
TC_OPTIONAL_DATA
360
286
  0
DICTIONARY
  5
288
330
28A
100
AcDbDictionary
280
     1
281
     1
  3
TC_OPTIONAL_DATA
360
289
  0
DICTIONARY
  5
28B
330
28D
100
AcDbDictionary
280
     1
281
     1
  3
TC_OPTIONAL_DATA
360
28C
  0
DICTIONARY
  5
28E
330
290
100
AcDbDictionary
280
     1
281
     1
  3
TC_OPTIONAL_DATA
360
28F
  0
DICTIONARY
  5
291
330
293
100
AcDbDictionary
280
     1
281
     1
  3
TC_OPTIONAL_DATA
360
292
  0
DICTIONARY
  5
294
330
296
100
AcDbDictionary
280
     1
281
     1
  3
TC_OPTIONAL_DATA
360
295
  0
DICTIONARY
  5
297
330
299
100
AcDbDictionary
280
     1
281
     1
  3
TC_OPTIONAL_DATA
360
298
  0
DICTIONARY
  5
29A
330
29C
100
AcDbDictionary
280
     1
281
     1
  3
TC_OPTIONAL_DATA
360
29B
  0
DICTIONARY
  5
29D
330
29F
100
AcDbDictionary
280
     1
281
     1
  3
TC_OPTIONAL_DATA
360
29E
  0
DICTIONARY
  5
2A0
330
2A2
100
AcDbDictionary
280
     1
281
     1
  3
TC_OPTIONAL_DATA
360
2A1
  0
DICTIONARY
  5
2A3
330
2A5
100
AcDbDictionary
280
     1
281
     1
  3
TC_OPTIONAL_DATA
360
2A4
  0
DICTIONARY
  5
2A6
330
2A8
100
AcDbDictionary
280
     1
281
     1
  3
TC_OPTIONAL_DATA
360
2A7
  0
DICTIONARY
  5
2A9
330
2AB
100
AcDbDictionary
280
     1
281
     1
  3
TC_OPTIONAL_DATA
360
2AA
  0
DICTIONARY
  5
2AC
330
2AE
100
AcDbDictionary
280
     1
281
     1
  3
TC_OPTIONAL_DATA
360
2AD
  0
DICTIONARY
  5
2AF
330
2B1
100
AcDbDictionary
280
     1
281
     1
  3
TC_OPTIONAL_DATA
360
2B0
  0
DICTIONARY
  5
2B2
330
2B4
100
AcDbDictionary
280
     1
281
     1
  3
TC_OPTIONAL_DATA
360
2B3
  0
DICTIONARY
  5
2B5
330
2B7
100
AcDbDictionary
280
     1
281
     1
  3
TC_OPTIONAL_DATA
360
2B6
  0
DICTIONARY
  5
2B8
330
2BA
100
AcDbDictionary
280
     1
281
     1
  3
TC_OPTIONAL_DATA
360
2B9
  0
DICTIONARY
  5
2BB
330
2BD
100
AcDbDictionary
280
     1
281
     1
  3
TC_OPTIONAL_DATA
360
2BC
  0
DICTIONARY
  5
2BE
330
2C0
100
AcDbDictionary
280
     1
281
     1
  3
TC_OPTIONAL_DATA
360
2BF
  0
DICTIONARY
  5
2C1
330
2C3
100
AcDbDictionary
280
     1
281
     1
  3
TC_OPTIONAL_DATA
360
2C2
  0
DICTIONARY
  5
2C4
330
2C6
100
AcDbDictionary
280
     1
281
     1
  3
TC_OPTIONAL_DATA
360
2C5
  0
DICTIONARY
  5
2C7
330
2C9
100
AcDbDictionary
280
     1
281
     1
  3
TC_OPTIONAL_DATA
360
2C8
  0
DICTIONARY
  5
2CA
330
2CC
100
AcDbDictionary
280
     1
281
     1
  3
TC_OPTIONAL_DATA
360
2CB
  0
DICTIONARY
  5
2CD
330
2CF
100
AcDbDictionary
280
     1
281
     1
  3
TC_OPTIONAL_DATA
360
2CE
  0
DICTIONARY
  5
2D0
330
2D2
100
AcDbDictionary
280
     1
281
     1
  3
TC_OPTIONAL_DATA
360
2D1
  0
DICTIONARY
  5
2D3
330
2D5
100
AcDbDictionary
280
     1
281
     1
  3
TC_OPTIONAL_DATA
360
2D4
  0
DICTIONARY
  5
2D6
330
2D8
100
AcDbDictionary
280
     1
281
     1
  3
TC_OPTIONAL_DATA
360
2D7
  0
DICTIONARY
  5
2D9
330
2DB
100
AcDbDictionary
280
     1
281
     1
  3
TC_OPTIONAL_DATA
360
2DA
  0
DICTIONARY
  5
2DC
330
2DE
100
AcDbDictionary
280
     1
281
     1
  3
TC_OPTIONAL_DATA
360
2DD
  0
DICTIONARY
  5
2DF
330
2E1
100
AcDbDictionary
280
     1
281
     1
  3
TC_OPTIONAL_DATA
360
2E0
  0
DICTIONARY
  5
2E2
330
2E4
100
AcDbDictionary
280
     1
281
     1
  3
TC_OPTIONAL_DATA
360
2E3
  0
DICTIONARY
  5
2E5
330
2E7
100
AcDbDictionary
280
     1
281
     1
  3
TC_OPTIONAL_DATA
360
2E6
  0
DICTIONARY
  5
2E8
330
2EA
100
AcDbDictionary
280
     1
281
     1
  3
TC_OPTIONAL_DATA
360
2E9
  0
DICTIONARY
  5
2EB
330
2ED
100
AcDbDictionary
280
     1
281
     1
  3
TC_OPTIONAL_DATA
360
2EC
  0
DICTIONARY
  5
2EE
330
2F0
100
AcDbDictionary
280
     1
281
     1
  3
TC_OPTIONAL_DATA
360
2EF
  0
DICTIONARY
  5
2F1
330
2F3
100
AcDbDictionary
280
     1
281
     1
  3
TC_OPTIONAL_DATA
360
2F2
  0
DICTIONARY
  5
2F4
330
2F6
100
AcDbDictionary
280
     1
281
     1
  3
TC_OPTIONAL_DATA
360
2F5
  0
DICTIONARY
  5
2F7
330
2F9
100
AcDbDictionary
280
     1
281
     1
  3
TC_OPTIONAL_DATA
360
2F8
  0
DICTIONARY
  5
2FA
330
2FC
100
AcDbDictionary
280
     1
281
     1
  3
TC_OPTIONAL_DATA
360
2FB
  0
DICTIONARY
  5
2FD
330
2FF
100
AcDbDictionary
280
     1
281
     1
  3
TC_OPTIONAL_DATA
360
2FE
  0
DICTIONARY
  5
300
330
302
100
AcDbDictionary
280
     1
281
     1
  3
TC_OPTIONAL_DATA
360
301
  0
DICTIONARY
  5
303
330
305
100
AcDbDictionary
280
     1
281
     1
  3
TC_OPTIONAL_DATA
360
304
  0
DICTIONARY
  5
306
330
308
100
AcDbDictionary
280
     1
281
     1
  3
TC_OPTIONAL_DATA
360
307
  0
DICTIONARY
  5
309
330
30B
100
AcDbDictionary
280
     1
281
     1
  3
TC_OPTIONAL_DATA
360
30A
  0
DICTIONARY
  5
30C
330
30E
100
AcDbDictionary
280
     1
281
     1
  3
TC_OPTIONAL_DATA
360
30D
  0
DICTIONARY
  5
30F
330
311
100
AcDbDictionary
280
     1
281
     1
  3
TC_OPTIONAL_DATA
360
310
  0
DICTIONARY
  5
312
330
314
100
AcDbDictionary
280
     1
281
     1
  3
TC_OPTIONAL_DATA
360
313
  0
DICTIONARY
  5
315
330
317
100
AcDbDictionary
280
     1
281
     1
  3
TC_OPTIONAL_DATA
360
316
  0
DICTIONARY
  5
318
330
31A
100
AcDbDictionary
280
     1
281
     1
  3
TC_OPTIONAL_DATA
360
319
  0
DICTIONARY
  5
31B
330
31D
100
AcDbDictionary
280
     1
281
     1
  3
TC_OPTIONAL_DATA
360
31C
  0
DICTIONARY
  5
31E
330
320
100
AcDbDictionary
280
     1
281
     1
  3
TC_OPTIONAL_DATA
360
31F
  0
DICTIONARY
  5
321
330
323
100
AcDbDictionary
280
     1
281
     1
  3
TC_OPTIONAL_DATA
360
322
  0
DICTIONARY
  5
324
330
326
100
AcDbDictionary
280
     1
281
     1
  3
TC_OPTIONAL_DATA
360
325
  0
DICTIONARY
  5
327
330
329
100
AcDbDictionary
280
     1
281
     1
  3
TC_OPTIONAL_DATA
360
328
  0
DICTIONARY
  5
32A
330
32C
100
AcDbDictionary
280
     1
281
     1
  3
TC_OPTIONAL_DATA
360
32B
  0
DICTIONARY
  5
32D
330
32F
100
AcDbDictionary
280
     1
281
     1
  3
TC_OPTIONAL_DATA
360
32E
  0
DICTIONARY
  5
330
330
332
100
AcDbDictionary
280
     1
281
     1
  3
TC_OPTIONAL_DATA
360
331
  0
DICTIONARY
  5
333
330
335
100
AcDbDictionary
280
     1
281
     1
  3
TC_OPTIONAL_DATA
360
334
  0
DICTIONARY
  5
336
330
338
100
AcDbDictionary
280
     1
281
     1
  3
TC_OPTIONAL_DATA
360
337
  0
DICTIONARY
  5
339
330
33B
100
AcDbDictionary
280
     1
281
     1
  3
TC_OPTIONAL_DATA
360
33A
  0
DICTIONARY
  5
33C
330
33E
100
AcDbDictionary
280
     1
281
     1
  3
TC_OPTIONAL_DATA
360
33D
  0
DICTIONARY
  5
33F
330
341
100
AcDbDictionary
280
     1
281
     1
  3
TC_OPTIONAL_DATA
360
340
  0
DICTIONARY
  5
342
330
344
100
AcDbDictionary
280
     1
281
     1
  3
TC_OPTIONAL_DATA
360
343
  0
DICTIONARY
  5
345
330
347
100
AcDbDictionary
280
     1
281
     1
  3
TC_OPTIONAL_DATA
360
346
  0
DICTIONARY
  5
348
330
34A
100
AcDbDictionary
280
     1
281
     1
  3
TC_OPTIONAL_DATA
360
349
  0
DICTIONARY
  5
34B
330
34D
100
AcDbDictionary
280
     1
281
     1
  3
TC_OPTIONAL_DATA
360
34C
  0
DICTIONARY
  5
34E
330
350
100
AcDbDictionary
280
     1
281
     1
  3
TC_OPTIONAL_DATA
360
34F
  0
DICTIONARY
  5
351
330
353
100
AcDbDictionary
280
     1
281
     1
  3
TC_OPTIONAL_DATA
360
352
  0
DICTIONARY
  5
356
330
358
100
AcDbDictionary
280
     1
281
     1
  3
TC_OPTIONAL_DATA
360
357
  0
DICTIONARY
  5
359
330
35B
100
AcDbDictionary
280
     1
281
     1
  3
TC_OPTIONAL_DATA
360
35A
  0
DICTIONARY
  5
35C
330
35E
100
AcDbDictionary
280
     1
281
     1
  3
TC_OPTIONAL_DATA
360
35D
  0
DICTIONARY
  5
35F
330
361
100
AcDbDictionary
280
     1
281
     1
  3
TC_OPTIONAL_DATA
360
360
  0
DICTIONARY
  5
362
330
364
100
AcDbDictionary
280
     1
281
     1
  3
TC_OPTIONAL_DATA
360
363
  0
DICTIONARY
  5
365
330
367
100
AcDbDictionary
280
     1
281
     1
  3
TC_OPTIONAL_DATA
360
366
  0
DICTIONARY
  5
368
330
36A
100
AcDbDictionary
280
     1
281
     1
  3
TC_OPTIONAL_DATA
360
369
  0
DICTIONARY
  5
36B
330
36D
100
AcDbDictionary
280
     1
281
     1
  3
TC_OPTIONAL_DATA
360
36C
  0
DICTIONARY
  5
36E
330
370
100
AcDbDictionary
280
     1
281
     1
  3
TC_OPTIONAL_DATA
360
36F
  0
DICTIONARY
  5
371
330
373
100
AcDbDictionary
280
     1
281
     1
  3
TC_OPTIONAL_DATA
360
372
  0
DICTIONARY
  5
374
330
376
100
AcDbDictionary
280
     1
281
     1
  3
TC_OPTIONAL_DATA
360
375
  0
DICTIONARY
  5
377
330
379
100
AcDbDictionary
280
     1
281
     1
  3
TC_OPTIONAL_DATA
360
378
  0
DICTIONARY
  5
37A
330
37C
100
AcDbDictionary
280
     1
281
     1
  3
TC_OPTIONAL_DATA
360
37B
  0
DICTIONARY
  5
37D
330
37F
100
AcDbDictionary
280
     1
281
     1
  3
TC_OPTIONAL_DATA
360
37E
  0
DICTIONARY
  5
380
330
382
100
AcDbDictionary
280
     1
281
     1
  3
TC_OPTIONAL_DATA
360
381
  0
DICTIONARY
  5
383
330
385
100
AcDbDictionary
280
     1
281
     1
  3
TC_OPTIONAL_DATA
360
384
  0
DICTIONARY
  5
386
330
388
100
AcDbDictionary
280
     1
281
     1
  3
TC_OPTIONAL_DATA
360
387
  0
DICTIONARY
  5
389
330
38B
100
AcDbDictionary
280
     1
281
     1
  3
TC_OPTIONAL_DATA
360
38A
  0
DICTIONARY
  5
38C
330
38E
100
AcDbDictionary
280
     1
281
     1
  3
TC_OPTIONAL_DATA
360
38D
  0
DICTIONARY
  5
38F
330
391
100
AcDbDictionary
280
     1
281
     1
  3
TC_OPTIONAL_DATA
360
390
  0
DICTIONARY
  5
392
330
394
100
AcDbDictionary
280
     1
281
     1
  3
TC_OPTIONAL_DATA
360
393
  0
DICTIONARY
  5
395
330
397
100
AcDbDictionary
280
     1
281
     1
  3
TC_OPTIONAL_DATA
360
396
  0
DICTIONARY
  5
398
330
39A
100
AcDbDictionary
280
     1
281
     1
  3
TC_OPTIONAL_DATA
360
399
  0
DICTIONARY
  5
39B
330
39D
100
AcDbDictionary
280
     1
281
     1
  3
TC_OPTIONAL_DATA
360
39C
  0
DICTIONARY
  5
39E
330
3A0
100
AcDbDictionary
280
     1
281
     1
  3
TC_OPTIONAL_DATA
360
39F
  0
DICTIONARY
  5
3A1
330
3A3
100
AcDbDictionary
280
     1
281
     1
  3
TC_OPTIONAL_DATA
360
3A2
  0
DICTIONARY
  5
3A4
330
3A6
100
AcDbDictionary
280
     1
281
     1
  3
TC_OPTIONAL_DATA
360
3A5
  0
DICTIONARY
  5
3A7
330
3A9
100
AcDbDictionary
280
     1
281
     1
  3
TC_OPTIONAL_DATA
360
3A8
  0
DICTIONARY
  5
3AA
330
3AC
100
AcDbDictionary
280
     1
281
     1
  3
TC_OPTIONAL_DATA
360
3AB
  0
DICTIONARY
  5
3AD
330
3AF
100
AcDbDictionary
280
     1
281
     1
  3
TC_OPTIONAL_DATA
360
3AE
  0
DICTIONARY
  5
3B0
330
3B2
100
AcDbDictionary
280
     1
281
     1
  3
TC_OPTIONAL_DATA
360
3B1
  0
DICTIONARY
  5
3B3
330
3B5
100
AcDbDictionary
280
     1
281
     1
  3
TC_OPTIONAL_DATA
360
3B4
  0
DICTIONARY
  5
3B6
330
3B8
100
AcDbDictionary
280
     1
281
     1
  3
TC_OPTIONAL_DATA
360
3B7
  0
DICTIONARY
  5
3B9
330
3BB
100
AcDbDictionary
280
     1
281
     1
  3
TC_OPTIONAL_DATA
360
3BA
  0
DICTIONARY
  5
D
102
{ACAD_REACTORS
330
C
102
}
330
C
100
AcDbDictionary
281
     1
  0
DICTIONARY
  5
1A
102
{ACAD_REACTORS
330
C
102
}
330
C
100
AcDbDictionary
281
     1
  3
Layout1
350
1E
  3
Layout2
350
3C
  3
Model
350
22
  0
DICTIONARY
  5
17
102
{ACAD_REACTORS
330
C
102
}
330
C
100
AcDbDictionary
281
     1
  3
Standard
350
18
  0
DICTIONARY
  5
19
102
{ACAD_REACTORS
330
C
102
}
330
C
100
AcDbDictionary
281
     1
  0
ACDBDICTIONARYWDFLT
  5
E
102
{ACAD_REACTORS
330
C
102
}
330
C
100
AcDbDictionary
281
     1
  3
Normal
350
F
100
AcDbDictionaryWithDefault
340
F
  0
DICTIONARY
  5
3BF
102
{ACAD_REACTORS
330
C
102
}
330
C
100
AcDbDictionary
281
     1
  0
DICTIONARY
  5
2A
102
{ACAD_REACTORS
330
C
102
}
330
C
100
AcDbDictionary
281
     1
  3
2dWireframe
350
2F
  3
3D Hidden
350
31
  3
3dWireframe
350
30
  3
Basic
350
32
  3
Brighten
350
36
  3
ColorChange
350
3A
  3
Conceptual
350
34
  3
Dim
350
35
  3
Facepattern
350
39
  3
Flat
350
2B
  3
FlatWithEdges
350
2C
  3
Gouraud
350
2D
  3
GouraudWithEdges
350
2E
  3
Linepattern
350
38
  3
Realistic
350
33
  3
Thicken
350
37
  0
TCOPTIONALDATA
  5
57
102
{ACAD_REACTORS
330
56
102
}
330
56
100
TcOptionalData
 70
     1
 70
    32
 40
-3.0
  0
TCOPTIONALDATA
  5
5A
102
{ACAD_REACTORS
330
59
102
}
330
59
100
TcOptionalData
 70
     1
 70
    32
 40
-3.0
  0
TCOPTIONALDATA
  5
5D
102
{ACAD_REACTORS
330
5C
102
}
330
5C
100
TcOptionalData
 70
     1
 70
    32
 40
-3.0
  0
TCOPTIONALDATA
  5
60
102
{ACAD_REACTORS
330
5F
102
}
330
5F
100
TcOptionalData
 70
     1
 70
    32
 40
-3.0
  0
TCOPTIONALDATA
  5
63
102
{ACAD_REACTORS
330
62
102
}
330
62
100
TcOptionalData
 70
     1
 70
    32
 40
-3.0
  0
TCOPTIONALDATA
  5
66
102
{ACAD_REACTORS
330
65
102
}
330
65
100
TcOptionalData
 70
     1
 70
    32
 40
-3.0
  0
TCOPTIONALDATA
  5
69
102
{ACAD_REACTORS
330
68
102
}
330
68
100
TcOptionalData
 70
     1
 70
    32
 40
-3.0
  0
TCOPTIONALDATA
  5
6C
102
{ACAD_REACTORS
330
6B
102
}
330
6B
100
TcOptionalData
 70
     1
 70
    32
 40
-3.0
  0
TCOPTIONALDATA
  5
6F
102
{ACAD_REACTORS
330
6E
102
}
330
6E
100
TcOptionalData
 70
     1
 70
    32
 40
-3.0
  0
TCOPTIONALDATA
  5
72
102
{ACAD_REACTORS
330
71
102
}
330
71
100
TcOptionalData
 70
     1
 70
    32
 40
-3.0
  0
TCOPTIONALDATA
  5
75
102
{ACAD_REACTORS
330
74
102
}
330
74
100
TcOptionalData
 70
     1
 70
    32
 40
-3.0
  0
TCOPTIONALDATA
  5
78
102
{ACAD_REACTORS
330
77
102
}
330
77
100
TcOptionalData
 70
     1
 70
    32
 40
-3.0
  0
TCOPTIONALDATA
  5
7B
102
{ACAD_REACTORS
330
7A
102
}
330
7A
100
TcOptionalData
 70
     1
 70
    32
 40
-3.0
  0
TCOPTIONALDATA
  5
7E
102
{ACAD_REACTORS
330
7D
102
}
330
7D
100
TcOptionalData
 70
     1
 70
    32
 40
-3.0
  0
TCOPTIONALDATA
  5
81
102
{ACAD_REACTORS
330
80
102
}
330
80
100
TcOptionalData
 70
     1
 70
    32
 40
-3.0
  0
TCOPTIONALDATA
  5
84
102
{ACAD_REACTORS
330
83
102
}
330
83
100
TcOptionalData
 70
     1
 70
    32
 40
-3.0
  0
TCOPTIONALDATA
  5
87
102
{ACAD_REACTORS
330
86
102
}
330
86
100
TcOptionalData
 70
     1
 70
    32
 40
-3.0
  0
TCOPTIONALDATA
  5
8A
102
{ACAD_REACTORS
330
89
102
}
330
89
100
TcOptionalData
 70
     1
 70
    32
 40
-3.0
  0
TCOPTIONALDATA
  5
8D
102
{ACAD_REACTORS
330
8C
102
}
330
8C
100
TcOptionalData
 70
     1
 70
    32
 40
-3.0
  0
TCOPTIONALDATA
  5
90
102
{ACAD_REACTORS
330
8F
102
}
330
8F
100
TcOptionalData
 70
     1
 70
    32
 40
-3.0
  0
TCOPTIONALDATA
  5
93
102
{ACAD_REACTORS
330
92
102
}
330
92
100
TcOptionalData
 70
     1
 70
    32
 40
-3.0
  0
TCOPTIONALDATA
  5
96
102
{ACAD_REACTORS
330
95
102
}
330
95
100
TcOptionalData
 70
     1
 70
    32
 40
-3.0
  0
TCOPTIONALDATA
  5
99
102
{ACAD_REACTORS
330
98
102
}
330
98
100
TcOptionalData
 70
     1
 70
    32
 40
-3.0
  0
TCOPTIONALDATA
  5
9C
102
{ACAD_REACTORS
330
9B
102
}
330
9B
100
TcOptionalData
 70
     1
 70
    32
 40
-3.0
  0
TCOPTIONALDATA
  5
9F
102
{ACAD_REACTORS
330
9E
102
}
330
9E
100
TcOptionalData
 70
     1
 70
    32
 40
-3.0
  0
TCOPTIONALDATA
  5
A2
102
{ACAD_REACTORS
330
A1
102
}
330
A1
100
TcOptionalData
 70
     1
 70
    32
 40
-3.0
  0
TCOPTIONALDATA
  5
A5
102
{ACAD_REACTORS
330
A4
102
}
330
A4
100
TcOptionalData
 70
     1
 70
    32
 40
-3.0
  0
TCOPTIONALDATA
  5
A8
102
{ACAD_REACTORS
330
A7
102
}
330
A7
100
TcOptionalData
 70
     1
 70
    32
 40
-3.0
  0
TCOPTIONALDATA
  5
AB
102
{ACAD_REACTORS
330
AA
102
}
330
AA
100
TcOptionalData
 70
     1
 70
    32
 40
-3.0
  0
TCOPTIONALDATA
  5
AE
102
{ACAD_REACTORS
330
AD
102
}
330
AD
100
TcOptionalData
 70
     1
 70
    32
 40
-3.0
  0
TCOPTIONALDATA
  5
B1
102
{ACAD_REACTORS
330
B0
102
}
330
B0
100
TcOptionalData
 70
     1
 70
    32
 40
-3.0
  0
TCOPTIONALDATA
  5
B4
102
{ACAD_REACTORS
330
B3
102
}
330
B3
100
TcOptionalData
 70
     1
 70
    32
 40
-3.0
  0
TCOPTIONALDATA
  5
B9
102
{ACAD_REACTORS
330
B8
102
}
330
B8
100
TcOptionalData
 70
     1
 70
    32
 40
-3.0
  0
TCOPTIONALDATA
  5
BC
102
{ACAD_REACTORS
330
BB
102
}
330
BB
100
TcOptionalData
 70
     1
 70
    32
 40
-3.0
  0
TCOPTIONALDATA
  5
BF
102
{ACAD_REACTORS
330
BE
102
}
330
BE
100
TcOptionalData
 70
     1
 70
    32
 40
-3.0
  0
TCOPTIONALDATA
  5
C2
102
{ACAD_REACTORS
330
C1
102
}
330
C1
100
TcOptionalData
 70
     1
 70
    32
 40
-3.0
  0
TCOPTIONALDATA
  5
C7
102
{ACAD_REACTORS
330
C6
102
}
330
C6
100
TcOptionalData
 70
     1
 70
    32
 40
-3.0
  0
TCOPTIONALDATA
  5
CA
102
{ACAD_REACTORS
330
C9
102
}
330
C9
100
TcOptionalData
 70
     1
 70
    32
 40
-3.0
  0
TCOPTIONALDATA
  5
CD
102
{ACAD_REACTORS
330
CC
102
}
330
CC
100
TcOptionalData
 70
     1
 70
    32
 40
-3.0
  0
TCOPTIONALDATA
  5
D0
102
{ACAD_REACTORS
330
CF
102
}
330
CF
100
TcOptionalData
 70
     1
 70
    32
 40
-3.0
  0
TCOPTIONALDATA
  5
D3
102
{ACAD_REACTORS
330
D2
102
}
330
D2
100
TcOptionalData
 70
     1
 70
    32
 40
-3.0
  0
TCOPTIONALDATA
  5
D6
102
{ACAD_REACTORS
330
D5
102
}
330
D5
100
TcOptionalData
 70
     1
 70
    32
 40
-3.0
  0
TCOPTIONALDATA
  5
D9
102
{ACAD_REACTORS
330
D8
102
}
330
D8
100
TcOptionalData
 70
     1
 70
    32
 40
-3.0
  0
TCOPTIONALDATA
  5
DC
102
{ACAD_REACTORS
330
DB
102
}
330
DB
100
TcOptionalData
 70
     1
 70
    32
 40
-3.0
  0
TCOPTIONALDATA
  5
DF
102
{ACAD_REACTORS
330
DE
102
}
330
DE
100
TcOptionalData
 70
     1
 70
    32
 40
-3.0
  0
TCOPTIONALDATA
  5
E2
102
{ACAD_REACTORS
330
E1
102
}
330
E1
100
TcOptionalData
 70
     1
 70
    32
 40
-3.0
  0
TCOPTIONALDATA
  5
E5
102
{ACAD_REACTORS
330
E4
102
}
330
E4
100
TcOptionalData
 70
     1
 70
    32
 40
-3.0
  0
TCOPTIONALDATA
  5
E8
102
{ACAD_REACTORS
330
E7
102
}
330
E7
100
TcOptionalData
 70
     1
 70
    32
 40
-3.0
  0
TCOPTIONALDATA
  5
EB
102
{ACAD_REACTORS
330
EA
102
}
330
EA
100
TcOptionalData
 70
     1
 70
    32
 40
-3.0
  0
TCOPTIONALDATA
  5
EE
102
{ACAD_REACTORS
330
ED
102
}
330
ED
100
TcOptionalData
 70
     1
 70
    32
 40
-3.0
  0
TCOPTIONALDATA
  5
F1
102
{ACAD_REACTORS
330
F0
102
}
330
F0
100
TcOptionalData
 70
     1
 70
    32
 40
-3.0
  0
TCOPTIONALDATA
  5
F4
102
{ACAD_REACTORS
330
F3
102
}
330
F3
100
TcOptionalData
 70
     1
 70
    32
 40
-3.0
  0
TCOPTIONALDATA
  5
F7
102
{ACAD_REACTORS
330
F6
102
}
330
F6
100
TcOptionalData
 70
     1
 70
    32
 40
-3.0
  0
TCOPTIONALDATA
  5
FA
102
{ACAD_REACTORS
330
F9
102
}
330
F9
100
TcOptionalData
 70
     1
 70
    32
 40
-3.0
  0
TCOPTIONALDATA
  5
FD
102
{ACAD_REACTORS
330
FC
102
}
330
FC
100
TcOptionalData
 70
     1
 70
    32
 40
-3.0
  0
TCOPTIONALDATA
  5
100
102
{ACAD_REACTORS
330
FF
102
}
330
FF
100
TcOptionalData
 70
     1
 70
    32
 40
-3.0
  0
TCOPTIONALDATA
  5
103
102
{ACAD_REACTORS
330
102
102
}
330
102
100
TcOptionalData
 70
     1
 70
    32
 40
-3.0
  0
TCOPTIONALDATA
  5
106
102
{ACAD_REACTORS
330
105
102
}
330
105
100
TcOptionalData
 70
     1
 70
    32
 40
-3.0
  0
TCOPTIONALDATA
  5
109
102
{ACAD_REACTORS
330
108
102
}
330
108
100
TcOptionalData
 70
     1
 70
    32
 40
-3.0
  0
TCOPTIONALDATA
  5
10C
102
{ACAD_REACTORS
330
10B
102
}
330
10B
100
TcOptionalData
 70
     1
 70
    32
 40
-3.0
  0
TCOPTIONALDATA
  5
10F
102
{ACAD_REACTORS
330
10E
102
}
330
10E
100
TcOptionalData
 70
     1
 70
    32
 40
-3.0
  0
TCOPTIONALDATA
  5
112
102
{ACAD_REACTORS
330
111
102
}
330
111
100
TcOptionalData
 70
     1
 70
    32
 40
-3.0
  0
TCOPTIONALDATA
  5
115
102
{ACAD_REACTORS
330
114
102
}
330
114
100
TcOptionalData
 70
     1
 70
    32
 40
-3.0
  0
TCOPTIONALDATA
  5
118
102
{ACAD_REACTORS
330
117
102
}
330
117
100
TcOptionalData
 70
     1
 70
    32
 40
-3.0
  0
TCOPTIONALDATA
  5
11B
102
{ACAD_REACTORS
330
11A
102
}
330
11A
100
TcOptionalData
 70
     1
 70
    32
 40
-3.0
  0
TCOPTIONALDATA
  5
11E
102
{ACAD_REACTORS
330
11D
102
}
330
11D
100
TcOptionalData
 70
     1
 70
    32
 40
-3.0
  0
TCOPTIONALDATA
  5
121
102
{ACAD_REACTORS
330
120
102
}
330
120
100
TcOptionalData
 70
     1
 70
    32
 40
-3.0
  0
TCOPTIONALDATA
  5
124
102
{ACAD_REACTORS
330
123
102
}
330
123
100
TcOptionalData
 70
     1
 70
    32
 40
-3.0
  0
TCOPTIONALDATA
  5
127
102
{ACAD_REACTORS
330
126
102
}
330
126
100
TcOptionalData
 70
     1
 70
    32
 40
-3.0
  0
TCOPTIONALDATA
  5
12A
102
{ACAD_REACTORS
330
129
102
}
330
129
100
TcOptionalData
 70
     1
 70
    32
 40
-3.0
  0
TCOPTIONALDATA
  5
12D
102
{ACAD_REACTORS
330
12C
102
}
330
12C
100
TcOptionalData
 70
     1
 70
    32
 40
-3.0
  0
TCOPTIONALDATA
  5
130
102
{ACAD_REACTORS
330
12F
102
}
330
12F
100
TcOptionalData
 70
     1
 70
    32
 40
-3.0
  0
TCOPTIONALDATA
  5
133
102
{ACAD_REACTORS
330
132
102
}
330
132
100
TcOptionalData
 70
     1
 70
    32
 40
-3.0
  0
TCOPTIONALDATA
  5
136
102
{ACAD_REACTORS
330
135
102
}
330
135
100
TcOptionalData
 70
     1
 70
    32
 40
-3.0
  0
TCOPTIONALDATA
  5
139
102
{ACAD_REACTORS
330
138
102
}
330
138
100
TcOptionalData
 70
     1
 70
    32
 40
-3.0
  0
TCOPTIONALDATA
  5
13C
102
{ACAD_REACTORS
330
13B
102
}
330
13B
100
TcOptionalData
 70
     1
 70
    32
 40
-3.0
  0
TCOPTIONALDATA
  5
13F
102
{ACAD_REACTORS
330
13E
102
}
330
13E
100
TcOptionalData
 70
     1
 70
    32
 40
-3.0
  0
TCOPTIONALDATA
  5
142
102
{ACAD_REACTORS
330
141
102
}
330
141
100
TcOptionalData
 70
     1
 70
    32
 40
-3.0
  0
TCOPTIONALDATA
  5
145
102
{ACAD_REACTORS
330
144
102
}
330
144
100
TcOptionalData
 70
     1
 70
    32
 40
-3.0
  0
TCOPTIONALDATA
  5
148
102
{ACAD_REACTORS
330
147
102
}
330
147
100
TcOptionalData
 70
     1
 70
    32
 40
-3.0
  0
TCOPTIONALDATA
  5
14B
102
{ACAD_REACTORS
330
14A
102
}
330
14A
100
TcOptionalData
 70
     1
 70
    32
 40
-3.0
  0
TCOPTIONALDATA
  5
14E
102
{ACAD_REACTORS
330
14D
102
}
330
14D
100
TcOptionalData
 70
     1
 70
    32
 40
-3.0
  0
TCOPTIONALDATA
  5
151
102
{ACAD_REACTORS
330
150
102
}
330
150
100
TcOptionalData
 70
     1
 70
    32
 40
-3.0
  0
TCOPTIONALDATA
  5
154
102
{ACAD_REACTORS
330
153
102
}
330
153
100
TcOptionalData
 70
     1
 70
    32
 40
-3.0
  0
TCOPTIONALDATA
  5
157
102
{ACAD_REACTORS
330
156
102
}
330
156
100
TcOptionalData
 70
     1
 70
    32
 40
-3.0
  0
TCOPTIONALDATA
  5
15A
102
{ACAD_REACTORS
330
159
102
}
330
159
100
TcOptionalData
 70
     1
 70
    32
 40
-3.0
  0
TCOPTIONALDATA
  5
15D
102
{ACAD_REACTORS
330
15C
102
}
330
15C
100
TcOptionalData
 70
     1
 70
    32
 40
-3.0
  0
TCOPTIONALDATA
  5
160
102
{ACAD_REACTORS
330
15F
102
}
330
15F
100
TcOptionalData
 70
     1
 70
    32
 40
-3.0
  0
TCOPTIONALDATA
  5
163
102
{ACAD_REACTORS
330
162
102
}
330
162
100
TcOptionalData
 70
     1
 70
    32
 40
-3.0
  0
TCOPTIONALDATA
  5
166
102
{ACAD_REACTORS
330
165
102
}
330
165
100
TcOptionalData
 70
     1
 70
    32
 40
-3.0
  0
TCOPTIONALDATA
  5
169
102
{ACAD_REACTORS
330
168
102
}
330
168
100
TcOptionalData
 70
     1
 70
    32
 40
-3.0
  0
TCOPTIONALDATA
  5
16C
102
{ACAD_REACTORS
330
16B
102
}
330
16B
100
TcOptionalData
 70
     1
 70
    32
 40
-3.0
  0
TCOPTIONALDATA
  5
16F
102
{ACAD_REACTORS
330
16E
102
}
330
16E
100
TcOptionalData
 70
     1
 70
    32
 40
-3.0
  0
TCOPTIONALDATA
  5
172
102
{ACAD_REACTORS
330
171
102
}
330
171
100
TcOptionalData
 70
     1
 70
    32
 40
-3.0
  0
TCOPTIONALDATA
  5
175
102
{ACAD_REACTORS
330
174
102
}
330
174
100
TcOptionalData
 70
     1
 70
    32
 40
-3.0
  0
TCOPTIONALDATA
  5
178
102
{ACAD_REACTORS
330
177
102
}
330
177
100
TcOptionalData
 70
     1
 70
    32
 40
-3.0
  0
TCOPTIONALDATA
  5
17B
102
{ACAD_REACTORS
330
17A
102
}
330
17A
100
TcOptionalData
 70
     1
 70
    32
 40
-3.0
  0
TCOPTIONALDATA
  5
17E
102
{ACAD_REACTORS
330
17D
102
}
330
17D
100
TcOptionalData
 70
     1
 70
    32
 40
-3.0
  0
TCOPTIONALDATA
  5
181
102
{ACAD_REACTORS
330
180
102
}
330
180
100
TcOptionalData
 70
     1
 70
    32
 40
-3.0
  0
TCOPTIONALDATA
  5
184
102
{ACAD_REACTORS
330
183
102
}
330
183
100
TcOptionalData
 70
     1
 70
    32
 40
-3.0
  0
TCOPTIONALDATA
  5
187
102
{ACAD_REACTORS
330
186
102
}
330
186
100
TcOptionalData
 70
     1
 70
    32
 40
-3.0
  0
TCOPTIONALDATA
  5
18A
102
{ACAD_REACTORS
330
189
102
}
330
189
100
TcOptionalData
 70
     1
 70
    32
 40
-3.0
  0
TCOPTIONALDATA
  5
18D
102
{ACAD_REACTORS
330
18C
102
}
330
18C
100
TcOptionalData
 70
     1
 70
    32
 40
-3.0
  0
TCOPTIONALDATA
  5
190
102
{ACAD_REACTORS
330
18F
102
}
330
18F
100
TcOptionalData
 70
     1
 70
    32
 40
-3.0
  0
TCOPTIONALDATA
  5
193
102
{ACAD_REACTORS
330
192
102
}
330
192
100
TcOptionalData
 70
     1
 70
    32
 40
-3.0
  0
TCOPTIONALDATA
  5
196
102
{ACAD_REACTORS
330
195
102
}
330
195
100
TcOptionalData
 70
     1
 70
    32
 40
-3.0
  0
TCOPTIONALDATA
  5
199
102
{ACAD_REACTORS
330
198
102
}
330
198
100
TcOptionalData
 70
     1
 70
    32
 40
-3.0
  0
TCOPTIONALDATA
  5
19C
102
{ACAD_REACTORS
330
19B
102
}
330
19B
100
TcOptionalData
 70
     1
 70
    32
 40
-3.0
  0
TCOPTIONALDATA
  5
19F
102
{ACAD_REACTORS
330
19E
102
}
330
19E
100
TcOptionalData
 70
     1
 70
    32
 40
-3.0
  0
TCOPTIONALDATA
  5
1A2
102
{ACAD_REACTORS
330
1A1
102
}
330
1A1
100
TcOptionalData
 70
     1
 70
    32
 40
-3.0
  0
TCOPTIONALDATA
  5
1A5
102
{ACAD_REACTORS
330
1A4
102
}
330
1A4
100
TcOptionalData
 70
     1
 70
    32
 40
-3.0
  0
TCOPTIONALDATA
  5
1A8
102
{ACAD_REACTORS
330
1A7
102
}
330
1A7
100
TcOptionalData
 70
     1
 70
    32
 40
-3.0
  0
TCOPTIONALDATA
  5
1AB
102
{ACAD_REACTORS
330
1AA
102
}
330
1AA
100
TcOptionalData
 70
     1
 70
    32
 40
-3.0
  0
TCOPTIONALDATA
  5
1AE
102
{ACAD_REACTORS
330
1AD
102
}
330
1AD
100
TcOptionalData
 70
     1
 70
    32
 40
-3.0
  0
TCOPTIONALDATA
  5
1B1
102
{ACAD_REACTORS
330
1B0
102
}
330
1B0
100
TcOptionalData
 70
     1
 70
    32
 40
-3.0
  0
TCOPTIONALDATA
  5
1B4
102
{ACAD_REACTORS
330
1B3
102
}
330
1B3
100
TcOptionalData
 70
     1
 70
    32
 40
-3.0
  0
TCOPTIONALDATA
  5
1B7
102
{ACAD_REACTORS
330
1B6
102
}
330
1B6
100
TcOptionalData
 70
     1
 70
    32
 40
-3.0
  0
TCOPTIONALDATA
  5
1BA
102
{ACAD_REACTORS
330
1B9
102
}
330
1B9
100
TcOptionalData
 70
     1
 70
    32
 40
-3.0
  0
TCOPTIONALDATA
  5
1BD
102
{ACAD_REACTORS
330
1BC
102
}
330
1BC
100
TcOptionalData
 70
     1
 70
    32
 40
-3.0
  0
TCOPTIONALDATA
  5
1C0
102
{ACAD_REACTORS
330
1BF
102
}
330
1BF
100
TcOptionalData
 70
     1
 70
    32
 40
-3.0
  0
TCOPTIONALDATA
  5
1C3
102
{ACAD_REACTORS
330
1C2
102
}
330
1C2
100
TcOptionalData
 70
     1
 70
    32
 40
-3.0
  0
TCOPTIONALDATA
  5
1C6
102
{ACAD_REACTORS
330
1C5
102
}
330
1C5
100
TcOptionalData
 70
     1
 70
    32
 40
-3.0
  0
TCOPTIONALDATA
  5
1C9
102
{ACAD_REACTORS
330
1C8
102
}
330
1C8
100
TcOptionalData
 70
     1
 70
    32
 40
-3.0
  0
TCOPTIONALDATA
  5
1CC
102
{ACAD_REACTORS
330
1CB
102
}
330
1CB
100
TcOptionalData
 70
     1
 70
    32
 40
-3.0
  0
TCOPTIONALDATA
  5
1CF
102
{ACAD_REACTORS
330
1CE
102
}
330
1CE
100
TcOptionalData
 70
     1
 70
    32
 40
-3.0
  0
TCOPTIONALDATA
  5
1D2
102
{ACAD_REACTORS
330
1D1
102
}
330
1D1
100
TcOptionalData
 70
     1
 70
    32
 40
-3.0
  0
TCOPTIONALDATA
  5
1D5
102
{ACAD_REACTORS
330
1D4
102
}
330
1D4
100
TcOptionalData
 70
     1
 70
    32
 40
-3.0
  0
TCOPTIONALDATA
  5
1D8
102
{ACAD_REACTORS
330
1D7
102
}
330
1D7
100
TcOptionalData
 70
     1
 70
    32
 40
-3.0
  0
TCOPTIONALDATA
  5
1DB
102
{ACAD_REACTORS
330
1DA
102
}
330
1DA
100
TcOptionalData
 70
     1
 70
    32
 40
-3.0
  0
TCOPTIONALDATA
  5
1DE
102
{ACAD_REACTORS
330
1DD
102
}
330
1DD
100
TcOptionalData
 70
     1
 70
    32
 40
-3.0
  0
TCOPTIONALDATA
  5
1E1
102
{ACAD_REACTORS
330
1E0
102
}
330
1E0
100
TcOptionalData
 70
     1
 70
    32
 40
-3.0
  0
TCOPTIONALDATA
  5
1E4
102
{ACAD_REACTORS
330
1E3
102
}
330
1E3
100
TcOptionalData
 70
     1
 70
    32
 40
-3.0
  0
TCOPTIONALDATA
  5
1E7
102
{ACAD_REACTORS
330
1E6
102
}
330
1E6
100
TcOptionalData
 70
     1
 70
    32
 40
-3.0
  0
TCOPTIONALDATA
  5
1EA
102
{ACAD_REACTORS
330
1E9
102
}
330
1E9
100
TcOptionalData
 70
     1
 70
    32
 40
-3.0
  0
TCOPTIONALDATA
  5
1ED
102
{ACAD_REACTORS
330
1EC
102
}
330
1EC
100
TcOptionalData
 70
     1
 70
    32
 40
-3.0
  0
TCOPTIONALDATA
  5
1F0
102
{ACAD_REACTORS
330
1EF
102
}
330
1EF
100
TcOptionalData
 70
     1
 70
    32
 40
-3.0
  0
TCOPTIONALDATA
  5
1F3
102
{ACAD_REACTORS
330
1F2
102
}
330
1F2
100
TcOptionalData
 70
     1
 70
    32
 40
-3.0
  0
TCOPTIONALDATA
  5
1F6
102
{ACAD_REACTORS
330
1F5
102
}
330
1F5
100
TcOptionalData
 70
     1
 70
    32
 40
-3.0
  0
TCOPTIONALDATA
  5
1F9
102
{ACAD_REACTORS
330
1F8
102
}
330
1F8
100
TcOptionalData
 70
     1
 70
    32
 40
-3.0
  0
TCOPTIONALDATA
  5
1FC
102
{ACAD_REACTORS
330
1FB
102
}
330
1FB
100
TcOptionalData
 70
     1
 70
    32
 40
-3.0
  0
TCOPTIONALDATA
  5
1FF
102
{ACAD_REACTORS
330
1FE
102
}
330
1FE
100
TcOptionalData
 70
     1
 70
    32
 40
-3.0
  0
TCOPTIONALDATA
  5
202
102
{ACAD_REACTORS
330
201
102
}
330
201
100
TcOptionalData
 70
     1
 70
    32
 40
-3.0
  0
TCOPTIONALDATA
  5
205
102
{ACAD_REACTORS
330
204
102
}
330
204
100
TcOptionalData
 70
     1
 70
    32
 40
-3.0
  0
TCOPTIONALDATA
  5
208
102
{ACAD_REACTORS
330
207
102
}
330
207
100
TcOptionalData
 70
     1
 70
    32
 40
-3.0
  0
TCOPTIONALDATA
  5
20B
102
{ACAD_REACTORS
330
20A
102
}
330
20A
100
TcOptionalData
 70
     1
 70
    32
 40
-3.0
  0
TCOPTIONALDATA
  5
20E
102
{ACAD_REACTORS
330
20D
102
}
330
20D
100
TcOptionalData
 70
     1
 70
    32
 40
-3.0
  0
TCOPTIONALDATA
  5
211
102
{ACAD_REACTORS
330
210
102
}
330
210
100
TcOptionalData
 70
     1
 70
    32
 40
-3.0
  0
TCOPTIONALDATA
  5
214
102
{ACAD_REACTORS
330
213
102
}
330
213
100
TcOptionalData
 70
     1
 70
    32
 40
-3.0
  0
TCOPTIONALDATA
  5
217
102
{ACAD_REACTORS
330
216
102
}
330
216
100
TcOptionalData
 70
     1
 70
    32
 40
-3.0
  0
TCOPTIONALDATA
  5
21A
102
{ACAD_REACTORS
330
219
102
}
330
219
100
TcOptionalData
 70
     1
 70
    32
 40
-3.0
  0
TCOPTIONALDATA
  5
21D
102
{ACAD_REACTORS
330
21C
102
}
330
21C
100
TcOptionalData
 70
     1
 70
    32
 40
-3.0
  0
TCOPTIONALDATA
  5
220
102
{ACAD_REACTORS
330
21F
102
}
330
21F
100
TcOptionalData
 70
     1
 70
    32
 40
-3.0
  0
TCOPTIONALDATA
  5
223
102
{ACAD_REACTORS
330
222
102
}
330
222
100
TcOptionalData
 70
     1
 70
    32
 40
-3.0
  0
TCOPTIONALDATA
  5
226
102
{ACAD_REACTORS
330
225
102
}
330
225
100
TcOptionalData
 70
     1
 70
    32
 40
-3.0
  0
TCOPTIONALDATA
  5
229
102
{ACAD_REACTORS
330
228
102
}
330
228
100
TcOptionalData
 70
     1
 70
    32
 40
-3.0
  0
TCOPTIONALDATA
  5
22C
102
{ACAD_REACTORS
330
22B
102
}
330
22B
100
TcOptionalData
 70
     1
 70
    32
 40
-3.0
  0
TCOPTIONALDATA
  5
22F
102
{ACAD_REACTORS
330
22E
102
}
330
22E
100
TcOptionalData
 70
     1
 70
    32
 40
-3.0
  0
TCOPTIONALDATA
  5
232
102
{ACAD_REACTORS
330
231
102
}
330
231
100
TcOptionalData
 70
     1
 70
    32
 40
-3.0
  0
TCOPTIONALDATA
  5
235
102
{ACAD_REACTORS
330
234
102
}
330
234
100
TcOptionalData
 70
     1
 70
    32
 40
-3.0
  0
TCOPTIONALDATA
  5
238
102
{ACAD_REACTORS
330
237
102
}
330
237
100
TcOptionalData
 70
     1
 70
    32
 40
-3.0
  0
TCOPTIONALDATA
  5
23B
102
{ACAD_REACTORS
330
23A
102
}
330
23A
100
TcOptionalData
 70
     1
 70
    32
 40
-3.0
  0
TCOPTIONALDATA
  5
23E
102
{ACAD_REACTORS
330
23D
102
}
330
23D
100
TcOptionalData
 70
     1
 70
    32
 40
-3.0
  0
TCOPTIONALDATA
  5
241
102
{ACAD_REACTORS
330
240
102
}
330
240
100
TcOptionalData
 70
     1
 70
    32
 40
-3.0
  0
TCOPTIONALDATA
  5
244
102
{ACAD_REACTORS
330
243
102
}
330
243
100
TcOptionalData
 70
     1
 70
    32
 40
-3.0
  0
TCOPTIONALDATA
  5
247
102
{ACAD_REACTORS
330
246
102
}
330
246
100
TcOptionalData
 70
     1
 70
    32
 40
-3.0
  0
TCOPTIONALDATA
  5
24A
102
{ACAD_REACTORS
330
249
102
}
330
249
100
TcOptionalData
 70
     1
 70
    32
 40
-3.0
  0
TCOPTIONALDATA
  5
24D
102
{ACAD_REACTORS
330
24C
102
}
330
24C
100
TcOptionalData
 70
     1
 70
    32
 40
-3.0
  0
TCOPTIONALDATA
  5
250
102
{ACAD_REACTORS
330
24F
102
}
330
24F
100
TcOptionalData
 70
     1
 70
    32
 40
-3.0
  0
TCOPTIONALDATA
  5
253
102
{ACAD_REACTORS
330
252
102
}
330
252
100
TcOptionalData
 70
     1
 70
    32
 40
-3.0
  0
TCOPTIONALDATA
  5
256
102
{ACAD_REACTORS
330
255
102
}
330
255
100
TcOptionalData
 70
     1
 70
    32
 40
-3.0
  0
TCOPTIONALDATA
  5
259
102
{ACAD_REACTORS
330
258
102
}
330
258
100
TcOptionalData
 70
     1
 70
    32
 40
-3.0
  0
TCOPTIONALDATA
  5
25C
102
{ACAD_REACTORS
330
25B
102
}
330
25B
100
TcOptionalData
 70
     1
 70
    32
 40
-3.0
  0
TCOPTIONALDATA
  5
25F
102
{ACAD_REACTORS
330
25E
102
}
330
25E
100
TcOptionalData
 70
     1
 70
    32
 40
-3.0
  0
TCOPTIONALDATA
  5
262
102
{ACAD_REACTORS
330
261
102
}
330
261
100
TcOptionalData
 70
     1
 70
    32
 40
-3.0
  0
TCOPTIONALDATA
  5
265
102
{ACAD_REACTORS
330
264
102
}
330
264
100
TcOptionalData
 70
     1
 70
    32
 40
-3.0
  0
TCOPTIONALDATA
  5
268
102
{ACAD_REACTORS
330
267
102
}
330
267
100
TcOptionalData
 70
     1
 70
    32
 40
-3.0
  0
TCOPTIONALDATA
  5
26B
102
{ACAD_REACTORS
330
26A
102
}
330
26A
100
TcOptionalData
 70
     1
 70
    32
 40
-3.0
  0
TCOPTIONALDATA
  5
26E
102
{ACAD_REACTORS
330
26D
102
}
330
26D
100
TcOptionalData
 70
     1
 70
    32
 40
-3.0
  0
TCOPTIONALDATA
  5
271
102
{ACAD_REACTORS
330
270
102
}
330
270
100
TcOptionalData
 70
     1
 70
    32
 40
-3.0
  0
TCOPTIONALDATA
  5
274
102
{ACAD_REACTORS
330
273
102
}
330
273
100
TcOptionalData
 70
     1
 70
    32
 40
-3.0
  0
TCOPTIONALDATA
  5
277
102
{ACAD_REACTORS
330
276
102
}
330
276
100
TcOptionalData
 70
     1
 70
    32
 40
-3.0
  0
TCOPTIONALDATA
  5
27A
102
{ACAD_REACTORS
330
279
102
}
330
279
100
TcOptionalData
 70
     1
 70
    32
 40
-3.0
  0
TCOPTIONALDATA
  5
27D
102
{ACAD_REACTORS
330
27C
102
}
330
27C
100
TcOptionalData
 70
     1
 70
    32
 40
-3.0
  0
TCOPTIONALDATA
  5
280
102
{ACAD_REACTORS
330
27F
102
}
330
27F
100
TcOptionalData
 70
     1
 70
    32
 40
-3.0
  0
TCOPTIONALDATA
  5
283
102
{ACAD_REACTORS
330
282
102
}
330
282
100
TcOptionalData
 70
     1
 70
    32
 40
-3.0
  0
TCOPTIONALDATA
  5
286
102
{ACAD_REACTORS
330
285
102
}
330
285
100
TcOptionalData
 70
     1
 70
    32
 40
-3.0
  0
TCOPTIONALDATA
  5
289
102
{ACAD_REACTORS
330
288
102
}
330
288
100
TcOptionalData
 70
     1
 70
    32
 40
-3.0
  0
TCOPTIONALDATA
  5
28C
102
{ACAD_REACTORS
330
28B
102
}
330
28B
100
TcOptionalData
 70
     1
 70
    32
 40
-3.0
  0
TCOPTIONALDATA
  5
28F
102
{ACAD_REACTORS
330
28E
102
}
330
28E
100
TcOptionalData
 70
     1
 70
    32
 40
-3.0
  0
TCOPTIONALDATA
  5
292
102
{ACAD_REACTORS
330
291
102
}
330
291
100
TcOptionalData
 70
     1
 70
    32
 40
-3.0
  0
TCOPTIONALDATA
  5
295
102
{ACAD_REACTORS
330
294
102
}
330
294
100
TcOptionalData
 70
     1
 70
    32
 40
-3.0
  0
TCOPTIONALDATA
  5
298
102
{ACAD_REACTORS
330
297
102
}
330
297
100
TcOptionalData
 70
     1
 70
    32
 40
-3.0
  0
TCOPTIONALDATA
  5
29B
102
{ACAD_REACTORS
330
29A
102
}
330
29A
100
TcOptionalData
 70
     1
 70
    32
 40
-3.0
  0
TCOPTIONALDATA
  5
29E
102
{ACAD_REACTORS
330
29D
102
}
330
29D
100
TcOptionalData
 70
     1
 70
    32
 40
-3.0
  0
TCOPTIONALDATA
  5
2A1
102
{ACAD_REACTORS
330
2A0
102
}
330
2A0
100
TcOptionalData
 70
     1
 70
    32
 40
-3.0
  0
TCOPTIONALDATA
  5
2A4
102
{ACAD_REACTORS
330
2A3
102
}
330
2A3
100
TcOptionalData
 70
     1
 70
    32
 40
-3.0
  0
TCOPTIONALDATA
  5
2A7
102
{ACAD_REACTORS
330
2A6
102
}
330
2A6
100
TcOptionalData
 70
     1
 70
    32
 40
-3.0
  0
TCOPTIONALDATA
  5
2AA
102
{ACAD_REACTORS
330
2A9
102
}
330
2A9
100
TcOptionalData
 70
     1
 70
    32
 40
-3.0
  0
TCOPTIONALDATA
  5
2AD
102
{ACAD_REACTORS
330
2AC
102
}
330
2AC
100
TcOptionalData
 70
     1
 70
    32
 40
-3.0
  0
TCOPTIONALDATA
  5
2B0
102
{ACAD_REACTORS
330
2AF
102
}
330
2AF
100
TcOptionalData
 70
     1
 70
    32
 40
-3.0
  0
TCOPTIONALDATA
  5
2B3
102
{ACAD_REACTORS
330
2B2
102
}
330
2B2
100
TcOptionalData
 70
     1
 70
    32
 40
-3.0
  0
TCOPTIONALDATA
  5
2B6
102
{ACAD_REACTORS
330
2B5
102
}
330
2B5
100
TcOptionalData
 70
     1
 70
    32
 40
-3.0
  0
TCOPTIONALDATA
  5
2B9
102
{ACAD_REACTORS
330
2B8
102
}
330
2B8
100
TcOptionalData
 70
     1
 70
    32
 40
-3.0
  0
TCOPTIONALDATA
  5
2BC
102
{ACAD_REACTORS
330
2BB
102
}
330
2BB
100
TcOptionalData
 70
     1
 70
    32
 40
-3.0
  0
TCOPTIONALDATA
  5
2BF
102
{ACAD_REACTORS
330
2BE
102
}
330
2BE
100
TcOptionalData
 70
     1
 70
    32
 40
-3.0
  0
TCOPTIONALDATA
  5
2C2
102
{ACAD_REACTORS
330
2C1
102
}
330
2C1
100
TcOptionalData
 70
     1
 70
    32
 40
-3.0
  0
TCOPTIONALDATA
  5
2C5
102
{ACAD_REACTORS
330
2C4
102
}
330
2C4
100
TcOptionalData
 70
     1
 70
    32
 40
-3.0
  0
TCOPTIONALDATA
  5
2C8
102
{ACAD_REACTORS
330
2C7
102
}
330
2C7
100
TcOptionalData
 70
     1
 70
    32
 40
-3.0
  0
TCOPTIONALDATA
  5
2CB
102
{ACAD_REACTORS
330
2CA
102
}
330
2CA
100
TcOptionalData
 70
     1
 70
    32
 40
-3.0
  0
TCOPTIONALDATA
  5
2CE
102
{ACAD_REACTORS
330
2CD
102
}
330
2CD
100
TcOptionalData
 70
     1
 70
    32
 40
-3.0
  0
TCOPTIONALDATA
  5
2D1
102
{ACAD_REACTORS
330
2D0
102
}
330
2D0
100
TcOptionalData
 70
     1
 70
    32
 40
-3.0
  0
TCOPTIONALDATA
  5
2D4
102
{ACAD_REACTORS
330
2D3
102
}
330
2D3
100
TcOptionalData
 70
     1
 70
    32
 40
-3.0
  0
TCOPTIONALDATA
  5
2D7
102
{ACAD_REACTORS
330
2D6
102
}
330
2D6
100
TcOptionalData
 70
     1
 70
    32
 40
-3.0
  0
TCOPTIONALDATA
  5
2DA
102
{ACAD_REACTORS
330
2D9
102
}
330
2D9
100
TcOptionalData
 70
     1
 70
    32
 40
-3.0
  0
TCOPTIONALDATA
  5
2DD
102
{ACAD_REACTORS
330
2DC
102
}
330
2DC
100
TcOptionalData
 70
     1
 70
    32
 40
-3.0
  0
TCOPTIONALDATA
  5
2E0
102
{ACAD_REACTORS
330
2DF
102
}
330
2DF
100
TcOptionalData
 70
     1
 70
    32
 40
-3.0
  0
TCOPTIONALDATA
  5
2E3
102
{ACAD_REACTORS
330
2E2
102
}
330
2E2
100
TcOptionalData
 70
     1
 70
    32
 40
-3.0
  0
TCOPTIONALDATA
  5
2E6
102
{ACAD_REACTORS
330
2E5
102
}
330
2E5
100
TcOptionalData
 70
     1
 70
    32
 40
-3.0
  0
TCOPTIONALDATA
  5
2E9
102
{ACAD_REACTORS
330
2E8
102
}
330
2E8
100
TcOptionalData
 70
     1
 70
    32
 40
-3.0
  0
TCOPTIONALDATA
  5
2EC
102
{ACAD_REACTORS
330
2EB
102
}
330
2EB
100
TcOptionalData
 70
     1
 70
    32
 40
-3.0
  0
TCOPTIONALDATA
  5
2EF
102
{ACAD_REACTORS
330
2EE
102
}
330
2EE
100
TcOptionalData
 70
     1
 70
    32
 40
-3.0
  0
TCOPTIONALDATA
  5
2F2
102
{ACAD_REACTORS
330
2F1
102
}
330
2F1
100
TcOptionalData
 70
     1
 70
    32
 40
-3.0
  0
TCOPTIONALDATA
  5
2F5
102
{ACAD_REACTORS
330
2F4
102
}
330
2F4
100
TcOptionalData
 70
     1
 70
    32
 40
-3.0
  0
TCOPTIONALDATA
  5
2F8
102
{ACAD_REACTORS
330
2F7
102
}
330
2F7
100
TcOptionalData
 70
     1
 70
    32
 40
-3.0
  0
TCOPTIONALDATA
  5
2FB
102
{ACAD_REACTORS
330
2FA
102
}
330
2FA
100
TcOptionalData
 70
     1
 70
    32
 40
-3.0
  0
TCOPTIONALDATA
  5
2FE
102
{ACAD_REACTORS
330
2FD
102
}
330
2FD
100
TcOptionalData
 70
     1
 70
    32
 40
-3.0
  0
TCOPTIONALDATA
  5
301
102
{ACAD_REACTORS
330
300
102
}
330
300
100
TcOptionalData
 70
     1
 70
    32
 40
-3.0
  0
TCOPTIONALDATA
  5
304
102
{ACAD_REACTORS
330
303
102
}
330
303
100
TcOptionalData
 70
     1
 70
    32
 40
-3.0
  0
TCOPTIONALDATA
  5
307
102
{ACAD_REACTORS
330
306
102
}
330
306
100
TcOptionalData
 70
     1
 70
    32
 40
-3.0
  0
TCOPTIONALDATA
  5
30A
102
{ACAD_REACTORS
330
309
102
}
330
309
100
TcOptionalData
 70
     1
 70
    32
 40
-3.0
  0
TCOPTIONALDATA
  5
30D
102
{ACAD_REACTORS
330
30C
102
}
330
30C
100
TcOptionalData
 70
     1
 70
    32
 40
-3.0
  0
TCOPTIONALDATA
  5
310
102
{ACAD_REACTORS
330
30F
102
}
330
30F
100
TcOptionalData
 70
     1
 70
    32
 40
-3.0
  0
TCOPTIONALDATA
  5
313
102
{ACAD_REACTORS
330
312
102
}
330
312
100
TcOptionalData
 70
     1
 70
    32
 40
-3.0
  0
TCOPTIONALDATA
  5
316
102
{ACAD_REACTORS
330
315
102
}
330
315
100
TcOptionalData
 70
     1
 70
    32
 40
-3.0
  0
TCOPTIONALDATA
  5
319
102
{ACAD_REACTORS
330
318
102
}
330
318
100
TcOptionalData
 70
     1
 70
    32
 40
-3.0
  0
TCOPTIONALDATA
  5
31C
102
{ACAD_REACTORS
330
31B
102
}
330
31B
100
TcOptionalData
 70
     1
 70
    32
 40
-3.0
  0
TCOPTIONALDATA
  5
31F
102
{ACAD_REACTORS
330
31E
102
}
330
31E
100
TcOptionalData
 70
     1
 70
    32
 40
-3.0
  0
TCOPTIONALDATA
  5
322
102
{ACAD_REACTORS
330
321
102
}
330
321
100
TcOptionalData
 70
     1
 70
    32
 40
-3.0
  0
TCOPTIONALDATA
  5
325
102
{ACAD_REACTORS
330
324
102
}
330
324
100
TcOptionalData
 70
     1
 70
    32
 40
-3.0
  0
TCOPTIONALDATA
  5
328
102
{ACAD_REACTORS
330
327
102
}
330
327
100
TcOptionalData
 70
     1
 70
    32
 40
-3.0
  0
TCOPTIONALDATA
  5
32B
102
{ACAD_REACTORS
330
32A
102
}
330
32A
100
TcOptionalData
 70
     1
 70
    32
 40
-3.0
  0
TCOPTIONALDATA
  5
32E
102
{ACAD_REACTORS
330
32D
102
}
330
32D
100
TcOptionalData
 70
     1
 70
    32
 40
-3.0
  0
TCOPTIONALDATA
  5
331
102
{ACAD_REACTORS
330
330
102
}
330
330
100
TcOptionalData
 70
     1
 70
    32
 40
-3.0
  0
TCOPTIONALDATA
  5
334
102
{ACAD_REACTORS
330
333
102
}
330
333
100
TcOptionalData
 70
     1
 70
    32
 40
-3.0
  0
TCOPTIONALDATA
  5
337
102
{ACAD_REACTORS
330
336
102
}
330
336
100
TcOptionalData
 70
     1
 70
    32
 40
-3.0
  0
TCOPTIONALDATA
  5
33A
102
{ACAD_REACTORS
330
339
102
}
330
339
100
TcOptionalData
 70
     1
 70
    32
 40
-3.0
  0
TCOPTIONALDATA
  5
33D
102
{ACAD_REACTORS
330
33C
102
}
330
33C
100
TcOptionalData
 70
     1
 70
    32
 40
-3.0
  0
TCOPTIONALDATA
  5
340
102
{ACAD_REACTORS
330
33F
102
}
330
33F
100
TcOptionalData
 70
     1
 70
    32
 40
-3.0
  0
TCOPTIONALDATA
  5
343
102
{ACAD_REACTORS
330
342
102
}
330
342
100
TcOptionalData
 70
     1
 70
    32
 40
-3.0
  0
TCOPTIONALDATA
  5
346
102
{ACAD_REACTORS
330
345
102
}
330
345
100
TcOptionalData
 70
     1
 70
    32
 40
-3.0
  0
TCOPTIONALDATA
  5
349
102
{ACAD_REACTORS
330
348
102
}
330
348
100
TcOptionalData
 70
     1
 70
    32
 40
-3.0
  0
TCOPTIONALDATA
  5
34C
102
{ACAD_REACTORS
330
34B
102
}
330
34B
100
TcOptionalData
 70
     1
 70
    32
 40
-3.0
  0
TCOPTIONALDATA
  5
34F
102
{ACAD_REACTORS
330
34E
102
}
330
34E
100
TcOptionalData
 70
     1
 70
    32
 40
-3.0
  0
TCOPTIONALDATA
  5
352
102
{ACAD_REACTORS
330
351
102
}
330
351
100
TcOptionalData
 70
     1
 70
    32
 40
-3.0
  0
TCOPTIONALDATA
  5
357
102
{ACAD_REACTORS
330
356
102
}
330
356
100
TcOptionalData
 70
     1
 70
    32
 40
-3.0
  0
TCOPTIONALDATA
  5
35A
102
{ACAD_REACTORS
330
359
102
}
330
359
100
TcOptionalData
 70
     1
 70
    32
 40
-3.0
  0
TCOPTIONALDATA
  5
35D
102
{ACAD_REACTORS
330
35C
102
}
330
35C
100
TcOptionalData
 70
     1
 70
    32
 40
-3.0
  0
TCOPTIONALDATA
  5
360
102
{ACAD_REACTORS
330
35F
102
}
330
35F
100
TcOptionalData
 70
     1
 70
    32
 40
-3.0
  0
TCOPTIONALDATA
  5
363
102
{ACAD_REACTORS
330
362
102
}
330
362
100
TcOptionalData
 70
     1
 70
    32
 40
-3.0
  0
TCOPTIONALDATA
  5
366
102
{ACAD_REACTORS
330
365
102
}
330
365
100
TcOptionalData
 70
     1
 70
    32
 40
-3.0
  0
TCOPTIONALDATA
  5
369
102
{ACAD_REACTORS
330
368
102
}
330
368
100
TcOptionalData
 70
     1
 70
    32
 40
-3.0
  0
TCOPTIONALDATA
  5
36C
102
{ACAD_REACTORS
330
36B
102
}
330
36B
100
TcOptionalData
 70
     1
 70
    32
 40
-3.0
  0
TCOPTIONALDATA
  5
36F
102
{ACAD_REACTORS
330
36E
102
}
330
36E
100
TcOptionalData
 70
     1
 70
    32
 40
-3.0
  0
TCOPTIONALDATA
  5
372
102
{ACAD_REACTORS
330
371
102
}
330
371
100
TcOptionalData
 70
     1
 70
    32
 40
-3.0
  0
TCOPTIONALDATA
  5
375
102
{ACAD_REACTORS
330
374
102
}
330
374
100
TcOptionalData
 70
     1
 70
    32
 40
-3.0
  0
TCOPTIONALDATA
  5
378
102
{ACAD_REACTORS
330
377
102
}
330
377
100
TcOptionalData
 70
     1
 70
    32
 40
-3.0
  0
TCOPTIONALDATA
  5
37B
102
{ACAD_REACTORS
330
37A
102
}
330
37A
100
TcOptionalData
 70
     1
 70
    32
 40
-3.0
  0
TCOPTIONALDATA
  5
37E
102
{ACAD_REACTORS
330
37D
102
}
330
37D
100
TcOptionalData
 70
     1
 70
    32
 40
-3.0
  0
TCOPTIONALDATA
  5
381
102
{ACAD_REACTORS
330
380
102
}
330
380
100
TcOptionalData
 70
     1
 70
    32
 40
-3.0
  0
TCOPTIONALDATA
  5
384
102
{ACAD_REACTORS
330
383
102
}
330
383
100
TcOptionalData
 70
     1
 70
    32
 40
-3.0
  0
TCOPTIONALDATA
  5
387
102
{ACAD_REACTORS
330
386
102
}
330
386
100
TcOptionalData
 70
     1
 70
    32
 40
-3.0
  0
TCOPTIONALDATA
  5
38A
102
{ACAD_REACTORS
330
389
102
}
330
389
100
TcOptionalData
 70
     1
 70
    32
 40
-3.0
  0
TCOPTIONALDATA
  5
38D
102
{ACAD_REACTORS
330
38C
102
}
330
38C
100
TcOptionalData
 70
     1
 70
    32
 40
-3.0
  0
TCOPTIONALDATA
  5
390
102
{ACAD_REACTORS
330
38F
102
}
330
38F
100
TcOptionalData
 70
     1
 70
    32
 40
-3.0
  0
TCOPTIONALDATA
  5
393
102
{ACAD_REACTORS
330
392
102
}
330
392
100
TcOptionalData
 70
     1
 70
    32
 40
-3.0
  0
TCOPTIONALDATA
  5
396
102
{ACAD_REACTORS
330
395
102
}
330
395
100
TcOptionalData
 70
     1
 70
    32
 40
-3.0
  0
TCOPTIONALDATA
  5
399
102
{ACAD_REACTORS
330
398
102
}
330
398
100
TcOptionalData
 70
     1
 70
    32
 40
-3.0
  0
TCOPTIONALDATA
  5
39C
102
{ACAD_REACTORS
330
39B
102
}
330
39B
100
TcOptionalData
 70
     1
 70
    32
 40
-3.0
  0
TCOPTIONALDATA
  5
39F
102
{ACAD_REACTORS
330
39E
102
}
330
39E
100
TcOptionalData
 70
     1
 70
    32
 40
-3.0
  0
TCOPTIONALDATA
  5
3A2
102
{ACAD_REACTORS
330
3A1
102
}
330
3A1
100
TcOptionalData
 70
     1
 70
    32
 40
-3.0
  0
TCOPTIONALDATA
  5
3A5
102
{ACAD_REACTORS
330
3A4
102
}
330
3A4
100
TcOptionalData
 70
     1
 70
    32
 40
-3.0
  0
TCOPTIONALDATA
  5
3A8
102
{ACAD_REACTORS
330
3A7
102
}
330
3A7
100
TcOptionalData
 70
     1
 70
    32
 40
-3.0
  0
TCOPTIONALDATA
  5
3AB
102
{ACAD_REACTORS
330
3AA
102
}
330
3AA
100
TcOptionalData
 70
     1
 70
    32
 40
-3.0
  0
TCOPTIONALDATA
  5
3AE
102
{ACAD_REACTORS
330
3AD
102
}
330
3AD
100
TcOptionalData
 70
     1
 70
    32
 40
-3.0
  0
TCOPTIONALDATA
  5
3B1
102
{ACAD_REACTORS
330
3B0
102
}
330
3B0
100
TcOptionalData
 70
     1
 70
    32
 40
-3.0
  0
TCOPTIONALDATA
  5
3B4
102
{ACAD_REACTORS
330
3B3
102
}
330
3B3
100
TcOptionalData
 70
     1
 70
    32
 40
-3.0
  0
TCOPTIONALDATA
  5
3B7
102
{ACAD_REACTORS
330
3B6
102
}
330
3B6
100
TcOptionalData
 70
     1
 70
    32
 40
-3.0
  0
TCOPTIONALDATA
  5
3BA
102
{ACAD_REACTORS
330
3B9
102
}
330
3B9
100
TcOptionalData
 70
     1
 70
    32
 40
-3.0
  0
LAYOUT
  5
1E
102
{ACAD_REACTORS
330
1A
102
}
330
1A
100
AcDbPlotSettings
  1

  2
none_device
  4
ISO_C5_(229.00_x_162.00_MM)
  6

 40
7.14375
 41
6.127735
 42
7.821075
 43
7.14373779296875
 44
229.0
 45
162.0
 46
-6.8625
 47
-5.886485590551182
 48
0.0
 49
0.0
140
0.0
141
0.0
142
1.0
143
25.4
 70
   672
 72
     1
 73
     1
 74
     5
  7

 75
    16
 76
     0
 77
     2
 78
   300
147
1.0
148
0.0
149
0.0
100
AcDbLayout
  1
Layout1
 70
     1
 71
     1
 10
-7.14375
 20
-6.127735
 11
289.85625
 21
203.872265
 12
0.0
 22
0.0
 32
0.0
 14
-7.14375
 24
-6.127735
 34
0.0
 15
289.85625
 25
203.872265
 35
0.0
146
0.0
 13
0.0
 23
0.0
 33
0.0
 16
1.0
 26
0.0
 36
0.0
 17
0.0
 27
1.0
 37
0.0
 76
     0
330
1B
331
3BC
  0
LAYOUT
  5
3C
102
{ACAD_REACTORS
330
1A
102
}
330
1A
100
AcDbPlotSettings
  1

  2
none_device
  4
ISO_C5_(229.00_x_162.00_MM)
  6

 40
0.0
 41
0.0
 42
0.0
 43
0.0
 44
229.0
 45
162.0
 46
0.0
 47
0.0
 48
0.0
 49
0.0
140
0.0
141
0.0
142
1.0
143
0.999998
 70
   672
 72
     1
 73
     0
 74
     5
  7

 75
    16
 76
     0
 77
     2
 78
   300
147
1.0
148
0.0
149
0.0
100
AcDbLayout
  1
Layout2
 70
     1
 71
     2
 10
0.0
 20
0.0
 11
6.37795275590551
 21
9.01574803149607
 12
0.0
 22
0.0
 32
0.0
 14
0.0
 24
0.0
 34
0.0
 15
6.37795275590551
 25
9.01574803149607
 35
0.0
146
0.0
 13
0.0
 23
0.0
 33
0.0
 16
1.0
 26
0.0
 36
0.0
 17
0.0
 27
1.0
 37
0.0
 76
     0
330
3B
331
3BE
  0
LAYOUT
  5
22
102
{ACAD_REACTORS
330
1A
102
}
330
1A
100
AcDbPlotSettings
  1

  2
none_device
  4
Sun_Hi-Res_(1280.00_x_1600.00_Pixels)
  6

 40
7.14375
 41
6.127735
 42
7.821075
 43
7.14373779296875
 44
1280.0
 45
1600.0
 46
343.77568001077
 47
-134.9886063128812
 48
0.0
 49
0.0
140
0.0
141
0.0
142
1.0
143
0.999998
 70
  1696
 72
     2
 73
     1
 74
     0
  7

 75
     0
 76
     0
 77
     2
 78
   300
147
1.0
148
0.0
149
0.0
100
AcDbLayout
  1
Model
 70
     1
 71
     0
 10
-350.9187281719101
 20
128.8606135911385
 11
-287.926602187658
 21
179.2543143785401
 12
0.0
 22
0.0
 32
0.0
 14
-350.9187281719101
 24
128.8606135911385
 34
0.0
 15
-287.926602187658
 25
179.2543143785401
 35
0.0
146
0.0
 13
0.0
 23
0.0
 33
0.0
 16
1.0
 26
0.0
 36
0.0
 17
0.0
 27
1.0
 37
0.0
 76
     0
330
1F
331
29
  0
MLINESTYLE
  5
18
102
{ACAD_REACTORS
330
17
102
}
330
17
100
AcDbMlineStyle
  2
Standard
 70
     0
  3

 62
   256
 51
90.0
 52
90.0
 71
     6
 49
0.5
 62
   256
  6
BYLAYER
 49
-0.5
 62
   256
  6
BYLAYER
 49
0.5
 62
   256
  6
BYLAYER
 49
-0.5
 62
   256
  6
BYLAYER
 49
0.5
 62
   256
  6
BYLAYER
 49
-0.5
 62
   256
  6
BYLAYER
  0
ACDBPLACEHOLDER
  5
F
102
{ACAD_REACTORS
330
E
102
}
330
E
  0
VISUALSTYLE
  5
2F
102
{ACAD_REACTORS
330
2A
102
}
330
2A
100
AcDbVisualStyle
  2
2dWireframe
 70
     4
 71
     0
 72
     2
 73
     0
 90
        0
 40
-0.6
 41
-30.0
 62
     5
 63
     7
421
 16777215
 74
     1
 91
        4
 64
     7
 65
   257
 75
     1
175
     1
 42
1.0
 92
        0
 66
   257
 43
1.0
 76
     1
 77
     6
 78
     2
 67
     7
 79
     5
170
     0
171
     0
290
     0
174
     0
 93
        1
 44
0.0
173
     0
291
     0
 45
0.0
1001
ACAD
1000
AcDbSavedByObjectVersion
1070
     0
  0
VISUALSTYLE
  5
31
102
{ACAD_REACTORS
330
2A
102
}
330
2A
100
AcDbVisualStyle
  2
3D Hidden
 70
     6
 71
     1
 72
     2
 73
     2
 90
        0
 40
-0.6
 41
-30.0
 62
     5
 63
     7
421
 16777215
 74
     2
 91
        2
 64
     7
 65
   257
 75
     2
175
     1
 42
40.0
 92
        0
 66
   257
 43
1.0
 76
     1
 77
     6
 78
     2
 67
     7
 79
     3
170
     0
171
     0
290
     0
174
     0
 93
        1
 44
0.0
173
     0
291
     0
 45
0.0
1001
ACAD
1000
AcDbSavedByObjectVersion
1070
     0
  0
VISUALSTYLE
  5
30
102
{ACAD_REACTORS
330
2A
102
}
330
2A
100
AcDbVisualStyle
  2
3dWireframe
 70
     5
 71
     0
 72
     2
 73
     0
 90
        0
 40
-0.6
 41
-30.0
 62
     5
 63
     7
421
 16777215
 74
     1
 91
        4
 64
     7
 65
   257
 75
     1
175
     1
 42
1.0
 92
        0
 66
   257
 43
1.0
 76
     1
 77
     6
 78
     2
 67
     7
 79
     5
170
     0
171
     0
290
     0
174
     0
 93
        1
 44
0.0
173
     0
291
     0
 45
0.0
1001
ACAD
1000
AcDbSavedByObjectVersion
1070
     0
  0
VISUALSTYLE
  5
32
102
{ACAD_REACTORS
330
2A
102
}
330
2A
100
AcDbVisualStyle
  2
Basic
 70
     7
 71
     1
 72
     0
 73
     1
 90
        0
 40
-0.6
 41
-30.0
 62
     5
 63
     7
421
 16777215
 74
     0
 91
        4
 64
     7
 65
   257
 75
     1
175
     1
 42
1.0
 92
        8
 66
     7
 43
1.0
 76
     1
 77
     6
 78
     2
 67
     7
 79
     5
170
     0
171
     0
290
     0
174
     0
 93
        1
 44
0.0
173
     0
291
     1
 45
0.0
1001
ACAD
1000
AcDbSavedByObjectVersion
1070
     0
  0
VISUALSTYLE
  5
36
102
{ACAD_REACTORS
330
2A
102
}
330
2A
100
AcDbVisualStyle
  2
Brighten
 70
    12
 71
     2
 72
     2
 73
     0
 90
        0
 40
-0.6
 41
-30.0
 62
     5
 63
     7
421
 16777215
 74
     1
 91
        4
 64
     7
 65
   257
 75
     1
175
     1
 42
1.0
 92
        8
 66
     7
 43
1.0
 76
     1
 77
     6
 78
     2
 67
     7
 79
     5
170
     0
171
     0
290
     0
174
     0
 93
        1
 44
50.0
173
     0
291
     1
 45
0.0
1001
ACAD
1000
AcDbSavedByObjectVersion
1070
     0
  0
VISUALSTYLE
  5
3A
102
{ACAD_REACTORS
330
2A
102
}
330
2A
100
AcDbVisualStyle
  2
ColorChange
 70
    16
 71
     2
 72
     2
 73
     3
 90
        0
 40
-0.6
 41
-30.0
 62
     5
 63
     8
421
  8421504
 74
     1
 91
        4
 64
     7
 65
   257
 75
     1
175
     1
 42
1.0
 92
        8
 66
     8
424
  8421504
 43
1.0
 76
     1
 77
     6
 78
     2
 67
     7
 79
     5
170
     0
171
     0
290
     0
174
     0
 93
        1
 44
0.0
173
     0
291
     1
 45
0.0
1001
ACAD
1000
AcDbSavedByObjectVersion
1070
     0
  0
VISUALSTYLE
  5
34
102
{ACAD_REACTORS
330
2A
102
}
330
2A
100
AcDbVisualStyle
  2
Conceptual
 70
     9
 71
     3
 72
     2
 73
     0
 90
        0
 40
-0.6
 41
-30.0
 62
     5
 63
     7
421
 16777215
 74
     2
 91
        2
 64
     7
 65
   257
 75
     1
175
     1
 42
40.0
 92
        8
 66
     7
 43
1.0
 76
     1
 77
     6
 78
     2
 67
     7
 79
     3
170
     0
171
     0
290
     0
174
     0
 93
        1
 44
0.0
173
     0
291
     0
 45
0.0
1001
ACAD
1000
AcDbSavedByObjectVersion
1070
     0
  0
VISUALSTYLE
  5
35
102
{ACAD_REACTORS
330
2A
102
}
330
2A
100
AcDbVisualStyle
  2
Dim
 70
    11
 71
     2
 72
     2
 73
     0
 90
        0
 40
-0.6
 41
-30.0
 62
     5
 63
     7
421
 16777215
 74
     1
 91
        4
 64
     7
 65
   257
 75
     1
175
     1
 42
1.0
 92
        8
 66
     7
 43
1.0
 76
     1
 77
     6
 78
     2
 67
     7
 79
     5
170
     0
171
     0
290
     0
174
     0
 93
        1
 44
-50.0
173
     0
291
     1
 45
0.0
1001
ACAD
1000
AcDbSavedByObjectVersion
1070
     0
  0
VISUALSTYLE
  5
39
102
{ACAD_REACTORS
330
2A
102
}
330
2A
100
AcDbVisualStyle
  2
Facepattern
 70
    15
 71
     2
 72
     2
 73
     0
 90
        0
 40
-0.6
 41
-30.0
 62
     5
 63
     7
421
 16777215
 74
     1
 91
        4
 64
     7
 65
   257
 75
     1
175
     1
 42
1.0
 92
        8
 66
     7
 43
1.0
 76
     1
 77
     6
 78
     2
 67
     7
 79
     5
170
     0
171
     0
290
     0
174
     0
 93
        1
 44
0.0
173
     0
291
     1
 45
0.0
1001
ACAD
1000
AcDbSavedByObjectVersion
1070
     0
  0
VISUALSTYLE
  5
2B
102
{ACAD_REACTORS
330
2A
102
}
330
2A
100
AcDbVisualStyle
  2
Flat
 70
     0
 71
     2
 72
     1
 73
     1
 90
        2
 40
-0.6
 41
30.0
 62
     5
 63
     7
421
 16777215
 74
     0
 91
        4
 64
     7
 65
   257
 75
     1
175
     1
 42
1.0
 92
        8
 66
     7
 43
1.0
 76
     1
 77
     6
 78
     2
 67
     7
 79
     5
170
     0
171
     0
290
     0
174
     0
 93
       13
 44
0.0
173
     0
291
     1
 45
0.0
1001
ACAD
1000
AcDbSavedByObjectVersion
1070
     0
  0
VISUALSTYLE
  5
2C
102
{ACAD_REACTORS
330
2A
102
}
330
2A
100
AcDbVisualStyle
  2
FlatWithEdges
 70
     1
 71
     2
 72
     1
 73
     1
 90
        2
 40
-0.6
 41
30.0
 62
     5
 63
     7
421
 16777215
 74
     1
 91
        4
 64
     7
 65
   257
 75
     1
175
     1
 42
1.0
 92
        0
 66
   257
 43
1.0
 76
     1
 77
     6
 78
     2
 67
     7
 79
     5
170
     0
171
     0
290
     0
174
     0
 93
       13
 44
0.0
173
     0
291
     1
 45
0.0
1001
ACAD
1000
AcDbSavedByObjectVersion
1070
     0
  0
VISUALSTYLE
  5
2D
102
{ACAD_REACTORS
330
2A
102
}
330
2A
100
AcDbVisualStyle
  2
Gouraud
 70
     2
 71
     2
 72
     2
 73
     1
 90
        2
 40
-0.6
 41
30.0
 62
     5
 63
     7
421
 16777215
 74
     0
 91
        4
 64
     7
 65
   257
 75
     1
175
     1
 42
1.0
 92
        0
 66
     7
 43
1.0
 76
     1
 77
     6
 78
     2
 67
     7
 79
     5
170
     0
171
     0
290
     0
174
     0
 93
       13
 44
0.0
173
     0
291
     1
 45
0.0
1001
ACAD
1000
AcDbSavedByObjectVersion
1070
     0
  0
VISUALSTYLE
  5
2E
102
{ACAD_REACTORS
330
2A
102
}
330
2A
100
AcDbVisualStyle
  2
GouraudWithEdges
 70
     3
 71
     2
 72
     2
 73
     1
 90
        2
 40
-0.6
 41
30.0
 62
     5
 63
     7
421
 16777215
 74
     1
 91
        4
 64
     7
 65
   257
 75
     1
175
     1
 42
1.0
 92
        0
 66
   257
 43
1.0
 76
     1
 77
     6
 78
     2
 67
     7
 79
     5
170
     0
171
     0
290
     0
174
     0
 93
       13
 44
0.0
173
     0
291
     1
 45
0.0
1001
ACAD
1000
AcDbSavedByObjectVersion
1070
     0
  0
VISUALSTYLE
  5
38
102
{ACAD_REACTORS
330
2A
102
}
330
2A
100
AcDbVisualStyle
  2
Linepattern
 70
    14
 71
     2
 72
     2
 73
     0
 90
        0
 40
-0.6
 41
-30.0
 62
     5
 63
     7
421
 16777215
 74
     1
 91
        4
 64
     7
 65
   257
 75
     7
175
     7
 42
1.0
 92
        8
 66
     7
 43
1.0
 76
     1
 77
     6
 78
     2
 67
     7
 79
     5
170
     0
171
     0
290
     0
174
     0
 93
        1
 44
0.0
173
     0
291
     1
 45
0.0
1001
ACAD
1000
AcDbSavedByObjectVersion
1070
     0
  0
VISUALSTYLE
  5
33
102
{ACAD_REACTORS
330
2A
102
}
330
2A
100
AcDbVisualStyle
  2
Realistic
 70
     8
 71
     2
 72
     2
 73
     0
 90
        0
 40
-0.6
 41
-30.0
 62
     5
 63
     7
421
 16777215
 74
     1
 91
        0
 64
     7
 65
   257
 75
     1
175
     1
 42
1.0
 92
        8
 66
     8
424
  7895160
 43
1.0
 76
     1
 77
     6
 78
     2
 67
     7
 79
     5
170
     0
171
     0
290
     0
174
     0
 93
       13
 44
0.0
173
     0
291
     0
 45
0.0
1001
ACAD
1000
AcDbSavedByObjectVersion
1070
     0
  0
VISUALSTYLE
  5
37
102
{ACAD_REACTORS
330
2A
102
}
330
2A
100
AcDbVisualStyle
  2
Thicken
 70
    13
 71
     2
 72
     2
 73
     0
 90
        0
 40
-0.6
 41
-30.0
 62
     5
 63
     7
421
 16777215
 74
     1
 91
        4
 64
     7
 65
   257
 75
     1
175
     1
 42
1.0
 92
       12
 66
     7
 43
1.0
 76
     1
 77
     6
 78
     2
 67
     7
 79
     5
170
     0
171
     0
290
     0
174
     0
 93
        1
 44
0.0
173
     0
291
     1
 45
0.0
1001
ACAD
1000
AcDbSavedByObjectVersion
1070
     0
  0
ENDSEC
  0
SECTION
  2
THUMBNAILIMAGE
 90
    16364
310
28000000B40000005500000001000800000000000000000000000000000000000000000000000000FFFFFF000000FF0000FFFF0000FF0000FFFF0000FF000000FF00FF000000000080808000C0C0C0000000FF007F7FFF000000A5005252A50000007F003F3F7F0000004C0026264C000000260013132600003FFF007F9FFF
310
000029A5005267A500001F7F003F4F7F0000134C00262F4C000009260013172600007FFF007FBFFF000052A500527CA500003F7F003F5F7F0000264C0026394C0000132600131C260000BFFF007FDFFF00007CA5005291A500005F7F003F6F7F0000394C0026424C00001C26001321260000FFFF007FFFFF0000A5A50052A5
310
A500007F7F003F7F7F00004C4C00264C4C00002626001326260000FFBF007FFFDF0000A57C0052A59100007F5F003F7F6F00004C3900264C420000261C001326210000FF7F007FFFBF0000A5520052A57C00007F3F003F7F5F00004C2600264C39000026130013261C0000FF3F007FFF9F0000A5290052A56700007F1F003F
310
7F4F00004C1300264C2F00002609001326170000FF00007FFF7F0000A5000052A55200007F00003F7F3F00004C0000264C260000260000132613003FFF00009FFF7F0029A5000067A552001F7F00004F7F3F00134C00002F4C260009260000172613007FFF0000BFFF7F0052A500007CA552003F7F00005F7F3F00264C0000
310
394C2600132600001C261300BFFF0000DFFF7F007CA5000091A552005F7F00006F7F3F00394C0000424C26001C26000021261300FFFF0000FFFF7F00A5A50000A5A552007F7F00007F7F3F004C4C00004C4C26002626000026261300FFBF0000FFDF7F00A57C0000A59152007F5F00007F6F3F004C3900004C422600261C00
310
0026211300FF7F0000FFBF7F00A5520000A57C52007F3F00007F5F3F004C2600004C39260026130000261C1300FF3F0000FF9F7F00A5290000A56752007F1F00007F4F3F004C1300004C2F26002609000026171300FF000000FF7F7F00A5000000A55252007F0000007F3F3F004C0000004C2626002600000026131300FF00
310
3F00FF7F9F00A5002900A55267007F001F007F3F4F004C0013004C262F002600090026131700FF007F00FF7FBF00A5005200A5527C007F003F007F3F5F004C0026004C2639002600130026131C00FF00BF00FF7FDF00A5007C00A55291007F005F007F3F6F004C0039004C26420026001C0026132100FF00FF00FF7FFF00A5
310
00A500A552A5007F007F007F3F7F004C004C004C264C002600260026132600BF00FF00DF7FFF007C00A5009152A5005F007F006F3F7F0039004C0042264C001C002600211326007F00FF00BF7FFF005200A5007C52A5003F007F005F3F7F0026004C0039264C00130026001C1326003F00FF009F7FFF002900A5006752A500
310
1F007F004F3F7F0013004C002F264C000900260017132600000000002D2D2D005B5B5B0089898900B7B7B700B3B3B30000000000000000000000000000000000000000000000000000000000000000000000000000000000000000000000000000000101010101010101000000000000000000000000000000000000000000
310
00000000000000000000000000000000000000000000000000000000000000000000000000000000000000000000000000000000000000000000000000000000000000000000000001010101010100000000000000000000000000000000000000000000000000000000000000000000000000000000000000000000000000
310
00000000000000000000000000000000000000000000000100000100000100000100000000000000000000000000000000000000000000000000000000000000000000000000000000000000000000000000000000000000000000000000000000000000000000000000000000000000000000000000000000000000000101
310
01010101000000000000000000000000000000000000000000000000000000000000000000000000000000000000000000000000000000000000000000000000000000000000000000000000010000010000010000010000000000000000000000000000000000000000000000000000000000000000000000000000000000
310
00000000000000000000000000000000000000000000000000000000000000000000000000000000000000000000000000000001010001010100000000000000000000000000000000000000000000000000000000000000000000000000000000000000000000000000000000000000000000000000000000000000000000
310
00010000000100000100000100000000000000000000000000000000000000000000000000000000000000000000000000000000000000000000000000000000000000000000000000000000000000000000000000000000000000000000000000000000000000000101010001010000000000000000000000000000000000
310
00000000000000000000000000000000000000000000000000000000000000000000000000000000000000000000000000000000000001000000010000010000000100000000000000000000000000000000000000000000000000000000000000000000000000000000000000000000000000000000000000000000000000
310
00000000000000000000000000000000000000000000000000000000000001010101010100000000000000000000000000000000000000000000000000000000000000000000000000000000000000000000000000000000000000000000000000000000000000000000000100000001000001000000010000000000000000
310
00000000000000000000000000000000000000000000000000000000000000000000000000000000000000000000000000000000000000000000000000000000000000000000000000000000000000000000000101000001010000000000000000000000000000000000000000000000000000000000000000000000000000
310
00000000000000000000000000000000000101010000000000000000000000000100000000010001000000000100000000000000000000000000010101000000000000000000000000000000000000000000000000000000000000000000000000000000000000000000000000000000000000000000000000000000000000
310
00000000000000000101000100010001000000000000000000000000000000000000000000000000000000000000000000000000000000000000000000000000000000000001000000010000000000000000000001000001010101010101010101010101010000000000000000000100000001000000000000000000000000
310
00000000000000000000000000000000000000000000000000000000000000000000000000000000000000000000000000000000000101010101010101010100000100010101010101010101010100000000000000000000000000000000000000000000000000000000000000000000000000000000000001010100000001
310
00000000000000000001010101000000000000000000000000000001010000000000000001000000010101000000000000000000000000000000000000000000000000000000000000000000000000000000000000000000000000000000000000000000000000000101000100000100000100000100000100000100010100
310
01010001010000000000000000000000000000000000000000000000000000000000000000000000000000000001000000010000000100000001010101010000000000000000000000000000000000000000010101000000010000000100000001000000000000000000000000000000000000000000000000000000000000
310
00000000000000000000000000000000000000000000000000000000000001010000010001010000010000010000010001010001010000010001000000000000000000000000000000000000000000000000000000000000000000000000000000010100000000010000000101010100000000000000000101010101010000
310
00000000000000000000010101010000000100000000010100000000000000000000000000000000000000000000000000000000000000000000000000000000000000000000000000000000000000000000000101010101010101010100010000010000010101010101010101010100000000000000000000000000000000
310
00000000000000000000000000000000000000000000010000010000000001000001000000000000000001010100000000000001010101010101000000000000000101000001000000000100010000000000000000000000000000000000000000000000000000000000000000000000000000000000000000000000000000
310
00000000000000000001000000000000000000010101000001010100000000000000000001000000000000000000000000000000000000000000000000000000000000000000000000000001000000010000010001010000000000010101010000000000000000000000000000000001010000000000000001010100000001
310
00000001000000000000000000000000000000000000000000000000000000000000000000000000000000000000000000000000000000000000000000000100000000000000000000010001000101000000000000000000000100000000000000000000000000000000000000000000000000000000000000000000000000
310
00000100000001000101000000000001010000000000000000000000000000000000000000000001010100000000000001010001000000010000000000000000000000000000000000000000000000000000000000000000000000000000000000000000000000000000000000000000000000010000000000000000000000
310
01000101000000000000000000000001000000000000000000000000000000000000000000000000000000000000000000000000000000010000000001010000000001010000000000000000000000000000000000000000000000000000000101000000000001010000000001000000000000000000000000000000000000
310
00000000000000000000000000000000000000000000000000000000000000000000000000000000000100000000000000000000000100010100000000000000000000000100000000000000000000000000000000000000000000000000000000000000000000000000000000010000010100000000010000000000000000
310
00000000000000000000000000000000000000000000000101000000000100000001000000000000000000000000000000000000000000000000000000000000000000000000000000000000000000000000000000000000000000000000010000000000000000000000010100010000000000000000000000010000000000
310
00000000000000000000000000000000000000000000000000000000000000000000000100010000000001010000000000000000000000000000000000000000000000000000000000000000000001000000000101000100000000000000000000000000000000000000000000000000000000000000000000000000000000
310
00000000000000000000000000000000000000000100000000000000000000000101010100000000000000000000000100000000000000000000000000000000000000000000000000000000000000000000000000000000010100000000010000000000000000000000000000000000000000000000000000000000000000
310
00000000000100000000000101000000000000000000000000000000000000000000000000000000000000000000000000000000000000000000000000000000000000000000000000010000000000000000000000010000010000000000000000000000010000000000000000000000000000000000000000000000000000
310
00000000000000000000000000010100000001010000000000000000000000000000000000000000000000000000000000000000000000000000000100000000000101000000000000000000000000000000000000000000000000000000000000000000000000000000000000000000000000000000000000000000000001
310
00000000000000000000000101000100000000000000000000000100000000000000000000000000000000000000000000000000000000000000000000000000000001000000010000000000000000000000000000000000000000000000000000000000000000000000000000000000000101000000000100000000000000
310
00000000000000000000000000000000000000000000000000000000000000000000000000000000000000000000000000000000010000000000000000000000010001010000000000000000000000010000000000000000000000000000000000000000000000000000000000000000000000000000000100000100000000
310
00000000000000000000000000000000000000000000000000000000000000000000000000000000000100000000010000000000000000000000000000000000000000000000000000000000000000000000000000000000000000000000000000000000000000000001000000000000000000000001000001000000000000
310
00000000000100000000000000000000000000000000000000000000000000000000000000000000000000000100000001000000000000000000000000000000000000000000000000000000000000000000000000000000000000000000000100000001010000000000000000000000000000000000000000000000000000
310
00000000000000000000000000000000000000000000000000000000000000010000000000000000000001000101010100000000000000000000010000000000000000000000000000000000000000000000000000000000000000000000000001000000010000000000000000000000000000000000000000000000000000
310
00000000000000000000000000000000000000000000010000000100000000000000000000000000000000000000000000000000000000000000000000000000000000000000000000000000000000000000000001000000000000000000000100000100010000000000000000000001000000000000000000000000000000
310
00000000000000000000000000000000000000000001000000010000000000000000000000010101010101010101010101010101010101010101010101010101010000000000000000000000010000010100000000000000000000000000000000000000000000000000000000000000000000000000000000000000000000
310
00000000000000000000010000000000000000010100010000010001010000000000000000010000000000000000000000000000000000000000000000000000000000000000000000010100000001000000000000000000010100000000000000000000000000000000000000000000000000000000010100000000000000
310
00000100000001010000000000000000000000000000000000000000000000000000000000000000000000000000000000000000000000000000000000000001010101010101010100010000010100010000010101010101010001000000000000000000000000000000000000000000000000000000000001010101010101
310
00000001000000000000000000010000000000000000000000000000000000000000000000000000000000000000010000000000000000000100000101010101010101000000000000000000000000000000000000000000000000000000000000000000000000000000000000000000000000000101010100010100010000
310
01000001000001010001000001000001010000000000000000000000000000000000000000000000000000000101000000000001000000010000000000000000000100000000000000000000000000000000000000000000000000000000000000000000010000000000000000010000000101000000000001010000000000
310
00000000000000000000000000000000000000000000000000000000000000000000000000000000000001010001010001000001000001000001000001000001000001000001000000000000000000000000000000000000000000000000000000010101000000000100000001000000000000000000010000000000000000
310
00000000000000000000000000000000000000000000000000000100000000000000000001000001010000000001010100000000000000000000000000000000000000000000000000000000000000000000000000000000000000000000000101010001000001000001000001010001000001000001000001000100000000
310
00000000000000000000000000000000000000000000010000000101010100000001000000000000000000010000000000000000000000010101010101010101010101010100000000000000000000000100000000000000000100000001010101010000000100000000000000000000000000000000000000000000000000
310
00000000000000000000000000000000000000000001010101010101010101010101010101010101010101010101010101000000000000000000000000000000000000000000000000000001000000000001010000000100000000000000000001000000000001010101010101000000000000000000000000010101010101
310
01000000000001000000000000000000010000010101000000000001000000000000000000000000000000000000000000000000000000000000000000000000000000000000000000000101010101010101010101010101010101010101010101010101010100000000000000000000000000000000000000000000000000
310
00010000000000010100000100000000000000000000010000000000010000000000000000000000000000000000000000000000000100000000000100000000000000000001000000010100000000000100000000000000000000000000000000000000000000000000000000000000000000000000000000000000000000
310
01000000000000000000000000000000000000000000000000000001000000000000000000000000000000000000000000000000000101010000000001010000010000000000000000000001000000000001000000000000000000000000000000000000000000000000010000000000010000000000000000000001000001
310
01000000000101010000000000000000000000000000000000000000000000000000000000000000000000000000000000000000000100000000000000000000000000000000000000000000000000000100000000000000000000000000000000000000000000000000010000010101010100000001000000000000000000
310
00010000000000010000000000000000000000000000000000000000000000000100000000000100000000000000000000010000010101010101000001000000000000000000000000000000000000000000000000000000000000000000000000000000000000000000010000000000000000000000000000000000000000
310
00000000000001000000000000000000000000000000000000000000000000000001000000000001000001000000000000000000000001000000000001000000000000000000000000000000000000000000000000010000000000010000000000000000000001000000010000000000010000000000000000000000000000
310
00000000000000000000000000000000000000000000000000000000000000000100000000000000000000000000000000000000000000000000000100000000000000000000000000000000000000000000000000000001010000000100000100000000000000000000000100000000000100000000000000000000000000
310
00000000000000000000000100000000000100000000000000000000000100000100000001010000000000000000000000000000000000000000000000000000000000000000000000000000000000000000000000010000000000000000000000000000000000000000000000000000010000000000000000000000000000
310
00000000000000000000000000000001000001000001000000000000000000000001000000000101000000000000000000000000000000000000000000000000010100000000010000000000000000000000010000010000010000000000000000000000000000000000000000000000000000000000000000000000000000
310
00000000000000000000000100000000000000000000000000000000000000000000000000000100000000000000000000000000000000000000000000000000000000000001010000000100000000000000000000000100000000010000000000000000000000000000000000000000000000000000010000000001000000
310
00000000000000000100000101010000000000000000000000000000000000000000000000000000000000000000000000000000000000000000000000000000010000000000000000000000000000000000000000000000000000010000000000000000000000000000000000000000000000000000000000000101000001
310
00000000000000000000000001000000000100000000000000000000000000000000000000000000000000000100000000010000000000000000000000010000010100000000000000000000000000000000000000000000000000000000000000000000000000000000000000000000000000000001000000000000000000
310
00000000000000000000000000000000000100000000000000000000000000000000000000000000000000000000000000010000010000000000000000000000000100000000010000000000000000000000000000000000000000000000000000010000000001000000000000000000000001000001010000000000000000
310
00000000000000000000000000000000000000000000000000000000000000000000000000000000000000010000000000000000000000000000000000000000000000000000010000000000000000000000000000000000000000000000000000000000000001000001000000000000000000000000010000000001000000
310
00000000000000000000000000000000000000000000000100000000010000000000000000000000000100000100000000000000000000000000000000000000000000000000000000000000000000000000000000000000000000000000000001000000000000000000000000000000000000000000000000000001000000
310
00000000000000000000000000000000000000000000000000000000010000010000000000000000000000000100000000010000000000000000000000000000000000000000000000000000010000000001000000000000000000000000010000010000000000000000000000000000000000000000000000000000000000
310
00000000000000000000000000000000000000000000010000000000000000000000000000000000000000000000000000010000000000000000000000000000000000000000000000000000000000000001000001000000000000000000000000010000000001000000000000000000000000000000000000000000000000
310
00000100000000010000000000000000000000000100000100000000000000000000000000000000000000000000000000000000000000000000000000000000000000000000000000000001000000000000000000000000000000000000000000000000000001000000000000000000000000000000000000000000000000
310
00000000000000010000010000000000000000000000000100000000010000000000000000000000000100000000000000000000000000010000000001000000000000000000000001000001000000000000000000000000000000000000000000000000000000000000000000000000000000000000000000000000000000
310
00010000000000000000000000000000000000000000000000000000010000000000000000000000000000000000000000000000000000000000000001000001000000000000000000000000010000000001000000000000000000000000000000000000000000000000000001000000000100000000000000000000010000
310
01000000000000000000000000000000000000000000000000000000000000000000000000000000000000000000000000000000000001000000000000000000000000000000000000000000000000000001000000000000000000000000000000000000000000000000000000000000000100000001000000000000000000
310
00000100000000010000000000000000000000000000000000000000000000000000010000000001000000000000000000010000010000000000000000000000000000000000000000000000000000000000000000000000000000000000000000000000000000000000000100000000000000000000000000000000000000
310
00000000000000010000000000000000000000000000000000000000000000000000000000000001000000010000000000000000000000010000000001000000000000000000000000000000000000000000000000000001000000000100000000000000000100000100000001000000000000000000000000000000000000
310
00000000000000000000000000000000000000000000000000000000000000000001000000000000000000000000000000000000000000000000000001000000000000000000000000000000000000000000000000000000000000010100000001000000000000000000000001000000000100000000000000000000000000
310
00000000000000000000000000010000000001000000000000000100000100000000010000000000000000000000000000000000000000000000000000000000000000000000000000000000000000000000000000000100000000000000000000000000000000000000000000000000000100000000000000000000000000
310
00000000000000000000000000000000000101000000010000000000000000000000010000000001000000000000000000000000000000000000000000000000000001000000000100000000000001000001000000000000010000000000000000000000000000000000000000000000000000000000000000000000000000
310
00000000000000000000000001000000000000000000000000000000000000000000000000000001000000000000000000000000000000000000000000000000000000000001000100000001000000000000000000000001000000000101000000000000000000000000000000000000000000000000010100000000010000
310
00000001000001000000000000000001000000000000000000000000000000000000000000000000000000000000000000000000000000000000000000000000000100000000000000000000000000000000000000000000000000000100000000000000000000000000000000000000000000000000000001010000010000
310
00010000000000000000000000010000000000010000000000000000000000000000000000000000000000000100000000000100000000010000010000000000000000000001010000000000000000000000000000000000000000000000000000000000000000000000000000000000000000000000010000000000000000
310
00000000000000000000000000000000000001000000000000000000000000000000000000000000000000000001000000000100000000010000000000000000000001000000000001000000000000000000000000000000000000000000000000010000000000010000000100000100000000000000000000000000010000
310
00000000000000000000000000000000000000000000000000000000000000000000000000000000000000000100000000000000000000000000000000000000000000000000000100000000000000000000000000000000000000000000000000010000000101000100000001000000000000000000000100000000000100
310
00000000000000000000000000000000000000000000000100000000000100000100000100000000000000000000010100000001000000000000000000000000000000000000000000000000000000000000000000000000000000000000000000010000000000000000000000000000000000000000000000000000010000
310
00000000000000000000000000000000000000000000000101010100000101000000000100000000000000000001000000000001000000000000000000000000000000000000000000000000010000000000010001000001000000000000000000010100000101010100000000000000000000000000000000000000000000
310
00000000000000000000000000000000000000000000000100000000000000000000000000000000000000000000000000000100000000000000000000000000000000000000000000000000000100000000000101000000010000000000000000000100000000000100000000000000000000000000000000000000000000
310
00000100000000000101000001000000000000000000000100000000000100000000000000000000000000000000000000000000000000000000000000000000000000000000000000000000010000000000000000000000000000000000000000000000000000010000000000000000000000000000000000000000000000
310
00000001000000000001010000000100000000000000000001000000000001010101010101000000000000000000000000010101010101010000000000010000010000000000000000000000010000000000010000000000000000000000000000000000000000000000000000000000000000000000000000000000000000
310
00000101010101010101010101010101010101010101010101010101010100000000000000000000000000000000000000000000000000000100000000010100010000000100000000000000000100000000000000000000000101010101010101010101010101000000000000000000000101000100000000000000000000
310
00000101000000000100000000000000000000000000000000000000000000000000000000000000000000000000000000000000000000010101010101010101010101010101010101010101010101010101010000000000000000000000000000000000000000000000000000000101010100000001000000010000000000
310
00000000010000000000000000000000000000000000000000000000000000000000000000000101000100000000000000000000000000000001010101000000000000000000000000000000000000000000000000000000000000000000000000000000000000000000000001010001010001010001010001010001010001
310
01000100000100000100000000000000000000000000000000000000000000000000000001000000000000000100000001000000000000000001000000000000000000000000000000000000000000000000000000000000000001000101000000000000000000000000000000000000000100000000000000000000000000
310
00000000000000000000000000000000000000000000000000000000000000000000010101000101000101000101000101000101000100000100000101010000000000000000000000000000000000000000000000000000000001010101010101010000000100000000000000000001000000000000000000000000000000
310
00000000000000000000000000000001000101000000000000000000000000000101010101010100000000000000000000000000000000000000000000000000000000000000000000000000000000000000000000000001000101000101000101000101000101000101000100000101000101000000000000000000000000
310
00000000000000000000000000000000000000000000000101000000010000000000000000000101000000000000000000000000000000000000000000000000000000010101010000000000000000000000000001000000000000000000000000000000000000000000000000000000000000000000000000000000000000
310
00000000000000000000000000010101010101010101010100010100010100010101010101010101010000000000000000000000000000000000000000000000000000000000000000000000000100000000010000000000000000000001010101010101010101010101010101010101010101010101010101000100000000
310
00000000000000000000000000000000000000000000000000000000000000000000000000000000000000000000000000000000000000000000000000000000000001000000000000000000010100010100010100000000000000000001000000000000000000000000000000000000000000000000000000000000000000
310
00000000010000000001000000000000000000000000000000000000000000000000000000000000000000000100000100000000000000000000000000000000000000000000000000000000000000000000000000000000000000000000000000000000000000000000000000000000000000000000000100000000000000
310
00000001010001010100000000000000000000010000000000000000000000000000000000000000000000000000000000000000000000000000010000000100000000000000000000000000000000000000000000000000000000000000000001000001000000000000000000000000000000000000000000000000000000
310
00000000000000000000000000000000000000000000000000000000000000000000000000000000000000000001000000000000000000000001010001010000000000000000000001000000000000000000000000000000000000000000000000000000000000000000000000000000010000000100000000000000000000
310
00000000000000000000000000000000000000000001000001000000000000000000000000000000000000000000000000000000000000000000000000000000000000000000000000000000000000000000000000000000000000000000000000000100000000000000000000000101010100000000000000000000000100
310
00000000000000000000000000000000000000000000000000000000000000000000000000000001000000010000000000000000000000000000000000000000000000000000000000010000010000000000000000000000000000000000000000000000000000000000000000000000000000000000000000000000000000
310
00000000000000000000000000000000000000000000000001000000000000000000000001000101000000000000000000000001000000000000000000000000000000000000000000000000000000000000000000000000000000010100000000010000000000000000000000000000000000000000000000000000000100
310
00010000000000000000000000000000000100000000000000000000000000000000000000000000000000000000000000000000000000000000000000000000000000000000000000000000000100000000000000000000000101000100000000000000000000000100000000000000000000000000000000000000000000
310
00000000000000000000000000000000000001010000000001000000000000000000000000000000000000000000000000000100000100000000000000000000000000000001000000000000000000000000000000000000000000000000000000000000000000000000000000000000000000000000000000000000000000
310
00000001000000000000000000000001010101000000000000000000000001000000000000000000000000000000000000000000000000000000000000000000000000000000000100010000000001010000000000000000000000000000000000000000000001000001000000000000000000000000000000000100000000
310
00000000000000000000000000000000000000000000000000000000000000000000000000000000000000000000000000000000000000000100000000000000000000000100010100000000000000000000000100000000000000000000000000000000000000000000000000000000000000000000000000000000010000
310
01000000000001010000000000000000000000000000000000000001000001000000000000000000000000000000000001000000000000000000000000000000000000000000000000000000000000000000000000000000000000000000000000000000000000000000000000010000000000000000000000010100010000
310
00000000000000000001000000000000000000000000000000000000000000000000000000000000000000000000000000010000000001000000000000010100000000000000000000000000000000010000010000000000000000000000000000010000000001000000000000000000000000000000000000000000000000
310
00000000000000000000000000000000000000000000000000000000000000000000000100000000000000000000000101010100000000000000000000000100000000000000000000000000000000000000000000000000000000000000000000000000000001000000010001010000000000000101000000000000000000
310
00000000010000010000000000000000000000000000010001000000010000000000000000000000000000000000000000000000000000000000000000000000000000000000000000000000000000000000000000000000010000000000000000000000010001010000000000000000000000010000000000000000000000
310
00000000000000000000000000000000000000000000000000000001000000010000010001010000000000000101010000000000000000000100000100000000000000000000000000000100000001000000010000000000000000000000000000000000000000000000000000000000000000000000000000000000000000
310
00000000000000000000000000000100000000000000000000010101000101000000000000000000000100000000000000000000000000000000000000000000000000000000000000000000000000000100000100000000010000010000000000000000010101010100000001000001000000000000000000000000000000
310
01000000000100010000000000000000000000000000000000000000000000000000000000000000000000000000000000000000000000000000000000000000000000010000000000000000000101000101000101000000000000000000010000000000000000000000000000000000000000000000000000000000000000
310
00000000000000010100000000010000000001010000000000000000000000010101000001000000000000000000000000010000000001000000000101000000000000000000000000000000000000000000000000000000000000000000000000000000000000000000000000000000000000000000000001000101010101
310
01010100010100010100010101010101010101000100000000000000000000000000000000000000000000000000000000000000000000000000000000010000000100000001010001010100000000000000000000000000010000000000000000000000010100010100000001000000010000000000000000000000000000
310
00000000000000000000000000000000000000000000000000000000000000000000000000000000000000000000010100000100000100010100010100010100010100010100010101010000000000000000000000000000000000000000000000000000000000000000000000000000000000010101000000010000000000
310
00010101010101000000000000010000000000000000000000000000000000010000000101010000000000000000000000000000000000000000000000000000000000000000000000000000000000000000000000000000000000000000000000000001000100000100010100010100010100010100010100010100010101
310
00000000000000000000000000000000000000000000000000000000000000000000000000000000000000010000000100000000000000000000010001010101010101000000000000010000000000000000000001000000010000000000000000000000000000000000000000000000000000000000000000000000000000
310
00000000000000000000000000000000000000000000000000000101010101010101010101010001010101010101010101010101000000000000000000000000000000000000000000000000000000000000000000000000000000000000000000010101000000000000000000000000010000000001000100000000010100
310
00000000000000000000000101010000000000000000000000000000000000000000000000000000000000000000000000000000000000000000000000000000000000000000000000000000000000000000000000000000010101010001010100000000000000000000000000000000000000000000000000000000000000
310
00000000000000000000000000000000000000000000000000000000000000000000000000000001000000010000010000000100000000000000000000000000000000000000000000000000000000000000000000000000000000000000000000000000000000000000000000000000000000000000000000000000000000
310
00000000000000000000000000000001010001010100000000000000000000000000000000000000000000000000000000000000000000000000000000000000000000000000000000000000000000000000000000000000000000000100000001000001000000010000000000000000000000000000000000000000000000
310
00000000000000000000000000000000000000000000000000000000000000000000000000000000000000000000000000000000000000000000000000000000000000000101000001010000000000000000000000000000000000000000000000000000000000000000000000000000000000000000000000000000000000
310
00000000000000000000000000000000000001000000010000010000010000000000000000000000000000000000000000000000000000000000000000000000000000000000000000000000000000000000000000000000000000000000000000000000000000000000000000000000000000000000000000010101000101
310
00000000000000000000000000000000000000000000000000000000000000000000000000000000000000000000000000000000000000000000000000000000000000000000000001000001000001000001000000000000000000000000000000000000000000000000000000000000000000000000000000000000000000
310
00000000000000000000000000000000000000000000000000000000000000000000000000000000000000000000000101000101010000000000000000000000000000000000000000000000000000000000000000000000000000000000000000000000000000000000000000000000000000000000000000000000000100
310
00010000010000010000000000000000000000000000000000000000000000000000000000000000000000000000000000000000000000000000000000000000000000000000000000000000000000000000000000000000000000000000000000000000010100010101000000000000000000000000000000000000000000
310
00000000000000000000000000000000000000000000000000000000000000000000000000000000000000000000000000000000010101010101010100000000000000000000000000000000000000000000000000000000000000000000000000000000000000000000000000000000000000000000000000000000000000
310
00000000000000000000000000000000000000000000000000000101010101010000000000000000000000000000000000000000000000000000000000000000000000000000000000000000000000000000000000000000000000000000000000000000000000000000000000000000000000000000000000000000000000
310
000000000000000000000000000000000000000000000000000000000000000000000000000000000000000000000000000000000000000000000000000000000000000000000000000000000000000000000000000000000000000000000000000000000000000000000000
  0
ENDSEC
  0
EOF
