999
DXF file: s70fltsmuw80.dxf
999
Pro/ENGINEER 2013050 by Parametric Technology Corporation
  0
SECTION
  2
HEADER
  9
$ACADVER
  1
AC1015
  9
$DWGCODEPAGE
  3
ANSI_1252
  9
$EXTMAX
 10
297.0
 20
210.0
 30
0.0
  9
$EXTMIN
 10
0.0
 20
-0.0
 30
0.0
  9
$LIMMIN
 10
0.0
 20
-0.0
  9
$LIMMAX
 10
297.0
 20
210.0
  9
$VIEWCTR
 10
148.5
 20
105.0
  9
$VIEWSIZE
 40
210.0
  9
$CLAYER
  8
0
  9
$LTSCALE
 40
16.335
  9
$CELTYPE
  6
BYLAYER
  9
$DIMSCALE
 40
1.0
  9
$DIMASZ
 40
3.5
  9
$DIMEXO
 40
0.0
  9
$DIMDLI
 40
11.286
  9
$DIMEXE
 40
1.5
  9
$DIMCEN
 40
2.673
  9
$DIMLFAC
 40
1.0
  9
$DIMBLK
  1
_FILLED
  9
$DIMTXT
 40
3.5
  9
$DIMTOL
 70
1
  9
$DIMLIM
 70
0
  9
$DIMTFAC
 40
1.0
  9
$DIMTP
 40
0.005
  9
$DIMTM
 40
0.005
  9
$DIMGAP
 40
0.625
  9
$DIMDSEP
 70
46
  9
$PDMODE
 70
3
  9
$PDSIZE
 40
0.3125
  9
$HANDSEED
  5
429
  9
$TILEMODE
 70
1
  9
$MEASUREMENT
 70
1
  9
$INSUNITS
 70
4
  0
ENDSEC
  0
SECTION
  2
CLASSES
  0
CLASS
  1
ACDBDICTIONARYWDFLT
  2
AcDbDictionaryWithDefault
  3
AutoCAD 2000
 90
0
280
0
281
0
  0
CLASS
  1
ACDBPLACEHOLDER
  2
AcDbPlaceHolder
  3
AutoCAD 2000
 90
0
280
0
281
0
  0
CLASS
  1
LAYOUT
  2
AcDbLayout
  3
AutoCAD 2000
 90
0
280
0
281
0
  0
ENDSEC
  0
SECTION
  2
TABLES
  0
TABLE
  2
VPORT
  5
8
100
AcDbSymbolTable
 70
2
  0
VPORT
  5
1F4
100
AcDbSymbolTableRecord
100
AcDbViewportTableRecord
  2
*ACTIVE
 70
0
 10
0.0
 20
0.0
 11
1.0
 21
1.0
 12
148.5
 22
105.0
 13
0.0
 23
0.0
 14
1.0
 24
1.0
 15
0.0
 25
0.0
 16
0.0
 26
0.0
 36
1.0
 17
0.0
 27
0.0
 37
0.0
 40
210.0
 41
1.4142857143
 42
50.0
 43
0.0
 44
0.0
 50
0.0
 51
0.0
 71
0
 72
100
 73
1
 74
1
 75
0
 76
0
 77
0
 78
0
  0
ENDTAB
  0
TABLE
  2
LTYPE
  5
5
100
AcDbSymbolTable
 70
6
  0
LTYPE
  5
14
100
AcDbSymbolTableRecord
100
AcDbLinetypeTableRecord
  2
BYBLOCK
 70
0
  3

 72
65
 73
0
 40
0.0
  0
LTYPE
  5
15
100
AcDbSymbolTableRecord
100
AcDbLinetypeTableRecord
  2
BYLAYER
 70
0
  3

 72
65
 73
0
 40
0.0
  0
LTYPE
  5
16
100
AcDbSymbolTableRecord
100
AcDbLinetypeTableRecord
  2
CONTINUOUS
 70
64
  3
Solid line
 72
65
 73
0
 40
0.0
  0
LTYPE
  5
1F5
100
AcDbSymbolTableRecord
100
AcDbLinetypeTableRecord
  2
CENTER
 70
64
  3
____ _ ____ _ ____ _ ____ _ ____ _ ____ _ ____
 72
65
 73
4
 40
0.6
 49
0.375
 74
0
 49
-0.075
 74
0
 49
0.075
 74
0
 49
-0.075
 74
0
  0
LTYPE
  5
1F6
100
AcDbSymbolTableRecord
100
AcDbLinetypeTableRecord
  2
HIDDEN
 70
64
  3
- - - - - - - - - - - - - - - - - - - -
 72
65
 73
2
 40
0.2
 49
0.1
 74
0
 49
-0.1
 74
0
  0
LTYPE
  5
1F7
100
AcDbSymbolTableRecord
100
AcDbLinetypeTableRecord
  2
PHANTOM
 70
64
  3
_____ _ _ _____ _ _ _____ _ _ _____
 72
65
 73
6
 40
0.8
 49
0.45
 74
0
 49
-0.05
 74
0
 49
0.1
 74
0
 49
-0.05
 74
0
 49
0.1
 74
0
 49
-0.05
 74
0
  0
LTYPE
  5
1F8
100
AcDbSymbolTableRecord
100
AcDbLinetypeTableRecord
  2
DOT
 70
64
  3
. . . . . . . . . . . . . . . . . . . .
 72
65
 73
2
 40
0.2
 49
0.1
 74
0
 49
-0.1
 74
0
  0
LTYPE
  5
1F9
100
AcDbSymbolTableRecord
100
AcDbLinetypeTableRecord
  2
DASHED
 70
64
  3
- - - - - - - - - - - - - - - - - - - -
 72
65
 73
2
 40
0.2
 49
0.1
 74
0
 49
-0.1
 74
0
  0
ENDTAB
  0
TABLE
  2
LAYER
  5
2
100
AcDbSymbolTable
 70
36
  0
LAYER
  5
10
100
AcDbSymbolTableRecord
100
AcDbLayerTableRecord
  2
0
 70
0
 62
7
  6
CONTINUOUS
370
-3
390
F
  0
LAYER
  5
1FA
100
AcDbSymbolTableRecord
100
AcDbLayerTableRecord
  2
DEFAULT_1
 70
0
 62
7
  6
CENTER
370
-3
390
F
  0
LAYER
  5
1FB
100
AcDbSymbolTableRecord
100
AcDbLayerTableRecord
  2
DEFAULT_2
 70
0
 62
8
  6
HIDDEN
370
-3
390
F
  0
LAYER
  5
1FC
100
AcDbSymbolTableRecord
100
AcDbLayerTableRecord
  2
DEFAULT_3
 70
0
 62
7
  6
PHANTOM
370
-3
390
F
  0
LAYER
  5
1FD
100
AcDbSymbolTableRecord
100
AcDbLayerTableRecord
  2
01___PRT_ALL_DTM_PLN
 70
0
 62
7
  6
CONTINUOUS
370
-3
390
F
  0
LAYER
  5
1FE
100
AcDbSymbolTableRecord
100
AcDbLayerTableRecord
  2
01___PRT_DEF_DTM_PLN
 70
0
 62
7
  6
CONTINUOUS
370
-3
390
F
  0
LAYER
  5
1FF
100
AcDbSymbolTableRecord
100
AcDbLayerTableRecord
  2
02___PRT_ALL_AXES
 70
0
 62
7
  6
CONTINUOUS
370
-3
390
F
  0
LAYER
  5
200
100
AcDbSymbolTableRecord
100
AcDbLayerTableRecord
  2
03___PRT_ALL_CURVES
 70
0
 62
7
  6
CONTINUOUS
370
-3
390
F
  0
LAYER
  5
201
100
AcDbSymbolTableRecord
100
AcDbLayerTableRecord
  2
04___PRT_ALL_DTM_PNT
 70
0
 62
7
  6
CONTINUOUS
370
-3
390
F
  0
LAYER
  5
202
100
AcDbSymbolTableRecord
100
AcDbLayerTableRecord
  2
05___PRT_ALL_DTM_CSYS
 70
0
 62
7
  6
CONTINUOUS
370
-3
390
F
  0
LAYER
  5
203
100
AcDbSymbolTableRecord
100
AcDbLayerTableRecord
  2
05___PRT_DEF_DTM_CSYS
 70
0
 62
7
  6
CONTINUOUS
370
-3
390
F
  0
LAYER
  5
204
100
AcDbSymbolTableRecord
100
AcDbLayerTableRecord
  2
06___PRT_ALL_SURFS
 70
0
 62
7
  6
CONTINUOUS
370
-3
390
F
  0
LAYER
  5
205
100
AcDbSymbolTableRecord
100
AcDbLayerTableRecord
  2
ALLE
 70
0
 62
7
  6
CONTINUOUS
370
-3
390
F
  0
LAYER
  5
206
100
AcDbSymbolTableRecord
100
AcDbLayerTableRecord
  2
AUSFORMSCHRAEGEN
 70
0
 62
7
  6
CONTINUOUS
370
-3
390
F
  0
LAYER
  5
207
100
AcDbSymbolTableRecord
100
AcDbLayerTableRecord
  2
BEZUGS-KOORDINATENSYSTEME
 70
0
 62
7
  6
CONTINUOUS
370
-3
390
F
  0
LAYER
  5
208
100
AcDbSymbolTableRecord
100
AcDbLayerTableRecord
  2
BEZUGSACHSEN
 70
0
 62
7
  6
CONTINUOUS
370
-3
390
F
  0
LAYER
  5
209
100
AcDbSymbolTableRecord
100
AcDbLayerTableRecord
  2
BEZUGSEBENE
 70
0
 62
7
  6
CONTINUOUS
370
-3
390
F
  0
LAYER
  5
20A
100
AcDbSymbolTableRecord
100
AcDbLayerTableRecord
  2
BEZUGSEBENEN
 70
0
 62
7
  6
CONTINUOUS
370
-3
390
F
  0
LAYER
  5
20B
100
AcDbSymbolTableRecord
100
AcDbLayerTableRecord
  2
BEZUGSEBENEN-KES
 70
0
 62
7
  6
CONTINUOUS
370
-3
390
F
  0
LAYER
  5
20C
100
AcDbSymbolTableRecord
100
AcDbLayerTableRecord
  2
FLAECHEN
 70
0
 62
7
  6
CONTINUOUS
370
-3
390
F
  0
LAYER
  5
20D
100
AcDbSymbolTableRecord
100
AcDbLayerTableRecord
  2
KURVEN
 70
0
 62
7
  6
CONTINUOUS
370
-3
390
F
  0
LAYER
  5
20E
100
AcDbSymbolTableRecord
100
AcDbLayerTableRecord
  2
NICHT_SAP_CD
 70
0
 62
7
  6
CONTINUOUS
370
-3
390
F
  0
LAYER
  5
20F
100
AcDbSymbolTableRecord
100
AcDbLayerTableRecord
  2
PARAMETER-BEMAßUNGEN
 70
0
 62
7
  6
CONTINUOUS
370
-3
390
F
  0
LAYER
  5
210
100
AcDbSymbolTableRecord
100
AcDbLayerTableRecord
  2
RUNDUNGEN
 70
0
 62
7
  6
CONTINUOUS
370
-3
390
F
  0
LAYER
  5
211
100
AcDbSymbolTableRecord
100
AcDbLayerTableRecord
  2
SAMMELFLÄCHEN
 70
0
 62
7
  6
CONTINUOUS
370
-3
390
F
  0
ENDTAB
  0
TABLE
  2
STYLE
  5
3
100
AcDbSymbolTable
 70
1
  0
STYLE
  5
11
100
AcDbSymbolTableRecord
100
AcDbTextStyleTableRecord
  2
STANDARD
 70
0
 40
0.0
 41
0.7
 50
0.0
 71
0
 42
0.2
  3
txt
  4

  0
STYLE
  5
212
100
AcDbSymbolTableRecord
100
AcDbTextStyleTableRecord
  2
TEXTSTYLE_1
 70
0
 40
0.0
 41
0.8
 50
0.0
 71
0
 42
0.2
  3
gdt
  4

  0
ENDTAB
  0
TABLE
  2
VIEW
  5
6
100
AcDbSymbolTable
 70
0
  0
ENDTAB
  0
TABLE
  2
UCS
  5
7
100
AcDbSymbolTable
 70
0
  0
ENDTAB
  0
TABLE
  2
APPID
  5
9
100
AcDbSymbolTable
 70
1
  0
APPID
  5
213
100
AcDbSymbolTableRecord
100
AcDbRegAppTableRecord
  2
ACAD
 70
0
  0
ENDTAB
  0
TABLE
  2
BLOCK_RECORD
  5
1
100
AcDbSymbolTable
 70
0
  0
BLOCK_RECORD
  5
214
100
AcDbSymbolTableRecord
100
AcDbBlockTableRecord
  2
*Model_Space
  0
BLOCK_RECORD
  5
215
100
AcDbSymbolTableRecord
100
AcDbBlockTableRecord
  2
*Paper_Space
  0
ENDTAB
  0
TABLE
  2
DIMSTYLE
  5
A
100
AcDbSymbolTable
 70
1
100
AcDbDimStyleTable
 71
0
  0
DIMSTYLE
105
216
100
AcDbSymbolTableRecord
100
AcDbDimStyleTableRecord
  2
STANDARD
 70
0
  3

  4

 40
1.0
 41
3.5
 42
0.0
 43
0.38
 44
1.5
 45
0.0
 46
0.0
 47
0.005
 48
0.005
140
3.5
141
0.09
142
0.0
143
25.4
144
1.0
145
0.0
146
1.0
147
0.625
 71
1.0
 72
0.0
 73
0
 74
0
 75
0
 76
0
 77
1
 78
8
170
0
171
2
172
0
173
0
174
0
175
0
176
0
177
0
178
5
270
2
271
3
272
3
273
2
274
2
275
0
280
0
281
0
282
0
283
1
284
8
285
0
286
0
287
3
288
0
340
11
278
46
  0
ENDTAB
  0
ENDSEC
  0
SECTION
  2
BLOCKS
  0
BLOCK
  5
20
100
AcDbEntity
  8
0
100
AcDbBlockBegin
  2
*Model_Space
 70
0
 10
0.0
 20
0.0
 30
0.0
  3
*Model_Space
  1

  0
ENDBLK
  5
21
100
AcDbEntity
  8
0
100
AcDbBlockEnd
  0
BLOCK
  5
1C
100
AcDbEntity
  8
0
100
AcDbBlockBegin
  2
*Paper_Space
 70
0
 10
0.0
 20
0.0
 30
0.0
  3
*Paper_Space
  1

  0
ENDBLK
  5
1D
100
AcDbEntity
  8
0
100
AcDbBlockEnd
  0
ENDSEC
  0
SECTION
  2
ENTITIES
  0
LINE
  5
217
100
AcDbEntity
  8
0
100
AcDbLine
 62
7
  6
CONTINUOUS
 10
0.0
 20
-0.0
 11
0.0
 21
210.0
  0
LINE
  5
218
100
AcDbEntity
  8
0
100
AcDbLine
 62
7
  6
CONTINUOUS
 10
0.0
 20
-0.0
 11
297.0
 21
-0.0
  0
LINE
  5
219
100
AcDbEntity
  8
0
100
AcDbLine
 62
7
  6
CONTINUOUS
 10
0.0
 20
210.0
 11
297.0
 21
210.0
  0
LINE
  5
21A
100
AcDbEntity
  8
0
100
AcDbLine
 62
7
  6
CONTINUOUS
 10
297.0
 20
-0.0
 11
297.0
 21
210.0
  0
LWPOLYLINE
  5
21B
100
AcDbEntity
  8
RUNDUNGEN
100
AcDbPolyline
 62
7
  6
CONTINUOUS
 90
26
 70
0
 10
55.2852477075
 20
81.7295097366
 10
55.2911012152
 20
81.6589383307
 10
55.2969925884
 20
81.5919632084
 10
55.3029245228
 20
81.5285090655
 10
55.3089030908
 20
81.4684779221
 10
55.3149365862
 20
81.4117681149
 10
55.3210332337
 20
81.3582975583
 10
55.3272036348
 20
81.3079804952
 10
55.333471067
 20
81.2606551973
 10
55.3398590529
 20
81.2161977164
 10
55.346422609
 20
81.1743202238
 10
55.3532076106
 20
81.1348649415
 10
55.3603618456
 20
81.0972108924
 10
55.3680283209
 20
81.0609965349
 10
55.3765248571
 20
81.0253455921
 10
55.3862020519
 20
80.9897222229
 10
55.3978191539
 20
80.9527637722
 10
55.4122032974
 20
80.9138790276
 10
55.4314547086
 20
80.8705660631
 10
55.4586789319
 20
80.8209851285
 10
55.4970283608
 20
80.7661366383
 10
55.5521390785
 20
80.7065844451
 10
55.6238980646
 20
80.6508267055
 10
55.7108198185
 20
80.6057975447
 10
55.8097064372
 20
80.5771540302
 10
55.90166395
 20
80.5688026679
  0
LINE
  5
21C
100
AcDbEntity
  8
RUNDUNGEN
100
AcDbLine
 62
7
  6
CONTINUOUS
 10
55.2736471283
 20
81.8817551282
 11
55.2852477075
 21
81.7295097366
  0
LINE
  5
21D
100
AcDbEntity
  8
RUNDUNGEN
100
AcDbLine
 62
7
  6
CONTINUOUS
 10
55.2621912224
 20
82.0492098516
 11
55.2736471283
 21
81.8817551282
  0
LINE
  5
21E
100
AcDbEntity
  8
RUNDUNGEN
100
AcDbLine
 62
7
  6
CONTINUOUS
 10
55.2508918196
 20
82.2322177333
 11
55.2621912224
 21
82.0492098516
  0
LINE
  5
21F
100
AcDbEntity
  8
RUNDUNGEN
100
AcDbLine
 62
7
  6
CONTINUOUS
 10
55.2397675034
 20
82.4310351212
 11
55.2508918196
 21
82.2322177333
  0
LINE
  5
220
100
AcDbEntity
  8
RUNDUNGEN
100
AcDbLine
 62
7
  6
CONTINUOUS
 10
55.2288431443
 20
82.6458552173
 11
55.2397675034
 21
82.4310351212
  0
LINE
  5
221
100
AcDbEntity
  8
RUNDUNGEN
100
AcDbLine
 62
7
  6
CONTINUOUS
 10
55.2128970043
 20
82.9983769239
 11
55.2288431443
 21
82.6458552173
  0
LINE
  5
222
100
AcDbEntity
  8
RUNDUNGEN
100
AcDbLine
 62
7
  6
CONTINUOUS
 10
55.1975795472
 20
83.3873525036
 11
55.2128970043
 21
82.9983769239
  0
LINE
  5
223
100
AcDbEntity
  8
RUNDUNGEN
100
AcDbLine
 62
7
  6
CONTINUOUS
 10
55.1830057582
 20
83.8123696334
 11
55.1975795472
 21
83.3873525036
  0
LINE
  5
224
100
AcDbEntity
  8
RUNDUNGEN
100
AcDbLine
 62
7
  6
CONTINUOUS
 10
55.1649436676
 20
84.4337958006
 11
55.1830057582
 21
83.8123696334
  0
LINE
  5
225
100
AcDbEntity
  8
RUNDUNGEN
100
AcDbLine
 62
7
  6
CONTINUOUS
 10
55.1487250878
 20
85.1151835988
 11
55.1649436676
 21
84.4337958006
  0
LINE
  5
226
100
AcDbEntity
  8
RUNDUNGEN
100
AcDbLine
 62
7
  6
CONTINUOUS
 10
55.1346367917
 20
85.8522835368
 11
55.1487250878
 21
85.1151835988
  0
LINE
  5
227
100
AcDbEntity
  8
RUNDUNGEN
100
AcDbLine
 62
7
  6
CONTINUOUS
 10
55.1204602049
 20
86.8440869649
 11
55.1346367917
 21
85.8522835368
  0
LINE
  5
228
100
AcDbEntity
  8
RUNDUNGEN
100
AcDbLine
 62
7
  6
CONTINUOUS
 10
55.1105786496
 20
87.902414558
 11
55.1204602049
 21
86.8440869649
  0
LINE
  5
229
100
AcDbEntity
  8
RUNDUNGEN
100
AcDbLine
 62
7
  6
CONTINUOUS
 10
55.1054724552
 20
89.0118262554
 11
55.1105786496
 21
87.902414558
  0
LINE
  5
22A
100
AcDbEntity
  8
RUNDUNGEN
100
AcDbLine
 62
7
  6
CONTINUOUS
 10
54.9370658142
 20
124.3009757269
 11
54.9370658142
 21
94.5261713424
  0
LINE
  5
22B
100
AcDbEntity
  8
RUNDUNGEN
100
AcDbLine
 62
7
  6
CONTINUOUS
 10
55.1048309711
 20
93.9636388138
 11
55.1054724552
 21
89.0118262554
  0
LINE
  5
22C
100
AcDbEntity
  8
RUNDUNGEN
100
AcDbLine
 62
7
  6
CONTINUOUS
 10
57.9370658142
 20
84.4188026033
 11
57.9370658142
 21
96.2188026033
  0
LINE
  5
22D
100
AcDbEntity
  8
RUNDUNGEN
100
AcDbLine
 62
7
  6
CONTINUOUS
 10
61.9370658142
 20
96.2188026033
 11
61.9370658142
 21
84.4188026033
  0
LINE
  5
22E
100
AcDbEntity
  8
RUNDUNGEN
100
AcDbLine
 62
7
  6
CONTINUOUS
 10
64.7667515735
 20
88.4568336998
 11
64.7693006573
 21
93.838861166
  0
LINE
  5
22F
100
AcDbEntity
  8
RUNDUNGEN
100
AcDbLine
 62
7
  6
CONTINUOUS
 10
65.1073785351
 20
130.6805150992
 11
65.1048309711
 21
125.3002460944
  0
LINE
  5
230
100
AcDbEntity
  8
RUNDUNGEN
100
AcDbLine
 62
7
  6
CONTINUOUS
 10
65.1154542002
 20
131.8248594061
 11
65.1073785351
 21
130.6805150992
  0
LINE
  5
231
100
AcDbEntity
  8
RUNDUNGEN
100
AcDbLine
 62
7
  6
CONTINUOUS
 10
64.7586732465
 20
87.3123021536
 11
64.7667515735
 21
88.4568336998
  0
LINE
  5
232
100
AcDbEntity
  8
RUNDUNGEN
100
AcDbLine
 62
7
  6
CONTINUOUS
 10
65.1285222859
 20
132.9001430295
 11
65.1154542002
 21
131.8248594061
  0
LINE
  5
233
100
AcDbEntity
  8
RUNDUNGEN
100
AcDbLine
 62
7
  6
CONTINUOUS
 10
64.7456011866
 20
86.2369118872
 11
64.7586732465
 21
87.3123021536
  0
LINE
  5
234
100
AcDbEntity
  8
RUNDUNGEN
100
AcDbLine
 62
7
  6
CONTINUOUS
 10
65.1421687181
 20
133.7006423172
 11
65.1285222859
 21
132.9001430295
  0
LINE
  5
235
100
AcDbEntity
  8
RUNDUNGEN
100
AcDbLine
 62
7
  6
CONTINUOUS
 10
64.7319513898
 20
85.4363644973
 11
64.7456011866
 21
86.2369118872
  0
LINE
  5
236
100
AcDbEntity
  8
RUNDUNGEN
100
AcDbLine
 62
7
  6
CONTINUOUS
 10
65.1582963886
 20
134.4414428744
 11
65.1421687181
 21
133.7006423172
  0
LWPOLYLINE
  5
237
100
AcDbEntity
  8
RUNDUNGEN
100
AcDbPolyline
 62
7
  6
CONTINUOUS
 90
3
 70
0
 10
64.7114370642
 20
84.5202396984
 10
64.7158193998
 20
84.6955264738
 10
64.7319513898
 20
85.4363644973
  0
LINE
  5
238
100
AcDbEntity
  8
RUNDUNGEN
100
AcDbLine
 62
7
  6
CONTINUOUS
 10
65.1765795521
 20
135.1176322863
 11
65.1582963886
 21
134.4414428744
  0
LINE
  5
239
100
AcDbEntity
  8
RUNDUNGEN
100
AcDbLine
 62
7
  6
CONTINUOUS
 10
65.1915045146
 20
135.5802361512
 11
65.1765795521
 21
135.1176322863
  0
LINE
  5
23A
100
AcDbEntity
  8
RUNDUNGEN
100
AcDbLine
 62
7
  6
CONTINUOUS
 10
65.2073133153
 20
136.0036143083
 11
65.1915045146
 21
135.5802361512
  0
LINE
  5
23B
100
AcDbEntity
  8
RUNDUNGEN
100
AcDbLine
 62
7
  6
CONTINUOUS
 10
65.2238774415
 20
136.3871735592
 11
65.2073133153
 21
136.0036143083
  0
LINE
  5
23C
100
AcDbEntity
  8
RUNDUNGEN
100
AcDbLine
 62
7
  6
CONTINUOUS
 10
65.2352780824
 20
136.6207348297
 11
65.2238774415
 21
136.3871735592
  0
LINE
  5
23D
100
AcDbEntity
  8
RUNDUNGEN
100
AcDbLine
 62
7
  6
CONTINUOUS
 10
65.2469255975
 20
136.8367090928
 11
65.2352780824
 21
136.6207348297
  0
LINE
  5
23E
100
AcDbEntity
  8
RUNDUNGEN
100
AcDbLine
 62
7
  6
CONTINUOUS
 10
65.2587919326
 20
137.0352717606
 11
65.2469255975
 21
136.8367090928
  0
LINE
  5
23F
100
AcDbEntity
  8
RUNDUNGEN
100
AcDbLine
 62
7
  6
CONTINUOUS
 10
65.2708559384
 20
137.2166610682
 11
65.2587919326
 21
137.0352717606
  0
LWPOLYLINE
  5
240
100
AcDbEntity
  8
RUNDUNGEN
100
AcDbPolyline
 62
7
  6
CONTINUOUS
 90
28
 70
0
 10
123.9724895821
 20
80.5688039735
 10
124.0673101934
 20
80.5776896825
 10
124.1683547821
 20
80.6078544655
 10
124.2569177839
 20
80.6552070898
 10
124.3292301085
 20
80.7134148858
 10
124.3841752721
 20
80.7752327506
 10
124.4219608589
 20
80.8318472065
 10
124.4485473923
 20
80.8828914584
 10
124.4672737251
 20
80.9275583573
 10
124.4812725836
 20
80.967848499
 10
124.4925942613
 20
81.0062846465
 10
124.5021190467
 20
81.0437300814
 10
124.5106250416
 20
81.0818673591
 10
124.5184125317
 20
81.1212075665
 10
124.5257852769
 20
81.1627541471
 10
124.5328463026
 20
81.206779022
 10
124.5397107449
 20
81.2538035446
 10
124.5464192543
 20
81.3039912983
 10
124.5530155245
 20
81.3575884113
 10
124.5595166881
 20
81.4146878968
 10
124.5659361806
 20
81.4753773346
 10
124.5722877379
 20
81.5397754206
 10
124.5785805471
 20
81.6079843897
 10
124.5848209035
 20
81.680098232
 10
124.5910140652
 20
81.7562192721
 10
124.5971611441
 20
81.8364155751
 10
124.6032633236
 20
81.9207674826
 10
124.615327977
 20
82.1021506533
  0
LWPOLYLINE
  5
241
100
AcDbEntity
  8
RUNDUNGEN
100
AcDbPolyline
 62
7
  6
CONTINUOUS
 90
28
 70
0
 10
103.9724895821
 20
80.5688039735
 10
104.0673101934
 20
80.5776896825
 10
104.1683547821
 20
80.6078544655
 10
104.2569177839
 20
80.6552070898
 10
104.3292301085
 20
80.7134148858
 10
104.3841752721
 20
80.7752327506
 10
104.4219608589
 20
80.8318472065
 10
104.4485473923
 20
80.8828914584
 10
104.4672737251
 20
80.9275583573
 10
104.4812725836
 20
80.967848499
 10
104.4925942613
 20
81.0062846465
 10
104.5021190467
 20
81.0437300814
 10
104.5106250416
 20
81.0818673591
 10
104.5184125317
 20
81.1212075665
 10
104.5257852769
 20
81.1627541471
 10
104.5328463026
 20
81.206779022
 10
104.5397107449
 20
81.2538035446
 10
104.5464192543
 20
81.3039912983
 10
104.5530155245
 20
81.3575884113
 10
104.5595166881
 20
81.4146878968
 10
104.5659361806
 20
81.4753773346
 10
104.5722877379
 20
81.5397754206
 10
104.5785805471
 20
81.6079843897
 10
104.5848209035
 20
81.680098232
 10
104.5910140652
 20
81.7562192721
 10
104.5971611441
 20
81.8364155751
 10
104.6032633236
 20
81.9207674826
 10
104.615327977
 20
82.1021506533
  0
LINE
  5
242
100
AcDbEntity
  8
02___PRT_ALL_AXES
100
AcDbLine
 62
7
  6
CONTINUOUS
 10
123.972474444
 20
80.5688026033
 11
115.9016575613
 21
80.5688026033
  0
LINE
  5
243
100
AcDbEntity
  8
02___PRT_ALL_AXES
100
AcDbLine
 62
7
  6
CONTINUOUS
 10
103.972474444
 20
80.5688026033
 11
95.9016575613
 21
80.5688026033
  0
LINE
  5
244
100
AcDbEntity
  8
0
100
AcDbLine
 62
7
  6
CONTINUOUS
 10
83.972474444
 20
80.5688026033
 11
75.9016575613
 21
80.5688026033
  0
LINE
  5
245
100
AcDbEntity
  8
0
100
AcDbLine
 62
7
  6
CONTINUOUS
 10
63.9724745217
 20
80.5688026033
 11
55.9016579105
 21
80.5688026033
  0
LINE
  5
246
100
AcDbEntity
  8
RUNDUNGEN
100
AcDbLine
 62
7
  6
CONTINUOUS
 10
64.6926624912
 20
83.8607868967
 11
64.7114370642
 21
84.5202396984
  0
LINE
  5
247
100
AcDbEntity
  8
RUNDUNGEN
100
AcDbLine
 62
7
  6
CONTINUOUS
 10
64.6774242455
 20
83.4111734415
 11
64.6926624912
 21
83.8607868967
  0
LINE
  5
248
100
AcDbEntity
  8
RUNDUNGEN
100
AcDbLine
 62
7
  6
CONTINUOUS
 10
64.6613463959
 20
83.0010261359
 11
64.6774242455
 21
83.4111734415
  0
LINE
  5
249
100
AcDbEntity
  8
RUNDUNGEN
100
AcDbLine
 62
7
  6
CONTINUOUS
 10
64.6502237032
 20
82.7497664896
 11
64.6613463959
 21
83.0010261359
  0
LINE
  5
24A
100
AcDbEntity
  8
RUNDUNGEN
100
AcDbLine
 62
7
  6
CONTINUOUS
 10
64.6388205978
 20
82.5162258711
 11
64.6502237032
 21
82.7497664896
  0
LINE
  5
24B
100
AcDbEntity
  8
RUNDUNGEN
100
AcDbLine
 62
7
  6
CONTINUOUS
 10
64.6271705853
 20
82.3002793717
 11
64.6388205978
 21
82.5162258711
  0
LINE
  5
24C
100
AcDbEntity
  8
RUNDUNGEN
100
AcDbLine
 62
7
  6
CONTINUOUS
 10
64.6153019316
 20
82.1017450274
 11
64.6271705853
 21
82.3002793717
  0
LWPOLYLINE
  5
24D
100
AcDbEntity
  8
RUNDUNGEN
100
AcDbPolyline
 62
7
  6
CONTINUOUS
 90
28
 70
0
 10
83.9724895821
 20
80.5688039735
 10
84.0673101934
 20
80.5776896825
 10
84.1683547821
 20
80.6078544655
 10
84.2569177839
 20
80.6552070898
 10
84.3292301085
 20
80.7134148858
 10
84.3841752721
 20
80.7752327506
 10
84.4219608589
 20
80.8318472065
 10
84.4485473923
 20
80.8828914584
 10
84.4672737251
 20
80.9275583573
 10
84.4812725836
 20
80.967848499
 10
84.4925942613
 20
81.0062846465
 10
84.5021190467
 20
81.0437300814
 10
84.5106250416
 20
81.0818673591
 10
84.5184125317
 20
81.1212075665
 10
84.5257852769
 20
81.1627541471
 10
84.5328463026
 20
81.206779022
 10
84.5397107449
 20
81.2538035446
 10
84.5464192543
 20
81.3039912983
 10
84.5530155245
 20
81.3575884113
 10
84.5595166881
 20
81.4146878968
 10
84.5659361806
 20
81.4753773346
 10
84.5722877379
 20
81.5397754206
 10
84.5785805471
 20
81.6079843897
 10
84.5848209035
 20
81.680098232
 10
84.5910140652
 20
81.7562192721
 10
84.5971611441
 20
81.8364155751
 10
84.6032633236
 20
81.9207674826
 10
84.615327977
 20
82.1021506533
  0
LWPOLYLINE
  5
24E
100
AcDbEntity
  8
RUNDUNGEN
100
AcDbPolyline
 62
7
  6
CONTINUOUS
 90
28
 70
0
 10
63.9724652694
 20
80.5688026517
 10
64.0668506491
 20
80.5776041617
 10
64.1678738465
 20
80.6076590152
 10
64.2564644659
 20
80.654910962
 10
64.3288543813
 20
80.7130613303
 10
64.3838889492
 20
80.7748652992
 10
64.4217533904
 20
80.8315013002
 10
64.4484005393
 20
80.8825825182
 10
64.4671650031
 20
80.9272776338
 10
64.4811889304
 20
80.9675890781
 10
64.4925270679
 20
81.0060381483
 10
64.5020627015
 20
81.0434896719
 10
64.5105760396
 20
81.0816278412
 10
64.5183685508
 20
81.1209655475
 10
64.5257450979
 20
81.1625095038
 10
64.5328086211
 20
81.206530035
 10
64.5396741582
 20
81.2535449659
 10
64.5463833601
 20
81.3037184381
 10
64.5529805165
 20
81.3573006689
 10
64.5594826119
 20
81.4143842992
 10
64.5659031245
 20
81.4750580684
 10
64.5722557166
 20
81.5394407587
 10
64.578549523
 20
81.6076347839
 10
64.5847908445
 20
81.6797349031
 10
64.5909849416
 20
81.7558442346
 10
64.5971328854
 20
81.8360311313
 10
64.6032358222
 20
81.9203762023
 10
64.6153019316
 20
82.1017450274
  0
LINE
  5
24F
100
AcDbEntity
  8
RUNDUNGEN
100
AcDbLine
 62
7
  6
CONTINUOUS
 10
61.4370658142
 20
83.9188026033
 11
58.4370658142
 21
83.9188026033
  0
LWPOLYLINE
  5
250
100
AcDbEntity
  8
RUNDUNGEN
100
AcDbPolyline
 62
7
  6
CONTINUOUS
 90
26
 70
0
 10
75.2852199173
 20
81.7298606738
 10
75.2910726024
 20
81.6592779105
 10
75.2969631223
 20
81.5922899545
 10
75.3028941753
 20
81.5288221142
 10
75.3088718569
 20
81.4687767734
 10
75.314904471
 20
81.4120527715
 10
75.3210002956
 20
81.3585681514
 10
75.3271701078
 20
81.3082364179
 10
75.3334368742
 20
81.2608989817
 10
75.3398237598
 20
81.2164343903
 10
75.3463855727
 20
81.1745516333
 10
75.3531677835
 20
81.135092756
 10
75.3603179214
 20
81.0974369733
 10
75.3679786187
 20
81.0612231276
 10
75.3764670676
 20
81.0255753515
 10
75.3861332959
 20
80.9899573335
 10
75.3977340804
 20
80.9530102108
 10
75.4120935516
 20
80.9141449577
 10
75.4313078525
 20
80.8708578053
 10
75.4584731358
 20
80.8213114512
 10
75.4967478513
 20
80.766481339
 10
75.5517793562
 20
80.7069104781
 10
75.6234715824
 20
80.6510962139
 10
75.7103670659
 20
80.6059762545
 10
75.8092695173
 20
80.5772330636
 10
75.9016393966
 20
80.5688039117
  0
LINE
  5
251
100
AcDbEntity
  8
RUNDUNGEN
100
AcDbLine
 62
7
  6
CONTINUOUS
 10
75.2736208611
 20
81.8821219906
 11
75.2852199173
 21
81.7298606738
  0
LINE
  5
252
100
AcDbEntity
  8
RUNDUNGEN
100
AcDbLine
 62
7
  6
CONTINUOUS
 10
75.2621661674
 20
82.049588883
 11
75.2736208611
 21
81.8821219906
  0
LINE
  5
253
100
AcDbEntity
  8
RUNDUNGEN
100
AcDbLine
 62
7
  6
CONTINUOUS
 10
75.2508681283
 20
82.2326139251
 11
75.2621661674
 21
82.049588883
  0
LINE
  5
254
100
AcDbEntity
  8
RUNDUNGEN
100
AcDbLine
 62
7
  6
CONTINUOUS
 10
75.2397453172
 20
82.431449635
 11
75.2508681283
 21
82.2326139251
  0
LINE
  5
255
100
AcDbEntity
  8
RUNDUNGEN
100
AcDbLine
 62
7
  6
CONTINUOUS
 10
75.2288224905
 20
82.646285478
 11
75.2397453172
 21
82.431449635
  0
LINE
  5
256
100
AcDbEntity
  8
RUNDUNGEN
100
AcDbLine
 62
7
  6
CONTINUOUS
 10
75.2128784433
 20
82.9988171467
 11
75.2288224905
 21
82.646285478
  0
LINE
  5
257
100
AcDbEntity
  8
RUNDUNGEN
100
AcDbLine
 62
7
  6
CONTINUOUS
 10
75.1975630478
 20
83.387794881
 11
75.2128784433
 21
82.9988171467
  0
LINE
  5
258
100
AcDbEntity
  8
RUNDUNGEN
100
AcDbLine
 62
7
  6
CONTINUOUS
 10
75.1829915779
 20
83.8128144048
 11
75.1975630478
 21
83.387794881
  0
LINE
  5
259
100
AcDbEntity
  8
RUNDUNGEN
100
AcDbLine
 62
7
  6
CONTINUOUS
 10
75.1649322645
 20
84.4342259726
 11
75.1829915779
 21
83.8128144048
  0
LINE
  5
25A
100
AcDbEntity
  8
RUNDUNGEN
100
AcDbLine
 62
7
  6
CONTINUOUS
 10
74.7215542086
 20
134.1975819173
 11
74.704850853
 21
134.8642923671
  0
LINE
  5
25B
100
AcDbEntity
  8
RUNDUNGEN
100
AcDbLine
 62
7
  6
CONTINUOUS
 10
75.1487163256
 20
85.1155862602
 11
75.1649322645
 21
84.4342259726
  0
LINE
  5
25C
100
AcDbEntity
  8
RUNDUNGEN
100
AcDbLine
 62
7
  6
CONTINUOUS
 10
74.7361981017
 20
133.4739936369
 11
74.7215542086
 21
134.1975819173
  0
LINE
  5
25D
100
AcDbEntity
  8
RUNDUNGEN
100
AcDbLine
 62
7
  6
CONTINUOUS
 10
75.1346306035
 20
85.8526554691
 11
75.1487163256
 21
85.1155862602
  0
LINE
  5
25E
100
AcDbEntity
  8
RUNDUNGEN
100
AcDbLine
 62
7
  6
CONTINUOUS
 10
74.7511703704
 20
132.4971394133
 11
74.7361981017
 21
133.4739936369
  0
LINE
  5
25F
100
AcDbEntity
  8
RUNDUNGEN
100
AcDbLine
 62
7
  6
CONTINUOUS
 10
75.1204565201
 20
86.8443975425
 11
75.1346306035
 21
85.8526554691
  0
LINE
  5
260
100
AcDbEntity
  8
RUNDUNGEN
100
AcDbLine
 62
7
  6
CONTINUOUS
 10
74.7619471593
 20
131.4511176685
 11
74.7511703704
 21
132.4971394133
  0
LINE
  5
261
100
AcDbEntity
  8
RUNDUNGEN
100
AcDbLine
 62
7
  6
CONTINUOUS
 10
75.1105770952
 20
87.9026320529
 11
75.1204565201
 21
86.8443975425
  0
LINE
  5
262
100
AcDbEntity
  8
RUNDUNGEN
100
AcDbLine
 62
7
  6
CONTINUOUS
 10
74.7680402843
 20
130.3506252144
 11
74.7619471593
 21
131.4511176685
  0
LINE
  5
263
100
AcDbEntity
  8
RUNDUNGEN
100
AcDbLine
 62
7
  6
CONTINUOUS
 10
75.105472118
 20
89.0119276789
 11
75.1105770952
 21
87.9026320529
  0
LINE
  5
264
100
AcDbEntity
  8
RUNDUNGEN
100
AcDbLine
 62
7
  6
CONTINUOUS
 10
74.7693006573
 20
125.3001254129
 11
74.7680402843
 21
130.3506252144
  0
LINE
  5
265
100
AcDbEntity
  8
RUNDUNGEN
100
AcDbLine
 62
7
  6
CONTINUOUS
 10
75.1048309711
 20
93.8376099047
 11
75.105472118
 21
89.0119276789
  0
LWPOLYLINE
  5
266
100
AcDbEntity
  8
RUNDUNGEN
100
AcDbPolyline
 62
7
  6
CONTINUOUS
 90
26
 70
0
 10
74.5889237611
 20
137.407592053
 10
74.5830714284
 20
137.4781798193
 10
74.5771812733
 20
137.5451733681
 10
74.5712505964
 20
137.6086471399
 10
74.565273293
 20
137.6686985951
 10
74.5592410555
 20
137.7254286855
 10
74.5531455848
 20
137.7789193082
 10
74.5469760235
 20
137.829257329
 10
74.5407095607
 20
137.8765998297
 10
74.5343232444
 20
137.9210670886
 10
74.5277622841
 20
137.9629521129
 10
74.5209812642
 20
138.0024130208
 10
74.5138328289
 20
138.0400700703
 10
74.5061745503
 20
138.0762840301
 10
74.4976895163
 20
138.1119305888
 10
74.48802798
 20
138.1475461885
 10
74.4764342436
 20
138.1844881095
 10
74.4620854989
 20
138.2233444754
 10
74.4428875303
 20
138.2666196296
 10
74.4157484992
 20
138.3161496957
 10
74.3775077338
 20
138.370970052
 10
74.3225135505
 20
138.4305469921
 10
74.2508551283
 20
138.4863841647
 10
74.163979538
 20
138.5315426339
 10
74.0650778639
 20
138.5603319277
 10
73.9724992691
 20
138.5688001189
  0
LINE
  5
267
100
AcDbEntity
  8
RUNDUNGEN
100
AcDbLine
 62
7
  6
CONTINUOUS
 10
74.6005221624
 20
137.2553234736
 11
74.5889237611
 21
137.407592053
  0
LINE
  5
268
100
AcDbEntity
  8
RUNDUNGEN
100
AcDbLine
 62
7
  6
CONTINUOUS
 10
74.6119763304
 20
137.0878516114
 11
74.6005221624
 21
137.2553234736
  0
LINE
  5
269
100
AcDbEntity
  8
RUNDUNGEN
100
AcDbLine
 62
7
  6
CONTINUOUS
 10
74.6232737898
 20
136.904819034
 11
74.6119763304
 21
137.0878516114
  0
LINE
  5
26A
100
AcDbEntity
  8
RUNDUNGEN
100
AcDbLine
 62
7
  6
CONTINUOUS
 10
74.6343959501
 20
136.7059749777
 11
74.6232737898
 21
136.904819034
  0
LINE
  5
26B
100
AcDbEntity
  8
RUNDUNGEN
100
AcDbLine
 62
7
  6
CONTINUOUS
 10
74.6453181124
 20
136.4911318352
 11
74.6343959501
 21
136.7059749777
  0
LINE
  5
26C
100
AcDbEntity
  8
RUNDUNGEN
100
AcDbLine
 62
7
  6
CONTINUOUS
 10
74.661261267
 20
136.1385956054
 11
74.6453181124
 21
136.4911318352
  0
LINE
  5
26D
100
AcDbEntity
  8
RUNDUNGEN
100
AcDbLine
 62
7
  6
CONTINUOUS
 10
74.6765758017
 20
135.7496171012
 11
74.661261267
 21
136.1385956054
  0
LINE
  5
26E
100
AcDbEntity
  8
RUNDUNGEN
100
AcDbLine
 62
7
  6
CONTINUOUS
 10
74.6911462506
 20
135.324595115
 11
74.6765758017
 21
135.7496171012
  0
LINE
  5
26F
100
AcDbEntity
  8
RUNDUNGEN
100
AcDbLine
 62
7
  6
CONTINUOUS
 10
74.704850853
 20
134.8642923671
 11
74.6911462506
 21
135.324595115
  0
LWPOLYLINE
  5
270
100
AcDbEntity
  8
RUNDUNGEN
100
AcDbPolyline
 62
7
  6
CONTINUOUS
 90
26
 70
0
 10
134.5193741333
 20
94.3366464877
 10
134.5540569707
 20
94.3381526292
 10
134.5926071435
 20
94.3434055641
 10
134.629593398
 20
94.352126784
 10
134.6647881051
 20
94.3640051652
 10
134.6980184517
 20
94.3787401424
 10
134.7291150267
 20
94.396023015
 10
134.7579656042
 20
94.4155616399
 10
134.7844562596
 20
94.4370473673
 10
134.8085184794
 20
94.4601836623
 10
134.8301165619
 20
94.4846847454
 10
134.8492606056
 20
94.5103020438
 10
134.8659201669
 20
94.5367050123
 10
134.8801519493
 20
94.5636504817
 10
134.8919404444
 20
94.5906824761
 10
134.9014022252
 20
94.6174947673
 10
134.9086159566
 20
94.643482802
 10
134.91386595
 20
94.6685360754
 10
134.9173177963
 20
94.6915686124
 10
134.9194012641
 20
94.7120646766
 10
134.9207203474
 20
94.7319200161
 10
134.921599663
 20
94.7523241524
 10
134.922242705
 20
94.7756135398
 10
134.9226736113
 20
94.8027134127
 10
134.9228517351
 20
94.8330837085
 10
134.9228536676
 20
94.8366294567
  0
LINE
  5
271
100
AcDbEntity
  8
RUNDUNGEN
100
AcDbLine
 62
7
  6
CONTINUOUS
 10
65.267063748
 20
94.3366294797
 11
74.6058077708
 21
94.3366294797
  0
LINE
  5
272
100
AcDbEntity
  8
RUNDUNGEN
100
AcDbLine
 62
7
  6
CONTINUOUS
 10
85.2670587868
 20
94.3366294797
 11
94.6058077709
 21
94.3366294797
  0
LINE
  5
273
100
AcDbEntity
  8
RUNDUNGEN
100
AcDbLine
 62
7
  6
CONTINUOUS
 10
105.2670587868
 20
94.3366294797
 11
114.6058077709
 21
94.3366294797
  0
LINE
  5
274
100
AcDbEntity
  8
RUNDUNGEN
100
AcDbLine
 62
7
  6
CONTINUOUS
 10
125.2670587868
 20
94.3366294797
 11
134.5193626507
 21
94.3366294797
  0
LINE
  5
275
100
AcDbEntity
  8
RUNDUNGEN
100
AcDbLine
 62
7
  6
CONTINUOUS
 10
61.4370658142
 20
95.2188026033
 11
58.4370658142
 21
95.2188026033
  0
LINE
  5
276
100
AcDbEntity
  8
RUNDUNGEN
100
AcDbLine
 62
7
  6
CONTINUOUS
 10
58.4370658142
 20
96.7188026033
 11
61.4370658142
 21
96.7188026033
  0
LINE
  5
277
100
AcDbEntity
  8
RUNDUNGEN
100
AcDbLine
 62
7
  6
CONTINUOUS
 10
84.7667524642
 20
88.456994521
 11
84.7693006573
 21
93.8388655965
  0
LINE
  5
278
100
AcDbEntity
  8
RUNDUNGEN
100
AcDbLine
 62
7
  6
CONTINUOUS
 10
85.1073785351
 20
130.6805150992
 11
85.1048309711
 21
125.3002460944
  0
LINE
  5
279
100
AcDbEntity
  8
RUNDUNGEN
100
AcDbLine
 62
7
  6
CONTINUOUS
 10
85.1154542002
 20
131.8248594061
 11
85.1073785351
 21
130.6805150992
  0
LINE
  5
27A
100
AcDbEntity
  8
RUNDUNGEN
100
AcDbLine
 62
7
  6
CONTINUOUS
 10
84.7586759092
 20
87.3125824757
 11
84.7667524642
 21
88.456994521
  0
LINE
  5
27B
100
AcDbEntity
  8
RUNDUNGEN
100
AcDbLine
 62
7
  6
CONTINUOUS
 10
85.1285222859
 20
132.9001430295
 11
85.1154542002
 21
131.8248594061
  0
LINE
  5
27C
100
AcDbEntity
  8
RUNDUNGEN
100
AcDbLine
 62
7
  6
CONTINUOUS
 10
84.7456065586
 20
86.2372740679
 11
84.7586759092
 21
87.3125824757
  0
LINE
  5
27D
100
AcDbEntity
  8
RUNDUNGEN
100
AcDbLine
 62
7
  6
CONTINUOUS
 10
85.1421687181
 20
133.7006423172
 11
85.1285222859
 21
132.9001430295
  0
LINE
  5
27E
100
AcDbEntity
  8
RUNDUNGEN
100
AcDbLine
 62
7
  6
CONTINUOUS
 10
84.7319592347
 20
85.4367697531
 11
84.7456065586
 21
86.2372740679
  0
LINE
  5
27F
100
AcDbEntity
  8
RUNDUNGEN
100
AcDbLine
 62
7
  6
CONTINUOUS
 10
85.1582963886
 20
134.4414428744
 11
85.1421687181
 21
133.7006423172
  0
LWPOLYLINE
  5
280
100
AcDbEntity
  8
RUNDUNGEN
100
AcDbPolyline
 62
7
  6
CONTINUOUS
 90
3
 70
0
 10
84.7114486198
 20
84.5206843501
 10
84.7158302467
 20
84.695963126
 10
84.7319592347
 20
85.4367697531
  0
LINE
  5
281
100
AcDbEntity
  8
RUNDUNGEN
100
AcDbLine
 62
7
  6
CONTINUOUS
 10
85.1765795521
 20
135.1176322863
 11
85.1582963886
 21
134.4414428744
  0
LINE
  5
282
100
AcDbEntity
  8
RUNDUNGEN
100
AcDbLine
 62
7
  6
CONTINUOUS
 10
85.1915045146
 20
135.5802361512
 11
85.1765795521
 21
135.1176322863
  0
LINE
  5
283
100
AcDbEntity
  8
RUNDUNGEN
100
AcDbLine
 62
7
  6
CONTINUOUS
 10
85.2073133153
 20
136.0036143083
 11
85.1915045146
 21
135.5802361512
  0
LINE
  5
284
100
AcDbEntity
  8
RUNDUNGEN
100
AcDbLine
 62
7
  6
CONTINUOUS
 10
85.2238774415
 20
136.3871735592
 11
85.2073133153
 21
136.0036143083
  0
LINE
  5
285
100
AcDbEntity
  8
RUNDUNGEN
100
AcDbLine
 62
7
  6
CONTINUOUS
 10
85.2352780824
 20
136.6207348297
 11
85.2238774415
 21
136.3871735592
  0
LINE
  5
286
100
AcDbEntity
  8
RUNDUNGEN
100
AcDbLine
 62
7
  6
CONTINUOUS
 10
85.2469255975
 20
136.8367090928
 11
85.2352780824
 21
136.6207348297
  0
LINE
  5
287
100
AcDbEntity
  8
RUNDUNGEN
100
AcDbLine
 62
7
  6
CONTINUOUS
 10
85.2587919326
 20
137.0352717606
 11
85.2469255975
 21
136.8367090928
  0
LINE
  5
288
100
AcDbEntity
  8
RUNDUNGEN
100
AcDbLine
 62
7
  6
CONTINUOUS
 10
85.2708559384
 20
137.2166610682
 11
85.2587919326
 21
137.0352717606
  0
LINE
  5
289
100
AcDbEntity
  8
RUNDUNGEN
100
AcDbLine
 62
7
  6
CONTINUOUS
 10
84.6926770661
 20
83.8612519555
 11
84.7114486198
 21
84.5206843501
  0
LINE
  5
28A
100
AcDbEntity
  8
RUNDUNGEN
100
AcDbLine
 62
7
  6
CONTINUOUS
 10
84.6774413994
 20
83.411637673
 11
84.6926770661
 21
83.8612519555
  0
LINE
  5
28B
100
AcDbEntity
  8
RUNDUNGEN
100
AcDbLine
 62
7
  6
CONTINUOUS
 10
84.6613658827
 20
83.001488681
 11
84.6774413994
 21
83.411637673
  0
LINE
  5
28C
100
AcDbEntity
  8
RUNDUNGEN
100
AcDbLine
 62
7
  6
CONTINUOUS
 10
84.6502447202
 20
82.7502244014
 11
84.6613658827
 21
83.001488681
  0
LINE
  5
28D
100
AcDbEntity
  8
RUNDUNGEN
100
AcDbLine
 62
7
  6
CONTINUOUS
 10
84.638843316
 20
82.5166697872
 11
84.6502447202
 21
82.7502244014
  0
LINE
  5
28E
100
AcDbEntity
  8
RUNDUNGEN
100
AcDbLine
 62
7
  6
CONTINUOUS
 10
84.6271950261
 20
82.3007044027
 11
84.638843316
 21
82.5166697872
  0
LINE
  5
28F
100
AcDbEntity
  8
RUNDUNGEN
100
AcDbLine
 62
7
  6
CONTINUOUS
 10
84.615327977
 20
82.1021506533
 11
84.6271950261
 21
82.3007044027
  0
LWPOLYLINE
  5
290
100
AcDbEntity
  8
RUNDUNGEN
100
AcDbPolyline
 62
7
  6
CONTINUOUS
 90
26
 70
0
 10
95.2852199173
 20
81.7298606738
 10
95.2910726024
 20
81.6592779105
 10
95.2969631223
 20
81.5922899545
 10
95.3028941753
 20
81.5288221142
 10
95.3088718569
 20
81.4687767734
 10
95.314904471
 20
81.4120527715
 10
95.3210002956
 20
81.3585681514
 10
95.3271701078
 20
81.3082364179
 10
95.3334368742
 20
81.2608989817
 10
95.3398237598
 20
81.2164343903
 10
95.3463855727
 20
81.1745516333
 10
95.3531677835
 20
81.135092756
 10
95.3603179214
 20
81.0974369733
 10
95.3679786187
 20
81.0612231276
 10
95.3764670676
 20
81.0255753515
 10
95.3861332959
 20
80.9899573335
 10
95.3977340804
 20
80.9530102108
 10
95.4120935516
 20
80.9141449577
 10
95.4313078525
 20
80.8708578053
 10
95.4584731358
 20
80.8213114512
 10
95.4967478513
 20
80.766481339
 10
95.5517793562
 20
80.7069104781
 10
95.6234715824
 20
80.6510962139
 10
95.7103670659
 20
80.6059762545
 10
95.8092695173
 20
80.5772330636
 10
95.9016393966
 20
80.5688039117
  0
LINE
  5
291
100
AcDbEntity
  8
RUNDUNGEN
100
AcDbLine
 62
7
  6
CONTINUOUS
 10
95.2736208611
 20
81.8821219906
 11
95.2852199173
 21
81.7298606738
  0
LINE
  5
292
100
AcDbEntity
  8
RUNDUNGEN
100
AcDbLine
 62
7
  6
CONTINUOUS
 10
95.2621661674
 20
82.049588883
 11
95.2736208611
 21
81.8821219906
  0
LINE
  5
293
100
AcDbEntity
  8
RUNDUNGEN
100
AcDbLine
 62
7
  6
CONTINUOUS
 10
95.2508681283
 20
82.2326139251
 11
95.2621661674
 21
82.049588883
  0
LINE
  5
294
100
AcDbEntity
  8
RUNDUNGEN
100
AcDbLine
 62
7
  6
CONTINUOUS
 10
95.2397453172
 20
82.431449635
 11
95.2508681283
 21
82.2326139251
  0
LINE
  5
295
100
AcDbEntity
  8
RUNDUNGEN
100
AcDbLine
 62
7
  6
CONTINUOUS
 10
95.2288224905
 20
82.646285478
 11
95.2397453172
 21
82.431449635
  0
LINE
  5
296
100
AcDbEntity
  8
RUNDUNGEN
100
AcDbLine
 62
7
  6
CONTINUOUS
 10
95.2128784433
 20
82.9988171467
 11
95.2288224905
 21
82.646285478
  0
LINE
  5
297
100
AcDbEntity
  8
RUNDUNGEN
100
AcDbLine
 62
7
  6
CONTINUOUS
 10
95.1975630478
 20
83.387794881
 11
95.2128784433
 21
82.9988171467
  0
LINE
  5
298
100
AcDbEntity
  8
RUNDUNGEN
100
AcDbLine
 62
7
  6
CONTINUOUS
 10
95.1829915779
 20
83.8128144048
 11
95.1975630478
 21
83.387794881
  0
LINE
  5
299
100
AcDbEntity
  8
RUNDUNGEN
100
AcDbLine
 62
7
  6
CONTINUOUS
 10
95.1649322645
 20
84.4342259726
 11
95.1829915779
 21
83.8128144048
  0
LINE
  5
29A
100
AcDbEntity
  8
RUNDUNGEN
100
AcDbLine
 62
7
  6
CONTINUOUS
 10
94.7215542086
 20
134.1975819173
 11
94.704850853
 21
134.8642923671
  0
LINE
  5
29B
100
AcDbEntity
  8
RUNDUNGEN
100
AcDbLine
 62
7
  6
CONTINUOUS
 10
95.1487163256
 20
85.1155862602
 11
95.1649322645
 21
84.4342259726
  0
LINE
  5
29C
100
AcDbEntity
  8
RUNDUNGEN
100
AcDbLine
 62
7
  6
CONTINUOUS
 10
94.7361981017
 20
133.4739936369
 11
94.7215542086
 21
134.1975819173
  0
LINE
  5
29D
100
AcDbEntity
  8
RUNDUNGEN
100
AcDbLine
 62
7
  6
CONTINUOUS
 10
95.1346306035
 20
85.8526554691
 11
95.1487163256
 21
85.1155862602
  0
LINE
  5
29E
100
AcDbEntity
  8
RUNDUNGEN
100
AcDbLine
 62
7
  6
CONTINUOUS
 10
94.7511703704
 20
132.4971394133
 11
94.7361981017
 21
133.4739936369
  0
LINE
  5
29F
100
AcDbEntity
  8
RUNDUNGEN
100
AcDbLine
 62
7
  6
CONTINUOUS
 10
95.1204565201
 20
86.8443975425
 11
95.1346306035
 21
85.8526554691
  0
LINE
  5
2A0
100
AcDbEntity
  8
RUNDUNGEN
100
AcDbLine
 62
7
  6
CONTINUOUS
 10
94.7619471593
 20
131.4511176685
 11
94.7511703704
 21
132.4971394133
  0
LINE
  5
2A1
100
AcDbEntity
  8
RUNDUNGEN
100
AcDbLine
 62
7
  6
CONTINUOUS
 10
95.1105770952
 20
87.9026320529
 11
95.1204565201
 21
86.8443975425
  0
LINE
  5
2A2
100
AcDbEntity
  8
RUNDUNGEN
100
AcDbLine
 62
7
  6
CONTINUOUS
 10
94.7680402843
 20
130.3506252144
 11
94.7619471593
 21
131.4511176685
  0
LINE
  5
2A3
100
AcDbEntity
  8
RUNDUNGEN
100
AcDbLine
 62
7
  6
CONTINUOUS
 10
95.105472118
 20
89.0119276789
 11
95.1105770952
 21
87.9026320529
  0
LINE
  5
2A4
100
AcDbEntity
  8
RUNDUNGEN
100
AcDbLine
 62
7
  6
CONTINUOUS
 10
94.7693006573
 20
125.3001254129
 11
94.7680402843
 21
130.3506252144
  0
LINE
  5
2A5
100
AcDbEntity
  8
RUNDUNGEN
100
AcDbLine
 62
7
  6
CONTINUOUS
 10
95.1048309711
 20
93.8376099047
 11
95.105472118
 21
89.0119276789
  0
LWPOLYLINE
  5
2A6
100
AcDbEntity
  8
RUNDUNGEN
100
AcDbPolyline
 62
7
  6
CONTINUOUS
 90
26
 70
0
 10
94.5889237611
 20
137.407592053
 10
94.5830714284
 20
137.4781798193
 10
94.5771812733
 20
137.5451733681
 10
94.5712505964
 20
137.6086471399
 10
94.565273293
 20
137.6686985951
 10
94.5592410555
 20
137.7254286855
 10
94.5531455848
 20
137.7789193082
 10
94.5469760235
 20
137.829257329
 10
94.5407095607
 20
137.8765998297
 10
94.5343232444
 20
137.9210670886
 10
94.5277622841
 20
137.9629521129
 10
94.5209812642
 20
138.0024130208
 10
94.5138328289
 20
138.0400700703
 10
94.5061745503
 20
138.0762840301
 10
94.4976895163
 20
138.1119305888
 10
94.48802798
 20
138.1475461885
 10
94.4764342436
 20
138.1844881095
 10
94.4620854989
 20
138.2233444754
 10
94.4428875303
 20
138.2666196296
 10
94.4157484992
 20
138.3161496957
 10
94.3775077338
 20
138.370970052
 10
94.3225135505
 20
138.4305469921
 10
94.2508551283
 20
138.4863841647
 10
94.163979538
 20
138.5315426339
 10
94.0650778639
 20
138.5603319277
 10
93.9724992691
 20
138.5688001189
  0
LINE
  5
2A7
100
AcDbEntity
  8
RUNDUNGEN
100
AcDbLine
 62
7
  6
CONTINUOUS
 10
94.6005221624
 20
137.2553234736
 11
94.5889237611
 21
137.407592053
  0
LINE
  5
2A8
100
AcDbEntity
  8
RUNDUNGEN
100
AcDbLine
 62
7
  6
CONTINUOUS
 10
94.6119763304
 20
137.0878516114
 11
94.6005221624
 21
137.2553234736
  0
LINE
  5
2A9
100
AcDbEntity
  8
RUNDUNGEN
100
AcDbLine
 62
7
  6
CONTINUOUS
 10
94.6232737898
 20
136.904819034
 11
94.6119763304
 21
137.0878516114
  0
LINE
  5
2AA
100
AcDbEntity
  8
RUNDUNGEN
100
AcDbLine
 62
7
  6
CONTINUOUS
 10
94.6343959501
 20
136.7059749777
 11
94.6232737898
 21
136.904819034
  0
LINE
  5
2AB
100
AcDbEntity
  8
RUNDUNGEN
100
AcDbLine
 62
7
  6
CONTINUOUS
 10
94.6453181124
 20
136.4911318352
 11
94.6343959501
 21
136.7059749777
  0
LINE
  5
2AC
100
AcDbEntity
  8
RUNDUNGEN
100
AcDbLine
 62
7
  6
CONTINUOUS
 10
94.661261267
 20
136.1385956054
 11
94.6453181124
 21
136.4911318352
  0
LINE
  5
2AD
100
AcDbEntity
  8
RUNDUNGEN
100
AcDbLine
 62
7
  6
CONTINUOUS
 10
94.6765758017
 20
135.7496171012
 11
94.661261267
 21
136.1385956054
  0
LINE
  5
2AE
100
AcDbEntity
  8
RUNDUNGEN
100
AcDbLine
 62
7
  6
CONTINUOUS
 10
94.6911462506
 20
135.324595115
 11
94.6765758017
 21
135.7496171012
  0
LINE
  5
2AF
100
AcDbEntity
  8
RUNDUNGEN
100
AcDbLine
 62
7
  6
CONTINUOUS
 10
94.704850853
 20
134.8642923671
 11
94.6911462506
 21
135.324595115
  0
LINE
  5
2B0
100
AcDbEntity
  8
RUNDUNGEN
100
AcDbLine
 62
7
  6
CONTINUOUS
 10
104.7667524642
 20
88.456994521
 11
104.7693006573
 21
93.8388655965
  0
LINE
  5
2B1
100
AcDbEntity
  8
RUNDUNGEN
100
AcDbLine
 62
7
  6
CONTINUOUS
 10
105.1073785351
 20
130.6805150992
 11
105.1048309711
 21
125.3002460944
  0
LINE
  5
2B2
100
AcDbEntity
  8
RUNDUNGEN
100
AcDbLine
 62
7
  6
CONTINUOUS
 10
105.1154542002
 20
131.8248594061
 11
105.1073785351
 21
130.6805150992
  0
LINE
  5
2B3
100
AcDbEntity
  8
RUNDUNGEN
100
AcDbLine
 62
7
  6
CONTINUOUS
 10
104.7586759092
 20
87.3125824757
 11
104.7667524642
 21
88.456994521
  0
LINE
  5
2B4
100
AcDbEntity
  8
RUNDUNGEN
100
AcDbLine
 62
7
  6
CONTINUOUS
 10
105.1285222859
 20
132.9001430295
 11
105.1154542002
 21
131.8248594061
  0
LINE
  5
2B5
100
AcDbEntity
  8
RUNDUNGEN
100
AcDbLine
 62
7
  6
CONTINUOUS
 10
104.7456065586
 20
86.2372740679
 11
104.7586759092
 21
87.3125824757
  0
LINE
  5
2B6
100
AcDbEntity
  8
RUNDUNGEN
100
AcDbLine
 62
7
  6
CONTINUOUS
 10
105.1421687181
 20
133.7006423172
 11
105.1285222859
 21
132.9001430295
  0
LINE
  5
2B7
100
AcDbEntity
  8
RUNDUNGEN
100
AcDbLine
 62
7
  6
CONTINUOUS
 10
104.7319592347
 20
85.4367697531
 11
104.7456065586
 21
86.2372740679
  0
LINE
  5
2B8
100
AcDbEntity
  8
RUNDUNGEN
100
AcDbLine
 62
7
  6
CONTINUOUS
 10
105.1582963886
 20
134.4414428744
 11
105.1421687181
 21
133.7006423172
  0
LWPOLYLINE
  5
2B9
100
AcDbEntity
  8
RUNDUNGEN
100
AcDbPolyline
 62
7
  6
CONTINUOUS
 90
3
 70
0
 10
104.7114486198
 20
84.5206843501
 10
104.7158302467
 20
84.695963126
 10
104.7319592347
 20
85.4367697531
  0
LINE
  5
2BA
100
AcDbEntity
  8
RUNDUNGEN
100
AcDbLine
 62
7
  6
CONTINUOUS
 10
105.1765795521
 20
135.1176322863
 11
105.1582963886
 21
134.4414428744
  0
LINE
  5
2BB
100
AcDbEntity
  8
RUNDUNGEN
100
AcDbLine
 62
7
  6
CONTINUOUS
 10
105.1915045146
 20
135.5802361512
 11
105.1765795521
 21
135.1176322863
  0
LINE
  5
2BC
100
AcDbEntity
  8
RUNDUNGEN
100
AcDbLine
 62
7
  6
CONTINUOUS
 10
105.2073133153
 20
136.0036143083
 11
105.1915045146
 21
135.5802361512
  0
LINE
  5
2BD
100
AcDbEntity
  8
RUNDUNGEN
100
AcDbLine
 62
7
  6
CONTINUOUS
 10
105.2238774415
 20
136.3871735592
 11
105.2073133153
 21
136.0036143083
  0
LINE
  5
2BE
100
AcDbEntity
  8
RUNDUNGEN
100
AcDbLine
 62
7
  6
CONTINUOUS
 10
105.2352780824
 20
136.6207348297
 11
105.2238774415
 21
136.3871735592
  0
LINE
  5
2BF
100
AcDbEntity
  8
RUNDUNGEN
100
AcDbLine
 62
7
  6
CONTINUOUS
 10
105.2469255975
 20
136.8367090928
 11
105.2352780824
 21
136.6207348297
  0
LINE
  5
2C0
100
AcDbEntity
  8
RUNDUNGEN
100
AcDbLine
 62
7
  6
CONTINUOUS
 10
105.2587919326
 20
137.0352717606
 11
105.2469255975
 21
136.8367090928
  0
LINE
  5
2C1
100
AcDbEntity
  8
RUNDUNGEN
100
AcDbLine
 62
7
  6
CONTINUOUS
 10
105.2708559384
 20
137.2166610682
 11
105.2587919326
 21
137.0352717606
  0
LINE
  5
2C2
100
AcDbEntity
  8
RUNDUNGEN
100
AcDbLine
 62
7
  6
CONTINUOUS
 10
104.6926770661
 20
83.8612519555
 11
104.7114486198
 21
84.5206843501
  0
LINE
  5
2C3
100
AcDbEntity
  8
RUNDUNGEN
100
AcDbLine
 62
7
  6
CONTINUOUS
 10
104.6774413994
 20
83.411637673
 11
104.6926770661
 21
83.8612519555
  0
LINE
  5
2C4
100
AcDbEntity
  8
RUNDUNGEN
100
AcDbLine
 62
7
  6
CONTINUOUS
 10
104.6613658827
 20
83.001488681
 11
104.6774413994
 21
83.411637673
  0
LINE
  5
2C5
100
AcDbEntity
  8
RUNDUNGEN
100
AcDbLine
 62
7
  6
CONTINUOUS
 10
104.6502447202
 20
82.7502244014
 11
104.6613658827
 21
83.001488681
  0
LINE
  5
2C6
100
AcDbEntity
  8
RUNDUNGEN
100
AcDbLine
 62
7
  6
CONTINUOUS
 10
104.638843316
 20
82.5166697872
 11
104.6502447202
 21
82.7502244014
  0
LINE
  5
2C7
100
AcDbEntity
  8
RUNDUNGEN
100
AcDbLine
 62
7
  6
CONTINUOUS
 10
104.6271950261
 20
82.3007044027
 11
104.638843316
 21
82.5166697872
  0
LINE
  5
2C8
100
AcDbEntity
  8
RUNDUNGEN
100
AcDbLine
 62
7
  6
CONTINUOUS
 10
104.615327977
 20
82.1021506533
 11
104.6271950261
 21
82.3007044027
  0
LINE
  5
2C9
100
AcDbEntity
  8
RUNDUNGEN
100
AcDbLine
 62
7
  6
CONTINUOUS
 10
55.4370658142
 20
124.8009757269
 11
64.6055619277
 21
124.8009757269
  0
LINE
  5
2CA
100
AcDbEntity
  8
RUNDUNGEN
100
AcDbLine
 62
7
  6
CONTINUOUS
 10
75.2684499232
 20
124.8009757269
 11
84.6055619277
 21
124.8009757269
  0
LINE
  5
2CB
100
AcDbEntity
  8
RUNDUNGEN
100
AcDbLine
 62
7
  6
CONTINUOUS
 10
95.2684499232
 20
124.8009757269
 11
104.6055619277
 21
124.8009757269
  0
LINE
  5
2CC
100
AcDbEntity
  8
RUNDUNGEN
100
AcDbLine
 62
7
  6
CONTINUOUS
 10
115.2684499232
 20
124.8009757269
 11
124.6055619277
 21
124.8009757269
  0
LWPOLYLINE
  5
2CD
100
AcDbEntity
  8
RUNDUNGEN
100
AcDbPolyline
 62
7
  6
CONTINUOUS
 90
26
 70
0
 10
115.2852199173
 20
81.7298606738
 10
115.2910726024
 20
81.6592779105
 10
115.2969631223
 20
81.5922899545
 10
115.3028941753
 20
81.5288221142
 10
115.3088718569
 20
81.4687767734
 10
115.314904471
 20
81.4120527715
 10
115.3210002956
 20
81.3585681514
 10
115.3271701078
 20
81.3082364179
 10
115.3334368742
 20
81.2608989817
 10
115.3398237598
 20
81.2164343903
 10
115.3463855727
 20
81.1745516333
 10
115.3531677835
 20
81.135092756
 10
115.3603179214
 20
81.0974369733
 10
115.3679786187
 20
81.0612231276
 10
115.3764670676
 20
81.0255753515
 10
115.3861332959
 20
80.9899573335
 10
115.3977340804
 20
80.9530102108
 10
115.4120935516
 20
80.9141449577
 10
115.4313078525
 20
80.8708578053
 10
115.4584731358
 20
80.8213114512
 10
115.4967478513
 20
80.766481339
 10
115.5517793562
 20
80.7069104781
 10
115.6234715824
 20
80.6510962139
 10
115.7103670659
 20
80.6059762545
 10
115.8092695173
 20
80.5772330636
 10
115.9016393966
 20
80.5688039117
  0
LINE
  5
2CE
100
AcDbEntity
  8
RUNDUNGEN
100
AcDbLine
 62
7
  6
CONTINUOUS
 10
115.2736208611
 20
81.8821219906
 11
115.2852199173
 21
81.7298606738
  0
LINE
  5
2CF
100
AcDbEntity
  8
RUNDUNGEN
100
AcDbLine
 62
7
  6
CONTINUOUS
 10
115.2621661674
 20
82.049588883
 11
115.2736208611
 21
81.8821219906
  0
LINE
  5
2D0
100
AcDbEntity
  8
RUNDUNGEN
100
AcDbLine
 62
7
  6
CONTINUOUS
 10
115.2508681283
 20
82.2326139251
 11
115.2621661674
 21
82.049588883
  0
LINE
  5
2D1
100
AcDbEntity
  8
RUNDUNGEN
100
AcDbLine
 62
7
  6
CONTINUOUS
 10
115.2397453172
 20
82.431449635
 11
115.2508681283
 21
82.2326139251
  0
LINE
  5
2D2
100
AcDbEntity
  8
RUNDUNGEN
100
AcDbLine
 62
7
  6
CONTINUOUS
 10
115.2288224905
 20
82.646285478
 11
115.2397453172
 21
82.431449635
  0
LINE
  5
2D3
100
AcDbEntity
  8
RUNDUNGEN
100
AcDbLine
 62
7
  6
CONTINUOUS
 10
115.2128784433
 20
82.9988171467
 11
115.2288224905
 21
82.646285478
  0
LINE
  5
2D4
100
AcDbEntity
  8
RUNDUNGEN
100
AcDbLine
 62
7
  6
CONTINUOUS
 10
115.1975630478
 20
83.387794881
 11
115.2128784433
 21
82.9988171467
  0
LINE
  5
2D5
100
AcDbEntity
  8
RUNDUNGEN
100
AcDbLine
 62
7
  6
CONTINUOUS
 10
115.1829915779
 20
83.8128144048
 11
115.1975630478
 21
83.387794881
  0
LINE
  5
2D6
100
AcDbEntity
  8
RUNDUNGEN
100
AcDbLine
 62
7
  6
CONTINUOUS
 10
115.1649322645
 20
84.4342259726
 11
115.1829915779
 21
83.8128144048
  0
LINE
  5
2D7
100
AcDbEntity
  8
RUNDUNGEN
100
AcDbLine
 62
7
  6
CONTINUOUS
 10
114.7215542086
 20
134.1975819173
 11
114.704850853
 21
134.8642923671
  0
LINE
  5
2D8
100
AcDbEntity
  8
RUNDUNGEN
100
AcDbLine
 62
7
  6
CONTINUOUS
 10
115.1487163256
 20
85.1155862602
 11
115.1649322645
 21
84.4342259726
  0
LINE
  5
2D9
100
AcDbEntity
  8
RUNDUNGEN
100
AcDbLine
 62
7
  6
CONTINUOUS
 10
114.7361981017
 20
133.4739936369
 11
114.7215542086
 21
134.1975819173
  0
LINE
  5
2DA
100
AcDbEntity
  8
RUNDUNGEN
100
AcDbLine
 62
7
  6
CONTINUOUS
 10
115.1346306035
 20
85.8526554691
 11
115.1487163256
 21
85.1155862602
  0
LINE
  5
2DB
100
AcDbEntity
  8
RUNDUNGEN
100
AcDbLine
 62
7
  6
CONTINUOUS
 10
114.7511703704
 20
132.4971394133
 11
114.7361981017
 21
133.4739936369
  0
LINE
  5
2DC
100
AcDbEntity
  8
RUNDUNGEN
100
AcDbLine
 62
7
  6
CONTINUOUS
 10
115.1204565201
 20
86.8443975425
 11
115.1346306035
 21
85.8526554691
  0
LINE
  5
2DD
100
AcDbEntity
  8
RUNDUNGEN
100
AcDbLine
 62
7
  6
CONTINUOUS
 10
114.7619471593
 20
131.4511176685
 11
114.7511703704
 21
132.4971394133
  0
LINE
  5
2DE
100
AcDbEntity
  8
RUNDUNGEN
100
AcDbLine
 62
7
  6
CONTINUOUS
 10
115.1105770952
 20
87.9026320529
 11
115.1204565201
 21
86.8443975425
  0
LINE
  5
2DF
100
AcDbEntity
  8
RUNDUNGEN
100
AcDbLine
 62
7
  6
CONTINUOUS
 10
114.7680402843
 20
130.3506252144
 11
114.7619471593
 21
131.4511176685
  0
LINE
  5
2E0
100
AcDbEntity
  8
RUNDUNGEN
100
AcDbLine
 62
7
  6
CONTINUOUS
 10
115.105472118
 20
89.0119276789
 11
115.1105770952
 21
87.9026320529
  0
LINE
  5
2E1
100
AcDbEntity
  8
RUNDUNGEN
100
AcDbLine
 62
7
  6
CONTINUOUS
 10
114.7693006573
 20
125.3001254129
 11
114.7680402843
 21
130.3506252144
  0
LINE
  5
2E2
100
AcDbEntity
  8
RUNDUNGEN
100
AcDbLine
 62
7
  6
CONTINUOUS
 10
115.1048309711
 20
93.8376099047
 11
115.105472118
 21
89.0119276789
  0
LWPOLYLINE
  5
2E3
100
AcDbEntity
  8
RUNDUNGEN
100
AcDbPolyline
 62
7
  6
CONTINUOUS
 90
26
 70
0
 10
114.5889237611
 20
137.407592053
 10
114.5830714284
 20
137.4781798193
 10
114.5771812733
 20
137.5451733681
 10
114.5712505964
 20
137.6086471399
 10
114.565273293
 20
137.6686985951
 10
114.5592410555
 20
137.7254286855
 10
114.5531455848
 20
137.7789193082
 10
114.5469760235
 20
137.829257329
 10
114.5407095607
 20
137.8765998297
 10
114.5343232444
 20
137.9210670886
 10
114.5277622841
 20
137.9629521129
 10
114.5209812642
 20
138.0024130208
 10
114.5138328289
 20
138.0400700703
 10
114.5061745503
 20
138.0762840301
 10
114.4976895163
 20
138.1119305888
 10
114.48802798
 20
138.1475461885
 10
114.4764342436
 20
138.1844881095
 10
114.4620854989
 20
138.2233444754
 10
114.4428875303
 20
138.2666196296
 10
114.4157484992
 20
138.3161496957
 10
114.3775077338
 20
138.370970052
 10
114.3225135505
 20
138.4305469921
 10
114.2508551283
 20
138.4863841647
 10
114.163979538
 20
138.5315426339
 10
114.0650778639
 20
138.5603319277
 10
113.9724992691
 20
138.5688001189
  0
LINE
  5
2E4
100
AcDbEntity
  8
RUNDUNGEN
100
AcDbLine
 62
7
  6
CONTINUOUS
 10
114.6005221624
 20
137.2553234736
 11
114.5889237611
 21
137.407592053
  0
LINE
  5
2E5
100
AcDbEntity
  8
RUNDUNGEN
100
AcDbLine
 62
7
  6
CONTINUOUS
 10
114.6119763304
 20
137.0878516114
 11
114.6005221624
 21
137.2553234736
  0
LINE
  5
2E6
100
AcDbEntity
  8
RUNDUNGEN
100
AcDbLine
 62
7
  6
CONTINUOUS
 10
114.6232737898
 20
136.904819034
 11
114.6119763304
 21
137.0878516114
  0
LINE
  5
2E7
100
AcDbEntity
  8
RUNDUNGEN
100
AcDbLine
 62
7
  6
CONTINUOUS
 10
114.6343959501
 20
136.7059749777
 11
114.6232737898
 21
136.904819034
  0
LINE
  5
2E8
100
AcDbEntity
  8
RUNDUNGEN
100
AcDbLine
 62
7
  6
CONTINUOUS
 10
114.6453181124
 20
136.4911318352
 11
114.6343959501
 21
136.7059749777
  0
LINE
  5
2E9
100
AcDbEntity
  8
RUNDUNGEN
100
AcDbLine
 62
7
  6
CONTINUOUS
 10
114.661261267
 20
136.1385956054
 11
114.6453181124
 21
136.4911318352
  0
LINE
  5
2EA
100
AcDbEntity
  8
RUNDUNGEN
100
AcDbLine
 62
7
  6
CONTINUOUS
 10
114.6765758017
 20
135.7496171012
 11
114.661261267
 21
136.1385956054
  0
LINE
  5
2EB
100
AcDbEntity
  8
RUNDUNGEN
100
AcDbLine
 62
7
  6
CONTINUOUS
 10
114.6911462506
 20
135.324595115
 11
114.6765758017
 21
135.7496171012
  0
LINE
  5
2EC
100
AcDbEntity
  8
RUNDUNGEN
100
AcDbLine
 62
7
  6
CONTINUOUS
 10
114.704850853
 20
134.8642923671
 11
114.6911462506
 21
135.324595115
  0
LWPOLYLINE
  5
2ED
100
AcDbEntity
  8
RUNDUNGEN
100
AcDbPolyline
 62
7
  6
CONTINUOUS
 90
26
 70
0
 10
125.9016350476
 20
138.5688000372
 10
125.8065942546
 20
138.5598720519
 10
125.7055479831
 20
138.52965625
 10
125.6170055036
 20
138.4822604376
 10
125.5447316888
 20
138.4240289083
 10
125.4898283989
 20
138.3622067088
 10
125.4520789333
 20
138.3056035209
 10
125.4255196694
 20
138.2545768042
 10
125.4068101497
 20
138.2099227189
 10
125.3928221728
 20
138.1696418414
 10
125.3815075923
 20
138.1312111295
 10
125.3719874445
 20
138.0937679556
 10
125.3634845866
 20
138.0556305968
 10
125.3556992381
 20
138.0162886876
 10
125.3483281032
 20
137.9747400729
 10
125.3412681748
 20
137.9307124333
 10
125.3344043385
 20
137.8836838299
 10
125.327696249
 20
137.8334904607
 10
125.321100392
 20
137.7798868708
 10
125.314599639
 20
137.7227803206
 10
125.3081806005
 20
137.6620839466
 10
125.3018295018
 20
137.597679016
 10
125.2955371349
 20
137.5294633745
 10
125.2892972072
 20
137.4573433516
 10
125.2831044606
 20
137.3812169425
 10
125.2708559384
 20
137.2166610682
  0
LWPOLYLINE
  5
2EE
100
AcDbEntity
  8
RUNDUNGEN
100
AcDbPolyline
 62
7
  6
CONTINUOUS
 90
26
 70
0
 10
105.9016350476
 20
138.5688000372
 10
105.8065942546
 20
138.5598720519
 10
105.7055479831
 20
138.52965625
 10
105.6170055036
 20
138.4822604376
 10
105.5447316888
 20
138.4240289083
 10
105.4898283989
 20
138.3622067088
 10
105.4520789333
 20
138.3056035209
 10
105.4255196694
 20
138.2545768042
 10
105.4068101497
 20
138.2099227189
 10
105.3928221728
 20
138.1696418414
 10
105.3815075923
 20
138.1312111295
 10
105.3719874445
 20
138.0937679556
 10
105.3634845866
 20
138.0556305968
 10
105.3556992381
 20
138.0162886876
 10
105.3483281032
 20
137.9747400729
 10
105.3412681748
 20
137.9307124333
 10
105.3344043385
 20
137.8836838299
 10
105.327696249
 20
137.8334904607
 10
105.321100392
 20
137.7798868708
 10
105.314599639
 20
137.7227803206
 10
105.3081806005
 20
137.6620839466
 10
105.3018295018
 20
137.597679016
 10
105.2955371349
 20
137.5294633745
 10
105.2892972072
 20
137.4573433516
 10
105.2831044606
 20
137.3812169425
 10
105.2708559384
 20
137.2166610682
  0
LINE
  5
2EF
100
AcDbEntity
  8
RUNDUNGEN
100
AcDbLine
 62
7
  6
CONTINUOUS
 10
124.7667524642
 20
88.456994521
 11
124.7693006573
 21
93.8388655965
  0
LINE
  5
2F0
100
AcDbEntity
  8
RUNDUNGEN
100
AcDbLine
 62
7
  6
CONTINUOUS
 10
125.1073785351
 20
130.6805150992
 11
125.1048309711
 21
125.3002460944
  0
LINE
  5
2F1
100
AcDbEntity
  8
RUNDUNGEN
100
AcDbLine
 62
7
  6
CONTINUOUS
 10
125.1154542002
 20
131.8248594061
 11
125.1073785351
 21
130.6805150992
  0
LINE
  5
2F2
100
AcDbEntity
  8
RUNDUNGEN
100
AcDbLine
 62
7
  6
CONTINUOUS
 10
124.7586759092
 20
87.3125824757
 11
124.7667524642
 21
88.456994521
  0
LINE
  5
2F3
100
AcDbEntity
  8
RUNDUNGEN
100
AcDbLine
 62
7
  6
CONTINUOUS
 10
125.1285222859
 20
132.9001430295
 11
125.1154542002
 21
131.8248594061
  0
LINE
  5
2F4
100
AcDbEntity
  8
RUNDUNGEN
100
AcDbLine
 62
7
  6
CONTINUOUS
 10
124.7456065586
 20
86.2372740679
 11
124.7586759092
 21
87.3125824757
  0
LINE
  5
2F5
100
AcDbEntity
  8
RUNDUNGEN
100
AcDbLine
 62
7
  6
CONTINUOUS
 10
125.1421687181
 20
133.7006423172
 11
125.1285222859
 21
132.9001430295
  0
LINE
  5
2F6
100
AcDbEntity
  8
RUNDUNGEN
100
AcDbLine
 62
7
  6
CONTINUOUS
 10
124.7319592347
 20
85.4367697531
 11
124.7456065586
 21
86.2372740679
  0
LINE
  5
2F7
100
AcDbEntity
  8
RUNDUNGEN
100
AcDbLine
 62
7
  6
CONTINUOUS
 10
125.1582963886
 20
134.4414428744
 11
125.1421687181
 21
133.7006423172
  0
LWPOLYLINE
  5
2F8
100
AcDbEntity
  8
RUNDUNGEN
100
AcDbPolyline
 62
7
  6
CONTINUOUS
 90
3
 70
0
 10
124.7114486198
 20
84.5206843501
 10
124.7158302467
 20
84.695963126
 10
124.7319592347
 20
85.4367697531
  0
LINE
  5
2F9
100
AcDbEntity
  8
RUNDUNGEN
100
AcDbLine
 62
7
  6
CONTINUOUS
 10
125.1765795521
 20
135.1176322863
 11
125.1582963886
 21
134.4414428744
  0
LINE
  5
2FA
100
AcDbEntity
  8
RUNDUNGEN
100
AcDbLine
 62
7
  6
CONTINUOUS
 10
125.1915045146
 20
135.5802361512
 11
125.1765795521
 21
135.1176322863
  0
LINE
  5
2FB
100
AcDbEntity
  8
RUNDUNGEN
100
AcDbLine
 62
7
  6
CONTINUOUS
 10
125.2073133153
 20
136.0036143083
 11
125.1915045146
 21
135.5802361512
  0
LINE
  5
2FC
100
AcDbEntity
  8
RUNDUNGEN
100
AcDbLine
 62
7
  6
CONTINUOUS
 10
125.2238774415
 20
136.3871735592
 11
125.2073133153
 21
136.0036143083
  0
LINE
  5
2FD
100
AcDbEntity
  8
RUNDUNGEN
100
AcDbLine
 62
7
  6
CONTINUOUS
 10
125.2352780824
 20
136.6207348297
 11
125.2238774415
 21
136.3871735592
  0
LINE
  5
2FE
100
AcDbEntity
  8
RUNDUNGEN
100
AcDbLine
 62
7
  6
CONTINUOUS
 10
125.2469255975
 20
136.8367090928
 11
125.2352780824
 21
136.6207348297
  0
LINE
  5
2FF
100
AcDbEntity
  8
RUNDUNGEN
100
AcDbLine
 62
7
  6
CONTINUOUS
 10
125.2587919326
 20
137.0352717606
 11
125.2469255975
 21
136.8367090928
  0
LINE
  5
300
100
AcDbEntity
  8
RUNDUNGEN
100
AcDbLine
 62
7
  6
CONTINUOUS
 10
125.2708559384
 20
137.2166610682
 11
125.2587919326
 21
137.0352717606
  0
LWPOLYLINE
  5
301
100
AcDbEntity
  8
RUNDUNGEN
100
AcDbPolyline
 62
7
  6
CONTINUOUS
 90
26
 70
0
 10
85.9016350476
 20
138.5688000372
 10
85.8065942546
 20
138.5598720519
 10
85.7055479831
 20
138.52965625
 10
85.6170055036
 20
138.4822604376
 10
85.5447316888
 20
138.4240289083
 10
85.4898283989
 20
138.3622067088
 10
85.4520789333
 20
138.3056035209
 10
85.4255196694
 20
138.2545768042
 10
85.4068101497
 20
138.2099227189
 10
85.3928221728
 20
138.1696418414
 10
85.3815075923
 20
138.1312111295
 10
85.3719874445
 20
138.0937679556
 10
85.3634845866
 20
138.0556305968
 10
85.3556992381
 20
138.0162886876
 10
85.3483281032
 20
137.9747400729
 10
85.3412681748
 20
137.9307124333
 10
85.3344043385
 20
137.8836838299
 10
85.327696249
 20
137.8334904607
 10
85.321100392
 20
137.7798868708
 10
85.314599639
 20
137.7227803206
 10
85.3081806005
 20
137.6620839466
 10
85.3018295018
 20
137.597679016
 10
85.2955371349
 20
137.5294633745
 10
85.2892972072
 20
137.4573433516
 10
85.2831044606
 20
137.3812169425
 10
85.2708559384
 20
137.2166610682
  0
LINE
  5
302
100
AcDbEntity
  8
02___PRT_ALL_AXES
100
AcDbLine
 62
7
  6
CONTINUOUS
 10
133.9724740662
 20
138.5688026033
 11
125.9016571763
 21
138.5688026033
  0
LINE
  5
303
100
AcDbEntity
  8
02___PRT_ALL_AXES
100
AcDbLine
 62
7
  6
CONTINUOUS
 10
113.9724740662
 20
138.5688026033
 11
105.9016571763
 21
138.5688026033
  0
LINE
  5
304
100
AcDbEntity
  8
02___PRT_ALL_AXES
100
AcDbLine
 62
7
  6
CONTINUOUS
 10
93.9724740662
 20
138.5688026033
 11
85.9016571763
 21
138.5688026033
  0
LINE
  5
305
100
AcDbEntity
  8
0
100
AcDbLine
 62
7
  6
CONTINUOUS
 10
73.9724740662
 20
138.5688026033
 11
65.9016571763
 21
138.5688026033
  0
LINE
  5
306
100
AcDbEntity
  8
RUNDUNGEN
100
AcDbLine
 62
7
  6
CONTINUOUS
 10
124.6926770661
 20
83.8612519555
 11
124.7114486198
 21
84.5206843501
  0
LINE
  5
307
100
AcDbEntity
  8
RUNDUNGEN
100
AcDbLine
 62
7
  6
CONTINUOUS
 10
124.6774413994
 20
83.411637673
 11
124.6926770661
 21
83.8612519555
  0
LINE
  5
308
100
AcDbEntity
  8
RUNDUNGEN
100
AcDbLine
 62
7
  6
CONTINUOUS
 10
124.6613658827
 20
83.001488681
 11
124.6774413994
 21
83.411637673
  0
LINE
  5
309
100
AcDbEntity
  8
RUNDUNGEN
100
AcDbLine
 62
7
  6
CONTINUOUS
 10
124.6502447202
 20
82.7502244014
 11
124.6613658827
 21
83.001488681
  0
LINE
  5
30A
100
AcDbEntity
  8
RUNDUNGEN
100
AcDbLine
 62
7
  6
CONTINUOUS
 10
124.638843316
 20
82.5166697872
 11
124.6502447202
 21
82.7502244014
  0
LINE
  5
30B
100
AcDbEntity
  8
RUNDUNGEN
100
AcDbLine
 62
7
  6
CONTINUOUS
 10
124.6271950261
 20
82.3007044027
 11
124.638843316
 21
82.5166697872
  0
LINE
  5
30C
100
AcDbEntity
  8
RUNDUNGEN
100
AcDbLine
 62
7
  6
CONTINUOUS
 10
124.615327977
 20
82.1021506533
 11
124.6271950261
 21
82.3007044027
  0
LWPOLYLINE
  5
30D
100
AcDbEntity
  8
RUNDUNGEN
100
AcDbPolyline
 62
7
  6
CONTINUOUS
 90
26
 70
0
 10
65.9016350476
 20
138.5688000372
 10
65.8065942546
 20
138.5598720519
 10
65.7055479831
 20
138.52965625
 10
65.6170055036
 20
138.4822604376
 10
65.5447316888
 20
138.4240289083
 10
65.4898283989
 20
138.3622067088
 10
65.4520789333
 20
138.3056035209
 10
65.4255196694
 20
138.2545768042
 10
65.4068101497
 20
138.2099227189
 10
65.3928221728
 20
138.1696418414
 10
65.3815075923
 20
138.1312111295
 10
65.3719874445
 20
138.0937679556
 10
65.3634845866
 20
138.0556305968
 10
65.3556992381
 20
138.0162886876
 10
65.3483281032
 20
137.9747400729
 10
65.3412681748
 20
137.9307124333
 10
65.3344043385
 20
137.8836838299
 10
65.327696249
 20
137.8334904607
 10
65.321100392
 20
137.7798868708
 10
65.314599639
 20
137.7227803206
 10
65.3081806005
 20
137.6620839466
 10
65.3018295018
 20
137.597679016
 10
65.2955371349
 20
137.5294633745
 10
65.2892972072
 20
137.4573433516
 10
65.2831044606
 20
137.3812169425
 10
65.2708559384
 20
137.2166610682
  0
LINE
  5
30E
100
AcDbEntity
  8
RUNDUNGEN
100
AcDbLine
 62
7
  6
CONTINUOUS
 10
134.7175604743
 20
134.3697689038
 11
134.7003867266
 21
135.0215882314
  0
LINE
  5
30F
100
AcDbEntity
  8
RUNDUNGEN
100
AcDbLine
 62
7
  6
CONTINUOUS
 10
134.7327456669
 20
133.6599670117
 11
134.7175604743
 21
134.3697689038
  0
LINE
  5
310
100
AcDbEntity
  8
RUNDUNGEN
100
AcDbLine
 62
7
  6
CONTINUOUS
 10
134.7484957841
 20
132.6984662806
 11
134.7327456669
 21
133.6599670117
  0
LINE
  5
311
100
AcDbEntity
  8
RUNDUNGEN
100
AcDbLine
 62
7
  6
CONTINUOUS
 10
134.7601511301
 20
131.6651939988
 11
134.7484957841
 21
132.6984662806
  0
LINE
  5
312
100
AcDbEntity
  8
RUNDUNGEN
100
AcDbLine
 62
7
  6
CONTINUOUS
 10
134.7672173663
 20
130.5742268466
 11
134.7601511301
 21
131.6651939988
  0
LINE
  5
313
100
AcDbEntity
  8
RUNDUNGEN
100
AcDbLine
 62
7
  6
CONTINUOUS
 10
134.7693006573
 20
125.3001254129
 11
134.7672173663
 21
130.5742268466
  0
LWPOLYLINE
  5
314
100
AcDbEntity
  8
RUNDUNGEN
100
AcDbPolyline
 62
7
  6
CONTINUOUS
 90
26
 70
0
 10
134.5889237611
 20
137.407592053
 10
134.5830714284
 20
137.4781798193
 10
134.5771812733
 20
137.5451733681
 10
134.5712505964
 20
137.6086471399
 10
134.565273293
 20
137.6686985951
 10
134.5592410555
 20
137.7254286855
 10
134.5531455848
 20
137.7789193082
 10
134.5469760235
 20
137.829257329
 10
134.5407095607
 20
137.8765998297
 10
134.5343232444
 20
137.9210670886
 10
134.5277622841
 20
137.9629521129
 10
134.5209812642
 20
138.0024130208
 10
134.5138328289
 20
138.0400700703
 10
134.5061745503
 20
138.0762840301
 10
134.4976895163
 20
138.1119305888
 10
134.48802798
 20
138.1475461885
 10
134.4764342436
 20
138.1844881095
 10
134.4620854989
 20
138.2233444754
 10
134.4428875303
 20
138.2666196296
 10
134.4157484992
 20
138.3161496957
 10
134.3775077338
 20
138.370970052
 10
134.3225135505
 20
138.4305469921
 10
134.2508551283
 20
138.4863841647
 10
134.163979538
 20
138.5315426339
 10
134.0650778639
 20
138.5603319277
 10
133.9724992691
 20
138.5688001189
  0
LINE
  5
315
100
AcDbEntity
  8
RUNDUNGEN
100
AcDbLine
 62
7
  6
CONTINUOUS
 10
134.6005221624
 20
137.2553234736
 11
134.5889237611
 21
137.407592053
  0
LINE
  5
316
100
AcDbEntity
  8
RUNDUNGEN
100
AcDbLine
 62
7
  6
CONTINUOUS
 10
134.6119763304
 20
137.0878516114
 11
134.6005221624
 21
137.2553234736
  0
LINE
  5
317
100
AcDbEntity
  8
RUNDUNGEN
100
AcDbLine
 62
7
  6
CONTINUOUS
 10
134.6232737898
 20
136.904819034
 11
134.6119763304
 21
137.0878516114
  0
LINE
  5
318
100
AcDbEntity
  8
RUNDUNGEN
100
AcDbLine
 62
7
  6
CONTINUOUS
 10
134.6343959501
 20
136.7059749777
 11
134.6232737898
 21
136.904819034
  0
LINE
  5
319
100
AcDbEntity
  8
RUNDUNGEN
100
AcDbLine
 62
7
  6
CONTINUOUS
 10
134.6453181124
 20
136.4911318352
 11
134.6343959501
 21
136.7059749777
  0
LINE
  5
31A
100
AcDbEntity
  8
RUNDUNGEN
100
AcDbLine
 62
7
  6
CONTINUOUS
 10
134.661261267
 20
136.1385956054
 11
134.6453181124
 21
136.4911318352
  0
LINE
  5
31B
100
AcDbEntity
  8
RUNDUNGEN
100
AcDbLine
 62
7
  6
CONTINUOUS
 10
134.6765758017
 20
135.7496171012
 11
134.661261267
 21
136.1385956054
  0
LINE
  5
31C
100
AcDbEntity
  8
RUNDUNGEN
100
AcDbLine
 62
7
  6
CONTINUOUS
 10
134.6911462506
 20
135.324595115
 11
134.6765758017
 21
135.7496171012
  0
LINE
  5
31D
100
AcDbEntity
  8
RUNDUNGEN
100
AcDbLine
 62
7
  6
CONTINUOUS
 10
134.7003867266
 20
135.0215882314
 11
134.6911462506
 21
135.324595115
  0
LINE
  5
31E
100
AcDbEntity
  8
RUNDUNGEN
100
AcDbLine
 62
9
  6
CONTINUOUS
 10
229.487761538
 20
89.5688026033
 11
228.9703117896
 21
89.5688026033
  0
LINE
  5
31F
100
AcDbEntity
  8
RUNDUNGEN
100
AcDbLine
 62
9
  6
CONTINUOUS
 10
211.487761538
 20
89.5688026033
 11
211.9703117896
 21
89.5688026033
  0
LINE
  5
320
100
AcDbEntity
  8
RUNDUNGEN
100
AcDbLine
 62
9
  6
CONTINUOUS
 10
229.487761538
 20
94.8366294797
 11
228.987761538
 21
94.8366294797
  0
LINE
  5
321
100
AcDbEntity
  8
RUNDUNGEN
100
AcDbLine
 62
7
  6
CONTINUOUS
 10
213.255156793
 20
94.9148549146
 11
211.987761538
 21
94.9809122542
  0
LINE
  5
322
100
AcDbEntity
  8
RUNDUNGEN
100
AcDbLine
 62
9
  6
CONTINUOUS
 10
229.4806737287
 20
94.7527392409
 11
228.9877640254
 21
94.8366573098
  0
LINE
  5
323
100
AcDbEntity
  8
RUNDUNGEN
100
AcDbLine
 62
9
  6
CONTINUOUS
 10
214.6190481334
 20
101.0270973664
 11
214.2768697822
 21
101.3916710571
  0
LINE
  5
324
100
AcDbEntity
  8
RUNDUNGEN
100
AcDbLine
 62
7
  6
CONTINUOUS
 10
211.487761538
 20
89.5688026033
 11
211.487761538
 21
129.5688026033
  0
LINE
  5
325
100
AcDbEntity
  8
RUNDUNGEN
100
AcDbLine
 62
9
  6
CONTINUOUS
 10
211.9703117896
 20
89.5688026033
 11
211.9703117896
 21
94.9818217447
  0
LINE
  5
326
100
AcDbEntity
  8
RUNDUNGEN
100
AcDbLine
 62
9
  6
CONTINUOUS
 10
211.9703117896
 20
127.9001190044
 11
211.9703117896
 21
129.5688026033
  0
LINE
  5
327
100
AcDbEntity
  8
RUNDUNGEN
100
AcDbLine
 62
9
  6
CONTINUOUS
 10
211.9777525089
 20
125.5244301313
 11
211.977761538
 21
119.3739018242
  0
LINE
  5
328
100
AcDbEntity
  8
RUNDUNGEN
100
AcDbLine
 62
9
  6
CONTINUOUS
 10
211.987761538
 20
94.9809122542
 11
211.987761538
 21
118.0688026033
  0
LINE
  5
329
100
AcDbEntity
  8
RUNDUNGEN
100
AcDbLine
 62
9
  6
CONTINUOUS
 10
214.6190481101
 20
118.110507862
 11
214.2768697817
 21
117.7459341565
  0
LINE
  5
32A
100
AcDbEntity
  8
RUNDUNGEN
100
AcDbLine
 62
9
  6
CONTINUOUS
 10
215.2883684018
 20
98.5688026033
 11
219.4737951048
 21
98.5688026033
  0
LINE
  5
32B
100
AcDbEntity
  8
RUNDUNGEN
100
AcDbLine
 62
9
  6
CONTINUOUS
 10
211.987761538
 20
98.9425115421
 11
213.5502607384
 21
98.9425115421
  0
LINE
  5
32C
100
AcDbEntity
  8
RUNDUNGEN
100
AcDbLine
 62
9
  6
CONTINUOUS
 10
211.987761538
 20
99.2208194847
 11
213.5502607384
 21
99.2208194847
  0
LINE
  5
32D
100
AcDbEntity
  8
RUNDUNGEN
100
AcDbLine
 62
9
  6
CONTINUOUS
 10
214.487761538
 20
99.5688026033
 11
213.4877615416
 21
99.5688026048
  0
LINE
  5
32E
100
AcDbEntity
  8
RUNDUNGEN
100
AcDbLine
 62
9
  6
CONTINUOUS
 10
213.4877613361
 20
120.0688026033
 11
213.4877612374
 21
119.5688002347
  0
LINE
  5
32F
100
AcDbEntity
  8
RUNDUNGEN
100
AcDbLine
 62
9
  6
CONTINUOUS
 10
213.5502607384
 20
98.9425115421
 11
213.5502607384
 21
99.2208194847
  0
LINE
  5
330
100
AcDbEntity
  8
RUNDUNGEN
100
AcDbLine
 62
9
  6
CONTINUOUS
 10
214.487761538
 20
120.0688026033
 11
214.487761538
 21
119.5688026033
  0
LINE
  5
331
100
AcDbEntity
  8
RUNDUNGEN
100
AcDbLine
 62
9
  6
CONTINUOUS
 10
215.2770670143
 20
99.0365149822
 11
215.2833447433
 21
99.5040692468
  0
LINE
  5
332
100
AcDbEntity
  8
RUNDUNGEN
100
AcDbLine
 62
9
  6
CONTINUOUS
 10
215.6404651826
 20
117.5991870973
 11
215.7272892715
 21
118.0915909738
  0
LINE
  5
333
100
AcDbEntity
  8
RUNDUNGEN
100
AcDbLine
 62
9
  6
CONTINUOUS
 10
211.487761538
 20
101.3916710571
 11
214.2768697821
 21
101.3916710571
  0
LINE
  5
334
100
AcDbEntity
  8
RUNDUNGEN
100
AcDbLine
 62
9
  6
CONTINUOUS
 10
214.6350808492
 20
101.9508444548
 11
211.987761538
 21
101.9508639606
  0
LINE
  5
335
100
AcDbEntity
  8
RUNDUNGEN
100
AcDbLine
 62
9
  6
CONTINUOUS
 10
215.6404651826
 20
101.5384181093
 11
215.7272892715
 21
101.0460142328
  0
LINE
  5
336
100
AcDbEntity
  8
RUNDUNGEN
100
AcDbLine
 62
9
  6
CONTINUOUS
 10
215.7272892715
 20
101.0460142328
 11
220.7482338045
 21
101.9313422226
  0
LINE
  5
337
100
AcDbEntity
  8
RUNDUNGEN
100
AcDbLine
 62
7
  6
CONTINUOUS
 10
215.6404651826
 20
101.5384181093
 11
220.6614097156
 21
102.4237460991
  0
LINE
  5
338
100
AcDbEntity
  8
RUNDUNGEN
100
AcDbLine
 62
9
  6
CONTINUOUS
 10
215.5536410938
 20
102.3104184376
 11
220.5745856268
 21
103.1957464274
  0
LINE
  5
339
100
AcDbEntity
  8
RUNDUNGEN
100
AcDbLine
 62
9
  6
CONTINUOUS
 10
221.487761538
 20
103.4085538521
 11
221.987761538
 21
103.4085538521
  0
LINE
  5
33A
100
AcDbEntity
  8
RUNDUNGEN
100
AcDbLine
 62
9
  6
CONTINUOUS
 10
219.4650755536
 20
99.0017273654
 11
219.4738057476
 21
99.4346519765
  0
LINE
  5
33B
100
AcDbEntity
  8
RUNDUNGEN
100
AcDbLine
 62
9
  6
CONTINUOUS
 10
220.6614097156
 20
116.7138591075
 11
220.7482338045
 21
117.206262984
  0
LINE
  5
33C
100
AcDbEntity
  8
RUNDUNGEN
100
AcDbLine
 62
9
  6
CONTINUOUS
 10
221.487761538
 20
105.2509388191
 11
221.9877615379
 21
105.2509388191
  0
LINE
  5
33D
100
AcDbEntity
  8
RUNDUNGEN
100
AcDbLine
 62
9
  6
CONTINUOUS
 10
214.2195285137
 20
120.6984368988
 11
212.1281256852
 21
125.1834647382
  0
LINE
  5
33E
100
AcDbEntity
  8
RUNDUNGEN
100
AcDbLine
 62
7
  6
CONTINUOUS
 10
214.6726824072
 20
120.7434657941
 11
212.5812795787
 21
125.2284936335
  0
LINE
  5
33F
100
AcDbEntity
  8
RUNDUNGEN
100
AcDbLine
 62
9
  6
CONTINUOUS
 10
220.6614097156
 20
102.4237460991
 11
220.748233804
 21
101.9313422226
  0
LINE
  5
340
100
AcDbEntity
  8
RUNDUNGEN
100
AcDbLine
 62
9
  6
CONTINUOUS
 10
220.487761538
 20
120.0688026033
 11
220.4877615379
 21
119.5688026037
  0
LINE
  5
341
100
AcDbEntity
  8
RUNDUNGEN
100
AcDbLine
 62
9
  6
CONTINUOUS
 10
220.987761538
 20
103.6881503039
 11
220.987761538
 21
106.7596340173
  0
LINE
  5
342
100
AcDbEntity
  8
RUNDUNGEN
100
AcDbLine
 62
9
  6
CONTINUOUS
 10
220.9877617817
 20
112.0983747375
 11
220.987761538
 21
115.4494549027
  0
LINE
  5
343
100
AcDbEntity
  8
RUNDUNGEN
100
AcDbLine
 62
7
  6
CONTINUOUS
 10
221.487761538
 20
103.4085538521
 11
221.487761538
 21
105.2509388191
  0
LINE
  5
344
100
AcDbEntity
  8
RUNDUNGEN
100
AcDbLine
 62
7
  6
CONTINUOUS
 10
221.487761538
 20
113.8866663875
 11
221.487761538
 21
115.7290513544
  0
LINE
  5
345
100
AcDbEntity
  8
RUNDUNGEN
100
AcDbLine
 62
9
  6
CONTINUOUS
 10
221.987761538
 20
103.4085538521
 11
221.987761538
 21
105.2509388191
  0
LINE
  5
346
100
AcDbEntity
  8
RUNDUNGEN
100
AcDbLine
 62
9
  6
CONTINUOUS
 10
221.987761538
 20
113.8866663875
 11
221.987761538
 21
115.7290513544
  0
LINE
  5
347
100
AcDbEntity
  8
RUNDUNGEN
100
AcDbLine
 62
9
  6
CONTINUOUS
 10
220.4960581821
 20
98.9921233477
 11
220.5043548264
 21
99.4141450947
  0
LINE
  5
348
100
AcDbEntity
  8
RUNDUNGEN
100
AcDbLine
 62
9
  6
CONTINUOUS
 10
213.2439031858
 20
96.2349053331
 11
214.219520822
 21
98.3271432624
  0
LINE
  5
349
100
AcDbEntity
  8
RUNDUNGEN
100
AcDbLine
 62
7
  6
CONTINUOUS
 10
213.6970570793
 20
96.3019041449
 11
214.6726824072
 21
98.3941394125
  0
LINE
  5
34A
100
AcDbEntity
  8
RUNDUNGEN
100
AcDbLine
 62
9
  6
CONTINUOUS
 10
213.6461014668
 20
95.0469497958
 11
215.2883684018
 21
98.5688026033
  0
LINE
  5
34B
100
AcDbEntity
  8
RUNDUNGEN
100
AcDbLine
 62
9
  6
CONTINUOUS
 10
220.987761538
 20
106.7596340173
 11
211.987761538
 21
106.7596340173
  0
LINE
  5
34C
100
AcDbEntity
  8
RUNDUNGEN
100
AcDbLine
 62
9
  6
CONTINUOUS
 10
211.487761538
 20
107.0392304691
 11
220.9877618207
 21
107.0392304691
  0
LINE
  5
34D
100
AcDbEntity
  8
RUNDUNGEN
100
AcDbLine
 62
9
  6
CONTINUOUS
 10
215.2883684018
 20
120.5688026033
 11
212.7666955998
 21
125.9765473785
  0
LINE
  5
34E
100
AcDbEntity
  8
RUNDUNGEN
100
AcDbLine
 62
9
  6
CONTINUOUS
 10
211.487761538
 20
112.0983747375
 11
220.9877617817
 21
112.0983747375
  0
LINE
  5
34F
100
AcDbEntity
  8
RUNDUNGEN
100
AcDbLine
 62
9
  6
CONTINUOUS
 10
220.987761538
 20
112.3779711893
 11
211.987761538
 21
112.3779711893
  0
LINE
  5
350
100
AcDbEntity
  8
RUNDUNGEN
100
AcDbLine
 62
9
  6
CONTINUOUS
 10
221.487761538
 20
113.8866663875
 11
221.987761538
 21
113.8866663875
  0
LINE
  5
351
100
AcDbEntity
  8
RUNDUNGEN
100
AcDbLine
 62
9
  6
CONTINUOUS
 10
228.9703117896
 20
129.5688026033
 11
228.9703108453
 21
125.3003664367
  0
LINE
  5
352
100
AcDbEntity
  8
RUNDUNGEN
100
AcDbLine
 62
9
  6
CONTINUOUS
 10
228.9703117896
 20
93.9631280183
 11
228.9703117896
 21
89.5688026033
  0
LINE
  5
353
100
AcDbEntity
  8
RUNDUNGEN
100
AcDbLine
 62
9
  6
CONTINUOUS
 10
228.987761538
 20
124.3009757269
 11
228.987761538
 21
94.8366278822
  0
LINE
  5
354
100
AcDbEntity
  8
RUNDUNGEN
100
AcDbLine
 62
7
  6
CONTINUOUS
 10
229.487761538
 20
129.5688026033
 11
229.487761538
 21
89.5688026033
  0
LINE
  5
355
100
AcDbEntity
  8
RUNDUNGEN
100
AcDbLine
 62
9
  6
CONTINUOUS
 10
221.487761538
 20
115.7290513544
 11
221.9877615379
 21
115.729051354
  0
LINE
  5
356
100
AcDbEntity
  8
RUNDUNGEN
100
AcDbLine
 62
9
  6
CONTINUOUS
 10
214.6347755526
 20
117.1869160115
 11
211.987761538
 21
117.186741246
  0
LINE
  5
357
100
AcDbEntity
  8
RUNDUNGEN
100
AcDbLine
 62
9
  6
CONTINUOUS
 10
220.5745856268
 20
115.9418587792
 11
215.5536410938
 21
116.827186769
  0
LINE
  5
358
100
AcDbEntity
  8
RUNDUNGEN
100
AcDbLine
 62
7
  6
CONTINUOUS
 10
220.6614097156
 20
116.7138591075
 11
215.6404651826
 21
117.5991870973
  0
LINE
  5
359
100
AcDbEntity
  8
RUNDUNGEN
100
AcDbLine
 62
9
  6
CONTINUOUS
 10
220.7482338045
 20
117.206262984
 11
215.7272892715
 21
118.0915909738
  0
LINE
  5
35A
100
AcDbEntity
  8
RUNDUNGEN
100
AcDbLine
 62
9
  6
CONTINUOUS
 10
213.5502607384
 20
99.2208194847
 11
214.0190111382
 21
99.394811044
  0
LINE
  5
35B
100
AcDbEntity
  8
RUNDUNGEN
100
AcDbLine
 62
9
  6
CONTINUOUS
 10
211.487761538
 20
117.7459341495
 11
214.2768697821
 21
117.7459341495
  0
LINE
  5
35C
100
AcDbEntity
  8
RUNDUNGEN
100
AcDbLine
 62
9
  6
CONTINUOUS
 10
211.487761538
 20
118.0688026033
 11
211.987761538
 21
118.0688026033
  0
LINE
  5
35D
100
AcDbEntity
  8
RUNDUNGEN
100
AcDbLine
 62
9
  6
CONTINUOUS
 10
213.487761538
 20
119.5688026001
 11
220.487761538
 21
119.5688026033
  0
LINE
  5
35E
100
AcDbEntity
  8
RUNDUNGEN
100
AcDbLine
 62
9
  6
CONTINUOUS
 10
212.3764491213
 20
119.7265005464
 11
211.487761538
 21
119.7265005464
  0
LINE
  5
35F
100
AcDbEntity
  8
0
100
AcDbLine
 62
7
  6
CONTINUOUS
 10
214.487761538
 20
120.0688026033
 11
213.4877613361
 21
120.0688026033
  0
LINE
  5
360
100
AcDbEntity
  8
RUNDUNGEN
100
AcDbLine
 62
7
  6
CONTINUOUS
 10
213.487761538
 20
120.0688026033
 11
220.487761538
 21
120.0688026033
  0
LINE
  5
361
100
AcDbEntity
  8
RUNDUNGEN
100
AcDbLine
 62
9
  6
CONTINUOUS
 10
211.977761538
 20
120.3916214889
 11
213.7334691536
 21
120.3916214889
  0
LINE
  5
362
100
AcDbEntity
  8
RUNDUNGEN
100
AcDbLine
 62
9
  6
CONTINUOUS
 10
220.5052112863
 20
120.5688026033
 11
215.2883684018
 21
120.5688026033
  0
LINE
  5
363
100
AcDbEntity
  8
RUNDUNGEN
100
AcDbLine
 62
9
  6
CONTINUOUS
 10
229.487761538
 20
124.3009757269
 11
228.987761538
 21
124.3009757269
  0
LINE
  5
364
100
AcDbEntity
  8
RUNDUNGEN
100
AcDbLine
 62
9
  6
CONTINUOUS
 10
228.562761538
 20
124.5643670707
 11
228.987761538
 21
124.3009757269
  0
LINE
  5
365
100
AcDbEntity
  8
RUNDUNGEN
100
AcDbLine
 62
9
  6
CONTINUOUS
 10
228.479938018
 20
94.5180650279
 11
228.7330481649
 21
94.6710912533
  0
LINE
  5
366
100
AcDbEntity
  8
RUNDUNGEN
100
AcDbLine
 62
9
  6
CONTINUOUS
 10
229.487761538
 20
129.5688026033
 11
228.9703117896
 21
129.5688026033
  0
LINE
  5
367
100
AcDbEntity
  8
RUNDUNGEN
100
AcDbLine
 62
9
  6
CONTINUOUS
 10
211.487761538
 20
129.5688026033
 11
211.9703117896
 21
129.5688026033
  0
ARC
  5
368
100
AcDbEntity
  8
RUNDUNGEN
100
AcDbCircle
 62
7
  6
CONTINUOUS
 10
55.5920918555
 20
94.5254698903
 40
0.6550264168
100
AcDbArc
 50
179.9386433103
 51
183.3617540832
  0
ARC
  5
369
100
AcDbEntity
  8
RUNDUNGEN
100
AcDbCircle
 62
7
  6
CONTINUOUS
 10
55.4733466758
 20
94.5184859456
 40
0.5360760361
100
AcDbArc
 50
183.3608234531
 51
187.5026533744
  0
ARC
  5
36A
100
AcDbEntity
  8
RUNDUNGEN
100
AcDbCircle
 62
7
  6
CONTINUOUS
 10
54.6046582841
 20
93.9628352311
 40
0.5005892827
100
AcDbArc
 50
0.0487152563
 51
33.662463507
  0
ARC
  5
36B
100
AcDbEntity
  8
RUNDUNGEN
100
AcDbCircle
 62
7
  6
CONTINUOUS
 10
65.2692720453
 20
93.8366598691
 40
0.5002751363
100
AcDbArc
 50
90.0664908126
 51
179.9337127511
  0
ARC
  5
36C
100
AcDbEntity
  8
RUNDUNGEN
100
AcDbCircle
 62
7
  6
CONTINUOUS
 10
85.2692720532
 20
93.836659909
 40
0.5002751124
100
AcDbArc
 50
90.0664917147
 51
179.9337173162
  0
ARC
  5
36D
100
AcDbEntity
  8
RUNDUNGEN
100
AcDbCircle
 62
7
  6
CONTINUOUS
 10
94.604855302
 20
93.8366773257
 40
0.5002642488
100
AcDbArc
 50
0.0642894243
 51
89.9330174198
  0
ARC
  5
36E
100
AcDbEntity
  8
RUNDUNGEN
100
AcDbCircle
 62
7
  6
CONTINUOUS
 10
74.604855302
 20
93.8366773257
 40
0.5002642488
100
AcDbArc
 50
0.0642894244
 51
89.9330174198
  0
ARC
  5
36F
100
AcDbEntity
  8
RUNDUNGEN
100
AcDbCircle
 62
7
  6
CONTINUOUS
 10
58.4370658142
 20
84.4188026033
 40
0.5
100
AcDbArc
 50
180.0
 51
270.0
  0
ARC
  5
370
100
AcDbEntity
  8
RUNDUNGEN
100
AcDbCircle
 62
7
  6
CONTINUOUS
 10
61.4370658142
 20
84.4188026033
 40
0.5
100
AcDbArc
 50
270.0
 51
360.0
  0
ARC
  5
371
100
AcDbEntity
  8
RUNDUNGEN
100
AcDbCircle
 62
7
  6
CONTINUOUS
 10
61.4370658142
 20
96.2188026033
 40
0.5
100
AcDbArc
 50
0.0
 51
90.0
  0
ARC
  5
372
100
AcDbEntity
  8
RUNDUNGEN
100
AcDbCircle
 62
7
  6
CONTINUOUS
 10
58.4370658142
 20
94.7188026033
 40
0.5
100
AcDbArc
 50
90.0
 51
180.0
  0
ARC
  5
373
100
AcDbEntity
  8
RUNDUNGEN
100
AcDbCircle
 62
7
  6
CONTINUOUS
 10
61.4370658142
 20
94.7188026033
 40
0.5
100
AcDbArc
 50
0.0
 51
90.0
  0
ARC
  5
374
100
AcDbEntity
  8
RUNDUNGEN
100
AcDbCircle
 62
7
  6
CONTINUOUS
 10
55.4370658142
 20
94.5168208327
 40
0.5
100
AcDbArc
 50
191.5804977239
 51
197.7180280328
  0
ARC
  5
375
100
AcDbEntity
  8
RUNDUNGEN
100
AcDbCircle
 62
7
  6
CONTINUOUS
 10
55.4370658142
 20
94.5168208327
 40
0.5
100
AcDbArc
 50
206.5770262337
 51
211.5587133385
  0
ARC
  5
376
100
AcDbEntity
  8
RUNDUNGEN
100
AcDbCircle
 62
7
  6
CONTINUOUS
 10
58.4370658142
 20
96.2188026033
 40
0.5
100
AcDbArc
 50
89.9999988025
 51
179.9999999452
  0
ARC
  5
377
100
AcDbEntity
  8
RUNDUNGEN
100
AcDbCircle
 62
7
  6
CONTINUOUS
 10
55.4019262692
 20
94.5093177791
 40
0.4640700258
100
AcDbArc
 50
187.5317706454
 51
191.5438350816
  0
ARC
  5
378
100
AcDbEntity
  8
RUNDUNGEN
100
AcDbCircle
 62
7
  6
CONTINUOUS
 10
55.1288170608
 20
94.5778312889
 40
0.3113944523
100
AcDbArc
 50
243.8562258426
 51
248.9382195329
  0
ARC
  5
379
100
AcDbEntity
  8
RUNDUNGEN
100
AcDbCircle
 62
7
  6
CONTINUOUS
 10
55.2133009269
 20
94.3694325954
 40
0.2328259162
100
AcDbArc
 50
197.7905860996
 51
200.5870882376
  0
ARC
  5
37A
100
AcDbEntity
  8
RUNDUNGEN
100
AcDbCircle
 62
7
  6
CONTINUOUS
 10
85.7848701844
 20
123.7240774131
 40
49.1487735842
100
AcDbArc
 50
0.9457896073
 51
1.2021860365
  0
ARC
  5
37B
100
AcDbEntity
  8
RUNDUNGEN
100
AcDbCircle
 62
7
  6
CONTINUOUS
 10
84.604859922
 20
125.3009473901
 40
0.5002763339
100
AcDbArc
 50
270.0664518494
 51
359.9334778268
  0
ARC
  5
37C
100
AcDbEntity
  8
RUNDUNGEN
100
AcDbCircle
 62
7
  6
CONTINUOUS
 10
64.604859922
 20
125.3009473901
 40
0.5002763339
100
AcDbArc
 50
270.0664518493
 51
359.9334778268
  0
ARC
  5
37D
100
AcDbEntity
  8
RUNDUNGEN
100
AcDbCircle
 62
7
  6
CONTINUOUS
 10
75.2692716771
 20
125.3009468406
 40
0.5002759634
100
AcDbArc
 50
180.0664592888
 51
269.9335514709
  0
ARC
  5
37E
100
AcDbEntity
  8
RUNDUNGEN
100
AcDbCircle
 62
7
  6
CONTINUOUS
 10
55.4370658164
 20
124.3009757247
 40
0.5000000022
100
AcDbArc
 50
90.0000002513
 51
179.9999997487
  0
ARC
  5
37F
100
AcDbEntity
  8
RUNDUNGEN
100
AcDbCircle
 62
7
  6
CONTINUOUS
 10
125.2692720532
 20
93.836659909
 40
0.5002751124
100
AcDbArc
 50
90.0664917147
 51
179.9337173162
  0
ARC
  5
380
100
AcDbEntity
  8
RUNDUNGEN
100
AcDbCircle
 62
7
  6
CONTINUOUS
 10
105.2692720532
 20
93.836659909
 40
0.5002751124
100
AcDbArc
 50
90.0664917147
 51
179.9337173162
  0
ARC
  5
381
100
AcDbEntity
  8
RUNDUNGEN
100
AcDbCircle
 62
7
  6
CONTINUOUS
 10
114.604855302
 20
93.8366773257
 40
0.5002642488
100
AcDbArc
 50
0.0642894244
 51
89.9330174198
  0
ARC
  5
382
100
AcDbEntity
  8
RUNDUNGEN
100
AcDbCircle
 62
7
  6
CONTINUOUS
 10
127.0210280714
 20
124.3074293457
 40
7.9087479721
100
AcDbArc
 50
359.953246056
 51
0.7999611355
  0
ARC
  5
383
100
AcDbEntity
  8
RUNDUNGEN
100
AcDbCircle
 62
7
  6
CONTINUOUS
 10
129.3168275357
 20
124.3377125434
 40
5.6127497523
100
AcDbArc
 50
0.8180557194
 51
1.0321930838
  0
ARC
  5
384
100
AcDbEntity
  8
RUNDUNGEN
100
AcDbCircle
 62
7
  6
CONTINUOUS
 10
135.2703079676
 20
125.3015427064
 40
0.5013974666
100
AcDbArc
 50
208.7081690041
 51
218.2191161032
  0
ARC
  5
385
100
AcDbEntity
  8
RUNDUNGEN
100
AcDbCircle
 62
7
  6
CONTINUOUS
 10
124.604859922
 20
125.3009473901
 40
0.5002763339
100
AcDbArc
 50
270.0664518494
 51
359.9334778268
  0
ARC
  5
386
100
AcDbEntity
  8
RUNDUNGEN
100
AcDbCircle
 62
7
  6
CONTINUOUS
 10
104.604859922
 20
125.3009473901
 40
0.5002763339
100
AcDbArc
 50
270.0664518494
 51
359.9334778268
  0
ARC
  5
387
100
AcDbEntity
  8
RUNDUNGEN
100
AcDbCircle
 62
7
  6
CONTINUOUS
 10
115.2692716771
 20
125.3009468406
 40
0.5002759634
100
AcDbArc
 50
180.0664592888
 51
269.9335514709
  0
ARC
  5
388
100
AcDbEntity
  8
RUNDUNGEN
100
AcDbCircle
 62
7
  6
CONTINUOUS
 10
95.2692716771
 20
125.3009468406
 40
0.5002759634
100
AcDbArc
 50
180.0664592888
 51
269.9335514709
  0
ARC
  5
389
100
AcDbEntity
  8
RUNDUNGEN
100
AcDbCircle
 62
9
  6
CONTINUOUS
 10
207.400419944
 20
-1104.6348492187
 40
1203.697040049
100
AcDbArc
 50
89.425714778
 51
89.6250688278
  0
ARC
  5
38A
100
AcDbEntity
  8
RUNDUNGEN
100
AcDbCircle
 62
9
  6
CONTINUOUS
 10
207.3940806893
 20
-503.2572367248
 40
602.8129332254
100
AcDbArc
 50
88.8517771357
 51
89.2501248504
  0
ARC
  5
38B
100
AcDbEntity
  8
RUNDUNGEN
100
AcDbCircle
 62
9
  6
CONTINUOUS
 10
214.4738097557
 20
96.7806315001
 40
2.2880808871
100
AcDbArc
 50
87.9930822424
 51
89.3908430092
  0
ARC
  5
38C
100
AcDbEntity
  8
RUNDUNGEN
100
AcDbCircle
 62
9
  6
CONTINUOUS
 10
214.4877613655
 20
99.290495287
 40
1.0000000563
100
AcDbArc
 50
200.3640402416
 51
254.4404051699
  0
ARC
  5
38D
100
AcDbEntity
  8
RUNDUNGEN
100
AcDbCircle
 62
9
  6
CONTINUOUS
 10
214.487761538
 20
99.5688026033
 40
1.0
100
AcDbArc
 50
180.0
 51
200.3640031586
  0
ARC
  5
38E
100
AcDbEntity
  8
RUNDUNGEN
100
AcDbCircle
 62
7
  6
CONTINUOUS
 10
214.2195255762
 20
98.6054452461
 40
0.5000006344
100
AcDbArc
 50
335.0004847039
 51
74.4406285524
  0
ARC
  5
38F
100
AcDbEntity
  8
RUNDUNGEN
100
AcDbCircle
 62
7
  6
CONTINUOUS
 10
214.487761538
 20
99.5688026033
 40
0.5
100
AcDbArc
 50
180.0
 51
268.8705800962
  0
ARC
  5
390
100
AcDbEntity
  8
RUNDUNGEN
100
AcDbCircle
 62
9
  6
CONTINUOUS
 10
214.0878648247
 20
127.4439209705
 40
2.1661087723
100
AcDbArc
 50
167.8424001815
 51
171.2644182538
  0
ARC
  5
391
100
AcDbEntity
  8
RUNDUNGEN
100
AcDbCircle
 62
7
  6
CONTINUOUS
 10
213.487761538
 20
118.0688026033
 40
2.0
100
AcDbArc
 50
90.0000083174
 51
179.9999999549
  0
ARC
  5
392
100
AcDbEntity
  8
RUNDUNGEN
100
AcDbCircle
 62
9
  6
CONTINUOUS
 10
213.487761538
 20
118.0688026033
 40
1.5
100
AcDbArc
 50
90.0000002007
 51
180.0
  0
ARC
  5
393
100
AcDbEntity
  8
RUNDUNGEN
100
AcDbCircle
 62
9
  6
CONTINUOUS
 10
214.4877790313
 20
119.7350551258
 40
1.0000313898
100
AcDbArc
 50
105.5596881506
 51
138.9630386006
  0
ARC
  5
394
100
AcDbEntity
  8
RUNDUNGEN
100
AcDbCircle
 62
7
  6
CONTINUOUS
 10
214.487761538
 20
119.5688026033
 40
0.5
100
AcDbArc
 50
90.0
 51
180.0
  0
ARC
  5
395
100
AcDbEntity
  8
RUNDUNGEN
100
AcDbCircle
 62
7
  6
CONTINUOUS
 10
214.2195285137
 20
120.5321566632
 40
0.5
100
AcDbArc
 50
291.2304854928
 51
25.0
  0
ARC
  5
396
100
AcDbEntity
  8
RUNDUNGEN
100
AcDbCircle
 62
9
  6
CONTINUOUS
 10
215.9879134548
 20
99.8479807906
 40
2.5004382914
100
AcDbArc
 50
100.0017638969
 51
122.7543408885
  0
ARC
  5
397
100
AcDbEntity
  8
RUNDUNGEN
100
AcDbCircle
 62
9
  6
CONTINUOUS
 10
215.987761538
 20
99.5688026033
 40
2.5
100
AcDbArc
 50
133.1850364137
 51
180.0
  0
ARC
  5
398
100
AcDbEntity
  8
RUNDUNGEN
100
AcDbCircle
 62
7
  6
CONTINUOUS
 10
215.987761538
 20
99.5688026033
 40
2.0
100
AcDbArc
 50
100.0
 51
180.0
  0
ARC
  5
399
100
AcDbEntity
  8
RUNDUNGEN
100
AcDbCircle
 62
9
  6
CONTINUOUS
 10
215.987761538
 20
99.5688026033
 40
1.5
100
AcDbArc
 50
100.0
 51
179.9753458882
  0
ARC
  5
39A
100
AcDbEntity
  8
RUNDUNGEN
100
AcDbCircle
 62
9
  6
CONTINUOUS
 10
215.862710826
 20
113.6926322757
 40
22.9534053786
100
AcDbArc
 50
302.6442799502
 51
303.3456738911
  0
ARC
  5
39B
100
AcDbEntity
  8
RUNDUNGEN
100
AcDbCircle
 62
9
  6
CONTINUOUS
 10
215.9883191532
 20
119.2909013938
 40
2.5017663296
100
AcDbArc
 50
237.245864014
 51
259.9941652672
  0
ARC
  5
39C
100
AcDbEntity
  8
RUNDUNGEN
100
AcDbCircle
 62
9
  6
CONTINUOUS
 10
215.987761538
 20
119.5688026033
 40
2.5
100
AcDbArc
 50
179.9999991144
 51
226.8149635863
  0
ARC
  5
39D
100
AcDbEntity
  8
RUNDUNGEN
100
AcDbCircle
 62
7
  6
CONTINUOUS
 10
215.987761538
 20
119.5688026033
 40
2.0
100
AcDbArc
 50
180.0
 51
260.0
  0
ARC
  5
39E
100
AcDbEntity
  8
RUNDUNGEN
100
AcDbCircle
 62
9
  6
CONTINUOUS
 10
215.0212853463
 20
119.5770214954
 40
1.5249767216
100
AcDbArc
 50
154.5755310825
 51
161.1837654879
  0
ARC
  5
39F
100
AcDbEntity
  8
RUNDUNGEN
100
AcDbCircle
 62
9
  6
CONTINUOUS
 10
215.987761538
 20
119.5688026033
 40
1.5
100
AcDbArc
 50
180.0
 51
260.0
  0
ARC
  5
3A0
100
AcDbEntity
  8
RUNDUNGEN
100
AcDbCircle
 62
9
  6
CONTINUOUS
 10
214.884739666
 20
119.6424487778
 40
1.3735659954
100
AcDbArc
 50
146.9465136162
 51
154.5950892062
  0
ARC
  5
3A1
100
AcDbEntity
  8
RUNDUNGEN
100
AcDbCircle
 62
9
  6
CONTINUOUS
 10
219.4744283715
 20
507.5515223547
 40
408.9827197519
100
AcDbArc
 50
269.9999112835
 51
270.1444060355
  0
ARC
  5
3A2
100
AcDbEntity
  8
RUNDUNGEN
100
AcDbCircle
 62
9
  6
CONTINUOUS
 10
220.3179803805
 20
89.5805447851
 40
9.8351461979
100
AcDbArc
 50
31.171099335
 51
88.9142134627
  0
ARC
  5
3A3
100
AcDbEntity
  8
RUNDUNGEN
100
AcDbCircle
 62
9
  6
CONTINUOUS
 10
220.4189209633
 20
89.4922621105
 40
9.4998267837
100
AcDbArc
 50
31.9422566173
 51
89.5347901768
  0
ARC
  5
3A4
100
AcDbEntity
  8
RUNDUNGEN
100
AcDbCircle
 62
7
  6
CONTINUOUS
 10
220.487761538
 20
89.5688026033
 40
9.0
100
AcDbArc
 50
180.0
 51
360.0
  0
ARC
  5
3A5
100
AcDbEntity
  8
RUNDUNGEN
100
AcDbCircle
 62
9
  6
CONTINUOUS
 10
220.4703117896
 20
89.5688164191
 40
8.4999748783
100
AcDbArc
 50
180.0000931278
 51
359.9999068722
  0
CIRCLE
  5
3A6
100
AcDbEntity
  8
AUSFORMSCHRAEGEN
100
AcDbCircle
 62
7
  6
CONTINUOUS
 10
220.487761538
 20
89.5688026033
 40
3.185
  0
ARC
  5
3A7
100
AcDbEntity
  8
RUNDUNGEN
100
AcDbCircle
 62
9
  6
CONTINUOUS
 10
220.487761538
 20
103.4085538521
 40
1.5
100
AcDbArc
 50
280.0
 51
360.0
  0
ARC
  5
3A8
100
AcDbEntity
  8
RUNDUNGEN
100
AcDbCircle
 62
7
  6
CONTINUOUS
 10
220.487761538
 20
103.4085538521
 40
1.0
100
AcDbArc
 50
280.0
 51
360.0
  0
ARC
  5
3A9
100
AcDbEntity
  8
RUNDUNGEN
100
AcDbCircle
 62
9
  6
CONTINUOUS
 10
220.4877595438
 20
103.6881519772
 40
0.5000019942
100
AcDbArc
 50
280.0001917473
 51
359.9998082527
  0
ARC
  5
3AA
100
AcDbEntity
  8
RUNDUNGEN
100
AcDbCircle
 62
9
  6
CONTINUOUS
 10
220.487761538
 20
129.5688026033
 40
10.0
100
AcDbArc
 50
270.0
 51
328.2116693829
  0
ARC
  5
3AB
100
AcDbEntity
  8
RUNDUNGEN
100
AcDbCircle
 62
7
  6
CONTINUOUS
 10
220.487761538
 20
129.5688026033
 40
9.5
100
AcDbArc
 50
270.0
 51
328.2116693829
  0
ARC
  5
3AC
100
AcDbEntity
  8
RUNDUNGEN
100
AcDbCircle
 62
9
  6
CONTINUOUS
 10
220.5048701085
 20
129.5694154322
 40
9.0006541613
100
AcDbArc
 50
270.0021718577
 51
328.2094975243
  0
ARC
  5
3AD
100
AcDbEntity
  8
RUNDUNGEN
100
AcDbCircle
 62
7
  6
CONTINUOUS
 10
220.487761538
 20
129.5688026033
 40
9.0
100
AcDbArc
 50
0.0
 51
180.0
  0
ARC
  5
3AE
100
AcDbEntity
  8
RUNDUNGEN
100
AcDbCircle
 62
9
  6
CONTINUOUS
 10
219.9934146733
 20
128.8558703803
 40
8.6803994187
100
AcDbArc
 50
202.5685692819
 51
205.0284820216
  0
ARC
  5
3AF
100
AcDbEntity
  8
RUNDUNGEN
100
AcDbCircle
 62
9
  6
CONTINUOUS
 10
220.5017691105
 20
129.5793915932
 40
8.5329859165
100
AcDbArc
 50
192.2673847607
 51
204.9751723179
  0
ARC
  5
3B0
100
AcDbEntity
  8
RUNDUNGEN
100
AcDbCircle
 62
9
  6
CONTINUOUS
 10
220.470308018
 20
129.5687877374
 40
8.4999753291
100
AcDbArc
 50
0.0001002061
 51
179.9998997938
  0
CIRCLE
  5
3B1
100
AcDbEntity
  8
AUSFORMSCHRAEGEN
100
AcDbCircle
 62
7
  6
CONTINUOUS
 10
220.487761538
 20
129.5688026033
 40
3.185
  0
ARC
  5
3B2
100
AcDbEntity
  8
RUNDUNGEN
100
AcDbCircle
 62
9
  6
CONTINUOUS
 10
220.487761538
 20
115.7290513544
 40
1.5
100
AcDbArc
 50
0.0
 51
80.0
  0
ARC
  5
3B3
100
AcDbEntity
  8
RUNDUNGEN
100
AcDbCircle
 62
7
  6
CONTINUOUS
 10
220.487761538
 20
115.7290513544
 40
1.0
100
AcDbArc
 50
0.0
 51
80.0
  0
ARC
  5
3B4
100
AcDbEntity
  8
RUNDUNGEN
100
AcDbCircle
 62
9
  6
CONTINUOUS
 10
220.4877596147
 20
115.4494532889
 40
0.5000019232
100
AcDbArc
 50
0.0001849255
 51
79.9998150745
  0
ARC
  5
3B5
100
AcDbEntity
  8
RUNDUNGEN
100
AcDbCircle
 62
9
  6
CONTINUOUS
 10
227.7685210061
 20
95.0421869273
 40
1.7364471877
100
AcDbArc
 50
346.1091524994
 51
350.4047701878
  0
ARC
  5
3B6
100
AcDbEntity
  8
RUNDUNGEN
100
AcDbCircle
 62
9
  6
CONTINUOUS
 10
227.948660335
 20
94.9993791659
 40
1.5512999964
100
AcDbArc
 50
344.9687584017
 51
346.0467065123
  0
ARC
  5
3B7
100
AcDbEntity
  8
RUNDUNGEN
100
AcDbCircle
 62
7
  6
CONTINUOUS
 10
228.4654597791
 20
95.5769716759
 40
1.4286694905
100
AcDbArc
 50
290.6750447615
 51
296.4900190762
  0
ARC
  5
3B8
100
AcDbEntity
  8
RUNDUNGEN
100
AcDbCircle
 62
9
  6
CONTINUOUS
 10
228.9784480139
 20
94.8345529541
 40
0.8714629176
100
AcDbArc
 50
212.5992363943
 51
269.465062627
  0
ARC
  5
3B9
100
AcDbEntity
  8
RUNDUNGEN
100
AcDbCircle
 62
9
  6
CONTINUOUS
 10
228.9836281489
 20
94.8355092324
 40
0.5953764136
100
AcDbArc
 50
212.2214192164
 51
268.6762446985
  0
ARC
  5
3BA
100
AcDbEntity
  8
RUNDUNGEN
100
AcDbCircle
 62
7
  6
CONTINUOUS
 10
228.987761538
 20
94.8366294797
 40
0.5
100
AcDbArc
 50
350.3419080659
 51
360.0
  0
ARC
  5
3BB
100
AcDbEntity
  8
RUNDUNGEN
100
AcDbCircle
 62
9
  6
CONTINUOUS
 10
229.0065271536
 20
94.8363349684
 40
0.3195250266
100
AcDbArc
 50
211.1415548797
 51
256.0965789916
  0
ARC
  5
3BC
100
AcDbEntity
  8
RUNDUNGEN
100
AcDbCircle
 62
9
  6
CONTINUOUS
 10
232.5120302486
 20
129.4395978209
 40
20.9041883067
100
AcDbArc
 50
190.1793422574
 51
190.7945990103
  0
ARC
  5
3BD
100
AcDbEntity
  8
RUNDUNGEN
100
AcDbCircle
 62
9
  6
CONTINUOUS
 10
227.637851076
 20
132.2585794983
 40
16.616932705
100
AcDbArc
 50
202.9808133396
 51
205.0284100539
  0
ARC
  5
3BE
100
AcDbEntity
  8
RUNDUNGEN
100
AcDbCircle
 62
9
  6
CONTINUOUS
 10
229.0052139838
 20
124.3009708963
 40
1.0000048375
100
AcDbArc
 50
92.0001991114
 51
148.2115155487
  0
ARC
  5
3BF
100
AcDbEntity
  8
RUNDUNGEN
100
AcDbCircle
 62
7
  6
CONTINUOUS
 10
228.987761538
 20
124.3009757269
 40
0.5
100
AcDbArc
 50
0.0
 51
148.2116693829
  0
SPLINE
  5
3C0
100
AcDbEntity
  8
RUNDUNGEN
100
AcDbSpline
 62
7
  6
CONTINUOUS
 70
0
 71
3
 72
8
 73
4
 74
0
 42
0.0000001
 43
0.0000001
 44
0.0000000001
 40
0.0
 40
0.0
 40
0.0
 40
0.0
 40
1.0
 40
1.0
 40
1.0
 40
1.0
 10
134.8763853712
 20
124.9913429231
 30
0.0
 10
134.9033841917
 20
124.9570824864
 30
0.0
 10
134.9192873218
 20
124.911353525
 30
0.0
 10
134.9193402589
 20
124.867733449
 30
0.0
  0
SPLINE
  5
3C1
100
AcDbEntity
  8
RUNDUNGEN
100
AcDbSpline
 62
7
  6
CONTINUOUS
 70
0
 71
3
 72
15
 73
11
 74
0
 42
0.0000001
 43
0.0000001
 44
0.0000000001
 40
0.0
 40
0.0
 40
0.0
 40
0.0
 40
0.2500756908
 40
0.625189227
 40
0.7189676111
 40
0.8127459934
 40
0.8596351381
 40
0.9065243673
 40
0.9532995024
 40
1.0
 40
1.0
 40
1.0
 40
1.0
 10
134.9226100195
 20
94.8366294797
 30
0.0
 10
134.9226100195
 20
97.2763411108
 30
0.0
 10
134.9226204161
 20
103.3756201822
 30
0.0
 10
134.9225725919
 20
110.3897911526
 30
0.0
 10
134.9226404297
 20
115.879142264
 30
0.0
 10
134.9225166519
 20
118.1663715179
 30
0.0
 10
134.9227719253
 20
119.996154965
 30
0.0
 10
134.9219882176
 20
121.3673804196
 30
0.0
 10
134.9249265657
 20
122.7367631377
 30
0.0
 10
134.9292061967
 20
123.6486936636
 30
0.0
 10
134.9296700528
 20
124.1042984756
 30
0.0
  0
LINE
  5
3C2
100
AcDbEntity
  8
RUNDUNGEN
100
AcDbLine
 62
7
  6
CONTINUOUS
 10
134.9296700528
 20
124.1042984756
 11
134.9297734104
 21
124.3009757269
  0
LINE
  5
3C3
100
AcDbEntity
  8
RUNDUNGEN
100
AcDbLine
 62
7
  6
CONTINUOUS
 10
134.9286665141
 20
124.4388217029
 11
134.927798533
 21
124.4873258923
  0
LINE
  5
3C4
100
AcDbEntity
  8
RUNDUNGEN
100
AcDbLine
 62
7
  6
CONTINUOUS
 10
134.927798533
 20
124.4873258923
 11
134.9269477502
 21
124.5353463867
  0
SPLINE
  5
3C5
100
AcDbEntity
  8
RUNDUNGEN
100
AcDbSpline
 62
7
  6
CONTINUOUS
 70
0
 71
3
 72
10
 73
6
 74
0
 42
0.0000001
 43
0.0000001
 44
0.0000000001
 40
0.0
 40
0.0
 40
0.0
 40
0.0
 40
0.5530170761
 40
0.8113689606
 40
1.0
 40
1.0
 40
1.0
 40
1.0
 10
134.9228253233
 20
124.7552464536
 30
0.0
 10
134.9223746717
 20
124.7759883831
 30
0.0
 10
134.921906318
 20
124.8064506413
 30
0.0
 10
134.9202384758
 20
124.8438760944
 30
0.0
 10
134.9204516618
 20
124.8607446422
 30
0.0
 10
134.9193402589
 20
124.867733449
 30
0.0
  0
SPLINE
  5
3C6
100
AcDbEntity
  8
RUNDUNGEN
100
AcDbSpline
 62
7
  6
CONTINUOUS
 70
0
 71
3
 72
8
 73
4
 74
0
 42
0.0000001
 43
0.0000001
 44
0.0000000001
 40
0.0
 40
0.0
 40
0.0
 40
0.0
 40
1.0
 40
1.0
 40
1.0
 40
1.0
 10
134.7689960503
 20
125.3003665539
 30
0.0
 10
134.7690965046
 20
125.2178846307
 30
0.0
 10
134.7909124529
 20
125.1330343058
 30
0.0
 10
134.8305434376
 20
125.0606971591
 30
0.0
  0
SPLINE
  5
3C7
100
AcDbEntity
  8
RUNDUNGEN
100
AcDbSpline
 62
7
  6
CONTINUOUS
 70
0
 71
3
 72
8
 73
4
 74
0
 42
0.0000001
 43
0.0000001
 44
0.0000000001
 40
0.0
 40
0.0
 40
0.0
 40
0.0
 40
1.0
 40
1.0
 40
1.0
 40
1.0
 10
54.9953435529
 20
94.2875638564
 30
0.0
 10
54.9995892267
 20
94.2762701034
 30
0.0
 10
55.0047641146
 20
94.2652424816
 30
0.0
 10
55.0111182
 20
94.2549857667
 30
0.0
  0
SPLINE
  5
3C8
100
AcDbEntity
  8
RUNDUNGEN
100
AcDbSpline
 62
7
  6
CONTINUOUS
 70
0
 71
3
 72
8
 73
4
 74
0
 42
0.0000001
 43
0.0000001
 44
0.0000000001
 40
0.0
 40
0.0
 40
0.0
 40
0.0
 40
1.0
 40
1.0
 40
1.0
 40
1.0
 10
55.1870877544
 20
94.2913473835
 30
0.0
 10
55.1747641694
 20
94.2856501336
 30
0.0
 10
55.1619977625
 20
94.2807792218
 30
0.0
 10
55.1489244326
 20
94.2771162383
 30
0.0
  0
SPLINE
  5
3C9
100
AcDbEntity
  8
RUNDUNGEN
100
AcDbSpline
 62
7
  6
CONTINUOUS
 70
0
 71
3
 72
9
 73
5
 74
0
 42
0.0000001
 43
0.0000001
 44
0.0000000001
 40
0.0
 40
0.0
 40
0.0
 40
0.0
 40
0.5338614078
 40
1.0
 40
1.0
 40
1.0
 40
1.0
 10
55.1489244326
 20
94.2771162383
 30
0.0
 10
55.1259210824
 20
94.2706709873
 30
0.0
 10
55.0798605541
 20
94.2671511517
 30
0.0
 10
55.0363798282
 20
94.2797561073
 30
0.0
 10
55.0169098679
 20
94.2872400208
 30
0.0
  0
SPLINE
  5
3CA
100
AcDbEntity
  8
RUNDUNGEN
100
AcDbSpline
 62
7
  6
CONTINUOUS
 70
0
 71
3
 72
8
 73
4
 74
0
 42
0.0000001
 43
0.0000001
 44
0.0000000001
 40
0.0
 40
0.0
 40
0.0
 40
0.0
 40
1.0
 40
1.0
 40
1.0
 40
1.0
 10
54.9916088375
 20
94.2982952297
 30
0.0
 10
54.9705584928
 20
94.3347195684
 30
0.0
 10
54.9556886362
 20
94.3752359906
 30
0.0
 10
54.9472435038
 20
94.4164492069
 30
0.0
  0
SPLINE
  5
3CB
100
AcDbEntity
  8
RUNDUNGEN
100
AcDbSpline
 62
9
  6
CONTINUOUS
 70
0
 71
3
 72
11
 73
7
 74
0
 42
0.0000001
 43
0.0000001
 44
0.0000000001
 40
0.0
 40
0.0
 40
0.0
 40
0.0
 40
0.0692656054
 40
0.2631342834
 40
0.5769917049
 40
1.0
 40
1.0
 40
1.0
 40
1.0
 10
214.4778994329
 20
99.0688998739
 30
0.0
 10
214.4745302394
 20
99.0689659003
 30
0.0
 10
214.4755779065
 20
99.0885591456
 30
0.0
 10
214.4778054647
 20
99.1102280326
 30
0.0
 10
214.480550565
 20
99.1589709883
 30
0.0
 10
214.4804741238
 20
99.1937109229
 30
0.0
 10
214.480657361
 20
99.2142898806
 30
0.0
  0
SPLINE
  5
3CC
100
AcDbEntity
  8
RUNDUNGEN
100
AcDbSpline
 62
9
  6
CONTINUOUS
 70
0
 71
3
 72
9
 73
5
 74
0
 42
0.0000001
 43
0.0000001
 44
0.0000000001
 40
0.0
 40
0.0
 40
0.0
 40
0.0
 40
0.4595331214
 40
1.0
 40
1.0
 40
1.0
 40
1.0
 10
214.480657361
 20
99.2142898806
 30
0.0
 10
214.4811409762
 20
99.2686036106
 30
0.0
 10
214.4855788784
 20
99.3866379245
 30
0.0
 10
214.4917802006
 20
99.5050407871
 30
0.0
 10
214.4877673136
 20
99.5687967126
 30
0.0
  0
SPLINE
  5
3CD
100
AcDbEntity
  8
RUNDUNGEN
100
AcDbSpline
 62
9
  6
CONTINUOUS
 70
0
 71
3
 72
13
 73
9
 74
0
 42
0.0000001
 43
0.0000001
 44
0.0000000001
 40
0.0
 40
0.0
 40
0.0
 40
0.0
 40
0.1347294924
 40
0.2420783542
 40
0.3739847521
 40
0.5244500966
 40
0.6853331922
 40
1.0
 40
1.0
 40
1.0
 40
1.0
 10
214.9056647642
 20
101.2507479519
 30
0.0
 10
214.9355188402
 20
101.2699496939
 30
0.0
 10
214.9474202186
 20
101.3475454479
 30
0.0
 10
214.9299785266
 20
101.4408582339
 30
0.0
 10
214.8981946352
 20
101.540030348
 30
0.0
 10
214.8495274023
 20
101.6460262814
 30
0.0
 10
214.7675415173
 20
101.7893834132
 30
0.0
 10
214.6917753823
 20
101.890344306
 30
0.0
 10
214.6351191897
 20
101.9508665218
 30
0.0
  0
SPLINE
  5
3CE
100
AcDbEntity
  8
RUNDUNGEN
100
AcDbSpline
 62
9
  6
CONTINUOUS
 70
0
 71
3
 72
14
 73
10
 74
0
 42
0.0000001
 43
0.0000001
 44
0.0000000001
 40
0.0
 40
0.0
 40
0.0
 40
0.0
 40
0.0303231814
 40
0.0998892931
 40
0.2078149659
 40
0.3465645394
 40
0.5067730616
 40
0.6772785681
 40
1.0
 40
1.0
 40
1.0
 40
1.0
 10
215.6404651826
 20
101.5384181093
 30
0.0
 10
215.6482745768
 20
101.5397951162
 30
0.0
 10
215.6562782419
 20
101.5728158851
 30
0.0
 10
215.6585333759
 20
101.6211515419
 30
0.0
 10
215.6554442705
 20
101.7069293038
 30
0.0
 10
215.6453179982
 20
101.8116804122
 30
0.0
 10
215.6291191813
 20
101.9338062972
 30
0.0
 10
215.6010949341
 20
102.1022335211
 30
0.0
 10
215.5746134811
 20
102.2286703642
 30
0.0
 10
215.5536410938
 20
102.3104184376
 30
0.0
  0
SPLINE
  5
3CF
100
AcDbEntity
  8
RUNDUNGEN
100
AcDbSpline
 62
9
  6
CONTINUOUS
 70
0
 71
3
 72
14
 73
10
 74
0
 42
0.0000001
 43
0.0000001
 44
0.0000000001
 40
0.0
 40
0.0
 40
0.0
 40
0.0
 40
0.0303232226
 40
0.0998893438
 40
0.2078150164
 40
0.3465645844
 40
0.506773097
 40
0.6772785909
 40
1.0
 40
1.0
 40
1.0
 40
1.0
 10
220.6614097156
 20
102.4237460991
 30
0.0
 10
220.6692191209
 20
102.425123108
 30
0.0
 10
220.6772228569
 20
102.4581438563
 30
0.0
 10
220.6794779961
 20
102.506479557
 30
0.0
 10
220.6763889241
 20
102.5922573114
 30
0.0
 10
220.6662626533
 20
102.6970084296
 30
0.0
 10
220.6500638284
 20
102.8191343121
 30
0.0
 10
220.6220395491
 20
102.9875615307
 30
0.0
 10
220.5955580567
 20
103.1139983655
 30
0.0
 10
220.5745856268
 20
103.1957464274
 30
0.0
  0
SPLINE
  5
3D0
100
AcDbEntity
  8
RUNDUNGEN
100
AcDbSpline
 62
9
  6
CONTINUOUS
 70
0
 71
3
 72
15
 73
11
 74
0
 42
0.0000001
 43
0.0000001
 44
0.0000000001
 40
0.0
 40
0.0
 40
0.0
 40
0.0
 40
0.2487730543
 40
0.4976750528
 40
0.6223420257
 40
0.7472372884
 40
0.8099124002
 40
0.8728387131
 40
0.9361931082
 40
1.0
 40
1.0
 40
1.0
 40
1.0
 10
221.487761538
 20
105.2509388191
 30
0.0
 10
221.4877610041
 20
105.389931426
 30
0.0
 10
221.4751696798
 20
105.6680985125
 30
0.0
 10
221.4251726143
 20
106.0131292076
 30
0.0
 10
221.3560641783
 20
106.2831598792
 30
0.0
 10
221.2960089694
 20
106.4475560403
 30
0.0
 10
221.2317827218
 20
106.5721713879
 30
0.0
 10
221.1715769845
 20
106.659385974
 30
0.0
 10
221.0945819443
 20
106.7340981296
 30
0.0
 10
221.0234111919
 20
106.7596948876
 30
0.0
 10
220.987761538
 20
106.7596340173
 30
0.0
  0
SPLINE
  5
3D1
100
AcDbEntity
  8
RUNDUNGEN
100
AcDbSpline
 62
9
  6
CONTINUOUS
 70
0
 71
3
 72
11
 73
7
 74
0
 42
0.0000001
 43
0.0000001
 44
0.0000000001
 40
0.0
 40
0.0
 40
0.0
 40
0.0
 40
0.1828582289
 40
0.41064162
 40
0.6901193727
 40
1.0
 40
1.0
 40
1.0
 40
1.0
 10
221.487761538
 20
103.4085538521
 30
0.0
 10
221.487761538
 20
103.4463747755
 30
0.0
 10
221.4526498771
 20
103.5311619188
 30
0.0
 10
221.3353546897
 20
103.6187806039
 30
0.0
 10
221.1742572793
 20
103.6751235215
 30
0.0
 10
221.0518547512
 20
103.6881503039
 30
0.0
 10
220.987761538
 20
103.6881503039
 30
0.0
  0
SPLINE
  5
3D2
100
AcDbEntity
  8
RUNDUNGEN
100
AcDbSpline
 62
9
  6
CONTINUOUS
 70
0
 71
3
 72
11
 73
7
 74
0
 42
0.0000001
 43
0.0000001
 44
0.0000000001
 40
0.0
 40
0.0
 40
0.0
 40
0.0
 40
0.1789689016
 40
0.3977136992
 40
0.6754479674
 40
1.0
 40
1.0
 40
1.0
 40
1.0
 10
211.487761538
 20
98.9167857219
 30
0.0
 10
211.4877702508
 20
98.9547855135
 30
0.0
 10
211.5165941987
 20
99.0398873033
 30
0.0
 10
211.6268637132
 20
99.1378606518
 30
0.0
 10
211.7901996747
 20
99.2050530839
 30
0.0
 10
211.9188506277
 20
99.2208149203
 30
0.0
 10
211.987761538
 20
99.2208194847
 30
0.0
  0
SPLINE
  5
3D3
100
AcDbEntity
  8
RUNDUNGEN
100
AcDbSpline
 62
9
  6
CONTINUOUS
 70
0
 71
3
 72
11
 73
7
 74
0
 42
0.0000001
 43
0.0000001
 44
0.0000000001
 40
0.0
 40
0.0
 40
0.0
 40
0.0
 40
0.1829958377
 40
0.4107397242
 40
0.689774206
 40
1.0
 40
1.0
 40
1.0
 40
1.0
 10
211.487761538
 20
102.2304604123
 30
0.0
 10
211.487761538
 20
102.1926055368
 30
0.0
 10
211.5226458581
 20
102.1076542567
 30
0.0
 10
211.6402517773
 20
102.0204428974
 30
0.0
 10
211.8011145026
 20
101.9636688148
 30
0.0
 10
211.9235876258
 20
101.9508639606
 30
0.0
 10
211.987761538
 20
101.9508639606
 30
0.0
  0
SPLINE
  5
3D4
100
AcDbEntity
  8
RUNDUNGEN
100
AcDbSpline
 62
9
  6
CONTINUOUS
 70
0
 71
3
 72
11
 73
7
 74
0
 42
0.0000001
 43
0.0000001
 44
0.0000000001
 40
0.0
 40
0.0
 40
0.0
 40
0.0
 40
0.182997429
 40
0.4107532125
 40
0.6897845849
 40
1.0
 40
1.0
 40
1.0
 40
1.0
 10
211.487761538
 20
107.0392304691
 30
0.0
 10
211.487761538
 20
107.0013752685
 30
0.0
 10
211.5226474577
 20
106.9164213152
 30
0.0
 10
211.6402567776
 20
106.8292103952
 30
0.0
 10
211.8011194293
 20
106.7724378337
 30
0.0
 10
211.9235897798
 20
106.7596340174
 30
0.0
 10
211.987761538
 20
106.7596340174
 30
0.0
  0
SPLINE
  5
3D5
100
AcDbEntity
  8
RUNDUNGEN
100
AcDbSpline
 62
9
  6
CONTINUOUS
 70
0
 71
3
 72
11
 73
7
 74
0
 42
0.0000001
 43
0.0000001
 44
0.0000000001
 40
0.0
 40
0.0
 40
0.0
 40
0.0
 40
0.1829974299
 40
0.4107532125
 40
0.6897845836
 40
1.0
 40
1.0
 40
1.0
 40
1.0
 10
211.487761538
 20
112.0983747375
 30
0.0
 10
211.487761538
 20
112.1362299382
 30
0.0
 10
211.5226474579
 20
112.2211838914
 30
0.0
 10
211.6402567775
 20
112.3083948113
 30
0.0
 10
211.801119429
 20
112.3651673728
 30
0.0
 10
211.9235897796
 20
112.3779711893
 30
0.0
 10
211.987761538
 20
112.3779711893
 30
0.0
  0
SPLINE
  5
3D6
100
AcDbEntity
  8
RUNDUNGEN
100
AcDbSpline
 62
9
  6
CONTINUOUS
 70
0
 71
3
 72
11
 73
7
 74
0
 42
0.0000001
 43
0.0000001
 44
0.0000000001
 40
0.0
 40
0.0
 40
0.0
 40
0.0
 40
0.1829958347
 40
0.4107397245
 40
0.689774211
 40
1.0
 40
1.0
 40
1.0
 40
1.0
 10
211.487761538
 20
116.9071447943
 30
0.0
 10
211.487761538
 20
116.9449996692
 30
0.0
 10
211.5226458572
 20
117.0299509495
 30
0.0
 10
211.6402517776
 20
117.1171623093
 30
0.0
 10
211.8011145033
 20
117.1739363933
 30
0.0
 10
211.9235876269
 20
117.1867412431
 30
0.0
 10
211.987761538
 20
117.1867412431
 30
0.0
  0
SPLINE
  5
3D7
100
AcDbEntity
  8
RUNDUNGEN
100
AcDbSpline
 62
9
  6
CONTINUOUS
 70
0
 71
3
 72
14
 73
10
 74
0
 42
0.0000001
 43
0.0000001
 44
0.0000000001
 40
0.0
 40
0.0
 40
0.0
 40
0.0
 40
0.0189930625
 40
0.0695000671
 40
0.1527709878
 40
0.2686680928
 40
0.4160104053
 40
0.5917115875
 40
1.0
 40
1.0
 40
1.0
 40
1.0
 10
211.487761538
 20
98.9167857219
 30
0.0
 10
211.4877705126
 20
98.9199646479
 30
0.0
 10
211.5038604715
 20
98.9228244986
 30
0.0
 10
211.5247417499
 20
98.9272119348
 30
0.0
 10
211.5688059247
 20
98.9309480118
 30
0.0
 10
211.6256130528
 20
98.9347963906
 30
0.0
 10
211.6994221415
 20
98.9379934773
 30
0.0
 10
211.8215934496
 20
98.9415502027
 30
0.0
 10
211.9194248049
 20
98.9425122781
 30
0.0
 10
211.987761538
 20
98.9425115421
 30
0.0
  0
SPLINE
  5
3D8
100
AcDbEntity
  8
RUNDUNGEN
100
AcDbSpline
 62
9
  6
CONTINUOUS
 70
0
 71
3
 72
9
 73
5
 74
0
 42
0.0000001
 43
0.0000001
 44
0.0000000001
 40
0.0
 40
0.0
 40
0.0
 40
0.0
 40
0.2516788698
 40
1.0
 40
1.0
 40
1.0
 40
1.0
 10
229.359947545
 20
94.1688643228
 30
0.0
 10
229.3728453395
 20
94.1976305679
 30
0.0
 10
229.4191492518
 20
94.3141382915
 30
0.0
 10
229.4486419141
 20
94.4368690715
 30
0.0
 10
229.4635793653
 20
94.5294061883
 30
0.0
  0
SPLINE
  5
3D9
100
AcDbEntity
  8
RUNDUNGEN
100
AcDbSpline
 62
9
  6
CONTINUOUS
 70
0
 71
3
 72
8
 73
4
 74
0
 42
0.0000001
 43
0.0000001
 44
0.0000000001
 40
0.0
 40
0.0
 40
0.0
 40
0.0
 40
1.0
 40
1.0
 40
1.0
 40
1.0
 10
229.4635793653
 20
94.5294061883
 30
0.0
 10
229.4789906539
 20
94.6248787156
 30
0.0
 10
229.4868025079
 20
94.7218242601
 30
0.0
 10
229.4876789832
 20
94.8185286709
 30
0.0
  0
SPLINE
  5
3DA
100
AcDbEntity
  8
RUNDUNGEN
100
AcDbSpline
 62
9
  6
CONTINUOUS
 70
0
 71
3
 72
11
 73
7
 74
0
 42
0.0000001
 43
0.0000001
 44
0.0000000001
 40
0.0
 40
0.0
 40
0.0
 40
0.0
 40
0.2669571951
 40
0.520541743
 40
0.7596336825
 40
1.0
 40
1.0
 40
1.0
 40
1.0
 10
228.9703117896
 20
93.9631280183
 30
0.0
 10
229.0123027438
 20
93.962380375
 30
0.0
 10
229.0943600833
 20
93.9649329796
 30
0.0
 10
229.2122307313
 20
93.9950842416
 30
0.0
 10
229.3063437357
 20
94.0677049545
 30
0.0
 10
229.344276982
 20
94.134449821
 30
0.0
 10
229.359947545
 20
94.1688643228
 30
0.0
  0
SPLINE
  5
3DB
100
AcDbEntity
  8
RUNDUNGEN
100
AcDbSpline
 62
9
  6
CONTINUOUS
 70
0
 71
3
 72
14
 73
10
 74
0
 42
0.0000001
 43
0.0000001
 44
0.0000000001
 40
0.0
 40
0.0
 40
0.0
 40
0.0
 40
0.0175154357
 40
0.0658436907
 40
0.145332951
 40
0.2561531376
 40
0.3982697248
 40
0.5710097214
 40
1.0
 40
1.0
 40
1.0
 40
1.0
 10
214.6726824072
 20
98.3941394125
 30
0.0
 10
214.6730661872
 20
98.3949626705
 30
0.0
 10
214.6776383511
 20
98.3939080364
 30
0.0
 10
214.6841089271
 20
98.3948301578
 30
0.0
 10
214.6970784876
 20
98.394081352
 30
0.0
 10
214.7140578482
 20
98.394714348
 30
0.0
 10
214.73618711
 20
98.3962502453
 30
0.0
 10
214.774362118
 20
98.4016564835
 30
0.0
 10
214.8047335638
 20
98.4095543316
 30
0.0
 10
214.8258273217
 20
98.4166229831
 30
0.0
  0
SPLINE
  5
3DC
100
AcDbEntity
  8
RUNDUNGEN
100
AcDbSpline
 62
7
  6
CONTINUOUS
 70
0
 71
3
 72
12
 73
8
 74
0
 42
0.0000001
 43
0.0000001
 44
0.0000000001
 40
0.0
 40
0.0
 40
0.0
 40
0.0
 40
0.1240030277
 40
0.21855003
 40
0.3376275941
 40
0.6426515824
 40
1.0
 40
1.0
 40
1.0
 40
1.0
 10
211.487761538
 20
94.8293502566
 30
0.0
 10
211.487761538
 20
94.8519332828
 30
0.0
 10
211.5190879498
 20
94.8871561335
 30
0.0
 10
211.5721964254
 20
94.9151927932
 30
0.0
 10
211.6619175647
 20
94.947555538
 30
0.0
 10
211.8015536112
 20
94.9752746062
 30
0.0
 10
211.9227706276
 20
94.9842996163
 30
0.0
 10
211.987761538
 20
94.9809122542
 30
0.0
  0
SPLINE
  5
3DD
100
AcDbEntity
  8
RUNDUNGEN
100
AcDbSpline
 62
9
  6
CONTINUOUS
 70
0
 71
3
 72
12
 73
8
 74
0
 42
0.0000001
 43
0.0000001
 44
0.0000000001
 40
0.0
 40
0.0
 40
0.0
 40
0.0
 40
0.3172737602
 40
0.5296257203
 40
0.7122098562
 40
0.8659665264
 40
1.0
 40
1.0
 40
1.0
 40
1.0
 10
214.2195207465
 20
98.3271431006
 30
0.0
 10
214.2690510999
 20
98.3112022214
 30
0.0
 10
214.3543545098
 20
98.2915395415
 30
0.0
 10
214.4716183813
 20
98.2867966755
 30
0.0
 10
214.5612381839
 20
98.3018520628
 30
0.0
 10
214.6318064345
 20
98.3365039286
 30
0.0
 10
214.6633927219
 20
98.3742176191
 30
0.0
 10
214.6726824072
 20
98.3941394125
 30
0.0
  0
SPLINE
  5
3DE
100
AcDbEntity
  8
RUNDUNGEN
100
AcDbSpline
 62
9
  6
CONTINUOUS
 70
0
 71
3
 72
9
 73
5
 74
0
 42
0.0000001
 43
0.0000001
 44
0.0000000001
 40
0.0
 40
0.0
 40
0.0
 40
0.0
 40
0.2241124832
 40
1.0
 40
1.0
 40
1.0
 40
1.0
 10
214.8258273217
 20
98.4166229831
 30
0.0
 10
214.8603121757
 20
98.428198932
 30
0.0
 10
215.0143505388
 20
98.4793573166
 30
0.0
 10
215.1685893394
 20
98.5299101694
 30
0.0
 10
215.2883684018
 20
98.5688026033
 30
0.0
  0
SPLINE
  5
3DF
100
AcDbEntity
  8
RUNDUNGEN
100
AcDbSpline
 62
9
  6
CONTINUOUS
 70
0
 71
3
 72
9
 73
5
 74
0
 42
0.0000001
 43
0.0000001
 44
0.0000000001
 40
0.0
 40
0.0
 40
0.0
 40
0.0
 40
0.2566217827
 40
1.0
 40
1.0
 40
1.0
 40
1.0
 10
213.255156793
 20
94.9148549146
 30
0.0
 10
213.2417685914
 20
94.9271073785
 30
0.0
 10
213.1920962926
 20
94.9775676405
 30
0.0
 10
213.1527098228
 20
95.0377387561
 30
0.0
 10
213.1295823072
 20
95.084950569
 30
0.0
  0
SPLINE
  5
3E0
100
AcDbEntity
  8
RUNDUNGEN
100
AcDbSpline
 62
9
  6
CONTINUOUS
 70
0
 71
3
 72
11
 73
7
 74
0
 42
0.0000001
 43
0.0000001
 44
0.0000000001
 40
0.0
 40
0.0
 40
0.0
 40
0.0
 40
0.2611907079
 40
0.5113554182
 40
0.7554809555
 40
1.0
 40
1.0
 40
1.0
 40
1.0
 10
213.6461014668
 20
95.0469497958
 30
0.0
 10
213.6163606997
 20
95.0395463175
 30
0.0
 10
213.5546143366
 20
95.0316982018
 30
0.0
 10
213.4694225672
 20
95.0737943456
 30
0.0
 10
213.4268554596
 20
95.1531612496
 30
0.0
 10
213.415384784
 20
95.2095283201
 30
0.0
 10
213.4119107083
 20
95.2380093546
 30
0.0
  0
SPLINE
  5
3E1
100
AcDbEntity
  8
RUNDUNGEN
100
AcDbSpline
 62
9
  6
CONTINUOUS
 70
0
 71
3
 72
11
 73
7
 74
0
 42
0.0000001
 43
0.0000001
 44
0.0000000001
 40
0.0
 40
0.0
 40
0.0
 40
0.0
 40
0.1817289498
 40
0.3448984088
 40
0.5380580637
 40
1.0
 40
1.0
 40
1.0
 40
1.0
 10
213.6970570793
 20
96.3019041449
 30
0.0
 10
213.6844909744
 20
96.2749560461
 30
0.0
 10
213.6415275883
 20
96.2324852525
 30
0.0
 10
213.557663281
 20
96.2025777624
 30
0.0
 10
213.4233288264
 20
96.1902378138
 30
0.0
 10
213.3158504261
 20
96.211750147
 30
0.0
 10
213.2439031858
 20
96.2349053331
 30
0.0
  0
SPLINE
  5
3E2
100
AcDbEntity
  8
RUNDUNGEN
100
AcDbSpline
 62
9
  6
CONTINUOUS
 70
0
 71
3
 72
10
 73
6
 74
0
 42
0.0000001
 43
0.0000001
 44
0.0000000001
 40
0.0
 40
0.0
 40
0.0
 40
0.0
 40
0.246302277
 40
0.4959664068
 40
1.0
 40
1.0
 40
1.0
 40
1.0
 10
213.4119107083
 20
95.2380093546
 30
0.0
 10
213.4008850176
 20
95.3285429593
 30
0.0
 10
213.4203717585
 20
95.5145327547
 30
0.0
 10
213.5122745405
 20
95.8727468885
 30
0.0
 10
213.6181799363
 20
96.1327539481
 30
0.0
 10
213.6970570793
 20
96.3019041449
 30
0.0
  0
SPLINE
  5
3E3
100
AcDbEntity
  8
RUNDUNGEN
100
AcDbSpline
 62
9
  6
CONTINUOUS
 70
0
 71
3
 72
9
 73
5
 74
0
 42
0.0000001
 43
0.0000001
 44
0.0000000001
 40
0.0
 40
0.0
 40
0.0
 40
0.0
 40
0.49717721
 40
1.0
 40
1.0
 40
1.0
 40
1.0
 10
212.1636195728
 20
127.7663524492
 30
0.0
 10
212.1501421463
 20
127.8042501585
 30
0.0
 10
212.0884555698
 20
127.8674436719
 30
0.0
 10
212.0102696037
 20
127.8924899829
 30
0.0
 10
211.9703117896
 20
127.9001190044
 30
0.0
  0
SPLINE
  5
3E4
100
AcDbEntity
  8
RUNDUNGEN
100
AcDbSpline
 62
9
  6
CONTINUOUS
 70
0
 71
3
 72
11
 73
7
 74
0
 42
0.0000001
 43
0.0000001
 44
0.0000000001
 40
0.0
 40
0.0
 40
0.0
 40
0.0
 40
0.2941432218
 40
0.573742026
 40
0.810236809
 40
1.0
 40
1.0
 40
1.0
 40
1.0
 10
213.5502607384
 20
98.9425115421
 30
0.0
 10
213.6131816477
 20
98.9540577924
 30
0.0
 10
213.7305547699
 20
99.0025538932
 30
0.0
 10
213.8797622634
 20
99.0967224488
 30
0.0
 10
213.9911099385
 20
99.2057532181
 30
0.0
 10
214.025581989
 20
99.2972688649
 30
0.0
 10
214.0269945414
 20
99.3385151977
 30
0.0
  0
SPLINE
  5
3E5
100
AcDbEntity
  8
RUNDUNGEN
100
AcDbSpline
 62
9
  6
CONTINUOUS
 70
0
 71
3
 72
9
 73
5
 74
0
 42
0.0000001
 43
0.0000001
 44
0.0000000001
 40
0.0
 40
0.0
 40
0.0
 40
0.0
 40
0.2708684043
 40
1.0
 40
1.0
 40
1.0
 40
1.0
 10
214.0269945414
 20
99.3385151977
 30
0.0
 10
214.0271708352
 20
99.3436629517
 30
0.0
 10
214.027053317
 20
99.3626633468
 30
0.0
 10
214.0238359222
 20
99.3818126004
 30
0.0
 10
214.0190111362
 20
99.3948110493
 30
0.0
  0
SPLINE
  5
3E6
100
AcDbEntity
  8
RUNDUNGEN
100
AcDbSpline
 62
9
  6
CONTINUOUS
 70
0
 71
3
 72
10
 73
6
 74
0
 42
0.0000001
 43
0.0000001
 44
0.0000000001
 40
0.0
 40
0.0
 40
0.0
 40
0.0
 40
0.2483731272
 40
0.5176238267
 40
1.0
 40
1.0
 40
1.0
 40
1.0
 10
214.2195285143
 20
98.3271406006
 30
0.0
 10
214.2412685812
 20
98.3733899572
 30
0.0
 10
214.2761586593
 20
98.4745108608
 30
0.0
 10
214.3292629992
 20
98.6730230956
 30
0.0
 10
214.3643861202
 20
98.8244490897
 30
0.0
 10
214.3748321652
 20
98.923149409
 30
0.0
  0
SPLINE
  5
3E7
100
AcDbEntity
  8
RUNDUNGEN
100
AcDbSpline
 62
9
  6
CONTINUOUS
 70
0
 71
3
 72
11
 73
7
 74
0
 42
0.0000001
 43
0.0000001
 44
0.0000000001
 40
0.0
 40
0.0
 40
0.0
 40
0.0
 40
0.3893332616
 40
0.6902333676
 40
0.8953385467
 40
1.0
 40
1.0
 40
1.0
 40
1.0
 10
214.3748321652
 20
98.923149409
 30
0.0
 10
214.3771510607
 20
98.9450596844
 30
0.0
 10
214.3801443664
 20
98.9837992919
 30
0.0
 10
214.376944974
 20
99.0355429345
 30
0.0
 10
214.3685926468
 20
99.0673450401
 30
0.0
 10
214.3593508426
 20
99.0855368652
 30
0.0
 10
214.3536450258
 20
99.0871255733
 30
0.0
  0
SPLINE
  5
3E8
100
AcDbEntity
  8
RUNDUNGEN
100
AcDbSpline
 62
9
  6
CONTINUOUS
 70
0
 71
3
 72
9
 73
5
 74
0
 42
0.0000001
 43
0.0000001
 44
0.0000000001
 40
0.0
 40
0.0
 40
0.0
 40
0.0
 40
0.4950518805
 40
1.0
 40
1.0
 40
1.0
 40
1.0
 10
213.1295823072
 20
95.084950569
 30
0.0
 10
213.0438980884
 20
95.259920709
 30
0.0
 10
213.0310449726
 20
95.6823910017
 30
0.0
 10
213.1599168162
 20
96.0548072755
 30
0.0
 10
213.2439031858
 20
96.2349053331
 30
0.0
  0
SPLINE
  5
3E9
100
AcDbEntity
  8
RUNDUNGEN
100
AcDbSpline
 62
9
  6
CONTINUOUS
 70
0
 71
3
 72
9
 73
5
 74
0
 42
0.0000001
 43
0.0000001
 44
0.0000000001
 40
0.0
 40
0.0
 40
0.0
 40
0.0
 40
0.5064204831
 40
1.0
 40
1.0
 40
1.0
 40
1.0
 10
215.2770959835
 20
99.0365122047
 30
0.0
 10
215.1750057388
 20
99.0370997646
 30
0.0
 10
214.9734075149
 20
99.0427147378
 30
0.0
 10
214.7722528275
 20
99.0562108514
 30
0.0
 10
214.6729009334
 20
99.0616971603
 30
0.0
  0
SPLINE
  5
3EA
100
AcDbEntity
  8
RUNDUNGEN
100
AcDbSpline
 62
9
  6
CONTINUOUS
 70
0
 71
3
 72
8
 73
4
 74
0
 42
0.0000001
 43
0.0000001
 44
0.0000000001
 40
0.0
 40
0.0
 40
0.0
 40
0.0
 40
1.0
 40
1.0
 40
1.0
 40
1.0
 10
214.6729009334
 20
99.0616971603
 30
0.0
 10
214.6332631544
 20
99.0638859973
 30
0.0
 10
214.5936137438
 20
99.0659536527
 30
0.0
 10
214.5539387157
 20
99.0673088922
 30
0.0
  0
SPLINE
  5
3EB
100
AcDbEntity
  8
RUNDUNGEN
100
AcDbSpline
 62
9
  6
CONTINUOUS
 70
0
 71
3
 72
8
 73
4
 74
0
 42
0.0000001
 43
0.0000001
 44
0.0000000001
 40
0.0
 40
0.0
 40
0.0
 40
0.0
 40
1.0
 40
1.0
 40
1.0
 40
1.0
 10
214.825840219
 20
98.4166171769
 30
0.0
 10
214.8342603621
 20
98.453735907
 30
0.0
 10
214.839393717
 20
98.4917197299
 30
0.0
 10
214.8415049481
 20
98.5297229093
 30
0.0
  0
SPLINE
  5
3EC
100
AcDbEntity
  8
RUNDUNGEN
100
AcDbSpline
 62
9
  6
CONTINUOUS
 70
0
 71
3
 72
9
 73
5
 74
0
 42
0.0000001
 43
0.0000001
 44
0.0000000001
 40
0.0
 40
0.0
 40
0.0
 40
0.0
 40
0.5333984743
 40
1.0
 40
1.0
 40
1.0
 40
1.0
 10
214.8415049481
 20
98.5297229093
 30
0.0
 10
214.8467157834
 20
98.6235204588
 30
0.0
 10
214.8229527687
 20
98.8028744659
 30
0.0
 10
214.7215809026
 20
98.9594325342
 30
0.0
 10
214.6560578084
 20
99.0090302227
 30
0.0
  0
SPLINE
  5
3ED
100
AcDbEntity
  8
RUNDUNGEN
100
AcDbSpline
 62
9
  6
CONTINUOUS
 70
0
 71
3
 72
8
 73
4
 74
0
 42
0.0000001
 43
0.0000001
 44
0.0000000001
 40
0.0
 40
0.0
 40
0.0
 40
0.0
 40
1.0
 40
1.0
 40
1.0
 40
1.0
 10
214.6560578084
 20
99.0090302227
 30
0.0
 10
214.6328110169
 20
99.0266268752
 30
0.0
 10
214.6069312545
 20
99.0413093843
 30
0.0
 10
214.5796583505
 20
99.0516168671
 30
0.0
  0
SPLINE
  5
3EE
100
AcDbEntity
  8
RUNDUNGEN
100
AcDbSpline
 62
9
  6
CONTINUOUS
 70
0
 71
3
 72
8
 73
4
 74
0
 42
0.0000001
 43
0.0000001
 44
0.0000000001
 40
0.0
 40
0.0
 40
0.0
 40
0.0
 40
1.0
 40
1.0
 40
1.0
 40
1.0
 10
214.5796583505
 20
99.0516168671
 30
0.0
 10
214.5536943294
 20
99.0614296725
 30
0.0
 10
214.5258688022
 20
99.0674442819
 30
0.0
 10
214.4981357047
 20
99.0685830717
 30
0.0
  0
SPLINE
  5
3EF
100
AcDbEntity
  8
RUNDUNGEN
100
AcDbSpline
 62
9
  6
CONTINUOUS
 70
0
 71
3
 72
9
 73
5
 74
0
 42
0.0000001
 43
0.0000001
 44
0.0000000001
 40
0.0
 40
0.0
 40
0.0
 40
0.0
 40
0.2985864615
 40
1.0
 40
1.0
 40
1.0
 40
1.0
 10
219.4737951048
 20
98.5688026033
 30
0.0
 10
219.4737951048
 20
98.6119020401
 30
0.0
 10
219.4729317241
 20
98.7562279114
 30
0.0
 10
219.4711795103
 20
98.9006659806
 30
0.0
 10
219.4650755489
 20
99.0017272892
 30
0.0
  0
SPLINE
  5
3F0
100
AcDbEntity
  8
RUNDUNGEN
100
AcDbSpline
 62
9
  6
CONTINUOUS
 70
0
 71
3
 72
9
 73
5
 74
0
 42
0.0000001
 43
0.0000001
 44
0.0000000001
 40
0.0
 40
0.0
 40
0.0
 40
0.0
 40
0.6074843647
 40
1.0
 40
1.0
 40
1.0
 40
1.0
 10
215.2883684018
 20
98.5688026033
 30
0.0
 10
215.2883683956
 20
98.663532832
 30
0.0
 10
215.286260951
 20
98.8193902106
 30
0.0
 10
215.282715571
 20
98.975469259
 30
0.0
 10
215.2770964667
 20
99.0364191056
 30
0.0
  0
SPLINE
  5
3F1
100
AcDbEntity
  8
RUNDUNGEN
100
AcDbSpline
 62
9
  6
CONTINUOUS
 70
0
 71
3
 72
8
 73
4
 74
0
 42
0.0000001
 43
0.0000001
 44
0.0000000001
 40
0.0
 40
0.0
 40
0.0
 40
0.0
 40
1.0
 40
1.0
 40
1.0
 40
1.0
 10
229.4468819144
 20
94.597056189
 30
0.0
 10
229.4181573167
 20
94.4901170747
 30
0.0
 10
229.3781123457
 20
94.3836105744
 30
0.0
 10
229.3168391247
 20
94.2913789688
 30
0.0
  0
SPLINE
  5
3F2
100
AcDbEntity
  8
RUNDUNGEN
100
AcDbSpline
 62
9
  6
CONTINUOUS
 70
0
 71
3
 72
9
 73
5
 74
0
 42
0.0000001
 43
0.0000001
 44
0.0000000001
 40
0.0
 40
0.0
 40
0.0
 40
0.0
 40
0.2631245968
 40
1.0
 40
1.0
 40
1.0
 40
1.0
 10
229.3599482506
 20
94.1688643229
 30
0.0
 10
229.3548699253
 20
94.1790809833
 30
0.0
 10
229.3366860216
 20
94.2184362061
 30
0.0
 10
229.3230868008
 20
94.2600445421
 30
0.0
 10
229.3168391247
 20
94.2913789688
 30
0.0
  0
SPLINE
  5
3F3
100
AcDbEntity
  8
RUNDUNGEN
100
AcDbSpline
 62
9
  6
CONTINUOUS
 70
0
 71
3
 72
8
 73
4
 74
0
 42
0.0000001
 43
0.0000001
 44
0.0000000001
 40
0.0
 40
0.0
 40
0.0
 40
0.0
 40
1.0
 40
1.0
 40
1.0
 40
1.0
 10
220.4960562386
 20
98.9921233653
 30
0.0
 10
220.1523936944
 20
98.9950657525
 30
0.0
 10
219.8087332366
 20
98.9982638024
 30
0.0
 10
219.465075549
 20
99.0017272894
 30
0.0
  0
SPLINE
  5
3F4
100
AcDbEntity
  8
RUNDUNGEN
100
AcDbSpline
 62
9
  6
CONTINUOUS
 70
0
 71
3
 72
9
 73
5
 74
0
 42
0.0000001
 43
0.0000001
 44
0.0000000001
 40
0.0
 40
0.0
 40
0.0
 40
0.0
 40
0.2942709462
 40
1.0
 40
1.0
 40
1.0
 40
1.0
 10
220.5052112863
 20
98.5701015759
 30
0.0
 10
220.5051069791
 20
98.6115093034
 30
0.0
 10
220.5039843703
 20
98.7522064007
 30
0.0
 10
220.5017517704
 20
98.8929811973
 30
0.0
 10
220.4960562406
 20
98.9921232522
 30
0.0
  0
SPLINE
  5
3F5
100
AcDbEntity
  8
RUNDUNGEN
100
AcDbSpline
 62
7
  6
CONTINUOUS
 70
0
 71
3
 72
11
 73
7
 74
0
 42
0.0000001
 43
0.0000001
 44
0.0000000001
 40
0.0
 40
0.0
 40
0.0
 40
0.0
 40
0.2207627827
 40
0.452591175
 40
0.7124872153
 40
1.0
 40
1.0
 40
1.0
 40
1.0
 10
229.3168942097
 20
94.2913473835
 30
0.0
 10
229.3031197545
 20
94.2827199425
 30
0.0
 10
229.2715346483
 20
94.2693556483
 30
0.0
 10
229.2181071515
 20
94.2697979987
 30
0.0
 10
229.1621720349
 20
94.2827564244
 30
0.0
 10
229.1232081537
 20
94.2930284266
 30
0.0
 10
229.1027062457
 20
94.2982952297
 30
0.0
  0
SPLINE
  5
3F6
100
AcDbEntity
  8
RUNDUNGEN
100
AcDbSpline
 62
9
  6
CONTINUOUS
 70
0
 71
3
 72
9
 73
5
 74
0
 42
0.0000001
 43
0.0000001
 44
0.0000000001
 40
0.0
 40
0.0
 40
0.0
 40
0.0
 40
0.2640020322
 40
1.0
 40
1.0
 40
1.0
 40
1.0
 10
228.9703162589
 20
93.9631280474
 30
0.0
 10
228.9705346944
 20
93.9875197106
 30
0.0
 10
228.97112063
 20
94.0799132457
 30
0.0
 10
228.9708476349
 20
94.1723154235
 30
0.0
 10
228.9698763682
 20
94.240311503
 30
0.0
  0
SPLINE
  5
3F7
100
AcDbEntity
  8
RUNDUNGEN
100
AcDbSpline
 62
7
  6
CONTINUOUS
 70
0
 71
3
 72
9
 73
5
 74
0
 42
0.0000001
 43
0.0000001
 44
0.0000000001
 40
0.0
 40
0.0
 40
0.0
 40
0.0
 40
0.2406494489
 40
1.0
 40
1.0
 40
1.0
 40
1.0
 10
229.1027062457
 20
94.2982952297
 30
0.0
 10
229.0878704822
 20
94.3158136888
 30
0.0
 10
229.026583994
 20
94.3888551846
 30
0.0
 10
228.9679396552
 20
94.4646191732
 30
0.0
 10
228.9297497626
 20
94.5261713424
 30
0.0
  0
SPLINE
  5
3F8
100
AcDbEntity
  8
RUNDUNGEN
100
AcDbSpline
 62
9
  6
CONTINUOUS
 70
0
 71
3
 72
11
 73
7
 74
0
 42
0.0000001
 43
0.0000001
 44
0.0000000001
 40
0.0
 40
0.0
 40
0.0
 40
0.0
 40
0.2499707821
 40
0.4999528677
 40
0.7499605541
 40
1.0
 40
1.0
 40
1.0
 40
1.0
 10
220.5052112863
 20
98.5701015759
 30
0.0
 10
221.2687782042
 20
98.5720121317
 30
0.0
 10
222.8032034328
 20
98.3840090158
 30
0.0
 10
224.9589087809
 20
97.5428932437
 30
0.0
 10
226.8401815074
 20
96.1948772483
 30
0.0
 10
227.8324884488
 20
95.0083088316
 30
0.0
 10
228.2442757326
 20
94.3650439784
 30
0.0
  0
SPLINE
  5
3F9
100
AcDbEntity
  8
RUNDUNGEN
100
AcDbSpline
 62
7
  6
CONTINUOUS
 70
0
 71
3
 72
9
 73
5
 74
0
 42
0.0000001
 43
0.0000001
 44
0.0000000001
 40
0.0
 40
0.0
 40
0.0
 40
0.0
 40
0.4998340903
 40
1.0
 40
1.0
 40
1.0
 40
1.0
 10
213.6461014668
 20
95.0469497958
 30
0.0
 10
213.5909582251
 20
95.0038792815
 30
0.0
 10
213.4682371542
 20
94.9304213818
 30
0.0
 10
213.3250738168
 20
94.9112108007
 30
0.0
 10
213.2551519507
 20
94.9148551669
 30
0.0
  0
SPLINE
  5
3FA
100
AcDbEntity
  8
RUNDUNGEN
100
AcDbSpline
 62
9
  6
CONTINUOUS
 70
0
 71
3
 72
8
 73
4
 74
0
 42
0.0000001
 43
0.0000001
 44
0.0000000001
 40
0.0
 40
0.0
 40
0.0
 40
0.0
 40
1.0
 40
1.0
 40
1.0
 40
1.0
 10
228.987761538
 20
94.8366278822
 30
0.0
 10
228.9700971733
 20
94.7328437252
 30
0.0
 10
228.9524558814
 20
94.6289702393
 30
0.0
 10
228.9297497626
 20
94.5261713424
 30
0.0
  0
SPLINE
  5
3FB
100
AcDbEntity
  8
RUNDUNGEN
100
AcDbSpline
 62
9
  6
CONTINUOUS
 70
0
 71
3
 72
9
 73
5
 74
0
 42
0.0000001
 43
0.0000001
 44
0.0000000001
 40
0.0
 40
0.0
 40
0.0
 40
0.0
 40
0.2598051845
 40
1.0
 40
1.0
 40
1.0
 40
1.0
 10
214.2768697821
 20
101.3916710571
 30
0.0
 10
214.3038507675
 20
101.4425029033
 30
0.0
 10
214.4118745755
 20
101.6358517801
 30
0.0
 10
214.5338909335
 20
101.8218553224
 30
0.0
 10
214.6351043101
 20
101.9508444545
 30
0.0
  0
SPLINE
  5
3FC
100
AcDbEntity
  8
RUNDUNGEN
100
AcDbSpline
 62
9
  6
CONTINUOUS
 70
0
 71
3
 72
9
 73
5
 74
0
 42
0.0000001
 43
0.0000001
 44
0.0000000001
 40
0.0
 40
0.0
 40
0.0
 40
0.0
 40
0.2367266427
 40
1.0
 40
1.0
 40
1.0
 40
1.0
 10
214.6349846918
 20
117.1869160356
 30
0.0
 10
214.6028583753
 20
117.2283413699
 30
0.0
 10
214.4713144731
 20
117.4065539018
 30
0.0
 10
214.3563192785
 20
117.5967443
 30
0.0
 10
214.2768697821
 20
117.7459341495
 30
0.0
  0
LINE
  5
3FD
100
AcDbEntity
  8
RUNDUNGEN
100
AcDbLine
 62
9
  6
CONTINUOUS
 10
220.5043548264
 20
99.4141450947
 11
219.4738057476
 21
99.4346519765
  0
SPLINE
  5
3FE
100
AcDbEntity
  8
RUNDUNGEN
100
AcDbSpline
 62
9
  6
CONTINUOUS
 70
0
 71
3
 72
9
 73
5
 74
0
 42
0.0000001
 43
0.0000001
 44
0.0000000001
 40
0.0
 40
0.0
 40
0.0
 40
0.0
 40
0.4999756784
 40
1.0
 40
1.0
 40
1.0
 40
1.0
 10
215.2833447433
 20
99.5040692468
 30
0.0
 10
215.1503378063
 20
99.5058621181
 30
0.0
 10
214.8855315246
 20
99.5355637663
 30
0.0
 10
214.6208991408
 20
99.5680419172
 30
0.0
 10
214.4878746103
 20
99.5694479978
 30
0.0
  0
SPLINE
  5
3FF
100
AcDbEntity
  8
RUNDUNGEN
100
AcDbSpline
 62
9
  6
CONTINUOUS
 70
0
 71
3
 72
9
 73
5
 74
0
 42
0.0000001
 43
0.0000001
 44
0.0000000001
 40
0.0
 40
0.0
 40
0.0
 40
0.0
 40
0.230100662
 40
1.0
 40
1.0
 40
1.0
 40
1.0
 10
220.987761538
 20
106.7596340173
 30
0.0
 10
220.9881241905
 20
106.7810761025
 30
0.0
 10
220.9881020438
 20
106.8742783062
 30
0.0
 10
220.9858311771
 20
106.9675025907
 30
0.0
 10
220.987761538
 20
107.0392304691
 30
0.0
  0
SPLINE
  5
400
100
AcDbEntity
  8
RUNDUNGEN
100
AcDbSpline
 62
9
  6
CONTINUOUS
 70
0
 71
3
 72
9
 73
5
 74
0
 42
0.0000001
 43
0.0000001
 44
0.0000000001
 40
0.0
 40
0.0
 40
0.0
 40
0.0
 40
0.5081613993
 40
1.0
 40
1.0
 40
1.0
 40
1.0
 10
213.4877612374
 20
119.5688002347
 30
0.0
 10
213.487758445
 20
119.6199188175
 30
0.0
 10
213.5218111197
 20
119.7211576797
 30
0.0
 10
213.5926811824
 20
119.794763009
 30
0.0
 10
213.6307131267
 20
119.8264095568
 30
0.0
  0
SPLINE
  5
401
100
AcDbEntity
  8
RUNDUNGEN
100
AcDbSpline
 62
9
  6
CONTINUOUS
 70
0
 71
3
 72
8
 73
4
 74
0
 42
0.0000001
 43
0.0000001
 44
0.0000000001
 40
0.0
 40
0.0
 40
0.0
 40
0.0
 40
1.0
 40
1.0
 40
1.0
 40
1.0
 10
213.6307131267
 20
119.8264095568
 30
0.0
 10
213.6551856122
 20
119.8467732194
 30
0.0
 10
213.6813046017
 20
119.8652407171
 30
0.0
 10
213.7083376524
 20
119.882057241
 30
0.0
  0
SPLINE
  5
402
100
AcDbEntity
  8
RUNDUNGEN
100
AcDbSpline
 62
9
  6
CONTINUOUS
 70
0
 71
3
 72
9
 73
5
 74
0
 42
0.0000001
 43
0.0000001
 44
0.0000000001
 40
0.0
 40
0.0
 40
0.0
 40
0.0
 40
0.5023957536
 40
1.0
 40
1.0
 40
1.0
 40
1.0
 10
213.7083376524
 20
119.882057241
 30
0.0
 10
213.8232840967
 20
119.9535622905
 30
0.0
 10
214.0843585271
 20
120.0423590646
 30
0.0
 10
214.3536803354
 20
120.0688023549
 30
0.0
 10
214.487761538
 20
120.0688026033
 30
0.0
  0
SPLINE
  5
403
100
AcDbEntity
  8
RUNDUNGEN
100
AcDbSpline
 62
9
  6
CONTINUOUS
 70
0
 71
3
 72
12
 73
8
 74
0
 42
0.0000001
 43
0.0000001
 44
0.0000000001
 40
0.0
 40
0.0
 40
0.0
 40
0.0
 40
0.1299174357
 40
0.2257334709
 40
0.3446836081
 40
0.6444572512
 40
1.0
 40
1.0
 40
1.0
 40
1.0
 10
214.6726824072
 20
120.7434657941
 30
0.0
 10
214.6639609599
 20
120.7621689982
 30
0.0
 10
214.6263121701
 20
120.7804945985
 30
0.0
 10
214.5728668022
 20
120.7855953654
 30
0.0
 10
214.4904879101
 20
120.7817640742
 30
0.0
 10
214.3700958726
 20
120.754802493
 30
0.0
 10
214.2716959904
 20
120.7200726126
 30
0.0
 10
214.2195285137
 20
120.6984368988
 30
0.0
  0
SPLINE
  5
404
100
AcDbEntity
  8
RUNDUNGEN
100
AcDbSpline
 62
9
  6
CONTINUOUS
 70
0
 71
3
 72
13
 73
9
 74
0
 42
0.0000001
 43
0.0000001
 44
0.0000000001
 40
0.0
 40
0.0
 40
0.0
 40
0.0
 40
0.2502957166
 40
0.5004056755
 40
0.6256026375
 40
0.7506996584
 40
0.875554115
 40
1.0
 40
1.0
 40
1.0
 40
1.0
 10
221.987761538
 20
105.2509388191
 30
0.0
 10
221.9877594847
 20
105.4367737628
 30
0.0
 10
221.9557557534
 20
105.8089344695
 30
0.0
 10
221.8287249444
 20
106.2600908832
 30
0.0
 10
221.6590654591
 20
106.5921345919
 30
0.0
 10
221.4891052759
 20
106.8153301167
 30
0.0
 10
221.2669759429
 20
106.9896369069
 30
0.0
 10
221.0801578032
 20
107.0394663789
 30
0.0
 10
220.9877618207
 20
107.0392304691
 30
0.0
  0
SPLINE
  5
405
100
AcDbEntity
  8
RUNDUNGEN
100
AcDbSpline
 62
9
  6
CONTINUOUS
 70
0
 71
3
 72
15
 73
11
 74
0
 42
0.0000001
 43
0.0000001
 44
0.0000000001
 40
0.0
 40
0.0
 40
0.0
 40
0.0
 40
0.1217161303
 40
0.2435744742
 40
0.426936784
 40
0.6119152084
 40
0.7058071079
 40
0.8013105367
 40
0.899370412
 40
1.0
 40
1.0
 40
1.0
 40
1.0
 10
229.487761538
 20
124.3009757269
 30
0.0
 10
229.4877611711
 20
124.3507126568
 30
0.0
 10
229.4840633287
 20
124.4502875157
 30
0.0
 10
229.4642954972
 20
124.6237862793
 30
0.0
 10
229.4212220411
 20
124.8199535265
 30
0.0
 10
229.3524766592
 20
124.9972852383
 30
0.0
 10
229.2726319197
 20
125.1283350778
 30
0.0
 10
229.1951500217
 20
125.2176033287
 30
0.0
 10
229.0947451577
 20
125.2872583921
 30
0.0
 10
229.0113314445
 20
125.3032286435
 30
0.0
 10
228.9703108453
 20
125.3003665604
 30
0.0
  0
SPLINE
  5
406
100
AcDbEntity
  8
RUNDUNGEN
100
AcDbSpline
 62
7
  6
CONTINUOUS
 70
0
 71
3
 72
21
 73
17
 74
0
 42
0.0000001
 43
0.0000001
 44
0.0000000001
 40
0.0
 40
0.0
 40
0.0
 40
0.0
 40
0.1877065754
 40
0.280187287
 40
0.3686704868
 40
0.452703967
 40
0.5378616868
 40
0.6111000022
 40
0.6790170317
 40
0.752749974
 40
0.8168231443
 40
0.8646524315
 40
0.9074446615
 40
0.9414308771
 40
0.9651695934
 40
1.0
 40
1.0
 40
1.0
 40
1.0
 10
211.9703117896
 20
127.9001190044
 30
0.0
 10
211.9380403263
 20
127.9026367271
 30
0.0
 10
211.8892985819
 20
127.9086567275
 30
0.0
 10
211.8267526783
 20
127.8964782562
 30
0.0
 10
211.7816451774
 20
127.8868322654
 30
0.0
 10
211.7366470016
 20
127.8965336701
 30
0.0
 10
211.7013959127
 20
127.9178169993
 30
0.0
 10
211.6632382674
 20
127.9342598864
 30
0.0
 10
211.6268010274
 20
127.9181811025
 30
0.0
 10
211.6004190661
 20
127.895471118
 30
0.0
 10
211.5754487894
 20
127.8738052388
 30
0.0
 10
211.5473163345
 20
127.870929093
 30
0.0
 10
211.5272429214
 20
127.87862494
 30
0.0
 10
211.5109836435
 20
127.8862853909
 30
0.0
 10
211.4945592474
 20
127.8824463563
 30
0.0
 10
211.4877973047
 20
127.872239007
 30
0.0
 10
211.487761538
 20
127.8662326974
 30
0.0
  0
SPLINE
  5
407
100
AcDbEntity
  8
RUNDUNGEN
100
AcDbSpline
 62
9
  6
CONTINUOUS
 70
0
 71
3
 72
9
 73
5
 74
0
 42
0.0000001
 43
0.0000001
 44
0.0000000001
 40
0.0
 40
0.0
 40
0.0
 40
0.0
 40
0.3540713566
 40
1.0
 40
1.0
 40
1.0
 40
1.0
 10
212.3397104985
 20
125.770949161
 30
0.0
 10
212.38858899
 20
125.7981440772
 30
0.0
 10
212.5319834486
 20
125.8648500798
 30
0.0
 10
212.6742354168
 20
125.9333799158
 30
0.0
 10
212.7666955998
 20
125.9765473785
 30
0.0
  0
SPLINE
  5
408
100
AcDbEntity
  8
RUNDUNGEN
100
AcDbSpline
 62
9
  6
CONTINUOUS
 70
0
 71
3
 72
14
 73
10
 74
0
 42
0.0000001
 43
0.0000001
 44
0.0000000001
 40
0.0
 40
0.0
 40
0.0
 40
0.0
 40
0.4290801672
 40
0.6018330439
 40
0.7439209261
 40
0.854713457
 40
0.934181118
 40
0.9824859454
 40
1.0
 40
1.0
 40
1.0
 40
1.0
 10
214.8258273217
 20
120.7209822235
 30
0.0
 10
214.8047183056
 20
120.7280205196
 30
0.0
 10
214.7743549613
 20
120.7359600679
 30
0.0
 10
214.7361734551
 20
120.7413621217
 30
0.0
 10
214.7140468581
 20
120.7428953511
 30
0.0
 10
214.697069797
 20
120.7435264495
 30
0.0
 10
214.6841074939
 20
120.7427789442
 30
0.0
 10
214.6776327833
 20
120.7436916028
 30
0.0
 10
214.6730687853
 20
120.742643823
 30
0.0
 10
214.6726824072
 20
120.7434657941
 30
0.0
  0
SPLINE
  5
409
100
AcDbEntity
  8
RUNDUNGEN
100
AcDbSpline
 62
9
  6
CONTINUOUS
 70
0
 71
3
 72
9
 73
5
 74
0
 42
0.0000001
 43
0.0000001
 44
0.0000000001
 40
0.0
 40
0.0
 40
0.0
 40
0.0
 40
0.2669932965
 40
1.0
 40
1.0
 40
1.0
 40
1.0
 10
215.2883684018
 20
120.5688026033
 30
0.0
 10
215.2471508403
 20
120.5821860034
 30
0.0
 10
215.0928533928
 20
120.6325550049
 30
0.0
 10
214.9386153345
 20
120.6831151644
 30
0.0
 10
214.8258273217
 20
120.7209822235
 30
0.0
  0
SPLINE
  5
40A
100
AcDbEntity
  8
RUNDUNGEN
100
AcDbSpline
 62
9
  6
CONTINUOUS
 70
0
 71
3
 72
9
 73
5
 74
0
 42
0.0000001
 43
0.0000001
 44
0.0000000001
 40
0.0
 40
0.0
 40
0.0
 40
0.0
 40
0.2620366726
 40
1.0
 40
1.0
 40
1.0
 40
1.0
 10
211.9286381081
 20
127.7408102263
 30
0.0
 10
211.9090118087
 20
127.741319647
 30
0.0
 10
211.834161772
 20
127.7445144952
 30
0.0
 10
211.7594155618
 20
127.752166754
 30
0.0
 10
211.7049226263
 20
127.761529225
 30
0.0
  0
SPLINE
  5
40B
100
AcDbEntity
  8
RUNDUNGEN
100
AcDbSpline
 62
9
  6
CONTINUOUS
 70
0
 71
3
 72
11
 73
7
 74
0
 42
0.0000001
 43
0.0000001
 44
0.0000000001
 40
0.0
 40
0.0
 40
0.0
 40
0.0
 40
0.3687902079
 40
0.659995962
 40
0.865516615
 40
1.0
 40
1.0
 40
1.0
 40
1.0
 10
211.7049226263
 20
127.761529225
 30
0.0
 10
211.6744205673
 20
127.7667698061
 30
0.0
 10
211.6201168334
 20
127.7781506282
 30
0.0
 10
211.5512344716
 20
127.8022724835
 30
0.0
 10
211.5048172912
 20
127.8281305068
 30
0.0
 10
211.4877624962
 20
127.8549468135
 30
0.0
 10
211.487762608
 20
127.8662326973
 30
0.0
  0
SPLINE
  5
40C
100
AcDbEntity
  8
RUNDUNGEN
100
AcDbSpline
 62
9
  6
CONTINUOUS
 70
0
 71
3
 72
9
 73
5
 74
0
 42
0.0000001
 43
0.0000001
 44
0.0000000001
 40
0.0
 40
0.0
 40
0.0
 40
0.0
 40
0.2605601862
 40
1.0
 40
1.0
 40
1.0
 40
1.0
 10
211.9368900205
 20
125.7451831597
 30
0.0
 10
211.916983711
 20
125.7457841581
 30
0.0
 10
211.8406704551
 20
125.749892017
 30
0.0
 10
211.7645535855
 20
125.7604788416
 30
0.0
 10
211.7095372141
 20
125.7734184311
 30
0.0
  0
SPLINE
  5
40D
100
AcDbEntity
  8
RUNDUNGEN
100
AcDbSpline
 62
9
  6
CONTINUOUS
 70
0
 71
3
 72
10
 73
6
 74
0
 42
0.0000001
 43
0.0000001
 44
0.0000000001
 40
0.0
 40
0.0
 40
0.0
 40
0.0
 40
0.3474042604
 40
0.6306850334
 40
1.0
 40
1.0
 40
1.0
 40
1.0
 10
211.7095372141
 20
125.7734184311
 30
0.0
 10
211.6781688951
 20
125.7807961109
 30
0.0
 10
211.6212935966
 20
125.7980235973
 30
0.0
 10
211.539362346
 20
125.8353220657
 30
0.0
 10
211.4877672769
 20
125.8871874244
 30
0.0
 10
211.4877612589
 20
125.9214440383
 30
0.0
  0
SPLINE
  5
40E
100
AcDbEntity
  8
RUNDUNGEN
100
AcDbSpline
 62
9
  6
CONTINUOUS
 70
0
 71
3
 72
12
 73
8
 74
0
 42
0.0000001
 43
0.0000001
 44
0.0000000001
 40
0.0
 40
0.0
 40
0.0
 40
0.0
 40
0.3460018204
 40
0.6467079211
 40
0.767869232
 40
0.8661086382
 40
1.0
 40
1.0
 40
1.0
 40
1.0
 10
211.9777525089
 20
125.5244295526
 30
0.0
 10
211.9151893007
 20
125.5244281605
 30
0.0
 10
211.7981269086
 20
125.5319771023
 30
0.0
 10
211.6614020915
 20
125.5589970228
 30
0.0
 10
211.5731221265
 20
125.5938553046
 30
0.0
 10
211.5188317883
 20
125.6251187461
 30
0.0
 10
211.4877553649
 20
125.6631662763
 30
0.0
 10
211.4877615397
 20
125.6873761861
 30
0.0
  0
SPLINE
  5
40F
100
AcDbEntity
  8
RUNDUNGEN
100
AcDbSpline
 62
9
  6
CONTINUOUS
 70
0
 71
3
 72
12
 73
8
 74
0
 42
0.0000001
 43
0.0000001
 44
0.0000000001
 40
0.0
 40
0.0
 40
0.0
 40
0.0
 40
0.3463970817
 40
0.6465650515
 40
0.7676866029
 40
0.8660610254
 40
1.0
 40
1.0
 40
1.0
 40
1.0
 10
211.977761538
 20
120.3916214889
 30
0.0
 10
211.9151199701
 20
120.3916214889
 30
0.0
 10
211.7980694789
 20
120.3990714128
 30
0.0
 10
211.6613514076
 20
120.4262074733
 30
0.0
 10
211.5732125177
 20
120.4611318666
 30
0.0
 10
211.518696488
 20
120.492137557
 30
0.0
 10
211.487761538
 20
120.5303549352
 30
0.0
 10
211.487761538
 20
120.554576119
 30
0.0
  0
SPLINE
  5
410
100
AcDbEntity
  8
RUNDUNGEN
100
AcDbSpline
 62
9
  6
CONTINUOUS
 70
0
 71
3
 72
8
 73
4
 74
0
 42
0.0000001
 43
0.0000001
 44
0.0000000001
 40
0.0
 40
0.0
 40
0.0
 40
0.0
 40
1.0
 40
1.0
 40
1.0
 40
1.0
 10
211.9286382486
 20
127.7408105853
 30
0.0
 10
211.8953953399
 20
127.6471389523
 30
0.0
 10
211.8717364527
 20
127.5498091352
 30
0.0
 10
211.8553160482
 20
127.4517793637
 30
0.0
  0
SPLINE
  5
411
100
AcDbEntity
  8
RUNDUNGEN
100
AcDbSpline
 62
9
  6
CONTINUOUS
 70
0
 71
3
 72
10
 73
6
 74
0
 42
0.0000001
 43
0.0000001
 44
0.0000000001
 40
0.0
 40
0.0
 40
0.0
 40
0.0
 40
0.2497022424
 40
0.5014782922
 40
1.0
 40
1.0
 40
1.0
 40
1.0
 10
211.9468834331
 20
127.7728980126
 30
0.0
 10
211.9438324999
 20
127.772295985
 30
0.0
 10
211.9401465625
 20
127.7659233478
 30
0.0
 10
211.9342785752
 20
127.7555687814
 30
0.0
 10
211.9307091986
 20
127.7466635378
 30
0.0
 10
211.9286382486
 20
127.7408105853
 30
0.0
  0
SPLINE
  5
412
100
AcDbEntity
  8
RUNDUNGEN
100
AcDbSpline
 62
9
  6
CONTINUOUS
 70
0
 71
3
 72
11
 73
7
 74
0
 42
0.0000001
 43
0.0000001
 44
0.0000000001
 40
0.0
 40
0.0
 40
0.0
 40
0.0
 40
0.2492828544
 40
0.5021439886
 40
0.7505086751
 40
1.0
 40
1.0
 40
1.0
 40
1.0
 10
212.1635226605
 20
127.7667172514
 30
0.0
 10
212.1467985135
 20
127.7736740717
 30
0.0
 10
212.1095161694
 20
127.7770954161
 30
0.0
 10
212.0553703916
 20
127.7777925725
 30
0.0
 10
212.0006930557
 20
127.7817423342
 30
0.0
 10
211.9646780881
 20
127.7763612018
 30
0.0
 10
211.9468834331
 20
127.7728980126
 30
0.0
  0
SPLINE
  5
413
100
AcDbEntity
  8
RUNDUNGEN
100
AcDbSpline
 62
9
  6
CONTINUOUS
 70
0
 71
3
 72
13
 73
9
 74
0
 42
0.0000001
 43
0.0000001
 44
0.0000000001
 40
0.0
 40
0.0
 40
0.0
 40
0.0
 40
0.2494010728
 40
0.4987405324
 40
0.6235485697
 40
0.7484738418
 40
0.8737945951
 40
1.0
 40
1.0
 40
1.0
 40
1.0
 10
211.9926560394
 20
127.3908289661
 30
0.0
 10
211.9950056225
 20
127.4276111351
 30
0.0
 10
212.0022791985
 20
127.5010194186
 30
0.0
 10
212.0203814292
 20
127.5916977253
 30
0.0
 10
212.044478083
 20
127.6615761545
 30
0.0
 10
212.0697269271
 20
127.7111505475
 30
0.0
 10
212.1069354349
 20
127.7541049475
 30
0.0
 10
212.1448750849
 20
127.7670726244
 30
0.0
 10
212.1635226605
 20
127.7667172514
 30
0.0
  0
SPLINE
  5
414
100
AcDbEntity
  8
RUNDUNGEN
100
AcDbSpline
 62
9
  6
CONTINUOUS
 70
0
 71
3
 72
10
 73
6
 74
0
 42
0.0000001
 43
0.0000001
 44
0.0000000001
 40
0.0
 40
0.0
 40
0.0
 40
0.0
 40
0.2525682668
 40
0.5026409631
 40
1.0
 40
1.0
 40
1.0
 40
1.0
 10
211.855316319
 20
127.4517792493
 30
0.0
 10
211.8314685277
 20
127.3093568394
 30
0.0
 10
211.8106431631
 20
127.0215036111
 30
0.0
 10
211.8275277745
 20
126.4496455615
 30
0.0
 10
211.8864738587
 20
126.0250487318
 30
0.0
 10
211.9369435993
 20
125.7451997065
 30
0.0
  0
SPLINE
  5
415
100
AcDbEntity
  8
RUNDUNGEN
100
AcDbSpline
 62
9
  6
CONTINUOUS
 70
0
 71
3
 72
10
 73
6
 74
0
 42
0.0000001
 43
0.0000001
 44
0.0000000001
 40
0.0
 40
0.0
 40
0.0
 40
0.0
 40
0.5004392602
 40
0.7504234952
 40
1.0
 40
1.0
 40
1.0
 40
1.0
 10
212.3397696632
 20
125.7709478601
 30
0.0
 10
212.2317972352
 20
126.0273727127
 30
0.0
 10
212.0981938863
 20
126.4256542994
 30
0.0
 10
211.9992876665
 20
126.9731998773
 30
0.0
 10
211.9838181084
 20
127.2523534427
 30
0.0
 10
211.9926560704
 20
127.3908289724
 30
0.0
  0
SPLINE
  5
416
100
AcDbEntity
  8
RUNDUNGEN
100
AcDbSpline
 62
9
  6
CONTINUOUS
 70
0
 71
3
 72
10
 73
6
 74
0
 42
0.0000001
 43
0.0000001
 44
0.0000000001
 40
0.0
 40
0.0
 40
0.0
 40
0.0
 40
0.1588578707
 40
0.3853836978
 40
1.0
 40
1.0
 40
1.0
 40
1.0
 10
212.3397696632
 20
125.7709478601
 30
0.0
 10
212.3217632029
 20
125.7832041331
 30
0.0
 10
212.2685531969
 20
125.7969330349
 30
0.0
 10
212.1316025665
 20
125.7967735077
 30
0.0
 10
212.0174704884
 20
125.7700474495
 30
0.0
 10
211.9369435993
 20
125.7451997065
 30
0.0
  0
SPLINE
  5
417
100
AcDbEntity
  8
RUNDUNGEN
100
AcDbSpline
 62
9
  6
CONTINUOUS
 70
0
 71
3
 72
12
 73
8
 74
0
 42
0.0000001
 43
0.0000001
 44
0.0000000001
 40
0.0
 40
0.0
 40
0.0
 40
0.0
 40
0.3555427904
 40
0.6553164718
 40
0.7742665875
 40
0.8700826003
 40
1.0
 40
1.0
 40
1.0
 40
1.0
 10
212.1281256852
 20
125.1834647382
 30
0.0
 10
212.1802931683
 20
125.2051004548
 30
0.0
 10
212.2786930648
 20
125.2398303327
 30
0.0
 10
212.3990851133
 20
125.2667919216
 30
0.0
 10
212.481464004
 20
125.2706232013
 30
0.0
 10
212.5349093632
 20
125.2655224435
 30
0.0
 10
212.5725581337
 20
125.2471968326
 30
0.0
 10
212.5812795787
 20
125.2284936335
 30
0.0
  0
SPLINE
  5
418
100
AcDbEntity
  8
RUNDUNGEN
100
AcDbSpline
 62
9
  6
CONTINUOUS
 70
0
 71
3
 72
13
 73
9
 74
0
 42
0.0000001
 43
0.0000001
 44
0.0000000001
 40
0.0
 40
0.0
 40
0.0
 40
0.0
 40
0.1243414032
 40
0.2492065635
 40
0.3743273006
 40
0.4995437202
 40
0.7496796281
 40
1.0
 40
1.0
 40
1.0
 40
1.0
 10
220.9877617817
 20
112.0983747375
 30
0.0
 10
221.0800807259
 20
112.0983458674
 30
0.0
 10
221.2668286522
 20
112.1478028505
 30
0.0
 10
221.4889710876
 20
112.3221439378
 30
0.0
 10
221.6589830218
 20
112.5453207333
 30
0.0
 10
221.8286854663
 20
112.8774130471
 30
0.0
 10
221.9557443422
 20
113.3286116915
 30
0.0
 10
221.9877656775
 20
113.7008126577
 30
0.0
 10
221.987761538
 20
113.8866663875
 30
0.0
  0
SPLINE
  5
419
100
AcDbEntity
  8
RUNDUNGEN
100
AcDbSpline
 62
9
  6
CONTINUOUS
 70
0
 71
3
 72
13
 73
9
 74
0
 42
0.0000001
 43
0.0000001
 44
0.0000000001
 40
0.0
 40
0.0
 40
0.0
 40
0.0
 40
0.1347396283
 40
0.2420927735
 40
0.3739993118
 40
0.5244594089
 40
0.6853351941
 40
1.0
 40
1.0
 40
1.0
 40
1.0
 10
214.9056465725
 20
117.8868289891
 30
0.0
 10
214.9354995414
 20
117.8676252072
 30
0.0
 10
214.9473955669
 20
117.7900297894
 30
0.0
 10
214.9299522244
 20
117.6967205174
 30
0.0
 10
214.8981685882
 20
117.597556255
 30
0.0
 10
214.849505331
 20
117.491571189
 30
0.0
 10
214.7675268642
 20
117.3482275937
 30
0.0
 10
214.6917687912
 20
117.2472752785
 30
0.0
 10
214.6351191812
 20
117.1867556141
 30
0.0
  0
SPLINE
  5
41A
100
AcDbEntity
  8
RUNDUNGEN
100
AcDbSpline
 62
9
  6
CONTINUOUS
 70
0
 71
3
 72
14
 73
10
 74
0
 42
0.0000001
 43
0.0000001
 44
0.0000000001
 40
0.0
 40
0.0
 40
0.0
 40
0.0
 40
0.0303217548
 40
0.0998872662
 40
0.2078124591
 40
0.3465617096
 40
0.5067704222
 40
0.677276671
 40
1.0
 40
1.0
 40
1.0
 40
1.0
 10
215.6404651826
 20
117.5991870973
 30
0.0
 10
215.6482741947
 20
117.5978101577
 30
0.0
 10
215.6562758792
 20
117.5647890492
 30
0.0
 10
215.6585307278
 20
117.5164548563
 30
0.0
 10
215.6554407772
 20
117.4306772538
 30
0.0
 10
215.6453145272
 20
117.3259266837
 30
0.0
 10
215.6291160221
 20
117.2038007734
 30
0.0
 10
215.6010926539
 20
117.0353730003
 30
0.0
 10
215.5746123112
 20
116.9089354914
 30
0.0
 10
215.5536410938
 20
116.827186769
 30
0.0
  0
SPLINE
  5
41B
100
AcDbEntity
  8
RUNDUNGEN
100
AcDbSpline
 62
9
  6
CONTINUOUS
 70
0
 71
3
 72
14
 73
10
 74
0
 42
0.0000001
 43
0.0000001
 44
0.0000000001
 40
0.0
 40
0.0
 40
0.0
 40
0.0
 40
0.0303231814
 40
0.0998892931
 40
0.2078149659
 40
0.3465645394
 40
0.5067730616
 40
0.6772785681
 40
1.0
 40
1.0
 40
1.0
 40
1.0
 10
220.6614097156
 20
116.7138591075
 30
0.0
 10
220.6692191098
 20
116.7124821006
 30
0.0
 10
220.6772227749
 20
116.6794613317
 30
0.0
 10
220.6794779089
 20
116.6311256749
 30
0.0
 10
220.6763888035
 20
116.545347913
 30
0.0
 10
220.6662625312
 20
116.4405968045
 30
0.0
 10
220.6500637143
 20
116.3184709196
 30
0.0
 10
220.6220394671
 20
116.1500436957
 30
0.0
 10
220.5955580141
 20
116.0236068525
 30
0.0
 10
220.5745856268
 20
115.9418587792
 30
0.0
  0
SPLINE
  5
41C
100
AcDbEntity
  8
RUNDUNGEN
100
AcDbSpline
 62
9
  6
CONTINUOUS
 70
0
 71
3
 72
11
 73
7
 74
0
 42
0.0000001
 43
0.0000001
 44
0.0000000001
 40
0.0
 40
0.0
 40
0.0
 40
0.0
 40
0.1828578779
 40
0.4106411993
 40
0.6901191529
 40
1.0
 40
1.0
 40
1.0
 40
1.0
 10
221.487761538
 20
115.7290513544
 30
0.0
 10
221.487761538
 20
115.6912305166
 30
0.0
 10
221.45264985
 20
115.6064435098
 30
0.0
 10
221.3353547052
 20
115.5188249606
 30
0.0
 10
221.1742573243
 20
115.4624819578
 30
0.0
 10
221.0518547748
 20
115.4494550042
 30
0.0
 10
220.987761538
 20
115.4494549027
 30
0.0
  0
SPLINE
  5
41D
100
AcDbEntity
  8
RUNDUNGEN
100
AcDbSpline
 62
9
  6
CONTINUOUS
 70
0
 71
3
 72
15
 73
11
 74
0
 42
0.0000001
 43
0.0000001
 44
0.0000000001
 40
0.0
 40
0.0
 40
0.0
 40
0.0
 40
0.0636402421
 40
0.1269853685
 40
0.1899241656
 40
0.2526173688
 40
0.3775427258
 40
0.5022343655
 40
0.7511822609
 40
1.0
 40
1.0
 40
1.0
 40
1.0
 10
220.987761538
 20
112.3779711758
 30
0.0
 10
221.0233180109
 20
112.3779635439
 30
0.0
 10
221.0943721446
 20
112.403432856
 30
0.0
 10
221.1714151364
 20
112.4779929249
 30
0.0
 10
221.2316483859
 20
112.5652027095
 30
0.0
 10
221.2959219315
 20
112.68983163
 30
0.0
 10
221.3560057519
 20
112.8542613316
 30
0.0
 10
221.4251531875
 20
113.124338965
 30
0.0
 10
221.4751624937
 20
113.4694329431
 30
0.0
 10
221.4877625224
 20
113.7476492952
 30
0.0
 10
221.487761538
 20
113.8866663875
 30
0.0
  0
SPLINE
  5
41E
100
AcDbEntity
  8
RUNDUNGEN
100
AcDbSpline
 62
9
  6
CONTINUOUS
 70
0
 71
3
 72
9
 73
5
 74
0
 42
0.0000001
 43
0.0000001
 44
0.0000000001
 40
0.0
 40
0.0
 40
0.0
 40
0.0
 40
0.5326381074
 40
1.0
 40
1.0
 40
1.0
 40
1.0
 10
213.733469183
 20
120.3916404153
 30
0.0
 10
213.7977462422
 20
120.3418836059
 30
0.0
 10
213.9123455709
 20
120.2406566974
 30
0.0
 10
214.0145999015
 20
120.1262266862
 30
0.0
 10
214.0555895199
 20
120.0678581345
 30
0.0
  0
SPLINE
  5
41F
100
AcDbEntity
  8
RUNDUNGEN
100
AcDbSpline
 62
9
  6
CONTINUOUS
 70
0
 71
3
 72
9
 73
5
 74
0
 42
0.0000001
 43
0.0000001
 44
0.0000000001
 40
0.0
 40
0.0
 40
0.0
 40
0.0
 40
0.5178547306
 40
1.0
 40
1.0
 40
1.0
 40
1.0
 10
214.2195285176
 20
120.6984369008
 30
0.0
 10
214.2459972781
 20
120.6250730934
 30
0.0
 10
214.2831260119
 20
120.4787386675
 30
0.0
 10
214.319244958
 20
120.3326119644
 30
0.0
 10
214.3345640824
 20
120.2616317671
 30
0.0
  0
SPLINE
  5
420
100
AcDbEntity
  8
RUNDUNGEN
100
AcDbSpline
 62
9
  6
CONTINUOUS
 70
0
 71
3
 72
9
 73
5
 74
0
 42
0.0000001
 43
0.0000001
 44
0.0000000001
 40
0.0
 40
0.0
 40
0.0
 40
0.0
 40
0.6228041453
 40
1.0
 40
1.0
 40
1.0
 40
1.0
 10
214.3345640824
 20
120.2616317671
 30
0.0
 10
214.3431218671
 20
120.2219798111
 30
0.0
 10
214.3560989424
 20
120.1583627895
 30
0.0
 10
214.3617041215
 20
120.0926291804
 30
0.0
 10
214.3586814097
 20
120.0682480487
 30
0.0
  0
SPLINE
  5
421
100
AcDbEntity
  8
RUNDUNGEN
100
AcDbSpline
 62
9
  6
CONTINUOUS
 70
0
 71
3
 72
8
 73
4
 74
0
 42
0.0000001
 43
0.0000001
 44
0.0000000001
 40
0.0
 40
0.0
 40
0.0
 40
0.0
 40
1.0
 40
1.0
 40
1.0
 40
1.0
 10
214.8258273247
 20
120.7209822248
 30
0.0
 10
214.8343920539
 20
120.6832182082
 30
0.0
 10
214.8395519268
 20
120.6445566252
 30
0.0
 10
214.8415879928
 20
120.6058871286
 30
0.0
  0
SPLINE
  5
422
100
AcDbEntity
  8
RUNDUNGEN
100
AcDbSpline
 62
9
  6
CONTINUOUS
 70
0
 71
3
 72
11
 73
7
 74
0
 42
0.0000001
 43
0.0000001
 44
0.0000000001
 40
0.0
 40
0.0
 40
0.0
 40
0.0
 40
0.2795136635
 40
0.5453543402
 40
0.7860479238
 40
1.0
 40
1.0
 40
1.0
 40
1.0
 10
214.8415879928
 20
120.6058871286
 30
0.0
 10
214.8446568375
 20
120.5476028314
 30
0.0
 10
214.8367464153
 20
120.4326033248
 30
0.0
 10
214.7837578478
 20
120.2752284017
 30
0.0
 10
214.6954795798
 20
120.150228214
 30
0.0
 10
214.6127054675
 20
120.0969735585
 30
0.0
 10
214.5703778717
 20
120.0826821163
 30
0.0
  0
SPLINE
  5
423
100
AcDbEntity
  8
RUNDUNGEN
100
AcDbSpline
 62
9
  6
CONTINUOUS
 70
0
 71
3
 72
16
 73
12
 74
0
 42
0.0000001
 43
0.0000001
 44
0.0000000001
 40
0.0
 40
0.0
 40
0.0
 40
0.0
 40
0.3813373552
 40
0.5544721846
 40
0.7057123183
 40
0.8298554383
 40
0.9220433962
 40
0.9551122735
 40
0.9791746885
 40
0.9940534072
 40
1.0
 40
1.0
 40
1.0
 40
1.0
 10
215.2883684018
 20
120.5688026033
 30
0.0
 10
215.2883684022
 20
120.5051034014
 30
0.0
 10
215.2877671052
 20
120.4124740266
 30
0.0
 10
215.2856449237
 20
120.2946261499
 30
0.0
 10
215.2835641066
 20
120.2196909539
 30
0.0
 10
215.2810652752
 20
120.158454511
 30
0.0
 10
215.2785544116
 20
120.1166159839
 30
0.0
 10
215.2762335087
 20
120.0921202608
 30
0.0
 10
215.274644921
 20
120.0796102685
 30
0.0
 10
215.2732398733
 20
120.0733209524
 30
0.0
 10
215.2719119818
 20
120.0688026033
 30
0.0
 10
215.2709186535
 20
120.0688026033
 30
0.0
  0
SPLINE
  5
424
100
AcDbEntity
  8
RUNDUNGEN
100
AcDbSpline
 62
9
  6
CONTINUOUS
 70
0
 71
3
 72
16
 73
12
 74
0
 42
0.0000001
 43
0.0000001
 44
0.0000000001
 40
0.0
 40
0.0
 40
0.0
 40
0.0
 40
0.3813367865
 40
0.5544711257
 40
0.7057112815
 40
0.8298546777
 40
0.9220428556
 40
0.9551119138
 40
0.9791745116
 40
0.9940533683
 40
1.0
 40
1.0
 40
1.0
 40
1.0
 10
220.5052112863
 20
120.5688026033
 30
0.0
 10
220.5052112863
 20
120.5051034981
 30
0.0
 10
220.50461
 20
120.4124743025
 30
0.0
 10
220.5024878085
 20
120.2946266025
 30
0.0
 10
220.5004069884
 20
120.2196914402
 30
0.0
 10
220.4979081567
 20
120.1584549141
 30
0.0
 10
220.4953972808
 20
120.1166162713
 30
0.0
 10
220.4930763734
 20
120.0921204583
 30
0.0
 10
220.4914877969
 20
120.0796103669
 30
0.0
 10
220.4900827368
 20
120.0733210181
 30
0.0
 10
220.4887548728
 20
120.0688026033
 30
0.0
 10
220.487761538
 20
120.0688026033
 30
0.0
  0
SPLINE
  5
425
100
AcDbEntity
  8
RUNDUNGEN
100
AcDbSpline
 62
9
  6
CONTINUOUS
 70
0
 71
3
 72
16
 73
12
 74
0
 42
0.0000001
 43
0.0000001
 44
0.0000000001
 40
0.0
 40
0.0
 40
0.0
 40
0.0
 40
0.3841680578
 40
0.5575318457
 40
0.7085382954
 40
0.8321843401
 40
0.9237893755
 40
0.9565603891
 40
0.9803127001
 40
0.9948203601
 40
1.0
 40
1.0
 40
1.0
 40
1.0
 10
228.1552112861
 20
124.8277584145
 30
0.0
 10
228.2080300387
 20
124.7949841796
 30
0.0
 10
228.2845373058
 20
124.7471616622
 30
0.0
 10
228.381352252
 20
124.6858036727
 30
0.0
 10
228.4424492147
 20
124.6466757837
 30
0.0
 10
228.4919453069
 20
124.6143842471
 30
0.0
 10
228.5257376197
 20
124.5920786886
 30
0.0
 10
228.5449207703
 20
124.5785366651
 30
0.0
 10
228.5551316324
 20
124.5716459124
 30
0.0
 10
228.5590730585
 20
124.5676325106
 30
0.0
 10
228.5631402167
 20
124.5651184008
 30
0.0
 10
228.5626985446
 20
124.564406126
 30
0.0
  0
SPLINE
  5
426
100
AcDbEntity
  8
RUNDUNGEN
100
AcDbSpline
 62
9
  6
CONTINUOUS
 70
0
 71
3
 72
16
 73
12
 74
0
 42
0.0000001
 43
0.0000001
 44
0.0000000001
 40
0.0
 40
0.0
 40
0.0
 40
0.0
 40
0.3814290169
 40
0.5545624567
 40
0.7057849296
 40
0.8299029828
 40
0.9220668931
 40
0.9551261452
 40
0.9791811439
 40
0.9940550952
 40
1.0
 40
1.0
 40
1.0
 40
1.0
 10
228.9703118022
 20
125.3003665539
 30
0.0
 10
228.9725299943
 20
125.2367683169
 30
0.0
 10
228.975156054
 20
125.1442720316
 30
0.0
 10
228.9771426686
 20
125.026553259
 30
0.0
 10
228.9776759463
 20
124.9516897559
 30
0.0
 10
228.9773150517
 20
124.890489164
 30
0.0
 10
228.9762665552
 20
124.8486494558
 30
0.0
 10
228.9748037001
 20
124.8241242851
 30
0.0
 10
228.9736540206
 20
124.8115857121
 30
0.0
 10
228.9724710775
 20
124.8052606769
 30
0.0
 10
228.9713030135
 20
124.8007060072
 30
0.0
 10
228.9703117808
 20
124.8006713926
 30
0.0
  0
ENDSEC
  0
SECTION
  2
OBJECTS
  0
DICTIONARY
  5
C
100
AcDbDictionary
280
0
281
1
  3
ACAD_GROUP
350
D
  3
ACAD_MLINESTYLE
350
17
  3
ACAD_LAYOUT
350
1A
  3
ACAD_PLOTSETTINGS
350
19
  3
ACAD_PLOTSTYLENAME
350
E
  0
DICTIONARY
  5
D
102
{ACAD_REACTORS
330
C
102
}
100
AcDbDictionary
280
0
281
1
  0
ACDBDICTIONARYWDFLT
  5
E
102
{ACAD_REACTORS
330
C
102
}
100
AcDbDictionary
281
1
  3
Normal
350
F
100
AcDbDictionaryWithDefault
340
F
  0
DICTIONARY
  5
17
102
{ACAD_REACTORS
330
C
102
}
100
AcDbDictionary
280
0
281
1
  3
Standard
350
18
  0
DICTIONARY
  5
19
102
{ACAD_REACTORS
330
C
102
}
100
AcDbDictionary
281
1
  0
DICTIONARY
  5
1A
102
{ACAD_REACTORS
330
C
102
}
100
AcDbDictionary
281
1
  3
Model
350
427
  3
Layout1
350
428
  0
ACDBPLACEHOLDER
  5
F
102
{ACAD_REACTORS
330
E
102
}
  0
MLINESTYLE
  5
18
102
{ACAD_REACTORS
330
17
102
}
100
AcDbMlineStyle
  2
STANDARD
 70
0
  3

 62
256
 51
90.0
 52
90.0
 71
2
 49
0.5
 62
256
  6
BYLAYER
 49
-0.5
 62
256
  6
BYLAYER
  0
LAYOUT
  5
427
102
{ACAD_REACTORS
330
1A
102
}
100
AcDbPlotSettings
  1

  2
none_device
  4
ISO_A4_(297.00_x_210.00_MM)
  6

 40
0.0
 41
0.0
 42
0.0
 43
0.0
 44
297.0
 45
210.0
 46
0.0
 47
0.0
 48
0.0
 49
0.0
140
0.0
141
0.0
142
1.0
143
1.0
 70
1024
 72
1
 73
0
 74
0
  7

 75
0
147
1.0
148
0.0
149
0.0
100
AcDbLayout
  1
Model
 70
0
 71
0
 10
0.0
 20
0.0
 11
297.0
 21
210.0
 12
0.0
 22
0.0
 32
0.0
 14
0.0
 24
0.0
 34
0.0
 15
0.0
 25
0.0
 35
0.0
146
0.0
 13
0.0
 23
0.0
 33
0.0
 16
1.0
 26
0.0
 36
0.0
 17
0.0
 27
1.0
 37
0.0
 76
0
330
214
345
0
346
0
  0
LAYOUT
  5
428
102
{ACAD_REACTORS
330
1A
102
}
100
AcDbPlotSettings
  1

  2
none_device
  4
ISO_A4_(297.00_x_210.00_MM)
  6

 40
0.0
 41
0.0
 42
0.0
 43
0.0
 44
297.0
 45
210.0
 46
0.0
 47
0.0
 48
0.0
 49
0.0
140
0.0
141
0.0
142
1.0
143
1.0
 70
0
 72
1
 73
0
 74
0
  7

 75
0
147
1.0
148
0.0
149
0.0
100
AcDbLayout
  1
Layout1
 70
0
 71
1
 10
0.0
 20
0.0
 11
297.0
 21
210.0
 12
0.0
 22
0.0
 32
0.0
 14
0.0
 24
0.0
 34
0.0
 15
0.0
 25
0.0
 35
0.0
146
0.0
 13
0.0
 23
0.0
 33
0.0
 16
1.0
 26
0.0
 36
0.0
 17
0.0
 27
1.0
 37
0.0
 76
0
330
215
345
0
346
0
  0
ENDSEC
  0
EOF
