  0
SECTION
  2
HEADER
  9
$ACADVER
  1
AC1015
  9
$DWGCODEPAGE
  3
ANSI_1252
  9
$EXTMAX
 10
297.0
 20
210.0
 30
0.0
  9
$EXTMIN
 10
0.0
 20
0.0
 30
0.0
  9
$LIMMIN
 10
0.0
 20
0.0
  9
$LIMMAX
 10
297.0
 20
210.0
  9
$VIEWCTR
 10
148.5
 20
105.0
  9
$VIEWSIZE
 40
210.0
  9
$CLAYER
  8
0
  9
$LTSCALE
 40
16.335
  9
$CELTYPE
  6
BYLAYER
  9
$DIMSCALE
 40
1.0
  9
$DIMASZ
 40
3.5
  9
$DIMEXO
 40
1.85625
  9
$DIMDLI
 40
11.286
  9
$DIMEXE
 40
5.346
  9
$DIMCEN
 40
2.673
  9
$DIMLFAC
 40
1.0
  9
$DIMBLK
  1
_FILLED
  9
$DIMTXT
 40
3.5
  9
$DIMTOL
 70
1
  9
$DIMLIM
 70
0
  9
$DIMTFAC
 40
1.0
  9
$DIMTP
 40
0.005
  9
$DIMTM
 40
0.005
  9
$PDMODE
 70
3
  9
$PDSIZE
 40
0.3125
  9
$HANDSEED
  5
6EC
  9
$TILEMODE
 70
1
  9
$MEASUREMENT
 70
1
  9
$INSUNITS
 70
4
  0
ENDSEC
  0
SECTION
  2
CLASSES
  0
CLASS
  1
ACDBDICTIONARYWDFLT
  2
AcDbDictionaryWithDefault
  3
AutoCAD 2000
 90
0
280
0
281
0
  0
CLASS
  1
ACDBPLACEHOLDER
  2
AcDbPlaceHolder
  3
AutoCAD 2000
 90
0
280
0
281
0
  0
CLASS
  1
LAYOUT
  2
AcDbLayout
  3
AutoCAD 2000
 90
0
280
0
281
0
  0
ENDSEC
  0
SECTION
  2
TABLES
  0
TABLE
  2
VPORT
  5
8
100
AcDbSymbolTable
 70
2
  0
VPORT
  5
1F4
100
AcDbSymbolTableRecord
100
AcDbViewportTableRecord
  2
*ACTIVE
 70
0
 10
0.0
 20
0.0
 11
1.0
 21
1.0
 12
148.5
 22
105.0
 13
0.0
 23
0.0
 14
1.0
 24
1.0
 15
0.0
 25
0.0
 16
0.0
 26
0.0
 36
1.0
 17
0.0
 27
0.0
 37
0.0
 40
210.0
 41
1.4142857143
 42
50.0
 43
0.0
 44
0.0
 50
0.0
 51
0.0
 71
0
 72
100
 73
1
 74
1
 75
0
 76
0
 77
0
 78
0
  0
ENDTAB
  0
TABLE
  2
LTYPE
  5
5
100
AcDbSymbolTable
 70
6
  0
LTYPE
  5
14
100
AcDbSymbolTableRecord
100
AcDbLinetypeTableRecord
  2
BYBLOCK
 70
0
  3

 72
65
 73
0
 40
0.0
  0
LTYPE
  5
15
100
AcDbSymbolTableRecord
100
AcDbLinetypeTableRecord
  2
BYLAYER
 70
0
  3

 72
65
 73
0
 40
0.0
  0
LTYPE
  5
16
100
AcDbSymbolTableRecord
100
AcDbLinetypeTableRecord
  2
CONTINUOUS
 70
64
  3
Solid line
 72
65
 73
0
 40
0.0
  0
LTYPE
  5
1F5
100
AcDbSymbolTableRecord
100
AcDbLinetypeTableRecord
  2
CENTER
 70
64
  3
____ _ ____ _ ____ _ ____ _ ____ _ ____ _ ____
 72
65
 73
4
 40
0.6
 49
0.375
 74
0
 49
-0.075
 74
0
 49
0.075
 74
0
 49
-0.075
 74
0
  0
LTYPE
  5
1F6
100
AcDbSymbolTableRecord
100
AcDbLinetypeTableRecord
  2
HIDDEN
 70
64
  3
- - - - - - - - - - - - - - - - - - - -
 72
65
 73
2
 40
0.2
 49
0.1
 74
0
 49
-0.1
 74
0
  0
LTYPE
  5
1F7
100
AcDbSymbolTableRecord
100
AcDbLinetypeTableRecord
  2
PHANTOM
 70
64
  3
_____ _ _ _____ _ _ _____ _ _ _____
 72
65
 73
6
 40
0.8
 49
0.45
 74
0
 49
-0.05
 74
0
 49
0.1
 74
0
 49
-0.05
 74
0
 49
0.1
 74
0
 49
-0.05
 74
0
  0
LTYPE
  5
1F8
100
AcDbSymbolTableRecord
100
AcDbLinetypeTableRecord
  2
DOT
 70
64
  3
. . . . . . . . . . . . . . . . . . . .
 72
65
 73
2
 40
0.2
 49
0.1
 74
0
 49
-0.1
 74
0
  0
LTYPE
  5
1F9
100
AcDbSymbolTableRecord
100
AcDbLinetypeTableRecord
  2
DASHED
 70
64
  3
- - - - - - - - - - - - - - - - - - - -
 72
65
 73
2
 40
0.2
 49
0.1
 74
0
 49
-0.1
 74
0
  0
ENDTAB
  0
TABLE
  2
LAYER
  5
2
100
AcDbSymbolTable
 70
36
  0
LAYER
  5
10
100
AcDbSymbolTableRecord
100
AcDbLayerTableRecord
  2
0
 70
0
 62
7
  6
CONTINUOUS
370
-3
390
F
  0
LAYER
  5
1FA
100
AcDbSymbolTableRecord
100
AcDbLayerTableRecord
  2
DEFAULT_1
 70
0
 62
7
  6
CENTER
370
-3
390
F
  0
LAYER
  5
1FB
100
AcDbSymbolTableRecord
100
AcDbLayerTableRecord
  2
DEFAULT_2
 70
0
 62
8
  6
HIDDEN
370
-3
390
F
  0
LAYER
  5
1FC
100
AcDbSymbolTableRecord
100
AcDbLayerTableRecord
  2
DEFAULT_3
 70
0
 62
7
  6
PHANTOM
370
-3
390
F
  0
LAYER
  5
1FD
100
AcDbSymbolTableRecord
100
AcDbLayerTableRecord
  2
01___PRT_ALL_DTM_PLN
 70
0
 62
7
  6
CONTINUOUS
370
-3
390
F
  0
LAYER
  5
1FE
100
AcDbSymbolTableRecord
100
AcDbLayerTableRecord
  2
01___PRT_DEF_DTM_PLN
 70
0
 62
7
  6
CONTINUOUS
370
-3
390
F
  0
LAYER
  5
1FF
100
AcDbSymbolTableRecord
100
AcDbLayerTableRecord
  2
02___PRT_ALL_AXES
 70
0
 62
7
  6
CONTINUOUS
370
-3
390
F
  0
LAYER
  5
200
100
AcDbSymbolTableRecord
100
AcDbLayerTableRecord
  2
03___PRT_ALL_CURVES
 70
0
 62
7
  6
CONTINUOUS
370
-3
390
F
  0
LAYER
  5
201
100
AcDbSymbolTableRecord
100
AcDbLayerTableRecord
  2
04___PRT_ALL_DTM_PNT
 70
0
 62
7
  6
CONTINUOUS
370
-3
390
F
  0
LAYER
  5
202
100
AcDbSymbolTableRecord
100
AcDbLayerTableRecord
  2
05___PRT_ALL_DTM_CSYS
 70
0
 62
7
  6
CONTINUOUS
370
-3
390
F
  0
LAYER
  5
203
100
AcDbSymbolTableRecord
100
AcDbLayerTableRecord
  2
05___PRT_DEF_DTM_CSYS
 70
0
 62
7
  6
CONTINUOUS
370
-3
390
F
  0
LAYER
  5
204
100
AcDbSymbolTableRecord
100
AcDbLayerTableRecord
  2
06___PRT_ALL_SURFS
 70
0
 62
7
  6
CONTINUOUS
370
-3
390
F
  0
LAYER
  5
205
100
AcDbSymbolTableRecord
100
AcDbLayerTableRecord
  2
AUSFORMSCHRAEGEN
 70
0
 62
7
  6
CONTINUOUS
370
-3
390
F
  0
LAYER
  5
206
100
AcDbSymbolTableRecord
100
AcDbLayerTableRecord
  2
BEZUGSACHSEN
 70
0
 62
7
  6
CONTINUOUS
370
-3
390
F
  0
LAYER
  5
207
100
AcDbSymbolTableRecord
100
AcDbLayerTableRecord
  2
BEZUGSEBENEN
 70
0
 62
7
  6
CONTINUOUS
370
-3
390
F
  0
LAYER
  5
208
100
AcDbSymbolTableRecord
100
AcDbLayerTableRecord
  2
BOHRUNGEN
 70
0
 62
7
  6
CONTINUOUS
370
-3
390
F
  0
LAYER
  5
209
100
AcDbSymbolTableRecord
100
AcDbLayerTableRecord
  2
FASEN
 70
0
 62
7
  6
CONTINUOUS
370
-3
390
F
  0
LAYER
  5
20A
100
AcDbSymbolTableRecord
100
AcDbLayerTableRecord
  2
GEWINDE
 70
0
 62
7
  6
CONTINUOUS
370
-3
390
F
  0
LAYER
  5
20B
100
AcDbSymbolTableRecord
100
AcDbLayerTableRecord
  2
KURVEN
 70
0
 62
7
  6
CONTINUOUS
370
-3
390
F
  0
LAYER
  5
20C
100
AcDbSymbolTableRecord
100
AcDbLayerTableRecord
  2
RUNDUNGEN
 70
0
 62
7
  6
CONTINUOUS
370
-3
390
F
  0
LAYER
  5
20D
100
AcDbSymbolTableRecord
100
AcDbLayerTableRecord
  2
ZEICHNUNGSBEMASSUNGEN
 70
0
 62
7
  6
CONTINUOUS
370
-3
390
F
  0
ENDTAB
  0
TABLE
  2
STYLE
  5
3
100
AcDbSymbolTable
 70
1
  0
STYLE
  5
11
100
AcDbSymbolTableRecord
100
AcDbTextStyleTableRecord
  2
STANDARD
 70
0
 40
0.0
 41
0.7
 50
0.0
 71
0
 42
0.2
  3
txt
  4

  0
STYLE
  5
20E
100
AcDbSymbolTableRecord
100
AcDbTextStyleTableRecord
  2
TEXTSTYLE_1
 70
0
 40
0.0
 41
0.8
 50
0.0
 71
0
 42
0.2
  3
gdt
  4

  0
ENDTAB
  0
TABLE
  2
VIEW
  5
6
100
AcDbSymbolTable
 70
0
  0
ENDTAB
  0
TABLE
  2
UCS
  5
7
100
AcDbSymbolTable
 70
0
  0
ENDTAB
  0
TABLE
  2
APPID
  5
9
100
AcDbSymbolTable
 70
1
  0
APPID
  5
20F
100
AcDbSymbolTableRecord
100
AcDbRegAppTableRecord
  2
ACAD
 70
0
  0
ENDTAB
  0
TABLE
  2
BLOCK_RECORD
  5
1
100
AcDbSymbolTable
 70
0
  0
BLOCK_RECORD
  5
210
100
AcDbSymbolTableRecord
100
AcDbBlockTableRecord
  2
*Model_Space
  0
BLOCK_RECORD
  5
211
100
AcDbSymbolTableRecord
100
AcDbBlockTableRecord
  2
*Paper_Space
  0
ENDTAB
  0
TABLE
  2
DIMSTYLE
  5
A
100
AcDbSymbolTable
 70
1
100
AcDbDimStyleTable
 71
0
  0
DIMSTYLE
105
212
100
AcDbSymbolTableRecord
100
AcDbDimStyleTableRecord
  2
STANDARD
 70
0
  3

  4

 40
1.0
 41
3.5
 42
0.0625
 43
0.38
 44
0.18
 45
0.0
 46
0.0
 47
0.005
 48
0.005
140
3.5
141
0.09
142
0.0
143
25.4
144
1.0
145
0.0
146
1.0
147
0.09
 71
1.0
 72
0.0
 73
0
 74
0
 75
0
 76
0
 77
1
 78
8
170
0
171
2
172
0
173
0
174
0
175
0
176
0
177
0
178
5
270
2
271
3
272
3
273
2
274
2
275
0
280
0
281
0
282
0
283
1
284
8
285
0
286
0
287
3
288
0
340
11
  0
ENDTAB
  0
ENDSEC
  0
SECTION
  2
BLOCKS
  0
BLOCK
  5
20
100
AcDbEntity
  8
0
100
AcDbBlockBegin
  2
*Model_Space
 70
0
 10
0.0
 20
0.0
 30
0.0
  3
*Model_Space
  1

  0
ENDBLK
  5
21
100
AcDbEntity
  8
0
100
AcDbBlockEnd
  0
BLOCK
  5
1C
100
AcDbEntity
  8
0
100
AcDbBlockBegin
  2
*Paper_Space
 70
0
 10
0.0
 20
0.0
 30
0.0
  3
*Paper_Space
  1

  0
ENDBLK
  5
1D
100
AcDbEntity
  8
0
100
AcDbBlockEnd
  0
ENDSEC
  0
SECTION
  2
ENTITIES
  0
LINE
  5
213
100
AcDbEntity
  8
0
100
AcDbLine
 62
7
  6
CONTINUOUS
 10
0.0
 20
0.0
 11
0.0
 21
210.0
  0
LINE
  5
214
100
AcDbEntity
  8
0
100
AcDbLine
 62
7
  6
CONTINUOUS
 10
0.0
 20
0.0
 11
297.0
 21
0.0
  0
LINE
  5
215
100
AcDbEntity
  8
0
100
AcDbLine
 62
7
  6
CONTINUOUS
 10
0.0
 20
210.0
 11
297.0
 21
210.0
  0
LINE
  5
216
100
AcDbEntity
  8
0
100
AcDbLine
 62
7
  6
CONTINUOUS
 10
297.0
 20
0.0
 11
297.0
 21
210.0
  0
LINE
  5
217
100
AcDbEntity
  8
RUNDUNGEN
100
AcDbLine
 62
7
  6
CONTINUOUS
 10
56.3594046798
 20
132.2273794914
 11
54.0633040856
 21
126.6841022963
  0
LINE
  5
218
100
AcDbEntity
  8
RUNDUNGEN
100
AcDbLine
 62
7
  6
CONTINUOUS
 10
91.8780290015
 20
164.4988272122
 11
86.3347518065
 21
162.202726618
  0
LINE
  5
219
100
AcDbEntity
  8
RUNDUNGEN
100
AcDbLine
 62
7
  6
CONTINUOUS
 10
86.3347518065
 20
48.7739355312
 11
91.8780290015
 21
46.477834937
  0
LINE
  5
21A
100
AcDbEntity
  8
RUNDUNGEN
100
AcDbLine
 62
7
  6
CONTINUOUS
 10
54.0633040856
 20
84.2925598529
 11
56.3594046798
 21
78.7492826579
  0
LINE
  5
21B
100
AcDbEntity
  8
RUNDUNGEN
100
AcDbLine
 62
7
  6
CONTINUOUS
 10
52.1113543827
 20
114.3054004576
 11
52.1113543827
 21
111.2266910206
  0
LINE
  5
21C
100
AcDbEntity
  8
RUNDUNGEN
100
AcDbLine
 62
7
  6
CONTINUOUS
 10
52.1113543827
 20
99.7499711286
 11
52.1113543827
 21
96.6712517179
  0
LINE
  5
21D
100
AcDbEntity
  8
RUNDUNGEN
100
AcDbLine
 62
7
  6
CONTINUOUS
 10
56.347437046
 20
119.4871236114
 11
56.3803874296
 21
119.8643081822
  0
LINE
  5
21E
100
AcDbEntity
  8
RUNDUNGEN
100
AcDbLine
 62
7
  6
CONTINUOUS
 10
56.2439118568
 20
119.122877454
 11
56.347437046
 21
119.4871236114
  0
LINE
  5
21F
100
AcDbEntity
  8
RUNDUNGEN
100
AcDbLine
 62
7
  6
CONTINUOUS
 10
56.0735267756
 20
118.7846403673
 11
56.2439118568
 21
119.122877454
  0
LINE
  5
220
100
AcDbEntity
  8
RUNDUNGEN
100
AcDbLine
 62
7
  6
CONTINUOUS
 10
76.2014521494
 20
154.8299007039
 11
74.0244746024
 21
152.6529231569
  0
LINE
  5
221
100
AcDbEntity
  8
RUNDUNGEN
100
AcDbLine
 62
7
  6
CONTINUOUS
 10
65.909208141
 20
144.5376566955
 11
63.7322247683
 21
142.3606733228
  0
LINE
  5
222
100
AcDbEntity
  8
RUNDUNGEN
100
AcDbLine
 62
7
  6
CONTINUOUS
 10
82.8608450155
 20
155.4985683528
 11
83.1508541757
 21
155.7419787221
  0
LINE
  5
223
100
AcDbEntity
  8
RUNDUNGEN
100
AcDbLine
 62
7
  6
CONTINUOUS
 10
82.5300808047
 20
155.314210706
 11
82.8608450155
 21
155.4985683528
  0
LINE
  5
224
100
AcDbEntity
  8
RUNDUNGEN
100
AcDbLine
 62
7
  6
CONTINUOUS
 10
82.1704307184
 20
155.1955212871
 11
82.5300808047
 21
155.314210706
  0
LINE
  5
225
100
AcDbEntity
  8
RUNDUNGEN
100
AcDbLine
 62
7
  6
CONTINUOUS
 10
104.2567315899
 20
44.5258852341
 11
107.3354402772
 21
44.5258852341
  0
LINE
  5
226
100
AcDbEntity
  8
RUNDUNGEN
100
AcDbLine
 62
7
  6
CONTINUOUS
 10
118.8121601692
 20
44.5258852341
 11
121.8908795018
 21
44.5258852341
  0
LINE
  5
227
100
AcDbEntity
  8
RUNDUNGEN
100
AcDbLine
 62
7
  6
CONTINUOUS
 10
99.0750076872
 20
48.7619678972
 11
98.6978231163
 21
48.7949182803
  0
LINE
  5
228
100
AcDbEntity
  8
RUNDUNGEN
100
AcDbLine
 62
7
  6
CONTINUOUS
 10
99.4392538447
 20
48.6584427085
 11
99.0750076872
 21
48.7619678972
  0
LINE
  5
229
100
AcDbEntity
  8
RUNDUNGEN
100
AcDbLine
 62
7
  6
CONTINUOUS
 10
99.7774909317
 20
48.488057628
 11
99.4392538447
 21
48.6584427085
  0
LINE
  5
22A
100
AcDbEntity
  8
RUNDUNGEN
100
AcDbLine
 62
7
  6
CONTINUOUS
 10
63.7322323514
 20
68.6159812433
 11
65.909208141
 21
66.4390054538
  0
LINE
  5
22B
100
AcDbEntity
  8
RUNDUNGEN
100
AcDbLine
 62
7
  6
CONTINUOUS
 10
74.0244746024
 20
58.3237389924
 11
76.2014579751
 21
56.1467556197
  0
LINE
  5
22C
100
AcDbEntity
  8
RUNDUNGEN
100
AcDbLine
 62
7
  6
CONTINUOUS
 10
63.0635630178
 20
75.2753761304
 11
62.8201526893
 21
75.5653853376
  0
LINE
  5
22D
100
AcDbEntity
  8
RUNDUNGEN
100
AcDbLine
 62
7
  6
CONTINUOUS
 10
63.2479205828
 20
74.9446118395
 11
63.0635630178
 21
75.2753761304
  0
LINE
  5
22E
100
AcDbEntity
  8
RUNDUNGEN
100
AcDbLine
 62
7
  6
CONTINUOUS
 10
63.3666098748
 20
74.5849616558
 11
63.2479205828
 21
74.9446118395
  0
LINE
  5
22F
100
AcDbEntity
  8
RUNDUNGEN
100
AcDbLine
 62
7
  6
CONTINUOUS
 10
56.3803874296
 20
119.8643081822
 11
56.3415806098
 21
120.2408962256
  0
LINE
  5
230
100
AcDbEntity
  8
RUNDUNGEN
100
AcDbLine
 62
7
  6
CONTINUOUS
 10
63.5422115753
 20
70.4836580119
 11
63.4121148521
 21
74.2112821422
  0
LINE
  5
231
100
AcDbEntity
  8
RUNDUNGEN
100
AcDbLine
 62
7
  6
CONTINUOUS
 10
63.542222355
 20
70.4833654057
 11
63.5422231575
 21
70.4833261722
  0
LINE
  5
232
100
AcDbEntity
  8
RUNDUNGEN
100
AcDbLine
 62
7
  6
CONTINUOUS
 10
63.412114852
 20
136.7653800037
 11
63.5422158936
 21
140.4931278687
  0
LWPOLYLINE
  5
233
100
AcDbEntity
  8
RUNDUNGEN
100
AcDbPolyline
 62
7
  6
CONTINUOUS
 90
3
 70
0
 10
60.6113543827
 20
107.7383310746
 10
60.6142321821
 20
107.7579039746
 10
60.7395986835
 20
108.5445091506
  0
LINE
  5
234
100
AcDbEntity
  8
RUNDUNGEN
100
AcDbLine
 62
7
  6
CONTINUOUS
 10
60.7395986835
 20
108.5445091506
 11
60.769738823
 21
108.7383310746
  0
LINE
  5
235
100
AcDbEntity
  8
RUNDUNGEN
100
AcDbLine
 62
7
  6
CONTINUOUS
 10
83.3897015684
 20
156.035707255
 11
83.5688163713
 21
156.3692137705
  0
LWPOLYLINE
  5
236
100
AcDbEntity
  8
RUNDUNGEN
100
AcDbPolyline
 62
7
  6
CONTINUOUS
 90
3
 70
0
 10
74.3862587541
 20
140.9938920284
 10
74.3748087054
 20
140.9777589404
 10
73.9059950578
 20
140.3338037973
  0
LINE
  5
237
100
AcDbEntity
  8
RUNDUNGEN
100
AcDbLine
 62
7
  6
CONTINUOUS
 10
73.9059950578
 20
140.3338037973
 11
73.7911466847
 21
140.1747905354
  0
LINE
  5
238
100
AcDbEntity
  8
RUNDUNGEN
100
AcDbLine
 62
7
  6
CONTINUOUS
 10
55.8423959261
 20
118.4845496956
 11
56.0735267756
 21
118.7846403673
  0
LINE
  5
239
100
AcDbEntity
  8
RUNDUNGEN
100
AcDbLine
 62
7
  6
CONTINUOUS
 10
83.1508541757
 20
155.7419787221
 11
83.3897015684
 21
156.035707255
  0
LINE
  5
23A
100
AcDbEntity
  8
RUNDUNGEN
100
AcDbLine
 62
7
  6
CONTINUOUS
 10
53.2976363114
 20
115.7604115946
 11
55.8414723381
 21
118.4882321718
  0
LINE
  5
23B
100
AcDbEntity
  8
RUNDUNGEN
100
AcDbLine
 62
7
  6
CONTINUOUS
 10
53.2973221851
 20
115.7600726774
 11
53.2972805419
 21
115.7600300913
  0
LINE
  5
23C
100
AcDbEntity
  8
RUNDUNGEN
100
AcDbLine
 62
7
  6
CONTINUOUS
 10
102.8017889461
 20
165.264559559
 11
100.0738993088
 21
162.7206591301
  0
LINE
  5
23D
100
AcDbEntity
  8
0
100
AcDbLine
 62
7
  6
CONTINUOUS
 10
91.681686112
 20
151.9823343301
 11
91.482688857
 21
151.818095828
  0
LINE
  5
23E
100
AcDbEntity
  8
0
100
AcDbLine
 62
7
  6
CONTINUOUS
 10
91.5733948718
 20
151.5080499482
 11
91.8176294134
 21
151.6935862773
  0
LWPOLYLINE
  5
23F
100
AcDbEntity
  8
RUNDUNGEN
100
AcDbPolyline
 62
7
  6
CONTINUOUS
 90
3
 70
0
 10
77.5682392694
 20
144.1758725437
 10
77.5841143112
 20
144.1876777626
 10
78.2289756685
 20
144.6552441134
  0
LINE
  5
240
100
AcDbEntity
  8
RUNDUNGEN
100
AcDbLine
 62
7
  6
CONTINUOUS
 10
78.2289756685
 20
144.6552441134
 11
78.3873407624
 21
144.7709846131
  0
LINE
  5
241
100
AcDbEntity
  8
0
100
AcDbLine
 62
7
  6
CONTINUOUS
 10
89.4220196326
 20
151.9501112032
 11
88.3554964317
 21
151.4000855111
  0
LINE
  5
242
100
AcDbEntity
  8
0
100
AcDbLine
 62
7
  6
CONTINUOUS
 10
88.7684106432
 20
151.2539421805
 11
89.6127414682
 21
151.6893791649
  0
LINE
  5
243
100
AcDbEntity
  8
0
100
AcDbLine
 62
7
  6
CONTINUOUS
 10
90.0515917841
 20
150.838429745
 11
89.2072609591
 21
150.4029927606
  0
LINE
  5
244
100
AcDbEntity
  8
0
100
AcDbLine
 62
7
  6
CONTINUOUS
 10
89.3828010527
 20
150.0626130562
 11
90.1826934533
 21
150.4751323253
  0
LINE
  5
245
100
AcDbEntity
  8
0
100
AcDbLine
 62
7
  6
CONTINUOUS
 10
89.7305606619
 20
148.7337775089
 11
89.9971914621
 21
148.8712839319
  0
LINE
  5
246
100
AcDbEntity
  8
0
100
AcDbLine
 62
7
  6
CONTINUOUS
 10
91.0936024215
 20
151.7054630659
 11
90.8674165062
 21
151.5989741744
  0
LINE
  5
247
100
AcDbEntity
  8
0
100
AcDbLine
 62
7
  6
CONTINUOUS
 10
91.7374537114
 20
149.7509864749
 11
91.9636396267
 21
149.8574753665
  0
LINE
  5
248
100
AcDbEntity
  8
0
100
AcDbLine
 62
7
  6
CONTINUOUS
 10
93.0251416702
 20
152.5755233373
 11
92.6577273708
 21
152.4173876828
  0
LINE
  5
249
100
AcDbEntity
  8
0
100
AcDbLine
 62
7
  6
CONTINUOUS
 10
92.8505186687
 20
152.2224020272
 11
93.0342255556
 21
152.3014697414
  0
LINE
  5
24A
100
AcDbEntity
  8
0
100
AcDbLine
 62
7
  6
CONTINUOUS
 10
93.6398511674
 20
150.8943518432
 11
93.4561442806
 21
150.815284129
  0
LINE
  5
24B
100
AcDbEntity
  8
0
100
AcDbLine
 62
7
  6
CONTINUOUS
 10
93.4652281748
 20
150.5412305126
 11
93.8326424742
 21
150.6993661671
  0
LINE
  5
24C
100
AcDbEntity
  8
0
100
AcDbLine
 62
7
  6
CONTINUOUS
 10
93.8777323031
 20
153.9605366593
 11
93.6455168663
 21
153.8679294983
  0
LINE
  5
24D
100
AcDbEntity
  8
0
100
AcDbLine
 62
7
  6
CONTINUOUS
 10
94.7568019501
 20
151.0813463823
 11
94.9890173869
 21
151.1739535433
  0
LINE
  5
24E
100
AcDbEntity
  8
0
100
AcDbLine
 62
7
  6
CONTINUOUS
 10
94.520628843
 20
154.2102313821
 11
94.2872086671
 21
154.1207041973
  0
LINE
  5
24F
100
AcDbEntity
  8
0
100
AcDbLine
 62
7
  6
CONTINUOUS
 10
94.4014985895
 20
153.8227212568
 11
94.6349187654
 21
153.9122484417
  0
LINE
  5
250
100
AcDbEntity
  8
0
100
AcDbLine
 62
7
  6
CONTINUOUS
 10
94.8634986743
 20
153.3162823938
 11
94.6300784983
 21
153.2267552089
  0
LINE
  5
251
100
AcDbEntity
  8
0
100
AcDbLine
 62
7
  6
CONTINUOUS
 10
95.3615340657
 20
151.3196642229
 11
95.5949542417
 21
151.4091914078
  0
LINE
  5
252
100
AcDbEntity
  8
0
100
AcDbLine
 62
7
  6
CONTINUOUS
 10
96.1321289506
 20
153.7804852966
 11
95.9436651768
 21
153.7135408529
  0
LINE
  5
253
100
AcDbEntity
  8
0
100
AcDbLine
 62
7
  6
CONTINUOUS
 10
95.5196224945
 20
153.5629161419
 11
95.284043586
 21
153.4792358746
  0
LINE
  5
254
100
AcDbEntity
  8
0
100
AcDbLine
 62
7
  6
CONTINUOUS
 10
95.9677301957
 20
151.554503193
 11
96.2033091042
 21
151.6381834603
  0
LINE
  5
255
100
AcDbEntity
  8
0
100
AcDbLine
 62
7
  6
CONTINUOUS
 10
97.0513944689
 20
151.9394328823
 11
97.2869739166
 21
152.0231133411
  0
LINE
  5
256
100
AcDbEntity
  8
0
100
AcDbLine
 62
7
  6
CONTINUOUS
 10
97.0049512723
 20
155.0869470479
 11
96.7664655698
 21
155.0119511885
  0
LINE
  5
257
100
AcDbEntity
  8
0
100
AcDbLine
 62
7
  6
CONTINUOUS
 10
98.1984167857
 20
154.4585807368
 11
97.9122340518
 21
154.3685857398
  0
LINE
  5
258
100
AcDbEntity
  8
0
100
AcDbLine
 62
7
  6
CONTINUOUS
 10
97.6664172562
 20
152.1501183908
 11
97.9049029588
 21
152.2251142502
  0
LINE
  5
259
100
AcDbEntity
  8
0
100
AcDbLine
 62
7
  6
CONTINUOUS
 10
98.7157557668
 20
152.4801006186
 11
99.0019390465
 21
152.5700957872
  0
LINE
  5
25A
100
AcDbEntity
  8
RUNDUNGEN
100
AcDbLine
 62
7
  6
CONTINUOUS
 10
127.8263653742
 20
162.220550688
 11
128.1888433554
 21
162.3297221632
  0
LWPOLYLINE
  5
25B
100
AcDbEntity
  8
RUNDUNGEN
100
AcDbPolyline
 62
7
  6
CONTINUOUS
 90
3
 70
0
 10
115.3238002232
 20
53.0258852341
 10
115.3433044462
 20
53.0291966429
 10
116.130150804
 20
53.1530403821
  0
LINE
  5
25C
100
AcDbEntity
  8
RUNDUNGEN
100
AcDbLine
 62
7
  6
CONTINUOUS
 10
116.130150804
 20
53.1530403821
 11
116.3238002232
 21
53.1842696744
  0
LINE
  5
25D
100
AcDbEntity
  8
RUNDUNGEN
100
AcDbLine
 62
7
  6
CONTINUOUS
 10
144.3527999819
 20
55.8299026826
 11
143.9771696419
 21
55.7811407247
  0
LINE
  5
25E
100
AcDbEntity
  8
RUNDUNGEN
100
AcDbLine
 62
7
  6
CONTINUOUS
 10
98.6978231163
 20
48.7949182803
 11
98.3212350728
 21
48.7561114602
  0
LINE
  5
25F
100
AcDbEntity
  8
RUNDUNGEN
100
AcDbLine
 62
7
  6
CONTINUOUS
 10
148.0784715214
 20
55.9567423651
 11
144.3508491533
 21
55.8266457034
  0
LINE
  5
260
100
AcDbEntity
  8
RUNDUNGEN
100
AcDbLine
 62
7
  6
CONTINUOUS
 10
148.0789321179
 20
55.956759849
 11
148.0789908753
 21
55.9567604926
  0
LINE
  5
261
100
AcDbEntity
  8
RUNDUNGEN
100
AcDbLine
 62
7
  6
CONTINUOUS
 10
81.7967512941
 20
55.8266457034
 11
78.0690034291
 21
55.956746745
  0
LWPOLYLINE
  5
262
100
AcDbEntity
  8
RUNDUNGEN
100
AcDbPolyline
 62
7
  6
CONTINUOUS
 90
3
 70
0
 10
110.8238002232
 20
53.0258852341
 10
110.8042273233
 20
53.0287630335
 10
110.0176221473
 20
53.1541295349
  0
LINE
  5
263
100
AcDbEntity
  8
RUNDUNGEN
100
AcDbLine
 62
7
  6
CONTINUOUS
 10
110.0176221473
 20
53.1541295349
 11
109.8238002232
 21
53.1842696744
  0
LINE
  5
264
100
AcDbEntity
  8
RUNDUNGEN
100
AcDbLine
 62
7
  6
CONTINUOUS
 10
62.5264241644
 20
75.8042327313
 11
62.1929176353
 21
75.9833474794
  0
LWPOLYLINE
  5
265
100
AcDbEntity
  8
RUNDUNGEN
100
AcDbPolyline
 62
7
  6
CONTINUOUS
 90
3
 70
0
 10
77.5682392694
 20
66.8007896055
 10
77.5843723574
 20
66.7893395568
 10
78.2283275006
 20
66.3205259092
  0
LINE
  5
266
100
AcDbEntity
  8
RUNDUNGEN
100
AcDbLine
 62
7
  6
CONTINUOUS
 10
78.2283275006
 20
66.3205259092
 11
78.3873407624
 21
66.2056775361
  0
LINE
  5
267
100
AcDbEntity
  8
RUNDUNGEN
100
AcDbLine
 62
7
  6
CONTINUOUS
 10
100.0775816038
 20
48.2569267792
 11
99.7774909317
 21
48.488057628
  0
LINE
  5
268
100
AcDbEntity
  8
RUNDUNGEN
100
AcDbLine
 62
7
  6
CONTINUOUS
 10
62.8201526893
 20
75.5653853376
 11
62.5264241644
 21
75.8042327313
  0
LINE
  5
269
100
AcDbEntity
  8
RUNDUNGEN
100
AcDbLine
 62
7
  6
CONTINUOUS
 10
102.801718412
 20
45.712168367
 11
100.0738991278
 21
48.2560031879
  0
LINE
  5
26A
100
AcDbEntity
  8
RUNDUNGEN
100
AcDbLine
 62
7
  6
CONTINUOUS
 10
102.8019289809
 20
45.7119727489
 11
102.8019565067
 21
45.7119463321
  0
LINE
  5
26B
100
AcDbEntity
  8
RUNDUNGEN
100
AcDbLine
 62
7
  6
CONTINUOUS
 10
55.8414723388
 20
92.4884299767
 11
53.2975518737
 21
95.2163410994
  0
LWPOLYLINE
  5
26C
100
AcDbEntity
  8
RUNDUNGEN
100
AcDbPolyline
 62
7
  6
CONTINUOUS
 90
3
 70
0
 10
74.3862587541
 20
69.9827701208
 10
74.3744535353
 20
69.9986451626
 10
73.9068871845
 20
70.6435065199
  0
LINE
  5
26D
100
AcDbEntity
  8
RUNDUNGEN
100
AcDbLine
 62
7
  6
CONTINUOUS
 10
73.9068871845
 20
70.6435065199
 11
73.7911466847
 21
70.8018716138
  0
LINE
  5
26E
100
AcDbEntity
  8
RUNDUNGEN
100
AcDbLine
 62
7
  6
CONTINUOUS
 10
56.3415806098
 20
120.2408962256
 11
56.2324091346
 21
120.6033742068
  0
LWPOLYLINE
  5
26F
100
AcDbEntity
  8
RUNDUNGEN
100
AcDbPolyline
 62
7
  6
CONTINUOUS
 90
3
 70
0
 10
60.6113543827
 20
103.2383310746
 10
60.6146657915
 20
103.2188268517
 10
60.7385095307
 20
102.4319804938
  0
LINE
  5
270
100
AcDbEntity
  8
RUNDUNGEN
100
AcDbLine
 62
7
  6
CONTINUOUS
 10
60.7385095307
 20
102.4319804938
 11
60.769738823
 21
102.2383310746
  0
LINE
  5
271
100
AcDbEntity
  8
RUNDUNGEN
100
AcDbLine
 62
7
  6
CONTINUOUS
 10
63.4153718335
 20
74.209331316
 11
63.3666098748
 21
74.5849616558
  0
LINE
  5
272
100
AcDbEntity
  8
RUNDUNGEN
100
AcDbLine
 62
7
  6
CONTINUOUS
 10
56.23239891
 20
90.3732933542
 11
54.0613099092
 21
85.0530764167
  0
LINE
  5
273
100
AcDbEntity
  8
RUNDUNGEN
100
AcDbLine
 62
7
  6
CONTINUOUS
 10
85.7955752914
 20
161.6663702942
 11
83.5688055797
 21
156.3692170823
  0
LINE
  5
274
100
AcDbEntity
  8
0
100
AcDbLine
 62
7
  6
CONTINUOUS
 10
91.4468233048
 20
151.3073595408
 11
91.5733948718
 21
151.5080499482
  0
LINE
  5
275
100
AcDbEntity
  8
0
100
AcDbLine
 62
7
  6
CONTINUOUS
 10
92.4992548819
 20
152.2796900622
 11
92.4326355736
 21
152.1815261856
  0
LINE
  5
276
100
AcDbEntity
  8
0
100
AcDbLine
 62
7
  6
CONTINUOUS
 10
90.1556505019
 20
150.9639129072
 11
90.0515917841
 21
150.838429745
  0
LINE
  5
277
100
AcDbEntity
  8
0
100
AcDbLine
 62
7
  6
CONTINUOUS
 10
91.482688857
 20
151.818095828
 11
91.3741659163
 21
151.6964528582
  0
LINE
  5
278
100
AcDbEntity
  8
0
100
AcDbLine
 62
7
  6
CONTINUOUS
 10
90.1826934533
 20
150.4751323253
 11
90.375629147
 21
150.6464509837
  0
LINE
  5
279
100
AcDbEntity
  8
0
100
AcDbLine
 62
7
  6
CONTINUOUS
 10
92.6577273708
 20
152.4173876828
 11
92.4992548819
 21
152.2796900622
  0
LINE
  5
27A
100
AcDbEntity
  8
0
100
AcDbLine
 62
7
  6
CONTINUOUS
 10
92.692045917
 20
152.0847042935
 11
92.8505186687
 21
152.2224020272
  0
LINE
  5
27B
100
AcDbEntity
  8
0
100
AcDbLine
 62
7
  6
CONTINUOUS
 10
93.7983239103
 20
151.0320495974
 11
93.6398511674
 21
150.8943518432
  0
LINE
  5
27C
100
AcDbEntity
  8
0
100
AcDbLine
 62
7
  6
CONTINUOUS
 10
93.8326424742
 20
150.6993661671
 11
93.9911149609
 21
150.8370637928
  0
LINE
  5
27D
100
AcDbEntity
  8
0
100
AcDbLine
 62
7
  6
CONTINUOUS
 10
95.9436651768
 20
153.7135408529
 11
95.7765671468
 21
153.5864487097
  0
LINE
  5
27E
100
AcDbEntity
  8
0
100
AcDbLine
 62
7
  6
CONTINUOUS
 10
95.8620279656
 20
153.3458571456
 11
96.0291259955
 21
153.4729492888
  0
LINE
  5
27F
100
AcDbEntity
  8
RUNDUNGEN
100
AcDbLine
 62
7
  6
CONTINUOUS
 10
62.1929142325
 20
134.9933257253
 11
56.8957610036
 21
132.7665560065
  0
LINE
  5
280
100
AcDbEntity
  8
RUNDUNGEN
100
AcDbLine
 62
7
  6
CONTINUOUS
 10
133.5090548811
 20
164.5008213886
 11
128.1888379535
 21
162.3297323918
  0
LINE
  5
281
100
AcDbEntity
  8
RUNDUNGEN
100
AcDbLine
 62
7
  6
CONTINUOUS
 10
128.1888379436
 20
48.6469297614
 11
133.5090548811
 21
46.4758407606
  0
LINE
  5
282
100
AcDbEntity
  8
RUNDUNGEN
100
AcDbLine
 62
7
  6
CONTINUOUS
 10
56.8957610036
 20
78.2101061428
 11
62.1929142225
 21
75.9833364281
  0
LINE
  5
283
100
AcDbEntity
  8
RUNDUNGEN
100
AcDbLine
 62
7
  6
CONTINUOUS
 10
83.5688055725
 20
54.6074450839
 11
85.7955752914
 21
49.310291855
  0
LINE
  5
284
100
AcDbEntity
  8
RUNDUNGEN
100
AcDbLine
 62
7
  6
CONTINUOUS
 10
54.0613099092
 20
125.9235857325
 11
56.232398906
 21
120.6033688049
  0
LINE
  5
285
100
AcDbEntity
  8
0
100
AcDbLine
 62
7
  6
CONTINUOUS
 10
91.3741659163
 20
151.6964528582
 11
91.2928316359
 21
151.5170602778
  0
LINE
  5
286
100
AcDbEntity
  8
0
100
AcDbLine
 62
7
  6
CONTINUOUS
 10
95.7765671468
 20
153.5864487097
 11
95.6779499954
 21
153.4159446906
  0
LINE
  5
287
100
AcDbEntity
  8
0
100
AcDbLine
 62
7
  6
CONTINUOUS
 10
95.7634108142
 20
153.1753531265
 11
95.8620279656
 21
153.3458571456
  0
LINE
  5
288
100
AcDbEntity
  8
0
100
AcDbLine
 62
7
  6
CONTINUOUS
 10
93.9911149609
 20
150.8370637928
 11
94.0577340042
 21
150.9352275615
  0
LINE
  5
289
100
AcDbEntity
  8
0
100
AcDbLine
 62
7
  6
CONTINUOUS
 10
127.8515438639
 20
154.5575290477
 11
127.9590510531
 21
154.6127110376
  0
LINE
  5
28A
100
AcDbEntity
  8
0
100
AcDbLine
 62
7
  6
CONTINUOUS
 10
131.7255713014
 20
153.2648100084
 11
131.837115997
 21
153.3112919552
  0
LINE
  5
28B
100
AcDbEntity
  8
0
100
AcDbLine
 62
7
  6
CONTINUOUS
 10
130.3520136518
 20
153.3308718168
 11
130.1729782933
 21
153.2618561204
  0
LINE
  5
28C
100
AcDbEntity
  8
0
100
AcDbLine
 62
7
  6
CONTINUOUS
 10
130.3801215005
 20
152.0643609756
 11
130.5591568628
 21
152.1333766823
  0
LINE
  5
28D
100
AcDbEntity
  8
0
100
AcDbLine
 62
7
  6
CONTINUOUS
 10
131.8877509809
 20
153.5177824406
 11
131.7070082017
 21
153.4533706894
  0
LINE
  5
28E
100
AcDbEntity
  8
0
100
AcDbLine
 62
7
  6
CONTINUOUS
 10
131.5125907629
 20
151.6275007208
 11
131.6933332389
 21
151.6919126039
  0
LINE
  5
28F
100
AcDbEntity
  8
0
100
AcDbLine
 62
7
  6
CONTINUOUS
 10
128.0054907211
 20
154.862846481
 11
127.8703754525
 21
154.8161234046
  0
LINE
  5
290
100
AcDbEntity
  8
0
100
AcDbLine
 62
7
  6
CONTINUOUS
 10
127.864254133
 20
152.9233884612
 11
127.9993695628
 21
152.9701114998
  0
LINE
  5
291
100
AcDbEntity
  8
0
100
AcDbLine
 62
7
  6
CONTINUOUS
 10
133.6907582277
 20
152.7719944624
 11
133.5076768909
 21
152.7145666412
  0
LINE
  5
292
100
AcDbEntity
  8
0
100
AcDbLine
 62
7
  6
CONTINUOUS
 10
133.3225972424
 20
150.8625697654
 11
133.5056785836
 21
150.9199975967
  0
LINE
  5
293
100
AcDbEntity
  8
0
100
AcDbLine
 62
7
  6
CONTINUOUS
 10
136.0126734479
 20
151.3138260742
 11
136.1280238259
 21
151.3498418768
  0
LINE
  5
294
100
AcDbEntity
  8
0
100
AcDbLine
 62
7
  6
CONTINUOUS
 10
90.1860141132
 20
151.1232083049
 11
90.1556505019
 21
150.9639129072
  0
LINE
  5
295
100
AcDbEntity
  8
0
100
AcDbLine
 62
7
  6
CONTINUOUS
 10
91.2928316359
 20
151.5170602778
 11
91.2567343832
 21
151.3589654026
  0
LINE
  5
296
100
AcDbEntity
  8
0
100
AcDbLine
 62
7
  6
CONTINUOUS
 10
92.4326355736
 20
152.1815261856
 11
92.3912509259
 21
152.0247325156
  0
LINE
  5
297
100
AcDbEntity
  8
0
100
AcDbLine
 62
7
  6
CONTINUOUS
 10
92.6506612694
 20
151.9279106236
 11
92.692045917
 21
152.0847042935
  0
LINE
  5
298
100
AcDbEntity
  8
0
100
AcDbLine
 62
7
  6
CONTINUOUS
 10
95.6779499954
 20
153.4159446906
 11
95.6264485179
 21
153.2621766867
  0
LINE
  5
299
100
AcDbEntity
  8
0
100
AcDbLine
 62
7
  6
CONTINUOUS
 10
95.7119093366
 20
153.0215851226
 11
95.7634108142
 21
153.1753531265
  0
LINE
  5
29A
100
AcDbEntity
  8
0
100
AcDbLine
 62
7
  6
CONTINUOUS
 10
90.375629147
 20
150.6464509837
 11
90.4656129246
 21
150.9083117627
  0
LINE
  5
29B
100
AcDbEntity
  8
0
100
AcDbLine
 62
7
  6
CONTINUOUS
 10
97.6942759666
 20
152.8949049104
 11
97.8370226854
 21
153.2743512028
  0
LINE
  5
29C
100
AcDbEntity
  8
0
100
AcDbLine
 62
7
  6
CONTINUOUS
 10
130.1547576606
 20
153.0442060212
 11
130.3066794552
 21
153.1231531324
  0
LINE
  5
29D
100
AcDbEntity
  8
0
100
AcDbLine
 62
7
  6
CONTINUOUS
 10
128.0182011644
 20
153.228705899
 11
127.9106939666
 21
153.1735238809
  0
LINE
  5
29E
100
AcDbEntity
  8
0
100
AcDbLine
 62
7
  6
CONTINUOUS
 10
130.5357747569
 20
152.3214006201
 11
130.4254557059
 21
152.2720796842
  0
LINE
  5
29F
100
AcDbEntity
  8
0
100
AcDbLine
 62
7
  6
CONTINUOUS
 10
133.4755775613
 20
152.498526941
 11
133.6322363881
 21
152.5675991234
  0
LINE
  5
2A0
100
AcDbEntity
  8
0
100
AcDbLine
 62
7
  6
CONTINUOUS
 10
133.167897026
 20
151.9435636882
 11
133.0112381993
 21
151.8744915058
  0
LINE
  5
2A1
100
AcDbEntity
  8
0
100
AcDbLine
 62
7
  6
CONTINUOUS
 10
133.8681236482
 20
151.9572350063
 11
133.7114654262
 21
151.8881625574
  0
LINE
  5
2A2
100
AcDbEntity
  8
0
100
AcDbLine
 62
7
  6
CONTINUOUS
 10
131.6747701446
 20
151.8804732985
 11
131.5632251417
 21
151.8339914733
  0
LINE
  5
2A3
100
AcDbEntity
  8
0
100
AcDbLine
 62
7
  6
CONTINUOUS
 10
135.9499984278
 20
149.9760604316
 11
135.8346480365
 21
149.9400446026
  0
LINE
  5
2A4
100
AcDbEntity
  8
0
100
AcDbLine
 62
7
  6
CONTINUOUS
 10
90.4656129246
 20
150.9083117627
 11
90.4819015957
 21
151.2039847772
  0
LINE
  5
2A5
100
AcDbEntity
  8
0
100
AcDbLine
 62
7
  6
CONTINUOUS
 10
92.3912509259
 20
152.0247325156
 11
92.3751006763
 21
151.8093089392
  0
LINE
  5
2A6
100
AcDbEntity
  8
0
100
AcDbLine
 62
7
  6
CONTINUOUS
 10
91.4198663449
 20
151.0124677393
 11
91.4468233048
 21
151.3073595408
  0
LINE
  5
2A7
100
AcDbEntity
  8
0
100
AcDbLine
 62
7
  6
CONTINUOUS
 10
93.8397085579
 20
151.1888432674
 11
93.7983239103
 21
151.0320495974
  0
LINE
  5
2A8
100
AcDbEntity
  8
0
100
AcDbLine
 62
7
  6
CONTINUOUS
 10
94.0577340042
 20
150.9352275615
 11
94.0991189102
 21
151.0920213548
  0
LINE
  5
2A9
100
AcDbEntity
  8
0
100
AcDbLine
 62
7
  6
CONTINUOUS
 10
97.9226705806
 20
153.5020190293
 11
98.1984167857
 21
154.4585807368
  0
LINE
  5
2AA
100
AcDbEntity
  8
0
100
AcDbLine
 62
7
  6
CONTINUOUS
 10
97.9122340518
 20
154.3685857398
 11
97.579388531
 21
153.260245224
  0
LINE
  5
2AB
100
AcDbEntity
  8
0
100
AcDbLine
 62
7
  6
CONTINUOUS
 10
83.2976048394
 20
116.9657313275
 11
101.5963999703
 21
135.2645264584
  0
LINE
  5
2AC
100
AcDbEntity
  8
0
100
AcDbLine
 62
7
  6
CONTINUOUS
 10
127.8703754525
 20
154.8161234046
 11
127.7105773909
 21
154.6888415494
  0
LINE
  5
2AD
100
AcDbEntity
  8
0
100
AcDbLine
 62
7
  6
CONTINUOUS
 10
127.9993695628
 20
152.9701114998
 11
128.1591676287
 21
153.0973933691
  0
LINE
  5
2AE
100
AcDbEntity
  8
0
100
AcDbLine
 62
7
  6
CONTINUOUS
 10
131.7070082017
 20
153.4533706894
 11
131.579966215
 21
153.3677151131
  0
LINE
  5
2AF
100
AcDbEntity
  8
0
100
AcDbLine
 62
7
  6
CONTINUOUS
 10
131.6933332389
 20
151.6919126039
 11
131.820375231
 21
151.7775681938
  0
LINE
  5
2B0
100
AcDbEntity
  8
0
100
AcDbLine
 62
7
  6
CONTINUOUS
 10
133.5076768909
 20
152.7145666412
 11
133.3774411789
 21
152.633849831
  0
LINE
  5
2B1
100
AcDbEntity
  8
0
100
AcDbLine
 62
7
  6
CONTINUOUS
 10
133.8360249234
 20
151.7411950396
 11
133.9662606354
 21
151.8219118498
  0
LINE
  5
2B2
100
AcDbEntity
  8
0
100
AcDbLine
 62
7
  6
CONTINUOUS
 10
133.5056785836
 20
150.9199975967
 11
133.6359143016
 21
151.0007144203
  0
LINE
  5
2B3
100
AcDbEntity
  8
0
100
AcDbLine
 62
7
  6
CONTINUOUS
 10
138.767604762
 20
150.2648786828
 11
138.4705672665
 21
150.095330715
  0
LINE
  5
2B4
100
AcDbEntity
  8
0
100
AcDbLine
 62
7
  6
CONTINUOUS
 10
138.3028305256
 20
149.8030161941
 11
138.5998680799
 21
149.9725642643
  0
LINE
  5
2B5
100
AcDbEntity
  8
0
100
AcDbLine
 62
7
  6
CONTINUOUS
 10
136.0753807445
 20
151.5654081132
 11
135.8961973715
 21
151.4672791394
  0
LINE
  5
2B6
100
AcDbEntity
  8
0
100
AcDbLine
 62
7
  6
CONTINUOUS
 10
135.8872911112
 20
149.7244783531
 11
136.0664744909
 21
149.82260734
  0
LINE
  5
2B7
100
AcDbEntity
  8
0
100
AcDbLine
 62
7
  6
CONTINUOUS
 10
136.7673471202
 20
150.071742673
 11
136.8581791586
 21
150.1184717999
  0
LINE
  5
2B8
100
AcDbEntity
  8
0
100
AcDbLine
 62
7
  6
CONTINUOUS
 10
101.5963999703
 20
75.7121356908
 11
83.2976048394
 21
94.0109308217
  0
LINE
  5
2B9
100
AcDbEntity
  8
0
100
AcDbLine
 62
7
  6
CONTINUOUS
 10
91.2242006846
 20
97.9222885159
 11
91.2242006846
 21
98.7708166533
  0
LINE
  5
2BA
100
AcDbEntity
  8
0
100
AcDbLine
 62
7
  6
CONTINUOUS
 10
91.2242006846
 20
112.2058454959
 11
91.2242006846
 21
113.0543736333
  0
LINE
  5
2BB
100
AcDbEntity
  8
0
100
AcDbLine
 62
7
  6
CONTINUOUS
 10
92.6345107569
 20
151.7124869341
 11
92.6506612694
 21
151.9279106236
  0
LINE
  5
2BC
100
AcDbEntity
  8
0
100
AcDbLine
 62
7
  6
CONTINUOUS
 10
93.85585879
 20
151.4042668848
 11
93.8397085579
 21
151.1888432674
  0
LINE
  5
2BD
100
AcDbEntity
  8
0
100
AcDbLine
 62
7
  6
CONTINUOUS
 10
94.0991189102
 20
151.0920213548
 11
94.1152694138
 21
151.3074450648
  0
LINE
  5
2BE
100
AcDbEntity
  8
0
100
AcDbLine
 62
7
  6
CONTINUOUS
 10
128.1104414338
 20
153.3326262644
 11
128.0182011644
 21
153.228705899
  0
LINE
  5
2BF
100
AcDbEntity
  8
0
100
AcDbLine
 62
7
  6
CONTINUOUS
 10
130.6334700546
 20
152.4202103615
 11
130.5357747569
 21
152.3214006201
  0
LINE
  5
2C0
100
AcDbEntity
  8
0
100
AcDbLine
 62
7
  6
CONTINUOUS
 10
91.2242006846
 20
113.0543736333
 11
105.5077576645
 21
127.3379306133
  0
LINE
  5
2C1
100
AcDbEntity
  8
0
100
AcDbLine
 62
7
  6
CONTINUOUS
 10
85.4726120896
 20
106.4542569009
 11
91.2242006846
 21
112.2058454959
  0
LINE
  5
2C2
100
AcDbEntity
  8
0
100
AcDbLine
 62
7
  6
CONTINUOUS
 10
106.3562858019
 20
127.3379306133
 11
112.1078743969
 21
133.0895192083
  0
LINE
  5
2C3
100
AcDbEntity
  8
0
100
AcDbLine
 62
7
  6
CONTINUOUS
 10
131.5251877699
 20
153.0722550427
 11
131.7255713014
 21
153.2648100084
  0
LINE
  5
2C4
100
AcDbEntity
  8
0
100
AcDbLine
 62
7
  6
CONTINUOUS
 10
131.8751536436
 20
152.073028182
 11
131.6747701446
 21
151.8804732985
  0
LINE
  5
2C5
100
AcDbEntity
  8
0
100
AcDbLine
 62
7
  6
CONTINUOUS
 10
130.5591568628
 20
152.1333766823
 11
130.6984548989
 21
152.2618125852
  0
LINE
  5
2C6
100
AcDbEntity
  8
0
100
AcDbLine
 62
7
  6
CONTINUOUS
 10
133.3717649164
 20
152.4061653952
 11
133.4755775613
 21
152.498526941
  0
LINE
  5
2C7
100
AcDbEntity
  8
0
100
AcDbLine
 62
7
  6
CONTINUOUS
 10
133.9719368503
 20
152.0495961777
 11
133.8681236482
 21
151.9572350063
  0
LINE
  5
2C8
100
AcDbEntity
  8
0
100
AcDbLine
 62
7
  6
CONTINUOUS
 10
133.0055619606
 20
151.6468071239
 11
133.1527866873
 21
151.7660741303
  0
LINE
  5
2C9
100
AcDbEntity
  8
0
100
AcDbLine
 62
7
  6
CONTINUOUS
 10
133.6415905283
 20
151.2283987752
 11
133.4943658135
 21
151.1091317958
  0
LINE
  5
2CA
100
AcDbEntity
  8
0
100
AcDbLine
 62
7
  6
CONTINUOUS
 10
136.0586281505
 20
150.0627053982
 11
135.9499984278
 21
149.9760604316
  0
LINE
  5
2CB
100
AcDbEntity
  8
0
100
AcDbLine
 62
7
  6
CONTINUOUS
 10
137.087405613
 20
150.6649508789
 11
137.1982413037
 21
150.7487555121
  0
LINE
  5
2CC
100
AcDbEntity
  8
0
100
AcDbLine
 62
7
  6
CONTINUOUS
 10
137.1717945888
 20
149.4227135733
 11
137.0609588841
 21
149.3389089141
  0
LINE
  5
2CD
100
AcDbEntity
  8
0
100
AcDbLine
 62
7
  6
CONTINUOUS
 10
137.2020193938
 20
150.9381900526
 11
137.0457682655
 21
150.831020542
  0
LINE
  5
2CE
100
AcDbEntity
  8
0
100
AcDbLine
 62
7
  6
CONTINUOUS
 10
137.0571807869
 20
149.1494743606
 11
137.2134319222
 21
149.2566438842
  0
LINE
  5
2CF
100
AcDbEntity
  8
0
100
AcDbLine
 62
7
  6
CONTINUOUS
 10
120.6398427819
 20
83.638731536
 11
119.7913146445
 21
83.638731536
  0
LINE
  5
2D0
100
AcDbEntity
  8
0
100
AcDbLine
 62
7
  6
CONTINUOUS
 10
106.3562858019
 20
83.638731536
 11
105.5077576645
 21
83.638731536
  0
LINE
  5
2D1
100
AcDbEntity
  8
0
100
AcDbLine
 62
7
  6
CONTINUOUS
 10
105.5077576645
 20
83.638731536
 11
91.2242006846
 21
97.9222885159
  0
LINE
  5
2D2
100
AcDbEntity
  8
0
100
AcDbLine
 62
7
  6
CONTINUOUS
 10
112.1078743969
 20
77.887142941
 11
106.3562858019
 21
83.638731536
  0
LINE
  5
2D3
100
AcDbEntity
  8
0
100
AcDbLine
 62
7
  6
CONTINUOUS
 10
91.2242006846
 20
98.7708166533
 11
85.4726120896
 21
104.5224052483
  0
LINE
  5
2D4
100
AcDbEntity
  8
RUNDUNGEN
100
AcDbLine
 62
7
  6
CONTINUOUS
 10
117.8611036529
 20
165.7597939095
 11
115.3238002232
 21
157.9507769151
  0
LINE
  5
2D5
100
AcDbEntity
  8
RUNDUNGEN
100
AcDbLine
 62
7
  6
CONTINUOUS
 10
77.5682392694
 20
66.8007896055
 11
73.8405748594
 21
59.4848362733
  0
LINE
  5
2D6
100
AcDbEntity
  8
0
100
AcDbLine
 62
7
  6
CONTINUOUS
 10
127.7869116393
 20
154.445149656
 11
127.8515438639
 21
154.5575290477
  0
LINE
  5
2D7
100
AcDbEntity
  8
0
100
AcDbLine
 62
7
  6
CONTINUOUS
 10
131.464277487
 20
153.2322639341
 11
131.3909362495
 21
153.125364423
  0
LINE
  5
2D8
100
AcDbEntity
  8
0
100
AcDbLine
 62
7
  6
CONTINUOUS
 10
130.6984548989
 20
152.2618125852
 11
130.8251291766
 21
152.4397372799
  0
LINE
  5
2D9
100
AcDbEntity
  8
0
100
AcDbLine
 62
7
  6
CONTINUOUS
 10
128.1591676287
 20
153.0973933691
 11
128.2637492243
 21
153.2415931762
  0
LINE
  5
2DA
100
AcDbEntity
  8
0
100
AcDbLine
 62
7
  6
CONTINUOUS
 10
133.3774411789
 20
152.633849831
 11
133.2396499475
 21
152.4643882672
  0
LINE
  5
2DB
100
AcDbEntity
  8
0
100
AcDbLine
 62
7
  6
CONTINUOUS
 10
133.0112381993
 20
151.8744915058
 11
132.8734475964
 21
151.7050297294
  0
LINE
  5
2DC
100
AcDbEntity
  8
0
100
AcDbLine
 62
7
  6
CONTINUOUS
 10
133.6359143016
 20
151.0007144203
 11
133.7737054973
 21
151.1701759031
  0
LINE
  5
2DD
100
AcDbEntity
  8
0
100
AcDbLine
 62
7
  6
CONTINUOUS
 10
135.9298023634
 20
151.2141323179
 11
136.0126734479
 21
151.3138260742
  0
LINE
  5
2DE
100
AcDbEntity
  8
0
100
AcDbLine
 62
7
  6
CONTINUOUS
 10
131.579966215
 20
153.3677151131
 11
131.464277487
 21
153.2322639341
  0
LINE
  5
2DF
100
AcDbEntity
  8
0
100
AcDbLine
 62
7
  6
CONTINUOUS
 10
131.820375231
 20
151.7775681938
 11
131.9360636625
 21
151.9130195219
  0
LINE
  5
2E0
100
AcDbEntity
  8
0
100
AcDbLine
 62
7
  6
CONTINUOUS
 10
137.0019828148
 20
150.567434885
 11
137.087405613
 21
150.6649508789
  0
LINE
  5
2E1
100
AcDbEntity
  8
0
100
AcDbLine
 62
7
  6
CONTINUOUS
 10
133.9662606354
 20
151.8219118498
 11
134.0870622236
 21
151.9528234299
  0
LINE
  5
2E2
100
AcDbEntity
  8
0
100
AcDbLine
 62
7
  6
CONTINUOUS
 10
137.0457682655
 20
150.831020542
 11
136.8949252142
 21
150.6730647921
  0
LINE
  5
2E3
100
AcDbEntity
  8
0
100
AcDbLine
 62
7
  6
CONTINUOUS
 10
137.2134319222
 20
149.2566438842
 11
137.3642749315
 21
149.4145995562
  0
LINE
  5
2E4
100
AcDbEntity
  8
0
100
AcDbLine
 62
7
  6
CONTINUOUS
 10
136.0664744909
 20
149.82260734
 11
136.1941416735
 21
149.9468331114
  0
LINE
  5
2E5
100
AcDbEntity
  8
RUNDUNGEN
100
AcDbLine
 62
7
  6
CONTINUOUS
 10
159.0772950245
 20
144.7215564385
 11
151.7613416923
 21
140.9938920284
  0
LINE
  5
2E6
100
AcDbEntity
  8
RUNDUNGEN
100
AcDbLine
 62
7
  6
CONTINUOUS
 10
60.6113543827
 20
103.2383310746
 11
52.8023373883
 21
100.7010276449
  0
LINE
  5
2E7
100
AcDbEntity
  8
RUNDUNGEN
100
AcDbLine
 62
7
  6
CONTINUOUS
 10
52.8023373883
 20
110.2756345043
 11
60.6113543827
 21
107.7383310746
  0
LINE
  5
2E8
100
AcDbEntity
  8
RUNDUNGEN
100
AcDbLine
 62
7
  6
CONTINUOUS
 10
151.7613416923
 20
69.9827701208
 11
159.0772950245
 21
66.2551057108
  0
LINE
  5
2E9
100
AcDbEntity
  8
RUNDUNGEN
100
AcDbLine
 62
7
  6
CONTINUOUS
 10
73.8405748594
 20
151.4918258759
 11
77.5682392694
 21
144.1758725437
  0
LINE
  5
2EA
100
AcDbEntity
  8
RUNDUNGEN
100
AcDbLine
 62
7
  6
CONTINUOUS
 10
115.3238002232
 20
53.0258852341
 11
117.8611036529
 21
45.2168682397
  0
LINE
  5
2EB
100
AcDbEntity
  8
0
100
AcDbLine
 62
7
  6
CONTINUOUS
 10
90.1426824907
 20
151.3163158724
 11
90.1860141132
 21
151.1232083049
  0
LINE
  5
2EC
100
AcDbEntity
  8
0
100
AcDbLine
 62
7
  6
CONTINUOUS
 10
90.4819015957
 20
151.2039847772
 11
90.4385699732
 21
151.3970923447
  0
LINE
  5
2ED
100
AcDbEntity
  8
0
100
AcDbLine
 62
7
  6
CONTINUOUS
 10
92.3751006763
 20
151.8093089392
 11
92.4048770169
 21
151.6136522348
  0
LINE
  5
2EE
100
AcDbEntity
  8
RUNDUNGEN
100
AcDbLine
 62
7
  6
CONTINUOUS
 10
104.0738002232
 20
165.4507769151
 11
104.0738002232
 21
159.1015378262
  0
LINE
  5
2EF
100
AcDbEntity
  8
RUNDUNGEN
100
AcDbLine
 62
7
  6
CONTINUOUS
 10
104.0738002232
 20
45.5258852341
 11
104.0738002232
 21
51.8751398761
  0
LINE
  5
2F0
100
AcDbEntity
  8
0
100
AcDbLine
 62
7
  6
CONTINUOUS
 10
127.7105773909
 20
154.6888415494
 11
127.6336039623
 21
154.5361828328
  0
LINE
  5
2F1
100
AcDbEntity
  8
0
100
AcDbLine
 62
7
  6
CONTINUOUS
 10
131.4053556242
 20
152.8478343882
 11
131.5251877699
 21
153.0722550427
  0
LINE
  5
2F2
100
AcDbEntity
  8
0
100
AcDbLine
 62
7
  6
CONTINUOUS
 10
131.3909362495
 20
153.125364423
 11
131.2866007803
 21
152.9401176412
  0
LINE
  5
2F3
100
AcDbEntity
  8
0
100
AcDbLine
 62
7
  6
CONTINUOUS
 10
132.009405164
 20
152.0199188016
 11
132.1137406548
 21
152.2051656383
  0
LINE
  5
2F4
100
AcDbEntity
  8
0
100
AcDbLine
 62
7
  6
CONTINUOUS
 10
130.7040517782
 20
152.5289514901
 11
130.6334700546
 21
152.4202103615
  0
LINE
  5
2F5
100
AcDbEntity
  8
0
100
AcDbLine
 62
7
  6
CONTINUOUS
 10
136.8949252142
 20
150.6730647921
 11
136.7294878628
 21
150.4272468766
  0
LINE
  5
2F6
100
AcDbEntity
  8
0
100
AcDbLine
 62
7
  6
CONTINUOUS
 10
131.9360636625
 20
151.9130195219
 11
132.009405164
 21
152.0199188016
  0
LINE
  5
2F7
100
AcDbEntity
  8
0
100
AcDbLine
 62
7
  6
CONTINUOUS
 10
136.8565491157
 20
150.3586924758
 11
137.0019828148
 21
150.567434885
  0
LINE
  5
2F8
100
AcDbEntity
  8
0
100
AcDbLine
 62
7
  6
CONTINUOUS
 10
135.8961973715
 20
151.4672791394
 11
135.7942888937
 21
151.33000471
  0
LINE
  5
2F9
100
AcDbEntity
  8
0
100
AcDbLine
 62
7
  6
CONTINUOUS
 10
136.68192435
 20
149.9742267311
 11
136.7673471202
 21
150.071742673
  0
LINE
  5
2FA
100
AcDbEntity
  8
0
100
AcDbLine
 62
7
  6
CONTINUOUS
 10
137.2572173309
 20
149.5202294633
 11
137.1717945888
 21
149.4227135733
  0
LINE
  5
2FB
100
AcDbEntity
  8
RUNDUNGEN
100
AcDbLine
 62
7
  6
CONTINUOUS
 10
149.1096912629
 20
154.2521441757
 11
144.620201918
 21
149.7626548307
  0
LINE
  5
2FC
100
AcDbEntity
  8
RUNDUNGEN
100
AcDbLine
 62
7
  6
CONTINUOUS
 10
64.3099871222
 20
69.4524400349
 11
68.7995922792
 21
73.9420451919
  0
LINE
  5
2FD
100
AcDbEntity
  8
0
100
AcDbLine
 62
7
  6
CONTINUOUS
 10
158.8371015954
 20
128.3684659474
 11
158.6350642704
 21
128.3022600942
  0
LINE
  5
2FE
100
AcDbEntity
  8
0
100
AcDbLine
 62
7
  6
CONTINUOUS
 10
158.3702172117
 20
126.9209891715
 11
158.5722544667
 21
126.9871948989
  0
LINE
  5
2FF
100
AcDbEntity
  8
0
100
AcDbLine
 62
7
  6
CONTINUOUS
 10
158.4110943608
 20
129.560207551
 11
158.2482895005
 21
129.5080139523
  0
LINE
  5
300
100
AcDbEntity
  8
0
100
AcDbLine
 62
7
  6
CONTINUOUS
 10
158.7108738404
 20
128.1464766817
 11
158.8750306349
 21
128.1942484733
  0
LINE
  5
301
100
AcDbEntity
  8
0
100
AcDbLine
 62
7
  6
CONTINUOUS
 10
158.4964448968
 20
127.1429783113
 11
158.3322881022
 21
127.0952065198
  0
LINE
  5
302
100
AcDbEntity
  8
RUNDUNGEN
100
AcDbLine
 62
7
  6
CONTINUOUS
 10
53.1113543827
 20
96.4883310746
 11
59.4603987068
 21
96.4883310746
  0
LINE
  5
303
100
AcDbEntity
  8
RUNDUNGEN
100
AcDbLine
 62
7
  6
CONTINUOUS
 10
166.6869903507
 20
96.4883310746
 11
173.0362460637
 21
96.4883310746
  0
LINE
  5
304
100
AcDbEntity
  8
RUNDUNGEN
100
AcDbLine
 62
7
  6
CONTINUOUS
 10
64.3099871222
 20
141.5242221143
 11
68.7994363698
 21
137.0347728667
  0
LINE
  5
305
100
AcDbEntity
  8
RUNDUNGEN
100
AcDbLine
 62
7
  6
CONTINUOUS
 10
144.6200864868
 20
61.2141227496
 11
149.1096912629
 21
56.7245179736
  0
LINE
  5
306
100
AcDbEntity
  8
0
100
AcDbLine
 62
7
  6
CONTINUOUS
 10
92.4048770169
 20
151.6136522348
 11
92.4598877554
 21
151.359365624
  0
LINE
  5
307
100
AcDbEntity
  8
0
100
AcDbLine
 62
7
  6
CONTINUOUS
 10
92.6895217582
 20
151.4582004363
 11
92.6345107569
 21
151.7124869341
  0
LINE
  5
308
100
AcDbEntity
  8
0
100
AcDbLine
 62
7
  6
CONTINUOUS
 10
93.8008483142
 20
151.6585536088
 11
93.85585879
 21
151.4042668848
  0
LINE
  5
309
100
AcDbEntity
  8
0
100
AcDbLine
 62
7
  6
CONTINUOUS
 10
94.1152694138
 20
151.3074450648
 11
94.0304817914
 21
151.7573881949
  0
LINE
  5
30A
100
AcDbEntity
  8
RUNDUNGEN
100
AcDbLine
 62
7
  6
CONTINUOUS
 10
110.8238002232
 20
53.0258852341
 11
110.8238002232
 21
54.0257911236
  0
LINE
  5
30B
100
AcDbEntity
  8
RUNDUNGEN
100
AcDbLine
 62
7
  6
CONTINUOUS
 10
110.8238002232
 20
156.9508853099
 11
110.8238002232
 21
157.9507769151
  0
LINE
  5
30C
100
AcDbEntity
  8
02___PRT_ALL_AXES
100
AcDbLine
 62
7
  6
CENTER
 10
113.0738002232
 20
105.4883310746
 11
113.0738002232
 21
37.4145308514
  0
LINE
  5
30D
100
AcDbEntity
  8
02___PRT_ALL_AXES
100
AcDbLine
 62
7
  6
CENTER
 10
113.0738002232
 20
105.4883310746
 11
113.0738002232
 21
173.5621312978
  0
LINE
  5
30E
100
AcDbEntity
  8
0
100
AcDbLine
 62
7
  6
CONTINUOUS
 10
126.4140776073
 20
155.3623518345
 11
125.8832237416
 21
153.454841894
  0
LINE
  5
30F
100
AcDbEntity
  8
0
100
AcDbLine
 62
7
  6
CONTINUOUS
 10
126.1178994398
 20
153.6519040874
 11
126.5809847271
 21
155.3159021213
  0
LINE
  5
310
100
AcDbEntity
  8
0
100
AcDbLine
 62
7
  6
CONTINUOUS
 10
126.8846664604
 20
153.1761436145
 11
126.9524350388
 21
153.4196555212
  0
LINE
  5
311
100
AcDbEntity
  8
0
100
AcDbLine
 62
7
  6
CONTINUOUS
 10
127.6336039623
 20
154.5361828328
 11
127.5842386574
 21
154.3750650656
  0
LINE
  5
312
100
AcDbEntity
  8
0
100
AcDbLine
 62
7
  6
CONTINUOUS
 10
127.7622290041
 20
154.3645908288
 11
127.7869116393
 21
154.445149656
  0
LINE
  5
313
100
AcDbEntity
  8
0
100
AcDbLine
 62
7
  6
CONTINUOUS
 10
128.1474653865
 20
153.4534645051
 11
128.1104414338
 21
153.3326262644
  0
LINE
  5
314
100
AcDbEntity
  8
0
100
AcDbLine
 62
7
  6
CONTINUOUS
 10
128.2637492243
 20
153.2415931762
 11
128.3254558122
 21
153.4429902442
  0
LINE
  5
315
100
AcDbEntity
  8
0
100
AcDbLine
 62
7
  6
CONTINUOUS
 10
130.3416910461
 20
154.1422198603
 11
129.964964265
 21
153.1137253572
  0
LINE
  5
316
100
AcDbEntity
  8
0
100
AcDbLine
 62
7
  6
CONTINUOUS
 10
130.1729782933
 20
153.2618561204
 11
130.4048101742
 21
153.8947758573
  0
LINE
  5
317
100
AcDbEntity
  8
0
100
AcDbLine
 62
7
  6
CONTINUOUS
 10
130.7330307583
 20
152.6080664434
 11
130.7040517782
 21
152.5289514901
  0
LINE
  5
318
100
AcDbEntity
  8
0
100
AcDbLine
 62
7
  6
CONTINUOUS
 10
131.1910976307
 20
153.6067669844
 11
131.2635450808
 21
153.8045543676
  0
LINE
  5
319
100
AcDbEntity
  8
0
100
AcDbLine
 62
7
  6
CONTINUOUS
 10
130.8251291766
 20
152.4397372799
 11
130.8830871367
 21
152.5979671864
  0
LINE
  5
31A
100
AcDbEntity
  8
0
100
AcDbLine
 62
7
  6
CONTINUOUS
 10
131.2866007803
 20
152.9401176412
 11
131.1471279257
 21
152.5875538819
  0
LINE
  5
31B
100
AcDbEntity
  8
0
100
AcDbLine
 62
7
  6
CONTINUOUS
 10
131.2968767372
 20
152.573618131
 11
131.4053556242
 21
152.8478343882
  0
LINE
  5
31C
100
AcDbEntity
  8
0
100
AcDbLine
 62
7
  6
CONTINUOUS
 10
132.1034643907
 20
152.57166527
 11
131.9949855037
 21
152.2974490128
  0
LINE
  5
31D
100
AcDbEntity
  8
0
100
AcDbLine
 62
7
  6
CONTINUOUS
 10
132.1137406548
 20
152.2051656383
 11
132.2532135095
 21
152.5577293976
  0
LINE
  5
31E
100
AcDbEntity
  8
0
100
AcDbLine
 62
7
  6
CONTINUOUS
 10
132.3902785615
 20
152.2260034085
 11
132.3088992275
 21
152.0317203398
  0
LINE
  5
31F
100
AcDbEntity
  8
0
100
AcDbLine
 62
7
  6
CONTINUOUS
 10
132.6817605538
 20
151.8755399449
 11
132.7631398878
 21
152.0698230136
  0
LINE
  5
320
100
AcDbEntity
  8
0
100
AcDbLine
 62
7
  6
CONTINUOUS
 10
132.8734475964
 20
151.7050297294
 11
132.8224806238
 21
151.5893793027
  0
LINE
  5
321
100
AcDbEntity
  8
0
100
AcDbLine
 62
7
  6
CONTINUOUS
 10
133.2396499475
 20
152.4643882672
 11
133.1886829749
 21
152.3487378405
  0
LINE
  5
322
100
AcDbEntity
  8
0
100
AcDbLine
 62
7
  6
CONTINUOUS
 10
132.954594988
 20
151.5311566971
 11
133.0055619606
 21
151.6468071239
  0
LINE
  5
323
100
AcDbEntity
  8
0
100
AcDbLine
 62
7
  6
CONTINUOUS
 10
133.3377869347
 20
152.3290651107
 11
133.3717649164
 21
152.4061653952
  0
LINE
  5
324
100
AcDbEntity
  8
0
100
AcDbLine
 62
7
  6
CONTINUOUS
 10
134.005914832
 20
152.1266964622
 11
133.9719368503
 21
152.0495961777
  0
LINE
  5
325
100
AcDbEntity
  8
0
100
AcDbLine
 62
7
  6
CONTINUOUS
 10
133.6925575009
 20
151.344049202
 11
133.6415905283
 21
151.2283987752
  0
LINE
  5
326
100
AcDbEntity
  8
0
100
AcDbLine
 62
7
  6
CONTINUOUS
 10
134.0870622236
 20
151.9528234299
 11
134.1380291962
 21
152.0684738566
  0
LINE
  5
327
100
AcDbEntity
  8
0
100
AcDbLine
 62
7
  6
CONTINUOUS
 10
133.7737054973
 20
151.1701759031
 11
133.8246724699
 21
151.2858263299
  0
LINE
  5
328
100
AcDbEntity
  8
0
100
AcDbLine
 62
7
  6
CONTINUOUS
 10
135.7942888937
 20
151.33000471
 11
135.718139054
 21
151.1796814911
  0
LINE
  5
329
100
AcDbEntity
  8
0
100
AcDbLine
 62
7
  6
CONTINUOUS
 10
135.8917274702
 20
151.1389707611
 11
135.9298023634
 21
151.2141323179
  0
LINE
  5
32A
100
AcDbEntity
  8
0
100
AcDbLine
 62
7
  6
CONTINUOUS
 10
136.1157404902
 20
150.1754477335
 11
136.0586281505
 21
150.0627053982
  0
LINE
  5
32B
100
AcDbEntity
  8
0
100
AcDbLine
 62
7
  6
CONTINUOUS
 10
136.1941416735
 20
149.9468331114
 11
136.2893289064
 21
150.1347370035
  0
LINE
  5
32C
100
AcDbEntity
  8
0
100
AcDbLine
 62
7
  6
CONTINUOUS
 10
131.9949855037
 20
152.2974490128
 11
131.8751536436
 21
152.073028182
  0
LINE
  5
32D
100
AcDbEntity
  8
0
100
AcDbLine
 62
7
  6
CONTINUOUS
 10
136.7294878628
 20
150.4272468766
 11
136.5894622968
 21
150.167718332
  0
LINE
  5
32E
100
AcDbEntity
  8
0
100
AcDbLine
 62
7
  6
CONTINUOUS
 10
136.8165418111
 20
150.2845414631
 11
136.8565491157
 21
150.3586924758
  0
LINE
  5
32F
100
AcDbEntity
  8
0
100
AcDbLine
 62
7
  6
CONTINUOUS
 10
136.6219133931
 20
149.8630002119
 11
136.68192435
 21
149.9742267311
  0
LINE
  5
330
100
AcDbEntity
  8
0
100
AcDbLine
 62
7
  6
CONTINUOUS
 10
137.3172282878
 20
149.6314559824
 11
137.2572173309
 21
149.5202294633
  0
LINE
  5
331
100
AcDbEntity
  8
0
100
AcDbLine
 62
7
  6
CONTINUOUS
 10
137.3642749315
 20
149.4145995562
 11
137.464293221
 21
149.59997714
  0
LINE
  5
332
100
AcDbEntity
  8
0
100
AcDbLine
 62
7
  6
CONTINUOUS
 10
137.407907593
 20
149.0016888438
 11
137.3048302812
 21
148.8179946354
  0
LINE
  5
333
100
AcDbEntity
  8
0
100
AcDbLine
 62
7
  6
CONTINUOUS
 10
137.4307365821
 20
148.7473441607
 11
137.5338138939
 21
148.931038369
  0
LINE
  5
334
100
AcDbEntity
  8
0
100
AcDbLine
 62
7
  6
CONTINUOUS
 10
138.4705672665
 20
150.095330715
 11
138.3028305256
 21
149.8030161941
  0
LINE
  5
335
100
AcDbEntity
  8
0
100
AcDbLine
 62
7
  6
CONTINUOUS
 10
138.5998680799
 20
149.9725642643
 11
137.782151637
 21
148.5475312693
  0
LINE
  5
336
100
AcDbEntity
  8
0
100
AcDbLine
 62
7
  6
CONTINUOUS
 10
137.9324195357
 20
148.4613041209
 11
138.9178726607
 21
150.1786515343
  0
LINE
  5
337
100
AcDbEntity
  8
RUNDUNGEN
100
AcDbLine
 62
7
  6
CONTINUOUS
 10
74.3862587541
 20
69.9827701208
 11
75.0932961542
 21
70.6898075209
  0
LINE
  5
338
100
AcDbEntity
  8
RUNDUNGEN
100
AcDbLine
 62
7
  6
CONTINUOUS
 10
147.8723335096
 20
143.4688448763
 11
148.579361177
 21
144.1758725437
  0
LINE
  5
339
100
AcDbEntity
  8
0
100
AcDbLine
 62
7
  6
CONTINUOUS
 10
158.2482895005
 20
129.5080139523
 11
158.098816977
 21
129.4302075711
  0
LINE
  5
33A
100
AcDbEntity
  8
0
100
AcDbLine
 62
7
  6
CONTINUOUS
 10
158.2161797208
 20
129.2959828039
 11
158.2909159302
 21
129.3348859672
  0
LINE
  5
33B
100
AcDbEntity
  8
0
100
AcDbLine
 62
7
  6
CONTINUOUS
 10
157.8368674478
 20
128.3823743852
 11
157.7247631337
 21
128.3240196403
  0
LINE
  5
33C
100
AcDbEntity
  8
0
100
AcDbLine
 62
7
  6
CONTINUOUS
 10
157.7673896681
 20
128.1508917097
 11
157.9542301916
 21
128.248149618
  0
LINE
  5
33D
100
AcDbEntity
  8
0
100
AcDbLine
 62
7
  6
CONTINUOUS
 10
158.6350642704
 20
128.3022600942
 11
158.0668573095
 21
128.0257510315
  0
LINE
  5
33E
100
AcDbEntity
  8
0
100
AcDbLine
 62
7
  6
CONTINUOUS
 10
158.1426668795
 20
127.869967619
 11
158.7108738404
 21
128.1464766817
  0
LINE
  5
33F
100
AcDbEntity
  8
0
100
AcDbLine
 62
7
  6
CONTINUOUS
 10
159.0646518577
 20
127.419487374
 11
158.4964448968
 21
127.1429783113
  0
LINE
  5
340
100
AcDbEntity
  8
0
100
AcDbLine
 62
7
  6
CONTINUOUS
 10
158.5722544667
 20
126.9871948989
 11
159.1404614276
 21
127.2637039615
  0
LINE
  5
341
100
AcDbEntity
  8
0
100
AcDbLine
 62
7
  6
CONTINUOUS
 10
159.4099006764
 20
125.5448305042
 11
159.1767995324
 21
125.4470833788
  0
LINE
  5
342
100
AcDbEntity
  8
0
100
AcDbLine
 62
7
  6
CONTINUOUS
 10
160.4160442402
 20
125.2152774776
 11
159.6778906811
 21
124.9057449407
  0
LINE
  5
343
100
AcDbEntity
  8
0
100
AcDbLine
 62
7
  6
CONTINUOUS
 10
159.4447895371
 20
124.8079978154
 11
158.9008869403
 21
124.57992122
  0
LINE
  5
344
100
AcDbEntity
  8
0
100
AcDbLine
 62
7
  6
CONTINUOUS
 10
158.9678844415
 20
124.4201498292
 11
159.5117870382
 21
124.6482264245
  0
LINE
  5
345
100
AcDbEntity
  8
0
100
AcDbLine
 62
7
  6
CONTINUOUS
 10
159.7448881822
 20
124.7459735499
 11
160.7938431942
 21
125.1858355568
  0
LINE
  5
346
100
AcDbEntity
  8
0
100
AcDbLine
 62
7
  6
CONTINUOUS
 10
159.6234494976
 20
124.3819408747
 11
159.8565506416
 21
124.479688
  0
LINE
  5
347
100
AcDbEntity
  8
0
100
AcDbLine
 62
7
  6
CONTINUOUS
 10
160.264943643
 20
124.3662052944
 11
159.9114947631
 21
124.22899097
  0
LINE
  5
348
100
AcDbEntity
  8
0
100
AcDbLine
 62
7
  6
CONTINUOUS
 10
160.0030162234
 20
124.1096484436
 11
160.2779209077
 21
124.2163706959
  0
LINE
  5
349
100
AcDbEntity
  8
0
100
AcDbLine
 62
7
  6
CONTINUOUS
 10
160.5496181669
 20
123.5165086928
 11
160.2747134825
 21
123.4097864405
  0
LINE
  5
34A
100
AcDbEntity
  8
0
100
AcDbLine
 62
7
  6
CONTINUOUS
 10
160.2876907473
 20
123.259951842
 11
160.6411396272
 21
123.3971661664
  0
LINE
  5
34B
100
AcDbEntity
  8
0
100
AcDbLine
 62
7
  6
CONTINUOUS
 10
161.490212385
 20
123.4171372189
 11
159.6243681305
 21
122.7545474379
  0
LINE
  5
34C
100
AcDbEntity
  8
0
100
AcDbLine
 62
7
  6
CONTINUOUS
 10
159.6823447364
 20
122.5912860656
 11
161.1512008989
 21
123.1128993143
  0
LINE
  5
34D
100
AcDbEntity
  8
0
100
AcDbLine
 62
7
  6
CONTINUOUS
 10
161.499060534
 20
122.1333310807
 11
160.0302043714
 21
121.611717832
  0
LINE
  5
34E
100
AcDbEntity
  8
0
100
AcDbLine
 62
7
  6
CONTINUOUS
 10
160.0881809773
 20
121.4484564597
 11
161.9540252318
 21
122.1110462408
  0
LINE
  5
34F
100
AcDbEntity
  8
0
100
AcDbLine
 62
7
  6
CONTINUOUS
 10
162.0483962182
 20
121.8309135971
 11
160.161963916
 21
121.2294377713
  0
LINE
  5
350
100
AcDbEntity
  8
0
100
AcDbLine
 62
7
  6
CONTINUOUS
 10
160.2145930508
 20
121.0643749448
 11
161.6996568259
 21
121.537877206
  0
LINE
  5
351
100
AcDbEntity
  8
0
100
AcDbLine
 62
7
  6
CONTINUOUS
 10
162.0154316345
 20
120.5475002473
 11
160.5303678593
 21
120.0739979862
  0
LINE
  5
352
100
AcDbEntity
  8
0
100
AcDbLine
 62
7
  6
CONTINUOUS
 10
160.5829969941
 20
119.9089351597
 11
162.4694292963
 21
120.5104109856
  0
LINE
  5
353
100
AcDbEntity
  8
RUNDUNGEN
100
AcDbLine
 62
7
  6
CONTINUOUS
 10
61.6112512522
 20
103.2383310746
 11
60.6113543827
 21
103.2383310746
  0
LINE
  5
354
100
AcDbEntity
  8
RUNDUNGEN
100
AcDbLine
 62
7
  6
CONTINUOUS
 10
164.5363401742
 20
103.2383310746
 11
165.5362460637
 21
103.2383310746
  0
LINE
  5
355
100
AcDbEntity
  8
02___PRT_ALL_AXES
100
AcDbLine
 62
7
  6
CENTER
 10
113.0738002232
 20
105.4883310746
 11
45.0
 21
105.4883310746
  0
LINE
  5
356
100
AcDbEntity
  8
02___PRT_ALL_AXES
100
AcDbLine
 62
7
  6
CENTER
 10
113.0738002232
 20
105.4883310746
 11
181.1476004464
 21
105.4883310746
  0
LINE
  5
357
100
AcDbEntity
  8
RUNDUNGEN
100
AcDbLine
 62
7
  6
CONTINUOUS
 10
147.8723233953
 20
67.5078273872
 11
148.579361177
 21
66.8007896055
  0
LINE
  5
358
100
AcDbEntity
  8
RUNDUNGEN
100
AcDbLine
 62
7
  6
CONTINUOUS
 10
75.0932864215
 20
140.286864361
 11
74.3862587541
 21
140.9938920284
  0
LINE
  5
359
100
AcDbEntity
  8
0
100
AcDbLine
 62
7
  6
CONTINUOUS
 10
88.3554964317
 20
151.4000855111
 11
89.7305606619
 21
148.7337775089
  0
LINE
  5
35A
100
AcDbEntity
  8
0
100
AcDbLine
 62
7
  6
CONTINUOUS
 10
89.9971914621
 20
148.8712839319
 11
89.3828010527
 21
150.0626130562
  0
LINE
  5
35B
100
AcDbEntity
  8
0
100
AcDbLine
 62
7
  6
CONTINUOUS
 10
89.2072609591
 20
150.4029927606
 11
88.7684106432
 21
151.2539421805
  0
LINE
  5
35C
100
AcDbEntity
  8
0
100
AcDbLine
 62
7
  6
CONTINUOUS
 10
90.054912362
 20
151.4865058835
 11
90.1426824907
 21
151.3163158724
  0
LINE
  5
35D
100
AcDbEntity
  8
0
100
AcDbLine
 62
7
  6
CONTINUOUS
 10
90.8674165062
 20
151.5989741744
 11
91.7374537114
 21
149.7509864749
  0
LINE
  5
35E
100
AcDbEntity
  8
0
100
AcDbLine
 62
7
  6
CONTINUOUS
 10
91.9636396267
 20
149.8574753665
 11
91.4198663449
 21
151.0124677393
  0
LINE
  5
35F
100
AcDbEntity
  8
0
100
AcDbLine
 62
7
  6
CONTINUOUS
 10
91.2567343832
 20
151.3589654026
 11
91.0936024215
 21
151.7054630659
  0
LINE
  5
360
100
AcDbEntity
  8
0
100
AcDbLine
 62
7
  6
CONTINUOUS
 10
91.8176294134
 20
151.6935862773
 11
91.681686112
 21
151.9823343301
  0
LINE
  5
361
100
AcDbEntity
  8
0
100
AcDbLine
 62
7
  6
CONTINUOUS
 10
92.4598877554
 20
151.359365624
 11
92.5608253824
 21
151.1248459161
  0
LINE
  5
362
100
AcDbEntity
  8
0
100
AcDbLine
 62
7
  6
CONTINUOUS
 10
92.7904593852
 20
151.2236807285
 11
92.6895217582
 21
151.4582004363
  0
LINE
  5
363
100
AcDbEntity
  8
0
100
AcDbLine
 62
7
  6
CONTINUOUS
 10
93.6999106872
 20
151.8930733166
 11
93.8008483142
 21
151.6585536088
  0
LINE
  5
364
100
AcDbEntity
  8
0
100
AcDbLine
 62
7
  6
CONTINUOUS
 10
94.0304817914
 20
151.7573881949
 11
93.9295441644
 21
151.9919079028
  0
LINE
  5
365
100
AcDbEntity
  8
0
100
AcDbLine
 62
7
  6
CONTINUOUS
 10
93.6455168663
 20
153.8679294983
 11
94.7568019501
 21
151.0813463823
  0
LINE
  5
366
100
AcDbEntity
  8
0
100
AcDbLine
 62
7
  6
CONTINUOUS
 10
94.9890173869
 20
151.1739535433
 11
93.8777323031
 21
153.9605366593
  0
LINE
  5
367
100
AcDbEntity
  8
0
100
AcDbLine
 62
7
  6
CONTINUOUS
 10
94.2872086671
 20
154.1207041973
 11
94.4014985895
 21
153.8227212568
  0
LINE
  5
368
100
AcDbEntity
  8
0
100
AcDbLine
 62
7
  6
CONTINUOUS
 10
94.6300784983
 20
153.2267552089
 11
95.3615340657
 21
151.3196642229
  0
LINE
  5
369
100
AcDbEntity
  8
0
100
AcDbLine
 62
7
  6
CONTINUOUS
 10
95.5949542417
 20
151.4091914078
 11
94.8634986743
 21
153.3162823938
  0
LINE
  5
36A
100
AcDbEntity
  8
0
100
AcDbLine
 62
7
  6
CONTINUOUS
 10
94.6349187654
 20
153.9122484417
 11
94.520628843
 21
154.2102313821
  0
LINE
  5
36B
100
AcDbEntity
  8
0
100
AcDbLine
 62
7
  6
CONTINUOUS
 10
95.284043586
 20
153.4792358746
 11
95.9677301957
 21
151.554503193
  0
LINE
  5
36C
100
AcDbEntity
  8
0
100
AcDbLine
 62
7
  6
CONTINUOUS
 10
96.2033091042
 20
151.6381834603
 11
95.7119093366
 21
153.0215851226
  0
LINE
  5
36D
100
AcDbEntity
  8
0
100
AcDbLine
 62
7
  6
CONTINUOUS
 10
95.6264485179
 20
153.2621766867
 11
95.5196224945
 21
153.5629161419
  0
LINE
  5
36E
100
AcDbEntity
  8
0
100
AcDbLine
 62
7
  6
CONTINUOUS
 10
96.64545552
 20
153.0822429804
 11
97.0513944689
 21
151.9394328823
  0
LINE
  5
36F
100
AcDbEntity
  8
0
100
AcDbLine
 62
7
  6
CONTINUOUS
 10
97.2869739166
 20
152.0231133411
 11
96.8810349677
 21
153.1659234393
  0
LINE
  5
370
100
AcDbEntity
  8
0
100
AcDbLine
 62
7
  6
CONTINUOUS
 10
96.7664655698
 20
155.0119511885
 11
97.6664172562
 21
152.1501183908
  0
LINE
  5
371
100
AcDbEntity
  8
0
100
AcDbLine
 62
7
  6
CONTINUOUS
 10
97.9049029588
 20
152.2251142502
 11
97.6942759666
 21
152.8949049104
  0
LINE
  5
372
100
AcDbEntity
  8
0
100
AcDbLine
 62
7
  6
CONTINUOUS
 10
97.579388531
 20
153.260245224
 11
97.0049512723
 21
155.0869470479
  0
LINE
  5
373
100
AcDbEntity
  8
RUNDUNGEN
100
AcDbLine
 62
7
  6
CONTINUOUS
 10
115.3238002232
 20
53.0258852341
 11
115.3238002232
 21
54.0257765967
  0
LINE
  5
374
100
AcDbEntity
  8
RUNDUNGEN
100
AcDbLine
 62
7
  6
CONTINUOUS
 10
115.3238002232
 20
156.9508706444
 11
115.3238002232
 21
157.9507769151
  0
LINE
  5
375
100
AcDbEntity
  8
0
100
AcDbLine
 62
7
  6
CONTINUOUS
 10
131.1471279257
 20
152.5875538819
 11
131.0964935346
 21
152.3810630986
  0
LINE
  5
376
100
AcDbEntity
  8
0
100
AcDbLine
 62
7
  6
CONTINUOUS
 10
131.2307450551
 20
152.3279537182
 11
131.2968767372
 21
152.573618131
  0
LINE
  5
377
100
AcDbEntity
  8
0
100
AcDbLine
 62
7
  6
CONTINUOUS
 10
132.1695963584
 20
152.8173295064
 11
132.1034643907
 21
152.57166527
  0
LINE
  5
378
100
AcDbEntity
  8
0
100
AcDbLine
 62
7
  6
CONTINUOUS
 10
136.5894622968
 20
150.167718332
 11
136.4748484879
 21
149.8944791063
  0
LINE
  5
379
100
AcDbEntity
  8
RUNDUNGEN
100
AcDbLine
 62
7
  6
CONTINUOUS
 10
77.5682392694
 20
66.8007896055
 11
78.2752664443
 21
67.5078167803
  0
LINE
  5
37A
100
AcDbEntity
  8
RUNDUNGEN
100
AcDbLine
 62
7
  6
CONTINUOUS
 10
151.0543042345
 20
140.2868545705
 11
151.7613416923
 21
140.9938920284
  0
LINE
  5
37B
100
AcDbEntity
  8
0
100
AcDbLine
 62
7
  6
CONTINUOUS
 10
158.0668573095
 20
128.0257510315
 11
157.8900899232
 21
127.9076174753
  0
LINE
  5
37C
100
AcDbEntity
  8
0
100
AcDbLine
 62
7
  6
CONTINUOUS
 10
159.9114947631
 20
124.22899097
 11
159.7255840678
 21
124.1258431175
  0
LINE
  5
37D
100
AcDbEntity
  8
0
100
AcDbLine
 62
7
  6
CONTINUOUS
 10
159.7778335499
 20
123.9912542471
 11
160.0030162234
 21
124.1096484436
  0
LINE
  5
37E
100
AcDbEntity
  8
0
100
AcDbLine
 62
7
  6
CONTINUOUS
 10
160.7748007853
 20
123.634902868
 11
160.5496181669
 21
123.5165086928
  0
LINE
  5
37F
100
AcDbEntity
  8
0
100
AcDbLine
 62
7
  6
CONTINUOUS
 10
160.2747134825
 20
123.4097864405
 11
160.0286308727
 21
123.3452281618
  0
LINE
  5
380
100
AcDbEntity
  8
0
100
AcDbLine
 62
7
  6
CONTINUOUS
 10
160.2779209077
 20
124.2163706959
 11
160.5240034625
 21
124.2809289533
  0
LINE
  5
381
100
AcDbEntity
  8
0
100
AcDbLine
 62
7
  6
CONTINUOUS
 10
160.0808802353
 20
123.2106395994
 11
160.2876907473
 21
123.259951842
  0
LINE
  5
382
100
AcDbEntity
  8
RUNDUNGEN
100
AcDbLine
 62
7
  6
CONTINUOUS
 10
60.6113543827
 20
107.7383310746
 11
61.6112334322
 21
107.7383310746
  0
LINE
  5
383
100
AcDbEntity
  8
RUNDUNGEN
100
AcDbLine
 62
7
  6
CONTINUOUS
 10
164.5363547012
 20
107.7383310746
 11
165.5362460637
 21
107.7383310746
  0
LINE
  5
384
100
AcDbEntity
  8
RUNDUNGEN
100
AcDbLine
 62
7
  6
CONTINUOUS
 10
151.0543146878
 20
70.6897971253
 11
151.7613416923
 21
69.9827701208
  0
LINE
  5
385
100
AcDbEntity
  8
RUNDUNGEN
100
AcDbLine
 62
7
  6
CONTINUOUS
 10
78.2752767273
 20
143.4688350859
 11
77.5682392694
 21
144.1758725437
  0
LINE
  5
386
100
AcDbEntity
  8
0
100
AcDbLine
 62
7
  6
CONTINUOUS
 10
90.4385699732
 20
151.3970923447
 11
90.3215431622
 21
151.6240123065
  0
LINE
  5
387
100
AcDbEntity
  8
RUNDUNGEN
100
AcDbLine
 62
7
  6
CONTINUOUS
 10
122.0738002232
 20
45.5258852341
 11
122.0738002232
 21
51.8749293355
  0
LINE
  5
388
100
AcDbEntity
  8
RUNDUNGEN
100
AcDbLine
 62
7
  6
CONTINUOUS
 10
122.0738002232
 20
159.1015217826
 11
122.0738002232
 21
165.4507769151
  0
LINE
  5
389
100
AcDbEntity
  8
0
100
AcDbLine
 62
7
  6
CONTINUOUS
 10
127.4231623662
 20
153.4550821353
 11
127.4325780815
 21
153.584379338
  0
LINE
  5
38A
100
AcDbEntity
  8
0
100
AcDbLine
 62
7
  6
CONTINUOUS
 10
127.7528132888
 20
154.2352936262
 11
127.7622290041
 21
154.3645908288
  0
LINE
  5
38B
100
AcDbEntity
  8
0
100
AcDbLine
 62
7
  6
CONTINUOUS
 10
128.4894576612
 20
154.2739555224
 11
128.4988733766
 21
154.4032527251
  0
LINE
  5
38C
100
AcDbEntity
  8
0
100
AcDbLine
 62
7
  6
CONTINUOUS
 10
130.749385995
 20
152.7366702299
 11
130.7330307583
 21
152.6080664434
  0
LINE
  5
38D
100
AcDbEntity
  8
0
100
AcDbLine
 62
7
  6
CONTINUOUS
 10
127.2669290524
 20
153.6351329883
 11
127.2451719405
 21
153.4655563962
  0
LINE
  5
38E
100
AcDbEntity
  8
0
100
AcDbLine
 62
7
  6
CONTINUOUS
 10
127.5842386574
 20
154.3750650656
 11
127.5624815455
 21
154.2054884735
  0
LINE
  5
38F
100
AcDbEntity
  8
0
100
AcDbLine
 62
7
  6
CONTINUOUS
 10
132.8224806238
 20
151.5893793027
 11
132.7903812823
 21
151.3733395755
  0
LINE
  5
390
100
AcDbEntity
  8
0
100
AcDbLine
 62
7
  6
CONTINUOUS
 10
131.0964935346
 20
152.3810630986
 11
131.0768528257
 21
152.2529199937
  0
LINE
  5
391
100
AcDbEntity
  8
0
100
AcDbLine
 62
7
  6
CONTINUOUS
 10
132.3038478788
 20
152.7642201261
 11
132.3234883239
 21
152.8923634622
  0
LINE
  5
392
100
AcDbEntity
  8
0
100
AcDbLine
 62
7
  6
CONTINUOUS
 10
136.4748484879
 20
149.8944791063
 11
136.4256549462
 21
149.6816796627
  0
LINE
  5
393
100
AcDbEntity
  8
0
100
AcDbLine
 62
7
  6
CONTINUOUS
 10
132.2532135095
 20
152.5577293976
 11
132.3038478788
 21
152.7642201261
  0
LINE
  5
394
100
AcDbEntity
  8
0
100
AcDbLine
 62
7
  6
CONTINUOUS
 10
135.4023493788
 20
150.300709875
 11
135.4337030271
 21
150.4265008945
  0
LINE
  5
395
100
AcDbEntity
  8
0
100
AcDbLine
 62
7
  6
CONTINUOUS
 10
135.8603738219
 20
151.0131797416
 11
135.8917274702
 21
151.1389707611
  0
LINE
  5
396
100
AcDbEntity
  8
0
100
AcDbLine
 62
7
  6
CONTINUOUS
 10
136.5928024333
 20
150.9254984837
 11
136.6241560815
 21
151.0512895032
  0
LINE
  5
397
100
AcDbEntity
  8
0
100
AcDbLine
 62
7
  6
CONTINUOUS
 10
136.5873142215
 20
149.7380630637
 11
136.6219133931
 21
149.8630002119
  0
LINE
  5
398
100
AcDbEntity
  8
0
100
AcDbLine
 62
7
  6
CONTINUOUS
 10
137.3518274875
 20
149.7563931826
 11
137.3172282878
 21
149.6314559824
  0
LINE
  5
399
100
AcDbEntity
  8
0
100
AcDbLine
 62
7
  6
CONTINUOUS
 10
137.7735342846
 20
150.2947582444
 11
137.8081334562
 21
150.4196953926
  0
LINE
  5
39A
100
AcDbEntity
  8
0
100
AcDbLine
 62
7
  6
CONTINUOUS
 10
135.2791520575
 20
150.5047924029
 11
135.2287609626
 21
150.341420605
  0
LINE
  5
39B
100
AcDbEntity
  8
0
100
AcDbLine
 62
7
  6
CONTINUOUS
 10
135.718139054
 20
151.1796814911
 11
135.6677479591
 21
151.0163096932
  0
LINE
  5
39C
100
AcDbEntity
  8
RUNDUNGEN
100
AcDbLine
 62
7
  6
CONTINUOUS
 10
77.0379091835
 20
56.7245179736
 11
81.5274000847
 21
61.2140088747
  0
LINE
  5
39D
100
AcDbEntity
  8
RUNDUNGEN
100
AcDbLine
 62
7
  6
CONTINUOUS
 10
157.3480085482
 20
137.0346173382
 11
161.8376133243
 21
141.5242221143
  0
LINE
  5
39E
100
AcDbEntity
  8
0
100
AcDbLine
 62
7
  6
CONTINUOUS
 10
157.3300483774
 20
128.8998218543
 11
157.4288202549
 21
128.983789318
  0
LINE
  5
39F
100
AcDbEntity
  8
0
100
AcDbLine
 62
7
  6
CONTINUOUS
 10
158.1174078434
 20
129.2120153402
 11
158.2161797208
 21
129.2959828039
  0
LINE
  5
3A0
100
AcDbEntity
  8
0
100
AcDbLine
 62
7
  6
CONTINUOUS
 10
158.6615951231
 20
128.7140195073
 11
158.7603670101
 21
128.7979869526
  0
LINE
  5
3A1
100
AcDbEntity
  8
0
100
AcDbLine
 62
7
  6
CONTINUOUS
 10
157.3488256158
 20
129.1374656669
 11
157.2126856372
 21
129.0340466147
  0
LINE
  5
3A2
100
AcDbEntity
  8
0
100
AcDbLine
 62
7
  6
CONTINUOUS
 10
158.098816977
 20
129.4302075711
 11
157.9626769997
 21
129.3267885166
  0
LINE
  5
3A3
100
AcDbEntity
  8
0
100
AcDbLine
 62
7
  6
CONTINUOUS
 10
158.0037799898
 20
127.7702679243
 11
158.1426668795
 21
127.869967619
  0
LINE
  5
3A4
100
AcDbEntity
  8
0
100
AcDbLine
 62
7
  6
CONTINUOUS
 10
159.2035387473
 20
127.5191870687
 11
159.0646518577
 21
127.419487374
  0
LINE
  5
3A5
100
AcDbEntity
  8
0
100
AcDbLine
 62
7
  6
CONTINUOUS
 10
161.1512008989
 20
123.1128993143
 11
159.8176236308
 21
122.2103424484
  0
LINE
  5
3A6
100
AcDbEntity
  8
0
100
AcDbLine
 62
7
  6
CONTINUOUS
 10
159.7255840678
 20
124.1258431175
 11
159.6182177427
 21
124.0531870505
  0
LINE
  5
3A7
100
AcDbEntity
  8
0
100
AcDbLine
 62
7
  6
CONTINUOUS
 10
160.8270501479
 20
123.5003143056
 11
160.9344168222
 21
123.5729697992
  0
LINE
  5
3A8
100
AcDbEntity
  8
0
100
AcDbLine
 62
7
  6
CONTINUOUS
 10
159.1404614276
 20
127.2637039615
 11
159.3172288839
 21
127.3818376437
  0
LINE
  5
3A9
100
AcDbEntity
  8
0
100
AcDbLine
 62
7
  6
CONTINUOUS
 10
160.0547686277
 20
122.1719902248
 11
161.5771772938
 21
123.1722451605
  0
LINE
  5
3AA
100
AcDbEntity
  8
0
100
AcDbLine
 62
7
  6
CONTINUOUS
 10
161.6996568259
 20
121.537877206
 11
160.3373942983
 21
120.6792285597
  0
LINE
  5
3AB
100
AcDbEntity
  8
0
100
AcDbLine
 62
7
  6
CONTINUOUS
 10
160.5731647467
 20
120.6331732568
 11
162.1273399204
 21
121.5833193575
  0
LINE
  5
3AC
100
AcDbEntity
  8
0
100
AcDbLine
 62
7
  6
CONTINUOUS
 10
160.6411396272
 20
123.3971661664
 11
160.8270501479
 21
123.5003143056
  0
LINE
  5
3AD
100
AcDbEntity
  8
0
100
AcDbLine
 62
7
  6
CONTINUOUS
 10
158.2909159302
 20
129.3348859672
 11
158.4163527857
 21
129.3676280479
  0
LINE
  5
3AE
100
AcDbEntity
  8
0
100
AcDbLine
 62
7
  6
CONTINUOUS
 10
160.4717539804
 20
124.4155178237
 11
160.264943643
 21
124.3662052944
  0
LINE
  5
3AF
100
AcDbEntity
  8
0
100
AcDbLine
 62
7
  6
CONTINUOUS
 10
159.952614213
 20
123.1918188341
 11
160.0808802353
 21
123.2106395994
  0
LINE
  5
3B0
100
AcDbEntity
  8
0
100
AcDbLine
 62
7
  6
CONTINUOUS
 10
160.6000203519
 20
124.4343380156
 11
160.4717539804
 21
124.4155178237
  0
LINE
  5
3B1
100
AcDbEntity
  8
0
100
AcDbLine
 62
7
  6
CONTINUOUS
 10
161.867060323
 20
122.3559382992
 11
160.0547686277
 21
122.1719902248
  0
LINE
  5
3B2
100
AcDbEntity
  8
0
100
AcDbLine
 62
7
  6
CONTINUOUS
 10
159.8949256982
 20
121.9926608264
 11
161.499060534
 21
122.1333310807
  0
LINE
  5
3B3
100
AcDbEntity
  8
0
100
AcDbLine
 62
7
  6
CONTINUOUS
 10
162.3904855942
 20
120.7580052253
 11
160.5731647467
 21
120.6331732568
  0
LINE
  5
3B4
100
AcDbEntity
  8
0
100
AcDbLine
 62
7
  6
CONTINUOUS
 10
160.4075664111
 20
120.459145001
 11
162.0154316345
 21
120.5475002473
  0
LINE
  5
3B5
100
AcDbEntity
  8
RUNDUNGEN
100
AcDbLine
 62
7
  6
CONTINUOUS
 10
173.0362460637
 20
114.4883310746
 11
166.6872019623
 21
114.4883310746
  0
LINE
  5
3B6
100
AcDbEntity
  8
RUNDUNGEN
100
AcDbLine
 62
7
  6
CONTINUOUS
 10
53.1113543827
 20
114.4883310746
 11
59.4606172091
 21
114.4883310746
  0
LINE
  5
3B7
100
AcDbEntity
  8
RUNDUNGEN
100
AcDbLine
 62
7
  6
CONTINUOUS
 10
161.8376133243
 20
69.4524400349
 11
157.3481642369
 21
73.9418891223
  0
LINE
  5
3B8
100
AcDbEntity
  8
RUNDUNGEN
100
AcDbLine
 62
7
  6
CONTINUOUS
 10
81.5273651522
 20
149.762688207
 11
77.0379091835
 21
154.2521441757
  0
LINE
  5
3B9
100
AcDbEntity
  8
0
100
AcDbLine
 62
7
  6
CONTINUOUS
 10
92.5608253824
 20
151.1248459161
 11
92.8293198918
 21
150.7539705002
  0
LINE
  5
3BA
100
AcDbEntity
  8
0
100
AcDbLine
 62
7
  6
CONTINUOUS
 10
93.5530459796
 20
152.1078258442
 11
93.6999106872
 21
151.8930733166
  0
LINE
  5
3BB
100
AcDbEntity
  8
0
100
AcDbLine
 62
7
  6
CONTINUOUS
 10
92.9373235672
 20
151.0089279747
 11
92.7904593852
 21
151.2236807285
  0
LINE
  5
3BC
100
AcDbEntity
  8
0
100
AcDbLine
 62
7
  6
CONTINUOUS
 10
93.9295441644
 20
151.9919079028
 11
93.7826799824
 21
152.2066606565
  0
LINE
  5
3BD
100
AcDbEntity
  8
0
100
AcDbLine
 62
7
  6
CONTINUOUS
 10
96.4915138228
 20
153.3662464205
 11
96.64545552
 21
153.0822429804
  0
LINE
  5
3BE
100
AcDbEntity
  8
0
100
AcDbLine
 62
7
  6
CONTINUOUS
 10
96.8810349677
 20
153.1659234393
 11
96.7270932704
 21
153.4499268793
  0
LINE
  5
3BF
100
AcDbEntity
  8
0
100
AcDbLine
 62
7
  6
CONTINUOUS
 10
127.2451719405
 20
153.4655563962
 11
127.2662898938
 21
153.2387824487
  0
LINE
  5
3C0
100
AcDbEntity
  8
0
100
AcDbLine
 62
7
  6
CONTINUOUS
 10
128.3254558122
 20
153.4429902442
 11
128.319604783
 21
153.6210258303
  0
LINE
  5
3C1
100
AcDbEntity
  8
0
100
AcDbLine
 62
7
  6
CONTINUOUS
 10
128.3208829509
 20
154.413726986
 11
128.3238085531
 21
154.324709197
  0
LINE
  5
3C2
100
AcDbEntity
  8
0
100
AcDbLine
 62
7
  6
CONTINUOUS
 10
129.8345588345
 20
152.7577080122
 11
129.8308273714
 21
152.5796154755
  0
LINE
  5
3C3
100
AcDbEntity
  8
0
100
AcDbLine
 62
7
  6
CONTINUOUS
 10
129.9935075134
 20
152.5200274407
 11
129.9972389765
 21
152.6981199774
  0
LINE
  5
3C4
100
AcDbEntity
  8
0
100
AcDbLine
 62
7
  6
CONTINUOUS
 10
131.0768528257
 20
152.2529199937
 11
131.068565672
 21
152.0749811371
  0
LINE
  5
3C5
100
AcDbEntity
  8
0
100
AcDbLine
 62
7
  6
CONTINUOUS
 10
132.3234883239
 20
152.8923634622
 11
132.331775774
 21
153.0703021698
  0
LINE
  5
3C6
100
AcDbEntity
  8
0
100
AcDbLine
 62
7
  6
CONTINUOUS
 10
135.2287609626
 20
150.341420605
 11
135.2108491945
 21
150.1143709193
  0
LINE
  5
3C7
100
AcDbEntity
  8
0
100
AcDbLine
 62
7
  6
CONTINUOUS
 10
130.8830871367
 20
152.5979671864
 11
130.9013077897
 21
152.8156173411
  0
LINE
  5
3C8
100
AcDbEntity
  8
0
100
AcDbLine
 62
7
  6
CONTINUOUS
 10
133.1886829749
 20
152.3487378405
 11
133.1735732409
 21
152.1712480161
  0
LINE
  5
3C9
100
AcDbEntity
  8
0
100
AcDbLine
 62
7
  6
CONTINUOUS
 10
136.2893289064
 20
150.1347370035
 11
136.3139613365
 21
150.3111575383
  0
LINE
  5
3CA
100
AcDbEntity
  8
0
100
AcDbLine
 62
7
  6
CONTINUOUS
 10
136.4505676653
 20
151.0920002332
 11
136.4382514636
 21
151.0037899921
  0
LINE
  5
3CB
100
AcDbEntity
  8
0
100
AcDbLine
 62
7
  6
CONTINUOUS
 10
133.8246724699
 20
151.2858263299
 11
133.8567712185
 21
151.5018663506
  0
LINE
  5
3CC
100
AcDbEntity
  8
0
100
AcDbLine
 62
7
  6
CONTINUOUS
 10
134.1380291962
 20
152.0684738566
 11
134.1701285734
 21
152.2845136648
  0
LINE
  5
3CD
100
AcDbEntity
  8
0
100
AcDbLine
 62
7
  6
CONTINUOUS
 10
137.464293221
 20
149.59997714
 11
137.5134867487
 21
149.8127765577
  0
LINE
  5
3CE
100
AcDbEntity
  8
RUNDUNGEN
100
AcDbLine
 62
7
  6
CONTINUOUS
 10
108.2864967935
 20
45.2168682397
 11
110.8238002232
 21
53.0258852341
  0
LINE
  5
3CF
100
AcDbEntity
  8
RUNDUNGEN
100
AcDbLine
 62
7
  6
CONTINUOUS
 10
148.579361177
 20
144.1758725437
 11
152.3070255871
 21
151.4918258759
  0
LINE
  5
3D0
100
AcDbEntity
  8
0
100
AcDbLine
 62
7
  6
CONTINUOUS
 10
157.2126856372
 20
129.0340466147
 11
157.0658423952
 21
128.8599505092
  0
LINE
  5
3D1
100
AcDbEntity
  8
0
100
AcDbLine
 62
7
  6
CONTINUOUS
 10
157.9542301916
 20
128.248149618
 11
158.0770378085
 21
128.3771813726
  0
LINE
  5
3D2
100
AcDbEntity
  8
0
100
AcDbLine
 62
7
  6
CONTINUOUS
 10
158.6430042663
 20
128.9322117199
 11
158.581600484
 21
128.8676958562
  0
LINE
  5
3D3
100
AcDbEntity
  8
0
100
AcDbLine
 62
7
  6
CONTINUOUS
 10
157.8900899232
 20
127.9076174753
 11
157.7638379233
 21
127.7819538903
  0
LINE
  5
3D4
100
AcDbEntity
  8
0
100
AcDbLine
 62
7
  6
CONTINUOUS
 10
159.3172288839
 20
127.3818376437
 11
159.4434808935
 21
127.5075011415
  0
LINE
  5
3D5
100
AcDbEntity
  8
0
100
AcDbLine
 62
7
  6
CONTINUOUS
 10
159.6182177427
 20
124.0531870505
 11
159.4820291409
 21
123.9383672858
  0
LINE
  5
3D6
100
AcDbEntity
  8
0
100
AcDbLine
 62
7
  6
CONTINUOUS
 10
160.9344168222
 20
123.5729697992
 11
161.0706052769
 21
123.6877898613
  0
LINE
  5
3D7
100
AcDbEntity
  8
RUNDUNGEN
100
AcDbLine
 62
7
  6
CONTINUOUS
 10
67.0703054219
 20
66.2551057108
 11
74.3862587541
 21
69.9827701208
  0
LINE
  5
3D8
100
AcDbEntity
  8
RUNDUNGEN
100
AcDbLine
 62
7
  6
CONTINUOUS
 10
165.5362460637
 20
107.7383310746
 11
173.3452630581
 21
110.2756345043
  0
LINE
  5
3D9
100
AcDbEntity
  8
0
100
AcDbLine
 62
7
  6
CONTINUOUS
 10
157.5912523688
 20
128.1243107702
 11
157.7673896681
 21
128.1508917097
  0
LINE
  5
3DA
100
AcDbEntity
  8
0
100
AcDbLine
 62
7
  6
CONTINUOUS
 10
158.1934255105
 20
126.8991811701
 11
158.3702172117
 21
126.9209891715
  0
LINE
  5
3DB
100
AcDbEntity
  8
0
100
AcDbLine
 62
7
  6
CONTINUOUS
 10
159.0138933062
 20
128.3902738617
 11
158.8371015954
 21
128.3684659474
  0
LINE
  5
3DC
100
AcDbEntity
  8
0
100
AcDbLine
 62
7
  6
CONTINUOUS
 10
159.774625858
 20
123.1846705971
 11
159.952614213
 21
123.1918188341
  0
LINE
  5
3DD
100
AcDbEntity
  8
0
100
AcDbLine
 62
7
  6
CONTINUOUS
 10
160.7780085597
 20
124.44148655
 11
160.6000203519
 21
124.4343380156
  0
LINE
  5
3DE
100
AcDbEntity
  8
RUNDUNGEN
100
AcDbLine
 62
7
  6
CONTINUOUS
 10
173.3452630581
 20
100.7010276449
 11
165.5362460637
 21
103.2383310746
  0
LINE
  5
3DF
100
AcDbEntity
  8
RUNDUNGEN
100
AcDbLine
 62
7
  6
CONTINUOUS
 10
74.3862587541
 20
140.9938920284
 11
67.0703054219
 21
144.7215564385
  0
LINE
  5
3E0
100
AcDbEntity
  8
0
100
AcDbLine
 62
7
  6
CONTINUOUS
 10
89.9227038909
 20
151.6337780204
 11
90.054912362
 21
151.4865058835
  0
LINE
  5
3E1
100
AcDbEntity
  8
0
100
AcDbLine
 62
7
  6
CONTINUOUS
 10
90.3215431622
 20
151.6240123065
 11
90.1893346911
 21
151.7712844434
  0
LINE
  5
3E2
100
AcDbEntity
  8
0
100
AcDbLine
 62
7
  6
CONTINUOUS
 10
93.7826799824
 20
152.2066606565
 11
93.6610501983
 21
152.3627835039
  0
LINE
  5
3E3
100
AcDbEntity
  8
0
100
AcDbLine
 62
7
  6
CONTINUOUS
 10
96.7270932704
 20
153.4499268793
 11
96.6158814433
 21
153.6136343457
  0
LINE
  5
3E4
100
AcDbEntity
  8
RUNDUNGEN
100
AcDbLine
 62
7
  6
CONTINUOUS
 10
152.3070255871
 20
59.4848362733
 11
148.579361177
 21
66.8007896055
  0
LINE
  5
3E5
100
AcDbEntity
  8
RUNDUNGEN
100
AcDbLine
 62
7
  6
CONTINUOUS
 10
110.8238002232
 20
157.9507769151
 11
108.2864967935
 21
165.7597939095
  0
LINE
  5
3E6
100
AcDbEntity
  8
0
100
AcDbLine
 62
7
  6
CONTINUOUS
 10
130.7386276477
 20
152.8752053759
 11
130.749385995
 21
152.7366702299
  0
LINE
  5
3E7
100
AcDbEntity
  8
0
100
AcDbLine
 62
7
  6
CONTINUOUS
 10
132.9659077521
 20
151.3420224845
 11
132.954594988
 21
151.5311566971
  0
LINE
  5
3E8
100
AcDbEntity
  8
0
100
AcDbLine
 62
7
  6
CONTINUOUS
 10
133.6812447487
 20
151.5331834416
 11
133.6925575009
 21
151.344049202
  0
LINE
  5
3E9
100
AcDbEntity
  8
0
100
AcDbLine
 62
7
  6
CONTINUOUS
 10
131.2451647262
 20
152.0504235345
 11
131.2307450551
 21
152.3279537182
  0
LINE
  5
3EA
100
AcDbEntity
  8
0
100
AcDbLine
 62
7
  6
CONTINUOUS
 10
132.1551767198
 20
153.0948597725
 11
132.1695963584
 21
152.8173295064
  0
LINE
  5
3EB
100
AcDbEntity
  8
0
100
AcDbLine
 62
7
  6
CONTINUOUS
 10
133.3396655868
 20
152.190125695
 11
133.3377869347
 21
152.3290651107
  0
LINE
  5
3EC
100
AcDbEntity
  8
0
100
AcDbLine
 62
7
  6
CONTINUOUS
 10
134.0040356227
 20
152.2656362523
 11
134.005914832
 21
152.1266964622
  0
LINE
  5
3ED
100
AcDbEntity
  8
0
100
AcDbLine
 62
7
  6
CONTINUOUS
 10
136.6241560815
 20
151.0512895032
 11
136.6230303831
 21
151.2407583711
  0
LINE
  5
3EE
100
AcDbEntity
  8
0
100
AcDbLine
 62
7
  6
CONTINUOUS
 10
134.9233997619
 20
113.0543736333
 11
134.9233997619
 21
112.2058454959
  0
LINE
  5
3EF
100
AcDbEntity
  8
0
100
AcDbLine
 62
7
  6
CONTINUOUS
 10
134.9233997619
 20
98.7708166533
 11
134.9233997619
 21
97.9222885159
  0
LINE
  5
3F0
100
AcDbEntity
  8
0
100
AcDbLine
 62
7
  6
CONTINUOUS
 10
136.4256549462
 20
149.6816796627
 11
136.4218768491
 21
149.4922451093
  0
LINE
  5
3F1
100
AcDbEntity
  8
0
100
AcDbLine
 62
7
  6
CONTINUOUS
 10
137.8081334562
 20
150.4196953926
 11
137.8119115463
 21
150.6091299331
  0
LINE
  5
3F2
100
AcDbEntity
  8
0
100
AcDbLine
 62
7
  6
CONTINUOUS
 10
136.1213354737
 20
150.3142874899
 11
136.1157404902
 21
150.1754477335
  0
LINE
  5
3F3
100
AcDbEntity
  8
0
100
AcDbLine
 62
7
  6
CONTINUOUS
 10
136.5781279844
 20
149.5994146328
 11
136.5873142215
 21
149.7380630637
  0
LINE
  5
3F4
100
AcDbEntity
  8
0
100
AcDbLine
 62
7
  6
CONTINUOUS
 10
137.6556604181
 20
150.5019604225
 11
137.646474195
 21
150.3633120175
  0
LINE
  5
3F5
100
AcDbEntity
  8
0
100
AcDbLine
 62
7
  6
CONTINUOUS
 10
158.7603670101
 20
128.7979869526
 11
158.8698421094
 21
128.9526314537
  0
LINE
  5
3F6
100
AcDbEntity
  8
0
100
AcDbLine
 62
7
  6
CONTINUOUS
 10
157.92230696
 20
128.4919545582
 11
157.8368674478
 21
128.3823743852
  0
LINE
  5
3F7
100
AcDbEntity
  8
0
100
AcDbLine
 62
7
  6
CONTINUOUS
 10
157.9154084408
 20
127.6630383623
 11
158.0037799898
 21
127.7702679243
  0
LINE
  5
3F8
100
AcDbEntity
  8
0
100
AcDbLine
 62
7
  6
CONTINUOUS
 10
159.2919104025
 20
127.6264166824
 11
159.2035387473
 21
127.5191870687
  0
LINE
  5
3F9
100
AcDbEntity
  8
0
100
AcDbLine
 62
7
  6
CONTINUOUS
 10
159.5840005693
 20
123.7921068005
 11
159.7778335499
 21
123.9912542471
  0
LINE
  5
3FA
100
AcDbEntity
  8
0
100
AcDbLine
 62
7
  6
CONTINUOUS
 10
160.9686338484
 20
123.8340503465
 11
160.7748007853
 21
123.634902868
  0
LINE
  5
3FB
100
AcDbEntity
  8
0
100
AcDbLine
 62
7
  6
CONTINUOUS
 10
140.6749883569
 20
104.5224052483
 11
134.9233997619
 21
98.7708166533
  0
LINE
  5
3FC
100
AcDbEntity
  8
0
100
AcDbLine
 62
7
  6
CONTINUOUS
 10
119.7913146445
 20
83.638731536
 11
114.0397260495
 21
77.887142941
  0
LINE
  5
3FD
100
AcDbEntity
  8
0
100
AcDbLine
 62
7
  6
CONTINUOUS
 10
134.9233997619
 20
97.9222885159
 11
120.6398427819
 21
83.638731536
  0
LINE
  5
3FE
100
AcDbEntity
  8
0
100
AcDbLine
 62
7
  6
CONTINUOUS
 10
157.7247631337
 20
128.3240196403
 11
157.5859939653
 21
128.3168902961
  0
LINE
  5
3FF
100
AcDbEntity
  8
0
100
AcDbLine
 62
7
  6
CONTINUOUS
 10
158.3322881022
 20
127.0952065198
 11
158.1933768881
 21
127.091832467
  0
LINE
  5
400
100
AcDbEntity
  8
0
100
AcDbLine
 62
7
  6
CONTINUOUS
 10
158.8750306349
 20
128.1942484733
 11
159.0139419551
 21
128.1976225776
  0
LINE
  5
401
100
AcDbEntity
  8
0
100
AcDbLine
 62
7
  6
CONTINUOUS
 10
105.5077576645
 20
127.3379306133
 11
106.3562858019
 21
127.3379306133
  0
LINE
  5
402
100
AcDbEntity
  8
0
100
AcDbLine
 62
7
  6
CONTINUOUS
 10
119.7913146445
 20
127.3379306133
 11
120.6398427819
 21
127.3379306133
  0
LINE
  5
403
100
AcDbEntity
  8
0
100
AcDbLine
 62
7
  6
CONTINUOUS
 10
160.0286308727
 20
123.3452281618
 11
159.7511986251
 21
123.3614231544
  0
LINE
  5
404
100
AcDbEntity
  8
0
100
AcDbLine
 62
7
  6
CONTINUOUS
 10
160.5240034625
 20
124.2809289533
 11
160.8014357927
 21
124.2647339927
  0
LINE
  5
405
100
AcDbEntity
  8
0
100
AcDbLine
 62
7
  6
CONTINUOUS
 10
92.8293198918
 20
150.7539705002
 11
92.9968765378
 21
150.6176146174
  0
LINE
  5
406
100
AcDbEntity
  8
0
100
AcDbLine
 62
7
  6
CONTINUOUS
 10
93.1048804849
 20
150.8725721845
 11
92.9373235672
 21
151.0089279747
  0
LINE
  5
407
100
AcDbEntity
  8
0
100
AcDbLine
 62
7
  6
CONTINUOUS
 10
93.3854893424
 20
152.2441817064
 11
93.5530459796
 21
152.1078258442
  0
LINE
  5
408
100
AcDbEntity
  8
0
100
AcDbLine
 62
7
  6
CONTINUOUS
 10
93.6610501983
 20
152.3627835039
 11
93.4934932984
 21
152.499139253
  0
LINE
  5
409
100
AcDbEntity
  8
0
100
AcDbLine
 62
7
  6
CONTINUOUS
 10
97.8370226854
 20
153.2743512028
 11
98.7157557668
 21
152.4801006186
  0
LINE
  5
40A
100
AcDbEntity
  8
0
100
AcDbLine
 62
7
  6
CONTINUOUS
 10
114.0397260495
 20
133.0895192083
 11
119.7913146445
 21
127.3379306133
  0
LINE
  5
40B
100
AcDbEntity
  8
0
100
AcDbLine
 62
7
  6
CONTINUOUS
 10
134.9233997619
 20
112.2058454959
 11
140.6749883569
 21
106.4542569009
  0
LINE
  5
40C
100
AcDbEntity
  8
0
100
AcDbLine
 62
7
  6
CONTINUOUS
 10
120.6398427819
 20
127.3379306133
 11
134.9233997619
 21
113.0543736333
  0
LINE
  5
40D
100
AcDbEntity
  8
0
100
AcDbLine
 62
7
  6
CONTINUOUS
 10
128.4988733766
 20
154.4032527251
 11
128.4654140928
 21
154.5897472167
  0
LINE
  5
40E
100
AcDbEntity
  8
0
100
AcDbLine
 62
7
  6
CONTINUOUS
 10
128.1292730397
 20
153.5912206777
 11
128.1474653865
 21
153.4534645051
  0
LINE
  5
40F
100
AcDbEntity
  8
0
100
AcDbLine
 62
7
  6
CONTINUOUS
 10
129.8308273714
 20
152.5796154755
 11
129.8542094773
 21
152.3915915377
  0
LINE
  5
410
100
AcDbEntity
  8
0
100
AcDbLine
 62
7
  6
CONTINUOUS
 10
130.9013077897
 20
152.8156173411
 11
130.8779256788
 21
153.003641265
  0
LINE
  5
411
100
AcDbEntity
  8
0
100
AcDbLine
 62
7
  6
CONTINUOUS
 10
137.3410100582
 20
149.8579660812
 11
137.3518274875
 21
149.7563931826
  0
LINE
  5
412
100
AcDbEntity
  8
0
100
AcDbLine
 62
7
  6
CONTINUOUS
 10
137.5134867487
 20
149.8127765577
 11
137.4972611865
 21
149.9651355917
  0
LINE
  5
413
100
AcDbEntity
  8
0
100
AcDbLine
 62
7
  6
CONTINUOUS
 10
157.2579413567
 20
128.7646289213
 11
157.3300483774
 21
128.8998218543
  0
LINE
  5
414
100
AcDbEntity
  8
0
100
AcDbLine
 62
7
  6
CONTINUOUS
 10
157.9626769997
 20
129.3267885166
 11
157.8665343418
 21
129.1465312877
  0
LINE
  5
415
100
AcDbEntity
  8
0
100
AcDbLine
 62
7
  6
CONTINUOUS
 10
158.0770378085
 20
128.3771813726
 11
158.1731804425
 21
128.5574386474
  0
LINE
  5
416
100
AcDbEntity
  8
0
100
AcDbLine
 62
7
  6
CONTINUOUS
 10
158.6910755833
 20
129.0223403573
 11
158.6430042663
 21
128.9322117199
  0
LINE
  5
417
100
AcDbEntity
  8
0
100
AcDbLine
 62
7
  6
CONTINUOUS
 10
157.7638379233
 20
127.7819538903
 11
157.6628558053
 21
127.6043624828
  0
LINE
  5
418
100
AcDbEntity
  8
0
100
AcDbLine
 62
7
  6
CONTINUOUS
 10
158.1933039147
 20
127.3808093931
 11
158.0670762031
 21
127.1588202404
  0
LINE
  5
419
100
AcDbEntity
  8
0
100
AcDbLine
 62
7
  6
CONTINUOUS
 10
157.9408484982
 20
126.9368310909
 11
157.8903574753
 21
126.8480353129
  0
LINE
  5
41A
100
AcDbEntity
  8
0
100
AcDbLine
 62
7
  6
CONTINUOUS
 10
158.1933768881
 20
127.091832467
 11
158.2691134847
 21
127.2250259806
  0
LINE
  5
41B
100
AcDbEntity
  8
0
100
AcDbLine
 62
7
  6
CONTINUOUS
 10
157.9661670453
 20
126.6922519004
 11
158.0923946846
 21
126.9142412017
  0
LINE
  5
41C
100
AcDbEntity
  8
0
100
AcDbLine
 62
7
  6
CONTINUOUS
 10
159.4434808935
 20
127.5075011415
 11
159.5444629982
 21
127.6850925425
  0
LINE
  5
41D
100
AcDbEntity
  8
0
100
AcDbLine
 62
7
  6
CONTINUOUS
 10
159.4820291409
 20
123.9383672858
 11
159.3955624992
 21
123.8118759117
  0
LINE
  5
41E
100
AcDbEntity
  8
0
100
AcDbLine
 62
7
  6
CONTINUOUS
 10
161.0706052769
 20
123.6877898613
 11
161.1570719048
 21
123.8142812301
  0
LINE
  5
41F
100
AcDbEntity
  8
0
100
AcDbLine
 62
7
  6
CONTINUOUS
 10
142.849995607
 20
94.0109308217
 11
124.5512004761
 21
75.7121356908
  0
LINE
  5
420
100
AcDbEntity
  8
0
100
AcDbLine
 62
7
  6
CONTINUOUS
 10
157.3884501521
 20
128.1489553849
 11
157.5912523688
 21
128.1243107702
  0
LINE
  5
421
100
AcDbEntity
  8
0
100
AcDbLine
 62
7
  6
CONTINUOUS
 10
158.6138965406
 20
129.5355629753
 11
158.4110943608
 21
129.560207551
  0
LINE
  5
422
100
AcDbEntity
  8
0
100
AcDbLine
 62
7
  6
CONTINUOUS
 10
158.0923946846
 20
126.9142412017
 11
158.1934255105
 21
126.8991811701
  0
LINE
  5
423
100
AcDbEntity
  8
0
100
AcDbLine
 62
7
  6
CONTINUOUS
 10
159.2159548857
 20
128.360153947
 11
159.0138933062
 21
128.3902738617
  0
LINE
  5
424
100
AcDbEntity
  8
0
100
AcDbLine
 62
7
  6
CONTINUOUS
 10
160.726845693
 20
125.3456069477
 11
159.4099006764
 21
125.5448305042
  0
LINE
  5
425
100
AcDbEntity
  8
0
100
AcDbLine
 62
7
  6
CONTINUOUS
 10
159.4880643852
 20
125.3584306497
 11
160.4160442402
 21
125.2152774776
  0
LINE
  5
426
100
AcDbEntity
  8
0
100
AcDbLine
 62
7
  6
CONTINUOUS
 10
159.6254598856
 20
123.2196857442
 11
159.774625858
 21
123.1846705971
  0
LINE
  5
427
100
AcDbEntity
  8
0
100
AcDbLine
 62
7
  6
CONTINUOUS
 10
160.9271745184
 20
124.4064713975
 11
160.7780085597
 21
124.44148655
  0
LINE
  5
428
100
AcDbEntity
  8
0
100
AcDbLine
 62
7
  6
CONTINUOUS
 10
92.9968765378
 20
150.6176146174
 11
93.1391987815
 21
150.5398886514
  0
LINE
  5
429
100
AcDbEntity
  8
0
100
AcDbLine
 62
7
  6
CONTINUOUS
 10
93.2472027241
 20
150.7948462287
 11
93.1048804849
 21
150.8725721845
  0
LINE
  5
42A
100
AcDbEntity
  8
0
100
AcDbLine
 62
7
  6
CONTINUOUS
 10
93.2431671032
 20
152.3219076622
 11
93.3854893424
 21
152.2441817064
  0
LINE
  5
42B
100
AcDbEntity
  8
0
100
AcDbLine
 62
7
  6
CONTINUOUS
 10
93.4934932984
 20
152.499139253
 11
93.3511707963
 21
152.5768650957
  0
LINE
  5
42C
100
AcDbEntity
  8
0
100
AcDbLine
 62
7
  6
CONTINUOUS
 10
90.1893346911
 20
151.7712844434
 11
89.9389925619
 21
151.9294510348
  0
LINE
  5
42D
100
AcDbEntity
  8
0
100
AcDbLine
 62
7
  6
CONTINUOUS
 10
96.3545515265
 20
153.4530699807
 11
96.4915138228
 21
153.3662464205
  0
LINE
  5
42E
100
AcDbEntity
  8
0
100
AcDbLine
 62
7
  6
CONTINUOUS
 10
96.6158814433
 20
153.6136343457
 11
96.4789196862
 21
153.7004580975
  0
LINE
  5
42F
100
AcDbEntity
  8
0
100
AcDbLine
 62
7
  6
CONTINUOUS
 10
99.0019390465
 20
152.5700957872
 11
97.9226705806
 21
153.5020190293
  0
LINE
  5
430
100
AcDbEntity
  8
0
100
AcDbLine
 62
7
  6
CONTINUOUS
 10
124.5512004761
 20
135.2645264584
 11
142.849995607
 21
116.9657313275
  0
LINE
  5
431
100
AcDbEntity
  8
0
100
AcDbLine
 62
7
  6
CONTINUOUS
 10
127.4689629589
 20
153.3088670291
 11
127.4231623662
 21
153.4550821353
  0
LINE
  5
432
100
AcDbEntity
  8
0
100
AcDbLine
 62
7
  6
CONTINUOUS
 10
127.5624815455
 20
154.2054884735
 11
127.6235490667
 21
154.01053502
  0
LINE
  5
433
100
AcDbEntity
  8
0
100
AcDbLine
 62
7
  6
CONTINUOUS
 10
128.319604783
 20
153.6210258303
 11
128.2585372618
 21
153.8159792838
  0
LINE
  5
434
100
AcDbEntity
  8
0
100
AcDbLine
 62
7
  6
CONTINUOUS
 10
128.2903492693
 20
154.5112036886
 11
128.3208829509
 21
154.413726986
  0
LINE
  5
435
100
AcDbEntity
  8
0
100
AcDbLine
 62
7
  6
CONTINUOUS
 10
131.068565672
 20
152.0749811371
 11
131.1026257502
 21
151.9255941935
  0
LINE
  5
436
100
AcDbEntity
  8
0
100
AcDbLine
 62
7
  6
CONTINUOUS
 10
132.331775774
 20
153.0703021698
 11
132.2977156904
 21
153.2196890998
  0
LINE
  5
437
100
AcDbEntity
  8
0
100
AcDbLine
 62
7
  6
CONTINUOUS
 10
132.7903812823
 20
151.3733395755
 11
132.8186830432
 21
151.2227555186
  0
LINE
  5
438
100
AcDbEntity
  8
0
100
AcDbLine
 62
7
  6
CONTINUOUS
 10
133.1735732409
 20
152.1712480161
 11
133.2018750078
 21
152.0206639727
  0
LINE
  5
439
100
AcDbEntity
  8
0
100
AcDbLine
 62
7
  6
CONTINUOUS
 10
134.1701285734
 20
152.2845136648
 11
134.1418268065
 21
152.4350977081
  0
LINE
  5
43A
100
AcDbEntity
  8
0
100
AcDbLine
 62
7
  6
CONTINUOUS
 10
135.4225125105
 20
150.1488217593
 11
135.4023493788
 21
150.300709875
  0
LINE
  5
43B
100
AcDbEntity
  8
0
100
AcDbLine
 62
7
  6
CONTINUOUS
 10
135.6677479591
 20
151.0163096932
 11
135.6946317595
 21
150.8137924397
  0
LINE
  5
43C
100
AcDbEntity
  8
0
100
AcDbLine
 62
7
  6
CONTINUOUS
 10
136.3139613365
 20
150.3111575383
 11
136.2870775361
 21
150.5136747918
  0
LINE
  5
43D
100
AcDbEntity
  8
0
100
AcDbLine
 62
7
  6
CONTINUOUS
 10
136.4371257651
 20
151.19325886
 11
136.4505676653
 21
151.0920002332
  0
LINE
  5
43E
100
AcDbEntity
  8
0
100
AcDbLine
 62
7
  6
CONTINUOUS
 10
157.0658423952
 20
128.8599505092
 11
157.0204002689
 21
128.6735321381
  0
LINE
  5
43F
100
AcDbEntity
  8
0
100
AcDbLine
 62
7
  6
CONTINUOUS
 10
158.0826689631
 20
129.0962739841
 11
158.1174078434
 21
129.2120153402
  0
LINE
  5
440
100
AcDbEntity
  8
0
100
AcDbLine
 62
7
  6
CONTINUOUS
 10
157.9570458498
 20
128.607695896
 11
157.92230696
 21
128.4919545582
  0
LINE
  5
441
100
AcDbEntity
  8
0
100
AcDbLine
 62
7
  6
CONTINUOUS
 10
157.8775522782
 20
127.5482787716
 11
157.9154084408
 21
127.6630383623
  0
LINE
  5
442
100
AcDbEntity
  8
0
100
AcDbLine
 62
7
  6
CONTINUOUS
 10
159.3297665385
 20
127.7411762602
 11
159.2919104025
 21
127.6264166824
  0
LINE
  5
443
100
AcDbEntity
  8
0
100
AcDbLine
 62
7
  6
CONTINUOUS
 10
159.3955624992
 20
123.8118759117
 11
159.3299955581
 21
123.6315492372
  0
LINE
  5
444
100
AcDbEntity
  8
0
100
AcDbLine
 62
7
  6
CONTINUOUS
 10
158.8698421094
 20
128.9526314537
 11
158.9286166768
 21
129.1134370735
  0
LINE
  5
445
100
AcDbEntity
  8
0
100
AcDbLine
 62
7
  6
CONTINUOUS
 10
159.5368060392
 20
123.6808614678
 11
159.5840005693
 21
123.7921068005
  0
LINE
  5
446
100
AcDbEntity
  8
0
100
AcDbLine
 62
7
  6
CONTINUOUS
 10
161.0158283786
 20
123.9452956793
 11
160.9686338484
 21
123.8340503465
  0
LINE
  5
447
100
AcDbEntity
  8
0
100
AcDbLine
 62
7
  6
CONTINUOUS
 10
137.0609588841
 20
149.3389089141
 11
136.9447150604
 21
149.3058904162
  0
LINE
  5
448
100
AcDbEntity
  8
0
100
AcDbLine
 62
7
  6
CONTINUOUS
 10
136.8581791586
 20
150.1184717999
 11
136.9744229822
 21
150.1514902977
  0
LINE
  5
449
100
AcDbEntity
  8
0
100
AcDbLine
 62
7
  6
CONTINUOUS
 10
137.0490294584
 20
150.3505784587
 11
136.8165418111
 21
150.2845414631
  0
LINE
  5
44A
100
AcDbEntity
  8
0
100
AcDbLine
 62
7
  6
CONTINUOUS
 10
137.1982413037
 20
150.7487555121
 11
137.3144851273
 21
150.7817740099
  0
LINE
  5
44B
100
AcDbEntity
  8
0
100
AcDbLine
 62
7
  6
CONTINUOUS
 10
136.8701097352
 20
149.1068016049
 11
137.0571807869
 21
149.1494743606
  0
LINE
  5
44C
100
AcDbEntity
  8
0
100
AcDbLine
 62
7
  6
CONTINUOUS
 10
89.9389925619
 20
151.9294510348
 11
89.6734686907
 21
152.0079699602
  0
LINE
  5
44D
100
AcDbEntity
  8
0
100
AcDbLine
 62
7
  6
CONTINUOUS
 10
157.5859939653
 20
128.3168902961
 11
157.4712604102
 21
128.3548252936
  0
LINE
  5
44E
100
AcDbEntity
  8
0
100
AcDbLine
 62
7
  6
CONTINUOUS
 10
158.4163527857
 20
129.3676280479
 11
158.5310863242
 21
129.3296930185
  0
LINE
  5
44F
100
AcDbEntity
  8
0
100
AcDbLine
 62
7
  6
CONTINUOUS
 10
159.0139419551
 20
128.1976225776
 11
159.1276076612
 21
128.156598743
  0
LINE
  5
450
100
AcDbEntity
  8
0
100
AcDbLine
 62
7
  6
CONTINUOUS
 10
159.7511986251
 20
123.3614231544
 11
159.6413047642
 21
123.411684343
  0
LINE
  5
451
100
AcDbEntity
  8
0
100
AcDbLine
 62
7
  6
CONTINUOUS
 10
160.8014357927
 20
124.2647339927
 11
160.9113296535
 21
124.2144728041
  0
LINE
  5
452
100
AcDbEntity
  8
0
100
AcDbLine
 62
7
  6
CONTINUOUS
 10
89.7753135506
 20
151.7014024257
 11
89.9227038909
 21
151.6337780204
  0
LINE
  5
453
100
AcDbEntity
  8
0
100
AcDbLine
 62
7
  6
CONTINUOUS
 10
159.4553942195
 20
123.3085361945
 11
159.6254598856
 21
123.2196857442
  0
LINE
  5
454
100
AcDbEntity
  8
0
100
AcDbLine
 62
7
  6
CONTINUOUS
 10
127.2662898938
 20
153.2387824487
 11
127.3673068086
 21
153.0756494848
  0
LINE
  5
455
100
AcDbEntity
  8
0
100
AcDbLine
 62
7
  6
CONTINUOUS
 10
127.8109552077
 20
154.1293579618
 11
127.7528132888
 21
154.2352936262
  0
LINE
  5
456
100
AcDbEntity
  8
0
100
AcDbLine
 62
7
  6
CONTINUOUS
 10
128.0711311208
 20
153.6971563421
 11
128.1292730397
 21
153.5912206777
  0
LINE
  5
457
100
AcDbEntity
  8
0
100
AcDbLine
 62
7
  6
CONTINUOUS
 10
129.8542094773
 20
152.3915915377
 11
129.9463078918
 21
152.2232623639
  0
LINE
  5
458
100
AcDbEntity
  8
0
100
AcDbLine
 62
7
  6
CONTINUOUS
 10
131.1026257502
 20
151.9255941935
 11
131.1903866223
 21
151.7549634282
  0
LINE
  5
459
100
AcDbEntity
  8
0
100
AcDbLine
 62
7
  6
CONTINUOUS
 10
130.0458686044
 20
152.41111847
 11
129.9935075134
 21
152.5200274407
  0
LINE
  5
45A
100
AcDbEntity
  8
0
100
AcDbLine
 62
7
  6
CONTINUOUS
 10
130.6862665567
 20
152.9841143466
 11
130.7386276477
 21
152.8752053759
  0
LINE
  5
45B
100
AcDbEntity
  8
0
100
AcDbLine
 62
7
  6
CONTINUOUS
 10
128.4654140928
 20
154.5897472167
 11
128.392005412
 21
154.7444212082
  0
LINE
  5
45C
100
AcDbEntity
  8
0
100
AcDbLine
 62
7
  6
CONTINUOUS
 10
132.8186830432
 20
151.2227555186
 11
132.8998304304
 21
151.0488824762
  0
LINE
  5
45D
100
AcDbEntity
  8
0
100
AcDbLine
 62
7
  6
CONTINUOUS
 10
131.2947214864
 20
151.9402104771
 11
131.2451647262
 21
152.0504235345
  0
LINE
  5
45E
100
AcDbEntity
  8
0
100
AcDbLine
 62
7
  6
CONTINUOUS
 10
132.1056196524
 20
153.2050729514
 11
132.1551767198
 21
153.0948597725
  0
LINE
  5
45F
100
AcDbEntity
  8
0
100
AcDbLine
 62
7
  6
CONTINUOUS
 10
135.2108491945
 20
150.1143709193
 11
135.2825291279
 21
149.9363857501
  0
LINE
  5
460
100
AcDbEntity
  8
0
100
AcDbLine
 62
7
  6
CONTINUOUS
 10
136.4218768491
 20
149.4922451093
 11
136.4889271398
 21
149.3124641796
  0
LINE
  5
461
100
AcDbEntity
  8
0
100
AcDbLine
 62
7
  6
CONTINUOUS
 10
135.8995744136
 20
150.8988724306
 11
135.8603738219
 21
151.0131797416
  0
LINE
  5
462
100
AcDbEntity
  8
0
100
AcDbLine
 62
7
  6
CONTINUOUS
 10
136.0821348821
 20
150.4285948009
 11
136.1213354737
 21
150.3142874899
  0
LINE
  5
463
100
AcDbEntity
  8
0
100
AcDbLine
 62
7
  6
CONTINUOUS
 10
133.3943904684
 20
152.0278970239
 11
133.3396655868
 21
152.190125695
  0
LINE
  5
464
100
AcDbEntity
  8
0
100
AcDbLine
 62
7
  6
CONTINUOUS
 10
133.8567712185
 20
151.5018663506
 11
133.8020469417
 21
151.6640947551
  0
LINE
  5
465
100
AcDbEntity
  8
0
100
AcDbLine
 62
7
  6
CONTINUOUS
 10
133.9493113459
 20
152.4278646569
 11
134.0040356227
 21
152.2656362523
  0
LINE
  5
466
100
AcDbEntity
  8
0
100
AcDbLine
 62
7
  6
CONTINUOUS
 10
136.6143571988
 20
149.4841311051
 11
136.5781279844
 21
149.5994146328
  0
LINE
  5
467
100
AcDbEntity
  8
0
100
AcDbLine
 62
7
  6
CONTINUOUS
 10
137.3047808438
 20
149.9732496089
 11
137.3410100582
 21
149.8579660812
  0
LINE
  5
468
100
AcDbEntity
  8
0
100
AcDbLine
 62
7
  6
CONTINUOUS
 10
137.6194312036
 20
150.6172439502
 11
137.6556604181
 21
150.5019604225
  0
LINE
  5
469
100
AcDbEntity
  8
0
100
AcDbLine
 62
7
  6
CONTINUOUS
 10
136.6230303831
 20
151.2407583711
 11
136.5771085465
 21
151.4056951448
  0
LINE
  5
46A
100
AcDbEntity
  8
0
100
AcDbLine
 62
7
  6
CONTINUOUS
 10
157.8665343418
 20
129.1465312877
 11
157.8451278886
 21
129.0051772312
  0
LINE
  5
46B
100
AcDbEntity
  8
0
100
AcDbLine
 62
7
  6
CONTINUOUS
 10
158.1731804425
 20
128.5574386474
 11
158.1945869052
 21
128.6987926855
  0
LINE
  5
46C
100
AcDbEntity
  8
0
100
AcDbLine
 62
7
  6
CONTINUOUS
 10
157.6628558053
 20
127.6043624828
 11
157.6376345394
 21
127.4636390971
  0
LINE
  5
46D
100
AcDbEntity
  8
0
100
AcDbLine
 62
7
  6
CONTINUOUS
 10
159.5444629982
 20
127.6850925425
 11
159.5696841818
 21
127.8258160719
  0
LINE
  5
46E
100
AcDbEntity
  8
0
100
AcDbLine
 62
7
  6
CONTINUOUS
 10
161.1570719048
 20
123.8142812301
 11
161.2226388356
 21
123.9946079006
  0
LINE
  5
46F
100
AcDbEntity
  8
0
100
AcDbLine
 62
7
  6
CONTINUOUS
 10
137.3890916035
 20
150.9808621709
 11
137.2020193938
 21
150.9381900526
  0
LINE
  5
470
100
AcDbEntity
  8
0
100
AcDbLine
 62
7
  6
CONTINUOUS
 10
133.4943658135
 20
151.1091317958
 11
133.3546965824
 21
151.0786094892
  0
LINE
  5
471
100
AcDbEntity
  8
0
100
AcDbLine
 62
7
  6
CONTINUOUS
 10
133.766189703
 20
151.7259341528
 11
133.8360249234
 21
151.7411950396
  0
LINE
  5
472
100
AcDbEntity
  8
0
100
AcDbLine
 62
7
  6
CONTINUOUS
 10
133.1527866873
 20
151.7660741303
 11
133.2924565232
 21
151.7965961704
  0
LINE
  5
473
100
AcDbEntity
  8
0
100
AcDbLine
 62
7
  6
CONTINUOUS
 10
133.2377316416
 20
151.9588248415
 11
133.167897026
 21
151.9435636882
  0
LINE
  5
474
100
AcDbEntity
  8
0
100
AcDbLine
 62
7
  6
CONTINUOUS
 10
135.7461820368
 20
149.7015112249
 11
135.8872911112
 21
149.7244783531
  0
LINE
  5
475
100
AcDbEntity
  8
0
100
AcDbLine
 62
7
  6
CONTINUOUS
 10
136.2164898139
 20
151.5883752315
 11
136.0753807445
 21
151.5654081132
  0
LINE
  5
476
100
AcDbEntity
  8
0
100
AcDbLine
 62
7
  6
CONTINUOUS
 10
93.1391987815
 20
150.5398886514
 11
93.2562868878
 21
150.52079271
  0
LINE
  5
477
100
AcDbEntity
  8
0
100
AcDbLine
 62
7
  6
CONTINUOUS
 10
93.3511707963
 20
152.5768650957
 11
93.2340829549
 21
152.595961145
  0
LINE
  5
478
100
AcDbEntity
  8
0
100
AcDbLine
 62
7
  6
CONTINUOUS
 10
96.2389549741
 20
153.4797458414
 11
96.3545515265
 21
153.4530699807
  0
LINE
  5
479
100
AcDbEntity
  8
0
100
AcDbLine
 62
7
  6
CONTINUOUS
 10
96.4789196862
 20
153.7004580975
 11
96.2948417161
 21
153.7705456425
  0
LINE
  5
47A
100
AcDbEntity
  8
0
100
AcDbLine
 62
7
  6
CONTINUOUS
 10
157.2603841862
 20
128.2125030914
 11
157.3884501521
 21
128.1489553849
  0
LINE
  5
47B
100
AcDbEntity
  8
0
100
AcDbLine
 62
7
  6
CONTINUOUS
 10
158.7419625062
 20
129.4720152454
 11
158.6138965406
 21
129.5355629753
  0
LINE
  5
47C
100
AcDbEntity
  8
0
100
AcDbLine
 62
7
  6
CONTINUOUS
 10
161.0972401742
 20
124.3176209432
 11
160.9271745184
 21
124.4064713975
  0
LINE
  5
47D
100
AcDbEntity
  8
0
100
AcDbLine
 62
7
  6
CONTINUOUS
 10
159.3422554719
 20
128.2931663093
 11
159.2159548857
 21
128.360153947
  0
LINE
  5
47E
100
AcDbEntity
  8
0
100
AcDbLine
 62
7
  6
CONTINUOUS
 10
127.6235490667
 20
154.01053502
 11
127.709299065
 21
153.8961404421
  0
LINE
  5
47F
100
AcDbEntity
  8
0
100
AcDbLine
 62
7
  6
CONTINUOUS
 10
128.2585372618
 20
153.8159792838
 11
128.1727871056
 21
153.9303739101
  0
LINE
  5
480
100
AcDbEntity
  8
0
100
AcDbLine
 62
7
  6
CONTINUOUS
 10
133.0376216246
 20
151.2183439557
 11
132.9659077521
 21
151.3420224845
  0
LINE
  5
481
100
AcDbEntity
  8
0
100
AcDbLine
 62
7
  6
CONTINUOUS
 10
133.2018750078
 20
152.0206639727
 11
133.2377316416
 21
151.9588248415
  0
LINE
  5
482
100
AcDbEntity
  8
0
100
AcDbLine
 62
7
  6
CONTINUOUS
 10
133.609531481
 20
151.6568617039
 11
133.6812447487
 21
151.5331834416
  0
LINE
  5
483
100
AcDbEntity
  8
0
100
AcDbLine
 62
7
  6
CONTINUOUS
 10
133.8020469417
 20
151.6640947551
 11
133.766189703
 21
151.7259341528
  0
LINE
  5
484
100
AcDbEntity
  8
0
100
AcDbLine
 62
7
  6
CONTINUOUS
 10
130.8779256788
 20
153.003641265
 11
130.7858272604
 21
153.1719704285
  0
LINE
  5
485
100
AcDbEntity
  8
0
100
AcDbLine
 62
7
  6
CONTINUOUS
 10
132.2977156904
 20
153.2196890998
 11
132.2099551215
 21
153.3903197332
  0
LINE
  5
486
100
AcDbEntity
  8
0
100
AcDbLine
 62
7
  6
CONTINUOUS
 10
135.6946317595
 20
150.8137924397
 11
135.7595910426
 21
150.6864364444
  0
LINE
  5
487
100
AcDbEntity
  8
0
100
AcDbLine
 62
7
  6
CONTINUOUS
 10
136.2870775361
 20
150.5136747918
 11
136.222118253
 21
150.6410307871
  0
LINE
  5
488
100
AcDbEntity
  8
0
100
AcDbLine
 62
7
  6
CONTINUOUS
 10
134.1418268065
 20
152.4350977081
 11
134.0606788102
 21
152.608971007
  0
LINE
  5
489
100
AcDbEntity
  8
0
100
AcDbLine
 62
7
  6
CONTINUOUS
 10
137.4972611865
 20
149.9651355917
 11
137.4302120538
 21
150.144915884
  0
LINE
  5
48A
100
AcDbEntity
  8
0
100
AcDbLine
 62
7
  6
CONTINUOUS
 10
137.8119115463
 20
150.6091299331
 11
137.7448612503
 21
150.788910853
  0
LINE
  5
48B
100
AcDbEntity
  8
0
100
AcDbLine
 62
7
  6
CONTINUOUS
 10
157.8902115551
 20
127.4259891779
 11
157.8775522782
 21
127.5482787716
  0
LINE
  5
48C
100
AcDbEntity
  8
0
100
AcDbLine
 62
7
  6
CONTINUOUS
 10
159.3171072616
 20
127.8634658538
 11
159.3297665385
 21
127.7411762602
  0
LINE
  5
48D
100
AcDbEntity
  8
0
100
AcDbLine
 62
7
  6
CONTINUOUS
 10
159.5497833039
 20
123.5310268694
 11
159.5368060392
 21
123.6808614678
  0
LINE
  5
48E
100
AcDbEntity
  8
0
100
AcDbLine
 62
7
  6
CONTINUOUS
 10
161.0028511138
 20
124.0951302777
 11
161.0158283786
 21
123.9452956793
  0
LINE
  5
48F
100
AcDbEntity
  8
0
100
AcDbLine
 62
7
  6
CONTINUOUS
 10
158.0852981779
 20
128.999984228
 11
158.0826689631
 21
129.0962739841
  0
LINE
  5
490
100
AcDbEntity
  8
0
100
AcDbLine
 62
7
  6
CONTINUOUS
 10
158.6884463875
 20
129.1186300768
 11
158.6910755833
 21
129.0223403573
  0
LINE
  5
491
100
AcDbEntity
  8
RUNDUNGEN
100
AcDbLine
 62
7
  6
CONTINUOUS
 10
162.6053714489
 20
140.4934629693
 11
162.6053708053
 21
140.4935217267
  0
LINE
  5
492
100
AcDbEntity
  8
RUNDUNGEN
100
AcDbLine
 62
7
  6
CONTINUOUS
 10
169.9152015364
 20
120.603368795
 11
172.0862905372
 21
125.9235857325
  0
LINE
  5
493
100
AcDbEntity
  8
RUNDUNGEN
100
AcDbLine
 62
7
  6
CONTINUOUS
 10
140.3520251551
 20
49.310291855
 11
142.5787948698
 21
54.6074450741
  0
LINE
  5
494
100
AcDbEntity
  8
RUNDUNGEN
100
AcDbLine
 62
7
  6
CONTINUOUS
 10
142.7578985655
 20
54.9409550161
 11
142.5787838174
 21
54.6074484871
  0
LINE
  5
495
100
AcDbEntity
  8
RUNDUNGEN
100
AcDbLine
 62
7
  6
CONTINUOUS
 10
172.8502762587
 20
95.2165873172
 11
172.8503173514
 21
95.2166293201
  0
LINE
  5
496
100
AcDbEntity
  8
RUNDUNGEN
100
AcDbLine
 62
7
  6
CONTINUOUS
 10
163.9546862139
 20
75.9833364239
 11
169.2518394428
 21
78.2101061428
  0
LINE
  5
497
100
AcDbEntity
  8
RUNDUNGEN
100
AcDbLine
 62
7
  6
CONTINUOUS
 10
92.6385455653
 20
46.4758407606
 11
97.9587624928
 21
48.6469297573
  0
LINE
  5
498
100
AcDbEntity
  8
RUNDUNGEN
100
AcDbLine
 62
7
  6
CONTINUOUS
 10
98.3212350728
 20
48.7561114602
 11
97.9587570915
 21
48.6469399849
  0
LINE
  5
499
100
AcDbEntity
  8
0
100
AcDbLine
 62
7
  6
CONTINUOUS
 10
89.6734686907
 20
152.0079699602
 11
89.4220196326
 21
151.9501112032
  0
LINE
  5
49A
100
AcDbEntity
  8
0
100
AcDbLine
 62
7
  6
CONTINUOUS
 10
127.9590510531
 20
154.6127110376
 11
128.0542169247
 21
154.627613614
  0
LINE
  5
49B
100
AcDbEntity
  8
0
100
AcDbLine
 62
7
  6
CONTINUOUS
 10
93.2562868878
 20
150.52079271
 11
93.4652281748
 21
150.5412305126
  0
LINE
  5
49C
100
AcDbEntity
  8
0
100
AcDbLine
 62
7
  6
CONTINUOUS
 10
93.4561442806
 20
150.815284129
 11
93.2472027241
 21
150.7948462287
  0
LINE
  5
49D
100
AcDbEntity
  8
0
100
AcDbLine
 62
7
  6
CONTINUOUS
 10
93.0342255556
 20
152.3014697414
 11
93.2431671032
 21
152.3219076622
  0
LINE
  5
49E
100
AcDbEntity
  8
0
100
AcDbLine
 62
7
  6
CONTINUOUS
 10
93.2340829549
 20
152.595961145
 11
93.0251416702
 21
152.5755233373
  0
LINE
  5
49F
100
AcDbEntity
  8
0
100
AcDbLine
 62
7
  6
CONTINUOUS
 10
89.6127414682
 20
151.6893791649
 11
89.7753135506
 21
151.7014024257
  0
LINE
  5
4A0
100
AcDbEntity
  8
0
100
AcDbLine
 62
7
  6
CONTINUOUS
 10
127.9106939666
 20
153.1735238809
 11
127.7879198576
 21
153.1670802664
  0
LINE
  5
4A1
100
AcDbEntity
  8
0
100
AcDbLine
 62
7
  6
CONTINUOUS
 10
128.1282648301
 20
154.8692900955
 11
128.0054907211
 21
154.862846481
  0
LINE
  5
4A2
100
AcDbEntity
  8
0
100
AcDbLine
 62
7
  6
CONTINUOUS
 10
96.0291259955
 20
153.4729492888
 11
96.2389549741
 21
153.4797458414
  0
LINE
  5
4A3
100
AcDbEntity
  8
RUNDUNGEN
100
AcDbLine
 62
7
  6
CONTINUOUS
 10
78.0687053229
 20
155.0199043012
 11
78.0686625739
 21
155.0199035072
  0
LINE
  5
4A4
100
AcDbEntity
  8
0
100
AcDbLine
 62
7
  6
CONTINUOUS
 10
130.4254557059
 20
152.2720796842
 11
130.3025128913
 21
152.2722475262
  0
LINE
  5
4A5
100
AcDbEntity
  8
0
100
AcDbLine
 62
7
  6
CONTINUOUS
 10
130.3066794552
 20
153.1231531324
 11
130.4296225801
 21
153.1229851767
  0
LINE
  5
4A6
100
AcDbEntity
  8
0
100
AcDbLine
 62
7
  6
CONTINUOUS
 10
127.7138719436
 20
152.9254037567
 11
127.864254133
 21
152.9233884612
  0
LINE
  5
4A7
100
AcDbEntity
  8
0
100
AcDbLine
 62
7
  6
CONTINUOUS
 10
136.1280238259
 20
151.3498418768
 11
136.2243367573
 21
151.348276901
  0
LINE
  5
4A8
100
AcDbEntity
  8
0
100
AcDbLine
 62
7
  6
CONTINUOUS
 10
136.9447150604
 20
149.3058904162
 11
136.848474889
 21
149.3099474248
  0
LINE
  5
4A9
100
AcDbEntity
  8
0
100
AcDbLine
 62
7
  6
CONTINUOUS
 10
136.9744229822
 20
150.1514902977
 11
137.0706631536
 21
150.1474332892
  0
LINE
  5
4AA
100
AcDbEntity
  8
0
100
AcDbLine
 62
7
  6
CONTINUOUS
 10
137.3144851273
 20
150.7817740099
 11
137.4107252987
 21
150.7777170014
  0
LINE
  5
4AB
100
AcDbEntity
  8
0
100
AcDbLine
 62
7
  6
CONTINUOUS
 10
96.2948417161
 20
153.7705456425
 11
96.1321289506
 21
153.7804852966
  0
LINE
  5
4AC
100
AcDbEntity
  8
0
100
AcDbLine
 62
7
  6
CONTINUOUS
 10
133.3546965824
 20
151.0786094892
 11
133.2320157373
 21
151.0866375912
  0
LINE
  5
4AD
100
AcDbEntity
  8
0
100
AcDbLine
 62
7
  6
CONTINUOUS
 10
133.2924565232
 20
151.7965961704
 11
133.4151367635
 21
151.7885683348
  0
LINE
  5
4AE
100
AcDbEntity
  8
0
100
AcDbLine
 62
7
  6
CONTINUOUS
 10
133.7114654262
 20
151.8881625574
 11
133.5887845811
 21
151.8961906595
  0
LINE
  5
4AF
100
AcDbEntity
  8
0
100
AcDbLine
 62
7
  6
CONTINUOUS
 10
133.6322363881
 20
152.5675991234
 11
133.7549166284
 21
152.5595712878
  0
LINE
  5
4B0
100
AcDbEntity
  8
0
100
AcDbLine
 62
7
  6
CONTINUOUS
 10
130.230065431
 20
152.0744601154
 11
130.3801215005
 21
152.0643609756
  0
LINE
  5
4B1
100
AcDbEntity
  8
0
100
AcDbLine
 62
7
  6
CONTINUOUS
 10
130.5020700302
 20
153.3207725598
 11
130.3520136518
 21
153.3308718168
  0
LINE
  5
4B2
100
AcDbEntity
  8
0
100
AcDbLine
 62
7
  6
CONTINUOUS
 10
131.5632251417
 20
151.8339914733
 11
131.4134766375
 21
151.8479271026
  0
LINE
  5
4B3
100
AcDbEntity
  8
0
100
AcDbLine
 62
7
  6
CONTINUOUS
 10
131.837115997
 20
153.3112919552
 11
131.9868651158
 21
153.2973560828
  0
LINE
  5
4B4
100
AcDbEntity
  8
0
100
AcDbLine
 62
7
  6
CONTINUOUS
 10
135.8346480365
 20
149.9400446026
 11
135.7125770032
 21
149.9546579641
  0
LINE
  5
4B5
100
AcDbEntity
  8
0
100
AcDbLine
 62
7
  6
CONTINUOUS
 10
136.3385614368
 20
151.5737615714
 11
136.2164898139
 21
151.5883752315
  0
LINE
  5
4B6
100
AcDbEntity
  8
0
100
AcDbLine
 62
7
  6
CONTINUOUS
 10
133.1734938858
 20
150.8822422253
 11
133.3225972424
 21
150.8625697654
  0
LINE
  5
4B7
100
AcDbEntity
  8
0
100
AcDbLine
 62
7
  6
CONTINUOUS
 10
133.8398615827
 20
152.7523219991
 11
133.6907582277
 21
152.7719944624
  0
LINE
  5
4B8
100
AcDbEntity
  8
0
100
AcDbLine
 62
7
  6
CONTINUOUS
 10
131.3359917074
 20
151.65205832
 11
131.5125907629
 21
151.6275007208
  0
LINE
  5
4B9
100
AcDbEntity
  8
0
100
AcDbLine
 62
7
  6
CONTINUOUS
 10
132.0643500351
 20
153.4932248379
 11
131.8877509809
 21
153.5177824406
  0
LINE
  5
4BA
100
AcDbEntity
  8
0
100
AcDbLine
 62
7
  6
CONTINUOUS
 10
135.5983523104
 20
149.7291732673
 11
135.7461820368
 21
149.7015112249
  0
LINE
  5
4BB
100
AcDbEntity
  8
0
100
AcDbLine
 62
7
  6
CONTINUOUS
 10
136.7230448283
 20
149.1382804961
 11
136.8701097352
 21
149.1068016049
  0
LINE
  5
4BC
100
AcDbEntity
  8
0
100
AcDbLine
 62
7
  6
CONTINUOUS
 10
137.1960932003
 20
150.3191001919
 11
137.0490294584
 21
150.3505784587
  0
LINE
  5
4BD
100
AcDbEntity
  8
0
100
AcDbLine
 62
7
  6
CONTINUOUS
 10
137.5361553454
 20
150.9493839041
 11
137.3890916035
 21
150.9808621709
  0
LINE
  5
4BE
100
AcDbEntity
  8
0
100
AcDbLine
 62
7
  6
CONTINUOUS
 10
125.8832237416
 20
153.454841894
 11
126.8846664604
 21
153.1761436145
  0
LINE
  5
4BF
100
AcDbEntity
  8
0
100
AcDbLine
 62
7
  6
CONTINUOUS
 10
126.9524350388
 20
153.4196555212
 11
126.1178994398
 21
153.6519040874
  0
LINE
  5
4C0
100
AcDbEntity
  8
0
100
AcDbLine
 62
7
  6
CONTINUOUS
 10
127.4930065187
 20
152.9930753066
 11
127.7138719436
 21
152.9254037567
  0
LINE
  5
4C1
100
AcDbEntity
  8
0
100
AcDbLine
 62
7
  6
CONTINUOUS
 10
127.7879198576
 20
153.1670802664
 11
127.5670544327
 21
153.2347518163
  0
LINE
  5
4C2
100
AcDbEntity
  8
0
100
AcDbLine
 62
7
  6
CONTINUOUS
 10
127.4325780815
 20
153.584379338
 11
127.2669290524
 21
153.6351329883
  0
LINE
  5
4C3
100
AcDbEntity
  8
0
100
AcDbLine
 62
7
  6
CONTINUOUS
 10
127.8073905388
 20
153.8220252294
 11
127.973039647
 21
153.7712715548
  0
LINE
  5
4C4
100
AcDbEntity
  8
0
100
AcDbLine
 62
7
  6
CONTINUOUS
 10
130.067385289
 20
152.1340481502
 11
130.230065431
 21
152.0744601154
  0
LINE
  5
4C5
100
AcDbEntity
  8
0
100
AcDbLine
 62
7
  6
CONTINUOUS
 10
130.3025128913
 20
152.2722475262
 11
130.1398327493
 21
152.3318355611
  0
LINE
  5
4C6
100
AcDbEntity
  8
0
100
AcDbLine
 62
7
  6
CONTINUOUS
 10
129.9972389765
 20
152.6981199774
 11
129.8345588345
 21
152.7577080122
  0
LINE
  5
4C7
100
AcDbEntity
  8
0
100
AcDbLine
 62
7
  6
CONTINUOUS
 10
129.964964265
 20
153.1137253572
 11
130.1547576606
 21
153.0442060212
  0
LINE
  5
4C8
100
AcDbEntity
  8
RUNDUNGEN
100
AcDbLine
 62
7
  6
CONTINUOUS
 10
97.9587624707
 20
162.3297324009
 11
92.6385455653
 21
164.5008213886
  0
LINE
  5
4C9
100
AcDbEntity
  8
0
100
AcDbLine
 62
7
  6
CONTINUOUS
 10
132.3088992275
 20
152.0317203398
 11
132.6817605538
 21
151.8755399449
  0
LINE
  5
4CA
100
AcDbEntity
  8
0
100
AcDbLine
 62
7
  6
CONTINUOUS
 10
132.7631398878
 20
152.0698230136
 11
132.3902785615
 21
152.2260034085
  0
LINE
  5
4CB
100
AcDbEntity
  8
RUNDUNGEN
100
AcDbLine
 62
7
  6
CONTINUOUS
 10
169.2518394428
 20
132.7665560065
 11
163.9546862237
 21
134.9933257212
  0
LINE
  5
4CC
100
AcDbEntity
  8
0
100
AcDbLine
 62
7
  6
CONTINUOUS
 10
133.0149564069
 20
150.9521094585
 11
133.1734938858
 21
150.8822422253
  0
LINE
  5
4CD
100
AcDbEntity
  8
0
100
AcDbLine
 62
7
  6
CONTINUOUS
 10
133.2320157373
 20
151.0866375912
 11
133.1263238831
 21
151.1332158356
  0
LINE
  5
4CE
100
AcDbEntity
  8
0
100
AcDbLine
 62
7
  6
CONTINUOUS
 10
133.4151367635
 20
151.7885683348
 11
133.5208286177
 21
151.7419900905
  0
LINE
  5
4CF
100
AcDbEntity
  8
0
100
AcDbLine
 62
7
  6
CONTINUOUS
 10
135.3922839578
 20
149.8335621443
 11
135.5983523104
 21
149.7291732673
  0
LINE
  5
4D0
100
AcDbEntity
  8
0
100
AcDbLine
 62
7
  6
CONTINUOUS
 10
135.7125770032
 20
149.9546579641
 11
135.5065086507
 21
150.059046841
  0
LINE
  5
4D1
100
AcDbEntity
  8
0
100
AcDbLine
 62
7
  6
CONTINUOUS
 10
135.4337030271
 20
150.4265008945
 11
135.2791520575
 21
150.5047924029
  0
LINE
  5
4D2
100
AcDbEntity
  8
0
100
AcDbLine
 62
7
  6
CONTINUOUS
 10
135.8435877723
 20
150.5966612275
 11
135.9981387419
 21
150.5183697191
  0
LINE
  5
4D3
100
AcDbEntity
  8
RUNDUNGEN
100
AcDbLine
 62
7
  6
CONTINUOUS
 10
163.6211762818
 20
135.1724294169
 11
163.9546828107
 21
134.9933146688
  0
LINE
  5
4D4
100
AcDbEntity
  8
0
100
AcDbLine
 62
7
  6
CONTINUOUS
 10
136.5959835754
 20
149.2068348969
 11
136.7230448283
 21
149.1382804961
  0
LINE
  5
4D5
100
AcDbEntity
  8
0
100
AcDbLine
 62
7
  6
CONTINUOUS
 10
136.848474889
 20
149.3099474248
 11
136.6705900656
 21
149.4059230838
  0
LINE
  5
4D6
100
AcDbEntity
  8
0
100
AcDbLine
 62
7
  6
CONTINUOUS
 10
137.3048302812
 20
148.8179946354
 11
137.4307365821
 21
148.7473441607
  0
LINE
  5
4D7
100
AcDbEntity
  8
0
100
AcDbLine
 62
7
  6
CONTINUOUS
 10
137.5338138939
 20
148.931038369
 11
137.407907593
 21
149.0016888438
  0
LINE
  5
4D8
100
AcDbEntity
  8
0
100
AcDbLine
 62
7
  6
CONTINUOUS
 10
137.782151637
 20
148.5475312693
 11
137.9324195357
 21
148.4613041209
  0
LINE
  5
4D9
100
AcDbEntity
  8
0
100
AcDbLine
 62
7
  6
CONTINUOUS
 10
127.3673068086
 20
153.0756494848
 11
127.4930065187
 21
152.9930753066
  0
LINE
  5
4DA
100
AcDbEntity
  8
0
100
AcDbLine
 62
7
  6
CONTINUOUS
 10
128.1727871056
 20
153.9303739101
 11
128.0470875523
 21
154.0129480364
  0
LINE
  5
4DB
100
AcDbEntity
  8
0
100
AcDbLine
 62
7
  6
CONTINUOUS
 10
128.392005412
 20
154.7444212082
 11
128.2663057008
 21
154.8269953828
  0
LINE
  5
4DC
100
AcDbEntity
  8
0
100
AcDbLine
 62
7
  6
CONTINUOUS
 10
131.1903866223
 20
151.7549634282
 11
131.3359917074
 21
151.65205832
  0
LINE
  5
4DD
100
AcDbEntity
  8
0
100
AcDbLine
 62
7
  6
CONTINUOUS
 10
132.2099551215
 20
153.3903197332
 11
132.0643500351
 21
153.4932248379
  0
LINE
  5
4DE
100
AcDbEntity
  8
0
100
AcDbLine
 62
7
  6
CONTINUOUS
 10
129.9463078918
 20
152.2232623639
 11
130.067385289
 21
152.1340481502
  0
LINE
  5
4DF
100
AcDbEntity
  8
0
100
AcDbLine
 62
7
  6
CONTINUOUS
 10
130.7858272604
 20
153.1719704285
 11
130.6647501722
 21
153.261184525
  0
LINE
  5
4E0
100
AcDbEntity
  8
0
100
AcDbLine
 62
7
  6
CONTINUOUS
 10
158.5310863242
 20
129.3296930185
 11
158.6084517485
 21
129.2723064257
  0
LINE
  5
4E1
100
AcDbEntity
  8
0
100
AcDbLine
 62
7
  6
CONTINUOUS
 10
127.5670544327
 20
153.2347518163
 11
127.4689629589
 21
153.3088670291
  0
LINE
  5
4E2
100
AcDbEntity
  8
0
100
AcDbLine
 62
7
  6
CONTINUOUS
 10
127.709299065
 20
153.8961404421
 11
127.8073905388
 21
153.8220252294
  0
LINE
  5
4E3
100
AcDbEntity
  8
0
100
AcDbLine
 62
7
  6
CONTINUOUS
 10
127.973039647
 20
153.7712715548
 11
128.0711311208
 21
153.6971563421
  0
LINE
  5
4E4
100
AcDbEntity
  8
0
100
AcDbLine
 62
7
  6
CONTINUOUS
 10
131.4134766375
 20
151.8479271026
 11
131.2947214864
 21
151.9402104771
  0
LINE
  5
4E5
100
AcDbEntity
  8
0
100
AcDbLine
 62
7
  6
CONTINUOUS
 10
131.9868651158
 20
153.2973560828
 11
132.1056196524
 21
153.2050729514
  0
LINE
  5
4E6
100
AcDbEntity
  8
0
100
AcDbLine
 62
7
  6
CONTINUOUS
 10
157.8650632493
 20
126.9962888597
 11
157.9408484982
 21
126.9368310909
  0
LINE
  5
4E7
100
AcDbEntity
  8
0
100
AcDbLine
 62
7
  6
CONTINUOUS
 10
158.0670762031
 20
127.1588202404
 11
157.9912909576
 21
127.2182780108
  0
LINE
  5
4E8
100
AcDbEntity
  8
0
100
AcDbLine
 62
7
  6
CONTINUOUS
 10
132.8998304304
 20
151.0488824762
 11
133.0149564069
 21
150.9521094585
  0
LINE
  5
4E9
100
AcDbEntity
  8
0
100
AcDbLine
 62
7
  6
CONTINUOUS
 10
134.0606788102
 20
152.608971007
 11
133.9455534369
 21
152.7057437548
  0
LINE
  5
4EA
100
AcDbEntity
  8
0
100
AcDbLine
 62
7
  6
CONTINUOUS
 10
130.1398327493
 20
152.3318355611
 11
130.0458686044
 21
152.41111847
  0
LINE
  5
4EB
100
AcDbEntity
  8
0
100
AcDbLine
 62
7
  6
CONTINUOUS
 10
130.5923027221
 20
153.0633971419
 11
130.6862665567
 21
152.9841143466
  0
LINE
  5
4EC
100
AcDbEntity
  8
0
100
AcDbLine
 62
7
  6
CONTINUOUS
 10
157.4712604102
 20
128.3548252936
 11
157.3805625397
 21
128.4378246234
  0
LINE
  5
4ED
100
AcDbEntity
  8
0
100
AcDbLine
 62
7
  6
CONTINUOUS
 10
158.8326603767
 20
129.3890159156
 11
158.7419625062
 21
129.4720152454
  0
LINE
  5
4EE
100
AcDbEntity
  8
0
100
AcDbLine
 62
7
  6
CONTINUOUS
 10
127.8814384442
 20
154.0637017109
 11
127.8109552077
 21
154.1293579618
  0
LINE
  5
4EF
100
AcDbEntity
  8
0
100
AcDbLine
 62
7
  6
CONTINUOUS
 10
128.2198660328
 20
154.5768599394
 11
128.2903492693
 21
154.5112036886
  0
LINE
  5
4F0
100
AcDbEntity
  8
0
100
AcDbLine
 62
7
  6
CONTINUOUS
 10
135.2825291279
 20
149.9363857501
 11
135.3922839578
 21
149.8335621443
  0
LINE
  5
4F1
100
AcDbEntity
  8
0
100
AcDbLine
 62
7
  6
CONTINUOUS
 10
136.222118253
 20
150.6410307871
 11
136.1123634214
 21
150.7438543896
  0
LINE
  5
4F2
100
AcDbEntity
  8
0
100
AcDbLine
 62
7
  6
CONTINUOUS
 10
136.5771085465
 20
151.4056951448
 11
136.467353715
 21
151.5085187473
  0
LINE
  5
4F3
100
AcDbEntity
  8
0
100
AcDbLine
 62
7
  6
CONTINUOUS
 10
133.1263238831
 20
151.1332158356
 11
133.0376216246
 21
151.2183439557
  0
LINE
  5
4F4
100
AcDbEntity
  8
0
100
AcDbLine
 62
7
  6
CONTINUOUS
 10
133.5208286177
 20
151.7419900905
 11
133.609531481
 21
151.6568617039
  0
LINE
  5
4F5
100
AcDbEntity
  8
0
100
AcDbLine
 62
7
  6
CONTINUOUS
 10
133.483092727
 20
151.9427689038
 11
133.3943904684
 21
152.0278970239
  0
LINE
  5
4F6
100
AcDbEntity
  8
0
100
AcDbLine
 62
7
  6
CONTINUOUS
 10
133.8606084826
 20
152.5129930435
 11
133.9493113459
 21
152.4278646569
  0
LINE
  5
4F7
100
AcDbEntity
  8
0
100
AcDbLine
 62
7
  6
CONTINUOUS
 10
159.1276076612
 20
128.156598743
 11
159.2160278591
 21
128.0711770209
  0
LINE
  5
4F8
100
AcDbEntity
  8
RUNDUNGEN
100
AcDbLine
 62
7
  6
CONTINUOUS
 10
123.3455476775
 20
165.264803687
 11
123.3455064211
 21
165.2648440593
  0
LINE
  5
4F9
100
AcDbEntity
  8
0
100
AcDbLine
 62
7
  6
CONTINUOUS
 10
136.4889271398
 20
149.3124641796
 11
136.5959835754
 21
149.2068348969
  0
LINE
  5
4FA
100
AcDbEntity
  8
0
100
AcDbLine
 62
7
  6
CONTINUOUS
 10
137.4302120538
 20
150.144915884
 11
137.3231544532
 21
150.2505457912
  0
LINE
  5
4FB
100
AcDbEntity
  8
0
100
AcDbLine
 62
7
  6
CONTINUOUS
 10
137.7448612503
 20
150.788910853
 11
137.637804813
 21
150.8945401325
  0
LINE
  5
4FC
100
AcDbEntity
  8
0
100
AcDbLine
 62
7
  6
CONTINUOUS
 10
157.1563538853
 20
128.3211151199
 11
157.2603841862
 21
128.2125030914
  0
LINE
  5
4FD
100
AcDbEntity
  8
0
100
AcDbLine
 62
7
  6
CONTINUOUS
 10
135.5065086507
 20
150.059046841
 11
135.4225125105
 21
150.1488217593
  0
LINE
  5
4FE
100
AcDbEntity
  8
0
100
AcDbLine
 62
7
  6
CONTINUOUS
 10
135.7595910426
 20
150.6864364444
 11
135.8435877723
 21
150.5966612275
  0
LINE
  5
4FF
100
AcDbEntity
  8
0
100
AcDbLine
 62
7
  6
CONTINUOUS
 10
135.9981387419
 20
150.5183697191
 11
136.0821348821
 21
150.4285948009
  0
LINE
  5
500
100
AcDbEntity
  8
0
100
AcDbLine
 62
7
  6
CONTINUOUS
 10
157.764008168
 20
127.1076743832
 11
157.8650632493
 21
126.9962888597
  0
LINE
  5
501
100
AcDbEntity
  8
0
100
AcDbLine
 62
7
  6
CONTINUOUS
 10
159.4433106222
 20
128.1817806357
 11
159.3422554719
 21
128.2931663093
  0
LINE
  5
502
100
AcDbEntity
  8
0
100
AcDbLine
 62
7
  6
CONTINUOUS
 10
159.6413047642
 20
123.411684343
 11
159.5497833039
 21
123.5310268694
  0
LINE
  5
503
100
AcDbEntity
  8
0
100
AcDbLine
 62
7
  6
CONTINUOUS
 10
160.9113296535
 20
124.2144728041
 11
161.0028511138
 21
124.0951302777
  0
LINE
  5
504
100
AcDbEntity
  8
0
100
AcDbLine
 62
7
  6
CONTINUOUS
 10
135.9578124518
 20
150.822145898
 11
135.8995744136
 21
150.8988724306
  0
LINE
  5
505
100
AcDbEntity
  8
0
100
AcDbLine
 62
7
  6
CONTINUOUS
 10
136.3788877269
 20
151.2699853926
 11
136.4371257651
 21
151.19325886
  0
LINE
  5
506
100
AcDbEntity
  8
0
100
AcDbLine
 62
7
  6
CONTINUOUS
 10
136.6705900656
 20
149.4059230838
 11
136.6143571988
 21
149.4841311051
  0
LINE
  5
507
100
AcDbEntity
  8
0
100
AcDbLine
 62
7
  6
CONTINUOUS
 10
137.248547977
 20
150.0514576302
 11
137.3047808438
 21
149.9732496089
  0
LINE
  5
508
100
AcDbEntity
  8
0
100
AcDbLine
 62
7
  6
CONTINUOUS
 10
137.5631983368
 20
150.6954519715
 11
137.6194312036
 21
150.6172439502
  0
LINE
  5
509
100
AcDbEntity
  8
0
100
AcDbLine
 62
7
  6
CONTINUOUS
 10
159.3534227876
 20
123.4547966785
 11
159.4553942195
 21
123.3085361945
  0
LINE
  5
50A
100
AcDbEntity
  8
0
100
AcDbLine
 62
7
  6
CONTINUOUS
 10
161.1992116027
 20
124.171360458
 11
161.0972401742
 21
124.3176209432
  0
LINE
  5
50B
100
AcDbEntity
  8
0
100
AcDbLine
 62
7
  6
CONTINUOUS
 10
157.0496943538
 20
128.5260169429
 11
157.1563538853
 21
128.3211151199
  0
LINE
  5
50C
100
AcDbEntity
  8
0
100
AcDbLine
 62
7
  6
CONTINUOUS
 10
157.3805625397
 20
128.4378246234
 11
157.2739030082
 21
128.6427264464
  0
LINE
  5
50D
100
AcDbEntity
  8
0
100
AcDbLine
 62
7
  6
CONTINUOUS
 10
157.4288202549
 20
128.983789318
 11
157.3488256158
 21
129.1374656669
  0
LINE
  5
50E
100
AcDbEntity
  8
0
100
AcDbLine
 62
7
  6
CONTINUOUS
 10
157.8610895497
 20
128.8832747381
 11
157.9410841888
 21
128.7295983891
  0
LINE
  5
50F
100
AcDbEntity
  8
0
100
AcDbLine
 62
7
  6
CONTINUOUS
 10
157.6629287654
 20
127.3153855503
 11
157.764008168
 21
127.1076743832
  0
LINE
  5
510
100
AcDbEntity
  8
0
100
AcDbLine
 62
7
  6
CONTINUOUS
 10
157.8903574753
 20
126.8480353129
 11
157.9661670453
 21
126.6922519004
  0
LINE
  5
511
100
AcDbEntity
  8
0
100
AcDbLine
 62
7
  6
CONTINUOUS
 10
157.9912909576
 20
127.2182780108
 11
157.8902115551
 21
127.4259891779
  0
LINE
  5
512
100
AcDbEntity
  8
0
100
AcDbLine
 62
7
  6
CONTINUOUS
 10
158.2691134847
 20
127.2250259806
 11
158.1933039147
 21
127.3808093931
  0
LINE
  5
513
100
AcDbEntity
  8
RUNDUNGEN
100
AcDbLine
 62
7
  6
CONTINUOUS
 10
142.5787948739
 20
156.3692170653
 11
140.3520251551
 21
161.6663702942
  0
LINE
  5
514
100
AcDbEntity
  8
0
100
AcDbLine
 62
7
  6
CONTINUOUS
 10
158.9008869403
 20
124.57992122
 11
158.9678844415
 21
124.4201498292
  0
LINE
  5
515
100
AcDbEntity
  8
0
100
AcDbLine
 62
7
  6
CONTINUOUS
 10
159.1767995324
 20
125.4470833788
 11
159.4447895371
 21
124.8079978154
  0
LINE
  5
516
100
AcDbEntity
  8
0
100
AcDbLine
 62
7
  6
CONTINUOUS
 10
159.5117870382
 20
124.6482264245
 11
159.6234494976
 21
124.3819408747
  0
LINE
  5
517
100
AcDbEntity
  8
0
100
AcDbLine
 62
7
  6
CONTINUOUS
 10
159.8565506416
 20
124.479688
 11
159.7448881822
 21
124.7459735499
  0
LINE
  5
518
100
AcDbEntity
  8
0
100
AcDbLine
 62
7
  6
CONTINUOUS
 10
159.6778906811
 20
124.9057449407
 11
159.4880643852
 21
125.3584306497
  0
LINE
  5
519
100
AcDbEntity
  8
RUNDUNGEN
100
AcDbLine
 62
7
  6
CONTINUOUS
 10
172.0862905372
 20
85.0530764167
 11
169.9152015404
 21
90.3732933444
  0
LINE
  5
51A
100
AcDbEntity
  8
0
100
AcDbLine
 62
7
  6
CONTINUOUS
 10
159.6243681305
 20
122.7545474379
 11
159.6823447364
 21
122.5912860656
  0
LINE
  5
51B
100
AcDbEntity
  8
0
100
AcDbLine
 62
7
  6
CONTINUOUS
 10
159.8176236308
 20
122.2103424484
 11
159.8949256982
 21
121.9926608264
  0
LINE
  5
51C
100
AcDbEntity
  8
0
100
AcDbLine
 62
7
  6
CONTINUOUS
 10
160.0302043714
 20
121.611717832
 11
160.0881809773
 21
121.4484564597
  0
LINE
  5
51D
100
AcDbEntity
  8
0
100
AcDbLine
 62
7
  6
CONTINUOUS
 10
160.161963916
 20
121.2294377713
 11
160.2145930508
 21
121.0643749448
  0
LINE
  5
51E
100
AcDbEntity
  8
0
100
AcDbLine
 62
7
  6
CONTINUOUS
 10
160.3373942983
 20
120.6792285597
 11
160.4075664111
 21
120.459145001
  0
LINE
  5
51F
100
AcDbEntity
  8
0
100
AcDbLine
 62
7
  6
CONTINUOUS
 10
160.5303678593
 20
120.0739979862
 11
160.5829969941
 21
119.9089351597
  0
LINE
  5
520
100
AcDbEntity
  8
RUNDUNGEN
100
AcDbLine
 62
7
  6
CONTINUOUS
 10
169.8060198366
 20
90.7357659237
 11
169.9151913118
 21
90.3732879425
  0
LINE
  5
521
100
AcDbEntity
  8
0
100
AcDbLine
 62
7
  6
CONTINUOUS
 10
157.0204002689
 20
128.6735321381
 11
157.0496943538
 21
128.5260169429
  0
LINE
  5
522
100
AcDbEntity
  8
0
100
AcDbLine
 62
7
  6
CONTINUOUS
 10
158.1945869052
 20
128.6987926855
 11
158.165292817
 21
128.8463078791
  0
LINE
  5
523
100
AcDbEntity
  8
0
100
AcDbLine
 62
7
  6
CONTINUOUS
 10
158.9286166768
 20
129.1134370735
 11
158.8993225696
 21
129.2609523037
  0
LINE
  5
524
100
AcDbEntity
  8
0
100
AcDbLine
 62
7
  6
CONTINUOUS
 10
157.6376345394
 20
127.4636390971
 11
157.6629287654
 21
127.3153855503
  0
LINE
  5
525
100
AcDbEntity
  8
0
100
AcDbLine
 62
7
  6
CONTINUOUS
 10
159.5696841818
 20
127.8258160719
 11
159.5443900248
 21
127.9740694686
  0
LINE
  5
526
100
AcDbEntity
  8
0
100
AcDbLine
 62
7
  6
CONTINUOUS
 10
159.3299955581
 20
123.6315492372
 11
159.3534227876
 21
123.4547966785
  0
LINE
  5
527
100
AcDbEntity
  8
0
100
AcDbLine
 62
7
  6
CONTINUOUS
 10
161.2226388356
 20
123.9946079006
 11
161.1992116027
 21
124.171360458
  0
LINE
  5
528
100
AcDbEntity
  8
0
100
AcDbLine
 62
7
  6
CONTINUOUS
 10
157.2739030082
 20
128.6427264464
 11
157.2579413567
 21
128.7646289213
  0
LINE
  5
529
100
AcDbEntity
  8
0
100
AcDbLine
 62
7
  6
CONTINUOUS
 10
157.8451278886
 20
129.0051772312
 11
157.8610895497
 21
128.8832747381
  0
LINE
  5
52A
100
AcDbEntity
  8
0
100
AcDbLine
 62
7
  6
CONTINUOUS
 10
157.9410841888
 20
128.7295983891
 11
157.9570458498
 21
128.607695896
  0
LINE
  5
52B
100
AcDbEntity
  8
RUNDUNGEN
100
AcDbLine
 62
7
  6
CONTINUOUS
 10
169.7672130169
 20
91.1123539671
 11
169.8060198366
 21
90.7357659237
  0
LINE
  5
52C
100
AcDbEntity
  8
RUNDUNGEN
100
AcDbLine
 62
7
  6
CONTINUOUS
 10
162.6053889327
 20
140.4930023728
 11
162.7354855944
 21
136.7653800047
  0
LINE
  5
52D
100
AcDbEntity
  8
RUNDUNGEN
100
AcDbLine
 62
7
  6
CONTINUOUS
 10
162.7354855945
 20
74.2112821455
 11
162.6053846071
 21
70.4835358366
  0
LWPOLYLINE
  5
52E
100
AcDbEntity
  8
RUNDUNGEN
100
AcDbPolyline
 62
7
  6
CONTINUOUS
 90
3
 70
0
 10
165.5362460637
 20
103.2383310746
 10
165.5333682643
 20
103.2187581747
 10
165.4080017629
 20
102.4321529987
  0
LINE
  5
52F
100
AcDbEntity
  8
RUNDUNGEN
100
AcDbLine
 62
7
  6
CONTINUOUS
 10
165.4080017629
 20
102.4321529987
 11
165.3778616234
 21
102.2383310746
  0
LWPOLYLINE
  5
530
100
AcDbEntity
  8
RUNDUNGEN
100
AcDbPolyline
 62
7
  6
CONTINUOUS
 90
3
 70
0
 10
151.7613416923
 20
69.9827701208
 10
151.772791741
 20
69.9989032088
 10
152.2416053886
 20
70.642858352
  0
LINE
  5
531
100
AcDbEntity
  8
RUNDUNGEN
100
AcDbLine
 62
7
  6
CONTINUOUS
 10
152.2416053886
 20
70.642858352
 11
152.3564537617
 21
70.8018716138
  0
LINE
  5
532
100
AcDbEntity
  8
RUNDUNGEN
100
AcDbLine
 62
7
  6
CONTINUOUS
 10
170.3052045204
 20
92.4921124536
 11
170.0740736708
 21
92.1920217819
  0
LINE
  5
533
100
AcDbEntity
  8
RUNDUNGEN
100
AcDbLine
 62
7
  6
CONTINUOUS
 10
142.9967459593
 20
55.2346835407
 11
142.7578985655
 21
54.9409550161
  0
LINE
  5
534
100
AcDbEntity
  8
RUNDUNGEN
100
AcDbLine
 62
7
  6
CONTINUOUS
 10
172.8499629308
 20
95.2162492634
 11
170.3061281083
 21
92.4884299774
  0
LINE
  5
535
100
AcDbEntity
  8
RUNDUNGEN
100
AcDbLine
 62
7
  6
CONTINUOUS
 10
126.0737013211
 20
48.2560031902
 11
123.3457913372
 21
45.712083787
  0
LWPOLYLINE
  5
536
100
AcDbEntity
  8
RUNDUNGEN
100
AcDbPolyline
 62
7
  6
CONTINUOUS
 90
3
 70
0
 10
148.579361177
 20
66.8007896055
 10
148.5634861352
 20
66.7889843867
 10
147.9186247779
 20
66.3214180359
  0
LINE
  5
537
100
AcDbEntity
  8
RUNDUNGEN
100
AcDbLine
 62
7
  6
CONTINUOUS
 10
147.9186247779
 20
66.3214180359
 11
147.760259684
 21
66.2056775361
  0
LWPOLYLINE
  5
538
100
AcDbEntity
  8
RUNDUNGEN
100
AcDbPolyline
 62
7
  6
CONTINUOUS
 90
3
 70
0
 10
110.8238002232
 20
157.9507769151
 10
110.8042960002
 20
157.9474655063
 10
110.0174496424
 20
157.8236217671
  0
LINE
  5
539
100
AcDbEntity
  8
RUNDUNGEN
100
AcDbLine
 62
7
  6
CONTINUOUS
 10
110.0174496424
 20
157.8236217671
 11
109.8238002232
 21
157.7923924748
  0
LINE
  5
53A
100
AcDbEntity
  8
RUNDUNGEN
100
AcDbLine
 62
7
  6
CONTINUOUS
 10
81.7948004754
 20
155.1467591562
 11
82.1704307184
 21
155.1955212871
  0
LINE
  5
53B
100
AcDbEntity
  8
RUNDUNGEN
100
AcDbLine
 62
7
  6
CONTINUOUS
 10
127.4497773308
 20
162.1817438683
 11
127.8263653742
 21
162.220550688
  0
LINE
  5
53C
100
AcDbEntity
  8
RUNDUNGEN
100
AcDbLine
 62
7
  6
CONTINUOUS
 10
81.7967510424
 20
155.1500164371
 11
78.0690274395
 21
155.0199162422
  0
LINE
  5
53D
100
AcDbEntity
  8
RUNDUNGEN
100
AcDbLine
 62
7
  6
CONTINUOUS
 10
144.3508491523
 20
155.1500164459
 11
148.0785954612
 21
155.0199154585
  0
LWPOLYLINE
  5
53E
100
AcDbEntity
  8
RUNDUNGEN
100
AcDbPolyline
 62
7
  6
CONTINUOUS
 90
3
 70
0
 10
115.3238002232
 20
157.9507769151
 10
115.3433731232
 20
157.9478991157
 10
116.1299782992
 20
157.8225326143
  0
LINE
  5
53F
100
AcDbEntity
  8
RUNDUNGEN
100
AcDbLine
 62
7
  6
CONTINUOUS
 10
116.1299782992
 20
157.8225326143
 11
116.3238002232
 21
157.7923924748
  0
LINE
  5
540
100
AcDbEntity
  8
0
100
AcDbLine
 62
7
  6
CONTINUOUS
 10
126.5809847271
 20
155.3159021213
 11
126.4140776073
 21
155.3623518345
  0
LINE
  5
541
100
AcDbEntity
  8
0
100
AcDbLine
 62
7
  6
CONTINUOUS
 10
128.0470875523
 20
154.0129480364
 11
127.8814384442
 21
154.0637017109
  0
LINE
  5
542
100
AcDbEntity
  8
0
100
AcDbLine
 62
7
  6
CONTINUOUS
 10
128.3238085531
 20
154.324709197
 11
128.4894576612
 21
154.2739555224
  0
LINE
  5
543
100
AcDbEntity
  8
0
100
AcDbLine
 62
7
  6
CONTINUOUS
 10
128.0542169247
 20
154.627613614
 11
128.2198660328
 21
154.5768599394
  0
LINE
  5
544
100
AcDbEntity
  8
0
100
AcDbLine
 62
7
  6
CONTINUOUS
 10
128.2663057008
 20
154.8269953828
 11
128.1282648301
 21
154.8692900955
  0
LINE
  5
545
100
AcDbEntity
  8
0
100
AcDbLine
 62
7
  6
CONTINUOUS
 10
130.4296225801
 20
153.1229851767
 11
130.5923027221
 21
153.0633971419
  0
LINE
  5
546
100
AcDbEntity
  8
0
100
AcDbLine
 62
7
  6
CONTINUOUS
 10
130.6647501722
 20
153.261184525
 11
130.5020700302
 21
153.3207725598
  0
LINE
  5
547
100
AcDbEntity
  8
0
100
AcDbLine
 62
7
  6
CONTINUOUS
 10
130.4048101742
 20
153.8947758573
 11
131.1910976307
 21
153.6067669844
  0
LINE
  5
548
100
AcDbEntity
  8
0
100
AcDbLine
 62
7
  6
CONTINUOUS
 10
131.2635450808
 20
153.8045543676
 11
130.3416910461
 21
154.1422198603
  0
LINE
  5
549
100
AcDbEntity
  8
0
100
AcDbLine
 62
7
  6
CONTINUOUS
 10
133.5887845811
 20
151.8961906595
 11
133.483092727
 21
151.9427689038
  0
LINE
  5
54A
100
AcDbEntity
  8
0
100
AcDbLine
 62
7
  6
CONTINUOUS
 10
133.7549166284
 20
152.5595712878
 11
133.8606084826
 21
152.5129930435
  0
LINE
  5
54B
100
AcDbEntity
  8
0
100
AcDbLine
 62
7
  6
CONTINUOUS
 10
133.9455534369
 20
152.7057437548
 11
133.8398615827
 21
152.7523219991
  0
LINE
  5
54C
100
AcDbEntity
  8
0
100
AcDbLine
 62
7
  6
CONTINUOUS
 10
136.1123634214
 20
150.7438543896
 11
135.9578124518
 21
150.822145898
  0
LINE
  5
54D
100
AcDbEntity
  8
0
100
AcDbLine
 62
7
  6
CONTINUOUS
 10
136.4382514636
 20
151.0037899921
 11
136.5928024333
 21
150.9254984837
  0
LINE
  5
54E
100
AcDbEntity
  8
0
100
AcDbLine
 62
7
  6
CONTINUOUS
 10
136.2243367573
 20
151.348276901
 11
136.3788877269
 21
151.2699853926
  0
LINE
  5
54F
100
AcDbEntity
  8
0
100
AcDbLine
 62
7
  6
CONTINUOUS
 10
136.467353715
 20
151.5085187473
 11
136.3385614368
 21
151.5737615714
  0
LINE
  5
550
100
AcDbEntity
  8
0
100
AcDbLine
 62
7
  6
CONTINUOUS
 10
137.0706631536
 20
150.1474332892
 11
137.248547977
 21
150.0514576302
  0
LINE
  5
551
100
AcDbEntity
  8
0
100
AcDbLine
 62
7
  6
CONTINUOUS
 10
137.3231544532
 20
150.2505457912
 11
137.1960932003
 21
150.3191001919
  0
LINE
  5
552
100
AcDbEntity
  8
0
100
AcDbLine
 62
7
  6
CONTINUOUS
 10
137.646474195
 20
150.3633120175
 11
137.7735342846
 21
150.2947582444
  0
LINE
  5
553
100
AcDbEntity
  8
0
100
AcDbLine
 62
7
  6
CONTINUOUS
 10
137.4107252987
 20
150.7777170014
 11
137.5631983368
 21
150.6954519715
  0
LINE
  5
554
100
AcDbEntity
  8
0
100
AcDbLine
 62
7
  6
CONTINUOUS
 10
137.637804813
 20
150.8945401325
 11
137.5361553454
 21
150.9493839041
  0
LINE
  5
555
100
AcDbEntity
  8
0
100
AcDbLine
 62
7
  6
CONTINUOUS
 10
138.9178726607
 20
150.1786515343
 11
138.767604762
 21
150.2648786828
  0
LWPOLYLINE
  5
556
100
AcDbEntity
  8
RUNDUNGEN
100
AcDbPolyline
 62
7
  6
CONTINUOUS
 90
3
 70
0
 10
148.579361177
 20
144.1758725437
 10
148.563228089
 20
144.1873225924
 10
147.9192729459
 20
144.65613624
  0
LINE
  5
557
100
AcDbEntity
  8
RUNDUNGEN
100
AcDbLine
 62
7
  6
CONTINUOUS
 10
147.9192729459
 20
144.65613624
 11
147.760259684
 21
144.7709846131
  0
LINE
  5
558
100
AcDbEntity
  8
RUNDUNGEN
100
AcDbLine
 62
7
  6
CONTINUOUS
 10
126.0700188442
 20
162.7197353718
 11
126.3701095159
 21
162.4886045222
  0
LINE
  5
559
100
AcDbEntity
  8
RUNDUNGEN
100
AcDbLine
 62
7
  6
CONTINUOUS
 10
163.3274477571
 20
135.4112768107
 11
163.6211762818
 21
135.1724294169
  0
LINE
  5
55A
100
AcDbEntity
  8
RUNDUNGEN
100
AcDbLine
 62
7
  6
CONTINUOUS
 10
123.3458833097
 20
165.264492593
 11
126.0737013204
 21
162.7206589597
  0
LINE
  5
55B
100
AcDbEntity
  8
RUNDUNGEN
100
AcDbLine
 62
7
  6
CONTINUOUS
 10
170.3061281077
 20
118.4882321725
 11
172.8500475108
 21
115.7603221886
  0
LWPOLYLINE
  5
55C
100
AcDbEntity
  8
RUNDUNGEN
100
AcDbPolyline
 62
7
  6
CONTINUOUS
 90
3
 70
0
 10
151.7613416923
 20
140.9938920284
 10
151.7731469112
 20
140.9780169867
 10
152.240713262
 20
140.3331556293
  0
LINE
  5
55D
100
AcDbEntity
  8
RUNDUNGEN
100
AcDbLine
 62
7
  6
CONTINUOUS
 10
152.240713262
 20
140.3331556293
 11
152.3564537617
 21
140.1747905354
  0
LINE
  5
55E
100
AcDbEntity
  8
0
100
AcDbLine
 62
7
  6
CONTINUOUS
 10
158.165292817
 20
128.8463078791
 11
158.0852981779
 21
128.999984228
  0
LINE
  5
55F
100
AcDbEntity
  8
0
100
AcDbLine
 62
7
  6
CONTINUOUS
 10
158.581600484
 20
128.8676958562
 11
158.6615951231
 21
128.7140195073
  0
LINE
  5
560
100
AcDbEntity
  8
0
100
AcDbLine
 62
7
  6
CONTINUOUS
 10
158.6084517485
 20
129.2723064257
 11
158.6884463875
 21
129.1186300768
  0
LINE
  5
561
100
AcDbEntity
  8
0
100
AcDbLine
 62
7
  6
CONTINUOUS
 10
158.8993225696
 20
129.2609523037
 11
158.8326603767
 21
129.3890159156
  0
LINE
  5
562
100
AcDbEntity
  8
0
100
AcDbLine
 62
7
  6
CONTINUOUS
 10
159.2160278591
 20
128.0711770209
 11
159.3171072616
 21
127.8634658538
  0
LINE
  5
563
100
AcDbEntity
  8
0
100
AcDbLine
 62
7
  6
CONTINUOUS
 10
159.5443900248
 20
127.9740694686
 11
159.4433106222
 21
128.1817806357
  0
LINE
  5
564
100
AcDbEntity
  8
0
100
AcDbLine
 62
7
  6
CONTINUOUS
 10
160.7938431942
 20
125.1858355568
 11
160.726845693
 21
125.3456069477
  0
LINE
  5
565
100
AcDbEntity
  8
0
100
AcDbLine
 62
7
  6
CONTINUOUS
 10
161.9540252318
 20
122.1110462408
 11
161.867060323
 21
122.3559382992
  0
LINE
  5
566
100
AcDbEntity
  8
0
100
AcDbLine
 62
7
  6
CONTINUOUS
 10
161.5771772938
 20
123.1722451605
 11
161.490212385
 21
123.4171372189
  0
LINE
  5
567
100
AcDbEntity
  8
0
100
AcDbLine
 62
7
  6
CONTINUOUS
 10
162.4694292963
 20
120.5104109856
 11
162.3904855942
 21
120.7580052253
  0
LINE
  5
568
100
AcDbEntity
  8
0
100
AcDbLine
 62
7
  6
CONTINUOUS
 10
162.1273399204
 20
121.5833193575
 11
162.0483962182
 21
121.8309135971
  0
LWPOLYLINE
  5
569
100
AcDbEntity
  8
RUNDUNGEN
100
AcDbPolyline
 62
7
  6
CONTINUOUS
 90
3
 70
0
 10
165.5362460637
 20
107.7383310746
 10
165.5329346549
 20
107.7578352976
 10
165.4090909157
 20
108.5446816554
  0
LINE
  5
56A
100
AcDbEntity
  8
RUNDUNGEN
100
AcDbLine
 62
7
  6
CONTINUOUS
 10
165.4090909157
 20
108.5446816554
 11
165.3778616234
 21
108.7383310746
  0
LINE
  5
56B
100
AcDbEntity
  8
RUNDUNGEN
100
AcDbLine
 62
7
  6
CONTINUOUS
 10
162.7322286152
 20
136.7673308333
 11
162.7809905731
 21
136.3917004933
  0
LINE
  5
56C
100
AcDbEntity
  8
RUNDUNGEN
100
AcDbLine
 62
7
  6
CONTINUOUS
 10
174.0362460637
 20
96.6712616705
 11
174.0362460637
 21
99.7499711286
  0
LINE
  5
56D
100
AcDbEntity
  8
RUNDUNGEN
100
AcDbLine
 62
7
  6
CONTINUOUS
 10
174.0362460637
 20
111.2266910206
 11
174.0362460637
 21
114.3054103532
  0
LINE
  5
56E
100
AcDbEntity
  8
RUNDUNGEN
100
AcDbLine
 62
7
  6
CONTINUOUS
 10
169.8001634004
 20
91.4895385379
 11
169.7672130169
 21
91.1123539671
  0
LINE
  5
56F
100
AcDbEntity
  8
RUNDUNGEN
100
AcDbLine
 62
7
  6
CONTINUOUS
 10
169.9036885897
 20
91.8537846952
 11
169.8001634004
 21
91.4895385379
  0
LINE
  5
570
100
AcDbEntity
  8
RUNDUNGEN
100
AcDbLine
 62
7
  6
CONTINUOUS
 10
169.7881957666
 20
78.7492826579
 11
172.0842963608
 21
84.2925598529
  0
LINE
  5
571
100
AcDbEntity
  8
RUNDUNGEN
100
AcDbLine
 62
7
  6
CONTINUOUS
 10
170.0740736708
 20
92.1920217819
 11
169.9036885897
 21
91.8537846952
  0
LINE
  5
572
100
AcDbEntity
  8
RUNDUNGEN
100
AcDbLine
 62
7
  6
CONTINUOUS
 10
149.9461495089
 20
56.1467626572
 11
152.1231258864
 21
58.3237390347
  0
LINE
  5
573
100
AcDbEntity
  8
RUNDUNGEN
100
AcDbLine
 62
7
  6
CONTINUOUS
 10
160.2383923055
 20
66.4390054538
 11
162.4153756229
 21
68.6159887712
  0
LINE
  5
574
100
AcDbEntity
  8
RUNDUNGEN
100
AcDbLine
 62
7
  6
CONTINUOUS
 10
143.2867551667
 20
55.4780938688
 11
142.9967459593
 21
55.2346835407
  0
LINE
  5
575
100
AcDbEntity
  8
RUNDUNGEN
100
AcDbLine
 62
7
  6
CONTINUOUS
 10
143.6175194579
 20
55.6624514333
 11
143.2867551667
 21
55.4780938688
  0
LINE
  5
576
100
AcDbEntity
  8
RUNDUNGEN
100
AcDbLine
 62
7
  6
CONTINUOUS
 10
134.2695714449
 20
46.477834937
 11
139.81284864
 21
48.7739355312
  0
LINE
  5
577
100
AcDbEntity
  8
RUNDUNGEN
100
AcDbLine
 62
7
  6
CONTINUOUS
 10
143.9771696419
 20
55.7811407247
 11
143.6175194579
 21
55.6624514333
  0
LINE
  5
578
100
AcDbEntity
  8
RUNDUNGEN
100
AcDbLine
 62
7
  6
CONTINUOUS
 10
121.8908696413
 20
166.4507769151
 11
118.8121601692
 21
166.4507769151
  0
LINE
  5
579
100
AcDbEntity
  8
RUNDUNGEN
100
AcDbLine
 62
7
  6
CONTINUOUS
 10
107.3354402772
 20
166.4507769151
 11
104.2567264124
 21
166.4507769151
  0
LINE
  5
57A
100
AcDbEntity
  8
RUNDUNGEN
100
AcDbLine
 62
7
  6
CONTINUOUS
 10
127.07259276
 20
162.2146942518
 11
127.4497773308
 21
162.1817438683
  0
LINE
  5
57B
100
AcDbEntity
  8
RUNDUNGEN
100
AcDbLine
 62
7
  6
CONTINUOUS
 10
126.7083466026
 20
162.3182194411
 11
127.07259276
 21
162.2146942518
  0
LINE
  5
57C
100
AcDbEntity
  8
RUNDUNGEN
100
AcDbLine
 62
7
  6
CONTINUOUS
 10
139.81284864
 20
162.202726618
 11
134.2695714449
 21
164.4988272122
  0
LINE
  5
57D
100
AcDbEntity
  8
RUNDUNGEN
100
AcDbLine
 62
7
  6
CONTINUOUS
 10
126.3701095159
 20
162.4886045222
 11
126.7083466026
 21
162.3182194411
  0
LINE
  5
57E
100
AcDbEntity
  8
RUNDUNGEN
100
AcDbLine
 62
7
  6
CONTINUOUS
 10
162.4153686406
 20
142.3606803603
 11
160.2383923055
 21
144.5376566955
  0
LINE
  5
57F
100
AcDbEntity
  8
RUNDUNGEN
100
AcDbLine
 62
7
  6
CONTINUOUS
 10
152.1231258441
 20
152.6529231569
 11
149.9461425266
 21
154.8299064743
  0
LINE
  5
580
100
AcDbEntity
  8
RUNDUNGEN
100
AcDbLine
 62
7
  6
CONTINUOUS
 10
163.084037429
 20
135.7012860181
 11
163.3274477571
 21
135.4112768107
  0
LINE
  5
581
100
AcDbEntity
  8
RUNDUNGEN
100
AcDbLine
 62
7
  6
CONTINUOUS
 10
162.8996798645
 20
136.0320503093
 11
163.084037429
 21
135.7012860181
  0
LINE
  5
582
100
AcDbEntity
  8
RUNDUNGEN
100
AcDbLine
 62
7
  6
CONTINUOUS
 10
172.0842963608
 20
126.6841022963
 11
169.7881957666
 21
132.2273794914
  0
LINE
  5
583
100
AcDbEntity
  8
RUNDUNGEN
100
AcDbLine
 62
7
  6
CONTINUOUS
 10
162.7809905731
 20
136.3917004933
 11
162.8996798645
 21
136.0320503093
  0
LINE
  5
584
100
AcDbEntity
  8
RUNDUNGEN
100
AcDbLine
 62
7
  6
CONTINUOUS
 10
216.6372867506
 20
44.5258852341
 11
244.6372867506
 21
44.5258852341
  0
LINE
  5
585
100
AcDbEntity
  8
0
100
AcDbLine
 62
7
  6
CONTINUOUS
 10
230.3872867506
 20
46.4017144695
 11
230.8872867506
 21
46.4017144695
  0
LWPOLYLINE
  5
586
100
AcDbEntity
  8
RUNDUNGEN
100
AcDbPolyline
 62
7
  6
CONTINUOUS
 90
3
 70
0
 10
230.8872867506
 20
46.4017144695
 10
231.0823771796
 20
46.4209292104
 10
231.2699702739
 20
46.4778349746
  0
LWPOLYLINE
  5
587
100
AcDbEntity
  8
RUNDUNGEN
100
AcDbPolyline
 62
7
  6
CONTINUOUS
 90
9
 70
0
 10
230.3872867506
 20
46.4017144695
 10
230.1921963217
 20
46.4209292104
 10
230.0046032274
 20
46.4778349746
 10
229.8317164593
 20
46.5702448962
 10
229.680179939
 20
46.6946077188
 10
229.5558171465
 20
46.8461442243
 10
229.4634072325
 20
47.0190310026
 10
229.4065014739
 20
47.2066241295
 10
229.3872867506
 20
47.4017144695
  0
LWPOLYLINE
  5
588
100
AcDbEntity
  8
RUNDUNGEN
100
AcDbPolyline
 62
7
  6
CONTINUOUS
 90
7
 70
0
 10
230.6383389335
 20
55.8538676741
 10
231.3234047962
 20
55.8786528875
 10
232.3301193813
 20
55.9899590121
 10
233.3452675714
 20
56.1465433277
 10
234.3864086682
 20
56.2983510106
 10
235.4677285158
 20
56.4041954505
 10
236.298424347
 20
56.4316921485
  0
LINE
  5
589
100
AcDbEntity
  8
RUNDUNGEN
100
AcDbLine
 62
7
  6
CONTINUOUS
 10
244.6372867506
 20
56.4316247548
 11
236.298424315
 21
56.4316247548
  0
LINE
  5
58A
100
AcDbEntity
  8
RUNDUNGEN
100
AcDbLine
 62
7
  6
CONTINUOUS
 10
224.9761659688
 20
56.4316247548
 11
216.6372867506
 21
56.4316247548
  0
LWPOLYLINE
  5
58B
100
AcDbEntity
  8
RUNDUNGEN
100
AcDbPolyline
 62
7
  6
CONTINUOUS
 90
7
 70
0
 10
224.9761659518
 20
56.4316913845
 10
225.8386795545
 20
56.4021180747
 10
226.9243950281
 20
56.2937025672
 10
227.9671632234
 20
56.1405609494
 10
228.9821118864
 20
55.9846524615
 10
229.9866663976
 20
55.876201685
 10
230.6383388939
 20
55.8538681364
  0
LINE
  5
58C
100
AcDbEntity
  8
0
100
AcDbLine
 62
2
  6
CONTINUOUS
 10
223.8293160425
 20
154.6243282549
 11
223.2779692597
 21
154.0729814721
  0
LINE
  5
58D
100
AcDbEntity
  8
0
100
AcDbLine
 62
7
  6
CONTINUOUS
 10
236.980527569
 20
152.2495190462
 11
237.0337851783
 21
152.2810775491
  0
LINE
  5
58E
100
AcDbEntity
  8
RUNDUNGEN
100
AcDbLine
 62
7
  6
CONTINUOUS
 10
237.0342655581
 20
152.2813499441
 11
237.0337851783
 21
152.2810775491
  0
LINE
  5
58F
100
AcDbEntity
  8
0
100
AcDbLine
 62
7
  6
CONTINUOUS
 10
237.0342613292
 20
152.2813574274
 11
237.192237819
 21
152.3704385441
  0
LINE
  5
590
100
AcDbEntity
  8
0
100
AcDbLine
 62
7
  6
CONTINUOUS
 10
237.192237819
 20
152.3704385441
 11
237.6247646933
 21
152.6101839287
  0
LWPOLYLINE
  5
591
100
AcDbEntity
  8
0
100
AcDbPolyline
 62
7
  6
CONTINUOUS
 90
3
 70
0
 10
237.6247646933
 20
152.6101839287
 10
238.0776874294
 20
152.8557584732
 10
238.5486375533
 20
153.1061729981
  0
LINE
  5
592
100
AcDbEntity
  8
0
100
AcDbLine
 62
7
  6
CONTINUOUS
 10
238.5486375533
 20
153.1061729981
 11
239.1841479723
 21
153.4376103978
  0
LINE
  5
593
100
AcDbEntity
  8
RUNDUNGEN
100
AcDbLine
 62
7
  6
CONTINUOUS
 10
239.1844756538
 20
153.4377795198
 11
239.1841479723
 21
153.4376103978
  0
LWPOLYLINE
  5
594
100
AcDbEntity
  8
0
100
AcDbPolyline
 62
7
  6
CONTINUOUS
 90
4
 70
0
 10
239.1844716311
 20
153.4377872787
 10
239.8493855045
 20
153.7779933058
 10
240.3622712962
 20
154.0365432779
 10
240.8799141048
 20
154.2945122738
  0
LINE
  5
595
100
AcDbEntity
  8
0
100
AcDbLine
 62
7
  6
CONTINUOUS
 10
240.8799141048
 20
154.2945122738
 11
245.0766716813
 21
156.3489980832
  0
LINE
  5
596
100
AcDbEntity
  8
0
100
AcDbLine
 62
7
  6
CONTINUOUS
 10
236.7605444571
 20
152.4372892467
 11
237.5080479572
 21
152.8018710638
  0
LINE
  5
597
100
AcDbEntity
  8
RUNDUNGEN
100
AcDbLine
 62
7
  6
CONTINUOUS
 10
245.6194911426
 20
67.3260631693
 11
246.9831366784
 21
67.4609160479
  0
LWPOLYLINE
  5
598
100
AcDbEntity
  8
RUNDUNGEN
100
AcDbPolyline
 62
7
  6
CONTINUOUS
 90
3
 70
0
 10
244.6372867506
 20
66.146112235
 10
244.8327562983
 20
66.1654024867
 10
245.0202886647
 20
66.2223646862
  0
LINE
  5
599
100
AcDbEntity
  8
0
100
AcDbLine
 62
7
  6
CONTINUOUS
 10
216.6372867506
 20
66.146112235
 11
244.6372867506
 21
66.146112235
  0
LWPOLYLINE
  5
59A
100
AcDbEntity
  8
RUNDUNGEN
100
AcDbPolyline
 62
7
  6
CONTINUOUS
 90
9
 70
0
 10
216.6372867506
 20
66.146112235
 10
216.441817203
 20
66.1654024867
 10
216.2542848366
 20
66.2223646862
 10
216.0815185594
 20
66.3147749313
 10
215.9300811876
 20
66.4391042495
 10
215.8058520454
 20
66.5904897652
 10
215.7134611297
 20
66.7632986744
 10
215.6565151869
 20
66.9509537701
 10
215.6372867506
 20
67.146112235
  0
LINE
  5
59B
100
AcDbEntity
  8
RUNDUNGEN
100
AcDbLine
 62
7
  6
CONTINUOUS
 10
214.2914368229
 20
67.4609160479
 11
215.6550823587
 21
67.3260631693
  0
LINE
  5
59C
100
AcDbEntity
  8
RUNDUNGEN
100
AcDbLine
 62
7
  6
CONTINUOUS
 10
245.0766716812
 20
54.6276640662
 11
241.388174757
 21
56.4316247548
  0
LINE
  5
59D
100
AcDbEntity
  8
0
100
AcDbLine
 62
2
  6
CONTINUOUS
 10
229.8066820452
 20
154.7007769151
 11
225.6372867506
 21
150.5313816206
  0
LINE
  5
59E
100
AcDbEntity
  8
0
100
AcDbLine
 62
2
  6
CONTINUOUS
 10
219.096867188
 20
143.990962058
 11
211.5872867506
 21
136.4813816206
  0
LINE
  5
59F
100
AcDbEntity
  8
RUNDUNGEN
100
AcDbLine
 62
7
  6
CONTINUOUS
 10
236.7916040601
 20
152.1144083403
 11
236.7910343408
 21
152.1139445848
  0
LWPOLYLINE
  5
5A0
100
AcDbEntity
  8
0
100
AcDbPolyline
 62
7
  6
CONTINUOUS
 90
3
 70
0
 10
236.7910391208
 20
152.1139388554
 10
236.8377634064
 20
152.1508215375
 10
236.907818593
 20
152.2018594001
  0
LINE
  5
5A1
100
AcDbEntity
  8
0
100
AcDbLine
 62
7
  6
CONTINUOUS
 10
236.907818593
 20
152.2018594001
 11
236.980527569
 21
152.2495190462
  0
LINE
  5
5A2
100
AcDbEntity
  8
0
100
AcDbLine
 62
2
  6
CONTINUOUS
 10
235.7075993877
 20
154.7007769151
 11
215.3551607259
 21
134.3483382534
  0
LINE
  5
5A3
100
AcDbEntity
  8
0
100
AcDbLine
 62
2
  6
CONTINUOUS
 10
235.6372867506
 20
148.7295469356
 11
221.2560780684
 21
134.3483382534
  0
LINE
  5
5A4
100
AcDbEntity
  8
0
100
AcDbLine
 62
7
  6
CONTINUOUS
 10
236.5348140798
 20
151.8635108241
 11
236.7916040601
 21
152.1144083403
  0
LINE
  5
5A5
100
AcDbEntity
  8
0
100
AcDbLine
 62
7
  6
CONTINUOUS
 10
215.6860578947
 20
144.1230610505
 11
215.6565151869
 21
144.0257083791
  0
LINE
  5
5A6
100
AcDbEntity
  8
0
100
AcDbLine
 62
2
  6
CONTINUOUS
 10
237.4222041519
 20
144.6135469944
 11
227.1569954109
 21
134.3483382534
  0
LINE
  5
5A7
100
AcDbEntity
  8
RUNDUNGEN
100
AcDbLine
 62
7
  6
CONTINUOUS
 10
244.9640775475
 20
73.7466241386
 11
240.9584147848
 21
75.1317975758
  0
LWPOLYLINE
  5
5A8
100
AcDbEntity
  8
RUNDUNGEN
100
AcDbPolyline
 62
7
  6
CONTINUOUS
 90
7
 70
0
 10
240.9584995735
 20
75.1316975043
 10
240.8983501839
 20
75.1527997128
 10
240.5818891334
 20
75.2735768758
 10
240.2518410909
 20
75.4167485178
 10
239.910649699
 20
75.5830752267
 10
239.5611045215
 20
75.7729954563
 10
239.4389503616
 20
75.8441254138
  0
LWPOLYLINE
  5
5A9
100
AcDbEntity
  8
RUNDUNGEN
100
AcDbPolyline
 62
7
  6
CONTINUOUS
 90
4
 70
0
 10
245.4407910981
 20
66.5564538576
 10
245.4705236953
 20
66.5347547031
 10
245.5621311122
 20
66.432025896
 10
245.6183575444
 20
66.3205259092
  0
LINE
  5
5AA
100
AcDbEntity
  8
RUNDUNGEN
100
AcDbLine
 62
7
  6
CONTINUOUS
 10
211.5872867506
 20
70.4463533531
 11
211.5872867506
 21
105.4883310752
  0
LINE
  5
5AB
100
AcDbEntity
  8
0
100
AcDbLine
 62
7
  6
CONTINUOUS
 10
211.5872867506
 20
105.4883310752
 11
211.5872867506
 21
140.5303618356
  0
LINE
  5
5AC
100
AcDbEntity
  8
0
100
AcDbLine
 62
7
  6
CONTINUOUS
 10
215.6565151869
 20
144.0257083791
 11
215.6372867506
 21
143.8305499143
  0
LINE
  5
5AD
100
AcDbEntity
  8
0
100
AcDbLine
 62
2
  6
CONTINUOUS
 10
242.6534860153
 20
143.9439115153
 11
233.0579127534
 21
134.3483382534
  0
LWPOLYLINE
  5
5AE
100
AcDbEntity
  8
0
100
AcDbPolyline
 62
7
  6
CONTINUOUS
 90
3
 70
0
 10
245.3110343303
 20
143.6811027201
 10
245.3443978617
 20
143.7084839128
 10
245.4687551887
 20
143.8600143737
  0
LINE
  5
5AF
100
AcDbEntity
  8
RUNDUNGEN
100
AcDbLine
 62
7
  6
CONTINUOUS
 10
239.4389643358
 20
75.844148873
 11
239.4391070629
 21
75.8440642246
  0
LWPOLYLINE
  5
5B0
100
AcDbEntity
  8
RUNDUNGEN
100
AcDbPolyline
 62
7
  6
CONTINUOUS
 90
7
 70
0
 10
239.4391070629
 20
75.8440642246
 10
239.3549731822
 20
75.894509548
 10
239.0269590412
 20
76.1029115694
 10
238.6965696157
 20
76.3325178783
 10
238.3662863174
 20
76.5832235553
 10
238.0386846903
 20
76.8546030415
 10
237.9060346734
 20
76.971406972
  0
LINE
  5
5B1
100
AcDbEntity
  8
RUNDUNGEN
100
AcDbLine
 62
7
  6
CONTINUOUS
 10
215.6372867506
 20
157.2521037652
 11
215.6372867506
 21
157.2472317497
  0
LINE
  5
5B2
100
AcDbEntity
  8
RUNDUNGEN
100
AcDbLine
 62
7
  6
CONTINUOUS
 10
215.6372867506
 20
45.5258852341
 11
215.6372867506
 21
53.7245583672
  0
LINE
  5
5B3
100
AcDbEntity
  8
RUNDUNGEN
100
AcDbLine
 62
7
  6
CONTINUOUS
 10
215.6372867506
 20
57.4316247548
 11
215.6372867506
 21
66.5610757852
  0
LINE
  5
5B4
100
AcDbEntity
  8
RUNDUNGEN
100
AcDbLine
 62
7
  6
CONTINUOUS
 10
215.6372867506
 20
67.146112235
 11
215.6372867506
 21
72.8012775982
  0
LINE
  5
5B5
100
AcDbEntity
  8
RUNDUNGEN
100
AcDbLine
 62
7
  6
CONTINUOUS
 10
215.6372867506
 20
97.4883310746
 11
215.6372867506
 21
102.2383310746
  0
LINE
  5
5B6
100
AcDbEntity
  8
RUNDUNGEN
100
AcDbLine
 62
7
  6
CONTINUOUS
 10
215.6372867506
 20
143.6488391466
 11
215.6372867506
 21
143.8305499143
  0
LINE
  5
5B7
100
AcDbEntity
  8
0
100
AcDbLine
 62
7
  6
CONTINUOUS
 10
215.6372867506
 20
143.6488391466
 11
215.6372867506
 21
143.8305499143
  0
LINE
  5
5B8
100
AcDbEntity
  8
0
100
AcDbLine
 62
7
  6
CONTINUOUS
 10
215.6372867506
 20
144.415586364
 11
215.6372867506
 21
144.7392623745
  0
LINE
  5
5B9
100
AcDbEntity
  8
RUNDUNGEN
100
AcDbLine
 62
7
  6
CONTINUOUS
 10
215.6372867506
 20
144.415586364
 11
215.6372867506
 21
153.5450373945
  0
LINE
  5
5BA
100
AcDbEntity
  8
0
100
AcDbLine
 62
7
  6
CONTINUOUS
 10
215.6372867506
 20
157.2897834509
 11
215.6372867506
 21
165.4507769151
  0
LINE
  5
5BB
100
AcDbEntity
  8
RUNDUNGEN
100
AcDbLine
 62
7
  6
CONTINUOUS
 10
215.6372867506
 20
157.2897834509
 11
215.6372867506
 21
165.4507769151
  0
LWPOLYLINE
  5
5BC
100
AcDbEntity
  8
0
100
AcDbPolyline
 62
7
  6
CONTINUOUS
 90
3
 70
0
 10
235.9880347045
 20
150.9047914488
 10
236.2387231133
 20
151.4416492935
 10
236.5348140798
 20
151.8635108241
  0
LINE
  5
5BD
100
AcDbEntity
  8
0
100
AcDbLine
 62
2
  6
CONTINUOUS
 10
247.8891320595
 20
143.2786402171
 11
238.9588300958
 21
134.3483382534
  0
LINE
  5
5BE
100
AcDbEntity
  8
RUNDUNGEN
100
AcDbLine
 62
7
  6
CONTINUOUS
 10
237.906036843
 20
76.9714093819
 11
237.905912602
 21
76.9715208596
  0
LWPOLYLINE
  5
5BF
100
AcDbEntity
  8
RUNDUNGEN
100
AcDbPolyline
 62
7
  6
CONTINUOUS
 90
5
 70
0
 10
237.905912602
 20
76.9715208596
 10
237.812315068
 20
77.0590486144
 10
237.6887324565
 20
77.1851978861
 10
237.5651864805
 20
77.3226563033
 10
237.4871206226
 20
77.414932538
  0
LWPOLYLINE
  5
5C0
100
AcDbEntity
  8
0
100
AcDbPolyline
 62
7
  6
CONTINUOUS
 90
4
 70
0
 10
215.6372867506
 20
144.415586364
 10
215.6564991522
 20
144.2205077275
 10
215.7134018484
 20
144.0329158957
 10
215.8058115802
 20
143.8600244495
  0
LINE
  5
5C1
100
AcDbEntity
  8
RUNDUNGEN
100
AcDbLine
 62
7
  6
CONTINUOUS
 10
215.6372867506
 20
66.5610757852
 11
215.6564991522
 21
66.7561544217
  0
LINE
  5
5C2
100
AcDbEntity
  8
0
100
AcDbLine
 62
2
  6
CONTINUOUS
 10
249.6872867506
 20
139.1758775657
 11
244.8597474383
 21
134.3483382534
  0
LINE
  5
5C3
100
AcDbEntity
  8
RUNDUNGEN
100
AcDbLine
 62
7
  6
CONTINUOUS
 10
238.4763980965
 20
96.3603104791
 11
238.6740546779
 21
96.4129884156
  0
LWPOLYLINE
  5
5C4
100
AcDbEntity
  8
RUNDUNGEN
100
AcDbPolyline
 62
7
  6
CONTINUOUS
 90
5
 70
0
 10
238.6740546779
 20
96.4129884156
 10
238.8721743576
 20
96.4518775153
 10
239.0710201956
 20
96.4769225168
 10
239.2709456574
 20
96.4879166377
 10
239.3244829851
 20
96.4884286513
  0
LINE
  5
5C5
100
AcDbEntity
  8
RUNDUNGEN
100
AcDbLine
 62
7
  6
CONTINUOUS
 10
244.6372867506
 20
96.4883310746
 11
236.2984155441
 21
96.4883310746
  0
LINE
  5
5C6
100
AcDbEntity
  8
RUNDUNGEN
100
AcDbLine
 62
7
  6
CONTINUOUS
 10
224.9761575179
 20
96.4883310746
 11
216.6372867506
 21
96.4883310746
  0
LWPOLYLINE
  5
5C7
100
AcDbEntity
  8
RUNDUNGEN
100
AcDbPolyline
 62
7
  6
CONTINUOUS
 90
3
 70
0
 10
222.6005031944
 20
96.4129964737
 10
222.7981665527
 20
96.3603175246
 10
222.8537925338
 20
96.3429801689
  0
LINE
  5
5C8
100
AcDbEntity
  8
RUNDUNGEN
100
AcDbLine
 62
7
  6
CONTINUOUS
 10
222.8537291129
 20
96.3429720865
 11
222.8535512296
 21
96.3430292956
  0
LINE
  5
5C9
100
AcDbEntity
  8
RUNDUNGEN
100
AcDbLine
 62
7
  6
CONTINUOUS
 10
222.8535512296
 20
96.3430292956
 11
222.9320921019
 21
96.3166636929
  0
LWPOLYLINE
  5
5CA
100
AcDbEntity
  8
RUNDUNGEN
100
AcDbPolyline
 62
7
  6
CONTINUOUS
 90
3
 70
0
 10
222.9320921019
 20
96.3166636929
 10
223.1495286581
 20
96.2319139328
 10
223.3624514855
 20
96.1317952897
  0
LINE
  5
5CB
100
AcDbEntity
  8
RUNDUNGEN
100
AcDbLine
 62
7
  6
CONTINUOUS
 10
223.3624514855
 20
96.1317952897
 11
223.5704738938
 21
96.0171242322
  0
LWPOLYLINE
  5
5CC
100
AcDbEntity
  8
RUNDUNGEN
100
AcDbPolyline
 62
7
  6
CONTINUOUS
 90
3
 70
0
 10
223.5704738938
 20
96.0171242322
 10
223.7731594263
 20
95.888738013
 10
223.8360312009
 20
95.8454929473
  0
LWPOLYLINE
  5
5CD
100
AcDbEntity
  8
RUNDUNGEN
100
AcDbPolyline
 62
7
  6
CONTINUOUS
 90
3
 70
0
 10
223.8353516565
 20
95.8459891181
 10
223.8581003798
 20
95.8299327526
 10
223.9786307229
 20
95.7408926844
  0
LWPOLYLINE
  5
5CE
100
AcDbEntity
  8
RUNDUNGEN
100
AcDbPolyline
 62
7
  6
CONTINUOUS
 90
4
 70
0
 10
223.9786307229
 20
95.7408926844
 10
224.101340678
 20
95.6436251616
 10
224.2275441308
 20
95.5371188839
 10
224.3025936807
 20
95.4709698262
  0
LINE
  5
5CF
100
AcDbEntity
  8
RUNDUNGEN
100
AcDbLine
 62
7
  6
CONTINUOUS
 10
224.3031561781
 20
95.4704695617
 11
224.3048735666
 21
95.4689326382
  0
LWPOLYLINE
  5
5D0
100
AcDbEntity
  8
RUNDUNGEN
100
AcDbPolyline
 62
7
  6
CONTINUOUS
 90
9
 70
0
 10
237.4870595925
 20
77.4150342679
 10
237.2594095636
 20
77.7136575902
 10
236.9350058265
 20
78.2296590665
 10
236.6554453739
 20
78.7795341951
 10
236.4065069944
 20
79.3801558028
 10
236.1792557339
 20
80.0621210123
 10
235.9846154817
 20
80.8115944237
 10
235.8272963518
 20
81.6305686193
 10
235.7147254038
 20
82.5036980749
  0
LWPOLYLINE
  5
5D1
100
AcDbEntity
  8
RUNDUNGEN
100
AcDbPolyline
 62
7
  6
CONTINUOUS
 90
47
 70
0
 10
223.2034731571
 20
105.4883310752
 10
223.2044824685
 20
105.4698770034
 10
223.1916100608
 20
105.3743105198
 10
223.162706325
 20
105.2814138802
 10
223.1192733911
 20
105.1881447905
 10
223.0667886361
 20
105.0997067785
 10
223.0069658476
 20
105.0158218773
 10
222.9391968807
 20
104.9336290509
 10
222.8659793911
 20
104.8546437569
 10
222.7880858841
 20
104.7787182579
 10
222.7064385137
 20
104.7060006189
 10
222.6213878686
 20
104.6360861336
 10
222.5333137193
 20
104.568779172
 10
222.4424813238
 20
104.5039081958
 10
222.3485611594
 20
104.4409715672
 10
222.2508575585
 20
104.3793607707
 10
222.1497933933
 20
104.319255194
 10
222.0455666199
 20
104.260679024
 10
221.9380122191
 20
104.2034805242
 10
221.827090703
 20
104.147611181
 10
221.7123505162
 20
104.0928413645
 10
221.5933521233
 20
104.038995405
 10
221.4698549573
 20
103.9860400232
 10
221.3413304462
 20
103.9338539884
 10
221.2080756197
 20
103.8826619918
 10
221.0701610423
 20
103.8325809547
 10
220.9277607504
 20
103.7837702576
 10
220.7810183719
 20
103.7363630593
 10
220.6301246279
 20
103.6904910564
 10
220.4752664495
 20
103.6462827989
 10
220.3165880519
 20
103.6038468047
 10
220.1542575858
 20
103.5632855797
 10
219.9884083147
 20
103.5246939614
 10
219.8192035356
 20
103.4881694476
 10
219.6467216763
 20
103.4537831673
 10
219.4711515561
 20
103.4216331536
 10
219.292313412
 20
103.3917526061
 10
219.1101513327
 20
103.3642057109
 10
218.9244797578
 20
103.3390562973
 10
218.7351467408
 20
103.3163912451
 10
218.5419903964
 20
103.2963088353
 10
218.3448528907
 20
103.2789313645
 10
218.1435782893
 20
103.2644030063
 10
217.9380119321
 20
103.2528836481
 10
217.7280172947
 20
103.2445599418
 10
217.5134625031
 20
103.2396480339
 10
217.3309664905
 20
103.2383310859
  0
LINE
  5
5D2
100
AcDbEntity
  8
RUNDUNGEN
100
AcDbLine
 62
7
  6
CONTINUOUS
 10
225.6372867506
 20
54.9844064191
 11
225.6372867506
 21
56.4090233012
  0
LINE
  5
5D3
100
AcDbEntity
  8
RUNDUNGEN
100
AcDbLine
 62
7
  6
CONTINUOUS
 10
225.6372867506
 20
78.969051611
 11
225.6372867506
 21
92.4883310746
  0
LINE
  5
5D4
100
AcDbEntity
  8
0
100
AcDbLine
 62
7
  6
CONTINUOUS
 10
225.6372867506
 20
147.3557097333
 11
225.6372867506
 21
150.6397011541
  0
LINE
  5
5D5
100
AcDbEntity
  8
RUNDUNGEN
100
AcDbLine
 62
7
  6
CONTINUOUS
 10
225.6372867323
 20
84.1049575352
 11
225.6231813657
 21
83.4140552347
  0
LINE
  5
5D6
100
AcDbEntity
  8
RUNDUNGEN
100
AcDbLine
 62
7
  6
CONTINUOUS
 10
215.6562159568
 20
66.3214180359
 11
215.6372867506
 21
66.2056775361
  0
LINE
  5
5D7
100
AcDbEntity
  8
0
100
AcDbLine
 62
7
  6
CONTINUOUS
 10
235.7936904718
 20
150.2466556496
 11
235.9880347045
 21
150.9047914488
  0
LWPOLYLINE
  5
5D8
100
AcDbEntity
  8
0
100
AcDbPolyline
 62
7
  6
CONTINUOUS
 90
4
 70
0
 10
245.4687551887
 20
143.8600143737
 10
245.5611642336
 20
144.0328979836
 10
245.6180715123
 20
144.2204934656
 10
245.6372867506
 20
144.415586364
  0
LINE
  5
5D9
100
AcDbEntity
  8
RUNDUNGEN
100
AcDbLine
 62
7
  6
CONTINUOUS
 10
229.3872867506
 20
47.4017144695
 11
229.3872867506
 21
54.5252053053
  0
LINE
  5
5DA
100
AcDbEntity
  8
RUNDUNGEN
100
AcDbLine
 62
7
  6
CONTINUOUS
 10
229.3872867506
 20
77.1026711187
 11
229.3872867506
 21
89.523651896
  0
LWPOLYLINE
  5
5DB
100
AcDbEntity
  8
RUNDUNGEN
100
AcDbPolyline
 62
7
  6
CONTINUOUS
 90
10
 70
0
 10
225.6231813657
 20
83.4140552347
 10
225.5595798247
 20
82.500992309
 10
225.4468857367
 20
81.6281295426
 10
225.2896343749
 20
80.8101634814
 10
225.0954023448
 20
80.0624096631
 10
224.8687295704
 20
79.381934625
 10
224.6201413743
 20
78.781736172
 10
224.3406369616
 20
78.2315642237
 10
224.0159329035
 20
77.7147452043
 10
223.787506478
 20
77.4150328193
  0
LINE
  5
5DC
100
AcDbEntity
  8
RUNDUNGEN
100
AcDbLine
 62
7
  6
CONTINUOUS
 10
215.6564991522
 20
66.7561544217
 11
215.6860578947
 21
66.8536010987
  0
LINE
  5
5DD
100
AcDbEntity
  8
RUNDUNGEN
100
AcDbLine
 62
7
  6
CONTINUOUS
 10
216.6372867506
 20
103.2383310746
 11
244.6372867506
 21
103.2383310746
  0
LINE
  5
5DE
100
AcDbEntity
  8
02___PRT_ALL_AXES
100
AcDbLine
 62
7
  6
CENTER
 10
208.5872867506
 20
105.4883310746
 11
252.6872867506
 21
105.4883310746
  0
LINE
  5
5DF
100
AcDbEntity
  8
0
100
AcDbLine
 62
2
  6
CONTINUOUS
 10
211.5872867506
 20
105.4883310752
 11
249.6872867506
 21
105.4883310752
  0
LWPOLYLINE
  5
5E0
100
AcDbEntity
  8
RUNDUNGEN
100
AcDbPolyline
 62
7
  6
CONTINUOUS
 90
53
 70
0
 10
243.8836120252
 20
103.2384679104
 10
243.719217125
 20
103.2403226849
 10
243.5555151543
 20
103.2442834766
 10
243.392598306
 20
103.2503183204
 10
243.2305603106
 20
103.2583986722
 10
243.0694554783
 20
103.2684959766
 10
242.9093408246
 20
103.2805805863
 10
242.750298316
 20
103.2946194506
 10
242.5923985601
 20
103.3105792291
 10
242.4357340421
 20
103.3284311234
 10
242.2803955863
 20
103.3481487704
 10
242.126464512
 20
103.3697038357
 10
241.9740143324
 20
103.3930662291
 10
241.8231554082
 20
103.4181968493
 10
241.6740202828
 20
103.4450512707
 10
241.5266216822
 20
103.4736147068
 10
241.3810081208
 20
103.5038669971
 10
241.2372109364
 20
103.535789709
 10
241.0952451534
 20
103.5693672393
 10
240.955207461
 20
103.6045637533
 10
240.8171891555
 20
103.6413525566
 10
240.6812550184
 20
103.6797180857
 10
240.5474677583
 20
103.7196415207
 10
240.4159259043
 20
103.7610886388
 10
240.2867022765
 20
103.8040283311
 10
240.159941146
 20
103.8484128758
 10
240.0357972973
 20
103.8941943702
 10
239.9143573104
 20
103.9413403966
 10
239.7956841829
 20
103.9898213198
 10
239.6799863632
 20
104.0395393781
 10
239.567395408
 20
104.090431931
 10
239.4582698788
 20
104.1423287316
 10
239.3531404533
 20
104.1949349289
 10
239.2515418363
 20
104.2484350569
 10
239.1533211944
 20
104.3028856202
 10
239.0581884214
 20
104.3584628199
 10
238.9659322898
 20
104.4153475398
 10
238.8764589374
 20
104.4736882277
 10
238.7896798309
 20
104.5336723781
 10
238.7056038407
 20
104.5954683738
 10
238.6243495223
 20
104.6592068018
 10
238.5461992958
 20
104.7249496006
 10
238.4715999222
 20
104.7926850997
 10
238.4007247256
 20
104.8627360049
 10
238.3339833811
 20
104.9351922857
 10
238.2726235381
 20
105.0093266933
 10
238.2186324213
 20
105.0834536849
 10
238.1710678079
 20
105.159669482
 10
238.1308479577
 20
105.2371953936
 10
238.0989289907
 20
105.31697617
 10
238.0776693013
 20
105.4009757498
 10
238.0696376836
 20
105.4853134776
 10
238.0698989135
 20
105.4883310752
  0
LINE
  5
5E1
100
AcDbEntity
  8
RUNDUNGEN
100
AcDbLine
 62
7
  6
CONTINUOUS
 10
235.7147254038
 20
82.5036980749
 11
235.6513163271
 21
83.4158903657
  0
LINE
  5
5E2
100
AcDbEntity
  8
RUNDUNGEN
100
AcDbLine
 62
7
  6
CONTINUOUS
 10
235.6513163271
 20
83.4158903657
 11
235.637286776
 21
84.1049075789
  0
LINE
  5
5E3
100
AcDbEntity
  8
RUNDUNGEN
100
AcDbLine
 62
7
  6
CONTINUOUS
 10
231.8872867506
 20
89.523651896
 11
231.8872867506
 21
77.1026711187
  0
LINE
  5
5E4
100
AcDbEntity
  8
RUNDUNGEN
100
AcDbLine
 62
7
  6
CONTINUOUS
 10
231.8872867506
 20
54.5252053053
 11
231.8872867506
 21
47.4017144695
  0
LINE
  5
5E5
100
AcDbEntity
  8
RUNDUNGEN
100
AcDbLine
 62
7
  6
CONTINUOUS
 10
235.6372867506
 20
92.4883310746
 11
235.6372867506
 21
78.9691019415
  0
LINE
  5
5E6
100
AcDbEntity
  8
RUNDUNGEN
100
AcDbLine
 62
7
  6
CONTINUOUS
 10
235.6372867506
 20
56.409807964
 11
235.6372867506
 21
54.9844775577
  0
LINE
  5
5E7
100
AcDbEntity
  8
0
100
AcDbLine
 62
7
  6
CONTINUOUS
 10
235.6372867506
 20
147.355709737
 11
235.6372867506
 21
150.6397011541
  0
LWPOLYLINE
  5
5E8
100
AcDbEntity
  8
0
100
AcDbPolyline
 62
7
  6
CONTINUOUS
 90
3
 70
0
 10
235.6372867817
 20
148.7286188175
 10
235.6710830719
 20
149.4618005078
 10
235.7936904718
 20
150.2466556496
  0
LINE
  5
5E9
100
AcDbEntity
  8
0
100
AcDbLine
 62
7
  6
CONTINUOUS
 10
249.6872867506
 20
106.4542569009
 11
211.5872867506
 21
106.4542569009
  0
LINE
  5
5EA
100
AcDbEntity
  8
RUNDUNGEN
100
AcDbLine
 62
7
  6
CONTINUOUS
 10
245.5885154487
 20
66.8536005785
 11
245.6180715123
 21
66.7561686837
  0
LWPOLYLINE
  5
5EB
100
AcDbEntity
  8
0
100
AcDbPolyline
 62
7
  6
CONTINUOUS
 90
3
 70
0
 10
225.4806522072
 20
150.2476820974
 10
225.6034187855
 20
149.4625574457
 10
225.637286725
 20
148.7286575101
  0
LINE
  5
5EC
100
AcDbEntity
  8
0
100
AcDbLine
 62
7
  6
CONTINUOUS
 10
236.1372867506
 20
151.2227555186
 11
236.1372867506
 21
150.5183697191
  0
LINE
  5
5ED
100
AcDbEntity
  8
0
100
AcDbLine
 62
7
  6
CONTINUOUS
 10
236.1372867506
 20
150.5047924029
 11
236.1372867506
 21
149.7015112249
  0
LINE
  5
5EE
100
AcDbEntity
  8
0
100
AcDbLine
 62
7
  6
CONTINUOUS
 10
236.1372867506
 20
149.6816796627
 11
236.1372867506
 21
148.4613041209
  0
LINE
  5
5EF
100
AcDbEntity
  8
0
100
AcDbLine
 62
7
  6
CONTINUOUS
 10
249.6872867506
 20
112.2058454959
 11
211.5872867506
 21
112.2058454959
  0
LINE
  5
5F0
100
AcDbEntity
  8
0
100
AcDbLine
 62
7
  6
CONTINUOUS
 10
249.6872867506
 20
113.0543736333
 11
211.5872867506
 21
113.0543736333
  0
LINE
  5
5F1
100
AcDbEntity
  8
0
100
AcDbLine
 62
7
  6
CONTINUOUS
 10
225.2862251508
 20
150.9056215286
 11
225.4806522072
 21
150.2476820974
  0
LINE
  5
5F2
100
AcDbEntity
  8
RUNDUNGEN
100
AcDbLine
 62
7
  6
CONTINUOUS
 10
245.6183575444
 20
66.3205259092
 11
245.6372867506
 21
66.2056775361
  0
LINE
  5
5F3
100
AcDbEntity
  8
RUNDUNGEN
100
AcDbLine
 62
7
  6
CONTINUOUS
 10
245.6180715123
 20
66.7561686837
 11
245.6372867506
 21
66.5610757852
  0
LWPOLYLINE
  5
5F4
100
AcDbEntity
  8
RUNDUNGEN
100
AcDbPolyline
 62
7
  6
CONTINUOUS
 90
5
 70
0
 10
223.787506478
 20
77.4150328193
 10
223.7094923849
 20
77.3227399228
 10
223.5858753318
 20
77.1852296878
 10
223.4622484927
 20
77.0590216323
 10
223.3686673399
 20
76.9715215089
  0
LINE
  5
5F5
100
AcDbEntity
  8
RUNDUNGEN
100
AcDbLine
 62
7
  6
CONTINUOUS
 10
236.9713679121
 20
95.4704256181
 11
236.9696971833
 21
95.4689304342
  0
LWPOLYLINE
  5
5F6
100
AcDbEntity
  8
RUNDUNGEN
100
AcDbPolyline
 62
7
  6
CONTINUOUS
 90
5
 70
0
 10
236.9719799663
 20
95.4709702532
 10
237.0470531129
 20
95.5371400292
 10
237.1732096682
 20
95.6436050571
 10
237.2958988464
 20
95.7408571219
 10
237.4164482552
 20
95.8299178747
  0
LINE
  5
5F7
100
AcDbEntity
  8
RUNDUNGEN
100
AcDbLine
 62
7
  6
CONTINUOUS
 10
237.4164482552
 20
95.8299178747
 11
237.4392219649
 21
95.845990017
  0
LINE
  5
5F8
100
AcDbEntity
  8
RUNDUNGEN
100
AcDbLine
 62
7
  6
CONTINUOUS
 10
237.4385974882
 20
95.8455439261
 11
237.5025984919
 21
95.8895413714
  0
LINE
  5
5F9
100
AcDbEntity
  8
RUNDUNGEN
100
AcDbLine
 62
7
  6
CONTINUOUS
 10
237.5025984919
 20
95.8895413714
 11
237.705972298
 21
96.0182234167
  0
LINE
  5
5FA
100
AcDbEntity
  8
RUNDUNGEN
100
AcDbLine
 62
7
  6
CONTINUOUS
 10
237.705972298
 20
96.0182234167
 11
237.9142121903
 21
96.1328653248
  0
LWPOLYLINE
  5
5FB
100
AcDbEntity
  8
RUNDUNGEN
100
AcDbPolyline
 62
7
  6
CONTINUOUS
 90
3
 70
0
 10
237.9142121903
 20
96.1328653248
 10
238.1269001092
 20
96.2327086481
 10
238.3436493171
 20
96.3170746114
  0
LINE
  5
5FC
100
AcDbEntity
  8
RUNDUNGEN
100
AcDbLine
 62
7
  6
CONTINUOUS
 10
238.3436493171
 20
96.3170746114
 11
238.4210664391
 21
96.3430420045
  0
LINE
  5
5FD
100
AcDbEntity
  8
RUNDUNGEN
100
AcDbLine
 62
7
  6
CONTINUOUS
 10
238.4210664391
 20
96.3430420045
 11
238.4208463443
 21
96.3429712155
  0
LINE
  5
5FE
100
AcDbEntity
  8
RUNDUNGEN
100
AcDbLine
 62
7
  6
CONTINUOUS
 10
238.4207869797
 20
96.3429781795
 11
238.4763980965
 21
96.3603104791
  0
LWPOLYLINE
  5
5FF
100
AcDbEntity
  8
0
100
AcDbPolyline
 62
7
  6
CONTINUOUS
 90
3
 70
0
 10
215.8058115802
 20
143.8600244495
 10
215.9301756378
 20
143.7084839145
 10
215.9635395391
 20
143.6811027565
  0
LINE
  5
600
100
AcDbEntity
  8
0
100
AcDbLine
 62
7
  6
CONTINUOUS
 10
245.6180583144
 20
144.0257083791
 11
245.6372867506
 21
143.8305499143
  0
LINE
  5
601
100
AcDbEntity
  8
0
100
AcDbLine
 62
7
  6
CONTINUOUS
 10
245.6372867506
 20
157.7923924748
 11
245.6372867506
 21
157.2897834509
  0
LINE
  5
602
100
AcDbEntity
  8
RUNDUNGEN
100
AcDbLine
 62
7
  6
CONTINUOUS
 10
245.6372867506
 20
165.4507769151
 11
245.6372867506
 21
157.2897834509
  0
LINE
  5
603
100
AcDbEntity
  8
RUNDUNGEN
100
AcDbLine
 62
7
  6
CONTINUOUS
 10
245.6372867506
 20
157.2566493494
 11
245.6372867506
 21
157.2472291603
  0
LINE
  5
604
100
AcDbEntity
  8
RUNDUNGEN
100
AcDbLine
 62
7
  6
CONTINUOUS
 10
245.6372867506
 20
153.5450373945
 11
245.6372867506
 21
144.415586364
  0
LINE
  5
605
100
AcDbEntity
  8
RUNDUNGEN
100
AcDbLine
 62
7
  6
CONTINUOUS
 10
245.6372867506
 20
143.8305499143
 11
245.6372867506
 21
143.6488391466
  0
LINE
  5
606
100
AcDbEntity
  8
0
100
AcDbLine
 62
7
  6
CONTINUOUS
 10
245.6372867506
 20
143.8305499143
 11
245.6372867506
 21
143.6488391466
  0
LINE
  5
607
100
AcDbEntity
  8
RUNDUNGEN
100
AcDbLine
 62
7
  6
CONTINUOUS
 10
245.6372867506
 20
102.2383310746
 11
245.6372867506
 21
97.4883310746
  0
LINE
  5
608
100
AcDbEntity
  8
RUNDUNGEN
100
AcDbLine
 62
7
  6
CONTINUOUS
 10
245.6372867506
 20
72.801299013
 11
245.6372867506
 21
67.146112235
  0
LINE
  5
609
100
AcDbEntity
  8
RUNDUNGEN
100
AcDbLine
 62
7
  6
CONTINUOUS
 10
245.6372867506
 20
66.5610757852
 11
245.6372867506
 21
57.4316247548
  0
LINE
  5
60A
100
AcDbEntity
  8
RUNDUNGEN
100
AcDbLine
 62
7
  6
CONTINUOUS
 10
245.6372867506
 20
53.7294304012
 11
245.6372867506
 21
45.5258852341
  0
LINE
  5
60B
100
AcDbEntity
  8
0
100
AcDbLine
 62
7
  6
CONTINUOUS
 10
245.6372867506
 20
144.415586364
 11
245.6372867506
 21
144.7392623746
  0
LINE
  5
60C
100
AcDbEntity
  8
RUNDUNGEN
100
AcDbLine
 62
7
  6
CONTINUOUS
 10
223.3686673399
 20
76.9715215089
 11
223.3685446862
 21
76.9714114582
  0
LWPOLYLINE
  5
60D
100
AcDbEntity
  8
RUNDUNGEN
100
AcDbPolyline
 62
7
  6
CONTINUOUS
 90
7
 70
0
 10
223.368543187
 20
76.9714131611
 10
223.2361838491
 20
76.8548610947
 10
222.9087624941
 20
76.5836010723
 10
222.5785293856
 20
76.3328982436
 10
222.2480661881
 20
76.1032111971
 10
221.9198381198
 20
75.8946527868
 10
221.8353376458
 20
75.8439857607
  0
LINE
  5
60E
100
AcDbEntity
  8
0
100
AcDbLine
 62
7
  6
CONTINUOUS
 10
249.6872867506
 20
106.2813525952
 11
249.6872867506
 21
105.4883310752
  0
LINE
  5
60F
100
AcDbEntity
  8
RUNDUNGEN
100
AcDbLine
 62
7
  6
CONTINUOUS
 10
249.6872867506
 20
105.4883310752
 11
249.6872867506
 21
70.446353353
  0
LINE
  5
610
100
AcDbEntity
  8
0
100
AcDbLine
 62
7
  6
CONTINUOUS
 10
249.6872867506
 20
106.4542569009
 11
249.6872867506
 21
140.5303618356
  0
LWPOLYLINE
  5
611
100
AcDbEntity
  8
RUNDUNGEN
100
AcDbPolyline
 62
7
  6
CONTINUOUS
 90
4
 70
0
 10
215.8338089484
 20
66.5564215096
 10
215.8040498059
 20
66.5346866001
 10
215.7124423891
 20
66.432025896
 10
215.6562159568
 20
66.3214180359
  0
LINE
  5
612
100
AcDbEntity
  8
RUNDUNGEN
100
AcDbLine
 62
7
  6
CONTINUOUS
 10
221.8353376458
 20
75.8439857607
 11
221.8354788503
 21
75.8440695006
  0
LWPOLYLINE
  5
613
100
AcDbEntity
  8
RUNDUNGEN
100
AcDbPolyline
 62
7
  6
CONTINUOUS
 90
7
 70
0
 10
221.8354862885
 20
75.8440570262
 10
221.7130852615
 20
75.7727937384
 10
221.3634451481
 20
75.5828485912
 10
221.0222454508
 20
75.4165520615
 10
220.6922444153
 20
75.2734321969
 10
220.3759666033
 20
75.1527402443
 10
220.3161039221
 20
75.1317416313
  0
LINE
  5
614
100
AcDbEntity
  8
0
100
AcDbLine
 62
7
  6
CONTINUOUS
 10
249.6872867506
 20
127.3379306133
 11
211.5872867506
 21
127.3379306133
  0
LWPOLYLINE
  5
615
100
AcDbEntity
  8
0
100
AcDbPolyline
 62
7
  6
CONTINUOUS
 90
3
 70
0
 10
224.7395628588
 20
151.8637319584
 10
225.0355737849
 20
151.4421331825
 10
225.2862251508
 20
150.9056215286
  0
LINE
  5
616
100
AcDbEntity
  8
RUNDUNGEN
100
AcDbLine
 62
7
  6
CONTINUOUS
 10
220.3161946932
 20
75.131810018
 11
216.3105118802
 21
73.7466296456
  0
LINE
  5
617
100
AcDbEntity
  8
0
100
AcDbLine
 62
7
  6
CONTINUOUS
 10
249.6872867506
 20
133.0895192083
 11
211.5872867506
 21
133.0895192083
  0
LINE
  5
618
100
AcDbEntity
  8
0
100
AcDbLine
 62
7
  6
CONTINUOUS
 10
245.5885154487
 20
144.1230615708
 11
245.6180583144
 21
144.0257083791
  0
LINE
  5
619
100
AcDbEntity
  8
0
100
AcDbLine
 62
7
  6
CONTINUOUS
 10
249.6872867506
 20
134.3483382534
 11
211.5872867506
 21
134.3483382534
  0
LINE
  5
61A
100
AcDbEntity
  8
RUNDUNGEN
100
AcDbLine
 62
7
  6
CONTINUOUS
 10
224.4835276235
 20
152.1139515778
 11
224.482940092
 21
152.1144298474
  0
LINE
  5
61B
100
AcDbEntity
  8
0
100
AcDbLine
 62
7
  6
CONTINUOUS
 10
224.482940092
 20
152.1144298474
 11
224.7395628588
 21
151.8637319584
  0
LWPOLYLINE
  5
61C
100
AcDbEntity
  8
0
100
AcDbPolyline
 62
7
  6
CONTINUOUS
 90
3
 70
0
 10
224.2408025792
 20
152.2810687282
 10
224.2938954962
 20
152.2496099572
 10
224.3618597162
 20
152.2050734891
  0
LINE
  5
61D
100
AcDbEntity
  8
0
100
AcDbLine
 62
7
  6
CONTINUOUS
 10
224.3665929683
 20
152.2019718227
 11
224.4366705806
 21
152.1509283629
  0
LINE
  5
61E
100
AcDbEntity
  8
0
100
AcDbLine
 62
7
  6
CONTINUOUS
 10
224.4366705806
 20
152.1509283629
 11
224.4835241634
 21
152.1139475793
  0
LWPOLYLINE
  5
61F
100
AcDbEntity
  8
RUNDUNGEN
100
AcDbPolyline
 62
7
  6
CONTINUOUS
 90
7
 70
0
 10
245.0202886647
 20
66.2223646862
 10
245.1930549419
 20
66.3147749313
 10
245.3444923137
 20
66.4391042495
 10
245.4687214558
 20
66.5904897652
 10
245.5611123716
 20
66.7632986744
 10
245.6180583144
 20
66.9509537701
 10
245.6372867506
 20
67.146112235
  0
LINE
  5
620
100
AcDbEntity
  8
RUNDUNGEN
100
AcDbLine
 62
7
  6
CONTINUOUS
 10
219.8863936129
 20
56.4316247548
 11
216.1978959667
 21
54.6276612055
  0
LINE
  5
621
100
AcDbEntity
  8
0
100
AcDbLine
 62
7
  6
CONTINUOUS
 10
214.2920465609
 20
143.5158063992
 11
222.9325206965
 21
144.3702753791
  0
LINE
  5
622
100
AcDbEntity
  8
0
100
AcDbLine
 62
7
  6
CONTINUOUS
 10
238.3420528045
 20
144.3702753791
 11
246.9825269404
 21
143.5158063992
  0
LINE
  5
623
100
AcDbEntity
  8
0
100
AcDbLine
 62
7
  6
CONTINUOUS
 10
223.7663465362
 20
152.8019583718
 11
224.5140290442
 21
152.4372892467
  0
LWPOLYLINE
  5
624
100
AcDbEntity
  8
0
100
AcDbPolyline
 62
7
  6
CONTINUOUS
 90
4
 70
0
 10
216.1978959615
 20
156.3490009463
 10
220.3955615784
 20
154.2940708075
 10
220.9133134763
 20
154.0360361574
 10
221.42607957
 20
153.7775443549
  0
LINE
  5
625
100
AcDbEntity
  8
0
100
AcDbLine
 62
7
  6
CONTINUOUS
 10
221.42607957
 20
153.7775443549
 11
222.0900943059
 21
153.4378132432
  0
LINE
  5
626
100
AcDbEntity
  8
RUNDUNGEN
100
AcDbLine
 62
7
  6
CONTINUOUS
 10
222.0904279821
 20
153.4375995782
 11
222.090077375
 21
153.437780549
  0
LWPOLYLINE
  5
627
100
AcDbEntity
  8
0
100
AcDbPolyline
 62
7
  6
CONTINUOUS
 90
4
 70
0
 10
222.0904279821
 20
153.4375995782
 10
222.7292049883
 20
153.1044515922
 10
223.2003781532
 20
152.8538758569
 10
223.6527218953
 20
152.6085859279
  0
LINE
  5
628
100
AcDbEntity
  8
0
100
AcDbLine
 62
7
  6
CONTINUOUS
 10
223.6527218953
 20
152.6085859279
 11
224.0840110259
 21
152.3694784413
  0
LINE
  5
629
100
AcDbEntity
  8
0
100
AcDbLine
 62
7
  6
CONTINUOUS
 10
224.0840110259
 20
152.3694784413
 11
224.2402743999
 21
152.2813687186
  0
LINE
  5
62A
100
AcDbEntity
  8
RUNDUNGEN
100
AcDbLine
 62
7
  6
CONTINUOUS
 10
224.2408025792
 20
152.2810687282
 11
224.2402741917
 21
152.2813683519
  0
LINE
  5
62B
100
AcDbEntity
  8
0
100
AcDbLine
 62
7
  6
CONTINUOUS
 10
235.641859888
 20
148.4613041209
 11
236.1372867506
 21
148.4613041209
  0
LINE
  5
62C
100
AcDbEntity
  8
0
100
AcDbLine
 62
7
  6
CONTINUOUS
 10
235.6373586936
 20
148.5475312693
 11
236.1372867506
 21
148.5475312693
  0
LINE
  5
62D
100
AcDbEntity
  8
0
100
AcDbLine
 62
7
  6
CONTINUOUS
 10
235.6372867506
 20
148.7473441607
 11
236.1372867506
 21
148.7473441607
  0
LINE
  5
62E
100
AcDbEntity
  8
0
100
AcDbLine
 62
7
  6
CONTINUOUS
 10
235.6372867506
 20
148.8179946354
 11
236.1372867506
 21
148.8179946354
  0
LINE
  5
62F
100
AcDbEntity
  8
0
100
AcDbLine
 62
7
  6
CONTINUOUS
 10
235.6372867506
 20
149.0016888438
 11
236.1372867506
 21
149.0016888438
  0
LINE
  5
630
100
AcDbEntity
  8
0
100
AcDbLine
 62
7
  6
CONTINUOUS
 10
235.6372867506
 20
149.1068016049
 11
236.1372867506
 21
149.1068016049
  0
LINE
  5
631
100
AcDbEntity
  8
0
100
AcDbLine
 62
7
  6
CONTINUOUS
 10
235.6372867506
 20
149.1382804961
 11
236.1372867506
 21
149.1382804961
  0
LINE
  5
632
100
AcDbEntity
  8
0
100
AcDbLine
 62
7
  6
CONTINUOUS
 10
235.6372867506
 20
149.2068348969
 11
236.1372867506
 21
149.2068348969
  0
LINE
  5
633
100
AcDbEntity
  8
0
100
AcDbLine
 62
7
  6
CONTINUOUS
 10
235.6641993568
 20
149.3124641796
 11
236.1372867506
 21
149.3124641796
  0
LINE
  5
634
100
AcDbEntity
  8
0
100
AcDbLine
 62
7
  6
CONTINUOUS
 10
235.6758390239
 20
149.4922451093
 11
236.1372867506
 21
149.4922451093
  0
LINE
  5
635
100
AcDbEntity
  8
0
100
AcDbLine
 62
7
  6
CONTINUOUS
 10
235.7054318453
 20
149.6816796627
 11
236.1372867506
 21
149.6816796627
  0
LINE
  5
636
100
AcDbEntity
  8
0
100
AcDbLine
 62
7
  6
CONTINUOUS
 10
235.7085298645
 20
149.7015112249
 11
236.1372867506
 21
149.7015112249
  0
LINE
  5
637
100
AcDbEntity
  8
0
100
AcDbLine
 62
7
  6
CONTINUOUS
 10
235.7128511347
 20
149.7291732673
 11
236.1372867506
 21
149.7291732673
  0
LINE
  5
638
100
AcDbEntity
  8
0
100
AcDbLine
 62
7
  6
CONTINUOUS
 10
235.7291584099
 20
149.8335621443
 11
236.1372867506
 21
149.8335621443
  0
LINE
  5
639
100
AcDbEntity
  8
0
100
AcDbLine
 62
7
  6
CONTINUOUS
 10
235.7452211637
 20
149.9363857501
 11
236.1372867506
 21
149.9363857501
  0
LINE
  5
63A
100
AcDbEntity
  8
0
100
AcDbLine
 62
7
  6
CONTINUOUS
 10
235.7730254013
 20
150.1143709193
 11
236.1372867506
 21
150.1143709193
  0
LINE
  5
63B
100
AcDbEntity
  8
0
100
AcDbLine
 62
7
  6
CONTINUOUS
 10
235.8216740924
 20
150.341420605
 11
236.1372867506
 21
150.341420605
  0
LINE
  5
63C
100
AcDbEntity
  8
0
100
AcDbLine
 62
7
  6
CONTINUOUS
 10
235.8699169729
 20
150.5047924029
 11
236.1372867506
 21
150.5047924029
  0
LINE
  5
63D
100
AcDbEntity
  8
0
100
AcDbLine
 62
7
  6
CONTINUOUS
 10
235.8970453806
 20
150.5966612275
 11
236.1372867506
 21
150.5966612275
  0
LINE
  5
63E
100
AcDbEntity
  8
0
100
AcDbLine
 62
7
  6
CONTINUOUS
 10
235.9235555562
 20
150.6864364444
 11
236.1372867506
 21
150.6864364444
  0
LINE
  5
63F
100
AcDbEntity
  8
0
100
AcDbLine
 62
7
  6
CONTINUOUS
 10
235.9611631491
 20
150.8137924397
 11
236.1372867506
 21
150.8137924397
  0
LINE
  5
640
100
AcDbEntity
  8
0
100
AcDbLine
 62
7
  6
CONTINUOUS
 10
235.9755668511
 20
150.8625697654
 11
236.1372867506
 21
150.8625697654
  0
LINE
  5
641
100
AcDbEntity
  8
0
100
AcDbLine
 62
7
  6
CONTINUOUS
 10
235.9813760308
 20
150.8822422253
 11
236.1372867506
 21
150.8822422253
  0
LINE
  5
642
100
AcDbEntity
  8
0
100
AcDbLine
 62
7
  6
CONTINUOUS
 10
236.0101300817
 20
150.9521094585
 11
236.1372867506
 21
150.9521094585
  0
LINE
  5
643
100
AcDbEntity
  8
0
100
AcDbLine
 62
7
  6
CONTINUOUS
 10
236.0553187178
 20
151.0488824762
 11
236.1372867506
 21
151.0488824762
  0
LINE
  5
644
100
AcDbEntity
  8
0
100
AcDbLine
 62
7
  6
CONTINUOUS
 10
244.6372867506
 20
154.5450373945
 11
241.3881742112
 21
154.5450373945
  0
LINE
  5
645
100
AcDbEntity
  8
0
100
AcDbLine
 62
7
  6
CONTINUOUS
 10
219.8863943835
 20
154.5450373945
 11
216.6372867506
 21
154.5450373945
  0
LINE
  5
646
100
AcDbEntity
  8
0
100
AcDbLine
 62
7
  6
CONTINUOUS
 10
224.2046165813
 20
154.7007769151
 11
237.0701212863
 21
154.7007769151
  0
LWPOLYLINE
  5
647
100
AcDbEntity
  8
RUNDUNGEN
100
AcDbPolyline
 62
7
  6
CONTINUOUS
 90
7
 70
0
 10
231.2699702739
 20
46.4778349746
 10
231.442857042
 20
46.5702448962
 10
231.5943935623
 20
46.6946077188
 10
231.7187563548
 20
46.8461442243
 10
231.8111662688
 20
47.0190310026
 10
231.8680720274
 20
47.2066241295
 10
231.8872867506
 20
47.4017144695
  0
LWPOLYLINE
  5
648
100
AcDbEntity
  8
RUNDUNGEN
100
AcDbPolyline
 62
7
  6
CONTINUOUS
 90
9
 70
0
 10
216.6372867506
 20
157.9507769151
 10
216.440746599
 20
157.9474655063
 10
216.2522563746
 20
157.9385660926
 10
216.0790614242
 20
157.9237321153
 10
215.9277641737
 20
157.9040032504
 10
215.8040498059
 20
157.8799231644
 10
215.7124423891
 20
157.8526333272
 10
215.6562159568
 20
157.8236217671
 10
215.6372867506
 20
157.7923924748
  0
LINE
  5
649
100
AcDbEntity
  8
RUNDUNGEN
100
AcDbLine
 62
7
  6
CONTINUOUS
 10
216.6372867506
 20
157.9507769151
 11
244.6372867506
 21
157.9507769151
  0
LWPOLYLINE
  5
64A
100
AcDbEntity
  8
RUNDUNGEN
100
AcDbPolyline
 62
7
  6
CONTINUOUS
 90
9
 70
0
 10
244.6372867506
 20
157.9507769151
 10
244.8338269023
 20
157.9478991157
 10
245.0223171267
 20
157.9385660926
 10
245.1955120771
 20
157.9238691756
 10
245.3468093276
 20
157.9040032504
 10
245.4705236953
 20
157.8800063079
 10
245.5621311122
 20
157.8526333272
 10
245.6183575444
 20
157.8225326143
 10
245.6372867506
 20
157.7923924748
  0
LINE
  5
64B
100
AcDbEntity
  8
RUNDUNGEN
100
AcDbLine
 62
7
  6
CONTINUOUS
 10
216.6372867506
 20
166.4507769151
 11
244.6372867506
 21
166.4507769151
  0
ARC
  5
64C
100
AcDbEntity
  8
RUNDUNGEN
100
AcDbCircle
 62
7
  6
CONTINUOUS
 10
77.9294570174
 20
51.959211558
 40
3.9999867763
100
AcDbArc
 50
88.0024125052
 51
101.7813552181
  0
ARC
  5
64D
100
AcDbEntity
  8
RUNDUNGEN
100
AcDbCircle
 62
7
  6
CONTINUOUS
 10
59.5447142046
 20
70.3440213668
 40
3.9999727644
100
AcDbArc
 50
348.2182371846
 51
1.9930749707
  0
ARC
  5
64E
100
AcDbEntity
  8
RUNDUNGEN
100
AcDbCircle
 62
7
  6
CONTINUOUS
 10
76.6843557929
 20
69.0988866443
 40
2.25
100
AcDbArc
 50
314.9971331545
 51
135.0024985962
  0
ARC
  5
64F
100
AcDbEntity
  8
RUNDUNGEN
100
AcDbCircle
 62
7
  6
CONTINUOUS
 10
74.7315813836
 20
59.0308457736
 40
1.0
100
AcDbArc
 50
153.0
 51
225.0
  0
ARC
  5
650
100
AcDbEntity
  8
RUNDUNGEN
100
AcDbCircle
 62
7
  6
CONTINUOUS
 10
66.6163149222
 20
67.146112235
 40
1.0
100
AcDbArc
 50
225.0
 51
297.0
  0
ARC
  5
651
100
AcDbEntity
  8
RUNDUNGEN
100
AcDbCircle
 62
7
  6
CONTINUOUS
 10
76.9085638397
 20
56.8538633174
 40
1.0
100
AcDbArc
 50
225.0000740563
 51
281.7817683465
  0
ARC
  5
652
100
AcDbEntity
  8
RUNDUNGEN
100
AcDbCircle
 62
7
  6
CONTINUOUS
 10
76.3308024023
 20
57.4316247548
 40
1.0
100
AcDbArc
 50
224.9973191992
 51
315.0
  0
ARC
  5
653
100
AcDbEntity
  8
RUNDUNGEN
100
AcDbCircle
 62
7
  6
CONTINUOUS
 10
64.4393382094
 20
69.3230889477
 40
1.0
100
AcDbArc
 50
168.2172551585
 51
225.0000817714
  0
ARC
  5
654
100
AcDbEntity
  8
RUNDUNGEN
100
AcDbCircle
 62
7
  6
CONTINUOUS
 10
65.0170939034
 20
68.7453332538
 40
1.0
100
AcDbArc
 50
135.0
 51
225.0
  0
ARC
  5
655
100
AcDbEntity
  8
RUNDUNGEN
100
AcDbCircle
 62
7
  6
CONTINUOUS
 10
54.9871836181
 20
84.6752432853
 40
1.0
100
AcDbArc
 50
157.8004737378
 51
202.5
  0
ARC
  5
656
100
AcDbEntity
  8
RUNDUNGEN
100
AcDbCircle
 62
7
  6
CONTINUOUS
 10
50.3721934209
 20
92.4883310746
 40
3.9999867763
100
AcDbArc
 50
43.0024125052
 51
56.7813552188
  0
ARC
  5
657
100
AcDbEntity
  8
RUNDUNGEN
100
AcDbCircle
 62
7
  6
CONTINUOUS
 10
54.3787923413
 20
91.1244037991
 40
2.0000000134
100
AcDbArc
 50
338.6348712141
 51
43.00114801
  0
ARC
  5
658
100
AcDbEntity
  8
RUNDUNGEN
100
AcDbCircle
 62
7
  6
CONTINUOUS
 10
53.1113543827
 20
99.7499711286
 40
1.0
100
AcDbArc
 50
108.0
 51
180.0
  0
ARC
  5
659
100
AcDbEntity
  8
RUNDUNGEN
100
AcDbCircle
 62
7
  6
CONTINUOUS
 10
53.1113543827
 20
96.6712530138
 40
1.0
100
AcDbArc
 50
180.0000740387
 51
236.7817683368
  0
ARC
  5
65A
100
AcDbEntity
  8
RUNDUNGEN
100
AcDbCircle
 62
7
  6
CONTINUOUS
 10
53.1113543827
 20
97.4883310746
 40
1.0
100
AcDbArc
 50
179.9973191992
 51
270.0
  0
ARC
  5
65B
100
AcDbEntity
  8
RUNDUNGEN
100
AcDbCircle
 62
7
  6
CONTINUOUS
 10
61.4133317471
 20
74.1415233606
 40
2.0000000135
100
AcDbArc
 50
1.99885199
 51
66.2560910813
  0
ARC
  5
65C
100
AcDbEntity
  8
RUNDUNGEN
100
AcDbCircle
 62
7
  6
CONTINUOUS
 10
57.2832842123
 20
79.1319660902
 40
1.0
100
AcDbArc
 50
202.5
 51
247.1995262622
  0
ARC
  5
65D
100
AcDbEntity
  8
RUNDUNGEN
100
AcDbCircle
 62
7
  6
CONTINUOUS
 10
92.2607124339
 20
47.4017144695
 40
1.0
100
AcDbArc
 50
247.5
 51
292.1995262622
  0
ARC
  5
65E
100
AcDbEntity
  8
RUNDUNGEN
100
AcDbCircle
 62
7
  6
CONTINUOUS
 10
81.7269925091
 20
53.8278625986
 40
2.0000000134
100
AcDbArc
 50
23.6348712081
 51
88.00114801
  0
ARC
  5
65F
100
AcDbEntity
  8
RUNDUNGEN
100
AcDbCircle
 62
7
  6
CONTINUOUS
 10
86.7174352388
 20
49.6978150637
 40
1.0
100
AcDbArc
 50
202.8004737378
 51
247.5
  0
ARC
  5
660
100
AcDbEntity
  8
RUNDUNGEN
100
AcDbCircle
 62
7
  6
CONTINUOUS
 10
100.0738002232
 20
42.7867717807
 40
3.9999726822
100
AcDbArc
 50
33.2182361801
 51
46.9932047535
  0
ARC
  5
661
100
AcDbEntity
  8
RUNDUNGEN
100
AcDbCircle
 62
7
  6
CONTINUOUS
 10
98.7098729476
 20
46.7933231927
 40
2.0000000135
100
AcDbArc
 50
46.99885199
 51
111.2560910825
  0
ARC
  5
662
100
AcDbEntity
  8
RUNDUNGEN
100
AcDbCircle
 62
7
  6
CONTINUOUS
 10
107.3354402772
 20
45.5258852341
 40
1.0
100
AcDbArc
 50
270.0
 51
342.0
  0
ARC
  5
663
100
AcDbEntity
  8
RUNDUNGEN
100
AcDbCircle
 62
7
  6
CONTINUOUS
 10
104.2567302873
 20
45.5258852341
 40
1.0
100
AcDbArc
 50
213.2172522447
 51
270.0000814067
  0
ARC
  5
664
100
AcDbEntity
  8
RUNDUNGEN
100
AcDbCircle
 62
7
  6
CONTINUOUS
 10
105.0738002232
 20
45.5258852341
 40
1.0
100
AcDbArc
 50
180.0
 51
270.0
  0
ARC
  5
665
100
AcDbEntity
  8
RUNDUNGEN
100
AcDbCircle
 62
7
  6
CONTINUOUS
 10
98.0738002232
 20
75.0178908502
 40
5.0
100
AcDbArc
 50
243.7898814287
 51
315.4333915557
  0
ARC
  5
666
100
AcDbEntity
  8
RUNDUNGEN
100
AcDbCircle
 62
7
  6
CONTINUOUS
 10
82.6033599988
 20
90.4883310746
 40
5.0
100
AcDbArc
 50
134.5666084489
 51
206.2101185713
  0
ARC
  5
667
100
AcDbEntity
  8
RUNDUNGEN
100
AcDbCircle
 62
7
  6
CONTINUOUS
 10
81.1763014936
 20
91.8895963943
 40
2.9999995879
100
AcDbArc
 50
45.0000000004
 51
135.337633394
  0
ARC
  5
668
100
AcDbEntity
  8
RUNDUNGEN
100
AcDbCircle
 62
7
  6
CONTINUOUS
 10
99.4750655428
 20
73.5908323449
 40
2.9999995879
100
AcDbArc
 50
314.6634416987
 51
44.9999999996
  0
ARC
  5
669
100
AcDbEntity
  8
RUNDUNGEN
100
AcDbCircle
 62
7
  6
CONTINUOUS
 10
50.3722407942
 20
118.4883310746
 40
3.9999727644
100
AcDbArc
 50
303.2182371978
 51
316.9930749707
  0
ARC
  5
66A
100
AcDbEntity
  8
RUNDUNGEN
100
AcDbCircle
 62
7
  6
CONTINUOUS
 10
54.3787923413
 20
119.8522583502
 40
2.0000000135
100
AcDbArc
 50
316.99885199
 51
21.256088894
  0
ARC
  5
66B
100
AcDbEntity
  8
RUNDUNGEN
100
AcDbCircle
 62
7
  6
CONTINUOUS
 10
53.1113543827
 20
111.2266910206
 40
1.0
100
AcDbArc
 50
180.0
 51
252.0
  0
ARC
  5
66C
100
AcDbEntity
  8
RUNDUNGEN
100
AcDbCircle
 62
7
  6
CONTINUOUS
 10
53.1113543827
 20
114.3054010136
 40
1.0
100
AcDbArc
 50
123.2172569571
 51
180.0000388369
  0
ARC
  5
66D
100
AcDbEntity
  8
RUNDUNGEN
100
AcDbCircle
 62
7
  6
CONTINUOUS
 10
53.1113543827
 20
113.4883310746
 40
1.0
100
AcDbArc
 50
90.0
 51
180.0
  0
ARC
  5
66E
100
AcDbEntity
  8
RUNDUNGEN
100
AcDbCircle
 62
7
  6
CONTINUOUS
 10
54.9871836181
 20
126.3014188639
 40
1.0
100
AcDbArc
 50
157.5
 51
202.1995262622
  0
ARC
  5
66F
100
AcDbEntity
  8
RUNDUNGEN
100
AcDbCircle
 62
7
  6
CONTINUOUS
 10
61.6113543827
 20
105.4883310746
 40
2.25
100
AcDbArc
 50
269.9973737934
 51
90.0030799815
  0
ARC
  5
670
100
AcDbEntity
  8
RUNDUNGEN
100
AcDbCircle
 62
7
  6
CONTINUOUS
 10
61.4133317472
 20
136.8351387887
 40
2.0000000134
100
AcDbArc
 50
293.6348712121
 51
358.00114801
  0
ARC
  5
671
100
AcDbEntity
  8
RUNDUNGEN
100
AcDbCircle
 62
7
  6
CONTINUOUS
 10
57.2832842123
 20
131.844696059
 40
1.0
100
AcDbArc
 50
112.8004737378
 51
157.5
  0
ARC
  5
672
100
AcDbEntity
  8
RUNDUNGEN
100
AcDbCircle
 62
7
  6
CONTINUOUS
 10
59.5446807066
 20
140.6326742804
 40
3.9999867763
100
AcDbArc
 50
358.0024125052
 51
11.7813552189
  0
ARC
  5
673
100
AcDbEntity
  8
RUNDUNGEN
100
AcDbCircle
 62
7
  6
CONTINUOUS
 10
77.9294764342
 20
159.0174311745
 40
3.9999789997
100
AcDbArc
 50
258.2183982089
 51
271.9968484604
  0
ARC
  5
674
100
AcDbEntity
  8
RUNDUNGEN
100
AcDbCircle
 62
7
  6
CONTINUOUS
 10
76.6843557929
 20
141.8777755049
 40
2.25
100
AcDbArc
 50
224.997150894
 51
45.0024965154
  0
ARC
  5
675
100
AcDbEntity
  8
RUNDUNGEN
100
AcDbCircle
 62
7
  6
CONTINUOUS
 10
66.6163149222
 20
143.8305499143
 40
1.0
100
AcDbArc
 50
63.0
 51
135.0
  0
ARC
  5
676
100
AcDbEntity
  8
RUNDUNGEN
100
AcDbCircle
 62
7
  6
CONTINUOUS
 10
74.7315813836
 20
151.9458163757
 40
1.0
100
AcDbArc
 50
135.0
 51
207.0
  0
ARC
  5
677
100
AcDbEntity
  8
RUNDUNGEN
100
AcDbCircle
 62
7
  6
CONTINUOUS
 10
64.439332466
 20
141.6535674582
 40
1.0
100
AcDbArc
 50
135.0000740556
 51
191.7817683461
  0
ARC
  5
678
100
AcDbEntity
  8
RUNDUNGEN
100
AcDbCircle
 62
7
  6
CONTINUOUS
 10
65.0170939034
 20
142.2313288955
 40
1.0
100
AcDbArc
 50
134.9973191992
 51
225.0009123972
  0
ARC
  5
679
100
AcDbEntity
  8
RUNDUNGEN
100
AcDbCircle
 62
7
  6
CONTINUOUS
 10
76.9085599795
 20
154.1227949716
 40
1.0
100
AcDbArc
 50
78.2176032049
 51
135.0000906389
  0
ARC
  5
67A
100
AcDbEntity
  8
RUNDUNGEN
100
AcDbCircle
 62
7
  6
CONTINUOUS
 10
76.3308024023
 20
153.5450373945
 40
1.0
100
AcDbArc
 50
45.0
 51
135.0
  0
ARC
  5
67B
100
AcDbEntity
  8
RUNDUNGEN
100
AcDbCircle
 62
7
  6
CONTINUOUS
 10
82.6033599988
 20
120.4883310746
 40
5.0
100
AcDbArc
 50
153.7898814287
 51
225.4333915557
  0
ARC
  5
67C
100
AcDbEntity
  8
RUNDUNGEN
100
AcDbCircle
 62
7
  6
CONTINUOUS
 10
98.0738002232
 20
135.958771299
 40
5.0
100
AcDbArc
 50
44.5666084489
 51
116.2101185713
  0
ARC
  5
67D
100
AcDbEntity
  8
RUNDUNGEN
100
AcDbCircle
 62
7
  6
CONTINUOUS
 10
81.1763014935
 20
119.087065755
 40
2.9999995879
100
AcDbArc
 50
224.6634416986
 51
314.9999999996
  0
ARC
  5
67E
100
AcDbEntity
  8
0
100
AcDbCircle
 62
7
  6
CONTINUOUS
 10
85.2137930445
 20
105.4883310746
 40
1.0
100
AcDbArc
 50
75.0
 51
285.0
  0
ARC
  5
67F
100
AcDbEntity
  8
RUNDUNGEN
100
AcDbCircle
 62
7
  6
CONTINUOUS
 10
81.7269925093
 20
157.148799551
 40
2.0000000135
100
AcDbArc
 50
271.99885199
 51
336.2566420426
  0
ARC
  5
680
100
AcDbEntity
  8
RUNDUNGEN
100
AcDbCircle
 62
7
  6
CONTINUOUS
 10
86.7174352388
 20
161.2788470855
 40
1.0
100
AcDbArc
 50
112.5
 51
157.1995262622
  0
ARC
  5
681
100
AcDbEntity
  8
RUNDUNGEN
100
AcDbCircle
 62
7
  6
CONTINUOUS
 10
92.2607124339
 20
163.5749476797
 40
1.0
100
AcDbArc
 50
67.8004737378
 51
112.5
  0
ARC
  5
682
100
AcDbEntity
  8
RUNDUNGEN
100
AcDbCircle
 62
7
  6
CONTINUOUS
 10
99.4750655429
 20
137.3858298043
 40
2.9999995879
100
AcDbArc
 50
315.0000000004
 51
45.337633394
  0
ARC
  5
683
100
AcDbEntity
  8
RUNDUNGEN
100
AcDbCircle
 62
7
  6
CONTINUOUS
 10
100.0738002232
 20
168.1898680717
 40
3.9999640353
100
AcDbArc
 50
313.0015222116
 51
326.7819792969
  0
ARC
  5
684
100
AcDbEntity
  8
RUNDUNGEN
100
AcDbCircle
 62
7
  6
CONTINUOUS
 10
98.7098729474
 20
164.1833389566
 40
2.0000000135
100
AcDbArc
 50
248.6352322733
 51
313.00114801
  0
ARC
  5
685
100
AcDbEntity
  8
RUNDUNGEN
100
AcDbCircle
 62
7
  6
CONTINUOUS
 10
107.3354402772
 20
165.4507769151
 40
1.0
100
AcDbArc
 50
18.0000034279
 51
90.0000000726
  0
ARC
  5
686
100
AcDbEntity
  8
RUNDUNGEN
100
AcDbCircle
 62
7
  6
CONTINUOUS
 10
105.0738200826
 20
165.4507769151
 40
1.0
100
AcDbArc
 50
90.0
 51
179.9984290177
  0
ARC
  5
687
100
AcDbEntity
  8
RUNDUNGEN
100
AcDbCircle
 62
7
  6
CONTINUOUS
 10
104.2567222369
 20
165.4507769151
 40
1.0
100
AcDbArc
 50
89.9997605726
 51
146.7818879046
  0
ARC
  5
688
100
AcDbEntity
  8
RUNDUNGEN
100
AcDbCircle
 62
7
  6
CONTINUOUS
 10
126.0738002232
 20
42.7867247057
 40
3.9999866337
100
AcDbArc
 50
133.0023692406
 51
146.78135884
  0
ARC
  5
689
100
AcDbEntity
  8
RUNDUNGEN
100
AcDbCircle
 62
7
  6
CONTINUOUS
 10
127.4377274987
 20
46.7933231927
 40
2.0000000134
100
AcDbArc
 50
68.6348712092
 51
133.00114801
  0
ARC
  5
68A
100
AcDbEntity
  8
RUNDUNGEN
100
AcDbCircle
 62
7
  6
CONTINUOUS
 10
118.8121601692
 20
45.5258852341
 40
1.0
100
AcDbArc
 50
198.0
 51
270.0
  0
ARC
  5
68B
100
AcDbEntity
  8
RUNDUNGEN
100
AcDbCircle
 62
7
  6
CONTINUOUS
 10
121.0738002232
 20
45.5258852341
 40
1.0
100
AcDbArc
 50
270.0
 51
360.0
  0
ARC
  5
68C
100
AcDbEntity
  8
RUNDUNGEN
100
AcDbCircle
 62
7
  6
CONTINUOUS
 10
121.8908782005
 20
45.5258852341
 40
1.0
100
AcDbArc
 50
270.0000743535
 51
326.7817783383
  0
ARC
  5
68D
100
AcDbEntity
  8
RUNDUNGEN
100
AcDbCircle
 62
7
  6
CONTINUOUS
 10
113.0738002232
 20
54.0258852341
 40
2.25
100
AcDbArc
 50
359.9972335608
 51
180.0023965039
  0
ARC
  5
68E
100
AcDbEntity
  8
RUNDUNGEN
100
AcDbCircle
 62
7
  6
CONTINUOUS
 10
133.8868880125
 20
47.4017144695
 40
1.0
100
AcDbArc
 50
247.8004737378
 51
292.5
  0
ARC
  5
68F
100
AcDbEntity
  8
RUNDUNGEN
100
AcDbCircle
 62
7
  6
CONTINUOUS
 10
144.4206079373
 20
53.8278625985
 40
2.0000000135
100
AcDbArc
 50
91.99885199
 51
156.256088889
  0
ARC
  5
690
100
AcDbEntity
  8
RUNDUNGEN
100
AcDbCircle
 62
7
  6
CONTINUOUS
 10
139.4301652076
 20
49.6978150637
 40
1.0
100
AcDbArc
 50
292.5
 51
337.1995262622
  0
ARC
  5
691
100
AcDbEntity
  8
RUNDUNGEN
100
AcDbCircle
 62
7
  6
CONTINUOUS
 10
143.5442404476
 20
90.4883310746
 40
5.0
100
AcDbArc
 50
333.7898814287
 51
45.4333915557
  0
ARC
  5
692
100
AcDbEntity
  8
RUNDUNGEN
100
AcDbCircle
 62
7
  6
CONTINUOUS
 10
128.0738002232
 20
75.0178908502
 40
5.0
100
AcDbArc
 50
224.5666084489
 51
296.2101185713
  0
ARC
  5
693
100
AcDbEntity
  8
RUNDUNGEN
100
AcDbCircle
 62
7
  6
CONTINUOUS
 10
126.6725349036
 20
73.590832345
 40
2.9999995879
100
AcDbArc
 50
135.0000000004
 51
225.337633394
  0
ARC
  5
694
100
AcDbEntity
  8
0
100
AcDbCircle
 62
7
  6
CONTINUOUS
 10
113.0738002232
 20
77.6283238959
 40
1.0
100
AcDbArc
 50
165.0
 51
15.0
  0
ARC
  5
695
100
AcDbEntity
  8
RUNDUNGEN
100
AcDbCircle
 62
7
  6
CONTINUOUS
 10
166.6029194334
 20
70.3439881753
 40
3.9999866337
100
AcDbArc
 50
178.0023692406
 51
191.78135884
  0
ARC
  5
696
100
AcDbEntity
  8
RUNDUNGEN
100
AcDbCircle
 62
7
  6
CONTINUOUS
 10
148.2181098355
 20
51.9592451515
 40
3.9999726822
100
AcDbArc
 50
78.2182361136
 51
91.9932047535
  0
ARC
  5
697
100
AcDbEntity
  8
RUNDUNGEN
100
AcDbCircle
 62
7
  6
CONTINUOUS
 10
149.4632446535
 20
69.0988866443
 40
2.25
100
AcDbArc
 50
44.9971270304
 51
225.0024848537
  0
ARC
  5
698
100
AcDbEntity
  8
RUNDUNGEN
100
AcDbCircle
 62
7
  6
CONTINUOUS
 10
159.5312855243
 20
67.146112235
 40
1.0
100
AcDbArc
 50
243.0
 51
315.0
  0
ARC
  5
699
100
AcDbEntity
  8
RUNDUNGEN
100
AcDbCircle
 62
7
  6
CONTINUOUS
 10
151.4160190629
 20
59.0308457736
 40
1.0
100
AcDbArc
 50
315.0
 51
27.0
  0
ARC
  5
69A
100
AcDbEntity
  8
RUNDUNGEN
100
AcDbCircle
 62
7
  6
CONTINUOUS
 10
161.1305065431
 20
68.7453332538
 40
1.0
100
AcDbArc
 50
315.0
 51
45.0
  0
ARC
  5
69B
100
AcDbEntity
  8
RUNDUNGEN
100
AcDbCircle
 62
7
  6
CONTINUOUS
 10
161.7082679216
 20
69.3230946323
 40
1.0
100
AcDbArc
 50
315.0000743519
 51
11.7817783375
  0
ARC
  5
69C
100
AcDbEntity
  8
RUNDUNGEN
100
AcDbCircle
 62
7
  6
CONTINUOUS
 10
149.2390423511
 20
56.8538690618
 40
1.0
100
AcDbArc
 50
258.2172544149
 51
315.000037304
  0
ARC
  5
69D
100
AcDbEntity
  8
RUNDUNGEN
100
AcDbCircle
 62
7
  6
CONTINUOUS
 10
149.8167980441
 20
57.4316247548
 40
1.0
100
AcDbArc
 50
225.0
 51
315.0
  0
ARC
  5
69E
100
AcDbEntity
  8
RUNDUNGEN
100
AcDbCircle
 62
7
  6
CONTINUOUS
 10
144.9712989529
 20
91.8895963942
 40
2.9999995879
100
AcDbArc
 50
44.6634416986
 51
134.9999999996
  0
ARC
  5
69F
100
AcDbEntity
  8
RUNDUNGEN
100
AcDbCircle
 62
7
  6
CONTINUOUS
 10
164.7342686993
 20
74.1415233605
 40
2.0000000134
100
AcDbArc
 50
113.6348712166
 51
178.00114801
  0
ARC
  5
6A0
100
AcDbEntity
  8
RUNDUNGEN
100
AcDbCircle
 62
7
  6
CONTINUOUS
 10
171.1604168283
 20
84.6752432853
 40
1.0
100
AcDbArc
 50
337.5
 51
22.1995262622
  0
ARC
  5
6A1
100
AcDbEntity
  8
RUNDUNGEN
100
AcDbCircle
 62
7
  6
CONTINUOUS
 10
168.8643162341
 20
79.1319660902
 40
1.0
100
AcDbArc
 50
292.8004737378
 51
337.5
  0
ARC
  5
6A2
100
AcDbEntity
  8
RUNDUNGEN
100
AcDbCircle
 62
7
  6
CONTINUOUS
 10
175.7753595171
 20
92.4883310746
 40
3.9999726822
100
AcDbArc
 50
123.2182361136
 51
136.9932047535
  0
ARC
  5
6A3
100
AcDbEntity
  8
RUNDUNGEN
100
AcDbCircle
 62
7
  6
CONTINUOUS
 10
171.7688081051
 20
91.124403799
 40
2.0000000135
100
AcDbArc
 50
136.99885199
 51
201.2560888896
  0
ARC
  5
6A4
100
AcDbEntity
  8
RUNDUNGEN
100
AcDbCircle
 62
7
  6
CONTINUOUS
 10
173.0362460637
 20
99.7499711286
 40
1.0
100
AcDbArc
 50
0.0
 51
72.0
  0
ARC
  5
6A5
100
AcDbEntity
  8
RUNDUNGEN
100
AcDbCircle
 62
7
  6
CONTINUOUS
 10
173.0362460637
 20
96.6712611379
 40
1.0
100
AcDbArc
 50
303.2172544152
 51
0.0000373046
  0
ARC
  5
6A6
100
AcDbEntity
  8
RUNDUNGEN
100
AcDbCircle
 62
7
  6
CONTINUOUS
 10
173.0362460637
 20
97.4883310746
 40
1.0
100
AcDbArc
 50
270.0
 51
360.0
  0
ARC
  5
6A7
100
AcDbEntity
  8
RUNDUNGEN
100
AcDbCircle
 62
7
  6
CONTINUOUS
 10
113.0738002232
 20
105.4883310746
 40
38.9624458405
100
AcDbArc
 50
116.2101185713
 51
153.7898814287
  0
ARC
  5
6A8
100
AcDbEntity
  8
RUNDUNGEN
100
AcDbCircle
 62
7
  6
CONTINUOUS
 10
113.0738002232
 20
105.4883310746
 40
38.9624458405
100
AcDbArc
 50
206.2101185713
 51
243.7898814287
  0
ARC
  5
6A9
100
AcDbEntity
  8
RUNDUNGEN
100
AcDbCircle
 62
7
  6
CONTINUOUS
 10
113.0738002232
 20
105.4883310746
 40
38.9624458405
100
AcDbArc
 50
296.2101185713
 51
333.7898814287
  0
ARC
  5
6AA
100
AcDbEntity
  8
RUNDUNGEN
100
AcDbCircle
 62
7
  6
CONTINUOUS
 10
113.0738002232
 20
105.4883310746
 40
38.9624458405
100
AcDbArc
 50
26.2101185713
 51
63.7898814287
  0
ARC
  5
6AB
100
AcDbEntity
  8
RUNDUNGEN
100
AcDbCircle
 62
7
  6
CONTINUOUS
 10
128.0738002232
 20
135.958771299
 40
5.0
100
AcDbArc
 50
63.7898814287
 51
135.4333915557
  0
ARC
  5
6AC
100
AcDbEntity
  8
RUNDUNGEN
100
AcDbCircle
 62
7
  6
CONTINUOUS
 10
143.5442404476
 20
120.4883310746
 40
5.0
100
AcDbArc
 50
314.5666084489
 51
26.2101185713
  0
ARC
  5
6AD
100
AcDbEntity
  8
0
100
AcDbCircle
 62
7
  6
CONTINUOUS
 10
113.0738002232
 20
133.3483382534
 40
1.0
100
AcDbArc
 50
345.0
 51
195.0
  0
ARC
  5
6AE
100
AcDbEntity
  8
0
100
AcDbCircle
 62
7
  6
CONTINUOUS
 10
140.933807402
 20
105.4883310746
 40
1.0
100
AcDbArc
 50
255.0
 51
105.0
  0
ARC
  5
6AF
100
AcDbEntity
  8
RUNDUNGEN
100
AcDbCircle
 62
7
  6
CONTINUOUS
 10
126.6725349036
 20
137.3858298043
 40
2.9999995879
100
AcDbArc
 50
134.6634416986
 51
224.9999999996
  0
ARC
  5
6B0
100
AcDbEntity
  8
RUNDUNGEN
100
AcDbCircle
 62
7
  6
CONTINUOUS
 10
126.0738002232
 20
168.1898902315
 40
3.9999725999
100
AcDbArc
 50
213.2182350379
 51
226.993333689
  0
ARC
  5
6B1
100
AcDbEntity
  8
RUNDUNGEN
100
AcDbCircle
 62
7
  6
CONTINUOUS
 10
113.0738002232
 20
156.9507769151
 40
2.25
100
AcDbArc
 50
179.9972397404
 51
0.0023867943
  0
ARC
  5
6B2
100
AcDbEntity
  8
RUNDUNGEN
100
AcDbCircle
 62
7
  6
CONTINUOUS
 10
127.4377274988
 20
164.1833389565
 40
2.0000000135
100
AcDbArc
 50
226.99885199
 51
291.256088885
  0
ARC
  5
6B3
100
AcDbEntity
  8
RUNDUNGEN
100
AcDbCircle
 62
7
  6
CONTINUOUS
 10
118.8121601692
 20
165.4507769151
 40
1.0
100
AcDbArc
 50
90.0000034265
 51
162.0000000727
  0
ARC
  5
6B4
100
AcDbEntity
  8
RUNDUNGEN
100
AcDbCircle
 62
7
  6
CONTINUOUS
 10
121.8908701571
 20
165.4507769151
 40
1.0
100
AcDbArc
 50
33.2172518237
 51
90.0000361533
  0
ARC
  5
6B5
100
AcDbEntity
  8
RUNDUNGEN
100
AcDbCircle
 62
7
  6
CONTINUOUS
 10
121.0738002232
 20
165.4507769151
 40
1.0
100
AcDbArc
 50
0.0
 51
90.0
  0
ARC
  5
6B6
100
AcDbEntity
  8
RUNDUNGEN
100
AcDbCircle
 62
7
  6
CONTINUOUS
 10
133.8868880125
 20
163.5749476797
 40
1.0
100
AcDbArc
 50
67.5
 51
112.1995262622
  0
ARC
  5
6B7
100
AcDbEntity
  8
RUNDUNGEN
100
AcDbCircle
 62
7
  6
CONTINUOUS
 10
144.4206079373
 20
157.1487995507
 40
2.0000000134
100
AcDbArc
 50
203.634871213
 51
268.00114801
  0
ARC
  5
6B8
100
AcDbEntity
  8
RUNDUNGEN
100
AcDbCircle
 62
7
  6
CONTINUOUS
 10
139.4301652076
 20
161.2788470855
 40
1.0
100
AcDbArc
 50
22.8004737378
 51
67.5
  0
ARC
  5
6B9
100
AcDbEntity
  8
RUNDUNGEN
100
AcDbCircle
 62
7
  6
CONTINUOUS
 10
144.9712989529
 20
119.087065755
 40
2.9999995879
100
AcDbArc
 50
225.0000000004
 51
315.3376333939
  0
ARC
  5
6BA
100
AcDbEntity
  8
RUNDUNGEN
100
AcDbCircle
 62
7
  6
CONTINUOUS
 10
175.7754065921
 20
118.4883310746
 40
3.9999866337
100
AcDbArc
 50
223.0023692406
 51
236.78135884
  0
ARC
  5
6BB
100
AcDbEntity
  8
RUNDUNGEN
100
AcDbCircle
 62
7
  6
CONTINUOUS
 10
164.5362460637
 20
105.4883310746
 40
2.25
100
AcDbArc
 50
89.9972335605
 51
270.0023965024
  0
ARC
  5
6BC
100
AcDbEntity
  8
RUNDUNGEN
100
AcDbCircle
 62
7
  6
CONTINUOUS
 10
171.7688081051
 20
119.8522583501
 40
2.0000000134
100
AcDbArc
 50
158.6348712018
 51
223.00114801
  0
ARC
  5
6BD
100
AcDbEntity
  8
RUNDUNGEN
100
AcDbCircle
 62
7
  6
CONTINUOUS
 10
173.0362460637
 20
111.2266910206
 40
1.0
100
AcDbArc
 50
288.0
 51
360.0
  0
ARC
  5
6BE
100
AcDbEntity
  8
RUNDUNGEN
100
AcDbCircle
 62
7
  6
CONTINUOUS
 10
173.0362460637
 20
114.3054090519
 40
1.0
100
AcDbArc
 50
0.0000743535
 51
56.7817783383
  0
ARC
  5
6BF
100
AcDbEntity
  8
RUNDUNGEN
100
AcDbCircle
 62
7
  6
CONTINUOUS
 10
173.0362460637
 20
113.4883310746
 40
1.0
100
AcDbArc
 50
359.9973138447
 51
90.0009047571
  0
ARC
  5
6C0
100
AcDbEntity
  8
RUNDUNGEN
100
AcDbCircle
 62
7
  6
CONTINUOUS
 10
164.7342686993
 20
136.8351387887
 40
2.0000000135
100
AcDbArc
 50
181.99885199
 51
246.2560888892
  0
ARC
  5
6C1
100
AcDbEntity
  8
RUNDUNGEN
100
AcDbCircle
 62
7
  6
CONTINUOUS
 10
168.8643162341
 20
131.844696059
 40
1.0
100
AcDbArc
 50
22.5
 51
67.1995262622
  0
ARC
  5
6C2
100
AcDbEntity
  8
RUNDUNGEN
100
AcDbCircle
 62
7
  6
CONTINUOUS
 10
171.1604168283
 20
126.3014188639
 40
1.0
100
AcDbArc
 50
337.8004737378
 51
22.5
  0
ARC
  5
6C3
100
AcDbEntity
  8
RUNDUNGEN
100
AcDbCircle
 62
7
  6
CONTINUOUS
 10
148.2181431225
 20
159.0174502848
 40
3.9999866337
100
AcDbArc
 50
268.0023692406
 51
281.7813588393
  0
ARC
  5
6C4
100
AcDbEntity
  8
RUNDUNGEN
100
AcDbCircle
 62
7
  6
CONTINUOUS
 10
166.6028861463
 20
140.6326406869
 40
3.9999726822
100
AcDbArc
 50
168.2182361136
 51
181.9932047535
  0
ARC
  5
6C5
100
AcDbEntity
  8
RUNDUNGEN
100
AcDbCircle
 62
7
  6
CONTINUOUS
 10
149.4632446535
 20
141.8777755049
 40
2.25
100
AcDbArc
 50
134.9971508939
 51
315.0024965153
  0
ARC
  5
6C6
100
AcDbEntity
  8
RUNDUNGEN
100
AcDbCircle
 62
7
  6
CONTINUOUS
 10
151.4160190629
 20
151.9458163757
 40
1.0
100
AcDbArc
 50
333.0
 51
45.0
  0
ARC
  5
6C7
100
AcDbEntity
  8
RUNDUNGEN
100
AcDbCircle
 62
7
  6
CONTINUOUS
 10
159.5312855243
 20
143.8305499143
 40
1.0
100
AcDbArc
 50
45.0
 51
117.0
  0
ARC
  5
6C8
100
AcDbEntity
  8
RUNDUNGEN
100
AcDbCircle
 62
7
  6
CONTINUOUS
 10
149.8168641648
 20
153.5449712737
 40
1.0
100
AcDbArc
 50
45.0
 51
135.0009047571
  0
ARC
  5
6C9
100
AcDbEntity
  8
RUNDUNGEN
100
AcDbCircle
 62
7
  6
CONTINUOUS
 10
149.2390366655
 20
154.122798773
 40
1.0
100
AcDbArc
 50
45.0000743522
 51
101.7817783376
  0
ARC
  5
6CA
100
AcDbEntity
  8
RUNDUNGEN
100
AcDbCircle
 62
7
  6
CONTINUOUS
 10
161.708262236
 20
141.6535732025
 40
1.0
100
AcDbArc
 50
348.2172544149
 51
45.000037304
  0
ARC
  5
6CB
100
AcDbEntity
  8
RUNDUNGEN
100
AcDbCircle
 62
7
  6
CONTINUOUS
 10
161.1305065431
 20
142.2313288955
 40
1.0
100
AcDbArc
 50
315.0
 51
45.0
  0
ARC
  5
6CC
100
AcDbEntity
  8
RUNDUNGEN
100
AcDbCircle
 62
7
  6
CONTINUOUS
 10
221.6372913993
 20
92.4883310746
 40
3.9999979339
100
AcDbArc
 50
0.0
 51
48.1720572593
  0
ARC
  5
6CD
100
AcDbEntity
  8
RUNDUNGEN
100
AcDbCircle
 62
7
  6
CONTINUOUS
 10
214.5872867506
 20
70.446300313
 40
3.0
100
AcDbArc
 50
179.9999999974
 51
264.3522003912
  0
ARC
  5
6CE
100
AcDbEntity
  8
RUNDUNGEN
100
AcDbCircle
 62
7
  6
CONTINUOUS
 10
216.6372867506
 20
57.4316247548
 40
1.0
100
AcDbArc
 50
180.0
 51
270.0
  0
ARC
  5
6CF
100
AcDbEntity
  8
RUNDUNGEN
100
AcDbCircle
 62
7
  6
CONTINUOUS
 10
216.6372867506
 20
72.8014994077
 40
1.0
100
AcDbArc
 50
109.0748654269
 51
180.0000001668
  0
ARC
  5
6D0
100
AcDbEntity
  8
RUNDUNGEN
100
AcDbCircle
 62
7
  6
CONTINUOUS
 10
216.6372867506
 20
53.7292249977
 40
1.0
100
AcDbArc
 50
116.0614887928
 51
180.000000017
  0
ARC
  5
6D1
100
AcDbEntity
  8
RUNDUNGEN
100
AcDbCircle
 62
7
  6
CONTINUOUS
 10
216.6372867506
 20
97.4883310746
 40
1.0
100
AcDbArc
 50
180.0
 51
270.0
  0
ARC
  5
6D2
100
AcDbEntity
  8
RUNDUNGEN
100
AcDbCircle
 62
7
  6
CONTINUOUS
 10
216.6372867506
 20
102.2383310746
 40
1.0
100
AcDbArc
 50
90.0
 51
180.0
  0
ARC
  5
6D3
100
AcDbEntity
  8
RUNDUNGEN
100
AcDbCircle
 62
7
  6
CONTINUOUS
 10
216.6372867506
 20
45.5258852341
 40
1.0
100
AcDbArc
 50
180.0
 51
270.0
  0
ARC
  5
6D4
100
AcDbEntity
  8
0
100
AcDbCircle
 62
7
  6
CONTINUOUS
 10
214.5872867506
 20
140.5303618356
 40
3.0
100
AcDbArc
 50
95.6477996303
 51
180.0
  0
ARC
  5
6D5
100
AcDbEntity
  8
0
100
AcDbCircle
 62
7
  6
CONTINUOUS
 10
222.6372867506
 20
147.3557099978
 40
2.9999987818
100
AcDbArc
 50
275.6476996502
 51
359.9999949489
  0
ARC
  5
6D6
100
AcDbEntity
  8
0
100
AcDbCircle
 62
7
  6
CONTINUOUS
 10
223.6372867506
 20
150.6397011541
 40
2.0
100
AcDbArc
 50
0.0
 51
64.0
  0
ARC
  5
6D7
100
AcDbEntity
  8
0
100
AcDbCircle
 62
7
  6
CONTINUOUS
 10
216.6372867506
 20
153.5450373945
 40
1.0
100
AcDbArc
 50
90.0
 51
180.0
  0
ARC
  5
6D8
100
AcDbEntity
  8
0
100
AcDbCircle
 62
7
  6
CONTINUOUS
 10
216.6372867506
 20
157.2474371589
 40
1.0
100
AcDbArc
 50
179.9999999846
 51
243.9385110629
  0
ARC
  5
6D9
100
AcDbEntity
  8
RUNDUNGEN
100
AcDbCircle
 62
7
  6
CONTINUOUS
 10
216.6372867506
 20
165.4507769151
 40
1.0
100
AcDbArc
 50
90.0
 51
180.0
  0
ARC
  5
6DA
100
AcDbEntity
  8
0
100
AcDbCircle
 62
7
  6
CONTINUOUS
 10
224.2046168998
 20
153.7007998219
 40
0.999992959
100
AcDbArc
 50
90.0000230466
 51
244.0063680093
  0
ARC
  5
6DB
100
AcDbEntity
  8
RUNDUNGEN
100
AcDbCircle
 62
7
  6
CONTINUOUS
 10
239.6372812718
 20
92.4883310746
 40
3.999997565
100
AcDbArc
 50
131.8279534106
 51
180.0
  0
ARC
  5
6DC
100
AcDbEntity
  8
RUNDUNGEN
100
AcDbCircle
 62
7
  6
CONTINUOUS
 10
246.6872867506
 20
70.446300313
 40
3.0
100
AcDbArc
 50
275.647799613
 51
360.0
  0
ARC
  5
6DD
100
AcDbEntity
  8
RUNDUNGEN
100
AcDbCircle
 62
7
  6
CONTINUOUS
 10
244.6372867506
 20
57.4316247548
 40
1.0
100
AcDbArc
 50
270.0
 51
360.0
  0
ARC
  5
6DE
100
AcDbEntity
  8
RUNDUNGEN
100
AcDbCircle
 62
7
  6
CONTINUOUS
 10
244.6372867506
 20
72.8014947864
 40
1.0
100
AcDbArc
 50
359.9999998792
 51
70.9257140929
  0
ARC
  5
6DF
100
AcDbEntity
  8
RUNDUNGEN
100
AcDbCircle
 62
7
  6
CONTINUOUS
 10
244.6372867506
 20
53.7292334127
 40
1.0
100
AcDbArc
 50
359.9999993349
 51
63.9386776542
  0
ARC
  5
6E0
100
AcDbEntity
  8
RUNDUNGEN
100
AcDbCircle
 62
7
  6
CONTINUOUS
 10
244.6372867506
 20
45.5258852341
 40
1.0
100
AcDbArc
 50
270.0
 51
360.0
  0
ARC
  5
6E1
100
AcDbEntity
  8
RUNDUNGEN
100
AcDbCircle
 62
7
  6
CONTINUOUS
 10
244.6372867506
 20
102.2383310746
 40
1.0
100
AcDbArc
 50
0.0
 51
90.0
  0
ARC
  5
6E2
100
AcDbEntity
  8
RUNDUNGEN
100
AcDbCircle
 62
7
  6
CONTINUOUS
 10
244.6372867506
 20
97.4883310746
 40
1.0
100
AcDbArc
 50
270.0
 51
360.0
  0
ARC
  5
6E3
100
AcDbEntity
  8
0
100
AcDbCircle
 62
7
  6
CONTINUOUS
 10
246.6872867506
 20
140.5303618356
 40
3.0
100
AcDbArc
 50
0.0
 51
84.3522003696
  0
ARC
  5
6E4
100
AcDbEntity
  8
0
100
AcDbCircle
 62
7
  6
CONTINUOUS
 10
238.6372867506
 20
147.3557100011
 40
2.9999987832
100
AcDbArc
 50
180.0000050445
 51
264.3523003498
  0
ARC
  5
6E5
100
AcDbEntity
  8
0
100
AcDbCircle
 62
7
  6
CONTINUOUS
 10
237.6372867506
 20
150.6397011541
 40
2.0
100
AcDbArc
 50
116.0
 51
180.0
  0
ARC
  5
6E6
100
AcDbEntity
  8
0
100
AcDbCircle
 62
7
  6
CONTINUOUS
 10
244.6372867506
 20
153.5450373945
 40
1.0
100
AcDbArc
 50
0.0
 51
90.0
  0
ARC
  5
6E7
100
AcDbEntity
  8
0
100
AcDbCircle
 62
7
  6
CONTINUOUS
 10
244.6372867506
 20
157.2474287367
 40
1.0
100
AcDbArc
 50
296.06132285
 51
0.0000012707
  0
ARC
  5
6E8
100
AcDbEntity
  8
RUNDUNGEN
100
AcDbCircle
 62
7
  6
CONTINUOUS
 10
244.6372867506
 20
165.4507769151
 40
1.0
100
AcDbArc
 50
0.0
 51
90.0
  0
ARC
  5
6E9
100
AcDbEntity
  8
0
100
AcDbCircle
 62
7
  6
CONTINUOUS
 10
237.0701212639
 20
153.7008744316
 40
0.9999699955
100
AcDbArc
 50
295.9718511313
 51
89.9999980739
  0
ENDSEC
  0
SECTION
  2
OBJECTS
  0
DICTIONARY
  5
C
100
AcDbDictionary
280
0
281
1
  3
ACAD_GROUP
350
D
  3
ACAD_MLINESTYLE
350
17
  3
ACAD_LAYOUT
350
1A
  3
ACAD_PLOTSETTINGS
350
19
  3
ACAD_PLOTSTYLENAME
350
E
  0
DICTIONARY
  5
D
102
{ACAD_REACTORS
330
C
102
}
100
AcDbDictionary
280
0
281
1
  0
ACDBDICTIONARYWDFLT
  5
E
102
{ACAD_REACTORS
330
C
102
}
100
AcDbDictionary
281
1
  3
Normal
350
F
100
AcDbDictionaryWithDefault
340
F
  0
DICTIONARY
  5
17
102
{ACAD_REACTORS
330
C
102
}
100
AcDbDictionary
280
0
281
1
  3
Standard
350
18
  0
DICTIONARY
  5
19
102
{ACAD_REACTORS
330
C
102
}
100
AcDbDictionary
281
1
  0
DICTIONARY
  5
1A
102
{ACAD_REACTORS
330
C
102
}
100
AcDbDictionary
281
1
  3
Model
350
6EA
  3
Layout1
350
6EB
  0
ACDBPLACEHOLDER
  5
F
102
{ACAD_REACTORS
330
E
102
}
  0
MLINESTYLE
  5
18
102
{ACAD_REACTORS
330
17
102
}
100
AcDbMlineStyle
  2
STANDARD
 70
0
  3

 62
256
 51
90.0
 52
90.0
 71
2
 49
0.5
 62
256
  6
BYLAYER
 49
-0.5
 62
256
  6
BYLAYER
  0
LAYOUT
  5
6EA
102
{ACAD_REACTORS
330
1A
102
}
100
AcDbPlotSettings
  1

  2
none_device
  4
ISO_A4_(297.00_x_210.00_MM)
  6

 40
0.0
 41
0.0
 42
0.0
 43
0.0
 44
297.0
 45
210.0
 46
0.0
 47
0.0
 48
0.0
 49
0.0
140
0.0
141
0.0
142
1.0
143
1.0
 70
1024
 72
1
 73
0
 74
0
  7

 75
0
147
1.0
148
0.0
149
0.0
100
AcDbLayout
  1
Model
 70
0
 71
0
 10
0.0
 20
0.0
 11
297.0
 21
210.0
 12
0.0
 22
0.0
 32
0.0
 14
0.0
 24
0.0
 34
0.0
 15
0.0
 25
0.0
 35
0.0
146
0.0
 13
0.0
 23
0.0
 33
0.0
 16
1.0
 26
0.0
 36
0.0
 17
0.0
 27
1.0
 37
0.0
 76
0
330
210
345
0
346
0
  0
LAYOUT
  5
6EB
102
{ACAD_REACTORS
330
1A
102
}
100
AcDbPlotSettings
  1

  2
none_device
  4
ISO_A4_(297.00_x_210.00_MM)
  6

 40
0.0
 41
0.0
 42
0.0
 43
0.0
 44
297.0
 45
210.0
 46
0.0
 47
0.0
 48
0.0
 49
0.0
140
0.0
141
0.0
142
1.0
143
1.0
 70
0
 72
1
 73
0
 74
0
  7

 75
0
147
1.0
148
0.0
149
0.0
100
AcDbLayout
  1
Layout1
 70
0
 71
1
 10
0.0
 20
0.0
 11
297.0
 21
210.0
 12
0.0
 22
0.0
 32
0.0
 14
0.0
 24
0.0
 34
0.0
 15
0.0
 25
0.0
 35
0.0
146
0.0
 13
0.0
 23
0.0
 33
0.0
 16
1.0
 26
0.0
 36
0.0
 17
0.0
 27
1.0
 37
0.0
 76
0
330
211
345
0
346
0
  0
ENDSEC
  0
EOF
