  0
SECTION
  2
HEADER
  9
$ACADVER
  1
AC1015
  9
$DWGCODEPAGE
  3
ANSI_1252
  9
$EXTMAX
 10
297.0
 20
210.0
 30
0.0
  9
$EXTMIN
 10
0.0
 20
0.0
 30
0.0
  9
$LIMMIN
 10
0.0
 20
0.0
  9
$LIMMAX
 10
297.0
 20
210.0
  9
$VIEWCTR
 10
148.5
 20
105.0
  9
$VIEWSIZE
 40
210.0
  9
$CLAYER
  8
0
  9
$LTSCALE
 40
16.335
  9
$CELTYPE
  6
BYLAYER
  9
$DIMSCALE
 40
1.0
  9
$DIMASZ
 40
3.5
  9
$DIMEXO
 40
1.85625
  9
$DIMDLI
 40
11.286
  9
$DIMEXE
 40
5.346
  9
$DIMCEN
 40
2.673
  9
$DIMLFAC
 40
1.0
  9
$DIMBLK
  1
_FILLED
  9
$DIMTXT
 40
3.5
  9
$DIMTOL
 70
1
  9
$DIMLIM
 70
0
  9
$DIMTFAC
 40
1.0
  9
$DIMTP
 40
0.005
  9
$DIMTM
 40
0.005
  9
$PDMODE
 70
3
  9
$PDSIZE
 40
0.3125
  9
$HANDSEED
  5
693
  9
$TILEMODE
 70
1
  9
$MEASUREMENT
 70
1
  9
$INSUNITS
 70
4
  0
ENDSEC
  0
SECTION
  2
CLASSES
  0
CLASS
  1
ACDBDICTIONARYWDFLT
  2
AcDbDictionaryWithDefault
  3
AutoCAD 2000
 90
0
280
0
281
0
  0
CLASS
  1
ACDBPLACEHOLDER
  2
AcDbPlaceHolder
  3
AutoCAD 2000
 90
0
280
0
281
0
  0
CLASS
  1
LAYOUT
  2
AcDbLayout
  3
AutoCAD 2000
 90
0
280
0
281
0
  0
ENDSEC
  0
SECTION
  2
TABLES
  0
TABLE
  2
VPORT
  5
8
100
AcDbSymbolTable
 70
2
  0
VPORT
  5
1F4
100
AcDbSymbolTableRecord
100
AcDbViewportTableRecord
  2
*ACTIVE
 70
0
 10
0.0
 20
0.0
 11
1.0
 21
1.0
 12
148.5
 22
105.0
 13
0.0
 23
0.0
 14
1.0
 24
1.0
 15
0.0
 25
0.0
 16
0.0
 26
0.0
 36
1.0
 17
0.0
 27
0.0
 37
0.0
 40
210.0
 41
1.4142857143
 42
50.0
 43
0.0
 44
0.0
 50
0.0
 51
0.0
 71
0
 72
100
 73
1
 74
1
 75
0
 76
0
 77
0
 78
0
  0
ENDTAB
  0
TABLE
  2
LTYPE
  5
5
100
AcDbSymbolTable
 70
6
  0
LTYPE
  5
14
100
AcDbSymbolTableRecord
100
AcDbLinetypeTableRecord
  2
BYBLOCK
 70
0
  3

 72
65
 73
0
 40
0.0
  0
LTYPE
  5
15
100
AcDbSymbolTableRecord
100
AcDbLinetypeTableRecord
  2
BYLAYER
 70
0
  3

 72
65
 73
0
 40
0.0
  0
LTYPE
  5
16
100
AcDbSymbolTableRecord
100
AcDbLinetypeTableRecord
  2
CONTINUOUS
 70
64
  3
Solid line
 72
65
 73
0
 40
0.0
  0
LTYPE
  5
1F5
100
AcDbSymbolTableRecord
100
AcDbLinetypeTableRecord
  2
CENTER
 70
64
  3
____ _ ____ _ ____ _ ____ _ ____ _ ____ _ ____
 72
65
 73
4
 40
0.6
 49
0.375
 74
0
 49
-0.075
 74
0
 49
0.075
 74
0
 49
-0.075
 74
0
  0
LTYPE
  5
1F6
100
AcDbSymbolTableRecord
100
AcDbLinetypeTableRecord
  2
HIDDEN
 70
64
  3
- - - - - - - - - - - - - - - - - - - -
 72
65
 73
2
 40
0.2
 49
0.1
 74
0
 49
-0.1
 74
0
  0
LTYPE
  5
1F7
100
AcDbSymbolTableRecord
100
AcDbLinetypeTableRecord
  2
PHANTOM
 70
64
  3
_____ _ _ _____ _ _ _____ _ _ _____
 72
65
 73
6
 40
0.8
 49
0.45
 74
0
 49
-0.05
 74
0
 49
0.1
 74
0
 49
-0.05
 74
0
 49
0.1
 74
0
 49
-0.05
 74
0
  0
LTYPE
  5
1F8
100
AcDbSymbolTableRecord
100
AcDbLinetypeTableRecord
  2
DOT
 70
64
  3
. . . . . . . . . . . . . . . . . . . .
 72
65
 73
2
 40
0.2
 49
0.1
 74
0
 49
-0.1
 74
0
  0
LTYPE
  5
1F9
100
AcDbSymbolTableRecord
100
AcDbLinetypeTableRecord
  2
DASHED
 70
64
  3
- - - - - - - - - - - - - - - - - - - -
 72
65
 73
2
 40
0.2
 49
0.1
 74
0
 49
-0.1
 74
0
  0
ENDTAB
  0
TABLE
  2
LAYER
  5
2
100
AcDbSymbolTable
 70
36
  0
LAYER
  5
10
100
AcDbSymbolTableRecord
100
AcDbLayerTableRecord
  2
0
 70
0
 62
7
  6
CONTINUOUS
370
-3
390
F
  0
LAYER
  5
1FA
100
AcDbSymbolTableRecord
100
AcDbLayerTableRecord
  2
DEFAULT_1
 70
0
 62
7
  6
CENTER
370
-3
390
F
  0
LAYER
  5
1FB
100
AcDbSymbolTableRecord
100
AcDbLayerTableRecord
  2
DEFAULT_2
 70
0
 62
8
  6
HIDDEN
370
-3
390
F
  0
LAYER
  5
1FC
100
AcDbSymbolTableRecord
100
AcDbLayerTableRecord
  2
DEFAULT_3
 70
0
 62
7
  6
PHANTOM
370
-3
390
F
  0
LAYER
  5
1FD
100
AcDbSymbolTableRecord
100
AcDbLayerTableRecord
  2
01___PRT_ALL_DTM_PLN
 70
0
 62
7
  6
CONTINUOUS
370
-3
390
F
  0
LAYER
  5
1FE
100
AcDbSymbolTableRecord
100
AcDbLayerTableRecord
  2
01___PRT_DEF_DTM_PLN
 70
0
 62
7
  6
CONTINUOUS
370
-3
390
F
  0
LAYER
  5
1FF
100
AcDbSymbolTableRecord
100
AcDbLayerTableRecord
  2
02___PRT_ALL_AXES
 70
0
 62
7
  6
CONTINUOUS
370
-3
390
F
  0
LAYER
  5
200
100
AcDbSymbolTableRecord
100
AcDbLayerTableRecord
  2
03___PRT_ALL_CURVES
 70
0
 62
7
  6
CONTINUOUS
370
-3
390
F
  0
LAYER
  5
201
100
AcDbSymbolTableRecord
100
AcDbLayerTableRecord
  2
04___PRT_ALL_DTM_PNT
 70
0
 62
7
  6
CONTINUOUS
370
-3
390
F
  0
LAYER
  5
202
100
AcDbSymbolTableRecord
100
AcDbLayerTableRecord
  2
05___PRT_ALL_DTM_CSYS
 70
0
 62
7
  6
CONTINUOUS
370
-3
390
F
  0
LAYER
  5
203
100
AcDbSymbolTableRecord
100
AcDbLayerTableRecord
  2
05___PRT_DEF_DTM_CSYS
 70
0
 62
7
  6
CONTINUOUS
370
-3
390
F
  0
LAYER
  5
204
100
AcDbSymbolTableRecord
100
AcDbLayerTableRecord
  2
06___PRT_ALL_SURFS
 70
0
 62
7
  6
CONTINUOUS
370
-3
390
F
  0
LAYER
  5
205
100
AcDbSymbolTableRecord
100
AcDbLayerTableRecord
  2
AUSFORMSCHRAEGEN
 70
0
 62
7
  6
CONTINUOUS
370
-3
390
F
  0
LAYER
  5
206
100
AcDbSymbolTableRecord
100
AcDbLayerTableRecord
  2
BEZUGSACHSEN
 70
0
 62
7
  6
CONTINUOUS
370
-3
390
F
  0
LAYER
  5
207
100
AcDbSymbolTableRecord
100
AcDbLayerTableRecord
  2
BEZUGSEBENEN
 70
0
 62
7
  6
CONTINUOUS
370
-3
390
F
  0
LAYER
  5
208
100
AcDbSymbolTableRecord
100
AcDbLayerTableRecord
  2
BOHRUNGEN
 70
0
 62
7
  6
CONTINUOUS
370
-3
390
F
  0
LAYER
  5
209
100
AcDbSymbolTableRecord
100
AcDbLayerTableRecord
  2
FASEN
 70
0
 62
7
  6
CONTINUOUS
370
-3
390
F
  0
LAYER
  5
20A
100
AcDbSymbolTableRecord
100
AcDbLayerTableRecord
  2
GEWINDE
 70
0
 62
7
  6
CONTINUOUS
370
-3
390
F
  0
LAYER
  5
20B
100
AcDbSymbolTableRecord
100
AcDbLayerTableRecord
  2
KURVEN
 70
0
 62
7
  6
CONTINUOUS
370
-3
390
F
  0
LAYER
  5
20C
100
AcDbSymbolTableRecord
100
AcDbLayerTableRecord
  2
RUNDUNGEN
 70
0
 62
7
  6
CONTINUOUS
370
-3
390
F
  0
LAYER
  5
20D
100
AcDbSymbolTableRecord
100
AcDbLayerTableRecord
  2
ZEICHNUNGSBEMASSUNGEN
 70
0
 62
7
  6
CONTINUOUS
370
-3
390
F
  0
ENDTAB
  0
TABLE
  2
STYLE
  5
3
100
AcDbSymbolTable
 70
1
  0
STYLE
  5
11
100
AcDbSymbolTableRecord
100
AcDbTextStyleTableRecord
  2
STANDARD
 70
0
 40
0.0
 41
0.7
 50
0.0
 71
0
 42
0.2
  3
txt
  4

  0
STYLE
  5
20E
100
AcDbSymbolTableRecord
100
AcDbTextStyleTableRecord
  2
TEXTSTYLE_1
 70
0
 40
0.0
 41
0.8
 50
0.0
 71
0
 42
0.2
  3
gdt
  4

  0
ENDTAB
  0
TABLE
  2
VIEW
  5
6
100
AcDbSymbolTable
 70
0
  0
ENDTAB
  0
TABLE
  2
UCS
  5
7
100
AcDbSymbolTable
 70
0
  0
ENDTAB
  0
TABLE
  2
APPID
  5
9
100
AcDbSymbolTable
 70
1
  0
APPID
  5
20F
100
AcDbSymbolTableRecord
100
AcDbRegAppTableRecord
  2
ACAD
 70
0
  0
ENDTAB
  0
TABLE
  2
BLOCK_RECORD
  5
1
100
AcDbSymbolTable
 70
0
  0
BLOCK_RECORD
  5
210
100
AcDbSymbolTableRecord
100
AcDbBlockTableRecord
  2
*Model_Space
  0
BLOCK_RECORD
  5
211
100
AcDbSymbolTableRecord
100
AcDbBlockTableRecord
  2
*Paper_Space
  0
ENDTAB
  0
TABLE
  2
DIMSTYLE
  5
A
100
AcDbSymbolTable
 70
1
100
AcDbDimStyleTable
 71
0
  0
DIMSTYLE
105
212
100
AcDbSymbolTableRecord
100
AcDbDimStyleTableRecord
  2
STANDARD
 70
0
  3

  4

 40
1.0
 41
3.5
 42
0.0625
 43
0.38
 44
0.18
 45
0.0
 46
0.0
 47
0.005
 48
0.005
140
3.5
141
0.09
142
0.0
143
25.4
144
1.0
145
0.0
146
1.0
147
0.09
 71
1.0
 72
0.0
 73
0
 74
0
 75
0
 76
0
 77
1
 78
8
170
0
171
2
172
0
173
0
174
0
175
0
176
0
177
0
178
5
270
2
271
3
272
3
273
2
274
2
275
0
280
0
281
0
282
0
283
1
284
8
285
0
286
0
287
3
288
0
340
11
  0
ENDTAB
  0
ENDSEC
  0
SECTION
  2
BLOCKS
  0
BLOCK
  5
20
100
AcDbEntity
  8
0
100
AcDbBlockBegin
  2
*Model_Space
 70
0
 10
0.0
 20
0.0
 30
0.0
  3
*Model_Space
  1

  0
ENDBLK
  5
21
100
AcDbEntity
  8
0
100
AcDbBlockEnd
  0
BLOCK
  5
1C
100
AcDbEntity
  8
0
100
AcDbBlockBegin
  2
*Paper_Space
 70
0
 10
0.0
 20
0.0
 30
0.0
  3
*Paper_Space
  1

  0
ENDBLK
  5
1D
100
AcDbEntity
  8
0
100
AcDbBlockEnd
  0
ENDSEC
  0
SECTION
  2
ENTITIES
  0
LINE
  5
213
100
AcDbEntity
  8
0
100
AcDbLine
 62
7
  6
CONTINUOUS
 10
0.0
 20
0.0
 11
0.0
 21
210.0
  0
LINE
  5
214
100
AcDbEntity
  8
0
100
AcDbLine
 62
7
  6
CONTINUOUS
 10
0.0
 20
0.0
 11
297.0
 21
0.0
  0
LINE
  5
215
100
AcDbEntity
  8
0
100
AcDbLine
 62
7
  6
CONTINUOUS
 10
0.0
 20
210.0
 11
297.0
 21
210.0
  0
LINE
  5
216
100
AcDbEntity
  8
0
100
AcDbLine
 62
7
  6
CONTINUOUS
 10
297.0
 20
0.0
 11
297.0
 21
210.0
  0
LINE
  5
217
100
AcDbEntity
  8
RUNDUNGEN
100
AcDbLine
 62
7
  6
CONTINUOUS
 10
45.7049085063
 20
132.6535593383
 11
43.4088079121
 21
127.1102821432
  0
LINE
  5
218
100
AcDbEntity
  8
RUNDUNGEN
100
AcDbLine
 62
7
  6
CONTINUOUS
 10
81.2235328281
 20
164.9250070592
 11
75.680255633
 21
162.628906465
  0
LINE
  5
219
100
AcDbEntity
  8
RUNDUNGEN
100
AcDbLine
 62
7
  6
CONTINUOUS
 10
75.680255633
 20
49.2001153781
 11
81.2235328281
 21
46.9040147839
  0
LINE
  5
21A
100
AcDbEntity
  8
RUNDUNGEN
100
AcDbLine
 62
7
  6
CONTINUOUS
 10
43.4088079121
 20
84.7187396999
 11
45.7049085063
 21
79.1754625048
  0
LINE
  5
21B
100
AcDbEntity
  8
RUNDUNGEN
100
AcDbLine
 62
7
  6
CONTINUOUS
 10
41.4568582092
 20
114.7315795541
 11
41.4568582092
 21
111.6528708675
  0
LINE
  5
21C
100
AcDbEntity
  8
RUNDUNGEN
100
AcDbLine
 62
7
  6
CONTINUOUS
 10
41.4568582092
 20
100.1761509756
 11
41.4568582092
 21
97.0974315648
  0
LINE
  5
21D
100
AcDbEntity
  8
RUNDUNGEN
100
AcDbLine
 62
7
  6
CONTINUOUS
 10
45.6929408723
 20
119.9133034576
 11
45.7258912554
 21
120.2904880285
  0
LINE
  5
21E
100
AcDbEntity
  8
RUNDUNGEN
100
AcDbLine
 62
7
  6
CONTINUOUS
 10
45.5894156836
 20
119.5490573
 11
45.6929408723
 21
119.9133034576
  0
LINE
  5
21F
100
AcDbEntity
  8
RUNDUNGEN
100
AcDbLine
 62
7
  6
CONTINUOUS
 10
45.4190306031
 20
119.2108202131
 11
45.5894156836
 21
119.5490573
  0
LINE
  5
220
100
AcDbEntity
  8
RUNDUNGEN
100
AcDbLine
 62
7
  6
CONTINUOUS
 10
65.5469559759
 20
155.2560805508
 11
63.3699784289
 21
153.0791030038
  0
LINE
  5
221
100
AcDbEntity
  8
RUNDUNGEN
100
AcDbLine
 62
7
  6
CONTINUOUS
 10
55.2547119675
 20
144.9638365424
 11
53.0777285948
 21
142.7868531697
  0
LINE
  5
222
100
AcDbEntity
  8
RUNDUNGEN
100
AcDbLine
 62
7
  6
CONTINUOUS
 10
72.2063488421
 20
155.9247481998
 11
72.4963580022
 21
156.1681585691
  0
LINE
  5
223
100
AcDbEntity
  8
RUNDUNGEN
100
AcDbLine
 62
7
  6
CONTINUOUS
 10
71.8755846313
 20
155.740390553
 11
72.2063488421
 21
155.9247481998
  0
LINE
  5
224
100
AcDbEntity
  8
RUNDUNGEN
100
AcDbLine
 62
7
  6
CONTINUOUS
 10
71.5159345449
 20
155.621701134
 11
71.8755846313
 21
155.740390553
  0
LINE
  5
225
100
AcDbEntity
  8
RUNDUNGEN
100
AcDbLine
 62
7
  6
CONTINUOUS
 10
93.6022354164
 20
44.952065081
 11
96.6809441038
 21
44.952065081
  0
LINE
  5
226
100
AcDbEntity
  8
RUNDUNGEN
100
AcDbLine
 62
7
  6
CONTINUOUS
 10
108.1576639957
 20
44.952065081
 11
111.2363833284
 21
44.952065081
  0
LINE
  5
227
100
AcDbEntity
  8
RUNDUNGEN
100
AcDbLine
 62
7
  6
CONTINUOUS
 10
88.4205115138
 20
49.1881477441
 11
88.0433269428
 21
49.2210981272
  0
LINE
  5
228
100
AcDbEntity
  8
RUNDUNGEN
100
AcDbLine
 62
7
  6
CONTINUOUS
 10
88.7847576713
 20
49.0846225554
 11
88.4205115138
 21
49.1881477441
  0
LINE
  5
229
100
AcDbEntity
  8
RUNDUNGEN
100
AcDbLine
 62
7
  6
CONTINUOUS
 10
89.1229947582
 20
48.9142374749
 11
88.7847576713
 21
49.0846225554
  0
LINE
  5
22A
100
AcDbEntity
  8
RUNDUNGEN
100
AcDbLine
 62
7
  6
CONTINUOUS
 10
53.0777356473
 20
69.0421616209
 11
55.2547119675
 21
66.8651853007
  0
LINE
  5
22B
100
AcDbEntity
  8
RUNDUNGEN
100
AcDbLine
 62
7
  6
CONTINUOUS
 10
63.3699784289
 20
58.7499188393
 11
65.5469618016
 21
56.5729354666
  0
LINE
  5
22C
100
AcDbEntity
  8
RUNDUNGEN
100
AcDbLine
 62
7
  6
CONTINUOUS
 10
52.4090668439
 20
75.7015559781
 11
52.1656565158
 21
75.9915651855
  0
LINE
  5
22D
100
AcDbEntity
  8
RUNDUNGEN
100
AcDbLine
 62
7
  6
CONTINUOUS
 10
52.5934244085
 20
75.3707916869
 11
52.4090668439
 21
75.7015559781
  0
LINE
  5
22E
100
AcDbEntity
  8
RUNDUNGEN
100
AcDbLine
 62
7
  6
CONTINUOUS
 10
52.7121136998
 20
75.0111415029
 11
52.5934244085
 21
75.3707916869
  0
LINE
  5
22F
100
AcDbEntity
  8
RUNDUNGEN
100
AcDbLine
 62
7
  6
CONTINUOUS
 10
45.7258912554
 20
120.2904880285
 11
45.6870844354
 21
120.667076072
  0
LINE
  5
230
100
AcDbEntity
  8
RUNDUNGEN
100
AcDbLine
 62
7
  6
CONTINUOUS
 10
52.8877154018
 20
70.9098378588
 11
52.7576186785
 21
74.6374619915
  0
LINE
  5
231
100
AcDbEntity
  8
RUNDUNGEN
100
AcDbLine
 62
7
  6
CONTINUOUS
 10
52.8877329316
 20
70.9093760873
 11
52.8877335983
 21
70.9093165282
  0
LINE
  5
232
100
AcDbEntity
  8
RUNDUNGEN
100
AcDbLine
 62
7
  6
CONTINUOUS
 10
52.7576186785
 20
137.1915598507
 11
52.8877197201
 21
140.9193077157
  0
LWPOLYLINE
  5
233
100
AcDbEntity
  8
RUNDUNGEN
100
AcDbPolyline
 62
7
  6
CONTINUOUS
 90
3
 70
0
 10
49.9568582092
 20
108.1645109216
 10
49.9597360086
 20
108.1840838215
 10
50.08510251
 20
108.9706889975
  0
LINE
  5
234
100
AcDbEntity
  8
RUNDUNGEN
100
AcDbLine
 62
7
  6
CONTINUOUS
 10
50.08510251
 20
108.9706889975
 11
50.1152426496
 21
109.1645109216
  0
LINE
  5
235
100
AcDbEntity
  8
RUNDUNGEN
100
AcDbLine
 62
7
  6
CONTINUOUS
 10
72.7352053949
 20
156.4618871019
 11
72.9143201978
 21
156.7953936174
  0
LWPOLYLINE
  5
236
100
AcDbEntity
  8
RUNDUNGEN
100
AcDbPolyline
 62
7
  6
CONTINUOUS
 90
3
 70
0
 10
63.7317625806
 20
141.4200718753
 10
63.7203125319
 20
141.4039387874
 10
63.2514988843
 20
140.7599836442
  0
LINE
  5
237
100
AcDbEntity
  8
RUNDUNGEN
100
AcDbLine
 62
7
  6
CONTINUOUS
 10
63.2514988843
 20
140.7599836442
 11
63.1366505112
 21
140.6009703824
  0
LINE
  5
238
100
AcDbEntity
  8
RUNDUNGEN
100
AcDbLine
 62
7
  6
CONTINUOUS
 10
45.1878997543
 20
118.910729541
 11
45.4190306031
 21
119.2108202131
  0
LINE
  5
239
100
AcDbEntity
  8
RUNDUNGEN
100
AcDbLine
 62
7
  6
CONTINUOUS
 10
72.4963580022
 20
156.1681585691
 11
72.7352053949
 21
156.4618871019
  0
LINE
  5
23A
100
AcDbEntity
  8
RUNDUNGEN
100
AcDbLine
 62
7
  6
CONTINUOUS
 10
42.643140138
 20
116.1865914415
 11
45.186976163
 21
118.914412017
  0
LINE
  5
23B
100
AcDbEntity
  8
RUNDUNGEN
100
AcDbLine
 62
7
  6
CONTINUOUS
 10
42.6429408566
 20
116.1863769154
 11
42.6429136817
 21
116.1863486056
  0
LINE
  5
23C
100
AcDbEntity
  8
RUNDUNGEN
100
AcDbLine
 62
7
  6
CONTINUOUS
 10
92.1472927727
 20
165.690739406
 11
89.4194031353
 21
163.1468389771
  0
LINE
  5
23D
100
AcDbEntity
  8
0
100
AcDbLine
 62
7
  6
CONTINUOUS
 10
81.1662595398
 20
152.4322065606
 11
80.9800324311
 21
152.2795206631
  0
LINE
  5
23E
100
AcDbEntity
  8
0
100
AcDbLine
 62
7
  6
CONTINUOUS
 10
81.0637521128
 20
151.9898713734
 11
81.2922649566
 21
152.1622981596
  0
LWPOLYLINE
  5
23F
100
AcDbEntity
  8
RUNDUNGEN
100
AcDbPolyline
 62
7
  6
CONTINUOUS
 90
3
 70
0
 10
66.913743096
 20
144.6020523907
 10
66.9296181377
 20
144.6138576095
 10
67.5744794951
 20
145.0814239603
  0
LINE
  5
240
100
AcDbEntity
  8
RUNDUNGEN
100
AcDbLine
 62
7
  6
CONTINUOUS
 10
67.5744794951
 20
145.0814239603
 11
67.7328445889
 21
145.1971644601
  0
LINE
  5
241
100
AcDbEntity
  8
0
100
AcDbLine
 62
7
  6
CONTINUOUS
 10
79.0627069241
 20
152.4133971348
 11
78.0643645969
 21
151.9057431211
  0
LINE
  5
242
100
AcDbEntity
  8
0
100
AcDbLine
 62
7
  6
CONTINUOUS
 10
78.448964528
 20
151.7671400798
 11
79.2393188307
 21
152.1690328205
  0
LINE
  5
243
100
AcDbEntity
  8
0
100
AcDbLine
 62
7
  6
CONTINUOUS
 10
79.6443619542
 20
151.3724830375
 11
78.8540076515
 21
150.9705902968
  0
LINE
  5
244
100
AcDbEntity
  8
0
100
AcDbLine
 62
7
  6
CONTINUOUS
 10
79.0160248706
 20
150.6519704431
 11
79.764781616
 21
151.0327109534
  0
LINE
  5
245
100
AcDbEntity
  8
0
100
AcDbLine
 62
7
  6
CONTINUOUS
 10
79.3334996313
 20
149.409887303
 11
79.5830852132
 21
149.5368008065
  0
LINE
  5
246
100
AcDbEntity
  8
0
100
AcDbLine
 62
7
  6
CONTINUOUS
 10
80.6165459501
 20
152.1755754601
 11
80.4051177581
 21
152.0768712428
  0
LINE
  5
247
100
AcDbEntity
  8
0
100
AcDbLine
 62
7
  6
CONTINUOUS
 10
81.2115524964
 20
150.3494573248
 11
81.4229806885
 21
150.4481615421
  0
LINE
  5
248
100
AcDbEntity
  8
0
100
AcDbLine
 62
7
  6
CONTINUOUS
 10
82.4170215544
 20
152.9820692608
 11
82.0739626767
 21
152.8347990425
  0
LINE
  5
249
100
AcDbEntity
  8
0
100
AcDbLine
 62
7
  6
CONTINUOUS
 10
82.2537297298
 20
152.6526430286
 11
82.4252589232
 21
152.7262780324
  0
LINE
  5
24A
100
AcDbEntity
  8
0
100
AcDbLine
 62
7
  6
CONTINUOUS
 10
82.9892722464
 20
151.4124361712
 11
82.8177430529
 21
151.3388011674
  0
LINE
  5
24B
100
AcDbEntity
  8
0
100
AcDbLine
 62
7
  6
CONTINUOUS
 10
82.82598043
 20
151.0830099199
 11
83.1690393076
 21
151.2302801381
  0
LINE
  5
24C
100
AcDbEntity
  8
0
100
AcDbLine
 62
7
  6
CONTINUOUS
 10
83.2086687916
 20
154.2733392229
 11
82.9920128686
 21
154.1867093288
  0
LINE
  5
24D
100
AcDbEntity
  8
0
100
AcDbLine
 62
7
  6
CONTINUOUS
 10
84.0315708052
 20
151.5868402366
 11
84.2482267282
 21
151.6734701308
  0
LINE
  5
24E
100
AcDbEntity
  8
0
100
AcDbLine
 62
7
  6
CONTINUOUS
 10
83.8059859927
 20
154.5063741562
 11
83.5882790968
 21
154.4224203892
  0
LINE
  5
24F
100
AcDbEntity
  8
0
100
AcDbLine
 62
7
  6
CONTINUOUS
 10
83.6954540239
 20
154.1444969375
 11
83.9131609198
 21
154.2284507044
  0
LINE
  5
250
100
AcDbEntity
  8
0
100
AcDbLine
 62
7
  6
CONTINUOUS
 10
84.127510834
 20
153.6726036452
 11
83.9098039381
 21
153.5886498782
  0
LINE
  5
251
100
AcDbEntity
  8
0
100
AcDbLine
 62
7
  6
CONTINUOUS
 10
84.5957235314
 20
151.8099396312
 11
84.8134304273
 21
151.8938933981
  0
LINE
  5
252
100
AcDbEntity
  8
0
100
AcDbLine
 62
7
  6
CONTINUOUS
 10
85.3072655652
 20
154.1081255597
 11
85.1315872798
 21
154.0450247085
  0
LINE
  5
253
100
AcDbEntity
  8
0
100
AcDbLine
 62
7
  6
CONTINUOUS
 10
84.7363118917
 20
153.903048064
 11
84.516714789
 21
153.8241722708
  0
LINE
  5
254
100
AcDbEntity
  8
0
100
AcDbLine
 62
7
  6
CONTINUOUS
 10
85.1611477647
 20
152.0300145377
 11
85.3807448674
 21
152.1088903309
  0
LINE
  5
255
100
AcDbEntity
  8
0
100
AcDbLine
 62
7
  6
CONTINUOUS
 10
86.1712956436
 20
152.3928436198
 11
86.390893249
 21
152.4717195936
  0
LINE
  5
256
100
AcDbEntity
  8
0
100
AcDbLine
 62
7
  6
CONTINUOUS
 10
86.1105547839
 20
155.329207806
 11
85.8883946118
 21
155.2578696242
  0
LINE
  5
257
100
AcDbEntity
  8
0
100
AcDbLine
 62
7
  6
CONTINUOUS
 10
87.2279750504
 20
154.7494657092
 11
86.9613829455
 21
154.6638599236
  0
LINE
  5
258
100
AcDbEntity
  8
0
100
AcDbLine
 62
7
  6
CONTINUOUS
 10
86.7444541002
 20
152.5919434901
 11
86.9666142723
 21
152.6632816719
  0
LINE
  5
259
100
AcDbEntity
  8
0
100
AcDbLine
 62
7
  6
CONTINUOUS
 10
87.7219601798
 20
152.9058319147
 11
87.9885527932
 21
152.9914378636
  0
LINE
  5
25A
100
AcDbEntity
  8
RUNDUNGEN
100
AcDbLine
 62
7
  6
CONTINUOUS
 10
117.1718692007
 20
162.646730535
 11
117.5343471819
 21
162.7559020102
  0
LWPOLYLINE
  5
25B
100
AcDbEntity
  8
RUNDUNGEN
100
AcDbPolyline
 62
7
  6
CONTINUOUS
 90
3
 70
0
 10
104.6693040497
 20
53.452065081
 10
104.6888082727
 20
53.4553764899
 10
105.4756546306
 20
53.5792202291
  0
LINE
  5
25C
100
AcDbEntity
  8
RUNDUNGEN
100
AcDbLine
 62
7
  6
CONTINUOUS
 10
105.4756546306
 20
53.5792202291
 11
105.6693040497
 21
53.6104495214
  0
LINE
  5
25D
100
AcDbEntity
  8
RUNDUNGEN
100
AcDbLine
 62
7
  6
CONTINUOUS
 10
133.6983038084
 20
56.2560825295
 11
133.3226734684
 21
56.2073205716
  0
LINE
  5
25E
100
AcDbEntity
  8
RUNDUNGEN
100
AcDbLine
 62
7
  6
CONTINUOUS
 10
88.0433269428
 20
49.2210981272
 11
87.6667388993
 21
49.1822913072
  0
LINE
  5
25F
100
AcDbEntity
  8
RUNDUNGEN
100
AcDbLine
 62
7
  6
CONTINUOUS
 10
137.423975348
 20
56.3829222121
 11
133.6963529798
 21
56.2528255503
  0
LINE
  5
260
100
AcDbEntity
  8
RUNDUNGEN
100
AcDbLine
 62
7
  6
CONTINUOUS
 10
137.4244359444
 20
56.3829396959
 11
137.4244947019
 21
56.3829403395
  0
LINE
  5
261
100
AcDbEntity
  8
RUNDUNGEN
100
AcDbLine
 62
7
  6
CONTINUOUS
 10
71.1422551206
 20
56.2528255503
 11
67.4145072556
 21
56.382926592
  0
LWPOLYLINE
  5
262
100
AcDbEntity
  8
RUNDUNGEN
100
AcDbPolyline
 62
7
  6
CONTINUOUS
 90
3
 70
0
 10
100.1693040497
 20
53.452065081
 10
100.1497311498
 20
53.4549428804
 10
99.3631259738
 20
53.5803093818
  0
LINE
  5
263
100
AcDbEntity
  8
RUNDUNGEN
100
AcDbLine
 62
7
  6
CONTINUOUS
 10
99.3631259738
 20
53.5803093818
 11
99.1693040497
 21
53.6104495214
  0
LINE
  5
264
100
AcDbEntity
  8
RUNDUNGEN
100
AcDbLine
 62
7
  6
CONTINUOUS
 10
51.8719279912
 20
76.2304125793
 11
51.5384214622
 21
76.4095273274
  0
LWPOLYLINE
  5
265
100
AcDbEntity
  8
RUNDUNGEN
100
AcDbPolyline
 62
7
  6
CONTINUOUS
 90
3
 70
0
 10
66.913743096
 20
67.2269694524
 10
66.9298761839
 20
67.2155194038
 10
67.5738313271
 20
66.7467057561
  0
LINE
  5
266
100
AcDbEntity
  8
RUNDUNGEN
100
AcDbLine
 62
7
  6
CONTINUOUS
 10
67.5738313271
 20
66.7467057561
 11
67.7328445889
 21
66.631857383
  0
LINE
  5
267
100
AcDbEntity
  8
RUNDUNGEN
100
AcDbLine
 62
7
  6
CONTINUOUS
 10
89.4230854303
 20
48.6831066261
 11
89.1229947582
 21
48.9142374749
  0
LINE
  5
268
100
AcDbEntity
  8
RUNDUNGEN
100
AcDbLine
 62
7
  6
CONTINUOUS
 10
52.1656565158
 20
75.9915651855
 11
51.8719279912
 21
76.2304125793
  0
LINE
  5
269
100
AcDbEntity
  8
RUNDUNGEN
100
AcDbLine
 62
7
  6
CONTINUOUS
 10
92.1472222385
 20
46.1383482139
 11
89.4194029543
 21
48.6821830348
  0
LINE
  5
26A
100
AcDbEntity
  8
RUNDUNGEN
100
AcDbLine
 62
7
  6
CONTINUOUS
 10
92.1474328074
 20
46.1381525958
 11
92.1474603333
 21
46.138126179
  0
LINE
  5
26B
100
AcDbEntity
  8
RUNDUNGEN
100
AcDbLine
 62
7
  6
CONTINUOUS
 10
45.1869761653
 20
92.9146098237
 11
42.6430557002
 21
95.6425209464
  0
LWPOLYLINE
  5
26C
100
AcDbEntity
  8
RUNDUNGEN
100
AcDbPolyline
 62
7
  6
CONTINUOUS
 90
3
 70
0
 10
63.7317625806
 20
70.4089499678
 10
63.7199573618
 20
70.4248250095
 10
63.252391011
 20
71.0696863669
  0
LINE
  5
26D
100
AcDbEntity
  8
RUNDUNGEN
100
AcDbLine
 62
7
  6
CONTINUOUS
 10
63.252391011
 20
71.0696863669
 11
63.1366505112
 21
71.2280514607
  0
LINE
  5
26E
100
AcDbEntity
  8
RUNDUNGEN
100
AcDbLine
 62
7
  6
CONTINUOUS
 10
45.6870844354
 20
120.667076072
 11
45.5779129601
 21
121.0295540533
  0
LWPOLYLINE
  5
26F
100
AcDbEntity
  8
RUNDUNGEN
100
AcDbPolyline
 62
7
  6
CONTINUOUS
 90
3
 70
0
 10
49.9568582092
 20
103.6645109216
 10
49.9601696181
 20
103.6450066986
 10
50.0840133572
 20
102.8581603407
  0
LINE
  5
270
100
AcDbEntity
  8
RUNDUNGEN
100
AcDbLine
 62
7
  6
CONTINUOUS
 10
50.0840133572
 20
102.8581603407
 11
50.1152426496
 21
102.6645109216
  0
LINE
  5
271
100
AcDbEntity
  8
RUNDUNGEN
100
AcDbLine
 62
7
  6
CONTINUOUS
 10
52.7608756577
 20
74.6355111629
 11
52.7121136998
 21
75.0111415029
  0
LINE
  5
272
100
AcDbEntity
  8
RUNDUNGEN
100
AcDbLine
 62
7
  6
CONTINUOUS
 10
45.5779027365
 20
90.7994732011
 11
43.4068137358
 21
85.4792562637
  0
LINE
  5
273
100
AcDbEntity
  8
RUNDUNGEN
100
AcDbLine
 62
7
  6
CONTINUOUS
 10
75.1410791179
 20
162.0925501411
 11
72.9143094062
 21
156.7953969293
  0
LINE
  5
274
100
AcDbEntity
  8
0
100
AcDbLine
 62
7
  6
CONTINUOUS
 10
80.9450115807
 20
151.8029445714
 11
81.0637521128
 21
151.9898713734
  0
LINE
  5
275
100
AcDbEntity
  8
0
100
AcDbLine
 62
7
  6
CONTINUOUS
 10
81.925934036
 20
152.7064206335
 11
81.8636697467
 21
152.614859621
  0
LINE
  5
276
100
AcDbEntity
  8
0
100
AcDbLine
 62
7
  6
CONTINUOUS
 10
79.7421518752
 20
151.4890430982
 11
79.6443619542
 21
151.3724830375
  0
LINE
  5
277
100
AcDbEntity
  8
0
100
AcDbLine
 62
7
  6
CONTINUOUS
 10
80.9800324311
 20
152.2795206631
 11
80.8783765509
 21
152.1663164299
  0
LINE
  5
278
100
AcDbEntity
  8
0
100
AcDbLine
 62
7
  6
CONTINUOUS
 10
79.764781616
 20
151.0327109534
 11
79.9457667706
 21
151.1915755354
  0
LINE
  5
279
100
AcDbEntity
  8
0
100
AcDbLine
 62
7
  6
CONTINUOUS
 10
82.0739626767
 20
152.8347990425
 11
81.925934036
 21
152.7064206335
  0
LINE
  5
27A
100
AcDbEntity
  8
0
100
AcDbLine
 62
7
  6
CONTINUOUS
 10
82.1057008437
 20
152.5242645142
 11
82.2537297298
 21
152.6526430286
  0
LINE
  5
27B
100
AcDbEntity
  8
0
100
AcDbLine
 62
7
  6
CONTINUOUS
 10
83.1373011242
 20
151.5408147048
 11
82.9892722464
 21
151.4124361712
  0
LINE
  5
27C
100
AcDbEntity
  8
0
100
AcDbLine
 62
7
  6
CONTINUOUS
 10
83.1690393076
 20
151.2302801381
 11
83.3170679463
 21
151.358658552
  0
LINE
  5
27D
100
AcDbEntity
  8
0
100
AcDbLine
 62
7
  6
CONTINUOUS
 10
85.1315872798
 20
154.0450247085
 11
84.9760480258
 21
153.9258566136
  0
LINE
  5
27E
100
AcDbEntity
  8
0
100
AcDbLine
 62
7
  6
CONTINUOUS
 10
85.0566021407
 20
153.7015869166
 11
85.2121413947
 21
153.8207550115
  0
LINE
  5
27F
100
AcDbEntity
  8
RUNDUNGEN
100
AcDbLine
 62
7
  6
CONTINUOUS
 10
51.538418059
 20
135.4195055723
 11
46.2412648302
 21
133.1927358534
  0
LINE
  5
280
100
AcDbEntity
  8
RUNDUNGEN
100
AcDbLine
 62
7
  6
CONTINUOUS
 10
122.8545587076
 20
164.9270012355
 11
117.53434178
 21
162.7559122388
  0
LINE
  5
281
100
AcDbEntity
  8
RUNDUNGEN
100
AcDbLine
 62
7
  6
CONTINUOUS
 10
117.5343417702
 20
49.0731096084
 11
122.8545587076
 21
46.9020206076
  0
LINE
  5
282
100
AcDbEntity
  8
RUNDUNGEN
100
AcDbLine
 62
7
  6
CONTINUOUS
 10
46.2412648302
 20
78.6362859897
 11
51.5384180492
 21
76.409516275
  0
LINE
  5
283
100
AcDbEntity
  8
RUNDUNGEN
100
AcDbLine
 62
7
  6
CONTINUOUS
 10
72.914309399
 20
55.0336249308
 11
75.1410791179
 21
49.736471702
  0
LINE
  5
284
100
AcDbEntity
  8
RUNDUNGEN
100
AcDbLine
 62
7
  6
CONTINUOUS
 10
43.4068137358
 20
126.3497655794
 11
45.5779027325
 21
121.029548652
  0
LINE
  5
285
100
AcDbEntity
  8
0
100
AcDbLine
 62
7
  6
CONTINUOUS
 10
80.8783765509
 20
152.1663164299
 11
80.801921754
 21
151.9991305165
  0
LINE
  5
286
100
AcDbEntity
  8
0
100
AcDbLine
 62
7
  6
CONTINUOUS
 10
84.9760480258
 20
153.9258566136
 11
84.8845666206
 21
153.7663962169
  0
LINE
  5
287
100
AcDbEntity
  8
0
100
AcDbLine
 62
7
  6
CONTINUOUS
 10
84.9651207355
 20
153.5421265199
 11
85.0566021407
 21
153.7015869166
  0
LINE
  5
288
100
AcDbEntity
  8
0
100
AcDbLine
 62
7
  6
CONTINUOUS
 10
83.3170679463
 20
151.358658552
 11
83.3793319882
 21
151.450219464
  0
LINE
  5
289
100
AcDbEntity
  8
0
100
AcDbLine
 62
7
  6
CONTINUOUS
 10
117.5180072313
 20
154.8432056256
 11
117.6186787736
 21
154.8940577985
  0
LINE
  5
28A
100
AcDbEntity
  8
0
100
AcDbLine
 62
7
  6
CONTINUOUS
 10
121.1212130673
 20
153.6245603574
 11
121.2253685091
 21
153.6678304048
  0
LINE
  5
28B
100
AcDbEntity
  8
0
100
AcDbLine
 62
7
  6
CONTINUOUS
 10
119.8416467796
 20
153.688240642
 11
119.6743658722
 21
153.6242981355
  0
LINE
  5
28C
100
AcDbEntity
  8
0
100
AcDbLine
 62
7
  6
CONTINUOUS
 10
119.8645425029
 20
152.506094486
 11
120.031823414
 21
152.5700370022
  0
LINE
  5
28D
100
AcDbEntity
  8
0
100
AcDbLine
 62
7
  6
CONTINUOUS
 10
121.2728371272
 20
153.8605034134
 11
121.1040786693
 21
153.8005690406
  0
LINE
  5
28E
100
AcDbEntity
  8
0
100
AcDbLine
 62
7
  6
CONTINUOUS
 10
120.9207715424
 20
152.0966218306
 11
121.0895297174
 21
152.1565563268
  0
LINE
  5
28F
100
AcDbEntity
  8
0
100
AcDbLine
 62
7
  6
CONTINUOUS
 10
117.6635337541
 20
155.127231896
 11
117.5371463502
 21
155.0844414487
  0
LINE
  5
290
100
AcDbEntity
  8
0
100
AcDbLine
 62
7
  6
CONTINUOUS
 10
117.5199906654
 20
153.3179629005
 11
117.6463782196
 21
153.3607533116
  0
LINE
  5
291
100
AcDbEntity
  8
0
100
AcDbLine
 62
7
  6
CONTINUOUS
 10
125.1171896534
 20
151.8143365452
 11
125.2246746429
 21
151.8485078775
  0
LINE
  5
292
100
AcDbEntity
  8
0
100
AcDbLine
 62
7
  6
CONTINUOUS
 10
122.9512819542
 20
153.166190584
 11
122.7804877407
 21
153.1123315117
  0
LINE
  5
293
100
AcDbEntity
  8
0
100
AcDbLine
 62
7
  6
CONTINUOUS
 10
122.6103753439
 20
151.3835404221
 11
122.7811695616
 21
151.4373995039
  0
LINE
  5
294
100
AcDbEntity
  8
0
100
AcDbLine
 62
7
  6
CONTINUOUS
 10
126.2243408309
 20
151.2944931724
 11
126.3326188489
 21
151.3260617285
  0
LINE
  5
295
100
AcDbEntity
  8
0
100
AcDbLine
 62
7
  6
CONTINUOUS
 10
126.0876557681
 20
150.9219048674
 11
125.8710997321
 21
150.8587677552
  0
LINE
  5
296
100
AcDbEntity
  8
0
100
AcDbLine
 62
7
  6
CONTINUOUS
 10
79.7713413691
 20
151.6375542374
 11
79.7421518752
 21
151.4890430982
  0
LINE
  5
297
100
AcDbEntity
  8
0
100
AcDbLine
 62
7
  6
CONTINUOUS
 10
80.801921754
 20
151.9991305165
 11
80.7677524503
 21
151.8516853788
  0
LINE
  5
298
100
AcDbEntity
  8
0
100
AcDbLine
 62
7
  6
CONTINUOUS
 10
81.8636697467
 20
152.614859621
 11
81.8249062554
 21
152.4685553085
  0
LINE
  5
299
100
AcDbEntity
  8
0
100
AcDbLine
 62
7
  6
CONTINUOUS
 10
82.0669373524
 20
152.3779602017
 11
82.1057008437
 21
152.5242645142
  0
LINE
  5
29A
100
AcDbEntity
  8
0
100
AcDbLine
 62
7
  6
CONTINUOUS
 10
83.1760646155
 20
151.6871190173
 11
83.1373011242
 21
151.5408147048
  0
LINE
  5
29B
100
AcDbEntity
  8
0
100
AcDbLine
 62
7
  6
CONTINUOUS
 10
84.8845666206
 20
153.7663962169
 11
84.8370045354
 21
153.6227109428
  0
LINE
  5
29C
100
AcDbEntity
  8
0
100
AcDbLine
 62
7
  6
CONTINUOUS
 10
84.9175586503
 20
153.3984412458
 11
84.9651207355
 21
153.5421265199
  0
LINE
  5
29D
100
AcDbEntity
  8
0
100
AcDbLine
 62
7
  6
CONTINUOUS
 10
79.9457667706
 20
151.1915755354
 11
80.0311485093
 21
151.4354944444
  0
LINE
  5
29E
100
AcDbEntity
  8
0
100
AcDbLine
 62
7
  6
CONTINUOUS
 10
86.7662599224
 20
153.287221836
 11
86.8973504555
 21
153.6421693106
  0
LINE
  5
29F
100
AcDbEntity
  8
0
100
AcDbLine
 62
7
  6
CONTINUOUS
 10
119.6567863521
 20
153.4212068773
 11
119.7987875439
 21
153.4944901311
  0
LINE
  5
2A0
100
AcDbEntity
  8
0
100
AcDbLine
 62
7
  6
CONTINUOUS
 10
117.6655173508
 20
153.6019891741
 11
117.5648458003
 21
153.5511369749
  0
LINE
  5
2A1
100
AcDbEntity
  8
0
100
AcDbLine
 62
7
  6
CONTINUOUS
 10
120.0104957801
 20
152.7455869396
 11
119.907401747
 21
152.6998450195
  0
LINE
  5
2A2
100
AcDbEntity
  8
0
100
AcDbLine
 62
7
  6
CONTINUOUS
 10
122.750835011
 20
152.910649135
 11
122.8969517177
 21
152.9753387656
  0
LINE
  5
2A3
100
AcDbEntity
  8
0
100
AcDbLine
 62
7
  6
CONTINUOUS
 10
122.4644544637
 20
152.3922473619
 11
122.318337757
 21
152.3275577313
  0
LINE
  5
2A4
100
AcDbEntity
  8
0
100
AcDbLine
 62
7
  6
CONTINUOUS
 10
123.1179791528
 20
152.4060010264
 11
122.9718630109
 21
152.341311148
  0
LINE
  5
2A5
100
AcDbEntity
  8
0
100
AcDbLine
 62
7
  6
CONTINUOUS
 10
121.0723953245
 20
152.3325650228
 11
120.9682395961
 21
152.2892950892
  0
LINE
  5
2A6
100
AcDbEntity
  8
0
100
AcDbLine
 62
7
  6
CONTINUOUS
 10
125.0651538925
 20
150.5654693302
 11
124.9576688907
 21
150.5312979733
  0
LINE
  5
2A7
100
AcDbEntity
  8
0
100
AcDbLine
 62
7
  6
CONTINUOUS
 10
125.9110346997
 20
150.7040424966
 11
126.0193127177
 21
150.7356110527
  0
LINE
  5
2A8
100
AcDbEntity
  8
0
100
AcDbLine
 62
7
  6
CONTINUOUS
 10
126.1053345613
 20
149.9777798192
 11
125.9970565433
 21
149.9462112631
  0
LINE
  5
2A9
100
AcDbEntity
  8
0
100
AcDbLine
 62
7
  6
CONTINUOUS
 10
80.0311485093
 20
151.4354944444
 11
80.0479298208
 21
151.7113644319
  0
LINE
  5
2AA
100
AcDbEntity
  8
0
100
AcDbLine
 62
7
  6
CONTINUOUS
 10
81.8249062554
 20
152.4685553085
 11
81.8096433169
 21
152.2675075907
  0
LINE
  5
2AB
100
AcDbEntity
  8
0
100
AcDbLine
 62
7
  6
CONTINUOUS
 10
80.9189589505
 20
151.5277952976
 11
80.9450115807
 21
151.8029445714
  0
LINE
  5
2AC
100
AcDbEntity
  8
0
100
AcDbLine
 62
7
  6
CONTINUOUS
 10
83.3793319882
 20
151.450219464
 11
83.4180957207
 21
151.5965238913
  0
LINE
  5
2AD
100
AcDbEntity
  8
0
100
AcDbLine
 62
7
  6
CONTINUOUS
 10
86.9760046482
 20
153.8551378421
 11
87.2279750504
 21
154.7494657092
  0
LINE
  5
2AE
100
AcDbEntity
  8
0
100
AcDbLine
 62
7
  6
CONTINUOUS
 10
86.9613829455
 20
154.6638599236
 11
86.6569757454
 21
153.6275527913
  0
LINE
  5
2AF
100
AcDbEntity
  8
0
100
AcDbLine
 62
7
  6
CONTINUOUS
 10
117.5371463502
 20
155.0844414487
 11
117.3872351361
 21
154.9666136056
  0
LINE
  5
2B0
100
AcDbEntity
  8
0
100
AcDbLine
 62
7
  6
CONTINUOUS
 10
117.6463782196
 20
153.3607533116
 11
117.7962894379
 21
153.4785811679
  0
LINE
  5
2B1
100
AcDbEntity
  8
0
100
AcDbLine
 62
7
  6
CONTINUOUS
 10
121.1040786693
 20
153.8005690406
 11
120.9854193858
 21
153.7207526709
  0
LINE
  5
2B2
100
AcDbEntity
  8
0
100
AcDbLine
 62
7
  6
CONTINUOUS
 10
121.0895297174
 20
152.1565563268
 11
121.208189006
 21
152.2363727093
  0
LINE
  5
2B3
100
AcDbEntity
  8
0
100
AcDbLine
 62
7
  6
CONTINUOUS
 10
122.7804877407
 20
153.1123315117
 11
122.6590491057
 21
153.036811075
  0
LINE
  5
2B4
100
AcDbEntity
  8
0
100
AcDbLine
 62
7
  6
CONTINUOUS
 10
123.0883269879
 20
152.2043184018
 11
123.2097656229
 21
152.2798388386
  0
LINE
  5
2B5
100
AcDbEntity
  8
0
100
AcDbLine
 62
7
  6
CONTINUOUS
 10
122.7811695616
 20
151.4373995039
 11
122.9026082021
 21
151.5129199532
  0
LINE
  5
2B6
100
AcDbEntity
  8
0
100
AcDbLine
 62
7
  6
CONTINUOUS
 10
127.6898348956
 20
150.8555942671
 11
127.4139885376
 21
150.69494111
  0
LINE
  5
2B7
100
AcDbEntity
  8
0
100
AcDbLine
 62
7
  6
CONTINUOUS
 10
127.2598161819
 20
150.4207611677
 11
127.5356625939
 21
150.5814144209
  0
LINE
  5
2B8
100
AcDbEntity
  8
0
100
AcDbLine
 62
7
  6
CONTINUOUS
 10
125.174500777
 20
152.0494461222
 11
125.0077390708
 21
151.9569950198
  0
LINE
  5
2B9
100
AcDbEntity
  8
0
100
AcDbLine
 62
7
  6
CONTINUOUS
 10
125.0078427504
 20
150.3303597163
 11
125.1746044628
 21
150.422810831
  0
LINE
  5
2BA
100
AcDbEntity
  8
0
100
AcDbLine
 62
7
  6
CONTINUOUS
 10
125.8265624782
 20
150.6598420606
 11
125.9110346997
 21
150.7040424966
  0
LINE
  5
2BB
100
AcDbEntity
  8
0
100
AcDbLine
 62
7
  6
CONTINUOUS
 10
82.0516741685
 20
152.1769123786
 11
82.0669373524
 21
152.3779602017
  0
LINE
  5
2BC
100
AcDbEntity
  8
0
100
AcDbLine
 62
7
  6
CONTINUOUS
 10
83.1913275375
 20
151.8881667734
 11
83.1760646155
 21
151.6871190173
  0
LINE
  5
2BD
100
AcDbEntity
  8
0
100
AcDbLine
 62
7
  6
CONTINUOUS
 10
83.4180957207
 20
151.5965238913
 11
83.4333588964
 21
151.7975717336
  0
LINE
  5
2BE
100
AcDbEntity
  8
0
100
AcDbLine
 62
7
  6
CONTINUOUS
 10
117.7522347159
 20
153.6984218397
 11
117.6655173508
 21
153.6019891741
  0
LINE
  5
2BF
100
AcDbEntity
  8
0
100
AcDbLine
 62
7
  6
CONTINUOUS
 10
120.1019381289
 20
152.8375515001
 11
120.0104957801
 21
152.7455869396
  0
LINE
  5
2C0
100
AcDbEntity
  8
0
100
AcDbLine
 62
7
  6
CONTINUOUS
 10
120.9339933475
 20
153.4450456322
 11
121.1212130673
 21
153.6245603574
  0
LINE
  5
2C1
100
AcDbEntity
  8
0
100
AcDbLine
 62
7
  6
CONTINUOUS
 10
121.2596150139
 20
152.5120796712
 11
121.0723953245
 21
152.3325650228
  0
LINE
  5
2C2
100
AcDbEntity
  8
0
100
AcDbLine
 62
7
  6
CONTINUOUS
 10
120.031823414
 20
152.5700370022
 11
120.1621729167
 21
152.6895428834
  0
LINE
  5
2C3
100
AcDbEntity
  8
0
100
AcDbLine
 62
7
  6
CONTINUOUS
 10
122.6540744034
 20
152.8242977912
 11
122.750835011
 21
152.910649135
  0
LINE
  5
2C4
100
AcDbEntity
  8
0
100
AcDbLine
 62
7
  6
CONTINUOUS
 10
123.214740281
 20
152.4923520214
 11
123.1179791528
 21
152.4060010264
  0
LINE
  5
2C5
100
AcDbEntity
  8
0
100
AcDbLine
 62
7
  6
CONTINUOUS
 10
122.3133630768
 20
152.115044498
 11
122.4506033956
 21
152.2265691876
  0
LINE
  5
2C6
100
AcDbEntity
  8
0
100
AcDbLine
 62
7
  6
CONTINUOUS
 10
122.9075828713
 20
151.7254331613
 11
122.7703425636
 21
151.6139084969
  0
LINE
  5
2C7
100
AcDbEntity
  8
0
100
AcDbLine
 62
7
  6
CONTINUOUS
 10
125.1661218634
 20
150.646861462
 11
125.0651538925
 21
150.5654693302
  0
LINE
  5
2C8
100
AcDbEntity
  8
0
100
AcDbLine
 62
7
  6
CONTINUOUS
 10
126.12143884
 20
151.2155603494
 11
126.2243408309
 21
151.2944931724
  0
LINE
  5
2C9
100
AcDbEntity
  8
0
100
AcDbLine
 62
7
  6
CONTINUOUS
 10
126.2082365651
 20
150.0567126665
 11
126.1053345613
 21
149.9777798192
  0
LINE
  5
2CA
100
AcDbEntity
  8
0
100
AcDbLine
 62
7
  6
CONTINUOUS
 10
126.2266414293
 20
151.4713189381
 11
126.0815038725
 21
151.370285608
  0
LINE
  5
2CB
100
AcDbEntity
  8
0
100
AcDbLine
 62
7
  6
CONTINUOUS
 10
126.1030339565
 20
149.8009540413
 11
126.2481715198
 21
149.9019873835
  0
LINE
  5
2CC
100
AcDbEntity
  8
RUNDUNGEN
100
AcDbLine
 62
7
  6
CONTINUOUS
 10
107.2066074794
 20
166.1859737564
 11
104.6693040497
 21
158.3769567621
  0
LINE
  5
2CD
100
AcDbEntity
  8
RUNDUNGEN
100
AcDbLine
 62
7
  6
CONTINUOUS
 10
66.913743096
 20
67.2269694524
 11
63.1860786859
 21
59.9110161202
  0
LINE
  5
2CE
100
AcDbEntity
  8
0
100
AcDbLine
 62
7
  6
CONTINUOUS
 10
117.4570056949
 20
154.7387111293
 11
117.5180072313
 21
154.8432056256
  0
LINE
  5
2CF
100
AcDbEntity
  8
0
100
AcDbLine
 62
7
  6
CONTINUOUS
 10
120.8773059912
 20
153.5944489233
 11
120.8087458415
 21
153.4947504541
  0
LINE
  5
2D0
100
AcDbEntity
  8
0
100
AcDbLine
 62
7
  6
CONTINUOUS
 10
120.1621729167
 20
152.6895428834
 11
120.2808707303
 21
152.8552713921
  0
LINE
  5
2D1
100
AcDbEntity
  8
0
100
AcDbLine
 62
7
  6
CONTINUOUS
 10
117.7962894379
 20
153.4785811679
 11
117.8947686427
 21
153.6125325807
  0
LINE
  5
2D2
100
AcDbEntity
  8
0
100
AcDbLine
 62
7
  6
CONTINUOUS
 10
122.6590491057
 20
153.036811075
 11
122.5306846099
 21
152.8784515742
  0
LINE
  5
2D3
100
AcDbEntity
  8
0
100
AcDbLine
 62
7
  6
CONTINUOUS
 10
122.318337757
 20
152.3275577313
 11
122.1899738483
 21
152.1691980331
  0
LINE
  5
2D4
100
AcDbEntity
  8
0
100
AcDbLine
 62
7
  6
CONTINUOUS
 10
122.9026082021
 20
151.5129199532
 11
123.0309726647
 21
151.6712793783
  0
LINE
  5
2D5
100
AcDbEntity
  8
0
100
AcDbLine
 62
7
  6
CONTINUOUS
 10
125.0403257696
 20
151.7208900959
 11
125.1171896534
 21
151.8143365452
  0
LINE
  5
2D6
100
AcDbEntity
  8
0
100
AcDbLine
 62
7
  6
CONTINUOUS
 10
120.9854193858
 20
153.7207526709
 11
120.8773059912
 21
153.5944489233
  0
LINE
  5
2D7
100
AcDbEntity
  8
0
100
AcDbLine
 62
7
  6
CONTINUOUS
 10
121.208189006
 20
152.2363727093
 11
121.3163021241
 21
152.3626765962
  0
LINE
  5
2D8
100
AcDbEntity
  8
0
100
AcDbLine
 62
7
  6
CONTINUOUS
 10
126.0423436837
 20
151.1239949711
 11
126.12143884
 21
151.2155603494
  0
LINE
  5
2D9
100
AcDbEntity
  8
0
100
AcDbLine
 62
7
  6
CONTINUOUS
 10
123.2097656229
 20
152.2798388386
 11
123.3223278479
 21
152.4021942839
  0
LINE
  5
2DA
100
AcDbEntity
  8
0
100
AcDbLine
 62
7
  6
CONTINUOUS
 10
126.0815038725
 20
151.370285608
 11
125.9417422912
 21
151.2218879138
  0
LINE
  5
2DB
100
AcDbEntity
  8
0
100
AcDbLine
 62
7
  6
CONTINUOUS
 10
126.2481715198
 20
149.9019873835
 11
126.3879330624
 21
150.0503850047
  0
LINE
  5
2DC
100
AcDbEntity
  8
0
100
AcDbLine
 62
7
  6
CONTINUOUS
 10
125.1746044628
 20
150.422810831
 11
125.2931590121
 21
150.5393698439
  0
LINE
  5
2DD
100
AcDbEntity
  8
RUNDUNGEN
100
AcDbLine
 62
7
  6
CONTINUOUS
 10
148.4227988511
 20
145.1477362854
 11
141.1068455189
 21
141.4200718753
  0
LINE
  5
2DE
100
AcDbEntity
  8
RUNDUNGEN
100
AcDbLine
 62
7
  6
CONTINUOUS
 10
49.9568582092
 20
103.6645109216
 11
42.1478412149
 21
101.1272074919
  0
LINE
  5
2DF
100
AcDbEntity
  8
RUNDUNGEN
100
AcDbLine
 62
7
  6
CONTINUOUS
 10
42.1478412149
 20
110.7018143512
 11
49.9568582092
 21
108.1645109216
  0
LINE
  5
2E0
100
AcDbEntity
  8
RUNDUNGEN
100
AcDbLine
 62
7
  6
CONTINUOUS
 10
141.1068455189
 20
70.4089499678
 11
148.4227988511
 21
66.6812855577
  0
LINE
  5
2E1
100
AcDbEntity
  8
RUNDUNGEN
100
AcDbLine
 62
7
  6
CONTINUOUS
 10
63.1860786859
 20
151.9180057229
 11
66.913743096
 21
144.6020523907
  0
LINE
  5
2E2
100
AcDbEntity
  8
RUNDUNGEN
100
AcDbLine
 62
7
  6
CONTINUOUS
 10
104.6693040497
 20
53.452065081
 11
107.2066074794
 21
45.6430480867
  0
LINE
  5
2E3
100
AcDbEntity
  8
0
100
AcDbLine
 62
7
  6
CONTINUOUS
 10
79.7319303168
 20
151.8180163946
 11
79.7713413691
 21
151.6375542374
  0
LINE
  5
2E4
100
AcDbEntity
  8
0
100
AcDbLine
 62
7
  6
CONTINUOUS
 10
80.0479298208
 20
151.7113644319
 11
80.0085187685
 21
151.8918265891
  0
LINE
  5
2E5
100
AcDbEntity
  8
0
100
AcDbLine
 62
7
  6
CONTINUOUS
 10
81.8096433169
 20
152.2675075907
 11
81.837262554
 21
152.0848685712
  0
LINE
  5
2E6
100
AcDbEntity
  8
RUNDUNGEN
100
AcDbLine
 62
7
  6
CONTINUOUS
 10
92.4193040497
 20
75.4440706971
 11
92.4193040497
 21
76.8412039227
  0
LINE
  5
2E7
100
AcDbEntity
  8
RUNDUNGEN
100
AcDbLine
 62
7
  6
CONTINUOUS
 10
92.4193040497
 20
134.9878179079
 11
92.4193040497
 21
136.384951146
  0
LINE
  5
2E8
100
AcDbEntity
  8
RUNDUNGEN
100
AcDbLine
 62
7
  6
CONTINUOUS
 10
93.4193040497
 20
165.8769567621
 11
93.4193040497
 21
159.5277176732
  0
LINE
  5
2E9
100
AcDbEntity
  8
RUNDUNGEN
100
AcDbLine
 62
7
  6
CONTINUOUS
 10
93.4193040497
 20
45.952065081
 11
93.4193040497
 21
52.301319723
  0
LINE
  5
2EA
100
AcDbEntity
  8
0
100
AcDbLine
 62
7
  6
CONTINUOUS
 10
117.3872351361
 20
154.9666136056
 11
117.3144718747
 21
154.8246004703
  0
LINE
  5
2EB
100
AcDbEntity
  8
0
100
AcDbLine
 62
7
  6
CONTINUOUS
 10
120.8219225732
 20
153.235707957
 11
120.9339933475
 21
153.4450456322
  0
LINE
  5
2EC
100
AcDbEntity
  8
0
100
AcDbLine
 62
7
  6
CONTINUOUS
 10
120.8087458415
 20
153.4947504541
 11
120.7111783356
 21
153.3219593288
  0
LINE
  5
2ED
100
AcDbEntity
  8
0
100
AcDbLine
 62
7
  6
CONTINUOUS
 10
121.3848625199
 20
152.4623748493
 11
121.4824300461
 21
152.6351660258
  0
LINE
  5
2EE
100
AcDbEntity
  8
0
100
AcDbLine
 62
7
  6
CONTINUOUS
 10
120.1681007524
 20
152.938856782
 11
120.1019381289
 21
152.8375515001
  0
LINE
  5
2EF
100
AcDbEntity
  8
0
100
AcDbLine
 62
7
  6
CONTINUOUS
 10
125.9417422912
 20
151.2218879138
 11
125.788928109
 21
150.9913930849
  0
LINE
  5
2F0
100
AcDbEntity
  8
0
100
AcDbLine
 62
7
  6
CONTINUOUS
 10
125.9079592709
 20
150.9282325291
 11
126.0423436837
 21
151.1239949711
  0
LINE
  5
2F1
100
AcDbEntity
  8
0
100
AcDbLine
 62
7
  6
CONTINUOUS
 10
121.3163021241
 20
152.3626765962
 11
121.3848625199
 21
152.4623748493
  0
LINE
  5
2F2
100
AcDbEntity
  8
0
100
AcDbLine
 62
7
  6
CONTINUOUS
 10
125.0077390708
 20
151.9569950198
 11
124.9132886702
 21
151.8283818125
  0
LINE
  5
2F3
100
AcDbEntity
  8
0
100
AcDbLine
 62
7
  6
CONTINUOUS
 10
125.7474673477
 20
150.5682767309
 11
125.8265624782
 21
150.6598420606
  0
LINE
  5
2F4
100
AcDbEntity
  8
0
100
AcDbLine
 62
7
  6
CONTINUOUS
 10
126.2873316698
 20
150.1482779475
 11
126.2082365651
 21
150.0567126665
  0
LINE
  5
2F5
100
AcDbEntity
  8
RUNDUNGEN
100
AcDbLine
 62
7
  6
CONTINUOUS
 10
138.4551950894
 20
154.6783240226
 11
133.9657057445
 21
150.1888346777
  0
LINE
  5
2F6
100
AcDbEntity
  8
RUNDUNGEN
100
AcDbLine
 62
7
  6
CONTINUOUS
 10
53.6554909487
 20
69.8786198819
 11
58.1450961057
 21
74.3682250389
  0
LINE
  5
2F7
100
AcDbEntity
  8
0
100
AcDbLine
 62
7
  6
CONTINUOUS
 10
148.3878652701
 20
128.2981734101
 11
148.1987180281
 21
128.2381772075
  0
LINE
  5
2F8
100
AcDbEntity
  8
0
100
AcDbLine
 62
7
  6
CONTINUOUS
 10
147.7856495896
 20
126.9082716981
 11
147.9747967456
 21
126.9682678892
  0
LINE
  5
2F9
100
AcDbEntity
  8
RUNDUNGEN
100
AcDbLine
 62
7
  6
CONTINUOUS
 10
73.3459900819
 20
95.9145109216
 11
71.9488638253
 21
95.9145109216
  0
LINE
  5
2FA
100
AcDbEntity
  8
RUNDUNGEN
100
AcDbLine
 62
7
  6
CONTINUOUS
 10
131.4926182302
 20
95.9145109216
 11
132.8897442742
 21
95.9145109216
  0
LINE
  5
2FB
100
AcDbEntity
  8
RUNDUNGEN
100
AcDbLine
 62
7
  6
CONTINUOUS
 10
42.4568582092
 20
96.9145109216
 11
48.8059025334
 21
96.9145109216
  0
LINE
  5
2FC
100
AcDbEntity
  8
RUNDUNGEN
100
AcDbLine
 62
7
  6
CONTINUOUS
 10
156.0324941772
 20
96.9145109216
 11
162.3817498903
 21
96.9145109216
  0
LINE
  5
2FD
100
AcDbEntity
  8
RUNDUNGEN
100
AcDbLine
 62
7
  6
CONTINUOUS
 10
53.6554909487
 20
141.9504019612
 11
58.1449401963
 21
137.4609527136
  0
LINE
  5
2FE
100
AcDbEntity
  8
RUNDUNGEN
100
AcDbLine
 62
7
  6
CONTINUOUS
 10
133.9655903134
 20
61.6403025966
 11
138.4551950894
 21
57.1506978205
  0
LINE
  5
2FF
100
AcDbEntity
  8
0
100
AcDbLine
 62
7
  6
CONTINUOUS
 10
81.837262554
 20
152.0848685712
 11
81.8883823439
 21
151.8474861465
  0
LINE
  5
300
100
AcDbEntity
  8
0
100
AcDbLine
 62
7
  6
CONTINUOUS
 10
82.1027942038
 20
151.9395300592
 11
82.0516741685
 21
152.1769123786
  0
LINE
  5
301
100
AcDbEntity
  8
0
100
AcDbLine
 62
7
  6
CONTINUOUS
 10
83.140207993
 20
152.1255493035
 11
83.1913275375
 21
151.8881667734
  0
LINE
  5
302
100
AcDbEntity
  8
0
100
AcDbLine
 62
7
  6
CONTINUOUS
 10
83.4333588964
 20
151.7975717336
 11
83.3546193622
 21
152.2175930055
  0
LINE
  5
303
100
AcDbEntity
  8
0
100
AcDbLine
 62
7
  6
CONTINUOUS
 10
99.2443040497
 20
118.365188614
 11
99.2443040497
 21
121.6395109216
  0
LINE
  5
304
100
AcDbEntity
  8
RUNDUNGEN
100
AcDbLine
 62
7
  6
CONTINUOUS
 10
100.1693040497
 20
53.452065081
 11
100.1693040497
 21
54.4519709706
  0
LINE
  5
305
100
AcDbEntity
  8
RUNDUNGEN
100
AcDbLine
 62
7
  6
CONTINUOUS
 10
100.1693040497
 20
157.3770651568
 11
100.1693040497
 21
158.3769567621
  0
LINE
  5
306
100
AcDbEntity
  8
02___PRT_ALL_AXES
100
AcDbLine
 62
7
  6
CENTER
 10
102.4193040497
 20
105.9145109216
 11
102.4193040497
 21
41.5080815529
  0
LINE
  5
307
100
AcDbEntity
  8
02___PRT_ALL_AXES
100
AcDbLine
 62
7
  6
CENTER
 10
102.4193040497
 20
105.9145109216
 11
102.4193040497
 21
170.3209402902
  0
LINE
  5
308
100
AcDbEntity
  8
0
100
AcDbLine
 62
7
  6
CONTINUOUS
 10
116.1849214688
 20
155.6039846618
 11
115.6748137481
 21
153.8277825018
  0
LINE
  5
309
100
AcDbEntity
  8
0
100
AcDbLine
 62
7
  6
CONTINUOUS
 10
115.8953515715
 20
154.0098972876
 11
116.3403391578
 21
155.5593502362
  0
LINE
  5
30A
100
AcDbEntity
  8
0
100
AcDbLine
 62
7
  6
CONTINUOUS
 10
116.6073198821
 20
153.5599759484
 11
116.6724400165
 21
153.7867251598
  0
LINE
  5
30B
100
AcDbEntity
  8
0
100
AcDbLine
 62
7
  6
CONTINUOUS
 10
117.3144718747
 20
154.8246004703
 11
117.2674245155
 21
154.6745254814
  0
LINE
  5
30C
100
AcDbEntity
  8
0
100
AcDbLine
 62
7
  6
CONTINUOUS
 10
117.4334820318
 20
154.6636736874
 11
117.4570056949
 21
154.7387111293
  0
LINE
  5
30D
100
AcDbEntity
  8
0
100
AcDbLine
 62
7
  6
CONTINUOUS
 10
117.7875202105
 20
153.8109780026
 11
117.7522347159
 21
153.6984218397
  0
LINE
  5
30E
100
AcDbEntity
  8
0
100
AcDbLine
 62
7
  6
CONTINUOUS
 10
117.8947686427
 20
153.6125325807
 11
117.9535778005
 21
153.8001261856
  0
LINE
  5
30F
100
AcDbEntity
  8
0
100
AcDbLine
 62
7
  6
CONTINUOUS
 10
119.83415087
 20
154.4455230039
 11
119.4798297892
 21
153.4865915739
  0
LINE
  5
310
100
AcDbEntity
  8
0
100
AcDbLine
 62
7
  6
CONTINUOUS
 10
119.6743658722
 20
153.6242981355
 11
119.8924096289
 21
154.2144098245
  0
LINE
  5
311
100
AcDbEntity
  8
0
100
AcDbLine
 62
7
  6
CONTINUOUS
 10
120.1953562172
 20
153.0126207302
 11
120.1681007524
 21
152.938856782
  0
LINE
  5
312
100
AcDbEntity
  8
0
100
AcDbLine
 62
7
  6
CONTINUOUS
 10
120.6255158855
 20
153.9435301838
 11
120.6936545476
 21
154.1279400543
  0
LINE
  5
313
100
AcDbEntity
  8
0
100
AcDbLine
 62
7
  6
CONTINUOUS
 10
120.2808707303
 20
152.8552713921
 11
120.3353816599
 21
153.0027992885
  0
LINE
  5
314
100
AcDbEntity
  8
0
100
AcDbLine
 62
7
  6
CONTINUOUS
 10
120.7111783356
 20
153.3219593288
 11
120.58064634
 21
152.9930414035
  0
LINE
  5
315
100
AcDbEntity
  8
0
100
AcDbLine
 62
7
  6
CONTINUOUS
 10
120.7203976878
 20
152.9798829039
 11
120.8219225732
 21
153.235707957
  0
LINE
  5
316
100
AcDbEntity
  8
0
100
AcDbLine
 62
7
  6
CONTINUOUS
 10
121.4732104072
 20
152.9772425644
 11
121.3716855218
 21
152.7214175114
  0
LINE
  5
317
100
AcDbEntity
  8
0
100
AcDbLine
 62
7
  6
CONTINUOUS
 10
121.4824300461
 20
152.6351660258
 11
121.6129620417
 21
152.9640839511
  0
LINE
  5
318
100
AcDbEntity
  8
0
100
AcDbLine
 62
7
  6
CONTINUOUS
 10
121.7395928383
 20
152.6550870725
 11
121.6636876539
 21
152.4737357498
  0
LINE
  5
319
100
AcDbEntity
  8
0
100
AcDbLine
 62
7
  6
CONTINUOUS
 10
122.0117308217
 20
152.3280611529
 11
122.0876360061
 21
152.5094124756
  0
LINE
  5
31A
100
AcDbEntity
  8
0
100
AcDbLine
 62
7
  6
CONTINUOUS
 10
122.1899738483
 20
152.1691980331
 11
122.1425688633
 21
152.0611854257
  0
LINE
  5
31B
100
AcDbEntity
  8
0
100
AcDbLine
 62
7
  6
CONTINUOUS
 10
122.5306846099
 20
152.8784515742
 11
122.483279625
 21
152.7704389669
  0
LINE
  5
31C
100
AcDbEntity
  8
0
100
AcDbLine
 62
7
  6
CONTINUOUS
 10
122.2659580919
 20
152.0070318907
 11
122.3133630768
 21
152.115044498
  0
LINE
  5
31D
100
AcDbEntity
  8
0
100
AcDbLine
 62
7
  6
CONTINUOUS
 10
122.6224710801
 20
152.7522893863
 11
122.6540744034
 21
152.8242977912
  0
LINE
  5
31E
100
AcDbEntity
  8
0
100
AcDbLine
 62
7
  6
CONTINUOUS
 10
123.2463436042
 20
152.5643604263
 11
123.214740281
 21
152.4923520214
  0
LINE
  5
31F
100
AcDbEntity
  8
0
100
AcDbLine
 62
7
  6
CONTINUOUS
 10
122.9549878562
 20
151.8334457686
 11
122.9075828713
 21
151.7254331613
  0
LINE
  5
320
100
AcDbEntity
  8
0
100
AcDbLine
 62
7
  6
CONTINUOUS
 10
123.3223278479
 20
152.4021942839
 11
123.3697328328
 21
152.5102068913
  0
LINE
  5
321
100
AcDbEntity
  8
0
100
AcDbLine
 62
7
  6
CONTINUOUS
 10
123.0309726647
 20
151.6712793783
 11
123.0783776496
 21
151.7792919857
  0
LINE
  5
322
100
AcDbEntity
  8
0
100
AcDbLine
 62
7
  6
CONTINUOUS
 10
124.9132886702
 20
151.8283818125
 11
124.8429423566
 21
151.6877142879
  0
LINE
  5
323
100
AcDbEntity
  8
0
100
AcDbLine
 62
7
  6
CONTINUOUS
 10
125.0051526374
 20
151.6505563829
 11
125.0403257696
 21
151.7208900959
  0
LINE
  5
324
100
AcDbEntity
  8
0
100
AcDbLine
 62
7
  6
CONTINUOUS
 10
125.2188815616
 20
150.7523620316
 11
125.1661218634
 21
150.646861462
  0
LINE
  5
325
100
AcDbEntity
  8
0
100
AcDbLine
 62
7
  6
CONTINUOUS
 10
125.2931590121
 20
150.5393698439
 11
125.3810918424
 21
150.7152041266
  0
LINE
  5
326
100
AcDbEntity
  8
0
100
AcDbLine
 62
7
  6
CONTINUOUS
 10
125.788928109
 20
150.9913930849
 11
125.6599197232
 21
150.7482663761
  0
LINE
  5
327
100
AcDbEntity
  8
0
100
AcDbLine
 62
7
  6
CONTINUOUS
 10
125.8710997321
 20
150.8587677552
 11
125.9079592709
 21
150.9282325291
  0
LINE
  5
328
100
AcDbEntity
  8
0
100
AcDbLine
 62
7
  6
CONTINUOUS
 10
125.6921780395
 20
150.46407957
 11
125.7474673477
 21
150.5682767309
  0
LINE
  5
329
100
AcDbEntity
  8
0
100
AcDbLine
 62
7
  6
CONTINUOUS
 10
126.342620978
 20
150.2524751084
 11
126.2873316698
 21
150.1482779475
  0
LINE
  5
32A
100
AcDbEntity
  8
0
100
AcDbLine
 62
7
  6
CONTINUOUS
 10
126.3879330624
 20
150.0503850047
 11
126.4800819351
 21
150.2240469882
  0
LINE
  5
32B
100
AcDbEntity
  8
0
100
AcDbLine
 62
7
  6
CONTINUOUS
 10
121.3716855218
 20
152.7214175114
 11
121.2596150139
 21
152.5120796712
  0
LINE
  5
32C
100
AcDbEntity
  8
0
100
AcDbLine
 62
7
  6
CONTINUOUS
 10
126.4313034763
 20
149.6657133121
 11
126.3364824896
 21
149.4934958075
  0
LINE
  5
32D
100
AcDbEntity
  8
0
100
AcDbLine
 62
7
  6
CONTINUOUS
 10
126.4545225147
 20
149.4285043208
 11
126.5493435014
 21
149.6007218255
  0
LINE
  5
32E
100
AcDbEntity
  8
0
100
AcDbLine
 62
7
  6
CONTINUOUS
 10
127.4139885376
 20
150.69494111
 11
127.2598161819
 21
150.4207611677
  0
LINE
  5
32F
100
AcDbEntity
  8
0
100
AcDbLine
 62
7
  6
CONTINUOUS
 10
127.5356625939
 20
150.5814144209
 11
126.784072515
 21
149.2447874786
  0
LINE
  5
330
100
AcDbEntity
  8
0
100
AcDbLine
 62
7
  6
CONTINUOUS
 10
126.925018109
 20
149.1655332703
 11
127.8307804896
 21
150.7763400588
  0
LINE
  5
331
100
AcDbEntity
  8
RUNDUNGEN
100
AcDbLine
 62
7
  6
CONTINUOUS
 10
63.7317625806
 20
70.4089499678
 11
64.4387999807
 21
71.1159873679
  0
LINE
  5
332
100
AcDbEntity
  8
RUNDUNGEN
100
AcDbLine
 62
7
  6
CONTINUOUS
 10
137.2178373361
 20
143.8950247232
 11
137.9248650035
 21
144.6020523907
  0
LINE
  5
333
100
AcDbEntity
  8
0
100
AcDbLine
 62
7
  6
CONTINUOUS
 10
148.1987180281
 20
128.2381772075
 11
147.665961452
 21
127.9851566666
  0
LINE
  5
334
100
AcDbEntity
  8
0
100
AcDbLine
 62
7
  6
CONTINUOUS
 10
147.7353312521
 20
127.8390925682
 11
148.2680878282
 21
128.0921131091
  0
LINE
  5
335
100
AcDbEntity
  8
0
100
AcDbLine
 62
7
  6
CONTINUOUS
 10
148.6759421442
 20
126.5590077217
 11
147.8135979513
 21
126.1757899232
  0
LINE
  5
336
100
AcDbEntity
  8
0
100
AcDbLine
 62
7
  6
CONTINUOUS
 10
147.879263918
 20
126.0280236523
 11
148.7416081108
 21
126.4112414508
  0
LINE
  5
337
100
AcDbEntity
  8
0
100
AcDbLine
 62
7
  6
CONTINUOUS
 10
149.8457950305
 20
126.1447846904
 11
148.139233456
 21
125.4357349092
  0
LINE
  5
338
100
AcDbEntity
  8
0
100
AcDbLine
 62
7
  6
CONTINUOUS
 10
148.4191342357
 20
125.3769277645
 11
149.9078368864
 21
125.9954605527
  0
LINE
  5
339
100
AcDbEntity
  8
0
100
AcDbLine
 62
7
  6
CONTINUOUS
 10
148.5114845911
 20
124.5397900825
 11
148.729343515
 21
124.6303070757
  0
LINE
  5
33A
100
AcDbEntity
  8
0
100
AcDbLine
 62
7
  6
CONTINUOUS
 10
150.5308374333
 20
123.6712430517
 11
150.2353991891
 21
123.5632615723
  0
LINE
  5
33B
100
AcDbEntity
  8
0
100
AcDbLine
 62
7
  6
CONTINUOUS
 10
150.5494168821
 20
123.5058716842
 11
149.1091557393
 21
122.9794620811
  0
LINE
  5
33C
100
AcDbEntity
  8
0
100
AcDbLine
 62
7
  6
CONTINUOUS
 10
149.1646648499
 20
122.8275886835
 11
150.9003641333
 21
123.4619797281
  0
LINE
  5
33D
100
AcDbEntity
  8
RUNDUNGEN
100
AcDbLine
 62
7
  6
CONTINUOUS
 10
50.9567550787
 20
103.6645109216
 11
49.9568582092
 21
103.6645109216
  0
LINE
  5
33E
100
AcDbEntity
  8
RUNDUNGEN
100
AcDbLine
 62
7
  6
CONTINUOUS
 10
153.8818440007
 20
103.6645109216
 11
154.8817498903
 21
103.6645109216
  0
LINE
  5
33F
100
AcDbEntity
  8
02___PRT_ALL_AXES
100
AcDbLine
 62
7
  6
CENTER
 10
102.4193040497
 20
105.9145109216
 11
38.0128746811
 21
105.9145109216
  0
LINE
  5
340
100
AcDbEntity
  8
02___PRT_ALL_AXES
100
AcDbLine
 62
7
  6
CENTER
 10
102.4193040497
 20
105.9145109216
 11
166.8257334184
 21
105.9145109216
  0
LINE
  5
341
100
AcDbEntity
  8
RUNDUNGEN
100
AcDbLine
 62
7
  6
CONTINUOUS
 10
137.2178272218
 20
67.9340072341
 11
137.9248650035
 21
67.2269694524
  0
LINE
  5
342
100
AcDbEntity
  8
RUNDUNGEN
100
AcDbLine
 62
7
  6
CONTINUOUS
 10
64.4387902481
 20
140.7130442079
 11
63.7317625806
 21
141.4200718753
  0
LINE
  5
343
100
AcDbEntity
  8
0
100
AcDbLine
 62
7
  6
CONTINUOUS
 10
78.0643645969
 20
151.9057431211
 11
79.3334996313
 21
149.409887303
  0
LINE
  5
344
100
AcDbEntity
  8
0
100
AcDbLine
 62
7
  6
CONTINUOUS
 10
79.5830852132
 20
149.5368008065
 11
79.0160248706
 21
150.6519704431
  0
LINE
  5
345
100
AcDbEntity
  8
0
100
AcDbLine
 62
7
  6
CONTINUOUS
 10
78.8540076515
 20
150.9705902968
 11
78.448964528
 21
151.7671400798
  0
LINE
  5
346
100
AcDbEntity
  8
0
100
AcDbLine
 62
7
  6
CONTINUOUS
 10
79.6509216316
 20
151.9773264702
 11
79.7319303168
 21
151.8180163946
  0
LINE
  5
347
100
AcDbEntity
  8
0
100
AcDbLine
 62
7
  6
CONTINUOUS
 10
80.4051177581
 20
152.0768712428
 11
81.2115524964
 21
150.3494573248
  0
LINE
  5
348
100
AcDbEntity
  8
0
100
AcDbLine
 62
7
  6
CONTINUOUS
 10
81.4229806885
 20
150.4481615421
 11
80.9189589505
 21
151.5277952976
  0
LINE
  5
349
100
AcDbEntity
  8
0
100
AcDbLine
 62
7
  6
CONTINUOUS
 10
80.7677524503
 20
151.8516853788
 11
80.6165459501
 21
152.1755754601
  0
LINE
  5
34A
100
AcDbEntity
  8
0
100
AcDbLine
 62
7
  6
CONTINUOUS
 10
81.2922649566
 20
152.1622981596
 11
81.1662595398
 21
152.4322065606
  0
LINE
  5
34B
100
AcDbEntity
  8
0
100
AcDbLine
 62
7
  6
CONTINUOUS
 10
81.8883823439
 20
151.8474861465
 11
81.9823845878
 21
151.6285124486
  0
LINE
  5
34C
100
AcDbEntity
  8
0
100
AcDbLine
 62
7
  6
CONTINUOUS
 10
82.1967964476
 20
151.7205563614
 11
82.1027942038
 21
151.9395300592
  0
LINE
  5
34D
100
AcDbEntity
  8
0
100
AcDbLine
 62
7
  6
CONTINUOUS
 10
83.0462057492
 20
152.3445230013
 11
83.140207993
 21
152.1255493035
  0
LINE
  5
34E
100
AcDbEntity
  8
0
100
AcDbLine
 62
7
  6
CONTINUOUS
 10
83.3546193622
 20
152.2175930055
 11
83.2606171183
 21
152.4365667034
  0
LINE
  5
34F
100
AcDbEntity
  8
0
100
AcDbLine
 62
7
  6
CONTINUOUS
 10
82.9920128686
 20
154.1867093288
 11
84.0315708052
 21
151.5868402366
  0
LINE
  5
350
100
AcDbEntity
  8
0
100
AcDbLine
 62
7
  6
CONTINUOUS
 10
84.2482267282
 20
151.6734701308
 11
83.2086687916
 21
154.2733392229
  0
LINE
  5
351
100
AcDbEntity
  8
0
100
AcDbLine
 62
7
  6
CONTINUOUS
 10
83.5882790968
 20
154.4224203892
 11
83.6954540239
 21
154.1444969375
  0
LINE
  5
352
100
AcDbEntity
  8
0
100
AcDbLine
 62
7
  6
CONTINUOUS
 10
83.9098039381
 20
153.5886498782
 11
84.5957235314
 21
151.8099396312
  0
LINE
  5
353
100
AcDbEntity
  8
0
100
AcDbLine
 62
7
  6
CONTINUOUS
 10
84.8134304273
 20
151.8938933981
 11
84.127510834
 21
153.6726036452
  0
LINE
  5
354
100
AcDbEntity
  8
0
100
AcDbLine
 62
7
  6
CONTINUOUS
 10
83.9131609198
 20
154.2284507044
 11
83.8059859927
 21
154.5063741562
  0
LINE
  5
355
100
AcDbEntity
  8
0
100
AcDbLine
 62
7
  6
CONTINUOUS
 10
84.516714789
 20
153.8241722708
 11
85.1611477647
 21
152.0300145377
  0
LINE
  5
356
100
AcDbEntity
  8
0
100
AcDbLine
 62
7
  6
CONTINUOUS
 10
85.3807448674
 20
152.1088903309
 11
84.9175586503
 21
153.3984412458
  0
LINE
  5
357
100
AcDbEntity
  8
0
100
AcDbLine
 62
7
  6
CONTINUOUS
 10
84.8370045354
 20
153.6227109428
 11
84.7363118917
 21
153.903048064
  0
LINE
  5
358
100
AcDbEntity
  8
0
100
AcDbLine
 62
7
  6
CONTINUOUS
 10
85.7886635414
 20
153.4581248377
 11
86.1712956436
 21
152.3928436198
  0
LINE
  5
359
100
AcDbEntity
  8
0
100
AcDbLine
 62
7
  6
CONTINUOUS
 10
86.390893249
 20
152.4717195936
 11
86.0082611467
 21
153.5370008115
  0
LINE
  5
35A
100
AcDbEntity
  8
0
100
AcDbLine
 62
7
  6
CONTINUOUS
 10
85.8883946118
 20
155.2578696242
 11
86.7444541002
 21
152.5919434901
  0
LINE
  5
35B
100
AcDbEntity
  8
0
100
AcDbLine
 62
7
  6
CONTINUOUS
 10
86.9666142723
 20
152.6632816719
 11
86.7662599224
 21
153.287221836
  0
LINE
  5
35C
100
AcDbEntity
  8
0
100
AcDbLine
 62
7
  6
CONTINUOUS
 10
86.6569757454
 20
153.6275527913
 11
86.1105547839
 21
155.329207806
  0
LINE
  5
35D
100
AcDbEntity
  8
RUNDUNGEN
100
AcDbLine
 62
7
  6
CONTINUOUS
 10
104.6693040497
 20
53.452065081
 11
104.6693040497
 21
54.4519564436
  0
LINE
  5
35E
100
AcDbEntity
  8
RUNDUNGEN
100
AcDbLine
 62
7
  6
CONTINUOUS
 10
104.6693040497
 20
157.3770504913
 11
104.6693040497
 21
158.3769567621
  0
LINE
  5
35F
100
AcDbEntity
  8
0
100
AcDbLine
 62
7
  6
CONTINUOUS
 10
105.5943040497
 20
121.6395109216
 11
105.5943040497
 21
118.365188614
  0
LINE
  5
360
100
AcDbEntity
  8
0
100
AcDbLine
 62
7
  6
CONTINUOUS
 10
120.58064634
 20
152.9930414035
 11
120.5331782749
 21
152.8003681162
  0
LINE
  5
361
100
AcDbEntity
  8
0
100
AcDbLine
 62
7
  6
CONTINUOUS
 10
120.6584257809
 20
152.7506632942
 11
120.7203976878
 21
152.9798829039
  0
LINE
  5
362
100
AcDbEntity
  8
0
100
AcDbLine
 62
7
  6
CONTINUOUS
 10
121.5351825804
 20
153.2064620092
 11
121.4732104072
 21
152.9772425644
  0
LINE
  5
363
100
AcDbEntity
  8
0
100
AcDbLine
 62
7
  6
CONTINUOUS
 10
125.6599197232
 20
150.7482663761
 11
125.5547171082
 21
150.4925077388
  0
LINE
  5
364
100
AcDbEntity
  8
RUNDUNGEN
100
AcDbLine
 62
7
  6
CONTINUOUS
 10
66.913743096
 20
67.2269694524
 11
67.6207702708
 21
67.9339966273
  0
LINE
  5
365
100
AcDbEntity
  8
RUNDUNGEN
100
AcDbLine
 62
7
  6
CONTINUOUS
 10
140.399808061
 20
140.7130344175
 11
141.1068455189
 21
141.4200718753
  0
LINE
  5
366
100
AcDbEntity
  8
0
100
AcDbLine
 62
7
  6
CONTINUOUS
 10
147.665961452
 20
127.9851566666
 11
147.499937577
 21
127.876472477
  0
LINE
  5
367
100
AcDbEntity
  8
RUNDUNGEN
100
AcDbLine
 62
7
  6
CONTINUOUS
 10
49.9568582092
 20
108.1645109216
 11
50.9567372587
 21
108.1645109216
  0
LINE
  5
368
100
AcDbEntity
  8
RUNDUNGEN
100
AcDbLine
 62
7
  6
CONTINUOUS
 10
153.8818585277
 20
108.1645109216
 11
154.8817498903
 21
108.1645109216
  0
LINE
  5
369
100
AcDbEntity
  8
RUNDUNGEN
100
AcDbLine
 62
7
  6
CONTINUOUS
 10
140.3998185144
 20
71.1159769723
 11
141.1068455189
 21
70.4089499678
  0
LINE
  5
36A
100
AcDbEntity
  8
RUNDUNGEN
100
AcDbLine
 62
7
  6
CONTINUOUS
 10
67.6207805538
 20
143.8950149328
 11
66.913743096
 21
144.6020523907
  0
LINE
  5
36B
100
AcDbEntity
  8
0
100
AcDbLine
 62
7
  6
CONTINUOUS
 10
80.0085187685
 20
151.8918265891
 11
79.9005072134
 21
152.1042399737
  0
LINE
  5
36C
100
AcDbEntity
  8
RUNDUNGEN
100
AcDbLine
 62
7
  6
CONTINUOUS
 10
111.4193040497
 20
45.952065081
 11
111.4193040497
 21
52.3011091824
  0
LINE
  5
36D
100
AcDbEntity
  8
RUNDUNGEN
100
AcDbLine
 62
7
  6
CONTINUOUS
 10
111.4193040497
 20
159.5277016295
 11
111.4193040497
 21
165.8769567621
  0
LINE
  5
36E
100
AcDbEntity
  8
RUNDUNGEN
100
AcDbLine
 62
7
  6
CONTINUOUS
 10
112.4193040497
 20
136.384951146
 11
112.4193040497
 21
134.9878179204
  0
LINE
  5
36F
100
AcDbEntity
  8
RUNDUNGEN
100
AcDbLine
 62
7
  6
CONTINUOUS
 10
112.4193040497
 20
76.8412039353
 11
112.4193040497
 21
75.4440706971
  0
LINE
  5
370
100
AcDbEntity
  8
0
100
AcDbLine
 62
7
  6
CONTINUOUS
 10
117.1115280193
 20
153.8168665499
 11
117.1210975052
 21
153.9374844845
  0
LINE
  5
371
100
AcDbEntity
  8
0
100
AcDbLine
 62
7
  6
CONTINUOUS
 10
117.423912546
 20
154.5430557528
 11
117.4334820318
 21
154.6636736874
  0
LINE
  5
372
100
AcDbEntity
  8
0
100
AcDbLine
 62
7
  6
CONTINUOUS
 10
118.1116666017
 20
154.5746860316
 11
118.1212360876
 21
154.6953039662
  0
LINE
  5
373
100
AcDbEntity
  8
0
100
AcDbLine
 62
7
  6
CONTINUOUS
 10
120.2109600072
 20
153.1326073446
 11
120.1953562172
 21
153.0126207302
  0
LINE
  5
374
100
AcDbEntity
  8
0
100
AcDbLine
 62
7
  6
CONTINUOUS
 10
116.9668018204
 20
153.9858549994
 11
116.9454704294
 21
153.8277183669
  0
LINE
  5
375
100
AcDbEntity
  8
0
100
AcDbLine
 62
7
  6
CONTINUOUS
 10
117.2674245155
 20
154.6745254814
 11
117.2460931245
 21
154.5163888488
  0
LINE
  5
376
100
AcDbEntity
  8
0
100
AcDbLine
 62
7
  6
CONTINUOUS
 10
122.1425688633
 20
152.0611854257
 11
122.1129161226
 21
151.8595030238
  0
LINE
  5
377
100
AcDbEntity
  8
0
100
AcDbLine
 62
7
  6
CONTINUOUS
 10
120.5331782749
 20
152.8003681162
 11
120.5147170536
 21
152.6807878661
  0
LINE
  5
378
100
AcDbEntity
  8
0
100
AcDbLine
 62
7
  6
CONTINUOUS
 10
121.6604300865
 20
153.1567571872
 11
121.6788910617
 21
153.2763376535
  0
LINE
  5
379
100
AcDbEntity
  8
0
100
AcDbLine
 62
7
  6
CONTINUOUS
 10
125.5547171082
 20
150.4925077388
 11
125.5101809311
 21
150.2935814416
  0
LINE
  5
37A
100
AcDbEntity
  8
0
100
AcDbLine
 62
7
  6
CONTINUOUS
 10
124.5524538723
 20
150.8658267952
 11
124.5811094342
 21
150.9833815837
  0
LINE
  5
37B
100
AcDbEntity
  8
0
100
AcDbLine
 62
7
  6
CONTINUOUS
 10
124.9764970756
 20
151.5330015944
 11
125.0051526374
 21
151.6505563829
  0
LINE
  5
37C
100
AcDbEntity
  8
0
100
AcDbLine
 62
7
  6
CONTINUOUS
 10
125.6605113802
 20
151.4547037859
 11
125.6891669421
 21
151.5722585744
  0
LINE
  5
37D
100
AcDbEntity
  8
0
100
AcDbLine
 62
7
  6
CONTINUOUS
 10
121.6129620417
 20
152.9640839511
 11
121.6604300865
 21
153.1567571872
  0
LINE
  5
37E
100
AcDbEntity
  8
0
100
AcDbLine
 62
7
  6
CONTINUOUS
 10
125.6606945278
 20
150.3472505292
 11
125.6921780395
 21
150.46407957
  0
LINE
  5
37F
100
AcDbEntity
  8
0
100
AcDbLine
 62
7
  6
CONTINUOUS
 10
126.3741045155
 20
150.3693041978
 11
126.342620978
 21
150.2524751084
  0
LINE
  5
380
100
AcDbEntity
  8
0
100
AcDbLine
 62
7
  6
CONTINUOUS
 10
126.764205153
 20
150.874494389
 11
126.7956886647
 21
150.9913234298
  0
LINE
  5
381
100
AcDbEntity
  8
0
100
AcDbLine
 62
7
  6
CONTINUOUS
 10
124.4364857194
 20
151.0557063452
 11
124.3902435915
 21
150.9029847002
  0
LINE
  5
382
100
AcDbEntity
  8
0
100
AcDbLine
 62
7
  6
CONTINUOUS
 10
124.8429423566
 20
151.6877142879
 11
124.7967002287
 21
151.5349926429
  0
LINE
  5
383
100
AcDbEntity
  8
RUNDUNGEN
100
AcDbLine
 62
7
  6
CONTINUOUS
 10
66.3834130101
 20
57.1506978205
 11
70.8729039112
 21
61.6401887217
  0
LINE
  5
384
100
AcDbEntity
  8
RUNDUNGEN
100
AcDbLine
 62
7
  6
CONTINUOUS
 10
146.6935123747
 20
137.4607971852
 11
151.1831171508
 21
141.9504019612
  0
LINE
  5
385
100
AcDbEntity
  8
0
100
AcDbLine
 62
7
  6
CONTINUOUS
 10
148.8173101181
 20
127.5772449483
 11
148.7223203356
 21
127.5022968044
  0
LINE
  5
386
100
AcDbEntity
  8
0
100
AcDbLine
 62
7
  6
CONTINUOUS
 10
147.6048244757
 20
127.7472764197
 11
147.7353312521
 21
127.8390925682
  0
LINE
  5
387
100
AcDbEntity
  8
0
100
AcDbLine
 62
7
  6
CONTINUOUS
 10
148.7916901357
 20
127.356232706
 11
148.9577141217
 21
127.4649169189
  0
LINE
  5
388
100
AcDbEntity
  8
0
100
AcDbLine
 62
7
  6
CONTINUOUS
 10
148.2680878282
 20
128.0921131091
 11
148.4217178658
 21
128.1352412365
  0
LINE
  5
389
100
AcDbEntity
  8
0
100
AcDbLine
 62
7
  6
CONTINUOUS
 10
147.9054269455
 20
127.1143319876
 11
147.7873140179
 21
127.0880718773
  0
LINE
  5
38A
100
AcDbEntity
  8
RUNDUNGEN
100
AcDbLine
 62
7
  6
CONTINUOUS
 10
162.3817498903
 20
114.9145109216
 11
156.0327057888
 21
114.9145109216
  0
LINE
  5
38B
100
AcDbEntity
  8
RUNDUNGEN
100
AcDbLine
 62
7
  6
CONTINUOUS
 10
42.4568582092
 20
114.9145109216
 11
48.8061210357
 21
114.9145109216
  0
LINE
  5
38C
100
AcDbEntity
  8
RUNDUNGEN
100
AcDbLine
 62
7
  6
CONTINUOUS
 10
73.3459898693
 20
115.9145109216
 11
71.9488638253
 21
115.9145109216
  0
LINE
  5
38D
100
AcDbEntity
  8
RUNDUNGEN
100
AcDbLine
 62
7
  6
CONTINUOUS
 10
131.4926180176
 20
115.9145109216
 11
132.8897442742
 21
115.9145109216
  0
LINE
  5
38E
100
AcDbEntity
  8
RUNDUNGEN
100
AcDbLine
 62
7
  6
CONTINUOUS
 10
151.1831171508
 20
69.8786198819
 11
146.6936680634
 21
74.3680689692
  0
LINE
  5
38F
100
AcDbEntity
  8
RUNDUNGEN
100
AcDbLine
 62
7
  6
CONTINUOUS
 10
70.8728689788
 20
150.1888680539
 11
66.3834130101
 21
154.6783240226
  0
LINE
  5
390
100
AcDbEntity
  8
0
100
AcDbLine
 62
7
  6
CONTINUOUS
 10
81.9823845878
 20
151.6285124486
 11
82.2326533154
 21
151.2821261805
  0
LINE
  5
391
100
AcDbEntity
  8
0
100
AcDbLine
 62
7
  6
CONTINUOUS
 10
82.3336808342
 20
151.5199914385
 11
82.1967964476
 21
151.7205563614
  0
LINE
  5
392
100
AcDbEntity
  8
0
100
AcDbLine
 62
7
  6
CONTINUOUS
 10
82.9093208718
 20
152.5450877135
 11
83.0462057492
 21
152.3445230013
  0
LINE
  5
393
100
AcDbEntity
  8
0
100
AcDbLine
 62
7
  6
CONTINUOUS
 10
83.2606171183
 20
152.4365667034
 11
83.1237327317
 21
152.6371316263
  0
LINE
  5
394
100
AcDbEntity
  8
0
100
AcDbLine
 62
7
  6
CONTINUOUS
 10
85.6440515777
 20
153.7226868364
 11
85.7886635414
 21
153.4581248377
  0
LINE
  5
395
100
AcDbEntity
  8
0
100
AcDbLine
 62
7
  6
CONTINUOUS
 10
86.0082611467
 20
153.5370008115
 11
85.8636491831
 21
153.8015628102
  0
LINE
  5
396
100
AcDbEntity
  8
0
100
AcDbLine
 62
7
  6
CONTINUOUS
 10
116.9454704294
 20
153.8277183669
 11
116.9638091384
 21
153.6159394537
  0
LINE
  5
397
100
AcDbEntity
  8
0
100
AcDbLine
 62
7
  6
CONTINUOUS
 10
117.9535778005
 20
153.8001261856
 11
117.9491932727
 21
153.9663246193
  0
LINE
  5
398
100
AcDbEntity
  8
0
100
AcDbLine
 62
7
  6
CONTINUOUS
 10
117.9551784977
 20
154.7061557833
 11
117.9573708433
 21
154.6230565696
  0
LINE
  5
399
100
AcDbEntity
  8
0
100
AcDbLine
 62
7
  6
CONTINUOUS
 10
119.3571801784
 20
153.1546537553
 11
119.3532280918
 21
152.9884445522
  0
LINE
  5
39A
100
AcDbEntity
  8
0
100
AcDbLine
 62
7
  6
CONTINUOUS
 10
119.5049052284
 20
152.932400496
 11
119.5088573149
 21
153.0986096991
  0
LINE
  5
39B
100
AcDbEntity
  8
0
100
AcDbLine
 62
7
  6
CONTINUOUS
 10
120.5147170536
 20
152.6807878661
 11
120.5068019976
 21
152.5147200989
  0
LINE
  5
39C
100
AcDbEntity
  8
0
100
AcDbLine
 62
7
  6
CONTINUOUS
 10
121.6788910617
 20
153.2763376535
 11
121.6868063943
 21
153.4424052813
  0
LINE
  5
39D
100
AcDbEntity
  8
0
100
AcDbLine
 62
7
  6
CONTINUOUS
 10
124.3902435915
 20
150.9029847002
 11
124.3746226001
 21
150.6909879998
  0
LINE
  5
39E
100
AcDbEntity
  8
0
100
AcDbLine
 62
7
  6
CONTINUOUS
 10
122.483279625
 20
152.7704389669
 11
122.4694291218
 21
152.6047605447
  0
LINE
  5
39F
100
AcDbEntity
  8
0
100
AcDbLine
 62
7
  6
CONTINUOUS
 10
120.3353816599
 20
153.0027992885
 11
120.3529611991
 21
153.2058905984
  0
LINE
  5
3A0
100
AcDbEntity
  8
0
100
AcDbLine
 62
7
  6
CONTINUOUS
 10
125.3810918424
 20
150.7152041266
 11
125.4032298586
 21
150.8799800398
  0
LINE
  5
3A1
100
AcDbEntity
  8
0
100
AcDbLine
 62
7
  6
CONTINUOUS
 10
125.5269566613
 20
151.6094164794
 11
125.5158876655
 21
151.5270285474
  0
LINE
  5
3A2
100
AcDbEntity
  8
0
100
AcDbLine
 62
7
  6
CONTINUOUS
 10
123.0783776496
 20
151.7792919857
 11
123.1080298366
 21
151.9809746607
  0
LINE
  5
3A3
100
AcDbEntity
  8
0
100
AcDbLine
 62
7
  6
CONTINUOUS
 10
123.3697328328
 20
152.5102068913
 11
123.3993856068
 21
152.7118893688
  0
LINE
  5
3A4
100
AcDbEntity
  8
0
100
AcDbLine
 62
7
  6
CONTINUOUS
 10
126.4800819351
 20
150.2240469882
 11
126.5246180993
 21
150.4229732611
  0
LINE
  5
3A5
100
AcDbEntity
  8
RUNDUNGEN
100
AcDbLine
 62
7
  6
CONTINUOUS
 10
97.6320006201
 20
45.6430480867
 11
100.1693040497
 21
53.452065081
  0
LINE
  5
3A6
100
AcDbEntity
  8
RUNDUNGEN
100
AcDbLine
 62
7
  6
CONTINUOUS
 10
137.9248650035
 20
144.6020523907
 11
141.6525294136
 21
151.9180057229
  0
LINE
  5
3A7
100
AcDbEntity
  8
0
100
AcDbLine
 62
7
  6
CONTINUOUS
 10
147.499937577
 20
127.876472477
 11
147.3809924114
 21
127.7603122952
  0
LINE
  5
3A8
100
AcDbEntity
  8
RUNDUNGEN
100
AcDbLine
 62
7
  6
CONTINUOUS
 10
56.4158092484
 20
66.6812855577
 11
63.7317625806
 21
70.4089499678
  0
LINE
  5
3A9
100
AcDbEntity
  8
RUNDUNGEN
100
AcDbLine
 62
7
  6
CONTINUOUS
 10
154.8817498903
 20
108.1645109216
 11
162.6907668846
 21
110.7018143512
  0
LINE
  5
3AA
100
AcDbEntity
  8
0
100
AcDbLine
 62
7
  6
CONTINUOUS
 10
148.5530569434
 20
128.316957516
 11
148.3878652701
 21
128.2981734101
  0
LINE
  5
3AB
100
AcDbEntity
  8
0
100
AcDbLine
 62
7
  6
CONTINUOUS
 10
99.2443040497
 20
121.6395109216
 11
105.5943040497
 21
121.6395109216
  0
LINE
  5
3AC
100
AcDbEntity
  8
0
100
AcDbLine
 62
7
  6
CONTINUOUS
 10
150.5034778714
 20
122.579942337
 11
150.7988502967
 21
122.5685477989
  0
LINE
  5
3AD
100
AcDbEntity
  8
0
100
AcDbLine
 62
7
  6
CONTINUOUS
 10
150.7545810053
 20
122.6958187821
 11
150.4592087827
 21
122.7072127376
  0
LINE
  5
3AE
100
AcDbEntity
  8
0
100
AcDbLine
 62
7
  6
CONTINUOUS
 10
150.3972318963
 20
122.8853917645
 11
150.6926043215
 21
122.8739972264
  0
LINE
  5
3AF
100
AcDbEntity
  8
0
100
AcDbLine
 62
7
  6
CONTINUOUS
 10
150.6483350301
 20
123.0012682096
 11
150.3529628075
 21
123.0126621651
  0
LINE
  5
3B0
100
AcDbEntity
  8
RUNDUNGEN
100
AcDbLine
 62
7
  6
CONTINUOUS
 10
162.6907668846
 20
101.1272074919
 11
154.8817498903
 21
103.6645109216
  0
LINE
  5
3B1
100
AcDbEntity
  8
RUNDUNGEN
100
AcDbLine
 62
7
  6
CONTINUOUS
 10
63.7317625806
 20
141.4200718753
 11
56.4158092484
 21
145.1477362854
  0
LINE
  5
3B2
100
AcDbEntity
  8
0
100
AcDbLine
 62
7
  6
CONTINUOUS
 10
79.5283154648
 20
152.1154841667
 11
79.6509216316
 21
151.9773264702
  0
LINE
  5
3B3
100
AcDbEntity
  8
0
100
AcDbLine
 62
7
  6
CONTINUOUS
 10
79.9005072134
 20
152.1042399737
 11
79.7779010466
 21
152.2423976701
  0
LINE
  5
3B4
100
AcDbEntity
  8
0
100
AcDbLine
 62
7
  6
CONTINUOUS
 10
83.1237327317
 20
152.6371316263
 11
83.0103488978
 21
152.7829531439
  0
LINE
  5
3B5
100
AcDbEntity
  8
0
100
AcDbLine
 62
7
  6
CONTINUOUS
 10
85.8636491831
 20
153.8015628102
 11
85.7593137742
 21
153.9539897798
  0
LINE
  5
3B6
100
AcDbEntity
  8
RUNDUNGEN
100
AcDbLine
 62
7
  6
CONTINUOUS
 10
141.6525294136
 20
59.9110161202
 11
137.9248650035
 21
67.2269694524
  0
LINE
  5
3B7
100
AcDbEntity
  8
RUNDUNGEN
100
AcDbLine
 62
7
  6
CONTINUOUS
 10
100.1693040497
 20
158.3769567621
 11
97.6320006201
 21
166.1859737564
  0
LINE
  5
3B8
100
AcDbEntity
  8
0
100
AcDbLine
 62
7
  6
CONTINUOUS
 10
120.2012840625
 20
153.2619346546
 11
120.2109600072
 21
153.1326073446
  0
LINE
  5
3B9
100
AcDbEntity
  8
0
100
AcDbLine
 62
7
  6
CONTINUOUS
 10
122.2767850844
 20
151.830522885
 11
122.2659580919
 21
152.0070318907
  0
LINE
  5
3BA
100
AcDbEntity
  8
0
100
AcDbLine
 62
7
  6
CONTINUOUS
 10
122.9441608748
 20
152.0099547995
 11
122.9549878562
 21
151.8334457686
  0
LINE
  5
3BB
100
AcDbEntity
  8
0
100
AcDbLine
 62
7
  6
CONTINUOUS
 10
120.6716027892
 20
152.4916206577
 11
120.6584257809
 21
152.7506632942
  0
LINE
  5
3BC
100
AcDbEntity
  8
0
100
AcDbLine
 62
7
  6
CONTINUOUS
 10
121.5220056026
 20
153.4655047225
 11
121.5351825804
 21
153.2064620092
  0
LINE
  5
3BD
100
AcDbEntity
  8
0
100
AcDbLine
 62
7
  6
CONTINUOUS
 10
122.6244216736
 20
152.6226154146
 11
122.6224710801
 21
152.7522893863
  0
LINE
  5
3BE
100
AcDbEntity
  8
0
100
AcDbLine
 62
7
  6
CONTINUOUS
 10
123.2443924901
 20
152.6940347469
 11
123.2463436042
 21
152.5643604263
  0
LINE
  5
3BF
100
AcDbEntity
  8
0
100
AcDbLine
 62
7
  6
CONTINUOUS
 10
125.6891669421
 20
151.5722585744
 11
125.6872013489
 21
151.7490883813
  0
LINE
  5
3C0
100
AcDbEntity
  8
0
100
AcDbLine
 62
7
  6
CONTINUOUS
 10
125.5101809311
 20
150.2935814416
 11
125.5078803263
 21
150.1167556638
  0
LINE
  5
3C1
100
AcDbEntity
  8
0
100
AcDbLine
 62
7
  6
CONTINUOUS
 10
126.7956886647
 20
150.9913234298
 11
126.7979892631
 21
151.1681491955
  0
LINE
  5
3C2
100
AcDbEntity
  8
0
100
AcDbLine
 62
7
  6
CONTINUOUS
 10
125.2234330117
 20
150.8819710883
 11
125.2188815616
 21
150.7523620316
  0
LINE
  5
3C3
100
AcDbEntity
  8
0
100
AcDbLine
 62
7
  6
CONTINUOUS
 10
125.6530178895
 20
150.217789006
 11
125.6606945278
 21
150.3472505292
  0
LINE
  5
3C4
100
AcDbEntity
  8
0
100
AcDbLine
 62
7
  6
CONTINUOUS
 10
126.6528517063
 20
151.0671158654
 11
126.6451750808
 21
150.9376543665
  0
LINE
  5
3C5
100
AcDbEntity
  8
0
100
AcDbLine
 62
7
  6
CONTINUOUS
 10
147.5213964399
 20
127.6479842776
 11
147.6048244757
 21
127.7472764197
  0
LINE
  5
3C6
100
AcDbEntity
  8
0
100
AcDbLine
 62
7
  6
CONTINUOUS
 10
149.3272460991
 20
127.3203014795
 11
148.6759421442
 21
126.5590077217
  0
LINE
  5
3C7
100
AcDbEntity
  8
0
100
AcDbLine
 62
7
  6
CONTINUOUS
 10
148.8524991429
 20
126.5489942119
 11
149.3929120345
 21
127.172535279
  0
LINE
  5
3C8
100
AcDbEntity
  8
0
100
AcDbLine
 62
7
  6
CONTINUOUS
 10
148.4217178658
 20
128.1352412365
 11
148.55139254
 21
128.1371573486
  0
LINE
  5
3C9
100
AcDbEntity
  8
0
100
AcDbLine
 62
7
  6
CONTINUOUS
 10
149.6774645985
 20
126.5322146778
 11
148.8524991429
 21
126.5489942119
  0
LINE
  5
3CA
100
AcDbEntity
  8
0
100
AcDbLine
 62
7
  6
CONTINUOUS
 10
148.7416081108
 20
126.4112414508
 11
149.7431305652
 21
126.3844484068
  0
LINE
  5
3CB
100
AcDbEntity
  8
0
100
AcDbLine
 62
7
  6
CONTINUOUS
 10
82.2326533154
 20
151.2821261805
 11
82.3889195786
 21
151.1547134473
  0
LINE
  5
3CC
100
AcDbEntity
  8
0
100
AcDbLine
 62
7
  6
CONTINUOUS
 10
82.489947351
 20
151.3925787915
 11
82.3336808342
 21
151.5199914385
  0
LINE
  5
3CD
100
AcDbEntity
  8
0
100
AcDbLine
 62
7
  6
CONTINUOUS
 10
82.7530546169
 20
152.6725004275
 11
82.9093208718
 21
152.5450877135
  0
LINE
  5
3CE
100
AcDbEntity
  8
0
100
AcDbLine
 62
7
  6
CONTINUOUS
 10
83.0103488978
 20
152.7829531439
 11
82.8540823976
 21
152.9103657525
  0
LINE
  5
3CF
100
AcDbEntity
  8
0
100
AcDbLine
 62
7
  6
CONTINUOUS
 10
86.8973504555
 20
153.6421693106
 11
87.7219601798
 21
152.9058319147
  0
LINE
  5
3D0
100
AcDbEntity
  8
0
100
AcDbLine
 62
7
  6
CONTINUOUS
 10
118.1212360876
 20
154.6953039662
 11
118.0911355346
 21
154.8695641191
  0
LINE
  5
3D1
100
AcDbEntity
  8
0
100
AcDbLine
 62
7
  6
CONTINUOUS
 10
117.7713738513
 20
153.9396577154
 11
117.7875202105
 21
153.8109780026
  0
LINE
  5
3D2
100
AcDbEntity
  8
0
100
AcDbLine
 62
7
  6
CONTINUOUS
 10
119.3532280918
 20
152.9884445522
 11
119.3745557257
 21
152.8128946148
  0
LINE
  5
3D3
100
AcDbEntity
  8
0
100
AcDbLine
 62
7
  6
CONTINUOUS
 10
120.3529611991
 20
153.2058905984
 11
120.3316335605
 21
153.3814405229
  0
LINE
  5
3D4
100
AcDbEntity
  8
0
100
AcDbLine
 62
7
  6
CONTINUOUS
 10
147.3809924114
 20
127.7603122952
 11
147.2851705226
 21
127.5954640916
  0
LINE
  5
3D5
100
AcDbEntity
  8
0
100
AcDbLine
 62
7
  6
CONTINUOUS
 10
148.9577141217
 20
127.4649169189
 11
149.0535359732
 21
127.6297651688
  0
LINE
  5
3D6
100
AcDbEntity
  8
0
100
AcDbLine
 62
7
  6
CONTINUOUS
 10
147.5973346147
 20
126.9381756663
 11
147.7856495896
 21
126.9082716981
  0
LINE
  5
3D7
100
AcDbEntity
  8
0
100
AcDbLine
 62
7
  6
CONTINUOUS
 10
148.7413718811
 20
128.2870535941
 11
148.5530569434
 21
128.316957516
  0
LINE
  5
3D8
100
AcDbEntity
  8
0
100
AcDbLine
 62
7
  6
CONTINUOUS
 10
150.2353991891
 20
123.5632615723
 11
150.5494168821
 21
123.5058716842
  0
LINE
  5
3D9
100
AcDbEntity
  8
0
100
AcDbLine
 62
7
  6
CONTINUOUS
 10
150.8448550228
 20
123.6138531257
 11
150.5308374333
 21
123.6712430517
  0
LINE
  5
3DA
100
AcDbEntity
  8
0
100
AcDbLine
 62
7
  6
CONTINUOUS
 10
82.3889195786
 20
151.1547134473
 11
82.5216852849
 21
151.0820441291
  0
LINE
  5
3DB
100
AcDbEntity
  8
0
100
AcDbLine
 62
7
  6
CONTINUOUS
 10
82.6227130531
 20
151.3199094828
 11
82.489947351
 21
151.3925787915
  0
LINE
  5
3DC
100
AcDbEntity
  8
0
100
AcDbLine
 62
7
  6
CONTINUOUS
 10
82.6202889148
 20
152.7451697362
 11
82.7530546169
 21
152.6725004275
  0
LINE
  5
3DD
100
AcDbEntity
  8
0
100
AcDbLine
 62
7
  6
CONTINUOUS
 10
82.8540823976
 20
152.9103657525
 11
82.72131645
 21
152.9830349559
  0
LINE
  5
3DE
100
AcDbEntity
  8
0
100
AcDbLine
 62
7
  6
CONTINUOUS
 10
85.5159353776
 20
153.8032712593
 11
85.6440515777
 21
153.7226868364
  0
LINE
  5
3DF
100
AcDbEntity
  8
0
100
AcDbLine
 62
7
  6
CONTINUOUS
 10
85.7593137742
 20
153.9539897798
 11
85.6311980767
 21
154.0345743833
  0
LINE
  5
3E0
100
AcDbEntity
  8
0
100
AcDbLine
 62
7
  6
CONTINUOUS
 10
79.7779010466
 20
152.2423976701
 11
79.5450967763
 21
152.3913541542
  0
LINE
  5
3E1
100
AcDbEntity
  8
0
100
AcDbLine
 62
7
  6
CONTINUOUS
 10
87.9885527932
 20
152.9914378636
 11
86.9760046482
 21
153.8551378421
  0
LINE
  5
3E2
100
AcDbEntity
  8
0
100
AcDbLine
 62
7
  6
CONTINUOUS
 10
117.1533903956
 20
153.6801250917
 11
117.1115280193
 21
153.8168665499
  0
LINE
  5
3E3
100
AcDbEntity
  8
0
100
AcDbLine
 62
7
  6
CONTINUOUS
 10
117.2460931245
 20
154.5163888488
 11
117.3019096863
 21
154.3340669242
  0
LINE
  5
3E4
100
AcDbEntity
  8
0
100
AcDbLine
 62
7
  6
CONTINUOUS
 10
117.9491932727
 20
153.9663246193
 11
117.893376711
 21
154.1486465439
  0
LINE
  5
3E5
100
AcDbEntity
  8
0
100
AcDbLine
 62
7
  6
CONTINUOUS
 10
117.9272702904
 20
154.7973167225
 11
117.9551784977
 21
154.7061557833
  0
LINE
  5
3E6
100
AcDbEntity
  8
0
100
AcDbLine
 62
7
  6
CONTINUOUS
 10
120.5068019976
 20
152.5147200989
 11
120.5384399456
 21
152.375257839
  0
LINE
  5
3E7
100
AcDbEntity
  8
0
100
AcDbLine
 62
7
  6
CONTINUOUS
 10
121.6868063943
 20
153.4424052813
 11
121.6551684412
 21
153.5818675284
  0
LINE
  5
3E8
100
AcDbEntity
  8
0
100
AcDbLine
 62
7
  6
CONTINUOUS
 10
122.1129161226
 20
151.8595030238
 11
122.1395447822
 21
151.7189982332
  0
LINE
  5
3E9
100
AcDbEntity
  8
0
100
AcDbLine
 62
7
  6
CONTINUOUS
 10
122.4694291218
 20
152.6047605447
 11
122.496057787
 21
152.4642557668
  0
LINE
  5
3EA
100
AcDbEntity
  8
0
100
AcDbLine
 62
7
  6
CONTINUOUS
 10
123.3993856068
 20
152.7118893688
 11
123.3727569416
 21
152.8523941468
  0
LINE
  5
3EB
100
AcDbEntity
  8
0
100
AcDbLine
 62
7
  6
CONTINUOUS
 10
124.5720060192
 20
150.7241638202
 11
124.5524538723
 21
150.8658267952
  0
LINE
  5
3EC
100
AcDbEntity
  8
0
100
AcDbLine
 62
7
  6
CONTINUOUS
 10
124.7967002287
 20
151.5349926429
 11
124.8227694065
 21
151.3461088929
  0
LINE
  5
3ED
100
AcDbEntity
  8
0
100
AcDbLine
 62
7
  6
CONTINUOUS
 10
125.4032298586
 20
150.8799800398
 11
125.3771606808
 21
151.0688637897
  0
LINE
  5
3EE
100
AcDbEntity
  8
0
100
AcDbLine
 62
7
  6
CONTINUOUS
 10
125.5139220724
 20
151.7038583544
 11
125.5269566613
 21
151.6094164794
  0
LINE
  5
3EF
100
AcDbEntity
  8
0
100
AcDbLine
 62
7
  6
CONTINUOUS
 10
126.3633513715
 20
150.4640333098
 11
126.3741045155
 21
150.3693041978
  0
LINE
  5
3F0
100
AcDbEntity
  8
0
100
AcDbLine
 62
7
  6
CONTINUOUS
 10
126.5246180993
 20
150.4229732611
 11
126.5084889283
 21
150.5650666398
  0
LINE
  5
3F1
100
AcDbEntity
  8
0
100
AcDbLine
 62
7
  6
CONTINUOUS
 10
147.4850471116
 20
127.5412161477
 11
147.5213964399
 21
127.6479842776
  0
LINE
  5
3F2
100
AcDbEntity
  8
0
100
AcDbLine
 62
7
  6
CONTINUOUS
 10
148.8536594215
 20
127.6840130664
 11
148.8173101181
 21
127.5772449483
  0
LINE
  5
3F3
100
AcDbEntity
  8
0
100
AcDbLine
 62
7
  6
CONTINUOUS
 10
125.9287145713
 20
149.7599168488
 11
126.1030339565
 21
149.8009540413
  0
LINE
  5
3F4
100
AcDbEntity
  8
0
100
AcDbLine
 62
7
  6
CONTINUOUS
 10
79.5450967763
 20
152.3913541542
 11
79.2976978185
 21
152.4660550989
  0
LINE
  5
3F5
100
AcDbEntity
  8
0
100
AcDbLine
 62
7
  6
CONTINUOUS
 10
147.7873140179
 20
127.0880718773
 11
147.6815948895
 21
127.1273678457
  0
LINE
  5
3F6
100
AcDbEntity
  8
0
100
AcDbLine
 62
7
  6
CONTINUOUS
 10
148.55139254
 20
128.1371573486
 11
148.6571116436
 21
128.0978613684
  0
LINE
  5
3F7
100
AcDbEntity
  8
0
100
AcDbLine
 62
7
  6
CONTINUOUS
 10
79.3911144915
 20
152.1793862633
 11
79.5283154648
 21
152.1154841667
  0
LINE
  5
3F8
100
AcDbEntity
  8
0
100
AcDbLine
 62
7
  6
CONTINUOUS
 10
116.9638091384
 20
153.6159394537
 11
117.0571033903
 21
153.4630745146
  0
LINE
  5
3F9
100
AcDbEntity
  8
0
100
AcDbLine
 62
7
  6
CONTINUOUS
 10
119.3745557257
 20
152.8128946148
 11
119.4600702351
 21
152.655545267
  0
LINE
  5
3FA
100
AcDbEntity
  8
0
100
AcDbLine
 62
7
  6
CONTINUOUS
 10
117.4775367621
 20
154.4438330418
 11
117.423912546
 21
154.5430557528
  0
LINE
  5
3FB
100
AcDbEntity
  8
0
100
AcDbLine
 62
7
  6
CONTINUOUS
 10
117.7177496352
 20
154.0388804263
 11
117.7713738513
 21
153.9396577154
  0
LINE
  5
3FC
100
AcDbEntity
  8
0
100
AcDbLine
 62
7
  6
CONTINUOUS
 10
120.5384399456
 20
152.375257839
 11
120.6201770693
 21
152.2159135853
  0
LINE
  5
3FD
100
AcDbEntity
  8
0
100
AcDbLine
 62
7
  6
CONTINUOUS
 10
119.5534883319
 20
152.8306145197
 11
119.5049052284
 21
152.932400496
  0
LINE
  5
3FE
100
AcDbEntity
  8
0
100
AcDbLine
 62
7
  6
CONTINUOUS
 10
120.152700959
 20
153.3637206309
 11
120.2012840625
 21
153.2619346546
  0
LINE
  5
3FF
100
AcDbEntity
  8
0
100
AcDbLine
 62
7
  6
CONTINUOUS
 10
122.1395447822
 20
151.7189982332
 11
122.2155290217
 21
151.5568320814
  0
LINE
  5
400
100
AcDbEntity
  8
0
100
AcDbLine
 62
7
  6
CONTINUOUS
 10
118.0911355346
 20
154.8695641191
 11
118.0235572884
 21
155.0143672766
  0
LINE
  5
401
100
AcDbEntity
  8
0
100
AcDbLine
 62
7
  6
CONTINUOUS
 10
120.7177440107
 20
152.3887049605
 11
120.6716027892
 21
152.4916206577
  0
LINE
  5
402
100
AcDbEntity
  8
0
100
AcDbLine
 62
7
  6
CONTINUOUS
 10
121.4758640945
 20
153.5684205334
 11
121.5220056026
 21
153.4655047225
  0
LINE
  5
403
100
AcDbEntity
  8
0
100
AcDbLine
 62
7
  6
CONTINUOUS
 10
124.3746226001
 20
150.6909879998
 11
124.4423824757
 21
150.5252168783
  0
LINE
  5
404
100
AcDbEntity
  8
0
100
AcDbLine
 62
7
  6
CONTINUOUS
 10
125.5078803263
 20
150.1167556638
 11
125.5716221752
 21
149.9493979379
  0
LINE
  5
405
100
AcDbEntity
  8
0
100
AcDbLine
 62
7
  6
CONTINUOUS
 10
125.0136358009
 20
151.4265055005
 11
124.9764970756
 21
151.5330015944
  0
LINE
  5
406
100
AcDbEntity
  8
0
100
AcDbLine
 62
7
  6
CONTINUOUS
 10
125.1862942865
 20
150.9884671821
 11
125.2234330117
 21
150.8819710883
  0
LINE
  5
407
100
AcDbEntity
  8
0
100
AcDbLine
 62
7
  6
CONTINUOUS
 10
122.6757284105
 20
152.4712798304
 11
122.6244216736
 21
152.6226154146
  0
LINE
  5
408
100
AcDbEntity
  8
0
100
AcDbLine
 62
7
  6
CONTINUOUS
 10
123.1080298366
 20
151.9809746607
 11
123.0567236646
 21
152.1323099969
  0
LINE
  5
409
100
AcDbEntity
  8
0
100
AcDbLine
 62
7
  6
CONTINUOUS
 10
123.1930863181
 20
152.8453700831
 11
123.2443924901
 21
152.6940347469
  0
LINE
  5
40A
100
AcDbEntity
  8
0
100
AcDbLine
 62
7
  6
CONTINUOUS
 10
125.68757683
 20
150.1104280142
 11
125.6530178895
 21
150.217789006
  0
LINE
  5
40B
100
AcDbEntity
  8
0
100
AcDbLine
 62
7
  6
CONTINUOUS
 10
126.3287924311
 20
150.5713943015
 11
126.3633513715
 21
150.4640333098
  0
LINE
  5
40C
100
AcDbEntity
  8
0
100
AcDbLine
 62
7
  6
CONTINUOUS
 10
126.6182927658
 20
151.1744768572
 11
126.6528517063
 21
151.0671158654
  0
LINE
  5
40D
100
AcDbEntity
  8
0
100
AcDbLine
 62
7
  6
CONTINUOUS
 10
125.6872013489
 20
151.7490883813
 11
125.6435450534
 21
151.9028055506
  0
LINE
  5
40E
100
AcDbEntity
  8
0
100
AcDbLine
 62
7
  6
CONTINUOUS
 10
147.2851705226
 20
127.5954640916
 11
147.2603828487
 21
127.464351941
  0
LINE
  5
40F
100
AcDbEntity
  8
0
100
AcDbLine
 62
7
  6
CONTINUOUS
 10
149.0535359732
 20
127.6297651688
 11
149.0783236544
 21
127.7608772802
  0
LINE
  5
410
100
AcDbEntity
  8
0
100
AcDbLine
 62
7
  6
CONTINUOUS
 10
126.4009618994
 20
151.5123555432
 11
126.2266414293
 21
151.4713189381
  0
LINE
  5
411
100
AcDbEntity
  8
0
100
AcDbLine
 62
7
  6
CONTINUOUS
 10
122.7703425636
 20
151.6139084969
 11
122.6400280834
 21
151.5852228209
  0
LINE
  5
412
100
AcDbEntity
  8
0
100
AcDbLine
 62
7
  6
CONTINUOUS
 10
123.0231691829
 20
152.1899758117
 11
123.0883269879
 21
152.2043184018
  0
LINE
  5
413
100
AcDbEntity
  8
0
100
AcDbLine
 62
7
  6
CONTINUOUS
 10
122.4506033956
 20
152.2265691876
 11
122.5809184407
 21
152.2552546157
  0
LINE
  5
414
100
AcDbEntity
  8
0
100
AcDbLine
 62
7
  6
CONTINUOUS
 10
122.5296117038
 20
152.4065901999
 11
122.4644544637
 21
152.3922473619
  0
LINE
  5
415
100
AcDbEntity
  8
0
100
AcDbLine
 62
7
  6
CONTINUOUS
 10
124.8762536199
 20
150.3082425936
 11
125.0078427504
 21
150.3303597163
  0
LINE
  5
416
100
AcDbEntity
  8
0
100
AcDbLine
 62
7
  6
CONTINUOUS
 10
125.3060899029
 20
152.0715632356
 11
125.174500777
 21
152.0494461222
  0
LINE
  5
417
100
AcDbEntity
  8
0
100
AcDbLine
 62
7
  6
CONTINUOUS
 10
82.5216852849
 20
151.0820441291
 11
82.6309506817
 21
151.0641183262
  0
LINE
  5
418
100
AcDbEntity
  8
0
100
AcDbLine
 62
7
  6
CONTINUOUS
 10
82.72131645
 20
152.9830349559
 11
82.6120513005
 21
153.0009608593
  0
LINE
  5
419
100
AcDbEntity
  8
0
100
AcDbLine
 62
7
  6
CONTINUOUS
 10
85.4079582088
 20
153.8277884385
 11
85.5159353776
 21
153.8032712593
  0
LINE
  5
41A
100
AcDbEntity
  8
0
100
AcDbLine
 62
7
  6
CONTINUOUS
 10
85.6311980767
 20
154.0345743833
 11
85.4591625566
 21
154.0993836836
  0
LINE
  5
41B
100
AcDbEntity
  8
0
100
AcDbLine
 62
7
  6
CONTINUOUS
 10
147.4800538795
 20
127.0018156353
 11
147.5973346147
 21
126.9381756663
  0
LINE
  5
41C
100
AcDbEntity
  8
0
100
AcDbLine
 62
7
  6
CONTINUOUS
 10
148.8586526235
 20
128.2234135859
 11
148.7413718811
 21
128.2870535941
  0
LINE
  5
41D
100
AcDbEntity
  8
0
100
AcDbLine
 62
7
  6
CONTINUOUS
 10
117.3019096863
 20
154.3340669242
 11
117.381249764
 21
154.2267824877
  0
LINE
  5
41E
100
AcDbEntity
  8
0
100
AcDbLine
 62
7
  6
CONTINUOUS
 10
117.893376711
 20
154.1486465439
 11
117.8140364861
 21
154.2559310265
  0
LINE
  5
41F
100
AcDbEntity
  8
0
100
AcDbLine
 62
7
  6
CONTINUOUS
 10
122.3438934829
 20
151.7151915034
 11
122.2767850844
 21
151.830522885
  0
LINE
  5
420
100
AcDbEntity
  8
0
100
AcDbLine
 62
7
  6
CONTINUOUS
 10
122.496057787
 20
152.4642557668
 11
122.5296117038
 21
152.4065901999
  0
LINE
  5
421
100
AcDbEntity
  8
0
100
AcDbLine
 62
7
  6
CONTINUOUS
 10
122.8770530411
 20
152.1252859333
 11
122.9441608748
 21
152.0099547995
  0
LINE
  5
422
100
AcDbEntity
  8
0
100
AcDbLine
 62
7
  6
CONTINUOUS
 10
123.0567236646
 20
152.1323099969
 11
123.0231691829
 21
152.1899758117
  0
LINE
  5
423
100
AcDbEntity
  8
0
100
AcDbLine
 62
7
  6
CONTINUOUS
 10
120.3316335605
 20
153.3814405229
 11
120.2461190474
 21
153.538789861
  0
LINE
  5
424
100
AcDbEntity
  8
0
100
AcDbLine
 62
7
  6
CONTINUOUS
 10
124.8227694065
 20
151.3461088929
 11
124.8840122681
 21
151.2275585802
  0
LINE
  5
425
100
AcDbEntity
  8
0
100
AcDbLine
 62
7
  6
CONTINUOUS
 10
125.3771606808
 20
151.0688637897
 11
125.3159178192
 21
151.1874141025
  0
LINE
  5
426
100
AcDbEntity
  8
0
100
AcDbLine
 62
7
  6
CONTINUOUS
 10
121.6551684412
 20
153.5818675284
 11
121.5734316003
 21
153.7412116588
  0
LINE
  5
427
100
AcDbEntity
  8
0
100
AcDbLine
 62
7
  6
CONTINUOUS
 10
123.3727569416
 20
152.8523941468
 11
123.2967721331
 21
153.0145605371
  0
LINE
  5
428
100
AcDbEntity
  8
0
100
AcDbLine
 62
7
  6
CONTINUOUS
 10
126.5084889283
 20
150.5650666398
 11
126.4447481643
 21
150.7324237783
  0
LINE
  5
429
100
AcDbEntity
  8
0
100
AcDbLine
 62
7
  6
CONTINUOUS
 10
126.7979892631
 20
151.1681491955
 11
126.7342474093
 21
151.3355069122
  0
LINE
  5
42A
100
AcDbEntity
  8
0
100
AcDbLine
 62
7
  6
CONTINUOUS
 10
147.4957765487
 20
127.426972036
 11
147.4850471116
 21
127.5412161477
  0
LINE
  5
42B
100
AcDbEntity
  8
0
100
AcDbLine
 62
7
  6
CONTINUOUS
 10
148.8429299678
 20
127.7982572129
 11
148.8536594215
 21
127.6840130664
  0
LINE
  5
42C
100
AcDbEntity
  8
RUNDUNGEN
100
AcDbLine
 62
7
  6
CONTINUOUS
 10
151.9508752754
 20
140.9196428162
 11
151.9508746318
 21
140.9197015737
  0
LINE
  5
42D
100
AcDbEntity
  8
RUNDUNGEN
100
AcDbLine
 62
7
  6
CONTINUOUS
 10
159.2607053629
 20
121.029548642
 11
161.4317943637
 21
126.3497655794
  0
LINE
  5
42E
100
AcDbEntity
  8
RUNDUNGEN
100
AcDbLine
 62
7
  6
CONTINUOUS
 10
129.6975289816
 20
49.736471702
 11
131.9242986963
 21
55.0336249211
  0
LINE
  5
42F
100
AcDbEntity
  8
RUNDUNGEN
100
AcDbLine
 62
7
  6
CONTINUOUS
 10
132.103402392
 20
55.367134863
 11
131.9242876439
 21
55.033628334
  0
LINE
  5
430
100
AcDbEntity
  8
RUNDUNGEN
100
AcDbLine
 62
7
  6
CONTINUOUS
 10
162.1956623755
 20
95.6426396792
 11
162.1956887923
 21
95.6426672051
  0
LINE
  5
431
100
AcDbEntity
  8
RUNDUNGEN
100
AcDbLine
 62
7
  6
CONTINUOUS
 10
153.3001900405
 20
76.4095162709
 11
158.5973432693
 21
78.6362859897
  0
LINE
  5
432
100
AcDbEntity
  8
RUNDUNGEN
100
AcDbLine
 62
7
  6
CONTINUOUS
 10
81.9840493919
 20
46.9020206076
 11
87.3042663193
 21
49.0731096043
  0
LINE
  5
433
100
AcDbEntity
  8
RUNDUNGEN
100
AcDbLine
 62
7
  6
CONTINUOUS
 10
87.6667388993
 20
49.1822913072
 11
87.304260918
 21
49.0731198319
  0
LINE
  5
434
100
AcDbEntity
  8
0
100
AcDbLine
 62
7
  6
CONTINUOUS
 10
79.2976978185
 20
152.4660550989
 11
79.0627069241
 21
152.4133971348
  0
LINE
  5
435
100
AcDbEntity
  8
0
100
AcDbLine
 62
7
  6
CONTINUOUS
 10
117.6186787736
 20
154.8940577985
 11
117.7075884844
 21
154.9073912505
  0
LINE
  5
436
100
AcDbEntity
  8
0
100
AcDbLine
 62
7
  6
CONTINUOUS
 10
82.6309506817
 20
151.0641183262
 11
82.82598043
 21
151.0830099199
  0
LINE
  5
437
100
AcDbEntity
  8
0
100
AcDbLine
 62
7
  6
CONTINUOUS
 10
82.8177430529
 20
151.3388011674
 11
82.6227130531
 21
151.3199094828
  0
LINE
  5
438
100
AcDbEntity
  8
0
100
AcDbLine
 62
7
  6
CONTINUOUS
 10
82.4252589232
 20
152.7262780324
 11
82.6202889148
 21
152.7451697362
  0
LINE
  5
439
100
AcDbEntity
  8
0
100
AcDbLine
 62
7
  6
CONTINUOUS
 10
82.6120513005
 20
153.0009608593
 11
82.4170215544
 21
152.9820692608
  0
LINE
  5
43A
100
AcDbEntity
  8
0
100
AcDbLine
 62
7
  6
CONTINUOUS
 10
79.2393188307
 20
152.1690328205
 11
79.3911144915
 21
152.1793862633
  0
LINE
  5
43B
100
AcDbEntity
  8
0
100
AcDbLine
 62
7
  6
CONTINUOUS
 10
117.5648458003
 20
153.5511369749
 11
117.4502200808
 21
153.5458652947
  0
LINE
  5
43C
100
AcDbEntity
  8
0
100
AcDbLine
 62
7
  6
CONTINUOUS
 10
117.7781594737
 20
155.1325035763
 11
117.6635337541
 21
155.127231896
  0
LINE
  5
43D
100
AcDbEntity
  8
0
100
AcDbLine
 62
7
  6
CONTINUOUS
 10
85.2121413947
 20
153.8207550115
 11
85.4079582088
 21
153.8277884385
  0
LINE
  5
43E
100
AcDbEntity
  8
RUNDUNGEN
100
AcDbLine
 62
7
  6
CONTINUOUS
 10
67.4142091494
 20
155.4460841481
 11
67.4141664005
 21
155.4460833542
  0
LINE
  5
43F
100
AcDbEntity
  8
0
100
AcDbLine
 62
7
  6
CONTINUOUS
 10
119.907401747
 20
152.6998450195
 11
119.79265602
 21
152.700325714
  0
LINE
  5
440
100
AcDbEntity
  8
0
100
AcDbLine
 62
7
  6
CONTINUOUS
 10
119.7987875439
 20
153.4944901311
 11
119.9135335603
 21
153.4940093297
  0
LINE
  5
441
100
AcDbEntity
  8
0
100
AcDbLine
 62
7
  6
CONTINUOUS
 10
125.2246746429
 20
151.8485078775
 11
125.3145730663
 21
151.8475123532
  0
LINE
  5
442
100
AcDbEntity
  8
0
100
AcDbLine
 62
7
  6
CONTINUOUS
 10
117.3796490832
 20
153.3207529426
 11
117.5199906654
 21
153.3179629005
  0
LINE
  5
443
100
AcDbEntity
  8
0
100
AcDbLine
 62
7
  6
CONTINUOUS
 10
125.9970565433
 20
149.9462112631
 11
125.9072082947
 21
149.9493750939
  0
LINE
  5
444
100
AcDbEntity
  8
0
100
AcDbLine
 62
7
  6
CONTINUOUS
 10
126.0193127177
 20
150.7356110527
 11
126.1091609663
 21
150.7324472218
  0
LINE
  5
445
100
AcDbEntity
  8
0
100
AcDbLine
 62
7
  6
CONTINUOUS
 10
126.3326188489
 20
151.3260617285
 11
126.4224670976
 21
151.3228978976
  0
LINE
  5
446
100
AcDbEntity
  8
0
100
AcDbLine
 62
7
  6
CONTINUOUS
 10
85.4591625566
 20
154.0993836836
 11
85.3072655652
 21
154.1081255597
  0
LINE
  5
447
100
AcDbEntity
  8
0
100
AcDbLine
 62
7
  6
CONTINUOUS
 10
122.6400280834
 20
151.5852228209
 11
122.5255147
 21
151.5925415952
  0
LINE
  5
448
100
AcDbEntity
  8
0
100
AcDbLine
 62
7
  6
CONTINUOUS
 10
122.5809184407
 20
152.2552546157
 11
122.6954312592
 21
152.2479360893
  0
LINE
  5
449
100
AcDbEntity
  8
0
100
AcDbLine
 62
7
  6
CONTINUOUS
 10
122.9718630109
 20
152.341311148
 11
122.8573496275
 21
152.3486299223
  0
LINE
  5
44A
100
AcDbEntity
  8
0
100
AcDbLine
 62
7
  6
CONTINUOUS
 10
122.8969517177
 20
152.9753387656
 11
123.0114645362
 21
152.9680202391
  0
LINE
  5
44B
100
AcDbEntity
  8
0
100
AcDbLine
 62
7
  6
CONTINUOUS
 10
119.7245173484
 20
152.5159158176
 11
119.8645425029
 21
152.506094486
  0
LINE
  5
44C
100
AcDbEntity
  8
0
100
AcDbLine
 62
7
  6
CONTINUOUS
 10
119.9816722223
 20
153.6784192003
 11
119.8416467796
 21
153.688240642
  0
LINE
  5
44D
100
AcDbEntity
  8
0
100
AcDbLine
 62
7
  6
CONTINUOUS
 10
120.9682395961
 20
152.2892950892
 11
120.828488535
 21
152.3024534749
  0
LINE
  5
44E
100
AcDbEntity
  8
0
100
AcDbLine
 62
7
  6
CONTINUOUS
 10
121.2253685091
 20
153.6678304048
 11
121.3651201435
 21
153.6546717915
  0
LINE
  5
44F
100
AcDbEntity
  8
0
100
AcDbLine
 62
7
  6
CONTINUOUS
 10
124.9576688907
 20
150.5312979733
 11
124.8436668826
 21
150.5443474405
  0
LINE
  5
450
100
AcDbEntity
  8
0
100
AcDbLine
 62
7
  6
CONTINUOUS
 10
125.4200924627
 20
152.0585134924
 11
125.3060899029
 21
152.0715632356
  0
LINE
  5
451
100
AcDbEntity
  8
0
100
AcDbLine
 62
7
  6
CONTINUOUS
 10
122.4711844524
 20
151.4016897516
 11
122.6103753439
 21
151.3835404221
  0
LINE
  5
452
100
AcDbEntity
  8
0
100
AcDbLine
 62
7
  6
CONTINUOUS
 10
123.0904728444
 20
153.1480412514
 11
122.9512819542
 21
153.166190584
  0
LINE
  5
453
100
AcDbEntity
  8
0
100
AcDbLine
 62
7
  6
CONTINUOUS
 10
120.7559707495
 20
152.1197212686
 11
120.9207715424
 21
152.0966218306
  0
LINE
  5
454
100
AcDbEntity
  8
0
100
AcDbLine
 62
7
  6
CONTINUOUS
 10
121.4376379189
 20
153.8374039722
 11
121.2728371272
 21
153.8605034134
  0
LINE
  5
455
100
AcDbEntity
  8
0
100
AcDbLine
 62
7
  6
CONTINUOUS
 10
124.7381474739
 20
150.3333462767
 11
124.8762536199
 21
150.3082425936
  0
LINE
  5
456
100
AcDbEntity
  8
0
100
AcDbLine
 62
7
  6
CONTINUOUS
 10
125.7912536384
 20
149.7883450146
 11
125.9287145713
 21
149.7599168488
  0
LINE
  5
457
100
AcDbEntity
  8
0
100
AcDbLine
 62
7
  6
CONTINUOUS
 10
126.2251156097
 20
150.8934772768
 11
126.0876557681
 21
150.9219048674
  0
LINE
  5
458
100
AcDbEntity
  8
0
100
AcDbLine
 62
7
  6
CONTINUOUS
 10
126.538421741
 20
151.4839279526
 11
126.4009618994
 21
151.5123555432
  0
LINE
  5
459
100
AcDbEntity
  8
0
100
AcDbLine
 62
7
  6
CONTINUOUS
 10
115.6748137481
 20
153.8277825018
 11
116.6073198821
 21
153.5599759484
  0
LINE
  5
45A
100
AcDbEntity
  8
0
100
AcDbLine
 62
7
  6
CONTINUOUS
 10
116.6724400165
 20
153.7867251598
 11
115.8953515715
 21
154.0098972876
  0
LINE
  5
45B
100
AcDbEntity
  8
0
100
AcDbLine
 62
7
  6
CONTINUOUS
 10
117.1739214545
 20
153.3852469779
 11
117.3796490832
 21
153.3207529426
  0
LINE
  5
45C
100
AcDbEntity
  8
0
100
AcDbLine
 62
7
  6
CONTINUOUS
 10
117.4502200808
 20
153.5458652947
 11
117.244492452
 21
153.61035933
  0
LINE
  5
45D
100
AcDbEntity
  8
0
100
AcDbLine
 62
7
  6
CONTINUOUS
 10
117.1210975052
 20
153.9374844845
 11
116.9668018204
 21
153.9858549994
  0
LINE
  5
45E
100
AcDbEntity
  8
0
100
AcDbLine
 62
7
  6
CONTINUOUS
 10
117.4723518204
 20
154.157016726
 11
117.6266475788
 21
154.108646188
  0
LINE
  5
45F
100
AcDbEntity
  8
0
100
AcDbLine
 62
7
  6
CONTINUOUS
 10
119.5728402118
 20
152.5719598738
 11
119.7245173484
 21
152.5159158176
  0
LINE
  5
460
100
AcDbEntity
  8
0
100
AcDbLine
 62
7
  6
CONTINUOUS
 10
119.79265602
 20
152.700325714
 11
119.6409788834
 21
152.7563697702
  0
LINE
  5
461
100
AcDbEntity
  8
0
100
AcDbLine
 62
7
  6
CONTINUOUS
 10
119.5088573149
 20
153.0986096991
 11
119.3571801784
 21
153.1546537553
  0
LINE
  5
462
100
AcDbEntity
  8
0
100
AcDbLine
 62
7
  6
CONTINUOUS
 10
119.4798297892
 20
153.4865915739
 11
119.6567863521
 21
153.4212068773
  0
LINE
  5
463
100
AcDbEntity
  8
RUNDUNGEN
100
AcDbLine
 62
7
  6
CONTINUOUS
 10
87.3042662973
 20
162.7559122478
 11
81.9840493919
 21
164.9270012355
  0
LINE
  5
464
100
AcDbEntity
  8
0
100
AcDbLine
 62
7
  6
CONTINUOUS
 10
121.6636876539
 20
152.4737357498
 11
122.0117308217
 21
152.3280611529
  0
LINE
  5
465
100
AcDbEntity
  8
0
100
AcDbLine
 62
7
  6
CONTINUOUS
 10
122.0876360061
 20
152.5094124756
 11
121.7395928383
 21
152.6550870725
  0
LINE
  5
466
100
AcDbEntity
  8
RUNDUNGEN
100
AcDbLine
 62
7
  6
CONTINUOUS
 10
158.5973432693
 20
133.1927358534
 11
153.3001900502
 21
135.4195055681
  0
LINE
  5
467
100
AcDbEntity
  8
0
100
AcDbLine
 62
7
  6
CONTINUOUS
 10
122.3231171521
 20
151.4666740928
 11
122.4711844524
 21
151.4016897516
  0
LINE
  5
468
100
AcDbEntity
  8
0
100
AcDbLine
 62
7
  6
CONTINUOUS
 10
122.5255147
 20
151.5925415952
 11
122.4268029782
 21
151.635864572
  0
LINE
  5
469
100
AcDbEntity
  8
0
100
AcDbLine
 62
7
  6
CONTINUOUS
 10
122.6954312592
 20
152.2479360893
 11
122.794142981
 21
152.2046131125
  0
LINE
  5
46A
100
AcDbEntity
  8
0
100
AcDbLine
 62
7
  6
CONTINUOUS
 10
124.5453154865
 20
150.429779476
 11
124.7381474739
 21
150.3333462767
  0
LINE
  5
46B
100
AcDbEntity
  8
0
100
AcDbLine
 62
7
  6
CONTINUOUS
 10
124.8436668826
 20
150.5443474405
 11
124.6508348952
 21
150.6407806399
  0
LINE
  5
46C
100
AcDbEntity
  8
0
100
AcDbLine
 62
7
  6
CONTINUOUS
 10
124.5811094342
 20
150.9833815837
 11
124.4364857194
 21
151.0557063452
  0
LINE
  5
46D
100
AcDbEntity
  8
0
100
AcDbLine
 62
7
  6
CONTINUOUS
 10
124.9628416958
 20
151.144175124
 11
125.1074654105
 21
151.0718503624
  0
LINE
  5
46E
100
AcDbEntity
  8
0
100
AcDbLine
 62
7
  6
CONTINUOUS
 10
125.6722224764
 20
149.8515055704
 11
125.7912536384
 21
149.7883450146
  0
LINE
  5
46F
100
AcDbEntity
  8
0
100
AcDbLine
 62
7
  6
CONTINUOUS
 10
125.9072082947
 20
149.9493750939
 11
125.7405655398
 21
150.0377994094
  0
LINE
  5
470
100
AcDbEntity
  8
RUNDUNGEN
100
AcDbLine
 62
7
  6
CONTINUOUS
 10
152.9666801083
 20
135.5986092638
 11
153.3001866373
 21
135.4194945157
  0
LINE
  5
471
100
AcDbEntity
  8
0
100
AcDbLine
 62
7
  6
CONTINUOUS
 10
126.3364824896
 20
149.4934958075
 11
126.4545225147
 21
149.4285043208
  0
LINE
  5
472
100
AcDbEntity
  8
0
100
AcDbLine
 62
7
  6
CONTINUOUS
 10
126.5493435014
 20
149.6007218255
 11
126.4313034763
 21
149.6657133121
  0
LINE
  5
473
100
AcDbEntity
  8
0
100
AcDbLine
 62
7
  6
CONTINUOUS
 10
126.784072515
 20
149.2447874786
 11
126.925018109
 21
149.1655332703
  0
LINE
  5
474
100
AcDbEntity
  8
0
100
AcDbLine
 62
7
  6
CONTINUOUS
 10
117.0571033903
 20
153.4630745146
 11
117.1739214545
 21
153.3852469779
  0
LINE
  5
475
100
AcDbEntity
  8
0
100
AcDbLine
 62
7
  6
CONTINUOUS
 10
117.8140364861
 20
154.2559310265
 11
117.6972185681
 21
154.3337585138
  0
LINE
  5
476
100
AcDbEntity
  8
0
100
AcDbLine
 62
7
  6
CONTINUOUS
 10
118.0235572884
 20
155.0143672766
 11
117.9067392233
 21
155.09219481
  0
LINE
  5
477
100
AcDbEntity
  8
0
100
AcDbLine
 62
7
  6
CONTINUOUS
 10
120.6201770693
 20
152.2159135853
 11
120.7559707495
 21
152.1197212686
  0
LINE
  5
478
100
AcDbEntity
  8
0
100
AcDbLine
 62
7
  6
CONTINUOUS
 10
121.5734316003
 20
153.7412116588
 11
121.4376379189
 21
153.8374039722
  0
LINE
  5
479
100
AcDbEntity
  8
0
100
AcDbLine
 62
7
  6
CONTINUOUS
 10
119.4600702351
 20
152.655545267
 11
119.5728402118
 21
152.5719598738
  0
LINE
  5
47A
100
AcDbEntity
  8
0
100
AcDbLine
 62
7
  6
CONTINUOUS
 10
120.2461190474
 20
153.538789861
 11
120.1333493589
 21
153.622375144
  0
LINE
  5
47B
100
AcDbEntity
  8
0
100
AcDbLine
 62
7
  6
CONTINUOUS
 10
117.244492452
 20
153.61035933
 11
117.1533903956
 21
153.6801250917
  0
LINE
  5
47C
100
AcDbEntity
  8
0
100
AcDbLine
 62
7
  6
CONTINUOUS
 10
117.381249764
 20
154.2267824877
 11
117.4723518204
 21
154.157016726
  0
LINE
  5
47D
100
AcDbEntity
  8
0
100
AcDbLine
 62
7
  6
CONTINUOUS
 10
117.6266475788
 20
154.108646188
 11
117.7177496352
 21
154.0388804263
  0
LINE
  5
47E
100
AcDbEntity
  8
0
100
AcDbLine
 62
7
  6
CONTINUOUS
 10
120.828488535
 20
152.3024534749
 11
120.7177440107
 21
152.3887049605
  0
LINE
  5
47F
100
AcDbEntity
  8
0
100
AcDbLine
 62
7
  6
CONTINUOUS
 10
121.3651201435
 20
153.6546717915
 11
121.4758640945
 21
153.5684205334
  0
LINE
  5
480
100
AcDbEntity
  8
0
100
AcDbLine
 62
7
  6
CONTINUOUS
 10
122.2155290217
 20
151.5568320814
 11
122.3231171521
 21
151.4666740928
  0
LINE
  5
481
100
AcDbEntity
  8
0
100
AcDbLine
 62
7
  6
CONTINUOUS
 10
123.2967721331
 20
153.0145605371
 11
123.1891845662
 21
153.1047182746
  0
LINE
  5
482
100
AcDbEntity
  8
0
100
AcDbLine
 62
7
  6
CONTINUOUS
 10
119.6409788834
 20
152.7563697702
 11
119.5534883319
 21
152.8306145197
  0
LINE
  5
483
100
AcDbEntity
  8
0
100
AcDbLine
 62
7
  6
CONTINUOUS
 10
120.0652106968
 20
153.4379652735
 11
120.152700959
 21
153.3637206309
  0
LINE
  5
484
100
AcDbEntity
  8
0
100
AcDbLine
 62
7
  6
CONTINUOUS
 10
124.4423824757
 20
150.5252168783
 11
124.5453154865
 21
150.429779476
  0
LINE
  5
485
100
AcDbEntity
  8
0
100
AcDbLine
 62
7
  6
CONTINUOUS
 10
125.3159178192
 20
151.1874141025
 11
125.2129848069
 21
151.2828515017
  0
LINE
  5
486
100
AcDbEntity
  8
0
100
AcDbLine
 62
7
  6
CONTINUOUS
 10
125.6435450534
 20
151.9028055506
 11
125.5406120411
 21
151.9982429498
  0
LINE
  5
487
100
AcDbEntity
  8
0
100
AcDbLine
 62
7
  6
CONTINUOUS
 10
117.5429228097
 20
154.3821290518
 11
117.4775367621
 21
154.4438330418
  0
LINE
  5
488
100
AcDbEntity
  8
0
100
AcDbLine
 62
7
  6
CONTINUOUS
 10
117.8618842427
 20
154.8590207125
 11
117.9272702904
 21
154.7973167225
  0
LINE
  5
489
100
AcDbEntity
  8
0
100
AcDbLine
 62
7
  6
CONTINUOUS
 10
122.4268029782
 20
151.635864572
 11
122.3438934829
 21
151.7151915034
  0
LINE
  5
48A
100
AcDbEntity
  8
0
100
AcDbLine
 62
7
  6
CONTINUOUS
 10
122.794142981
 20
152.2046131125
 11
122.8770530411
 21
152.1252859333
  0
LINE
  5
48B
100
AcDbEntity
  8
0
100
AcDbLine
 62
7
  6
CONTINUOUS
 10
122.7586379058
 20
152.3919528991
 11
122.6757284105
 21
152.4712798304
  0
LINE
  5
48C
100
AcDbEntity
  8
0
100
AcDbLine
 62
7
  6
CONTINUOUS
 10
123.110176258
 20
152.9246972624
 11
123.1930863181
 21
152.8453700831
  0
LINE
  5
48D
100
AcDbEntity
  8
0
100
AcDbLine
 62
7
  6
CONTINUOUS
 10
125.5716221752
 20
149.9493979379
 11
125.6722224764
 21
149.8515055704
  0
LINE
  5
48E
100
AcDbEntity
  8
0
100
AcDbLine
 62
7
  6
CONTINUOUS
 10
126.4447481643
 20
150.7324237783
 11
126.3441467717
 21
150.830316721
  0
LINE
  5
48F
100
AcDbEntity
  8
0
100
AcDbLine
 62
7
  6
CONTINUOUS
 10
126.7342474093
 20
151.3355069122
 11
126.6336471065
 21
151.4333992767
  0
LINE
  5
490
100
AcDbEntity
  8
RUNDUNGEN
100
AcDbLine
 62
7
  6
CONTINUOUS
 10
112.6910515041
 20
165.690983534
 11
112.6910102476
 21
165.6910239062
  0
LINE
  5
491
100
AcDbEntity
  8
0
100
AcDbLine
 62
7
  6
CONTINUOUS
 10
147.6815948895
 20
127.1273678457
 11
147.5998312323
 21
127.2078759232
  0
LINE
  5
492
100
AcDbEntity
  8
0
100
AcDbLine
 62
7
  6
CONTINUOUS
 10
148.6571116436
 20
128.0978613684
 11
148.7388752842
 21
128.0173533257
  0
LINE
  5
493
100
AcDbEntity
  8
0
100
AcDbLine
 62
7
  6
CONTINUOUS
 10
124.6508348952
 20
150.6407806399
 11
124.5720060192
 21
150.7241638202
  0
LINE
  5
494
100
AcDbEntity
  8
0
100
AcDbLine
 62
7
  6
CONTINUOUS
 10
124.8840122681
 20
151.2275585802
 11
124.9628416958
 21
151.144175124
  0
LINE
  5
495
100
AcDbEntity
  8
0
100
AcDbLine
 62
7
  6
CONTINUOUS
 10
125.1074654105
 20
151.0718503624
 11
125.1862942865
 21
150.9884671821
  0
LINE
  5
496
100
AcDbEntity
  8
0
100
AcDbLine
 62
7
  6
CONTINUOUS
 10
147.3867285969
 20
127.1066677045
 11
147.4800538795
 21
127.0018156353
  0
LINE
  5
497
100
AcDbEntity
  8
0
100
AcDbLine
 62
7
  6
CONTINUOUS
 10
148.9519778948
 20
128.1185615326
 11
148.8586526235
 21
128.2234135859
  0
LINE
  5
498
100
AcDbEntity
  8
0
100
AcDbLine
 62
7
  6
CONTINUOUS
 10
125.0683610922
 20
151.3551762632
 11
125.0136358009
 21
151.4265055005
  0
LINE
  5
499
100
AcDbEntity
  8
0
100
AcDbLine
 62
7
  6
CONTINUOUS
 10
125.4591967811
 20
151.7751875917
 11
125.5139220724
 21
151.7038583544
  0
LINE
  5
49A
100
AcDbEntity
  8
0
100
AcDbLine
 62
7
  6
CONTINUOUS
 10
125.7405655398
 20
150.0377994094
 11
125.68757683
 21
150.1104280142
  0
LINE
  5
49B
100
AcDbEntity
  8
0
100
AcDbLine
 62
7
  6
CONTINUOUS
 10
126.2758037212
 20
150.6440229063
 11
126.3287924311
 21
150.5713943015
  0
LINE
  5
49C
100
AcDbEntity
  8
0
100
AcDbLine
 62
7
  6
CONTINUOUS
 10
126.565304056
 20
151.247105462
 11
126.6182927658
 21
151.1744768572
  0
LINE
  5
49D
100
AcDbEntity
  8
0
100
AcDbLine
 62
7
  6
CONTINUOUS
 10
147.2826739133
 20
127.3257638172
 11
147.3867285969
 21
127.1066677045
  0
LINE
  5
49E
100
AcDbEntity
  8
0
100
AcDbLine
 62
7
  6
CONTINUOUS
 10
147.5998312323
 20
127.2078759232
 11
147.4957765487
 21
127.426972036
  0
LINE
  5
49F
100
AcDbEntity
  8
0
100
AcDbLine
 62
7
  6
CONTINUOUS
 10
147.9747967456
 20
126.9682678892
 11
147.9054269455
 21
127.1143319876
  0
LINE
  5
4A0
100
AcDbEntity
  8
0
100
AcDbLine
 62
7
  6
CONTINUOUS
 10
147.8135979513
 20
126.1757899232
 11
147.879263918
 21
126.0280236523
  0
LINE
  5
4A1
100
AcDbEntity
  8
RUNDUNGEN
100
AcDbLine
 62
7
  6
CONTINUOUS
 10
131.9242987004
 20
156.7953969123
 11
129.6975289816
 21
162.0925501411
  0
LINE
  5
4A2
100
AcDbEntity
  8
0
100
AcDbLine
 62
7
  6
CONTINUOUS
 10
148.139233456
 20
125.4357349092
 11
148.5114845911
 21
124.5397900825
  0
LINE
  5
4A3
100
AcDbEntity
  8
0
100
AcDbLine
 62
7
  6
CONTINUOUS
 10
148.729343515
 20
124.6303070757
 11
148.4191342357
 21
125.3769277645
  0
LINE
  5
4A4
100
AcDbEntity
  8
RUNDUNGEN
100
AcDbLine
 62
7
  6
CONTINUOUS
 10
161.4317943637
 20
85.4792562637
 11
159.260705367
 21
90.7994731911
  0
LINE
  5
4A5
100
AcDbEntity
  8
0
100
AcDbLine
 62
7
  6
CONTINUOUS
 10
149.1091557393
 20
122.9794620811
 11
149.1646648499
 21
122.8275886835
  0
LINE
  5
4A6
100
AcDbEntity
  8
RUNDUNGEN
100
AcDbLine
 62
7
  6
CONTINUOUS
 10
159.1515236641
 20
91.1619457712
 11
159.2606951394
 21
90.7994677898
  0
LINE
  5
4A7
100
AcDbEntity
  8
0
100
AcDbLine
 62
7
  6
CONTINUOUS
 10
147.2603828487
 20
127.464351941
 11
147.2826739133
 21
127.3257638172
  0
LINE
  5
4A8
100
AcDbEntity
  8
0
100
AcDbLine
 62
7
  6
CONTINUOUS
 10
149.0783236544
 20
127.7608772802
 11
149.0560325784
 21
127.8994654199
  0
LINE
  5
4A9
100
AcDbEntity
  8
RUNDUNGEN
100
AcDbLine
 62
7
  6
CONTINUOUS
 10
159.1127168441
 20
91.5385338146
 11
159.1515236641
 21
91.1619457712
  0
LINE
  5
4AA
100
AcDbEntity
  8
RUNDUNGEN
100
AcDbLine
 62
7
  6
CONTINUOUS
 10
151.9508927592
 20
140.9191822198
 11
152.080989421
 21
137.1915598516
  0
LINE
  5
4AB
100
AcDbEntity
  8
RUNDUNGEN
100
AcDbLine
 62
7
  6
CONTINUOUS
 10
152.080989421
 20
74.6374619924
 11
151.9508884337
 21
70.9097156836
  0
LWPOLYLINE
  5
4AC
100
AcDbEntity
  8
RUNDUNGEN
100
AcDbPolyline
 62
7
  6
CONTINUOUS
 90
3
 70
0
 10
154.8817498903
 20
103.6645109216
 10
154.8788720909
 20
103.6449380216
 10
154.7535055895
 20
102.8583328456
  0
LINE
  5
4AD
100
AcDbEntity
  8
RUNDUNGEN
100
AcDbLine
 62
7
  6
CONTINUOUS
 10
154.7535055895
 20
102.8583328456
 11
154.7233654499
 21
102.6645109216
  0
LWPOLYLINE
  5
4AE
100
AcDbEntity
  8
RUNDUNGEN
100
AcDbPolyline
 62
7
  6
CONTINUOUS
 90
3
 70
0
 10
141.1068455189
 20
70.4089499678
 10
141.1182955675
 20
70.4250830557
 10
141.5871092152
 20
71.0690381989
  0
LINE
  5
4AF
100
AcDbEntity
  8
RUNDUNGEN
100
AcDbLine
 62
7
  6
CONTINUOUS
 10
141.5871092152
 20
71.0690381989
 11
141.7019575883
 21
71.2280514607
  0
LINE
  5
4B0
100
AcDbEntity
  8
RUNDUNGEN
100
AcDbLine
 62
7
  6
CONTINUOUS
 10
159.6507083452
 20
92.9182923022
 11
159.4195774964
 21
92.61820163
  0
LINE
  5
4B1
100
AcDbEntity
  8
RUNDUNGEN
100
AcDbLine
 62
7
  6
CONTINUOUS
 10
132.3422497858
 20
55.6608633876
 11
132.103402392
 21
55.367134863
  0
LINE
  5
4B2
100
AcDbEntity
  8
RUNDUNGEN
100
AcDbLine
 62
7
  6
CONTINUOUS
 10
162.1954667574
 20
95.6424291103
 11
159.6516319365
 21
92.9146098261
  0
LINE
  5
4B3
100
AcDbEntity
  8
RUNDUNGEN
100
AcDbLine
 62
7
  6
CONTINUOUS
 10
115.4192051476
 20
48.6821830371
 11
112.6912951637
 21
46.138263634
  0
LWPOLYLINE
  5
4B4
100
AcDbEntity
  8
RUNDUNGEN
100
AcDbPolyline
 62
7
  6
CONTINUOUS
 90
3
 70
0
 10
137.9248650035
 20
67.2269694524
 10
137.9089899618
 20
67.2151642336
 10
137.2641286044
 20
66.7475978828
  0
LINE
  5
4B5
100
AcDbEntity
  8
RUNDUNGEN
100
AcDbLine
 62
7
  6
CONTINUOUS
 10
137.2641286044
 20
66.7475978828
 11
137.1057635106
 21
66.631857383
  0
LWPOLYLINE
  5
4B6
100
AcDbEntity
  8
RUNDUNGEN
100
AcDbPolyline
 62
7
  6
CONTINUOUS
 90
3
 70
0
 10
100.1693040497
 20
158.3769567621
 10
100.1497998268
 20
158.3736453532
 10
99.3629534689
 20
158.2498016141
  0
LINE
  5
4B7
100
AcDbEntity
  8
RUNDUNGEN
100
AcDbLine
 62
7
  6
CONTINUOUS
 10
99.3629534689
 20
158.2498016141
 11
99.1693040497
 21
158.2185723217
  0
LINE
  5
4B8
100
AcDbEntity
  8
RUNDUNGEN
100
AcDbLine
 62
7
  6
CONTINUOUS
 10
71.1403043019
 20
155.5729390031
 11
71.5159345449
 21
155.621701134
  0
LINE
  5
4B9
100
AcDbEntity
  8
RUNDUNGEN
100
AcDbLine
 62
7
  6
CONTINUOUS
 10
116.7952811573
 20
162.6079237152
 11
117.1718692007
 21
162.646730535
  0
LINE
  5
4BA
100
AcDbEntity
  8
RUNDUNGEN
100
AcDbLine
 62
7
  6
CONTINUOUS
 10
71.142254869
 20
155.576196284
 11
67.414531266
 21
155.4460960891
  0
LINE
  5
4BB
100
AcDbEntity
  8
RUNDUNGEN
100
AcDbLine
 62
7
  6
CONTINUOUS
 10
133.6963529789
 20
155.5761962928
 11
137.4240992877
 21
155.4460953055
  0
LWPOLYLINE
  5
4BC
100
AcDbEntity
  8
RUNDUNGEN
100
AcDbPolyline
 62
7
  6
CONTINUOUS
 90
3
 70
0
 10
104.6693040497
 20
158.3769567621
 10
104.6888769497
 20
158.3740789627
 10
105.4754821257
 20
158.2487124613
  0
LINE
  5
4BD
100
AcDbEntity
  8
RUNDUNGEN
100
AcDbLine
 62
7
  6
CONTINUOUS
 10
105.4754821257
 20
158.2487124613
 11
105.6693040497
 21
158.2185723217
  0
LINE
  5
4BE
100
AcDbEntity
  8
0
100
AcDbLine
 62
7
  6
CONTINUOUS
 10
116.3403391578
 20
155.5593502362
 11
116.1849214688
 21
155.6039846618
  0
LINE
  5
4BF
100
AcDbEntity
  8
0
100
AcDbLine
 62
7
  6
CONTINUOUS
 10
117.6972185681
 20
154.3337585138
 11
117.5429228097
 21
154.3821290518
  0
LINE
  5
4C0
100
AcDbEntity
  8
0
100
AcDbLine
 62
7
  6
CONTINUOUS
 10
117.9573708433
 20
154.6230565696
 11
118.1116666017
 21
154.5746860316
  0
LINE
  5
4C1
100
AcDbEntity
  8
0
100
AcDbLine
 62
7
  6
CONTINUOUS
 10
117.7075884844
 20
154.9073912505
 11
117.8618842427
 21
154.8590207125
  0
LINE
  5
4C2
100
AcDbEntity
  8
0
100
AcDbLine
 62
7
  6
CONTINUOUS
 10
117.9067392233
 20
155.09219481
 11
117.7781594737
 21
155.1325035763
  0
LINE
  5
4C3
100
AcDbEntity
  8
0
100
AcDbLine
 62
7
  6
CONTINUOUS
 10
119.9135335603
 20
153.4940093297
 11
120.0652106968
 21
153.4379652735
  0
LINE
  5
4C4
100
AcDbEntity
  8
0
100
AcDbLine
 62
7
  6
CONTINUOUS
 10
120.1333493589
 20
153.622375144
 11
119.9816722223
 21
153.6784192003
  0
LINE
  5
4C5
100
AcDbEntity
  8
0
100
AcDbLine
 62
7
  6
CONTINUOUS
 10
119.8924096289
 20
154.2144098245
 11
120.6255158855
 21
153.9435301838
  0
LINE
  5
4C6
100
AcDbEntity
  8
0
100
AcDbLine
 62
7
  6
CONTINUOUS
 10
120.6936545476
 20
154.1279400543
 11
119.83415087
 21
154.4455230039
  0
LINE
  5
4C7
100
AcDbEntity
  8
0
100
AcDbLine
 62
7
  6
CONTINUOUS
 10
122.8573496275
 20
152.3486299223
 11
122.7586379058
 21
152.3919528991
  0
LINE
  5
4C8
100
AcDbEntity
  8
0
100
AcDbLine
 62
7
  6
CONTINUOUS
 10
123.0114645362
 20
152.9680202391
 11
123.110176258
 21
152.9246972624
  0
LINE
  5
4C9
100
AcDbEntity
  8
0
100
AcDbLine
 62
7
  6
CONTINUOUS
 10
123.1891845662
 20
153.1047182746
 11
123.0904728444
 21
153.1480412514
  0
LINE
  5
4CA
100
AcDbEntity
  8
0
100
AcDbLine
 62
7
  6
CONTINUOUS
 10
125.2129848069
 20
151.2828515017
 11
125.0683610922
 21
151.3551762632
  0
LINE
  5
4CB
100
AcDbEntity
  8
0
100
AcDbLine
 62
7
  6
CONTINUOUS
 10
125.5158876655
 20
151.5270285474
 11
125.6605113802
 21
151.4547037859
  0
LINE
  5
4CC
100
AcDbEntity
  8
0
100
AcDbLine
 62
7
  6
CONTINUOUS
 10
125.3145730663
 20
151.8475123532
 11
125.4591967811
 21
151.7751875917
  0
LINE
  5
4CD
100
AcDbEntity
  8
0
100
AcDbLine
 62
7
  6
CONTINUOUS
 10
125.5406120411
 20
151.9982429498
 11
125.4200924627
 21
152.0585134924
  0
LINE
  5
4CE
100
AcDbEntity
  8
0
100
AcDbLine
 62
7
  6
CONTINUOUS
 10
126.1091609663
 20
150.7324472218
 11
126.2758037212
 21
150.6440229063
  0
LINE
  5
4CF
100
AcDbEntity
  8
0
100
AcDbLine
 62
7
  6
CONTINUOUS
 10
126.3441467717
 20
150.830316721
 11
126.2251156097
 21
150.8934772768
  0
LINE
  5
4D0
100
AcDbEntity
  8
0
100
AcDbLine
 62
7
  6
CONTINUOUS
 10
126.6451750808
 20
150.9376543665
 11
126.764205153
 21
150.874494389
  0
LINE
  5
4D1
100
AcDbEntity
  8
0
100
AcDbLine
 62
7
  6
CONTINUOUS
 10
126.4224670976
 20
151.3228978976
 11
126.565304056
 21
151.247105462
  0
LINE
  5
4D2
100
AcDbEntity
  8
0
100
AcDbLine
 62
7
  6
CONTINUOUS
 10
126.6336471065
 20
151.4333992767
 11
126.538421741
 21
151.4839279526
  0
LINE
  5
4D3
100
AcDbEntity
  8
0
100
AcDbLine
 62
7
  6
CONTINUOUS
 10
127.8307804896
 20
150.7763400588
 11
127.6898348956
 21
150.8555942671
  0
LWPOLYLINE
  5
4D4
100
AcDbEntity
  8
RUNDUNGEN
100
AcDbPolyline
 62
7
  6
CONTINUOUS
 90
3
 70
0
 10
137.9248650035
 20
144.6020523907
 10
137.9087319156
 20
144.6135024394
 10
137.2647767724
 20
145.082316087
  0
LINE
  5
4D5
100
AcDbEntity
  8
RUNDUNGEN
100
AcDbLine
 62
7
  6
CONTINUOUS
 10
137.2647767724
 20
145.082316087
 11
137.1057635106
 21
145.1971644601
  0
LINE
  5
4D6
100
AcDbEntity
  8
RUNDUNGEN
100
AcDbLine
 62
7
  6
CONTINUOUS
 10
115.4155226707
 20
163.1459152187
 11
115.7156133425
 21
162.9147843692
  0
LINE
  5
4D7
100
AcDbEntity
  8
RUNDUNGEN
100
AcDbLine
 62
7
  6
CONTINUOUS
 10
152.6729515837
 20
135.8374566576
 11
152.9666801083
 21
135.5986092638
  0
LINE
  5
4D8
100
AcDbEntity
  8
RUNDUNGEN
100
AcDbLine
 62
7
  6
CONTINUOUS
 10
112.6913871362
 20
165.6906724399
 11
115.4192051469
 21
163.1468388067
  0
LINE
  5
4D9
100
AcDbEntity
  8
RUNDUNGEN
100
AcDbLine
 62
7
  6
CONTINUOUS
 10
159.6516319342
 20
118.9144120194
 11
162.1955513374
 21
116.1865020355
  0
LWPOLYLINE
  5
4DA
100
AcDbEntity
  8
RUNDUNGEN
100
AcDbPolyline
 62
7
  6
CONTINUOUS
 90
3
 70
0
 10
141.1068455189
 20
141.4200718753
 10
141.1186507377
 20
141.4041968336
 10
141.5862170885
 20
140.7593354762
  0
LINE
  5
4DB
100
AcDbEntity
  8
RUNDUNGEN
100
AcDbLine
 62
7
  6
CONTINUOUS
 10
141.5862170885
 20
140.7593354762
 11
141.7019575883
 21
140.6009703824
  0
LINE
  5
4DC
100
AcDbEntity
  8
0
100
AcDbLine
 62
7
  6
CONTINUOUS
 10
148.7223203356
 20
127.5022968044
 11
148.7916901357
 21
127.356232706
  0
LINE
  5
4DD
100
AcDbEntity
  8
0
100
AcDbLine
 62
7
  6
CONTINUOUS
 10
148.7388752842
 20
128.0173533257
 11
148.8429299678
 21
127.7982572129
  0
LINE
  5
4DE
100
AcDbEntity
  8
0
100
AcDbLine
 62
7
  6
CONTINUOUS
 10
149.0560325784
 20
127.8994654199
 11
148.9519778948
 21
128.1185615326
  0
LINE
  5
4DF
100
AcDbEntity
  8
0
100
AcDbLine
 62
7
  6
CONTINUOUS
 10
149.7431305652
 20
126.3844484068
 11
149.6774645985
 21
126.5322146778
  0
LINE
  5
4E0
100
AcDbEntity
  8
0
100
AcDbLine
 62
7
  6
CONTINUOUS
 10
149.3929120345
 20
127.172535279
 11
149.3272460991
 21
127.3203014795
  0
LINE
  5
4E1
100
AcDbEntity
  8
0
100
AcDbLine
 62
7
  6
CONTINUOUS
 10
149.9078368864
 20
125.9954605527
 11
149.8457950305
 21
126.1447846904
  0
LINE
  5
4E2
100
AcDbEntity
  8
0
100
AcDbLine
 62
7
  6
CONTINUOUS
 10
150.9003641333
 20
123.4619797281
 11
150.8448550228
 21
123.6138531257
  0
LINE
  5
4E3
100
AcDbEntity
  8
0
100
AcDbLine
 62
7
  6
CONTINUOUS
 10
150.3529628075
 20
123.0126621651
 11
150.3972318963
 21
122.8853917645
  0
LINE
  5
4E4
100
AcDbEntity
  8
0
100
AcDbLine
 62
7
  6
CONTINUOUS
 10
150.4592087827
 20
122.7072127376
 11
150.5034778714
 21
122.579942337
  0
LINE
  5
4E5
100
AcDbEntity
  8
0
100
AcDbLine
 62
7
  6
CONTINUOUS
 10
150.7988502967
 20
122.5685477989
 11
150.7545810053
 21
122.6958187821
  0
LINE
  5
4E6
100
AcDbEntity
  8
0
100
AcDbLine
 62
7
  6
CONTINUOUS
 10
150.6926043215
 20
122.8739972264
 11
150.6483350301
 21
123.0012682096
  0
LWPOLYLINE
  5
4E7
100
AcDbEntity
  8
RUNDUNGEN
100
AcDbPolyline
 62
7
  6
CONTINUOUS
 90
3
 70
0
 10
154.8817498903
 20
108.1645109216
 10
154.8784384814
 20
108.1840151445
 10
154.7545947422
 20
108.9708615024
  0
LINE
  5
4E8
100
AcDbEntity
  8
RUNDUNGEN
100
AcDbLine
 62
7
  6
CONTINUOUS
 10
154.7545947422
 20
108.9708615024
 11
154.7233654499
 21
109.1645109216
  0
LINE
  5
4E9
100
AcDbEntity
  8
RUNDUNGEN
100
AcDbLine
 62
7
  6
CONTINUOUS
 10
152.0777324418
 20
137.1935106802
 11
152.1264943997
 21
136.8178803402
  0
LINE
  5
4EA
100
AcDbEntity
  8
RUNDUNGEN
100
AcDbLine
 62
7
  6
CONTINUOUS
 10
163.3817498903
 20
97.0974422882
 11
163.3817498903
 21
100.1761509756
  0
LINE
  5
4EB
100
AcDbEntity
  8
RUNDUNGEN
100
AcDbLine
 62
7
  6
CONTINUOUS
 10
163.3817498903
 20
111.6528708675
 11
163.3817498903
 21
114.7315902002
  0
LINE
  5
4EC
100
AcDbEntity
  8
RUNDUNGEN
100
AcDbLine
 62
7
  6
CONTINUOUS
 10
159.1456672272
 20
91.9157183856
 11
159.1127168441
 21
91.5385338146
  0
LINE
  5
4ED
100
AcDbEntity
  8
RUNDUNGEN
100
AcDbLine
 62
7
  6
CONTINUOUS
 10
159.2491924159
 20
92.2799645431
 11
159.1456672272
 21
91.9157183856
  0
LINE
  5
4EE
100
AcDbEntity
  8
RUNDUNGEN
100
AcDbLine
 62
7
  6
CONTINUOUS
 10
159.1336995932
 20
79.1754625048
 11
161.4298001874
 21
84.7187396999
  0
LINE
  5
4EF
100
AcDbEntity
  8
RUNDUNGEN
100
AcDbLine
 62
7
  6
CONTINUOUS
 10
159.4195774964
 20
92.61820163
 11
159.2491924159
 21
92.2799645431
  0
LINE
  5
4F0
100
AcDbEntity
  8
RUNDUNGEN
100
AcDbLine
 62
7
  6
CONTINUOUS
 10
139.2916533354
 20
56.5729425042
 11
141.4686296706
 21
58.7499188393
  0
LINE
  5
4F1
100
AcDbEntity
  8
RUNDUNGEN
100
AcDbLine
 62
7
  6
CONTINUOUS
 10
149.583896132
 20
66.8651853007
 11
151.7608794495
 21
69.0421686182
  0
LINE
  5
4F2
100
AcDbEntity
  8
RUNDUNGEN
100
AcDbLine
 62
7
  6
CONTINUOUS
 10
132.6322589932
 20
55.9042737158
 11
132.3422497858
 21
55.6608633876
  0
LINE
  5
4F3
100
AcDbEntity
  8
RUNDUNGEN
100
AcDbLine
 62
7
  6
CONTINUOUS
 10
132.9630232844
 20
56.0886312803
 11
132.6322589932
 21
55.9042737158
  0
LINE
  5
4F4
100
AcDbEntity
  8
RUNDUNGEN
100
AcDbLine
 62
7
  6
CONTINUOUS
 10
123.6150752714
 20
46.9040147839
 11
129.1583524665
 21
49.2001153781
  0
LINE
  5
4F5
100
AcDbEntity
  8
RUNDUNGEN
100
AcDbLine
 62
7
  6
CONTINUOUS
 10
133.3226734684
 20
56.2073205716
 11
132.9630232844
 21
56.0886312803
  0
LINE
  5
4F6
100
AcDbEntity
  8
RUNDUNGEN
100
AcDbLine
 62
7
  6
CONTINUOUS
 10
111.2363734678
 20
166.8769567621
 11
108.1576639957
 21
166.8769567621
  0
LINE
  5
4F7
100
AcDbEntity
  8
RUNDUNGEN
100
AcDbLine
 62
7
  6
CONTINUOUS
 10
96.6809441038
 20
166.8769567621
 11
93.602230239
 21
166.8769567621
  0
LINE
  5
4F8
100
AcDbEntity
  8
RUNDUNGEN
100
AcDbLine
 62
7
  6
CONTINUOUS
 10
116.4180965865
 20
162.6408740987
 11
116.7952811573
 21
162.6079237152
  0
LINE
  5
4F9
100
AcDbEntity
  8
RUNDUNGEN
100
AcDbLine
 62
7
  6
CONTINUOUS
 10
116.0538504292
 20
162.744399288
 11
116.4180965865
 21
162.6408740987
  0
LINE
  5
4FA
100
AcDbEntity
  8
RUNDUNGEN
100
AcDbLine
 62
7
  6
CONTINUOUS
 10
129.1583524665
 20
162.628906465
 11
123.6150752714
 21
164.9250070592
  0
LINE
  5
4FB
100
AcDbEntity
  8
RUNDUNGEN
100
AcDbLine
 62
7
  6
CONTINUOUS
 10
115.7156133425
 20
162.9147843692
 11
116.0538504292
 21
162.744399288
  0
LINE
  5
4FC
100
AcDbEntity
  8
RUNDUNGEN
100
AcDbLine
 62
7
  6
CONTINUOUS
 10
151.7608724671
 20
142.7868602072
 11
149.583896132
 21
144.9638365424
  0
LINE
  5
4FD
100
AcDbEntity
  8
RUNDUNGEN
100
AcDbLine
 62
7
  6
CONTINUOUS
 10
141.4686296706
 20
153.0791030038
 11
139.2916463531
 21
155.2560863213
  0
LINE
  5
4FE
100
AcDbEntity
  8
RUNDUNGEN
100
AcDbLine
 62
7
  6
CONTINUOUS
 10
152.4295412555
 20
136.127465865
 11
152.6729515837
 21
135.8374566576
  0
LINE
  5
4FF
100
AcDbEntity
  8
RUNDUNGEN
100
AcDbLine
 62
7
  6
CONTINUOUS
 10
152.245183691
 20
136.4582301563
 11
152.4295412555
 21
136.127465865
  0
LINE
  5
500
100
AcDbEntity
  8
RUNDUNGEN
100
AcDbLine
 62
7
  6
CONTINUOUS
 10
161.4298001874
 20
127.1102821432
 11
159.1336995932
 21
132.6535593383
  0
LINE
  5
501
100
AcDbEntity
  8
RUNDUNGEN
100
AcDbLine
 62
7
  6
CONTINUOUS
 10
152.1264943997
 20
136.8178803402
 11
152.245183691
 21
136.4582301563
  0
LINE
  5
502
100
AcDbEntity
  8
RUNDUNGEN
100
AcDbLine
 62
7
  6
CONTINUOUS
 10
214.8615373884
 20
44.952065081
 11
242.8615373884
 21
44.952065081
  0
LINE
  5
503
100
AcDbEntity
  8
0
100
AcDbLine
 62
7
  6
CONTINUOUS
 10
228.6115373884
 20
46.8278943165
 11
229.1115373884
 21
46.8278943165
  0
LWPOLYLINE
  5
504
100
AcDbEntity
  8
RUNDUNGEN
100
AcDbPolyline
 62
7
  6
CONTINUOUS
 90
3
 70
0
 10
229.1115373884
 20
46.8278943165
 10
229.3066278173
 20
46.8471090573
 10
229.4942209116
 20
46.9040148216
  0
LWPOLYLINE
  5
505
100
AcDbEntity
  8
RUNDUNGEN
100
AcDbPolyline
 62
7
  6
CONTINUOUS
 90
9
 70
0
 10
228.6115373884
 20
46.8278943165
 10
228.4164469595
 20
46.8471090573
 10
228.2288538652
 20
46.9040148216
 10
228.055967097
 20
46.9964247431
 10
227.9044305768
 20
47.1207875657
 10
227.7800677843
 20
47.2723240712
 10
227.6876578702
 20
47.4452108495
 10
227.6307521116
 20
47.6328039764
 10
227.6115373884
 20
47.8278943165
  0
LWPOLYLINE
  5
506
100
AcDbEntity
  8
RUNDUNGEN
100
AcDbPolyline
 62
7
  6
CONTINUOUS
 90
7
 70
0
 10
228.8625895712
 20
56.2800475194
 10
229.5477009309
 20
56.3048359501
 10
230.5543879527
 20
56.4161414008
 10
231.5695117271
 20
56.5727221514
 10
232.6106300814
 20
56.7245271322
 10
233.6919279426
 20
56.8303720136
 10
234.5226749848
 20
56.8578719948
  0
LINE
  5
507
100
AcDbEntity
  8
RUNDUNGEN
100
AcDbLine
 62
7
  6
CONTINUOUS
 10
242.8615373884
 20
56.8578046017
 11
234.5226749528
 21
56.8578046017
  0
LINE
  5
508
100
AcDbEntity
  8
RUNDUNGEN
100
AcDbLine
 62
7
  6
CONTINUOUS
 10
223.2004166066
 20
56.8578046017
 11
214.8615373884
 21
56.8578046017
  0
LWPOLYLINE
  5
509
100
AcDbEntity
  8
RUNDUNGEN
100
AcDbPolyline
 62
7
  6
CONTINUOUS
 90
7
 70
0
 10
223.2004165896
 20
56.8578712309
 10
224.0629732146
 20
56.8282950681
 10
225.1486654411
 20
56.7198798606
 10
226.1914105185
 20
56.5667413245
 10
227.2063349653
 20
56.4108361688
 10
228.2108627612
 20
56.3023851862
 10
228.8625895316
 20
56.2800479815
  0
LINE
  5
50A
100
AcDbEntity
  8
0
100
AcDbLine
 62
2
  6
CONTINUOUS
 10
222.0535666763
 20
155.0505080712
 11
221.5022199018
 21
154.4991612967
  0
LINE
  5
50B
100
AcDbEntity
  8
0
100
AcDbLine
 62
7
  6
CONTINUOUS
 10
235.2047707621
 20
152.6756942856
 11
235.2580358085
 21
152.7072573918
  0
LINE
  5
50C
100
AcDbEntity
  8
RUNDUNGEN
100
AcDbLine
 62
7
  6
CONTINUOUS
 10
235.2585160791
 20
152.7075297248
 11
235.2580358085
 21
152.7072573918
  0
LINE
  5
50D
100
AcDbEntity
  8
0
100
AcDbLine
 62
7
  6
CONTINUOUS
 10
235.2585118503
 20
152.7075372082
 11
235.4165289435
 21
152.7966411098
  0
LINE
  5
50E
100
AcDbEntity
  8
0
100
AcDbLine
 62
7
  6
CONTINUOUS
 10
235.4165289435
 20
152.7966411098
 11
235.8490334674
 21
153.0363737134
  0
LWPOLYLINE
  5
50F
100
AcDbEntity
  8
0
100
AcDbPolyline
 62
7
  6
CONTINUOUS
 90
3
 70
0
 10
235.8490334674
 20
153.0363737134
 10
236.3019318784
 20
153.2819349984
 10
236.7728561161
 20
153.53233594
  0
LINE
  5
510
100
AcDbEntity
  8
0
100
AcDbLine
 62
7
  6
CONTINUOUS
 10
236.7728561161
 20
153.53233594
 11
237.4083986491
 21
153.8637902649
  0
LINE
  5
511
100
AcDbEntity
  8
RUNDUNGEN
100
AcDbLine
 62
7
  6
CONTINUOUS
 10
237.4087262745
 20
153.8639593579
 11
237.4083986491
 21
153.8637902649
  0
LWPOLYLINE
  5
512
100
AcDbEntity
  8
0
100
AcDbPolyline
 62
7
  6
CONTINUOUS
 90
4
 70
0
 10
237.4087222518
 20
153.8639671169
 10
238.0736599119
 20
154.2041852072
 10
238.586515363
 20
154.4627198314
 10
239.1041274859
 20
154.7206736578
  0
LINE
  5
513
100
AcDbEntity
  8
0
100
AcDbLine
 62
7
  6
CONTINUOUS
 10
239.1041274859
 20
154.7206736578
 11
243.3009223191
 21
156.7751779301
  0
LINE
  5
514
100
AcDbEntity
  8
0
100
AcDbLine
 62
7
  6
CONTINUOUS
 10
234.9847950948
 20
152.8634690937
 11
235.7322985949
 21
153.2280509108
  0
LWPOLYLINE
  5
515
100
AcDbEntity
  8
RUNDUNGEN
100
AcDbPolyline
 62
7
  6
CONTINUOUS
 90
3
 70
0
 10
242.8615373884
 20
66.5722920819
 10
243.057006936
 20
66.5915823336
 10
243.2445393025
 20
66.6485445332
  0
LINE
  5
516
100
AcDbEntity
  8
0
100
AcDbLine
 62
7
  6
CONTINUOUS
 10
214.8615373884
 20
66.5722920819
 11
242.8615373884
 21
66.5722920819
  0
LWPOLYLINE
  5
517
100
AcDbEntity
  8
RUNDUNGEN
100
AcDbPolyline
 62
7
  6
CONTINUOUS
 90
9
 70
0
 10
214.8615373884
 20
66.5722920819
 10
214.6660678408
 20
66.5915823336
 10
214.4785354743
 20
66.6485445332
 10
214.3057691971
 20
66.7409547782
 10
214.1543318253
 20
66.8652840964
 10
214.0301026832
 20
67.0166696122
 10
213.9377117675
 20
67.1894785214
 10
213.8807658247
 20
67.3771336171
 10
213.8615373884
 20
67.5722920819
  0
LINE
  5
518
100
AcDbEntity
  8
RUNDUNGEN
100
AcDbLine
 62
7
  6
CONTINUOUS
 10
243.300922319
 20
55.0538439131
 11
239.6124250547
 21
56.8578046017
  0
LINE
  5
519
100
AcDbEntity
  8
0
100
AcDbLine
 62
2
  6
CONTINUOUS
 10
228.0309327096
 20
155.1269567621
 11
223.8615373884
 21
150.9575614408
  0
LINE
  5
51A
100
AcDbEntity
  8
RUNDUNGEN
100
AcDbLine
 62
7
  6
CONTINUOUS
 10
235.0158544354
 20
152.5405879736
 11
235.0152849897
 21
152.5401244408
  0
LWPOLYLINE
  5
51B
100
AcDbEntity
  8
0
100
AcDbPolyline
 62
7
  6
CONTINUOUS
 90
3
 70
0
 10
235.0152897697
 20
152.5401187114
 10
235.0620217547
 20
152.5770072822
 10
235.1320696305
 20
152.6280395238
  0
LINE
  5
51C
100
AcDbEntity
  8
0
100
AcDbLine
 62
7
  6
CONTINUOUS
 10
235.1320696305
 20
152.6280395238
 11
235.2047707621
 21
152.6756942856
  0
LWPOLYLINE
  5
51D
100
AcDbEntity
  8
0
100
AcDbPolyline
 62
7
  6
CONTINUOUS
 90
4
 70
0
 10
221.3310028334
 20
140.1592875681
 10
221.3283863813
 20
140.158431702
 10
221.2230892417
 20
140.1314882372
 10
221.1038944303
 20
140.1079361344
  0
LINE
  5
51E
100
AcDbEntity
  8
0
100
AcDbLine
 62
2
  6
CONTINUOUS
 10
233.9318500521
 20
155.1269567621
 11
223.8615373884
 21
145.0566440984
  0
LINE
  5
51F
100
AcDbEntity
  8
0
100
AcDbLine
 62
2
  6
CONTINUOUS
 10
233.8615373884
 20
149.1557267559
 11
223.8496942142
 21
139.1438835816
  0
LINE
  5
520
100
AcDbEntity
  8
0
100
AcDbLine
 62
2
  6
CONTINUOUS
 10
215.8612531209
 20
131.1554424884
 11
209.8115373884
 21
125.1057267559
  0
LINE
  5
521
100
AcDbEntity
  8
0
100
AcDbLine
 62
7
  6
CONTINUOUS
 10
234.7590503145
 20
152.2896740011
 11
235.0158544354
 21
152.5405879736
  0
LWPOLYLINE
  5
522
100
AcDbEntity
  8
0
100
AcDbPolyline
 62
7
  6
CONTINUOUS
 90
3
 70
0
 10
243.1872599212
 20
143.8963008064
 10
243.244233779
 20
143.917892046
 10
243.4171159327
 20
144.0103021523
  0
LINE
  5
523
100
AcDbEntity
  8
0
100
AcDbLine
 62
7
  6
CONTINUOUS
 10
242.3806841263
 20
143.6172507955
 11
243.1881446367
 21
143.896606063
  0
LINE
  5
524
100
AcDbEntity
  8
RUNDUNGEN
100
AcDbLine
 62
7
  6
CONTINUOUS
 10
243.1872599212
 20
143.8963008064
 11
243.1873067601
 21
143.8963169545
  0
LINE
  5
525
100
AcDbEntity
  8
0
100
AcDbLine
 62
7
  6
CONTINUOUS
 10
213.9103085324
 20
144.5492408974
 11
213.8807658247
 21
144.451888226
  0
LINE
  5
526
100
AcDbEntity
  8
0
100
AcDbLine
 62
2
  6
CONTINUOUS
 10
233.8615373884
 20
143.2548094134
 11
212.2462388965
 21
121.6395109216
  0
LINE
  5
527
100
AcDbEntity
  8
RUNDUNGEN
100
AcDbLine
 62
7
  6
CONTINUOUS
 10
239.1826438568
 20
136.2711080067
 11
239.1827505762
 21
136.2711449243
  0
LINE
  5
528
100
AcDbEntity
  8
0
100
AcDbLine
 62
7
  6
CONTINUOUS
 10
239.1826657873
 20
136.2710445465
 11
243.1883281852
 21
137.6562178575
  0
LINE
  5
529
100
AcDbEntity
  8
AUSFORMSCHRAEGEN
100
AcDbLine
 62
7
  6
CONTINUOUS
 10
241.4895343037
 20
80.6475464871
 11
245.1208068096
 21
80.9014697967
  0
LINE
  5
52A
100
AcDbEntity
  8
AUSFORMSCHRAEGEN
100
AcDbLine
 62
7
  6
CONTINUOUS
 10
212.6022679672
 20
80.9014697967
 11
216.2335404731
 21
80.6475464871
  0
LINE
  5
52B
100
AcDbEntity
  8
RUNDUNGEN
100
AcDbLine
 62
7
  6
CONTINUOUS
 10
243.1883281852
 20
74.1728039856
 11
239.1827048703
 21
75.5579637799
  0
LWPOLYLINE
  5
52C
100
AcDbEntity
  8
RUNDUNGEN
100
AcDbPolyline
 62
7
  6
CONTINUOUS
 90
3
 70
0
 10
239.1827501995
 20
75.5578773553
 10
239.1225579388
 20
75.5789948178
 10
238.8061142234
 20
75.6997671285
  0
LINE
  5
52D
100
AcDbEntity
  8
RUNDUNGEN
100
AcDbLine
 62
7
  6
CONTINUOUS
 10
238.8065604721
 20
75.6995968154
 11
238.4766288982
 21
75.8426955149
  0
LWPOLYLINE
  5
52E
100
AcDbEntity
  8
RUNDUNGEN
100
AcDbPolyline
 62
7
  6
CONTINUOUS
 90
4
 70
0
 10
238.4766288982
 20
75.8426955149
 10
238.1354268772
 20
76.0090008655
 10
237.7857299397
 20
76.1989843815
 10
237.6632116174
 20
76.27031926
  0
LWPOLYLINE
  5
52F
100
AcDbEntity
  8
RUNDUNGEN
100
AcDbPolyline
 62
7
  6
CONTINUOUS
 90
4
 70
0
 10
243.6650417359
 20
66.9826337045
 10
243.6947743331
 20
66.96093455
 10
243.78638175
 20
66.858205743
 10
243.8426081822
 20
66.7467057561
  0
LINE
  5
530
100
AcDbEntity
  8
RUNDUNGEN
100
AcDbLine
 62
7
  6
CONTINUOUS
 10
209.8115373884
 20
105.9145109216
 11
209.8115373884
 21
83.8941619475
  0
LINE
  5
531
100
AcDbEntity
  8
0
100
AcDbLine
 62
7
  6
CONTINUOUS
 10
209.8115373884
 20
105.9145109222
 11
209.8115373884
 21
127.9348598956
  0
LINE
  5
532
100
AcDbEntity
  8
0
100
AcDbLine
 62
7
  6
CONTINUOUS
 10
213.8807658247
 20
144.451888226
 11
213.8615373884
 21
144.2567297612
  0
LINE
  5
533
100
AcDbEntity
  8
0
100
AcDbLine
 62
2
  6
CONTINUOUS
 10
234.0655037867
 20
137.5578584692
 11
218.147156239
 21
121.6395109216
  0
LWPOLYLINE
  5
534
100
AcDbEntity
  8
0
100
AcDbPolyline
 62
7
  6
CONTINUOUS
 90
3
 70
0
 10
243.4171159327
 20
144.0103021523
 10
243.5686484995
 20
144.1346637597
 10
243.6930058265
 20
144.2861942207
  0
LINE
  5
535
100
AcDbEntity
  8
RUNDUNGEN
100
AcDbLine
 62
7
  6
CONTINUOUS
 10
237.6632138615
 20
135.5586924646
 11
237.6633565463
 21
135.558777088
  0
LWPOLYLINE
  5
536
100
AcDbEntity
  8
0
100
AcDbPolyline
 62
7
  6
CONTINUOUS
 90
7
 70
0
 10
237.6631998512
 20
135.5587159844
 10
237.785389448
 20
135.6298662571
 10
238.1349137883
 20
135.8197738528
 10
238.4760851008
 20
135.9860906406
 10
238.8061143127
 20
136.1292550116
 10
239.1225582022
 20
136.2500274187
 10
239.1827505762
 20
136.2711449243
  0
LINE
  5
537
100
AcDbEntity
  8
RUNDUNGEN
100
AcDbLine
 62
7
  6
CONTINUOUS
 10
237.6632149853
 20
76.270328713
 11
237.663357682
 21
76.2702440826
  0
LWPOLYLINE
  5
538
100
AcDbEntity
  8
RUNDUNGEN
100
AcDbPolyline
 62
7
  6
CONTINUOUS
 90
4
 70
0
 10
237.663357682
 20
76.2702440826
 10
237.5791819459
 20
76.3207148027
 10
237.2511854593
 20
76.5291075087
 10
236.9208140448
 20
76.758702234
  0
LINE
  5
539
100
AcDbEntity
  8
RUNDUNGEN
100
AcDbLine
 62
7
  6
CONTINUOUS
 10
236.9207428443
 20
76.7587562796
 11
236.5905487129
 21
77.0093940802
  0
LINE
  5
53A
100
AcDbEntity
  8
RUNDUNGEN
100
AcDbLine
 62
7
  6
CONTINUOUS
 10
213.8615373884
 20
157.6782836121
 11
213.8615373884
 21
157.6734115967
  0
LINE
  5
53B
100
AcDbEntity
  8
RUNDUNGEN
100
AcDbLine
 62
7
  6
CONTINUOUS
 10
213.8615373884
 20
45.952065081
 11
213.8615373884
 21
54.1507382142
  0
LINE
  5
53C
100
AcDbEntity
  8
RUNDUNGEN
100
AcDbLine
 62
7
  6
CONTINUOUS
 10
213.8615373884
 20
57.8578046017
 11
213.8615373884
 21
66.9872556322
  0
LINE
  5
53D
100
AcDbEntity
  8
RUNDUNGEN
100
AcDbLine
 62
7
  6
CONTINUOUS
 10
213.8615373884
 20
67.5722920819
 11
213.8615373884
 21
73.2274574424
  0
LINE
  5
53E
100
AcDbEntity
  8
RUNDUNGEN
100
AcDbLine
 62
7
  6
CONTINUOUS
 10
213.8615373884
 20
97.9145109216
 11
213.8615373884
 21
102.6645109216
  0
LINE
  5
53F
100
AcDbEntity
  8
0
100
AcDbLine
 62
7
  6
CONTINUOUS
 10
213.8615373884
 20
140.2455721332
 11
213.8615373884
 21
140.6009703824
  0
LINE
  5
540
100
AcDbEntity
  8
RUNDUNGEN
100
AcDbLine
 62
7
  6
CONTINUOUS
 10
213.8615373884
 20
138.6015644007
 11
213.8615373884
 21
144.2567297612
  0
LINE
  5
541
100
AcDbEntity
  8
RUNDUNGEN
100
AcDbLine
 62
7
  6
CONTINUOUS
 10
213.8615373884
 20
144.841766211
 11
213.8615373884
 21
153.9712172414
  0
LINE
  5
542
100
AcDbEntity
  8
0
100
AcDbLine
 62
7
  6
CONTINUOUS
 10
213.8615373884
 20
157.7159632978
 11
213.8615373884
 21
165.8769567621
  0
LINE
  5
543
100
AcDbEntity
  8
RUNDUNGEN
100
AcDbLine
 62
7
  6
CONTINUOUS
 10
213.8615373884
 20
157.7159632978
 11
213.8615373884
 21
165.8769567621
  0
LWPOLYLINE
  5
544
100
AcDbEntity
  8
0
100
AcDbPolyline
 62
7
  6
CONTINUOUS
 90
3
 70
0
 10
234.2122818718
 20
151.3309620849
 10
234.4629645681
 20
151.8678131563
 10
234.7590503145
 20
152.2896740011
  0
LWPOLYLINE
  5
545
100
AcDbEntity
  8
0
100
AcDbPolyline
 62
7
  6
CONTINUOUS
 90
4
 70
0
 10
235.7970174368
 20
134.0886203611
 10
235.9129892141
 20
134.2176506444
 10
236.0365585997
 20
134.34378647
 10
236.1301632516
 20
134.4313211456
  0
LINE
  5
546
100
AcDbEntity
  8
0
100
AcDbLine
 62
2
  6
CONTINUOUS
 10
236.1223755514
 20
133.7138128914
 11
224.0480735815
 21
121.6395109216
  0
LINE
  5
547
100
AcDbEntity
  8
RUNDUNGEN
100
AcDbLine
 62
7
  6
CONTINUOUS
 10
236.130287462
 20
134.4314325957
 11
236.1301632516
 21
134.4313211456
  0
LWPOLYLINE
  5
548
100
AcDbEntity
  8
0
100
AcDbPolyline
 62
7
  6
CONTINUOUS
 90
7
 70
0
 10
236.1302852925
 20
134.4314350054
 10
236.2629646279
 20
134.5482642982
 10
236.5905486889
 20
134.819627744
 10
236.9208138959
 20
135.0703195013
 10
237.2511850993
 20
135.2999140956
 10
237.5791812807
 20
135.5083066372
 10
237.6633565463
 20
135.558777088
  0
LWPOLYLINE
  5
549
100
AcDbEntity
  8
RUNDUNGEN
100
AcDbPolyline
 62
7
  6
CONTINUOUS
 90
3
 70
0
 10
236.590467713
 20
77.0094611788
 10
236.2629646048
 20
77.2807575634
 10
236.1302852937
 20
77.3975868347
  0
LINE
  5
54A
100
AcDbEntity
  8
RUNDUNGEN
100
AcDbLine
 62
7
  6
CONTINUOUS
 10
236.1302874633
 20
77.3975892446
 11
236.1301632533
 21
77.3977006945
  0
LWPOLYLINE
  5
54B
100
AcDbEntity
  8
RUNDUNGEN
100
AcDbPolyline
 62
7
  6
CONTINUOUS
 90
5
 70
0
 10
236.1301632533
 20
77.3977006945
 10
236.0365586028
 20
77.4852353712
 10
235.9129892091
 20
77.6113712023
 10
235.7894556827
 20
77.7488146926
 10
235.7113712602
 20
77.8411123852
  0
LWPOLYLINE
  5
54C
100
AcDbEntity
  8
0
100
AcDbPolyline
 62
7
  6
CONTINUOUS
 90
4
 70
0
 10
213.8615373884
 20
144.841766211
 10
213.8807497899
 20
144.6466875744
 10
213.9376524861
 20
144.4590957426
 10
214.030062218
 20
144.2862042964
  0
LINE
  5
54D
100
AcDbEntity
  8
RUNDUNGEN
100
AcDbLine
 62
7
  6
CONTINUOUS
 10
213.8615373884
 20
66.9872556322
 11
213.8807497899
 21
67.1823342687
  0
LINE
  5
54E
100
AcDbEntity
  8
0
100
AcDbLine
 62
2
  6
CONTINUOUS
 10
239.7927871451
 20
131.4833071427
 11
229.948990924
 21
121.6395109216
  0
LINE
  5
54F
100
AcDbEntity
  8
RUNDUNGEN
100
AcDbLine
 62
7
  6
CONTINUOUS
 10
236.7006713003
 20
96.7864971347
 11
236.8983158225
 21
96.8391706936
  0
LWPOLYLINE
  5
550
100
AcDbEntity
  8
RUNDUNGEN
100
AcDbPolyline
 62
7
  6
CONTINUOUS
 90
5
 70
0
 10
236.8983158225
 20
96.8391706936
 10
237.096423647
 20
96.8780571448
 10
237.2952577905
 20
96.9031011812
 10
237.4951716476
 20
96.9140960114
 10
237.5487335651
 20
96.9146084983
  0
LINE
  5
551
100
AcDbEntity
  8
RUNDUNGEN
100
AcDbLine
 62
7
  6
CONTINUOUS
 10
242.8615373884
 20
96.9145109216
 11
234.5226661819
 21
96.9145109216
  0
LINE
  5
552
100
AcDbEntity
  8
RUNDUNGEN
100
AcDbLine
 62
7
  6
CONTINUOUS
 10
223.2004081556
 20
96.9145109216
 11
214.8615373884
 21
96.9145109216
  0
LWPOLYLINE
  5
553
100
AcDbEntity
  8
RUNDUNGEN
100
AcDbPolyline
 62
7
  6
CONTINUOUS
 90
3
 70
0
 10
220.8247433008
 20
96.8391787573
 10
221.0223946084
 20
96.7865041852
 10
221.0780431415
 20
96.7691600255
  0
LINE
  5
554
100
AcDbEntity
  8
RUNDUNGEN
100
AcDbLine
 62
7
  6
CONTINUOUS
 10
221.0779797206
 20
96.7691519431
 11
221.0778018878
 21
96.7692091359
  0
LINE
  5
555
100
AcDbEntity
  8
RUNDUNGEN
100
AcDbLine
 62
7
  6
CONTINUOUS
 10
221.0778018878
 20
96.7692091359
 11
221.1563654871
 21
96.74283558
  0
LWPOLYLINE
  5
556
100
AcDbEntity
  8
RUNDUNGEN
100
AcDbPolyline
 62
7
  6
CONTINUOUS
 90
3
 70
0
 10
221.1563654871
 20
96.74283558
 10
221.3737900881
 20
96.6580891385
 10
221.5867013001
 20
96.557975557
  0
LINE
  5
557
100
AcDbEntity
  8
RUNDUNGEN
100
AcDbLine
 62
7
  6
CONTINUOUS
 10
221.5867013001
 20
96.557975557
 11
221.7947125102
 21
96.4433112003
  0
LWPOLYLINE
  5
558
100
AcDbEntity
  8
RUNDUNGEN
100
AcDbPolyline
 62
7
  6
CONTINUOUS
 90
3
 70
0
 10
221.7947125102
 20
96.4433112003
 10
221.9973873335
 20
96.3149331987
 10
222.0602818456
 20
96.2716727894
  0
LWPOLYLINE
  5
559
100
AcDbEntity
  8
RUNDUNGEN
100
AcDbPolyline
 62
7
  6
CONTINUOUS
 90
3
 70
0
 10
222.0596024224
 20
96.2721688751
 10
222.082362814
 20
96.2561042116
 10
222.2028814838
 20
96.1670724369
  0
LWPOLYLINE
  5
55A
100
AcDbEntity
  8
RUNDUNGEN
100
AcDbPolyline
 62
7
  6
CONTINUOUS
 90
4
 70
0
 10
222.2028814838
 20
96.1670724369
 10
222.3255799721
 20
96.0698142973
 10
222.4517718095
 20
95.9633186602
 10
222.5268433991
 20
95.8971504953
  0
LINE
  5
55B
100
AcDbEntity
  8
RUNDUNGEN
100
AcDbLine
 62
7
  6
CONTINUOUS
 10
222.5274060867
 20
95.8966500611
 11
222.5291242043
 21
95.8951124852
  0
LWPOLYLINE
  5
55C
100
AcDbEntity
  8
RUNDUNGEN
100
AcDbPolyline
 62
7
  6
CONTINUOUS
 90
9
 70
0
 10
235.7113102479
 20
77.8412140941
 10
235.4836390545
 20
78.1398674509
 10
235.1592436608
 20
78.6558616507
 10
234.8796889843
 20
79.2057293468
 10
234.6307547356
 20
79.8063434085
 10
234.4035066307
 20
80.4882999835
 10
234.2088684844
 20
81.2377637879
 10
234.051550461
 20
82.0567267914
 10
233.9389794268
 20
82.9298436835
  0
LWPOLYLINE
  5
55D
100
AcDbEntity
  8
RUNDUNGEN
100
AcDbPolyline
 62
7
  6
CONTINUOUS
 90
47
 70
0
 10
221.4277237971
 20
105.9145109222
 10
221.4287331058
 20
105.8960568424
 10
221.415860731
 20
105.8004905117
 10
221.3869570896
 20
105.707594049
 10
221.343524309
 20
105.6143251632
 10
221.2910397586
 20
105.5258873664
 10
221.2312172282
 20
105.4420026878
 10
221.1634485848
 20
105.3598101137
 10
221.0902314508
 20
105.2808250594
 10
221.0123382979
 20
105.2048997564
 10
220.9306912654
 20
105.1321822721
 10
220.8456409196
 20
105.0622678913
 10
220.7575670161
 20
104.9949609818
 10
220.6667348013
 20
104.9300900061
 10
220.57281473
 20
104.8671533199
 10
220.475111114
 20
104.8055424039
 10
220.3740467972
 20
104.7454366397
 10
220.269819705
 20
104.6868602087
 10
220.1622648071
 20
104.6296613804
 10
220.0513426056
 20
104.573791648
 10
219.936601508
 20
104.5190213761
 10
219.8176018778
 20
104.4651748628
 10
219.6941033305
 20
104.412218925
 10
219.5655774091
 20
104.3600323837
 10
219.4323212788
 20
104.3088399788
 10
219.2944056922
 20
104.2587586886
 10
219.1520046635
 20
104.2099478662
 10
219.0052618826
 20
104.1625406721
 10
218.8543680039
 20
104.1166687633
 10
218.6995099248
 20
104.0724606661
 10
218.5408318089
 20
104.0300248722
 10
218.3785017575
 20
103.9894638667
 10
218.2126529842
 20
103.95087247
 10
218.0434487302
 20
103.9143481646
 10
217.8709673859
 20
103.8799620719
 10
217.6953977067
 20
103.8478122149
 10
217.5165599496
 20
103.8179318005
 10
217.3343981956
 20
103.7903850167
 10
217.1487269037
 20
103.7652356987
 10
216.9593941408
 20
103.7425707298
 10
216.7662380351
 20
103.722488394
 10
216.5691007664
 20
103.7051109899
 10
216.3678264141
 20
103.6905826919
 10
216.1622603321
 20
103.6790633878
 10
215.9522660092
 20
103.6707397285
 10
215.7377115852
 20
103.6658278584
 10
215.555217126
 20
103.6645109328
  0
LINE
  5
55E
100
AcDbEntity
  8
RUNDUNGEN
100
AcDbLine
 62
7
  6
CONTINUOUS
 10
223.8615373884
 20
55.410586266
 11
223.8615373884
 21
56.8352020915
  0
LINE
  5
55F
100
AcDbEntity
  8
RUNDUNGEN
100
AcDbLine
 62
7
  6
CONTINUOUS
 10
223.8615373884
 20
79.3952688801
 11
223.8615373884
 21
92.9145109216
  0
LINE
  5
560
100
AcDbEntity
  8
0
100
AcDbLine
 62
7
  6
CONTINUOUS
 10
223.8615373884
 20
139.3615005682
 11
223.8615373884
 21
151.0658810011
  0
LINE
  5
561
100
AcDbEntity
  8
RUNDUNGEN
100
AcDbLine
 62
7
  6
CONTINUOUS
 10
223.8615373711
 20
84.5311427617
 11
223.8474308605
 21
83.8402063767
  0
LINE
  5
562
100
AcDbEntity
  8
RUNDUNGEN
100
AcDbLine
 62
7
  6
CONTINUOUS
 10
213.8804665946
 20
66.7475978828
 11
213.8615373884
 21
66.631857383
  0
LINE
  5
563
100
AcDbEntity
  8
0
100
AcDbLine
 62
7
  6
CONTINUOUS
 10
234.0179418424
 20
150.6728387699
 11
234.2122818718
 21
151.3309620849
  0
LWPOLYLINE
  5
564
100
AcDbEntity
  8
0
100
AcDbPolyline
 62
7
  6
CONTINUOUS
 90
4
 70
0
 10
243.6930058265
 20
144.2861942207
 10
243.7854148713
 20
144.4590778305
 10
243.8423221501
 20
144.6466733125
 10
243.8615373884
 20
144.841766211
  0
LINE
  5
565
100
AcDbEntity
  8
0
100
AcDbLine
 62
2
  6
CONTINUOUS
 10
245.1359189375
 20
130.9255215926
 11
235.8499082664
 21
121.6395109216
  0
LINE
  5
566
100
AcDbEntity
  8
RUNDUNGEN
100
AcDbLine
 62
7
  6
CONTINUOUS
 10
227.6115373884
 20
47.8278943165
 11
227.6115373884
 21
54.9513851522
  0
LINE
  5
567
100
AcDbEntity
  8
RUNDUNGEN
100
AcDbLine
 62
7
  6
CONTINUOUS
 10
227.6115373884
 20
77.5288509656
 11
227.6115373884
 21
89.9498317429
  0
LWPOLYLINE
  5
568
100
AcDbEntity
  8
RUNDUNGEN
100
AcDbPolyline
 62
7
  6
CONTINUOUS
 90
10
 70
0
 10
223.8474308605
 20
83.8402063767
 10
223.7838301714
 20
82.9271688436
 10
223.6711393474
 20
82.0543275752
 10
223.5138934139
 20
81.2363805009
 10
223.3196668036
 20
80.4886363304
 10
223.0930035422
 20
79.8081770792
 10
222.844442754
 20
79.2080275055
 10
222.5649701419
 20
78.6578857045
 10
222.2402422804
 20
78.1410120173
 10
222.011770026
 20
77.8412080836
  0
LINE
  5
569
100
AcDbEntity
  8
RUNDUNGEN
100
AcDbLine
 62
7
  6
CONTINUOUS
 10
213.8807497899
 20
67.1823342687
 11
213.9103085324
 21
67.2797809457
  0
LINE
  5
56A
100
AcDbEntity
  8
0
100
AcDbLine
 62
2
  6
CONTINUOUS
 10
247.9115373884
 20
127.800222701
 11
241.7508256089
 21
121.6395109216
  0
LINE
  5
56B
100
AcDbEntity
  8
RUNDUNGEN
100
AcDbLine
 62
7
  6
CONTINUOUS
 10
214.8615373884
 20
103.6645109216
 11
242.8615373884
 21
103.6645109216
  0
LINE
  5
56C
100
AcDbEntity
  8
02___PRT_ALL_AXES
100
AcDbLine
 62
7
  6
CENTER
 10
206.8115373884
 20
105.9145109216
 11
250.9115373884
 21
105.9145109216
  0
LINE
  5
56D
100
AcDbEntity
  8
0
100
AcDbLine
 62
2
  6
CONTINUOUS
 10
209.8115373884
 20
105.9145109222
 11
247.9115373884
 21
105.9145109222
  0
LWPOLYLINE
  5
56E
100
AcDbEntity
  8
RUNDUNGEN
100
AcDbPolyline
 62
7
  6
CONTINUOUS
 90
53
 70
0
 10
242.1076819169
 20
103.6646486241
 10
241.9432885356
 20
103.6665057166
 10
241.7795881361
 20
103.670468766
 10
241.6166728825
 20
103.6765058208
 10
241.4546364897
 20
103.6845883387
 10
241.2935332711
 20
103.6946877653
 10
241.1334202329
 20
103.7067744547
 10
240.9743793664
 20
103.7208153548
 10
240.8164813102
 20
103.7367771257
 10
240.6598185298
 20
103.7546309813
 10
240.5044818324
 20
103.7743505603
 10
240.3505525492
 20
103.7959075257
 10
240.198104196
 20
103.8192717859
 10
240.0472471449
 20
103.8444042359
 10
239.8981139686
 20
103.8712604526
 10
239.7507173579
 20
103.8998256621
 10
239.6051057885
 20
103.9300797104
 10
239.4613106247
 20
103.9620041586
 10
239.3193469017
 20
103.9955834003
 10
239.1793113196
 20
104.0307816002
 10
239.0412952058
 20
104.0675720698
 10
238.9053633172
 20
104.1059392495
 10
238.771578328
 20
104.1458643259
 10
238.6400388153
 20
104.1873130585
 10
238.5108176489
 20
104.2302543207
 10
238.3840590836
 20
104.2746404112
 10
238.2599178832
 20
104.3204234299
 10
238.1384806367
 20
104.367570949
 10
238.0198103176
 20
104.4160533367
 10
237.9041154529
 20
104.465772794
 10
237.7915277275
 20
104.5166666363
 10
237.682405603
 20
104.5685646407
 10
237.5772797384
 20
104.6211719366
 10
237.4756846718
 20
104.6746731473
 10
237.3774674128
 20
104.7291248812
 10
237.2823379762
 20
104.7847033203
 10
237.1900851436
 20
104.8415893691
 10
237.1006150876
 20
104.8999314822
 10
237.0138393102
 20
104.9599171676
 10
236.9297667891
 20
105.0217147611
 10
236.8485162366
 20
105.085454764
 10
236.7703700277
 20
105.1511992035
 10
236.6957748838
 20
105.2189365351
 10
236.624904433
 20
105.2889892131
 10
236.5581688211
 20
105.3614466205
 10
236.4968154252
 20
105.4355819398
 10
236.4428317175
 20
105.5097094429
 10
236.3952745171
 20
105.5859260952
 10
236.3550623077
 20
105.6634535101
 10
236.323153174
 20
105.7432357564
 10
236.3019049017
 20
105.8272424291
 10
236.2938871196
 20
105.9115837789
 10
236.2941410935
 20
105.9145109222
  0
LINE
  5
56F
100
AcDbEntity
  8
RUNDUNGEN
100
AcDbLine
 62
7
  6
CONTINUOUS
 10
233.9389794268
 20
82.9298436835
 11
233.8755689438
 21
83.8420219367
  0
LINE
  5
570
100
AcDbEntity
  8
RUNDUNGEN
100
AcDbLine
 62
7
  6
CONTINUOUS
 10
233.8755689438
 20
83.8420219367
 11
233.8615374137
 21
84.5310876167
  0
LINE
  5
571
100
AcDbEntity
  8
RUNDUNGEN
100
AcDbLine
 62
7
  6
CONTINUOUS
 10
230.1115373884
 20
89.9498317429
 11
230.1115373884
 21
77.5288509656
  0
LINE
  5
572
100
AcDbEntity
  8
RUNDUNGEN
100
AcDbLine
 62
7
  6
CONTINUOUS
 10
230.1115373884
 20
47.8278943165
 11
230.1115373884
 21
54.9513851522
  0
LINE
  5
573
100
AcDbEntity
  8
RUNDUNGEN
100
AcDbLine
 62
7
  6
CONTINUOUS
 10
233.8615373884
 20
92.9145109216
 11
233.8615373884
 21
79.3952817885
  0
LINE
  5
574
100
AcDbEntity
  8
RUNDUNGEN
100
AcDbLine
 62
7
  6
CONTINUOUS
 10
233.8615373884
 20
56.8359865465
 11
233.8615373884
 21
55.4106574046
  0
LINE
  5
575
100
AcDbEntity
  8
0
100
AcDbLine
 62
7
  6
CONTINUOUS
 10
233.8615373884
 20
139.3615005682
 11
233.8615373884
 21
151.0658810011
  0
LWPOLYLINE
  5
576
100
AcDbEntity
  8
0
100
AcDbPolyline
 62
7
  6
CONTINUOUS
 90
3
 70
0
 10
233.8615374195
 20
149.1547984491
 10
233.8953356019
 20
149.8880002773
 10
234.0179418424
 20
150.6728387699
  0
LWPOLYLINE
  5
577
100
AcDbEntity
  8
0
100
AcDbPolyline
 62
7
  6
CONTINUOUS
 90
40
 70
0
 10
236.2925325715
 20
139.9808395409
 10
236.2912546609
 20
139.9714822377
 10
236.294863276
 20
139.9837402649
 10
236.3094968346
 20
140.0195537517
 10
236.3387462442
 20
140.0752856566
 10
236.3879495741
 20
140.1534712995
 10
236.4680229114
 20
140.2624236305
 10
236.5713267241
 20
140.3844752622
 10
236.6819481786
 20
140.502012147
 10
236.8020141417
 20
140.6193551305
 10
236.9318382362
 20
140.7374550792
 10
237.0697944158
 20
140.8554787885
 10
237.2155233228
 20
140.9734653595
 10
237.3676219364
 20
141.0906047135
 10
237.5252497188
 20
141.2066483162
 10
237.6873336988
 20
141.3211150684
 10
237.8527472824
 20
141.433515394
 10
238.0214349191
 20
141.5441117114
 10
238.1931333439
 20
141.6529586346
 10
238.3676896599
 20
141.76013835
 10
238.5450786999
 20
141.8657914718
 10
238.7251023675
 20
141.9699288647
 10
238.9076250875
 20
142.0725779437
 10
239.0925403585
 20
142.1737666177
 10
239.2797737856
 20
142.2735288798
 10
239.4692545167
 20
142.3718886097
 10
239.6609166255
 20
142.4688612298
 10
239.8547204487
 20
142.5644635329
 10
240.0506345952
 20
142.6587067887
 10
240.248639033
 20
142.751600194
 10
240.4486742738
 20
142.8431278471
 10
240.6508456246
 20
142.9333383605
 10
240.8550715994
 20
143.0221852398
 10
241.061887122
 20
143.1098771195
 10
241.2716433819
 20
143.1965183617
 10
241.4848198288
 20
143.2822411661
 10
241.7018633749
 20
143.367131714
 10
241.9232262072
 20
143.4512498436
 10
242.1493561945
 20
143.5346251642
 10
242.3806841263
 20
143.6172507955
  0
LINE
  5
578
100
AcDbEntity
  8
0
100
AcDbLine
 62
2
  6
CONTINUOUS
 10
247.9115373884
 20
121.8993053586
 11
247.6517429514
 21
121.6395109216
  0
LINE
  5
579
100
AcDbEntity
  8
RUNDUNGEN
100
AcDbLine
 62
7
  6
CONTINUOUS
 10
243.8127660865
 20
67.2797804254
 11
243.8423221501
 21
67.1823485306
  0
LWPOLYLINE
  5
57A
100
AcDbEntity
  8
0
100
AcDbPolyline
 62
7
  6
CONTINUOUS
 90
3
 70
0
 10
223.704902098
 20
150.6738652776
 10
223.8276675282
 20
149.8887572232
 10
223.8615373628
 20
149.1548371357
  0
LINE
  5
57B
100
AcDbEntity
  8
0
100
AcDbLine
 62
7
  6
CONTINUOUS
 10
234.3615373884
 20
151.7189982332
 11
234.3615373884
 21
151.0718503624
  0
LINE
  5
57C
100
AcDbEntity
  8
0
100
AcDbLine
 62
7
  6
CONTINUOUS
 10
234.3615373884
 20
151.0557063452
 11
234.3615373884
 21
150.3082425936
  0
LINE
  5
57D
100
AcDbEntity
  8
0
100
AcDbLine
 62
7
  6
CONTINUOUS
 10
234.3615373884
 20
150.2935814416
 11
234.3615373884
 21
149.1655332703
  0
LINE
  5
57E
100
AcDbEntity
  8
0
100
AcDbLine
 62
7
  6
CONTINUOUS
 10
223.510479196
 20
151.3317923385
 11
223.704902098
 21
150.6738652776
  0
LINE
  5
57F
100
AcDbEntity
  8
RUNDUNGEN
100
AcDbLine
 62
7
  6
CONTINUOUS
 10
243.8426081822
 20
66.7467057561
 11
243.8615373884
 21
66.631857383
  0
LINE
  5
580
100
AcDbEntity
  8
RUNDUNGEN
100
AcDbLine
 62
7
  6
CONTINUOUS
 10
243.8423221501
 20
67.1823485306
 11
243.8615373884
 21
66.9872556322
  0
LWPOLYLINE
  5
581
100
AcDbEntity
  8
RUNDUNGEN
100
AcDbPolyline
 62
7
  6
CONTINUOUS
 90
5
 70
0
 10
222.011770026
 20
77.8412080836
 10
221.9337753358
 20
77.7489578336
 10
221.8101492027
 20
77.6114363103
 10
221.6865096058
 20
77.4852122081
 10
221.5929176157
 20
77.3976975555
  0
LINE
  5
582
100
AcDbEntity
  8
RUNDUNGEN
100
AcDbLine
 62
7
  6
CONTINUOUS
 10
235.1956192926
 20
95.8966061297
 11
235.1939478211
 21
95.8951102812
  0
LWPOLYLINE
  5
583
100
AcDbEntity
  8
RUNDUNGEN
100
AcDbPolyline
 62
7
  6
CONTINUOUS
 90
5
 70
0
 10
235.196231539
 20
95.8971509363
 10
235.2713267188
 20
95.963339814
 10
235.3974716747
 20
96.0697942136
 10
235.520149382
 20
96.1670368906
 10
235.6406870902
 20
96.2560893297
  0
LINE
  5
584
100
AcDbEntity
  8
RUNDUNGEN
100
AcDbLine
 62
7
  6
CONTINUOUS
 10
235.6406870902
 20
96.2560893297
 11
235.6634724521
 21
96.2721697582
  0
LINE
  5
585
100
AcDbEntity
  8
RUNDUNGEN
100
AcDbLine
 62
7
  6
CONTINUOUS
 10
235.6628481115
 20
96.2717237629
 11
235.7268716358
 21
96.3157363913
  0
LINE
  5
586
100
AcDbEntity
  8
RUNDUNGEN
100
AcDbLine
 62
7
  6
CONTINUOUS
 10
235.7268716358
 20
96.3157363913
 11
235.9302346141
 21
96.4444101741
  0
LINE
  5
587
100
AcDbEntity
  8
RUNDUNGEN
100
AcDbLine
 62
7
  6
CONTINUOUS
 10
235.9302346141
 20
96.4444101741
 11
236.1384632577
 21
96.5590453908
  0
LWPOLYLINE
  5
588
100
AcDbEntity
  8
RUNDUNGEN
100
AcDbPolyline
 62
7
  6
CONTINUOUS
 90
3
 70
0
 10
236.1384632577
 20
96.5590453908
 10
236.3511395913
 20
96.6588837049
 10
236.5678769635
 20
96.7432464239
  0
LINE
  5
589
100
AcDbEntity
  8
RUNDUNGEN
100
AcDbLine
 62
7
  6
CONTINUOUS
 10
236.5678769635
 20
96.7432464239
 11
236.6453170325
 21
96.7692218372
  0
LINE
  5
58A
100
AcDbEntity
  8
RUNDUNGEN
100
AcDbLine
 62
7
  6
CONTINUOUS
 10
236.6453170325
 20
96.7692218372
 11
236.6450970108
 21
96.7691510717
  0
LINE
  5
58B
100
AcDbEntity
  8
RUNDUNGEN
100
AcDbLine
 62
7
  6
CONTINUOUS
 10
236.6450376463
 20
96.7691580357
 11
236.7006713003
 21
96.7864971347
  0
LWPOLYLINE
  5
58C
100
AcDbEntity
  8
0
100
AcDbPolyline
 62
7
  6
CONTINUOUS
 90
4
 70
0
 10
214.030062218
 20
144.2862042964
 10
214.1544262756
 20
144.1346637614
 10
214.3059689173
 20
144.0102954215
 10
214.4788589075
 20
143.9178846275
  0
LINE
  5
58D
100
AcDbEntity
  8
0
100
AcDbLine
 62
7
  6
CONTINUOUS
 10
243.8423089521
 20
144.451888226
 11
243.8615373884
 21
144.2567297612
  0
LINE
  5
58E
100
AcDbEntity
  8
0
100
AcDbLine
 62
7
  6
CONTINUOUS
 10
243.8615373884
 20
158.2185723217
 11
243.8615373884
 21
157.7159632978
  0
LINE
  5
58F
100
AcDbEntity
  8
RUNDUNGEN
100
AcDbLine
 62
7
  6
CONTINUOUS
 10
243.8615373884
 20
165.8769567621
 11
243.8615373884
 21
157.7159632978
  0
LINE
  5
590
100
AcDbEntity
  8
RUNDUNGEN
100
AcDbLine
 62
7
  6
CONTINUOUS
 10
243.8615373884
 20
157.6828291964
 11
243.8615373884
 21
157.6734090072
  0
LINE
  5
591
100
AcDbEntity
  8
RUNDUNGEN
100
AcDbLine
 62
7
  6
CONTINUOUS
 10
243.8615373884
 20
153.9712172414
 11
243.8615373884
 21
144.841766211
  0
LINE
  5
592
100
AcDbEntity
  8
RUNDUNGEN
100
AcDbLine
 62
7
  6
CONTINUOUS
 10
243.8615373884
 20
144.2567297612
 11
243.8615373884
 21
138.6015429832
  0
LINE
  5
593
100
AcDbEntity
  8
RUNDUNGEN
100
AcDbLine
 62
7
  6
CONTINUOUS
 10
243.8615373884
 20
102.6645109216
 11
243.8615373884
 21
97.9145109216
  0
LINE
  5
594
100
AcDbEntity
  8
RUNDUNGEN
100
AcDbLine
 62
7
  6
CONTINUOUS
 10
243.8615373884
 20
73.2274788599
 11
243.8615373884
 21
67.5722920819
  0
LINE
  5
595
100
AcDbEntity
  8
RUNDUNGEN
100
AcDbLine
 62
7
  6
CONTINUOUS
 10
243.8615373884
 20
66.9872556322
 11
243.8615373884
 21
57.8578046017
  0
LINE
  5
596
100
AcDbEntity
  8
RUNDUNGEN
100
AcDbLine
 62
7
  6
CONTINUOUS
 10
243.8615373884
 20
54.1556102481
 11
243.8615373884
 21
45.952065081
  0
LINE
  5
597
100
AcDbEntity
  8
RUNDUNGEN
100
AcDbLine
 62
7
  6
CONTINUOUS
 10
221.59278793
 20
77.39758505
 11
221.592914486
 21
77.3976986301
  0
LINE
  5
598
100
AcDbEntity
  8
RUNDUNGEN
100
AcDbLine
 62
7
  6
CONTINUOUS
 10
221.5927892824
 20
77.397587855
 11
221.4597915211
 21
77.2804823939
  0
LINE
  5
599
100
AcDbEntity
  8
RUNDUNGEN
100
AcDbLine
 62
7
  6
CONTINUOUS
 10
221.4595573234
 20
77.2802884109
 11
221.1319972299
 21
77.0089744626
  0
LWPOLYLINE
  5
59A
100
AcDbEntity
  8
RUNDUNGEN
100
AcDbPolyline
 62
7
  6
CONTINUOUS
 90
5
 70
0
 10
221.1315055596
 20
77.0086013118
 10
220.801645135
 20
76.7582553227
 10
220.4713228382
 20
76.5287308055
 10
220.1435315412
 20
76.3204956133
 10
220.0597199078
 20
76.2702460221
  0
LINE
  5
59B
100
AcDbEntity
  8
0
100
AcDbLine
 62
7
  6
CONTINUOUS
 10
209.8115373884
 20
121.6395109216
 11
247.9115373884
 21
121.6395109216
  0
LINE
  5
59C
100
AcDbEntity
  8
RUNDUNGEN
100
AcDbLine
 62
7
  6
CONTINUOUS
 10
221.5929176181
 20
134.431324285
 11
221.5927919858
 21
134.4314370213
  0
LWPOLYLINE
  5
59D
100
AcDbEntity
  8
0
100
AcDbPolyline
 62
7
  6
CONTINUOUS
 90
4
 70
0
 10
221.5929176181
 20
134.431324285
 10
221.6865096072
 20
134.3438096338
 10
221.8101492034
 20
134.2175855322
 10
221.9259264621
 20
134.0887950844
  0
LINE
  5
59E
100
AcDbEntity
  8
RUNDUNGEN
100
AcDbLine
 62
7
  6
CONTINUOUS
 10
247.9115373884
 20
105.9145109216
 11
247.9115373884
 21
83.8941619475
  0
LINE
  5
59F
100
AcDbEntity
  8
0
100
AcDbLine
 62
7
  6
CONTINUOUS
 10
247.9115373884
 20
105.9145109222
 11
247.9115373884
 21
127.9348598956
  0
LWPOLYLINE
  5
5A0
100
AcDbEntity
  8
RUNDUNGEN
100
AcDbPolyline
 62
7
  6
CONTINUOUS
 90
4
 70
0
 10
214.0580595861
 20
66.9826013565
 10
214.0283004437
 20
66.960866447
 10
213.9366930268
 20
66.858205743
 10
213.8804665946
 20
66.7475978828
  0
LINE
  5
5A1
100
AcDbEntity
  8
RUNDUNGEN
100
AcDbLine
 62
7
  6
CONTINUOUS
 10
220.0597199078
 20
76.2702460221
 11
220.0598679068
 21
76.2703337933
  0
LINE
  5
5A2
100
AcDbEntity
  8
RUNDUNGEN
100
AcDbLine
 62
7
  6
CONTINUOUS
 10
220.0598779906
 20
76.270316897
 11
219.9374578754
 21
76.1990350405
  0
LINE
  5
5A3
100
AcDbEntity
  8
RUNDUNGEN
100
AcDbLine
 62
7
  6
CONTINUOUS
 10
219.9374252957
 20
76.1990266147
 11
219.5877404087
 21
76.0090453649
  0
LWPOLYLINE
  5
5A4
100
AcDbEntity
  8
RUNDUNGEN
100
AcDbPolyline
 62
7
  6
CONTINUOUS
 90
3
 70
0
 10
219.5877848499
 20
76.0090654202
 10
219.2465536923
 20
75.8427359884
 10
218.9165609303
 20
75.6996017889
  0
LINE
  5
5A5
100
AcDbEntity
  8
RUNDUNGEN
100
AcDbLine
 62
7
  6
CONTINUOUS
 10
220.0597208235
 20
135.5587752787
 11
220.0598688149
 21
135.558687512
  0
LWPOLYLINE
  5
5A6
100
AcDbEntity
  8
0
100
AcDbPolyline
 62
7
  6
CONTINUOUS
 90
7
 70
0
 10
220.0597208235
 20
135.5587752787
 10
220.1435324101
 20
135.5085257029
 10
220.4713236478
 20
135.3002905003
 10
220.8016458207
 20
135.0707660228
 10
221.1319977341
 20
134.8200469805
 10
221.4597917966
 20
134.5485392105
 10
221.5927892859
 20
134.4314339847
  0
LWPOLYLINE
  5
5A7
100
AcDbEntity
  8
0
100
AcDbPolyline
 62
7
  6
CONTINUOUS
 90
3
 70
0
 10
222.9638277927
 20
152.2898952635
 10
223.2598334829
 20
151.8682972639
 10
223.510479196
 20
151.3317923385
  0
LWPOLYLINE
  5
5A8
100
AcDbEntity
  8
RUNDUNGEN
100
AcDbPolyline
 62
7
  6
CONTINUOUS
 90
3
 70
0
 10
218.9165074572
 20
75.6995899853
 10
218.6002598151
 20
75.5788996797
 10
218.5402781661
 20
75.5578580929
  0
LINE
  5
5A9
100
AcDbEntity
  8
RUNDUNGEN
100
AcDbLine
 62
7
  6
CONTINUOUS
 10
218.540375173
 20
75.5579656017
 11
214.5347465967
 21
74.1728039875
  0
LINE
  5
5AA
100
AcDbEntity
  8
0
100
AcDbLine
 62
7
  6
CONTINUOUS
 10
212.6022679672
 20
130.9275520464
 11
216.2335404731
 21
131.181475356
  0
LINE
  5
5AB
100
AcDbEntity
  8
0
100
AcDbLine
 62
7
  6
CONTINUOUS
 10
241.4895343037
 20
131.181475356
 11
245.1208068096
 21
130.9275520464
  0
LINE
  5
5AC
100
AcDbEntity
  8
RUNDUNGEN
100
AcDbLine
 62
7
  6
CONTINUOUS
 10
218.5402777567
 20
136.2711641566
 11
218.5404014612
 21
136.271121362
  0
LINE
  5
5AD
100
AcDbEntity
  8
0
100
AcDbLine
 62
7
  6
CONTINUOUS
 10
214.5347625223
 20
137.6562123491
 11
218.5403785399
 21
136.271055077
  0
LWPOLYLINE
  5
5AE
100
AcDbEntity
  8
0
100
AcDbPolyline
 62
7
  6
CONTINUOUS
 90
7
 70
0
 10
218.5402777567
 20
136.2711641566
 10
218.600259396
 20
136.250122569
 10
218.916560647
 20
136.1294203798
 10
219.2465536347
 20
135.9862860401
 10
219.5877851062
 20
135.8199563965
 10
219.9374585255
 20
135.6299864865
 10
220.0598789166
 20
135.5587044383
  0
LINE
  5
5AF
100
AcDbEntity
  8
0
100
AcDbLine
 62
7
  6
CONTINUOUS
 10
243.8127660865
 20
144.5492414177
 11
243.8423089521
 21
144.451888226
  0
LINE
  5
5B0
100
AcDbEntity
  8
RUNDUNGEN
100
AcDbLine
 62
7
  6
CONTINUOUS
 10
214.5357680167
 20
143.8963169545
 11
214.5358148441
 21
143.8963008103
  0
LWPOLYLINE
  5
5B1
100
AcDbEntity
  8
0
100
AcDbPolyline
 62
7
  6
CONTINUOUS
 90
52
 70
0
 10
214.5349301401
 20
143.896606063
 10
215.3636813339
 20
143.6097586582
 10
215.5597053127
 20
143.539707762
 10
215.7492549204
 20
143.4701266869
 10
215.9334876018
 20
143.4007606172
 10
216.1137895001
 20
143.3312133513
 10
216.290677891
 20
143.2613764707
 10
216.4652370438
 20
143.1908863942
 10
216.6371650413
 20
143.1199157945
 10
216.80653974
 20
143.0484826915
 10
216.9733154165
 20
142.9766513694
 10
217.1374798278
 20
142.9044701728
 10
217.2990189407
 20
142.8319864802
 10
217.4579165425
 20
142.7592460074
 10
217.6141679407
 20
142.6862863623
 10
217.7677472395
 20
142.6131536638
 10
217.9187075069
 20
142.5398544279
 10
218.0670735631
 20
142.4664044072
 10
218.2128944083
 20
142.3928038209
 10
218.3562145004
 20
142.3190515935
 10
218.4970719567
 20
142.2451461008
 10
218.6355016644
 20
142.1710831711
 10
218.7715368221
 20
142.0968556864
 10
218.9052103061
 20
142.0224528963
 10
219.0365484041
 20
141.9478639637
 10
219.1655595921
 20
141.8730837888
 10
219.2922992871
 20
141.7980746842
 10
219.4168038728
 20
141.722803757
 10
219.5391132169
 20
141.6472315297
 10
219.6592492222
 20
141.5713217713
 10
219.7772371138
 20
141.4950258459
 10
219.8930925745
 20
141.4182906238
 10
220.006817092
 20
141.3410684841
 10
220.1183590356
 20
141.2633394926
 10
220.227744916
 20
141.1850093852
 10
220.3349181026
 20
141.1060195583
 10
220.4399626151
 20
141.0261972982
 10
220.5430605893
 20
140.9452684264
 10
220.6434481377
 20
140.8636590422
 10
220.7406030476
 20
140.7816045377
 10
220.8339381371
 20
140.6994446244
 10
220.9226387815
 20
140.6178309316
 10
221.0065233204
 20
140.5368037564
 10
221.0849902405
 20
140.4567187248
 10
221.1580238173
 20
140.3773842444
 10
221.2252005177
 20
140.2992005878
 10
221.2855730833
 20
140.2229724364
 10
221.338120708
 20
140.1493095052
 10
221.3802541987
 20
140.0820846414
 10
221.4108175193
 20
140.0250179295
 10
221.4275934756
 20
139.9861236381
 10
221.4312423558
 20
139.9748231119
  0
LINE
  5
5B2
100
AcDbEntity
  8
0
100
AcDbLine
 62
7
  6
CONTINUOUS
 10
214.4788589075
 20
143.9178846275
 11
214.5358148441
 21
143.8963008103
  0
LINE
  5
5B3
100
AcDbEntity
  8
RUNDUNGEN
100
AcDbLine
 62
7
  6
CONTINUOUS
 10
222.7077782265
 20
152.540131453
 11
222.7071909952
 21
152.5406094781
  0
LINE
  5
5B4
100
AcDbEntity
  8
0
100
AcDbLine
 62
7
  6
CONTINUOUS
 10
222.7071909952
 20
152.5406094781
 11
222.9638277927
 21
152.2898952635
  0
LWPOLYLINE
  5
5B5
100
AcDbEntity
  8
0
100
AcDbPolyline
 62
7
  6
CONTINUOUS
 90
6
 70
0
 10
221.1038944303
 20
140.1079361344
 10
220.9720914052
 20
140.0883016646
 10
220.8297283619
 20
140.0729592412
 10
220.677626694
 20
140.062084446
 10
220.5166834051
 20
140.0557543085
 10
220.3674963987
 20
140.0539467951
  0
LWPOLYLINE
  5
5B6
100
AcDbEntity
  8
RUNDUNGEN
100
AcDbPolyline
 62
7
  6
CONTINUOUS
 90
9
 70
0
 10
214.8615373884
 20
141.4200718753
 10
214.6649972367
 20
141.4039387874
 10
214.4765070123
 20
141.3569223451
 10
214.3033120619
 20
141.2805205272
 10
214.1520148115
 20
141.178177037
 10
214.0283004437
 20
141.0538346377
 10
213.9366930268
 20
140.9125121727
 10
213.8804665946
 20
140.7599836442
 10
213.8615373884
 20
140.6009703824
  0
LINE
  5
5B7
100
AcDbEntity
  8
RUNDUNGEN
100
AcDbLine
 62
7
  6
CONTINUOUS
 10
237.3554844267
 20
140.0539553551
 11
237.3559573283
 21
140.0539553538
  0
LINE
  5
5B8
100
AcDbEntity
  8
RUNDUNGEN
100
AcDbLine
 62
7
  6
CONTINUOUS
 10
220.3675512893
 20
140.0539553577
 11
220.3672269271
 21
140.0539553519
  0
LINE
  5
5B9
100
AcDbEntity
  8
RUNDUNGEN
100
AcDbLine
 62
7
  6
CONTINUOUS
 10
214.8615373884
 20
141.4200718753
 11
219.8904032265
 21
141.4200718753
  0
LINE
  5
5BA
100
AcDbEntity
  8
RUNDUNGEN
100
AcDbLine
 62
7
  6
CONTINUOUS
 10
237.8329631707
 20
141.4200718753
 11
242.8615373884
 21
141.4200718753
  0
LWPOLYLINE
  5
5BB
100
AcDbEntity
  8
0
100
AcDbPolyline
 62
7
  6
CONTINUOUS
 90
7
 70
0
 10
237.3559705512
 20
140.0539438383
 10
237.2618056711
 20
140.0546475855
 10
237.1383563463
 20
140.0578388678
 10
237.0196832078
 20
140.0635759641
 10
236.9059410769
 20
140.0718536947
 10
236.7969984049
 20
140.0827257054
 10
236.6924874287
 20
140.0963010204
  0
LWPOLYLINE
  5
5BC
100
AcDbEntity
  8
RUNDUNGEN
100
AcDbPolyline
 62
7
  6
CONTINUOUS
 90
9
 70
0
 10
242.8615373884
 20
141.4200718753
 10
243.0580775401
 20
141.4041968336
 10
243.2465677645
 20
141.3569223451
 10
243.4197627149
 20
141.2806020934
 10
243.5710599653
 20
141.178177037
 10
243.6947743331
 20
141.0538841174
 10
243.78638175
 20
140.9125121727
 10
243.8426081822
 20
140.7593354762
 10
243.8615373884
 20
140.6009703824
  0
LWPOLYLINE
  5
5BD
100
AcDbEntity
  8
0
100
AcDbPolyline
 62
7
  6
CONTINUOUS
 90
5
 70
0
 10
236.6924874287
 20
140.0963010204
 10
236.5938952563
 20
140.1124283251
 10
236.5023164839
 20
140.1309543169
 10
236.4195296485
 20
140.151436353
 10
236.3924265253
 20
140.1595628937
  0
LWPOLYLINE
  5
5BE
100
AcDbEntity
  8
0
100
AcDbPolyline
 62
7
  6
CONTINUOUS
 90
3
 70
0
 10
222.4650532415
 20
152.7072485612
 10
222.5181560514
 20
152.6757836679
 10
222.586109326
 20
152.6312539531
  0
LINE
  5
5BF
100
AcDbEntity
  8
0
100
AcDbLine
 62
7
  6
CONTINUOUS
 10
222.5908459281
 20
152.6281500624
 11
222.6609158961
 21
152.5771122801
  0
LINE
  5
5C0
100
AcDbEntity
  8
0
100
AcDbLine
 62
7
  6
CONTINUOUS
 10
222.6609158961
 20
152.5771122801
 11
222.7077747664
 21
152.5401274546
  0
LWPOLYLINE
  5
5C1
100
AcDbEntity
  8
RUNDUNGEN
100
AcDbPolyline
 62
7
  6
CONTINUOUS
 90
7
 70
0
 10
243.2445393025
 20
66.6485445332
 10
243.4173055796
 20
66.7409547782
 10
243.5687429515
 20
66.8652840964
 10
243.6929720936
 20
67.0166696122
 10
243.7853630093
 20
67.1894785214
 10
243.8423089521
 20
67.3771336171
 10
243.8615373884
 20
67.5722920819
  0
LINE
  5
5C2
100
AcDbEntity
  8
RUNDUNGEN
100
AcDbLine
 62
7
  6
CONTINUOUS
 10
218.1106446006
 20
56.8578046017
 11
214.4221466044
 21
55.0538410524
  0
LINE
  5
5C3
100
AcDbEntity
  8
0
100
AcDbLine
 62
7
  6
CONTINUOUS
 10
221.9905971739
 20
153.2281382188
 11
222.738279682
 21
152.8634690937
  0
LWPOLYLINE
  5
5C4
100
AcDbEntity
  8
0
100
AcDbPolyline
 62
7
  6
CONTINUOUS
 90
4
 70
0
 10
214.4221465992
 20
156.7751807932
 10
218.6198492981
 20
154.7202322776
 10
219.1375704868
 20
154.4622128101
 10
219.6503062616
 20
154.2037363453
  0
LINE
  5
5C5
100
AcDbEntity
  8
0
100
AcDbLine
 62
7
  6
CONTINUOUS
 10
219.6503062616
 20
154.2037363453
 11
220.3143449626
 21
153.8639930803
  0
LINE
  5
5C6
100
AcDbEntity
  8
RUNDUNGEN
100
AcDbLine
 62
7
  6
CONTINUOUS
 10
220.3146785763
 20
153.8637794476
 11
220.3143280317
 21
153.8639603862
  0
LWPOLYLINE
  5
5C7
100
AcDbEntity
  8
0
100
AcDbPolyline
 62
7
  6
CONTINUOUS
 90
4
 70
0
 10
220.3146785763
 20
153.8637794476
 10
220.9534872252
 20
153.5306147833
 10
221.4246344727
 20
153.2800526539
 10
221.8769539816
 20
153.0347759425
  0
LINE
  5
5C8
100
AcDbEntity
  8
0
100
AcDbLine
 62
7
  6
CONTINUOUS
 10
221.8769539816
 20
153.0347759425
 11
222.3082209617
 21
152.7956811289
  0
LINE
  5
5C9
100
AcDbEntity
  8
0
100
AcDbLine
 62
7
  6
CONTINUOUS
 10
222.3082209617
 20
152.7956811289
 11
222.4645251889
 21
152.7075484797
  0
LINE
  5
5CA
100
AcDbEntity
  8
RUNDUNGEN
100
AcDbLine
 62
7
  6
CONTINUOUS
 10
222.4650532415
 20
152.7072485612
 11
222.4645249808
 21
152.707548113
  0
LINE
  5
5CB
100
AcDbEntity
  8
0
100
AcDbLine
 62
7
  6
CONTINUOUS
 10
233.8615373884
 20
149.1655332703
 11
234.3615373884
 21
149.1655332703
  0
LINE
  5
5CC
100
AcDbEntity
  8
0
100
AcDbLine
 62
7
  6
CONTINUOUS
 10
233.8615373884
 20
149.2447874786
 11
234.3615373884
 21
149.2447874786
  0
LINE
  5
5CD
100
AcDbEntity
  8
0
100
AcDbLine
 62
7
  6
CONTINUOUS
 10
233.8615373884
 20
149.4285043208
 11
234.3615373884
 21
149.4285043208
  0
LINE
  5
5CE
100
AcDbEntity
  8
0
100
AcDbLine
 62
7
  6
CONTINUOUS
 10
233.8615373884
 20
149.4934958075
 11
234.3615373884
 21
149.4934958075
  0
LINE
  5
5CF
100
AcDbEntity
  8
0
100
AcDbLine
 62
7
  6
CONTINUOUS
 10
233.885088907
 20
149.6657133121
 11
234.3615373884
 21
149.6657133121
  0
LINE
  5
5D0
100
AcDbEntity
  8
0
100
AcDbLine
 62
7
  6
CONTINUOUS
 10
233.8894313789
 20
149.7599168488
 11
234.3615373884
 21
149.7599168488
  0
LINE
  5
5D1
100
AcDbEntity
  8
0
100
AcDbLine
 62
7
  6
CONTINUOUS
 10
233.8907418234
 20
149.7883450146
 11
234.3615373884
 21
149.7883450146
  0
LINE
  5
5D2
100
AcDbEntity
  8
0
100
AcDbLine
 62
7
  6
CONTINUOUS
 10
233.8936533164
 20
149.8515055704
 11
234.3615373884
 21
149.8515055704
  0
LINE
  5
5D3
100
AcDbEntity
  8
0
100
AcDbLine
 62
7
  6
CONTINUOUS
 10
233.9049270483
 20
149.9493979379
 11
234.3615373884
 21
149.9493979379
  0
LINE
  5
5D4
100
AcDbEntity
  8
0
100
AcDbLine
 62
7
  6
CONTINUOUS
 10
233.9310714102
 20
150.1167556638
 11
234.3615373884
 21
150.1167556638
  0
LINE
  5
5D5
100
AcDbEntity
  8
0
100
AcDbLine
 62
7
  6
CONTINUOUS
 10
233.9586948564
 20
150.2935814416
 11
234.3615373884
 21
150.2935814416
  0
LINE
  5
5D6
100
AcDbEntity
  8
0
100
AcDbLine
 62
7
  6
CONTINUOUS
 10
233.9609851986
 20
150.3082425936
 11
234.3615373884
 21
150.3082425936
  0
LINE
  5
5D7
100
AcDbEntity
  8
0
100
AcDbLine
 62
7
  6
CONTINUOUS
 10
233.9649068566
 20
150.3333462767
 11
234.3615373884
 21
150.3333462767
  0
LINE
  5
5D8
100
AcDbEntity
  8
0
100
AcDbLine
 62
7
  6
CONTINUOUS
 10
233.9799715001
 20
150.429779476
 11
234.3615373884
 21
150.429779476
  0
LINE
  5
5D9
100
AcDbEntity
  8
0
100
AcDbLine
 62
7
  6
CONTINUOUS
 10
233.9948805816
 20
150.5252168783
 11
234.3615373884
 21
150.5252168783
  0
LINE
  5
5DA
100
AcDbEntity
  8
0
100
AcDbLine
 62
7
  6
CONTINUOUS
 10
234.0233012056
 20
150.6909879998
 11
234.3615373884
 21
150.6909879998
  0
LINE
  5
5DB
100
AcDbEntity
  8
0
100
AcDbLine
 62
7
  6
CONTINUOUS
 10
234.0859026118
 20
150.9029847002
 11
234.3615373884
 21
150.9029847002
  0
LINE
  5
5DC
100
AcDbEntity
  8
0
100
AcDbLine
 62
7
  6
CONTINUOUS
 10
234.1310004351
 20
151.0557063452
 11
234.3615373884
 21
151.0557063452
  0
LINE
  5
5DD
100
AcDbEntity
  8
0
100
AcDbLine
 62
7
  6
CONTINUOUS
 10
234.1571247566
 20
151.144175124
 11
234.3615373884
 21
151.144175124
  0
LINE
  5
5DE
100
AcDbEntity
  8
0
100
AcDbLine
 62
7
  6
CONTINUOUS
 10
234.1817474116
 20
151.2275585802
 11
234.3615373884
 21
151.2275585802
  0
LINE
  5
5DF
100
AcDbEntity
  8
0
100
AcDbLine
 62
7
  6
CONTINUOUS
 10
234.2193546763
 20
151.3461088929
 11
234.3615373884
 21
151.3461088929
  0
LINE
  5
5E0
100
AcDbEntity
  8
0
100
AcDbLine
 62
7
  6
CONTINUOUS
 10
234.236833335
 20
151.3835404221
 11
234.3615373884
 21
151.3835404221
  0
LINE
  5
5E1
100
AcDbEntity
  8
0
100
AcDbLine
 62
7
  6
CONTINUOUS
 10
234.2453081674
 20
151.4016897516
 11
234.3615373884
 21
151.4016897516
  0
LINE
  5
5E2
100
AcDbEntity
  8
0
100
AcDbLine
 62
7
  6
CONTINUOUS
 10
234.2756526163
 20
151.4666740928
 11
234.3615373884
 21
151.4666740928
  0
LINE
  5
5E3
100
AcDbEntity
  8
0
100
AcDbLine
 62
7
  6
CONTINUOUS
 10
234.3177519039
 20
151.5568320814
 11
234.3615373884
 21
151.5568320814
  0
LINE
  5
5E4
100
AcDbEntity
  8
0
100
AcDbLine
 62
7
  6
CONTINUOUS
 10
242.8615373884
 20
154.9712172414
 11
239.6124245092
 21
154.9712172414
  0
LINE
  5
5E5
100
AcDbEntity
  8
0
100
AcDbLine
 62
7
  6
CONTINUOUS
 10
218.1106453651
 20
154.9712172414
 11
214.8615373884
 21
154.9712172414
  0
LINE
  5
5E6
100
AcDbEntity
  8
0
100
AcDbLine
 62
7
  6
CONTINUOUS
 10
222.428867219
 20
155.1269567621
 11
235.294371924
 21
155.1269567621
  0
LWPOLYLINE
  5
5E7
100
AcDbEntity
  8
RUNDUNGEN
100
AcDbPolyline
 62
7
  6
CONTINUOUS
 90
7
 70
0
 10
229.4942209116
 20
46.9040148216
 10
229.6671076798
 20
46.9964247431
 10
229.8186442
 20
47.1207875657
 10
229.9430069925
 20
47.2723240712
 10
230.0354169066
 20
47.4452108495
 10
230.0923226652
 20
47.6328039764
 10
230.1115373884
 20
47.8278943165
  0
LWPOLYLINE
  5
5E8
100
AcDbEntity
  8
RUNDUNGEN
100
AcDbPolyline
 62
7
  6
CONTINUOUS
 90
9
 70
0
 10
214.8615373884
 20
158.3769567621
 10
214.6649972367
 20
158.3736453532
 10
214.4765070123
 20
158.3647459395
 10
214.3033120619
 20
158.3499119622
 10
214.1520148115
 20
158.3301830974
 10
214.0283004437
 20
158.3061030114
 10
213.9366930268
 20
158.2788131741
 10
213.8804665946
 20
158.2498016141
 10
213.8615373884
 20
158.2185723217
  0
LINE
  5
5E9
100
AcDbEntity
  8
RUNDUNGEN
100
AcDbLine
 62
7
  6
CONTINUOUS
 10
214.8615373884
 20
158.3769567621
 11
242.8615373884
 21
158.3769567621
  0
LWPOLYLINE
  5
5EA
100
AcDbEntity
  8
RUNDUNGEN
100
AcDbPolyline
 62
7
  6
CONTINUOUS
 90
9
 70
0
 10
242.8615373884
 20
158.3769567621
 10
243.0580775401
 20
158.3740789627
 10
243.2465677645
 20
158.3647459395
 10
243.4197627149
 20
158.3500490226
 10
243.5710599653
 20
158.3301830974
 10
243.6947743331
 20
158.3061861549
 10
243.78638175
 20
158.2788131741
 10
243.8426081822
 20
158.2487124613
 10
243.8615373884
 20
158.2185723217
  0
LINE
  5
5EB
100
AcDbEntity
  8
RUNDUNGEN
100
AcDbLine
 62
7
  6
CONTINUOUS
 10
214.8615373884
 20
166.8769567621
 11
242.8615373884
 21
166.8769567621
  0
ARC
  5
5EC
100
AcDbEntity
  8
RUNDUNGEN
100
AcDbCircle
 62
7
  6
CONTINUOUS
 10
67.2749608439
 20
52.3853914049
 40
3.9999867763
100
AcDbArc
 50
88.0024125052
 51
101.7813552181
  0
ARC
  5
5ED
100
AcDbEntity
  8
RUNDUNGEN
100
AcDbCircle
 62
7
  6
CONTINUOUS
 10
48.8902180311
 20
70.7702012138
 40
3.9999727644
100
AcDbArc
 50
348.2182371978
 51
1.9930749707
  0
ARC
  5
5EE
100
AcDbEntity
  8
RUNDUNGEN
100
AcDbCircle
 62
7
  6
CONTINUOUS
 10
66.0298596195
 20
69.5250664913
 40
2.25
100
AcDbArc
 50
314.9971331545
 51
135.0024985962
  0
ARC
  5
5EF
100
AcDbEntity
  8
RUNDUNGEN
100
AcDbCircle
 62
7
  6
CONTINUOUS
 10
64.0770852101
 20
59.4570256205
 40
1.0
100
AcDbArc
 50
153.0
 51
225.0
  0
ARC
  5
5F0
100
AcDbEntity
  8
RUNDUNGEN
100
AcDbCircle
 62
7
  6
CONTINUOUS
 10
55.9618187487
 20
67.5722920819
 40
1.0
100
AcDbArc
 50
225.0
 51
297.0
  0
ARC
  5
5F1
100
AcDbEntity
  8
RUNDUNGEN
100
AcDbCircle
 62
7
  6
CONTINUOUS
 10
66.2540676662
 20
57.2800431644
 40
1.0
100
AcDbArc
 50
225.0000740563
 51
281.7817683465
  0
ARC
  5
5F2
100
AcDbEntity
  8
RUNDUNGEN
100
AcDbCircle
 62
7
  6
CONTINUOUS
 10
65.6763062289
 20
57.8578046017
 40
1.0
100
AcDbArc
 50
224.9973191992
 51
315.0009123973
  0
ARC
  5
5F3
100
AcDbEntity
  8
RUNDUNGEN
100
AcDbCircle
 62
7
  6
CONTINUOUS
 10
53.7848420354
 20
69.7492687952
 40
1.0
100
AcDbArc
 50
168.2172569572
 51
225.0000388372
  0
ARC
  5
5F4
100
AcDbEntity
  8
RUNDUNGEN
100
AcDbCircle
 62
7
  6
CONTINUOUS
 10
54.3625977299
 20
69.1715131007
 40
1.0
100
AcDbArc
 50
135.0
 51
225.0
  0
ARC
  5
5F5
100
AcDbEntity
  8
RUNDUNGEN
100
AcDbCircle
 62
7
  6
CONTINUOUS
 10
44.3326874446
 20
85.1014231322
 40
1.0
100
AcDbArc
 50
157.8004737378
 51
202.5
  0
ARC
  5
5F6
100
AcDbEntity
  8
RUNDUNGEN
100
AcDbCircle
 62
7
  6
CONTINUOUS
 10
39.7176972474
 20
92.9145109216
 40
3.9999867763
100
AcDbArc
 50
43.0024125052
 51
56.7813552188
  0
ARC
  5
5F7
100
AcDbEntity
  8
RUNDUNGEN
100
AcDbCircle
 62
7
  6
CONTINUOUS
 10
43.7242961679
 20
91.5505836461
 40
2.0000000134
100
AcDbArc
 50
338.6346938179
 51
43.00114801
  0
ARC
  5
5F8
100
AcDbEntity
  8
RUNDUNGEN
100
AcDbCircle
 62
7
  6
CONTINUOUS
 10
42.4568582092
 20
100.1761509756
 40
1.0
100
AcDbArc
 50
108.0
 51
180.0
  0
ARC
  5
5F9
100
AcDbEntity
  8
RUNDUNGEN
100
AcDbCircle
 62
7
  6
CONTINUOUS
 10
42.4568582092
 20
97.0974328608
 40
1.0
100
AcDbArc
 50
180.0000740387
 51
236.7817683368
  0
ARC
  5
5FA
100
AcDbEntity
  8
RUNDUNGEN
100
AcDbCircle
 62
7
  6
CONTINUOUS
 10
42.4568582092
 20
97.9145109216
 40
1.0
100
AcDbArc
 50
179.9973191992
 51
270.0009123972
  0
ARC
  5
5FB
100
AcDbEntity
  8
RUNDUNGEN
100
AcDbCircle
 62
7
  6
CONTINUOUS
 10
50.7588355736
 20
74.5677032075
 40
2.0000000135
100
AcDbArc
 50
1.99885199
 51
66.2562440589
  0
ARC
  5
5FC
100
AcDbEntity
  8
RUNDUNGEN
100
AcDbCircle
 62
7
  6
CONTINUOUS
 10
46.6287880388
 20
79.5581459372
 40
1.0
100
AcDbArc
 50
202.5
 51
247.1995262622
  0
ARC
  5
5FD
100
AcDbEntity
  8
RUNDUNGEN
100
AcDbCircle
 62
7
  6
CONTINUOUS
 10
81.6062162604
 20
47.8278943165
 40
1.0
100
AcDbArc
 50
247.5
 51
292.1995262622
  0
ARC
  5
5FE
100
AcDbEntity
  8
RUNDUNGEN
100
AcDbCircle
 62
7
  6
CONTINUOUS
 10
71.0724963356
 20
54.2540424455
 40
2.0000000134
100
AcDbArc
 50
23.6346938198
 51
88.00114801
  0
ARC
  5
5FF
100
AcDbEntity
  8
RUNDUNGEN
100
AcDbCircle
 62
7
  6
CONTINUOUS
 10
76.0629390654
 20
50.1239949106
 40
1.0
100
AcDbArc
 50
202.8004737378
 51
247.5
  0
ARC
  5
600
100
AcDbEntity
  8
RUNDUNGEN
100
AcDbCircle
 62
7
  6
CONTINUOUS
 10
89.4193040497
 20
43.2129516277
 40
3.9999726822
100
AcDbArc
 50
33.2182361801
 51
46.9932047535
  0
ARC
  5
601
100
AcDbEntity
  8
RUNDUNGEN
100
AcDbCircle
 62
7
  6
CONTINUOUS
 10
88.0553767742
 20
47.2195030396
 40
2.0000000135
100
AcDbArc
 50
46.99885199
 51
111.2562462473
  0
ARC
  5
602
100
AcDbEntity
  8
RUNDUNGEN
100
AcDbCircle
 62
7
  6
CONTINUOUS
 10
96.6809441038
 20
45.952065081
 40
1.0
100
AcDbArc
 50
270.0
 51
342.0
  0
ARC
  5
603
100
AcDbEntity
  8
RUNDUNGEN
100
AcDbCircle
 62
7
  6
CONTINUOUS
 10
93.6022341138
 20
45.952065081
 40
1.0
100
AcDbArc
 50
213.2172522447
 51
270.0000814067
  0
ARC
  5
604
100
AcDbEntity
  8
RUNDUNGEN
100
AcDbCircle
 62
7
  6
CONTINUOUS
 10
94.4193040497
 20
45.952065081
 40
1.0
100
AcDbArc
 50
180.0
 51
270.0
  0
ARC
  5
605
100
AcDbEntity
  8
RUNDUNGEN
100
AcDbCircle
 62
7
  6
CONTINUOUS
 10
73.2986661134
 20
87.7145109216
 40
8.1999997799
100
AcDbArc
 50
32.0048190877
 51
89.6696357942
  0
ARC
  5
606
100
AcDbEntity
  8
RUNDUNGEN
100
AcDbCircle
 62
7
  6
CONTINUOUS
 10
84.2193040497
 20
76.7938729859
 40
8.1999997795
100
AcDbArc
 50
0.3304129003
 51
57.9951809116
  0
ARC
  5
607
100
AcDbEntity
  8
RUNDUNGEN
100
AcDbCircle
 62
7
  6
CONTINUOUS
 10
87.4193040497
 20
75.4440706971
 40
5.0
100
AcDbArc
 50
243.7898814287
 51
360.0
  0
ARC
  5
608
100
AcDbEntity
  8
RUNDUNGEN
100
AcDbCircle
 62
7
  6
CONTINUOUS
 10
71.9488638253
 20
90.9145109216
 40
5.0
100
AcDbArc
 50
90.0
 51
206.2101185713
  0
ARC
  5
609
100
AcDbEntity
  8
RUNDUNGEN
100
AcDbCircle
 62
7
  6
CONTINUOUS
 10
39.7177446208
 20
118.9145109216
 40
3.9999727644
100
AcDbArc
 50
303.2182371846
 51
316.9930749707
  0
ARC
  5
60A
100
AcDbEntity
  8
RUNDUNGEN
100
AcDbCircle
 62
7
  6
CONTINUOUS
 10
43.7242961678
 20
120.2784381971
 40
2.0000000135
100
AcDbArc
 50
316.99885199
 51
21.2562462464
  0
ARC
  5
60B
100
AcDbEntity
  8
RUNDUNGEN
100
AcDbCircle
 62
7
  6
CONTINUOUS
 10
42.4568582092
 20
111.6528708675
 40
1.0
100
AcDbArc
 50
180.0
 51
252.0
  0
ARC
  5
60C
100
AcDbEntity
  8
RUNDUNGEN
100
AcDbCircle
 62
7
  6
CONTINUOUS
 10
42.4568582092
 20
114.7315808597
 40
1.0
100
AcDbArc
 50
123.2172551583
 51
180.0000817711
  0
ARC
  5
60D
100
AcDbEntity
  8
RUNDUNGEN
100
AcDbCircle
 62
7
  6
CONTINUOUS
 10
42.4568582092
 20
113.9145109216
 40
1.0
100
AcDbArc
 50
90.0
 51
180.0
  0
ARC
  5
60E
100
AcDbEntity
  8
RUNDUNGEN
100
AcDbCircle
 62
7
  6
CONTINUOUS
 10
44.3326874446
 20
126.7275987109
 40
1.0
100
AcDbArc
 50
157.5
 51
202.1995262622
  0
ARC
  5
60F
100
AcDbEntity
  8
RUNDUNGEN
100
AcDbCircle
 62
7
  6
CONTINUOUS
 10
50.9568582092
 20
105.9145109216
 40
2.25
100
AcDbArc
 50
269.9973737934
 51
90.0030799815
  0
ARC
  5
610
100
AcDbEntity
  8
RUNDUNGEN
100
AcDbCircle
 62
7
  6
CONTINUOUS
 10
50.7588355737
 20
137.2613186357
 40
2.0000000134
100
AcDbArc
 50
293.6346938208
 51
358.00114801
  0
ARC
  5
611
100
AcDbEntity
  8
RUNDUNGEN
100
AcDbCircle
 62
7
  6
CONTINUOUS
 10
46.6287880388
 20
132.2708759059
 40
1.0
100
AcDbArc
 50
112.8004737378
 51
157.5
  0
ARC
  5
612
100
AcDbEntity
  8
RUNDUNGEN
100
AcDbCircle
 62
7
  6
CONTINUOUS
 10
48.8901845331
 20
141.0588541274
 40
3.9999867763
100
AcDbArc
 50
358.0024125052
 51
11.7813552189
  0
ARC
  5
613
100
AcDbEntity
  8
RUNDUNGEN
100
AcDbCircle
 62
7
  6
CONTINUOUS
 10
67.2749802607
 20
159.4436110215
 40
3.9999789997
100
AcDbArc
 50
258.2183982089
 51
271.9968484604
  0
ARC
  5
614
100
AcDbEntity
  8
RUNDUNGEN
100
AcDbCircle
 62
7
  6
CONTINUOUS
 10
66.0298596195
 20
142.3039553518
 40
2.25
100
AcDbArc
 50
224.997150894
 51
45.0024965154
  0
ARC
  5
615
100
AcDbEntity
  8
RUNDUNGEN
100
AcDbCircle
 62
7
  6
CONTINUOUS
 10
55.9618187487
 20
144.2567297612
 40
1.0
100
AcDbArc
 50
63.0
 51
135.0
  0
ARC
  5
616
100
AcDbEntity
  8
RUNDUNGEN
100
AcDbCircle
 62
7
  6
CONTINUOUS
 10
64.0770852101
 20
152.3719962226
 40
1.0
100
AcDbArc
 50
135.0
 51
207.0
  0
ARC
  5
617
100
AcDbEntity
  8
RUNDUNGEN
100
AcDbCircle
 62
7
  6
CONTINUOUS
 10
54.3626637605
 20
142.657574773
 40
1.0
100
AcDbArc
 50
135.0026287652
 51
225.0009123972
  0
ARC
  5
618
100
AcDbEntity
  8
RUNDUNGEN
100
AcDbCircle
 62
7
  6
CONTINUOUS
 10
53.7848362926
 20
142.0797473051
 40
1.0
100
AcDbArc
 50
135.0000740556
 51
191.7817683461
  0
ARC
  5
619
100
AcDbEntity
  8
RUNDUNGEN
100
AcDbCircle
 62
7
  6
CONTINUOUS
 10
66.254063806
 20
154.5489748185
 40
1.0
100
AcDbArc
 50
78.2176032049
 51
135.0000906389
  0
ARC
  5
61A
100
AcDbEntity
  8
RUNDUNGEN
100
AcDbCircle
 62
7
  6
CONTINUOUS
 10
65.6763062289
 20
153.9712172414
 40
1.0
100
AcDbArc
 50
45.0
 51
135.0
  0
ARC
  5
61B
100
AcDbEntity
  8
RUNDUNGEN
100
AcDbCircle
 62
7
  6
CONTINUOUS
 10
84.2193040497
 20
135.0351488579
 40
8.1999997799
100
AcDbArc
 50
302.0048190877
 51
359.6695870565
  0
ARC
  5
61C
100
AcDbEntity
  8
RUNDUNGEN
100
AcDbCircle
 62
7
  6
CONTINUOUS
 10
73.2986661141
 20
124.1145109216
 40
8.1999997795
100
AcDbArc
 50
270.330362766
 51
327.9951809116
  0
ARC
  5
61D
100
AcDbEntity
  8
RUNDUNGEN
100
AcDbCircle
 62
7
  6
CONTINUOUS
 10
71.9488638253
 20
120.9145109216
 40
5.0
100
AcDbArc
 50
153.7898814287
 51
270.0
  0
ARC
  5
61E
100
AcDbEntity
  8
RUNDUNGEN
100
AcDbCircle
 62
7
  6
CONTINUOUS
 10
87.4193040497
 20
136.384951146
 40
5.0
100
AcDbArc
 50
0.0
 51
116.2101185713
  0
ARC
  5
61F
100
AcDbEntity
  8
0
100
AcDbCircle
 62
7
  6
CONTINUOUS
 10
99.0443040497
 20
118.365188614
 40
0.2
100
AcDbArc
 50
285.1666783324
 51
360.0
  0
ARC
  5
620
100
AcDbEntity
  8
RUNDUNGEN
100
AcDbCircle
 62
7
  6
CONTINUOUS
 10
71.0724963358
 20
157.574979398
 40
2.0000000135
100
AcDbArc
 50
271.99885199
 51
336.2567971189
  0
ARC
  5
621
100
AcDbEntity
  8
RUNDUNGEN
100
AcDbCircle
 62
7
  6
CONTINUOUS
 10
76.0629390654
 20
161.7050269325
 40
1.0
100
AcDbArc
 50
112.5
 51
157.1995262622
  0
ARC
  5
622
100
AcDbEntity
  8
RUNDUNGEN
100
AcDbCircle
 62
7
  6
CONTINUOUS
 10
81.6062162604
 20
164.0011275267
 40
1.0
100
AcDbArc
 50
67.8004737378
 51
112.5
  0
ARC
  5
623
100
AcDbEntity
  8
RUNDUNGEN
100
AcDbCircle
 62
7
  6
CONTINUOUS
 10
89.4193040497
 20
168.6160479186
 40
3.9999640353
100
AcDbArc
 50
313.0015222116
 51
326.7819792969
  0
ARC
  5
624
100
AcDbEntity
  8
RUNDUNGEN
100
AcDbCircle
 62
7
  6
CONTINUOUS
 10
88.0553767739
 20
164.6095188036
 40
2.0000000135
100
AcDbArc
 50
248.6350548137
 51
313.00114801
  0
ARC
  5
625
100
AcDbEntity
  8
RUNDUNGEN
100
AcDbCircle
 62
7
  6
CONTINUOUS
 10
96.6809441038
 20
165.8769567621
 40
1.0
100
AcDbArc
 50
18.0000034279
 51
90.0000000726
  0
ARC
  5
626
100
AcDbEntity
  8
RUNDUNGEN
100
AcDbCircle
 62
7
  6
CONTINUOUS
 10
94.4193239091
 20
165.8769567621
 40
1.0
100
AcDbArc
 50
90.0
 51
179.9984290177
  0
ARC
  5
627
100
AcDbEntity
  8
RUNDUNGEN
100
AcDbCircle
 62
7
  6
CONTINUOUS
 10
93.6022260635
 20
165.8769567621
 40
1.0
100
AcDbArc
 50
89.9997605726
 51
146.7818879046
  0
ARC
  5
628
100
AcDbEntity
  8
RUNDUNGEN
100
AcDbCircle
 62
7
  6
CONTINUOUS
 10
115.4193040497
 20
43.2129045527
 40
3.9999866337
100
AcDbArc
 50
133.0023692406
 51
146.78135884
  0
ARC
  5
629
100
AcDbEntity
  8
RUNDUNGEN
100
AcDbCircle
 62
7
  6
CONTINUOUS
 10
116.7832313252
 20
47.2195030397
 40
2.0000000134
100
AcDbArc
 50
68.6346938255
 51
133.00114801
  0
ARC
  5
62A
100
AcDbEntity
  8
RUNDUNGEN
100
AcDbCircle
 62
7
  6
CONTINUOUS
 10
108.1576639957
 20
45.952065081
 40
1.0
100
AcDbArc
 50
198.0
 51
270.0
  0
ARC
  5
62B
100
AcDbEntity
  8
RUNDUNGEN
100
AcDbCircle
 62
7
  6
CONTINUOUS
 10
111.2363820271
 20
45.952065081
 40
1.0
100
AcDbArc
 50
270.0000743535
 51
326.7817783383
  0
ARC
  5
62C
100
AcDbEntity
  8
RUNDUNGEN
100
AcDbCircle
 62
7
  6
CONTINUOUS
 10
110.4193040497
 20
45.952065081
 40
1.0
100
AcDbArc
 50
269.9973138447
 51
360.0
  0
ARC
  5
62D
100
AcDbEntity
  8
RUNDUNGEN
100
AcDbCircle
 62
7
  6
CONTINUOUS
 10
102.4193040497
 20
54.452065081
 40
2.25
100
AcDbArc
 50
359.9972335608
 51
180.0023965039
  0
ARC
  5
62E
100
AcDbEntity
  8
RUNDUNGEN
100
AcDbCircle
 62
7
  6
CONTINUOUS
 10
123.2323918391
 20
47.8278943165
 40
1.0
100
AcDbArc
 50
247.8004737378
 51
292.5
  0
ARC
  5
62F
100
AcDbEntity
  8
RUNDUNGEN
100
AcDbCircle
 62
7
  6
CONTINUOUS
 10
133.7661117638
 20
54.2540424454
 40
2.0000000135
100
AcDbArc
 50
91.99885199
 51
156.2562440543
  0
ARC
  5
630
100
AcDbEntity
  8
RUNDUNGEN
100
AcDbCircle
 62
7
  6
CONTINUOUS
 10
128.7756690341
 20
50.1239949106
 40
1.0
100
AcDbArc
 50
292.5
 51
337.1995262622
  0
ARC
  5
631
100
AcDbEntity
  8
RUNDUNGEN
100
AcDbCircle
 62
7
  6
CONTINUOUS
 10
120.6193040497
 20
76.7938729852
 40
8.1999997799
100
AcDbArc
 50
122.0048190877
 51
179.6695870565
  0
ARC
  5
632
100
AcDbEntity
  8
RUNDUNGEN
100
AcDbCircle
 62
7
  6
CONTINUOUS
 10
131.5399419854
 20
87.7145109216
 40
8.1999997795
100
AcDbArc
 50
90.330362766
 51
147.9951809116
  0
ARC
  5
633
100
AcDbEntity
  8
RUNDUNGEN
100
AcDbCircle
 62
7
  6
CONTINUOUS
 10
132.8897442742
 20
90.9145109216
 40
5.0
100
AcDbArc
 50
333.7898814287
 51
90.0
  0
ARC
  5
634
100
AcDbEntity
  8
RUNDUNGEN
100
AcDbCircle
 62
7
  6
CONTINUOUS
 10
117.4193040497
 20
75.4440706971
 40
5.0
100
AcDbArc
 50
180.0
 51
296.2101185713
  0
ARC
  5
635
100
AcDbEntity
  8
RUNDUNGEN
100
AcDbCircle
 62
7
  6
CONTINUOUS
 10
155.9484232599
 20
70.7701680222
 40
3.9999866337
100
AcDbArc
 50
178.0023692406
 51
191.78135884
  0
ARC
  5
636
100
AcDbEntity
  8
RUNDUNGEN
100
AcDbCircle
 62
7
  6
CONTINUOUS
 10
137.563613662
 20
52.3854249984
 40
3.9999726822
100
AcDbArc
 50
78.2182361136
 51
91.9932047535
  0
ARC
  5
637
100
AcDbEntity
  8
RUNDUNGEN
100
AcDbCircle
 62
7
  6
CONTINUOUS
 10
138.80874848
 20
69.5250664913
 40
2.25
100
AcDbArc
 50
44.9971270304
 51
225.0024848537
  0
ARC
  5
638
100
AcDbEntity
  8
RUNDUNGEN
100
AcDbCircle
 62
7
  6
CONTINUOUS
 10
148.8767893508
 20
67.5722920819
 40
1.0
100
AcDbArc
 50
243.0
 51
315.0
  0
ARC
  5
639
100
AcDbEntity
  8
RUNDUNGEN
100
AcDbCircle
 62
7
  6
CONTINUOUS
 10
140.7615228894
 20
59.4570256205
 40
1.0
100
AcDbArc
 50
315.0
 51
27.0
  0
ARC
  5
63A
100
AcDbEntity
  8
RUNDUNGEN
100
AcDbCircle
 62
7
  6
CONTINUOUS
 10
151.0537717481
 20
69.7492744792
 40
1.0
100
AcDbArc
 50
315.0000743519
 51
11.7817783375
  0
ARC
  5
63B
100
AcDbEntity
  8
RUNDUNGEN
100
AcDbCircle
 62
7
  6
CONTINUOUS
 10
150.4760103696
 20
69.1715131007
 40
1.0
100
AcDbArc
 50
314.9973138447
 51
45.0
  0
ARC
  5
63C
100
AcDbEntity
  8
RUNDUNGEN
100
AcDbCircle
 62
7
  6
CONTINUOUS
 10
138.5845461776
 20
57.2800489087
 40
1.0
100
AcDbArc
 50
258.2172544149
 51
315.000037304
  0
ARC
  5
63D
100
AcDbEntity
  8
RUNDUNGEN
100
AcDbCircle
 62
7
  6
CONTINUOUS
 10
139.1623018706
 20
57.8578046017
 40
1.0
100
AcDbArc
 50
225.0
 51
315.0
  0
ARC
  5
63E
100
AcDbEntity
  8
RUNDUNGEN
100
AcDbCircle
 62
7
  6
CONTINUOUS
 10
154.0797725258
 20
74.5677032075
 40
2.0000000134
100
AcDbArc
 50
113.6346938312
 51
178.00114801
  0
ARC
  5
63F
100
AcDbEntity
  8
RUNDUNGEN
100
AcDbCircle
 62
7
  6
CONTINUOUS
 10
158.2098200607
 20
79.5581459372
 40
1.0
100
AcDbArc
 50
292.8004737378
 51
337.5
  0
ARC
  5
640
100
AcDbEntity
  8
RUNDUNGEN
100
AcDbCircle
 62
7
  6
CONTINUOUS
 10
160.5059206548
 20
85.1014231322
 40
1.0
100
AcDbArc
 50
337.5
 51
22.1995262622
  0
ARC
  5
641
100
AcDbEntity
  8
RUNDUNGEN
100
AcDbCircle
 62
7
  6
CONTINUOUS
 10
165.1208633436
 20
92.9145109216
 40
3.9999726822
100
AcDbArc
 50
123.2182361801
 51
136.9932047535
  0
ARC
  5
642
100
AcDbEntity
  8
RUNDUNGEN
100
AcDbCircle
 62
7
  6
CONTINUOUS
 10
161.1143119317
 20
91.550583646
 40
2.0000000135
100
AcDbArc
 50
136.99885199
 51
201.256246248
  0
ARC
  5
643
100
AcDbEntity
  8
RUNDUNGEN
100
AcDbCircle
 62
7
  6
CONTINUOUS
 10
162.3817498903
 20
100.1761509756
 40
1.0
100
AcDbArc
 50
0.0
 51
72.0
  0
ARC
  5
644
100
AcDbEntity
  8
RUNDUNGEN
100
AcDbCircle
 62
7
  6
CONTINUOUS
 10
162.3817498903
 20
97.0974409856
 40
1.0
100
AcDbArc
 50
303.2172522446
 51
0.0000814065
  0
ARC
  5
645
100
AcDbEntity
  8
RUNDUNGEN
100
AcDbCircle
 62
7
  6
CONTINUOUS
 10
162.3817498903
 20
97.9145109216
 40
1.0
100
AcDbArc
 50
270.0
 51
360.0
  0
ARC
  5
646
100
AcDbEntity
  8
RUNDUNGEN
100
AcDbCircle
 62
7
  6
CONTINUOUS
 10
102.4193040497
 20
105.9145109216
 40
38.9624458405
100
AcDbArc
 50
116.2101185713
 51
153.7898814287
  0
ARC
  5
647
100
AcDbEntity
  8
RUNDUNGEN
100
AcDbCircle
 62
7
  6
CONTINUOUS
 10
102.4193040497
 20
105.9145109216
 40
38.9624458405
100
AcDbArc
 50
206.2101185713
 51
243.7898814287
  0
ARC
  5
648
100
AcDbEntity
  8
RUNDUNGEN
100
AcDbCircle
 62
7
  6
CONTINUOUS
 10
102.4193040497
 20
105.9145109216
 40
38.9624458405
100
AcDbArc
 50
296.2101185713
 51
333.7898814287
  0
ARC
  5
649
100
AcDbEntity
  8
RUNDUNGEN
100
AcDbCircle
 62
7
  6
CONTINUOUS
 10
102.4193040497
 20
105.9145109216
 40
38.9624458405
100
AcDbArc
 50
26.2101185713
 51
63.7898814287
  0
ARC
  5
64A
100
AcDbEntity
  8
RUNDUNGEN
100
AcDbCircle
 62
7
  6
CONTINUOUS
 10
102.4193040497
 20
105.9145109216
 40
26.1402324077
100
AcDbArc
 50
32.0048443483
 51
57.995155651
  0
ARC
  5
64B
100
AcDbEntity
  8
RUNDUNGEN
100
AcDbCircle
 62
7
  6
CONTINUOUS
 10
102.4193040497
 20
105.9145109216
 40
26.1402324077
100
AcDbArc
 50
302.0048443483
 51
327.995155651
  0
ARC
  5
64C
100
AcDbEntity
  8
RUNDUNGEN
100
AcDbCircle
 62
7
  6
CONTINUOUS
 10
102.4193040497
 20
105.9145109216
 40
26.1402324077
100
AcDbArc
 50
212.0048443483
 51
237.995155651
  0
ARC
  5
64D
100
AcDbEntity
  8
RUNDUNGEN
100
AcDbCircle
 62
7
  6
CONTINUOUS
 10
102.4193040497
 20
105.9145109216
 40
26.1402324077
100
AcDbArc
 50
122.0048443483
 51
147.995155651
  0
ARC
  5
64E
100
AcDbEntity
  8
0
100
AcDbCircle
 62
7
  6
CONTINUOUS
 10
102.4193040497
 20
105.9145109216
 40
12.7
100
AcDbArc
 50
105.1666783324
 51
74.8333216676
  0
ARC
  5
64F
100
AcDbEntity
  8
RUNDUNGEN
100
AcDbCircle
 62
7
  6
CONTINUOUS
 10
131.5399419861
 20
124.1145109216
 40
8.1999997799
100
AcDbArc
 50
212.0048190877
 51
269.6696357942
  0
ARC
  5
650
100
AcDbEntity
  8
RUNDUNGEN
100
AcDbCircle
 62
7
  6
CONTINUOUS
 10
120.6193040497
 20
135.0351488572
 40
8.1999997795
100
AcDbArc
 50
180.3304129003
 51
237.9951809116
  0
ARC
  5
651
100
AcDbEntity
  8
RUNDUNGEN
100
AcDbCircle
 62
7
  6
CONTINUOUS
 10
117.4193040497
 20
136.384951146
 40
5.0
100
AcDbArc
 50
63.7898814287
 51
180.0
  0
ARC
  5
652
100
AcDbEntity
  8
RUNDUNGEN
100
AcDbCircle
 62
7
  6
CONTINUOUS
 10
132.8897442742
 20
120.9145109216
 40
5.0
100
AcDbArc
 50
270.0
 51
26.2101185713
  0
ARC
  5
653
100
AcDbEntity
  8
0
100
AcDbCircle
 62
7
  6
CONTINUOUS
 10
105.7943040497
 20
118.365188614
 40
0.2
100
AcDbArc
 50
180.0
 51
254.8333216676
  0
ARC
  5
654
100
AcDbEntity
  8
RUNDUNGEN
100
AcDbCircle
 62
7
  6
CONTINUOUS
 10
102.4193040497
 20
157.3769567621
 40
2.25
100
AcDbArc
 50
179.9972397404
 51
0.0023867943
  0
ARC
  5
655
100
AcDbEntity
  8
RUNDUNGEN
100
AcDbCircle
 62
7
  6
CONTINUOUS
 10
115.4193040497
 20
168.6160700784
 40
3.9999725999
100
AcDbArc
 50
213.2182350379
 51
226.993333689
  0
ARC
  5
656
100
AcDbEntity
  8
RUNDUNGEN
100
AcDbCircle
 62
7
  6
CONTINUOUS
 10
116.7832313253
 20
164.6095188035
 40
2.0000000135
100
AcDbArc
 50
226.99885199
 51
291.256244052
  0
ARC
  5
657
100
AcDbEntity
  8
RUNDUNGEN
100
AcDbCircle
 62
7
  6
CONTINUOUS
 10
108.1576639957
 20
165.8769567621
 40
1.0
100
AcDbArc
 50
90.0000034265
 51
162.0
  0
ARC
  5
658
100
AcDbEntity
  8
RUNDUNGEN
100
AcDbCircle
 62
7
  6
CONTINUOUS
 10
111.2363739836
 20
165.8769567621
 40
1.0
100
AcDbArc
 50
33.2172518237
 51
90.0000361533
  0
ARC
  5
659
100
AcDbEntity
  8
RUNDUNGEN
100
AcDbCircle
 62
7
  6
CONTINUOUS
 10
110.4193040497
 20
165.8769567621
 40
1.0
100
AcDbArc
 50
0.0
 51
90.0
  0
ARC
  5
65A
100
AcDbEntity
  8
RUNDUNGEN
100
AcDbCircle
 62
7
  6
CONTINUOUS
 10
133.7661117638
 20
157.5749793976
 40
2.0000000134
100
AcDbArc
 50
203.634693818
 51
268.00114801
  0
ARC
  5
65B
100
AcDbEntity
  8
RUNDUNGEN
100
AcDbCircle
 62
7
  6
CONTINUOUS
 10
128.7756690341
 20
161.7050269325
 40
1.0
100
AcDbArc
 50
22.8004737378
 51
67.5
  0
ARC
  5
65C
100
AcDbEntity
  8
RUNDUNGEN
100
AcDbCircle
 62
7
  6
CONTINUOUS
 10
123.2323918391
 20
164.0011275267
 40
1.0
100
AcDbArc
 50
67.5
 51
112.1995262622
  0
ARC
  5
65D
100
AcDbEntity
  8
RUNDUNGEN
100
AcDbCircle
 62
7
  6
CONTINUOUS
 10
153.8817498903
 20
105.9145109216
 40
2.25
100
AcDbArc
 50
89.9972335605
 51
270.0023965024
  0
ARC
  5
65E
100
AcDbEntity
  8
RUNDUNGEN
100
AcDbCircle
 62
7
  6
CONTINUOUS
 10
154.0797725259
 20
137.2613186356
 40
2.0000000135
100
AcDbArc
 50
181.99885199
 51
246.2562440545
  0
ARC
  5
65F
100
AcDbEntity
  8
RUNDUNGEN
100
AcDbCircle
 62
7
  6
CONTINUOUS
 10
158.2098200607
 20
132.2708759059
 40
1.0
100
AcDbArc
 50
22.5
 51
67.1995262622
  0
ARC
  5
660
100
AcDbEntity
  8
RUNDUNGEN
100
AcDbCircle
 62
7
  6
CONTINUOUS
 10
165.1209104186
 20
118.9145109216
 40
3.9999866337
100
AcDbArc
 50
223.0023692406
 51
236.78135884
  0
ARC
  5
661
100
AcDbEntity
  8
RUNDUNGEN
100
AcDbCircle
 62
7
  6
CONTINUOUS
 10
161.1143119316
 20
120.2784381971
 40
2.0000000134
100
AcDbArc
 50
158.634693814
 51
223.00114801
  0
ARC
  5
662
100
AcDbEntity
  8
RUNDUNGEN
100
AcDbCircle
 62
7
  6
CONTINUOUS
 10
162.3817498903
 20
111.6528708675
 40
1.0
100
AcDbArc
 50
288.0
 51
360.0
  0
ARC
  5
663
100
AcDbEntity
  8
RUNDUNGEN
100
AcDbCircle
 62
7
  6
CONTINUOUS
 10
162.3817498903
 20
114.7315888989
 40
1.0
100
AcDbArc
 50
0.0000743535
 51
56.7817783383
  0
ARC
  5
664
100
AcDbEntity
  8
RUNDUNGEN
100
AcDbCircle
 62
7
  6
CONTINUOUS
 10
162.3817498903
 20
113.9145109216
 40
1.0
100
AcDbArc
 50
359.9973138447
 51
90.0
  0
ARC
  5
665
100
AcDbEntity
  8
RUNDUNGEN
100
AcDbCircle
 62
7
  6
CONTINUOUS
 10
160.5059206548
 20
126.7275987109
 40
1.0
100
AcDbArc
 50
337.8004737378
 51
22.5
  0
ARC
  5
666
100
AcDbEntity
  8
RUNDUNGEN
100
AcDbCircle
 62
7
  6
CONTINUOUS
 10
137.5636469491
 20
159.4436301317
 40
3.9999866337
100
AcDbArc
 50
268.0023692406
 51
281.7813588393
  0
ARC
  5
667
100
AcDbEntity
  8
RUNDUNGEN
100
AcDbCircle
 62
7
  6
CONTINUOUS
 10
155.9483899729
 20
141.0588205338
 40
3.9999726822
100
AcDbArc
 50
168.2182361136
 51
181.9932047535
  0
ARC
  5
668
100
AcDbEntity
  8
RUNDUNGEN
100
AcDbCircle
 62
7
  6
CONTINUOUS
 10
138.80874848
 20
142.3039553518
 40
2.25
100
AcDbArc
 50
134.9971508939
 51
315.0024965153
  0
ARC
  5
669
100
AcDbEntity
  8
RUNDUNGEN
100
AcDbCircle
 62
7
  6
CONTINUOUS
 10
140.7615228894
 20
152.3719962226
 40
1.0
100
AcDbArc
 50
333.0
 51
45.0
  0
ARC
  5
66A
100
AcDbEntity
  8
RUNDUNGEN
100
AcDbCircle
 62
7
  6
CONTINUOUS
 10
148.8767893508
 20
144.2567297612
 40
1.0
100
AcDbArc
 50
45.0
 51
117.0
  0
ARC
  5
66B
100
AcDbEntity
  8
RUNDUNGEN
100
AcDbCircle
 62
7
  6
CONTINUOUS
 10
139.1623679914
 20
153.9711511207
 40
1.0
100
AcDbArc
 50
45.0
 51
135.0009047571
  0
ARC
  5
66C
100
AcDbEntity
  8
RUNDUNGEN
100
AcDbCircle
 62
7
  6
CONTINUOUS
 10
138.5845404921
 20
154.5489786199
 40
1.0
100
AcDbArc
 50
45.0000743522
 51
101.7817783376
  0
ARC
  5
66D
100
AcDbEntity
  8
RUNDUNGEN
100
AcDbCircle
 62
7
  6
CONTINUOUS
 10
151.0537660626
 20
142.0797530494
 40
1.0
100
AcDbArc
 50
348.2172544149
 51
45.000037304
  0
ARC
  5
66E
100
AcDbEntity
  8
RUNDUNGEN
100
AcDbCircle
 62
7
  6
CONTINUOUS
 10
150.4760103696
 20
142.6575087424
 40
1.0
100
AcDbArc
 50
315.0
 51
45.0
  0
ARC
  5
66F
100
AcDbEntity
  8
RUNDUNGEN
100
AcDbCircle
 62
7
  6
CONTINUOUS
 10
215.6615373884
 20
72.4675212749
 40
8.2
100
AcDbArc
 50
40.2428775321
 51
86.0
  0
ARC
  5
670
100
AcDbEntity
  8
RUNDUNGEN
100
AcDbCircle
 62
7
  6
CONTINUOUS
 10
219.8615420371
 20
92.9145109216
 40
3.9999979339
100
AcDbArc
 50
0.0
 51
48.1720572593
  0
ARC
  5
671
100
AcDbEntity
  8
RUNDUNGEN
100
AcDbCircle
 62
7
  6
CONTINUOUS
 10
212.8115373884
 20
83.8941619475
 40
3.0
100
AcDbArc
 50
180.0
 51
266.0
  0
ARC
  5
672
100
AcDbEntity
  8
RUNDUNGEN
100
AcDbCircle
 62
7
  6
CONTINUOUS
 10
214.8615373884
 20
57.8578046017
 40
1.0
100
AcDbArc
 50
180.0
 51
270.0
  0
ARC
  5
673
100
AcDbEntity
  8
RUNDUNGEN
100
AcDbCircle
 62
7
  6
CONTINUOUS
 10
214.8615373884
 20
73.2276792552
 40
1.0
100
AcDbArc
 50
109.0748655774
 51
180.0000001668
  0
ARC
  5
674
100
AcDbEntity
  8
RUNDUNGEN
100
AcDbCircle
 62
7
  6
CONTINUOUS
 10
214.8615373884
 20
54.1554048446
 40
1.0
100
AcDbArc
 50
116.0614887928
 51
180.000000017
  0
ARC
  5
675
100
AcDbEntity
  8
RUNDUNGEN
100
AcDbCircle
 62
7
  6
CONTINUOUS
 10
214.8615373884
 20
97.9145109216
 40
1.0
100
AcDbArc
 50
180.0
 51
270.0
  0
ARC
  5
676
100
AcDbEntity
  8
RUNDUNGEN
100
AcDbCircle
 62
7
  6
CONTINUOUS
 10
214.8615373884
 20
102.6645109216
 40
1.0
100
AcDbArc
 50
90.0
 51
180.0
  0
ARC
  5
677
100
AcDbEntity
  8
RUNDUNGEN
100
AcDbCircle
 62
7
  6
CONTINUOUS
 10
214.8615373884
 20
45.952065081
 40
1.0
100
AcDbArc
 50
180.0
 51
270.0
  0
ARC
  5
678
100
AcDbEntity
  8
0
100
AcDbCircle
 62
7
  6
CONTINUOUS
 10
215.6615373884
 20
139.3615005682
 40
8.2
100
AcDbArc
 50
274.0
 51
360.0
  0
ARC
  5
679
100
AcDbEntity
  8
0
100
AcDbCircle
 62
7
  6
CONTINUOUS
 10
212.8115373884
 20
127.9348598956
 40
3.0
100
AcDbArc
 50
94.0
 51
180.0
  0
ARC
  5
67A
100
AcDbEntity
  8
0
100
AcDbCircle
 62
7
  6
CONTINUOUS
 10
221.8615373884
 20
151.0658810011
 40
2.0
100
AcDbArc
 50
0.0
 51
64.0
  0
ARC
  5
67B
100
AcDbEntity
  8
0
100
AcDbCircle
 62
7
  6
CONTINUOUS
 10
214.8615373884
 20
153.9712172414
 40
1.0
100
AcDbArc
 50
90.0
 51
180.0
  0
ARC
  5
67C
100
AcDbEntity
  8
0
100
AcDbCircle
 62
7
  6
CONTINUOUS
 10
214.8615373884
 20
138.601342588
 40
1.0
100
AcDbArc
 50
179.9999998946
 51
250.9251344834
  0
ARC
  5
67D
100
AcDbEntity
  8
0
100
AcDbCircle
 62
7
  6
CONTINUOUS
 10
214.8615373884
 20
157.6736170059
 40
1.0
100
AcDbArc
 50
179.9999999846
 51
243.9385110629
  0
ARC
  5
67E
100
AcDbEntity
  8
RUNDUNGEN
100
AcDbCircle
 62
7
  6
CONTINUOUS
 10
214.8615373884
 20
165.8769567621
 40
1.0
100
AcDbArc
 50
90.0
 51
180.0
  0
ARC
  5
67F
100
AcDbEntity
  8
0
100
AcDbCircle
 62
7
  6
CONTINUOUS
 10
222.4288675376
 20
154.1269796689
 40
0.999992959
100
AcDbArc
 50
90.0000230466
 51
244.0063680094
  0
ARC
  5
680
100
AcDbEntity
  8
RUNDUNGEN
100
AcDbCircle
 62
7
  6
CONTINUOUS
 10
242.0615373884
 20
72.4675212749
 40
8.2
100
AcDbArc
 50
94.0
 51
139.756917598
  0
ARC
  5
681
100
AcDbEntity
  8
RUNDUNGEN
100
AcDbCircle
 62
7
  6
CONTINUOUS
 10
237.8615319095
 20
92.9145109216
 40
3.999997565
100
AcDbArc
 50
131.8279534106
 51
180.0
  0
ARC
  5
682
100
AcDbEntity
  8
RUNDUNGEN
100
AcDbCircle
 62
7
  6
CONTINUOUS
 10
244.9115373884
 20
83.8941619475
 40
3.0
100
AcDbArc
 50
274.0
 51
360.0
  0
ARC
  5
683
100
AcDbEntity
  8
RUNDUNGEN
100
AcDbCircle
 62
7
  6
CONTINUOUS
 10
242.8615373884
 20
57.8578046017
 40
1.0
100
AcDbArc
 50
270.0
 51
360.0
  0
ARC
  5
684
100
AcDbEntity
  8
RUNDUNGEN
100
AcDbCircle
 62
7
  6
CONTINUOUS
 10
242.8615373884
 20
73.2276746333
 40
1.0
100
AcDbArc
 50
359.9999998792
 51
70.9257140929
  0
ARC
  5
685
100
AcDbEntity
  8
RUNDUNGEN
100
AcDbCircle
 62
7
  6
CONTINUOUS
 10
242.8615373884
 20
54.1554132596
 40
1.0
100
AcDbArc
 50
359.9999993349
 51
63.9386776542
  0
ARC
  5
686
100
AcDbEntity
  8
RUNDUNGEN
100
AcDbCircle
 62
7
  6
CONTINUOUS
 10
242.8615373884
 20
45.952065081
 40
1.0
100
AcDbArc
 50
270.0
 51
360.0
  0
ARC
  5
687
100
AcDbEntity
  8
RUNDUNGEN
100
AcDbCircle
 62
7
  6
CONTINUOUS
 10
242.8615373884
 20
102.6645109216
 40
1.0
100
AcDbArc
 50
0.0
 51
90.0
  0
ARC
  5
688
100
AcDbEntity
  8
RUNDUNGEN
100
AcDbCircle
 62
7
  6
CONTINUOUS
 10
242.8615373884
 20
97.9145109216
 40
1.0
100
AcDbArc
 50
270.0
 51
360.0
  0
ARC
  5
689
100
AcDbEntity
  8
0
100
AcDbCircle
 62
7
  6
CONTINUOUS
 10
242.0615373884
 20
139.3615005682
 40
8.2
100
AcDbArc
 50
180.0
 51
266.0
  0
ARC
  5
68A
100
AcDbEntity
  8
0
100
AcDbCircle
 62
7
  6
CONTINUOUS
 10
244.9115373884
 20
127.9348598956
 40
3.0
100
AcDbArc
 50
0.0
 51
86.0
  0
ARC
  5
68B
100
AcDbEntity
  8
0
100
AcDbCircle
 62
7
  6
CONTINUOUS
 10
235.8615373884
 20
151.0658810011
 40
2.0
100
AcDbArc
 50
116.0
 51
180.0
  0
ARC
  5
68C
100
AcDbEntity
  8
0
100
AcDbCircle
 62
7
  6
CONTINUOUS
 10
242.8615373884
 20
153.9712172414
 40
1.0
100
AcDbArc
 50
0.0
 51
90.0
  0
ARC
  5
68D
100
AcDbEntity
  8
0
100
AcDbCircle
 62
7
  6
CONTINUOUS
 10
242.8615373884
 20
138.6013472098
 40
1.0
100
AcDbArc
 50
289.0742859223
 51
0.0000001356
  0
ARC
  5
68E
100
AcDbEntity
  8
0
100
AcDbCircle
 62
7
  6
CONTINUOUS
 10
242.8615373884
 20
157.6736085836
 40
1.0
100
AcDbArc
 50
296.06132285
 51
0.0000012707
  0
ARC
  5
68F
100
AcDbEntity
  8
RUNDUNGEN
100
AcDbCircle
 62
7
  6
CONTINUOUS
 10
242.8615373884
 20
165.8769567621
 40
1.0
100
AcDbArc
 50
0.0
 51
90.0
  0
ARC
  5
690
100
AcDbEntity
  8
0
100
AcDbCircle
 62
7
  6
CONTINUOUS
 10
235.2943719017
 20
154.1270542785
 40
0.9999699955
100
AcDbArc
 50
295.9718511313
 51
89.9999980739
  0
ENDSEC
  0
SECTION
  2
OBJECTS
  0
DICTIONARY
  5
C
100
AcDbDictionary
280
0
281
1
  3
ACAD_GROUP
350
D
  3
ACAD_MLINESTYLE
350
17
  3
ACAD_LAYOUT
350
1A
  3
ACAD_PLOTSETTINGS
350
19
  3
ACAD_PLOTSTYLENAME
350
E
  0
DICTIONARY
  5
D
102
{ACAD_REACTORS
330
C
102
}
100
AcDbDictionary
280
0
281
1
  0
ACDBDICTIONARYWDFLT
  5
E
102
{ACAD_REACTORS
330
C
102
}
100
AcDbDictionary
281
1
  3
Normal
350
F
100
AcDbDictionaryWithDefault
340
F
  0
DICTIONARY
  5
17
102
{ACAD_REACTORS
330
C
102
}
100
AcDbDictionary
280
0
281
1
  3
Standard
350
18
  0
DICTIONARY
  5
19
102
{ACAD_REACTORS
330
C
102
}
100
AcDbDictionary
281
1
  0
DICTIONARY
  5
1A
102
{ACAD_REACTORS
330
C
102
}
100
AcDbDictionary
281
1
  3
Model
350
691
  3
Layout1
350
692
  0
ACDBPLACEHOLDER
  5
F
102
{ACAD_REACTORS
330
E
102
}
  0
MLINESTYLE
  5
18
102
{ACAD_REACTORS
330
17
102
}
100
AcDbMlineStyle
  2
STANDARD
 70
0
  3

 62
256
 51
90.0
 52
90.0
 71
2
 49
0.5
 62
256
  6
BYLAYER
 49
-0.5
 62
256
  6
BYLAYER
  0
LAYOUT
  5
691
102
{ACAD_REACTORS
330
1A
102
}
100
AcDbPlotSettings
  1

  2
none_device
  4
ISO_A4_(297.00_x_210.00_MM)
  6

 40
0.0
 41
0.0
 42
0.0
 43
0.0
 44
297.0
 45
210.0
 46
0.0
 47
0.0
 48
0.0
 49
0.0
140
0.0
141
0.0
142
1.0
143
1.0
 70
1024
 72
1
 73
0
 74
0
  7

 75
0
147
1.0
148
0.0
149
0.0
100
AcDbLayout
  1
Model
 70
0
 71
0
 10
0.0
 20
0.0
 11
297.0
 21
210.0
 12
0.0
 22
0.0
 32
0.0
 14
0.0
 24
0.0
 34
0.0
 15
0.0
 25
0.0
 35
0.0
146
0.0
 13
0.0
 23
0.0
 33
0.0
 16
1.0
 26
0.0
 36
0.0
 17
0.0
 27
1.0
 37
0.0
 76
0
330
210
345
0
346
0
  0
LAYOUT
  5
692
102
{ACAD_REACTORS
330
1A
102
}
100
AcDbPlotSettings
  1

  2
none_device
  4
ISO_A4_(297.00_x_210.00_MM)
  6

 40
0.0
 41
0.0
 42
0.0
 43
0.0
 44
297.0
 45
210.0
 46
0.0
 47
0.0
 48
0.0
 49
0.0
140
0.0
141
0.0
142
1.0
143
1.0
 70
0
 72
1
 73
0
 74
0
  7

 75
0
147
1.0
148
0.0
149
0.0
100
AcDbLayout
  1
Layout1
 70
0
 71
1
 10
0.0
 20
0.0
 11
297.0
 21
210.0
 12
0.0
 22
0.0
 32
0.0
 14
0.0
 24
0.0
 34
0.0
 15
0.0
 25
0.0
 35
0.0
146
0.0
 13
0.0
 23
0.0
 33
0.0
 16
1.0
 26
0.0
 36
0.0
 17
0.0
 27
1.0
 37
0.0
 76
0
330
211
345
0
346
0
  0
ENDSEC
  0
EOF
