  0
SECTION
  2
HEADER
  9
$ACADVER
  1
AC1015
  9
$DWGCODEPAGE
  3
ANSI_1252
  9
$EXTMAX
 10
297.0
 20
210.0
 30
0.0
  9
$EXTMIN
 10
0.0
 20
0.0
 30
0.0
  9
$LIMMIN
 10
0.0
 20
0.0
  9
$LIMMAX
 10
297.0
 20
210.0
  9
$VIEWCTR
 10
148.5
 20
105.0
  9
$VIEWSIZE
 40
210.0
  9
$CLAYER
  8
0
  9
$LTSCALE
 40
16.335
  9
$CELTYPE
  6
BYLAYER
  9
$DIMSCALE
 40
1.0
  9
$DIMASZ
 40
3.5
  9
$DIMEXO
 40
1.85625
  9
$DIMDLI
 40
11.286
  9
$DIMEXE
 40
5.346
  9
$DIMCEN
 40
2.673
  9
$DIMLFAC
 40
1.0
  9
$DIMBLK
  1
_FILLED
  9
$DIMTXT
 40
3.5
  9
$DIMTOL
 70
1
  9
$DIMLIM
 70
0
  9
$DIMTFAC
 40
1.0
  9
$DIMTP
 40
0.005
  9
$DIMTM
 40
0.005
  9
$PDMODE
 70
3
  9
$PDSIZE
 40
0.3125
  9
$HANDSEED
  5
702
  9
$TILEMODE
 70
1
  9
$MEASUREMENT
 70
1
  9
$INSUNITS
 70
4
  0
ENDSEC
  0
SECTION
  2
CLASSES
  0
CLASS
  1
ACDBDICTIONARYWDFLT
  2
AcDbDictionaryWithDefault
  3
AutoCAD 2000
 90
0
280
0
281
0
  0
CLASS
  1
ACDBPLACEHOLDER
  2
AcDbPlaceHolder
  3
AutoCAD 2000
 90
0
280
0
281
0
  0
CLASS
  1
LAYOUT
  2
AcDbLayout
  3
AutoCAD 2000
 90
0
280
0
281
0
  0
ENDSEC
  0
SECTION
  2
TABLES
  0
TABLE
  2
VPORT
  5
8
100
AcDbSymbolTable
 70
2
  0
VPORT
  5
1F4
100
AcDbSymbolTableRecord
100
AcDbViewportTableRecord
  2
*ACTIVE
 70
0
 10
0.0
 20
0.0
 11
1.0
 21
1.0
 12
148.5
 22
105.0
 13
0.0
 23
0.0
 14
1.0
 24
1.0
 15
0.0
 25
0.0
 16
0.0
 26
0.0
 36
1.0
 17
0.0
 27
0.0
 37
0.0
 40
210.0
 41
1.4142857143
 42
50.0
 43
0.0
 44
0.0
 50
0.0
 51
0.0
 71
0
 72
100
 73
1
 74
1
 75
0
 76
0
 77
0
 78
0
  0
ENDTAB
  0
TABLE
  2
LTYPE
  5
5
100
AcDbSymbolTable
 70
6
  0
LTYPE
  5
14
100
AcDbSymbolTableRecord
100
AcDbLinetypeTableRecord
  2
BYBLOCK
 70
0
  3

 72
65
 73
0
 40
0.0
  0
LTYPE
  5
15
100
AcDbSymbolTableRecord
100
AcDbLinetypeTableRecord
  2
BYLAYER
 70
0
  3

 72
65
 73
0
 40
0.0
  0
LTYPE
  5
16
100
AcDbSymbolTableRecord
100
AcDbLinetypeTableRecord
  2
CONTINUOUS
 70
64
  3
Solid line
 72
65
 73
0
 40
0.0
  0
LTYPE
  5
1F5
100
AcDbSymbolTableRecord
100
AcDbLinetypeTableRecord
  2
CENTER
 70
64
  3
____ _ ____ _ ____ _ ____ _ ____ _ ____ _ ____
 72
65
 73
4
 40
0.6
 49
0.375
 74
0
 49
-0.075
 74
0
 49
0.075
 74
0
 49
-0.075
 74
0
  0
LTYPE
  5
1F6
100
AcDbSymbolTableRecord
100
AcDbLinetypeTableRecord
  2
HIDDEN
 70
64
  3
- - - - - - - - - - - - - - - - - - - -
 72
65
 73
2
 40
0.2
 49
0.1
 74
0
 49
-0.1
 74
0
  0
LTYPE
  5
1F7
100
AcDbSymbolTableRecord
100
AcDbLinetypeTableRecord
  2
PHANTOM
 70
64
  3
_____ _ _ _____ _ _ _____ _ _ _____
 72
65
 73
6
 40
0.8
 49
0.45
 74
0
 49
-0.05
 74
0
 49
0.1
 74
0
 49
-0.05
 74
0
 49
0.1
 74
0
 49
-0.05
 74
0
  0
LTYPE
  5
1F8
100
AcDbSymbolTableRecord
100
AcDbLinetypeTableRecord
  2
DOT
 70
64
  3
. . . . . . . . . . . . . . . . . . . .
 72
65
 73
2
 40
0.2
 49
0.1
 74
0
 49
-0.1
 74
0
  0
LTYPE
  5
1F9
100
AcDbSymbolTableRecord
100
AcDbLinetypeTableRecord
  2
DASHED
 70
64
  3
- - - - - - - - - - - - - - - - - - - -
 72
65
 73
2
 40
0.2
 49
0.1
 74
0
 49
-0.1
 74
0
  0
ENDTAB
  0
TABLE
  2
LAYER
  5
2
100
AcDbSymbolTable
 70
36
  0
LAYER
  5
10
100
AcDbSymbolTableRecord
100
AcDbLayerTableRecord
  2
0
 70
0
 62
7
  6
CONTINUOUS
370
-3
390
F
  0
LAYER
  5
1FA
100
AcDbSymbolTableRecord
100
AcDbLayerTableRecord
  2
DEFAULT_1
 70
0
 62
7
  6
CENTER
370
-3
390
F
  0
LAYER
  5
1FB
100
AcDbSymbolTableRecord
100
AcDbLayerTableRecord
  2
DEFAULT_2
 70
0
 62
8
  6
HIDDEN
370
-3
390
F
  0
LAYER
  5
1FC
100
AcDbSymbolTableRecord
100
AcDbLayerTableRecord
  2
DEFAULT_3
 70
0
 62
7
  6
PHANTOM
370
-3
390
F
  0
LAYER
  5
1FD
100
AcDbSymbolTableRecord
100
AcDbLayerTableRecord
  2
01___PRT_ALL_DTM_PLN
 70
0
 62
7
  6
CONTINUOUS
370
-3
390
F
  0
LAYER
  5
1FE
100
AcDbSymbolTableRecord
100
AcDbLayerTableRecord
  2
01___PRT_DEF_DTM_PLN
 70
0
 62
7
  6
CONTINUOUS
370
-3
390
F
  0
LAYER
  5
1FF
100
AcDbSymbolTableRecord
100
AcDbLayerTableRecord
  2
02___PRT_ALL_AXES
 70
0
 62
7
  6
CONTINUOUS
370
-3
390
F
  0
LAYER
  5
200
100
AcDbSymbolTableRecord
100
AcDbLayerTableRecord
  2
03___PRT_ALL_CURVES
 70
0
 62
7
  6
CONTINUOUS
370
-3
390
F
  0
LAYER
  5
201
100
AcDbSymbolTableRecord
100
AcDbLayerTableRecord
  2
04___PRT_ALL_DTM_PNT
 70
0
 62
7
  6
CONTINUOUS
370
-3
390
F
  0
LAYER
  5
202
100
AcDbSymbolTableRecord
100
AcDbLayerTableRecord
  2
05___PRT_ALL_DTM_CSYS
 70
0
 62
7
  6
CONTINUOUS
370
-3
390
F
  0
LAYER
  5
203
100
AcDbSymbolTableRecord
100
AcDbLayerTableRecord
  2
05___PRT_DEF_DTM_CSYS
 70
0
 62
7
  6
CONTINUOUS
370
-3
390
F
  0
LAYER
  5
204
100
AcDbSymbolTableRecord
100
AcDbLayerTableRecord
  2
06___PRT_ALL_SURFS
 70
0
 62
7
  6
CONTINUOUS
370
-3
390
F
  0
LAYER
  5
205
100
AcDbSymbolTableRecord
100
AcDbLayerTableRecord
  2
AUSFORMSCHRAEGEN
 70
0
 62
7
  6
CONTINUOUS
370
-3
390
F
  0
LAYER
  5
206
100
AcDbSymbolTableRecord
100
AcDbLayerTableRecord
  2
BEZUGSACHSEN
 70
0
 62
7
  6
CONTINUOUS
370
-3
390
F
  0
LAYER
  5
207
100
AcDbSymbolTableRecord
100
AcDbLayerTableRecord
  2
BEZUGSEBENEN
 70
0
 62
7
  6
CONTINUOUS
370
-3
390
F
  0
LAYER
  5
208
100
AcDbSymbolTableRecord
100
AcDbLayerTableRecord
  2
BOHRUNGEN
 70
0
 62
7
  6
CONTINUOUS
370
-3
390
F
  0
LAYER
  5
209
100
AcDbSymbolTableRecord
100
AcDbLayerTableRecord
  2
FASEN
 70
0
 62
7
  6
CONTINUOUS
370
-3
390
F
  0
LAYER
  5
20A
100
AcDbSymbolTableRecord
100
AcDbLayerTableRecord
  2
GEWINDE
 70
0
 62
7
  6
CONTINUOUS
370
-3
390
F
  0
LAYER
  5
20B
100
AcDbSymbolTableRecord
100
AcDbLayerTableRecord
  2
KURVEN
 70
0
 62
7
  6
CONTINUOUS
370
-3
390
F
  0
LAYER
  5
20C
100
AcDbSymbolTableRecord
100
AcDbLayerTableRecord
  2
RUNDUNGEN
 70
0
 62
7
  6
CONTINUOUS
370
-3
390
F
  0
LAYER
  5
20D
100
AcDbSymbolTableRecord
100
AcDbLayerTableRecord
  2
ZEICHNUNGSBEMASSUNGEN
 70
0
 62
7
  6
CONTINUOUS
370
-3
390
F
  0
ENDTAB
  0
TABLE
  2
STYLE
  5
3
100
AcDbSymbolTable
 70
1
  0
STYLE
  5
11
100
AcDbSymbolTableRecord
100
AcDbTextStyleTableRecord
  2
STANDARD
 70
0
 40
0.0
 41
0.7
 50
0.0
 71
0
 42
0.2
  3
txt
  4

  0
STYLE
  5
20E
100
AcDbSymbolTableRecord
100
AcDbTextStyleTableRecord
  2
TEXTSTYLE_1
 70
0
 40
0.0
 41
0.8
 50
0.0
 71
0
 42
0.2
  3
gdt
  4

  0
ENDTAB
  0
TABLE
  2
VIEW
  5
6
100
AcDbSymbolTable
 70
0
  0
ENDTAB
  0
TABLE
  2
UCS
  5
7
100
AcDbSymbolTable
 70
0
  0
ENDTAB
  0
TABLE
  2
APPID
  5
9
100
AcDbSymbolTable
 70
1
  0
APPID
  5
20F
100
AcDbSymbolTableRecord
100
AcDbRegAppTableRecord
  2
ACAD
 70
0
  0
ENDTAB
  0
TABLE
  2
BLOCK_RECORD
  5
1
100
AcDbSymbolTable
 70
0
  0
BLOCK_RECORD
  5
210
100
AcDbSymbolTableRecord
100
AcDbBlockTableRecord
  2
*Model_Space
  0
BLOCK_RECORD
  5
211
100
AcDbSymbolTableRecord
100
AcDbBlockTableRecord
  2
*Paper_Space
  0
ENDTAB
  0
TABLE
  2
DIMSTYLE
  5
A
100
AcDbSymbolTable
 70
1
100
AcDbDimStyleTable
 71
0
  0
DIMSTYLE
105
212
100
AcDbSymbolTableRecord
100
AcDbDimStyleTableRecord
  2
STANDARD
 70
0
  3

  4

 40
1.0
 41
3.5
 42
0.0625
 43
0.38
 44
0.18
 45
0.0
 46
0.0
 47
0.005
 48
0.005
140
3.5
141
0.09
142
0.0
143
25.4
144
1.0
145
0.0
146
1.0
147
0.09
 71
1.0
 72
0.0
 73
0
 74
0
 75
0
 76
0
 77
1
 78
8
170
0
171
2
172
0
173
0
174
0
175
0
176
0
177
0
178
5
270
2
271
3
272
3
273
2
274
2
275
0
280
0
281
0
282
0
283
1
284
8
285
0
286
0
287
3
288
0
340
11
  0
ENDTAB
  0
ENDSEC
  0
SECTION
  2
BLOCKS
  0
BLOCK
  5
20
100
AcDbEntity
  8
0
100
AcDbBlockBegin
  2
*Model_Space
 70
0
 10
0.0
 20
0.0
 30
0.0
  3
*Model_Space
  1

  0
ENDBLK
  5
21
100
AcDbEntity
  8
0
100
AcDbBlockEnd
  0
BLOCK
  5
1C
100
AcDbEntity
  8
0
100
AcDbBlockBegin
  2
*Paper_Space
 70
0
 10
0.0
 20
0.0
 30
0.0
  3
*Paper_Space
  1

  0
ENDBLK
  5
1D
100
AcDbEntity
  8
0
100
AcDbBlockEnd
  0
ENDSEC
  0
SECTION
  2
ENTITIES
  0
LINE
  5
213
100
AcDbEntity
  8
0
100
AcDbLine
 62
7
  6
CONTINUOUS
 10
0.0
 20
0.0
 11
0.0
 21
210.0
  0
LINE
  5
214
100
AcDbEntity
  8
0
100
AcDbLine
 62
7
  6
CONTINUOUS
 10
0.0
 20
0.0
 11
297.0
 21
0.0
  0
LINE
  5
215
100
AcDbEntity
  8
0
100
AcDbLine
 62
7
  6
CONTINUOUS
 10
0.0
 20
210.0
 11
297.0
 21
210.0
  0
LINE
  5
216
100
AcDbEntity
  8
0
100
AcDbLine
 62
7
  6
CONTINUOUS
 10
297.0
 20
0.0
 11
297.0
 21
210.0
  0
LINE
  5
217
100
AcDbEntity
  8
RUNDUNGEN
100
AcDbLine
 62
7
  6
CONTINUOUS
 10
45.7049085063
 20
132.7956192873
 11
43.4088079121
 21
127.2523420922
  0
LINE
  5
218
100
AcDbEntity
  8
RUNDUNGEN
100
AcDbLine
 62
7
  6
CONTINUOUS
 10
81.2235328281
 20
165.0670670081
 11
75.680255633
 21
162.770966414
  0
LINE
  5
219
100
AcDbEntity
  8
RUNDUNGEN
100
AcDbLine
 62
7
  6
CONTINUOUS
 10
75.680255633
 20
49.3421753271
 11
81.2235328281
 21
47.0460747329
  0
LINE
  5
21A
100
AcDbEntity
  8
RUNDUNGEN
100
AcDbLine
 62
7
  6
CONTINUOUS
 10
43.4088079121
 20
84.8607996489
 11
45.7049085063
 21
79.3175224538
  0
LINE
  5
21B
100
AcDbEntity
  8
RUNDUNGEN
100
AcDbLine
 62
7
  6
CONTINUOUS
 10
41.4568582092
 20
114.8736395031
 11
41.4568582092
 21
111.7949308165
  0
LINE
  5
21C
100
AcDbEntity
  8
RUNDUNGEN
100
AcDbLine
 62
7
  6
CONTINUOUS
 10
41.4568582092
 20
100.3182109246
 11
41.4568582092
 21
97.2394915138
  0
LINE
  5
21D
100
AcDbEntity
  8
RUNDUNGEN
100
AcDbLine
 62
7
  6
CONTINUOUS
 10
45.6929408723
 20
120.0553634065
 11
45.7258912554
 21
120.4325479774
  0
LINE
  5
21E
100
AcDbEntity
  8
RUNDUNGEN
100
AcDbLine
 62
7
  6
CONTINUOUS
 10
45.5894156836
 20
119.691117249
 11
45.6929408723
 21
120.0553634065
  0
LINE
  5
21F
100
AcDbEntity
  8
RUNDUNGEN
100
AcDbLine
 62
7
  6
CONTINUOUS
 10
45.4190306031
 20
119.3528801621
 11
45.5894156836
 21
119.691117249
  0
LINE
  5
220
100
AcDbEntity
  8
RUNDUNGEN
100
AcDbLine
 62
7
  6
CONTINUOUS
 10
65.5469559759
 20
155.3981404998
 11
63.3699784289
 21
153.2211629528
  0
LINE
  5
221
100
AcDbEntity
  8
RUNDUNGEN
100
AcDbLine
 62
7
  6
CONTINUOUS
 10
55.2547119675
 20
145.1058964914
 11
53.0777285948
 21
142.9289131187
  0
LINE
  5
222
100
AcDbEntity
  8
RUNDUNGEN
100
AcDbLine
 62
7
  6
CONTINUOUS
 10
72.2063488421
 20
156.0668081487
 11
72.4963580022
 21
156.310218518
  0
LINE
  5
223
100
AcDbEntity
  8
RUNDUNGEN
100
AcDbLine
 62
7
  6
CONTINUOUS
 10
71.8755846313
 20
155.882450502
 11
72.2063488421
 21
156.0668081487
  0
LINE
  5
224
100
AcDbEntity
  8
RUNDUNGEN
100
AcDbLine
 62
7
  6
CONTINUOUS
 10
71.5159345449
 20
155.763761083
 11
71.8755846313
 21
155.882450502
  0
LINE
  5
225
100
AcDbEntity
  8
RUNDUNGEN
100
AcDbLine
 62
7
  6
CONTINUOUS
 10
93.6022354164
 20
45.09412503
 11
96.6809441038
 21
45.09412503
  0
LINE
  5
226
100
AcDbEntity
  8
RUNDUNGEN
100
AcDbLine
 62
7
  6
CONTINUOUS
 10
108.1576639957
 20
45.09412503
 11
111.2363833284
 21
45.09412503
  0
LINE
  5
227
100
AcDbEntity
  8
RUNDUNGEN
100
AcDbLine
 62
7
  6
CONTINUOUS
 10
88.4205115138
 20
49.3302076931
 11
88.0433269428
 21
49.3631580762
  0
LINE
  5
228
100
AcDbEntity
  8
RUNDUNGEN
100
AcDbLine
 62
7
  6
CONTINUOUS
 10
88.7847576713
 20
49.2266825044
 11
88.4205115138
 21
49.3302076931
  0
LINE
  5
229
100
AcDbEntity
  8
RUNDUNGEN
100
AcDbLine
 62
7
  6
CONTINUOUS
 10
89.1229947582
 20
49.0562974239
 11
88.7847576713
 21
49.2266825044
  0
LINE
  5
22A
100
AcDbEntity
  8
RUNDUNGEN
100
AcDbLine
 62
7
  6
CONTINUOUS
 10
53.0777356473
 20
69.1842215699
 11
55.2547119675
 21
67.0072452497
  0
LINE
  5
22B
100
AcDbEntity
  8
RUNDUNGEN
100
AcDbLine
 62
7
  6
CONTINUOUS
 10
63.3699784289
 20
58.8919787883
 11
65.5469618016
 21
56.7149954156
  0
LINE
  5
22C
100
AcDbEntity
  8
RUNDUNGEN
100
AcDbLine
 62
7
  6
CONTINUOUS
 10
52.4090668439
 20
75.8436159271
 11
52.1656565158
 21
76.1336251345
  0
LINE
  5
22D
100
AcDbEntity
  8
RUNDUNGEN
100
AcDbLine
 62
7
  6
CONTINUOUS
 10
52.5934244085
 20
75.5128516358
 11
52.4090668439
 21
75.8436159271
  0
LINE
  5
22E
100
AcDbEntity
  8
RUNDUNGEN
100
AcDbLine
 62
7
  6
CONTINUOUS
 10
52.7121136998
 20
75.1532014519
 11
52.5934244085
 21
75.5128516358
  0
LINE
  5
22F
100
AcDbEntity
  8
RUNDUNGEN
100
AcDbLine
 62
7
  6
CONTINUOUS
 10
45.7258912554
 20
120.4325479774
 11
45.6870844354
 21
120.8091360209
  0
LINE
  5
230
100
AcDbEntity
  8
RUNDUNGEN
100
AcDbLine
 62
7
  6
CONTINUOUS
 10
52.8877154018
 20
71.0518978078
 11
52.7576186785
 21
74.7795219405
  0
LINE
  5
231
100
AcDbEntity
  8
RUNDUNGEN
100
AcDbLine
 62
7
  6
CONTINUOUS
 10
52.8877329316
 20
71.0514360362
 11
52.8877335983
 21
71.0513764772
  0
LINE
  5
232
100
AcDbEntity
  8
RUNDUNGEN
100
AcDbLine
 62
7
  6
CONTINUOUS
 10
52.7576186785
 20
137.3336197997
 11
52.8877197201
 21
141.0613676647
  0
LWPOLYLINE
  5
233
100
AcDbEntity
  8
RUNDUNGEN
100
AcDbPolyline
 62
7
  6
CONTINUOUS
 90
3
 70
0
 10
49.9568582092
 20
108.3065708705
 10
49.9597360086
 20
108.3261437705
 10
50.08510251
 20
109.1127489465
  0
LINE
  5
234
100
AcDbEntity
  8
RUNDUNGEN
100
AcDbLine
 62
7
  6
CONTINUOUS
 10
50.08510251
 20
109.1127489465
 11
50.1152426496
 21
109.3065708705
  0
LINE
  5
235
100
AcDbEntity
  8
RUNDUNGEN
100
AcDbLine
 62
7
  6
CONTINUOUS
 10
72.7352053949
 20
156.6039470509
 11
72.9143201978
 21
156.9374535664
  0
LWPOLYLINE
  5
236
100
AcDbEntity
  8
RUNDUNGEN
100
AcDbPolyline
 62
7
  6
CONTINUOUS
 90
3
 70
0
 10
63.7317625806
 20
141.5621318243
 10
63.7203125319
 20
141.5459987364
 10
63.2514988843
 20
140.9020435932
  0
LINE
  5
237
100
AcDbEntity
  8
RUNDUNGEN
100
AcDbLine
 62
7
  6
CONTINUOUS
 10
63.2514988843
 20
140.9020435932
 11
63.1366505112
 21
140.7430303314
  0
LINE
  5
238
100
AcDbEntity
  8
RUNDUNGEN
100
AcDbLine
 62
7
  6
CONTINUOUS
 10
45.1878997543
 20
119.0527894899
 11
45.4190306031
 21
119.3528801621
  0
LINE
  5
239
100
AcDbEntity
  8
RUNDUNGEN
100
AcDbLine
 62
7
  6
CONTINUOUS
 10
72.4963580022
 20
156.310218518
 11
72.7352053949
 21
156.6039470509
  0
LINE
  5
23A
100
AcDbEntity
  8
RUNDUNGEN
100
AcDbLine
 62
7
  6
CONTINUOUS
 10
42.643140138
 20
116.3286513905
 11
45.186976163
 21
119.056471966
  0
LINE
  5
23B
100
AcDbEntity
  8
RUNDUNGEN
100
AcDbLine
 62
7
  6
CONTINUOUS
 10
42.6429408566
 20
116.3284368643
 11
42.6429136817
 21
116.3284085546
  0
LINE
  5
23C
100
AcDbEntity
  8
RUNDUNGEN
100
AcDbLine
 62
7
  6
CONTINUOUS
 10
92.1472927727
 20
165.832799355
 11
89.4194031353
 21
163.2888989261
  0
LINE
  5
23D
100
AcDbEntity
  8
0
100
AcDbLine
 62
7
  6
CONTINUOUS
 10
81.1662595398
 20
152.5742665096
 11
80.9800324311
 21
152.4215806121
  0
LINE
  5
23E
100
AcDbEntity
  8
0
100
AcDbLine
 62
7
  6
CONTINUOUS
 10
81.0637521128
 20
152.1319313224
 11
81.2922649566
 21
152.3043581086
  0
LWPOLYLINE
  5
23F
100
AcDbEntity
  8
RUNDUNGEN
100
AcDbPolyline
 62
7
  6
CONTINUOUS
 90
3
 70
0
 10
66.913743096
 20
144.7441123397
 10
66.9296181377
 20
144.7559175585
 10
67.5744794951
 20
145.2234839093
  0
LINE
  5
240
100
AcDbEntity
  8
RUNDUNGEN
100
AcDbLine
 62
7
  6
CONTINUOUS
 10
67.5744794951
 20
145.2234839093
 11
67.7328445889
 21
145.3392244091
  0
LINE
  5
241
100
AcDbEntity
  8
0
100
AcDbLine
 62
7
  6
CONTINUOUS
 10
79.0627069241
 20
152.5554570838
 11
78.0643645969
 21
152.04780307
  0
LINE
  5
242
100
AcDbEntity
  8
0
100
AcDbLine
 62
7
  6
CONTINUOUS
 10
78.448964528
 20
151.9092000287
 11
79.2393188307
 21
152.3110927695
  0
LINE
  5
243
100
AcDbEntity
  8
0
100
AcDbLine
 62
7
  6
CONTINUOUS
 10
79.6443619542
 20
151.5145429865
 11
78.8540076515
 21
151.1126502458
  0
LINE
  5
244
100
AcDbEntity
  8
0
100
AcDbLine
 62
7
  6
CONTINUOUS
 10
79.0160248706
 20
150.7940303921
 11
79.764781616
 21
151.1747709024
  0
LINE
  5
245
100
AcDbEntity
  8
0
100
AcDbLine
 62
7
  6
CONTINUOUS
 10
79.3334996313
 20
149.551947252
 11
79.5830852132
 21
149.6788607554
  0
LINE
  5
246
100
AcDbEntity
  8
0
100
AcDbLine
 62
7
  6
CONTINUOUS
 10
80.6165459501
 20
152.3176354091
 11
80.4051177581
 21
152.2189311918
  0
LINE
  5
247
100
AcDbEntity
  8
0
100
AcDbLine
 62
7
  6
CONTINUOUS
 10
81.2115524964
 20
150.4915172738
 11
81.4229806885
 21
150.5902214911
  0
LINE
  5
248
100
AcDbEntity
  8
0
100
AcDbLine
 62
7
  6
CONTINUOUS
 10
82.4170215544
 20
153.1241292097
 11
82.0739626767
 21
152.9768589915
  0
LINE
  5
249
100
AcDbEntity
  8
0
100
AcDbLine
 62
7
  6
CONTINUOUS
 10
82.2537297298
 20
152.7947029776
 11
82.4252589232
 21
152.8683379814
  0
LINE
  5
24A
100
AcDbEntity
  8
0
100
AcDbLine
 62
7
  6
CONTINUOUS
 10
82.9892722464
 20
151.5544961202
 11
82.8177430529
 21
151.4808611164
  0
LINE
  5
24B
100
AcDbEntity
  8
0
100
AcDbLine
 62
7
  6
CONTINUOUS
 10
82.82598043
 20
151.2250698689
 11
83.1690393076
 21
151.3723400871
  0
LINE
  5
24C
100
AcDbEntity
  8
0
100
AcDbLine
 62
7
  6
CONTINUOUS
 10
83.2086687916
 20
154.4153991719
 11
82.9920128686
 21
154.3287692778
  0
LINE
  5
24D
100
AcDbEntity
  8
0
100
AcDbLine
 62
7
  6
CONTINUOUS
 10
84.0315708052
 20
151.7289001856
 11
84.2482267282
 21
151.8155300797
  0
LINE
  5
24E
100
AcDbEntity
  8
0
100
AcDbLine
 62
7
  6
CONTINUOUS
 10
83.8059859927
 20
154.6484341052
 11
83.5882790968
 21
154.5644803382
  0
LINE
  5
24F
100
AcDbEntity
  8
0
100
AcDbLine
 62
7
  6
CONTINUOUS
 10
83.6954540239
 20
154.2865568865
 11
83.9131609198
 21
154.3705106534
  0
LINE
  5
250
100
AcDbEntity
  8
0
100
AcDbLine
 62
7
  6
CONTINUOUS
 10
84.127510834
 20
153.8146635941
 11
83.9098039381
 21
153.7307098272
  0
LINE
  5
251
100
AcDbEntity
  8
0
100
AcDbLine
 62
7
  6
CONTINUOUS
 10
84.5957235314
 20
151.9519995802
 11
84.8134304273
 21
152.0359533471
  0
LINE
  5
252
100
AcDbEntity
  8
0
100
AcDbLine
 62
7
  6
CONTINUOUS
 10
85.3072655652
 20
154.2501855087
 11
85.1315872798
 21
154.1870846575
  0
LINE
  5
253
100
AcDbEntity
  8
0
100
AcDbLine
 62
7
  6
CONTINUOUS
 10
84.7363118917
 20
154.045108013
 11
84.516714789
 21
153.9662322198
  0
LINE
  5
254
100
AcDbEntity
  8
0
100
AcDbLine
 62
7
  6
CONTINUOUS
 10
85.1611477647
 20
152.1720744867
 11
85.3807448674
 21
152.2509502799
  0
LINE
  5
255
100
AcDbEntity
  8
0
100
AcDbLine
 62
7
  6
CONTINUOUS
 10
86.1712956436
 20
152.5349035688
 11
86.390893249
 21
152.6137795426
  0
LINE
  5
256
100
AcDbEntity
  8
0
100
AcDbLine
 62
7
  6
CONTINUOUS
 10
86.1105547839
 20
155.471267755
 11
85.8883946118
 21
155.3999295731
  0
LINE
  5
257
100
AcDbEntity
  8
0
100
AcDbLine
 62
7
  6
CONTINUOUS
 10
87.2279750504
 20
154.8915256581
 11
86.9613829455
 21
154.8059198726
  0
LINE
  5
258
100
AcDbEntity
  8
0
100
AcDbLine
 62
7
  6
CONTINUOUS
 10
86.7444541002
 20
152.7340034391
 11
86.9666142723
 21
152.8053416209
  0
LINE
  5
259
100
AcDbEntity
  8
0
100
AcDbLine
 62
7
  6
CONTINUOUS
 10
87.7219601798
 20
153.0478918637
 11
87.9885527932
 21
153.1334978126
  0
LINE
  5
25A
100
AcDbEntity
  8
RUNDUNGEN
100
AcDbLine
 62
7
  6
CONTINUOUS
 10
117.1718692007
 20
162.788790484
 11
117.5343471819
 21
162.8979619592
  0
LWPOLYLINE
  5
25B
100
AcDbEntity
  8
RUNDUNGEN
100
AcDbPolyline
 62
7
  6
CONTINUOUS
 90
3
 70
0
 10
104.6693040497
 20
53.59412503
 10
104.6888082727
 20
53.5974364389
 10
105.4756546306
 20
53.721280178
  0
LINE
  5
25C
100
AcDbEntity
  8
RUNDUNGEN
100
AcDbLine
 62
7
  6
CONTINUOUS
 10
105.4756546306
 20
53.721280178
 11
105.6693040497
 21
53.7525094703
  0
LINE
  5
25D
100
AcDbEntity
  8
RUNDUNGEN
100
AcDbLine
 62
7
  6
CONTINUOUS
 10
133.6983038084
 20
56.3981424785
 11
133.3226734684
 21
56.3493805206
  0
LINE
  5
25E
100
AcDbEntity
  8
RUNDUNGEN
100
AcDbLine
 62
7
  6
CONTINUOUS
 10
88.0433269428
 20
49.3631580762
 11
87.6667388993
 21
49.3243512562
  0
LINE
  5
25F
100
AcDbEntity
  8
RUNDUNGEN
100
AcDbLine
 62
7
  6
CONTINUOUS
 10
137.423975348
 20
56.524982161
 11
133.6963529798
 21
56.3948854993
  0
LINE
  5
260
100
AcDbEntity
  8
RUNDUNGEN
100
AcDbLine
 62
7
  6
CONTINUOUS
 10
137.4244359444
 20
56.5249996449
 11
137.4244947019
 21
56.5250002885
  0
LINE
  5
261
100
AcDbEntity
  8
RUNDUNGEN
100
AcDbLine
 62
7
  6
CONTINUOUS
 10
71.1422551206
 20
56.3948854993
 11
67.4145072556
 21
56.5249865409
  0
LWPOLYLINE
  5
262
100
AcDbEntity
  8
RUNDUNGEN
100
AcDbPolyline
 62
7
  6
CONTINUOUS
 90
3
 70
0
 10
100.1693040497
 20
53.59412503
 10
100.1497311498
 20
53.5970028294
 10
99.3631259738
 20
53.7223693308
  0
LINE
  5
263
100
AcDbEntity
  8
RUNDUNGEN
100
AcDbLine
 62
7
  6
CONTINUOUS
 10
99.3631259738
 20
53.7223693308
 11
99.1693040497
 21
53.7525094703
  0
LINE
  5
264
100
AcDbEntity
  8
RUNDUNGEN
100
AcDbLine
 62
7
  6
CONTINUOUS
 10
51.8719279912
 20
76.3724725283
 11
51.5384214622
 21
76.5515872764
  0
LWPOLYLINE
  5
265
100
AcDbEntity
  8
RUNDUNGEN
100
AcDbPolyline
 62
7
  6
CONTINUOUS
 90
3
 70
0
 10
66.913743096
 20
67.3690294014
 10
66.9298761839
 20
67.3575793527
 10
67.5738313271
 20
66.8887657051
  0
LINE
  5
266
100
AcDbEntity
  8
RUNDUNGEN
100
AcDbLine
 62
7
  6
CONTINUOUS
 10
67.5738313271
 20
66.8887657051
 11
67.7328445889
 21
66.773917332
  0
LINE
  5
267
100
AcDbEntity
  8
RUNDUNGEN
100
AcDbLine
 62
7
  6
CONTINUOUS
 10
89.4230854303
 20
48.8251665751
 11
89.1229947582
 21
49.0562974239
  0
LINE
  5
268
100
AcDbEntity
  8
RUNDUNGEN
100
AcDbLine
 62
7
  6
CONTINUOUS
 10
52.1656565158
 20
76.1336251345
 11
51.8719279912
 21
76.3724725283
  0
LINE
  5
269
100
AcDbEntity
  8
RUNDUNGEN
100
AcDbLine
 62
7
  6
CONTINUOUS
 10
92.1472222385
 20
46.2804081629
 11
89.4194029543
 21
48.8242429838
  0
LINE
  5
26A
100
AcDbEntity
  8
RUNDUNGEN
100
AcDbLine
 62
7
  6
CONTINUOUS
 10
92.1474328074
 20
46.2802125448
 11
92.1474603333
 21
46.280186128
  0
LINE
  5
26B
100
AcDbEntity
  8
RUNDUNGEN
100
AcDbLine
 62
7
  6
CONTINUOUS
 10
45.1869761653
 20
93.0566697727
 11
42.6430557002
 21
95.7845808953
  0
LWPOLYLINE
  5
26C
100
AcDbEntity
  8
RUNDUNGEN
100
AcDbPolyline
 62
7
  6
CONTINUOUS
 90
3
 70
0
 10
63.7317625806
 20
70.5510099167
 10
63.7199573618
 20
70.5668849585
 10
63.252391011
 20
71.2117463158
  0
LINE
  5
26D
100
AcDbEntity
  8
RUNDUNGEN
100
AcDbLine
 62
7
  6
CONTINUOUS
 10
63.252391011
 20
71.2117463158
 11
63.1366505112
 21
71.3701114097
  0
LINE
  5
26E
100
AcDbEntity
  8
RUNDUNGEN
100
AcDbLine
 62
7
  6
CONTINUOUS
 10
45.6870844354
 20
120.8091360209
 11
45.5779129601
 21
121.1716140023
  0
LWPOLYLINE
  5
26F
100
AcDbEntity
  8
RUNDUNGEN
100
AcDbPolyline
 62
7
  6
CONTINUOUS
 90
3
 70
0
 10
49.9568582092
 20
103.8065708705
 10
49.9601696181
 20
103.7870666476
 10
50.0840133572
 20
103.0002202897
  0
LINE
  5
270
100
AcDbEntity
  8
RUNDUNGEN
100
AcDbLine
 62
7
  6
CONTINUOUS
 10
50.0840133572
 20
103.0002202897
 11
50.1152426496
 21
102.8065708705
  0
LINE
  5
271
100
AcDbEntity
  8
RUNDUNGEN
100
AcDbLine
 62
7
  6
CONTINUOUS
 10
52.7608756577
 20
74.7775711119
 11
52.7121136998
 21
75.1532014519
  0
LINE
  5
272
100
AcDbEntity
  8
RUNDUNGEN
100
AcDbLine
 62
7
  6
CONTINUOUS
 10
45.5779027365
 20
90.9415331501
 11
43.4068137358
 21
85.6213162127
  0
LINE
  5
273
100
AcDbEntity
  8
RUNDUNGEN
100
AcDbLine
 62
7
  6
CONTINUOUS
 10
75.1410791179
 20
162.2346100901
 11
72.9143094062
 21
156.9374568783
  0
LINE
  5
274
100
AcDbEntity
  8
0
100
AcDbLine
 62
7
  6
CONTINUOUS
 10
80.9450115807
 20
151.9450045204
 11
81.0637521128
 21
152.1319313224
  0
LINE
  5
275
100
AcDbEntity
  8
0
100
AcDbLine
 62
7
  6
CONTINUOUS
 10
81.925934036
 20
152.8484805824
 11
81.8636697467
 21
152.7569195699
  0
LINE
  5
276
100
AcDbEntity
  8
0
100
AcDbLine
 62
7
  6
CONTINUOUS
 10
79.7421518752
 20
151.6311030472
 11
79.6443619542
 21
151.5145429865
  0
LINE
  5
277
100
AcDbEntity
  8
0
100
AcDbLine
 62
7
  6
CONTINUOUS
 10
80.9800324311
 20
152.4215806121
 11
80.8783765509
 21
152.3083763789
  0
LINE
  5
278
100
AcDbEntity
  8
0
100
AcDbLine
 62
7
  6
CONTINUOUS
 10
79.764781616
 20
151.1747709024
 11
79.9457667706
 21
151.3336354844
  0
LINE
  5
279
100
AcDbEntity
  8
0
100
AcDbLine
 62
7
  6
CONTINUOUS
 10
82.0739626767
 20
152.9768589915
 11
81.925934036
 21
152.8484805824
  0
LINE
  5
27A
100
AcDbEntity
  8
0
100
AcDbLine
 62
7
  6
CONTINUOUS
 10
82.1057008437
 20
152.6663244632
 11
82.2537297298
 21
152.7947029776
  0
LINE
  5
27B
100
AcDbEntity
  8
0
100
AcDbLine
 62
7
  6
CONTINUOUS
 10
83.1373011242
 20
151.6828746538
 11
82.9892722464
 21
151.5544961202
  0
LINE
  5
27C
100
AcDbEntity
  8
0
100
AcDbLine
 62
7
  6
CONTINUOUS
 10
83.1690393076
 20
151.3723400871
 11
83.3170679463
 21
151.500718501
  0
LINE
  5
27D
100
AcDbEntity
  8
0
100
AcDbLine
 62
7
  6
CONTINUOUS
 10
85.1315872798
 20
154.1870846575
 11
84.9760480258
 21
154.0679165625
  0
LINE
  5
27E
100
AcDbEntity
  8
0
100
AcDbLine
 62
7
  6
CONTINUOUS
 10
85.0566021407
 20
153.8436468655
 11
85.2121413947
 21
153.9628149605
  0
LINE
  5
27F
100
AcDbEntity
  8
RUNDUNGEN
100
AcDbLine
 62
7
  6
CONTINUOUS
 10
51.538418059
 20
135.5615655212
 11
46.2412648302
 21
133.3347958024
  0
LINE
  5
280
100
AcDbEntity
  8
RUNDUNGEN
100
AcDbLine
 62
7
  6
CONTINUOUS
 10
122.8545587076
 20
165.0690611845
 11
117.53434178
 21
162.8979721877
  0
LINE
  5
281
100
AcDbEntity
  8
RUNDUNGEN
100
AcDbLine
 62
7
  6
CONTINUOUS
 10
117.5343417702
 20
49.2151695573
 11
122.8545587076
 21
47.0440805566
  0
LINE
  5
282
100
AcDbEntity
  8
RUNDUNGEN
100
AcDbLine
 62
7
  6
CONTINUOUS
 10
46.2412648302
 20
78.7783459387
 11
51.5384180492
 21
76.5515762239
  0
LINE
  5
283
100
AcDbEntity
  8
RUNDUNGEN
100
AcDbLine
 62
7
  6
CONTINUOUS
 10
72.914309399
 20
55.1756848798
 11
75.1410791179
 21
49.878531651
  0
LINE
  5
284
100
AcDbEntity
  8
RUNDUNGEN
100
AcDbLine
 62
7
  6
CONTINUOUS
 10
43.4068137358
 20
126.4918255284
 11
45.5779027325
 21
121.171608601
  0
LINE
  5
285
100
AcDbEntity
  8
0
100
AcDbLine
 62
7
  6
CONTINUOUS
 10
80.8783765509
 20
152.3083763789
 11
80.801921754
 21
152.1411904655
  0
LINE
  5
286
100
AcDbEntity
  8
0
100
AcDbLine
 62
7
  6
CONTINUOUS
 10
84.9760480258
 20
154.0679165625
 11
84.8845666206
 21
153.9084561659
  0
LINE
  5
287
100
AcDbEntity
  8
0
100
AcDbLine
 62
7
  6
CONTINUOUS
 10
84.9651207355
 20
153.6841864689
 11
85.0566021407
 21
153.8436468655
  0
LINE
  5
288
100
AcDbEntity
  8
0
100
AcDbLine
 62
7
  6
CONTINUOUS
 10
83.3170679463
 20
151.500718501
 11
83.3793319882
 21
151.5922794129
  0
LINE
  5
289
100
AcDbEntity
  8
0
100
AcDbLine
 62
7
  6
CONTINUOUS
 10
117.5180072313
 20
154.9852655746
 11
117.6186787736
 21
155.0361177475
  0
LINE
  5
28A
100
AcDbEntity
  8
0
100
AcDbLine
 62
7
  6
CONTINUOUS
 10
121.1212130673
 20
153.7666203064
 11
121.2253685091
 21
153.8098903538
  0
LINE
  5
28B
100
AcDbEntity
  8
0
100
AcDbLine
 62
7
  6
CONTINUOUS
 10
119.8416467796
 20
153.830300591
 11
119.6743658722
 21
153.7663580845
  0
LINE
  5
28C
100
AcDbEntity
  8
0
100
AcDbLine
 62
7
  6
CONTINUOUS
 10
119.8645425029
 20
152.648154435
 11
120.031823414
 21
152.7120969512
  0
LINE
  5
28D
100
AcDbEntity
  8
0
100
AcDbLine
 62
7
  6
CONTINUOUS
 10
121.2728371272
 20
154.0025633624
 11
121.1040786693
 21
153.9426289896
  0
LINE
  5
28E
100
AcDbEntity
  8
0
100
AcDbLine
 62
7
  6
CONTINUOUS
 10
120.9207715424
 20
152.2386817796
 11
121.0895297174
 21
152.2986162757
  0
LINE
  5
28F
100
AcDbEntity
  8
0
100
AcDbLine
 62
7
  6
CONTINUOUS
 10
117.6635337541
 20
155.269291845
 11
117.5371463502
 21
155.2265013977
  0
LINE
  5
290
100
AcDbEntity
  8
0
100
AcDbLine
 62
7
  6
CONTINUOUS
 10
117.5199906654
 20
153.4600228495
 11
117.6463782196
 21
153.5028132606
  0
LINE
  5
291
100
AcDbEntity
  8
0
100
AcDbLine
 62
7
  6
CONTINUOUS
 10
125.1171896534
 20
151.9563964942
 11
125.2246746429
 21
151.9905678264
  0
LINE
  5
292
100
AcDbEntity
  8
0
100
AcDbLine
 62
7
  6
CONTINUOUS
 10
122.9512819542
 20
153.308250533
 11
122.7804877407
 21
153.2543914607
  0
LINE
  5
293
100
AcDbEntity
  8
0
100
AcDbLine
 62
7
  6
CONTINUOUS
 10
122.6103753439
 20
151.5256003711
 11
122.7811695616
 21
151.5794594529
  0
LINE
  5
294
100
AcDbEntity
  8
0
100
AcDbLine
 62
7
  6
CONTINUOUS
 10
126.2243408309
 20
151.4365531213
 11
126.3326188489
 21
151.4681216775
  0
LINE
  5
295
100
AcDbEntity
  8
0
100
AcDbLine
 62
7
  6
CONTINUOUS
 10
126.0876557681
 20
151.0639648164
 11
125.8710997321
 21
151.0008277041
  0
LINE
  5
296
100
AcDbEntity
  8
0
100
AcDbLine
 62
7
  6
CONTINUOUS
 10
79.7713413691
 20
151.7796141864
 11
79.7421518752
 21
151.6311030472
  0
LINE
  5
297
100
AcDbEntity
  8
0
100
AcDbLine
 62
7
  6
CONTINUOUS
 10
80.801921754
 20
152.1411904655
 11
80.7677524503
 21
151.9937453278
  0
LINE
  5
298
100
AcDbEntity
  8
0
100
AcDbLine
 62
7
  6
CONTINUOUS
 10
81.8636697467
 20
152.7569195699
 11
81.8249062554
 21
152.6106152575
  0
LINE
  5
299
100
AcDbEntity
  8
0
100
AcDbLine
 62
7
  6
CONTINUOUS
 10
82.0669373524
 20
152.5200201507
 11
82.1057008437
 21
152.6663244632
  0
LINE
  5
29A
100
AcDbEntity
  8
0
100
AcDbLine
 62
7
  6
CONTINUOUS
 10
83.1760646155
 20
151.8291789662
 11
83.1373011242
 21
151.6828746538
  0
LINE
  5
29B
100
AcDbEntity
  8
0
100
AcDbLine
 62
7
  6
CONTINUOUS
 10
84.8845666206
 20
153.9084561659
 11
84.8370045354
 21
153.7647708918
  0
LINE
  5
29C
100
AcDbEntity
  8
0
100
AcDbLine
 62
7
  6
CONTINUOUS
 10
84.9175586503
 20
153.5405011948
 11
84.9651207355
 21
153.6841864689
  0
LINE
  5
29D
100
AcDbEntity
  8
0
100
AcDbLine
 62
7
  6
CONTINUOUS
 10
79.9457667706
 20
151.3336354844
 11
80.0311485093
 21
151.5775543934
  0
LINE
  5
29E
100
AcDbEntity
  8
0
100
AcDbLine
 62
7
  6
CONTINUOUS
 10
86.7662599224
 20
153.429281785
 11
86.8973504555
 21
153.7842292595
  0
LINE
  5
29F
100
AcDbEntity
  8
0
100
AcDbLine
 62
7
  6
CONTINUOUS
 10
119.6567863521
 20
153.5632668262
 11
119.7987875439
 21
153.63655008
  0
LINE
  5
2A0
100
AcDbEntity
  8
0
100
AcDbLine
 62
7
  6
CONTINUOUS
 10
117.6655173508
 20
153.7440491231
 11
117.5648458003
 21
153.6931969239
  0
LINE
  5
2A1
100
AcDbEntity
  8
0
100
AcDbLine
 62
7
  6
CONTINUOUS
 10
120.0104957801
 20
152.8876468886
 11
119.907401747
 21
152.8419049685
  0
LINE
  5
2A2
100
AcDbEntity
  8
0
100
AcDbLine
 62
7
  6
CONTINUOUS
 10
122.750835011
 20
153.052709084
 11
122.8969517177
 21
153.1173987146
  0
LINE
  5
2A3
100
AcDbEntity
  8
0
100
AcDbLine
 62
7
  6
CONTINUOUS
 10
122.4644544637
 20
152.5343073108
 11
122.318337757
 21
152.4696176803
  0
LINE
  5
2A4
100
AcDbEntity
  8
0
100
AcDbLine
 62
7
  6
CONTINUOUS
 10
123.1179791528
 20
152.5480609754
 11
122.9718630109
 21
152.483371097
  0
LINE
  5
2A5
100
AcDbEntity
  8
0
100
AcDbLine
 62
7
  6
CONTINUOUS
 10
121.0723953245
 20
152.4746249718
 11
120.9682395961
 21
152.4313550381
  0
LINE
  5
2A6
100
AcDbEntity
  8
0
100
AcDbLine
 62
7
  6
CONTINUOUS
 10
125.0651538925
 20
150.7075292792
 11
124.9576688907
 21
150.6733579223
  0
LINE
  5
2A7
100
AcDbEntity
  8
0
100
AcDbLine
 62
7
  6
CONTINUOUS
 10
125.9110346997
 20
150.8461024455
 11
126.0193127177
 21
150.8776710017
  0
LINE
  5
2A8
100
AcDbEntity
  8
0
100
AcDbLine
 62
7
  6
CONTINUOUS
 10
126.1053345613
 20
150.1198397682
 11
125.9970565433
 21
150.088271212
  0
LINE
  5
2A9
100
AcDbEntity
  8
0
100
AcDbLine
 62
7
  6
CONTINUOUS
 10
80.0311485093
 20
151.5775543934
 11
80.0479298208
 21
151.8534243809
  0
LINE
  5
2AA
100
AcDbEntity
  8
0
100
AcDbLine
 62
7
  6
CONTINUOUS
 10
81.8249062554
 20
152.6106152575
 11
81.8096433169
 21
152.4095675397
  0
LINE
  5
2AB
100
AcDbEntity
  8
0
100
AcDbLine
 62
7
  6
CONTINUOUS
 10
80.9189589505
 20
151.6698552465
 11
80.9450115807
 21
151.9450045204
  0
LINE
  5
2AC
100
AcDbEntity
  8
0
100
AcDbLine
 62
7
  6
CONTINUOUS
 10
83.3793319882
 20
151.5922794129
 11
83.4180957207
 21
151.7385838403
  0
LINE
  5
2AD
100
AcDbEntity
  8
0
100
AcDbLine
 62
7
  6
CONTINUOUS
 10
86.9760046482
 20
153.997197791
 11
87.2279750504
 21
154.8915256581
  0
LINE
  5
2AE
100
AcDbEntity
  8
0
100
AcDbLine
 62
7
  6
CONTINUOUS
 10
86.9613829455
 20
154.8059198726
 11
86.6569757454
 21
153.7696127403
  0
LINE
  5
2AF
100
AcDbEntity
  8
0
100
AcDbLine
 62
7
  6
CONTINUOUS
 10
117.5371463502
 20
155.2265013977
 11
117.3872351361
 21
155.1086735545
  0
LINE
  5
2B0
100
AcDbEntity
  8
0
100
AcDbLine
 62
7
  6
CONTINUOUS
 10
117.6463782196
 20
153.5028132606
 11
117.7962894379
 21
153.6206411169
  0
LINE
  5
2B1
100
AcDbEntity
  8
0
100
AcDbLine
 62
7
  6
CONTINUOUS
 10
121.1040786693
 20
153.9426289896
 11
120.9854193858
 21
153.8628126198
  0
LINE
  5
2B2
100
AcDbEntity
  8
0
100
AcDbLine
 62
7
  6
CONTINUOUS
 10
121.0895297174
 20
152.2986162757
 11
121.208189006
 21
152.3784326583
  0
LINE
  5
2B3
100
AcDbEntity
  8
0
100
AcDbLine
 62
7
  6
CONTINUOUS
 10
122.7804877407
 20
153.2543914607
 11
122.6590491057
 21
153.1788710239
  0
LINE
  5
2B4
100
AcDbEntity
  8
0
100
AcDbLine
 62
7
  6
CONTINUOUS
 10
123.0883269879
 20
152.3463783508
 11
123.2097656229
 21
152.4218987876
  0
LINE
  5
2B5
100
AcDbEntity
  8
0
100
AcDbLine
 62
7
  6
CONTINUOUS
 10
122.7811695616
 20
151.5794594529
 11
122.9026082021
 21
151.6549799022
  0
LINE
  5
2B6
100
AcDbEntity
  8
0
100
AcDbLine
 62
7
  6
CONTINUOUS
 10
127.6898348956
 20
150.9976542161
 11
127.4139885376
 21
150.8370010589
  0
LINE
  5
2B7
100
AcDbEntity
  8
0
100
AcDbLine
 62
7
  6
CONTINUOUS
 10
127.2598161819
 20
150.5628211167
 11
127.5356625939
 21
150.7234743699
  0
LINE
  5
2B8
100
AcDbEntity
  8
0
100
AcDbLine
 62
7
  6
CONTINUOUS
 10
125.174500777
 20
152.1915060711
 11
125.0077390708
 21
152.0990549688
  0
LINE
  5
2B9
100
AcDbEntity
  8
0
100
AcDbLine
 62
7
  6
CONTINUOUS
 10
125.0078427504
 20
150.4724196652
 11
125.1746044628
 21
150.5648707799
  0
LINE
  5
2BA
100
AcDbEntity
  8
0
100
AcDbLine
 62
7
  6
CONTINUOUS
 10
125.8265624782
 20
150.8019020096
 11
125.9110346997
 21
150.8461024455
  0
LINE
  5
2BB
100
AcDbEntity
  8
0
100
AcDbLine
 62
7
  6
CONTINUOUS
 10
82.0516741685
 20
152.3189723276
 11
82.0669373524
 21
152.5200201507
  0
LINE
  5
2BC
100
AcDbEntity
  8
0
100
AcDbLine
 62
7
  6
CONTINUOUS
 10
83.1913275375
 20
152.0302267223
 11
83.1760646155
 21
151.8291789662
  0
LINE
  5
2BD
100
AcDbEntity
  8
0
100
AcDbLine
 62
7
  6
CONTINUOUS
 10
83.4180957207
 20
151.7385838403
 11
83.4333588964
 21
151.9396316826
  0
LINE
  5
2BE
100
AcDbEntity
  8
0
100
AcDbLine
 62
7
  6
CONTINUOUS
 10
117.7522347159
 20
153.8404817887
 11
117.6655173508
 21
153.7440491231
  0
LINE
  5
2BF
100
AcDbEntity
  8
0
100
AcDbLine
 62
7
  6
CONTINUOUS
 10
120.1019381289
 20
152.9796114491
 11
120.0104957801
 21
152.8876468886
  0
LINE
  5
2C0
100
AcDbEntity
  8
0
100
AcDbLine
 62
7
  6
CONTINUOUS
 10
120.9339933475
 20
153.5871055812
 11
121.1212130673
 21
153.7666203064
  0
LINE
  5
2C1
100
AcDbEntity
  8
0
100
AcDbLine
 62
7
  6
CONTINUOUS
 10
121.2596150139
 20
152.6541396202
 11
121.0723953245
 21
152.4746249718
  0
LINE
  5
2C2
100
AcDbEntity
  8
0
100
AcDbLine
 62
7
  6
CONTINUOUS
 10
120.031823414
 20
152.7120969512
 11
120.1621729167
 21
152.8316028324
  0
LINE
  5
2C3
100
AcDbEntity
  8
0
100
AcDbLine
 62
7
  6
CONTINUOUS
 10
122.6540744034
 20
152.9663577402
 11
122.750835011
 21
153.052709084
  0
LINE
  5
2C4
100
AcDbEntity
  8
0
100
AcDbLine
 62
7
  6
CONTINUOUS
 10
123.214740281
 20
152.6344119704
 11
123.1179791528
 21
152.5480609754
  0
LINE
  5
2C5
100
AcDbEntity
  8
0
100
AcDbLine
 62
7
  6
CONTINUOUS
 10
122.3133630768
 20
152.257104447
 11
122.4506033956
 21
152.3686291366
  0
LINE
  5
2C6
100
AcDbEntity
  8
0
100
AcDbLine
 62
7
  6
CONTINUOUS
 10
122.9075828713
 20
151.8674931103
 11
122.7703425636
 21
151.7559684459
  0
LINE
  5
2C7
100
AcDbEntity
  8
0
100
AcDbLine
 62
7
  6
CONTINUOUS
 10
125.1661218634
 20
150.788921411
 11
125.0651538925
 21
150.7075292792
  0
LINE
  5
2C8
100
AcDbEntity
  8
0
100
AcDbLine
 62
7
  6
CONTINUOUS
 10
126.12143884
 20
151.3576202984
 11
126.2243408309
 21
151.4365531213
  0
LINE
  5
2C9
100
AcDbEntity
  8
0
100
AcDbLine
 62
7
  6
CONTINUOUS
 10
126.2082365651
 20
150.1987726154
 11
126.1053345613
 21
150.1198397682
  0
LINE
  5
2CA
100
AcDbEntity
  8
0
100
AcDbLine
 62
7
  6
CONTINUOUS
 10
126.2266414293
 20
151.6133788871
 11
126.0815038725
 21
151.512345557
  0
LINE
  5
2CB
100
AcDbEntity
  8
0
100
AcDbLine
 62
7
  6
CONTINUOUS
 10
126.1030339565
 20
149.9430139903
 11
126.2481715198
 21
150.0440473325
  0
LINE
  5
2CC
100
AcDbEntity
  8
RUNDUNGEN
100
AcDbLine
 62
7
  6
CONTINUOUS
 10
107.2066074794
 20
166.3280337054
 11
104.6693040497
 21
158.519016711
  0
LINE
  5
2CD
100
AcDbEntity
  8
RUNDUNGEN
100
AcDbLine
 62
7
  6
CONTINUOUS
 10
66.913743096
 20
67.3690294014
 11
63.1860786859
 21
60.0530760692
  0
LINE
  5
2CE
100
AcDbEntity
  8
0
100
AcDbLine
 62
7
  6
CONTINUOUS
 10
117.4570056949
 20
154.8807710783
 11
117.5180072313
 21
154.9852655746
  0
LINE
  5
2CF
100
AcDbEntity
  8
0
100
AcDbLine
 62
7
  6
CONTINUOUS
 10
120.8773059912
 20
153.7365088723
 11
120.8087458415
 21
153.6368104031
  0
LINE
  5
2D0
100
AcDbEntity
  8
0
100
AcDbLine
 62
7
  6
CONTINUOUS
 10
120.1621729167
 20
152.8316028324
 11
120.2808707303
 21
152.997331341
  0
LINE
  5
2D1
100
AcDbEntity
  8
0
100
AcDbLine
 62
7
  6
CONTINUOUS
 10
117.7962894379
 20
153.6206411169
 11
117.8947686427
 21
153.7545925297
  0
LINE
  5
2D2
100
AcDbEntity
  8
0
100
AcDbLine
 62
7
  6
CONTINUOUS
 10
122.6590491057
 20
153.1788710239
 11
122.5306846099
 21
153.0205115232
  0
LINE
  5
2D3
100
AcDbEntity
  8
0
100
AcDbLine
 62
7
  6
CONTINUOUS
 10
122.318337757
 20
152.4696176803
 11
122.1899738483
 21
152.311257982
  0
LINE
  5
2D4
100
AcDbEntity
  8
0
100
AcDbLine
 62
7
  6
CONTINUOUS
 10
122.9026082021
 20
151.6549799022
 11
123.0309726647
 21
151.8133393273
  0
LINE
  5
2D5
100
AcDbEntity
  8
0
100
AcDbLine
 62
7
  6
CONTINUOUS
 10
125.0403257696
 20
151.8629500449
 11
125.1171896534
 21
151.9563964942
  0
LINE
  5
2D6
100
AcDbEntity
  8
0
100
AcDbLine
 62
7
  6
CONTINUOUS
 10
120.9854193858
 20
153.8628126198
 11
120.8773059912
 21
153.7365088723
  0
LINE
  5
2D7
100
AcDbEntity
  8
0
100
AcDbLine
 62
7
  6
CONTINUOUS
 10
121.208189006
 20
152.3784326583
 11
121.3163021241
 21
152.5047365452
  0
LINE
  5
2D8
100
AcDbEntity
  8
0
100
AcDbLine
 62
7
  6
CONTINUOUS
 10
126.0423436837
 20
151.26605492
 11
126.12143884
 21
151.3576202984
  0
LINE
  5
2D9
100
AcDbEntity
  8
0
100
AcDbLine
 62
7
  6
CONTINUOUS
 10
123.2097656229
 20
152.4218987876
 11
123.3223278479
 21
152.5442542329
  0
LINE
  5
2DA
100
AcDbEntity
  8
0
100
AcDbLine
 62
7
  6
CONTINUOUS
 10
126.0815038725
 20
151.512345557
 11
125.9417422912
 21
151.3639478628
  0
LINE
  5
2DB
100
AcDbEntity
  8
0
100
AcDbLine
 62
7
  6
CONTINUOUS
 10
126.2481715198
 20
150.0440473325
 11
126.3879330624
 21
150.1924449537
  0
LINE
  5
2DC
100
AcDbEntity
  8
0
100
AcDbLine
 62
7
  6
CONTINUOUS
 10
125.1746044628
 20
150.5648707799
 11
125.2931590121
 21
150.6814297929
  0
LINE
  5
2DD
100
AcDbEntity
  8
RUNDUNGEN
100
AcDbLine
 62
7
  6
CONTINUOUS
 10
148.4227988511
 20
145.2897962344
 11
141.1068455189
 21
141.5621318243
  0
LINE
  5
2DE
100
AcDbEntity
  8
RUNDUNGEN
100
AcDbLine
 62
7
  6
CONTINUOUS
 10
49.9568582092
 20
103.8065708705
 11
42.1478412149
 21
101.2692674408
  0
LINE
  5
2DF
100
AcDbEntity
  8
RUNDUNGEN
100
AcDbLine
 62
7
  6
CONTINUOUS
 10
42.1478412149
 20
110.8438743002
 11
49.9568582092
 21
108.3065708705
  0
LINE
  5
2E0
100
AcDbEntity
  8
RUNDUNGEN
100
AcDbLine
 62
7
  6
CONTINUOUS
 10
141.1068455189
 20
70.5510099167
 11
148.4227988511
 21
66.8233455067
  0
LINE
  5
2E1
100
AcDbEntity
  8
RUNDUNGEN
100
AcDbLine
 62
7
  6
CONTINUOUS
 10
63.1860786859
 20
152.0600656719
 11
66.913743096
 21
144.7441123397
  0
LINE
  5
2E2
100
AcDbEntity
  8
RUNDUNGEN
100
AcDbLine
 62
7
  6
CONTINUOUS
 10
104.6693040497
 20
53.59412503
 11
107.2066074794
 21
45.7851080356
  0
LINE
  5
2E3
100
AcDbEntity
  8
0
100
AcDbLine
 62
7
  6
CONTINUOUS
 10
79.7319303168
 20
151.9600763436
 11
79.7713413691
 21
151.7796141864
  0
LINE
  5
2E4
100
AcDbEntity
  8
0
100
AcDbLine
 62
7
  6
CONTINUOUS
 10
80.0479298208
 20
151.8534243809
 11
80.0085187685
 21
152.0338865381
  0
LINE
  5
2E5
100
AcDbEntity
  8
0
100
AcDbLine
 62
7
  6
CONTINUOUS
 10
81.8096433169
 20
152.4095675397
 11
81.837262554
 21
152.2269285202
  0
LINE
  5
2E6
100
AcDbEntity
  8
RUNDUNGEN
100
AcDbLine
 62
7
  6
CONTINUOUS
 10
92.4193040497
 20
75.5861306461
 11
92.4193040497
 21
77.1013086238
  0
LINE
  5
2E7
100
AcDbEntity
  8
RUNDUNGEN
100
AcDbLine
 62
7
  6
CONTINUOUS
 10
92.4193040497
 20
135.0118330905
 11
92.4193040497
 21
136.527011095
  0
LINE
  5
2E8
100
AcDbEntity
  8
RUNDUNGEN
100
AcDbLine
 62
7
  6
CONTINUOUS
 10
93.4193040497
 20
166.019016711
 11
93.4193040497
 21
159.6697776222
  0
LINE
  5
2E9
100
AcDbEntity
  8
RUNDUNGEN
100
AcDbLine
 62
7
  6
CONTINUOUS
 10
93.4193040497
 20
46.09412503
 11
93.4193040497
 21
52.443379672
  0
LINE
  5
2EA
100
AcDbEntity
  8
0
100
AcDbLine
 62
7
  6
CONTINUOUS
 10
117.3872351361
 20
155.1086735545
 11
117.3144718747
 21
154.9666604193
  0
LINE
  5
2EB
100
AcDbEntity
  8
0
100
AcDbLine
 62
7
  6
CONTINUOUS
 10
120.8219225732
 20
153.3777679059
 11
120.9339933475
 21
153.5871055812
  0
LINE
  5
2EC
100
AcDbEntity
  8
0
100
AcDbLine
 62
7
  6
CONTINUOUS
 10
120.8087458415
 20
153.6368104031
 11
120.7111783356
 21
153.4640192778
  0
LINE
  5
2ED
100
AcDbEntity
  8
0
100
AcDbLine
 62
7
  6
CONTINUOUS
 10
121.3848625199
 20
152.6044347983
 11
121.4824300461
 21
152.7772259748
  0
LINE
  5
2EE
100
AcDbEntity
  8
0
100
AcDbLine
 62
7
  6
CONTINUOUS
 10
120.1681007524
 20
153.080916731
 11
120.1019381289
 21
152.9796114491
  0
LINE
  5
2EF
100
AcDbEntity
  8
0
100
AcDbLine
 62
7
  6
CONTINUOUS
 10
125.9417422912
 20
151.3639478628
 11
125.788928109
 21
151.1334530339
  0
LINE
  5
2F0
100
AcDbEntity
  8
0
100
AcDbLine
 62
7
  6
CONTINUOUS
 10
125.9079592709
 20
151.0702924781
 11
126.0423436837
 21
151.26605492
  0
LINE
  5
2F1
100
AcDbEntity
  8
0
100
AcDbLine
 62
7
  6
CONTINUOUS
 10
121.3163021241
 20
152.5047365452
 11
121.3848625199
 21
152.6044347983
  0
LINE
  5
2F2
100
AcDbEntity
  8
0
100
AcDbLine
 62
7
  6
CONTINUOUS
 10
125.0077390708
 20
152.0990549688
 11
124.9132886702
 21
151.9704417615
  0
LINE
  5
2F3
100
AcDbEntity
  8
0
100
AcDbLine
 62
7
  6
CONTINUOUS
 10
125.7474673477
 20
150.7103366799
 11
125.8265624782
 21
150.8019020096
  0
LINE
  5
2F4
100
AcDbEntity
  8
0
100
AcDbLine
 62
7
  6
CONTINUOUS
 10
126.2873316698
 20
150.2903378965
 11
126.2082365651
 21
150.1987726154
  0
LINE
  5
2F5
100
AcDbEntity
  8
RUNDUNGEN
100
AcDbLine
 62
7
  6
CONTINUOUS
 10
138.4551950894
 20
154.8203839716
 11
133.9657057445
 21
150.3308946266
  0
LINE
  5
2F6
100
AcDbEntity
  8
RUNDUNGEN
100
AcDbLine
 62
7
  6
CONTINUOUS
 10
53.6554909487
 20
70.0206798309
 11
58.1450961057
 21
74.5102849879
  0
LINE
  5
2F7
100
AcDbEntity
  8
0
100
AcDbLine
 62
7
  6
CONTINUOUS
 10
147.4334264651
 20
130.3025138351
 11
147.2468926849
 21
130.2348279997
  0
LINE
  5
2F8
100
AcDbEntity
  8
0
100
AcDbLine
 62
7
  6
CONTINUOUS
 10
146.8885898035
 20
128.8891336645
 11
147.0751234982
 21
128.9568194849
  0
LINE
  5
2F9
100
AcDbEntity
  8
0
100
AcDbLine
 62
7
  6
CONTINUOUS
 10
147.3221813094
 20
130.0917248446
 11
147.4739178731
 21
130.141103373
  0
LINE
  5
2FA
100
AcDbEntity
  8
RUNDUNGEN
100
AcDbLine
 62
7
  6
CONTINUOUS
 10
73.4640420695
 20
96.0565708705
 11
71.9488638253
 21
96.0565708705
  0
LINE
  5
2FB
100
AcDbEntity
  8
RUNDUNGEN
100
AcDbLine
 62
7
  6
CONTINUOUS
 10
131.3745661435
 20
96.0565708705
 11
132.8897442742
 21
96.0565708705
  0
LINE
  5
2FC
100
AcDbEntity
  8
RUNDUNGEN
100
AcDbLine
 62
7
  6
CONTINUOUS
 10
42.4568582092
 20
97.0565708705
 11
48.8059025334
 21
97.0565708705
  0
LINE
  5
2FD
100
AcDbEntity
  8
RUNDUNGEN
100
AcDbLine
 62
7
  6
CONTINUOUS
 10
156.0324941772
 20
97.0565708705
 11
162.3817498903
 21
97.0565708705
  0
LINE
  5
2FE
100
AcDbEntity
  8
RUNDUNGEN
100
AcDbLine
 62
7
  6
CONTINUOUS
 10
53.6554909487
 20
142.0924619102
 11
58.1449401963
 21
137.6030126626
  0
LINE
  5
2FF
100
AcDbEntity
  8
RUNDUNGEN
100
AcDbLine
 62
7
  6
CONTINUOUS
 10
133.9655903134
 20
61.7823625456
 11
138.4551950894
 21
57.2927577695
  0
LINE
  5
300
100
AcDbEntity
  8
0
100
AcDbLine
 62
7
  6
CONTINUOUS
 10
81.837262554
 20
152.2269285202
 11
81.8883823439
 21
151.9895460954
  0
LINE
  5
301
100
AcDbEntity
  8
0
100
AcDbLine
 62
7
  6
CONTINUOUS
 10
82.1027942038
 20
152.0815900082
 11
82.0516741685
 21
152.3189723276
  0
LINE
  5
302
100
AcDbEntity
  8
0
100
AcDbLine
 62
7
  6
CONTINUOUS
 10
83.140207993
 20
152.2676092525
 11
83.1913275375
 21
152.0302267223
  0
LINE
  5
303
100
AcDbEntity
  8
0
100
AcDbLine
 62
7
  6
CONTINUOUS
 10
83.4333588964
 20
151.9396316826
 11
83.3546193622
 21
152.3596529545
  0
LINE
  5
304
100
AcDbEntity
  8
0
100
AcDbLine
 62
7
  6
CONTINUOUS
 10
98.4193040497
 20
120.6647877364
 11
98.4193040497
 21
124.1065708705
  0
LINE
  5
305
100
AcDbEntity
  8
RUNDUNGEN
100
AcDbLine
 62
7
  6
CONTINUOUS
 10
100.1693040497
 20
53.59412503
 11
100.1693040497
 21
54.5940309196
  0
LINE
  5
306
100
AcDbEntity
  8
RUNDUNGEN
100
AcDbLine
 62
7
  6
CONTINUOUS
 10
100.1693040497
 20
157.5191251058
 11
100.1693040497
 21
158.519016711
  0
LINE
  5
307
100
AcDbEntity
  8
02___PRT_ALL_AXES
100
AcDbLine
 62
7
  6
CENTER
 10
102.4193040497
 20
106.0565708705
 11
102.4193040497
 21
42.5291374362
  0
LINE
  5
308
100
AcDbEntity
  8
02___PRT_ALL_AXES
100
AcDbLine
 62
7
  6
CENTER
 10
102.4193040497
 20
106.0565708705
 11
102.4193040497
 21
169.5840043048
  0
LINE
  5
309
100
AcDbEntity
  8
0
100
AcDbLine
 62
7
  6
CONTINUOUS
 10
116.1849214688
 20
155.7460446108
 11
115.6748137481
 21
153.9698424508
  0
LINE
  5
30A
100
AcDbEntity
  8
0
100
AcDbLine
 62
7
  6
CONTINUOUS
 10
115.8953515715
 20
154.1519572366
 11
116.3403391578
 21
155.7014101852
  0
LINE
  5
30B
100
AcDbEntity
  8
0
100
AcDbLine
 62
7
  6
CONTINUOUS
 10
116.6073198821
 20
153.7020358974
 11
116.6724400165
 21
153.9287851087
  0
LINE
  5
30C
100
AcDbEntity
  8
0
100
AcDbLine
 62
7
  6
CONTINUOUS
 10
117.3144718747
 20
154.9666604193
 11
117.2674245155
 21
154.8165854303
  0
LINE
  5
30D
100
AcDbEntity
  8
0
100
AcDbLine
 62
7
  6
CONTINUOUS
 10
117.4334820318
 20
154.8057336363
 11
117.4570056949
 21
154.8807710783
  0
LINE
  5
30E
100
AcDbEntity
  8
0
100
AcDbLine
 62
7
  6
CONTINUOUS
 10
117.7875202105
 20
153.9530379516
 11
117.7522347159
 21
153.8404817887
  0
LINE
  5
30F
100
AcDbEntity
  8
0
100
AcDbLine
 62
7
  6
CONTINUOUS
 10
117.8947686427
 20
153.7545925297
 11
117.9535778005
 21
153.9421861345
  0
LINE
  5
310
100
AcDbEntity
  8
0
100
AcDbLine
 62
7
  6
CONTINUOUS
 10
119.83415087
 20
154.5875829529
 11
119.4798297892
 21
153.6286515229
  0
LINE
  5
311
100
AcDbEntity
  8
0
100
AcDbLine
 62
7
  6
CONTINUOUS
 10
119.6743658722
 20
153.7663580845
 11
119.8924096289
 21
154.3564697734
  0
LINE
  5
312
100
AcDbEntity
  8
0
100
AcDbLine
 62
7
  6
CONTINUOUS
 10
120.1953562172
 20
153.1546806792
 11
120.1681007524
 21
153.080916731
  0
LINE
  5
313
100
AcDbEntity
  8
0
100
AcDbLine
 62
7
  6
CONTINUOUS
 10
120.6255158855
 20
154.0855901327
 11
120.6936545476
 21
154.2700000033
  0
LINE
  5
314
100
AcDbEntity
  8
0
100
AcDbLine
 62
7
  6
CONTINUOUS
 10
120.2808707303
 20
152.997331341
 11
120.3353816599
 21
153.1448592375
  0
LINE
  5
315
100
AcDbEntity
  8
0
100
AcDbLine
 62
7
  6
CONTINUOUS
 10
120.7111783356
 20
153.4640192778
 11
120.58064634
 21
153.1351013525
  0
LINE
  5
316
100
AcDbEntity
  8
0
100
AcDbLine
 62
7
  6
CONTINUOUS
 10
120.7203976878
 20
153.1219428529
 11
120.8219225732
 21
153.3777679059
  0
LINE
  5
317
100
AcDbEntity
  8
0
100
AcDbLine
 62
7
  6
CONTINUOUS
 10
121.4732104072
 20
153.1193025134
 11
121.3716855218
 21
152.8634774604
  0
LINE
  5
318
100
AcDbEntity
  8
0
100
AcDbLine
 62
7
  6
CONTINUOUS
 10
121.4824300461
 20
152.7772259748
 11
121.6129620417
 21
153.1061439001
  0
LINE
  5
319
100
AcDbEntity
  8
0
100
AcDbLine
 62
7
  6
CONTINUOUS
 10
121.7395928383
 20
152.7971470215
 11
121.6636876539
 21
152.6157956987
  0
LINE
  5
31A
100
AcDbEntity
  8
0
100
AcDbLine
 62
7
  6
CONTINUOUS
 10
122.0117308217
 20
152.4701211019
 11
122.0876360061
 21
152.6514724246
  0
LINE
  5
31B
100
AcDbEntity
  8
0
100
AcDbLine
 62
7
  6
CONTINUOUS
 10
122.1899738483
 20
152.311257982
 11
122.1425688633
 21
152.2032453747
  0
LINE
  5
31C
100
AcDbEntity
  8
0
100
AcDbLine
 62
7
  6
CONTINUOUS
 10
122.5306846099
 20
153.0205115232
 11
122.483279625
 21
152.9124989158
  0
LINE
  5
31D
100
AcDbEntity
  8
0
100
AcDbLine
 62
7
  6
CONTINUOUS
 10
122.2659580919
 20
152.1490918396
 11
122.3133630768
 21
152.257104447
  0
LINE
  5
31E
100
AcDbEntity
  8
0
100
AcDbLine
 62
7
  6
CONTINUOUS
 10
122.6224710801
 20
152.8943493353
 11
122.6540744034
 21
152.9663577402
  0
LINE
  5
31F
100
AcDbEntity
  8
0
100
AcDbLine
 62
7
  6
CONTINUOUS
 10
123.2463436042
 20
152.7064203753
 11
123.214740281
 21
152.6344119704
  0
LINE
  5
320
100
AcDbEntity
  8
0
100
AcDbLine
 62
7
  6
CONTINUOUS
 10
122.9549878562
 20
151.9755057176
 11
122.9075828713
 21
151.8674931103
  0
LINE
  5
321
100
AcDbEntity
  8
0
100
AcDbLine
 62
7
  6
CONTINUOUS
 10
123.3223278479
 20
152.5442542329
 11
123.3697328328
 21
152.6522668403
  0
LINE
  5
322
100
AcDbEntity
  8
0
100
AcDbLine
 62
7
  6
CONTINUOUS
 10
123.0309726647
 20
151.8133393273
 11
123.0783776496
 21
151.9213519347
  0
LINE
  5
323
100
AcDbEntity
  8
0
100
AcDbLine
 62
7
  6
CONTINUOUS
 10
124.9132886702
 20
151.9704417615
 11
124.8429423566
 21
151.8297742369
  0
LINE
  5
324
100
AcDbEntity
  8
0
100
AcDbLine
 62
7
  6
CONTINUOUS
 10
125.0051526374
 20
151.7926163318
 11
125.0403257696
 21
151.8629500449
  0
LINE
  5
325
100
AcDbEntity
  8
0
100
AcDbLine
 62
7
  6
CONTINUOUS
 10
125.2188815616
 20
150.8944219806
 11
125.1661218634
 21
150.788921411
  0
LINE
  5
326
100
AcDbEntity
  8
0
100
AcDbLine
 62
7
  6
CONTINUOUS
 10
125.2931590121
 20
150.6814297929
 11
125.3810918424
 21
150.8572640756
  0
LINE
  5
327
100
AcDbEntity
  8
0
100
AcDbLine
 62
7
  6
CONTINUOUS
 10
125.788928109
 20
151.1334530339
 11
125.6599197232
 21
150.8903263251
  0
LINE
  5
328
100
AcDbEntity
  8
0
100
AcDbLine
 62
7
  6
CONTINUOUS
 10
125.8710997321
 20
151.0008277041
 11
125.9079592709
 21
151.0702924781
  0
LINE
  5
329
100
AcDbEntity
  8
0
100
AcDbLine
 62
7
  6
CONTINUOUS
 10
125.6921780395
 20
150.6061395189
 11
125.7474673477
 21
150.7103366799
  0
LINE
  5
32A
100
AcDbEntity
  8
0
100
AcDbLine
 62
7
  6
CONTINUOUS
 10
126.342620978
 20
150.3945350574
 11
126.2873316698
 21
150.2903378965
  0
LINE
  5
32B
100
AcDbEntity
  8
0
100
AcDbLine
 62
7
  6
CONTINUOUS
 10
126.3879330624
 20
150.1924449537
 11
126.4800819351
 21
150.3661069372
  0
LINE
  5
32C
100
AcDbEntity
  8
0
100
AcDbLine
 62
7
  6
CONTINUOUS
 10
121.3716855218
 20
152.8634774604
 11
121.2596150139
 21
152.6541396202
  0
LINE
  5
32D
100
AcDbEntity
  8
0
100
AcDbLine
 62
7
  6
CONTINUOUS
 10
126.4313034763
 20
149.8077732611
 11
126.3364824896
 21
149.6355557564
  0
LINE
  5
32E
100
AcDbEntity
  8
0
100
AcDbLine
 62
7
  6
CONTINUOUS
 10
126.4545225147
 20
149.5705642698
 11
126.5493435014
 21
149.7427817745
  0
LINE
  5
32F
100
AcDbEntity
  8
0
100
AcDbLine
 62
7
  6
CONTINUOUS
 10
127.4139885376
 20
150.8370010589
 11
127.2598161819
 21
150.5628211167
  0
LINE
  5
330
100
AcDbEntity
  8
0
100
AcDbLine
 62
7
  6
CONTINUOUS
 10
127.5356625939
 20
150.7234743699
 11
126.784072515
 21
149.3868474275
  0
LINE
  5
331
100
AcDbEntity
  8
0
100
AcDbLine
 62
7
  6
CONTINUOUS
 10
126.925018109
 20
149.3075932192
 11
127.8307804896
 21
150.9184000078
  0
LINE
  5
332
100
AcDbEntity
  8
RUNDUNGEN
100
AcDbLine
 62
7
  6
CONTINUOUS
 10
63.7317625806
 20
70.5510099167
 11
64.4387999807
 21
71.2580473168
  0
LINE
  5
333
100
AcDbEntity
  8
RUNDUNGEN
100
AcDbLine
 62
7
  6
CONTINUOUS
 10
137.2178373361
 20
144.0370846722
 11
137.9248650035
 21
144.7441123397
  0
LINE
  5
334
100
AcDbEntity
  8
0
100
AcDbLine
 62
7
  6
CONTINUOUS
 10
147.2468926849
 20
130.2348279997
 11
146.7249359014
 21
129.960219042
  0
LINE
  5
335
100
AcDbEntity
  8
0
100
AcDbLine
 62
7
  6
CONTINUOUS
 10
146.800224526
 20
129.8171158868
 11
147.3221813094
 21
130.0917248446
  0
LINE
  5
336
100
AcDbEntity
  8
0
100
AcDbLine
 62
7
  6
CONTINUOUS
 10
147.7924285188
 20
128.5765928919
 11
146.9464878282
 21
128.1584090377
  0
LINE
  5
337
100
AcDbEntity
  8
0
100
AcDbLine
 62
7
  6
CONTINUOUS
 10
147.0181453742
 20
128.0134535752
 11
147.8640860649
 21
128.4316374294
  0
LINE
  5
338
100
AcDbEntity
  8
0
100
AcDbLine
 62
7
  6
CONTINUOUS
 10
148.978251532
 20
128.2105870494
 11
147.3021335583
 21
127.4322988392
  0
LINE
  5
339
100
AcDbEntity
  8
0
100
AcDbLine
 62
7
  6
CONTINUOUS
 10
147.5842062835
 20
127.384994458
 11
149.0463517504
 21
128.0639267267
  0
LINE
  5
33A
100
AcDbEntity
  8
0
100
AcDbLine
 62
7
  6
CONTINUOUS
 10
147.7107348687
 20
126.552336903
 11
147.9247073754
 21
126.6516928445
  0
LINE
  5
33B
100
AcDbEntity
  8
0
100
AcDbLine
 62
7
  6
CONTINUOUS
 10
149.4214269427
 20
125.1521608847
 11
149.2756536965
 21
125.0931178294
  0
LINE
  5
33C
100
AcDbEntity
  8
0
100
AcDbLine
 62
7
  6
CONTINUOUS
 10
149.9275019294
 20
124.9500647698
 11
149.8546152043
 21
124.9205432008
  0
LINE
  5
33D
100
AcDbEntity
  8
0
100
AcDbLine
 62
7
  6
CONTINUOUS
 10
149.1723095861
 20
124.6151096205
 11
149.0265363399
 21
124.5560665651
  0
LINE
  5
33E
100
AcDbEntity
  8
0
100
AcDbLine
 62
7
  6
CONTINUOUS
 10
149.9052017324
 20
124.7956485392
 11
149.9780884576
 21
124.8251701082
  0
LINE
  5
33F
100
AcDbEntity
  8
0
100
AcDbLine
 62
7
  6
CONTINUOUS
 10
149.0771226365
 20
124.4311724753
 11
149.2228958827
 21
124.4902155306
  0
LINE
  5
340
100
AcDbEntity
  8
0
100
AcDbLine
 62
7
  6
CONTINUOUS
 10
149.784790811
 20
124.4568288332
 11
149.4537256869
 21
124.3318428858
  0
LINE
  5
341
100
AcDbEntity
  8
0
100
AcDbLine
 62
7
  6
CONTINUOUS
 10
149.5381036623
 20
124.219665083
 11
149.7955987588
 21
124.3168763753
  0
LINE
  5
342
100
AcDbEntity
  8
0
100
AcDbLine
 62
7
  6
CONTINUOUS
 10
150.0430824643
 20
123.6613368896
 11
149.7855873677
 21
123.5641255972
  0
LINE
  5
343
100
AcDbEntity
  8
0
100
AcDbLine
 62
7
  6
CONTINUOUS
 10
149.7963955334
 20
123.4241725623
 11
150.1274606575
 21
123.5491585096
  0
LINE
  5
344
100
AcDbEntity
  8
0
100
AcDbLine
 62
7
  6
CONTINUOUS
 10
150.9189214828
 20
123.5638882148
 11
149.1729701863
 21
122.9582826746
  0
LINE
  5
345
100
AcDbEntity
  8
0
100
AcDbLine
 62
7
  6
CONTINUOUS
 10
149.2259606711
 20
122.8055119361
 11
150.6004330126
 21
123.2822652491
  0
LINE
  5
346
100
AcDbEntity
  8
0
100
AcDbLine
 62
7
  6
CONTINUOUS
 10
150.9183759212
 20
122.3656408184
 11
149.5439035797
 21
121.8888875055
  0
LINE
  5
347
100
AcDbEntity
  8
0
100
AcDbLine
 62
7
  6
CONTINUOUS
 10
149.5968940644
 20
121.736116767
 11
151.3428453609
 21
122.3417223072
  0
LINE
  5
348
100
AcDbEntity
  8
0
100
AcDbLine
 62
7
  6
CONTINUOUS
 10
151.4280063289
 20
122.0836152846
 11
149.6644764516
 21
121.5312871467
  0
LINE
  5
349
100
AcDbEntity
  8
0
100
AcDbLine
 62
7
  6
CONTINUOUS
 10
149.7128051637
 20
121.3769782825
 11
151.1011159629
 21
121.8117898093
  0
LINE
  5
34A
100
AcDbEntity
  8
0
100
AcDbLine
 62
7
  6
CONTINUOUS
 10
151.3910882353
 20
120.8859366237
 11
150.0027774361
 21
120.4511250969
  0
LINE
  5
34B
100
AcDbEntity
  8
0
100
AcDbLine
 62
7
  6
CONTINUOUS
 10
150.0511061482
 20
120.2968162326
 11
151.8146360254
 21
120.8491443705
  0
LINE
  5
34C
100
AcDbEntity
  8
RUNDUNGEN
100
AcDbLine
 62
7
  6
CONTINUOUS
 10
50.9567550787
 20
103.8065708705
 11
49.9568582092
 21
103.8065708705
  0
LINE
  5
34D
100
AcDbEntity
  8
RUNDUNGEN
100
AcDbLine
 62
7
  6
CONTINUOUS
 10
153.8818440007
 20
103.8065708705
 11
154.8817498903
 21
103.8065708705
  0
LINE
  5
34E
100
AcDbEntity
  8
02___PRT_ALL_AXES
100
AcDbLine
 62
7
  6
CENTER
 10
102.4193040497
 20
106.0565708705
 11
38.8918706154
 21
106.0565708705
  0
LINE
  5
34F
100
AcDbEntity
  8
02___PRT_ALL_AXES
100
AcDbLine
 62
7
  6
CENTER
 10
102.4193040497
 20
106.0565708705
 11
165.9467374841
 21
106.0565708705
  0
LINE
  5
350
100
AcDbEntity
  8
RUNDUNGEN
100
AcDbLine
 62
7
  6
CONTINUOUS
 10
137.2178272218
 20
68.0760671831
 11
137.9248650035
 21
67.3690294014
  0
LINE
  5
351
100
AcDbEntity
  8
RUNDUNGEN
100
AcDbLine
 62
7
  6
CONTINUOUS
 10
64.4387902481
 20
140.8551041569
 11
63.7317625806
 21
141.5621318243
  0
LINE
  5
352
100
AcDbEntity
  8
0
100
AcDbLine
 62
7
  6
CONTINUOUS
 10
78.0643645969
 20
152.04780307
 11
79.3334996313
 21
149.551947252
  0
LINE
  5
353
100
AcDbEntity
  8
0
100
AcDbLine
 62
7
  6
CONTINUOUS
 10
79.5830852132
 20
149.6788607554
 11
79.0160248706
 21
150.7940303921
  0
LINE
  5
354
100
AcDbEntity
  8
0
100
AcDbLine
 62
7
  6
CONTINUOUS
 10
78.8540076515
 20
151.1126502458
 11
78.448964528
 21
151.9092000287
  0
LINE
  5
355
100
AcDbEntity
  8
0
100
AcDbLine
 62
7
  6
CONTINUOUS
 10
79.6509216316
 20
152.1193864192
 11
79.7319303168
 21
151.9600763436
  0
LINE
  5
356
100
AcDbEntity
  8
0
100
AcDbLine
 62
7
  6
CONTINUOUS
 10
80.4051177581
 20
152.2189311918
 11
81.2115524964
 21
150.4915172738
  0
LINE
  5
357
100
AcDbEntity
  8
0
100
AcDbLine
 62
7
  6
CONTINUOUS
 10
81.4229806885
 20
150.5902214911
 11
80.9189589505
 21
151.6698552465
  0
LINE
  5
358
100
AcDbEntity
  8
0
100
AcDbLine
 62
7
  6
CONTINUOUS
 10
80.7677524503
 20
151.9937453278
 11
80.6165459501
 21
152.3176354091
  0
LINE
  5
359
100
AcDbEntity
  8
0
100
AcDbLine
 62
7
  6
CONTINUOUS
 10
81.2922649566
 20
152.3043581086
 11
81.1662595398
 21
152.5742665096
  0
LINE
  5
35A
100
AcDbEntity
  8
0
100
AcDbLine
 62
7
  6
CONTINUOUS
 10
81.8883823439
 20
151.9895460954
 11
81.9823845878
 21
151.7705723976
  0
LINE
  5
35B
100
AcDbEntity
  8
0
100
AcDbLine
 62
7
  6
CONTINUOUS
 10
82.1967964476
 20
151.8626163103
 11
82.1027942038
 21
152.0815900082
  0
LINE
  5
35C
100
AcDbEntity
  8
0
100
AcDbLine
 62
7
  6
CONTINUOUS
 10
83.0462057492
 20
152.4865829503
 11
83.140207993
 21
152.2676092525
  0
LINE
  5
35D
100
AcDbEntity
  8
0
100
AcDbLine
 62
7
  6
CONTINUOUS
 10
83.3546193622
 20
152.3596529545
 11
83.2606171183
 21
152.5786266524
  0
LINE
  5
35E
100
AcDbEntity
  8
0
100
AcDbLine
 62
7
  6
CONTINUOUS
 10
82.9920128686
 20
154.3287692778
 11
84.0315708052
 21
151.7289001856
  0
LINE
  5
35F
100
AcDbEntity
  8
0
100
AcDbLine
 62
7
  6
CONTINUOUS
 10
84.2482267282
 20
151.8155300797
 11
83.2086687916
 21
154.4153991719
  0
LINE
  5
360
100
AcDbEntity
  8
0
100
AcDbLine
 62
7
  6
CONTINUOUS
 10
83.5882790968
 20
154.5644803382
 11
83.6954540239
 21
154.2865568865
  0
LINE
  5
361
100
AcDbEntity
  8
0
100
AcDbLine
 62
7
  6
CONTINUOUS
 10
83.9098039381
 20
153.7307098272
 11
84.5957235314
 21
151.9519995802
  0
LINE
  5
362
100
AcDbEntity
  8
0
100
AcDbLine
 62
7
  6
CONTINUOUS
 10
84.8134304273
 20
152.0359533471
 11
84.127510834
 21
153.8146635941
  0
LINE
  5
363
100
AcDbEntity
  8
0
100
AcDbLine
 62
7
  6
CONTINUOUS
 10
83.9131609198
 20
154.3705106534
 11
83.8059859927
 21
154.6484341052
  0
LINE
  5
364
100
AcDbEntity
  8
0
100
AcDbLine
 62
7
  6
CONTINUOUS
 10
84.516714789
 20
153.9662322198
 11
85.1611477647
 21
152.1720744867
  0
LINE
  5
365
100
AcDbEntity
  8
0
100
AcDbLine
 62
7
  6
CONTINUOUS
 10
85.3807448674
 20
152.2509502799
 11
84.9175586503
 21
153.5405011948
  0
LINE
  5
366
100
AcDbEntity
  8
0
100
AcDbLine
 62
7
  6
CONTINUOUS
 10
84.8370045354
 20
153.7647708918
 11
84.7363118917
 21
154.045108013
  0
LINE
  5
367
100
AcDbEntity
  8
0
100
AcDbLine
 62
7
  6
CONTINUOUS
 10
85.7886635414
 20
153.6001847867
 11
86.1712956436
 21
152.5349035688
  0
LINE
  5
368
100
AcDbEntity
  8
0
100
AcDbLine
 62
7
  6
CONTINUOUS
 10
86.390893249
 20
152.6137795426
 11
86.0082611467
 21
153.6790607604
  0
LINE
  5
369
100
AcDbEntity
  8
0
100
AcDbLine
 62
7
  6
CONTINUOUS
 10
85.8883946118
 20
155.3999295731
 11
86.7444541002
 21
152.7340034391
  0
LINE
  5
36A
100
AcDbEntity
  8
0
100
AcDbLine
 62
7
  6
CONTINUOUS
 10
86.9666142723
 20
152.8053416209
 11
86.7662599224
 21
153.429281785
  0
LINE
  5
36B
100
AcDbEntity
  8
0
100
AcDbLine
 62
7
  6
CONTINUOUS
 10
86.6569757454
 20
153.7696127403
 11
86.1105547839
 21
155.471267755
  0
LINE
  5
36C
100
AcDbEntity
  8
RUNDUNGEN
100
AcDbLine
 62
7
  6
CONTINUOUS
 10
104.6693040497
 20
53.59412503
 11
104.6693040497
 21
54.5940163926
  0
LINE
  5
36D
100
AcDbEntity
  8
RUNDUNGEN
100
AcDbLine
 62
7
  6
CONTINUOUS
 10
104.6693040497
 20
157.5191104403
 11
104.6693040497
 21
158.519016711
  0
LINE
  5
36E
100
AcDbEntity
  8
0
100
AcDbLine
 62
7
  6
CONTINUOUS
 10
106.4193040497
 20
124.1065708705
 11
106.4193040497
 21
120.6647877364
  0
LINE
  5
36F
100
AcDbEntity
  8
0
100
AcDbLine
 62
7
  6
CONTINUOUS
 10
120.58064634
 20
153.1351013525
 11
120.5331782749
 21
152.9424280652
  0
LINE
  5
370
100
AcDbEntity
  8
0
100
AcDbLine
 62
7
  6
CONTINUOUS
 10
120.6584257809
 20
152.8927232432
 11
120.7203976878
 21
153.1219428529
  0
LINE
  5
371
100
AcDbEntity
  8
0
100
AcDbLine
 62
7
  6
CONTINUOUS
 10
121.5351825804
 20
153.3485219581
 11
121.4732104072
 21
153.1193025134
  0
LINE
  5
372
100
AcDbEntity
  8
0
100
AcDbLine
 62
7
  6
CONTINUOUS
 10
125.6599197232
 20
150.8903263251
 11
125.5547171082
 21
150.6345676878
  0
LINE
  5
373
100
AcDbEntity
  8
RUNDUNGEN
100
AcDbLine
 62
7
  6
CONTINUOUS
 10
66.913743096
 20
67.3690294014
 11
67.6207702708
 21
68.0760565763
  0
LINE
  5
374
100
AcDbEntity
  8
RUNDUNGEN
100
AcDbLine
 62
7
  6
CONTINUOUS
 10
140.399808061
 20
140.8550943664
 11
141.1068455189
 21
141.5621318243
  0
LINE
  5
375
100
AcDbEntity
  8
0
100
AcDbLine
 62
7
  6
CONTINUOUS
 10
146.7249359014
 20
129.960219042
 11
146.5634984277
 21
129.8448322047
  0
LINE
  5
376
100
AcDbEntity
  8
0
100
AcDbLine
 62
7
  6
CONTINUOUS
 10
149.4537256869
 20
124.3318428858
 11
149.279319028
 21
124.2371935491
  0
LINE
  5
377
100
AcDbEntity
  8
0
100
AcDbLine
 62
7
  6
CONTINUOUS
 10
149.3269122075
 20
124.1111278417
 11
149.5381036623
 21
124.219665083
  0
LINE
  5
378
100
AcDbEntity
  8
0
100
AcDbLine
 62
7
  6
CONTINUOUS
 10
150.2542740854
 20
123.7698735343
 11
150.0430824643
 21
123.6613368896
  0
LINE
  5
379
100
AcDbEntity
  8
0
100
AcDbLine
 62
7
  6
CONTINUOUS
 10
149.7855873677
 20
123.5641255972
 11
149.5553587718
 21
123.5060142927
  0
LINE
  5
37A
100
AcDbEntity
  8
0
100
AcDbLine
 62
7
  6
CONTINUOUS
 10
149.7955987588
 20
124.3168763753
 11
150.0258275211
 21
124.3749870833
  0
LINE
  5
37B
100
AcDbEntity
  8
0
100
AcDbLine
 62
7
  6
CONTINUOUS
 10
149.6029517334
 20
123.3799491623
 11
149.7963955334
 21
123.4241725623
  0
LINE
  5
37C
100
AcDbEntity
  8
RUNDUNGEN
100
AcDbLine
 62
7
  6
CONTINUOUS
 10
49.9568582092
 20
108.3065708705
 11
50.9567372587
 21
108.3065708705
  0
LINE
  5
37D
100
AcDbEntity
  8
RUNDUNGEN
100
AcDbLine
 62
7
  6
CONTINUOUS
 10
153.8818585277
 20
108.3065708705
 11
154.8817498903
 21
108.3065708705
  0
LINE
  5
37E
100
AcDbEntity
  8
RUNDUNGEN
100
AcDbLine
 62
7
  6
CONTINUOUS
 10
140.3998185144
 20
71.2580369213
 11
141.1068455189
 21
70.5510099167
  0
LINE
  5
37F
100
AcDbEntity
  8
RUNDUNGEN
100
AcDbLine
 62
7
  6
CONTINUOUS
 10
67.6207805538
 20
144.0370748818
 11
66.913743096
 21
144.7441123397
  0
LINE
  5
380
100
AcDbEntity
  8
0
100
AcDbLine
 62
7
  6
CONTINUOUS
 10
80.0085187685
 20
152.0338865381
 11
79.9005072134
 21
152.2462999227
  0
LINE
  5
381
100
AcDbEntity
  8
RUNDUNGEN
100
AcDbLine
 62
7
  6
CONTINUOUS
 10
111.4193040497
 20
46.09412503
 11
111.4193040497
 21
52.4431691314
  0
LINE
  5
382
100
AcDbEntity
  8
RUNDUNGEN
100
AcDbLine
 62
7
  6
CONTINUOUS
 10
111.4193040497
 20
159.6697615785
 11
111.4193040497
 21
166.019016711
  0
LINE
  5
383
100
AcDbEntity
  8
RUNDUNGEN
100
AcDbLine
 62
7
  6
CONTINUOUS
 10
112.4193040497
 20
136.527011095
 11
112.4193040497
 21
135.0118331173
  0
LINE
  5
384
100
AcDbEntity
  8
RUNDUNGEN
100
AcDbLine
 62
7
  6
CONTINUOUS
 10
112.4193040497
 20
77.1013086505
 11
112.4193040497
 21
75.5861306461
  0
LINE
  5
385
100
AcDbEntity
  8
0
100
AcDbLine
 62
7
  6
CONTINUOUS
 10
117.1115280193
 20
153.9589264988
 11
117.1210975052
 21
154.0795444335
  0
LINE
  5
386
100
AcDbEntity
  8
0
100
AcDbLine
 62
7
  6
CONTINUOUS
 10
117.423912546
 20
154.6851157017
 11
117.4334820318
 21
154.8057336363
  0
LINE
  5
387
100
AcDbEntity
  8
0
100
AcDbLine
 62
7
  6
CONTINUOUS
 10
118.1116666017
 20
154.7167459806
 11
118.1212360876
 21
154.8373639152
  0
LINE
  5
388
100
AcDbEntity
  8
0
100
AcDbLine
 62
7
  6
CONTINUOUS
 10
120.2109600072
 20
153.2746672935
 11
120.1953562172
 21
153.1546806792
  0
LINE
  5
389
100
AcDbEntity
  8
0
100
AcDbLine
 62
7
  6
CONTINUOUS
 10
116.9668018204
 20
154.1279149484
 11
116.9454704294
 21
153.9697783159
  0
LINE
  5
38A
100
AcDbEntity
  8
0
100
AcDbLine
 62
7
  6
CONTINUOUS
 10
117.2674245155
 20
154.8165854303
 11
117.2460931245
 21
154.6584487978
  0
LINE
  5
38B
100
AcDbEntity
  8
0
100
AcDbLine
 62
7
  6
CONTINUOUS
 10
122.1425688633
 20
152.2032453747
 11
122.1129161226
 21
152.0015629728
  0
LINE
  5
38C
100
AcDbEntity
  8
0
100
AcDbLine
 62
7
  6
CONTINUOUS
 10
120.5331782749
 20
152.9424280652
 11
120.5147170536
 21
152.8228478151
  0
LINE
  5
38D
100
AcDbEntity
  8
0
100
AcDbLine
 62
7
  6
CONTINUOUS
 10
121.6604300865
 20
153.2988171362
 11
121.6788910617
 21
153.4183976024
  0
LINE
  5
38E
100
AcDbEntity
  8
0
100
AcDbLine
 62
7
  6
CONTINUOUS
 10
125.5547171082
 20
150.6345676878
 11
125.5101809311
 21
150.4356413906
  0
LINE
  5
38F
100
AcDbEntity
  8
0
100
AcDbLine
 62
7
  6
CONTINUOUS
 10
124.5524538723
 20
151.0078867442
 11
124.5811094342
 21
151.1254415327
  0
LINE
  5
390
100
AcDbEntity
  8
0
100
AcDbLine
 62
7
  6
CONTINUOUS
 10
124.9764970756
 20
151.6750615434
 11
125.0051526374
 21
151.7926163318
  0
LINE
  5
391
100
AcDbEntity
  8
0
100
AcDbLine
 62
7
  6
CONTINUOUS
 10
125.6605113802
 20
151.5967637349
 11
125.6891669421
 21
151.7143185234
  0
LINE
  5
392
100
AcDbEntity
  8
0
100
AcDbLine
 62
7
  6
CONTINUOUS
 10
121.6129620417
 20
153.1061439001
 11
121.6604300865
 21
153.2988171362
  0
LINE
  5
393
100
AcDbEntity
  8
0
100
AcDbLine
 62
7
  6
CONTINUOUS
 10
125.6606945278
 20
150.4893104782
 11
125.6921780395
 21
150.6061395189
  0
LINE
  5
394
100
AcDbEntity
  8
0
100
AcDbLine
 62
7
  6
CONTINUOUS
 10
126.3741045155
 20
150.5113641468
 11
126.342620978
 21
150.3945350574
  0
LINE
  5
395
100
AcDbEntity
  8
0
100
AcDbLine
 62
7
  6
CONTINUOUS
 10
126.764205153
 20
151.016554338
 11
126.7956886647
 21
151.1333833787
  0
LINE
  5
396
100
AcDbEntity
  8
0
100
AcDbLine
 62
7
  6
CONTINUOUS
 10
124.4364857194
 20
151.1977662942
 11
124.3902435915
 21
151.0450446492
  0
LINE
  5
397
100
AcDbEntity
  8
0
100
AcDbLine
 62
7
  6
CONTINUOUS
 10
124.8429423566
 20
151.8297742369
 11
124.7967002287
 21
151.6770525918
  0
LINE
  5
398
100
AcDbEntity
  8
RUNDUNGEN
100
AcDbLine
 62
7
  6
CONTINUOUS
 10
66.3834130101
 20
57.2927577695
 11
70.8729039112
 21
61.7822486707
  0
LINE
  5
399
100
AcDbEntity
  8
RUNDUNGEN
100
AcDbLine
 62
7
  6
CONTINUOUS
 10
146.6935123747
 20
137.6028571342
 11
151.1831171508
 21
142.0924619102
  0
LINE
  5
39A
100
AcDbEntity
  8
0
100
AcDbLine
 62
7
  6
CONTINUOUS
 10
147.8920119347
 20
129.5997620357
 11
147.8001685824
 21
129.5209896949
  0
LINE
  5
39B
100
AcDbEntity
  8
0
100
AcDbLine
 62
7
  6
CONTINUOUS
 10
146.6735841645
 20
129.7200363181
 11
146.800224526
 21
129.8171158868
  0
LINE
  5
39C
100
AcDbEntity
  8
0
100
AcDbLine
 62
7
  6
CONTINUOUS
 10
147.8754572069
 20
129.3778865397
 11
148.0368947905
 21
129.4932734048
  0
LINE
  5
39D
100
AcDbEntity
  8
0
100
AcDbLine
 62
7
  6
CONTINUOUS
 10
148.7129008612
 20
125.3304110086
 11
148.6136881372
 21
125.261149946
  0
LINE
  5
39E
100
AcDbEntity
  8
0
100
AcDbLine
 62
7
  6
CONTINUOUS
 10
150.6004330126
 20
123.2822652491
 11
149.3496050681
 21
122.449047074
  0
LINE
  5
39F
100
AcDbEntity
  8
0
100
AcDbLine
 62
7
  6
CONTINUOUS
 10
149.279319028
 20
124.2371935491
 11
149.1784826661
 21
124.1703183098
  0
LINE
  5
3A0
100
AcDbEntity
  8
0
100
AcDbLine
 62
7
  6
CONTINUOUS
 10
150.301867047
 20
123.6438084039
 11
150.402703512
 21
123.7106836822
  0
LINE
  5
3A1
100
AcDbEntity
  8
0
100
AcDbLine
 62
7
  6
CONTINUOUS
 10
149.5706716289
 20
122.4116258434
 11
150.9984072099
 21
123.3347321071
  0
LINE
  5
3A2
100
AcDbEntity
  8
0
100
AcDbLine
 62
7
  6
CONTINUOUS
 10
151.1011159629
 20
121.8117898093
 11
149.8255722814
 21
121.0169238734
  0
LINE
  5
3A3
100
AcDbEntity
  8
0
100
AcDbLine
 62
7
  6
CONTINUOUS
 10
149.2228958827
 20
124.4902155306
 11
149.3585520595
 21
124.5742370816
  0
LINE
  5
3A4
100
AcDbEntity
  8
0
100
AcDbLine
 62
7
  6
CONTINUOUS
 10
149.9780884576
 20
124.8251701082
 11
150.1137443518
 21
124.9091922102
  0
LINE
  5
3A5
100
AcDbEntity
  8
0
100
AcDbLine
 62
7
  6
CONTINUOUS
 10
150.0454008652
 20
120.9728100034
 11
151.500499397
 21
121.8521519882
  0
LINE
  5
3A6
100
AcDbEntity
  8
0
100
AcDbLine
 62
7
  6
CONTINUOUS
 10
150.1274606575
 20
123.5491585096
 11
150.301867047
 21
123.6438084039
  0
LINE
  5
3A7
100
AcDbEntity
  8
0
100
AcDbLine
 62
7
  6
CONTINUOUS
 10
146.9998348737
 20
129.0999226401
 11
146.8828954347
 21
129.0688513567
  0
LINE
  5
3A8
100
AcDbEntity
  8
0
100
AcDbLine
 62
7
  6
CONTINUOUS
 10
149.9782343416
 20
124.5010527908
 11
149.784790811
 21
124.4568288332
  0
LINE
  5
3A9
100
AcDbEntity
  8
0
100
AcDbLine
 62
7
  6
CONTINUOUS
 10
149.7493111344
 20
124.7615845305
 11
149.9052017324
 21
124.7956485392
  0
LINE
  5
3AA
100
AcDbEntity
  8
0
100
AcDbLine
 62
7
  6
CONTINUOUS
 10
149.7899915211
 20
125.7085157004
 11
149.6341010388
 21
125.6744514058
  0
LINE
  5
3AB
100
AcDbEntity
  8
0
100
AcDbLine
 62
7
  6
CONTINUOUS
 10
148.957675556
 20
124.4118686484
 11
149.0771226365
 21
124.4311724753
  0
LINE
  5
3AC
100
AcDbEntity
  8
0
100
AcDbLine
 62
7
  6
CONTINUOUS
 10
149.4830780126
 20
123.3635004367
 11
149.6029517334
 21
123.3799491623
  0
LINE
  5
3AD
100
AcDbEntity
  8
0
100
AcDbLine
 62
7
  6
CONTINUOUS
 10
150.0981081655
 20
124.5175015552
 11
149.9782343416
 21
124.5010527908
  0
LINE
  5
3AE
100
AcDbEntity
  8
0
100
AcDbLine
 62
7
  6
CONTINUOUS
 10
151.2633596338
 20
122.5708784149
 11
149.5706716289
 21
122.4116258434
  0
LINE
  5
3AF
100
AcDbEntity
  8
0
100
AcDbLine
 62
7
  6
CONTINUOUS
 10
149.4202591826
 20
122.2453523676
 11
150.9183759212
 21
122.3656408184
  0
LINE
  5
3B0
100
AcDbEntity
  8
0
100
AcDbLine
 62
7
  6
CONTINUOUS
 10
151.7421429574
 20
121.0806076669
 11
150.0454008652
 21
120.9728100034
  0
LINE
  5
3B1
100
AcDbEntity
  8
0
100
AcDbLine
 62
7
  6
CONTINUOUS
 10
149.8900105027
 20
120.8111789173
 11
151.3910882353
 21
120.8859366237
  0
LINE
  5
3B2
100
AcDbEntity
  8
RUNDUNGEN
100
AcDbLine
 62
7
  6
CONTINUOUS
 10
162.3817498903
 20
115.0565708705
 11
156.0327057888
 21
115.0565708705
  0
LINE
  5
3B3
100
AcDbEntity
  8
RUNDUNGEN
100
AcDbLine
 62
7
  6
CONTINUOUS
 10
42.4568582092
 20
115.0565708705
 11
48.8061210357
 21
115.0565708705
  0
LINE
  5
3B4
100
AcDbEntity
  8
RUNDUNGEN
100
AcDbLine
 62
7
  6
CONTINUOUS
 10
73.464041956
 20
116.0565708705
 11
71.9488638253
 21
116.0565708705
  0
LINE
  5
3B5
100
AcDbEntity
  8
RUNDUNGEN
100
AcDbLine
 62
7
  6
CONTINUOUS
 10
131.37456603
 20
116.0565708705
 11
132.8897442742
 21
116.0565708705
  0
LINE
  5
3B6
100
AcDbEntity
  8
RUNDUNGEN
100
AcDbLine
 62
7
  6
CONTINUOUS
 10
151.1831171508
 20
70.0206798309
 11
146.6936680634
 21
74.5101289182
  0
LINE
  5
3B7
100
AcDbEntity
  8
RUNDUNGEN
100
AcDbLine
 62
7
  6
CONTINUOUS
 10
70.8728689788
 20
150.3309280029
 11
66.3834130101
 21
154.8203839716
  0
LINE
  5
3B8
100
AcDbEntity
  8
0
100
AcDbLine
 62
7
  6
CONTINUOUS
 10
81.9823845878
 20
151.7705723976
 11
82.2326533154
 21
151.4241861295
  0
LINE
  5
3B9
100
AcDbEntity
  8
0
100
AcDbLine
 62
7
  6
CONTINUOUS
 10
82.3336808342
 20
151.6620513874
 11
82.1967964476
 21
151.8626163103
  0
LINE
  5
3BA
100
AcDbEntity
  8
0
100
AcDbLine
 62
7
  6
CONTINUOUS
 10
82.9093208718
 20
152.6871476625
 11
83.0462057492
 21
152.4865829503
  0
LINE
  5
3BB
100
AcDbEntity
  8
0
100
AcDbLine
 62
7
  6
CONTINUOUS
 10
83.2606171183
 20
152.5786266524
 11
83.1237327317
 21
152.7791915752
  0
LINE
  5
3BC
100
AcDbEntity
  8
0
100
AcDbLine
 62
7
  6
CONTINUOUS
 10
85.6440515777
 20
153.8647467854
 11
85.7886635414
 21
153.6001847867
  0
LINE
  5
3BD
100
AcDbEntity
  8
0
100
AcDbLine
 62
7
  6
CONTINUOUS
 10
86.0082611467
 20
153.6790607604
 11
85.8636491831
 21
153.9436227591
  0
LINE
  5
3BE
100
AcDbEntity
  8
0
100
AcDbLine
 62
7
  6
CONTINUOUS
 10
116.9454704294
 20
153.9697783159
 11
116.9638091384
 21
153.7579994026
  0
LINE
  5
3BF
100
AcDbEntity
  8
0
100
AcDbLine
 62
7
  6
CONTINUOUS
 10
117.9535778005
 20
153.9421861345
 11
117.9491932727
 21
154.1083845683
  0
LINE
  5
3C0
100
AcDbEntity
  8
0
100
AcDbLine
 62
7
  6
CONTINUOUS
 10
117.9551784977
 20
154.8482157322
 11
117.9573708433
 21
154.7651165186
  0
LINE
  5
3C1
100
AcDbEntity
  8
0
100
AcDbLine
 62
7
  6
CONTINUOUS
 10
119.3571801784
 20
153.2967137043
 11
119.3532280918
 21
153.1305045012
  0
LINE
  5
3C2
100
AcDbEntity
  8
0
100
AcDbLine
 62
7
  6
CONTINUOUS
 10
119.5049052284
 20
153.074460445
 11
119.5088573149
 21
153.2406696481
  0
LINE
  5
3C3
100
AcDbEntity
  8
0
100
AcDbLine
 62
7
  6
CONTINUOUS
 10
120.5147170536
 20
152.8228478151
 11
120.5068019976
 21
152.6567800479
  0
LINE
  5
3C4
100
AcDbEntity
  8
0
100
AcDbLine
 62
7
  6
CONTINUOUS
 10
121.6788910617
 20
153.4183976024
 11
121.6868063943
 21
153.5844652303
  0
LINE
  5
3C5
100
AcDbEntity
  8
0
100
AcDbLine
 62
7
  6
CONTINUOUS
 10
124.3902435915
 20
151.0450446492
 11
124.3746226001
 21
150.8330479488
  0
LINE
  5
3C6
100
AcDbEntity
  8
0
100
AcDbLine
 62
7
  6
CONTINUOUS
 10
122.483279625
 20
152.9124989158
 11
122.4694291218
 21
152.7468204937
  0
LINE
  5
3C7
100
AcDbEntity
  8
0
100
AcDbLine
 62
7
  6
CONTINUOUS
 10
120.3353816599
 20
153.1448592375
 11
120.3529611991
 21
153.3479505473
  0
LINE
  5
3C8
100
AcDbEntity
  8
0
100
AcDbLine
 62
7
  6
CONTINUOUS
 10
125.3810918424
 20
150.8572640756
 11
125.4032298586
 21
151.0220399888
  0
LINE
  5
3C9
100
AcDbEntity
  8
0
100
AcDbLine
 62
7
  6
CONTINUOUS
 10
125.5269566613
 20
151.7514764284
 11
125.5158876655
 21
151.6690884964
  0
LINE
  5
3CA
100
AcDbEntity
  8
0
100
AcDbLine
 62
7
  6
CONTINUOUS
 10
123.0783776496
 20
151.9213519347
 11
123.1080298366
 21
152.1230346097
  0
LINE
  5
3CB
100
AcDbEntity
  8
0
100
AcDbLine
 62
7
  6
CONTINUOUS
 10
123.3697328328
 20
152.6522668403
 11
123.3993856068
 21
152.8539493178
  0
LINE
  5
3CC
100
AcDbEntity
  8
0
100
AcDbLine
 62
7
  6
CONTINUOUS
 10
126.4800819351
 20
150.3661069372
 11
126.5246180993
 21
150.5650332101
  0
LINE
  5
3CD
100
AcDbEntity
  8
RUNDUNGEN
100
AcDbLine
 62
7
  6
CONTINUOUS
 10
97.6320006201
 20
45.7851080356
 11
100.1693040497
 21
53.59412503
  0
LINE
  5
3CE
100
AcDbEntity
  8
RUNDUNGEN
100
AcDbLine
 62
7
  6
CONTINUOUS
 10
137.9248650035
 20
144.7441123397
 11
141.6525294136
 21
152.0600656719
  0
LINE
  5
3CF
100
AcDbEntity
  8
0
100
AcDbLine
 62
7
  6
CONTINUOUS
 10
146.5634984277
 20
129.8448322047
 11
146.4494061485
 21
129.7239020923
  0
LINE
  5
3D0
100
AcDbEntity
  8
0
100
AcDbLine
 62
7
  6
CONTINUOUS
 10
148.7007178866
 20
125.1510163444
 11
148.7634871578
 21
125.2055169188
  0
LINE
  5
3D1
100
AcDbEntity
  8
0
100
AcDbLine
 62
7
  6
CONTINUOUS
 10
149.2978484109
 20
124.7241102181
 11
149.1723095861
 21
124.6151096205
  0
LINE
  5
3D2
100
AcDbEntity
  8
0
100
AcDbLine
 62
7
  6
CONTINUOUS
 10
149.1784826661
 20
124.1703183098
 11
149.0503797262
 21
124.0643430534
  0
LINE
  5
3D3
100
AcDbEntity
  8
0
100
AcDbLine
 62
7
  6
CONTINUOUS
 10
150.402703512
 20
123.7106836822
 11
150.5308064261
 21
123.8166589289
  0
LINE
  5
3D4
100
AcDbEntity
  8
RUNDUNGEN
100
AcDbLine
 62
7
  6
CONTINUOUS
 10
56.4158092484
 20
66.8233455067
 11
63.7317625806
 21
70.5510099167
  0
LINE
  5
3D5
100
AcDbEntity
  8
RUNDUNGEN
100
AcDbLine
 62
7
  6
CONTINUOUS
 10
154.8817498903
 20
108.3065708705
 11
162.6907668846
 21
110.8438743002
  0
LINE
  5
3D6
100
AcDbEntity
  8
0
100
AcDbLine
 62
7
  6
CONTINUOUS
 10
147.5977111355
 20
130.3280418327
 11
147.4334264651
 21
130.3025138351
  0
LINE
  5
3D7
100
AcDbEntity
  8
0
100
AcDbLine
 62
7
  6
CONTINUOUS
 10
149.0265363399
 20
124.5560665651
 11
148.9435323649
 21
124.5515240841
  0
LINE
  5
3D8
100
AcDbEntity
  8
0
100
AcDbLine
 62
7
  6
CONTINUOUS
 10
149.8546152043
 20
124.9205432008
 11
149.6886074858
 21
124.911457667
  0
LINE
  5
3D9
100
AcDbEntity
  8
0
100
AcDbLine
 62
7
  6
CONTINUOUS
 10
149.3169007906
 20
123.3583770538
 11
149.4830780126
 21
123.3635004367
  0
LINE
  5
3DA
100
AcDbEntity
  8
0
100
AcDbLine
 62
7
  6
CONTINUOUS
 10
150.2642853617
 20
124.5226249284
 11
150.0981081655
 21
124.5175015552
  0
LINE
  5
3DB
100
AcDbEntity
  8
0
100
AcDbLine
 62
7
  6
CONTINUOUS
 10
98.4193040497
 20
124.1065708705
 11
106.4193040497
 21
124.1065708705
  0
LINE
  5
3DC
100
AcDbEntity
  8
RUNDUNGEN
100
AcDbLine
 62
7
  6
CONTINUOUS
 10
162.6907668846
 20
101.2692674408
 11
154.8817498903
 21
103.8065708705
  0
LINE
  5
3DD
100
AcDbEntity
  8
RUNDUNGEN
100
AcDbLine
 62
7
  6
CONTINUOUS
 10
63.7317625806
 20
141.5621318243
 11
56.4158092484
 21
145.2897962344
  0
LINE
  5
3DE
100
AcDbEntity
  8
0
100
AcDbLine
 62
7
  6
CONTINUOUS
 10
79.5283154648
 20
152.2575441157
 11
79.6509216316
 21
152.1193864192
  0
LINE
  5
3DF
100
AcDbEntity
  8
0
100
AcDbLine
 62
7
  6
CONTINUOUS
 10
79.9005072134
 20
152.2462999227
 11
79.7779010466
 21
152.3844576191
  0
LINE
  5
3E0
100
AcDbEntity
  8
0
100
AcDbLine
 62
7
  6
CONTINUOUS
 10
83.1237327317
 20
152.7791915752
 11
83.0103488978
 21
152.9250130928
  0
LINE
  5
3E1
100
AcDbEntity
  8
0
100
AcDbLine
 62
7
  6
CONTINUOUS
 10
85.8636491831
 20
153.9436227591
 11
85.7593137742
 21
154.0960497288
  0
LINE
  5
3E2
100
AcDbEntity
  8
RUNDUNGEN
100
AcDbLine
 62
7
  6
CONTINUOUS
 10
141.6525294136
 20
60.0530760692
 11
137.9248650035
 21
67.3690294014
  0
LINE
  5
3E3
100
AcDbEntity
  8
RUNDUNGEN
100
AcDbLine
 62
7
  6
CONTINUOUS
 10
100.1693040497
 20
158.519016711
 11
97.6320006201
 21
166.3280337054
  0
LINE
  5
3E4
100
AcDbEntity
  8
0
100
AcDbLine
 62
7
  6
CONTINUOUS
 10
120.2012840625
 20
153.4039946036
 11
120.2109600072
 21
153.2746672935
  0
LINE
  5
3E5
100
AcDbEntity
  8
0
100
AcDbLine
 62
7
  6
CONTINUOUS
 10
122.2767850844
 20
151.972582834
 11
122.2659580919
 21
152.1490918396
  0
LINE
  5
3E6
100
AcDbEntity
  8
0
100
AcDbLine
 62
7
  6
CONTINUOUS
 10
122.9441608748
 20
152.1520147485
 11
122.9549878562
 21
151.9755057176
  0
LINE
  5
3E7
100
AcDbEntity
  8
0
100
AcDbLine
 62
7
  6
CONTINUOUS
 10
120.6716027892
 20
152.6336806067
 11
120.6584257809
 21
152.8927232432
  0
LINE
  5
3E8
100
AcDbEntity
  8
0
100
AcDbLine
 62
7
  6
CONTINUOUS
 10
121.5220056026
 20
153.6075646715
 11
121.5351825804
 21
153.3485219581
  0
LINE
  5
3E9
100
AcDbEntity
  8
0
100
AcDbLine
 62
7
  6
CONTINUOUS
 10
122.6244216736
 20
152.7646753635
 11
122.6224710801
 21
152.8943493353
  0
LINE
  5
3EA
100
AcDbEntity
  8
0
100
AcDbLine
 62
7
  6
CONTINUOUS
 10
123.2443924901
 20
152.8360946959
 11
123.2463436042
 21
152.7064203753
  0
LINE
  5
3EB
100
AcDbEntity
  8
0
100
AcDbLine
 62
7
  6
CONTINUOUS
 10
125.6891669421
 20
151.7143185234
 11
125.6872013489
 21
151.8911483303
  0
LINE
  5
3EC
100
AcDbEntity
  8
0
100
AcDbLine
 62
7
  6
CONTINUOUS
 10
125.5101809311
 20
150.4356413906
 11
125.5078803263
 21
150.2588156127
  0
LINE
  5
3ED
100
AcDbEntity
  8
0
100
AcDbLine
 62
7
  6
CONTINUOUS
 10
126.7956886647
 20
151.1333833787
 11
126.7979892631
 21
151.3102091445
  0
LINE
  5
3EE
100
AcDbEntity
  8
0
100
AcDbLine
 62
7
  6
CONTINUOUS
 10
125.2234330117
 20
151.0240310373
 11
125.2188815616
 21
150.8944219806
  0
LINE
  5
3EF
100
AcDbEntity
  8
0
100
AcDbLine
 62
7
  6
CONTINUOUS
 10
125.6530178895
 20
150.359848955
 11
125.6606945278
 21
150.4893104782
  0
LINE
  5
3F0
100
AcDbEntity
  8
0
100
AcDbLine
 62
7
  6
CONTINUOUS
 10
126.6528517063
 20
151.2091758144
 11
126.6451750808
 21
151.0797143155
  0
LINE
  5
3F1
100
AcDbEntity
  8
0
100
AcDbLine
 62
7
  6
CONTINUOUS
 10
146.5942890287
 20
129.6174134743
 11
146.6735841645
 21
129.7200363181
  0
LINE
  5
3F2
100
AcDbEntity
  8
0
100
AcDbLine
 62
7
  6
CONTINUOUS
 10
148.4120349068
 20
129.3639002978
 11
147.7924285188
 21
128.5765928919
  0
LINE
  5
3F3
100
AcDbEntity
  8
0
100
AcDbLine
 62
7
  6
CONTINUOUS
 10
147.9692473905
 20
128.5738124616
 11
148.4836924186
 21
129.2189449044
  0
LINE
  5
3F4
100
AcDbEntity
  8
0
100
AcDbLine
 62
7
  6
CONTINUOUS
 10
148.6136881372
 20
125.261149946
 11
148.5245927907
 21
125.166909847
  0
LINE
  5
3F5
100
AcDbEntity
  8
0
100
AcDbLine
 62
7
  6
CONTINUOUS
 10
149.3585520595
 20
124.5742370816
 11
149.4476472902
 21
124.6684774664
  0
LINE
  5
3F6
100
AcDbEntity
  8
0
100
AcDbLine
 62
7
  6
CONTINUOUS
 10
150.0165973917
 20
125.0443045829
 11
149.9275019294
 21
124.9500647698
  0
LINE
  5
3F7
100
AcDbEntity
  8
0
100
AcDbLine
 62
7
  6
CONTINUOUS
 10
149.1442763811
 20
123.9269519936
 11
149.3269122075
 21
124.1111278417
  0
LINE
  5
3F8
100
AcDbEntity
  8
0
100
AcDbLine
 62
7
  6
CONTINUOUS
 10
150.4369097712
 20
123.9540499886
 11
150.2542740854
 21
123.7698735343
  0
LINE
  5
3F9
100
AcDbEntity
  8
0
100
AcDbLine
 62
7
  6
CONTINUOUS
 10
147.4739178731
 20
130.141103373
 11
147.6034055287
 21
130.1483241533
  0
LINE
  5
3FA
100
AcDbEntity
  8
0
100
AcDbLine
 62
7
  6
CONTINUOUS
 10
148.794208497
 20
128.590804475
 11
147.9692473905
 21
128.5738124616
  0
LINE
  5
3FB
100
AcDbEntity
  8
0
100
AcDbLine
 62
7
  6
CONTINUOUS
 10
147.8640860649
 20
128.4316374294
 11
148.8658660431
 21
128.4458490125
  0
LINE
  5
3FC
100
AcDbEntity
  8
0
100
AcDbLine
 62
7
  6
CONTINUOUS
 10
148.8281109176
 20
124.4175444502
 11
148.957675556
 21
124.4118686484
  0
LINE
  5
3FD
100
AcDbEntity
  8
0
100
AcDbLine
 62
7
  6
CONTINUOUS
 10
149.6197467274
 20
124.7672597606
 11
149.7493111344
 21
124.7615845305
  0
LINE
  5
3FE
100
AcDbEntity
  8
0
100
AcDbLine
 62
7
  6
CONTINUOUS
 10
149.6846874511
 20
125.5495570301
 11
149.8142519738
 21
125.5438815141
  0
LINE
  5
3FF
100
AcDbEntity
  8
0
100
AcDbLine
 62
7
  6
CONTINUOUS
 10
149.5553587718
 20
123.5060142927
 11
149.2965741633
 21
123.5235427686
  0
LINE
  5
400
100
AcDbEntity
  8
0
100
AcDbLine
 62
7
  6
CONTINUOUS
 10
150.0258275211
 20
124.3749870833
 11
150.284611989
 21
124.3574592137
  0
LINE
  5
401
100
AcDbEntity
  8
0
100
AcDbLine
 62
7
  6
CONTINUOUS
 10
82.2326533154
 20
151.4241861295
 11
82.3889195786
 21
151.2967733963
  0
LINE
  5
402
100
AcDbEntity
  8
0
100
AcDbLine
 62
7
  6
CONTINUOUS
 10
82.489947351
 20
151.5346387405
 11
82.3336808342
 21
151.6620513874
  0
LINE
  5
403
100
AcDbEntity
  8
0
100
AcDbLine
 62
7
  6
CONTINUOUS
 10
82.7530546169
 20
152.8145603765
 11
82.9093208718
 21
152.6871476625
  0
LINE
  5
404
100
AcDbEntity
  8
0
100
AcDbLine
 62
7
  6
CONTINUOUS
 10
83.0103488978
 20
152.9250130928
 11
82.8540823976
 21
153.0524257015
  0
LINE
  5
405
100
AcDbEntity
  8
0
100
AcDbLine
 62
7
  6
CONTINUOUS
 10
86.8973504555
 20
153.7842292595
 11
87.7219601798
 21
153.0478918637
  0
LINE
  5
406
100
AcDbEntity
  8
0
100
AcDbLine
 62
7
  6
CONTINUOUS
 10
118.1212360876
 20
154.8373639152
 11
118.0911355346
 21
155.0116240681
  0
LINE
  5
407
100
AcDbEntity
  8
0
100
AcDbLine
 62
7
  6
CONTINUOUS
 10
117.7713738513
 20
154.0817176644
 11
117.7875202105
 21
153.9530379516
  0
LINE
  5
408
100
AcDbEntity
  8
0
100
AcDbLine
 62
7
  6
CONTINUOUS
 10
119.3532280918
 20
153.1305045012
 11
119.3745557257
 21
152.9549545638
  0
LINE
  5
409
100
AcDbEntity
  8
0
100
AcDbLine
 62
7
  6
CONTINUOUS
 10
120.3529611991
 20
153.3479505473
 11
120.3316335605
 21
153.5235004719
  0
LINE
  5
40A
100
AcDbEntity
  8
0
100
AcDbLine
 62
7
  6
CONTINUOUS
 10
146.4494061485
 20
129.7239020923
 11
146.3604100871
 21
129.5552709396
  0
LINE
  5
40B
100
AcDbEntity
  8
0
100
AcDbLine
 62
7
  6
CONTINUOUS
 10
148.0368947905
 20
129.4932734048
 11
148.1258908128
 21
129.6619046023
  0
LINE
  5
40C
100
AcDbEntity
  8
0
100
AcDbLine
 62
7
  6
CONTINUOUS
 10
148.6480658262
 20
125.0715369989
 11
148.7007178866
 21
125.1510163444
  0
LINE
  5
40D
100
AcDbEntity
  8
0
100
AcDbLine
 62
7
  6
CONTINUOUS
 10
150.1137443518
 20
124.9091922102
 11
150.2190484217
 21
125.0681508805
  0
LINE
  5
40E
100
AcDbEntity
  8
0
100
AcDbLine
 62
7
  6
CONTINUOUS
 10
149.0503797262
 20
124.0643430534
 11
148.9685804925
 21
123.9470418724
  0
LINE
  5
40F
100
AcDbEntity
  8
0
100
AcDbLine
 62
7
  6
CONTINUOUS
 10
150.5308064261
 20
123.8166589289
 11
150.6126056469
 21
123.933960105
  0
LINE
  5
410
100
AcDbEntity
  8
0
100
AcDbLine
 62
7
  6
CONTINUOUS
 10
146.6992088885
 20
128.9113067585
 11
146.8885898035
 21
128.8891336645
  0
LINE
  5
411
100
AcDbEntity
  8
0
100
AcDbLine
 62
7
  6
CONTINUOUS
 10
147.7870920114
 20
130.3058687835
 11
147.5977111355
 21
130.3280418327
  0
LINE
  5
412
100
AcDbEntity
  8
0
100
AcDbLine
 62
7
  6
CONTINUOUS
 10
148.9435323649
 20
124.5515240841
 11
148.850411244
 21
124.5719600677
  0
LINE
  5
413
100
AcDbEntity
  8
0
100
AcDbLine
 62
7
  6
CONTINUOUS
 10
149.6886074858
 20
124.911457667
 11
149.5954863905
 21
124.9318936609
  0
LINE
  5
414
100
AcDbEntity
  8
0
100
AcDbLine
 62
7
  6
CONTINUOUS
 10
149.9762339434
 20
125.6676431408
 11
149.7899915211
 21
125.7085157004
  0
LINE
  5
415
100
AcDbEntity
  8
0
100
AcDbLine
 62
7
  6
CONTINUOUS
 10
149.1779899158
 20
123.3923542601
 11
149.3169007906
 21
123.3583770538
  0
LINE
  5
416
100
AcDbEntity
  8
0
100
AcDbLine
 62
7
  6
CONTINUOUS
 10
150.4031962237
 20
124.4886477173
 11
150.2642853617
 21
124.5226249284
  0
LINE
  5
417
100
AcDbEntity
  8
0
100
AcDbLine
 62
7
  6
CONTINUOUS
 10
82.3889195786
 20
151.2967733963
 11
82.5216852849
 21
151.224104078
  0
LINE
  5
418
100
AcDbEntity
  8
0
100
AcDbLine
 62
7
  6
CONTINUOUS
 10
82.6227130531
 20
151.4619694318
 11
82.489947351
 21
151.5346387405
  0
LINE
  5
419
100
AcDbEntity
  8
0
100
AcDbLine
 62
7
  6
CONTINUOUS
 10
82.6202889148
 20
152.8872296852
 11
82.7530546169
 21
152.8145603765
  0
LINE
  5
41A
100
AcDbEntity
  8
0
100
AcDbLine
 62
7
  6
CONTINUOUS
 10
82.8540823976
 20
153.0524257015
 11
82.72131645
 21
153.1250949048
  0
LINE
  5
41B
100
AcDbEntity
  8
0
100
AcDbLine
 62
7
  6
CONTINUOUS
 10
85.5159353776
 20
153.9453312083
 11
85.6440515777
 21
153.8647467854
  0
LINE
  5
41C
100
AcDbEntity
  8
0
100
AcDbLine
 62
7
  6
CONTINUOUS
 10
85.7593137742
 20
154.0960497288
 11
85.6311980767
 21
154.1766343322
  0
LINE
  5
41D
100
AcDbEntity
  8
0
100
AcDbLine
 62
7
  6
CONTINUOUS
 10
79.7779010466
 20
152.3844576191
 11
79.5450967763
 21
152.5334141032
  0
LINE
  5
41E
100
AcDbEntity
  8
0
100
AcDbLine
 62
7
  6
CONTINUOUS
 10
87.9885527932
 20
153.1334978126
 11
86.9760046482
 21
153.997197791
  0
LINE
  5
41F
100
AcDbEntity
  8
0
100
AcDbLine
 62
7
  6
CONTINUOUS
 10
117.1533903956
 20
153.8221850407
 11
117.1115280193
 21
153.9589264988
  0
LINE
  5
420
100
AcDbEntity
  8
0
100
AcDbLine
 62
7
  6
CONTINUOUS
 10
117.2460931245
 20
154.6584487978
 11
117.3019096863
 21
154.4761268732
  0
LINE
  5
421
100
AcDbEntity
  8
0
100
AcDbLine
 62
7
  6
CONTINUOUS
 10
117.9491932727
 20
154.1083845683
 11
117.893376711
 21
154.2907064929
  0
LINE
  5
422
100
AcDbEntity
  8
0
100
AcDbLine
 62
7
  6
CONTINUOUS
 10
117.9272702904
 20
154.9393766715
 11
117.9551784977
 21
154.8482157322
  0
LINE
  5
423
100
AcDbEntity
  8
0
100
AcDbLine
 62
7
  6
CONTINUOUS
 10
120.5068019976
 20
152.6567800479
 11
120.5384399456
 21
152.517317788
  0
LINE
  5
424
100
AcDbEntity
  8
0
100
AcDbLine
 62
7
  6
CONTINUOUS
 10
121.6868063943
 20
153.5844652303
 11
121.6551684412
 21
153.7239274774
  0
LINE
  5
425
100
AcDbEntity
  8
0
100
AcDbLine
 62
7
  6
CONTINUOUS
 10
122.1129161226
 20
152.0015629728
 11
122.1395447822
 21
151.8610581822
  0
LINE
  5
426
100
AcDbEntity
  8
0
100
AcDbLine
 62
7
  6
CONTINUOUS
 10
122.4694291218
 20
152.7468204937
 11
122.496057787
 21
152.6063157157
  0
LINE
  5
427
100
AcDbEntity
  8
0
100
AcDbLine
 62
7
  6
CONTINUOUS
 10
123.3993856068
 20
152.8539493178
 11
123.3727569416
 21
152.9944540958
  0
LINE
  5
428
100
AcDbEntity
  8
0
100
AcDbLine
 62
7
  6
CONTINUOUS
 10
124.5720060192
 20
150.8662237691
 11
124.5524538723
 21
151.0078867442
  0
LINE
  5
429
100
AcDbEntity
  8
0
100
AcDbLine
 62
7
  6
CONTINUOUS
 10
124.7967002287
 20
151.6770525918
 11
124.8227694065
 21
151.4881688419
  0
LINE
  5
42A
100
AcDbEntity
  8
0
100
AcDbLine
 62
7
  6
CONTINUOUS
 10
125.4032298586
 20
151.0220399888
 11
125.3771606808
 21
151.2109237387
  0
LINE
  5
42B
100
AcDbEntity
  8
0
100
AcDbLine
 62
7
  6
CONTINUOUS
 10
125.5139220724
 20
151.8459183033
 11
125.5269566613
 21
151.7514764284
  0
LINE
  5
42C
100
AcDbEntity
  8
0
100
AcDbLine
 62
7
  6
CONTINUOUS
 10
126.3633513715
 20
150.6060932587
 11
126.3741045155
 21
150.5113641468
  0
LINE
  5
42D
100
AcDbEntity
  8
0
100
AcDbLine
 62
7
  6
CONTINUOUS
 10
126.5246180993
 20
150.5650332101
 11
126.5084889283
 21
150.7071265888
  0
LINE
  5
42E
100
AcDbEntity
  8
0
100
AcDbLine
 62
7
  6
CONTINUOUS
 10
146.5623390853
 20
129.5092473596
 11
146.5942890287
 21
129.6174134743
  0
LINE
  5
42F
100
AcDbEntity
  8
0
100
AcDbLine
 62
7
  6
CONTINUOUS
 10
147.9239618537
 20
129.7079281376
 11
147.8920119347
 21
129.5997620357
  0
LINE
  5
430
100
AcDbEntity
  8
0
100
AcDbLine
 62
7
  6
CONTINUOUS
 10
148.9685804925
 20
123.9470418724
 11
148.9058186209
 21
123.7793141789
  0
LINE
  5
431
100
AcDbEntity
  8
0
100
AcDbLine
 62
7
  6
CONTINUOUS
 10
148.5245927907
 20
125.166909847
 11
148.4820579792
 21
125.0624517459
  0
LINE
  5
432
100
AcDbEntity
  8
0
100
AcDbLine
 62
7
  6
CONTINUOUS
 10
149.3403832097
 20
124.8285683141
 11
149.2978484109
 21
124.7241102181
  0
LINE
  5
433
100
AcDbEntity
  8
0
100
AcDbLine
 62
7
  6
CONTINUOUS
 10
150.0591321905
 20
125.1487626789
 11
150.0165973917
 21
125.0443045829
  0
LINE
  5
434
100
AcDbEntity
  8
0
100
AcDbLine
 62
7
  6
CONTINUOUS
 10
149.099262174
 20
123.823538145
 11
149.1442763811
 21
123.9269519936
  0
LINE
  5
435
100
AcDbEntity
  8
0
100
AcDbLine
 62
7
  6
CONTINUOUS
 10
150.4819239783
 20
124.0574638372
 11
150.4369097712
 21
123.9540499886
  0
LINE
  5
436
100
AcDbEntity
  8
0
100
AcDbLine
 62
7
  6
CONTINUOUS
 10
125.9287145713
 20
149.9019767978
 11
126.1030339565
 21
149.9430139903
  0
LINE
  5
437
100
AcDbEntity
  8
0
100
AcDbLine
 62
7
  6
CONTINUOUS
 10
79.5450967763
 20
152.5334141032
 11
79.2976978185
 21
152.6081150479
  0
LINE
  5
438
100
AcDbEntity
  8
0
100
AcDbLine
 62
7
  6
CONTINUOUS
 10
146.8828954347
 20
129.0688513567
 11
146.7756568667
 21
129.1037883972
  0
LINE
  5
439
100
AcDbEntity
  8
0
100
AcDbLine
 62
7
  6
CONTINUOUS
 10
147.6034055287
 20
130.1483241533
 11
147.7106440723
 21
130.1133871
  0
LINE
  5
43A
100
AcDbEntity
  8
0
100
AcDbLine
 62
7
  6
CONTINUOUS
 10
149.4699476166
 20
124.822893084
 11
149.6197467274
 21
124.7672597606
  0
LINE
  5
43B
100
AcDbEntity
  8
0
100
AcDbLine
 62
7
  6
CONTINUOUS
 10
148.7248724575
 20
124.4629594856
 11
148.8281109176
 21
124.4175444502
  0
LINE
  5
43C
100
AcDbEntity
  8
0
100
AcDbLine
 62
7
  6
CONTINUOUS
 10
149.8142519738
 20
125.5438815141
 11
149.9174904212
 21
125.4984664735
  0
LINE
  5
43D
100
AcDbEntity
  8
0
100
AcDbLine
 62
7
  6
CONTINUOUS
 10
79.3911144915
 20
152.3214462122
 11
79.5283154648
 21
152.2575441157
  0
LINE
  5
43E
100
AcDbEntity
  8
0
100
AcDbLine
 62
7
  6
CONTINUOUS
 10
149.2965741633
 20
123.5235427686
 11
149.1944483151
 21
123.5714073072
  0
LINE
  5
43F
100
AcDbEntity
  8
0
100
AcDbLine
 62
7
  6
CONTINUOUS
 10
150.284611989
 20
124.3574592137
 11
150.3867378372
 21
124.309594675
  0
LINE
  5
440
100
AcDbEntity
  8
0
100
AcDbLine
 62
7
  6
CONTINUOUS
 10
149.0200419031
 20
123.4767574044
 11
149.1779899158
 21
123.3923542601
  0
LINE
  5
441
100
AcDbEntity
  8
0
100
AcDbLine
 62
7
  6
CONTINUOUS
 10
116.9638091384
 20
153.7579994026
 11
117.0571033903
 21
153.6051344636
  0
LINE
  5
442
100
AcDbEntity
  8
0
100
AcDbLine
 62
7
  6
CONTINUOUS
 10
119.3745557257
 20
152.9549545638
 11
119.4600702351
 21
152.797605216
  0
LINE
  5
443
100
AcDbEntity
  8
0
100
AcDbLine
 62
7
  6
CONTINUOUS
 10
117.4775367621
 20
154.5858929908
 11
117.423912546
 21
154.6851157017
  0
LINE
  5
444
100
AcDbEntity
  8
0
100
AcDbLine
 62
7
  6
CONTINUOUS
 10
117.7177496352
 20
154.1809403753
 11
117.7713738513
 21
154.0817176644
  0
LINE
  5
445
100
AcDbEntity
  8
0
100
AcDbLine
 62
7
  6
CONTINUOUS
 10
120.5384399456
 20
152.517317788
 11
120.6201770693
 21
152.3579735343
  0
LINE
  5
446
100
AcDbEntity
  8
0
100
AcDbLine
 62
7
  6
CONTINUOUS
 10
119.5534883319
 20
152.9726744687
 11
119.5049052284
 21
153.074460445
  0
LINE
  5
447
100
AcDbEntity
  8
0
100
AcDbLine
 62
7
  6
CONTINUOUS
 10
120.152700959
 20
153.5057805799
 11
120.2012840625
 21
153.4039946036
  0
LINE
  5
448
100
AcDbEntity
  8
0
100
AcDbLine
 62
7
  6
CONTINUOUS
 10
122.1395447822
 20
151.8610581822
 11
122.2155290217
 21
151.6988920304
  0
LINE
  5
449
100
AcDbEntity
  8
0
100
AcDbLine
 62
7
  6
CONTINUOUS
 10
118.0911355346
 20
155.0116240681
 11
118.0235572884
 21
155.1564272256
  0
LINE
  5
44A
100
AcDbEntity
  8
0
100
AcDbLine
 62
7
  6
CONTINUOUS
 10
120.7177440107
 20
152.5307649095
 11
120.6716027892
 21
152.6336806067
  0
LINE
  5
44B
100
AcDbEntity
  8
0
100
AcDbLine
 62
7
  6
CONTINUOUS
 10
121.4758640945
 20
153.7104804824
 11
121.5220056026
 21
153.6075646715
  0
LINE
  5
44C
100
AcDbEntity
  8
0
100
AcDbLine
 62
7
  6
CONTINUOUS
 10
124.3746226001
 20
150.8330479488
 11
124.4423824757
 21
150.6672768273
  0
LINE
  5
44D
100
AcDbEntity
  8
0
100
AcDbLine
 62
7
  6
CONTINUOUS
 10
125.5078803263
 20
150.2588156127
 11
125.5716221752
 21
150.0914578869
  0
LINE
  5
44E
100
AcDbEntity
  8
0
100
AcDbLine
 62
7
  6
CONTINUOUS
 10
125.0136358009
 20
151.5685654495
 11
124.9764970756
 21
151.6750615434
  0
LINE
  5
44F
100
AcDbEntity
  8
0
100
AcDbLine
 62
7
  6
CONTINUOUS
 10
125.1862942865
 20
151.1305271311
 11
125.2234330117
 21
151.0240310373
  0
LINE
  5
450
100
AcDbEntity
  8
0
100
AcDbLine
 62
7
  6
CONTINUOUS
 10
122.6757284105
 20
152.6133397794
 11
122.6244216736
 21
152.7646753635
  0
LINE
  5
451
100
AcDbEntity
  8
0
100
AcDbLine
 62
7
  6
CONTINUOUS
 10
123.1080298366
 20
152.1230346097
 11
123.0567236646
 21
152.2743699459
  0
LINE
  5
452
100
AcDbEntity
  8
0
100
AcDbLine
 62
7
  6
CONTINUOUS
 10
123.1930863181
 20
152.9874300321
 11
123.2443924901
 21
152.8360946959
  0
LINE
  5
453
100
AcDbEntity
  8
0
100
AcDbLine
 62
7
  6
CONTINUOUS
 10
125.68757683
 20
150.2524879632
 11
125.6530178895
 21
150.359848955
  0
LINE
  5
454
100
AcDbEntity
  8
0
100
AcDbLine
 62
7
  6
CONTINUOUS
 10
126.3287924311
 20
150.7134542505
 11
126.3633513715
 21
150.6060932587
  0
LINE
  5
455
100
AcDbEntity
  8
0
100
AcDbLine
 62
7
  6
CONTINUOUS
 10
126.6182927658
 20
151.3165368062
 11
126.6528517063
 21
151.2091758144
  0
LINE
  5
456
100
AcDbEntity
  8
0
100
AcDbLine
 62
7
  6
CONTINUOUS
 10
125.6872013489
 20
151.8911483303
 11
125.6435450534
 21
152.0448654996
  0
LINE
  5
457
100
AcDbEntity
  8
0
100
AcDbLine
 62
7
  6
CONTINUOUS
 10
149.4476472902
 20
124.6684774664
 11
149.4699476166
 21
124.822893084
  0
LINE
  5
458
100
AcDbEntity
  8
0
100
AcDbLine
 62
7
  6
CONTINUOUS
 10
146.3604100871
 20
129.5552709396
 11
146.341008269
 21
129.4232542957
  0
LINE
  5
459
100
AcDbEntity
  8
0
100
AcDbLine
 62
7
  6
CONTINUOUS
 10
148.1258908128
 20
129.6619046023
 11
148.1452926397
 21
129.7939212073
  0
LINE
  5
45A
100
AcDbEntity
  8
0
100
AcDbLine
 62
7
  6
CONTINUOUS
 10
148.4820579792
 20
125.0624517459
 11
148.449640407
 21
124.9330148853
  0
LINE
  5
45B
100
AcDbEntity
  8
0
100
AcDbLine
 62
7
  6
CONTINUOUS
 10
148.6318569869
 20
125.0068187135
 11
148.6480658262
 21
125.0715369989
  0
LINE
  5
45C
100
AcDbEntity
  8
0
100
AcDbLine
 62
7
  6
CONTINUOUS
 10
150.2190484217
 20
125.0681508805
 11
150.2514661001
 21
125.1975874514
  0
LINE
  5
45D
100
AcDbEntity
  8
0
100
AcDbLine
 62
7
  6
CONTINUOUS
 10
150.6126056469
 20
123.933960105
 11
150.6753677267
 21
124.1016872178
  0
LINE
  5
45E
100
AcDbEntity
  8
0
100
AcDbLine
 62
7
  6
CONTINUOUS
 10
126.4009618994
 20
151.6544154922
 11
126.2266414293
 21
151.6133788871
  0
LINE
  5
45F
100
AcDbEntity
  8
0
100
AcDbLine
 62
7
  6
CONTINUOUS
 10
122.7703425636
 20
151.7559684459
 11
122.6400280834
 21
151.7272827699
  0
LINE
  5
460
100
AcDbEntity
  8
0
100
AcDbLine
 62
7
  6
CONTINUOUS
 10
123.0231691829
 20
152.3320357607
 11
123.0883269879
 21
152.3463783508
  0
LINE
  5
461
100
AcDbEntity
  8
0
100
AcDbLine
 62
7
  6
CONTINUOUS
 10
122.4506033956
 20
152.3686291366
 11
122.5809184407
 21
152.3973145647
  0
LINE
  5
462
100
AcDbEntity
  8
0
100
AcDbLine
 62
7
  6
CONTINUOUS
 10
122.5296117038
 20
152.5486501488
 11
122.4644544637
 21
152.5343073108
  0
LINE
  5
463
100
AcDbEntity
  8
0
100
AcDbLine
 62
7
  6
CONTINUOUS
 10
124.8762536199
 20
150.4503025426
 11
125.0078427504
 21
150.4724196652
  0
LINE
  5
464
100
AcDbEntity
  8
0
100
AcDbLine
 62
7
  6
CONTINUOUS
 10
125.3060899029
 20
152.2136231845
 11
125.174500777
 21
152.1915060711
  0
LINE
  5
465
100
AcDbEntity
  8
0
100
AcDbLine
 62
7
  6
CONTINUOUS
 10
82.5216852849
 20
151.224104078
 11
82.6309506817
 21
151.2061782752
  0
LINE
  5
466
100
AcDbEntity
  8
0
100
AcDbLine
 62
7
  6
CONTINUOUS
 10
82.72131645
 20
153.1250949048
 11
82.6120513005
 21
153.1430208082
  0
LINE
  5
467
100
AcDbEntity
  8
0
100
AcDbLine
 62
7
  6
CONTINUOUS
 10
85.4079582088
 20
153.9698483874
 11
85.5159353776
 21
153.9453312083
  0
LINE
  5
468
100
AcDbEntity
  8
0
100
AcDbLine
 62
7
  6
CONTINUOUS
 10
85.6311980767
 20
154.1766343322
 11
85.4591625566
 21
154.2414436326
  0
LINE
  5
469
100
AcDbEntity
  8
0
100
AcDbLine
 62
7
  6
CONTINUOUS
 10
146.5794222436
 20
128.9700943101
 11
146.6992088885
 21
128.9113067585
  0
LINE
  5
46A
100
AcDbEntity
  8
0
100
AcDbLine
 62
7
  6
CONTINUOUS
 10
147.9068786651
 20
130.247081193
 11
147.7870920114
 21
130.3058687835
  0
LINE
  5
46B
100
AcDbEntity
  8
0
100
AcDbLine
 62
7
  6
CONTINUOUS
 10
150.5611444445
 20
124.4042439923
 11
150.4031962237
 21
124.4886477173
  0
LINE
  5
46C
100
AcDbEntity
  8
0
100
AcDbLine
 62
7
  6
CONTINUOUS
 10
148.6115168802
 20
124.5333529973
 11
148.7248724575
 21
124.4629594856
  0
LINE
  5
46D
100
AcDbEntity
  8
0
100
AcDbLine
 62
7
  6
CONTINUOUS
 10
148.850411244
 20
124.5719600677
 11
148.7937334602
 21
124.6071568255
  0
LINE
  5
46E
100
AcDbEntity
  8
0
100
AcDbLine
 62
7
  6
CONTINUOUS
 10
150.0895896269
 20
125.5972493394
 11
149.9762339434
 21
125.6676431408
  0
LINE
  5
46F
100
AcDbEntity
  8
0
100
AcDbLine
 62
7
  6
CONTINUOUS
 10
117.3019096863
 20
154.4761268732
 11
117.381249764
 21
154.3688424367
  0
LINE
  5
470
100
AcDbEntity
  8
0
100
AcDbLine
 62
7
  6
CONTINUOUS
 10
117.893376711
 20
154.2907064929
 11
117.8140364861
 21
154.3979909755
  0
LINE
  5
471
100
AcDbEntity
  8
0
100
AcDbLine
 62
7
  6
CONTINUOUS
 10
122.3438934829
 20
151.8572514523
 11
122.2767850844
 21
151.972582834
  0
LINE
  5
472
100
AcDbEntity
  8
0
100
AcDbLine
 62
7
  6
CONTINUOUS
 10
122.496057787
 20
152.6063157157
 11
122.5296117038
 21
152.5486501488
  0
LINE
  5
473
100
AcDbEntity
  8
0
100
AcDbLine
 62
7
  6
CONTINUOUS
 10
122.8770530411
 20
152.2673458823
 11
122.9441608748
 21
152.1520147485
  0
LINE
  5
474
100
AcDbEntity
  8
0
100
AcDbLine
 62
7
  6
CONTINUOUS
 10
123.0567236646
 20
152.2743699459
 11
123.0231691829
 21
152.3320357607
  0
LINE
  5
475
100
AcDbEntity
  8
0
100
AcDbLine
 62
7
  6
CONTINUOUS
 10
120.3316335605
 20
153.5235004719
 11
120.2461190474
 21
153.68084981
  0
LINE
  5
476
100
AcDbEntity
  8
0
100
AcDbLine
 62
7
  6
CONTINUOUS
 10
124.8227694065
 20
151.4881688419
 11
124.8840122681
 21
151.3696185292
  0
LINE
  5
477
100
AcDbEntity
  8
0
100
AcDbLine
 62
7
  6
CONTINUOUS
 10
125.3771606808
 20
151.2109237387
 11
125.3159178192
 21
151.3294740514
  0
LINE
  5
478
100
AcDbEntity
  8
0
100
AcDbLine
 62
7
  6
CONTINUOUS
 10
121.6551684412
 20
153.7239274774
 11
121.5734316003
 21
153.8832716077
  0
LINE
  5
479
100
AcDbEntity
  8
0
100
AcDbLine
 62
7
  6
CONTINUOUS
 10
123.3727569416
 20
152.9944540958
 11
123.2967721331
 21
153.1566204861
  0
LINE
  5
47A
100
AcDbEntity
  8
0
100
AcDbLine
 62
7
  6
CONTINUOUS
 10
126.5084889283
 20
150.7071265888
 11
126.4447481643
 21
150.8744837272
  0
LINE
  5
47B
100
AcDbEntity
  8
0
100
AcDbLine
 62
7
  6
CONTINUOUS
 10
126.7979892631
 20
151.3102091445
 11
126.7342474093
 21
151.4775668612
  0
LINE
  5
47C
100
AcDbEntity
  8
0
100
AcDbLine
 62
7
  6
CONTINUOUS
 10
148.645999972
 20
124.8671638598
 11
148.6318569869
 21
125.0068187135
  0
LINE
  5
47D
100
AcDbEntity
  8
0
100
AcDbLine
 62
7
  6
CONTINUOUS
 10
150.0449892055
 20
125.2884175326
 11
150.0591321905
 21
125.1487626789
  0
LINE
  5
47E
100
AcDbEntity
  8
0
100
AcDbLine
 62
7
  6
CONTINUOUS
 10
149.1100703397
 20
123.6835851101
 11
149.099262174
 21
123.823538145
  0
LINE
  5
47F
100
AcDbEntity
  8
0
100
AcDbLine
 62
7
  6
CONTINUOUS
 10
150.4711160304
 20
124.1974162951
 11
150.4819239783
 21
124.0574638372
  0
LINE
  5
480
100
AcDbEntity
  8
0
100
AcDbLine
 62
7
  6
CONTINUOUS
 10
148.449640407
 20
124.9330148853
 11
148.4536662684
 21
124.8183385052
  0
LINE
  5
481
100
AcDbEntity
  8
RUNDUNGEN
100
AcDbLine
 62
7
  6
CONTINUOUS
 10
151.9508752754
 20
141.0617027652
 11
151.9508746318
 21
141.0617615227
  0
LINE
  5
482
100
AcDbEntity
  8
RUNDUNGEN
100
AcDbLine
 62
7
  6
CONTINUOUS
 10
159.2607053629
 20
121.171608591
 11
161.4317943637
 21
126.4918255284
  0
LINE
  5
483
100
AcDbEntity
  8
RUNDUNGEN
100
AcDbLine
 62
7
  6
CONTINUOUS
 10
129.6975289816
 20
49.878531651
 11
131.9242986963
 21
55.17568487
  0
LINE
  5
484
100
AcDbEntity
  8
RUNDUNGEN
100
AcDbLine
 62
7
  6
CONTINUOUS
 10
132.103402392
 20
55.509194812
 11
131.9242876439
 21
55.175688283
  0
LINE
  5
485
100
AcDbEntity
  8
RUNDUNGEN
100
AcDbLine
 62
7
  6
CONTINUOUS
 10
162.1956623755
 20
95.7846996282
 11
162.1956887923
 21
95.784727154
  0
LINE
  5
486
100
AcDbEntity
  8
RUNDUNGEN
100
AcDbLine
 62
7
  6
CONTINUOUS
 10
153.3001900405
 20
76.5515762198
 11
158.5973432693
 21
78.7783459387
  0
LINE
  5
487
100
AcDbEntity
  8
RUNDUNGEN
100
AcDbLine
 62
7
  6
CONTINUOUS
 10
81.9840493919
 20
47.0440805566
 11
87.3042663193
 21
49.2151695532
  0
LINE
  5
488
100
AcDbEntity
  8
RUNDUNGEN
100
AcDbLine
 62
7
  6
CONTINUOUS
 10
87.6667388993
 20
49.3243512562
 11
87.304260918
 21
49.2151797809
  0
LINE
  5
489
100
AcDbEntity
  8
0
100
AcDbLine
 62
7
  6
CONTINUOUS
 10
79.2976978185
 20
152.6081150479
 11
79.0627069241
 21
152.5554570838
  0
LINE
  5
48A
100
AcDbEntity
  8
0
100
AcDbLine
 62
7
  6
CONTINUOUS
 10
117.6186787736
 20
155.0361177475
 11
117.7075884844
 21
155.0494511995
  0
LINE
  5
48B
100
AcDbEntity
  8
0
100
AcDbLine
 62
7
  6
CONTINUOUS
 10
82.6309506817
 20
151.2061782752
 11
82.82598043
 21
151.2250698689
  0
LINE
  5
48C
100
AcDbEntity
  8
0
100
AcDbLine
 62
7
  6
CONTINUOUS
 10
82.8177430529
 20
151.4808611164
 11
82.6227130531
 21
151.4619694318
  0
LINE
  5
48D
100
AcDbEntity
  8
0
100
AcDbLine
 62
7
  6
CONTINUOUS
 10
82.4252589232
 20
152.8683379814
 11
82.6202889148
 21
152.8872296852
  0
LINE
  5
48E
100
AcDbEntity
  8
0
100
AcDbLine
 62
7
  6
CONTINUOUS
 10
82.6120513005
 20
153.1430208082
 11
82.4170215544
 21
153.1241292097
  0
LINE
  5
48F
100
AcDbEntity
  8
0
100
AcDbLine
 62
7
  6
CONTINUOUS
 10
79.2393188307
 20
152.3110927695
 11
79.3911144915
 21
152.3214462122
  0
LINE
  5
490
100
AcDbEntity
  8
0
100
AcDbLine
 62
7
  6
CONTINUOUS
 10
117.5648458003
 20
153.6931969239
 11
117.4502200808
 21
153.6879252436
  0
LINE
  5
491
100
AcDbEntity
  8
0
100
AcDbLine
 62
7
  6
CONTINUOUS
 10
117.7781594737
 20
155.2745635253
 11
117.6635337541
 21
155.269291845
  0
LINE
  5
492
100
AcDbEntity
  8
0
100
AcDbLine
 62
7
  6
CONTINUOUS
 10
85.2121413947
 20
153.9628149605
 11
85.4079582088
 21
153.9698483874
  0
LINE
  5
493
100
AcDbEntity
  8
RUNDUNGEN
100
AcDbLine
 62
7
  6
CONTINUOUS
 10
67.4142091494
 20
155.5881440971
 11
67.4141664005
 21
155.5881433032
  0
LINE
  5
494
100
AcDbEntity
  8
0
100
AcDbLine
 62
7
  6
CONTINUOUS
 10
119.907401747
 20
152.8419049685
 11
119.79265602
 21
152.8423856629
  0
LINE
  5
495
100
AcDbEntity
  8
0
100
AcDbLine
 62
7
  6
CONTINUOUS
 10
119.7987875439
 20
153.63655008
 11
119.9135335603
 21
153.6360692787
  0
LINE
  5
496
100
AcDbEntity
  8
0
100
AcDbLine
 62
7
  6
CONTINUOUS
 10
125.2246746429
 20
151.9905678264
 11
125.3145730663
 21
151.9895723022
  0
LINE
  5
497
100
AcDbEntity
  8
0
100
AcDbLine
 62
7
  6
CONTINUOUS
 10
117.3796490832
 20
153.4628128916
 11
117.5199906654
 21
153.4600228495
  0
LINE
  5
498
100
AcDbEntity
  8
0
100
AcDbLine
 62
7
  6
CONTINUOUS
 10
125.9970565433
 20
150.088271212
 11
125.9072082947
 21
150.0914350429
  0
LINE
  5
499
100
AcDbEntity
  8
0
100
AcDbLine
 62
7
  6
CONTINUOUS
 10
126.0193127177
 20
150.8776710017
 11
126.1091609663
 21
150.8745071708
  0
LINE
  5
49A
100
AcDbEntity
  8
0
100
AcDbLine
 62
7
  6
CONTINUOUS
 10
126.3326188489
 20
151.4681216775
 11
126.4224670976
 21
151.4649578466
  0
LINE
  5
49B
100
AcDbEntity
  8
0
100
AcDbLine
 62
7
  6
CONTINUOUS
 10
85.4591625566
 20
154.2414436326
 11
85.3072655652
 21
154.2501855087
  0
LINE
  5
49C
100
AcDbEntity
  8
0
100
AcDbLine
 62
7
  6
CONTINUOUS
 10
122.6400280834
 20
151.7272827699
 11
122.5255147
 21
151.7346015442
  0
LINE
  5
49D
100
AcDbEntity
  8
0
100
AcDbLine
 62
7
  6
CONTINUOUS
 10
122.5809184407
 20
152.3973145647
 11
122.6954312592
 21
152.3899960383
  0
LINE
  5
49E
100
AcDbEntity
  8
0
100
AcDbLine
 62
7
  6
CONTINUOUS
 10
122.9718630109
 20
152.483371097
 11
122.8573496275
 21
152.4906898713
  0
LINE
  5
49F
100
AcDbEntity
  8
0
100
AcDbLine
 62
7
  6
CONTINUOUS
 10
122.8969517177
 20
153.1173987146
 11
123.0114645362
 21
153.1100801881
  0
LINE
  5
4A0
100
AcDbEntity
  8
0
100
AcDbLine
 62
7
  6
CONTINUOUS
 10
119.7245173484
 20
152.6579757666
 11
119.8645425029
 21
152.648154435
  0
LINE
  5
4A1
100
AcDbEntity
  8
0
100
AcDbLine
 62
7
  6
CONTINUOUS
 10
119.9816722223
 20
153.8204791492
 11
119.8416467796
 21
153.830300591
  0
LINE
  5
4A2
100
AcDbEntity
  8
0
100
AcDbLine
 62
7
  6
CONTINUOUS
 10
120.9682395961
 20
152.4313550381
 11
120.828488535
 21
152.4445134239
  0
LINE
  5
4A3
100
AcDbEntity
  8
0
100
AcDbLine
 62
7
  6
CONTINUOUS
 10
121.2253685091
 20
153.8098903538
 11
121.3651201435
 21
153.7967317405
  0
LINE
  5
4A4
100
AcDbEntity
  8
0
100
AcDbLine
 62
7
  6
CONTINUOUS
 10
124.9576688907
 20
150.6733579223
 11
124.8436668826
 21
150.6864073895
  0
LINE
  5
4A5
100
AcDbEntity
  8
0
100
AcDbLine
 62
7
  6
CONTINUOUS
 10
125.4200924627
 20
152.2005734414
 11
125.3060899029
 21
152.2136231845
  0
LINE
  5
4A6
100
AcDbEntity
  8
0
100
AcDbLine
 62
7
  6
CONTINUOUS
 10
122.4711844524
 20
151.5437497006
 11
122.6103753439
 21
151.5256003711
  0
LINE
  5
4A7
100
AcDbEntity
  8
0
100
AcDbLine
 62
7
  6
CONTINUOUS
 10
123.0904728444
 20
153.2901012004
 11
122.9512819542
 21
153.308250533
  0
LINE
  5
4A8
100
AcDbEntity
  8
0
100
AcDbLine
 62
7
  6
CONTINUOUS
 10
120.7559707495
 20
152.2617812176
 11
120.9207715424
 21
152.2386817796
  0
LINE
  5
4A9
100
AcDbEntity
  8
0
100
AcDbLine
 62
7
  6
CONTINUOUS
 10
121.4376379188
 20
153.9794639212
 11
121.2728371272
 21
154.0025633624
  0
LINE
  5
4AA
100
AcDbEntity
  8
0
100
AcDbLine
 62
7
  6
CONTINUOUS
 10
124.7381474739
 20
150.4754062257
 11
124.8762536199
 21
150.4503025426
  0
LINE
  5
4AB
100
AcDbEntity
  8
0
100
AcDbLine
 62
7
  6
CONTINUOUS
 10
125.7912536384
 20
149.9304049636
 11
125.9287145713
 21
149.9019767978
  0
LINE
  5
4AC
100
AcDbEntity
  8
0
100
AcDbLine
 62
7
  6
CONTINUOUS
 10
126.2251156097
 20
151.0355372258
 11
126.0876557681
 21
151.0639648164
  0
LINE
  5
4AD
100
AcDbEntity
  8
0
100
AcDbLine
 62
7
  6
CONTINUOUS
 10
126.538421741
 20
151.6259879016
 11
126.4009618994
 21
151.6544154922
  0
LINE
  5
4AE
100
AcDbEntity
  8
0
100
AcDbLine
 62
7
  6
CONTINUOUS
 10
115.6748137481
 20
153.9698424508
 11
116.6073198821
 21
153.7020358974
  0
LINE
  5
4AF
100
AcDbEntity
  8
0
100
AcDbLine
 62
7
  6
CONTINUOUS
 10
116.6724400165
 20
153.9287851087
 11
115.8953515715
 21
154.1519572366
  0
LINE
  5
4B0
100
AcDbEntity
  8
0
100
AcDbLine
 62
7
  6
CONTINUOUS
 10
117.1739214545
 20
153.5273069269
 11
117.3796490832
 21
153.4628128916
  0
LINE
  5
4B1
100
AcDbEntity
  8
0
100
AcDbLine
 62
7
  6
CONTINUOUS
 10
117.4502200808
 20
153.6879252436
 11
117.244492452
 21
153.752419279
  0
LINE
  5
4B2
100
AcDbEntity
  8
0
100
AcDbLine
 62
7
  6
CONTINUOUS
 10
117.1210975052
 20
154.0795444335
 11
116.9668018204
 21
154.1279149484
  0
LINE
  5
4B3
100
AcDbEntity
  8
0
100
AcDbLine
 62
7
  6
CONTINUOUS
 10
117.4723518204
 20
154.299076675
 11
117.6266475788
 21
154.250706137
  0
LINE
  5
4B4
100
AcDbEntity
  8
0
100
AcDbLine
 62
7
  6
CONTINUOUS
 10
119.5728402118
 20
152.7140198228
 11
119.7245173484
 21
152.6579757666
  0
LINE
  5
4B5
100
AcDbEntity
  8
0
100
AcDbLine
 62
7
  6
CONTINUOUS
 10
119.79265602
 20
152.8423856629
 11
119.6409788834
 21
152.8984297192
  0
LINE
  5
4B6
100
AcDbEntity
  8
0
100
AcDbLine
 62
7
  6
CONTINUOUS
 10
119.5088573149
 20
153.2406696481
 11
119.3571801784
 21
153.2967137043
  0
LINE
  5
4B7
100
AcDbEntity
  8
0
100
AcDbLine
 62
7
  6
CONTINUOUS
 10
119.4798297892
 20
153.6286515229
 11
119.6567863521
 21
153.5632668262
  0
LINE
  5
4B8
100
AcDbEntity
  8
RUNDUNGEN
100
AcDbLine
 62
7
  6
CONTINUOUS
 10
87.3042662973
 20
162.8979721968
 11
81.9840493919
 21
165.0690611845
  0
LINE
  5
4B9
100
AcDbEntity
  8
0
100
AcDbLine
 62
7
  6
CONTINUOUS
 10
121.6636876539
 20
152.6157956987
 11
122.0117308217
 21
152.4701211019
  0
LINE
  5
4BA
100
AcDbEntity
  8
0
100
AcDbLine
 62
7
  6
CONTINUOUS
 10
122.0876360061
 20
152.6514724246
 11
121.7395928383
 21
152.7971470215
  0
LINE
  5
4BB
100
AcDbEntity
  8
RUNDUNGEN
100
AcDbLine
 62
7
  6
CONTINUOUS
 10
158.5973432693
 20
133.3347958024
 11
153.3001900502
 21
135.5615655171
  0
LINE
  5
4BC
100
AcDbEntity
  8
0
100
AcDbLine
 62
7
  6
CONTINUOUS
 10
122.3231171521
 20
151.6087340418
 11
122.4711844524
 21
151.5437497006
  0
LINE
  5
4BD
100
AcDbEntity
  8
0
100
AcDbLine
 62
7
  6
CONTINUOUS
 10
122.5255147
 20
151.7346015442
 11
122.4268029782
 21
151.777924521
  0
LINE
  5
4BE
100
AcDbEntity
  8
0
100
AcDbLine
 62
7
  6
CONTINUOUS
 10
122.6954312592
 20
152.3899960383
 11
122.794142981
 21
152.3466730615
  0
LINE
  5
4BF
100
AcDbEntity
  8
0
100
AcDbLine
 62
7
  6
CONTINUOUS
 10
124.5453154865
 20
150.571839425
 11
124.7381474739
 21
150.4754062257
  0
LINE
  5
4C0
100
AcDbEntity
  8
0
100
AcDbLine
 62
7
  6
CONTINUOUS
 10
124.8436668826
 20
150.6864073895
 11
124.6508348952
 21
150.7828405888
  0
LINE
  5
4C1
100
AcDbEntity
  8
0
100
AcDbLine
 62
7
  6
CONTINUOUS
 10
124.5811094342
 20
151.1254415327
 11
124.4364857194
 21
151.1977662942
  0
LINE
  5
4C2
100
AcDbEntity
  8
0
100
AcDbLine
 62
7
  6
CONTINUOUS
 10
124.9628416958
 20
151.286235073
 11
125.1074654105
 21
151.2139103114
  0
LINE
  5
4C3
100
AcDbEntity
  8
0
100
AcDbLine
 62
7
  6
CONTINUOUS
 10
125.6722224764
 20
149.9935655194
 11
125.7912536384
 21
149.9304049636
  0
LINE
  5
4C4
100
AcDbEntity
  8
0
100
AcDbLine
 62
7
  6
CONTINUOUS
 10
125.9072082947
 20
150.0914350429
 11
125.7405655398
 21
150.1798593584
  0
LINE
  5
4C5
100
AcDbEntity
  8
RUNDUNGEN
100
AcDbLine
 62
7
  6
CONTINUOUS
 10
152.9666801083
 20
135.7406692128
 11
153.3001866373
 21
135.5615544647
  0
LINE
  5
4C6
100
AcDbEntity
  8
0
100
AcDbLine
 62
7
  6
CONTINUOUS
 10
126.3364824896
 20
149.6355557564
 11
126.4545225147
 21
149.5705642698
  0
LINE
  5
4C7
100
AcDbEntity
  8
0
100
AcDbLine
 62
7
  6
CONTINUOUS
 10
126.5493435014
 20
149.7427817745
 11
126.4313034763
 21
149.8077732611
  0
LINE
  5
4C8
100
AcDbEntity
  8
0
100
AcDbLine
 62
7
  6
CONTINUOUS
 10
126.784072515
 20
149.3868474275
 11
126.925018109
 21
149.3075932192
  0
LINE
  5
4C9
100
AcDbEntity
  8
0
100
AcDbLine
 62
7
  6
CONTINUOUS
 10
117.0571033903
 20
153.6051344636
 11
117.1739214545
 21
153.5273069269
  0
LINE
  5
4CA
100
AcDbEntity
  8
0
100
AcDbLine
 62
7
  6
CONTINUOUS
 10
117.8140364861
 20
154.3979909755
 11
117.6972185681
 21
154.4758184628
  0
LINE
  5
4CB
100
AcDbEntity
  8
0
100
AcDbLine
 62
7
  6
CONTINUOUS
 10
118.0235572884
 20
155.1564272256
 11
117.9067392233
 21
155.234254759
  0
LINE
  5
4CC
100
AcDbEntity
  8
0
100
AcDbLine
 62
7
  6
CONTINUOUS
 10
120.6201770693
 20
152.3579735343
 11
120.7559707495
 21
152.2617812176
  0
LINE
  5
4CD
100
AcDbEntity
  8
0
100
AcDbLine
 62
7
  6
CONTINUOUS
 10
121.5734316003
 20
153.8832716077
 11
121.4376379188
 21
153.9794639212
  0
LINE
  5
4CE
100
AcDbEntity
  8
0
100
AcDbLine
 62
7
  6
CONTINUOUS
 10
119.4600702351
 20
152.797605216
 11
119.5728402118
 21
152.7140198228
  0
LINE
  5
4CF
100
AcDbEntity
  8
0
100
AcDbLine
 62
7
  6
CONTINUOUS
 10
120.2461190474
 20
153.68084981
 11
120.1333493589
 21
153.764435093
  0
LINE
  5
4D0
100
AcDbEntity
  8
0
100
AcDbLine
 62
7
  6
CONTINUOUS
 10
117.244492452
 20
153.752419279
 11
117.1533903956
 21
153.8221850407
  0
LINE
  5
4D1
100
AcDbEntity
  8
0
100
AcDbLine
 62
7
  6
CONTINUOUS
 10
117.381249764
 20
154.3688424367
 11
117.4723518204
 21
154.299076675
  0
LINE
  5
4D2
100
AcDbEntity
  8
0
100
AcDbLine
 62
7
  6
CONTINUOUS
 10
117.6266475788
 20
154.250706137
 11
117.7177496352
 21
154.1809403753
  0
LINE
  5
4D3
100
AcDbEntity
  8
0
100
AcDbLine
 62
7
  6
CONTINUOUS
 10
120.828488535
 20
152.4445134239
 11
120.7177440107
 21
152.5307649095
  0
LINE
  5
4D4
100
AcDbEntity
  8
0
100
AcDbLine
 62
7
  6
CONTINUOUS
 10
121.3651201435
 20
153.7967317405
 11
121.4758640945
 21
153.7104804824
  0
LINE
  5
4D5
100
AcDbEntity
  8
0
100
AcDbLine
 62
7
  6
CONTINUOUS
 10
122.2155290217
 20
151.6988920304
 11
122.3231171521
 21
151.6087340418
  0
LINE
  5
4D6
100
AcDbEntity
  8
0
100
AcDbLine
 62
7
  6
CONTINUOUS
 10
123.2967721331
 20
153.1566204861
 11
123.1891845662
 21
153.2467782236
  0
LINE
  5
4D7
100
AcDbEntity
  8
0
100
AcDbLine
 62
7
  6
CONTINUOUS
 10
119.6409788834
 20
152.8984297192
 11
119.5534883319
 21
152.9726744687
  0
LINE
  5
4D8
100
AcDbEntity
  8
0
100
AcDbLine
 62
7
  6
CONTINUOUS
 10
120.0652106968
 20
153.5800252225
 11
120.152700959
 21
153.5057805799
  0
LINE
  5
4D9
100
AcDbEntity
  8
0
100
AcDbLine
 62
7
  6
CONTINUOUS
 10
149.5954863905
 20
124.9318936609
 11
149.4618961189
 21
125.0522452698
  0
LINE
  5
4DA
100
AcDbEntity
  8
0
100
AcDbLine
 62
7
  6
CONTINUOUS
 10
146.7756568667
 20
129.1037883972
 11
146.6906673108
 21
129.180883284
  0
LINE
  5
4DB
100
AcDbEntity
  8
0
100
AcDbLine
 62
7
  6
CONTINUOUS
 10
147.7106440723
 20
130.1133871
 11
147.7956336102
 21
130.0362922473
  0
LINE
  5
4DC
100
AcDbEntity
  8
0
100
AcDbLine
 62
7
  6
CONTINUOUS
 10
124.4423824757
 20
150.6672768273
 11
124.5453154865
 21
150.571839425
  0
LINE
  5
4DD
100
AcDbEntity
  8
0
100
AcDbLine
 62
7
  6
CONTINUOUS
 10
125.3159178192
 20
151.3294740514
 11
125.2129848069
 21
151.4249114506
  0
LINE
  5
4DE
100
AcDbEntity
  8
0
100
AcDbLine
 62
7
  6
CONTINUOUS
 10
125.6435450534
 20
152.0448654996
 11
125.5406120411
 21
152.1403028988
  0
LINE
  5
4DF
100
AcDbEntity
  8
0
100
AcDbLine
 62
7
  6
CONTINUOUS
 10
117.5429228097
 20
154.5241890008
 11
117.4775367621
 21
154.5858929908
  0
LINE
  5
4E0
100
AcDbEntity
  8
0
100
AcDbLine
 62
7
  6
CONTINUOUS
 10
117.8618842427
 20
155.0010806614
 11
117.9272702904
 21
154.9393766715
  0
LINE
  5
4E1
100
AcDbEntity
  8
0
100
AcDbLine
 62
7
  6
CONTINUOUS
 10
122.4268029782
 20
151.777924521
 11
122.3438934829
 21
151.8572514523
  0
LINE
  5
4E2
100
AcDbEntity
  8
0
100
AcDbLine
 62
7
  6
CONTINUOUS
 10
122.794142981
 20
152.3466730615
 11
122.8770530411
 21
152.2673458823
  0
LINE
  5
4E3
100
AcDbEntity
  8
0
100
AcDbLine
 62
7
  6
CONTINUOUS
 10
122.7586379058
 20
152.5340128481
 11
122.6757284105
 21
152.6133397794
  0
LINE
  5
4E4
100
AcDbEntity
  8
0
100
AcDbLine
 62
7
  6
CONTINUOUS
 10
123.110176258
 20
153.0667572113
 11
123.1930863181
 21
152.9874300321
  0
LINE
  5
4E5
100
AcDbEntity
  8
0
100
AcDbLine
 62
7
  6
CONTINUOUS
 10
125.5716221752
 20
150.0914578869
 11
125.6722224764
 21
149.9935655194
  0
LINE
  5
4E6
100
AcDbEntity
  8
0
100
AcDbLine
 62
7
  6
CONTINUOUS
 10
126.4447481643
 20
150.8744837272
 11
126.3441467717
 21
150.97237667
  0
LINE
  5
4E7
100
AcDbEntity
  8
0
100
AcDbLine
 62
7
  6
CONTINUOUS
 10
126.7342474093
 20
151.4775668612
 11
126.6336471065
 21
151.5754592257
  0
LINE
  5
4E8
100
AcDbEntity
  8
RUNDUNGEN
100
AcDbLine
 62
7
  6
CONTINUOUS
 10
112.6910515041
 20
165.8330434829
 11
112.6910102476
 21
165.8330838552
  0
LINE
  5
4E9
100
AcDbEntity
  8
0
100
AcDbLine
 62
7
  6
CONTINUOUS
 10
146.4818845925
 20
129.0710396984
 11
146.5794222436
 21
128.9700943101
  0
LINE
  5
4EA
100
AcDbEntity
  8
0
100
AcDbLine
 62
7
  6
CONTINUOUS
 10
148.0044163041
 20
130.1461358201
 11
147.9068786651
 21
130.247081193
  0
LINE
  5
4EB
100
AcDbEntity
  8
0
100
AcDbLine
 62
7
  6
CONTINUOUS
 10
124.6508348952
 20
150.7828405888
 11
124.5720060192
 21
150.8662237691
  0
LINE
  5
4EC
100
AcDbEntity
  8
0
100
AcDbLine
 62
7
  6
CONTINUOUS
 10
124.8840122681
 20
151.3696185292
 11
124.9628416958
 21
151.286235073
  0
LINE
  5
4ED
100
AcDbEntity
  8
0
100
AcDbLine
 62
7
  6
CONTINUOUS
 10
125.1074654105
 20
151.2139103114
 11
125.1862942865
 21
151.1305271311
  0
LINE
  5
4EE
100
AcDbEntity
  8
0
100
AcDbLine
 62
7
  6
CONTINUOUS
 10
148.5346043893
 20
124.6185078471
 11
148.6115168802
 21
124.5333529973
  0
LINE
  5
4EF
100
AcDbEntity
  8
0
100
AcDbLine
 62
7
  6
CONTINUOUS
 10
148.7937334602
 20
124.6071568255
 11
148.7067036205
 21
124.7172907232
  0
LINE
  5
4F0
100
AcDbEntity
  8
0
100
AcDbLine
 62
7
  6
CONTINUOUS
 10
149.9174904212
 20
125.4984664735
 11
150.0045200293
 21
125.3883331475
  0
LINE
  5
4F1
100
AcDbEntity
  8
0
100
AcDbLine
 62
7
  6
CONTINUOUS
 10
125.0683610922
 20
151.4972362122
 11
125.0136358009
 21
151.5685654495
  0
LINE
  5
4F2
100
AcDbEntity
  8
0
100
AcDbLine
 62
7
  6
CONTINUOUS
 10
125.4591967811
 20
151.9172475406
 11
125.5139220724
 21
151.8459183033
  0
LINE
  5
4F3
100
AcDbEntity
  8
0
100
AcDbLine
 62
7
  6
CONTINUOUS
 10
149.1944483151
 20
123.5714073072
 11
149.1100703397
 21
123.6835851101
  0
LINE
  5
4F4
100
AcDbEntity
  8
0
100
AcDbLine
 62
7
  6
CONTINUOUS
 10
150.3867378372
 20
124.309594675
 11
150.4711160304
 21
124.1974162951
  0
LINE
  5
4F5
100
AcDbEntity
  8
0
100
AcDbLine
 62
7
  6
CONTINUOUS
 10
125.7405655398
 20
150.1798593584
 11
125.68757683
 21
150.2524879632
  0
LINE
  5
4F6
100
AcDbEntity
  8
0
100
AcDbLine
 62
7
  6
CONTINUOUS
 10
126.2758037212
 20
150.7860828553
 11
126.3287924311
 21
150.7134542505
  0
LINE
  5
4F7
100
AcDbEntity
  8
0
100
AcDbLine
 62
7
  6
CONTINUOUS
 10
126.565304056
 20
151.389165411
 11
126.6182927658
 21
151.3165368062
  0
LINE
  5
4F8
100
AcDbEntity
  8
0
100
AcDbLine
 62
7
  6
CONTINUOUS
 10
148.926145245
 20
123.6141484629
 11
149.0200419031
 21
123.4767574044
  0
LINE
  5
4F9
100
AcDbEntity
  8
0
100
AcDbLine
 62
7
  6
CONTINUOUS
 10
150.6550410994
 20
124.2668529325
 11
150.5611444445
 21
124.4042439923
  0
LINE
  5
4FA
100
AcDbEntity
  8
0
100
AcDbLine
 62
7
  6
CONTINUOUS
 10
150.1968539389
 20
125.43715792
 11
150.0895896269
 21
125.5972493394
  0
LINE
  5
4FB
100
AcDbEntity
  8
0
100
AcDbLine
 62
7
  6
CONTINUOUS
 10
146.3689516737
 20
129.285694397
 11
146.4818845925
 21
129.0710396984
  0
LINE
  5
4FC
100
AcDbEntity
  8
0
100
AcDbLine
 62
7
  6
CONTINUOUS
 10
146.6906673108
 20
129.180883284
 11
146.577734392
 21
129.3955379826
  0
LINE
  5
4FD
100
AcDbEntity
  8
0
100
AcDbLine
 62
7
  6
CONTINUOUS
 10
147.0751234982
 20
128.9568194849
 11
146.9998348737
 21
129.0999226401
  0
LINE
  5
4FE
100
AcDbEntity
  8
0
100
AcDbLine
 62
7
  6
CONTINUOUS
 10
146.9464878282
 20
128.1584090377
 11
147.0181453742
 21
128.0134535752
  0
LINE
  5
4FF
100
AcDbEntity
  8
0
100
AcDbLine
 62
7
  6
CONTINUOUS
 10
147.3021335583
 20
127.4322988392
 11
147.7107348687
 21
126.552336903
  0
LINE
  5
500
100
AcDbEntity
  8
0
100
AcDbLine
 62
7
  6
CONTINUOUS
 10
147.9247073754
 20
126.6516928445
 11
147.5842062835
 21
127.384994458
  0
LINE
  5
501
100
AcDbEntity
  8
RUNDUNGEN
100
AcDbLine
 62
7
  6
CONTINUOUS
 10
131.9242987004
 20
156.9374568613
 11
129.6975289816
 21
162.2346100901
  0
LINE
  5
502
100
AcDbEntity
  8
RUNDUNGEN
100
AcDbLine
 62
7
  6
CONTINUOUS
 10
161.4317943637
 20
85.6213162127
 11
159.260705367
 21
90.9415331401
  0
LINE
  5
503
100
AcDbEntity
  8
0
100
AcDbLine
 62
7
  6
CONTINUOUS
 10
148.4536662684
 20
124.8183385052
 11
148.5346043893
 21
124.6185078471
  0
LINE
  5
504
100
AcDbEntity
  8
0
100
AcDbLine
 62
7
  6
CONTINUOUS
 10
148.7067036205
 20
124.7172907232
 11
148.645999972
 21
124.8671638598
  0
LINE
  5
505
100
AcDbEntity
  8
0
100
AcDbLine
 62
7
  6
CONTINUOUS
 10
148.7634871578
 20
125.2055169188
 11
148.7129008612
 21
125.3304110086
  0
LINE
  5
506
100
AcDbEntity
  8
0
100
AcDbLine
 62
7
  6
CONTINUOUS
 10
149.2756536965
 20
125.0931178294
 11
149.3161228727
 21
124.9932022145
  0
LINE
  5
507
100
AcDbEntity
  8
0
100
AcDbLine
 62
7
  6
CONTINUOUS
 10
149.1729701863
 20
122.9582826746
 11
149.2259606711
 21
122.8055119361
  0
LINE
  5
508
100
AcDbEntity
  8
0
100
AcDbLine
 62
7
  6
CONTINUOUS
 10
149.3496050681
 20
122.449047074
 11
149.4202591826
 21
122.2453523676
  0
LINE
  5
509
100
AcDbEntity
  8
0
100
AcDbLine
 62
7
  6
CONTINUOUS
 10
149.5439035797
 20
121.8888875055
 11
149.5968940644
 21
121.736116767
  0
LINE
  5
50A
100
AcDbEntity
  8
0
100
AcDbLine
 62
7
  6
CONTINUOUS
 10
149.6644764516
 20
121.5312871467
 11
149.7128051637
 21
121.3769782825
  0
LINE
  5
50B
100
AcDbEntity
  8
0
100
AcDbLine
 62
7
  6
CONTINUOUS
 10
149.8255722814
 20
121.0169238734
 11
149.8900105027
 21
120.8111789173
  0
LINE
  5
50C
100
AcDbEntity
  8
0
100
AcDbLine
 62
7
  6
CONTINUOUS
 10
150.0027774361
 20
120.4511250969
 11
150.0511061482
 21
120.2968162326
  0
LINE
  5
50D
100
AcDbEntity
  8
RUNDUNGEN
100
AcDbLine
 62
7
  6
CONTINUOUS
 10
159.1515236641
 20
91.3040057201
 11
159.2606951394
 21
90.9415277388
  0
LINE
  5
50E
100
AcDbEntity
  8
0
100
AcDbLine
 62
7
  6
CONTINUOUS
 10
146.341008269
 20
129.4232542957
 11
146.3689516737
 21
129.285694397
  0
LINE
  5
50F
100
AcDbEntity
  8
0
100
AcDbLine
 62
7
  6
CONTINUOUS
 10
148.1452926397
 20
129.7939212073
 11
148.117349223
 21
129.9314811215
  0
LINE
  5
510
100
AcDbEntity
  8
0
100
AcDbLine
 62
7
  6
CONTINUOUS
 10
150.2514661001
 20
125.1975874514
 11
150.2170884112
 21
125.3872003984
  0
LINE
  5
511
100
AcDbEntity
  8
0
100
AcDbLine
 62
7
  6
CONTINUOUS
 10
149.3161228727
 20
124.9932022145
 11
149.3403832097
 21
124.8285683141
  0
LINE
  5
512
100
AcDbEntity
  8
0
100
AcDbLine
 62
7
  6
CONTINUOUS
 10
146.577734392
 20
129.3955379826
 11
146.5623390853
 21
129.5092473596
  0
LINE
  5
513
100
AcDbEntity
  8
0
100
AcDbLine
 62
7
  6
CONTINUOUS
 10
147.9085665291
 20
129.8216375487
 11
147.9239618537
 21
129.7079281376
  0
LINE
  5
514
100
AcDbEntity
  8
0
100
AcDbLine
 62
7
  6
CONTINUOUS
 10
148.9058186209
 20
123.7793141789
 11
148.926145245
 21
123.6141484629
  0
LINE
  5
515
100
AcDbEntity
  8
0
100
AcDbLine
 62
7
  6
CONTINUOUS
 10
150.6753677267
 20
124.1016872178
 11
150.6550410994
 21
124.2668529325
  0
LINE
  5
516
100
AcDbEntity
  8
RUNDUNGEN
100
AcDbLine
 62
7
  6
CONTINUOUS
 10
159.1127168441
 20
91.6805937636
 11
159.1515236641
 21
91.3040057201
  0
LINE
  5
517
100
AcDbEntity
  8
RUNDUNGEN
100
AcDbLine
 62
7
  6
CONTINUOUS
 10
151.9508927592
 20
141.0612421688
 11
152.080989421
 21
137.3336198006
  0
LINE
  5
518
100
AcDbEntity
  8
RUNDUNGEN
100
AcDbLine
 62
7
  6
CONTINUOUS
 10
152.080989421
 20
74.7795219414
 11
151.9508884337
 21
71.0517756325
  0
LWPOLYLINE
  5
519
100
AcDbEntity
  8
RUNDUNGEN
100
AcDbPolyline
 62
7
  6
CONTINUOUS
 90
3
 70
0
 10
154.8817498903
 20
103.8065708705
 10
154.8788720909
 20
103.7869979706
 10
154.7535055895
 20
103.0003927946
  0
LINE
  5
51A
100
AcDbEntity
  8
RUNDUNGEN
100
AcDbLine
 62
7
  6
CONTINUOUS
 10
154.7535055895
 20
103.0003927946
 11
154.7233654499
 21
102.8065708705
  0
LWPOLYLINE
  5
51B
100
AcDbEntity
  8
RUNDUNGEN
100
AcDbPolyline
 62
7
  6
CONTINUOUS
 90
3
 70
0
 10
141.1068455189
 20
70.5510099167
 10
141.1182955675
 20
70.5671430047
 10
141.5871092152
 20
71.2110981479
  0
LINE
  5
51C
100
AcDbEntity
  8
RUNDUNGEN
100
AcDbLine
 62
7
  6
CONTINUOUS
 10
141.5871092152
 20
71.2110981479
 11
141.7019575883
 21
71.3701114097
  0
LINE
  5
51D
100
AcDbEntity
  8
RUNDUNGEN
100
AcDbLine
 62
7
  6
CONTINUOUS
 10
159.6507083452
 20
93.0603522511
 11
159.4195774964
 21
92.760261579
  0
LINE
  5
51E
100
AcDbEntity
  8
RUNDUNGEN
100
AcDbLine
 62
7
  6
CONTINUOUS
 10
132.3422497858
 20
55.8029233366
 11
132.103402392
 21
55.509194812
  0
LINE
  5
51F
100
AcDbEntity
  8
RUNDUNGEN
100
AcDbLine
 62
7
  6
CONTINUOUS
 10
162.1954667574
 20
95.7844890593
 11
159.6516319365
 21
93.0566697751
  0
LINE
  5
520
100
AcDbEntity
  8
RUNDUNGEN
100
AcDbLine
 62
7
  6
CONTINUOUS
 10
115.4192051476
 20
48.8242429861
 11
112.6912951637
 21
46.2803235829
  0
LWPOLYLINE
  5
521
100
AcDbEntity
  8
RUNDUNGEN
100
AcDbPolyline
 62
7
  6
CONTINUOUS
 90
3
 70
0
 10
137.9248650035
 20
67.3690294014
 10
137.9089899618
 20
67.3572241826
 10
137.2641286044
 20
66.8896578318
  0
LINE
  5
522
100
AcDbEntity
  8
RUNDUNGEN
100
AcDbLine
 62
7
  6
CONTINUOUS
 10
137.2641286044
 20
66.8896578318
 11
137.1057635106
 21
66.773917332
  0
LWPOLYLINE
  5
523
100
AcDbEntity
  8
RUNDUNGEN
100
AcDbPolyline
 62
7
  6
CONTINUOUS
 90
3
 70
0
 10
100.1693040497
 20
158.519016711
 10
100.1497998268
 20
158.5157053022
 10
99.3629534689
 20
158.391861563
  0
LINE
  5
524
100
AcDbEntity
  8
RUNDUNGEN
100
AcDbLine
 62
7
  6
CONTINUOUS
 10
99.3629534689
 20
158.391861563
 11
99.1693040497
 21
158.3606322707
  0
LINE
  5
525
100
AcDbEntity
  8
RUNDUNGEN
100
AcDbLine
 62
7
  6
CONTINUOUS
 10
71.1403043019
 20
155.7149989521
 11
71.5159345449
 21
155.763761083
  0
LINE
  5
526
100
AcDbEntity
  8
RUNDUNGEN
100
AcDbLine
 62
7
  6
CONTINUOUS
 10
116.7952811573
 20
162.7499836642
 11
117.1718692007
 21
162.788790484
  0
LINE
  5
527
100
AcDbEntity
  8
RUNDUNGEN
100
AcDbLine
 62
7
  6
CONTINUOUS
 10
71.142254869
 20
155.718256233
 11
67.414531266
 21
155.5881560381
  0
LINE
  5
528
100
AcDbEntity
  8
RUNDUNGEN
100
AcDbLine
 62
7
  6
CONTINUOUS
 10
133.6963529789
 20
155.7182562418
 11
137.4240992877
 21
155.5881552544
  0
LWPOLYLINE
  5
529
100
AcDbEntity
  8
RUNDUNGEN
100
AcDbPolyline
 62
7
  6
CONTINUOUS
 90
3
 70
0
 10
104.6693040497
 20
158.519016711
 10
104.6888769497
 20
158.5161389117
 10
105.4754821257
 20
158.3907724102
  0
LINE
  5
52A
100
AcDbEntity
  8
RUNDUNGEN
100
AcDbLine
 62
7
  6
CONTINUOUS
 10
105.4754821257
 20
158.3907724102
 11
105.6693040497
 21
158.3606322707
  0
LINE
  5
52B
100
AcDbEntity
  8
0
100
AcDbLine
 62
7
  6
CONTINUOUS
 10
116.3403391578
 20
155.7014101852
 11
116.1849214688
 21
155.7460446108
  0
LINE
  5
52C
100
AcDbEntity
  8
0
100
AcDbLine
 62
7
  6
CONTINUOUS
 10
117.6972185681
 20
154.4758184628
 11
117.5429228097
 21
154.5241890008
  0
LINE
  5
52D
100
AcDbEntity
  8
0
100
AcDbLine
 62
7
  6
CONTINUOUS
 10
117.9573708433
 20
154.7651165186
 11
118.1116666017
 21
154.7167459806
  0
LINE
  5
52E
100
AcDbEntity
  8
0
100
AcDbLine
 62
7
  6
CONTINUOUS
 10
117.7075884844
 20
155.0494511995
 11
117.8618842427
 21
155.0010806614
  0
LINE
  5
52F
100
AcDbEntity
  8
0
100
AcDbLine
 62
7
  6
CONTINUOUS
 10
117.9067392233
 20
155.234254759
 11
117.7781594737
 21
155.2745635253
  0
LINE
  5
530
100
AcDbEntity
  8
0
100
AcDbLine
 62
7
  6
CONTINUOUS
 10
119.9135335603
 20
153.6360692787
 11
120.0652106968
 21
153.5800252225
  0
LINE
  5
531
100
AcDbEntity
  8
0
100
AcDbLine
 62
7
  6
CONTINUOUS
 10
120.1333493589
 20
153.764435093
 11
119.9816722223
 21
153.8204791492
  0
LINE
  5
532
100
AcDbEntity
  8
0
100
AcDbLine
 62
7
  6
CONTINUOUS
 10
119.8924096289
 20
154.3564697734
 11
120.6255158855
 21
154.0855901327
  0
LINE
  5
533
100
AcDbEntity
  8
0
100
AcDbLine
 62
7
  6
CONTINUOUS
 10
120.6936545476
 20
154.2700000033
 11
119.83415087
 21
154.5875829529
  0
LINE
  5
534
100
AcDbEntity
  8
0
100
AcDbLine
 62
7
  6
CONTINUOUS
 10
122.8573496275
 20
152.4906898713
 11
122.7586379058
 21
152.5340128481
  0
LINE
  5
535
100
AcDbEntity
  8
0
100
AcDbLine
 62
7
  6
CONTINUOUS
 10
123.0114645362
 20
153.1100801881
 11
123.110176258
 21
153.0667572113
  0
LINE
  5
536
100
AcDbEntity
  8
0
100
AcDbLine
 62
7
  6
CONTINUOUS
 10
123.1891845662
 20
153.2467782236
 11
123.0904728444
 21
153.2901012004
  0
LINE
  5
537
100
AcDbEntity
  8
0
100
AcDbLine
 62
7
  6
CONTINUOUS
 10
125.2129848069
 20
151.4249114506
 11
125.0683610922
 21
151.4972362122
  0
LINE
  5
538
100
AcDbEntity
  8
0
100
AcDbLine
 62
7
  6
CONTINUOUS
 10
125.5158876655
 20
151.6690884964
 11
125.6605113802
 21
151.5967637349
  0
LINE
  5
539
100
AcDbEntity
  8
0
100
AcDbLine
 62
7
  6
CONTINUOUS
 10
125.3145730663
 20
151.9895723022
 11
125.4591967811
 21
151.9172475406
  0
LINE
  5
53A
100
AcDbEntity
  8
0
100
AcDbLine
 62
7
  6
CONTINUOUS
 10
125.5406120411
 20
152.1403028988
 11
125.4200924627
 21
152.2005734414
  0
LINE
  5
53B
100
AcDbEntity
  8
0
100
AcDbLine
 62
7
  6
CONTINUOUS
 10
126.1091609663
 20
150.8745071708
 11
126.2758037212
 21
150.7860828553
  0
LINE
  5
53C
100
AcDbEntity
  8
0
100
AcDbLine
 62
7
  6
CONTINUOUS
 10
126.3441467717
 20
150.97237667
 11
126.2251156097
 21
151.0355372258
  0
LINE
  5
53D
100
AcDbEntity
  8
0
100
AcDbLine
 62
7
  6
CONTINUOUS
 10
126.6451750808
 20
151.0797143155
 11
126.764205153
 21
151.016554338
  0
LINE
  5
53E
100
AcDbEntity
  8
0
100
AcDbLine
 62
7
  6
CONTINUOUS
 10
126.4224670976
 20
151.4649578466
 11
126.565304056
 21
151.389165411
  0
LINE
  5
53F
100
AcDbEntity
  8
0
100
AcDbLine
 62
7
  6
CONTINUOUS
 10
126.6336471065
 20
151.5754592257
 11
126.538421741
 21
151.6259879016
  0
LINE
  5
540
100
AcDbEntity
  8
0
100
AcDbLine
 62
7
  6
CONTINUOUS
 10
127.8307804896
 20
150.9184000078
 11
127.6898348956
 21
150.9976542161
  0
LWPOLYLINE
  5
541
100
AcDbEntity
  8
RUNDUNGEN
100
AcDbPolyline
 62
7
  6
CONTINUOUS
 90
3
 70
0
 10
137.9248650035
 20
144.7441123397
 10
137.9087319156
 20
144.7555623883
 10
137.2647767724
 20
145.224376036
  0
LINE
  5
542
100
AcDbEntity
  8
RUNDUNGEN
100
AcDbLine
 62
7
  6
CONTINUOUS
 10
137.2647767724
 20
145.224376036
 11
137.1057635106
 21
145.3392244091
  0
LINE
  5
543
100
AcDbEntity
  8
RUNDUNGEN
100
AcDbLine
 62
7
  6
CONTINUOUS
 10
115.4155226707
 20
163.2879751677
 11
115.7156133425
 21
163.0568443181
  0
LINE
  5
544
100
AcDbEntity
  8
RUNDUNGEN
100
AcDbLine
 62
7
  6
CONTINUOUS
 10
152.6729515837
 20
135.9795166066
 11
152.9666801083
 21
135.7406692128
  0
LINE
  5
545
100
AcDbEntity
  8
RUNDUNGEN
100
AcDbLine
 62
7
  6
CONTINUOUS
 10
112.6913871362
 20
165.8327323889
 11
115.4192051469
 21
163.2888987556
  0
LINE
  5
546
100
AcDbEntity
  8
RUNDUNGEN
100
AcDbLine
 62
7
  6
CONTINUOUS
 10
159.6516319342
 20
119.0564719684
 11
162.1955513374
 21
116.3285619845
  0
LWPOLYLINE
  5
547
100
AcDbEntity
  8
RUNDUNGEN
100
AcDbPolyline
 62
7
  6
CONTINUOUS
 90
3
 70
0
 10
141.1068455189
 20
141.5621318243
 10
141.1186507377
 20
141.5462567826
 10
141.5862170885
 20
140.9013954252
  0
LINE
  5
548
100
AcDbEntity
  8
RUNDUNGEN
100
AcDbLine
 62
7
  6
CONTINUOUS
 10
141.5862170885
 20
140.9013954252
 11
141.7019575883
 21
140.7430303314
  0
LINE
  5
549
100
AcDbEntity
  8
0
100
AcDbLine
 62
7
  6
CONTINUOUS
 10
147.8001685824
 20
129.5209896949
 11
147.8754572069
 21
129.3778865397
  0
LINE
  5
54A
100
AcDbEntity
  8
0
100
AcDbLine
 62
7
  6
CONTINUOUS
 10
147.7956336102
 20
130.0362922473
 11
147.9085665291
 21
129.8216375487
  0
LINE
  5
54B
100
AcDbEntity
  8
0
100
AcDbLine
 62
7
  6
CONTINUOUS
 10
148.117349223
 20
129.9314811215
 11
148.0044163041
 21
130.1461358201
  0
LINE
  5
54C
100
AcDbEntity
  8
0
100
AcDbLine
 62
7
  6
CONTINUOUS
 10
148.8658660431
 20
128.4458490125
 11
148.794208497
 21
128.590804475
  0
LINE
  5
54D
100
AcDbEntity
  8
0
100
AcDbLine
 62
7
  6
CONTINUOUS
 10
148.4836924186
 20
129.2189449044
 11
148.4120349068
 21
129.3639002978
  0
LINE
  5
54E
100
AcDbEntity
  8
0
100
AcDbLine
 62
7
  6
CONTINUOUS
 10
149.0463517504
 20
128.0639267267
 11
148.978251532
 21
128.2105870494
  0
LINE
  5
54F
100
AcDbEntity
  8
0
100
AcDbLine
 62
7
  6
CONTINUOUS
 10
149.4618961189
 20
125.0522452698
 11
149.4214269427
 21
125.1521608847
  0
LINE
  5
550
100
AcDbEntity
  8
0
100
AcDbLine
 62
7
  6
CONTINUOUS
 10
149.6341010388
 20
125.6744514058
 11
149.6846874511
 21
125.5495570301
  0
LINE
  5
551
100
AcDbEntity
  8
0
100
AcDbLine
 62
7
  6
CONTINUOUS
 10
150.0045200293
 20
125.3883331475
 11
150.0449892055
 21
125.2884175326
  0
LINE
  5
552
100
AcDbEntity
  8
0
100
AcDbLine
 62
7
  6
CONTINUOUS
 10
150.2170884112
 20
125.3872003984
 11
150.1968539389
 21
125.43715792
  0
LINE
  5
553
100
AcDbEntity
  8
0
100
AcDbLine
 62
7
  6
CONTINUOUS
 10
151.3428453609
 20
122.3417223072
 11
151.2633596338
 21
122.5708784149
  0
LINE
  5
554
100
AcDbEntity
  8
0
100
AcDbLine
 62
7
  6
CONTINUOUS
 10
150.9984072099
 20
123.3347321071
 11
150.9189214828
 21
123.5638882148
  0
LINE
  5
555
100
AcDbEntity
  8
0
100
AcDbLine
 62
7
  6
CONTINUOUS
 10
151.8146360254
 20
120.8491443705
 11
151.7421429574
 21
121.0806076669
  0
LINE
  5
556
100
AcDbEntity
  8
0
100
AcDbLine
 62
7
  6
CONTINUOUS
 10
151.500499397
 20
121.8521519882
 11
151.4280063289
 21
122.0836152846
  0
LWPOLYLINE
  5
557
100
AcDbEntity
  8
RUNDUNGEN
100
AcDbPolyline
 62
7
  6
CONTINUOUS
 90
3
 70
0
 10
154.8817498903
 20
108.3065708705
 10
154.8784384814
 20
108.3260750935
 10
154.7545947422
 20
109.1129214513
  0
LINE
  5
558
100
AcDbEntity
  8
RUNDUNGEN
100
AcDbLine
 62
7
  6
CONTINUOUS
 10
154.7545947422
 20
109.1129214513
 11
154.7233654499
 21
109.3065708705
  0
LINE
  5
559
100
AcDbEntity
  8
RUNDUNGEN
100
AcDbLine
 62
7
  6
CONTINUOUS
 10
152.0777324418
 20
137.3355706292
 11
152.1264943997
 21
136.9599402892
  0
LINE
  5
55A
100
AcDbEntity
  8
RUNDUNGEN
100
AcDbLine
 62
7
  6
CONTINUOUS
 10
163.3817498903
 20
97.2395022372
 11
163.3817498903
 21
100.3182109246
  0
LINE
  5
55B
100
AcDbEntity
  8
RUNDUNGEN
100
AcDbLine
 62
7
  6
CONTINUOUS
 10
163.3817498903
 20
111.7949308165
 11
163.3817498903
 21
114.8736501492
  0
LINE
  5
55C
100
AcDbEntity
  8
RUNDUNGEN
100
AcDbLine
 62
7
  6
CONTINUOUS
 10
159.1456672272
 20
92.0577783345
 11
159.1127168441
 21
91.6805937636
  0
LINE
  5
55D
100
AcDbEntity
  8
RUNDUNGEN
100
AcDbLine
 62
7
  6
CONTINUOUS
 10
159.2491924159
 20
92.4220244921
 11
159.1456672272
 21
92.0577783345
  0
LINE
  5
55E
100
AcDbEntity
  8
RUNDUNGEN
100
AcDbLine
 62
7
  6
CONTINUOUS
 10
159.1336995932
 20
79.3175224538
 11
161.4298001874
 21
84.8607996489
  0
LINE
  5
55F
100
AcDbEntity
  8
RUNDUNGEN
100
AcDbLine
 62
7
  6
CONTINUOUS
 10
159.4195774964
 20
92.760261579
 11
159.2491924159
 21
92.4220244921
  0
LINE
  5
560
100
AcDbEntity
  8
RUNDUNGEN
100
AcDbLine
 62
7
  6
CONTINUOUS
 10
139.2916533354
 20
56.7150024531
 11
141.4686296706
 21
58.8919787883
  0
LINE
  5
561
100
AcDbEntity
  8
RUNDUNGEN
100
AcDbLine
 62
7
  6
CONTINUOUS
 10
149.583896132
 20
67.0072452497
 11
151.7608794495
 21
69.1842285672
  0
LINE
  5
562
100
AcDbEntity
  8
RUNDUNGEN
100
AcDbLine
 62
7
  6
CONTINUOUS
 10
132.6322589932
 20
56.0463336647
 11
132.3422497858
 21
55.8029233366
  0
LINE
  5
563
100
AcDbEntity
  8
RUNDUNGEN
100
AcDbLine
 62
7
  6
CONTINUOUS
 10
132.9630232844
 20
56.2306912293
 11
132.6322589932
 21
56.0463336647
  0
LINE
  5
564
100
AcDbEntity
  8
RUNDUNGEN
100
AcDbLine
 62
7
  6
CONTINUOUS
 10
123.6150752714
 20
47.0460747329
 11
129.1583524665
 21
49.3421753271
  0
LINE
  5
565
100
AcDbEntity
  8
RUNDUNGEN
100
AcDbLine
 62
7
  6
CONTINUOUS
 10
133.3226734684
 20
56.3493805206
 11
132.9630232844
 21
56.2306912293
  0
LINE
  5
566
100
AcDbEntity
  8
RUNDUNGEN
100
AcDbLine
 62
7
  6
CONTINUOUS
 10
111.2363734678
 20
167.019016711
 11
108.1576639957
 21
167.019016711
  0
LINE
  5
567
100
AcDbEntity
  8
RUNDUNGEN
100
AcDbLine
 62
7
  6
CONTINUOUS
 10
96.6809441038
 20
167.019016711
 11
93.602230239
 21
167.019016711
  0
LINE
  5
568
100
AcDbEntity
  8
RUNDUNGEN
100
AcDbLine
 62
7
  6
CONTINUOUS
 10
116.4180965865
 20
162.7829340477
 11
116.7952811573
 21
162.7499836642
  0
LINE
  5
569
100
AcDbEntity
  8
RUNDUNGEN
100
AcDbLine
 62
7
  6
CONTINUOUS
 10
116.0538504292
 20
162.886459237
 11
116.4180965865
 21
162.7829340477
  0
LINE
  5
56A
100
AcDbEntity
  8
RUNDUNGEN
100
AcDbLine
 62
7
  6
CONTINUOUS
 10
129.1583524665
 20
162.770966414
 11
123.6150752714
 21
165.0670670081
  0
LINE
  5
56B
100
AcDbEntity
  8
RUNDUNGEN
100
AcDbLine
 62
7
  6
CONTINUOUS
 10
115.7156133425
 20
163.0568443181
 11
116.0538504292
 21
162.886459237
  0
LINE
  5
56C
100
AcDbEntity
  8
RUNDUNGEN
100
AcDbLine
 62
7
  6
CONTINUOUS
 10
151.7608724671
 20
142.9289201562
 11
149.583896132
 21
145.1058964914
  0
LINE
  5
56D
100
AcDbEntity
  8
RUNDUNGEN
100
AcDbLine
 62
7
  6
CONTINUOUS
 10
141.4686296706
 20
153.2211629528
 11
139.2916463531
 21
155.3981462703
  0
LINE
  5
56E
100
AcDbEntity
  8
RUNDUNGEN
100
AcDbLine
 62
7
  6
CONTINUOUS
 10
152.4295412555
 20
136.269525814
 11
152.6729515837
 21
135.9795166066
  0
LINE
  5
56F
100
AcDbEntity
  8
RUNDUNGEN
100
AcDbLine
 62
7
  6
CONTINUOUS
 10
152.245183691
 20
136.6002901052
 11
152.4295412555
 21
136.269525814
  0
LINE
  5
570
100
AcDbEntity
  8
RUNDUNGEN
100
AcDbLine
 62
7
  6
CONTINUOUS
 10
161.4298001874
 20
127.2523420922
 11
159.1336995932
 21
132.7956192873
  0
LINE
  5
571
100
AcDbEntity
  8
RUNDUNGEN
100
AcDbLine
 62
7
  6
CONTINUOUS
 10
152.1264943997
 20
136.9599402892
 11
152.245183691
 21
136.6002901052
  0
LINE
  5
572
100
AcDbEntity
  8
RUNDUNGEN
100
AcDbLine
 62
7
  6
CONTINUOUS
 10
215.0509506537
 20
45.09412503
 11
243.0509506537
 21
45.09412503
  0
LINE
  5
573
100
AcDbEntity
  8
0
100
AcDbLine
 62
7
  6
CONTINUOUS
 10
228.8009506537
 20
46.9699542654
 11
229.3009506537
 21
46.9699542654
  0
LWPOLYLINE
  5
574
100
AcDbEntity
  8
RUNDUNGEN
100
AcDbPolyline
 62
7
  6
CONTINUOUS
 90
3
 70
0
 10
229.3009506537
 20
46.9699542654
 10
229.4960410826
 20
46.9891690063
 10
229.6836341769
 20
47.0460747706
  0
LWPOLYLINE
  5
575
100
AcDbEntity
  8
RUNDUNGEN
100
AcDbPolyline
 62
7
  6
CONTINUOUS
 90
9
 70
0
 10
228.8009506537
 20
46.9699542654
 10
228.6058602248
 20
46.9891690063
 10
228.4182671305
 20
47.0460747706
 10
228.2453803623
 20
47.1384846921
 10
228.0938438421
 20
47.2628475147
 10
227.9694810496
 20
47.4143840202
 10
227.8770711355
 20
47.5872707985
 10
227.8201653769
 20
47.7748639254
 10
227.8009506537
 20
47.9699542654
  0
LWPOLYLINE
  5
576
100
AcDbEntity
  8
RUNDUNGEN
100
AcDbPolyline
 62
7
  6
CONTINUOUS
 90
7
 70
0
 10
229.0520028365
 20
56.4221074684
 10
229.7371141962
 20
56.4468958991
 10
230.743801218
 20
56.5582013497
 10
231.7589249924
 20
56.7147821004
 10
232.8000433467
 20
56.8665870812
 10
233.8813412079
 20
56.9724319626
 10
234.7120882501
 20
56.9999319438
  0
LINE
  5
577
100
AcDbEntity
  8
RUNDUNGEN
100
AcDbLine
 62
7
  6
CONTINUOUS
 10
243.0509506537
 20
56.9998645507
 11
234.7120882181
 21
56.9998645507
  0
LINE
  5
578
100
AcDbEntity
  8
RUNDUNGEN
100
AcDbLine
 62
7
  6
CONTINUOUS
 10
223.3898298719
 20
56.9998645507
 11
215.0509506537
 21
56.9998645507
  0
LWPOLYLINE
  5
579
100
AcDbEntity
  8
RUNDUNGEN
100
AcDbPolyline
 62
7
  6
CONTINUOUS
 90
7
 70
0
 10
223.3898298549
 20
56.9999311799
 10
224.2523864799
 20
56.9703550171
 10
225.3380787064
 20
56.8619398096
 10
226.3808237838
 20
56.7088012734
 10
227.3957482306
 20
56.5528961177
 10
228.4002760265
 20
56.4444451352
 10
229.0520027969
 20
56.4221079304
  0
LINE
  5
57A
100
AcDbEntity
  8
0
100
AcDbLine
 62
2
  6
CONTINUOUS
 10
222.2429799416
 20
155.1925680202
 11
221.6916331671
 21
154.6412212457
  0
LINE
  5
57B
100
AcDbEntity
  8
0
100
AcDbLine
 62
7
  6
CONTINUOUS
 10
235.3941840274
 20
152.8177542346
 11
235.4474490739
 21
152.8493173408
  0
LINE
  5
57C
100
AcDbEntity
  8
RUNDUNGEN
100
AcDbLine
 62
7
  6
CONTINUOUS
 10
235.4479293444
 20
152.8495896738
 11
235.4474490739
 21
152.8493173408
  0
LINE
  5
57D
100
AcDbEntity
  8
0
100
AcDbLine
 62
7
  6
CONTINUOUS
 10
235.4479251156
 20
152.8495971571
 11
235.6059422088
 21
152.9387010588
  0
LINE
  5
57E
100
AcDbEntity
  8
0
100
AcDbLine
 62
7
  6
CONTINUOUS
 10
235.6059422088
 20
152.9387010588
 11
236.0384467327
 21
153.1784336624
  0
LWPOLYLINE
  5
57F
100
AcDbEntity
  8
0
100
AcDbPolyline
 62
7
  6
CONTINUOUS
 90
3
 70
0
 10
236.0384467327
 20
153.1784336624
 10
236.4913451437
 20
153.4239949474
 10
236.9622693814
 20
153.674395889
  0
LINE
  5
580
100
AcDbEntity
  8
0
100
AcDbLine
 62
7
  6
CONTINUOUS
 10
236.9622693814
 20
153.674395889
 11
237.5978119144
 21
154.0058502139
  0
LINE
  5
581
100
AcDbEntity
  8
RUNDUNGEN
100
AcDbLine
 62
7
  6
CONTINUOUS
 10
237.5981395398
 20
154.0060193069
 11
237.5978119144
 21
154.0058502139
  0
LWPOLYLINE
  5
582
100
AcDbEntity
  8
0
100
AcDbPolyline
 62
7
  6
CONTINUOUS
 90
4
 70
0
 10
237.5981355172
 20
154.0060270659
 10
238.2630731772
 20
154.3462451562
 10
238.7759286283
 20
154.6047797804
 10
239.2935407512
 20
154.8627336067
  0
LINE
  5
583
100
AcDbEntity
  8
0
100
AcDbLine
 62
7
  6
CONTINUOUS
 10
239.2935407512
 20
154.8627336067
 11
243.4903355844
 21
156.9172378791
  0
LINE
  5
584
100
AcDbEntity
  8
0
100
AcDbLine
 62
7
  6
CONTINUOUS
 10
235.1742083601
 20
153.0055290427
 11
235.9217118602
 21
153.3701108597
  0
LWPOLYLINE
  5
585
100
AcDbEntity
  8
RUNDUNGEN
100
AcDbPolyline
 62
7
  6
CONTINUOUS
 90
3
 70
0
 10
243.0509506537
 20
66.7143520309
 10
243.2464202013
 20
66.7336422826
 10
243.4339525678
 20
66.7906044821
  0
LINE
  5
586
100
AcDbEntity
  8
0
100
AcDbLine
 62
7
  6
CONTINUOUS
 10
215.0509506537
 20
66.7143520309
 11
243.0509506537
 21
66.7143520309
  0
LWPOLYLINE
  5
587
100
AcDbEntity
  8
RUNDUNGEN
100
AcDbPolyline
 62
7
  6
CONTINUOUS
 90
9
 70
0
 10
215.0509506537
 20
66.7143520309
 10
214.8554811061
 20
66.7336422826
 10
214.6679487396
 20
66.7906044821
 10
214.4951824624
 20
66.8830147272
 10
214.3437450906
 20
67.0073440454
 10
214.2195159485
 20
67.1587295611
 10
214.1271250328
 20
67.3315384703
 10
214.07017909
 20
67.519193566
 10
214.0509506537
 20
67.7143520309
  0
LINE
  5
588
100
AcDbEntity
  8
RUNDUNGEN
100
AcDbLine
 62
7
  6
CONTINUOUS
 10
243.4903355843
 20
55.1959038621
 11
239.80183832
 21
56.9998645507
  0
LINE
  5
589
100
AcDbEntity
  8
0
100
AcDbLine
 62
2
  6
CONTINUOUS
 10
228.2203459749
 20
155.269016711
 11
224.0509506537
 21
151.0996213898
  0
LINE
  5
58A
100
AcDbEntity
  8
RUNDUNGEN
100
AcDbLine
 62
7
  6
CONTINUOUS
 10
235.2052677007
 20
152.6826479225
 11
235.204698255
 21
152.6821843898
  0
LWPOLYLINE
  5
58B
100
AcDbEntity
  8
0
100
AcDbPolyline
 62
7
  6
CONTINUOUS
 90
3
 70
0
 10
235.204703035
 20
152.6821786604
 10
235.25143502
 20
152.7190672312
 10
235.3214828958
 20
152.7700994728
  0
LINE
  5
58C
100
AcDbEntity
  8
0
100
AcDbLine
 62
7
  6
CONTINUOUS
 10
235.3214828958
 20
152.7700994728
 11
235.3941840274
 21
152.8177542346
  0
LWPOLYLINE
  5
58D
100
AcDbEntity
  8
0
100
AcDbPolyline
 62
7
  6
CONTINUOUS
 90
4
 70
0
 10
221.5204160987
 20
140.301347517
 10
221.5177996466
 20
140.3004916509
 10
221.412502507
 20
140.2735481862
 10
221.2933076956
 20
140.2499960834
  0
LINE
  5
58E
100
AcDbEntity
  8
0
100
AcDbLine
 62
2
  6
CONTINUOUS
 10
234.1212633174
 20
155.269016711
 11
224.0509506537
 21
145.1987040473
  0
LINE
  5
58F
100
AcDbEntity
  8
0
100
AcDbLine
 62
2
  6
CONTINUOUS
 10
234.0509506537
 20
149.2977867049
 11
224.0448629126
 21
139.2916989638
  0
LINE
  5
590
100
AcDbEntity
  8
0
100
AcDbLine
 62
2
  6
CONTINUOUS
 10
215.9431479658
 20
131.189984017
 11
210.0009506537
 21
125.2477867049
  0
LINE
  5
591
100
AcDbEntity
  8
0
100
AcDbLine
 62
7
  6
CONTINUOUS
 10
234.9484635798
 20
152.4317339501
 11
235.2052677007
 21
152.6826479225
  0
LWPOLYLINE
  5
592
100
AcDbEntity
  8
0
100
AcDbPolyline
 62
7
  6
CONTINUOUS
 90
3
 70
0
 10
243.3766731865
 20
144.0383607553
 10
243.4336470443
 20
144.059951995
 10
243.606529198
 20
144.1523621012
  0
LINE
  5
593
100
AcDbEntity
  8
0
100
AcDbLine
 62
7
  6
CONTINUOUS
 10
242.5700973916
 20
143.7593107445
 11
243.377557902
 21
144.0386660119
  0
LINE
  5
594
100
AcDbEntity
  8
RUNDUNGEN
100
AcDbLine
 62
7
  6
CONTINUOUS
 10
243.3766731865
 20
144.0383607553
 11
243.3767200254
 21
144.0383769035
  0
LINE
  5
595
100
AcDbEntity
  8
0
100
AcDbLine
 62
7
  6
CONTINUOUS
 10
214.0997217978
 20
144.6913008464
 11
214.07017909
 21
144.593948175
  0
LINE
  5
596
100
AcDbEntity
  8
0
100
AcDbLine
 62
2
  6
CONTINUOUS
 10
234.0509506537
 20
143.3968693624
 11
214.7606521618
 21
124.1065708705
  0
LINE
  5
597
100
AcDbEntity
  8
RUNDUNGEN
100
AcDbLine
 62
7
  6
CONTINUOUS
 10
239.3720571221
 20
136.4131679557
 11
239.3721638415
 21
136.4132048732
  0
LINE
  5
598
100
AcDbEntity
  8
0
100
AcDbLine
 62
7
  6
CONTINUOUS
 10
239.3720790526
 20
136.4131044955
 11
243.3777414505
 21
137.7982778065
  0
LINE
  5
599
100
AcDbEntity
  8
AUSFORMSCHRAEGEN
100
AcDbLine
 62
7
  6
CONTINUOUS
 10
241.678947569
 20
80.8896064361
 11
245.3102200749
 21
81.1435297457
  0
LINE
  5
59A
100
AcDbEntity
  8
AUSFORMSCHRAEGEN
100
AcDbLine
 62
7
  6
CONTINUOUS
 10
212.7916812325
 20
81.1435297457
 11
216.4229537384
 21
80.8896064361
  0
LINE
  5
59B
100
AcDbEntity
  8
RUNDUNGEN
100
AcDbLine
 62
7
  6
CONTINUOUS
 10
243.3777414505
 20
74.3148639345
 11
239.3721181356
 21
75.7000237289
  0
LWPOLYLINE
  5
59C
100
AcDbEntity
  8
RUNDUNGEN
100
AcDbPolyline
 62
7
  6
CONTINUOUS
 90
3
 70
0
 10
239.3721634648
 20
75.6999373043
 10
239.3119712041
 20
75.7210547668
 10
238.9955274887
 20
75.8418270774
  0
LINE
  5
59D
100
AcDbEntity
  8
RUNDUNGEN
100
AcDbLine
 62
7
  6
CONTINUOUS
 10
238.9959737374
 20
75.8416567644
 11
238.6660421635
 21
75.9847554639
  0
LWPOLYLINE
  5
59E
100
AcDbEntity
  8
RUNDUNGEN
100
AcDbPolyline
 62
7
  6
CONTINUOUS
 90
4
 70
0
 10
238.6660421635
 20
75.9847554639
 10
238.3248401425
 20
76.1510608144
 10
237.975143205
 20
76.3410443304
 10
237.8526248827
 20
76.4123792089
  0
LWPOLYLINE
  5
59F
100
AcDbEntity
  8
RUNDUNGEN
100
AcDbPolyline
 62
7
  6
CONTINUOUS
 90
4
 70
0
 10
243.8544550012
 20
67.1246936535
 10
243.8841875984
 20
67.102994499
 10
243.9757950153
 20
67.000265692
 10
244.0320214475
 20
66.8887657051
  0
LINE
  5
5A0
100
AcDbEntity
  8
RUNDUNGEN
100
AcDbLine
 62
7
  6
CONTINUOUS
 10
210.0009506537
 20
106.0565708705
 11
210.0009506537
 21
84.1362218965
  0
LINE
  5
5A1
100
AcDbEntity
  8
0
100
AcDbLine
 62
7
  6
CONTINUOUS
 10
210.0009506537
 20
106.0565708711
 11
210.0009506537
 21
127.9769198446
  0
LINE
  5
5A2
100
AcDbEntity
  8
0
100
AcDbLine
 62
7
  6
CONTINUOUS
 10
214.07017909
 20
144.593948175
 11
214.0509506537
 21
144.3987897102
  0
LINE
  5
5A3
100
AcDbEntity
  8
0
100
AcDbLine
 62
2
  6
CONTINUOUS
 10
234.2352503848
 20
137.680251751
 11
220.6615695043
 21
124.1065708705
  0
LWPOLYLINE
  5
5A4
100
AcDbEntity
  8
0
100
AcDbPolyline
 62
7
  6
CONTINUOUS
 90
3
 70
0
 10
243.606529198
 20
144.1523621012
 10
243.7580617648
 20
144.2767237087
 10
243.8824190918
 20
144.4282541697
  0
LINE
  5
5A5
100
AcDbEntity
  8
RUNDUNGEN
100
AcDbLine
 62
7
  6
CONTINUOUS
 10
237.8526271268
 20
135.7007524136
 11
237.8527698116
 21
135.700837037
  0
LWPOLYLINE
  5
5A6
100
AcDbEntity
  8
0
100
AcDbPolyline
 62
7
  6
CONTINUOUS
 90
7
 70
0
 10
237.8526131165
 20
135.7007759334
 10
237.9748027133
 20
135.7719262061
 10
238.3243270536
 20
135.9618338018
 10
238.6654983661
 20
136.1281505896
 10
238.995527578
 20
136.2713149606
 10
239.3119714675
 20
136.3920873676
 10
239.3721638415
 20
136.4132048732
  0
LINE
  5
5A7
100
AcDbEntity
  8
RUNDUNGEN
100
AcDbLine
 62
7
  6
CONTINUOUS
 10
237.8526282506
 20
76.412388662
 11
237.8527709473
 21
76.4123040316
  0
LWPOLYLINE
  5
5A8
100
AcDbEntity
  8
RUNDUNGEN
100
AcDbPolyline
 62
7
  6
CONTINUOUS
 90
4
 70
0
 10
237.8527709473
 20
76.4123040316
 10
237.7685952113
 20
76.4627747517
 10
237.4405987246
 20
76.6711674577
 10
237.1102273101
 20
76.9007621829
  0
LINE
  5
5A9
100
AcDbEntity
  8
RUNDUNGEN
100
AcDbLine
 62
7
  6
CONTINUOUS
 10
237.1101561096
 20
76.9008162285
 11
236.7799619782
 21
77.1514540292
  0
LINE
  5
5AA
100
AcDbEntity
  8
RUNDUNGEN
100
AcDbLine
 62
7
  6
CONTINUOUS
 10
214.0509506537
 20
157.8203435611
 11
214.0509506537
 21
157.8154715457
  0
LINE
  5
5AB
100
AcDbEntity
  8
RUNDUNGEN
100
AcDbLine
 62
7
  6
CONTINUOUS
 10
214.0509506537
 20
46.09412503
 11
214.0509506537
 21
54.2927981632
  0
LINE
  5
5AC
100
AcDbEntity
  8
RUNDUNGEN
100
AcDbLine
 62
7
  6
CONTINUOUS
 10
214.0509506537
 20
57.9998645507
 11
214.0509506537
 21
67.1293155811
  0
LINE
  5
5AD
100
AcDbEntity
  8
RUNDUNGEN
100
AcDbLine
 62
7
  6
CONTINUOUS
 10
214.0509506537
 20
67.7143520309
 11
214.0509506537
 21
73.3695173914
  0
LINE
  5
5AE
100
AcDbEntity
  8
RUNDUNGEN
100
AcDbLine
 62
7
  6
CONTINUOUS
 10
214.0509506537
 20
98.0565708705
 11
214.0509506537
 21
102.8065708705
  0
LINE
  5
5AF
100
AcDbEntity
  8
0
100
AcDbLine
 62
7
  6
CONTINUOUS
 10
214.0509506537
 20
140.3876320822
 11
214.0509506537
 21
140.7430303314
  0
LINE
  5
5B0
100
AcDbEntity
  8
RUNDUNGEN
100
AcDbLine
 62
7
  6
CONTINUOUS
 10
214.0509506537
 20
138.7436243497
 11
214.0509506537
 21
144.3987897102
  0
LINE
  5
5B1
100
AcDbEntity
  8
RUNDUNGEN
100
AcDbLine
 62
7
  6
CONTINUOUS
 10
214.0509506537
 20
144.9838261599
 11
214.0509506537
 21
154.1132771904
  0
LINE
  5
5B2
100
AcDbEntity
  8
0
100
AcDbLine
 62
7
  6
CONTINUOUS
 10
214.0509506537
 20
157.8580232468
 11
214.0509506537
 21
166.019016711
  0
LINE
  5
5B3
100
AcDbEntity
  8
RUNDUNGEN
100
AcDbLine
 62
7
  6
CONTINUOUS
 10
214.0509506537
 20
157.8580232468
 11
214.0509506537
 21
166.019016711
  0
LWPOLYLINE
  5
5B4
100
AcDbEntity
  8
0
100
AcDbPolyline
 62
7
  6
CONTINUOUS
 90
3
 70
0
 10
234.4016951371
 20
151.4730220338
 10
234.6523778334
 20
152.0098731053
 10
234.9484635798
 20
152.4317339501
  0
LINE
  5
5B5
100
AcDbEntity
  8
0
100
AcDbLine
 62
2
  6
CONTINUOUS
 10
236.2608767149
 20
133.8049607386
 11
226.5624868468
 21
124.1065708705
  0
LINE
  5
5B6
100
AcDbEntity
  8
RUNDUNGEN
100
AcDbLine
 62
7
  6
CONTINUOUS
 10
236.3197007273
 20
134.5734925447
 11
236.3195765169
 21
134.5733810945
  0
LWPOLYLINE
  5
5B7
100
AcDbEntity
  8
0
100
AcDbPolyline
 62
7
  6
CONTINUOUS
 90
7
 70
0
 10
236.3196985578
 20
134.5734949544
 10
236.4523778932
 20
134.6903242471
 10
236.7799619542
 20
134.961687693
 10
237.1102271612
 20
135.2123794503
 10
237.4405983646
 20
135.4419740446
 10
237.7685945461
 20
135.6503665862
 10
237.8527698116
 20
135.700837037
  0
LWPOLYLINE
  5
5B8
100
AcDbEntity
  8
RUNDUNGEN
100
AcDbPolyline
 62
7
  6
CONTINUOUS
 90
3
 70
0
 10
236.7798809783
 20
77.1515211277
 10
236.4523778701
 20
77.4228175124
 10
236.319698559
 20
77.5396467836
  0
LINE
  5
5B9
100
AcDbEntity
  8
RUNDUNGEN
100
AcDbLine
 62
7
  6
CONTINUOUS
 10
236.3197007287
 20
77.5396491936
 11
236.3195765186
 21
77.5397606435
  0
LWPOLYLINE
  5
5BA
100
AcDbEntity
  8
RUNDUNGEN
100
AcDbPolyline
 62
7
  6
CONTINUOUS
 90
5
 70
0
 10
236.3195765186
 20
77.5397606435
 10
236.2259718681
 20
77.6272953201
 10
236.1024024744
 20
77.7534311513
 10
235.978868948
 20
77.8908746416
 10
235.9007845255
 20
77.9831723341
  0
LWPOLYLINE
  5
5BB
100
AcDbEntity
  8
0
100
AcDbPolyline
 62
7
  6
CONTINUOUS
 90
4
 70
0
 10
214.0509506537
 20
144.9838261599
 10
214.0701630552
 20
144.7887475234
 10
214.1270657514
 20
144.6011556916
 10
214.2194754833
 20
144.4282642454
  0
LINE
  5
5BC
100
AcDbEntity
  8
RUNDUNGEN
100
AcDbLine
 62
7
  6
CONTINUOUS
 10
214.0509506537
 20
67.1293155811
 11
214.0701630552
 21
67.3243942176
  0
LWPOLYLINE
  5
5BD
100
AcDbEntity
  8
0
100
AcDbPolyline
 62
7
  6
CONTINUOUS
 90
5
 70
0
 10
235.9442558909
 20
134.1813536193
 10
235.9788689561
 20
134.222267106
 10
236.1024024794
 20
134.3597105934
 10
236.225971865
 20
134.485846419
 10
236.3195765169
 20
134.5733810945
  0
LINE
  5
5BE
100
AcDbEntity
  8
0
100
AcDbLine
 62
2
  6
CONTINUOUS
 10
239.9055607641
 20
131.5487274454
 11
232.4634041893
 21
124.1065708705
  0
LINE
  5
5BF
100
AcDbEntity
  8
RUNDUNGEN
100
AcDbLine
 62
7
  6
CONTINUOUS
 10
236.8900845656
 20
96.9285570837
 11
237.0877290878
 21
96.9812306426
  0
LWPOLYLINE
  5
5C0
100
AcDbEntity
  8
RUNDUNGEN
100
AcDbPolyline
 62
7
  6
CONTINUOUS
 90
5
 70
0
 10
237.0877290878
 20
96.9812306426
 10
237.2858369123
 20
97.0201170938
 10
237.4846710558
 20
97.0451611302
 10
237.684584913
 20
97.0561559604
 10
237.7381468304
 20
97.0566684472
  0
LINE
  5
5C1
100
AcDbEntity
  8
RUNDUNGEN
100
AcDbLine
 62
7
  6
CONTINUOUS
 10
243.0509506537
 20
97.0565708705
 11
234.7120794472
 21
97.0565708705
  0
LINE
  5
5C2
100
AcDbEntity
  8
RUNDUNGEN
100
AcDbLine
 62
7
  6
CONTINUOUS
 10
223.3898214209
 20
97.0565708705
 11
215.0509506537
 21
97.0565708705
  0
LWPOLYLINE
  5
5C3
100
AcDbEntity
  8
RUNDUNGEN
100
AcDbPolyline
 62
7
  6
CONTINUOUS
 90
3
 70
0
 10
221.0141565661
 20
96.9812387063
 10
221.2118078737
 20
96.9285641342
 10
221.2674564068
 20
96.9112199744
  0
LINE
  5
5C4
100
AcDbEntity
  8
RUNDUNGEN
100
AcDbLine
 62
7
  6
CONTINUOUS
 10
221.2673929859
 20
96.911211892
 11
221.2672151531
 21
96.9112690849
  0
LINE
  5
5C5
100
AcDbEntity
  8
RUNDUNGEN
100
AcDbLine
 62
7
  6
CONTINUOUS
 10
221.2672151531
 20
96.9112690849
 11
221.3457787525
 21
96.8848955289
  0
LWPOLYLINE
  5
5C6
100
AcDbEntity
  8
RUNDUNGEN
100
AcDbPolyline
 62
7
  6
CONTINUOUS
 90
3
 70
0
 10
221.3457787525
 20
96.8848955289
 10
221.5632033534
 20
96.8001490875
 10
221.7761145654
 20
96.700035506
  0
LINE
  5
5C7
100
AcDbEntity
  8
RUNDUNGEN
100
AcDbLine
 62
7
  6
CONTINUOUS
 10
221.7761145654
 20
96.700035506
 11
221.9841257755
 21
96.5853711493
  0
LWPOLYLINE
  5
5C8
100
AcDbEntity
  8
RUNDUNGEN
100
AcDbPolyline
 62
7
  6
CONTINUOUS
 90
3
 70
0
 10
221.9841257755
 20
96.5853711493
 10
222.1868005988
 20
96.4569931477
 10
222.2496951109
 20
96.4137327384
  0
LWPOLYLINE
  5
5C9
100
AcDbEntity
  8
RUNDUNGEN
100
AcDbPolyline
 62
7
  6
CONTINUOUS
 90
3
 70
0
 10
222.2490156877
 20
96.414228824
 10
222.2717760793
 20
96.3981641606
 10
222.3922947492
 20
96.3091323859
  0
LWPOLYLINE
  5
5CA
100
AcDbEntity
  8
RUNDUNGEN
100
AcDbPolyline
 62
7
  6
CONTINUOUS
 90
4
 70
0
 10
222.3922947492
 20
96.3091323859
 10
222.5149932374
 20
96.2118742463
 10
222.6411850748
 20
96.1053786092
 10
222.7162566644
 20
96.0392104443
  0
LINE
  5
5CB
100
AcDbEntity
  8
RUNDUNGEN
100
AcDbLine
 62
7
  6
CONTINUOUS
 10
222.716819352
 20
96.0387100101
 11
222.7185374696
 21
96.0371724342
  0
LWPOLYLINE
  5
5CC
100
AcDbEntity
  8
RUNDUNGEN
100
AcDbPolyline
 62
7
  6
CONTINUOUS
 90
9
 70
0
 10
235.9007235132
 20
77.9832740431
 10
235.6730523198
 20
78.2819273999
 10
235.3486569261
 20
78.7979215996
 10
235.0691022496
 20
79.3477892958
 10
234.8201680009
 20
79.9484033575
 10
234.5929198961
 20
80.6303599325
 10
234.3982817497
 20
81.3798237369
 10
234.2409637263
 20
82.1987867404
 10
234.1283926921
 20
83.0719036325
  0
LWPOLYLINE
  5
5CD
100
AcDbEntity
  8
RUNDUNGEN
100
AcDbPolyline
 62
7
  6
CONTINUOUS
 90
47
 70
0
 10
221.6171370624
 20
106.0565708711
 10
221.6181463711
 20
106.0381167914
 10
221.6052739963
 20
105.9425504607
 10
221.5763703549
 20
105.849653998
 10
221.5329375743
 20
105.7563851122
 10
221.4804530239
 20
105.6679473154
 10
221.4206304935
 20
105.5840626368
 10
221.3528618502
 20
105.5018700627
 10
221.2796447161
 20
105.4228850083
 10
221.2017515632
 20
105.3469597054
 10
221.1201045307
 20
105.2742422211
 10
221.0350541849
 20
105.2043278403
 10
220.9469802814
 20
105.1370209308
 10
220.8561480666
 20
105.0721499551
 10
220.7622279953
 20
105.0092132689
 10
220.6645243793
 20
104.9476023529
 10
220.5634600625
 20
104.8874965886
 10
220.4592329703
 20
104.8289201577
 10
220.3516780724
 20
104.7717213294
 10
220.2407558709
 20
104.715851597
 10
220.1260147733
 20
104.6610813251
 10
220.0070151432
 20
104.6072348118
 10
219.8835165958
 20
104.554278874
 10
219.7549906744
 20
104.5020923326
 10
219.6217345441
 20
104.4508999278
 10
219.4838189575
 20
104.4008186376
 10
219.3414179288
 20
104.3520078152
 10
219.1946751479
 20
104.3046006211
 10
219.0437812692
 20
104.2587287123
 10
218.8889231901
 20
104.2145206151
 10
218.7302450742
 20
104.1720848212
 10
218.5679150228
 20
104.1315238157
 10
218.4020662495
 20
104.092932419
 10
218.2328619955
 20
104.0564081136
 10
218.0603806512
 20
104.0220220208
 10
217.884810972
 20
103.9898721639
 10
217.7059732149
 20
103.9599917495
 10
217.5238114609
 20
103.9324449656
 10
217.338140169
 20
103.9072956477
 10
217.1488074061
 20
103.8846306788
 10
216.9556513004
 20
103.864548343
 10
216.7585140317
 20
103.8471709389
 10
216.5572396794
 20
103.8326426409
 10
216.3516735974
 20
103.8211233368
 10
216.1416792745
 20
103.8127996774
 10
215.9271248505
 20
103.8078878074
 10
215.7446303913
 20
103.8065708818
  0
LINE
  5
5CE
100
AcDbEntity
  8
RUNDUNGEN
100
AcDbLine
 62
7
  6
CONTINUOUS
 10
224.0509506537
 20
55.552646215
 11
224.0509506537
 21
56.9772620405
  0
LINE
  5
5CF
100
AcDbEntity
  8
RUNDUNGEN
100
AcDbLine
 62
7
  6
CONTINUOUS
 10
224.0509506537
 20
79.5373288291
 11
224.0509506537
 21
93.0565708705
  0
LINE
  5
5D0
100
AcDbEntity
  8
0
100
AcDbLine
 62
7
  6
CONTINUOUS
 10
224.0509506537
 20
139.4035605171
 11
224.0509506537
 21
151.2079409501
  0
LINE
  5
5D1
100
AcDbEntity
  8
RUNDUNGEN
100
AcDbLine
 62
7
  6
CONTINUOUS
 10
224.0509506364
 20
84.6732027107
 11
224.0368441258
 21
83.9822663257
  0
LINE
  5
5D2
100
AcDbEntity
  8
RUNDUNGEN
100
AcDbLine
 62
7
  6
CONTINUOUS
 10
214.0698798599
 20
66.8896578318
 11
214.0509506537
 21
66.773917332
  0
LINE
  5
5D3
100
AcDbEntity
  8
0
100
AcDbLine
 62
7
  6
CONTINUOUS
 10
234.2073551077
 20
150.8148987189
 11
234.4016951371
 21
151.4730220338
  0
LWPOLYLINE
  5
5D4
100
AcDbEntity
  8
0
100
AcDbPolyline
 62
7
  6
CONTINUOUS
 90
4
 70
0
 10
243.8824190918
 20
144.4282541697
 10
243.9748281366
 20
144.6011377795
 10
244.0317354154
 20
144.7887332615
 10
244.0509506537
 20
144.9838261599
  0
LINE
  5
5D5
100
AcDbEntity
  8
0
100
AcDbLine
 62
2
  6
CONTINUOUS
 10
245.2327779383
 20
130.9750272771
 11
238.3643215317
 21
124.1065708705
  0
LINE
  5
5D6
100
AcDbEntity
  8
RUNDUNGEN
100
AcDbLine
 62
7
  6
CONTINUOUS
 10
227.8009506537
 20
47.9699542654
 11
227.8009506537
 21
55.0934451012
  0
LINE
  5
5D7
100
AcDbEntity
  8
RUNDUNGEN
100
AcDbLine
 62
7
  6
CONTINUOUS
 10
227.8009506537
 20
77.6709109146
 11
227.8009506537
 21
90.0918916919
  0
LWPOLYLINE
  5
5D8
100
AcDbEntity
  8
RUNDUNGEN
100
AcDbPolyline
 62
7
  6
CONTINUOUS
 90
10
 70
0
 10
224.0368441258
 20
83.9822663257
 10
223.9732434368
 20
83.0692287926
 10
223.8605526127
 20
82.1963875242
 10
223.7033066792
 20
81.3784404498
 10
223.5090800689
 20
80.6306962793
 10
223.2824168075
 20
79.9502370282
 10
223.0338560193
 20
79.3500874544
 10
222.7543834072
 20
78.7999456535
 10
222.4296555457
 20
78.2830719663
 10
222.2011832913
 20
77.9832680326
  0
LINE
  5
5D9
100
AcDbEntity
  8
RUNDUNGEN
100
AcDbLine
 62
7
  6
CONTINUOUS
 10
214.0701630552
 20
67.3243942176
 11
214.0997217978
 21
67.4218408947
  0
LINE
  5
5DA
100
AcDbEntity
  8
0
100
AcDbLine
 62
2
  6
CONTINUOUS
 10
248.1009506537
 20
127.94228265
 11
244.2652388742
 21
124.1065708705
  0
LINE
  5
5DB
100
AcDbEntity
  8
RUNDUNGEN
100
AcDbLine
 62
7
  6
CONTINUOUS
 10
215.0509506537
 20
103.8065708705
 11
243.0509506537
 21
103.8065708705
  0
LINE
  5
5DC
100
AcDbEntity
  8
02___PRT_ALL_AXES
100
AcDbLine
 62
7
  6
CENTER
 10
207.0009506537
 20
106.0565708705
 11
251.1009506537
 21
106.0565708705
  0
LINE
  5
5DD
100
AcDbEntity
  8
0
100
AcDbLine
 62
2
  6
CONTINUOUS
 10
210.0009506537
 20
106.0565708711
 11
248.1009506537
 21
106.0565708711
  0
LWPOLYLINE
  5
5DE
100
AcDbEntity
  8
RUNDUNGEN
100
AcDbPolyline
 62
7
  6
CONTINUOUS
 90
53
 70
0
 10
242.2970951822
 20
103.8067085731
 10
242.1327018009
 20
103.8085656656
 10
241.9690014014
 20
103.812528715
 10
241.8060861478
 20
103.8185657698
 10
241.644049755
 20
103.8266482877
 10
241.4829465364
 20
103.8367477143
 10
241.3228334982
 20
103.8488344037
 10
241.1637926317
 20
103.8628753038
 10
241.0058945755
 20
103.8788370747
 10
240.8492317951
 20
103.8966909303
 10
240.6938950977
 20
103.9164105093
 10
240.5399658145
 20
103.9379674747
 10
240.3875174613
 20
103.9613317349
 10
240.2366604102
 20
103.9864641849
 10
240.0875272339
 20
104.0133204016
 10
239.9401306232
 20
104.0418856111
 10
239.7945190538
 20
104.0721396594
 10
239.65072389
 20
104.1040641076
 10
239.508760167
 20
104.1376433493
 10
239.3687245849
 20
104.1728415492
 10
239.2307084711
 20
104.2096320188
 10
239.0947765825
 20
104.2479991985
 10
238.9609915933
 20
104.2879242748
 10
238.8294520806
 20
104.3293730075
 10
238.7002309142
 20
104.3723142697
 10
238.5734723489
 20
104.4167003601
 10
238.4493311485
 20
104.4624833789
 10
238.327893902
 20
104.509630898
 10
238.2092235829
 20
104.5581132857
 10
238.0935287182
 20
104.607832743
 10
237.9809409928
 20
104.6587265853
 10
237.8718188683
 20
104.7106245896
 10
237.7666930037
 20
104.7632318856
 10
237.6650979371
 20
104.8167330962
 10
237.5668806781
 20
104.8711848302
 10
237.4717512415
 20
104.9267632693
 10
237.3794984089
 20
104.9836493181
 10
237.2900283529
 20
105.0419914312
 10
237.2032525755
 20
105.1019771166
 10
237.1191800544
 20
105.1637747101
 10
237.0379295019
 20
105.2275147129
 10
236.959783293
 20
105.2932591525
 10
236.8851881491
 20
105.360996484
 10
236.8143176984
 20
105.4310491621
 10
236.7475820864
 20
105.5035065694
 10
236.6862286905
 20
105.5776418888
 10
236.6322449828
 20
105.6517693918
 10
236.5846877824
 20
105.7279860442
 10
236.544475573
 20
105.8055134591
 10
236.5125664393
 20
105.8852957054
 10
236.491318167
 20
105.9693023781
 10
236.4833003849
 20
106.0536437279
 10
236.4835543588
 20
106.0565708711
  0
LINE
  5
5DF
100
AcDbEntity
  8
RUNDUNGEN
100
AcDbLine
 62
7
  6
CONTINUOUS
 10
234.1283926921
 20
83.0719036325
 11
234.0649822091
 21
83.9840818857
  0
LINE
  5
5E0
100
AcDbEntity
  8
RUNDUNGEN
100
AcDbLine
 62
7
  6
CONTINUOUS
 10
234.0649822091
 20
83.9840818857
 11
234.050950679
 21
84.6731475657
  0
LINE
  5
5E1
100
AcDbEntity
  8
RUNDUNGEN
100
AcDbLine
 62
7
  6
CONTINUOUS
 10
230.3009506537
 20
90.0918916919
 11
230.3009506537
 21
77.6709109146
  0
LINE
  5
5E2
100
AcDbEntity
  8
RUNDUNGEN
100
AcDbLine
 62
7
  6
CONTINUOUS
 10
230.3009506537
 20
47.9699542654
 11
230.3009506537
 21
55.0934451012
  0
LINE
  5
5E3
100
AcDbEntity
  8
RUNDUNGEN
100
AcDbLine
 62
7
  6
CONTINUOUS
 10
234.0509506537
 20
93.0565708705
 11
234.0509506537
 21
79.5373417375
  0
LINE
  5
5E4
100
AcDbEntity
  8
RUNDUNGEN
100
AcDbLine
 62
7
  6
CONTINUOUS
 10
234.0509506537
 20
56.9780464954
 11
234.0509506537
 21
55.5527173536
  0
LINE
  5
5E5
100
AcDbEntity
  8
0
100
AcDbLine
 62
7
  6
CONTINUOUS
 10
234.0509506537
 20
139.4035605171
 11
234.0509506537
 21
151.2079409501
  0
LWPOLYLINE
  5
5E6
100
AcDbEntity
  8
0
100
AcDbPolyline
 62
7
  6
CONTINUOUS
 90
3
 70
0
 10
234.0509506848
 20
149.296858398
 10
234.0847488672
 20
150.0300602263
 10
234.2073551077
 20
150.8148987189
  0
LWPOLYLINE
  5
5E7
100
AcDbEntity
  8
0
100
AcDbPolyline
 62
7
  6
CONTINUOUS
 90
40
 70
0
 10
236.4819458368
 20
140.1228994899
 10
236.4806679262
 20
140.1135421867
 10
236.4842765414
 20
140.1258002139
 10
236.4989100999
 20
140.1616137007
 10
236.5281595095
 20
140.2173456056
 10
236.5773628394
 20
140.2955312485
 10
236.6574361767
 20
140.4044835795
 10
236.7607399894
 20
140.5265352112
 10
236.8713614439
 20
140.6440720959
 10
236.991427407
 20
140.7614150795
 10
237.1212515015
 20
140.8795150281
 10
237.2592076811
 20
140.9975387374
 10
237.4049365881
 20
141.1155253085
 10
237.5570352017
 20
141.2326646624
 10
237.7146629841
 20
141.3487082652
 10
237.8767469641
 20
141.4631750174
 10
238.0421605477
 20
141.575575343
 10
238.2108481844
 20
141.6861716603
 10
238.3825466093
 20
141.7950185835
 10
238.5571029252
 20
141.902198299
 10
238.7344919652
 20
142.0078514207
 10
238.9145156328
 20
142.1119888136
 10
239.0970383528
 20
142.2146378926
 10
239.2819536238
 20
142.3158265667
 10
239.4691870509
 20
142.4155888288
 10
239.658667782
 20
142.5139485587
 10
239.8503298908
 20
142.6109211788
 10
240.044133714
 20
142.7065234819
 10
240.2400478605
 20
142.8007667377
 10
240.4380522983
 20
142.893660143
 10
240.6380875391
 20
142.9851877961
 10
240.8402588899
 20
143.0753983095
 10
241.0444848647
 20
143.1642451888
 10
241.2513003874
 20
143.2519370685
 10
241.4610566472
 20
143.3385783107
 10
241.6742330941
 20
143.4243011151
 10
241.8912766402
 20
143.5091916629
 10
242.1126394725
 20
143.5933097925
 10
242.3387694598
 20
143.6766851132
 10
242.5700973916
 20
143.7593107445
  0
LINE
  5
5E8
100
AcDbEntity
  8
RUNDUNGEN
100
AcDbLine
 62
7
  6
CONTINUOUS
 10
244.0021793518
 20
67.4218403744
 11
244.0317354154
 21
67.3244084796
  0
LWPOLYLINE
  5
5E9
100
AcDbEntity
  8
0
100
AcDbPolyline
 62
7
  6
CONTINUOUS
 90
3
 70
0
 10
223.8943153633
 20
150.8159252266
 10
224.0170807935
 20
150.0308171722
 10
224.0509506281
 20
149.2968970846
  0
LINE
  5
5EA
100
AcDbEntity
  8
0
100
AcDbLine
 62
7
  6
CONTINUOUS
 10
234.5509506537
 20
151.8610581822
 11
234.5509506537
 21
151.2139103114
  0
LINE
  5
5EB
100
AcDbEntity
  8
0
100
AcDbLine
 62
7
  6
CONTINUOUS
 10
234.5509506537
 20
151.1977662942
 11
234.5509506537
 21
150.4503025426
  0
LINE
  5
5EC
100
AcDbEntity
  8
0
100
AcDbLine
 62
7
  6
CONTINUOUS
 10
234.5509506537
 20
150.4356413906
 11
234.5509506537
 21
149.3075932192
  0
LINE
  5
5ED
100
AcDbEntity
  8
0
100
AcDbLine
 62
7
  6
CONTINUOUS
 10
223.6998924613
 20
151.4738522874
 11
223.8943153633
 21
150.8159252266
  0
LINE
  5
5EE
100
AcDbEntity
  8
RUNDUNGEN
100
AcDbLine
 62
7
  6
CONTINUOUS
 10
244.0320214475
 20
66.8887657051
 11
244.0509506537
 21
66.773917332
  0
LINE
  5
5EF
100
AcDbEntity
  8
RUNDUNGEN
100
AcDbLine
 62
7
  6
CONTINUOUS
 10
244.0317354154
 20
67.3244084796
 11
244.0509506537
 21
67.1293155811
  0
LWPOLYLINE
  5
5F0
100
AcDbEntity
  8
RUNDUNGEN
100
AcDbPolyline
 62
7
  6
CONTINUOUS
 90
5
 70
0
 10
222.2011832913
 20
77.9832680326
 10
222.1231886011
 20
77.8910177826
 10
221.999562468
 20
77.7534962593
 10
221.8759228711
 20
77.627272157
 10
221.782330881
 20
77.5397575045
  0
LINE
  5
5F1
100
AcDbEntity
  8
RUNDUNGEN
100
AcDbLine
 62
7
  6
CONTINUOUS
 10
235.3850325579
 20
96.0386660787
 11
235.3833610864
 21
96.0371702301
  0
LWPOLYLINE
  5
5F2
100
AcDbEntity
  8
RUNDUNGEN
100
AcDbPolyline
 62
7
  6
CONTINUOUS
 90
5
 70
0
 10
235.3856448043
 20
96.0392108853
 10
235.4607399841
 20
96.105399763
 10
235.58688494
 20
96.2118541625
 10
235.7095626473
 20
96.3090968396
 10
235.8301003555
 20
96.3981492787
  0
LINE
  5
5F3
100
AcDbEntity
  8
RUNDUNGEN
100
AcDbLine
 62
7
  6
CONTINUOUS
 10
235.8301003555
 20
96.3981492787
 11
235.8528857174
 21
96.4142297072
  0
LINE
  5
5F4
100
AcDbEntity
  8
RUNDUNGEN
100
AcDbLine
 62
7
  6
CONTINUOUS
 10
235.8522613768
 20
96.4137837119
 11
235.9162849011
 21
96.4577963403
  0
LINE
  5
5F5
100
AcDbEntity
  8
RUNDUNGEN
100
AcDbLine
 62
7
  6
CONTINUOUS
 10
235.9162849011
 20
96.4577963403
 11
236.1196478794
 21
96.5864701231
  0
LINE
  5
5F6
100
AcDbEntity
  8
RUNDUNGEN
100
AcDbLine
 62
7
  6
CONTINUOUS
 10
236.1196478794
 20
96.5864701231
 11
236.327876523
 21
96.7011053398
  0
LWPOLYLINE
  5
5F7
100
AcDbEntity
  8
RUNDUNGEN
100
AcDbPolyline
 62
7
  6
CONTINUOUS
 90
3
 70
0
 10
236.327876523
 20
96.7011053398
 10
236.5405528566
 20
96.8009436539
 10
236.7572902288
 20
96.8853063729
  0
LINE
  5
5F8
100
AcDbEntity
  8
RUNDUNGEN
100
AcDbLine
 62
7
  6
CONTINUOUS
 10
236.7572902288
 20
96.8853063729
 11
236.8347302979
 21
96.9112817862
  0
LINE
  5
5F9
100
AcDbEntity
  8
RUNDUNGEN
100
AcDbLine
 62
7
  6
CONTINUOUS
 10
236.8347302979
 20
96.9112817862
 11
236.8345102761
 21
96.9112110207
  0
LINE
  5
5FA
100
AcDbEntity
  8
RUNDUNGEN
100
AcDbLine
 62
7
  6
CONTINUOUS
 10
236.8344509116
 20
96.9112179847
 11
236.8900845656
 21
96.9285570837
  0
LWPOLYLINE
  5
5FB
100
AcDbEntity
  8
0
100
AcDbPolyline
 62
7
  6
CONTINUOUS
 90
4
 70
0
 10
214.2194754833
 20
144.4282642454
 10
214.3438395409
 20
144.2767237104
 10
214.4953821826
 20
144.1523553705
 10
214.6682721728
 20
144.0599445765
  0
LINE
  5
5FC
100
AcDbEntity
  8
0
100
AcDbLine
 62
7
  6
CONTINUOUS
 10
244.0317222174
 20
144.593948175
 11
244.0509506537
 21
144.3987897102
  0
LINE
  5
5FD
100
AcDbEntity
  8
0
100
AcDbLine
 62
7
  6
CONTINUOUS
 10
244.0509506537
 20
158.3606322707
 11
244.0509506537
 21
157.8580232468
  0
LINE
  5
5FE
100
AcDbEntity
  8
RUNDUNGEN
100
AcDbLine
 62
7
  6
CONTINUOUS
 10
244.0509506537
 20
166.019016711
 11
244.0509506537
 21
157.8580232468
  0
LINE
  5
5FF
100
AcDbEntity
  8
RUNDUNGEN
100
AcDbLine
 62
7
  6
CONTINUOUS
 10
244.0509506537
 20
157.8248891454
 11
244.0509506537
 21
157.8154689562
  0
LINE
  5
600
100
AcDbEntity
  8
RUNDUNGEN
100
AcDbLine
 62
7
  6
CONTINUOUS
 10
244.0509506537
 20
154.1132771904
 11
244.0509506537
 21
144.9838261599
  0
LINE
  5
601
100
AcDbEntity
  8
RUNDUNGEN
100
AcDbLine
 62
7
  6
CONTINUOUS
 10
244.0509506537
 20
144.3987897102
 11
244.0509506537
 21
138.7436029322
  0
LINE
  5
602
100
AcDbEntity
  8
RUNDUNGEN
100
AcDbLine
 62
7
  6
CONTINUOUS
 10
244.0509506537
 20
102.8065708705
 11
244.0509506537
 21
98.0565708705
  0
LINE
  5
603
100
AcDbEntity
  8
RUNDUNGEN
100
AcDbLine
 62
7
  6
CONTINUOUS
 10
244.0509506537
 20
73.3695388089
 11
244.0509506537
 21
67.7143520309
  0
LINE
  5
604
100
AcDbEntity
  8
RUNDUNGEN
100
AcDbLine
 62
7
  6
CONTINUOUS
 10
244.0509506537
 20
67.1293155811
 11
244.0509506537
 21
57.9998645507
  0
LINE
  5
605
100
AcDbEntity
  8
RUNDUNGEN
100
AcDbLine
 62
7
  6
CONTINUOUS
 10
244.0509506537
 20
54.2976701971
 11
244.0509506537
 21
46.09412503
  0
LINE
  5
606
100
AcDbEntity
  8
RUNDUNGEN
100
AcDbLine
 62
7
  6
CONTINUOUS
 10
221.7822011953
 20
77.539644999
 11
221.7823277513
 21
77.5397585791
  0
LINE
  5
607
100
AcDbEntity
  8
RUNDUNGEN
100
AcDbLine
 62
7
  6
CONTINUOUS
 10
221.7822025477
 20
77.539647804
 11
221.6492047864
 21
77.4225423429
  0
LINE
  5
608
100
AcDbEntity
  8
RUNDUNGEN
100
AcDbLine
 62
7
  6
CONTINUOUS
 10
221.6489705887
 20
77.4223483599
 11
221.3214104952
 21
77.1510344116
  0
LWPOLYLINE
  5
609
100
AcDbEntity
  8
RUNDUNGEN
100
AcDbPolyline
 62
7
  6
CONTINUOUS
 90
5
 70
0
 10
221.320918825
 20
77.1506612608
 10
220.9910584003
 20
76.9003152717
 10
220.6607361035
 20
76.6707907544
 10
220.3329448065
 20
76.4625555622
 10
220.2491331731
 20
76.412305971
  0
LINE
  5
60A
100
AcDbEntity
  8
0
100
AcDbLine
 62
7
  6
CONTINUOUS
 10
210.0009506537
 20
124.1065708705
 11
248.1009506537
 21
124.1065708705
  0
LINE
  5
60B
100
AcDbEntity
  8
RUNDUNGEN
100
AcDbLine
 62
7
  6
CONTINUOUS
 10
221.7823308834
 20
134.573384234
 11
221.7822052511
 21
134.5734969703
  0
LWPOLYLINE
  5
60C
100
AcDbEntity
  8
0
100
AcDbPolyline
 62
7
  6
CONTINUOUS
 90
5
 70
0
 10
221.7823308834
 20
134.573384234
 10
221.8759228725
 20
134.4858695828
 10
221.9995624687
 20
134.3596454812
 10
222.1231886027
 20
134.2221239563
 10
222.1576583872
 20
134.1813691019
  0
LINE
  5
60D
100
AcDbEntity
  8
RUNDUNGEN
100
AcDbLine
 62
7
  6
CONTINUOUS
 10
248.1009506537
 20
106.0565708705
 11
248.1009506537
 21
84.1362218965
  0
LINE
  5
60E
100
AcDbEntity
  8
0
100
AcDbLine
 62
7
  6
CONTINUOUS
 10
248.1009506537
 20
106.0565708711
 11
248.1009506537
 21
127.9769198446
  0
LWPOLYLINE
  5
60F
100
AcDbEntity
  8
RUNDUNGEN
100
AcDbPolyline
 62
7
  6
CONTINUOUS
 90
4
 70
0
 10
214.2474728514
 20
67.1246613055
 10
214.217713709
 20
67.102926396
 10
214.1261062921
 20
67.000265692
 10
214.0698798599
 20
66.8896578318
  0
LINE
  5
610
100
AcDbEntity
  8
RUNDUNGEN
100
AcDbLine
 62
7
  6
CONTINUOUS
 10
220.2491331731
 20
76.412305971
 11
220.2492811721
 21
76.4123937423
  0
LINE
  5
611
100
AcDbEntity
  8
RUNDUNGEN
100
AcDbLine
 62
7
  6
CONTINUOUS
 10
220.2492912559
 20
76.412376846
 11
220.1268711407
 21
76.3410949895
  0
LINE
  5
612
100
AcDbEntity
  8
RUNDUNGEN
100
AcDbLine
 62
7
  6
CONTINUOUS
 10
220.126838561
 20
76.3410865636
 11
219.777153674
 21
76.1511053139
  0
LWPOLYLINE
  5
613
100
AcDbEntity
  8
RUNDUNGEN
100
AcDbPolyline
 62
7
  6
CONTINUOUS
 90
3
 70
0
 10
219.7771981152
 20
76.1511253692
 10
219.4359669576
 20
75.9847959373
 10
219.1059741956
 20
75.8416617379
  0
LINE
  5
614
100
AcDbEntity
  8
RUNDUNGEN
100
AcDbLine
 62
7
  6
CONTINUOUS
 10
220.2491340888
 20
135.7008352277
 11
220.2492820802
 21
135.700747461
  0
LWPOLYLINE
  5
615
100
AcDbEntity
  8
0
100
AcDbPolyline
 62
7
  6
CONTINUOUS
 90
7
 70
0
 10
220.2491340888
 20
135.7008352277
 10
220.3329456754
 20
135.6505856519
 10
220.6607369132
 20
135.4423504493
 10
220.991059086
 20
135.2128259718
 10
221.3214109994
 20
134.9621069295
 10
221.6492050619
 20
134.6905991595
 10
221.7822025512
 20
134.5734939337
  0
LWPOLYLINE
  5
616
100
AcDbEntity
  8
0
100
AcDbPolyline
 62
7
  6
CONTINUOUS
 90
3
 70
0
 10
223.153241058
 20
152.4319552125
 10
223.4492467482
 20
152.0103572129
 10
223.6998924613
 20
151.4738522874
  0
LWPOLYLINE
  5
617
100
AcDbEntity
  8
RUNDUNGEN
100
AcDbPolyline
 62
7
  6
CONTINUOUS
 90
3
 70
0
 10
219.1059207225
 20
75.8416499343
 10
218.7896730804
 20
75.7209596287
 10
218.7296914314
 20
75.6999180419
  0
LINE
  5
618
100
AcDbEntity
  8
RUNDUNGEN
100
AcDbLine
 62
7
  6
CONTINUOUS
 10
218.7297884383
 20
75.7000255507
 11
214.724159862
 21
74.3148639365
  0
LINE
  5
619
100
AcDbEntity
  8
0
100
AcDbLine
 62
7
  6
CONTINUOUS
 10
212.7916812325
 20
130.9696119954
 11
216.4229537384
 21
131.223535305
  0
LINE
  5
61A
100
AcDbEntity
  8
0
100
AcDbLine
 62
7
  6
CONTINUOUS
 10
241.678947569
 20
131.223535305
 11
245.3102200749
 21
130.9696119954
  0
LINE
  5
61B
100
AcDbEntity
  8
RUNDUNGEN
100
AcDbLine
 62
7
  6
CONTINUOUS
 10
218.729691022
 20
136.4132241056
 11
218.7298147265
 21
136.413181311
  0
LINE
  5
61C
100
AcDbEntity
  8
0
100
AcDbLine
 62
7
  6
CONTINUOUS
 10
214.7241757876
 20
137.798272298
 11
218.7297918052
 21
136.413115026
  0
LWPOLYLINE
  5
61D
100
AcDbEntity
  8
0
100
AcDbPolyline
 62
7
  6
CONTINUOUS
 90
7
 70
0
 10
218.729691022
 20
136.4132241056
 10
218.7896726613
 20
136.392182518
 10
219.1059739124
 20
136.2714803288
 10
219.4359669
 20
136.1283459891
 10
219.7771983715
 20
135.9620163455
 10
220.1268717908
 20
135.7720464355
 10
220.2492921819
 20
135.7007643872
  0
LINE
  5
61E
100
AcDbEntity
  8
0
100
AcDbLine
 62
7
  6
CONTINUOUS
 10
244.0021793518
 20
144.6913013667
 11
244.0317222174
 21
144.593948175
  0
LINE
  5
61F
100
AcDbEntity
  8
RUNDUNGEN
100
AcDbLine
 62
7
  6
CONTINUOUS
 10
214.725181282
 20
144.0383769035
 11
214.7252281094
 21
144.0383607593
  0
LWPOLYLINE
  5
620
100
AcDbEntity
  8
0
100
AcDbPolyline
 62
7
  6
CONTINUOUS
 90
52
 70
0
 10
214.7243434054
 20
144.0386660119
 10
215.5530945992
 20
143.7518186071
 10
215.749118578
 20
143.681767711
 10
215.9386681857
 20
143.6121866359
 10
216.1229008671
 20
143.5428205662
 10
216.3032027654
 20
143.4732733002
 10
216.4800911563
 20
143.4034364197
 10
216.6546503091
 20
143.3329463432
 10
216.8265783067
 20
143.2619757435
 10
216.9959530053
 20
143.1905426405
 10
217.1627286818
 20
143.1187113184
 10
217.3268930931
 20
143.0465301217
 10
217.488432206
 20
142.9740464292
 10
217.6473298078
 20
142.9013059563
 10
217.803581206
 20
142.8283463112
 10
217.9571605048
 20
142.7552136128
 10
218.1081207722
 20
142.6819143769
 10
218.2564868284
 20
142.6084643562
 10
218.4023076736
 20
142.5348637699
 10
218.5456277658
 20
142.4611115425
 10
218.686485222
 20
142.3872060498
 10
218.8249149297
 20
142.3131431201
 10
218.9609500874
 20
142.2389156354
 10
219.0946235714
 20
142.1645128453
 10
219.2259616694
 20
142.0899239127
 10
219.3549728574
 20
142.0151437378
 10
219.4817125524
 20
141.9401346332
 10
219.6062171381
 20
141.8648637059
 10
219.7285264822
 20
141.7892914787
 10
219.8486624875
 20
141.7133817203
 10
219.9666503791
 20
141.6370857949
 10
220.0825058398
 20
141.5603505728
 10
220.1962303573
 20
141.483128433
 10
220.3077723009
 20
141.4053994416
 10
220.4171581813
 20
141.3270693342
 10
220.5243313679
 20
141.2480795073
 10
220.6293758804
 20
141.1682572472
 10
220.7324738546
 20
141.0873283753
 10
220.832861403
 20
141.0057189912
 10
220.9300163129
 20
140.9236644867
 10
221.0233514024
 20
140.8415045733
 10
221.1120520468
 20
140.7598908806
 10
221.1959365857
 20
140.6788637054
 10
221.2744035058
 20
140.5987786738
 10
221.3474370826
 20
140.5194441934
 10
221.414613783
 20
140.4412605368
 10
221.4749863486
 20
140.3650323853
 10
221.5275339733
 20
140.2913694541
 10
221.569667464
 20
140.2241445903
 10
221.6002307846
 20
140.1670778785
 10
221.6170067409
 20
140.1281835871
 10
221.6206556212
 20
140.1168830609
  0
LINE
  5
621
100
AcDbEntity
  8
0
100
AcDbLine
 62
7
  6
CONTINUOUS
 10
214.6682721728
 20
144.0599445765
 11
214.7252281094
 21
144.0383607593
  0
LINE
  5
622
100
AcDbEntity
  8
RUNDUNGEN
100
AcDbLine
 62
7
  6
CONTINUOUS
 10
222.8971914918
 20
152.682191402
 11
222.8966042605
 21
152.6826694271
  0
LINE
  5
623
100
AcDbEntity
  8
0
100
AcDbLine
 62
7
  6
CONTINUOUS
 10
222.8966042605
 20
152.6826694271
 11
223.153241058
 21
152.4319552125
  0
LWPOLYLINE
  5
624
100
AcDbEntity
  8
0
100
AcDbPolyline
 62
7
  6
CONTINUOUS
 90
6
 70
0
 10
221.2933076956
 20
140.2499960834
 10
221.1615046705
 20
140.2303616136
 10
221.0191416272
 20
140.2150191902
 10
220.8670399593
 20
140.204144395
 10
220.7060966704
 20
140.1978142575
 10
220.556909664
 20
140.1960067441
  0
LWPOLYLINE
  5
625
100
AcDbEntity
  8
RUNDUNGEN
100
AcDbPolyline
 62
7
  6
CONTINUOUS
 90
9
 70
0
 10
215.0509506537
 20
141.5621318243
 10
214.854410502
 20
141.5459987364
 10
214.6659202776
 20
141.4989822941
 10
214.4927253272
 20
141.4225804761
 10
214.3414280768
 20
141.320236986
 10
214.217713709
 20
141.1958945867
 10
214.1261062921
 20
141.0545721217
 10
214.0698798599
 20
140.9020435932
 10
214.0509506537
 20
140.7430303314
  0
LINE
  5
626
100
AcDbEntity
  8
RUNDUNGEN
100
AcDbLine
 62
7
  6
CONTINUOUS
 10
237.544897692
 20
140.1960153041
 11
237.5453705936
 21
140.1960153028
  0
LINE
  5
627
100
AcDbEntity
  8
RUNDUNGEN
100
AcDbLine
 62
7
  6
CONTINUOUS
 10
220.5569645546
 20
140.1960153067
 11
220.5566401924
 21
140.1960153009
  0
LINE
  5
628
100
AcDbEntity
  8
RUNDUNGEN
100
AcDbLine
 62
7
  6
CONTINUOUS
 10
215.0509506537
 20
141.5621318243
 11
220.0798164918
 21
141.5621318243
  0
LINE
  5
629
100
AcDbEntity
  8
RUNDUNGEN
100
AcDbLine
 62
7
  6
CONTINUOUS
 10
238.022376436
 20
141.5621318243
 11
243.0509506537
 21
141.5621318243
  0
LWPOLYLINE
  5
62A
100
AcDbEntity
  8
0
100
AcDbPolyline
 62
7
  6
CONTINUOUS
 90
7
 70
0
 10
237.5453838165
 20
140.1960037873
 10
237.4512189364
 20
140.1967075345
 10
237.3277696116
 20
140.1998988168
 10
237.2090964731
 20
140.2056359131
 10
237.0953543422
 20
140.2139136437
 10
236.9864116702
 20
140.2247856544
 10
236.881900694
 20
140.2383609694
  0
LWPOLYLINE
  5
62B
100
AcDbEntity
  8
RUNDUNGEN
100
AcDbPolyline
 62
7
  6
CONTINUOUS
 90
9
 70
0
 10
243.0509506537
 20
141.5621318243
 10
243.2474908054
 20
141.5462567826
 10
243.4359810298
 20
141.4989822941
 10
243.6091759802
 20
141.4226620424
 10
243.7604732306
 20
141.320236986
 10
243.8841875984
 20
141.1959440664
 10
243.9757950153
 20
141.0545721217
 10
244.0320214475
 20
140.9013954252
 10
244.0509506537
 20
140.7430303314
  0
LWPOLYLINE
  5
62C
100
AcDbEntity
  8
0
100
AcDbPolyline
 62
7
  6
CONTINUOUS
 90
5
 70
0
 10
236.881900694
 20
140.2383609694
 10
236.7833085216
 20
140.2544882741
 10
236.6917297492
 20
140.2730142659
 10
236.6089429138
 20
140.293496302
 10
236.5818397906
 20
140.3016228427
  0
LWPOLYLINE
  5
62D
100
AcDbEntity
  8
0
100
AcDbPolyline
 62
7
  6
CONTINUOUS
 90
3
 70
0
 10
222.6544665069
 20
152.8493085101
 10
222.7075693167
 20
152.8178436169
 10
222.7755225913
 20
152.7733139021
  0
LINE
  5
62E
100
AcDbEntity
  8
0
100
AcDbLine
 62
7
  6
CONTINUOUS
 10
222.7802591934
 20
152.7702100113
 11
222.8503291614
 21
152.719172229
  0
LINE
  5
62F
100
AcDbEntity
  8
0
100
AcDbLine
 62
7
  6
CONTINUOUS
 10
222.8503291614
 20
152.719172229
 11
222.8971880317
 21
152.6821874035
  0
LWPOLYLINE
  5
630
100
AcDbEntity
  8
RUNDUNGEN
100
AcDbPolyline
 62
7
  6
CONTINUOUS
 90
7
 70
0
 10
243.4339525678
 20
66.7906044821
 10
243.606718845
 20
66.8830147272
 10
243.7581562168
 20
67.0073440454
 10
243.8823853589
 20
67.1587295611
 10
243.9747762746
 20
67.3315384703
 10
244.0317222174
 20
67.519193566
 10
244.0509506537
 20
67.7143520309
  0
LINE
  5
631
100
AcDbEntity
  8
RUNDUNGEN
100
AcDbLine
 62
7
  6
CONTINUOUS
 10
218.3000578659
 20
56.9998645507
 11
214.6115598697
 21
55.1959010014
  0
LINE
  5
632
100
AcDbEntity
  8
0
100
AcDbLine
 62
7
  6
CONTINUOUS
 10
222.1800104392
 20
153.3701981677
 11
222.9276929473
 21
153.0055290427
  0
LWPOLYLINE
  5
633
100
AcDbEntity
  8
0
100
AcDbPolyline
 62
7
  6
CONTINUOUS
 90
4
 70
0
 10
214.6115598645
 20
156.9172407422
 10
218.8092625634
 20
154.8622922266
 10
219.3269837521
 20
154.6042727591
 10
219.8397195269
 20
154.3457962943
  0
LINE
  5
634
100
AcDbEntity
  8
0
100
AcDbLine
 62
7
  6
CONTINUOUS
 10
219.8397195269
 20
154.3457962943
 11
220.5037582279
 21
154.0060530293
  0
LINE
  5
635
100
AcDbEntity
  8
RUNDUNGEN
100
AcDbLine
 62
7
  6
CONTINUOUS
 10
220.5040918416
 20
154.0058393966
 11
220.503741297
 21
154.0060203352
  0
LWPOLYLINE
  5
636
100
AcDbEntity
  8
0
100
AcDbPolyline
 62
7
  6
CONTINUOUS
 90
4
 70
0
 10
220.5040918416
 20
154.0058393966
 10
221.1429004905
 20
153.6726747323
 10
221.614047738
 20
153.4221126028
 10
222.0663672469
 20
153.1768358915
  0
LINE
  5
637
100
AcDbEntity
  8
0
100
AcDbLine
 62
7
  6
CONTINUOUS
 10
222.0663672469
 20
153.1768358915
 11
222.4976342271
 21
152.9377410778
  0
LINE
  5
638
100
AcDbEntity
  8
0
100
AcDbLine
 62
7
  6
CONTINUOUS
 10
222.4976342271
 20
152.9377410778
 11
222.6539384542
 21
152.8496084286
  0
LINE
  5
639
100
AcDbEntity
  8
RUNDUNGEN
100
AcDbLine
 62
7
  6
CONTINUOUS
 10
222.6544665069
 20
152.8493085101
 11
222.6539382461
 21
152.849608062
  0
LINE
  5
63A
100
AcDbEntity
  8
0
100
AcDbLine
 62
7
  6
CONTINUOUS
 10
234.0509506537
 20
149.3075932192
 11
234.5509506537
 21
149.3075932192
  0
LINE
  5
63B
100
AcDbEntity
  8
0
100
AcDbLine
 62
7
  6
CONTINUOUS
 10
234.0509506537
 20
149.3868474275
 11
234.5509506537
 21
149.3868474275
  0
LINE
  5
63C
100
AcDbEntity
  8
0
100
AcDbLine
 62
7
  6
CONTINUOUS
 10
234.0509506537
 20
149.5705642698
 11
234.5509506537
 21
149.5705642698
  0
LINE
  5
63D
100
AcDbEntity
  8
0
100
AcDbLine
 62
7
  6
CONTINUOUS
 10
234.0509506537
 20
149.6355557564
 11
234.5509506537
 21
149.6355557564
  0
LINE
  5
63E
100
AcDbEntity
  8
0
100
AcDbLine
 62
7
  6
CONTINUOUS
 10
234.0745021723
 20
149.8077732611
 11
234.5509506537
 21
149.8077732611
  0
LINE
  5
63F
100
AcDbEntity
  8
0
100
AcDbLine
 62
7
  6
CONTINUOUS
 10
234.0788446442
 20
149.9019767978
 11
234.5509506537
 21
149.9019767978
  0
LINE
  5
640
100
AcDbEntity
  8
0
100
AcDbLine
 62
7
  6
CONTINUOUS
 10
234.0801550887
 20
149.9304049636
 11
234.5509506537
 21
149.9304049636
  0
LINE
  5
641
100
AcDbEntity
  8
0
100
AcDbLine
 62
7
  6
CONTINUOUS
 10
234.0830665817
 20
149.9935655194
 11
234.5509506537
 21
149.9935655194
  0
LINE
  5
642
100
AcDbEntity
  8
0
100
AcDbLine
 62
7
  6
CONTINUOUS
 10
234.0943403136
 20
150.0914578869
 11
234.5509506537
 21
150.0914578869
  0
LINE
  5
643
100
AcDbEntity
  8
0
100
AcDbLine
 62
7
  6
CONTINUOUS
 10
234.1204846755
 20
150.2588156127
 11
234.5509506537
 21
150.2588156127
  0
LINE
  5
644
100
AcDbEntity
  8
0
100
AcDbLine
 62
7
  6
CONTINUOUS
 10
234.1481081217
 20
150.4356413906
 11
234.5509506537
 21
150.4356413906
  0
LINE
  5
645
100
AcDbEntity
  8
0
100
AcDbLine
 62
7
  6
CONTINUOUS
 10
234.1503984639
 20
150.4503025426
 11
234.5509506537
 21
150.4503025426
  0
LINE
  5
646
100
AcDbEntity
  8
0
100
AcDbLine
 62
7
  6
CONTINUOUS
 10
234.1543201219
 20
150.4754062257
 11
234.5509506537
 21
150.4754062257
  0
LINE
  5
647
100
AcDbEntity
  8
0
100
AcDbLine
 62
7
  6
CONTINUOUS
 10
234.1693847654
 20
150.571839425
 11
234.5509506537
 21
150.571839425
  0
LINE
  5
648
100
AcDbEntity
  8
0
100
AcDbLine
 62
7
  6
CONTINUOUS
 10
234.1842938469
 20
150.6672768273
 11
234.5509506537
 21
150.6672768273
  0
LINE
  5
649
100
AcDbEntity
  8
0
100
AcDbLine
 62
7
  6
CONTINUOUS
 10
234.2127144709
 20
150.8330479488
 11
234.5509506537
 21
150.8330479488
  0
LINE
  5
64A
100
AcDbEntity
  8
0
100
AcDbLine
 62
7
  6
CONTINUOUS
 10
234.2753158771
 20
151.0450446492
 11
234.5509506537
 21
151.0450446492
  0
LINE
  5
64B
100
AcDbEntity
  8
0
100
AcDbLine
 62
7
  6
CONTINUOUS
 10
234.3204137004
 20
151.1977662942
 11
234.5509506537
 21
151.1977662942
  0
LINE
  5
64C
100
AcDbEntity
  8
0
100
AcDbLine
 62
7
  6
CONTINUOUS
 10
234.3465380219
 20
151.286235073
 11
234.5509506537
 21
151.286235073
  0
LINE
  5
64D
100
AcDbEntity
  8
0
100
AcDbLine
 62
7
  6
CONTINUOUS
 10
234.3711606769
 20
151.3696185292
 11
234.5509506537
 21
151.3696185292
  0
LINE
  5
64E
100
AcDbEntity
  8
0
100
AcDbLine
 62
7
  6
CONTINUOUS
 10
234.4087679416
 20
151.4881688419
 11
234.5509506537
 21
151.4881688419
  0
LINE
  5
64F
100
AcDbEntity
  8
0
100
AcDbLine
 62
7
  6
CONTINUOUS
 10
234.4262466003
 20
151.5256003711
 11
234.5509506537
 21
151.5256003711
  0
LINE
  5
650
100
AcDbEntity
  8
0
100
AcDbLine
 62
7
  6
CONTINUOUS
 10
234.4347214327
 20
151.5437497006
 11
234.5509506537
 21
151.5437497006
  0
LINE
  5
651
100
AcDbEntity
  8
0
100
AcDbLine
 62
7
  6
CONTINUOUS
 10
234.4650658816
 20
151.6087340418
 11
234.5509506537
 21
151.6087340418
  0
LINE
  5
652
100
AcDbEntity
  8
0
100
AcDbLine
 62
7
  6
CONTINUOUS
 10
234.5071651692
 20
151.6988920304
 11
234.5509506537
 21
151.6988920304
  0
LINE
  5
653
100
AcDbEntity
  8
0
100
AcDbLine
 62
7
  6
CONTINUOUS
 10
243.0509506537
 20
155.1132771904
 11
239.8018377745
 21
155.1132771904
  0
LINE
  5
654
100
AcDbEntity
  8
0
100
AcDbLine
 62
7
  6
CONTINUOUS
 10
218.3000586304
 20
155.1132771904
 11
215.0509506537
 21
155.1132771904
  0
LINE
  5
655
100
AcDbEntity
  8
0
100
AcDbLine
 62
7
  6
CONTINUOUS
 10
222.6182804843
 20
155.269016711
 11
235.4837851893
 21
155.269016711
  0
LWPOLYLINE
  5
656
100
AcDbEntity
  8
RUNDUNGEN
100
AcDbPolyline
 62
7
  6
CONTINUOUS
 90
7
 70
0
 10
229.6836341769
 20
47.0460747706
 10
229.8565209451
 20
47.1384846921
 10
230.0080574653
 20
47.2628475147
 10
230.1324202578
 20
47.4143840202
 10
230.2248301719
 20
47.5872707985
 10
230.2817359305
 20
47.7748639254
 10
230.3009506537
 20
47.9699542654
  0
LWPOLYLINE
  5
657
100
AcDbEntity
  8
RUNDUNGEN
100
AcDbPolyline
 62
7
  6
CONTINUOUS
 90
9
 70
0
 10
215.0509506537
 20
158.519016711
 10
214.854410502
 20
158.5157053022
 10
214.6659202776
 20
158.5068058885
 10
214.4927253272
 20
158.4919719112
 10
214.3414280768
 20
158.4722430463
 10
214.217713709
 20
158.4481629604
 10
214.1261062921
 20
158.4208731231
 10
214.0698798599
 20
158.391861563
 10
214.0509506537
 20
158.3606322707
  0
LINE
  5
658
100
AcDbEntity
  8
RUNDUNGEN
100
AcDbLine
 62
7
  6
CONTINUOUS
 10
215.0509506537
 20
158.519016711
 11
243.0509506537
 21
158.519016711
  0
LWPOLYLINE
  5
659
100
AcDbEntity
  8
RUNDUNGEN
100
AcDbPolyline
 62
7
  6
CONTINUOUS
 90
9
 70
0
 10
243.0509506537
 20
158.519016711
 10
243.2474908054
 20
158.5161389117
 10
243.4359810298
 20
158.5068058885
 10
243.6091759802
 20
158.4921089715
 10
243.7604732306
 20
158.4722430463
 10
243.8841875984
 20
158.4482461039
 10
243.9757950153
 20
158.4208731231
 10
244.0320214475
 20
158.3907724102
 10
244.0509506537
 20
158.3606322707
  0
LINE
  5
65A
100
AcDbEntity
  8
RUNDUNGEN
100
AcDbLine
 62
7
  6
CONTINUOUS
 10
215.0509506537
 20
167.019016711
 11
243.0509506537
 21
167.019016711
  0
ARC
  5
65B
100
AcDbEntity
  8
RUNDUNGEN
100
AcDbCircle
 62
7
  6
CONTINUOUS
 10
67.2749608439
 20
52.5274513539
 40
3.9999867763
100
AcDbArc
 50
88.0024125052
 51
101.7813552181
  0
ARC
  5
65C
100
AcDbEntity
  8
RUNDUNGEN
100
AcDbCircle
 62
7
  6
CONTINUOUS
 10
48.8902180311
 20
70.9122611628
 40
3.9999727644
100
AcDbArc
 50
348.2182371978
 51
1.9930749707
  0
ARC
  5
65D
100
AcDbEntity
  8
RUNDUNGEN
100
AcDbCircle
 62
7
  6
CONTINUOUS
 10
66.0298596195
 20
69.6671264403
 40
2.25
100
AcDbArc
 50
314.9971331545
 51
135.0024985962
  0
ARC
  5
65E
100
AcDbEntity
  8
RUNDUNGEN
100
AcDbCircle
 62
7
  6
CONTINUOUS
 10
64.0770852101
 20
59.5990855695
 40
1.0
100
AcDbArc
 50
153.0
 51
225.0
  0
ARC
  5
65F
100
AcDbEntity
  8
RUNDUNGEN
100
AcDbCircle
 62
7
  6
CONTINUOUS
 10
55.9618187487
 20
67.7143520309
 40
1.0
100
AcDbArc
 50
225.0
 51
297.0
  0
ARC
  5
660
100
AcDbEntity
  8
RUNDUNGEN
100
AcDbCircle
 62
7
  6
CONTINUOUS
 10
66.2540676662
 20
57.4221031134
 40
1.0
100
AcDbArc
 50
225.0000740563
 51
281.7817683465
  0
ARC
  5
661
100
AcDbEntity
  8
RUNDUNGEN
100
AcDbCircle
 62
7
  6
CONTINUOUS
 10
65.6763062289
 20
57.9998645507
 40
1.0
100
AcDbArc
 50
224.9973191992
 51
315.0009123973
  0
ARC
  5
662
100
AcDbEntity
  8
RUNDUNGEN
100
AcDbCircle
 62
7
  6
CONTINUOUS
 10
53.7848420354
 20
69.8913287442
 40
1.0
100
AcDbArc
 50
168.2172569572
 51
225.0000388372
  0
ARC
  5
663
100
AcDbEntity
  8
RUNDUNGEN
100
AcDbCircle
 62
7
  6
CONTINUOUS
 10
54.3625977299
 20
69.3135730497
 40
1.0
100
AcDbArc
 50
135.0
 51
225.0
  0
ARC
  5
664
100
AcDbEntity
  8
RUNDUNGEN
100
AcDbCircle
 62
7
  6
CONTINUOUS
 10
44.3326874446
 20
85.2434830812
 40
1.0
100
AcDbArc
 50
157.8004737378
 51
202.5
  0
ARC
  5
665
100
AcDbEntity
  8
RUNDUNGEN
100
AcDbCircle
 62
7
  6
CONTINUOUS
 10
39.7176972474
 20
93.0565708705
 40
3.9999867763
100
AcDbArc
 50
43.0024125052
 51
56.7813552188
  0
ARC
  5
666
100
AcDbEntity
  8
RUNDUNGEN
100
AcDbCircle
 62
7
  6
CONTINUOUS
 10
43.7242961679
 20
91.692643595
 40
2.0000000134
100
AcDbArc
 50
338.6346938179
 51
43.00114801
  0
ARC
  5
667
100
AcDbEntity
  8
RUNDUNGEN
100
AcDbCircle
 62
7
  6
CONTINUOUS
 10
42.4568582092
 20
100.3182109246
 40
1.0
100
AcDbArc
 50
108.0
 51
180.0
  0
ARC
  5
668
100
AcDbEntity
  8
RUNDUNGEN
100
AcDbCircle
 62
7
  6
CONTINUOUS
 10
42.4568582092
 20
97.2394928097
 40
1.0
100
AcDbArc
 50
180.0000740387
 51
236.7817683368
  0
ARC
  5
669
100
AcDbEntity
  8
RUNDUNGEN
100
AcDbCircle
 62
7
  6
CONTINUOUS
 10
42.4568582092
 20
98.0565708705
 40
1.0
100
AcDbArc
 50
179.9973191992
 51
270.0009123972
  0
ARC
  5
66A
100
AcDbEntity
  8
RUNDUNGEN
100
AcDbCircle
 62
7
  6
CONTINUOUS
 10
50.7588355736
 20
74.7097631565
 40
2.0000000135
100
AcDbArc
 50
1.99885199
 51
66.2562440589
  0
ARC
  5
66B
100
AcDbEntity
  8
RUNDUNGEN
100
AcDbCircle
 62
7
  6
CONTINUOUS
 10
46.6287880388
 20
79.7002058861
 40
1.0
100
AcDbArc
 50
202.5
 51
247.1995262622
  0
ARC
  5
66C
100
AcDbEntity
  8
RUNDUNGEN
100
AcDbCircle
 62
7
  6
CONTINUOUS
 10
81.6062162604
 20
47.9699542654
 40
1.0
100
AcDbArc
 50
247.5
 51
292.1995262622
  0
ARC
  5
66D
100
AcDbEntity
  8
RUNDUNGEN
100
AcDbCircle
 62
7
  6
CONTINUOUS
 10
71.0724963356
 20
54.3961023945
 40
2.0000000134
100
AcDbArc
 50
23.6346938198
 51
88.00114801
  0
ARC
  5
66E
100
AcDbEntity
  8
RUNDUNGEN
100
AcDbCircle
 62
7
  6
CONTINUOUS
 10
76.0629390654
 20
50.2660548596
 40
1.0
100
AcDbArc
 50
202.8004737378
 51
247.5
  0
ARC
  5
66F
100
AcDbEntity
  8
RUNDUNGEN
100
AcDbCircle
 62
7
  6
CONTINUOUS
 10
89.4193040497
 20
43.3550115766
 40
3.9999726822
100
AcDbArc
 50
33.2182361801
 51
46.9932047535
  0
ARC
  5
670
100
AcDbEntity
  8
RUNDUNGEN
100
AcDbCircle
 62
7
  6
CONTINUOUS
 10
88.0553767742
 20
47.3615629886
 40
2.0000000135
100
AcDbArc
 50
46.99885199
 51
111.2562462473
  0
ARC
  5
671
100
AcDbEntity
  8
RUNDUNGEN
100
AcDbCircle
 62
7
  6
CONTINUOUS
 10
96.6809441038
 20
46.09412503
 40
1.0
100
AcDbArc
 50
270.0
 51
342.0
  0
ARC
  5
672
100
AcDbEntity
  8
RUNDUNGEN
100
AcDbCircle
 62
7
  6
CONTINUOUS
 10
93.6022341138
 20
46.09412503
 40
1.0
100
AcDbArc
 50
213.2172522447
 51
270.0000814067
  0
ARC
  5
673
100
AcDbEntity
  8
RUNDUNGEN
100
AcDbCircle
 62
7
  6
CONTINUOUS
 10
94.4193040497
 20
46.09412503
 40
1.0
100
AcDbArc
 50
180.0
 51
270.0
  0
ARC
  5
674
100
AcDbEntity
  8
RUNDUNGEN
100
AcDbCircle
 62
7
  6
CONTINUOUS
 10
73.4166574961
 20
87.8565708705
 40
8.1999997761
100
AcDbArc
 50
32.109460748
 51
89.6692116646
  0
ARC
  5
675
100
AcDbEntity
  8
RUNDUNGEN
100
AcDbCircle
 62
7
  6
CONTINUOUS
 10
84.2193040497
 20
77.0539243177
 40
8.1999997757
100
AcDbArc
 50
0.3307865194
 51
57.8905392513
  0
ARC
  5
676
100
AcDbEntity
  8
RUNDUNGEN
100
AcDbCircle
 62
7
  6
CONTINUOUS
 10
87.4193040497
 20
75.5861306461
 40
5.0
100
AcDbArc
 50
243.7898814287
 51
360.0
  0
ARC
  5
677
100
AcDbEntity
  8
RUNDUNGEN
100
AcDbCircle
 62
7
  6
CONTINUOUS
 10
71.9488638253
 20
91.0565708705
 40
5.0
100
AcDbArc
 50
90.0
 51
206.2101185713
  0
ARC
  5
678
100
AcDbEntity
  8
RUNDUNGEN
100
AcDbCircle
 62
7
  6
CONTINUOUS
 10
39.7177446208
 20
119.0565708705
 40
3.9999727644
100
AcDbArc
 50
303.2182371846
 51
316.9930749707
  0
ARC
  5
679
100
AcDbEntity
  8
RUNDUNGEN
100
AcDbCircle
 62
7
  6
CONTINUOUS
 10
43.7242961678
 20
120.4204981461
 40
2.0000000135
100
AcDbArc
 50
316.99885199
 51
21.2562462464
  0
ARC
  5
67A
100
AcDbEntity
  8
RUNDUNGEN
100
AcDbCircle
 62
7
  6
CONTINUOUS
 10
42.4568582092
 20
111.7949308165
 40
1.0
100
AcDbArc
 50
180.0
 51
252.0
  0
ARC
  5
67B
100
AcDbEntity
  8
RUNDUNGEN
100
AcDbCircle
 62
7
  6
CONTINUOUS
 10
42.4568582092
 20
114.8736408087
 40
1.0
100
AcDbArc
 50
123.2172551583
 51
180.0000817711
  0
ARC
  5
67C
100
AcDbEntity
  8
RUNDUNGEN
100
AcDbCircle
 62
7
  6
CONTINUOUS
 10
42.4568582092
 20
114.0565708705
 40
1.0
100
AcDbArc
 50
90.0
 51
180.0
  0
ARC
  5
67D
100
AcDbEntity
  8
RUNDUNGEN
100
AcDbCircle
 62
7
  6
CONTINUOUS
 10
44.3326874446
 20
126.8696586599
 40
1.0
100
AcDbArc
 50
157.5
 51
202.1995262622
  0
ARC
  5
67E
100
AcDbEntity
  8
RUNDUNGEN
100
AcDbCircle
 62
7
  6
CONTINUOUS
 10
50.9568582092
 20
106.0565708705
 40
2.25
100
AcDbArc
 50
269.9973737934
 51
90.0030799815
  0
ARC
  5
67F
100
AcDbEntity
  8
RUNDUNGEN
100
AcDbCircle
 62
7
  6
CONTINUOUS
 10
50.7588355737
 20
137.4033785846
 40
2.0000000134
100
AcDbArc
 50
293.6346938208
 51
358.00114801
  0
ARC
  5
680
100
AcDbEntity
  8
RUNDUNGEN
100
AcDbCircle
 62
7
  6
CONTINUOUS
 10
46.6287880388
 20
132.4129358549
 40
1.0
100
AcDbArc
 50
112.8004737378
 51
157.5
  0
ARC
  5
681
100
AcDbEntity
  8
RUNDUNGEN
100
AcDbCircle
 62
7
  6
CONTINUOUS
 10
48.8901845331
 20
141.2009140763
 40
3.9999867763
100
AcDbArc
 50
358.0024125052
 51
11.7813552189
  0
ARC
  5
682
100
AcDbEntity
  8
RUNDUNGEN
100
AcDbCircle
 62
7
  6
CONTINUOUS
 10
67.2749802607
 20
159.5856709704
 40
3.9999789997
100
AcDbArc
 50
258.2183982089
 51
271.9968484604
  0
ARC
  5
683
100
AcDbEntity
  8
RUNDUNGEN
100
AcDbCircle
 62
7
  6
CONTINUOUS
 10
66.0298596195
 20
142.4460153008
 40
2.25
100
AcDbArc
 50
224.997150894
 51
45.0024965154
  0
ARC
  5
684
100
AcDbEntity
  8
RUNDUNGEN
100
AcDbCircle
 62
7
  6
CONTINUOUS
 10
55.9618187487
 20
144.3987897102
 40
1.0
100
AcDbArc
 50
63.0
 51
135.0
  0
ARC
  5
685
100
AcDbEntity
  8
RUNDUNGEN
100
AcDbCircle
 62
7
  6
CONTINUOUS
 10
64.0770852101
 20
152.5140561716
 40
1.0
100
AcDbArc
 50
135.0
 51
207.0
  0
ARC
  5
686
100
AcDbEntity
  8
RUNDUNGEN
100
AcDbCircle
 62
7
  6
CONTINUOUS
 10
53.7848362926
 20
142.2218072541
 40
1.0
100
AcDbArc
 50
135.0000740556
 51
191.7817683461
  0
ARC
  5
687
100
AcDbEntity
  8
RUNDUNGEN
100
AcDbCircle
 62
7
  6
CONTINUOUS
 10
54.3625977299
 20
142.7995686914
 40
1.0
100
AcDbArc
 50
134.9973191992
 51
225.0009123972
  0
ARC
  5
688
100
AcDbEntity
  8
RUNDUNGEN
100
AcDbCircle
 62
7
  6
CONTINUOUS
 10
66.254063806
 20
154.6910347675
 40
1.0
100
AcDbArc
 50
78.2176032049
 51
135.0000906389
  0
ARC
  5
689
100
AcDbEntity
  8
RUNDUNGEN
100
AcDbCircle
 62
7
  6
CONTINUOUS
 10
65.6763062289
 20
154.1132771904
 40
1.0
100
AcDbArc
 50
45.0
 51
135.0
  0
ARC
  5
68A
100
AcDbEntity
  8
RUNDUNGEN
100
AcDbCircle
 62
7
  6
CONTINUOUS
 10
84.2193040497
 20
135.0592174242
 40
8.1999997761
100
AcDbArc
 50
302.109460748
 51
359.6692133385
  0
ARC
  5
68B
100
AcDbEntity
  8
RUNDUNGEN
100
AcDbCircle
 62
7
  6
CONTINUOUS
 10
73.4166574969
 20
124.2565708705
 40
8.1999997757
100
AcDbArc
 50
270.3307875877
 51
327.8905392513
  0
ARC
  5
68C
100
AcDbEntity
  8
RUNDUNGEN
100
AcDbCircle
 62
7
  6
CONTINUOUS
 10
71.9488638253
 20
121.0565708705
 40
5.0
100
AcDbArc
 50
153.7898814287
 51
270.0
  0
ARC
  5
68D
100
AcDbEntity
  8
RUNDUNGEN
100
AcDbCircle
 62
7
  6
CONTINUOUS
 10
87.4193040497
 20
136.527011095
 40
5.0
100
AcDbArc
 50
0.0
 51
116.2101185713
  0
ARC
  5
68E
100
AcDbEntity
  8
0
100
AcDbCircle
 62
7
  6
CONTINUOUS
 10
98.2193040497
 20
120.6647877364
 40
0.2
100
AcDbArc
 50
286.0404419761
 51
360.0
  0
ARC
  5
68F
100
AcDbEntity
  8
RUNDUNGEN
100
AcDbCircle
 62
7
  6
CONTINUOUS
 10
71.0724963358
 20
157.717039347
 40
2.0000000135
100
AcDbArc
 50
271.99885199
 51
336.2567971188
  0
ARC
  5
690
100
AcDbEntity
  8
RUNDUNGEN
100
AcDbCircle
 62
7
  6
CONTINUOUS
 10
76.0629390654
 20
161.8470868814
 40
1.0
100
AcDbArc
 50
112.5
 51
157.1995262622
  0
ARC
  5
691
100
AcDbEntity
  8
RUNDUNGEN
100
AcDbCircle
 62
7
  6
CONTINUOUS
 10
81.6062162604
 20
164.1431874756
 40
1.0
100
AcDbArc
 50
67.8004737378
 51
112.5
  0
ARC
  5
692
100
AcDbEntity
  8
RUNDUNGEN
100
AcDbCircle
 62
7
  6
CONTINUOUS
 10
89.4193040497
 20
168.7581078676
 40
3.9999640353
100
AcDbArc
 50
313.0015222116
 51
326.7819792969
  0
ARC
  5
693
100
AcDbEntity
  8
RUNDUNGEN
100
AcDbCircle
 62
7
  6
CONTINUOUS
 10
88.0553767739
 20
164.7515787525
 40
2.0000000135
100
AcDbArc
 50
248.6350548136
 51
313.00114801
  0
ARC
  5
694
100
AcDbEntity
  8
RUNDUNGEN
100
AcDbCircle
 62
7
  6
CONTINUOUS
 10
96.6809441038
 20
166.019016711
 40
1.0
100
AcDbArc
 50
18.0000034279
 51
90.0000000726
  0
ARC
  5
695
100
AcDbEntity
  8
RUNDUNGEN
100
AcDbCircle
 62
7
  6
CONTINUOUS
 10
94.4193239091
 20
166.019016711
 40
1.0
100
AcDbArc
 50
90.0
 51
179.9984290177
  0
ARC
  5
696
100
AcDbEntity
  8
RUNDUNGEN
100
AcDbCircle
 62
7
  6
CONTINUOUS
 10
93.6022260635
 20
166.019016711
 40
1.0
100
AcDbArc
 50
89.9997605726
 51
146.7818879046
  0
ARC
  5
697
100
AcDbEntity
  8
RUNDUNGEN
100
AcDbCircle
 62
7
  6
CONTINUOUS
 10
115.4193040497
 20
43.3549645016
 40
3.9999866337
100
AcDbArc
 50
133.0023692406
 51
146.78135884
  0
ARC
  5
698
100
AcDbEntity
  8
RUNDUNGEN
100
AcDbCircle
 62
7
  6
CONTINUOUS
 10
116.7832313252
 20
47.3615629887
 40
2.0000000134
100
AcDbArc
 50
68.6346938254
 51
133.00114801
  0
ARC
  5
699
100
AcDbEntity
  8
RUNDUNGEN
100
AcDbCircle
 62
7
  6
CONTINUOUS
 10
108.1576639957
 20
46.09412503
 40
1.0
100
AcDbArc
 50
198.0
 51
270.0
  0
ARC
  5
69A
100
AcDbEntity
  8
RUNDUNGEN
100
AcDbCircle
 62
7
  6
CONTINUOUS
 10
111.2363820271
 20
46.09412503
 40
1.0
100
AcDbArc
 50
270.0000743535
 51
326.7817783383
  0
ARC
  5
69B
100
AcDbEntity
  8
RUNDUNGEN
100
AcDbCircle
 62
7
  6
CONTINUOUS
 10
110.4193040497
 20
46.09412503
 40
1.0
100
AcDbArc
 50
269.9973138447
 51
360.0
  0
ARC
  5
69C
100
AcDbEntity
  8
RUNDUNGEN
100
AcDbCircle
 62
7
  6
CONTINUOUS
 10
102.4193040497
 20
54.59412503
 40
2.25
100
AcDbArc
 50
359.9972335608
 51
180.0023965039
  0
ARC
  5
69D
100
AcDbEntity
  8
RUNDUNGEN
100
AcDbCircle
 62
7
  6
CONTINUOUS
 10
123.2323918391
 20
47.9699542654
 40
1.0
100
AcDbArc
 50
247.8004737378
 51
292.5
  0
ARC
  5
69E
100
AcDbEntity
  8
RUNDUNGEN
100
AcDbCircle
 62
7
  6
CONTINUOUS
 10
133.7661117638
 20
54.3961023944
 40
2.0000000135
100
AcDbArc
 50
91.99885199
 51
156.2562440543
  0
ARC
  5
69F
100
AcDbEntity
  8
RUNDUNGEN
100
AcDbCircle
 62
7
  6
CONTINUOUS
 10
128.7756690341
 20
50.2660548596
 40
1.0
100
AcDbArc
 50
292.5
 51
337.1995262622
  0
ARC
  5
6A0
100
AcDbEntity
  8
RUNDUNGEN
100
AcDbCircle
 62
7
  6
CONTINUOUS
 10
120.6193040497
 20
77.0539243169
 40
8.1999997761
100
AcDbArc
 50
122.109460748
 51
179.6692133385
  0
ARC
  5
6A1
100
AcDbEntity
  8
RUNDUNGEN
100
AcDbCircle
 62
7
  6
CONTINUOUS
 10
131.4219506026
 20
87.8565708705
 40
8.1999997757
100
AcDbArc
 50
90.3307875877
 51
147.8905392513
  0
ARC
  5
6A2
100
AcDbEntity
  8
RUNDUNGEN
100
AcDbCircle
 62
7
  6
CONTINUOUS
 10
132.8897442742
 20
91.0565708705
 40
5.0
100
AcDbArc
 50
333.7898814287
 51
90.0
  0
ARC
  5
6A3
100
AcDbEntity
  8
RUNDUNGEN
100
AcDbCircle
 62
7
  6
CONTINUOUS
 10
117.4193040497
 20
75.5861306461
 40
5.0
100
AcDbArc
 50
180.0
 51
296.2101185713
  0
ARC
  5
6A4
100
AcDbEntity
  8
RUNDUNGEN
100
AcDbCircle
 62
7
  6
CONTINUOUS
 10
155.9484232599
 20
70.9122279712
 40
3.9999866337
100
AcDbArc
 50
178.0023692406
 51
191.78135884
  0
ARC
  5
6A5
100
AcDbEntity
  8
RUNDUNGEN
100
AcDbCircle
 62
7
  6
CONTINUOUS
 10
137.563613662
 20
52.5274849474
 40
3.9999726822
100
AcDbArc
 50
78.2182361136
 51
91.9932047535
  0
ARC
  5
6A6
100
AcDbEntity
  8
RUNDUNGEN
100
AcDbCircle
 62
7
  6
CONTINUOUS
 10
138.80874848
 20
69.6671264403
 40
2.25
100
AcDbArc
 50
44.9971270304
 51
225.0024848537
  0
ARC
  5
6A7
100
AcDbEntity
  8
RUNDUNGEN
100
AcDbCircle
 62
7
  6
CONTINUOUS
 10
148.8767893508
 20
67.7143520309
 40
1.0
100
AcDbArc
 50
243.0
 51
315.0
  0
ARC
  5
6A8
100
AcDbEntity
  8
RUNDUNGEN
100
AcDbCircle
 62
7
  6
CONTINUOUS
 10
140.7615228894
 20
59.5990855695
 40
1.0
100
AcDbArc
 50
315.0
 51
27.0
  0
ARC
  5
6A9
100
AcDbEntity
  8
RUNDUNGEN
100
AcDbCircle
 62
7
  6
CONTINUOUS
 10
150.4760103696
 20
69.3135730497
 40
1.0
100
AcDbArc
 50
315.0
 51
45.0
  0
ARC
  5
6AA
100
AcDbEntity
  8
RUNDUNGEN
100
AcDbCircle
 62
7
  6
CONTINUOUS
 10
151.0537717481
 20
69.8913344282
 40
1.0
100
AcDbArc
 50
315.0000743519
 51
11.7817783375
  0
ARC
  5
6AB
100
AcDbEntity
  8
RUNDUNGEN
100
AcDbCircle
 62
7
  6
CONTINUOUS
 10
138.5845461776
 20
57.4221088577
 40
1.0
100
AcDbArc
 50
258.2172544149
 51
315.000037304
  0
ARC
  5
6AC
100
AcDbEntity
  8
RUNDUNGEN
100
AcDbCircle
 62
7
  6
CONTINUOUS
 10
139.1623018706
 20
57.9998645507
 40
1.0
100
AcDbArc
 50
225.0
 51
315.0
  0
ARC
  5
6AD
100
AcDbEntity
  8
RUNDUNGEN
100
AcDbCircle
 62
7
  6
CONTINUOUS
 10
154.0797725258
 20
74.7097631564
 40
2.0000000134
100
AcDbArc
 50
113.6346938312
 51
178.00114801
  0
ARC
  5
6AE
100
AcDbEntity
  8
RUNDUNGEN
100
AcDbCircle
 62
7
  6
CONTINUOUS
 10
158.2098200607
 20
79.7002058861
 40
1.0
100
AcDbArc
 50
292.8004737378
 51
337.5
  0
ARC
  5
6AF
100
AcDbEntity
  8
RUNDUNGEN
100
AcDbCircle
 62
7
  6
CONTINUOUS
 10
160.5059206548
 20
85.2434830812
 40
1.0
100
AcDbArc
 50
337.5
 51
22.1995262622
  0
ARC
  5
6B0
100
AcDbEntity
  8
RUNDUNGEN
100
AcDbCircle
 62
7
  6
CONTINUOUS
 10
165.1208633436
 20
93.0565708705
 40
3.9999726822
100
AcDbArc
 50
123.2182361801
 51
136.9932047535
  0
ARC
  5
6B1
100
AcDbEntity
  8
RUNDUNGEN
100
AcDbCircle
 62
7
  6
CONTINUOUS
 10
161.1143119317
 20
91.692643595
 40
2.0000000135
100
AcDbArc
 50
136.99885199
 51
201.2562462479
  0
ARC
  5
6B2
100
AcDbEntity
  8
RUNDUNGEN
100
AcDbCircle
 62
7
  6
CONTINUOUS
 10
162.3817498903
 20
100.3182109246
 40
1.0
100
AcDbArc
 50
0.0
 51
72.0
  0
ARC
  5
6B3
100
AcDbEntity
  8
RUNDUNGEN
100
AcDbCircle
 62
7
  6
CONTINUOUS
 10
162.3817498903
 20
97.2395009346
 40
1.0
100
AcDbArc
 50
303.2172522446
 51
0.0000814065
  0
ARC
  5
6B4
100
AcDbEntity
  8
RUNDUNGEN
100
AcDbCircle
 62
7
  6
CONTINUOUS
 10
162.3817498903
 20
98.0565708705
 40
1.0
100
AcDbArc
 50
270.0
 51
360.0
  0
ARC
  5
6B5
100
AcDbEntity
  8
RUNDUNGEN
100
AcDbCircle
 62
7
  6
CONTINUOUS
 10
102.4193040497
 20
106.0565708705
 40
38.9624458405
100
AcDbArc
 50
116.2101185713
 51
153.7898814287
  0
ARC
  5
6B6
100
AcDbEntity
  8
RUNDUNGEN
100
AcDbCircle
 62
7
  6
CONTINUOUS
 10
102.4193040497
 20
106.0565708705
 40
38.9624458405
100
AcDbArc
 50
206.2101185713
 51
243.7898814287
  0
ARC
  5
6B7
100
AcDbEntity
  8
RUNDUNGEN
100
AcDbCircle
 62
7
  6
CONTINUOUS
 10
102.4193040497
 20
106.0565708705
 40
38.9624458405
100
AcDbArc
 50
296.2101185713
 51
333.7898814287
  0
ARC
  5
6B8
100
AcDbEntity
  8
RUNDUNGEN
100
AcDbCircle
 62
7
  6
CONTINUOUS
 10
102.4193040497
 20
106.0565708705
 40
38.9624458405
100
AcDbArc
 50
26.2101185713
 51
63.7898814287
  0
ARC
  5
6B9
100
AcDbEntity
  8
RUNDUNGEN
100
AcDbCircle
 62
7
  6
CONTINUOUS
 10
102.4193040497
 20
106.0565708705
 40
26.0402324077
100
AcDbArc
 50
32.1094863008
 51
57.8905136985
  0
ARC
  5
6BA
100
AcDbEntity
  8
RUNDUNGEN
100
AcDbCircle
 62
7
  6
CONTINUOUS
 10
102.4193040497
 20
106.0565708705
 40
26.0402324077
100
AcDbArc
 50
302.1094863008
 51
327.8905136985
  0
ARC
  5
6BB
100
AcDbEntity
  8
RUNDUNGEN
100
AcDbCircle
 62
7
  6
CONTINUOUS
 10
102.4193040497
 20
106.0565708705
 40
26.0402324077
100
AcDbArc
 50
212.1094863008
 51
237.8905136985
  0
ARC
  5
6BC
100
AcDbEntity
  8
RUNDUNGEN
100
AcDbCircle
 62
7
  6
CONTINUOUS
 10
102.4193040497
 20
106.0565708705
 40
26.0402324077
100
AcDbArc
 50
122.1094863008
 51
147.8905136985
  0
ARC
  5
6BD
100
AcDbEntity
  8
0
100
AcDbCircle
 62
7
  6
CONTINUOUS
 10
102.4193040497
 20
106.0565708705
 40
15.0
100
AcDbArc
 50
106.0404419761
 51
73.9595580239
  0
ARC
  5
6BE
100
AcDbEntity
  8
RUNDUNGEN
100
AcDbCircle
 62
7
  6
CONTINUOUS
 10
131.4219506034
 20
124.2565708705
 40
8.1999997761
100
AcDbArc
 50
212.109460748
 51
269.6692116646
  0
ARC
  5
6BF
100
AcDbEntity
  8
RUNDUNGEN
100
AcDbCircle
 62
7
  6
CONTINUOUS
 10
120.6193040497
 20
135.0592174234
 40
8.1999997757
100
AcDbArc
 50
180.3307865194
 51
237.8905392513
  0
ARC
  5
6C0
100
AcDbEntity
  8
RUNDUNGEN
100
AcDbCircle
 62
7
  6
CONTINUOUS
 10
117.4193040497
 20
136.527011095
 40
5.0
100
AcDbArc
 50
63.7898814287
 51
180.0
  0
ARC
  5
6C1
100
AcDbEntity
  8
RUNDUNGEN
100
AcDbCircle
 62
7
  6
CONTINUOUS
 10
132.8897442742
 20
121.0565708705
 40
5.0
100
AcDbArc
 50
270.0
 51
26.2101185713
  0
ARC
  5
6C2
100
AcDbEntity
  8
0
100
AcDbCircle
 62
7
  6
CONTINUOUS
 10
106.6193040497
 20
120.6647877364
 40
0.2
100
AcDbArc
 50
180.0
 51
253.9595580239
  0
ARC
  5
6C3
100
AcDbEntity
  8
RUNDUNGEN
100
AcDbCircle
 62
7
  6
CONTINUOUS
 10
102.4193040497
 20
157.519016711
 40
2.25
100
AcDbArc
 50
179.9972397404
 51
0.0023867943
  0
ARC
  5
6C4
100
AcDbEntity
  8
RUNDUNGEN
100
AcDbCircle
 62
7
  6
CONTINUOUS
 10
115.4193040497
 20
168.7581300274
 40
3.9999725999
100
AcDbArc
 50
213.2182350379
 51
226.993333689
  0
ARC
  5
6C5
100
AcDbEntity
  8
RUNDUNGEN
100
AcDbCircle
 62
7
  6
CONTINUOUS
 10
116.7832313253
 20
164.7515787524
 40
2.0000000135
100
AcDbArc
 50
226.99885199
 51
291.256244052
  0
ARC
  5
6C6
100
AcDbEntity
  8
RUNDUNGEN
100
AcDbCircle
 62
7
  6
CONTINUOUS
 10
108.1576639957
 20
166.019016711
 40
1.0
100
AcDbArc
 50
90.0
 51
162.0000000727
  0
ARC
  5
6C7
100
AcDbEntity
  8
RUNDUNGEN
100
AcDbCircle
 62
7
  6
CONTINUOUS
 10
111.2363739836
 20
166.019016711
 40
1.0
100
AcDbArc
 50
33.2172518237
 51
90.0000361533
  0
ARC
  5
6C8
100
AcDbEntity
  8
RUNDUNGEN
100
AcDbCircle
 62
7
  6
CONTINUOUS
 10
110.4193040497
 20
166.019016711
 40
1.0
100
AcDbArc
 50
0.0
 51
90.0
  0
ARC
  5
6C9
100
AcDbEntity
  8
RUNDUNGEN
100
AcDbCircle
 62
7
  6
CONTINUOUS
 10
133.7661117638
 20
157.7170393466
 40
2.0000000134
100
AcDbArc
 50
203.634693818
 51
268.00114801
  0
ARC
  5
6CA
100
AcDbEntity
  8
RUNDUNGEN
100
AcDbCircle
 62
7
  6
CONTINUOUS
 10
128.7756690341
 20
161.8470868814
 40
1.0
100
AcDbArc
 50
22.8004737378
 51
67.5
  0
ARC
  5
6CB
100
AcDbEntity
  8
RUNDUNGEN
100
AcDbCircle
 62
7
  6
CONTINUOUS
 10
123.2323918391
 20
164.1431874756
 40
1.0
100
AcDbArc
 50
67.5
 51
112.1995262622
  0
ARC
  5
6CC
100
AcDbEntity
  8
RUNDUNGEN
100
AcDbCircle
 62
7
  6
CONTINUOUS
 10
153.8817498903
 20
106.0565708705
 40
2.25
100
AcDbArc
 50
89.9972335605
 51
270.0023965024
  0
ARC
  5
6CD
100
AcDbEntity
  8
RUNDUNGEN
100
AcDbCircle
 62
7
  6
CONTINUOUS
 10
154.0797725259
 20
137.4033785846
 40
2.0000000135
100
AcDbArc
 50
181.99885199
 51
246.2562440545
  0
ARC
  5
6CE
100
AcDbEntity
  8
RUNDUNGEN
100
AcDbCircle
 62
7
  6
CONTINUOUS
 10
158.2098200607
 20
132.4129358549
 40
1.0
100
AcDbArc
 50
22.5
 51
67.1995262622
  0
ARC
  5
6CF
100
AcDbEntity
  8
RUNDUNGEN
100
AcDbCircle
 62
7
  6
CONTINUOUS
 10
165.1209104186
 20
119.0565708705
 40
3.9999866337
100
AcDbArc
 50
223.0023692406
 51
236.78135884
  0
ARC
  5
6D0
100
AcDbEntity
  8
RUNDUNGEN
100
AcDbCircle
 62
7
  6
CONTINUOUS
 10
161.1143119316
 20
120.420498146
 40
2.0000000134
100
AcDbArc
 50
158.634693814
 51
223.00114801
  0
ARC
  5
6D1
100
AcDbEntity
  8
RUNDUNGEN
100
AcDbCircle
 62
7
  6
CONTINUOUS
 10
162.3817498903
 20
111.7949308165
 40
1.0
100
AcDbArc
 50
288.0
 51
360.0
  0
ARC
  5
6D2
100
AcDbEntity
  8
RUNDUNGEN
100
AcDbCircle
 62
7
  6
CONTINUOUS
 10
162.3817498903
 20
114.0565708705
 40
1.0
100
AcDbArc
 50
0.0
 51
90.0
  0
ARC
  5
6D3
100
AcDbEntity
  8
RUNDUNGEN
100
AcDbCircle
 62
7
  6
CONTINUOUS
 10
162.3817498903
 20
114.8736488479
 40
1.0
100
AcDbArc
 50
0.0000743535
 51
56.7817783383
  0
ARC
  5
6D4
100
AcDbEntity
  8
RUNDUNGEN
100
AcDbCircle
 62
7
  6
CONTINUOUS
 10
160.5059206548
 20
126.8696586599
 40
1.0
100
AcDbArc
 50
337.8004737378
 51
22.5
  0
ARC
  5
6D5
100
AcDbEntity
  8
RUNDUNGEN
100
AcDbCircle
 62
7
  6
CONTINUOUS
 10
137.5636469491
 20
159.5856900807
 40
3.9999866337
100
AcDbArc
 50
268.0023692406
 51
281.7813588393
  0
ARC
  5
6D6
100
AcDbEntity
  8
RUNDUNGEN
100
AcDbCircle
 62
7
  6
CONTINUOUS
 10
155.9483899729
 20
141.2008804828
 40
3.9999726822
100
AcDbArc
 50
168.2182361136
 51
181.9932047535
  0
ARC
  5
6D7
100
AcDbEntity
  8
RUNDUNGEN
100
AcDbCircle
 62
7
  6
CONTINUOUS
 10
138.80874848
 20
142.4460153008
 40
2.25
100
AcDbArc
 50
134.9971508939
 51
315.0024965153
  0
ARC
  5
6D8
100
AcDbEntity
  8
RUNDUNGEN
100
AcDbCircle
 62
7
  6
CONTINUOUS
 10
140.7615228894
 20
152.5140561716
 40
1.0
100
AcDbArc
 50
333.0
 51
45.0
  0
ARC
  5
6D9
100
AcDbEntity
  8
RUNDUNGEN
100
AcDbCircle
 62
7
  6
CONTINUOUS
 10
148.8767893508
 20
144.3987897102
 40
1.0
100
AcDbArc
 50
45.0
 51
117.0
  0
ARC
  5
6DA
100
AcDbEntity
  8
RUNDUNGEN
100
AcDbCircle
 62
7
  6
CONTINUOUS
 10
139.1623018706
 20
154.1132771904
 40
1.0
100
AcDbArc
 50
45.0
 51
135.0
  0
ARC
  5
6DB
100
AcDbEntity
  8
RUNDUNGEN
100
AcDbCircle
 62
7
  6
CONTINUOUS
 10
138.5845404921
 20
154.6910385689
 40
1.0
100
AcDbArc
 50
45.0000743522
 51
101.7817783376
  0
ARC
  5
6DC
100
AcDbEntity
  8
RUNDUNGEN
100
AcDbCircle
 62
7
  6
CONTINUOUS
 10
151.0537660626
 20
142.2218129984
 40
1.0
100
AcDbArc
 50
348.2172544149
 51
45.000037304
  0
ARC
  5
6DD
100
AcDbEntity
  8
RUNDUNGEN
100
AcDbCircle
 62
7
  6
CONTINUOUS
 10
150.4760103696
 20
142.7995686914
 40
1.0
100
AcDbArc
 50
315.0
 51
45.0
  0
ARC
  5
6DE
100
AcDbEntity
  8
RUNDUNGEN
100
AcDbCircle
 62
7
  6
CONTINUOUS
 10
215.8509506537
 20
72.7095812239
 40
8.2
100
AcDbArc
 50
39.7068038347
 51
86.0
  0
ARC
  5
6DF
100
AcDbEntity
  8
RUNDUNGEN
100
AcDbCircle
 62
7
  6
CONTINUOUS
 10
220.0509553024
 20
93.0565708705
 40
3.9999979339
100
AcDbArc
 50
0.0
 51
48.1720572593
  0
ARC
  5
6E0
100
AcDbEntity
  8
RUNDUNGEN
100
AcDbCircle
 62
7
  6
CONTINUOUS
 10
213.0009506537
 20
84.1362218965
 40
3.0
100
AcDbArc
 50
180.0
 51
266.0
  0
ARC
  5
6E1
100
AcDbEntity
  8
RUNDUNGEN
100
AcDbCircle
 62
7
  6
CONTINUOUS
 10
215.0509506537
 20
57.9998645507
 40
1.0
100
AcDbArc
 50
180.0
 51
270.0
  0
ARC
  5
6E2
100
AcDbEntity
  8
RUNDUNGEN
100
AcDbCircle
 62
7
  6
CONTINUOUS
 10
215.0509506537
 20
73.3697392041
 40
1.0
100
AcDbArc
 50
109.0748655774
 51
180.0000001668
  0
ARC
  5
6E3
100
AcDbEntity
  8
RUNDUNGEN
100
AcDbCircle
 62
7
  6
CONTINUOUS
 10
215.0509506537
 20
54.2974647936
 40
1.0
100
AcDbArc
 50
116.0614887928
 51
180.000000017
  0
ARC
  5
6E4
100
AcDbEntity
  8
RUNDUNGEN
100
AcDbCircle
 62
7
  6
CONTINUOUS
 10
215.0509506537
 20
98.0565708705
 40
1.0
100
AcDbArc
 50
180.0
 51
270.0
  0
ARC
  5
6E5
100
AcDbEntity
  8
RUNDUNGEN
100
AcDbCircle
 62
7
  6
CONTINUOUS
 10
215.0509506537
 20
102.8065708705
 40
1.0
100
AcDbArc
 50
90.0
 51
180.0
  0
ARC
  5
6E6
100
AcDbEntity
  8
RUNDUNGEN
100
AcDbCircle
 62
7
  6
CONTINUOUS
 10
215.0509506537
 20
46.09412503
 40
1.0
100
AcDbArc
 50
180.0
 51
270.0
  0
ARC
  5
6E7
100
AcDbEntity
  8
0
100
AcDbCircle
 62
7
  6
CONTINUOUS
 10
215.8509506537
 20
139.4035605171
 40
8.2
100
AcDbArc
 50
274.0
 51
360.0
  0
ARC
  5
6E8
100
AcDbEntity
  8
0
100
AcDbCircle
 62
7
  6
CONTINUOUS
 10
213.0009506537
 20
127.9769198446
 40
3.0
100
AcDbArc
 50
94.0
 51
180.0
  0
ARC
  5
6E9
100
AcDbEntity
  8
0
100
AcDbCircle
 62
7
  6
CONTINUOUS
 10
222.0509506537
 20
151.2079409501
 40
2.0
100
AcDbArc
 50
0.0
 51
64.0
  0
ARC
  5
6EA
100
AcDbEntity
  8
0
100
AcDbCircle
 62
7
  6
CONTINUOUS
 10
215.0509506537
 20
154.1132771904
 40
1.0
100
AcDbArc
 50
90.0
 51
180.0
  0
ARC
  5
6EB
100
AcDbEntity
  8
0
100
AcDbCircle
 62
7
  6
CONTINUOUS
 10
215.0509506537
 20
138.7434025369
 40
1.0
100
AcDbArc
 50
179.9999998946
 51
250.9251344834
  0
ARC
  5
6EC
100
AcDbEntity
  8
0
100
AcDbCircle
 62
7
  6
CONTINUOUS
 10
215.0509506537
 20
157.8156769549
 40
1.0
100
AcDbArc
 50
179.9999999846
 51
243.9385110629
  0
ARC
  5
6ED
100
AcDbEntity
  8
RUNDUNGEN
100
AcDbCircle
 62
7
  6
CONTINUOUS
 10
215.0509506537
 20
166.019016711
 40
1.0
100
AcDbArc
 50
90.0
 51
180.0
  0
ARC
  5
6EE
100
AcDbEntity
  8
0
100
AcDbCircle
 62
7
  6
CONTINUOUS
 10
222.6182808029
 20
154.2690396178
 40
0.999992959
100
AcDbArc
 50
90.0000230466
 51
244.0063680094
  0
ARC
  5
6EF
100
AcDbEntity
  8
RUNDUNGEN
100
AcDbCircle
 62
7
  6
CONTINUOUS
 10
242.2509506537
 20
72.7095812239
 40
8.2
100
AcDbArc
 50
94.0
 51
140.2929912954
  0
ARC
  5
6F0
100
AcDbEntity
  8
RUNDUNGEN
100
AcDbCircle
 62
7
  6
CONTINUOUS
 10
238.0509451749
 20
93.0565708705
 40
3.999997565
100
AcDbArc
 50
131.8279534106
 51
180.0
  0
ARC
  5
6F1
100
AcDbEntity
  8
RUNDUNGEN
100
AcDbCircle
 62
7
  6
CONTINUOUS
 10
245.1009506537
 20
84.1362218965
 40
3.0
100
AcDbArc
 50
274.0
 51
360.0
  0
ARC
  5
6F2
100
AcDbEntity
  8
RUNDUNGEN
100
AcDbCircle
 62
7
  6
CONTINUOUS
 10
243.0509506537
 20
57.9998645507
 40
1.0
100
AcDbArc
 50
270.0
 51
360.0
  0
ARC
  5
6F3
100
AcDbEntity
  8
RUNDUNGEN
100
AcDbCircle
 62
7
  6
CONTINUOUS
 10
243.0509506537
 20
73.3697345823
 40
1.0
100
AcDbArc
 50
359.9999998792
 51
70.9257140929
  0
ARC
  5
6F4
100
AcDbEntity
  8
RUNDUNGEN
100
AcDbCircle
 62
7
  6
CONTINUOUS
 10
243.0509506537
 20
54.2974732086
 40
1.0
100
AcDbArc
 50
359.9999993349
 51
63.9386776542
  0
ARC
  5
6F5
100
AcDbEntity
  8
RUNDUNGEN
100
AcDbCircle
 62
7
  6
CONTINUOUS
 10
243.0509506537
 20
46.09412503
 40
1.0
100
AcDbArc
 50
270.0
 51
360.0
  0
ARC
  5
6F6
100
AcDbEntity
  8
RUNDUNGEN
100
AcDbCircle
 62
7
  6
CONTINUOUS
 10
243.0509506537
 20
102.8065708705
 40
1.0
100
AcDbArc
 50
0.0
 51
90.0
  0
ARC
  5
6F7
100
AcDbEntity
  8
RUNDUNGEN
100
AcDbCircle
 62
7
  6
CONTINUOUS
 10
243.0509506537
 20
98.0565708705
 40
1.0
100
AcDbArc
 50
270.0
 51
360.0
  0
ARC
  5
6F8
100
AcDbEntity
  8
0
100
AcDbCircle
 62
7
  6
CONTINUOUS
 10
242.2509506537
 20
139.4035605171
 40
8.2
100
AcDbArc
 50
180.0
 51
266.0
  0
ARC
  5
6F9
100
AcDbEntity
  8
0
100
AcDbCircle
 62
7
  6
CONTINUOUS
 10
245.1009506537
 20
127.9769198446
 40
3.0
100
AcDbArc
 50
0.0
 51
86.0
  0
ARC
  5
6FA
100
AcDbEntity
  8
0
100
AcDbCircle
 62
7
  6
CONTINUOUS
 10
236.0509506537
 20
151.2079409501
 40
2.0
100
AcDbArc
 50
116.0
 51
180.0
  0
ARC
  5
6FB
100
AcDbEntity
  8
0
100
AcDbCircle
 62
7
  6
CONTINUOUS
 10
243.0509506537
 20
154.1132771904
 40
1.0
100
AcDbArc
 50
0.0
 51
90.0
  0
ARC
  5
6FC
100
AcDbEntity
  8
0
100
AcDbCircle
 62
7
  6
CONTINUOUS
 10
243.0509506537
 20
138.7434071588
 40
1.0
100
AcDbArc
 50
289.0742859223
 51
0.0000001356
  0
ARC
  5
6FD
100
AcDbEntity
  8
0
100
AcDbCircle
 62
7
  6
CONTINUOUS
 10
243.0509506537
 20
157.8156685326
 40
1.0
100
AcDbArc
 50
296.06132285
 51
0.0000012707
  0
ARC
  5
6FE
100
AcDbEntity
  8
RUNDUNGEN
100
AcDbCircle
 62
7
  6
CONTINUOUS
 10
243.0509506537
 20
166.019016711
 40
1.0
100
AcDbArc
 50
0.0
 51
90.0
  0
ARC
  5
6FF
100
AcDbEntity
  8
0
100
AcDbCircle
 62
7
  6
CONTINUOUS
 10
235.483785167
 20
154.2691142275
 40
0.9999699955
100
AcDbArc
 50
295.9718511313
 51
89.9999980739
  0
ENDSEC
  0
SECTION
  2
OBJECTS
  0
DICTIONARY
  5
C
100
AcDbDictionary
280
0
281
1
  3
ACAD_GROUP
350
D
  3
ACAD_MLINESTYLE
350
17
  3
ACAD_LAYOUT
350
1A
  3
ACAD_PLOTSETTINGS
350
19
  3
ACAD_PLOTSTYLENAME
350
E
  0
DICTIONARY
  5
D
102
{ACAD_REACTORS
330
C
102
}
100
AcDbDictionary
280
0
281
1
  0
ACDBDICTIONARYWDFLT
  5
E
102
{ACAD_REACTORS
330
C
102
}
100
AcDbDictionary
281
1
  3
Normal
350
F
100
AcDbDictionaryWithDefault
340
F
  0
DICTIONARY
  5
17
102
{ACAD_REACTORS
330
C
102
}
100
AcDbDictionary
280
0
281
1
  3
Standard
350
18
  0
DICTIONARY
  5
19
102
{ACAD_REACTORS
330
C
102
}
100
AcDbDictionary
281
1
  0
DICTIONARY
  5
1A
102
{ACAD_REACTORS
330
C
102
}
100
AcDbDictionary
281
1
  3
Model
350
700
  3
Layout1
350
701
  0
ACDBPLACEHOLDER
  5
F
102
{ACAD_REACTORS
330
E
102
}
  0
MLINESTYLE
  5
18
102
{ACAD_REACTORS
330
17
102
}
100
AcDbMlineStyle
  2
STANDARD
 70
0
  3

 62
256
 51
90.0
 52
90.0
 71
2
 49
0.5
 62
256
  6
BYLAYER
 49
-0.5
 62
256
  6
BYLAYER
  0
LAYOUT
  5
700
102
{ACAD_REACTORS
330
1A
102
}
100
AcDbPlotSettings
  1

  2
none_device
  4
ISO_A4_(297.00_x_210.00_MM)
  6

 40
0.0
 41
0.0
 42
0.0
 43
0.0
 44
297.0
 45
210.0
 46
0.0
 47
0.0
 48
0.0
 49
0.0
140
0.0
141
0.0
142
1.0
143
1.0
 70
1024
 72
1
 73
0
 74
0
  7

 75
0
147
1.0
148
0.0
149
0.0
100
AcDbLayout
  1
Model
 70
0
 71
0
 10
0.0
 20
0.0
 11
297.0
 21
210.0
 12
0.0
 22
0.0
 32
0.0
 14
0.0
 24
0.0
 34
0.0
 15
0.0
 25
0.0
 35
0.0
146
0.0
 13
0.0
 23
0.0
 33
0.0
 16
1.0
 26
0.0
 36
0.0
 17
0.0
 27
1.0
 37
0.0
 76
0
330
210
345
0
346
0
  0
LAYOUT
  5
701
102
{ACAD_REACTORS
330
1A
102
}
100
AcDbPlotSettings
  1

  2
none_device
  4
ISO_A4_(297.00_x_210.00_MM)
  6

 40
0.0
 41
0.0
 42
0.0
 43
0.0
 44
297.0
 45
210.0
 46
0.0
 47
0.0
 48
0.0
 49
0.0
140
0.0
141
0.0
142
1.0
143
1.0
 70
0
 72
1
 73
0
 74
0
  7

 75
0
147
1.0
148
0.0
149
0.0
100
AcDbLayout
  1
Layout1
 70
0
 71
1
 10
0.0
 20
0.0
 11
297.0
 21
210.0
 12
0.0
 22
0.0
 32
0.0
 14
0.0
 24
0.0
 34
0.0
 15
0.0
 25
0.0
 35
0.0
146
0.0
 13
0.0
 23
0.0
 33
0.0
 16
1.0
 26
0.0
 36
0.0
 17
0.0
 27
1.0
 37
0.0
 76
0
330
211
345
0
346
0
  0
ENDSEC
  0
EOF
