  0
SECTION
  2
HEADER
  9
$ACADVER
  1
AC1015
  9
$DWGCODEPAGE
  3
ANSI_1252
  9
$EXTMAX
 10
297.0
 20
210.0
 30
0.0
  9
$EXTMIN
 10
0.0
 20
0.0
 30
0.0
  9
$LIMMIN
 10
0.0
 20
0.0
  9
$LIMMAX
 10
297.0
 20
210.0
  9
$VIEWCTR
 10
148.5
 20
105.0
  9
$VIEWSIZE
 40
210.0
  9
$CLAYER
  8
0
  9
$LTSCALE
 40
16.335
  9
$CELTYPE
  6
BYLAYER
  9
$DIMSCALE
 40
1.0
  9
$DIMASZ
 40
3.5
  9
$DIMEXO
 40
1.85625
  9
$DIMDLI
 40
11.286
  9
$DIMEXE
 40
5.346
  9
$DIMCEN
 40
2.673
  9
$DIMLFAC
 40
1.0
  9
$DIMBLK
  1
_FILLED
  9
$DIMTXT
 40
3.5
  9
$DIMTOL
 70
1
  9
$DIMLIM
 70
0
  9
$DIMTFAC
 40
1.0
  9
$DIMTP
 40
0.005
  9
$DIMTM
 40
0.005
  9
$PDMODE
 70
3
  9
$PDSIZE
 40
0.3125
  9
$HANDSEED
  5
64F
  9
$TILEMODE
 70
1
  9
$MEASUREMENT
 70
1
  9
$INSUNITS
 70
4
  0
ENDSEC
  0
SECTION
  2
CLASSES
  0
CLASS
  1
ACDBDICTIONARYWDFLT
  2
AcDbDictionaryWithDefault
  3
AutoCAD 2000
 90
0
280
0
281
0
  0
CLASS
  1
ACDBPLACEHOLDER
  2
AcDbPlaceHolder
  3
AutoCAD 2000
 90
0
280
0
281
0
  0
CLASS
  1
LAYOUT
  2
AcDbLayout
  3
AutoCAD 2000
 90
0
280
0
281
0
  0
ENDSEC
  0
SECTION
  2
TABLES
  0
TABLE
  2
VPORT
  5
8
100
AcDbSymbolTable
 70
2
  0
VPORT
  5
1F4
100
AcDbSymbolTableRecord
100
AcDbViewportTableRecord
  2
*ACTIVE
 70
0
 10
0.0
 20
0.0
 11
1.0
 21
1.0
 12
148.5
 22
105.0
 13
0.0
 23
0.0
 14
1.0
 24
1.0
 15
0.0
 25
0.0
 16
0.0
 26
0.0
 36
1.0
 17
0.0
 27
0.0
 37
0.0
 40
210.0
 41
1.4142857143
 42
50.0
 43
0.0
 44
0.0
 50
0.0
 51
0.0
 71
0
 72
100
 73
1
 74
1
 75
0
 76
0
 77
0
 78
0
  0
ENDTAB
  0
TABLE
  2
LTYPE
  5
5
100
AcDbSymbolTable
 70
6
  0
LTYPE
  5
14
100
AcDbSymbolTableRecord
100
AcDbLinetypeTableRecord
  2
BYBLOCK
 70
0
  3

 72
65
 73
0
 40
0.0
  0
LTYPE
  5
15
100
AcDbSymbolTableRecord
100
AcDbLinetypeTableRecord
  2
BYLAYER
 70
0
  3

 72
65
 73
0
 40
0.0
  0
LTYPE
  5
16
100
AcDbSymbolTableRecord
100
AcDbLinetypeTableRecord
  2
CONTINUOUS
 70
64
  3
Solid line
 72
65
 73
0
 40
0.0
  0
LTYPE
  5
1F5
100
AcDbSymbolTableRecord
100
AcDbLinetypeTableRecord
  2
CENTER
 70
64
  3
____ _ ____ _ ____ _ ____ _ ____ _ ____ _ ____
 72
65
 73
4
 40
0.6
 49
0.375
 74
0
 49
-0.075
 74
0
 49
0.075
 74
0
 49
-0.075
 74
0
  0
LTYPE
  5
1F6
100
AcDbSymbolTableRecord
100
AcDbLinetypeTableRecord
  2
HIDDEN
 70
64
  3
- - - - - - - - - - - - - - - - - - - -
 72
65
 73
2
 40
0.2
 49
0.1
 74
0
 49
-0.1
 74
0
  0
LTYPE
  5
1F7
100
AcDbSymbolTableRecord
100
AcDbLinetypeTableRecord
  2
PHANTOM
 70
64
  3
_____ _ _ _____ _ _ _____ _ _ _____
 72
65
 73
6
 40
0.8
 49
0.45
 74
0
 49
-0.05
 74
0
 49
0.1
 74
0
 49
-0.05
 74
0
 49
0.1
 74
0
 49
-0.05
 74
0
  0
LTYPE
  5
1F8
100
AcDbSymbolTableRecord
100
AcDbLinetypeTableRecord
  2
DOT
 70
64
  3
. . . . . . . . . . . . . . . . . . . .
 72
65
 73
2
 40
0.2
 49
0.1
 74
0
 49
-0.1
 74
0
  0
LTYPE
  5
1F9
100
AcDbSymbolTableRecord
100
AcDbLinetypeTableRecord
  2
DASHED
 70
64
  3
- - - - - - - - - - - - - - - - - - - -
 72
65
 73
2
 40
0.2
 49
0.1
 74
0
 49
-0.1
 74
0
  0
ENDTAB
  0
TABLE
  2
LAYER
  5
2
100
AcDbSymbolTable
 70
36
  0
LAYER
  5
10
100
AcDbSymbolTableRecord
100
AcDbLayerTableRecord
  2
0
 70
0
 62
7
  6
CONTINUOUS
370
-3
390
F
  0
LAYER
  5
1FA
100
AcDbSymbolTableRecord
100
AcDbLayerTableRecord
  2
DEFAULT_1
 70
0
 62
7
  6
CENTER
370
-3
390
F
  0
LAYER
  5
1FB
100
AcDbSymbolTableRecord
100
AcDbLayerTableRecord
  2
DEFAULT_2
 70
0
 62
8
  6
HIDDEN
370
-3
390
F
  0
LAYER
  5
1FC
100
AcDbSymbolTableRecord
100
AcDbLayerTableRecord
  2
DEFAULT_3
 70
0
 62
7
  6
PHANTOM
370
-3
390
F
  0
LAYER
  5
1FD
100
AcDbSymbolTableRecord
100
AcDbLayerTableRecord
  2
01___PRT_ALL_DTM_PLN
 70
0
 62
7
  6
CONTINUOUS
370
-3
390
F
  0
LAYER
  5
1FE
100
AcDbSymbolTableRecord
100
AcDbLayerTableRecord
  2
01___PRT_DEF_DTM_PLN
 70
0
 62
7
  6
CONTINUOUS
370
-3
390
F
  0
LAYER
  5
1FF
100
AcDbSymbolTableRecord
100
AcDbLayerTableRecord
  2
02___PRT_ALL_AXES
 70
0
 62
7
  6
CONTINUOUS
370
-3
390
F
  0
LAYER
  5
200
100
AcDbSymbolTableRecord
100
AcDbLayerTableRecord
  2
03___PRT_ALL_CURVES
 70
0
 62
7
  6
CONTINUOUS
370
-3
390
F
  0
LAYER
  5
201
100
AcDbSymbolTableRecord
100
AcDbLayerTableRecord
  2
04___PRT_ALL_DTM_PNT
 70
0
 62
7
  6
CONTINUOUS
370
-3
390
F
  0
LAYER
  5
202
100
AcDbSymbolTableRecord
100
AcDbLayerTableRecord
  2
05___PRT_ALL_DTM_CSYS
 70
0
 62
7
  6
CONTINUOUS
370
-3
390
F
  0
LAYER
  5
203
100
AcDbSymbolTableRecord
100
AcDbLayerTableRecord
  2
05___PRT_DEF_DTM_CSYS
 70
0
 62
7
  6
CONTINUOUS
370
-3
390
F
  0
LAYER
  5
204
100
AcDbSymbolTableRecord
100
AcDbLayerTableRecord
  2
06___PRT_ALL_SURFS
 70
0
 62
7
  6
CONTINUOUS
370
-3
390
F
  0
LAYER
  5
205
100
AcDbSymbolTableRecord
100
AcDbLayerTableRecord
  2
AUSFORMSCHRAEGEN
 70
0
 62
7
  6
CONTINUOUS
370
-3
390
F
  0
LAYER
  5
206
100
AcDbSymbolTableRecord
100
AcDbLayerTableRecord
  2
BEZUGSACHSEN
 70
0
 62
7
  6
CONTINUOUS
370
-3
390
F
  0
LAYER
  5
207
100
AcDbSymbolTableRecord
100
AcDbLayerTableRecord
  2
BEZUGSEBENEN
 70
0
 62
7
  6
CONTINUOUS
370
-3
390
F
  0
LAYER
  5
208
100
AcDbSymbolTableRecord
100
AcDbLayerTableRecord
  2
BOHRUNGEN
 70
0
 62
7
  6
CONTINUOUS
370
-3
390
F
  0
LAYER
  5
209
100
AcDbSymbolTableRecord
100
AcDbLayerTableRecord
  2
FASEN
 70
0
 62
7
  6
CONTINUOUS
370
-3
390
F
  0
LAYER
  5
20A
100
AcDbSymbolTableRecord
100
AcDbLayerTableRecord
  2
GEWINDE
 70
0
 62
7
  6
CONTINUOUS
370
-3
390
F
  0
LAYER
  5
20B
100
AcDbSymbolTableRecord
100
AcDbLayerTableRecord
  2
KURVEN
 70
0
 62
7
  6
CONTINUOUS
370
-3
390
F
  0
LAYER
  5
20C
100
AcDbSymbolTableRecord
100
AcDbLayerTableRecord
  2
RUNDUNGEN
 70
0
 62
7
  6
CONTINUOUS
370
-3
390
F
  0
LAYER
  5
20D
100
AcDbSymbolTableRecord
100
AcDbLayerTableRecord
  2
ZEICHNUNGSBEMASSUNGEN
 70
0
 62
7
  6
CONTINUOUS
370
-3
390
F
  0
ENDTAB
  0
TABLE
  2
STYLE
  5
3
100
AcDbSymbolTable
 70
1
  0
STYLE
  5
11
100
AcDbSymbolTableRecord
100
AcDbTextStyleTableRecord
  2
STANDARD
 70
0
 40
0.0
 41
0.7
 50
0.0
 71
0
 42
0.2
  3
txt
  4

  0
STYLE
  5
20E
100
AcDbSymbolTableRecord
100
AcDbTextStyleTableRecord
  2
TEXTSTYLE_1
 70
0
 40
0.0
 41
0.8
 50
0.0
 71
0
 42
0.2
  3
gdt
  4

  0
ENDTAB
  0
TABLE
  2
VIEW
  5
6
100
AcDbSymbolTable
 70
0
  0
ENDTAB
  0
TABLE
  2
UCS
  5
7
100
AcDbSymbolTable
 70
0
  0
ENDTAB
  0
TABLE
  2
APPID
  5
9
100
AcDbSymbolTable
 70
1
  0
APPID
  5
20F
100
AcDbSymbolTableRecord
100
AcDbRegAppTableRecord
  2
ACAD
 70
0
  0
ENDTAB
  0
TABLE
  2
BLOCK_RECORD
  5
1
100
AcDbSymbolTable
 70
0
  0
BLOCK_RECORD
  5
210
100
AcDbSymbolTableRecord
100
AcDbBlockTableRecord
  2
*Model_Space
  0
BLOCK_RECORD
  5
211
100
AcDbSymbolTableRecord
100
AcDbBlockTableRecord
  2
*Paper_Space
  0
ENDTAB
  0
TABLE
  2
DIMSTYLE
  5
A
100
AcDbSymbolTable
 70
1
100
AcDbDimStyleTable
 71
0
  0
DIMSTYLE
105
212
100
AcDbSymbolTableRecord
100
AcDbDimStyleTableRecord
  2
STANDARD
 70
0
  3

  4

 40
1.0
 41
3.5
 42
0.0625
 43
0.38
 44
0.18
 45
0.0
 46
0.0
 47
0.005
 48
0.005
140
3.5
141
0.09
142
0.0
143
25.4
144
1.0
145
0.0
146
1.0
147
0.09
 71
1.0
 72
0.0
 73
0
 74
0
 75
0
 76
0
 77
1
 78
8
170
0
171
2
172
0
173
0
174
0
175
0
176
0
177
0
178
5
270
2
271
3
272
3
273
2
274
2
275
0
280
0
281
0
282
0
283
1
284
8
285
0
286
0
287
3
288
0
340
11
  0
ENDTAB
  0
ENDSEC
  0
SECTION
  2
BLOCKS
  0
BLOCK
  5
20
100
AcDbEntity
  8
0
100
AcDbBlockBegin
  2
*Model_Space
 70
0
 10
0.0
 20
0.0
 30
0.0
  3
*Model_Space
  1

  0
ENDBLK
  5
21
100
AcDbEntity
  8
0
100
AcDbBlockEnd
  0
BLOCK
  5
1C
100
AcDbEntity
  8
0
100
AcDbBlockBegin
  2
*Paper_Space
 70
0
 10
0.0
 20
0.0
 30
0.0
  3
*Paper_Space
  1

  0
ENDBLK
  5
1D
100
AcDbEntity
  8
0
100
AcDbBlockEnd
  0
ENDSEC
  0
SECTION
  2
ENTITIES
  0
LINE
  5
213
100
AcDbEntity
  8
0
100
AcDbLine
 62
7
  6
CONTINUOUS
 10
0.0
 20
0.0
 11
0.0
 21
210.0
  0
LINE
  5
214
100
AcDbEntity
  8
0
100
AcDbLine
 62
7
  6
CONTINUOUS
 10
0.0
 20
0.0
 11
297.0
 21
0.0
  0
LINE
  5
215
100
AcDbEntity
  8
0
100
AcDbLine
 62
7
  6
CONTINUOUS
 10
0.0
 20
210.0
 11
297.0
 21
210.0
  0
LINE
  5
216
100
AcDbEntity
  8
0
100
AcDbLine
 62
7
  6
CONTINUOUS
 10
297.0
 20
0.0
 11
297.0
 21
210.0
  0
LINE
  5
217
100
AcDbEntity
  8
RUNDUNGEN
100
AcDbLine
 62
7
  6
CONTINUOUS
 10
65.9997820537
 20
108.4883310746
 11
65.9997820537
 21
102.4883310746
  0
LINE
  5
218
100
AcDbEntity
  8
RUNDUNGEN
100
AcDbLine
 62
7
  6
CONTINUOUS
 10
79.4713729554
 20
135.0218109751
 11
77.9527878173
 21
132.3915443604
  0
LINE
  5
219
100
AcDbEntity
  8
RUNDUNGEN
100
AcDbLine
 62
7
  6
CONTINUOUS
 10
72.2144278714
 20
122.4524133818
 11
70.6958386922
 21
119.8221397677
  0
LINE
  5
21A
100
AcDbEntity
  8
RUNDUNGEN
100
AcDbLine
 62
7
  6
CONTINUOUS
 10
92.1348673498
 20
147.7556266676
 11
86.9387149271
 21
144.7556266676
  0
LINE
  5
21B
100
AcDbEntity
  8
RUNDUNGEN
100
AcDbLine
 62
7
  6
CONTINUOUS
 10
104.2982705417
 20
61.6210354816
 11
107.3354402772
 21
61.6210354816
  0
LINE
  5
21C
100
AcDbEntity
  8
RUNDUNGEN
100
AcDbLine
 62
7
  6
CONTINUOUS
 10
118.8121601692
 20
61.6210354816
 11
121.8493385276
 21
61.6210354816
  0
LINE
  5
21D
100
AcDbEntity
  8
RUNDUNGEN
100
AcDbLine
 62
7
  6
CONTINUOUS
 10
86.9387149271
 20
66.2210354816
 11
92.1348673498
 21
63.2210354816
  0
LINE
  5
21E
100
AcDbEntity
  8
RUNDUNGEN
100
AcDbLine
 62
7
  6
CONTINUOUS
 10
70.6958430036
 20
91.154514914
 11
72.2144278714
 21
88.5242487674
  0
LINE
  5
21F
100
AcDbEntity
  8
RUNDUNGEN
100
AcDbLine
 62
7
  6
CONTINUOUS
 10
77.9527878173
 20
78.5851177888
 11
79.4713769965
 21
75.9548441746
  0
LINE
  5
220
100
AcDbEntity
  8
RUNDUNGEN
100
AcDbLine
 62
7
  6
CONTINUOUS
 10
71.0048045921
 20
92.970014248
 11
71.7296993108
 21
95.7599895453
  0
LINE
  5
221
100
AcDbEntity
  8
RUNDUNGEN
100
AcDbLine
 62
7
  6
CONTINUOUS
 10
102.880652663
 20
148.1804757248
 11
100.8267408073
 21
146.1575436632
  0
LINE
  5
222
100
AcDbEntity
  8
RUNDUNGEN
100
AcDbLine
 62
7
  6
CONTINUOUS
 10
144.9494784232
 20
75.3146705597
 11
142.1708415805
 21
74.5474601525
  0
LINE
  5
223
100
AcDbEntity
  8
RUNDUNGEN
100
AcDbLine
 62
7
  6
CONTINUOUS
 10
83.9767588694
 20
74.5474601515
 11
81.1980212309
 21
75.3146983895
  0
LINE
  5
224
100
AcDbEntity
  8
RUNDUNGEN
100
AcDbLine
 62
7
  6
CONTINUOUS
 10
102.8804827921
 20
62.7963537331
 11
100.8267406681
 21
64.8191186232
  0
LINE
  5
225
100
AcDbEntity
  8
RUNDUNGEN
100
AcDbLine
 62
7
  6
CONTINUOUS
 10
71.7296993117
 20
115.2166726004
 11
71.0047782973
 21
118.0067491048
  0
LINE
  5
226
100
AcDbEntity
  8
RUNDUNGEN
100
AcDbLine
 62
7
  6
CONTINUOUS
 10
71.0047302674
 20
92.969725522
 11
71.00472133
 21
92.9696937864
  0
LWPOLYLINE
  5
227
100
AcDbEntity
  8
RUNDUNGEN
100
AcDbPolyline
 62
7
  6
CONTINUOUS
 90
3
 70
0
 10
81.3198237765
 20
121.2234217126
 10
81.3129394292
 20
121.2048748556
 10
81.0267680745
 20
120.4615240513
  0
LINE
  5
228
100
AcDbEntity
  8
RUNDUNGEN
100
AcDbLine
 62
7
  6
CONTINUOUS
 10
81.0267680745
 20
120.4615240513
 11
80.9569887254
 21
120.2782040887
  0
LWPOLYLINE
  5
229
100
AcDbEntity
  8
RUNDUNGEN
100
AcDbPolyline
 62
7
  6
CONTINUOUS
 90
3
 70
0
 10
83.5698237765
 20
125.1205360296
 10
83.5821024739
 20
125.1360477585
 10
84.0839756369
 20
125.754584573
  0
LINE
  5
22A
100
AcDbEntity
  8
RUNDUNGEN
100
AcDbLine
 62
7
  6
CONTINUOUS
 10
84.0839756369
 20
125.754584573
 11
84.2069887254
 21
125.9073692133
  0
LINE
  5
22B
100
AcDbEntity
  8
0
100
AcDbLine
 62
7
  6
CONTINUOUS
 10
93.5161946819
 20
134.3927623297
 11
93.6240641632
 21
134.5155135099
  0
LINE
  5
22C
100
AcDbEntity
  8
0
100
AcDbLine
 62
7
  6
CONTINUOUS
 10
94.910210351
 20
135.80781835
 11
94.8219683891
 21
135.7083598499
  0
LINE
  5
22D
100
AcDbEntity
  8
0
100
AcDbLine
 62
7
  6
CONTINUOUS
 10
94.9590175476
 20
135.6017005632
 11
95.0472596654
 21
135.7011591558
  0
LINE
  5
22E
100
AcDbEntity
  8
0
100
AcDbLine
 62
7
  6
CONTINUOUS
 10
94.335681793
 20
135.4572383611
 11
94.2238192564
 21
135.3381148057
  0
LINE
  5
22F
100
AcDbEntity
  8
0
100
AcDbLine
 62
7
  6
CONTINUOUS
 10
96.8584835894
 20
136.8927060519
 11
96.7644815804
 21
136.7986727631
  0
LINE
  5
230
100
AcDbEntity
  8
0
100
AcDbLine
 62
7
  6
CONTINUOUS
 10
96.8386689751
 20
136.6549932506
 11
96.932670984
 21
136.7490265394
  0
LINE
  5
231
100
AcDbEntity
  8
0
100
AcDbLine
 62
7
  6
CONTINUOUS
 10
94.3056421575
 20
135.1505958054
 11
94.4442187405
 21
135.2867235171
  0
LINE
  5
232
100
AcDbEntity
  8
0
100
AcDbLine
 62
7
  6
CONTINUOUS
 10
92.9228415729
 20
135.2603262968
 11
92.2955260818
 21
134.8312863515
  0
LINE
  5
233
100
AcDbEntity
  8
0
100
AcDbLine
 62
7
  6
CONTINUOUS
 10
92.5664613094
 20
134.7717071314
 11
93.0630860483
 21
135.1113637376
  0
LINE
  5
234
100
AcDbEntity
  8
0
100
AcDbLine
 62
7
  6
CONTINUOUS
 10
93.4054051767
 20
134.6108460248
 11
92.9087804378
 21
134.2711894185
  0
LINE
  5
235
100
AcDbEntity
  8
0
100
AcDbLine
 62
7
  6
CONTINUOUS
 10
93.0457080636
 20
134.0709823707
 11
93.5161946819
 21
134.3927623297
  0
LINE
  5
236
100
AcDbEntity
  8
0
100
AcDbLine
 62
7
  6
CONTINUOUS
 10
93.368125945
 20
133.2629976238
 11
93.5249548177
 21
133.3702576101
  0
LINE
  5
237
100
AcDbEntity
  8
0
100
AcDbLine
 62
7
  6
CONTINUOUS
 10
93.9883998016
 20
135.2361847192
 11
93.8548298754
 21
135.1511641325
  0
LINE
  5
238
100
AcDbEntity
  8
0
100
AcDbLine
 62
7
  6
CONTINUOUS
 10
94.5494664005
 20
134.0598690351
 11
94.6830363267
 21
134.1448896217
  0
LINE
  5
239
100
AcDbEntity
  8
0
100
AcDbLine
 62
7
  6
CONTINUOUS
 10
95.1279959987
 20
135.9372295189
 11
94.910210351
 21
135.80781835
  0
LINE
  5
23A
100
AcDbEntity
  8
0
100
AcDbLine
 62
7
  6
CONTINUOUS
 10
95.0472596654
 20
135.7011591558
 11
95.1561523334
 21
135.7658646477
  0
LINE
  5
23B
100
AcDbEntity
  8
0
100
AcDbLine
 62
7
  6
CONTINUOUS
 10
95.6517693312
 20
134.9317923663
 11
95.5428766631
 21
134.8670868744
  0
LINE
  5
23C
100
AcDbEntity
  8
0
100
AcDbLine
 62
7
  6
CONTINUOUS
 10
95.5710330051
 20
134.695721991
 11
95.7888186528
 21
134.8251331599
  0
LINE
  5
23D
100
AcDbEntity
  8
0
100
AcDbLine
 62
7
  6
CONTINUOUS
 10
95.5455460277
 20
136.8757341565
 11
95.407478148
 21
136.798230974
  0
LINE
  5
23E
100
AcDbEntity
  8
0
100
AcDbLine
 62
7
  6
CONTINUOUS
 10
96.3375156295
 20
135.1414176824
 11
96.4755835091
 21
135.218920865
  0
LINE
  5
23F
100
AcDbEntity
  8
0
100
AcDbLine
 62
7
  6
CONTINUOUS
 10
95.9262934052
 20
137.0853527269
 11
95.7872986208
 21
137.0095244169
  0
LINE
  5
240
100
AcDbEntity
  8
0
100
AcDbLine
 62
7
  6
CONTINUOUS
 10
95.8841006333
 20
136.8320844231
 11
96.0230954177
 21
136.9079127332
  0
LINE
  5
241
100
AcDbEntity
  8
0
100
AcDbLine
 62
7
  6
CONTINUOUS
 10
96.2166994971
 20
136.5530326462
 11
96.0777047127
 21
136.4772043361
  0
LINE
  5
242
100
AcDbEntity
  8
0
100
AcDbLine
 62
7
  6
CONTINUOUS
 10
96.6972376472
 20
135.3415882766
 11
96.8362324316
 21
135.4174165866
  0
LINE
  5
243
100
AcDbEntity
  8
0
100
AcDbLine
 62
7
  6
CONTINUOUS
 10
96.9710327689
 20
136.9508196288
 11
96.8584835894
 21
136.8927060519
  0
LINE
  5
244
100
AcDbEntity
  8
0
100
AcDbLine
 62
7
  6
CONTINUOUS
 10
96.6052484183
 20
136.7619507532
 11
96.4645624268
 21
136.6893090315
  0
LINE
  5
245
100
AcDbEntity
  8
0
100
AcDbLine
 62
7
  6
CONTINUOUS
 10
97.0580616361
 20
135.5398728304
 11
97.1987476275
 21
135.6125145522
  0
LINE
  5
246
100
AcDbEntity
  8
0
100
AcDbLine
 62
7
  6
CONTINUOUS
 10
97.7052179697
 20
135.8740251495
 11
97.8459042832
 21
135.9466670375
  0
LINE
  5
247
100
AcDbEntity
  8
0
100
AcDbLine
 62
7
  6
CONTINUOUS
 10
97.4013170544
 20
137.8435006218
 11
97.2582783012
 21
137.7756089209
  0
LINE
  5
248
100
AcDbEntity
  8
0
100
AcDbLine
 62
7
  6
CONTINUOUS
 10
98.2048762199
 20
137.5536805632
 11
98.0332297817
 21
137.4722105533
  0
LINE
  5
249
100
AcDbEntity
  8
0
100
AcDbLine
 62
7
  6
CONTINUOUS
 10
98.0729799543
 20
136.0591412642
 11
98.2160187074
 21
136.1270329651
  0
LINE
  5
24A
100
AcDbEntity
  8
0
100
AcDbLine
 62
7
  6
CONTINUOUS
 10
98.7023513193
 20
136.3578651519
 11
98.873998085
 21
136.4393353172
  0
LINE
  5
24B
100
AcDbEntity
  8
0
100
AcDbLine
 62
7
  6
CONTINUOUS
 10
93.0763535961
 20
135.3163417945
 11
92.9228415729
 21
135.2603262968
  0
LINE
  5
24C
100
AcDbEntity
  8
RUNDUNGEN
100
AcDbLine
 62
7
  6
CONTINUOUS
 10
144.9497656296
 20
75.3147505556
 11
144.9497975822
 21
75.3147586834
  0
LWPOLYLINE
  5
24D
100
AcDbEntity
  8
RUNDUNGEN
100
AcDbPolyline
 62
7
  6
CONTINUOUS
 90
3
 70
0
 10
115.3238002232
 20
70.1210354816
 10
115.3433044462
 20
70.1243468905
 10
116.130150804
 20
70.2481906296
  0
LINE
  5
24E
100
AcDbEntity
  8
RUNDUNGEN
100
AcDbLine
 62
7
  6
CONTINUOUS
 10
116.130150804
 20
70.2481906296
 11
116.3238002232
 21
70.2794199219
  0
LWPOLYLINE
  5
24F
100
AcDbEntity
  8
RUNDUNGEN
100
AcDbPolyline
 62
7
  6
CONTINUOUS
 90
3
 70
0
 10
110.8238002232
 20
70.1210354816
 10
110.8042273233
 20
70.123913281
 10
110.0176221473
 20
70.2492797824
  0
LINE
  5
250
100
AcDbEntity
  8
RUNDUNGEN
100
AcDbLine
 62
7
  6
CONTINUOUS
 10
110.0176221473
 20
70.2492797824
 11
109.8238002232
 21
70.2794199219
  0
LINE
  5
251
100
AcDbEntity
  8
RUNDUNGEN
100
AcDbLine
 62
7
  6
CONTINUOUS
 10
102.8806956738
 20
62.796145003
 11
102.8807186889
 21
62.7961213952
  0
LWPOLYLINE
  5
252
100
AcDbEntity
  8
RUNDUNGEN
100
AcDbPolyline
 62
7
  6
CONTINUOUS
 90
3
 70
0
 10
83.5698237765
 20
85.8561261196
 10
83.5824436522
 20
85.8408906715
 10
84.0831186553
 20
85.2213836063
  0
LINE
  5
253
100
AcDbEntity
  8
RUNDUNGEN
100
AcDbLine
 62
7
  6
CONTINUOUS
 10
84.0831186553
 20
85.2213836063
 11
84.2069887254
 21
85.069292936
  0
LWPOLYLINE
  5
254
100
AcDbEntity
  8
RUNDUNGEN
100
AcDbPolyline
 62
7
  6
CONTINUOUS
 90
3
 70
0
 10
81.3198237765
 20
89.7532404366
 10
81.3125295739
 20
89.7716299649
 10
81.0277975609
 20
90.5155332808
  0
LINE
  5
255
100
AcDbEntity
  8
RUNDUNGEN
100
AcDbLine
 62
7
  6
CONTINUOUS
 10
81.0277975609
 20
90.5155332808
 11
80.9569887254
 21
90.6984580606
  0
LINE
  5
256
100
AcDbEntity
  8
RUNDUNGEN
100
AcDbLine
 62
7
  6
CONTINUOUS
 10
86.4531487464
 20
144.0588918529
 11
85.4147533795
 21
138.013621636
  0
LINE
  5
257
100
AcDbEntity
  8
0
100
AcDbLine
 62
7
  6
CONTINUOUS
 10
94.2422009039
 20
135.0143733401
 11
94.3056421575
 21
135.1505958054
  0
LINE
  5
258
100
AcDbEntity
  8
0
100
AcDbLine
 62
7
  6
CONTINUOUS
 10
94.8219683891
 20
135.7083598499
 11
94.7881726054
 21
135.6412540033
  0
LINE
  5
259
100
AcDbEntity
  8
0
100
AcDbLine
 62
7
  6
CONTINUOUS
 10
95.8770606129
 20
134.924591663
 11
95.910856239
 21
134.9916974202
  0
LINE
  5
25A
100
AcDbEntity
  8
0
100
AcDbLine
 62
7
  6
CONTINUOUS
 10
93.4609983421
 20
134.6978438592
 11
93.4054051767
 21
134.6108460248
  0
LINE
  5
25B
100
AcDbEntity
  8
0
100
AcDbLine
 62
7
  6
CONTINUOUS
 10
94.2238192564
 20
135.3381148057
 11
94.1653846596
 21
135.2529994654
  0
LINE
  5
25C
100
AcDbEntity
  8
0
100
AcDbLine
 62
7
  6
CONTINUOUS
 10
95.7400114417
 20
135.0312509711
 11
95.6517693312
 21
134.9317923663
  0
LINE
  5
25D
100
AcDbEntity
  8
0
100
AcDbLine
 62
7
  6
CONTINUOUS
 10
95.7888186528
 20
134.8251331599
 11
95.8770606129
 21
134.924591663
  0
LINE
  5
25E
100
AcDbEntity
  8
RUNDUNGEN
100
AcDbLine
 62
7
  6
CONTINUOUS
 10
71.0765488974
 20
113.1791229948
 11
66.3603890127
 21
109.2572111297
  0
LINE
  5
25F
100
AcDbEntity
  8
RUNDUNGEN
100
AcDbLine
 62
7
  6
CONTINUOUS
 10
133.166559957
 20
147.8277719079
 11
127.4120047078
 21
145.7044135719
  0
LINE
  5
260
100
AcDbEntity
  8
RUNDUNGEN
100
AcDbLine
 62
7
  6
CONTINUOUS
 10
127.412004708
 20
65.2722485773
 11
133.166559957
 21
63.1488902413
  0
LINE
  5
261
100
AcDbEntity
  8
RUNDUNGEN
100
AcDbLine
 62
7
  6
CONTINUOUS
 10
66.3603890127
 20
101.7194510196
 11
71.0765488976
 21
97.7975391543
  0
LINE
  5
262
100
AcDbEntity
  8
RUNDUNGEN
100
AcDbLine
 62
7
  6
CONTINUOUS
 10
85.4147533822
 20
72.9630404975
 11
86.4531487464
 21
66.9177702964
  0
LINE
  5
263
100
AcDbEntity
  8
0
100
AcDbLine
 62
7
  6
CONTINUOUS
 10
93.6240641632
 20
134.5155135099
 11
93.6601529072
 21
134.6871236743
  0
LINE
  5
264
100
AcDbEntity
  8
0
100
AcDbLine
 62
7
  6
CONTINUOUS
 10
94.1653846596
 20
135.2529994654
 11
94.1286574524
 21
135.1337811564
  0
LINE
  5
265
100
AcDbEntity
  8
0
100
AcDbLine
 62
7
  6
CONTINUOUS
 10
96.7644815804
 20
136.7986727631
 11
96.7171635541
 21
136.6832479073
  0
LINE
  5
266
100
AcDbEntity
  8
0
100
AcDbLine
 62
7
  6
CONTINUOUS
 10
96.7913509487
 20
136.5395683947
 11
96.8386689751
 21
136.6549932506
  0
LINE
  5
267
100
AcDbEntity
  8
0
100
AcDbLine
 62
7
  6
CONTINUOUS
 10
129.1993442417
 20
136.477725991
 11
129.3013951435
 21
136.5143775192
  0
LINE
  5
268
100
AcDbEntity
  8
0
100
AcDbLine
 62
7
  6
CONTINUOUS
 10
127.8884889392
 20
137.6252241583
 11
127.9607632142
 21
137.6503994171
  0
LINE
  5
269
100
AcDbEntity
  8
0
100
AcDbLine
 62
7
  6
CONTINUOUS
 10
127.876386949
 20
136.7771294603
 11
127.8041126661
 21
136.7519541846
  0
LINE
  5
26A
100
AcDbEntity
  8
0
100
AcDbLine
 62
7
  6
CONTINUOUS
 10
129.3771162966
 20
135.9917346654
 11
129.3036910781
 21
135.9701452752
  0
LINE
  5
26B
100
AcDbEntity
  8
0
100
AcDbLine
 62
7
  6
CONTINUOUS
 10
92.2738002232
 20
95.3883310746
 11
92.2738002232
 21
115.5883310746
  0
LINE
  5
26C
100
AcDbEntity
  8
0
100
AcDbLine
 62
7
  6
CONTINUOUS
 10
92.8738002232
 20
86.6543564784
 11
92.8738002232
 21
94.7883310746
  0
LINE
  5
26D
100
AcDbEntity
  8
0
100
AcDbLine
 62
7
  6
CONTINUOUS
 10
92.8738002232
 20
116.1883310746
 11
92.8738002232
 21
124.3223056708
  0
LINE
  5
26E
100
AcDbEntity
  8
0
100
AcDbLine
 62
7
  6
CONTINUOUS
 10
93.467632116
 20
134.8003328876
 11
93.4609983421
 21
134.6978438592
  0
LINE
  5
26F
100
AcDbEntity
  8
0
100
AcDbLine
 62
7
  6
CONTINUOUS
 10
94.1286574524
 20
135.1337811564
 11
94.1186441386
 21
135.0315669063
  0
LINE
  5
270
100
AcDbEntity
  8
0
100
AcDbLine
 62
7
  6
CONTINUOUS
 10
94.7881726054
 20
135.6412540033
 11
94.7750276836
 21
135.539395241
  0
LINE
  5
271
100
AcDbEntity
  8
0
100
AcDbLine
 62
7
  6
CONTINUOUS
 10
94.9458726258
 20
135.4998418009
 11
94.9590175476
 21
135.6017005632
  0
LINE
  5
272
100
AcDbEntity
  8
0
100
AcDbLine
 62
7
  6
CONTINUOUS
 10
95.7531563635
 20
135.1331097334
 11
95.7400114417
 21
135.0312509711
  0
LINE
  5
273
100
AcDbEntity
  8
0
100
AcDbLine
 62
7
  6
CONTINUOUS
 10
95.910856239
 20
134.9916974202
 11
95.924001313
 21
135.0935562811
  0
LINE
  5
274
100
AcDbEntity
  8
0
100
AcDbLine
 62
7
  6
CONTINUOUS
 10
98.1155336847
 20
136.9295511039
 11
98.2048762199
 21
137.5536805632
  0
LINE
  5
275
100
AcDbEntity
  8
0
100
AcDbLine
 62
7
  6
CONTINUOUS
 10
98.0332297817
 20
137.4722105533
 11
97.9213393969
 21
136.7478829457
  0
LINE
  5
276
100
AcDbEntity
  8
0
100
AcDbLine
 62
7
  6
CONTINUOUS
 10
96.7171635541
 20
136.6832479073
 11
96.6979826616
 21
136.5823513625
  0
LINE
  5
277
100
AcDbEntity
  8
0
100
AcDbLine
 62
7
  6
CONTINUOUS
 10
96.7721700563
 20
136.43867185
 11
96.7913509487
 21
136.5395683947
  0
LINE
  5
278
100
AcDbEntity
  8
0
100
AcDbLine
 62
7
  6
CONTINUOUS
 10
98.0253438509
 20
136.5287594412
 11
98.0817125531
 21
136.7792542178
  0
LINE
  5
279
100
AcDbEntity
  8
0
100
AcDbLine
 62
7
  6
CONTINUOUS
 10
92.2738002232
 20
115.5883310746
 11
92.8738002232
 21
116.1883310746
  0
LINE
  5
27A
100
AcDbEntity
  8
0
100
AcDbLine
 62
7
  6
CONTINUOUS
 10
102.3738002232
 20
125.6883310746
 11
102.9738002232
 21
126.2883310746
  0
LINE
  5
27B
100
AcDbEntity
  8
0
100
AcDbLine
 62
7
  6
CONTINUOUS
 10
127.9229977935
 20
137.7857673059
 11
127.8115972122
 21
137.7199590966
  0
LINE
  5
27C
100
AcDbEntity
  8
0
100
AcDbLine
 62
7
  6
CONTINUOUS
 10
127.8418780829
 20
136.6165862873
 11
127.953278668
 21
136.6823945051
  0
LINE
  5
27D
100
AcDbEntity
  8
0
100
AcDbLine
 62
7
  6
CONTINUOUS
 10
130.2063226197
 20
136.6043589865
 11
130.1194112276
 21
136.5611951981
  0
LINE
  5
27E
100
AcDbEntity
  8
0
100
AcDbLine
 62
7
  6
CONTINUOUS
 10
130.0506151496
 20
135.4996547224
 11
130.1375265462
 21
135.542818519
  0
LINE
  5
27F
100
AcDbEntity
  8
0
100
AcDbLine
 62
7
  6
CONTINUOUS
 10
130.9704960402
 20
135.4586607015
 11
131.0294117194
 21
135.4853845552
  0
LINE
  5
280
100
AcDbEntity
  8
0
100
AcDbLine
 62
7
  6
CONTINUOUS
 10
132.7887515645
 20
135.0677791644
 11
132.6684343065
 21
135.0201921765
  0
LINE
  5
281
100
AcDbEntity
  8
0
100
AcDbLine
 62
7
  6
CONTINUOUS
 10
132.5258796703
 20
133.925648133
 11
132.6461969334
 21
133.9732351287
  0
LINE
  5
282
100
AcDbEntity
  8
0
100
AcDbLine
 62
7
  6
CONTINUOUS
 10
133.1055279838
 20
134.0757804543
 11
133.1662333621
 21
134.098142893
  0
LINE
  5
283
100
AcDbEntity
  8
0
100
AcDbLine
 62
7
  6
CONTINUOUS
 10
123.1738002232
 20
84.6883310746
 11
102.9738002232
 21
84.6883310746
  0
LINE
  5
284
100
AcDbEntity
  8
0
100
AcDbLine
 62
7
  6
CONTINUOUS
 10
131.9077748194
 20
85.2883310746
 11
123.7738002232
 21
85.2883310746
  0
LINE
  5
285
100
AcDbEntity
  8
0
100
AcDbLine
 62
7
  6
CONTINUOUS
 10
102.3738002232
 20
85.2883310746
 11
94.239825627
 21
85.2883310746
  0
LINE
  5
286
100
AcDbEntity
  8
0
100
AcDbLine
 62
7
  6
CONTINUOUS
 10
102.9738002232
 20
84.6883310746
 11
102.3738002232
 21
85.2883310746
  0
LINE
  5
287
100
AcDbEntity
  8
0
100
AcDbLine
 62
7
  6
CONTINUOUS
 10
92.8738002232
 20
94.7883310746
 11
92.2738002232
 21
95.3883310746
  0
LINE
  5
288
100
AcDbEntity
  8
0
100
AcDbLine
 62
7
  6
CONTINUOUS
 10
93.6601529072
 20
134.6871236743
 11
93.6472822598
 21
134.8742250326
  0
LINE
  5
289
100
AcDbEntity
  8
0
100
AcDbLine
 62
7
  6
CONTINUOUS
 10
94.7750276836
 20
135.539395241
 11
94.782533468
 21
135.4027834705
  0
LINE
  5
28A
100
AcDbEntity
  8
0
100
AcDbLine
 62
7
  6
CONTINUOUS
 10
94.9533782544
 20
135.3632299379
 11
94.9458726258
 21
135.4998418009
  0
LINE
  5
28B
100
AcDbEntity
  8
0
100
AcDbLine
 62
7
  6
CONTINUOUS
 10
95.7456505647
 20
135.2697215282
 11
95.7531563635
 21
135.1331097334
  0
LINE
  5
28C
100
AcDbEntity
  8
0
100
AcDbLine
 62
7
  6
CONTINUOUS
 10
95.924001313
 20
135.0935562811
 11
95.9164956771
 21
135.2301681563
  0
LINE
  5
28D
100
AcDbEntity
  8
0
100
AcDbLine
 62
7
  6
CONTINUOUS
 10
94.2488884757
 20
134.8269490934
 11
94.2422009039
 21
135.0143733401
  0
LINE
  5
28E
100
AcDbEntity
  8
0
100
AcDbLine
 62
7
  6
CONTINUOUS
 10
127.9433633294
 20
136.8342144963
 11
127.876386949
 21
136.7771294603
  0
LINE
  5
28F
100
AcDbEntity
  8
0
100
AcDbLine
 62
7
  6
CONTINUOUS
 10
129.4468198737
 20
136.0454557865
 11
129.3771162966
 21
135.9917346654
  0
LINE
  5
290
100
AcDbEntity
  8
0
100
AcDbLine
 62
7
  6
CONTINUOUS
 10
130.0603435065
 20
136.3802801153
 11
130.2022274077
 21
136.4844298181
  0
LINE
  5
291
100
AcDbEntity
  8
0
100
AcDbLine
 62
7
  6
CONTINUOUS
 10
130.19659424
 20
135.7237335529
 11
130.0547103661
 21
135.6195838991
  0
LINE
  5
292
100
AcDbEntity
  8
0
100
AcDbLine
 62
7
  6
CONTINUOUS
 10
129.3758294111
 20
135.8717424901
 11
129.4741586672
 21
135.940525741
  0
LINE
  5
293
100
AcDbEntity
  8
0
100
AcDbLine
 62
7
  6
CONTINUOUS
 10
131.1914702073
 20
135.8239121191
 11
131.2641967696
 21
135.8734641824
  0
LINE
  5
294
100
AcDbEntity
  8
0
100
AcDbLine
 62
7
  6
CONTINUOUS
 10
131.2060755679
 20
135.0354837963
 11
131.133348996
 21
134.985931717
  0
LINE
  5
295
100
AcDbEntity
  8
0
100
AcDbLine
 62
7
  6
CONTINUOUS
 10
131.2724997901
 20
135.9931756525
 11
131.1703157464
 21
135.9302614457
  0
LINE
  5
296
100
AcDbEntity
  8
0
100
AcDbLine
 62
7
  6
CONTINUOUS
 10
131.1250459706
 20
134.866220239
 11
131.2272300192
 21
134.9291344538
  0
LINE
  5
297
100
AcDbEntity
  8
0
100
AcDbLine
 62
7
  6
CONTINUOUS
 10
132.6601340374
 20
134.1247387091
 11
132.5850579113
 21
134.0788242766
  0
LINE
  5
298
100
AcDbEntity
  8
0
100
AcDbLine
 62
7
  6
CONTINUOUS
 10
133.3525143917
 20
134.4239699069
 11
133.4286564178
 21
134.4680941825
  0
LINE
  5
299
100
AcDbEntity
  8
0
100
AcDbLine
 62
7
  6
CONTINUOUS
 10
133.309664693
 20
133.63657138
 11
133.2335226562
 21
133.5924470892
  0
LINE
  5
29A
100
AcDbEntity
  8
0
100
AcDbLine
 62
7
  6
CONTINUOUS
 10
133.4456552264
 20
134.5868831413
 11
133.3391608526
 21
134.5315774042
  0
LINE
  5
29B
100
AcDbEntity
  8
0
100
AcDbLine
 62
7
  6
CONTINUOUS
 10
133.2165238422
 20
133.4736581228
 11
133.3230182214
 21
133.5289638676
  0
LINE
  5
29C
100
AcDbEntity
  8
0
100
AcDbLine
 62
7
  6
CONTINUOUS
 10
134.3761234519
 20
134.0451893413
 11
134.176500986
 21
133.9610943873
  0
LINE
  5
29D
100
AcDbEntity
  8
0
100
AcDbLine
 62
7
  6
CONTINUOUS
 10
134.0488754784
 20
133.7900058403
 11
134.248497989
 21
133.8741008541
  0
LINE
  5
29E
100
AcDbEntity
  8
RUNDUNGEN
100
AcDbLine
 62
7
  6
CONTINUOUS
 10
104.0738002232
 20
148.3556266676
 11
104.0738002232
 21
141.9158947001
  0
LINE
  5
29F
100
AcDbEntity
  8
RUNDUNGEN
100
AcDbLine
 62
7
  6
CONTINUOUS
 10
104.0738002232
 20
62.6210354816
 11
104.0738002232
 21
69.0606923381
  0
LINE
  5
2A0
100
AcDbEntity
  8
0
100
AcDbLine
 62
7
  6
CONTINUOUS
 10
127.953278668
 20
136.6823945051
 11
128.0315311935
 21
136.7636604673
  0
LINE
  5
2A1
100
AcDbEntity
  8
0
100
AcDbLine
 62
7
  6
CONTINUOUS
 10
131.1703157464
 20
135.9302614457
 11
131.0699673794
 21
135.8350528992
  0
LINE
  5
2A2
100
AcDbEntity
  8
0
100
AcDbLine
 62
7
  6
CONTINUOUS
 10
130.1194112276
 20
136.5611951981
 11
130.0354683517
 21
136.4858213856
  0
LINE
  5
2A3
100
AcDbEntity
  8
0
100
AcDbLine
 62
7
  6
CONTINUOUS
 10
130.1375265462
 20
135.542818519
 11
130.2214692484
 21
135.6181924499
  0
LINE
  5
2A4
100
AcDbEntity
  8
0
100
AcDbLine
 62
7
  6
CONTINUOUS
 10
133.3391608526
 20
134.5315774042
 11
133.2321454877
 21
134.4439293936
  0
LINE
  5
2A5
100
AcDbEntity
  8
0
100
AcDbLine
 62
7
  6
CONTINUOUS
 10
132.6461969334
 20
133.9732351287
 11
132.7361902202
 21
134.0412707492
  0
LINE
  5
2A6
100
AcDbEntity
  8
RUNDUNGEN
100
AcDbLine
 62
7
  6
CONTINUOUS
 10
145.6979671983
 20
134.7162075052
 11
140.1210041391
 21
131.4963463817
  0
LINE
  5
2A7
100
AcDbEntity
  8
RUNDUNGEN
100
AcDbLine
 62
7
  6
CONTINUOUS
 10
71.4496332481
 20
91.8489119122
 11
77.0265408418
 21
95.0687410126
  0
LINE
  5
2A8
100
AcDbEntity
  8
RUNDUNGEN
100
AcDbLine
 62
7
  6
CONTINUOUS
 10
71.4496332481
 20
119.1277502371
 11
77.0265973817
 21
115.9078884933
  0
LINE
  5
2A9
100
AcDbEntity
  8
RUNDUNGEN
100
AcDbLine
 62
7
  6
CONTINUOUS
 10
140.1210619317
 20
79.480282401
 11
145.6979671983
 21
76.2604546441
  0
LINE
  5
2AA
100
AcDbEntity
  8
0
100
AcDbLine
 62
7
  6
CONTINUOUS
 10
94.782533468
 20
135.4027834705
 11
94.8172623414
 21
135.2823480267
  0
LINE
  5
2AB
100
AcDbEntity
  8
RUNDUNGEN
100
AcDbLine
 62
7
  6
CONTINUOUS
 10
117.8611036529
 20
148.664643662
 11
115.3238002232
 21
140.8556266676
  0
LINE
  5
2AC
100
AcDbEntity
  8
0
100
AcDbLine
 62
7
  6
CONTINUOUS
 10
127.8115972122
 20
137.7199590966
 11
127.7499186791
 21
137.6309643054
  0
LINE
  5
2AD
100
AcDbEntity
  8
0
100
AcDbLine
 62
7
  6
CONTINUOUS
 10
129.9663683862
 20
136.2493971827
 11
130.0603435065
 21
136.3802801153
  0
LINE
  5
2AE
100
AcDbEntity
  8
0
100
AcDbLine
 62
7
  6
CONTINUOUS
 10
129.9804960253
 20
136.4248353692
 11
129.8995216657
 21
136.3172515324
  0
LINE
  5
2AF
100
AcDbEntity
  8
0
100
AcDbLine
 62
7
  6
CONTINUOUS
 10
130.2764417211
 20
135.679178299
 11
130.3574160989
 21
135.7867621684
  0
LINE
  5
2B0
100
AcDbEntity
  8
0
100
AcDbLine
 62
7
  6
CONTINUOUS
 10
131.0358786664
 20
135.6373905176
 11
131.1343909211
 21
135.7648934925
  0
LINE
  5
2B1
100
AcDbEntity
  8
0
100
AcDbLine
 62
7
  6
CONTINUOUS
 10
127.8380864642
 20
137.5604102308
 11
127.8884889392
 21
137.6252241583
  0
LINE
  5
2B2
100
AcDbEntity
  8
0
100
AcDbLine
 62
7
  6
CONTINUOUS
 10
129.5003495903
 20
136.1077117769
 11
129.4468198737
 21
136.0454557865
  0
LINE
  5
2B3
100
AcDbEntity
  8
0
100
AcDbLine
 62
7
  6
CONTINUOUS
 10
133.1837531185
 20
134.2492740641
 11
133.2912887052
 21
134.3692647105
  0
LINE
  5
2B4
100
AcDbEntity
  8
RUNDUNGEN
100
AcDbLine
 62
7
  6
CONTINUOUS
 10
83.5698237765
 20
85.8561261196
 11
78.0756683956
 21
79.7542483952
  0
LINE
  5
2B5
100
AcDbEntity
  8
0
100
AcDbLine
 62
7
  6
CONTINUOUS
 10
130.0354683517
 20
136.4858213856
 11
129.9804960253
 21
136.4248353692
  0
LINE
  5
2B6
100
AcDbEntity
  8
0
100
AcDbLine
 62
7
  6
CONTINUOUS
 10
130.2214692484
 20
135.6181924499
 11
130.2764417211
 21
135.679178299
  0
LINE
  5
2B7
100
AcDbEntity
  8
0
100
AcDbLine
 62
7
  6
CONTINUOUS
 10
129.4741586672
 20
135.940525741
 11
129.5687662775
 21
136.0414407145
  0
LINE
  5
2B8
100
AcDbEntity
  8
0
100
AcDbLine
 62
7
  6
CONTINUOUS
 10
132.6684343065
 20
135.0201921765
 11
132.593603368
 21
134.9419320289
  0
LINE
  5
2B9
100
AcDbEntity
  8
0
100
AcDbLine
 62
7
  6
CONTINUOUS
 10
131.1343909211
 20
135.7648934925
 11
131.1914702073
 21
135.8239121191
  0
LINE
  5
2BA
100
AcDbEntity
  8
0
100
AcDbLine
 62
7
  6
CONTINUOUS
 10
130.9134167733
 20
135.3996421068
 11
130.9704960402
 21
135.4586607015
  0
LINE
  5
2BB
100
AcDbEntity
  8
0
100
AcDbLine
 62
7
  6
CONTINUOUS
 10
131.2631548154
 20
135.094502359
 11
131.2060755679
 21
135.0354837963
  0
LINE
  5
2BC
100
AcDbEntity
  8
0
100
AcDbLine
 62
7
  6
CONTINUOUS
 10
131.2272300192
 20
134.9291344538
 11
131.3275783571
 21
135.0243429523
  0
LINE
  5
2BD
100
AcDbEntity
  8
0
100
AcDbLine
 62
7
  6
CONTINUOUS
 10
132.669659509
 20
134.858464007
 11
132.7295733391
 21
134.914603044
  0
LINE
  5
2BE
100
AcDbEntity
  8
0
100
AcDbLine
 62
7
  6
CONTINUOUS
 10
133.2912887052
 20
134.3692647105
 11
133.3525143917
 21
134.4239699069
  0
LINE
  5
2BF
100
AcDbEntity
  8
0
100
AcDbLine
 62
7
  6
CONTINUOUS
 10
133.0443023188
 20
134.0210752884
 11
133.1055279838
 21
134.0757804543
  0
LINE
  5
2C0
100
AcDbEntity
  8
0
100
AcDbLine
 62
7
  6
CONTINUOUS
 10
133.3708903364
 20
133.6912765155
 11
133.309664693
 21
133.63657138
  0
LINE
  5
2C1
100
AcDbEntity
  8
0
100
AcDbLine
 62
7
  6
CONTINUOUS
 10
133.3230182214
 20
133.5289638676
 11
133.4300335539
 21
133.6166118324
  0
LINE
  5
2C2
100
AcDbEntity
  8
0
100
AcDbLine
 62
7
  6
CONTINUOUS
 10
148.1658739292
 20
108.5791638723
 11
148.0609480857
 21
108.5524265873
  0
LINE
  5
2C3
100
AcDbEntity
  8
0
100
AcDbLine
 62
7
  6
CONTINUOUS
 10
147.6561775715
 20
108.5934388226
 11
147.5512517279
 21
108.5667015393
  0
LINE
  5
2C4
100
AcDbEntity
  8
0
100
AcDbLine
 62
7
  6
CONTINUOUS
 10
148.3401996442
 20
107.1941499482
 11
148.2346445123
 21
107.1700163541
  0
LINE
  5
2C5
100
AcDbEntity
  8
0
100
AcDbLine
 62
7
  6
CONTINUOUS
 10
147.7013013286
 20
107.6351300091
 11
147.8068564605
 21
107.6592636031
  0
LINE
  5
2C6
100
AcDbEntity
  8
RUNDUNGEN
100
AcDbLine
 62
7
  6
CONTINUOUS
 10
73.288364966
 20
88.0461011667
 11
81.3198237765
 21
89.7532404366
  0
LINE
  5
2C7
100
AcDbEntity
  8
0
100
AcDbLine
 62
7
  6
CONTINUOUS
 10
148.4102961178
 20
104.1528317339
 11
147.4121482575
 21
103.943554664
  0
LINE
  5
2C8
100
AcDbEntity
  8
0
100
AcDbLine
 62
7
  6
CONTINUOUS
 10
148.3135055421
 20
104.4554565015
 11
148.3939059239
 21
104.4721004741
  0
LINE
  5
2C9
100
AcDbEntity
  8
0
100
AcDbLine
 62
7
  6
CONTINUOUS
 10
147.81941077
 20
105.0874839355
 11
147.7390104544
 21
105.0708395429
  0
LINE
  5
2CA
100
AcDbEntity
  8
0
100
AcDbLine
 62
7
  6
CONTINUOUS
 10
147.5419617048
 20
103.8642070323
 11
148.674226667
 21
104.0854720764
  0
LINE
  5
2CB
100
AcDbEntity
  8
0
100
AcDbLine
 62
7
  6
CONTINUOUS
 10
148.2406834908
 20
107.060457665
 11
148.3728791048
 21
107.0860597076
  0
LINE
  5
2CC
100
AcDbEntity
  8
0
100
AcDbLine
 62
7
  6
CONTINUOUS
 10
147.8008174821
 20
107.7688222923
 11
147.6686219397
 21
107.743220306
  0
LINE
  5
2CD
100
AcDbEntity
  8
0
100
AcDbLine
 62
7
  6
CONTINUOUS
 10
148.3548301207
 20
103.1007737527
 11
147.3508910468
 21
102.9213241374
  0
LINE
  5
2CE
100
AcDbEntity
  8
0
100
AcDbLine
 62
7
  6
CONTINUOUS
 10
147.4782831375
 20
102.8381442467
 11
148.6166369381
 21
103.0255816742
  0
LINE
  5
2CF
100
AcDbEntity
  8
0
100
AcDbLine
 62
7
  6
CONTINUOUS
 10
148.1797547246
 20
104.4399050494
 11
148.3135055421
 21
104.4554565015
  0
LINE
  5
2D0
100
AcDbEntity
  8
0
100
AcDbLine
 62
7
  6
CONTINUOUS
 10
147.9531616206
 20
105.1030351776
 11
147.81941077
 21
105.0874839355
  0
LINE
  5
2D1
100
AcDbEntity
  8
0
100
AcDbLine
 62
7
  6
CONTINUOUS
 10
148.3153783385
 20
104.5468746809
 11
148.15495227
 21
104.5318696991
  0
LINE
  5
2D2
100
AcDbEntity
  8
RUNDUNGEN
100
AcDbLine
 62
7
  6
CONTINUOUS
 10
144.8277766699
 20
89.7532404366
 11
152.8592354805
 21
88.0461011667
  0
LINE
  5
2D3
100
AcDbEntity
  8
RUNDUNGEN
100
AcDbLine
 62
7
  6
CONTINUOUS
 10
78.0756683956
 20
131.222413754
 11
83.5698237765
 21
125.1205360296
  0
LINE
  5
2D4
100
AcDbEntity
  8
0
100
AcDbLine
 62
7
  6
CONTINUOUS
 10
93.4253064237
 20
134.9183130588
 11
93.467632116
 21
134.8003328876
  0
LINE
  5
2D5
100
AcDbEntity
  8
0
100
AcDbLine
 62
7
  6
CONTINUOUS
 10
93.6472822598
 20
134.8742250326
 11
93.6049565674
 21
134.9922052038
  0
LINE
  5
2D6
100
AcDbEntity
  8
0
100
AcDbLine
 62
7
  6
CONTINUOUS
 10
94.8172623414
 20
135.2823480267
 11
94.8726419211
 21
135.1271595748
  0
LINE
  5
2D7
100
AcDbEntity
  8
0
100
AcDbLine
 62
7
  6
CONTINUOUS
 10
95.0087579898
 20
135.2080415785
 11
94.9533782544
 21
135.3632299379
  0
LINE
  5
2D8
100
AcDbEntity
  8
0
100
AcDbLine
 62
7
  6
CONTINUOUS
 10
95.6902711408
 20
135.4249100727
 11
95.7456505647
 21
135.2697215282
  0
LINE
  5
2D9
100
AcDbEntity
  8
0
100
AcDbLine
 62
7
  6
CONTINUOUS
 10
95.9164956771
 20
135.2301681563
 11
95.826386898
 21
135.5057918913
  0
LINE
  5
2DA
100
AcDbEntity
  8
RUNDUNGEN
100
AcDbLine
 62
7
  6
CONTINUOUS
 10
115.3238002232
 20
70.1210354816
 11
117.8611036529
 21
62.3120184872
  0
LINE
  5
2DB
100
AcDbEntity
  8
RUNDUNGEN
100
AcDbLine
 62
7
  6
CONTINUOUS
 10
110.8238002232
 20
70.1210354816
 11
110.8238002232
 21
71.1210354816
  0
LINE
  5
2DC
100
AcDbEntity
  8
RUNDUNGEN
100
AcDbLine
 62
7
  6
CONTINUOUS
 10
110.8238002232
 20
139.8556266676
 11
110.8238002232
 21
140.8556266676
  0
LINE
  5
2DD
100
AcDbEntity
  8
02___PRT_ALL_AXES
100
AcDbLine
 62
7
  6
CENTER
 10
113.0738002232
 20
105.4883310746
 11
113.0738002232
 21
55.9766621492
  0
LINE
  5
2DE
100
AcDbEntity
  8
02___PRT_ALL_AXES
100
AcDbLine
 62
7
  6
CENTER
 10
113.0738002232
 20
105.4883310746
 11
113.0738002232
 21
155.0
  0
LINE
  5
2DF
100
AcDbEntity
  8
0
100
AcDbLine
 62
7
  6
CONTINUOUS
 10
127.0607129333
 20
138.2565742076
 11
126.5577875692
 21
137.1078435698
  0
LINE
  5
2E0
100
AcDbEntity
  8
0
100
AcDbLine
 62
7
  6
CONTINUOUS
 10
126.7225047378
 20
137.2104840645
 11
127.1612268641
 21
138.2125682382
  0
LINE
  5
2E1
100
AcDbEntity
  8
0
100
AcDbLine
 62
7
  6
CONTINUOUS
 10
127.1608711541
 20
136.8438077537
 11
127.2250743919
 21
136.9904542177
  0
LINE
  5
2E2
100
AcDbEntity
  8
0
100
AcDbLine
 62
7
  6
CONTINUOUS
 10
127.7499186791
 20
137.6309643054
 11
127.7048140987
 21
137.5342406005
  0
LINE
  5
2E3
100
AcDbEntity
  8
0
100
AcDbLine
 62
7
  6
CONTINUOUS
 10
127.8155341898
 20
137.5120484122
 11
127.8380864642
 21
137.5604102308
  0
LINE
  5
2E4
100
AcDbEntity
  8
0
100
AcDbLine
 62
7
  6
CONTINUOUS
 10
127.977191741
 20
136.9067572242
 11
127.9433633294
 21
136.8342144963
  0
LINE
  5
2E5
100
AcDbEntity
  8
0
100
AcDbLine
 62
7
  6
CONTINUOUS
 10
128.0315311935
 20
136.7636604673
 11
128.0879118795
 21
136.8845650137
  0
LINE
  5
2E6
100
AcDbEntity
  8
0
100
AcDbLine
 62
7
  6
CONTINUOUS
 10
129.409880671
 20
137.1509898509
 11
129.0861282043
 21
136.5374697035
  0
LINE
  5
2E7
100
AcDbEntity
  8
0
100
AcDbLine
 62
7
  6
CONTINUOUS
 10
129.2292568061
 20
136.612780296
 11
129.4284891067
 21
136.9903311814
  0
LINE
  5
2E8
100
AcDbEntity
  8
0
100
AcDbLine
 62
7
  6
CONTINUOUS
 10
129.5252536235
 20
136.1549056293
 11
129.5003495903
 21
136.1077117769
  0
LINE
  5
2E9
100
AcDbEntity
  8
0
100
AcDbLine
 62
7
  6
CONTINUOUS
 10
129.8975272929
 20
136.7428213476
 11
129.9597873759
 21
136.8608059786
  0
LINE
  5
2EA
100
AcDbEntity
  8
0
100
AcDbLine
 62
7
  6
CONTINUOUS
 10
129.5687662775
 20
136.0414407145
 11
129.6185743439
 21
136.1358284193
  0
LINE
  5
2EB
100
AcDbEntity
  8
0
100
AcDbLine
 62
7
  6
CONTINUOUS
 10
129.8995216657
 20
136.3172515324
 11
129.7825131748
 21
136.1075605879
  0
LINE
  5
2EC
100
AcDbEntity
  8
0
100
AcDbLine
 62
7
  6
CONTINUOUS
 10
129.8753617822
 20
136.0863042259
 11
129.9663683862
 21
136.2493971827
  0
LINE
  5
2ED
100
AcDbEntity
  8
0
100
AcDbLine
 62
7
  6
CONTINUOUS
 10
130.3815757998
 20
136.0177095769
 11
130.2905691957
 21
135.8546166201
  0
LINE
  5
2EE
100
AcDbEntity
  8
0
100
AcDbLine
 62
7
  6
CONTINUOUS
 10
130.3574160989
 20
135.7867621684
 11
130.4744245898
 21
135.9964531129
  0
LINE
  5
2EF
100
AcDbEntity
  8
0
100
AcDbLine
 62
7
  6
CONTINUOUS
 10
130.5320400535
 20
135.7774897969
 11
130.4649190319
 21
135.6622011612
  0
LINE
  5
2F0
100
AcDbEntity
  8
0
100
AcDbLine
 62
7
  6
CONTINUOUS
 10
130.6861769825
 20
135.5333848249
 11
130.753298004
 21
135.6486734606
  0
LINE
  5
2F1
100
AcDbEntity
  8
0
100
AcDbLine
 62
7
  6
CONTINUOUS
 10
130.9576445998
 20
135.6847214981
 11
130.8609684186
 21
135.5249240309
  0
LINE
  5
2F2
100
AcDbEntity
  8
0
100
AcDbLine
 62
7
  6
CONTINUOUS
 10
131.0082569003
 20
135.5917340984
 11
131.0358786664
 21
135.6373905176
  0
LINE
  5
2F3
100
AcDbEntity
  8
0
100
AcDbLine
 62
7
  6
CONTINUOUS
 10
130.8719841242
 20
135.331157478
 11
130.9134167733
 21
135.3996421068
  0
LINE
  5
2F4
100
AcDbEntity
  8
0
100
AcDbLine
 62
7
  6
CONTINUOUS
 10
131.3045874645
 20
135.1629869878
 11
131.2631548154
 21
135.094502359
  0
LINE
  5
2F5
100
AcDbEntity
  8
0
100
AcDbLine
 62
7
  6
CONTINUOUS
 10
131.3275783571
 20
135.0243429523
 11
131.3966327916
 21
135.1384840323
  0
LINE
  5
2F6
100
AcDbEntity
  8
0
100
AcDbLine
 62
7
  6
CONTINUOUS
 10
132.593603368
 20
134.9419320289
 11
132.5339347256
 21
134.8534472767
  0
LINE
  5
2F7
100
AcDbEntity
  8
0
100
AcDbLine
 62
7
  6
CONTINUOUS
 10
132.6398252087
 20
134.8142216619
 11
132.669659509
 21
134.858464007
  0
LINE
  5
2F8
100
AcDbEntity
  8
0
100
AcDbLine
 62
7
  6
CONTINUOUS
 10
132.7048854879
 20
134.1911022268
 11
132.6601340374
 21
134.1247387091
  0
LINE
  5
2F9
100
AcDbEntity
  8
0
100
AcDbLine
 62
7
  6
CONTINUOUS
 10
132.7361902202
 20
134.0412707492
 11
132.810775971
 21
134.1518766119
  0
LINE
  5
2FA
100
AcDbEntity
  8
0
100
AcDbLine
 62
7
  6
CONTINUOUS
 10
133.1091732532
 20
134.3021769103
 11
133.0011167186
 21
134.1498440514
  0
LINE
  5
2FB
100
AcDbEntity
  8
0
100
AcDbLine
 62
7
  6
CONTINUOUS
 10
133.1528798229
 20
134.2057503902
 11
133.1837531185
 21
134.2492740641
  0
LINE
  5
2FC
100
AcDbEntity
  8
0
100
AcDbLine
 62
7
  6
CONTINUOUS
 10
132.9979923755
 20
133.9557897775
 11
133.0443023188
 21
134.0210752884
  0
LINE
  5
2FD
100
AcDbEntity
  8
0
100
AcDbLine
 62
7
  6
CONTINUOUS
 10
133.4172002797
 20
133.7565620264
 11
133.3708903364
 21
133.6912765155
  0
LINE
  5
2FE
100
AcDbEntity
  8
0
100
AcDbLine
 62
7
  6
CONTINUOUS
 10
133.4300335539
 20
133.6166118324
 11
133.5072168145
 21
133.7254210477
  0
LINE
  5
2FF
100
AcDbEntity
  8
0
100
AcDbLine
 62
7
  6
CONTINUOUS
 10
130.2905691957
 20
135.8546166201
 11
130.19659424
 21
135.7237335529
  0
LINE
  5
300
100
AcDbEntity
  8
0
100
AcDbLine
 62
7
  6
CONTINUOUS
 10
133.4256118879
 20
133.354040952
 11
133.3467877128
 21
133.2464145356
  0
LINE
  5
301
100
AcDbEntity
  8
0
100
AcDbLine
 62
7
  6
CONTINUOUS
 10
133.4205562005
 20
133.1923874631
 11
133.4993803756
 21
133.3000138795
  0
LINE
  5
302
100
AcDbEntity
  8
0
100
AcDbLine
 62
7
  6
CONTINUOUS
 10
134.176500986
 20
133.9610943873
 11
134.0488754784
 21
133.7900058403
  0
LINE
  5
303
100
AcDbEntity
  8
0
100
AcDbLine
 62
7
  6
CONTINUOUS
 10
134.248497989
 20
133.8741008541
 11
133.6263237682
 21
133.0400443595
  0
LINE
  5
304
100
AcDbEntity
  8
0
100
AcDbLine
 62
7
  6
CONTINUOUS
 10
133.7142739542
 20
132.9744368872
 11
134.4640736378
 21
133.9795818689
  0
LINE
  5
305
100
AcDbEntity
  8
0
100
AcDbLine
 62
7
  6
CONTINUOUS
 10
131.0699673794
 20
135.8350528992
 11
130.9576445998
 21
135.6847214981
  0
LINE
  5
306
100
AcDbEntity
  8
0
100
AcDbLine
 62
7
  6
CONTINUOUS
 10
133.2321454877
 20
134.4439293936
 11
133.1091732532
 21
134.3021769103
  0
LINE
  5
307
100
AcDbEntity
  8
RUNDUNGEN
100
AcDbLine
 62
7
  6
CONTINUOUS
 10
81.3198237765
 20
89.7532404366
 11
82.1858491803
 21
90.2532404366
  0
LINE
  5
308
100
AcDbEntity
  8
RUNDUNGEN
100
AcDbLine
 62
7
  6
CONTINUOUS
 10
141.7117512661
 20
124.6205360296
 11
142.5777766699
 21
125.1205360296
  0
LINE
  5
309
100
AcDbEntity
  8
0
100
AcDbLine
 62
7
  6
CONTINUOUS
 10
147.8175379693
 20
104.9960655469
 11
147.9779640752
 21
105.011070528
  0
LINE
  5
30A
100
AcDbEntity
  8
0
100
AcDbLine
 62
7
  6
CONTINUOUS
 10
147.6569272356
 20
107.9147008825
 11
147.7899068891
 21
107.9253358655
  0
LINE
  5
30B
100
AcDbEntity
  8
0
100
AcDbLine
 62
7
  6
CONTINUOUS
 10
147.7545636838
 20
108.0325846469
 11
147.6747758917
 21
108.0262036571
  0
LINE
  5
30C
100
AcDbEntity
  8
0
100
AcDbLine
 62
7
  6
CONTINUOUS
 10
148.2012171345
 20
108.4719150909
 11
148.2544089959
 21
108.4761690841
  0
LINE
  5
30D
100
AcDbEntity
  8
0
100
AcDbLine
 62
7
  6
CONTINUOUS
 10
148.2722577264
 20
108.5876718647
 11
148.1658739292
 21
108.5791638723
  0
LINE
  5
30E
100
AcDbEntity
  8
0
100
AcDbLine
 62
7
  6
CONTINUOUS
 10
147.8410773401
 20
107.0384309966
 11
148.2406834908
 21
107.060457665
  0
LINE
  5
30F
100
AcDbEntity
  8
0
100
AcDbLine
 62
7
  6
CONTINUOUS
 10
148.2346445123
 20
107.1700163541
 11
147.8350383617
 21
107.1479896857
  0
LINE
  5
310
100
AcDbEntity
  8
0
100
AcDbLine
 62
7
  6
CONTINUOUS
 10
147.8068564605
 20
107.6592636031
 11
148.2064626111
 21
107.6812902716
  0
LINE
  5
311
100
AcDbEntity
  8
0
100
AcDbLine
 62
7
  6
CONTINUOUS
 10
148.2004236327
 20
107.7908489607
 11
147.8008174821
 21
107.7688222923
  0
LINE
  5
312
100
AcDbEntity
  8
0
100
AcDbLine
 62
7
  6
CONTINUOUS
 10
147.8215149427
 20
105.2612310331
 11
147.9815987929
 21
105.2618698112
  0
LINE
  5
313
100
AcDbEntity
  8
0
100
AcDbLine
 62
7
  6
CONTINUOUS
 10
147.4472562937
 20
105.4426140253
 11
147.8207852277
 21
105.4441045074
  0
LINE
  5
314
100
AcDbEntity
  8
0
100
AcDbLine
 62
7
  6
CONTINUOUS
 10
147.980869078
 20
105.4447432855
 11
148.7012463106
 21
105.4476177867
  0
LINE
  5
315
100
AcDbEntity
  8
0
100
AcDbLine
 62
7
  6
CONTINUOUS
 10
148.4873633976
 20
105.5564902092
 11
147.9804312488
 21
105.554467412
  0
LINE
  5
316
100
AcDbEntity
  8
0
100
AcDbLine
 62
7
  6
CONTINUOUS
 10
147.8203473986
 20
105.5538286339
 11
147.4468184646
 21
105.5523381518
  0
LINE
  5
317
100
AcDbEntity
  8
0
100
AcDbLine
 62
7
  6
CONTINUOUS
 10
147.9786799324
 20
105.9933639179
 11
147.8185960822
 21
105.9927251398
  0
LINE
  5
318
100
AcDbEntity
  8
02___PRT_ALL_AXES
100
AcDbLine
 62
7
  6
CENTER
 10
113.0738002232
 20
105.4883310746
 11
63.5621312978
 21
105.4883310746
  0
LINE
  5
319
100
AcDbEntity
  8
02___PRT_ALL_AXES
100
AcDbLine
 62
7
  6
CENTER
 10
113.0738002232
 20
105.4883310746
 11
162.5854691486
 21
105.4883310746
  0
LINE
  5
31A
100
AcDbEntity
  8
0
100
AcDbLine
 62
7
  6
CONTINUOUS
 10
147.9396774659
 20
104.4448232816
 11
148.1797547246
 21
104.4399050494
  0
LINE
  5
31B
100
AcDbEntity
  8
0
100
AcDbLine
 62
7
  6
CONTINUOUS
 10
148.15495227
 20
104.5318696991
 11
147.9682255133
 21
104.5356949907
  0
LINE
  5
31C
100
AcDbEntity
  8
0
100
AcDbLine
 62
7
  6
CONTINUOUS
 10
147.9779640752
 20
105.011070528
 11
148.1646908319
 21
105.0072452363
  0
LINE
  5
31D
100
AcDbEntity
  8
0
100
AcDbLine
 62
7
  6
CONTINUOUS
 10
148.1932388793
 20
105.0981169455
 11
147.9531616206
 21
105.1030351776
  0
LINE
  5
31E
100
AcDbEntity
  8
0
100
AcDbLine
 62
7
  6
CONTINUOUS
 10
147.3880474484
 20
103.4320724378
 11
148.6406576646
 21
103.3730500159
  0
LINE
  5
31F
100
AcDbEntity
  8
0
100
AcDbLine
 62
7
  6
CONTINUOUS
 10
148.3793093463
 20
103.4952113704
 11
147.3932119103
 21
103.5416758317
  0
LINE
  5
320
100
AcDbEntity
  8
0
100
AcDbLine
 62
7
  6
CONTINUOUS
 10
147.4241986818
 20
104.1992961952
 11
148.4102961178
 21
104.1528317339
  0
LINE
  5
321
100
AcDbEntity
  8
0
100
AcDbLine
 62
7
  6
CONTINUOUS
 10
148.6819733599
 20
104.2498771673
 11
147.4293631437
 21
104.3088995891
  0
LINE
  5
322
100
AcDbEntity
  8
0
100
AcDbLine
 62
7
  6
CONTINUOUS
 10
147.3115641866
 20
102.4107864371
 11
148.5618602549
 21
102.3144757853
  0
LINE
  5
323
100
AcDbEntity
  8
0
100
AcDbLine
 62
7
  6
CONTINUOUS
 10
148.3042670286
 20
102.4443683169
 11
147.3199913686
 21
102.520187343
  0
LINE
  5
324
100
AcDbEntity
  8
0
100
AcDbLine
 62
7
  6
CONTINUOUS
 10
147.3705544608
 20
103.1765927789
 11
148.3548301207
 21
103.1007737527
  0
LINE
  5
325
100
AcDbEntity
  8
0
100
AcDbLine
 62
7
  6
CONTINUOUS
 10
148.6292777111
 20
103.1896830331
 11
147.3789816428
 21
103.2859936849
  0
LINE
  5
326
100
AcDbEntity
  8
RUNDUNGEN
100
AcDbLine
 62
7
  6
CONTINUOUS
 10
142.5777766699
 20
85.8561261196
 11
141.7117512661
 21
86.3561261196
  0
LINE
  5
327
100
AcDbEntity
  8
RUNDUNGEN
100
AcDbLine
 62
7
  6
CONTINUOUS
 10
82.1858491803
 20
120.7234217126
 11
81.3198237765
 21
121.2234217126
  0
LINE
  5
328
100
AcDbEntity
  8
0
100
AcDbLine
 62
7
  6
CONTINUOUS
 10
92.2955260818
 20
134.8312863515
 11
93.368125945
 21
133.2629976238
  0
LINE
  5
329
100
AcDbEntity
  8
0
100
AcDbLine
 62
7
  6
CONTINUOUS
 10
93.5249548177
 20
133.3702576101
 11
93.0457080636
 21
134.0709823707
  0
LINE
  5
32A
100
AcDbEntity
  8
0
100
AcDbLine
 62
7
  6
CONTINUOUS
 10
92.9087804378
 20
134.2711894185
 11
92.5664613094
 21
134.7717071314
  0
LINE
  5
32B
100
AcDbEntity
  8
0
100
AcDbLine
 62
7
  6
CONTINUOUS
 10
93.3568425468
 20
135.0184166762
 11
93.4253064237
 21
134.9183130588
  0
LINE
  5
32C
100
AcDbEntity
  8
0
100
AcDbLine
 62
7
  6
CONTINUOUS
 10
93.6049565674
 20
134.9922052038
 11
93.5136714196
 21
135.1256766625
  0
LINE
  5
32D
100
AcDbEntity
  8
0
100
AcDbLine
 62
7
  6
CONTINUOUS
 10
93.8548298754
 20
135.1511641325
 11
94.5494664005
 21
134.0598690351
  0
LINE
  5
32E
100
AcDbEntity
  8
0
100
AcDbLine
 62
7
  6
CONTINUOUS
 10
94.6830363267
 20
134.1448896217
 11
94.2488884757
 21
134.8269490934
  0
LINE
  5
32F
100
AcDbEntity
  8
0
100
AcDbLine
 62
7
  6
CONTINUOUS
 10
94.1186441386
 20
135.0315669063
 11
93.9883998016
 21
135.2361847192
  0
LINE
  5
330
100
AcDbEntity
  8
0
100
AcDbLine
 62
7
  6
CONTINUOUS
 10
94.4442187405
 20
135.2867235171
 11
94.335681793
 21
135.4572383611
  0
LINE
  5
331
100
AcDbEntity
  8
0
100
AcDbLine
 62
7
  6
CONTINUOUS
 10
94.8726419211
 20
135.1271595748
 11
94.9552447745
 21
134.9881474934
  0
LINE
  5
332
100
AcDbEntity
  8
0
100
AcDbLine
 62
7
  6
CONTINUOUS
 10
95.0913608433
 20
135.0690294971
 11
95.0087579898
 21
135.2080415785
  0
LINE
  5
333
100
AcDbEntity
  8
0
100
AcDbLine
 62
7
  6
CONTINUOUS
 10
95.6076682874
 20
135.5639221541
 11
95.6902711408
 21
135.4249100727
  0
LINE
  5
334
100
AcDbEntity
  8
0
100
AcDbLine
 62
7
  6
CONTINUOUS
 10
95.826386898
 20
135.5057918913
 11
95.7437840446
 21
135.6448039727
  0
LINE
  5
335
100
AcDbEntity
  8
0
100
AcDbLine
 62
7
  6
CONTINUOUS
 10
95.407478148
 20
136.798230974
 11
96.3375156295
 21
135.1414176824
  0
LINE
  5
336
100
AcDbEntity
  8
0
100
AcDbLine
 62
7
  6
CONTINUOUS
 10
96.4755835091
 20
135.218920865
 11
95.5455460277
 21
136.8757341565
  0
LINE
  5
337
100
AcDbEntity
  8
0
100
AcDbLine
 62
7
  6
CONTINUOUS
 10
95.7872986208
 20
137.0095244169
 11
95.8841006333
 21
136.8320844231
  0
LINE
  5
338
100
AcDbEntity
  8
0
100
AcDbLine
 62
7
  6
CONTINUOUS
 10
96.0777047127
 20
136.4772043361
 11
96.6972376472
 21
135.3415882766
  0
LINE
  5
339
100
AcDbEntity
  8
0
100
AcDbLine
 62
7
  6
CONTINUOUS
 10
96.8362324316
 20
135.4174165866
 11
96.2166994971
 21
136.5530326462
  0
LINE
  5
33A
100
AcDbEntity
  8
0
100
AcDbLine
 62
7
  6
CONTINUOUS
 10
96.0230954177
 20
136.9079127332
 11
95.9262934052
 21
137.0853527269
  0
LINE
  5
33B
100
AcDbEntity
  8
0
100
AcDbLine
 62
7
  6
CONTINUOUS
 10
96.4645624268
 20
136.6893090315
 11
97.0580616361
 21
135.5398728304
  0
LINE
  5
33C
100
AcDbEntity
  8
0
100
AcDbLine
 62
7
  6
CONTINUOUS
 10
97.1987476275
 20
135.6125145522
 11
96.7721700563
 21
136.43867185
  0
LINE
  5
33D
100
AcDbEntity
  8
0
100
AcDbLine
 62
7
  6
CONTINUOUS
 10
96.6979826616
 20
136.5823513625
 11
96.6052484183
 21
136.7619507532
  0
LINE
  5
33E
100
AcDbEntity
  8
0
100
AcDbLine
 62
7
  6
CONTINUOUS
 10
97.3528277931
 20
136.5565029348
 11
97.7052179697
 21
135.8740251495
  0
LINE
  5
33F
100
AcDbEntity
  8
0
100
AcDbLine
 62
7
  6
CONTINUOUS
 10
97.8459042832
 20
135.9466670375
 11
97.4935141066
 21
136.6291448228
  0
LINE
  5
340
100
AcDbEntity
  8
0
100
AcDbLine
 62
7
  6
CONTINUOUS
 10
97.2582783012
 20
137.7756089209
 11
98.0729799543
 21
136.0591412642
  0
LINE
  5
341
100
AcDbEntity
  8
0
100
AcDbLine
 62
7
  6
CONTINUOUS
 10
98.2160187074
 20
136.1270329651
 11
98.0253438509
 21
136.5287594412
  0
LINE
  5
342
100
AcDbEntity
  8
0
100
AcDbLine
 62
7
  6
CONTINUOUS
 10
97.9213393969
 20
136.7478829457
 11
97.4013170544
 21
137.8435006218
  0
LINE
  5
343
100
AcDbEntity
  8
RUNDUNGEN
100
AcDbLine
 62
7
  6
CONTINUOUS
 10
115.3238002232
 20
140.8556266676
 11
115.3238002232
 21
139.8556266676
  0
LINE
  5
344
100
AcDbEntity
  8
RUNDUNGEN
100
AcDbLine
 62
7
  6
CONTINUOUS
 10
115.3238002232
 20
71.1210354816
 11
115.3238002232
 21
70.1210354816
  0
LINE
  5
345
100
AcDbEntity
  8
0
100
AcDbLine
 62
7
  6
CONTINUOUS
 10
129.7825131748
 20
136.1075605879
 11
129.7334780819
 21
135.9821544537
  0
LINE
  5
346
100
AcDbEntity
  8
0
100
AcDbLine
 62
7
  6
CONTINUOUS
 10
130.4744245898
 20
135.9964531129
 11
130.5234596646
 21
136.1218592144
  0
LINE
  5
347
100
AcDbEntity
  8
0
100
AcDbLine
 62
7
  6
CONTINUOUS
 10
129.813325563
 20
135.9375991998
 11
129.8753617822
 21
136.0863042259
  0
LINE
  5
348
100
AcDbEntity
  8
0
100
AcDbLine
 62
7
  6
CONTINUOUS
 10
130.4436121835
 20
136.1664144683
 11
130.3815757998
 21
136.0177095769
  0
LINE
  5
349
100
AcDbEntity
  8
0
100
AcDbLine
 62
7
  6
CONTINUOUS
 10
130.8609684186
 20
135.5249240309
 11
130.7799388164
 21
135.3556604656
  0
LINE
  5
34A
100
AcDbEntity
  8
0
100
AcDbLine
 62
7
  6
CONTINUOUS
 10
133.0011167186
 20
134.1498440514
 11
132.9079758624
 21
133.9869307866
  0
LINE
  5
34B
100
AcDbEntity
  8
RUNDUNGEN
100
AcDbLine
 62
7
  6
CONTINUOUS
 10
144.8277766699
 20
121.2234217126
 11
143.9617512661
 21
120.7234217126
  0
LINE
  5
34C
100
AcDbEntity
  8
RUNDUNGEN
100
AcDbLine
 62
7
  6
CONTINUOUS
 10
84.4358491803
 20
86.3561261196
 11
83.5698237765
 21
85.8561261196
  0
LINE
  5
34D
100
AcDbEntity
  8
0
100
AcDbLine
 62
7
  6
CONTINUOUS
 10
147.706868804
 20
107.0493485908
 11
147.8410773401
 21
107.0384309966
  0
LINE
  5
34E
100
AcDbEntity
  8
0
100
AcDbLine
 62
7
  6
CONTINUOUS
 10
148.3346322406
 20
107.7799314228
 11
148.2004236327
 21
107.7908489607
  0
LINE
  5
34F
100
AcDbEntity
  8
0
100
AcDbLine
 62
7
  6
CONTINUOUS
 10
147.9682255133
 20
104.5356949907
 11
147.8085485328
 21
104.5572576162
  0
LINE
  5
350
100
AcDbEntity
  8
0
100
AcDbLine
 62
7
  6
CONTINUOUS
 10
148.1646908319
 20
105.0072452363
 11
148.324367775
 21
104.9856826116
  0
LINE
  5
351
100
AcDbEntity
  8
0
100
AcDbLine
 62
7
  6
CONTINUOUS
 10
147.8066757364
 20
104.4658394368
 11
147.9396774659
 21
104.4448232816
  0
LINE
  5
352
100
AcDbEntity
  8
0
100
AcDbLine
 62
7
  6
CONTINUOUS
 10
148.3262405757
 20
105.0771010003
 11
148.1932388793
 21
105.0981169455
  0
LINE
  5
353
100
AcDbEntity
  8
RUNDUNGEN
100
AcDbLine
 62
7
  6
CONTINUOUS
 10
83.5698237765
 20
125.1205360296
 11
84.4358491803
 21
124.6205360296
  0
LINE
  5
354
100
AcDbEntity
  8
RUNDUNGEN
100
AcDbLine
 62
7
  6
CONTINUOUS
 10
143.9617512661
 20
90.2532404366
 11
144.8277766699
 21
89.7532404366
  0
LINE
  5
355
100
AcDbEntity
  8
RUNDUNGEN
100
AcDbLine
 62
7
  6
CONTINUOUS
 10
122.0738002232
 20
62.6210354816
 11
122.0738002232
 21
69.0607583488
  0
LINE
  5
356
100
AcDbEntity
  8
RUNDUNGEN
100
AcDbLine
 62
7
  6
CONTINUOUS
 10
122.0738002232
 20
141.9159698112
 11
122.0738002232
 21
148.3556266676
  0
LINE
  5
357
100
AcDbEntity
  8
0
100
AcDbLine
 62
7
  6
CONTINUOUS
 10
127.5230350499
 20
136.9713451566
 11
127.5402894296
 21
137.0516167525
  0
LINE
  5
358
100
AcDbEntity
  8
0
100
AcDbLine
 62
7
  6
CONTINUOUS
 10
127.7982798101
 20
137.4317768163
 11
127.8155341898
 21
137.5120484122
  0
LINE
  5
359
100
AcDbEntity
  8
0
100
AcDbLine
 62
7
  6
CONTINUOUS
 10
128.26371267
 20
137.3913698609
 11
128.2809670497
 21
137.4716414568
  0
LINE
  5
35A
100
AcDbEntity
  8
0
100
AcDbLine
 62
7
  6
CONTINUOUS
 10
129.6185743439
 20
136.1358284193
 11
129.6484869259
 21
136.2708827574
  0
LINE
  5
35B
100
AcDbEntity
  8
0
100
AcDbLine
 62
7
  6
CONTINUOUS
 10
129.546436024
 20
136.2342312292
 11
129.5252536235
 21
136.1549056293
  0
LINE
  5
35C
100
AcDbEntity
  8
0
100
AcDbLine
 62
7
  6
CONTINUOUS
 10
127.4408454757
 20
137.0979898501
 11
127.4123149114
 21
136.993537367
  0
LINE
  5
35D
100
AcDbEntity
  8
0
100
AcDbLine
 62
7
  6
CONTINUOUS
 10
127.7048140987
 20
137.5342406005
 11
127.6762835344
 21
137.4297881175
  0
LINE
  5
35E
100
AcDbEntity
  8
0
100
AcDbLine
 62
7
  6
CONTINUOUS
 10
130.7799388164
 20
135.3556604656
 11
130.7421783048
 21
135.222586836
  0
LINE
  5
35F
100
AcDbEntity
  8
0
100
AcDbLine
 62
7
  6
CONTINUOUS
 10
131.3966327916
 20
135.1384840323
 11
131.4343932936
 21
135.2715576458
  0
LINE
  5
360
100
AcDbEntity
  8
0
100
AcDbLine
 62
7
  6
CONTINUOUS
 10
129.7334780819
 20
135.9821544537
 11
129.7104447113
 21
135.9033464419
  0
LINE
  5
361
100
AcDbEntity
  8
0
100
AcDbLine
 62
7
  6
CONTINUOUS
 10
130.5234596646
 20
136.1218592144
 11
130.5464928889
 21
136.2006673936
  0
LINE
  5
362
100
AcDbEntity
  8
RUNDUNGEN
100
AcDbLine
 62
7
  6
CONTINUOUS
 10
108.2864967935
 20
62.3120184872
 11
110.8238002232
 21
70.1210354816
  0
LINE
  5
363
100
AcDbEntity
  8
0
100
AcDbLine
 62
7
  6
CONTINUOUS
 10
130.8461980736
 20
135.2532067831
 11
130.8719841242
 21
135.331157478
  0
LINE
  5
364
100
AcDbEntity
  8
0
100
AcDbLine
 62
7
  6
CONTINUOUS
 10
131.3303735345
 20
135.2409377147
 11
131.3045874645
 21
135.1629869878
  0
LINE
  5
365
100
AcDbEntity
  8
0
100
AcDbLine
 62
7
  6
CONTINUOUS
 10
131.6139348117
 20
135.5683244346
 11
131.6397208623
 21
135.6462751295
  0
LINE
  5
366
100
AcDbEntity
  8
0
100
AcDbLine
 62
7
  6
CONTINUOUS
 10
132.9079758624
 20
133.9869307866
 11
132.8606246953
 21
133.8569603512
  0
LINE
  5
367
100
AcDbEntity
  8
0
100
AcDbLine
 62
7
  6
CONTINUOUS
 10
133.5072168145
 20
133.7254210477
 11
133.5545679708
 21
133.855391468
  0
LINE
  5
368
100
AcDbEntity
  8
0
100
AcDbLine
 62
7
  6
CONTINUOUS
 10
132.2664064054
 20
134.3258835135
 11
132.295995518
 21
134.4024715737
  0
LINE
  5
369
100
AcDbEntity
  8
0
100
AcDbLine
 62
7
  6
CONTINUOUS
 10
132.610236096
 20
134.7376336017
 11
132.6398252087
 21
134.8142216619
  0
LINE
  5
36A
100
AcDbEntity
  8
0
100
AcDbLine
 62
7
  6
CONTINUOUS
 10
133.0636323705
 20
134.6249735495
 11
133.0932214832
 21
134.7015616097
  0
LINE
  5
36B
100
AcDbEntity
  8
0
100
AcDbLine
 62
7
  6
CONTINUOUS
 10
132.966598132
 20
133.879923891
 11
132.9979923755
 21
133.9557897775
  0
LINE
  5
36C
100
AcDbEntity
  8
0
100
AcDbLine
 62
7
  6
CONTINUOUS
 10
133.4485945448
 20
133.8324279433
 11
133.4172002797
 21
133.7565620264
  0
LINE
  5
36D
100
AcDbEntity
  8
0
100
AcDbLine
 62
7
  6
CONTINUOUS
 10
133.7552444353
 20
134.1382954096
 11
133.7866386788
 21
134.2141612961
  0
LINE
  5
36E
100
AcDbEntity
  8
0
100
AcDbLine
 62
7
  6
CONTINUOUS
 10
132.2050221851
 20
134.4638183611
 11
132.1605159223
 21
134.3651091283
  0
LINE
  5
36F
100
AcDbEntity
  8
0
100
AcDbLine
 62
7
  6
CONTINUOUS
 10
132.5339347256
 20
134.8534472767
 11
132.4894284628
 21
134.754738044
  0
LINE
  5
370
100
AcDbEntity
  8
RUNDUNGEN
100
AcDbLine
 62
7
  6
CONTINUOUS
 10
142.5777766699
 20
125.1205360296
 11
148.0719320508
 21
131.222413754
  0
LINE
  5
371
100
AcDbEntity
  8
RUNDUNGEN
100
AcDbLine
 62
7
  6
CONTINUOUS
 10
80.4496332481
 20
76.2604546441
 11
86.0265963087
 21
79.4803157684
  0
LINE
  5
372
100
AcDbEntity
  8
RUNDUNGEN
100
AcDbLine
 62
7
  6
CONTINUOUS
 10
149.1210596061
 20
115.9079211374
 11
154.6979671983
 21
119.1277502371
  0
LINE
  5
373
100
AcDbEntity
  8
0
100
AcDbLine
 62
7
  6
CONTINUOUS
 10
147.5865949329
 20
108.4594527628
 11
147.6649248462
 21
108.4840630446
  0
LINE
  5
374
100
AcDbEntity
  8
0
100
AcDbLine
 62
7
  6
CONTINUOUS
 10
148.1228872212
 20
108.4473048091
 11
148.2012171345
 21
108.4719150909
  0
LINE
  5
375
100
AcDbEntity
  8
0
100
AcDbLine
 62
7
  6
CONTINUOUS
 10
148.3174519773
 20
108.0225636958
 11
148.3957818916
 21
108.0471739646
  0
LINE
  5
376
100
AcDbEntity
  8
RUNDUNGEN
100
AcDbLine
 62
7
  6
CONTINUOUS
 10
152.8592354805
 20
122.9305609826
 11
144.8277766699
 21
121.2234217126
  0
LINE
  5
377
100
AcDbEntity
  8
0
100
AcDbLine
 62
7
  6
CONTINUOUS
 10
148.3800993285
 20
108.5779505527
 11
148.2722577264
 21
108.5876718647
  0
LINE
  5
378
100
AcDbEntity
  8
0
100
AcDbLine
 62
7
  6
CONTINUOUS
 10
147.8350383617
 20
107.1479896857
 11
147.7274702331
 21
107.1603757243
  0
LINE
  5
379
100
AcDbEntity
  8
0
100
AcDbLine
 62
7
  6
CONTINUOUS
 10
148.2064626111
 20
107.6812902716
 11
148.3140307397
 21
107.6689042329
  0
LINE
  5
37A
100
AcDbEntity
  8
0
100
AcDbLine
 62
7
  6
CONTINUOUS
 10
148.2544089959
 20
108.4761690841
 11
148.3356547412
 21
108.4643207879
  0
LINE
  5
37B
100
AcDbEntity
  8
RUNDUNGEN
100
AcDbLine
 62
7
  6
CONTINUOUS
 10
81.3198237765
 20
121.2234217126
 11
73.288364966
 21
122.9305609826
  0
LINE
  5
37C
100
AcDbEntity
  8
0
100
AcDbLine
 62
7
  6
CONTINUOUS
 10
147.7270245377
 20
104.4857622323
 11
147.8066757364
 21
104.4658394368
  0
LINE
  5
37D
100
AcDbEntity
  8
0
100
AcDbLine
 62
7
  6
CONTINUOUS
 10
148.4058918406
 20
105.0571777848
 11
148.3262405757
 21
105.0771010003
  0
LINE
  5
37E
100
AcDbEntity
  8
0
100
AcDbLine
 62
7
  6
CONTINUOUS
 10
148.6484043574
 20
103.5374551068
 11
147.5419617048
 21
103.8642070323
  0
LINE
  5
37F
100
AcDbEntity
  8
0
100
AcDbLine
 62
7
  6
CONTINUOUS
 10
147.4052623148
 20
103.7974169448
 11
148.3793093463
 21
103.4952113704
  0
LINE
  5
380
100
AcDbEntity
  8
0
100
AcDbLine
 62
7
  6
CONTINUOUS
 10
148.5745010279
 20
102.4785771443
 11
147.4782831375
 21
102.8381442467
  0
LINE
  5
381
100
AcDbEntity
  8
0
100
AcDbLine
 62
7
  6
CONTINUOUS
 10
147.3396548148
 20
102.7754564019
 11
148.3042670286
 21
102.4443683169
  0
LINE
  5
382
100
AcDbEntity
  8
RUNDUNGEN
100
AcDbLine
 62
7
  6
CONTINUOUS
 10
154.6979671983
 20
91.8489119122
 11
149.1210030648
 21
95.0687736559
  0
LINE
  5
383
100
AcDbEntity
  8
RUNDUNGEN
100
AcDbLine
 62
7
  6
CONTINUOUS
 10
86.0265676205
 20
131.496362944
 11
80.4496332481
 21
134.7162075052
  0
LINE
  5
384
100
AcDbEntity
  8
0
100
AcDbLine
 62
7
  6
CONTINUOUS
 10
93.2622406134
 20
135.1006435527
 11
93.3568425468
 21
135.0184166762
  0
LINE
  5
385
100
AcDbEntity
  8
0
100
AcDbLine
 62
7
  6
CONTINUOUS
 10
93.5136714196
 20
135.1256766625
 11
93.4190694862
 21
135.207903539
  0
LINE
  5
386
100
AcDbEntity
  8
0
100
AcDbLine
 62
7
  6
CONTINUOUS
 10
95.6339581309
 20
135.7676396787
 11
95.5447829234
 21
135.8557223765
  0
LINE
  5
387
100
AcDbEntity
  8
0
100
AcDbLine
 62
7
  6
CONTINUOUS
 10
94.9552447745
 20
134.9881474934
 11
95.1542462217
 21
134.7772292503
  0
LINE
  5
388
100
AcDbEntity
  8
RUNDUNGEN
100
AcDbLine
 62
7
  6
CONTINUOUS
 10
148.0719320508
 20
79.7542483952
 11
142.5777766699
 21
85.8561261196
  0
LINE
  5
389
100
AcDbEntity
  8
0
100
AcDbLine
 62
7
  6
CONTINUOUS
 10
97.3726427293
 20
136.7942159024
 11
97.2888647274
 21
136.8874470595
  0
LINE
  5
38A
100
AcDbEntity
  8
0
100
AcDbLine
 62
7
  6
CONTINUOUS
 10
95.2011867569
 20
134.9461937911
 11
95.0913608433
 21
135.0690294971
  0
LINE
  5
38B
100
AcDbEntity
  8
0
100
AcDbLine
 62
7
  6
CONTINUOUS
 10
95.4978420622
 20
135.686757675
 11
95.6076682874
 21
135.5639221541
  0
LINE
  5
38C
100
AcDbEntity
  8
0
100
AcDbLine
 62
7
  6
CONTINUOUS
 10
95.7437840446
 20
135.6448039727
 11
95.6339581309
 21
135.7676396787
  0
LINE
  5
38D
100
AcDbEntity
  8
0
100
AcDbLine
 62
7
  6
CONTINUOUS
 10
97.2319564159
 20
136.7215740144
 11
97.3528277931
 21
136.5565029348
  0
LINE
  5
38E
100
AcDbEntity
  8
0
100
AcDbLine
 62
7
  6
CONTINUOUS
 10
97.4935141066
 20
136.6291448228
 11
97.3726427293
 21
136.7942159024
  0
LINE
  5
38F
100
AcDbEntity
  8
RUNDUNGEN
100
AcDbLine
 62
7
  6
CONTINUOUS
 10
110.8238002232
 20
140.8556266676
 11
108.2864967935
 21
148.664643662
  0
LINE
  5
390
100
AcDbEntity
  8
0
100
AcDbLine
 62
7
  6
CONTINUOUS
 10
127.9778721995
 20
136.9947576777
 11
127.977191741
 21
136.9067572242
  0
LINE
  5
391
100
AcDbEntity
  8
0
100
AcDbLine
 62
7
  6
CONTINUOUS
 10
127.4123149114
 20
136.993537367
 11
127.4056562142
 21
136.8494462353
  0
LINE
  5
392
100
AcDbEntity
  8
0
100
AcDbLine
 62
7
  6
CONTINUOUS
 10
129.5514445553
 20
136.3220916818
 11
129.546436024
 21
136.2342312292
  0
LINE
  5
393
100
AcDbEntity
  8
0
100
AcDbLine
 62
7
  6
CONTINUOUS
 10
129.7991980975
 20
135.762160895
 11
129.813325563
 21
135.9375991998
  0
LINE
  5
394
100
AcDbEntity
  8
0
100
AcDbLine
 62
7
  6
CONTINUOUS
 10
130.4577396763
 20
136.3418528221
 11
130.4436121835
 21
136.1664144683
  0
LINE
  5
395
100
AcDbEntity
  8
0
100
AcDbLine
 62
7
  6
CONTINUOUS
 10
128.0879118795
 20
136.8845650137
 11
128.0998684752
 21
136.9967463766
  0
LINE
  5
396
100
AcDbEntity
  8
0
100
AcDbLine
 62
7
  6
CONTINUOUS
 10
128.1702469112
 20
137.4938336672
 11
128.1642686687
 21
137.4377429806
  0
LINE
  5
397
100
AcDbEntity
  8
0
100
AcDbLine
 62
7
  6
CONTINUOUS
 10
130.836059328
 20
135.1657895728
 11
130.8461980736
 21
135.2532067831
  0
LINE
  5
398
100
AcDbEntity
  8
0
100
AcDbLine
 62
7
  6
CONTINUOUS
 10
131.5458398391
 20
135.7030723927
 11
131.5357007451
 21
135.6156554151
  0
LINE
  5
399
100
AcDbEntity
  8
0
100
AcDbLine
 62
7
  6
CONTINUOUS
 10
128.9740600375
 20
136.3250973347
 11
128.9565992958
 21
136.213640037
  0
LINE
  5
39A
100
AcDbEntity
  8
0
100
AcDbLine
 62
7
  6
CONTINUOUS
 10
129.0536416663
 20
136.1624311126
 11
129.071102408
 21
136.2738884103
  0
LINE
  5
39B
100
AcDbEntity
  8
0
100
AcDbLine
 62
7
  6
CONTINUOUS
 10
132.7193122836
 20
134.2779148605
 11
132.7048854879
 21
134.1911022268
  0
LINE
  5
39C
100
AcDbEntity
  8
0
100
AcDbLine
 62
7
  6
CONTINUOUS
 10
129.7104447113
 20
135.9033464419
 11
129.6903800305
 21
135.7923282875
  0
LINE
  5
39D
100
AcDbEntity
  8
0
100
AcDbLine
 62
7
  6
CONTINUOUS
 10
130.5464928889
 20
136.2006673936
 11
130.5665577433
 21
136.3116854297
  0
LINE
  5
39E
100
AcDbEntity
  8
0
100
AcDbLine
 62
7
  6
CONTINUOUS
 10
132.9501202605
 20
133.7934771295
 11
132.966598132
 21
133.879923891
  0
LINE
  5
39F
100
AcDbEntity
  8
0
100
AcDbLine
 62
7
  6
CONTINUOUS
 10
133.6971431135
 20
134.2776445177
 11
133.6806652528
 21
134.1911977714
  0
LINE
  5
3A0
100
AcDbEntity
  8
0
100
AcDbLine
 62
7
  6
CONTINUOUS
 10
132.1605159223
 20
134.3651091283
 11
132.1314168222
 21
134.2238298487
  0
LINE
  5
3A1
100
AcDbEntity
  8
0
100
AcDbLine
 62
7
  6
CONTINUOUS
 10
132.810775971
 20
134.1518766119
 11
132.8401199169
 21
134.2608104182
  0
LINE
  5
3A2
100
AcDbEntity
  8
0
100
AcDbLine
 62
7
  6
CONTINUOUS
 10
132.9873310001
 20
134.7407872245
 11
132.9726590376
 21
134.6863203368
  0
LINE
  5
3A3
100
AcDbEntity
  8
0
100
AcDbLine
 62
7
  6
CONTINUOUS
 10
147.8314357576
 20
108.0754241976
 11
147.7545636838
 21
108.0325846469
  0
LINE
  5
3A4
100
AcDbEntity
  8
0
100
AcDbLine
 62
7
  6
CONTINUOUS
 10
147.6233930968
 20
107.5942051476
 11
147.7013013286
 21
107.6351300091
  0
LINE
  5
3A5
100
AcDbEntity
  8
0
100
AcDbLine
 62
7
  6
CONTINUOUS
 10
148.4181079506
 20
107.2350748138
 11
148.3401996442
 21
107.1941499482
  0
LINE
  5
3A6
100
AcDbEntity
  8
0
100
AcDbLine
 62
7
  6
CONTINUOUS
 10
147.5512517279
 20
108.5667015393
 11
147.422645684
 21
108.5013786633
  0
LINE
  5
3A7
100
AcDbEntity
  8
0
100
AcDbLine
 62
7
  6
CONTINUOUS
 10
147.7899068891
 20
107.9253358655
 11
147.8933748936
 21
107.9703024129
  0
LINE
  5
3A8
100
AcDbEntity
  8
0
100
AcDbLine
 62
7
  6
CONTINUOUS
 10
148.3604386863
 20
108.154422746
 11
148.3087047027
 21
108.1319394738
  0
LINE
  5
3A9
100
AcDbEntity
  8
0
100
AcDbLine
 62
7
  6
CONTINUOUS
 10
147.6559882026
 20
104.9262095741
 11
147.8175379693
 21
104.9960655469
  0
LINE
  5
3AA
100
AcDbEntity
  8
0
100
AcDbLine
 62
7
  6
CONTINUOUS
 10
148.4769281613
 20
104.6167306526
 11
148.3153783385
 21
104.5468746809
  0
LINE
  5
3AB
100
AcDbEntity
  8
0
100
AcDbLine
 62
7
  6
CONTINUOUS
 10
147.6686219397
 20
107.743220306
 11
147.5640732846
 21
107.7008269469
  0
LINE
  5
3AC
100
AcDbEntity
  8
0
100
AcDbLine
 62
7
  6
CONTINUOUS
 10
148.3728791048
 20
107.0860597076
 11
148.4774277442
 21
107.1284530135
  0
LINE
  5
3AD
100
AcDbEntity
  8
0
100
AcDbLine
 62
7
  6
CONTINUOUS
 10
147.7390104544
 20
105.0708395429
 11
147.6315603107
 21
105.036458027
  0
LINE
  5
3AE
100
AcDbEntity
  8
0
100
AcDbLine
 62
7
  6
CONTINUOUS
 10
148.3939059239
 20
104.4721004741
 11
148.5013560532
 21
104.5064821997
  0
LINE
  5
3AF
100
AcDbEntity
  8
0
100
AcDbLine
 62
7
  6
CONTINUOUS
 10
147.5476277388
 20
107.9426514524
 11
147.6569272356
 21
107.9147008825
  0
LINE
  5
3B0
100
AcDbEntity
  8
0
100
AcDbLine
 62
7
  6
CONTINUOUS
 10
147.5982941642
 20
107.0799943403
 11
147.706868804
 21
107.0493485908
  0
LINE
  5
3B1
100
AcDbEntity
  8
0
100
AcDbLine
 62
7
  6
CONTINUOUS
 10
148.4432068646
 20
107.7492856201
 11
148.3346322406
 21
107.7799314228
  0
LINE
  5
3B2
100
AcDbEntity
  8
0
100
AcDbLine
 62
7
  6
CONTINUOUS
 10
147.6747758917
 20
108.0262036571
 11
147.5920723442
 21
108.0562812251
  0
LINE
  5
3B3
100
AcDbEntity
  8
0
100
AcDbLine
 62
7
  6
CONTINUOUS
 10
147.6210726406
 20
104.5245157202
 11
147.7270245377
 21
104.4857622323
  0
LINE
  5
3B4
100
AcDbEntity
  8
0
100
AcDbLine
 62
7
  6
CONTINUOUS
 10
148.5118437233
 20
105.0184245065
 11
148.4058918406
 21
105.0571777848
  0
LINE
  5
3B5
100
AcDbEntity
  8
0
100
AcDbLine
 62
7
  6
CONTINUOUS
 10
147.7274702331
 20
107.1603757243
 11
147.6455360196
 21
107.1924899193
  0
LINE
  5
3B6
100
AcDbEntity
  8
0
100
AcDbLine
 62
7
  6
CONTINUOUS
 10
148.3140307397
 20
107.6689042329
 11
148.3959650279
 21
107.6367900421
  0
LINE
  5
3B7
100
AcDbEntity
  8
0
100
AcDbLine
 62
7
  6
CONTINUOUS
 10
147.8085485328
 20
104.5572576162
 11
147.6499952506
 21
104.6336712326
  0
LINE
  5
3B8
100
AcDbEntity
  8
0
100
AcDbLine
 62
7
  6
CONTINUOUS
 10
148.324367775
 20
104.9856826116
 11
148.4829211132
 21
104.9092689941
  0
LINE
  5
3B9
100
AcDbEntity
  8
0
100
AcDbLine
 62
7
  6
CONTINUOUS
 10
129.6903800305
 20
135.7923282875
 11
129.6992857574
 21
135.6956981047
  0
LINE
  5
3BA
100
AcDbEntity
  8
0
100
AcDbLine
 62
7
  6
CONTINUOUS
 10
128.2809670497
 20
137.4716414568
 11
128.2763495978
 21
137.5915516538
  0
LINE
  5
3BB
100
AcDbEntity
  8
0
100
AcDbLine
 62
7
  6
CONTINUOUS
 10
132.2671416109
 20
134.2288465867
 11
132.2664064054
 21
134.3258835135
  0
LINE
  5
3BC
100
AcDbEntity
  8
0
100
AcDbLine
 62
7
  6
CONTINUOUS
 10
132.4894284628
 20
134.754738044
 11
132.4904085194
 21
134.6253556516
  0
LINE
  5
3BD
100
AcDbEntity
  8
0
100
AcDbLine
 62
7
  6
CONTINUOUS
 10
128.9565992958
 20
136.213640037
 11
128.9553124103
 21
136.0936478617
  0
LINE
  5
3BE
100
AcDbEntity
  8
0
100
AcDbLine
 62
7
  6
CONTINUOUS
 10
129.6484869259
 20
136.2708827574
 11
129.649773807
 21
136.3908749244
  0
LINE
  5
3BF
100
AcDbEntity
  8
0
100
AcDbLine
 62
7
  6
CONTINUOUS
 10
130.7421783048
 20
135.222586836
 11
130.7338752794
 21
135.102875358
  0
LINE
  5
3C0
100
AcDbEntity
  8
0
100
AcDbLine
 62
7
  6
CONTINUOUS
 10
131.6397208623
 20
135.6462751295
 11
131.6480238829
 21
135.7659865995
  0
LINE
  5
3C1
100
AcDbEntity
  8
0
100
AcDbLine
 62
7
  6
CONTINUOUS
 10
133.0932214832
 20
134.7015616097
 11
133.1074034174
 21
134.8207196935
  0
LINE
  5
3C2
100
AcDbEntity
  8
0
100
AcDbLine
 62
7
  6
CONTINUOUS
 10
132.8606246953
 20
133.8569603512
 11
132.8436258813
 21
133.7381713848
  0
LINE
  5
3C3
100
AcDbEntity
  8
0
100
AcDbLine
 62
7
  6
CONTINUOUS
 10
133.7866386788
 20
134.2141612961
 11
133.8036374873
 21
134.3329502548
  0
LINE
  5
3C4
100
AcDbEntity
  8
0
100
AcDbLine
 62
7
  6
CONTINUOUS
 10
147.5111807595
 20
108.3983838824
 11
147.5865949329
 21
108.4594527628
  0
LINE
  5
3C5
100
AcDbEntity
  8
0
100
AcDbLine
 62
7
  6
CONTINUOUS
 10
148.0609480857
 20
108.5524265873
 11
147.9603958795
 21
108.4710014133
  0
LINE
  5
3C6
100
AcDbEntity
  8
0
100
AcDbLine
 62
7
  6
CONTINUOUS
 10
147.5640732846
 20
107.7008269469
 11
147.4615376326
 21
107.6219140077
  0
LINE
  5
3C7
100
AcDbEntity
  8
0
100
AcDbLine
 62
7
  6
CONTINUOUS
 10
147.7163987746
 20
107.3612332863
 11
147.5882291983
 21
107.2625921903
  0
LINE
  5
3C8
100
AcDbEntity
  8
0
100
AcDbLine
 62
7
  6
CONTINUOUS
 10
147.4600596266
 20
107.1639510946
 11
147.4087918035
 21
107.1244945728
  0
LINE
  5
3C9
100
AcDbEntity
  8
0
100
AcDbLine
 62
7
  6
CONTINUOUS
 10
147.6455360196
 20
107.1924899193
 11
147.722437753
 21
107.2516745971
  0
LINE
  5
3CA
100
AcDbEntity
  8
0
100
AcDbLine
 62
7
  6
CONTINUOUS
 10
147.4148307819
 20
107.0149358837
 11
147.5430003525
 21
107.1135770841
  0
LINE
  5
3CB
100
AcDbEntity
  8
0
100
AcDbLine
 62
7
  6
CONTINUOUS
 10
147.6315603107
 20
105.036458027
 11
147.5504108689
 21
104.9832464465
  0
LINE
  5
3CC
100
AcDbEntity
  8
0
100
AcDbLine
 62
7
  6
CONTINUOUS
 10
148.3957818916
 20
108.0471739646
 11
148.4977919771
 21
108.11036984
  0
LINE
  5
3CD
100
AcDbEntity
  8
0
100
AcDbLine
 62
7
  6
CONTINUOUS
 10
93.4190694862
 20
135.207903539
 11
93.249369966
 21
135.2877449111
  0
LINE
  5
3CE
100
AcDbEntity
  8
0
100
AcDbLine
 62
7
  6
CONTINUOUS
 10
147.4354124876
 20
108.0070606853
 11
147.5476277388
 21
107.9426514524
  0
LINE
  5
3CF
100
AcDbEntity
  8
0
100
AcDbLine
 62
7
  6
CONTINUOUS
 10
148.7008084814
 20
105.5573419132
 11
147.9786799324
 21
105.9933639179
  0
LINE
  5
3D0
100
AcDbEntity
  8
0
100
AcDbLine
 62
7
  6
CONTINUOUS
 10
147.5430003525
 20
107.1135770841
 11
147.5982941642
 21
107.0799943403
  0
LINE
  5
3D1
100
AcDbEntity
  8
0
100
AcDbLine
 62
7
  6
CONTINUOUS
 10
147.9791907327
 20
105.8653525068
 11
148.4873633976
 21
105.5564902092
  0
LINE
  5
3D2
100
AcDbEntity
  8
0
100
AcDbLine
 62
7
  6
CONTINUOUS
 10
95.1542462217
 20
134.7772292503
 11
95.2706446814
 21
134.7053229596
  0
LINE
  5
3D3
100
AcDbEntity
  8
0
100
AcDbLine
 62
7
  6
CONTINUOUS
 10
95.3175853796
 20
134.8742875807
 11
95.2011867569
 21
134.9461937911
  0
LINE
  5
3D4
100
AcDbEntity
  8
0
100
AcDbLine
 62
7
  6
CONTINUOUS
 10
95.3814436097
 20
135.7586639536
 11
95.4978420622
 21
135.686757675
  0
LINE
  5
3D5
100
AcDbEntity
  8
0
100
AcDbLine
 62
7
  6
CONTINUOUS
 10
95.5447829234
 20
135.8557223765
 11
95.4283843152
 21
135.9276285625
  0
LINE
  5
3D6
100
AcDbEntity
  8
0
100
AcDbLine
 62
7
  6
CONTINUOUS
 10
98.873998085
 20
136.4393353172
 11
98.1155336847
 21
136.9295511039
  0
LINE
  5
3D7
100
AcDbEntity
  8
0
100
AcDbLine
 62
7
  6
CONTINUOUS
 10
98.0817125531
 20
136.7792542178
 11
98.7023513193
 21
136.3578651519
  0
LINE
  5
3D8
100
AcDbEntity
  8
0
100
AcDbLine
 62
7
  6
CONTINUOUS
 10
147.5421705579
 20
104.5810061224
 11
147.6210726406
 21
104.5245157202
  0
LINE
  5
3D9
100
AcDbEntity
  8
0
100
AcDbLine
 62
7
  6
CONTINUOUS
 10
127.538928631
 20
136.8756158519
 11
127.5230350499
 21
136.9713451566
  0
LINE
  5
3DA
100
AcDbEntity
  8
0
100
AcDbLine
 62
7
  6
CONTINUOUS
 10
127.6762835344
 20
137.4297881175
 11
127.6974750181
 21
137.3021490524
  0
LINE
  5
3DB
100
AcDbEntity
  8
0
100
AcDbLine
 62
7
  6
CONTINUOUS
 10
130.5665577433
 20
136.3116854297
 11
130.5576520118
 21
136.4083156043
  0
LINE
  5
3DC
100
AcDbEntity
  8
0
100
AcDbLine
 62
7
  6
CONTINUOUS
 10
131.3267013874
 20
135.3055266994
 11
131.3303735345
 21
135.2409377147
  0
LINE
  5
3DD
100
AcDbEntity
  8
0
100
AcDbLine
 62
7
  6
CONTINUOUS
 10
131.4343932936
 20
135.2715576458
 11
131.4288854311
 21
135.3684409062
  0
LINE
  5
3DE
100
AcDbEntity
  8
0
100
AcDbLine
 62
7
  6
CONTINUOUS
 10
132.8401199169
 20
134.2608104182
 11
132.8391398603
 21
134.3901928106
  0
LINE
  5
3DF
100
AcDbEntity
  8
0
100
AcDbLine
 62
7
  6
CONTINUOUS
 10
132.9868409718
 20
134.8054784207
 11
132.9873310001
 21
134.7407872245
  0
LINE
  5
3E0
100
AcDbEntity
  8
0
100
AcDbLine
 62
7
  6
CONTINUOUS
 10
133.2738002232
 20
124.3223056708
 11
133.2738002232
 21
116.1883310746
  0
LINE
  5
3E1
100
AcDbEntity
  8
0
100
AcDbLine
 62
7
  6
CONTINUOUS
 10
133.2738002232
 20
94.7883310746
 11
133.2738002232
 21
86.6543564784
  0
LINE
  5
3E2
100
AcDbEntity
  8
0
100
AcDbLine
 62
7
  6
CONTINUOUS
 10
133.8738002232
 20
115.5883310746
 11
133.8738002232
 21
95.3883310746
  0
LINE
  5
3E3
100
AcDbEntity
  8
0
100
AcDbLine
 62
7
  6
CONTINUOUS
 10
133.4496357577
 20
133.8971128526
 11
133.4485945448
 21
133.8324279433
  0
LINE
  5
3E4
100
AcDbEntity
  8
0
100
AcDbLine
 62
7
  6
CONTINUOUS
 10
133.5545679708
 20
133.855391468
 11
133.5561301315
 21
133.9524185897
  0
LINE
  5
3E5
100
AcDbEntity
  8
0
100
AcDbLine
 62
7
  6
CONTINUOUS
 10
148.4977919771
 20
108.11036984
 11
148.5717482541
 21
108.1896679978
  0
LINE
  5
3E6
100
AcDbEntity
  8
0
100
AcDbLine
 62
7
  6
CONTINUOUS
 10
133.8738002232
 20
95.3883310746
 11
133.2738002232
 21
94.7883310746
  0
LINE
  5
3E7
100
AcDbEntity
  8
0
100
AcDbLine
 62
7
  6
CONTINUOUS
 10
123.7738002232
 20
85.2883310746
 11
123.1738002232
 21
84.6883310746
  0
LINE
  5
3E8
100
AcDbEntity
  8
0
100
AcDbLine
 62
7
  6
CONTINUOUS
 10
147.8933748936
 20
107.9703024129
 11
147.9939270972
 21
108.0517276194
  0
LINE
  5
3E9
100
AcDbEntity
  8
0
100
AcDbLine
 62
7
  6
CONTINUOUS
 10
148.4107147881
 20
108.1951353492
 11
148.3604386863
 21
108.154422746
  0
LINE
  5
3EA
100
AcDbEntity
  8
0
100
AcDbLine
 62
7
  6
CONTINUOUS
 10
148.4774277442
 20
107.1284530135
 11
148.5799633869
 21
107.2073659521
  0
LINE
  5
3EB
100
AcDbEntity
  8
0
100
AcDbLine
 62
7
  6
CONTINUOUS
 10
148.5013560532
 20
104.5064821997
 11
148.5825054856
 21
104.5596937803
  0
LINE
  5
3EC
100
AcDbEntity
  8
0
100
AcDbLine
 62
7
  6
CONTINUOUS
 10
94.239825627
 20
125.6883310746
 11
102.3738002232
 21
125.6883310746
  0
LINE
  5
3ED
100
AcDbEntity
  8
0
100
AcDbLine
 62
7
  6
CONTINUOUS
 10
123.7738002232
 20
125.6883310746
 11
131.9077748194
 21
125.6883310746
  0
LINE
  5
3EE
100
AcDbEntity
  8
0
100
AcDbLine
 62
7
  6
CONTINUOUS
 10
102.9738002232
 20
126.2883310746
 11
123.1738002232
 21
126.2883310746
  0
LINE
  5
3EF
100
AcDbEntity
  8
0
100
AcDbLine
 62
7
  6
CONTINUOUS
 10
93.1643217556
 20
135.1316258895
 11
93.2622406134
 21
135.1006435527
  0
LINE
  5
3F0
100
AcDbEntity
  8
0
100
AcDbLine
 62
7
  6
CONTINUOUS
 10
95.2706446814
 20
134.7053229596
 11
95.3663924313
 21
134.6681696831
  0
LINE
  5
3F1
100
AcDbEntity
  8
0
100
AcDbLine
 62
7
  6
CONTINUOUS
 10
95.4133331259
 20
134.8371343103
 11
95.3175853796
 21
134.8742875807
  0
LINE
  5
3F2
100
AcDbEntity
  8
0
100
AcDbLine
 62
7
  6
CONTINUOUS
 10
95.2856958634
 20
135.795817224
 11
95.3814436097
 21
135.7586639536
  0
LINE
  5
3F3
100
AcDbEntity
  8
0
100
AcDbLine
 62
7
  6
CONTINUOUS
 10
95.4283843152
 20
135.9276285625
 11
95.3326364131
 21
135.9647817404
  0
LINE
  5
3F4
100
AcDbEntity
  8
0
100
AcDbLine
 62
7
  6
CONTINUOUS
 10
97.1385881287
 20
136.7643569822
 11
97.2319564159
 21
136.7215740144
  0
LINE
  5
3F5
100
AcDbEntity
  8
0
100
AcDbLine
 62
7
  6
CONTINUOUS
 10
97.2888647274
 20
136.8874470595
 11
97.1954967623
 21
136.9302301935
  0
LINE
  5
3F6
100
AcDbEntity
  8
0
100
AcDbLine
 62
7
  6
CONTINUOUS
 10
148.4923145678
 20
108.5135413516
 11
148.3800993285
 21
108.5779505527
  0
LINE
  5
3F7
100
AcDbEntity
  8
0
100
AcDbLine
 62
7
  6
CONTINUOUS
 10
148.5537944823
 20
107.6821202369
 11
148.4432068646
 21
107.7492856201
  0
LINE
  5
3F8
100
AcDbEntity
  8
0
100
AcDbLine
 62
7
  6
CONTINUOUS
 10
148.5907457967
 20
104.9619341045
 11
148.5118437233
 21
105.0184245065
  0
LINE
  5
3F9
100
AcDbEntity
  8
0
100
AcDbLine
 62
7
  6
CONTINUOUS
 10
123.1738002232
 20
126.2883310746
 11
123.7738002232
 21
125.6883310746
  0
LINE
  5
3FA
100
AcDbEntity
  8
0
100
AcDbLine
 62
7
  6
CONTINUOUS
 10
133.2738002232
 20
116.1883310746
 11
133.8738002232
 21
115.5883310746
  0
LINE
  5
3FB
100
AcDbEntity
  8
0
100
AcDbLine
 62
7
  6
CONTINUOUS
 10
128.2763495978
 20
137.5915516538
 11
128.2438820717
 21
137.6950097653
  0
LINE
  5
3FC
100
AcDbEntity
  8
0
100
AcDbLine
 62
7
  6
CONTINUOUS
 10
128.0998684752
 20
136.9967463766
 11
128.0786769915
 21
137.1243854416
  0
LINE
  5
3FD
100
AcDbEntity
  8
0
100
AcDbLine
 62
7
  6
CONTINUOUS
 10
128.1596512168
 20
137.5576531776
 11
128.1702469112
 21
137.4938336672
  0
LINE
  5
3FE
100
AcDbEntity
  8
0
100
AcDbLine
 62
7
  6
CONTINUOUS
 10
133.1074034174
 20
134.8207196935
 11
133.0915058636
 21
134.9279811474
  0
LINE
  5
3FF
100
AcDbEntity
  8
0
100
AcDbLine
 62
7
  6
CONTINUOUS
 10
147.9603958795
 20
108.4710014133
 11
147.9130355342
 21
108.3938302391
  0
LINE
  5
400
100
AcDbEntity
  8
0
100
AcDbLine
 62
7
  6
CONTINUOUS
 10
147.9939270972
 20
108.0517276194
 11
148.0412874436
 21
108.1288987806
  0
LINE
  5
401
100
AcDbEntity
  8
0
100
AcDbLine
 62
7
  6
CONTINUOUS
 10
147.4615376326
 20
107.6219140077
 11
147.4122827923
 21
107.5459380621
  0
LINE
  5
402
100
AcDbEntity
  8
0
100
AcDbLine
 62
7
  6
CONTINUOUS
 10
148.5799633869
 20
107.2073659521
 11
148.6292182145
 21
107.2833420019
  0
LINE
  5
403
100
AcDbEntity
  8
0
100
AcDbLine
 62
7
  6
CONTINUOUS
 10
147.422645684
 20
108.5013786633
 11
147.3501472803
 21
108.4038511934
  0
LINE
  5
404
100
AcDbEntity
  8
0
100
AcDbLine
 62
7
  6
CONTINUOUS
 10
148.0740689982
 20
108.3883629138
 11
148.1228872212
 21
108.4473048091
  0
LINE
  5
405
100
AcDbEntity
  8
0
100
AcDbLine
 62
7
  6
CONTINUOUS
 10
147.8802539817
 20
108.1343660799
 11
147.8314357576
 21
108.0754241976
  0
LINE
  5
406
100
AcDbEntity
  8
0
100
AcDbLine
 62
7
  6
CONTINUOUS
 10
147.5731317522
 20
107.5364889132
 11
147.6233930968
 21
107.5942051476
  0
LINE
  5
407
100
AcDbEntity
  8
0
100
AcDbLine
 62
7
  6
CONTINUOUS
 10
148.4683692766
 20
107.2927910472
 11
148.4181079506
 21
107.2350748138
  0
LINE
  5
408
100
AcDbEntity
  8
0
100
AcDbLine
 62
7
  6
CONTINUOUS
 10
147.5504108689
 20
104.9832464465
 11
147.4685123126
 21
104.893467678
  0
LINE
  5
409
100
AcDbEntity
  8
0
100
AcDbLine
 62
7
  6
CONTINUOUS
 10
148.5825054856
 20
104.5596937803
 11
148.6644040349
 21
104.649472549
  0
LINE
  5
40A
100
AcDbEntity
  8
0
100
AcDbLine
 62
7
  6
CONTINUOUS
 10
147.6015140211
 20
104.8724515232
 11
147.6559882026
 21
104.9262095741
  0
LINE
  5
40B
100
AcDbEntity
  8
0
100
AcDbLine
 62
7
  6
CONTINUOUS
 10
148.5314023428
 20
104.6704887035
 11
148.4769281613
 21
104.6167306526
  0
LINE
  5
40C
100
AcDbEntity
  8
0
100
AcDbLine
 62
7
  6
CONTINUOUS
 10
130.0547103661
 20
135.6195838991
 11
129.9807999174
 21
135.5997191045
  0
LINE
  5
40D
100
AcDbEntity
  8
0
100
AcDbLine
 62
7
  6
CONTINUOUS
 10
130.2022274077
 20
136.4844298181
 11
130.2761376736
 21
136.5042947146
  0
LINE
  5
40E
100
AcDbEntity
  8
0
100
AcDbLine
 62
7
  6
CONTINUOUS
 10
129.2576046542
 20
135.8436258415
 11
129.3758294111
 21
135.8717424901
  0
LINE
  5
40F
100
AcDbEntity
  8
0
100
AcDbLine
 62
7
  6
CONTINUOUS
 10
129.3474815598
 20
136.6408969384
 11
129.2292568061
 21
136.612780296
  0
LINE
  5
410
100
AcDbEntity
  8
0
100
AcDbLine
 62
7
  6
CONTINUOUS
 10
131.133348996
 20
134.985931717
 11
131.0587867183
 21
134.9686739294
  0
LINE
  5
411
100
AcDbEntity
  8
0
100
AcDbLine
 62
7
  6
CONTINUOUS
 10
131.0294117194
 20
135.4853845552
 11
131.103973997
 21
135.5026423428
  0
LINE
  5
412
100
AcDbEntity
  8
0
100
AcDbLine
 62
7
  6
CONTINUOUS
 10
131.1573814556
 20
135.6262496736
 11
131.0082569003
 21
135.5917340984
  0
LINE
  5
413
100
AcDbEntity
  8
0
100
AcDbLine
 62
7
  6
CONTINUOUS
 10
131.2641967696
 20
135.8734641824
 11
131.3387590472
 21
135.89072197
  0
LINE
  5
414
100
AcDbEntity
  8
0
100
AcDbLine
 62
7
  6
CONTINUOUS
 10
129.9317648347
 20
135.4743129887
 11
130.0506151496
 21
135.4996547224
  0
LINE
  5
415
100
AcDbEntity
  8
0
100
AcDbLine
 62
7
  6
CONTINUOUS
 10
130.3251731139
 20
136.6297006122
 11
130.2063226197
 21
136.6043589865
  0
LINE
  5
416
100
AcDbEntity
  8
0
100
AcDbLine
 62
7
  6
CONTINUOUS
 10
127.7530297731
 20
136.5991398903
 11
127.8418780829
 21
136.6165862873
  0
LINE
  5
417
100
AcDbEntity
  8
0
100
AcDbLine
 62
7
  6
CONTINUOUS
 10
128.0118460055
 20
137.8032137408
 11
127.9229977935
 21
137.7857673059
  0
LINE
  5
418
100
AcDbEntity
  8
0
100
AcDbLine
 62
7
  6
CONTINUOUS
 10
132.5850579113
 20
134.0788242766
 11
132.509736934
 21
134.0652553097
  0
LINE
  5
419
100
AcDbEntity
  8
0
100
AcDbLine
 62
7
  6
CONTINUOUS
 10
132.7295733391
 20
134.914603044
 11
132.8048943059
 21
134.9281719954
  0
LINE
  5
41A
100
AcDbEntity
  8
0
100
AcDbLine
 62
7
  6
CONTINUOUS
 10
131.0053792513
 20
134.8450665847
 11
131.1250459706
 21
134.866220239
  0
LINE
  5
41B
100
AcDbEntity
  8
0
100
AcDbLine
 62
7
  6
CONTINUOUS
 10
131.3921665058
 20
136.0143293008
 11
131.2724997901
 21
135.9931756525
  0
LINE
  5
41C
100
AcDbEntity
  8
0
100
AcDbLine
 62
7
  6
CONTINUOUS
 10
133.2335226562
 20
133.5924470892
 11
133.157901578
 21
133.580665026
  0
LINE
  5
41D
100
AcDbEntity
  8
0
100
AcDbLine
 62
7
  6
CONTINUOUS
 10
133.1662333621
 20
134.098142893
 11
133.2418544403
 21
134.1099249561
  0
LINE
  5
41E
100
AcDbEntity
  8
0
100
AcDbLine
 62
7
  6
CONTINUOUS
 10
133.3041219793
 20
134.2293145165
 11
133.1528798229
 21
134.2057503902
  0
LINE
  5
41F
100
AcDbEntity
  8
0
100
AcDbLine
 62
7
  6
CONTINUOUS
 10
133.4286564178
 20
134.4680941825
 11
133.504277496
 21
134.4798762457
  0
LINE
  5
420
100
AcDbEntity
  8
0
100
AcDbLine
 62
7
  6
CONTINUOUS
 10
133.0956347123
 20
133.461274968
 11
133.2165238422
 21
133.4736581228
  0
LINE
  5
421
100
AcDbEntity
  8
0
100
AcDbLine
 62
7
  6
CONTINUOUS
 10
133.566545035
 20
134.5992658061
 11
133.4456552264
 21
134.5868831413
  0
LINE
  5
422
100
AcDbEntity
  8
0
100
AcDbLine
 62
7
  6
CONTINUOUS
 10
132.4353963617
 20
133.9223037183
 11
132.5258796703
 21
133.925648133
  0
LINE
  5
423
100
AcDbEntity
  8
0
100
AcDbLine
 62
7
  6
CONTINUOUS
 10
132.8792348691
 20
135.0711235732
 11
132.7887515645
 21
135.0677791644
  0
LINE
  5
424
100
AcDbEntity
  8
0
100
AcDbLine
 62
7
  6
CONTINUOUS
 10
95.3663924313
 20
134.6681696831
 11
95.441489629
 21
134.6657695104
  0
LINE
  5
425
100
AcDbEntity
  8
0
100
AcDbLine
 62
7
  6
CONTINUOUS
 10
93.249369966
 20
135.2877449111
 11
93.0763535961
 21
135.3163417945
  0
LINE
  5
426
100
AcDbEntity
  8
0
100
AcDbLine
 62
7
  6
CONTINUOUS
 10
97.1954967623
 20
136.9302301935
 11
97.0739913413
 21
136.9584848503
  0
LINE
  5
427
100
AcDbEntity
  8
0
100
AcDbLine
 62
7
  6
CONTINUOUS
 10
147.5920723442
 20
108.0562812251
 11
147.5345068269
 21
108.1067151194
  0
LINE
  5
428
100
AcDbEntity
  8
0
100
AcDbLine
 62
7
  6
CONTINUOUS
 10
148.3356547412
 20
108.4643207879
 11
148.3932202409
 21
108.4138868791
  0
LINE
  5
429
100
AcDbEntity
  8
0
100
AcDbLine
 62
7
  6
CONTINUOUS
 10
148.3959650279
 20
107.6367900421
 11
148.4522653322
 21
107.5849475864
  0
LINE
  5
42A
100
AcDbEntity
  8
0
100
AcDbLine
 62
7
  6
CONTINUOUS
 10
147.6499952506
 20
104.6336712326
 11
147.5977684283
 21
104.6896151644
  0
LINE
  5
42B
100
AcDbEntity
  8
0
100
AcDbLine
 62
7
  6
CONTINUOUS
 10
148.4829211132
 20
104.9092689941
 11
148.5351479356
 21
104.8533250623
  0
LINE
  5
42C
100
AcDbEntity
  8
0
100
AcDbLine
 62
7
  6
CONTINUOUS
 10
147.3763891042
 20
108.0757238595
 11
147.4354124876
 21
108.0070606853
  0
LINE
  5
42D
100
AcDbEntity
  8
0
100
AcDbLine
 62
7
  6
CONTINUOUS
 10
148.5513379453
 20
108.4448781639
 11
148.4923145678
 21
108.5135413516
  0
LINE
  5
42E
100
AcDbEntity
  8
0
100
AcDbLine
 62
7
  6
CONTINUOUS
 10
147.4640175944
 20
104.6740637126
 11
147.5421705579
 21
104.5810061224
  0
LINE
  5
42F
100
AcDbEntity
  8
0
100
AcDbLine
 62
7
  6
CONTINUOUS
 10
148.6688987532
 20
104.8688765144
 11
148.5907457967
 21
104.9619341045
  0
LINE
  5
430
100
AcDbEntity
  8
0
100
AcDbLine
 62
7
  6
CONTINUOUS
 10
148.6111012792
 20
107.6120180693
 11
148.5537944823
 21
107.6821202369
  0
LINE
  5
431
100
AcDbEntity
  8
0
100
AcDbLine
 62
7
  6
CONTINUOUS
 10
127.6974750181
 20
137.3021490524
 11
127.7412186814
 21
137.2228718502
  0
LINE
  5
432
100
AcDbEntity
  8
0
100
AcDbLine
 62
7
  6
CONTINUOUS
 10
128.0786769915
 20
137.1243854416
 11
128.0349332334
 21
137.2036626881
  0
LINE
  5
433
100
AcDbEntity
  8
0
100
AcDbLine
 62
7
  6
CONTINUOUS
 10
127.4056562142
 20
136.8494462353
 11
127.4546977692
 21
136.7382592494
  0
LINE
  5
434
100
AcDbEntity
  8
0
100
AcDbLine
 62
7
  6
CONTINUOUS
 10
128.9553124103
 20
136.0936478617
 11
128.998825061
 21
135.9801829407
  0
LINE
  5
435
100
AcDbEntity
  8
0
100
AcDbLine
 62
7
  6
CONTINUOUS
 10
129.649773807
 20
136.3908749244
 11
129.606261153
 21
136.5043398392
  0
LINE
  5
436
100
AcDbEntity
  8
0
100
AcDbLine
 62
7
  6
CONTINUOUS
 10
127.8254495363
 20
137.3602284379
 11
127.7982798101
 21
137.4317768163
  0
LINE
  5
437
100
AcDbEntity
  8
0
100
AcDbLine
 62
7
  6
CONTINUOUS
 10
127.9507024732
 20
137.0663060562
 11
127.9778721995
 21
136.9947576777
  0
LINE
  5
438
100
AcDbEntity
  8
0
100
AcDbLine
 62
7
  6
CONTINUOUS
 10
132.4904085194
 20
134.6253556516
 11
132.5212232233
 21
134.5402153702
  0
LINE
  5
439
100
AcDbEntity
  8
0
100
AcDbLine
 62
7
  6
CONTINUOUS
 10
132.8391398603
 20
134.3901928106
 11
132.8083251563
 21
134.475333092
  0
LINE
  5
43A
100
AcDbEntity
  8
0
100
AcDbLine
 62
7
  6
CONTINUOUS
 10
129.6992857574
 20
135.6956981047
 11
129.7401305876
 21
135.5812457612
  0
LINE
  5
43B
100
AcDbEntity
  8
0
100
AcDbLine
 62
7
  6
CONTINUOUS
 10
130.5576520118
 20
136.4083156043
 11
130.516807361
 21
136.5227678397
  0
LINE
  5
43C
100
AcDbEntity
  8
0
100
AcDbLine
 62
7
  6
CONTINUOUS
 10
129.0772588184
 20
136.089632798
 11
129.0536416663
 21
136.1624311126
  0
LINE
  5
43D
100
AcDbEntity
  8
0
100
AcDbLine
 62
7
  6
CONTINUOUS
 10
129.5278274032
 20
136.3948899964
 11
129.5514445553
 21
136.3220916818
  0
LINE
  5
43E
100
AcDbEntity
  8
0
100
AcDbLine
 62
7
  6
CONTINUOUS
 10
130.7338752794
 20
135.102875358
 11
130.7706766933
 21
134.9870597427
  0
LINE
  5
43F
100
AcDbEntity
  8
0
100
AcDbLine
 62
7
  6
CONTINUOUS
 10
131.4288854311
 20
135.3684409062
 11
131.3920840136
 21
135.4842565155
  0
LINE
  5
440
100
AcDbEntity
  8
0
100
AcDbLine
 62
7
  6
CONTINUOUS
 10
131.6480238829
 20
135.7659865995
 11
131.6112221072
 21
135.8818024255
  0
LINE
  5
441
100
AcDbEntity
  8
0
100
AcDbLine
 62
7
  6
CONTINUOUS
 10
129.8211045897
 20
135.6888298162
 11
129.7991980975
 21
135.762160895
  0
LINE
  5
442
100
AcDbEntity
  8
0
100
AcDbLine
 62
7
  6
CONTINUOUS
 10
130.4358330014
 20
136.4151840029
 11
130.4577396763
 21
136.3418528221
  0
LINE
  5
443
100
AcDbEntity
  8
0
100
AcDbLine
 62
7
  6
CONTINUOUS
 10
132.1314168222
 20
134.2238298487
 11
132.1624763629
 21
134.1063440804
  0
LINE
  5
444
100
AcDbEntity
  8
0
100
AcDbLine
 62
7
  6
CONTINUOUS
 10
130.8553780735
 20
135.091734522
 11
130.836059328
 21
135.1657895728
  0
LINE
  5
445
100
AcDbEntity
  8
0
100
AcDbLine
 62
7
  6
CONTINUOUS
 10
131.3073826419
 20
135.3795817503
 11
131.3267013874
 21
135.3055266994
  0
LINE
  5
446
100
AcDbEntity
  8
0
100
AcDbLine
 62
7
  6
CONTINUOUS
 10
131.5265210936
 20
135.7771274436
 11
131.5458398391
 21
135.7030723927
  0
LINE
  5
447
100
AcDbEntity
  8
0
100
AcDbLine
 62
7
  6
CONTINUOUS
 10
132.8436258813
 20
133.7381713848
 11
132.8718957992
 21
133.619983022
  0
LINE
  5
448
100
AcDbEntity
  8
0
100
AcDbLine
 62
7
  6
CONTINUOUS
 10
133.5561301315
 20
133.9524185897
 11
133.5278608924
 21
134.0706064624
  0
LINE
  5
449
100
AcDbEntity
  8
0
100
AcDbLine
 62
7
  6
CONTINUOUS
 10
133.8036374873
 20
134.3329502548
 11
133.7753675654
 21
134.4511386118
  0
LINE
  5
44A
100
AcDbEntity
  8
0
100
AcDbLine
 62
7
  6
CONTINUOUS
 10
132.6258884622
 20
134.6627178629
 11
132.610236096
 21
134.7376336017
  0
LINE
  5
44B
100
AcDbEntity
  8
0
100
AcDbLine
 62
7
  6
CONTINUOUS
 10
132.7036599175
 20
134.3528305993
 11
132.7193122836
 21
134.2779148605
  0
LINE
  5
44C
100
AcDbEntity
  8
0
100
AcDbLine
 62
7
  6
CONTINUOUS
 10
132.9639947475
 20
133.7182118448
 11
132.9501202605
 21
133.7934771295
  0
LINE
  5
44D
100
AcDbEntity
  8
0
100
AcDbLine
 62
7
  6
CONTINUOUS
 10
133.4357612707
 20
133.9723781374
 11
133.4496357577
 21
133.8971128526
  0
LINE
  5
44E
100
AcDbEntity
  8
0
100
AcDbLine
 62
7
  6
CONTINUOUS
 10
133.6832686265
 20
134.3529098024
 11
133.6971431135
 21
134.2776445177
  0
LINE
  5
44F
100
AcDbEntity
  8
RUNDUNGEN
100
AcDbLine
 62
7
  6
CONTINUOUS
 10
139.6944517
 20
66.9177702964
 11
140.7328470643
 21
72.9630404977
  0
LINE
  5
450
100
AcDbEntity
  8
0
100
AcDbLine
 62
7
  6
CONTINUOUS
 10
147.3501472803
 20
108.4038511934
 11
147.3308407421
 21
108.3105777237
  0
LINE
  5
451
100
AcDbEntity
  8
0
100
AcDbLine
 62
7
  6
CONTINUOUS
 10
148.0412874436
 20
108.1288987806
 11
148.0605939794
 21
108.2221722502
  0
LINE
  5
452
100
AcDbEntity
  8
0
100
AcDbLine
 62
7
  6
CONTINUOUS
 10
147.4122827923
 20
107.5459380621
 11
147.3906748682
 21
107.4531706402
  0
LINE
  5
453
100
AcDbEntity
  8
0
100
AcDbLine
 62
7
  6
CONTINUOUS
 10
147.4685123126
 20
104.893467678
 11
147.4395897002
 21
104.7843121656
  0
LINE
  5
454
100
AcDbEntity
  8
0
100
AcDbLine
 62
7
  6
CONTINUOUS
 10
147.4904163449
 20
108.3233397048
 11
147.5111807595
 21
108.3983838824
  0
LINE
  5
455
100
AcDbEntity
  8
0
100
AcDbLine
 62
7
  6
CONTINUOUS
 10
147.9130355342
 20
108.3938302391
 11
147.8922711207
 21
108.3187860485
  0
LINE
  5
456
100
AcDbEntity
  8
0
100
AcDbLine
 62
7
  6
CONTINUOUS
 10
147.9010183953
 20
108.2094102705
 11
147.8802539817
 21
108.1343660799
  0
LINE
  5
457
100
AcDbEntity
  8
0
100
AcDbLine
 62
7
  6
CONTINUOUS
 10
147.5505173322
 20
107.4619813078
 11
147.5731317522
 21
107.5364889132
  0
LINE
  5
458
100
AcDbEntity
  8
0
100
AcDbLine
 62
7
  6
CONTINUOUS
 10
148.4909836966
 20
107.3672986525
 11
148.4683692766
 21
107.2927910472
  0
LINE
  5
459
100
AcDbEntity
  8
0
100
AcDbLine
 62
7
  6
CONTINUOUS
 10
147.5729659737
 20
104.781579814
 11
147.6015140211
 21
104.8724515232
  0
LINE
  5
45A
100
AcDbEntity
  8
0
100
AcDbLine
 62
7
  6
CONTINUOUS
 10
148.0518467048
 20
108.3315480282
 11
148.0740689982
 21
108.3883629138
  0
LINE
  5
45B
100
AcDbEntity
  8
0
100
AcDbLine
 62
7
  6
CONTINUOUS
 10
148.4329370836
 20
108.2519502088
 11
148.4107147881
 21
108.1951353492
  0
LINE
  5
45C
100
AcDbEntity
  8
RUNDUNGEN
100
AcDbLine
 62
7
  6
CONTINUOUS
 10
155.071051549
 20
97.7975391544
 11
159.7872114338
 21
101.7194510196
  0
LINE
  5
45D
100
AcDbEntity
  8
RUNDUNGEN
100
AcDbLine
 62
7
  6
CONTINUOUS
 10
92.9810404894
 20
63.1488902413
 11
98.7355957386
 21
65.2722485773
  0
LINE
  5
45E
100
AcDbEntity
  8
0
100
AcDbLine
 62
7
  6
CONTINUOUS
 10
95.441489629
 20
134.6657695104
 11
95.5710330051
 21
134.695721991
  0
LINE
  5
45F
100
AcDbEntity
  8
0
100
AcDbLine
 62
7
  6
CONTINUOUS
 10
95.5428766631
 20
134.8670868744
 11
95.4133331259
 21
134.8371343103
  0
LINE
  5
460
100
AcDbEntity
  8
0
100
AcDbLine
 62
7
  6
CONTINUOUS
 10
95.1561523334
 20
135.7658646477
 11
95.2856958634
 21
135.795817224
  0
LINE
  5
461
100
AcDbEntity
  8
0
100
AcDbLine
 62
7
  6
CONTINUOUS
 10
95.2575393729
 20
135.9671820026
 11
95.1279959987
 21
135.9372295189
  0
LINE
  5
462
100
AcDbEntity
  8
0
100
AcDbLine
 62
7
  6
CONTINUOUS
 10
93.0630860483
 20
135.1113637376
 11
93.1643217556
 21
135.1316258895
  0
LINE
  5
463
100
AcDbEntity
  8
0
100
AcDbLine
 62
7
  6
CONTINUOUS
 10
96.932670984
 20
136.7490265394
 11
97.0637670123
 21
136.7712202381
  0
LINE
  5
464
100
AcDbEntity
  8
0
100
AcDbLine
 62
7
  6
CONTINUOUS
 10
97.0739913413
 20
136.9584848503
 11
96.9710327689
 21
136.9508196288
  0
LINE
  5
465
100
AcDbEntity
  8
0
100
AcDbLine
 62
7
  6
CONTINUOUS
 10
127.9607632142
 20
137.6503994171
 11
128.021761352
 21
137.6513937665
  0
LINE
  5
466
100
AcDbEntity
  8
0
100
AcDbLine
 62
7
  6
CONTINUOUS
 10
95.3326364131
 20
135.9647817404
 11
95.2575393729
 21
135.9671820026
  0
LINE
  5
467
100
AcDbEntity
  8
0
100
AcDbLine
 62
7
  6
CONTINUOUS
 10
127.8041126661
 20
136.7519541846
 11
127.7265404964
 21
136.7586887032
  0
LINE
  5
468
100
AcDbEntity
  8
0
100
AcDbLine
 62
7
  6
CONTINUOUS
 10
128.0894181751
 20
137.7964792222
 11
128.0118460055
 21
137.8032137408
  0
LINE
  5
469
100
AcDbEntity
  8
0
100
AcDbLine
 62
7
  6
CONTINUOUS
 10
97.0637670123
 20
136.7712202381
 11
97.1385881287
 21
136.7643569822
  0
LINE
  5
46A
100
AcDbEntity
  8
0
100
AcDbLine
 62
7
  6
CONTINUOUS
 10
131.0587867183
 20
134.9686739294
 11
130.9980353237
 21
134.9742443514
  0
LINE
  5
46B
100
AcDbEntity
  8
0
100
AcDbLine
 62
7
  6
CONTINUOUS
 10
131.103973997
 20
135.5026423428
 11
131.1647253917
 21
135.4970719208
  0
LINE
  5
46C
100
AcDbEntity
  8
0
100
AcDbLine
 62
7
  6
CONTINUOUS
 10
131.3387590472
 20
135.89072197
 11
131.3995104419
 21
135.885151548
  0
LINE
  5
46D
100
AcDbEntity
  8
0
100
AcDbLine
 62
7
  6
CONTINUOUS
 10
129.3036910781
 20
135.9701452752
 11
129.2265442095
 21
135.9806875993
  0
LINE
  5
46E
100
AcDbEntity
  8
0
100
AcDbLine
 62
7
  6
CONTINUOUS
 10
129.3013951435
 20
136.5143775192
 11
129.3785421972
 21
136.5038350974
  0
LINE
  5
46F
100
AcDbEntity
  8
0
100
AcDbLine
 62
7
  6
CONTINUOUS
 10
132.8048943059
 20
134.9281719954
 11
132.8652981226
 21
134.9196197743
  0
LINE
  5
470
100
AcDbEntity
  8
0
100
AcDbLine
 62
7
  6
CONTINUOUS
 10
127.6588836654
 20
136.6136032306
 11
127.7530297731
 21
136.5991398903
  0
LINE
  5
471
100
AcDbEntity
  8
0
100
AcDbLine
 62
7
  6
CONTINUOUS
 10
133.157901578
 20
133.580665026
 11
133.0977171475
 21
133.5906447999
  0
LINE
  5
472
100
AcDbEntity
  8
0
100
AcDbLine
 62
7
  6
CONTINUOUS
 10
133.2418544403
 20
134.1099249561
 11
133.3020388707
 21
134.0999451823
  0
LINE
  5
473
100
AcDbEntity
  8
0
100
AcDbLine
 62
7
  6
CONTINUOUS
 10
133.504277496
 20
134.4798762457
 11
133.5644619264
 21
134.4698964718
  0
LINE
  5
474
100
AcDbEntity
  8
0
100
AcDbLine
 62
7
  6
CONTINUOUS
 10
129.1642841178
 20
135.8627029518
 11
129.2576046542
 21
135.8436258415
  0
LINE
  5
475
100
AcDbEntity
  8
0
100
AcDbLine
 62
7
  6
CONTINUOUS
 10
129.4408022802
 20
136.6218197284
 11
129.3474815598
 21
136.6408969384
  0
LINE
  5
476
100
AcDbEntity
  8
0
100
AcDbLine
 62
7
  6
CONTINUOUS
 10
129.9807999174
 20
135.5997191045
 11
129.8879514929
 21
135.6209753646
  0
LINE
  5
477
100
AcDbEntity
  8
0
100
AcDbLine
 62
7
  6
CONTINUOUS
 10
132.509736934
 20
134.0652553097
 11
132.4341711266
 21
134.0840318394
  0
LINE
  5
478
100
AcDbEntity
  8
0
100
AcDbLine
 62
7
  6
CONTINUOUS
 10
132.9548010236
 20
135.0523468095
 11
132.8792348691
 21
135.0711235732
  0
LINE
  5
479
100
AcDbEntity
  8
0
100
AcDbLine
 62
7
  6
CONTINUOUS
 10
130.9133343004
 20
134.8695693535
 11
131.0053792513
 21
134.8450665847
  0
LINE
  5
47A
100
AcDbEntity
  8
0
100
AcDbLine
 62
7
  6
CONTINUOUS
 10
131.2494264053
 20
135.6017469027
 11
131.1573814556
 21
135.6262496736
  0
LINE
  5
47B
100
AcDbEntity
  8
0
100
AcDbLine
 62
7
  6
CONTINUOUS
 10
129.8229467666
 20
135.5044803791
 11
129.9317648347
 21
135.4743129887
  0
LINE
  5
47C
100
AcDbEntity
  8
0
100
AcDbLine
 62
7
  6
CONTINUOUS
 10
132.3446682151
 20
133.9513047887
 11
132.4353963617
 21
133.9223037183
  0
LINE
  5
47D
100
AcDbEntity
  8
0
100
AcDbLine
 62
7
  6
CONTINUOUS
 10
133.0056181978
 20
133.4924159752
 11
133.0956347123
 21
133.461274968
  0
LINE
  5
47E
100
AcDbEntity
  8
0
100
AcDbLine
 62
7
  6
CONTINUOUS
 10
133.3941378096
 20
134.1981739917
 11
133.3041219793
 21
134.2293145165
  0
LINE
  5
47F
100
AcDbEntity
  8
RUNDUNGEN
100
AcDbLine
 62
7
  6
CONTINUOUS
 10
98.7355957534
 20
145.7044135665
 11
92.9810404894
 21
147.8277719079
  0
LINE
  5
480
100
AcDbEntity
  8
RUNDUNGEN
100
AcDbLine
 62
7
  6
CONTINUOUS
 10
159.7872114338
 20
109.2572111297
 11
155.0710515489
 21
113.179122995
  0
LINE
  5
481
100
AcDbEntity
  8
0
100
AcDbLine
 62
7
  6
CONTINUOUS
 10
127.4546977692
 20
136.7382592494
 11
127.5262916953
 21
136.6754340421
  0
LINE
  5
482
100
AcDbEntity
  8
0
100
AcDbLine
 62
7
  6
CONTINUOUS
 10
128.0349332334
 20
137.2036626881
 11
127.9633394011
 21
137.266487849
  0
LINE
  5
483
100
AcDbEntity
  8
0
100
AcDbLine
 62
7
  6
CONTINUOUS
 10
129.7401305876
 20
135.5812457612
 11
129.8229467666
 21
135.5044803791
  0
LINE
  5
484
100
AcDbEntity
  8
0
100
AcDbLine
 62
7
  6
CONTINUOUS
 10
128.998825061
 20
135.9801829407
 11
129.0672417472
 21
135.9139118762
  0
LINE
  5
485
100
AcDbEntity
  8
0
100
AcDbLine
 62
7
  6
CONTINUOUS
 10
129.606261153
 20
136.5043398392
 11
129.5378446508
 21
136.570610804
  0
LINE
  5
486
100
AcDbEntity
  8
0
100
AcDbLine
 62
7
  6
CONTINUOUS
 10
127.5939485263
 20
136.8205195148
 11
127.538928631
 21
136.8756158519
  0
LINE
  5
487
100
AcDbEntity
  8
0
100
AcDbLine
 62
7
  6
CONTINUOUS
 10
127.7412186814
 20
137.2228718502
 11
127.7962385767
 21
137.167775513
  0
LINE
  5
488
100
AcDbEntity
  8
0
100
AcDbLine
 62
7
  6
CONTINUOUS
 10
127.895682578
 20
137.1214023933
 11
127.9507024732
 21
137.0663060562
  0
LINE
  5
489
100
AcDbEntity
  8
0
100
AcDbLine
 62
7
  6
CONTINUOUS
 10
129.8879514929
 20
135.6209753646
 11
129.8211045897
 21
135.6888298162
  0
LINE
  5
48A
100
AcDbEntity
  8
0
100
AcDbLine
 62
7
  6
CONTINUOUS
 10
130.7706766933
 20
134.9870597427
 11
130.8350998757
 21
134.9169005507
  0
LINE
  5
48B
100
AcDbEntity
  8
0
100
AcDbLine
 62
7
  6
CONTINUOUS
 10
131.3920840136
 20
135.4842565155
 11
131.32766083
 21
135.5544157056
  0
LINE
  5
48C
100
AcDbEntity
  8
0
100
AcDbLine
 62
7
  6
CONTINUOUS
 10
129.1295018389
 20
136.0318965237
 11
129.0772588184
 21
136.089632798
  0
LINE
  5
48D
100
AcDbEntity
  8
0
100
AcDbLine
 62
7
  6
CONTINUOUS
 10
129.4755845678
 20
136.452626173
 11
129.5278274032
 21
136.3948899964
  0
LINE
  5
48E
100
AcDbEntity
  8
0
100
AcDbLine
 62
7
  6
CONTINUOUS
 10
132.1624763629
 20
134.1063440804
 11
132.2233702065
 21
134.0331006612
  0
LINE
  5
48F
100
AcDbEntity
  8
0
100
AcDbLine
 62
7
  6
CONTINUOUS
 10
132.8083251563
 20
134.475333092
 11
132.7474313114
 21
134.5485765093
  0
LINE
  5
490
100
AcDbEntity
  8
0
100
AcDbLine
 62
7
  6
CONTINUOUS
 10
127.8638953998
 20
137.3128609688
 11
127.8254495363
 21
137.3602284379
  0
LINE
  5
491
100
AcDbEntity
  8
0
100
AcDbLine
 62
7
  6
CONTINUOUS
 10
128.1212053533
 20
137.6050206468
 11
128.1596512168
 21
137.5576531776
  0
LINE
  5
492
100
AcDbEntity
  8
0
100
AcDbLine
 62
7
  6
CONTINUOUS
 10
132.8718957992
 20
133.619983022
 11
132.9310383325
 21
133.5453188214
  0
LINE
  5
493
100
AcDbEntity
  8
0
100
AcDbLine
 62
7
  6
CONTINUOUS
 10
133.5278608924
 20
134.0706064624
 11
133.4687176749
 21
134.1452711455
  0
LINE
  5
494
100
AcDbEntity
  8
0
100
AcDbLine
 62
7
  6
CONTINUOUS
 10
132.312873118
 20
134.1658277119
 11
132.2671416109
 21
134.2288465867
  0
LINE
  5
495
100
AcDbEntity
  8
0
100
AcDbLine
 62
7
  6
CONTINUOUS
 10
132.5212232233
 20
134.5402153702
 11
132.5669550775
 21
134.4771962614
  0
LINE
  5
496
100
AcDbEntity
  8
0
100
AcDbLine
 62
7
  6
CONTINUOUS
 10
132.6579284104
 20
134.4158494741
 11
132.7036599175
 21
134.3528305993
  0
LINE
  5
497
100
AcDbEntity
  8
0
100
AcDbLine
 62
7
  6
CONTINUOUS
 10
130.8885077021
 20
135.0405076808
 11
130.8553780735
 21
135.091734522
  0
LINE
  5
498
100
AcDbEntity
  8
0
100
AcDbLine
 62
7
  6
CONTINUOUS
 10
131.2742530133
 20
135.4308085915
 11
131.3073826419
 21
135.3795817503
  0
LINE
  5
499
100
AcDbEntity
  8
0
100
AcDbLine
 62
7
  6
CONTINUOUS
 10
131.493391465
 20
135.8283542848
 11
131.5265210936
 21
135.7771274436
  0
LINE
  5
49A
100
AcDbEntity
  8
0
100
AcDbLine
 62
7
  6
CONTINUOUS
 10
148.3932202409
 20
108.4138868791
 11
148.4241898089
 21
108.3613259868
  0
LINE
  5
49B
100
AcDbEntity
  8
0
100
AcDbLine
 62
7
  6
CONTINUOUS
 10
132.6564579785
 20
134.6099232967
 11
132.6258884622
 21
134.6627178629
  0
LINE
  5
49C
100
AcDbEntity
  8
0
100
AcDbLine
 62
7
  6
CONTINUOUS
 10
132.9562714555
 20
134.8582729869
 11
132.9868409718
 21
134.8054784207
  0
LINE
  5
49D
100
AcDbEntity
  8
0
100
AcDbLine
 62
7
  6
CONTINUOUS
 10
147.4303997275
 20
107.2172619947
 11
147.4600596266
 21
107.1639510946
  0
LINE
  5
49E
100
AcDbEntity
  8
0
100
AcDbLine
 62
7
  6
CONTINUOUS
 10
147.5882291983
 20
107.2625921903
 11
147.5585693015
 21
107.3159030905
  0
LINE
  5
49F
100
AcDbEntity
  8
0
100
AcDbLine
 62
7
  6
CONTINUOUS
 10
132.9933058824
 20
133.664708397
 11
132.9639947475
 21
133.7182118448
  0
LINE
  5
4A0
100
AcDbEntity
  8
0
100
AcDbLine
 62
7
  6
CONTINUOUS
 10
133.4064501359
 20
134.0258815852
 11
133.4357612707
 21
133.9723781374
  0
LINE
  5
4A1
100
AcDbEntity
  8
0
100
AcDbLine
 62
7
  6
CONTINUOUS
 10
133.6539574917
 20
134.4064132502
 11
133.6832686265
 21
134.3529098024
  0
LINE
  5
4A2
100
AcDbEntity
  8
0
100
AcDbLine
 62
7
  6
CONTINUOUS
 10
147.5345068269
 20
108.1067151194
 11
147.5020793791
 21
108.1775053168
  0
LINE
  5
4A3
100
AcDbEntity
  8
0
100
AcDbLine
 62
7
  6
CONTINUOUS
 10
148.5837653931
 20
108.3740879665
 11
148.5513379453
 21
108.4448781639
  0
LINE
  5
4A4
100
AcDbEntity
  8
0
100
AcDbLine
 62
7
  6
CONTINUOUS
 10
148.4522653322
 20
107.5849475864
 11
148.4829317273
 21
107.5133768699
  0
LINE
  5
4A5
100
AcDbEntity
  8
0
100
AcDbLine
 62
7
  6
CONTINUOUS
 10
147.3425037763
 20
108.1647433356
 11
147.3763891042
 21
108.0757238595
  0
LINE
  5
4A6
100
AcDbEntity
  8
0
100
AcDbLine
 62
7
  6
CONTINUOUS
 10
147.3987268375
 20
107.3070924229
 11
147.4303997275
 21
107.2172619947
  0
LINE
  5
4A7
100
AcDbEntity
  8
0
100
AcDbLine
 62
7
  6
CONTINUOUS
 10
147.5977684283
 20
104.6896151644
 11
147.5729659737
 21
104.781579814
  0
LINE
  5
4A8
100
AcDbEntity
  8
0
100
AcDbLine
 62
7
  6
CONTINUOUS
 10
147.4395897002
 20
104.7843121656
 11
147.4640175944
 21
104.6740637126
  0
LINE
  5
4A9
100
AcDbEntity
  8
RUNDUNGEN
100
AcDbLine
 62
7
  6
CONTINUOUS
 10
140.7328470642
 20
138.0136216517
 11
139.6944517
 21
144.0588918529
  0
LINE
  5
4AA
100
AcDbEntity
  8
0
100
AcDbLine
 62
7
  6
CONTINUOUS
 10
147.3308407421
 20
108.3105777237
 11
147.3425037763
 21
108.1647433356
  0
LINE
  5
4AB
100
AcDbEntity
  8
0
100
AcDbLine
 62
7
  6
CONTINUOUS
 10
147.5020793791
 20
108.1775053168
 11
147.4904163449
 21
108.3233397048
  0
LINE
  5
4AC
100
AcDbEntity
  8
0
100
AcDbLine
 62
7
  6
CONTINUOUS
 10
147.6649248462
 20
108.4840630446
 11
147.6561775715
 21
108.5934388226
  0
LINE
  5
4AD
100
AcDbEntity
  8
0
100
AcDbLine
 62
7
  6
CONTINUOUS
 10
147.8922711207
 20
108.3187860485
 11
147.9010183953
 21
108.2094102705
  0
LINE
  5
4AE
100
AcDbEntity
  8
0
100
AcDbLine
 62
7
  6
CONTINUOUS
 10
148.0605939794
 20
108.2221722502
 11
148.0518467048
 21
108.3315480282
  0
LINE
  5
4AF
100
AcDbEntity
  8
0
100
AcDbLine
 62
7
  6
CONTINUOUS
 10
148.3087047027
 20
108.1319394738
 11
148.3174519773
 21
108.0225636958
  0
LINE
  5
4B0
100
AcDbEntity
  8
0
100
AcDbLine
 62
7
  6
CONTINUOUS
 10
148.4241898089
 20
108.3613259868
 11
148.4329370836
 21
108.2519502088
  0
LINE
  5
4B1
100
AcDbEntity
  8
0
100
AcDbLine
 62
7
  6
CONTINUOUS
 10
148.5910547879
 20
108.2829414935
 11
148.5837653931
 21
108.3740879665
  0
LINE
  5
4B2
100
AcDbEntity
  8
0
100
AcDbLine
 62
7
  6
CONTINUOUS
 10
147.3906748682
 20
107.4531706402
 11
147.3987268375
 21
107.3070924229
  0
LINE
  5
4B3
100
AcDbEntity
  8
0
100
AcDbLine
 62
7
  6
CONTINUOUS
 10
147.4087918035
 20
107.1244945728
 11
147.4148307819
 21
107.0149358837
  0
LINE
  5
4B4
100
AcDbEntity
  8
0
100
AcDbLine
 62
7
  6
CONTINUOUS
 10
147.5585693015
 20
107.3159030905
 11
147.5505173322
 21
107.4619813078
  0
LINE
  5
4B5
100
AcDbEntity
  8
0
100
AcDbLine
 62
7
  6
CONTINUOUS
 10
147.722437753
 20
107.2516745971
 11
147.7163987746
 21
107.3612332863
  0
LINE
  5
4B6
100
AcDbEntity
  8
0
100
AcDbLine
 62
7
  6
CONTINUOUS
 10
148.4829317273
 20
107.5133768699
 11
148.4909836966
 21
107.3672986525
  0
LINE
  5
4B7
100
AcDbEntity
  8
0
100
AcDbLine
 62
7
  6
CONTINUOUS
 10
148.6508261419
 20
107.3761093191
 11
148.6427741726
 21
107.5221875364
  0
LINE
  5
4B8
100
AcDbEntity
  8
0
100
AcDbLine
 62
7
  6
CONTINUOUS
 10
147.4468184646
 20
105.5523381518
 11
147.4472562937
 21
105.4426140253
  0
LINE
  5
4B9
100
AcDbEntity
  8
0
100
AcDbLine
 62
7
  6
CONTINUOUS
 10
147.8185960822
 20
105.9927251398
 11
147.8203473986
 21
105.5538286339
  0
LINE
  5
4BA
100
AcDbEntity
  8
0
100
AcDbLine
 62
7
  6
CONTINUOUS
 10
147.8207852277
 20
105.4441045074
 11
147.8215149427
 21
105.2612310331
  0
LINE
  5
4BB
100
AcDbEntity
  8
0
100
AcDbLine
 62
7
  6
CONTINUOUS
 10
147.9815987929
 20
105.2618698112
 11
147.980869078
 21
105.4447432855
  0
LINE
  5
4BC
100
AcDbEntity
  8
0
100
AcDbLine
 62
7
  6
CONTINUOUS
 10
147.9804312488
 20
105.554467412
 11
147.9791907327
 21
105.8653525068
  0
LINE
  5
4BD
100
AcDbEntity
  8
0
100
AcDbLine
 62
7
  6
CONTINUOUS
 10
148.7012463106
 20
105.4476177867
 11
148.7008084814
 21
105.5573419132
  0
LINE
  5
4BE
100
AcDbEntity
  8
0
100
AcDbLine
 62
7
  6
CONTINUOUS
 10
147.4293631437
 20
104.3088995891
 11
147.4241986818
 21
104.1992961952
  0
LINE
  5
4BF
100
AcDbEntity
  8
0
100
AcDbLine
 62
7
  6
CONTINUOUS
 10
147.4121482575
 20
103.943554664
 11
147.4052623148
 21
103.7974169448
  0
LINE
  5
4C0
100
AcDbEntity
  8
0
100
AcDbLine
 62
7
  6
CONTINUOUS
 10
147.3932119103
 20
103.5416758317
 11
147.3880474484
 21
103.4320724378
  0
LINE
  5
4C1
100
AcDbEntity
  8
0
100
AcDbLine
 62
7
  6
CONTINUOUS
 10
148.6406576646
 20
103.3730500159
 11
148.6484043574
 21
103.5374551068
  0
LINE
  5
4C2
100
AcDbEntity
  8
0
100
AcDbLine
 62
7
  6
CONTINUOUS
 10
148.674226667
 20
104.0854720764
 11
148.6819733599
 21
104.2498771673
  0
LINE
  5
4C3
100
AcDbEntity
  8
0
100
AcDbLine
 62
7
  6
CONTINUOUS
 10
147.3789816428
 20
103.2859936849
 11
147.3705544608
 21
103.1765927789
  0
LINE
  5
4C4
100
AcDbEntity
  8
0
100
AcDbLine
 62
7
  6
CONTINUOUS
 10
147.3508910468
 20
102.9213241374
 11
147.3396548148
 21
102.7754564019
  0
LINE
  5
4C5
100
AcDbEntity
  8
0
100
AcDbLine
 62
7
  6
CONTINUOUS
 10
147.3199913686
 20
102.520187343
 11
147.3115641866
 21
102.4107864371
  0
LINE
  5
4C6
100
AcDbEntity
  8
0
100
AcDbLine
 62
7
  6
CONTINUOUS
 10
148.5618602549
 20
102.3144757853
 11
148.5745010279
 21
102.4785771443
  0
LINE
  5
4C7
100
AcDbEntity
  8
0
100
AcDbLine
 62
7
  6
CONTINUOUS
 10
148.6166369381
 20
103.0255816742
 11
148.6292777111
 21
103.1896830331
  0
LINE
  5
4C8
100
AcDbEntity
  8
0
100
AcDbLine
 62
7
  6
CONTINUOUS
 10
148.5717482541
 20
108.1896679978
 11
148.5910547879
 21
108.2829414935
  0
LINE
  5
4C9
100
AcDbEntity
  8
0
100
AcDbLine
 62
7
  6
CONTINUOUS
 10
148.6292182145
 20
107.2833420019
 11
148.6508261419
 21
107.3761093191
  0
LINE
  5
4CA
100
AcDbEntity
  8
RUNDUNGEN
100
AcDbLine
 62
7
  6
CONTINUOUS
 10
155.1427958543
 20
118.0066479012
 11
154.4179011357
 21
115.2166726039
  0
LINE
  5
4CB
100
AcDbEntity
  8
0
100
AcDbLine
 62
7
  6
CONTINUOUS
 10
148.6644040349
 20
104.649472549
 11
148.693326645
 21
104.7586280614
  0
LINE
  5
4CC
100
AcDbEntity
  8
RUNDUNGEN
100
AcDbLine
 62
7
  6
CONTINUOUS
 10
155.142870179
 20
118.0069366272
 11
155.1428791164
 21
118.0069683628
  0
LINE
  5
4CD
100
AcDbEntity
  8
0
100
AcDbLine
 62
7
  6
CONTINUOUS
 10
148.5599503902
 20
104.7613604126
 11
148.5314023428
 21
104.6704887035
  0
LWPOLYLINE
  5
4CE
100
AcDbEntity
  8
RUNDUNGEN
100
AcDbPolyline
 62
7
  6
CONTINUOUS
 90
3
 70
0
 10
144.8277766699
 20
89.7532404366
 10
144.8346610172
 20
89.7717872936
 10
145.1208323719
 20
90.515138098
  0
LINE
  5
4CF
100
AcDbEntity
  8
RUNDUNGEN
100
AcDbLine
 62
7
  6
CONTINUOUS
 10
145.1208323719
 20
90.515138098
 11
145.190611721
 21
90.6984580606
  0
LWPOLYLINE
  5
4D0
100
AcDbEntity
  8
RUNDUNGEN
100
AcDbPolyline
 62
7
  6
CONTINUOUS
 90
3
 70
0
 10
142.5777766699
 20
85.8561261196
 10
142.5654979725
 20
85.8406143907
 10
142.0636248095
 20
85.2220775762
  0
LINE
  5
4D1
100
AcDbEntity
  8
RUNDUNGEN
100
AcDbLine
 62
7
  6
CONTINUOUS
 10
142.0636248095
 20
85.2220775762
 11
141.940611721
 21
85.069292936
  0
LINE
  5
4D2
100
AcDbEntity
  8
RUNDUNGEN
100
AcDbLine
 62
7
  6
CONTINUOUS
 10
125.3208597809
 20
64.8191186257
 11
123.2670431568
 21
62.7962803593
  0
LINE
  5
4D3
100
AcDbEntity
  8
RUNDUNGEN
100
AcDbLine
 62
7
  6
CONTINUOUS
 10
83.9767586739
 20
136.4292019437
 11
81.1981656033
 21
135.6620036224
  0
LINE
  5
4D4
100
AcDbEntity
  8
RUNDUNGEN
100
AcDbLine
 62
7
  6
CONTINUOUS
 10
81.1978307379
 20
135.6619103287
 11
81.1977907427
 21
135.6619001188
  0
LWPOLYLINE
  5
4D5
100
AcDbEntity
  8
RUNDUNGEN
100
AcDbPolyline
 62
7
  6
CONTINUOUS
 90
3
 70
0
 10
110.8238002232
 20
140.8556266676
 10
110.8042960002
 20
140.8523152588
 10
110.0174496424
 20
140.7284715196
  0
LINE
  5
4D6
100
AcDbEntity
  8
RUNDUNGEN
100
AcDbLine
 62
7
  6
CONTINUOUS
 10
110.0174496424
 20
140.7284715196
 11
109.8238002232
 21
140.6972422273
  0
LWPOLYLINE
  5
4D7
100
AcDbEntity
  8
RUNDUNGEN
100
AcDbPolyline
 62
7
  6
CONTINUOUS
 90
3
 70
0
 10
115.3238002232
 20
140.8556266676
 10
115.3433731232
 20
140.8527488682
 10
116.1299782992
 20
140.7273823668
  0
LINE
  5
4D8
100
AcDbEntity
  8
RUNDUNGEN
100
AcDbLine
 62
7
  6
CONTINUOUS
 10
116.1299782992
 20
140.7273823668
 11
116.3238002232
 21
140.6972422273
  0
LINE
  5
4D9
100
AcDbEntity
  8
0
100
AcDbLine
 62
7
  6
CONTINUOUS
 10
130.2761376736
 20
136.5042947146
 11
130.3689864637
 21
136.4830382506
  0
LINE
  5
4DA
100
AcDbEntity
  8
0
100
AcDbLine
 62
7
  6
CONTINUOUS
 10
131.4842114555
 20
135.9898265299
 11
131.3921665058
 21
136.0143293008
  0
LINE
  5
4DB
100
AcDbEntity
  8
RUNDUNGEN
100
AcDbLine
 62
7
  6
CONTINUOUS
 10
142.170841577
 20
136.4292019977
 11
144.9495792155
 21
135.6619637597
  0
LINE
  5
4DC
100
AcDbEntity
  8
0
100
AcDbLine
 62
7
  6
CONTINUOUS
 10
130.4339911808
 20
136.5995332197
 11
130.3251731139
 21
136.6297006122
  0
LINE
  5
4DD
100
AcDbEntity
  8
0
100
AcDbLine
 62
7
  6
CONTINUOUS
 10
133.6565608653
 20
134.5681252812
 11
133.566545035
 21
134.5992658061
  0
LINE
  5
4DE
100
AcDbEntity
  8
0
100
AcDbLine
 62
7
  6
CONTINUOUS
 10
126.5577875692
 20
137.1078435698
 11
127.1608711541
 21
136.8438077537
  0
LINE
  5
4DF
100
AcDbEntity
  8
0
100
AcDbLine
 62
7
  6
CONTINUOUS
 10
127.2250743919
 20
136.9904542177
 11
126.7225047378
 21
137.2104840645
  0
LINE
  5
4E0
100
AcDbEntity
  8
0
100
AcDbLine
 62
7
  6
CONTINUOUS
 10
127.1612268641
 20
138.2125682382
 11
127.0607129333
 21
138.2565742076
  0
LINE
  5
4E1
100
AcDbEntity
  8
0
100
AcDbLine
 62
7
  6
CONTINUOUS
 10
127.5262916953
 20
136.6754340421
 11
127.6588836654
 21
136.6136032306
  0
LINE
  5
4E2
100
AcDbEntity
  8
0
100
AcDbLine
 62
7
  6
CONTINUOUS
 10
127.7265404964
 20
136.7586887032
 11
127.5939485263
 21
136.8205195148
  0
LINE
  5
4E3
100
AcDbEntity
  8
0
100
AcDbLine
 62
7
  6
CONTINUOUS
 10
127.5402894296
 20
137.0516167525
 11
127.4408454757
 21
137.0979898501
  0
LINE
  5
4E4
100
AcDbEntity
  8
0
100
AcDbLine
 62
7
  6
CONTINUOUS
 10
127.7962385767
 20
137.167775513
 11
127.895682578
 21
137.1214023933
  0
LINE
  5
4E5
100
AcDbEntity
  8
0
100
AcDbLine
 62
7
  6
CONTINUOUS
 10
127.9633394011
 20
137.266487849
 11
127.8638953998
 21
137.3128609688
  0
LINE
  5
4E6
100
AcDbEntity
  8
0
100
AcDbLine
 62
7
  6
CONTINUOUS
 10
128.1642686687
 20
137.4377429806
 11
128.26371267
 21
137.3913698609
  0
LINE
  5
4E7
100
AcDbEntity
  8
0
100
AcDbLine
 62
7
  6
CONTINUOUS
 10
128.021761352
 20
137.6513937665
 11
128.1212053533
 21
137.6050206468
  0
LINE
  5
4E8
100
AcDbEntity
  8
0
100
AcDbLine
 62
7
  6
CONTINUOUS
 10
128.1722881446
 20
137.7578349705
 11
128.0894181751
 21
137.7964792222
  0
LINE
  5
4E9
100
AcDbEntity
  8
0
100
AcDbLine
 62
7
  6
CONTINUOUS
 10
129.0672417472
 20
135.9139118762
 11
129.1642841178
 21
135.8627029518
  0
LINE
  5
4EA
100
AcDbEntity
  8
0
100
AcDbLine
 62
7
  6
CONTINUOUS
 10
129.2265442095
 20
135.9806875993
 11
129.1295018389
 21
136.0318965237
  0
LINE
  5
4EB
100
AcDbEntity
  8
0
100
AcDbLine
 62
7
  6
CONTINUOUS
 10
129.071102408
 20
136.2738884103
 11
128.9740600375
 21
136.3250973347
  0
LINE
  5
4EC
100
AcDbEntity
  8
0
100
AcDbLine
 62
7
  6
CONTINUOUS
 10
129.0861282043
 20
136.5374697035
 11
129.1993442417
 21
136.477725991
  0
LINE
  5
4ED
100
AcDbEntity
  8
0
100
AcDbLine
 62
7
  6
CONTINUOUS
 10
129.3785421972
 20
136.5038350974
 11
129.4755845678
 21
136.452626173
  0
LINE
  5
4EE
100
AcDbEntity
  8
0
100
AcDbLine
 62
7
  6
CONTINUOUS
 10
129.5378446508
 20
136.570610804
 11
129.4408022802
 21
136.6218197284
  0
LINE
  5
4EF
100
AcDbEntity
  8
0
100
AcDbLine
 62
7
  6
CONTINUOUS
 10
129.4284891067
 20
136.9903311814
 11
129.8975272929
 21
136.7428213476
  0
LINE
  5
4F0
100
AcDbEntity
  8
0
100
AcDbLine
 62
7
  6
CONTINUOUS
 10
129.9597873759
 20
136.8608059786
 11
129.409880671
 21
137.1509898509
  0
LINE
  5
4F1
100
AcDbEntity
  8
0
100
AcDbLine
 62
7
  6
CONTINUOUS
 10
130.4649190319
 20
135.6622011612
 11
130.6861769825
 21
135.5333848249
  0
LINE
  5
4F2
100
AcDbEntity
  8
0
100
AcDbLine
 62
7
  6
CONTINUOUS
 10
130.753298004
 20
135.6486734606
 11
130.5320400535
 21
135.7774897969
  0
LINE
  5
4F3
100
AcDbEntity
  8
0
100
AcDbLine
 62
7
  6
CONTINUOUS
 10
130.8350998757
 20
134.9169005507
 11
130.9133343004
 21
134.8695693535
  0
LINE
  5
4F4
100
AcDbEntity
  8
0
100
AcDbLine
 62
7
  6
CONTINUOUS
 10
130.9980353237
 20
134.9742443514
 11
130.8885077021
 21
135.0405076808
  0
LINE
  5
4F5
100
AcDbEntity
  8
0
100
AcDbLine
 62
7
  6
CONTINUOUS
 10
131.1647253917
 20
135.4970719208
 11
131.2742530133
 21
135.4308085915
  0
LINE
  5
4F6
100
AcDbEntity
  8
0
100
AcDbLine
 62
7
  6
CONTINUOUS
 10
131.32766083
 20
135.5544157056
 11
131.2494264053
 21
135.6017469027
  0
LINE
  5
4F7
100
AcDbEntity
  8
0
100
AcDbLine
 62
7
  6
CONTINUOUS
 10
131.5357007451
 20
135.6156554151
 11
131.6139348117
 21
135.5683244346
  0
LINE
  5
4F8
100
AcDbEntity
  8
0
100
AcDbLine
 62
7
  6
CONTINUOUS
 10
131.3995104419
 20
135.885151548
 11
131.493391465
 21
135.8283542848
  0
LINE
  5
4F9
100
AcDbEntity
  8
0
100
AcDbLine
 62
7
  6
CONTINUOUS
 10
131.5467989236
 20
135.9519616156
 11
131.4842114555
 21
135.9898265299
  0
LINE
  5
4FA
100
AcDbEntity
  8
0
100
AcDbLine
 62
7
  6
CONTINUOUS
 10
132.2233702065
 20
134.0331006612
 11
132.3446682151
 21
133.9513047887
  0
LINE
  5
4FB
100
AcDbEntity
  8
0
100
AcDbLine
 62
7
  6
CONTINUOUS
 10
132.4341711266
 20
134.0840318394
 11
132.312873118
 21
134.1658277119
  0
LINE
  5
4FC
100
AcDbEntity
  8
0
100
AcDbLine
 62
7
  6
CONTINUOUS
 10
132.295995518
 20
134.4024715737
 11
132.2050221851
 21
134.4638183611
  0
LINE
  5
4FD
100
AcDbEntity
  8
0
100
AcDbLine
 62
7
  6
CONTINUOUS
 10
132.5669550775
 20
134.4771962614
 11
132.6579284104
 21
134.4158494741
  0
LINE
  5
4FE
100
AcDbEntity
  8
0
100
AcDbLine
 62
7
  6
CONTINUOUS
 10
132.7474313114
 20
134.5485765093
 11
132.6564579785
 21
134.6099232967
  0
LINE
  5
4FF
100
AcDbEntity
  8
0
100
AcDbLine
 62
7
  6
CONTINUOUS
 10
132.9726590376
 20
134.6863203368
 11
133.0636323705
 21
134.6249735495
  0
LINE
  5
500
100
AcDbEntity
  8
0
100
AcDbLine
 62
7
  6
CONTINUOUS
 10
132.8652981226
 20
134.9196197743
 11
132.9562714555
 21
134.8582729869
  0
LINE
  5
501
100
AcDbEntity
  8
0
100
AcDbLine
 62
7
  6
CONTINUOUS
 10
133.0306120187
 20
135.0012245647
 11
132.9548010236
 21
135.0523468095
  0
LINE
  5
502
100
AcDbEntity
  8
0
100
AcDbLine
 62
7
  6
CONTINUOUS
 10
132.9310383325
 20
133.5453188214
 11
133.0056181978
 21
133.4924159752
  0
LINE
  5
503
100
AcDbEntity
  8
0
100
AcDbLine
 62
7
  6
CONTINUOUS
 10
133.0977171475
 20
133.5906447999
 11
132.9933058824
 21
133.664708397
  0
LINE
  5
504
100
AcDbEntity
  8
0
100
AcDbLine
 62
7
  6
CONTINUOUS
 10
133.3020388707
 20
134.0999451823
 11
133.4064501359
 21
134.0258815852
  0
LINE
  5
505
100
AcDbEntity
  8
0
100
AcDbLine
 62
7
  6
CONTINUOUS
 10
133.4687176749
 20
134.1452711455
 11
133.3941378096
 21
134.1981739917
  0
LINE
  5
506
100
AcDbEntity
  8
0
100
AcDbLine
 62
7
  6
CONTINUOUS
 10
133.6806652528
 20
134.1911977714
 11
133.7552444353
 21
134.1382954096
  0
LINE
  5
507
100
AcDbEntity
  8
0
100
AcDbLine
 62
7
  6
CONTINUOUS
 10
133.5644619264
 20
134.4698964718
 11
133.6539574917
 21
134.4064132502
  0
LINE
  5
508
100
AcDbEntity
  8
0
100
AcDbLine
 62
7
  6
CONTINUOUS
 10
133.7162250307
 20
134.5258028106
 11
133.6565608653
 21
134.5681252812
  0
LINE
  5
509
100
AcDbEntity
  8
0
100
AcDbLine
 62
7
  6
CONTINUOUS
 10
133.3467877128
 20
133.2464145356
 11
133.4205562005
 21
133.1923874631
  0
LINE
  5
50A
100
AcDbEntity
  8
0
100
AcDbLine
 62
7
  6
CONTINUOUS
 10
133.4993803756
 20
133.3000138795
 11
133.4256118879
 21
133.354040952
  0
LINE
  5
50B
100
AcDbEntity
  8
0
100
AcDbLine
 62
7
  6
CONTINUOUS
 10
133.6263237682
 20
133.0400443595
 11
133.7142739542
 21
132.9744368872
  0
LINE
  5
50C
100
AcDbEntity
  8
0
100
AcDbLine
 62
7
  6
CONTINUOUS
 10
134.4640736378
 20
133.9795818689
 11
134.3761234519
 21
134.0451893413
  0
LINE
  5
50D
100
AcDbEntity
  8
0
100
AcDbLine
 62
7
  6
CONTINUOUS
 10
128.2438820717
 20
137.6950097653
 11
128.1722881446
 21
137.7578349705
  0
LINE
  5
50E
100
AcDbEntity
  8
0
100
AcDbLine
 62
7
  6
CONTINUOUS
 10
130.516807361
 20
136.5227678397
 11
130.4339911808
 21
136.5995332197
  0
LINE
  5
50F
100
AcDbEntity
  8
RUNDUNGEN
100
AcDbLine
 62
7
  6
CONTINUOUS
 10
123.2671176543
 20
148.1803084161
 11
125.3208597784
 21
146.1575435261
  0
LINE
  5
510
100
AcDbEntity
  8
0
100
AcDbLine
 62
7
  6
CONTINUOUS
 10
130.3689864637
 20
136.4830382506
 11
130.4358330014
 21
136.4151840029
  0
LINE
  5
511
100
AcDbEntity
  8
RUNDUNGEN
100
AcDbLine
 62
7
  6
CONTINUOUS
 10
123.2669047726
 20
148.1805171462
 11
123.2668817575
 21
148.180540754
  0
LINE
  5
512
100
AcDbEntity
  8
0
100
AcDbLine
 62
7
  6
CONTINUOUS
 10
131.6112221072
 20
135.8818024255
 11
131.5467989236
 21
135.9519616156
  0
LINE
  5
513
100
AcDbEntity
  8
0
100
AcDbLine
 62
7
  6
CONTINUOUS
 10
133.0915058636
 20
134.9279811474
 11
133.0306120187
 21
135.0012245647
  0
LWPOLYLINE
  5
514
100
AcDbEntity
  8
RUNDUNGEN
100
AcDbPolyline
 62
7
  6
CONTINUOUS
 90
3
 70
0
 10
142.5777766699
 20
125.1205360296
 10
142.5651567942
 20
125.1357714778
 10
142.0644817911
 20
125.755278543
  0
LINE
  5
515
100
AcDbEntity
  8
RUNDUNGEN
100
AcDbLine
 62
7
  6
CONTINUOUS
 10
142.0644817911
 20
125.755278543
 11
141.940611721
 21
125.9073692133
  0
LINE
  5
516
100
AcDbEntity
  8
0
100
AcDbLine
 62
7
  6
CONTINUOUS
 10
133.7753675654
 20
134.4511386118
 11
133.7162250307
 21
134.5258028106
  0
LWPOLYLINE
  5
517
100
AcDbEntity
  8
RUNDUNGEN
100
AcDbPolyline
 62
7
  6
CONTINUOUS
 90
3
 70
0
 10
144.8277766699
 20
121.2234217126
 10
144.8350708725
 20
121.2050321843
 10
145.1198028855
 20
120.4611288685
  0
LINE
  5
518
100
AcDbEntity
  8
RUNDUNGEN
100
AcDbLine
 62
7
  6
CONTINUOUS
 10
145.1198028855
 20
120.4611288685
 11
145.190611721
 21
120.2782040887
  0
LINE
  5
519
100
AcDbEntity
  8
0
100
AcDbLine
 62
7
  6
CONTINUOUS
 10
148.6427741726
 20
107.5221875364
 11
148.6111012792
 21
107.6120180693
  0
LINE
  5
51A
100
AcDbEntity
  8
0
100
AcDbLine
 62
7
  6
CONTINUOUS
 10
148.5351479356
 20
104.8533250623
 11
148.5599503902
 21
104.7613604126
  0
LINE
  5
51B
100
AcDbEntity
  8
RUNDUNGEN
100
AcDbLine
 62
7
  6
CONTINUOUS
 10
154.4179011348
 20
95.7599895488
 11
155.1428221491
 21
92.9699130444
  0
LINE
  5
51C
100
AcDbEntity
  8
0
100
AcDbLine
 62
7
  6
CONTINUOUS
 10
148.693326645
 20
104.7586280614
 11
148.6688987532
 21
104.8688765144
  0
LINE
  5
51D
100
AcDbEntity
  8
RUNDUNGEN
100
AcDbLine
 62
7
  6
CONTINUOUS
 10
160.1478183927
 20
102.4883310746
 11
160.1478183927
 21
108.4883310746
  0
LINE
  5
51E
100
AcDbEntity
  8
RUNDUNGEN
100
AcDbLine
 62
7
  6
CONTINUOUS
 10
146.6762277613
 20
75.9548516422
 11
148.1948126291
 21
78.5851177888
  0
LINE
  5
51F
100
AcDbEntity
  8
RUNDUNGEN
100
AcDbLine
 62
7
  6
CONTINUOUS
 10
153.9331725751
 20
88.5242487674
 11
155.4517617543
 21
91.1545223816
  0
LINE
  5
520
100
AcDbEntity
  8
RUNDUNGEN
100
AcDbLine
 62
7
  6
CONTINUOUS
 10
134.0127330966
 20
63.2210354816
 11
139.2088855193
 21
66.2210354816
  0
LINE
  5
521
100
AcDbEntity
  8
RUNDUNGEN
100
AcDbLine
 62
7
  6
CONTINUOUS
 10
121.8493299048
 20
149.3556266676
 11
118.8121601692
 21
149.3556266676
  0
LINE
  5
522
100
AcDbEntity
  8
RUNDUNGEN
100
AcDbLine
 62
7
  6
CONTINUOUS
 10
107.3354402772
 20
149.3556266676
 11
104.2982631649
 21
149.3556266676
  0
LINE
  5
523
100
AcDbEntity
  8
RUNDUNGEN
100
AcDbLine
 62
7
  6
CONTINUOUS
 10
139.2088855193
 20
144.7556266676
 11
134.0127330966
 21
147.7556266676
  0
LINE
  5
524
100
AcDbEntity
  8
RUNDUNGEN
100
AcDbLine
 62
7
  6
CONTINUOUS
 10
155.4517574429
 20
119.8221472352
 11
153.9331725751
 21
122.4524133818
  0
LINE
  5
525
100
AcDbEntity
  8
RUNDUNGEN
100
AcDbLine
 62
7
  6
CONTINUOUS
 10
148.1948126291
 20
132.3915443604
 11
146.6762234499
 21
135.0218179746
  0
LINE
  5
526
100
AcDbEntity
  8
RUNDUNGEN
100
AcDbLine
 62
7
  6
CONTINUOUS
 10
203.780861368
 20
61.6210354816
 11
231.780861368
 21
61.6210354816
  0
LWPOLYLINE
  5
527
100
AcDbEntity
  8
RUNDUNGEN
100
AcDbPolyline
 62
7
  6
CONTINUOUS
 90
3
 70
0
 10
218.030861368
 20
63.0870608854
 10
218.1873716501
 20
63.0993845571
 10
218.339954492
 20
63.1360291085
  0
LINE
  5
528
100
AcDbEntity
  8
0
100
AcDbLine
 62
7
  6
CONTINUOUS
 10
217.530861368
 20
63.0870608854
 11
218.030861368
 21
63.0870608854
  0
LWPOLYLINE
  5
529
100
AcDbEntity
  8
RUNDUNGEN
100
AcDbPolyline
 62
7
  6
CONTINUOUS
 90
11
 70
0
 10
217.530861368
 20
63.0870608854
 10
217.3743510859
 20
63.0993845571
 10
217.2217682439
 20
63.1360291085
 10
217.0768046861
 20
63.196088086
 10
216.9430288451
 20
63.2780782372
 10
216.8237421029
 20
63.3799665885
 10
216.721853436
 20
63.49926316
 10
216.6398789195
 20
63.6330231375
 10
216.5798247734
 20
63.7779825849
 10
216.5431787239
 20
63.9305905383
 10
216.530861368
 20
64.0870608854
  0
LWPOLYLINE
  5
52A
100
AcDbEntity
  8
0
100
AcDbPolyline
 62
7
  6
CONTINUOUS
 90
9
 70
0
 10
203.4711040996
 20
134.8009977695
 10
203.3262666343
 20
134.7408804932
 10
203.1926679473
 20
134.6589023867
 10
203.0736310956
 20
134.5571653687
 10
202.9718940761
 20
134.4380357573
 10
202.8900678822
 20
134.3045904697
 10
202.8299990216
 20
134.1597960518
 10
202.7932310285
 20
134.0069815511
 10
202.780861368
 20
133.8501821014
  0
LWPOLYLINE
  5
52B
100
AcDbEntity
  8
RUNDUNGEN
100
AcDbPolyline
 62
7
  6
CONTINUOUS
 90
5
 70
0
 10
219.6235920186
 20
75.6427430406
 10
221.0982645454
 20
75.9128726042
 10
221.8810572148
 20
76.0300393361
 10
222.6949914772
 20
76.1071209863
 10
223.3190493743
 20
76.1265390172
  0
LINE
  5
52C
100
AcDbEntity
  8
RUNDUNGEN
100
AcDbLine
 62
7
  6
CONTINUOUS
 10
218.8537124587
 20
75.5248687302
 11
219.6235920186
 21
75.6427430406
  0
LINE
  5
52D
100
AcDbEntity
  8
RUNDUNGEN
100
AcDbLine
 62
7
  6
CONTINUOUS
 10
218.8575301223
 20
75.5253207549
 11
218.8615142987
 21
75.5258168684
  0
LINE
  5
52E
100
AcDbEntity
  8
RUNDUNGEN
100
AcDbLine
 62
7
  6
CONTINUOUS
 10
231.780861368
 20
76.1264800478
 11
223.3190491871
 21
76.1264800478
  0
LINE
  5
52F
100
AcDbEntity
  8
RUNDUNGEN
100
AcDbLine
 62
7
  6
CONTINUOUS
 10
212.2426698324
 20
76.1264800478
 11
203.780861368
 21
76.1264800478
  0
LWPOLYLINE
  5
530
100
AcDbEntity
  8
RUNDUNGEN
100
AcDbPolyline
 62
7
  6
CONTINUOUS
 90
8
 70
0
 10
212.2426698311
 20
76.1265529306
 10
212.8603533925
 20
76.1075109662
 10
213.6569202923
 20
76.0330055946
 10
214.4299992205
 20
75.9185564116
 10
215.1790828481
 20
75.7832515624
 10
215.9058896438
 20
75.648498917
 10
216.6249515555
 20
75.5354606697
 10
216.7009056858
 20
75.5257314182
  0
LINE
  5
531
100
AcDbEntity
  8
RUNDUNGEN
100
AcDbLine
 62
7
  6
CONTINUOUS
 10
203.780861368
 20
76.1264800478
 11
203.6236851732
 21
76.1389094863
  0
LWPOLYLINE
  5
532
100
AcDbEntity
  8
RUNDUNGEN
100
AcDbPolyline
 62
7
  6
CONTINUOUS
 90
5
 70
0
 10
203.0736217755
 20
76.4195061046
 10
203.1932405998
 20
76.3173435743
 10
203.3273531576
 20
76.2352279517
 10
203.4724158941
 20
76.1752380231
 10
203.6241554445
 20
76.1388722974
  0
LWPOLYLINE
  5
533
100
AcDbEntity
  8
RUNDUNGEN
100
AcDbPolyline
 62
7
  6
CONTINUOUS
 90
6
 70
0
 10
203.0736310956
 20
76.4194967806
 10
202.9718940761
 20
76.538626392
 10
202.8900678822
 20
76.6720716796
 10
202.8299990216
 20
76.8168660974
 10
202.7932310285
 20
76.9696805981
 10
202.780861368
 20
77.1264800478
  0
LINE
  5
534
100
AcDbEntity
  8
0
100
AcDbLine
 62
2
  6
CONTINUOUS
 10
210.4710816131
 20
137.6056266676
 11
209.4365520921
 21
136.5710971466
  0
LINE
  5
535
100
AcDbEntity
  8
0
100
AcDbLine
 62
2
  6
CONTINUOUS
 10
204.222424972
 20
131.3569700265
 11
199.1537860201
 21
126.2883310746
  0
LWPOLYLINE
  5
536
100
AcDbEntity
  8
0
100
AcDbPolyline
 62
7
  6
CONTINUOUS
 90
4
 70
0
 10
212.1636845794
 20
131.6847490942
 10
212.1386461121
 20
131.6692877836
 10
212.0947733499
 20
131.6453676411
 10
212.0264136829
 20
131.6141550089
  0
LINE
  5
537
100
AcDbEntity
  8
RUNDUNGEN
100
AcDbLine
 62
7
  6
CONTINUOUS
 10
232.780861368
 20
79.6549231784
 11
233.9041579024
 21
79.6823759544
  0
LINE
  5
538
100
AcDbEntity
  8
RUNDUNGEN
100
AcDbLine
 62
7
  6
CONTINUOUS
 10
201.6575648335
 20
79.6823759544
 11
202.780861368
 21
79.6549231784
  0
LINE
  5
539
100
AcDbEntity
  8
0
100
AcDbLine
 62
2
  6
CONTINUOUS
 10
216.3719989556
 20
137.6056266676
 11
212.7311855407
 21
133.9648132527
  0
LINE
  5
53A
100
AcDbEntity
  8
0
100
AcDbLine
 62
2
  6
CONTINUOUS
 10
210.2711704703
 20
131.5047981823
 11
205.0547033626
 21
126.2883310746
  0
LINE
  5
53B
100
AcDbEntity
  8
RUNDUNGEN
100
AcDbLine
 62
7
  6
CONTINUOUS
 10
224.3167518921
 20
135.1179663881
 11
224.3151086538
 21
135.1169627167
  0
LWPOLYLINE
  5
53C
100
AcDbEntity
  8
0
100
AcDbPolyline
 62
7
  6
CONTINUOUS
 90
3
 70
0
 10
224.3167509822
 20
135.117967871
 10
224.7513459843
 20
135.3775856904
 10
225.4324862222
 20
135.766836393
  0
LINE
  5
53D
100
AcDbEntity
  8
0
100
AcDbLine
 62
7
  6
CONTINUOUS
 10
225.4324862222
 20
135.766836393
 11
226.1656571774
 21
136.1677923155
  0
LWPOLYLINE
  5
53E
100
AcDbEntity
  8
0
100
AcDbPolyline
 62
7
  6
CONTINUOUS
 90
3
 70
0
 10
226.1656571774
 20
136.1677923155
 10
226.9411587406
 20
136.5767774697
 10
227.7502314606
 20
136.9905850411
  0
LINE
  5
53F
100
AcDbEntity
  8
0
100
AcDbLine
 62
7
  6
CONTINUOUS
 10
227.7502314606
 20
136.9905850411
 11
228.3146801354
 21
137.2727195893
  0
LINE
  5
540
100
AcDbEntity
  8
0
100
AcDbLine
 62
7
  6
CONTINUOUS
 10
228.3146801354
 20
137.2727195893
 11
232.2212038473
 21
139.1897613029
  0
LINE
  5
541
100
AcDbEntity
  8
RUNDUNGEN
100
AcDbLine
 62
7
  6
CONTINUOUS
 10
228.2875546387
 20
137.2592745684
 11
228.2874870606
 21
137.2592414432
  0
LINE
  5
542
100
AcDbEntity
  8
0
100
AcDbLine
 62
7
  6
CONTINUOUS
 10
223.9041190744
 20
135.3421389992
 11
225.8197815252
 21
136.2764700052
  0
LINE
  5
543
100
AcDbEntity
  8
RUNDUNGEN
100
AcDbLine
 62
7
  6
CONTINUOUS
 10
228.2875545982
 20
73.7173874978
 11
228.2874870323
 21
73.717420617
  0
LINE
  5
544
100
AcDbEntity
  8
RUNDUNGEN
100
AcDbLine
 62
7
  6
CONTINUOUS
 10
232.2212038473
 20
71.7869008464
 11
228.2878318495
 21
73.7172515779
  0
LWPOLYLINE
  5
545
100
AcDbEntity
  8
RUNDUNGEN
100
AcDbPolyline
 62
7
  6
CONTINUOUS
 90
4
 70
0
 10
228.2877638795
 20
73.7172862019
 10
227.7501997681
 20
73.9860931644
 10
226.9411110973
 20
74.3999094589
 10
226.1656038401
 20
74.8088984357
  0
LINE
  5
546
100
AcDbEntity
  8
RUNDUNGEN
100
AcDbLine
 62
7
  6
CONTINUOUS
 10
226.1655076145
 20
74.8089510596
 11
225.4324361247
 21
75.2098535378
  0
LWPOLYLINE
  5
547
100
AcDbEntity
  8
RUNDUNGEN
100
AcDbPolyline
 62
7
  6
CONTINUOUS
 90
3
 70
0
 10
225.4321717446
 20
75.2100046237
 10
224.7513188442
 20
75.5990930008
 10
224.3167482139
 20
75.8586957696
  0
LINE
  5
548
100
AcDbEntity
  8
RUNDUNGEN
100
AcDbLine
 62
7
  6
CONTINUOUS
 10
224.3167492139
 20
75.8586973996
 11
224.3151086538
 21
75.8596994325
  0
LWPOLYLINE
  5
549
100
AcDbEntity
  8
RUNDUNGEN
100
AcDbPolyline
 62
7
  6
CONTINUOUS
 90
3
 70
0
 10
224.3151086538
 20
75.8596994325
 10
224.2447482285
 20
75.9054930731
 10
224.1788515117
 20
75.9536603417
  0
LINE
  5
54A
100
AcDbEntity
  8
RUNDUNGEN
100
AcDbLine
 62
7
  6
CONTINUOUS
 10
202.829571509
 20
76.8181821332
 11
202.8895069802
 21
76.6731729169
  0
LINE
  5
54B
100
AcDbEntity
  8
RUNDUNGEN
100
AcDbLine
 62
7
  6
CONTINUOUS
 10
198.730861368
 20
82.6814804237
 11
198.730861368
 21
105.4883310752
  0
LINE
  5
54C
100
AcDbEntity
  8
0
100
AcDbLine
 62
7
  6
CONTINUOUS
 10
198.730861368
 20
105.4883310752
 11
198.730861368
 21
128.2951817255
  0
LINE
  5
54D
100
AcDbEntity
  8
0
100
AcDbLine
 62
2
  6
CONTINUOUS
 10
222.2729162981
 20
137.6056266676
 11
210.9556207051
 21
126.2883310746
  0
LINE
  5
54E
100
AcDbEntity
  8
RUNDUNGEN
100
AcDbLine
 62
7
  6
CONTINUOUS
 10
224.0604472852
 20
134.9238719895
 11
224.0603972551
 21
134.9238267529
  0
LWPOLYLINE
  5
54F
100
AcDbEntity
  8
0
100
AcDbPolyline
 62
7
  6
CONTINUOUS
 90
5
 70
0
 10
224.0604065538
 20
134.9238169021
 10
224.1148277452
 20
134.9713675098
 10
224.1788515117
 20
135.0230018076
 10
224.2447482285
 20
135.0711690761
 10
224.3151086538
 20
135.1169627167
  0
LWPOLYLINE
  5
550
100
AcDbEntity
  8
RUNDUNGEN
100
AcDbPolyline
 62
7
  6
CONTINUOUS
 90
11
 70
0
 10
231.780861368
 20
88.0242487674
 10
231.9393041173
 20
88.0368806754
 10
232.0918835663
 20
88.07384612
 10
232.2363601815
 20
88.1340123805
 10
232.3695933781
 20
88.21592048
 10
232.4883504812
 20
88.3175245284
 10
232.5899215884
 20
88.4365230153
 10
232.6713940844
 20
88.5693295648
 10
232.7313999541
 20
88.7136422698
 10
232.7683840355
 20
88.8667739036
 10
232.780861368
 20
89.0242487674
  0
LWPOLYLINE
  5
551
100
AcDbEntity
  8
RUNDUNGEN
100
AcDbPolyline
 62
7
  6
CONTINUOUS
 90
8
 70
0
 10
203.780861368
 20
85.8561261196
 10
203.5843212163
 20
85.8406143907
 10
203.3958309919
 20
85.7954643502
 10
203.2226360415
 20
85.7220678752
 10
203.0713387911
 20
85.6237606711
 10
202.9476244233
 20
85.5043139884
 10
202.8560170064
 20
85.3685616113
 10
202.7997905742
 20
85.2220775762
  0
LINE
  5
552
100
AcDbEntity
  8
RUNDUNGEN
100
AcDbLine
 62
7
  6
CONTINUOUS
 10
203.780861368
 20
85.8561261196
 11
231.780861368
 21
85.8561261196
  0
LWPOLYLINE
  5
553
100
AcDbEntity
  8
RUNDUNGEN
100
AcDbPolyline
 62
7
  6
CONTINUOUS
 90
8
 70
0
 10
231.780861368
 20
85.8561261196
 10
231.9774015196
 20
85.8408906715
 10
232.1658917441
 20
85.7954643502
 10
232.3390866945
 20
85.7221552053
 10
232.4903839449
 20
85.6237606711
 10
232.6140983127
 20
85.5043669645
 10
232.7057057295
 20
85.3685616113
 10
232.7619321618
 20
85.2213836063
  0
LWPOLYLINE
  5
554
100
AcDbEntity
  8
RUNDUNGEN
100
AcDbPolyline
 62
7
  6
CONTINUOUS
 90
11
 70
0
 10
203.780861368
 20
88.0242487674
 10
203.6224186187
 20
88.0368806754
 10
203.4698391697
 20
88.07384612
 10
203.3253625545
 20
88.1340123805
 10
203.1921293578
 20
88.21592048
 10
203.0733722547
 20
88.3175245284
 10
202.9718011475
 20
88.4365230153
 10
202.8903286516
 20
88.5693295648
 10
202.8303227819
 20
88.7136422698
 10
202.7933387004
 20
88.8667739036
 10
202.780861368
 20
89.0242487674
  0
LINE
  5
555
100
AcDbEntity
  8
RUNDUNGEN
100
AcDbLine
 62
7
  6
CONTINUOUS
 10
224.1788628302
 20
75.9536531339
 11
224.1148159229
 21
76.0053056979
  0
LINE
  5
556
100
AcDbEntity
  8
RUNDUNGEN
100
AcDbLine
 62
7
  6
CONTINUOUS
 10
224.1148159229
 20
76.0053056979
 11
224.0604152385
 21
76.052837128
  0
LINE
  5
557
100
AcDbEntity
  8
RUNDUNGEN
100
AcDbLine
 62
7
  6
CONTINUOUS
 10
224.0604472852
 20
76.0527901597
 11
224.0603972551
 21
76.0528353964
  0
LINE
  5
558
100
AcDbEntity
  8
RUNDUNGEN
100
AcDbLine
 62
7
  6
CONTINUOUS
 10
202.780861368
 20
62.6210354816
 11
202.780861368
 21
70.889131486
  0
LINE
  5
559
100
AcDbEntity
  8
RUNDUNGEN
100
AcDbLine
 62
7
  6
CONTINUOUS
 10
202.780861368
 20
77.1264800478
 11
202.780861368
 21
85.3456999413
  0
LINE
  5
55A
100
AcDbEntity
  8
RUNDUNGEN
100
AcDbLine
 62
7
  6
CONTINUOUS
 10
202.780861368
 20
89.0242487674
 11
202.780861368
 21
93.5434374305
  0
LINE
  5
55B
100
AcDbEntity
  8
RUNDUNGEN
100
AcDbLine
 62
7
  6
CONTINUOUS
 10
202.780861368
 20
131.3217389708
 11
202.780861368
 21
133.8501821014
  0
LINE
  5
55C
100
AcDbEntity
  8
0
100
AcDbLine
 62
7
  6
CONTINUOUS
 10
202.780861368
 20
140.1444282166
 11
202.780861368
 21
148.3556266676
  0
LINE
  5
55D
100
AcDbEntity
  8
RUNDUNGEN
100
AcDbLine
 62
7
  6
CONTINUOUS
 10
202.780861368
 20
140.0875306632
 11
202.780861368
 21
148.3556266676
  0
LINE
  5
55E
100
AcDbEntity
  8
0
100
AcDbLine
 62
7
  6
CONTINUOUS
 10
223.8526001601
 20
134.7056327078
 11
224.0604472852
 21
134.9238719895
  0
LINE
  5
55F
100
AcDbEntity
  8
0
100
AcDbLine
 62
2
  6
CONTINUOUS
 10
222.8674846434
 20
132.2992776704
 11
216.8565380476
 21
126.2883310746
  0
LINE
  5
560
100
AcDbEntity
  8
RUNDUNGEN
100
AcDbLine
 62
7
  6
CONTINUOUS
 10
203.766084041
 20
86.4797185574
 11
203.5797552371
 21
86.4304527779
  0
LINE
  5
561
100
AcDbEntity
  8
RUNDUNGEN
100
AcDbLine
 62
7
  6
CONTINUOUS
 10
203.6173484676
 20
86.4402782477
 11
203.6184298634
 21
86.440546499
  0
LINE
  5
562
100
AcDbEntity
  8
0
100
AcDbLine
 62
7
  6
CONTINUOUS
 10
203.780861368
 20
88.0242487674
 11
231.780861368
 21
88.0242487674
  0
LINE
  5
563
100
AcDbEntity
  8
RUNDUNGEN
100
AcDbLine
 62
7
  6
CONTINUOUS
 10
232.0011826294
 20
86.4338138805
 11
231.9842784213
 21
86.4390775514
  0
LINE
  5
564
100
AcDbEntity
  8
RUNDUNGEN
100
AcDbLine
 62
7
  6
CONTINUOUS
 10
224.0604375057
 20
76.0528104795
 11
223.9902499374
 21
76.1264800478
  0
LINE
  5
565
100
AcDbEntity
  8
RUNDUNGEN
100
AcDbLine
 62
7
  6
CONTINUOUS
 10
202.7997905742
 20
85.2220775762
 11
202.780861368
 21
85.069292936
  0
LINE
  5
566
100
AcDbEntity
  8
0
100
AcDbLine
 62
7
  6
CONTINUOUS
 10
223.5983607368
 20
134.3428471311
 11
223.8526001601
 21
134.7056327078
  0
LINE
  5
567
100
AcDbEntity
  8
0
100
AcDbLine
 62
2
  6
CONTINUOUS
 10
227.9099068505
 20
131.4407825351
 11
222.75745539
 21
126.2883310746
  0
LINE
  5
568
100
AcDbEntity
  8
RUNDUNGEN
100
AcDbLine
 62
7
  6
CONTINUOUS
 10
232.0179717528
 20
86.4283145843
 11
232.0011826294
 21
86.4338138805
  0
LINE
  5
569
100
AcDbEntity
  8
RUNDUNGEN
100
AcDbLine
 62
7
  6
CONTINUOUS
 10
231.9858953454
 20
86.4386614982
 11
231.7708381945
 21
86.5108615262
  0
LWPOLYLINE
  5
56A
100
AcDbEntity
  8
RUNDUNGEN
100
AcDbPolyline
 62
7
  6
CONTINUOUS
 90
6
 70
0
 10
231.7708381945
 20
86.5108615262
 10
231.3809562084
 20
86.6828743356
 10
231.005041515
 20
86.9084562051
 10
230.6289860109
 20
87.1934401919
 10
230.2417017334
 20
87.5380869378
 10
230.1766817873
 20
87.5998203938
  0
LWPOLYLINE
  5
56B
100
AcDbEntity
  8
RUNDUNGEN
100
AcDbPolyline
 62
7
  6
CONTINUOUS
 90
3
 70
0
 10
232.1539051724
 20
86.3725201417
 10
232.0837757515
 20
86.403902533
 10
232.0165076738
 20
86.4288234252
  0
LINE
  5
56C
100
AcDbEntity
  8
RUNDUNGEN
100
AcDbLine
 62
7
  6
CONTINUOUS
 10
232.188386661
 20
86.35493356
 11
232.1539157594
 21
86.3725155846
  0
LINE
  5
56D
100
AcDbEntity
  8
0
100
AcDbLine
 62
2
  6
CONTINUOUS
 10
233.6700493427
 20
131.3000076848
 11
228.6583727325
 21
126.2883310746
  0
LINE
  5
56E
100
AcDbEntity
  8
RUNDUNGEN
100
AcDbLine
 62
7
  6
CONTINUOUS
 10
207.9454165868
 20
95.5947500042
 11
203.5427543329
 21
94.5149958023
  0
LINE
  5
56F
100
AcDbEntity
  8
RUNDUNGEN
100
AcDbLine
 62
7
  6
CONTINUOUS
 10
232.0189664785
 20
94.5149962743
 11
227.6163442167
 21
95.5947406649
  0
LWPOLYLINE
  5
570
100
AcDbEntity
  8
RUNDUNGEN
100
AcDbPolyline
 62
7
  6
CONTINUOUS
 90
4
 70
0
 10
227.6172710136
 20
95.5944668735
 10
227.5412187867
 20
95.6138632881
 10
227.4638758825
 20
95.6351180354
 10
227.4504191627
 20
95.6389718898
  0
LINE
  5
571
100
AcDbEntity
  8
RUNDUNGEN
100
AcDbLine
 62
7
  6
CONTINUOUS
 10
232.3020280642
 20
86.285724368
 11
232.188386661
 21
86.35493356
  0
LINE
  5
572
100
AcDbEntity
  8
RUNDUNGEN
100
AcDbLine
 62
7
  6
CONTINUOUS
 10
212.780861368
 20
72.3440319401
 11
212.780861368
 21
76.1099615483
  0
LINE
  5
573
100
AcDbEntity
  8
RUNDUNGEN
100
AcDbLine
 62
7
  6
CONTINUOUS
 10
212.780861368
 20
100.1745117566
 11
212.780861368
 21
105.4883310752
  0
LINE
  5
574
100
AcDbEntity
  8
0
100
AcDbLine
 62
7
  6
CONTINUOUS
 10
212.780861368
 20
132.639578745
 11
212.780861368
 21
133.5445509066
  0
LINE
  5
575
100
AcDbEntity
  8
RUNDUNGEN
100
AcDbLine
 62
7
  6
CONTINUOUS
 10
212.7808611725
 20
104.3118288115
 11
212.7647663871
 21
103.5469338687
  0
LWPOLYLINE
  5
576
100
AcDbEntity
  8
RUNDUNGEN
100
AcDbPolyline
 62
7
  6
CONTINUOUS
 90
8
 70
0
 10
212.6965310011
 20
102.6010558024
 10
212.5952474623
 20
101.7945908966
 10
212.447047392
 20
100.9972462499
 10
212.2663225303
 20
100.2747351419
 10
212.0530895879
 20
99.6080435627
 10
211.8052667515
 20
98.9867351235
 10
211.523465131
 20
98.4141145803
 10
211.2055025261
 20
97.8918974757
  0
LWPOLYLINE
  5
577
100
AcDbEntity
  8
0
100
AcDbPolyline
 62
7
  6
CONTINUOUS
 90
3
 70
0
 10
223.1576800612
 20
133.3176151754
 10
223.3631260749
 20
133.8795076348
 10
223.5983607368
 20
134.3428471311
  0
LWPOLYLINE
  5
578
100
AcDbEntity
  8
RUNDUNGEN
100
AcDbPolyline
 62
7
  6
CONTINUOUS
 90
7
 70
0
 10
227.4506474574
 20
95.6389396103
 10
227.1977535065
 20
95.7197826508
 10
226.7764826729
 20
95.8894002473
 10
226.3437116321
 20
96.1089475121
 10
225.8948866171
 20
96.3867702209
 10
225.4271810052
 20
96.7345370972
 10
225.0899117619
 20
97.0256460647
  0
LWPOLYLINE
  5
579
100
AcDbEntity
  8
RUNDUNGEN
100
AcDbPolyline
 62
7
  6
CONTINUOUS
 90
4
 70
0
 10
212.4950651447
 20
102.7778138181
 10
212.570347549
 20
102.7336554423
 10
212.6458500872
 20
102.6676097002
 10
212.7066307775
 20
102.5877928315
  0
LWPOLYLINE
  5
57A
100
AcDbEntity
  8
RUNDUNGEN
100
AcDbPolyline
 62
7
  6
CONTINUOUS
 90
3
 70
0
 10
232.4175423841
 20
86.1944277314
 10
232.4067164604
 20
86.2040437439
 10
232.3020280642
 20
86.285724368
  0
LINE
  5
57B
100
AcDbEntity
  8
RUNDUNGEN
100
AcDbLine
 62
7
  6
CONTINUOUS
 10
232.4175423841
 20
86.1944277314
 11
232.4175854246
 21
86.194388891
  0
LWPOLYLINE
  5
57C
100
AcDbEntity
  8
RUNDUNGEN
100
AcDbPolyline
 62
7
  6
CONTINUOUS
 90
4
 70
0
 10
212.7066307775
 20
102.5877928315
 10
212.7502380579
 20
102.4974201971
 10
212.7749099617
 20
102.4001324088
 10
212.7803575715
 20
102.3265333969
  0
LINE
  5
57D
100
AcDbEntity
  8
RUNDUNGEN
100
AcDbLine
 62
7
  6
CONTINUOUS
 10
216.530861368
 20
64.0870608854
 11
216.530861368
 21
72.6087957499
  0
LINE
  5
57E
100
AcDbEntity
  8
RUNDUNGEN
100
AcDbLine
 62
7
  6
CONTINUOUS
 10
216.530861368
 20
98.9062143552
 11
216.530861368
 21
105.4883310752
  0
LINE
  5
57F
100
AcDbEntity
  8
RUNDUNGEN
100
AcDbLine
 62
7
  6
CONTINUOUS
 10
223.0768635846
 20
133.0314366979
 11
223.0770057351
 21
133.0319833688
  0
LINE
  5
580
100
AcDbEntity
  8
0
100
AcDbLine
 62
7
  6
CONTINUOUS
 10
223.0768216162
 20
133.0312743657
 11
223.1576800612
 21
133.3176151754
  0
LINE
  5
581
100
AcDbEntity
  8
RUNDUNGEN
100
AcDbLine
 62
7
  6
CONTINUOUS
 10
211.2055025261
 20
97.8918974757
 11
210.9572523079
 21
97.5550997916
  0
LINE
  5
582
100
AcDbEntity
  8
RUNDUNGEN
100
AcDbLine
 62
7
  6
CONTINUOUS
 10
210.9572523079
 20
97.5550997916
 11
210.9575134316
 21
97.5554253137
  0
LWPOLYLINE
  5
583
100
AcDbEntity
  8
RUNDUNGEN
100
AcDbPolyline
 62
7
  6
CONTINUOUS
 90
5
 70
0
 10
210.9575564078
 20
97.5553907248
 10
210.8366784779
 20
97.4091813557
 10
210.7084872941
 20
97.2638048218
 10
210.5831074149
 20
97.132529789
 10
210.4713486472
 20
97.0252300502
  0
LINE
  5
584
100
AcDbEntity
  8
0
100
AcDbLine
 62
2
  6
CONTINUOUS
 10
236.814508033
 20
128.5435490327
 11
234.559290075
 21
126.2883310746
  0
LINE
  5
585
100
AcDbEntity
  8
02___PRT_ALL_AXES
100
AcDbLine
 62
7
  6
CENTER
 10
195.730861368
 20
105.4883310746
 11
239.830861368
 21
105.4883310746
  0
LINE
  5
586
100
AcDbEntity
  8
0
100
AcDbLine
 62
2
  6
CONTINUOUS
 10
198.730861368
 20
105.4883310752
 11
236.830861368
 21
105.4883310752
  0
LINE
  5
587
100
AcDbEntity
  8
RUNDUNGEN
100
AcDbLine
 62
7
  6
CONTINUOUS
 10
225.0899119426
 20
97.0256462605
 11
225.0903954552
 21
97.025205145
  0
LWPOLYLINE
  5
588
100
AcDbEntity
  8
RUNDUNGEN
100
AcDbPolyline
 62
7
  6
CONTINUOUS
 90
5
 70
0
 10
225.0903954552
 20
97.025205145
 10
224.9750615685
 20
97.1360758817
 10
224.8489756738
 20
97.2684602094
 10
224.7210300433
 20
97.4138705396
 10
224.6041694047
 20
97.555366369
  0
LINE
  5
589
100
AcDbEntity
  8
RUNDUNGEN
100
AcDbLine
 62
7
  6
CONTINUOUS
 10
224.6042378138
 20
97.5554214468
 11
224.6044959321
 21
97.5550995633
  0
LINE
  5
58A
100
AcDbEntity
  8
RUNDUNGEN
100
AcDbLine
 62
7
  6
CONTINUOUS
 10
219.030861368
 20
105.4883310752
 11
219.030861368
 21
98.9062159076
  0
LINE
  5
58B
100
AcDbEntity
  8
RUNDUNGEN
100
AcDbLine
 62
7
  6
CONTINUOUS
 10
219.030861368
 20
72.6087656613
 11
219.030861368
 21
64.0870608854
  0
LWPOLYLINE
  5
58C
100
AcDbEntity
  8
RUNDUNGEN
100
AcDbPolyline
 62
7
  6
CONTINUOUS
 90
7
 70
0
 10
203.1905551753
 20
86.2336239674
 10
203.0611309373
 20
86.1107170599
 10
202.9512153999
 20
85.9616961743
 10
202.8636357256
 20
85.7856888975
 10
202.8053283009
 20
85.588683839
 10
202.7812763064
 20
85.3734289521
 10
202.7808885056
 20
85.3500593824
  0
LINE
  5
58D
100
AcDbEntity
  8
RUNDUNGEN
100
AcDbLine
 62
7
  6
CONTINUOUS
 10
210.4713486472
 20
97.0252300502
 11
210.4718117184
 21
97.0256524277
  0
LWPOLYLINE
  5
58E
100
AcDbEntity
  8
RUNDUNGEN
100
AcDbPolyline
 62
7
  6
CONTINUOUS
 90
7
 70
0
 10
210.4718131076
 20
97.0256509127
 10
210.1348009445
 20
96.7347484373
 10
209.6671141285
 20
96.3869597002
 10
209.2178819831
 20
96.1088759283
 10
208.7847129048
 20
95.8891623787
 10
208.3634976452
 20
95.7196179472
 10
208.1109374162
 20
95.6389001069
  0
LWPOLYLINE
  5
58F
100
AcDbEntity
  8
RUNDUNGEN
100
AcDbPolyline
 62
7
  6
CONTINUOUS
 90
8
 70
0
 10
224.6044959321
 20
97.5550995633
 10
224.3559262511
 20
97.8923380769
 10
224.0378280464
 20
98.4148998397
 10
223.7560865638
 20
98.9875704356
 10
223.5083122882
 20
99.6089407192
 10
223.294982727
 20
100.2762045783
 10
223.114214487
 20
100.9993614075
 10
222.9660673635
 20
101.797216394
  0
LINE
  5
590
100
AcDbEntity
  8
0
100
AcDbLine
 62
7
  6
CONTINUOUS
 10
212.4140118392
 20
133.2848355582
 11
212.5205503808
 21
132.8875932787
  0
LINE
  5
591
100
AcDbEntity
  8
RUNDUNGEN
100
AcDbLine
 62
7
  6
CONTINUOUS
 10
212.5203671493
 20
132.8883615403
 11
212.5205122973
 21
132.8877540304
  0
LINE
  5
592
100
AcDbEntity
  8
RUNDUNGEN
100
AcDbLine
 62
7
  6
CONTINUOUS
 10
222.7891147475
 20
103.918847726
 11
222.7808615035
 21
104.3121743171
  0
LINE
  5
593
100
AcDbEntity
  8
RUNDUNGEN
100
AcDbLine
 62
7
  6
CONTINUOUS
 10
222.780861368
 20
105.4883310752
 11
222.780861368
 21
100.1745406569
  0
LINE
  5
594
100
AcDbEntity
  8
RUNDUNGEN
100
AcDbLine
 62
7
  6
CONTINUOUS
 10
222.780861368
 20
76.1097928926
 11
222.780861368
 21
72.3440897408
  0
LINE
  5
595
100
AcDbEntity
  8
0
100
AcDbLine
 62
7
  6
CONTINUOUS
 10
222.780861368
 20
132.7371646576
 11
222.780861368
 21
133.5445509066
  0
LINE
  5
596
100
AcDbEntity
  8
0
100
AcDbLine
 62
7
  6
CONTINUOUS
 10
223.280861368
 20
133.6545146176
 11
223.280861368
 21
132.9744368872
  0
LWPOLYLINE
  5
597
100
AcDbEntity
  8
RUNDUNGEN
100
AcDbPolyline
 62
7
  6
CONTINUOUS
 90
4
 70
0
 10
222.7813297783
 20
102.3264985563
 10
222.7868998595
 20
102.4009169452
 10
222.8116498006
 20
102.4979390611
 10
222.8552858217
 20
102.5881379276
  0
LWPOLYLINE
  5
598
100
AcDbEntity
  8
RUNDUNGEN
100
AcDbPolyline
 62
7
  6
CONTINUOUS
 90
4
 70
0
 10
222.8552858217
 20
102.5881379276
 10
222.9160747261
 20
102.6678392608
 10
222.9915752938
 20
102.7338034982
 10
223.0666518181
 20
102.7778142109
  0
LINE
  5
599
100
AcDbEntity
  8
RUNDUNGEN
100
AcDbLine
 62
7
  6
CONTINUOUS
 10
205.8462016121
 20
87.8109953283
 11
205.840013383
 21
87.8050678778
  0
LWPOLYLINE
  5
59A
100
AcDbEntity
  8
RUNDUNGEN
100
AcDbPolyline
 62
7
  6
CONTINUOUS
 90
7
 70
0
 10
205.8413517994
 20
87.8059406935
 10
205.7039090457
 20
87.6756608997
 10
205.3809200344
 20
87.3857200009
 10
205.0622027639
 20
87.1298566373
 10
204.745644545
 20
86.9122446306
 10
204.42667336
 20
86.7328451749
 10
204.1004545316
 20
86.5900457111
  0
LINE
  5
59B
100
AcDbEntity
  8
RUNDUNGEN
100
AcDbLine
 62
7
  6
CONTINUOUS
 10
203.2695419931
 20
86.2902107187
 11
203.1905551753
 21
86.2336239674
  0
LWPOLYLINE
  5
59C
100
AcDbEntity
  8
RUNDUNGEN
100
AcDbPolyline
 62
7
  6
CONTINUOUS
 90
4
 70
0
 10
208.1111812369
 20
95.6389703903
 10
208.0977927184
 20
95.6351217291
 10
208.0204817938
 20
95.6138780704
 10
207.9453983747
 20
95.5947211394
  0
LINE
  5
59D
100
AcDbEntity
  8
RUNDUNGEN
100
AcDbLine
 62
7
  6
CONTINUOUS
 10
222.9660673635
 20
101.797216394
 11
222.8652413656
 21
102.6011908051
  0
LINE
  5
59E
100
AcDbEntity
  8
RUNDUNGEN
100
AcDbLine
 62
7
  6
CONTINUOUS
 10
203.2694513696
 20
86.29035091
 11
203.2694904888
 21
86.2903763205
  0
LINE
  5
59F
100
AcDbEntity
  8
RUNDUNGEN
100
AcDbLine
 62
7
  6
CONTINUOUS
 10
203.3760113061
 20
86.3514077668
 11
203.2694904888
 21
86.2903763205
  0
LINE
  5
5A0
100
AcDbEntity
  8
0
100
AcDbLine
 62
7
  6
CONTINUOUS
 10
236.830861368
 20
115.5883310746
 11
198.730861368
 21
115.5883310746
  0
LINE
  5
5A1
100
AcDbEntity
  8
0
100
AcDbLine
 62
7
  6
CONTINUOUS
 10
236.830861368
 20
116.1883310746
 11
198.730861368
 21
116.1883310746
  0
LWPOLYLINE
  5
5A2
100
AcDbEntity
  8
0
100
AcDbPolyline
 62
7
  6
CONTINUOUS
 90
3
 70
0
 10
211.9696617699
 20
134.332250547
 10
212.2072945634
 20
133.8592779441
 10
212.4140118392
 20
133.2848355582
  0
LWPOLYLINE
  5
5A3
100
AcDbEntity
  8
RUNDUNGEN
100
AcDbPolyline
 62
7
  6
CONTINUOUS
 90
7
 70
0
 10
232.7808583775
 20
85.3476069649
 10
232.7677822999
 20
85.5240067816
 10
232.7274716616
 20
85.7020518738
 10
232.6626792468
 20
85.8664380913
 10
232.5772869141
 20
86.0126191819
 10
232.4734454071
 20
86.1401355174
 10
232.4175853088
 20
86.1943886262
  0
LWPOLYLINE
  5
5A4
100
AcDbEntity
  8
RUNDUNGEN
100
AcDbPolyline
 62
7
  6
CONTINUOUS
 90
3
 70
0
 10
203.5062964225
 20
86.4071479839
 10
203.4929206121
 20
86.4022988143
 10
203.3760113061
 20
86.3514077668
  0
LINE
  5
5A5
100
AcDbEntity
  8
RUNDUNGEN
100
AcDbLine
 62
7
  6
CONTINUOUS
 10
204.1004545316
 20
86.5900457111
 11
203.766084041
 21
86.4797185574
  0
LINE
  5
5A6
100
AcDbEntity
  8
RUNDUNGEN
100
AcDbLine
 62
7
  6
CONTINUOUS
 10
203.5797552371
 20
86.4304527779
 11
203.5062861573
 21
86.407120777
  0
LINE
  5
5A7
100
AcDbEntity
  8
0
100
AcDbLine
 62
7
  6
CONTINUOUS
 10
211.7123682413
 20
134.7017152372
 11
211.9696617699
 21
134.332250547
  0
LINE
  5
5A8
100
AcDbEntity
  8
RUNDUNGEN
100
AcDbLine
 62
7
  6
CONTINUOUS
 10
232.7619321618
 20
85.2213836063
 11
232.780861368
 21
85.069292936
  0
LWPOLYLINE
  5
5A9
100
AcDbEntity
  8
0
100
AcDbPolyline
 62
7
  6
CONTINUOUS
 90
11
 70
0
 10
232.780861368
 20
133.8501821014
 10
232.768639791
 20
134.0060459405
 10
232.732151227
 20
134.158480016
 10
232.6722157558
 20
134.3034892323
 10
232.5902608645
 20
134.437440524
 10
232.4881009605
 20
134.5571560446
 10
232.3684821361
 20
134.6593185749
 10
232.2343695783
 20
134.7414341975
 10
232.0893068419
 20
134.8014241261
 10
231.9371050736
 20
134.8379006265
 10
231.780861368
 20
134.8501821014
  0
LINE
  5
5AA
100
AcDbEntity
  8
RUNDUNGEN
100
AcDbLine
 62
7
  6
CONTINUOUS
 10
232.780861368
 20
148.3556266676
 11
232.780861368
 21
140.0875209066
  0
LINE
  5
5AB
100
AcDbEntity
  8
RUNDUNGEN
100
AcDbLine
 62
7
  6
CONTINUOUS
 10
232.780861368
 20
133.8501821014
 11
232.780861368
 21
131.3217389708
  0
LINE
  5
5AC
100
AcDbEntity
  8
RUNDUNGEN
100
AcDbLine
 62
7
  6
CONTINUOUS
 10
232.780861368
 20
93.543440559
 11
232.780861368
 21
89.0242487674
  0
LINE
  5
5AD
100
AcDbEntity
  8
RUNDUNGEN
100
AcDbLine
 62
7
  6
CONTINUOUS
 10
232.7808595748
 20
85.3476006116
 11
232.780861368
 21
77.1264800478
  0
LINE
  5
5AE
100
AcDbEntity
  8
RUNDUNGEN
100
AcDbLine
 62
7
  6
CONTINUOUS
 10
232.780861368
 20
70.8891314833
 11
232.780861368
 21
62.6210354816
  0
LINE
  5
5AF
100
AcDbEntity
  8
0
100
AcDbLine
 62
7
  6
CONTINUOUS
 10
232.780861368
 20
140.1071563786
 11
232.780861368
 21
140.6972422273
  0
LWPOLYLINE
  5
5B0
100
AcDbEntity
  8
RUNDUNGEN
100
AcDbPolyline
 62
7
  6
CONTINUOUS
 90
11
 70
0
 10
232.780861368
 20
77.1264800478
 10
232.768639791
 20
76.9706162087
 10
232.732151227
 20
76.8181821332
 10
232.6722157558
 20
76.6731729169
 10
232.5902608645
 20
76.5392216252
 10
232.4881009605
 20
76.4195061046
 10
232.3684821361
 20
76.3173435743
 10
232.2343695783
 20
76.2352279517
 10
232.0893068419
 20
76.1752380231
 10
231.9371050736
 20
76.1387615228
 10
231.780861368
 20
76.1264800478
  0
LINE
  5
5B1
100
AcDbEntity
  8
RUNDUNGEN
100
AcDbLine
 62
7
  6
CONTINUOUS
 10
211.5712885009
 20
76.1264800478
 11
211.5012286652
 21
76.0527517855
  0
LINE
  5
5B2
100
AcDbEntity
  8
RUNDUNGEN
100
AcDbLine
 62
7
  6
CONTINUOUS
 10
211.5013210914
 20
76.0528353595
 11
211.5012286652
 21
76.0527517855
  0
LINE
  5
5B3
100
AcDbEntity
  8
RUNDUNGEN
100
AcDbLine
 62
7
  6
CONTINUOUS
 10
211.501307841
 20
76.0528374833
 11
211.4469060905
 21
76.0053047277
  0
LINE
  5
5B4
100
AcDbEntity
  8
RUNDUNGEN
100
AcDbLine
 62
7
  6
CONTINUOUS
 10
211.5013210914
 20
134.9238267898
 11
211.5012286652
 21
134.9239103638
  0
LINE
  5
5B5
100
AcDbEntity
  8
0
100
AcDbLine
 62
7
  6
CONTINUOUS
 10
211.5012286652
 20
134.9239103638
 11
211.7123682413
 21
134.7017152372
  0
LINE
  5
5B6
100
AcDbEntity
  8
0
100
AcDbLine
 62
7
  6
CONTINUOUS
 10
236.830861368
 20
125.5950677177
 11
236.830861368
 21
105.4883310752
  0
LINE
  5
5B7
100
AcDbEntity
  8
RUNDUNGEN
100
AcDbLine
 62
7
  6
CONTINUOUS
 10
236.830861368
 20
105.4883310752
 11
236.830861368
 21
82.6814804237
  0
LINE
  5
5B8
100
AcDbEntity
  8
0
100
AcDbLine
 62
7
  6
CONTINUOUS
 10
236.830861368
 20
125.6883310746
 11
236.830861368
 21
128.2951817255
  0
LWPOLYLINE
  5
5B9
100
AcDbEntity
  8
RUNDUNGEN
100
AcDbPolyline
 62
7
  6
CONTINUOUS
 90
3
 70
0
 10
211.4468949328
 20
76.0052964164
 10
211.3828555659
 20
75.95364908
 10
211.3169437759
 20
75.905467887
  0
LINE
  5
5BA
100
AcDbEntity
  8
RUNDUNGEN
100
AcDbLine
 62
7
  6
CONTINUOUS
 10
211.316958434
 20
75.9054792871
 11
211.2465941924
 21
75.8596870332
  0
LINE
  5
5BB
100
AcDbEntity
  8
RUNDUNGEN
100
AcDbLine
 62
7
  6
CONTINUOUS
 10
211.2449583515
 20
75.8586878443
 11
211.2465941924
 21
75.8596870332
  0
LINE
  5
5BC
100
AcDbEntity
  8
RUNDUNGEN
100
AcDbLine
 62
7
  6
CONTINUOUS
 10
211.2449594142
 20
75.8586861045
 11
210.8102067862
 21
75.5989771915
  0
LINE
  5
5BD
100
AcDbEntity
  8
0
100
AcDbLine
 62
7
  6
CONTINUOUS
 10
236.830861368
 20
124.3223056708
 11
198.730861368
 21
124.3223056708
  0
LINE
  5
5BE
100
AcDbEntity
  8
0
100
AcDbLine
 62
7
  6
CONTINUOUS
 10
236.830861368
 20
125.6883310746
 11
198.730861368
 21
125.6883310746
  0
LINE
  5
5BF
100
AcDbEntity
  8
0
100
AcDbLine
 62
7
  6
CONTINUOUS
 10
236.830861368
 20
126.2883310746
 11
198.730861368
 21
126.2883310746
  0
LINE
  5
5C0
100
AcDbEntity
  8
RUNDUNGEN
100
AcDbLine
 62
7
  6
CONTINUOUS
 10
211.2465934316
 20
135.1169768408
 11
211.244963065
 21
135.1179726818
  0
LWPOLYLINE
  5
5C1
100
AcDbEntity
  8
0
100
AcDbPolyline
 62
7
  6
CONTINUOUS
 90
5
 70
0
 10
211.2465934316
 20
135.1169768408
 10
211.3169437759
 20
135.0711942622
 10
211.3828555659
 20
135.0230130692
 10
211.4468949328
 20
134.9713657328
 10
211.5013135422
 20
134.9238187056
  0
LINE
  5
5C2
100
AcDbEntity
  8
RUNDUNGEN
100
AcDbLine
 62
7
  6
CONTINUOUS
 10
210.8104624863
 20
75.5991299392
 11
210.1289420795
 21
75.2096594617
  0
LWPOLYLINE
  5
5C3
100
AcDbEntity
  8
RUNDUNGEN
100
AcDbPolyline
 62
7
  6
CONTINUOUS
 90
3
 70
0
 10
210.1294855168
 20
75.2099700162
 10
209.3956713087
 20
74.8086541778
 10
208.6201195353
 20
74.3996520355
  0
LINE
  5
5C4
100
AcDbEntity
  8
RUNDUNGEN
100
AcDbLine
 62
7
  6
CONTINUOUS
 10
208.6207075606
 20
74.3999621419
 11
207.8111017441
 21
73.9858813515
  0
LINE
  5
5C5
100
AcDbEntity
  8
RUNDUNGEN
100
AcDbLine
 62
7
  6
CONTINUOUS
 10
207.8113053224
 20
73.9859854713
 11
207.246837643
 21
73.7038433384
  0
LINE
  5
5C6
100
AcDbEntity
  8
RUNDUNGEN
100
AcDbLine
 62
7
  6
CONTINUOUS
 10
207.246870164
 20
73.7038595557
 11
203.3405073719
 21
71.7868951995
  0
LINE
  5
5C7
100
AcDbEntity
  8
RUNDUNGEN
100
AcDbLine
 62
7
  6
CONTINUOUS
 10
207.27397103
 20
73.717287746
 11
207.2739027712
 21
73.7172542842
  0
LINE
  5
5C8
100
AcDbEntity
  8
0
100
AcDbLine
 62
7
  6
CONTINUOUS
 10
209.7419721065
 20
136.2764549363
 11
211.6576036616
 21
135.3421389992
  0
LINE
  5
5C9
100
AcDbEntity
  8
RUNDUNGEN
100
AcDbLine
 62
7
  6
CONTINUOUS
 10
207.27397103
 20
137.2593744033
 11
207.2739027712
 21
137.259407865
  0
LINE
  5
5CA
100
AcDbEntity
  8
0
100
AcDbLine
 62
7
  6
CONTINUOUS
 10
203.3405073719
 20
139.1897669498
 11
207.2739015621
 21
137.2594054812
  0
LWPOLYLINE
  5
5CB
100
AcDbEntity
  8
0
100
AcDbPolyline
 62
7
  6
CONTINUOUS
 90
4
 70
0
 10
207.27397103
 20
137.2593744033
 10
207.8111017437
 20
136.9907807979
 10
208.6201195347
 20
136.5770101141
 10
209.395671308
 20
136.1680079718
  0
LWPOLYLINE
  5
5CC
100
AcDbEntity
  8
0
100
AcDbPolyline
 62
7
  6
CONTINUOUS
 90
4
 70
0
 10
209.395671308
 20
136.1680079718
 10
210.1289420789
 20
135.7670026879
 10
210.8102067859
 20
135.3776849579
 10
211.244963817
 20
135.1179739432
  0
LWPOLYLINE
  5
5CD
100
AcDbEntity
  8
0
100
AcDbPolyline
 62
7
  6
CONTINUOUS
 90
9
 70
0
 10
223.6386713626
 20
131.6915982569
 10
223.4750482236
 20
131.8051380203
 10
223.332454493
 20
131.9441791028
 10
223.2148197307
 20
132.1048922582
 10
223.1253860421
 20
132.2828501185
 10
223.0666181325
 20
132.473149347
 10
223.040134991
 20
132.6705461512
 10
223.0466652092
 20
132.8696018162
 10
223.0769765035
 20
133.0318442119
  0
LINE
  5
5CE
100
AcDbEntity
  8
0
100
AcDbLine
 62
7
  6
CONTINUOUS
 10
211.707736764
 20
131.5399071063
 11
201.6575648335
 21
131.2942861949
  0
LINE
  5
5CF
100
AcDbEntity
  8
0
100
AcDbLine
 62
7
  6
CONTINUOUS
 10
223.0769765035
 20
132.9744368872
 11
223.280861368
 21
132.9744368872
  0
LINE
  5
5D0
100
AcDbEntity
  8
0
100
AcDbLine
 62
7
  6
CONTINUOUS
 10
223.0769765035
 20
133.0400443595
 11
223.280861368
 21
133.0400443595
  0
LINE
  5
5D1
100
AcDbEntity
  8
0
100
AcDbLine
 62
7
  6
CONTINUOUS
 10
223.1223175919
 20
133.1923874631
 11
223.280861368
 21
133.1923874631
  0
LINE
  5
5D2
100
AcDbEntity
  8
0
100
AcDbLine
 62
7
  6
CONTINUOUS
 10
223.1375740448
 20
133.2464145356
 11
223.280861368
 21
133.2464145356
  0
LINE
  5
5D3
100
AcDbEntity
  8
0
100
AcDbLine
 62
7
  6
CONTINUOUS
 10
223.1709985005
 20
133.354040952
 11
223.280861368
 21
133.354040952
  0
LINE
  5
5D4
100
AcDbEntity
  8
0
100
AcDbLine
 62
7
  6
CONTINUOUS
 10
223.2102067168
 20
133.461274968
 11
223.280861368
 21
133.461274968
  0
LINE
  5
5D5
100
AcDbEntity
  8
0
100
AcDbLine
 62
7
  6
CONTINUOUS
 10
223.2215928739
 20
133.4924159752
 11
223.280861368
 21
133.4924159752
  0
LINE
  5
5D6
100
AcDbEntity
  8
0
100
AcDbLine
 62
7
  6
CONTINUOUS
 10
223.2409358615
 20
133.5453188214
 11
223.280861368
 21
133.5453188214
  0
LINE
  5
5D7
100
AcDbEntity
  8
0
100
AcDbLine
 62
7
  6
CONTINUOUS
 10
233.9041579024
 20
131.2942861949
 11
223.9515427542
 21
131.5375228699
  0
LWPOLYLINE
  5
5D8
100
AcDbEntity
  8
0
100
AcDbPolyline
 62
7
  6
CONTINUOUS
 90
3
 70
0
 10
224.2084719937
 20
131.5312372471
 10
224.0105062703
 20
131.55273955
 10
223.8188129765
 20
131.6066866921
  0
LINE
  5
5D9
100
AcDbEntity
  8
0
100
AcDbLine
 62
7
  6
CONTINUOUS
 10
223.8188129765
 20
131.6066866921
 11
223.6386713626
 21
131.6915982569
  0
LWPOLYLINE
  5
5DA
100
AcDbEntity
  8
0
100
AcDbPolyline
 62
7
  6
CONTINUOUS
 90
3
 70
0
 10
203.780861368
 20
134.8501821014
 10
203.6236851732
 20
134.837752663
 10
203.4711040996
 20
134.8009977695
  0
LINE
  5
5DB
100
AcDbEntity
  8
0
100
AcDbLine
 62
7
  6
CONTINUOUS
 10
231.780861368
 20
134.8501821014
 11
223.9902663752
 21
134.8501821014
  0
LINE
  5
5DC
100
AcDbEntity
  8
0
100
AcDbLine
 62
7
  6
CONTINUOUS
 10
211.5712885009
 20
134.8501821014
 11
203.780861368
 21
134.8501821014
  0
LINE
  5
5DD
100
AcDbEntity
  8
0
100
AcDbLine
 62
7
  6
CONTINUOUS
 10
210.0487404923
 20
137.6056266676
 11
225.5129267753
 21
137.6056266676
  0
LWPOLYLINE
  5
5DE
100
AcDbEntity
  8
RUNDUNGEN
100
AcDbPolyline
 62
7
  6
CONTINUOUS
 90
9
 70
0
 10
203.780861368
 20
140.8556266676
 10
203.5843212163
 20
140.8523152588
 10
203.3958309919
 20
140.843415845
 10
203.2226360415
 20
140.8285818678
 10
203.0713387911
 20
140.8088530029
 10
202.9476244233
 20
140.7847729169
 10
202.8560170064
 20
140.7574830797
 10
202.7997905742
 20
140.7284715196
 10
202.780861368
 20
140.6972422273
  0
LINE
  5
5DF
100
AcDbEntity
  8
RUNDUNGEN
100
AcDbLine
 62
7
  6
CONTINUOUS
 10
203.780861368
 20
140.8556266676
 11
231.780861368
 21
140.8556266676
  0
LWPOLYLINE
  5
5E0
100
AcDbEntity
  8
RUNDUNGEN
100
AcDbPolyline
 62
7
  6
CONTINUOUS
 90
9
 70
0
 10
231.780861368
 20
140.8556266676
 10
231.9774015196
 20
140.8527488682
 10
232.1658917441
 20
140.843415845
 10
232.3390866945
 20
140.8287189281
 10
232.4903839449
 20
140.8088530029
 10
232.6140983127
 20
140.7848560604
 10
232.7057057295
 20
140.7574830797
 10
232.7619321618
 20
140.7273823668
 10
232.780861368
 20
140.6972422273
  0
LWPOLYLINE
  5
5E1
100
AcDbEntity
  8
RUNDUNGEN
100
AcDbPolyline
 62
7
  6
CONTINUOUS
 90
9
 70
0
 10
218.339954492
 20
63.1360291085
 10
218.4849180499
 20
63.196088086
 10
218.6186938909
 20
63.2780782372
 10
218.7379806331
 20
63.3799665885
 10
218.8398693
 20
63.49926316
 10
218.9218438164
 20
63.6330231375
 10
218.9818979625
 20
63.7779825849
 10
219.0185440121
 20
63.9305905383
 10
219.030861368
 20
64.0870608854
  0
LINE
  5
5E2
100
AcDbEntity
  8
RUNDUNGEN
100
AcDbLine
 62
7
  6
CONTINUOUS
 10
203.780861368
 20
149.3556266676
 11
231.780861368
 21
149.3556266676
  0
LINE
  5
5E3
100
AcDbEntity
  8
0
100
AcDbLine
 62
7
  6
CONTINUOUS
 10
203.780861368
 20
149.3556266676
 11
231.780861368
 21
149.3556266676
  0
ARC
  5
5E4
100
AcDbEntity
  8
RUNDUNGEN
100
AcDbCircle
 62
7
  6
CONTINUOUS
 10
80.1333060572
 20
71.4590209017
 40
3.9999927091
100
AcDbArc
 50
74.5647289875
 51
87.6605028395
  0
ARC
  5
5E5
100
AcDbEntity
  8
RUNDUNGEN
100
AcDbCircle
 62
7
  6
CONTINUOUS
 10
83.4444561105
 20
72.6195976426
 40
2.0000000057
100
AcDbArc
 50
9.768424472
 51
74.5646197584
  0
ARC
  5
5E6
100
AcDbEntity
  8
RUNDUNGEN
100
AcDbCircle
 62
7
  6
CONTINUOUS
 10
78.8188132211
 20
79.0851177888
 40
1.0
100
AcDbArc
 50
138.0
 51
210.0
  0
ARC
  5
5E7
100
AcDbEntity
  8
RUNDUNGEN
100
AcDbCircle
 62
7
  6
CONTINUOUS
 10
80.3374021752
 20
76.4548445646
 40
1.0
100
AcDbArc
 50
210.0000255006
 51
267.6607322053
  0
ARC
  5
5E8
100
AcDbEntity
  8
RUNDUNGEN
100
AcDbCircle
 62
7
  6
CONTINUOUS
 10
79.9496332481
 20
77.1264800478
 40
1.0
100
AcDbArc
 50
209.9975408863
 51
299.9996760811
  0
ARC
  5
5E9
100
AcDbEntity
  8
RUNDUNGEN
100
AcDbCircle
 62
7
  6
CONTINUOUS
 10
67.1333636766
 20
93.9757146667
 40
3.9999721244
100
AcDbArc
 50
332.3388970725
 51
345.4335180135
  0
ARC
  5
5EA
100
AcDbEntity
  8
RUNDUNGEN
100
AcDbCircle
 62
7
  6
CONTINUOUS
 10
73.0804532751
 20
89.0242487674
 40
1.0
100
AcDbArc
 50
210.0
 51
282.0
  0
ARC
  5
5EB
100
AcDbEntity
  8
RUNDUNGEN
100
AcDbCircle
 62
7
  6
CONTINUOUS
 10
71.5618713585
 20
91.6545098025
 40
1.0
100
AcDbArc
 50
152.3379184408
 51
209.999664921
  0
ARC
  5
5EC
100
AcDbEntity
  8
RUNDUNGEN
100
AcDbCircle
 62
7
  6
CONTINUOUS
 10
71.9496332481
 20
90.9828865084
 40
1.0
100
AcDbArc
 50
120.0
 51
210.0
  0
ARC
  5
5ED
100
AcDbEntity
  8
RUNDUNGEN
100
AcDbCircle
 62
7
  6
CONTINUOUS
 10
69.7939700245
 20
96.2629330916
 40
2.0000000058
100
AcDbArc
 50
345.4353802416
 51
50.253423902
  0
ARC
  5
5EE
100
AcDbEntity
  8
RUNDUNGEN
100
AcDbCircle
 62
7
  6
CONTINUOUS
 10
66.9997820537
 20
102.4883310746
 40
1.0
100
AcDbArc
 50
180.0
 51
230.2534250243
  0
ARC
  5
5EF
100
AcDbEntity
  8
RUNDUNGEN
100
AcDbCircle
 62
7
  6
CONTINUOUS
 10
83.3108491803
 20
88.3046832781
 40
2.25
100
AcDbArc
 50
300.0
 51
120.0
  0
ARC
  5
5F0
100
AcDbEntity
  8
RUNDUNGEN
100
AcDbCircle
 62
7
  6
CONTINUOUS
 10
92.6348673498
 20
64.0870608854
 40
1.0
100
AcDbArc
 50
240.0
 51
290.2534250243
  0
ARC
  5
5F1
100
AcDbEntity
  8
RUNDUNGEN
100
AcDbCircle
 62
7
  6
CONTINUOUS
 10
87.4387149271
 20
67.0870608854
 40
1.0
100
AcDbArc
 50
189.7465749757
 51
240.0
  0
ARC
  5
5F2
100
AcDbEntity
  8
RUNDUNGEN
100
AcDbCircle
 62
7
  6
CONTINUOUS
 10
100.0738002232
 20
59.9464377603
 40
3.9999721244
100
AcDbArc
 50
32.3388970725
 51
45.4335180135
  0
ARC
  5
5F3
100
AcDbEntity
  8
RUNDUNGEN
100
AcDbCircle
 62
7
  6
CONTINUOUS
 10
99.4233141372
 20
63.3941996595
 40
2.0000000058
100
AcDbArc
 50
45.4353802416
 51
110.253423902
  0
ARC
  5
5F4
100
AcDbEntity
  8
RUNDUNGEN
100
AcDbCircle
 62
7
  6
CONTINUOUS
 10
107.3354402772
 20
62.6210354816
 40
1.0
100
AcDbArc
 50
270.0
 51
342.0
  0
ARC
  5
5F5
100
AcDbEntity
  8
RUNDUNGEN
100
AcDbCircle
 62
7
  6
CONTINUOUS
 10
104.2982764439
 20
62.6210354816
 40
1.0
100
AcDbArc
 50
212.3379184408
 51
269.9996649209
  0
ARC
  5
5F6
100
AcDbEntity
  8
RUNDUNGEN
100
AcDbCircle
 62
7
  6
CONTINUOUS
 10
105.0738002232
 20
62.6210354816
 40
1.0
100
AcDbArc
 50
180.0
 51
270.0
  0
ARC
  5
5F7
100
AcDbEntity
  8
0
100
AcDbCircle
 62
7
  6
CONTINUOUS
 10
93.3738002232
 20
85.7883310746
 40
1.0
100
AcDbArc
 50
120.0
 51
330.0
  0
ARC
  5
5F8
100
AcDbEntity
  8
RUNDUNGEN
100
AcDbCircle
 62
7
  6
CONTINUOUS
 10
69.7939700245
 20
114.7137290577
 40
2.0000000057
100
AcDbArc
 50
309.7684244722
 51
14.5646197584
  0
ARC
  5
5F9
100
AcDbEntity
  8
RUNDUNGEN
100
AcDbCircle
 62
7
  6
CONTINUOUS
 10
66.9997820537
 20
108.4883310746
 40
1.0
100
AcDbArc
 50
129.7465749757
 51
180.0
  0
ARC
  5
5FA
100
AcDbEntity
  8
RUNDUNGEN
100
AcDbCircle
 62
7
  6
CONTINUOUS
 10
67.1333060572
 20
117.0009807491
 40
3.9999927091
100
AcDbArc
 50
14.5647289875
 51
27.6605028395
  0
ARC
  5
5FB
100
AcDbEntity
  8
RUNDUNGEN
100
AcDbCircle
 62
7
  6
CONTINUOUS
 10
73.0804532751
 20
121.9524133818
 40
1.0
100
AcDbArc
 50
78.0
 51
150.0
  0
ARC
  5
5FC
100
AcDbEntity
  8
RUNDUNGEN
100
AcDbCircle
 62
7
  6
CONTINUOUS
 10
71.5618643211
 20
119.3221401576
 40
1.0
100
AcDbArc
 50
150.0000255007
 51
207.6607322054
  0
ARC
  5
5FD
100
AcDbEntity
  8
RUNDUNGEN
100
AcDbCircle
 62
7
  6
CONTINUOUS
 10
71.9496332481
 20
119.9937756408
 40
1.0
100
AcDbArc
 50
149.9975408863
 51
239.9996760811
  0
ARC
  5
5FE
100
AcDbEntity
  8
RUNDUNGEN
100
AcDbCircle
 62
7
  6
CONTINUOUS
 10
83.3108491803
 20
122.6719788711
 40
2.25
100
AcDbArc
 50
240.0
 51
60.0
  0
ARC
  5
5FF
100
AcDbEntity
  8
RUNDUNGEN
100
AcDbCircle
 62
7
  6
CONTINUOUS
 10
80.133358494
 20
139.5176109731
 40
3.9999741049
100
AcDbArc
 50
272.3389448649
 51
285.4336632495
  0
ARC
  5
600
100
AcDbEntity
  8
RUNDUNGEN
100
AcDbCircle
 62
7
  6
CONTINUOUS
 10
83.4444561106
 20
138.3570645068
 40
2.0000000058
100
AcDbArc
 50
285.4353802416
 51
350.2534239042
  0
ARC
  5
601
100
AcDbEntity
  8
RUNDUNGEN
100
AcDbCircle
 62
7
  6
CONTINUOUS
 10
78.8188132211
 20
131.8915443604
 40
1.0
100
AcDbArc
 50
150.0
 51
222.0
  0
ARC
  5
602
100
AcDbEntity
  8
RUNDUNGEN
100
AcDbCircle
 62
7
  6
CONTINUOUS
 10
80.3373955344
 20
134.5218060824
 40
1.0
100
AcDbArc
 50
92.3380274666
 51
149.9996792764
  0
ARC
  5
603
100
AcDbEntity
  8
RUNDUNGEN
100
AcDbCircle
 62
7
  6
CONTINUOUS
 10
79.9496332481
 20
133.8501821014
 40
1.0
100
AcDbArc
 50
60.0
 51
150.0
  0
ARC
  5
604
100
AcDbEntity
  8
0
100
AcDbCircle
 62
7
  6
CONTINUOUS
 10
93.3738002232
 20
125.1883310746
 40
1.0
100
AcDbArc
 50
30.0
 51
240.0
  0
ARC
  5
605
100
AcDbEntity
  8
RUNDUNGEN
100
AcDbCircle
 62
7
  6
CONTINUOUS
 10
92.6348673498
 20
146.8896012638
 40
1.0
100
AcDbArc
 50
69.7465749757
 51
120.0
  0
ARC
  5
606
100
AcDbEntity
  8
RUNDUNGEN
100
AcDbCircle
 62
7
  6
CONTINUOUS
 10
87.4387149271
 20
143.8896012638
 40
1.0
100
AcDbArc
 50
120.0
 51
170.2534250243
  0
ARC
  5
607
100
AcDbEntity
  8
RUNDUNGEN
100
AcDbCircle
 62
7
  6
CONTINUOUS
 10
100.0738002232
 20
151.0302735374
 40
3.9999871222
100
AcDbArc
 50
314.565850095
 51
327.6606843009
  0
ARC
  5
608
100
AcDbEntity
  8
RUNDUNGEN
100
AcDbCircle
 62
7
  6
CONTINUOUS
 10
99.4233141371
 20
147.5824624897
 40
2.0000000058
100
AcDbArc
 50
249.7684591076
 51
314.5646197584
  0
ARC
  5
609
100
AcDbEntity
  8
RUNDUNGEN
100
AcDbCircle
 62
7
  6
CONTINUOUS
 10
107.3354402772
 20
148.3556266676
 40
1.0
100
AcDbArc
 50
18.000001169
 51
89.9999991136
  0
ARC
  5
60A
100
AcDbEntity
  8
RUNDUNGEN
100
AcDbCircle
 62
7
  6
CONTINUOUS
 10
105.0738502534
 20
148.3556266676
 40
1.0
100
AcDbArc
 50
90.0
 51
180.0015673547
  0
ARC
  5
60B
100
AcDbEntity
  8
RUNDUNGEN
100
AcDbCircle
 62
7
  6
CONTINUOUS
 10
104.298262173
 20
148.3556266676
 40
1.0
100
AcDbArc
 50
89.9999431238
 51
147.6607508719
  0
ARC
  5
60C
100
AcDbEntity
  8
RUNDUNGEN
100
AcDbCircle
 62
7
  6
CONTINUOUS
 10
118.8121601692
 20
62.6210354816
 40
1.0
100
AcDbArc
 50
198.0
 51
270.0
  0
ARC
  5
60D
100
AcDbEntity
  8
RUNDUNGEN
100
AcDbCircle
 62
7
  6
CONTINUOUS
 10
121.8493380773
 20
62.6210354816
 40
1.0
100
AcDbArc
 50
270.0000255006
 51
327.6607322054
  0
ARC
  5
60E
100
AcDbEntity
  8
RUNDUNGEN
100
AcDbCircle
 62
7
  6
CONTINUOUS
 10
121.0738002232
 20
62.6210354816
 40
1.0
100
AcDbArc
 50
269.9975408863
 51
360.0
  0
ARC
  5
60F
100
AcDbEntity
  8
RUNDUNGEN
100
AcDbCircle
 62
7
  6
CONTINUOUS
 10
113.0738002232
 20
71.1210354816
 40
2.25
100
AcDbArc
 50
0.0
 51
180.0
  0
ARC
  5
610
100
AcDbEntity
  8
RUNDUNGEN
100
AcDbCircle
 62
7
  6
CONTINUOUS
 10
126.0738002232
 20
59.9463712272
 40
3.9999927091
100
AcDbArc
 50
134.5647289875
 51
147.6605028395
  0
ARC
  5
611
100
AcDbEntity
  8
RUNDUNGEN
100
AcDbCircle
 62
7
  6
CONTINUOUS
 10
126.7242863092
 20
63.3941996596
 40
2.0000000057
100
AcDbArc
 50
69.7684244762
 51
134.5646197584
  0
ARC
  5
612
100
AcDbEntity
  8
RUNDUNGEN
100
AcDbCircle
 62
7
  6
CONTINUOUS
 10
133.5127330966
 20
64.0870608854
 40
1.0
100
AcDbArc
 50
249.7465749757
 51
300.0
  0
ARC
  5
613
100
AcDbEntity
  8
0
100
AcDbCircle
 62
7
  6
CONTINUOUS
 10
132.7738002232
 20
85.7883310746
 40
1.0
100
AcDbArc
 50
210.0
 51
60.0
  0
ARC
  5
614
100
AcDbEntity
  8
RUNDUNGEN
100
AcDbCircle
 62
7
  6
CONTINUOUS
 10
146.0142367698
 20
71.4590541683
 40
3.9999721244
100
AcDbArc
 50
92.3388970725
 51
105.4335180135
  0
ARC
  5
615
100
AcDbEntity
  8
RUNDUNGEN
100
AcDbCircle
 62
7
  6
CONTINUOUS
 10
142.7031443359
 20
72.6195976426
 40
2.0000000058
100
AcDbArc
 50
105.4353802416
 51
170.253423902
  0
ARC
  5
616
100
AcDbEntity
  8
RUNDUNGEN
100
AcDbCircle
 62
7
  6
CONTINUOUS
 10
147.3287872253
 20
79.0851177888
 40
1.0
100
AcDbArc
 50
330.0
 51
42.0
  0
ARC
  5
617
100
AcDbEntity
  8
RUNDUNGEN
100
AcDbCircle
 62
7
  6
CONTINUOUS
 10
138.7088855193
 20
67.0870608854
 40
1.0
100
AcDbArc
 50
300.0
 51
350.2534250243
  0
ARC
  5
618
100
AcDbEntity
  8
RUNDUNGEN
100
AcDbCircle
 62
7
  6
CONTINUOUS
 10
145.8102053086
 20
76.4548567537
 40
1.0
100
AcDbArc
 50
272.3379184408
 51
329.9996649208
  0
ARC
  5
619
100
AcDbEntity
  8
RUNDUNGEN
100
AcDbCircle
 62
7
  6
CONTINUOUS
 10
146.1979671983
 20
77.1264800478
 40
1.0
100
AcDbArc
 50
240.0
 51
330.0
  0
ARC
  5
61A
100
AcDbEntity
  8
RUNDUNGEN
100
AcDbCircle
 62
7
  6
CONTINUOUS
 10
142.8367512661
 20
88.3046832781
 40
2.25
100
AcDbArc
 50
60.0
 51
240.0
  0
ARC
  5
61B
100
AcDbEntity
  8
RUNDUNGEN
100
AcDbCircle
 62
7
  6
CONTINUOUS
 10
159.0142943892
 20
93.9756814001
 40
3.9999927091
100
AcDbArc
 50
194.5647289875
 51
207.6605028395
  0
ARC
  5
61C
100
AcDbEntity
  8
RUNDUNGEN
100
AcDbCircle
 62
7
  6
CONTINUOUS
 10
153.0671471713
 20
89.0242487674
 40
1.0
100
AcDbArc
 50
258.0
 51
330.0
  0
ARC
  5
61D
100
AcDbEntity
  8
RUNDUNGEN
100
AcDbCircle
 62
7
  6
CONTINUOUS
 10
154.1979356459
 20
90.9828318581
 40
1.0
100
AcDbArc
 50
330.0011804226
 51
60.0
  0
ARC
  5
61E
100
AcDbEntity
  8
RUNDUNGEN
100
AcDbCircle
 62
7
  6
CONTINUOUS
 10
154.5857361253
 20
91.6545219916
 40
1.0
100
AcDbArc
 50
330.0000255007
 51
27.6607322054
  0
ARC
  5
61F
100
AcDbEntity
  8
RUNDUNGEN
100
AcDbCircle
 62
7
  6
CONTINUOUS
 10
156.3536304219
 20
96.2629330916
 40
2.0000000057
100
AcDbArc
 50
129.7684244716
 51
194.5646197584
  0
ARC
  5
620
100
AcDbEntity
  8
RUNDUNGEN
100
AcDbCircle
 62
7
  6
CONTINUOUS
 10
159.1478183927
 20
102.4883310746
 40
1.0
100
AcDbArc
 50
309.7465749757
 51
360.0
  0
ARC
  5
621
100
AcDbEntity
  8
0
100
AcDbCircle
 62
7
  6
CONTINUOUS
 10
132.7738002232
 20
125.1883310746
 40
1.0
100
AcDbArc
 50
300.0
 51
150.0
  0
ARC
  5
622
100
AcDbEntity
  8
RUNDUNGEN
100
AcDbCircle
 62
7
  6
CONTINUOUS
 10
113.0738002232
 20
139.8556266676
 40
2.25
100
AcDbArc
 50
180.0
 51
360.0
  0
ARC
  5
623
100
AcDbEntity
  8
RUNDUNGEN
100
AcDbCircle
 62
7
  6
CONTINUOUS
 10
118.8121601692
 20
148.3556266676
 40
1.0
100
AcDbArc
 50
90.000001169
 51
161.9999991136
  0
ARC
  5
624
100
AcDbEntity
  8
RUNDUNGEN
100
AcDbCircle
 62
7
  6
CONTINUOUS
 10
121.8493240026
 20
148.3556266676
 40
1.0
100
AcDbArc
 50
32.3379184408
 51
89.9996649209
  0
ARC
  5
625
100
AcDbEntity
  8
RUNDUNGEN
100
AcDbCircle
 62
7
  6
CONTINUOUS
 10
121.0738002232
 20
148.3556266676
 40
1.0
100
AcDbArc
 50
0.0
 51
90.0
  0
ARC
  5
626
100
AcDbEntity
  8
RUNDUNGEN
100
AcDbCircle
 62
7
  6
CONTINUOUS
 10
126.0738002232
 20
151.0302243889
 40
3.9999721244
100
AcDbArc
 50
212.3388970725
 51
225.4335180135
  0
ARC
  5
627
100
AcDbEntity
  8
RUNDUNGEN
100
AcDbCircle
 62
7
  6
CONTINUOUS
 10
126.7242863093
 20
147.5824624897
 40
2.0000000058
100
AcDbArc
 50
225.4353802416
 51
290.253423902
  0
ARC
  5
628
100
AcDbEntity
  8
RUNDUNGEN
100
AcDbCircle
 62
7
  6
CONTINUOUS
 10
133.5127330966
 20
146.8896012638
 40
1.0
100
AcDbArc
 50
60.0
 51
110.2534250243
  0
ARC
  5
629
100
AcDbEntity
  8
RUNDUNGEN
100
AcDbCircle
 62
7
  6
CONTINUOUS
 10
159.0142367698
 20
117.0009474826
 40
3.9999721244
100
AcDbArc
 50
152.3388970725
 51
165.4335180135
  0
ARC
  5
62A
100
AcDbEntity
  8
RUNDUNGEN
100
AcDbCircle
 62
7
  6
CONTINUOUS
 10
142.8367512661
 20
122.6719788711
 40
2.25
100
AcDbArc
 50
120.0
 51
300.0
  0
ARC
  5
62B
100
AcDbEntity
  8
RUNDUNGEN
100
AcDbCircle
 62
7
  6
CONTINUOUS
 10
156.3536304219
 20
114.7137290576
 40
2.0000000058
100
AcDbArc
 50
165.4353802416
 51
230.253423902
  0
ARC
  5
62C
100
AcDbEntity
  8
RUNDUNGEN
100
AcDbCircle
 62
7
  6
CONTINUOUS
 10
153.0671471713
 20
121.9524133818
 40
1.0
100
AcDbArc
 50
30.0
 51
102.0
  0
ARC
  5
62D
100
AcDbEntity
  8
RUNDUNGEN
100
AcDbCircle
 62
7
  6
CONTINUOUS
 10
159.1478183927
 20
108.4883310746
 40
1.0
100
AcDbArc
 50
0.0
 51
50.2534250243
  0
ARC
  5
62E
100
AcDbEntity
  8
RUNDUNGEN
100
AcDbCircle
 62
7
  6
CONTINUOUS
 10
154.585729088
 20
119.3221523467
 40
1.0
100
AcDbArc
 50
332.3379184408
 51
29.999664921
  0
ARC
  5
62F
100
AcDbEntity
  8
RUNDUNGEN
100
AcDbCircle
 62
7
  6
CONTINUOUS
 10
154.1979671983
 20
119.9937756408
 40
1.0
100
AcDbArc
 50
300.0
 51
30.0
  0
ARC
  5
630
100
AcDbEntity
  8
RUNDUNGEN
100
AcDbCircle
 62
7
  6
CONTINUOUS
 10
146.0142943892
 20
139.5176412475
 40
3.9999927091
100
AcDbArc
 50
254.5647289875
 51
267.6605028395
  0
ARC
  5
631
100
AcDbEntity
  8
RUNDUNGEN
100
AcDbCircle
 62
7
  6
CONTINUOUS
 10
142.7031443359
 20
138.3570645066
 40
2.0000000057
100
AcDbArc
 50
189.768424472
 51
254.5646197584
  0
ARC
  5
632
100
AcDbEntity
  8
RUNDUNGEN
100
AcDbCircle
 62
7
  6
CONTINUOUS
 10
147.3287872253
 20
131.8915443604
 40
1.0
100
AcDbArc
 50
318.0
 51
30.0
  0
ARC
  5
633
100
AcDbEntity
  8
RUNDUNGEN
100
AcDbCircle
 62
7
  6
CONTINUOUS
 10
138.7088855193
 20
143.8896012638
 40
1.0
100
AcDbArc
 50
9.7465749757
 51
60.0
  0
ARC
  5
634
100
AcDbEntity
  8
RUNDUNGEN
100
AcDbCircle
 62
7
  6
CONTINUOUS
 10
146.1979671983
 20
133.8501821014
 40
1.0
100
AcDbArc
 50
30.0
 51
120.0
  0
ARC
  5
635
100
AcDbEntity
  8
RUNDUNGEN
100
AcDbCircle
 62
7
  6
CONTINUOUS
 10
145.8101982713
 20
134.5218175846
 40
1.0
100
AcDbArc
 50
30.0000255006
 51
87.6607322053
  0
ARC
  5
636
100
AcDbEntity
  8
RUNDUNGEN
100
AcDbCircle
 62
7
  6
CONTINUOUS
 10
201.730861368
 20
82.6814971085
 40
3.0
100
AcDbArc
 50
180.0003186554
 51
268.6000077847
  0
ARC
  5
637
100
AcDbEntity
  8
RUNDUNGEN
100
AcDbCircle
 62
7
  6
CONTINUOUS
 10
203.780861368
 20
93.5437491017
 40
1.0
100
AcDbArc
 50
103.7763516278
 51
179.9999997013
  0
ARC
  5
638
100
AcDbEntity
  8
RUNDUNGEN
100
AcDbCircle
 62
7
  6
CONTINUOUS
 10
203.780861368
 20
70.8889999778
 40
1.0
100
AcDbArc
 50
116.1246746959
 51
180.0000010783
  0
ARC
  5
639
100
AcDbEntity
  8
RUNDUNGEN
100
AcDbCircle
 62
7
  6
CONTINUOUS
 10
203.780861368
 20
62.6210354816
 40
1.0
100
AcDbArc
 50
180.0
 51
270.0
  0
ARC
  5
63A
100
AcDbEntity
  8
0
100
AcDbCircle
 62
7
  6
CONTINUOUS
 10
201.730861368
 20
128.2951817255
 40
3.0
100
AcDbArc
 50
91.4
 51
180.0
  0
ARC
  5
63B
100
AcDbEntity
  8
02___PRT_ALL_AXES
100
AcDbCircle
 62
7
  6
CONTINUOUS
 10
213.780861368
 20
105.4883310746
 40
3.0
100
AcDbArc
 50
179.9999999887
 51
244.621599794
  0
ARC
  5
63C
100
AcDbEntity
  8
0
100
AcDbCircle
 62
7
  6
CONTINUOUS
 10
210.780861368
 20
133.5445509066
 40
2.0
100
AcDbArc
 50
0.0
 51
64.0
  0
ARC
  5
63D
100
AcDbEntity
  8
0
100
AcDbCircle
 62
7
  6
CONTINUOUS
 10
211.4501940626
 20
132.6339413575
 40
1.1000000281
100
AcDbArc
 50
280.8261744039
 51
13.3637014121
  0
ARC
  5
63E
100
AcDbEntity
  8
0
100
AcDbCircle
 62
7
  6
CONTINUOUS
 10
211.680861368
 20
132.639578745
 40
1.1
100
AcDbArc
 50
271.4
 51
360.0
  0
ARC
  5
63F
100
AcDbEntity
  8
0
100
AcDbCircle
 62
7
  6
CONTINUOUS
 10
203.780861368
 20
140.0876621714
 40
1.0
100
AcDbArc
 50
179.9999993566
 51
243.8753257389
  0
ARC
  5
640
100
AcDbEntity
  8
RUNDUNGEN
100
AcDbCircle
 62
7
  6
CONTINUOUS
 10
203.780861368
 20
148.3556266676
 40
1.0
100
AcDbArc
 50
90.0
 51
180.0
  0
ARC
  5
641
100
AcDbEntity
  8
0
100
AcDbCircle
 62
7
  6
CONTINUOUS
 10
210.0487406778
 20
136.9056525077
 40
0.6999938703
100
AcDbArc
 50
90.0000181883
 51
244.0082048154
  0
ARC
  5
642
100
AcDbEntity
  8
RUNDUNGEN
100
AcDbCircle
 62
7
  6
CONTINUOUS
 10
233.830861368
 20
82.6814804237
 40
3.0
100
AcDbArc
 50
271.4
 51
360.0
  0
ARC
  5
643
100
AcDbEntity
  8
RUNDUNGEN
100
AcDbCircle
 62
7
  6
CONTINUOUS
 10
231.780861368
 20
93.5437436766
 40
1.0
100
AcDbArc
 50
0.000000276
 51
76.2235259548
  0
ARC
  5
644
100
AcDbEntity
  8
RUNDUNGEN
100
AcDbCircle
 62
7
  6
CONTINUOUS
 10
231.780861368
 20
70.8890160346
 40
1.0
100
AcDbArc
 50
359.9999986564
 51
63.8756604921
  0
ARC
  5
645
100
AcDbEntity
  8
RUNDUNGEN
100
AcDbCircle
 62
7
  6
CONTINUOUS
 10
231.780861368
 20
62.6210354816
 40
1.0
100
AcDbArc
 50
270.0
 51
360.0
  0
ARC
  5
646
100
AcDbEntity
  8
0
100
AcDbCircle
 62
7
  6
CONTINUOUS
 10
233.830861368
 20
128.2951817255
 40
3.0
100
AcDbArc
 50
0.0
 51
88.6
  0
ARC
  5
647
100
AcDbEntity
  8
02___PRT_ALL_AXES
100
AcDbCircle
 62
7
  6
CONTINUOUS
 10
221.780861368
 20
105.4883310746
 40
3.0
100
AcDbArc
 50
295.3783036896
 51
359.9994839512
  0
ARC
  5
648
100
AcDbEntity
  8
0
100
AcDbCircle
 62
7
  6
CONTINUOUS
 10
224.780861368
 20
133.5445509066
 40
2.0
100
AcDbArc
 50
116.0
 51
180.0
  0
ARC
  5
649
100
AcDbEntity
  8
0
100
AcDbCircle
 62
7
  6
CONTINUOUS
 10
223.980861368
 20
132.7371646576
 40
1.2
100
AcDbArc
 50
180.0
 51
268.6
  0
ARC
  5
64A
100
AcDbEntity
  8
0
100
AcDbCircle
 62
7
  6
CONTINUOUS
 10
231.780861368
 20
140.0876461146
 40
1.0
100
AcDbArc
 50
296.1243403911
 51
0.0000022832
  0
ARC
  5
64B
100
AcDbEntity
  8
RUNDUNGEN
100
AcDbCircle
 62
7
  6
CONTINUOUS
 10
231.780861368
 20
148.3556266676
 40
1.0
100
AcDbArc
 50
0.0
 51
90.0
  0
ARC
  5
64C
100
AcDbEntity
  8
0
100
AcDbCircle
 62
7
  6
CONTINUOUS
 10
225.5129267603
 20
136.9056281377
 40
0.6999996513
100
AcDbArc
 50
295.9995472789
 51
89.9999984551
  0
ENDSEC
  0
SECTION
  2
OBJECTS
  0
DICTIONARY
  5
C
100
AcDbDictionary
280
0
281
1
  3
ACAD_GROUP
350
D
  3
ACAD_MLINESTYLE
350
17
  3
ACAD_LAYOUT
350
1A
  3
ACAD_PLOTSETTINGS
350
19
  3
ACAD_PLOTSTYLENAME
350
E
  0
DICTIONARY
  5
D
102
{ACAD_REACTORS
330
C
102
}
100
AcDbDictionary
280
0
281
1
  0
ACDBDICTIONARYWDFLT
  5
E
102
{ACAD_REACTORS
330
C
102
}
100
AcDbDictionary
281
1
  3
Normal
350
F
100
AcDbDictionaryWithDefault
340
F
  0
DICTIONARY
  5
17
102
{ACAD_REACTORS
330
C
102
}
100
AcDbDictionary
280
0
281
1
  3
Standard
350
18
  0
DICTIONARY
  5
19
102
{ACAD_REACTORS
330
C
102
}
100
AcDbDictionary
281
1
  0
DICTIONARY
  5
1A
102
{ACAD_REACTORS
330
C
102
}
100
AcDbDictionary
281
1
  3
Model
350
64D
  3
Layout1
350
64E
  0
ACDBPLACEHOLDER
  5
F
102
{ACAD_REACTORS
330
E
102
}
  0
MLINESTYLE
  5
18
102
{ACAD_REACTORS
330
17
102
}
100
AcDbMlineStyle
  2
STANDARD
 70
0
  3

 62
256
 51
90.0
 52
90.0
 71
2
 49
0.5
 62
256
  6
BYLAYER
 49
-0.5
 62
256
  6
BYLAYER
  0
LAYOUT
  5
64D
102
{ACAD_REACTORS
330
1A
102
}
100
AcDbPlotSettings
  1

  2
none_device
  4
ISO_A4_(297.00_x_210.00_MM)
  6

 40
0.0
 41
0.0
 42
0.0
 43
0.0
 44
297.0
 45
210.0
 46
0.0
 47
0.0
 48
0.0
 49
0.0
140
0.0
141
0.0
142
1.0
143
1.0
 70
1024
 72
1
 73
0
 74
0
  7

 75
0
147
1.0
148
0.0
149
0.0
100
AcDbLayout
  1
Model
 70
0
 71
0
 10
0.0
 20
0.0
 11
297.0
 21
210.0
 12
0.0
 22
0.0
 32
0.0
 14
0.0
 24
0.0
 34
0.0
 15
0.0
 25
0.0
 35
0.0
146
0.0
 13
0.0
 23
0.0
 33
0.0
 16
1.0
 26
0.0
 36
0.0
 17
0.0
 27
1.0
 37
0.0
 76
0
330
210
345
0
346
0
  0
LAYOUT
  5
64E
102
{ACAD_REACTORS
330
1A
102
}
100
AcDbPlotSettings
  1

  2
none_device
  4
ISO_A4_(297.00_x_210.00_MM)
  6

 40
0.0
 41
0.0
 42
0.0
 43
0.0
 44
297.0
 45
210.0
 46
0.0
 47
0.0
 48
0.0
 49
0.0
140
0.0
141
0.0
142
1.0
143
1.0
 70
0
 72
1
 73
0
 74
0
  7

 75
0
147
1.0
148
0.0
149
0.0
100
AcDbLayout
  1
Layout1
 70
0
 71
1
 10
0.0
 20
0.0
 11
297.0
 21
210.0
 12
0.0
 22
0.0
 32
0.0
 14
0.0
 24
0.0
 34
0.0
 15
0.0
 25
0.0
 35
0.0
146
0.0
 13
0.0
 23
0.0
 33
0.0
 16
1.0
 26
0.0
 36
0.0
 17
0.0
 27
1.0
 37
0.0
 76
0
330
211
345
0
346
0
  0
ENDSEC
  0
EOF
