  0
SECTION
  2
HEADER
  9
$ACADVER
  1
AC1015
  9
$DWGCODEPAGE
  3
ANSI_1252
  9
$EXTMAX
 10
297.0
 20
210.0
 30
0.0
  9
$EXTMIN
 10
0.0
 20
0.0
 30
0.0
  9
$LIMMIN
 10
0.0
 20
0.0
  9
$LIMMAX
 10
297.0
 20
210.0
  9
$VIEWCTR
 10
148.5
 20
105.0
  9
$VIEWSIZE
 40
210.0
  9
$CLAYER
  8
0
  9
$LTSCALE
 40
16.335
  9
$CELTYPE
  6
BYLAYER
  9
$DIMSCALE
 40
1.0
  9
$DIMASZ
 40
3.5
  9
$DIMEXO
 40
1.85625
  9
$DIMDLI
 40
11.286
  9
$DIMEXE
 40
5.346
  9
$DIMCEN
 40
2.673
  9
$DIMLFAC
 40
1.0
  9
$DIMBLK
  1
_FILLED
  9
$DIMTXT
 40
3.5
  9
$DIMTOL
 70
1
  9
$DIMLIM
 70
0
  9
$DIMTFAC
 40
1.0
  9
$DIMTP
 40
0.005
  9
$DIMTM
 40
0.005
  9
$PDMODE
 70
3
  9
$PDSIZE
 40
0.3125
  9
$HANDSEED
  5
621
  9
$TILEMODE
 70
1
  9
$MEASUREMENT
 70
1
  9
$INSUNITS
 70
4
  0
ENDSEC
  0
SECTION
  2
CLASSES
  0
CLASS
  1
ACDBDICTIONARYWDFLT
  2
AcDbDictionaryWithDefault
  3
AutoCAD 2000
 90
0
280
0
281
0
  0
CLASS
  1
ACDBPLACEHOLDER
  2
AcDbPlaceHolder
  3
AutoCAD 2000
 90
0
280
0
281
0
  0
CLASS
  1
LAYOUT
  2
AcDbLayout
  3
AutoCAD 2000
 90
0
280
0
281
0
  0
ENDSEC
  0
SECTION
  2
TABLES
  0
TABLE
  2
VPORT
  5
8
100
AcDbSymbolTable
 70
2
  0
VPORT
  5
1F4
100
AcDbSymbolTableRecord
100
AcDbViewportTableRecord
  2
*ACTIVE
 70
0
 10
0.0
 20
0.0
 11
1.0
 21
1.0
 12
148.5
 22
105.0
 13
0.0
 23
0.0
 14
1.0
 24
1.0
 15
0.0
 25
0.0
 16
0.0
 26
0.0
 36
1.0
 17
0.0
 27
0.0
 37
0.0
 40
210.0
 41
1.4142857143
 42
50.0
 43
0.0
 44
0.0
 50
0.0
 51
0.0
 71
0
 72
100
 73
1
 74
1
 75
0
 76
0
 77
0
 78
0
  0
ENDTAB
  0
TABLE
  2
LTYPE
  5
5
100
AcDbSymbolTable
 70
6
  0
LTYPE
  5
14
100
AcDbSymbolTableRecord
100
AcDbLinetypeTableRecord
  2
BYBLOCK
 70
0
  3

 72
65
 73
0
 40
0.0
  0
LTYPE
  5
15
100
AcDbSymbolTableRecord
100
AcDbLinetypeTableRecord
  2
BYLAYER
 70
0
  3

 72
65
 73
0
 40
0.0
  0
LTYPE
  5
16
100
AcDbSymbolTableRecord
100
AcDbLinetypeTableRecord
  2
CONTINUOUS
 70
64
  3
Solid line
 72
65
 73
0
 40
0.0
  0
LTYPE
  5
1F5
100
AcDbSymbolTableRecord
100
AcDbLinetypeTableRecord
  2
CENTER
 70
64
  3
____ _ ____ _ ____ _ ____ _ ____ _ ____ _ ____
 72
65
 73
4
 40
0.6
 49
0.375
 74
0
 49
-0.075
 74
0
 49
0.075
 74
0
 49
-0.075
 74
0
  0
LTYPE
  5
1F6
100
AcDbSymbolTableRecord
100
AcDbLinetypeTableRecord
  2
HIDDEN
 70
64
  3
- - - - - - - - - - - - - - - - - - - -
 72
65
 73
2
 40
0.2
 49
0.1
 74
0
 49
-0.1
 74
0
  0
LTYPE
  5
1F7
100
AcDbSymbolTableRecord
100
AcDbLinetypeTableRecord
  2
PHANTOM
 70
64
  3
_____ _ _ _____ _ _ _____ _ _ _____
 72
65
 73
6
 40
0.8
 49
0.45
 74
0
 49
-0.05
 74
0
 49
0.1
 74
0
 49
-0.05
 74
0
 49
0.1
 74
0
 49
-0.05
 74
0
  0
LTYPE
  5
1F8
100
AcDbSymbolTableRecord
100
AcDbLinetypeTableRecord
  2
DOT
 70
64
  3
. . . . . . . . . . . . . . . . . . . .
 72
65
 73
2
 40
0.2
 49
0.1
 74
0
 49
-0.1
 74
0
  0
LTYPE
  5
1F9
100
AcDbSymbolTableRecord
100
AcDbLinetypeTableRecord
  2
DASHED
 70
64
  3
- - - - - - - - - - - - - - - - - - - -
 72
65
 73
2
 40
0.2
 49
0.1
 74
0
 49
-0.1
 74
0
  0
ENDTAB
  0
TABLE
  2
LAYER
  5
2
100
AcDbSymbolTable
 70
36
  0
LAYER
  5
10
100
AcDbSymbolTableRecord
100
AcDbLayerTableRecord
  2
0
 70
0
 62
7
  6
CONTINUOUS
370
-3
390
F
  0
LAYER
  5
1FA
100
AcDbSymbolTableRecord
100
AcDbLayerTableRecord
  2
DEFAULT_1
 70
0
 62
7
  6
CENTER
370
-3
390
F
  0
LAYER
  5
1FB
100
AcDbSymbolTableRecord
100
AcDbLayerTableRecord
  2
DEFAULT_2
 70
0
 62
8
  6
HIDDEN
370
-3
390
F
  0
LAYER
  5
1FC
100
AcDbSymbolTableRecord
100
AcDbLayerTableRecord
  2
DEFAULT_3
 70
0
 62
7
  6
PHANTOM
370
-3
390
F
  0
LAYER
  5
1FD
100
AcDbSymbolTableRecord
100
AcDbLayerTableRecord
  2
01___PRT_ALL_DTM_PLN
 70
0
 62
7
  6
CONTINUOUS
370
-3
390
F
  0
LAYER
  5
1FE
100
AcDbSymbolTableRecord
100
AcDbLayerTableRecord
  2
01___PRT_DEF_DTM_PLN
 70
0
 62
7
  6
CONTINUOUS
370
-3
390
F
  0
LAYER
  5
1FF
100
AcDbSymbolTableRecord
100
AcDbLayerTableRecord
  2
02___PRT_ALL_AXES
 70
0
 62
7
  6
CONTINUOUS
370
-3
390
F
  0
LAYER
  5
200
100
AcDbSymbolTableRecord
100
AcDbLayerTableRecord
  2
03___PRT_ALL_CURVES
 70
0
 62
7
  6
CONTINUOUS
370
-3
390
F
  0
LAYER
  5
201
100
AcDbSymbolTableRecord
100
AcDbLayerTableRecord
  2
04___PRT_ALL_DTM_PNT
 70
0
 62
7
  6
CONTINUOUS
370
-3
390
F
  0
LAYER
  5
202
100
AcDbSymbolTableRecord
100
AcDbLayerTableRecord
  2
05___PRT_ALL_DTM_CSYS
 70
0
 62
7
  6
CONTINUOUS
370
-3
390
F
  0
LAYER
  5
203
100
AcDbSymbolTableRecord
100
AcDbLayerTableRecord
  2
05___PRT_DEF_DTM_CSYS
 70
0
 62
7
  6
CONTINUOUS
370
-3
390
F
  0
LAYER
  5
204
100
AcDbSymbolTableRecord
100
AcDbLayerTableRecord
  2
06___PRT_ALL_SURFS
 70
0
 62
7
  6
CONTINUOUS
370
-3
390
F
  0
LAYER
  5
205
100
AcDbSymbolTableRecord
100
AcDbLayerTableRecord
  2
AUSFORMSCHRAEGEN
 70
0
 62
7
  6
CONTINUOUS
370
-3
390
F
  0
LAYER
  5
206
100
AcDbSymbolTableRecord
100
AcDbLayerTableRecord
  2
BEZUGSACHSEN
 70
0
 62
7
  6
CONTINUOUS
370
-3
390
F
  0
LAYER
  5
207
100
AcDbSymbolTableRecord
100
AcDbLayerTableRecord
  2
BEZUGSEBENEN
 70
0
 62
7
  6
CONTINUOUS
370
-3
390
F
  0
LAYER
  5
208
100
AcDbSymbolTableRecord
100
AcDbLayerTableRecord
  2
BOHRUNGEN
 70
0
 62
7
  6
CONTINUOUS
370
-3
390
F
  0
LAYER
  5
209
100
AcDbSymbolTableRecord
100
AcDbLayerTableRecord
  2
FASEN
 70
0
 62
7
  6
CONTINUOUS
370
-3
390
F
  0
LAYER
  5
20A
100
AcDbSymbolTableRecord
100
AcDbLayerTableRecord
  2
GEWINDE
 70
0
 62
7
  6
CONTINUOUS
370
-3
390
F
  0
LAYER
  5
20B
100
AcDbSymbolTableRecord
100
AcDbLayerTableRecord
  2
KURVEN
 70
0
 62
7
  6
CONTINUOUS
370
-3
390
F
  0
LAYER
  5
20C
100
AcDbSymbolTableRecord
100
AcDbLayerTableRecord
  2
RUNDUNGEN
 70
0
 62
7
  6
CONTINUOUS
370
-3
390
F
  0
LAYER
  5
20D
100
AcDbSymbolTableRecord
100
AcDbLayerTableRecord
  2
ZEICHNUNGSBEMASSUNGEN
 70
0
 62
7
  6
CONTINUOUS
370
-3
390
F
  0
ENDTAB
  0
TABLE
  2
STYLE
  5
3
100
AcDbSymbolTable
 70
1
  0
STYLE
  5
11
100
AcDbSymbolTableRecord
100
AcDbTextStyleTableRecord
  2
STANDARD
 70
0
 40
0.0
 41
0.7
 50
0.0
 71
0
 42
0.2
  3
txt
  4

  0
STYLE
  5
20E
100
AcDbSymbolTableRecord
100
AcDbTextStyleTableRecord
  2
TEXTSTYLE_1
 70
0
 40
0.0
 41
0.8
 50
0.0
 71
0
 42
0.2
  3
gdt
  4

  0
ENDTAB
  0
TABLE
  2
VIEW
  5
6
100
AcDbSymbolTable
 70
0
  0
ENDTAB
  0
TABLE
  2
UCS
  5
7
100
AcDbSymbolTable
 70
0
  0
ENDTAB
  0
TABLE
  2
APPID
  5
9
100
AcDbSymbolTable
 70
1
  0
APPID
  5
20F
100
AcDbSymbolTableRecord
100
AcDbRegAppTableRecord
  2
ACAD
 70
0
  0
ENDTAB
  0
TABLE
  2
BLOCK_RECORD
  5
1
100
AcDbSymbolTable
 70
0
  0
BLOCK_RECORD
  5
210
100
AcDbSymbolTableRecord
100
AcDbBlockTableRecord
  2
*Model_Space
  0
BLOCK_RECORD
  5
211
100
AcDbSymbolTableRecord
100
AcDbBlockTableRecord
  2
*Paper_Space
  0
ENDTAB
  0
TABLE
  2
DIMSTYLE
  5
A
100
AcDbSymbolTable
 70
1
100
AcDbDimStyleTable
 71
0
  0
DIMSTYLE
105
212
100
AcDbSymbolTableRecord
100
AcDbDimStyleTableRecord
  2
STANDARD
 70
0
  3

  4

 40
1.0
 41
3.5
 42
0.0625
 43
0.38
 44
0.18
 45
0.0
 46
0.0
 47
0.005
 48
0.005
140
3.5
141
0.09
142
0.0
143
25.4
144
1.0
145
0.0
146
1.0
147
0.09
 71
1.0
 72
0.0
 73
0
 74
0
 75
0
 76
0
 77
1
 78
8
170
0
171
2
172
0
173
0
174
0
175
0
176
0
177
0
178
5
270
2
271
3
272
3
273
2
274
2
275
0
280
0
281
0
282
0
283
1
284
8
285
0
286
0
287
3
288
0
340
11
  0
ENDTAB
  0
ENDSEC
  0
SECTION
  2
BLOCKS
  0
BLOCK
  5
20
100
AcDbEntity
  8
0
100
AcDbBlockBegin
  2
*Model_Space
 70
0
 10
0.0
 20
0.0
 30
0.0
  3
*Model_Space
  1

  0
ENDBLK
  5
21
100
AcDbEntity
  8
0
100
AcDbBlockEnd
  0
BLOCK
  5
1C
100
AcDbEntity
  8
0
100
AcDbBlockBegin
  2
*Paper_Space
 70
0
 10
0.0
 20
0.0
 30
0.0
  3
*Paper_Space
  1

  0
ENDBLK
  5
1D
100
AcDbEntity
  8
0
100
AcDbBlockEnd
  0
ENDSEC
  0
SECTION
  2
ENTITIES
  0
LINE
  5
213
100
AcDbEntity
  8
0
100
AcDbLine
 62
7
  6
CONTINUOUS
 10
0.0
 20
0.0
 11
0.0
 21
210.0
  0
LINE
  5
214
100
AcDbEntity
  8
0
100
AcDbLine
 62
7
  6
CONTINUOUS
 10
0.0
 20
0.0
 11
297.0
 21
0.0
  0
LINE
  5
215
100
AcDbEntity
  8
0
100
AcDbLine
 62
7
  6
CONTINUOUS
 10
0.0
 20
210.0
 11
297.0
 21
210.0
  0
LINE
  5
216
100
AcDbEntity
  8
0
100
AcDbLine
 62
7
  6
CONTINUOUS
 10
297.0
 20
0.0
 11
297.0
 21
210.0
  0
LINE
  5
217
100
AcDbEntity
  8
RUNDUNGEN
100
AcDbLine
 62
7
  6
CONTINUOUS
 10
55.4873458292
 20
109.1986308195
 11
55.4873458292
 21
103.1986308195
  0
LINE
  5
218
100
AcDbEntity
  8
RUNDUNGEN
100
AcDbLine
 62
7
  6
CONTINUOUS
 10
68.9589367309
 20
135.73211072
 11
67.4403515929
 21
133.1018441053
  0
LINE
  5
219
100
AcDbEntity
  8
RUNDUNGEN
100
AcDbLine
 62
7
  6
CONTINUOUS
 10
61.7019916469
 20
123.1627131267
 11
60.1834024677
 21
120.5324395126
  0
LINE
  5
21A
100
AcDbEntity
  8
RUNDUNGEN
100
AcDbLine
 62
7
  6
CONTINUOUS
 10
81.6224311253
 20
148.4659264125
 11
76.4262787026
 21
145.4659264125
  0
LINE
  5
21B
100
AcDbEntity
  8
RUNDUNGEN
100
AcDbLine
 62
7
  6
CONTINUOUS
 10
93.7858343172
 20
62.3313352265
 11
96.8230040527
 21
62.3313352265
  0
LINE
  5
21C
100
AcDbEntity
  8
RUNDUNGEN
100
AcDbLine
 62
7
  6
CONTINUOUS
 10
108.2997239447
 20
62.3313352265
 11
111.3369023031
 21
62.3313352265
  0
LINE
  5
21D
100
AcDbEntity
  8
RUNDUNGEN
100
AcDbLine
 62
7
  6
CONTINUOUS
 10
76.4262787026
 20
66.9313352265
 11
81.6224311253
 21
63.9313352265
  0
LINE
  5
21E
100
AcDbEntity
  8
RUNDUNGEN
100
AcDbLine
 62
7
  6
CONTINUOUS
 10
60.183404973
 20
91.864817787
 11
61.7019916469
 21
89.2345485123
  0
LINE
  5
21F
100
AcDbEntity
  8
RUNDUNGEN
100
AcDbLine
 62
7
  6
CONTINUOUS
 10
67.4403515929
 20
79.2954175337
 11
68.958940772
 21
76.6651439195
  0
LINE
  5
220
100
AcDbEntity
  8
RUNDUNGEN
100
AcDbLine
 62
7
  6
CONTINUOUS
 10
60.4923683676
 20
93.6803139929
 11
61.2172630863
 21
96.4702892903
  0
LINE
  5
221
100
AcDbEntity
  8
RUNDUNGEN
100
AcDbLine
 62
7
  6
CONTINUOUS
 10
92.3682164386
 20
148.8907754697
 11
90.3143045828
 21
146.8678434081
  0
LINE
  5
222
100
AcDbEntity
  8
RUNDUNGEN
100
AcDbLine
 62
7
  6
CONTINUOUS
 10
134.4370421987
 20
76.0249703046
 11
131.658405356
 21
75.2577598974
  0
LINE
  5
223
100
AcDbEntity
  8
RUNDUNGEN
100
AcDbLine
 62
7
  6
CONTINUOUS
 10
73.4643226449
 20
75.2577598964
 11
70.6855850064
 21
76.0249981344
  0
LINE
  5
224
100
AcDbEntity
  8
RUNDUNGEN
100
AcDbLine
 62
7
  6
CONTINUOUS
 10
92.3680465676
 20
63.506653478
 11
90.3143044436
 21
65.5294183681
  0
LINE
  5
225
100
AcDbEntity
  8
RUNDUNGEN
100
AcDbLine
 62
7
  6
CONTINUOUS
 10
61.2172630872
 20
115.9269723453
 11
60.4923420728
 21
118.7170488497
  0
LWPOLYLINE
  5
226
100
AcDbEntity
  8
RUNDUNGEN
100
AcDbPolyline
 62
7
  6
CONTINUOUS
 90
3
 70
0
 10
70.807387552
 20
121.9337214575
 10
70.8005032047
 20
121.9151746005
 10
70.51433185
 20
121.1718237962
  0
LINE
  5
227
100
AcDbEntity
  8
RUNDUNGEN
100
AcDbLine
 62
7
  6
CONTINUOUS
 10
70.51433185
 20
121.1718237962
 11
70.4445525009
 21
120.9885038336
  0
LWPOLYLINE
  5
228
100
AcDbEntity
  8
RUNDUNGEN
100
AcDbPolyline
 62
7
  6
CONTINUOUS
 90
3
 70
0
 10
73.057387552
 20
125.8308357745
 10
73.0696662494
 20
125.8463475034
 10
73.5715394124
 20
126.4648843179
  0
LINE
  5
229
100
AcDbEntity
  8
RUNDUNGEN
100
AcDbLine
 62
7
  6
CONTINUOUS
 10
73.5715394124
 20
126.4648843179
 11
73.6945525009
 21
126.6176689582
  0
LINE
  5
22A
100
AcDbEntity
  8
0
100
AcDbLine
 62
7
  6
CONTINUOUS
 10
83.0037584574
 20
135.1030620746
 11
83.1116279387
 21
135.2258132548
  0
LINE
  5
22B
100
AcDbEntity
  8
0
100
AcDbLine
 62
7
  6
CONTINUOUS
 10
84.3977741265
 20
136.5181180949
 11
84.3095321646
 21
136.4186595948
  0
LINE
  5
22C
100
AcDbEntity
  8
0
100
AcDbLine
 62
7
  6
CONTINUOUS
 10
84.4465813231
 20
136.3120003081
 11
84.5348234409
 21
136.4114589007
  0
LINE
  5
22D
100
AcDbEntity
  8
0
100
AcDbLine
 62
7
  6
CONTINUOUS
 10
83.8232455685
 20
136.167538106
 11
83.7113830319
 21
136.0484145506
  0
LINE
  5
22E
100
AcDbEntity
  8
0
100
AcDbLine
 62
7
  6
CONTINUOUS
 10
86.3460473649
 20
137.6030057968
 11
86.2520453559
 21
137.508972508
  0
LINE
  5
22F
100
AcDbEntity
  8
0
100
AcDbLine
 62
7
  6
CONTINUOUS
 10
86.3262327506
 20
137.3652929955
 11
86.4202347595
 21
137.4593262843
  0
LINE
  5
230
100
AcDbEntity
  8
0
100
AcDbLine
 62
7
  6
CONTINUOUS
 10
83.793205933
 20
135.8608955503
 11
83.931782516
 21
135.997023262
  0
LINE
  5
231
100
AcDbEntity
  8
0
100
AcDbLine
 62
7
  6
CONTINUOUS
 10
82.4104053485
 20
135.9706260417
 11
81.7830898573
 21
135.5415860964
  0
LINE
  5
232
100
AcDbEntity
  8
0
100
AcDbLine
 62
7
  6
CONTINUOUS
 10
82.0540250849
 20
135.4820068763
 11
82.5506498238
 21
135.8216634825
  0
LINE
  5
233
100
AcDbEntity
  8
0
100
AcDbLine
 62
7
  6
CONTINUOUS
 10
82.8929689522
 20
135.3211457697
 11
82.3963442133
 21
134.9814891634
  0
LINE
  5
234
100
AcDbEntity
  8
0
100
AcDbLine
 62
7
  6
CONTINUOUS
 10
82.5332718391
 20
134.7812821156
 11
83.0037584574
 21
135.1030620746
  0
LINE
  5
235
100
AcDbEntity
  8
0
100
AcDbLine
 62
7
  6
CONTINUOUS
 10
82.8556897205
 20
133.9732973687
 11
83.0125185932
 21
134.080557355
  0
LINE
  5
236
100
AcDbEntity
  8
0
100
AcDbLine
 62
7
  6
CONTINUOUS
 10
83.4759635771
 20
135.9464844641
 11
83.342393651
 21
135.8614638774
  0
LINE
  5
237
100
AcDbEntity
  8
0
100
AcDbLine
 62
7
  6
CONTINUOUS
 10
84.037030176
 20
134.77016878
 11
84.1706001022
 21
134.8551893666
  0
LINE
  5
238
100
AcDbEntity
  8
0
100
AcDbLine
 62
7
  6
CONTINUOUS
 10
84.6155597742
 20
136.6475292638
 11
84.3977741265
 21
136.5181180949
  0
LINE
  5
239
100
AcDbEntity
  8
0
100
AcDbLine
 62
7
  6
CONTINUOUS
 10
84.5348234409
 20
136.4114589007
 11
84.6437161089
 21
136.4761643926
  0
LINE
  5
23A
100
AcDbEntity
  8
0
100
AcDbLine
 62
7
  6
CONTINUOUS
 10
85.1393331067
 20
135.6420921112
 11
85.0304404386
 21
135.5773866193
  0
LINE
  5
23B
100
AcDbEntity
  8
0
100
AcDbLine
 62
7
  6
CONTINUOUS
 10
85.0585967806
 20
135.4060217359
 11
85.2763824283
 21
135.5354329048
  0
LINE
  5
23C
100
AcDbEntity
  8
0
100
AcDbLine
 62
7
  6
CONTINUOUS
 10
85.0331098032
 20
137.5860339014
 11
84.8950419236
 21
137.5085307189
  0
LINE
  5
23D
100
AcDbEntity
  8
0
100
AcDbLine
 62
7
  6
CONTINUOUS
 10
85.825079405
 20
135.8517174273
 11
85.9631472846
 21
135.9292206099
  0
LINE
  5
23E
100
AcDbEntity
  8
0
100
AcDbLine
 62
7
  6
CONTINUOUS
 10
85.4138571807
 20
137.7956524718
 11
85.2748623963
 21
137.7198241618
  0
LINE
  5
23F
100
AcDbEntity
  8
0
100
AcDbLine
 62
7
  6
CONTINUOUS
 10
85.3716644089
 20
137.542384168
 11
85.5106591933
 21
137.6182124781
  0
LINE
  5
240
100
AcDbEntity
  8
0
100
AcDbLine
 62
7
  6
CONTINUOUS
 10
85.7042632726
 20
137.2633323911
 11
85.5652684882
 21
137.187504081
  0
LINE
  5
241
100
AcDbEntity
  8
0
100
AcDbLine
 62
7
  6
CONTINUOUS
 10
86.1848014227
 20
136.0518880214
 11
86.3237962071
 21
136.1277163315
  0
LINE
  5
242
100
AcDbEntity
  8
0
100
AcDbLine
 62
7
  6
CONTINUOUS
 10
86.4585965445
 20
137.6611193737
 11
86.3460473649
 21
137.6030057968
  0
LINE
  5
243
100
AcDbEntity
  8
0
100
AcDbLine
 62
7
  6
CONTINUOUS
 10
86.0928121938
 20
137.4722504981
 11
85.9521262023
 21
137.3996087764
  0
LINE
  5
244
100
AcDbEntity
  8
0
100
AcDbLine
 62
7
  6
CONTINUOUS
 10
86.5456254116
 20
136.2501725753
 11
86.6863114031
 21
136.322814297
  0
LINE
  5
245
100
AcDbEntity
  8
0
100
AcDbLine
 62
7
  6
CONTINUOUS
 10
87.1927817452
 20
136.5843248944
 11
87.3334680587
 21
136.6569667824
  0
LINE
  5
246
100
AcDbEntity
  8
0
100
AcDbLine
 62
7
  6
CONTINUOUS
 10
86.8888808299
 20
138.5538003667
 11
86.7458420767
 21
138.4859086658
  0
LINE
  5
247
100
AcDbEntity
  8
0
100
AcDbLine
 62
7
  6
CONTINUOUS
 10
87.6924399955
 20
138.2639803081
 11
87.5207935572
 21
138.1825102982
  0
LINE
  5
248
100
AcDbEntity
  8
0
100
AcDbLine
 62
7
  6
CONTINUOUS
 10
87.5605437298
 20
136.7694410091
 11
87.7035824829
 21
136.83733271
  0
LINE
  5
249
100
AcDbEntity
  8
0
100
AcDbLine
 62
7
  6
CONTINUOUS
 10
88.1899150948
 20
137.0681648968
 11
88.3615618605
 21
137.1496350621
  0
LINE
  5
24A
100
AcDbEntity
  8
0
100
AcDbLine
 62
7
  6
CONTINUOUS
 10
82.5639173717
 20
136.0266415394
 11
82.4104053485
 21
135.9706260417
  0
LINE
  5
24B
100
AcDbEntity
  8
RUNDUNGEN
100
AcDbLine
 62
7
  6
CONTINUOUS
 10
134.4373294051
 20
76.0250503005
 11
134.4373613577
 21
76.0250584283
  0
LWPOLYLINE
  5
24C
100
AcDbEntity
  8
RUNDUNGEN
100
AcDbPolyline
 62
7
  6
CONTINUOUS
 90
3
 70
0
 10
104.8113639987
 20
70.8313352265
 10
104.8308682217
 20
70.8346466354
 10
105.6177145795
 20
70.9584903745
  0
LINE
  5
24D
100
AcDbEntity
  8
RUNDUNGEN
100
AcDbLine
 62
7
  6
CONTINUOUS
 10
105.6177145795
 20
70.9584903745
 11
105.8113639987
 21
70.9897196668
  0
LWPOLYLINE
  5
24E
100
AcDbEntity
  8
RUNDUNGEN
100
AcDbPolyline
 62
7
  6
CONTINUOUS
 90
3
 70
0
 10
100.3113639987
 20
70.8313352265
 10
100.2917910988
 20
70.8342130259
 10
99.5051859228
 20
70.9595795273
  0
LINE
  5
24F
100
AcDbEntity
  8
RUNDUNGEN
100
AcDbLine
 62
7
  6
CONTINUOUS
 10
99.5051859228
 20
70.9595795273
 11
99.3113639987
 21
70.9897196668
  0
LINE
  5
250
100
AcDbEntity
  8
RUNDUNGEN
100
AcDbLine
 62
7
  6
CONTINUOUS
 10
92.3682594493
 20
63.5064447479
 11
92.3682824645
 21
63.5064211401
  0
LWPOLYLINE
  5
251
100
AcDbEntity
  8
RUNDUNGEN
100
AcDbPolyline
 62
7
  6
CONTINUOUS
 90
3
 70
0
 10
73.057387552
 20
86.5664258645
 10
73.0700074277
 20
86.5511904164
 10
73.5706824308
 20
85.9316833512
  0
LINE
  5
252
100
AcDbEntity
  8
RUNDUNGEN
100
AcDbLine
 62
7
  6
CONTINUOUS
 10
73.5706824308
 20
85.9316833512
 11
73.6945525009
 21
85.7795926809
  0
LWPOLYLINE
  5
253
100
AcDbEntity
  8
RUNDUNGEN
100
AcDbPolyline
 62
7
  6
CONTINUOUS
 90
3
 70
0
 10
70.807387552
 20
90.4635401815
 10
70.8000933494
 20
90.4819297098
 10
70.5153613364
 20
91.2258330257
  0
LINE
  5
254
100
AcDbEntity
  8
RUNDUNGEN
100
AcDbLine
 62
7
  6
CONTINUOUS
 10
70.5153613364
 20
91.2258330257
 11
70.4445525009
 21
91.4087578055
  0
LINE
  5
255
100
AcDbEntity
  8
RUNDUNGEN
100
AcDbLine
 62
7
  6
CONTINUOUS
 10
75.940712522
 20
144.7691915978
 11
74.902317155
 21
138.7239213809
  0
LINE
  5
256
100
AcDbEntity
  8
0
100
AcDbLine
 62
7
  6
CONTINUOUS
 10
83.7297646794
 20
135.724673085
 11
83.793205933
 21
135.8608955503
  0
LINE
  5
257
100
AcDbEntity
  8
0
100
AcDbLine
 62
7
  6
CONTINUOUS
 10
84.3095321646
 20
136.4186595948
 11
84.2757363809
 21
136.3515537482
  0
LINE
  5
258
100
AcDbEntity
  8
0
100
AcDbLine
 62
7
  6
CONTINUOUS
 10
85.3646243884
 20
135.6348914079
 11
85.3984200145
 21
135.7019971651
  0
LINE
  5
259
100
AcDbEntity
  8
0
100
AcDbLine
 62
7
  6
CONTINUOUS
 10
82.9485621176
 20
135.4081436041
 11
82.8929689522
 21
135.3211457697
  0
LINE
  5
25A
100
AcDbEntity
  8
0
100
AcDbLine
 62
7
  6
CONTINUOUS
 10
83.7113830319
 20
136.0484145506
 11
83.6529484351
 21
135.9632992103
  0
LINE
  5
25B
100
AcDbEntity
  8
0
100
AcDbLine
 62
7
  6
CONTINUOUS
 10
85.2275752172
 20
135.741550716
 11
85.1393331067
 21
135.6420921112
  0
LINE
  5
25C
100
AcDbEntity
  8
0
100
AcDbLine
 62
7
  6
CONTINUOUS
 10
85.2763824283
 20
135.5354329048
 11
85.3646243884
 21
135.6348914079
  0
LINE
  5
25D
100
AcDbEntity
  8
RUNDUNGEN
100
AcDbLine
 62
7
  6
CONTINUOUS
 10
60.5641126729
 20
113.8894227397
 11
55.8479527882
 21
109.9675108746
  0
LINE
  5
25E
100
AcDbEntity
  8
RUNDUNGEN
100
AcDbLine
 62
7
  6
CONTINUOUS
 10
122.6541237325
 20
148.5380716528
 11
116.8995684833
 21
146.4147133168
  0
LINE
  5
25F
100
AcDbEntity
  8
RUNDUNGEN
100
AcDbLine
 62
7
  6
CONTINUOUS
 10
116.8995684835
 20
65.9825483222
 11
122.6541237325
 21
63.8591899862
  0
LINE
  5
260
100
AcDbEntity
  8
RUNDUNGEN
100
AcDbLine
 62
7
  6
CONTINUOUS
 10
55.8479527882
 20
102.4297507645
 11
60.5641126731
 21
98.5078388992
  0
LINE
  5
261
100
AcDbEntity
  8
RUNDUNGEN
100
AcDbLine
 62
7
  6
CONTINUOUS
 10
74.9023171577
 20
73.6733402424
 11
75.940712522
 21
67.6280700413
  0
LINE
  5
262
100
AcDbEntity
  8
0
100
AcDbLine
 62
7
  6
CONTINUOUS
 10
83.1116279387
 20
135.2258132548
 11
83.1477166827
 21
135.3974234192
  0
LINE
  5
263
100
AcDbEntity
  8
0
100
AcDbLine
 62
7
  6
CONTINUOUS
 10
83.6529484351
 20
135.9632992103
 11
83.6162212279
 21
135.8440809013
  0
LINE
  5
264
100
AcDbEntity
  8
0
100
AcDbLine
 62
7
  6
CONTINUOUS
 10
86.2520453559
 20
137.508972508
 11
86.2047273296
 21
137.3935476522
  0
LINE
  5
265
100
AcDbEntity
  8
0
100
AcDbLine
 62
7
  6
CONTINUOUS
 10
86.2789147242
 20
137.2498681396
 11
86.3262327506
 21
137.3652929955
  0
LINE
  5
266
100
AcDbEntity
  8
0
100
AcDbLine
 62
7
  6
CONTINUOUS
 10
118.6869080172
 20
137.1880257359
 11
118.788958919
 21
137.2246772641
  0
LINE
  5
267
100
AcDbEntity
  8
0
100
AcDbLine
 62
7
  6
CONTINUOUS
 10
117.3760527147
 20
138.3355239032
 11
117.4483269897
 21
138.360699162
  0
LINE
  5
268
100
AcDbEntity
  8
0
100
AcDbLine
 62
7
  6
CONTINUOUS
 10
117.3639507245
 20
137.4874292052
 11
117.2916764416
 21
137.4622539295
  0
LINE
  5
269
100
AcDbEntity
  8
0
100
AcDbLine
 62
7
  6
CONTINUOUS
 10
118.8646800721
 20
136.7020344103
 11
118.7912548536
 21
136.6804450201
  0
LINE
  5
26A
100
AcDbEntity
  8
0
100
AcDbLine
 62
7
  6
CONTINUOUS
 10
82.9551958915
 20
135.5106326325
 11
82.9485621176
 21
135.4081436041
  0
LINE
  5
26B
100
AcDbEntity
  8
0
100
AcDbLine
 62
7
  6
CONTINUOUS
 10
83.6162212279
 20
135.8440809013
 11
83.6062079142
 21
135.7418666512
  0
LINE
  5
26C
100
AcDbEntity
  8
0
100
AcDbLine
 62
7
  6
CONTINUOUS
 10
84.2757363809
 20
136.3515537482
 11
84.2625914591
 21
136.2496949859
  0
LINE
  5
26D
100
AcDbEntity
  8
0
100
AcDbLine
 62
7
  6
CONTINUOUS
 10
84.4334364014
 20
136.2101415458
 11
84.4465813231
 21
136.3120003081
  0
LINE
  5
26E
100
AcDbEntity
  8
0
100
AcDbLine
 62
7
  6
CONTINUOUS
 10
85.240720139
 20
135.8434094783
 11
85.2275752172
 21
135.741550716
  0
LINE
  5
26F
100
AcDbEntity
  8
0
100
AcDbLine
 62
7
  6
CONTINUOUS
 10
85.3984200145
 20
135.7019971651
 11
85.4115650885
 21
135.803856026
  0
LINE
  5
270
100
AcDbEntity
  8
0
100
AcDbLine
 62
7
  6
CONTINUOUS
 10
87.6030974602
 20
137.6398508488
 11
87.6924399955
 21
138.2639803081
  0
LINE
  5
271
100
AcDbEntity
  8
0
100
AcDbLine
 62
7
  6
CONTINUOUS
 10
87.5207935572
 20
138.1825102982
 11
87.4089031725
 21
137.4581826906
  0
LINE
  5
272
100
AcDbEntity
  8
0
100
AcDbLine
 62
7
  6
CONTINUOUS
 10
86.2047273296
 20
137.3935476522
 11
86.1855464371
 21
137.2926511074
  0
LINE
  5
273
100
AcDbEntity
  8
0
100
AcDbLine
 62
7
  6
CONTINUOUS
 10
86.2597338318
 20
137.1489715949
 11
86.2789147242
 21
137.2498681396
  0
LINE
  5
274
100
AcDbEntity
  8
0
100
AcDbLine
 62
7
  6
CONTINUOUS
 10
87.5129076264
 20
137.2390591861
 11
87.5692763286
 21
137.4895539627
  0
LINE
  5
275
100
AcDbEntity
  8
0
100
AcDbLine
 62
7
  6
CONTINUOUS
 10
117.410561569
 20
138.4960670508
 11
117.2991609878
 21
138.4302588415
  0
LINE
  5
276
100
AcDbEntity
  8
0
100
AcDbLine
 62
7
  6
CONTINUOUS
 10
117.3294418584
 20
137.3268860322
 11
117.4408424436
 21
137.39269425
  0
LINE
  5
277
100
AcDbEntity
  8
0
100
AcDbLine
 62
7
  6
CONTINUOUS
 10
119.6938863952
 20
137.3146587314
 11
119.6069750031
 21
137.271494943
  0
LINE
  5
278
100
AcDbEntity
  8
0
100
AcDbLine
 62
7
  6
CONTINUOUS
 10
119.5381789251
 20
136.2099544673
 11
119.6250903217
 21
136.2531182639
  0
LINE
  5
279
100
AcDbEntity
  8
0
100
AcDbLine
 62
7
  6
CONTINUOUS
 10
120.4580598157
 20
136.1689604464
 11
120.5169754949
 21
136.1956843001
  0
LINE
  5
27A
100
AcDbEntity
  8
0
100
AcDbLine
 62
7
  6
CONTINUOUS
 10
122.27631534
 20
135.7780789093
 11
122.155998082
 21
135.7304919214
  0
LINE
  5
27B
100
AcDbEntity
  8
0
100
AcDbLine
 62
7
  6
CONTINUOUS
 10
122.0134434458
 20
134.6359478779
 11
122.1337607089
 21
134.6835348736
  0
LINE
  5
27C
100
AcDbEntity
  8
0
100
AcDbLine
 62
7
  6
CONTINUOUS
 10
122.5930917593
 20
134.7860801992
 11
122.6537971376
 21
134.8084426379
  0
LINE
  5
27D
100
AcDbEntity
  8
0
100
AcDbLine
 62
7
  6
CONTINUOUS
 10
83.1477166827
 20
135.3974234192
 11
83.1348460353
 21
135.5845247775
  0
LINE
  5
27E
100
AcDbEntity
  8
0
100
AcDbLine
 62
7
  6
CONTINUOUS
 10
84.2625914591
 20
136.2496949859
 11
84.2700972435
 21
136.1130832154
  0
LINE
  5
27F
100
AcDbEntity
  8
0
100
AcDbLine
 62
7
  6
CONTINUOUS
 10
84.4409420299
 20
136.0735296828
 11
84.4334364014
 21
136.2101415458
  0
LINE
  5
280
100
AcDbEntity
  8
0
100
AcDbLine
 62
7
  6
CONTINUOUS
 10
85.2332143402
 20
135.9800212731
 11
85.240720139
 21
135.8434094783
  0
LINE
  5
281
100
AcDbEntity
  8
0
100
AcDbLine
 62
7
  6
CONTINUOUS
 10
85.4115650885
 20
135.803856026
 11
85.4040594527
 21
135.9404679012
  0
LINE
  5
282
100
AcDbEntity
  8
0
100
AcDbLine
 62
7
  6
CONTINUOUS
 10
83.7364522512
 20
135.5372488383
 11
83.7297646794
 21
135.724673085
  0
LINE
  5
283
100
AcDbEntity
  8
0
100
AcDbLine
 62
7
  6
CONTINUOUS
 10
117.4309271049
 20
137.5445142412
 11
117.3639507245
 21
137.4874292052
  0
LINE
  5
284
100
AcDbEntity
  8
0
100
AcDbLine
 62
7
  6
CONTINUOUS
 10
118.9343836492
 20
136.7557555314
 11
118.8646800721
 21
136.7020344103
  0
LINE
  5
285
100
AcDbEntity
  8
0
100
AcDbLine
 62
7
  6
CONTINUOUS
 10
119.547907282
 20
137.0905798602
 11
119.6897911832
 21
137.194729563
  0
LINE
  5
286
100
AcDbEntity
  8
0
100
AcDbLine
 62
7
  6
CONTINUOUS
 10
119.6841580155
 20
136.4340332978
 11
119.5422741416
 21
136.329883644
  0
LINE
  5
287
100
AcDbEntity
  8
0
100
AcDbLine
 62
7
  6
CONTINUOUS
 10
118.8633931867
 20
136.582042235
 11
118.9617224427
 21
136.6508254859
  0
LINE
  5
288
100
AcDbEntity
  8
0
100
AcDbLine
 62
7
  6
CONTINUOUS
 10
120.6790339829
 20
136.534211864
 11
120.7517605451
 21
136.5837639273
  0
LINE
  5
289
100
AcDbEntity
  8
0
100
AcDbLine
 62
7
  6
CONTINUOUS
 10
120.6936393434
 20
135.7457835412
 11
120.6209127715
 21
135.6962314619
  0
LINE
  5
28A
100
AcDbEntity
  8
0
100
AcDbLine
 62
7
  6
CONTINUOUS
 10
120.7600635656
 20
136.7034753974
 11
120.6578795219
 21
136.6405611906
  0
LINE
  5
28B
100
AcDbEntity
  8
0
100
AcDbLine
 62
7
  6
CONTINUOUS
 10
120.6126097461
 20
135.5765199839
 11
120.7147937947
 21
135.6394341987
  0
LINE
  5
28C
100
AcDbEntity
  8
0
100
AcDbLine
 62
7
  6
CONTINUOUS
 10
122.1476978129
 20
134.835038454
 11
122.0726216868
 21
134.7891240215
  0
LINE
  5
28D
100
AcDbEntity
  8
0
100
AcDbLine
 62
7
  6
CONTINUOUS
 10
122.8400781673
 20
135.1342696518
 11
122.9162201933
 21
135.1783939274
  0
LINE
  5
28E
100
AcDbEntity
  8
0
100
AcDbLine
 62
7
  6
CONTINUOUS
 10
122.7972284685
 20
134.3468711249
 11
122.7210864317
 21
134.3027468341
  0
LINE
  5
28F
100
AcDbEntity
  8
0
100
AcDbLine
 62
7
  6
CONTINUOUS
 10
122.9332190019
 20
135.2971828862
 11
122.8267246281
 21
135.2418771491
  0
LINE
  5
290
100
AcDbEntity
  8
0
100
AcDbLine
 62
7
  6
CONTINUOUS
 10
122.7040876177
 20
134.1839578677
 11
122.8105819969
 21
134.2392636125
  0
LINE
  5
291
100
AcDbEntity
  8
0
100
AcDbLine
 62
7
  6
CONTINUOUS
 10
123.8636872274
 20
134.7554890862
 11
123.6640647615
 21
134.6713941322
  0
LINE
  5
292
100
AcDbEntity
  8
0
100
AcDbLine
 62
7
  6
CONTINUOUS
 10
123.5364392539
 20
134.5003055852
 11
123.7360617645
 21
134.584400599
  0
LINE
  5
293
100
AcDbEntity
  8
RUNDUNGEN
100
AcDbLine
 62
7
  6
CONTINUOUS
 10
93.5613639987
 20
149.0659264125
 11
93.5613639987
 21
142.626194445
  0
LINE
  5
294
100
AcDbEntity
  8
RUNDUNGEN
100
AcDbLine
 62
7
  6
CONTINUOUS
 10
93.5613639987
 20
63.3313352265
 11
93.5613639987
 21
69.770992083
  0
LINE
  5
295
100
AcDbEntity
  8
0
100
AcDbLine
 62
7
  6
CONTINUOUS
 10
117.4408424436
 20
137.39269425
 11
117.519094969
 21
137.4739602122
  0
LINE
  5
296
100
AcDbEntity
  8
0
100
AcDbLine
 62
7
  6
CONTINUOUS
 10
120.6578795219
 20
136.6405611906
 11
120.5575311549
 21
136.5453526441
  0
LINE
  5
297
100
AcDbEntity
  8
0
100
AcDbLine
 62
7
  6
CONTINUOUS
 10
119.6069750031
 20
137.271494943
 11
119.5230321273
 21
137.1961211305
  0
LINE
  5
298
100
AcDbEntity
  8
0
100
AcDbLine
 62
7
  6
CONTINUOUS
 10
119.6250903217
 20
136.2531182639
 11
119.7090330239
 21
136.3284921948
  0
LINE
  5
299
100
AcDbEntity
  8
0
100
AcDbLine
 62
7
  6
CONTINUOUS
 10
122.8267246281
 20
135.2418771491
 11
122.7197092632
 21
135.1542291385
  0
LINE
  5
29A
100
AcDbEntity
  8
0
100
AcDbLine
 62
7
  6
CONTINUOUS
 10
122.1337607089
 20
134.6835348736
 11
122.2237539957
 21
134.7515704941
  0
LINE
  5
29B
100
AcDbEntity
  8
RUNDUNGEN
100
AcDbLine
 62
7
  6
CONTINUOUS
 10
135.1855309738
 20
135.4265072501
 11
129.6085679146
 21
132.2066461266
  0
LINE
  5
29C
100
AcDbEntity
  8
RUNDUNGEN
100
AcDbLine
 62
7
  6
CONTINUOUS
 10
60.9371970236
 20
92.5592116571
 11
66.5141046173
 21
95.7790407575
  0
LINE
  5
29D
100
AcDbEntity
  8
RUNDUNGEN
100
AcDbLine
 62
7
  6
CONTINUOUS
 10
60.9371970236
 20
119.838049982
 11
66.5141611572
 21
116.6181882382
  0
LINE
  5
29E
100
AcDbEntity
  8
RUNDUNGEN
100
AcDbLine
 62
7
  6
CONTINUOUS
 10
129.6086257072
 20
80.1905821459
 11
135.1855309738
 21
76.970754389
  0
LINE
  5
29F
100
AcDbEntity
  8
0
100
AcDbLine
 62
7
  6
CONTINUOUS
 10
84.2700972435
 20
136.1130832154
 11
84.304826117
 21
135.9926477716
  0
LINE
  5
2A0
100
AcDbEntity
  8
RUNDUNGEN
100
AcDbLine
 62
7
  6
CONTINUOUS
 10
107.3486674284
 20
149.3749434069
 11
104.8113639987
 21
141.5659264125
  0
LINE
  5
2A1
100
AcDbEntity
  8
0
100
AcDbLine
 62
7
  6
CONTINUOUS
 10
117.2991609878
 20
138.4302588415
 11
117.2374824546
 21
138.3412640503
  0
LINE
  5
2A2
100
AcDbEntity
  8
0
100
AcDbLine
 62
7
  6
CONTINUOUS
 10
119.4539321617
 20
136.9596969276
 11
119.547907282
 21
137.0905798602
  0
LINE
  5
2A3
100
AcDbEntity
  8
0
100
AcDbLine
 62
7
  6
CONTINUOUS
 10
119.4680598009
 20
137.1351351141
 11
119.3870854413
 21
137.0275512773
  0
LINE
  5
2A4
100
AcDbEntity
  8
0
100
AcDbLine
 62
7
  6
CONTINUOUS
 10
119.7640054966
 20
136.3894780439
 11
119.8449798745
 21
136.4970619133
  0
LINE
  5
2A5
100
AcDbEntity
  8
0
100
AcDbLine
 62
7
  6
CONTINUOUS
 10
120.5234424419
 20
136.3476902625
 11
120.6219546966
 21
136.4751932374
  0
LINE
  5
2A6
100
AcDbEntity
  8
0
100
AcDbLine
 62
7
  6
CONTINUOUS
 10
117.3256502397
 20
138.2707099757
 11
117.3760527147
 21
138.3355239032
  0
LINE
  5
2A7
100
AcDbEntity
  8
0
100
AcDbLine
 62
7
  6
CONTINUOUS
 10
118.9879133658
 20
136.8180115218
 11
118.9343836492
 21
136.7557555314
  0
LINE
  5
2A8
100
AcDbEntity
  8
0
100
AcDbLine
 62
7
  6
CONTINUOUS
 10
122.671316894
 20
134.959573809
 11
122.7788524807
 21
135.0795644554
  0
LINE
  5
2A9
100
AcDbEntity
  8
RUNDUNGEN
100
AcDbLine
 62
7
  6
CONTINUOUS
 10
73.057387552
 20
86.5664258645
 11
67.5632321712
 21
80.4645481401
  0
LINE
  5
2AA
100
AcDbEntity
  8
0
100
AcDbLine
 62
7
  6
CONTINUOUS
 10
119.5230321273
 20
137.1961211305
 11
119.4680598009
 21
137.1351351141
  0
LINE
  5
2AB
100
AcDbEntity
  8
0
100
AcDbLine
 62
7
  6
CONTINUOUS
 10
119.7090330239
 20
136.3284921948
 11
119.7640054966
 21
136.3894780439
  0
LINE
  5
2AC
100
AcDbEntity
  8
0
100
AcDbLine
 62
7
  6
CONTINUOUS
 10
118.9617224427
 20
136.6508254859
 11
119.056330053
 21
136.7517404594
  0
LINE
  5
2AD
100
AcDbEntity
  8
0
100
AcDbLine
 62
7
  6
CONTINUOUS
 10
122.155998082
 20
135.7304919214
 11
122.0811671436
 21
135.6522317738
  0
LINE
  5
2AE
100
AcDbEntity
  8
0
100
AcDbLine
 62
7
  6
CONTINUOUS
 10
120.6219546966
 20
136.4751932374
 11
120.6790339829
 21
136.534211864
  0
LINE
  5
2AF
100
AcDbEntity
  8
0
100
AcDbLine
 62
7
  6
CONTINUOUS
 10
120.4009805488
 20
136.1099418517
 11
120.4580598157
 21
136.1689604464
  0
LINE
  5
2B0
100
AcDbEntity
  8
0
100
AcDbLine
 62
7
  6
CONTINUOUS
 10
120.7507185909
 20
135.8048021039
 11
120.6936393434
 21
135.7457835412
  0
LINE
  5
2B1
100
AcDbEntity
  8
0
100
AcDbLine
 62
7
  6
CONTINUOUS
 10
120.7147937947
 20
135.6394341987
 11
120.8151421326
 21
135.7346426972
  0
LINE
  5
2B2
100
AcDbEntity
  8
0
100
AcDbLine
 62
7
  6
CONTINUOUS
 10
122.1572232845
 20
135.5687637519
 11
122.2171371146
 21
135.6249027889
  0
LINE
  5
2B3
100
AcDbEntity
  8
0
100
AcDbLine
 62
7
  6
CONTINUOUS
 10
122.7788524807
 20
135.0795644554
 11
122.8400781673
 21
135.1342696518
  0
LINE
  5
2B4
100
AcDbEntity
  8
0
100
AcDbLine
 62
7
  6
CONTINUOUS
 10
122.5318660944
 20
134.7313750333
 11
122.5930917593
 21
134.7860801992
  0
LINE
  5
2B5
100
AcDbEntity
  8
0
100
AcDbLine
 62
7
  6
CONTINUOUS
 10
122.8584541119
 20
134.4015762604
 11
122.7972284685
 21
134.3468711249
  0
LINE
  5
2B6
100
AcDbEntity
  8
0
100
AcDbLine
 62
7
  6
CONTINUOUS
 10
122.8105819969
 20
134.2392636125
 11
122.9175973294
 21
134.3269115773
  0
LINE
  5
2B7
100
AcDbEntity
  8
0
100
AcDbLine
 62
7
  6
CONTINUOUS
 10
137.0938662005
 20
109.5414748403
 11
137.1985164127
 21
109.5692713848
  0
LINE
  5
2B8
100
AcDbEntity
  8
0
100
AcDbLine
 62
7
  6
CONTINUOUS
 10
137.7575932338
 20
109.0137405323
 11
137.8888165929
 21
109.0439328006
  0
LINE
  5
2B9
100
AcDbEntity
  8
0
100
AcDbLine
 62
7
  6
CONTINUOUS
 10
137.1886639712
 20
109.6785531537
 11
137.0574406881
 21
109.6483608741
  0
LINE
  5
2BA
100
AcDbEntity
  8
0
100
AcDbLine
 62
7
  6
CONTINUOUS
 10
137.2293611971
 20
106.2603657167
 11
137.1491799405
 21
106.2426963087
  0
LINE
  5
2BB
100
AcDbEntity
  8
RUNDUNGEN
100
AcDbLine
 62
7
  6
CONTINUOUS
 10
62.7759287415
 20
88.7564009116
 11
70.807387552
 21
90.4635401815
  0
LINE
  5
2BC
100
AcDbEntity
  8
0
100
AcDbLine
 62
7
  6
CONTINUOUS
 10
137.8816491536
 20
104.4872111832
 11
136.8813310234
 21
104.2885671119
  0
LINE
  5
2BD
100
AcDbEntity
  8
0
100
AcDbLine
 62
7
  6
CONTINUOUS
 10
137.7880841184
 20
104.7908487133
 11
137.8686570608
 21
104.8066366664
  0
LINE
  5
2BE
100
AcDbEntity
  8
0
100
AcDbLine
 62
7
  6
CONTINUOUS
 10
137.3007423746
 20
105.4280979629
 11
137.2201695069
 21
105.4123100074
  0
LINE
  5
2BF
100
AcDbEntity
  8
0
100
AcDbLine
 62
7
  6
CONTINUOUS
 10
137.0102928039
 20
104.207842282
 11
138.144848025
 21
104.4170470015
  0
LINE
  5
2C0
100
AcDbEntity
  8
0
100
AcDbLine
 62
7
  6
CONTINUOUS
 10
137.8149919693
 20
103.4358033721
 11
136.8092002719
 21
103.2670458408
  0
LINE
  5
2C1
100
AcDbEntity
  8
0
100
AcDbLine
 62
7
  6
CONTINUOUS
 10
137.8914249773
 20
105.6151765421
 11
137.9982862708
 21
105.6326403334
  0
LINE
  5
2C2
100
AcDbEntity
  8
0
100
AcDbLine
 62
7
  6
CONTINUOUS
 10
137.3310026576
 20
105.601212212
 11
137.4378639852
 21
105.6186755845
  0
LINE
  5
2C3
100
AcDbEntity
  8
0
100
AcDbLine
 62
7
  6
CONTINUOUS
 10
136.9357001177
 20
103.1825155696
 11
138.0759838896
 21
103.3578298134
  0
LINE
  5
2C4
100
AcDbEntity
  8
0
100
AcDbLine
 62
7
  6
CONTINUOUS
 10
137.6541753983
 20
104.7767213092
 11
137.7880841184
 21
104.7908487133
  0
LINE
  5
2C5
100
AcDbEntity
  8
0
100
AcDbLine
 62
7
  6
CONTINUOUS
 10
137.434651119
 20
105.4422249474
 11
137.3007423746
 21
105.4280979629
  0
LINE
  5
2C6
100
AcDbEntity
  8
0
100
AcDbLine
 62
7
  6
CONTINUOUS
 10
137.7909295385
 20
104.88224179
 11
137.6303529053
 21
104.8689450801
  0
LINE
  5
2C7
100
AcDbEntity
  8
RUNDUNGEN
100
AcDbLine
 62
7
  6
CONTINUOUS
 10
134.3153404454
 20
90.4635401815
 11
142.346799256
 21
88.7564009116
  0
LINE
  5
2C8
100
AcDbEntity
  8
RUNDUNGEN
100
AcDbLine
 62
7
  6
CONTINUOUS
 10
67.5632321712
 20
131.9327134989
 11
73.057387552
 21
125.8308357745
  0
LINE
  5
2C9
100
AcDbEntity
  8
0
100
AcDbLine
 62
7
  6
CONTINUOUS
 10
82.9128701992
 20
135.6286128037
 11
82.9551958915
 21
135.5106326325
  0
LINE
  5
2CA
100
AcDbEntity
  8
0
100
AcDbLine
 62
7
  6
CONTINUOUS
 10
83.1348460353
 20
135.5845247775
 11
83.0925203429
 21
135.7025049487
  0
LINE
  5
2CB
100
AcDbEntity
  8
0
100
AcDbLine
 62
7
  6
CONTINUOUS
 10
84.304826117
 20
135.9926477716
 11
84.3602056966
 21
135.8374593197
  0
LINE
  5
2CC
100
AcDbEntity
  8
0
100
AcDbLine
 62
7
  6
CONTINUOUS
 10
84.4963217653
 20
135.9183413234
 11
84.4409420299
 21
136.0735296828
  0
LINE
  5
2CD
100
AcDbEntity
  8
0
100
AcDbLine
 62
7
  6
CONTINUOUS
 10
85.1778349163
 20
136.1352098176
 11
85.2332143402
 21
135.9800212731
  0
LINE
  5
2CE
100
AcDbEntity
  8
0
100
AcDbLine
 62
7
  6
CONTINUOUS
 10
85.4040594527
 20
135.9404679012
 11
85.3139506735
 21
136.2160916362
  0
LINE
  5
2CF
100
AcDbEntity
  8
RUNDUNGEN
100
AcDbLine
 62
7
  6
CONTINUOUS
 10
104.8113639987
 20
70.8313352265
 11
107.3486674284
 21
63.0223182321
  0
LINE
  5
2D0
100
AcDbEntity
  8
0
100
AcDbLine
 62
7
  6
CONTINUOUS
 10
98.5613639987
 20
120.8068476854
 11
98.5613639987
 21
124.2486308195
  0
LINE
  5
2D1
100
AcDbEntity
  8
0
100
AcDbLine
 62
7
  6
CONTINUOUS
 10
100.3113639987
 20
70.8313352265
 11
100.3113639987
 21
71.831306382
  0
LINE
  5
2D2
100
AcDbEntity
  8
0
100
AcDbLine
 62
7
  6
CONTINUOUS
 10
100.3113639987
 20
140.5659775951
 11
100.3113639987
 21
141.5659264125
  0
LINE
  5
2D3
100
AcDbEntity
  8
RUNDUNGEN
100
AcDbLine
 62
7
  6
CONTINUOUS
 10
100.3113639987
 20
140.8547279615
 11
100.3113639987
 21
141.5659264125
  0
LINE
  5
2D4
100
AcDbEntity
  8
02___PRT_ALL_AXES
100
AcDbLine
 62
7
  6
CENTER
 10
102.5613639987
 20
106.1986308195
 11
102.5613639987
 21
56.7351323342
  0
LINE
  5
2D5
100
AcDbEntity
  8
02___PRT_ALL_AXES
100
AcDbLine
 62
7
  6
CENTER
 10
102.5613639987
 20
106.1986308195
 11
102.5613639987
 21
155.6621293048
  0
LINE
  5
2D6
100
AcDbEntity
  8
0
100
AcDbLine
 62
7
  6
CONTINUOUS
 10
116.5482767088
 20
138.9668739525
 11
116.0453513447
 21
137.8181433147
  0
LINE
  5
2D7
100
AcDbEntity
  8
0
100
AcDbLine
 62
7
  6
CONTINUOUS
 10
116.2100685133
 20
137.9207838094
 11
116.6487906396
 21
138.9228679831
  0
LINE
  5
2D8
100
AcDbEntity
  8
0
100
AcDbLine
 62
7
  6
CONTINUOUS
 10
116.6484349296
 20
137.5541074986
 11
116.7126381674
 21
137.7007539626
  0
LINE
  5
2D9
100
AcDbEntity
  8
0
100
AcDbLine
 62
7
  6
CONTINUOUS
 10
117.2374824546
 20
138.3412640503
 11
117.1923778743
 21
138.2445403454
  0
LINE
  5
2DA
100
AcDbEntity
  8
0
100
AcDbLine
 62
7
  6
CONTINUOUS
 10
117.3030979653
 20
138.2223481571
 11
117.3256502397
 21
138.2707099757
  0
LINE
  5
2DB
100
AcDbEntity
  8
0
100
AcDbLine
 62
7
  6
CONTINUOUS
 10
117.4647555165
 20
137.6170569691
 11
117.4309271049
 21
137.5445142412
  0
LINE
  5
2DC
100
AcDbEntity
  8
0
100
AcDbLine
 62
7
  6
CONTINUOUS
 10
117.519094969
 20
137.4739602122
 11
117.575475655
 21
137.5948647586
  0
LINE
  5
2DD
100
AcDbEntity
  8
0
100
AcDbLine
 62
7
  6
CONTINUOUS
 10
118.8974444465
 20
137.8612895958
 11
118.5736919799
 21
137.2477694484
  0
LINE
  5
2DE
100
AcDbEntity
  8
0
100
AcDbLine
 62
7
  6
CONTINUOUS
 10
118.7168205816
 20
137.3230800409
 11
118.9160528822
 21
137.7006309263
  0
LINE
  5
2DF
100
AcDbEntity
  8
0
100
AcDbLine
 62
7
  6
CONTINUOUS
 10
119.012817399
 20
136.8652053742
 11
118.9879133658
 21
136.8180115218
  0
LINE
  5
2E0
100
AcDbEntity
  8
0
100
AcDbLine
 62
7
  6
CONTINUOUS
 10
119.3850910684
 20
137.4531210925
 11
119.4473511514
 21
137.5711057235
  0
LINE
  5
2E1
100
AcDbEntity
  8
0
100
AcDbLine
 62
7
  6
CONTINUOUS
 10
119.056330053
 20
136.7517404594
 11
119.1061381195
 21
136.8461281642
  0
LINE
  5
2E2
100
AcDbEntity
  8
0
100
AcDbLine
 62
7
  6
CONTINUOUS
 10
119.3870854413
 20
137.0275512773
 11
119.2700769504
 21
136.8178603328
  0
LINE
  5
2E3
100
AcDbEntity
  8
0
100
AcDbLine
 62
7
  6
CONTINUOUS
 10
119.3629255577
 20
136.7966039708
 11
119.4539321617
 21
136.9596969276
  0
LINE
  5
2E4
100
AcDbEntity
  8
0
100
AcDbLine
 62
7
  6
CONTINUOUS
 10
119.8691395753
 20
136.7280093218
 11
119.7781329712
 21
136.564916365
  0
LINE
  5
2E5
100
AcDbEntity
  8
0
100
AcDbLine
 62
7
  6
CONTINUOUS
 10
119.8449798745
 20
136.4970619133
 11
119.9619883654
 21
136.7067528578
  0
LINE
  5
2E6
100
AcDbEntity
  8
0
100
AcDbLine
 62
7
  6
CONTINUOUS
 10
120.019603829
 20
136.4877895418
 11
119.9524828074
 21
136.3725009061
  0
LINE
  5
2E7
100
AcDbEntity
  8
0
100
AcDbLine
 62
7
  6
CONTINUOUS
 10
120.173740758
 20
136.2436845698
 11
120.2408617795
 21
136.3589732055
  0
LINE
  5
2E8
100
AcDbEntity
  8
0
100
AcDbLine
 62
7
  6
CONTINUOUS
 10
120.4452083753
 20
136.395021243
 11
120.3485321941
 21
136.2352237758
  0
LINE
  5
2E9
100
AcDbEntity
  8
0
100
AcDbLine
 62
7
  6
CONTINUOUS
 10
120.4958206758
 20
136.3020338433
 11
120.5234424419
 21
136.3476902625
  0
LINE
  5
2EA
100
AcDbEntity
  8
0
100
AcDbLine
 62
7
  6
CONTINUOUS
 10
120.3595478997
 20
136.0414572229
 11
120.4009805488
 21
136.1099418517
  0
LINE
  5
2EB
100
AcDbEntity
  8
0
100
AcDbLine
 62
7
  6
CONTINUOUS
 10
120.79215124
 20
135.8732867327
 11
120.7507185909
 21
135.8048021039
  0
LINE
  5
2EC
100
AcDbEntity
  8
0
100
AcDbLine
 62
7
  6
CONTINUOUS
 10
120.8151421326
 20
135.7346426972
 11
120.8841965671
 21
135.8487837772
  0
LINE
  5
2ED
100
AcDbEntity
  8
0
100
AcDbLine
 62
7
  6
CONTINUOUS
 10
122.0811671436
 20
135.6522317738
 11
122.0214985011
 21
135.5637470216
  0
LINE
  5
2EE
100
AcDbEntity
  8
0
100
AcDbLine
 62
7
  6
CONTINUOUS
 10
122.1273889842
 20
135.5245214068
 11
122.1572232845
 21
135.5687637519
  0
LINE
  5
2EF
100
AcDbEntity
  8
0
100
AcDbLine
 62
7
  6
CONTINUOUS
 10
122.1924492634
 20
134.9014019717
 11
122.1476978129
 21
134.835038454
  0
LINE
  5
2F0
100
AcDbEntity
  8
0
100
AcDbLine
 62
7
  6
CONTINUOUS
 10
122.2237539957
 20
134.7515704941
 11
122.2983397465
 21
134.8621763568
  0
LINE
  5
2F1
100
AcDbEntity
  8
0
100
AcDbLine
 62
7
  6
CONTINUOUS
 10
122.5967370287
 20
135.0124766552
 11
122.4886804941
 21
134.8601437963
  0
LINE
  5
2F2
100
AcDbEntity
  8
0
100
AcDbLine
 62
7
  6
CONTINUOUS
 10
122.6404435984
 20
134.9160501351
 11
122.671316894
 21
134.959573809
  0
LINE
  5
2F3
100
AcDbEntity
  8
0
100
AcDbLine
 62
7
  6
CONTINUOUS
 10
122.485556151
 20
134.6660895224
 11
122.5318660944
 21
134.7313750333
  0
LINE
  5
2F4
100
AcDbEntity
  8
0
100
AcDbLine
 62
7
  6
CONTINUOUS
 10
122.9047640553
 20
134.4668617713
 11
122.8584541119
 21
134.4015762604
  0
LINE
  5
2F5
100
AcDbEntity
  8
0
100
AcDbLine
 62
7
  6
CONTINUOUS
 10
122.9175973294
 20
134.3269115773
 11
122.99478059
 21
134.4357207926
  0
LINE
  5
2F6
100
AcDbEntity
  8
0
100
AcDbLine
 62
7
  6
CONTINUOUS
 10
119.7781329712
 20
136.564916365
 11
119.6841580155
 21
136.4340332978
  0
LINE
  5
2F7
100
AcDbEntity
  8
0
100
AcDbLine
 62
7
  6
CONTINUOUS
 10
122.9131756634
 20
134.0643406969
 11
122.8343514883
 21
133.9567142805
  0
LINE
  5
2F8
100
AcDbEntity
  8
0
100
AcDbLine
 62
7
  6
CONTINUOUS
 10
122.908119976
 20
133.902687208
 11
122.9869441511
 21
134.0103136244
  0
LINE
  5
2F9
100
AcDbEntity
  8
0
100
AcDbLine
 62
7
  6
CONTINUOUS
 10
123.6640647615
 20
134.6713941322
 11
123.5364392539
 21
134.5003055852
  0
LINE
  5
2FA
100
AcDbEntity
  8
0
100
AcDbLine
 62
7
  6
CONTINUOUS
 10
123.7360617645
 20
134.584400599
 11
123.1138875438
 21
133.7503441044
  0
LINE
  5
2FB
100
AcDbEntity
  8
0
100
AcDbLine
 62
7
  6
CONTINUOUS
 10
123.2018377297
 20
133.6847366321
 11
123.9516374133
 21
134.6898816138
  0
LINE
  5
2FC
100
AcDbEntity
  8
0
100
AcDbLine
 62
7
  6
CONTINUOUS
 10
120.5575311549
 20
136.5453526441
 11
120.4452083753
 21
136.395021243
  0
LINE
  5
2FD
100
AcDbEntity
  8
0
100
AcDbLine
 62
7
  6
CONTINUOUS
 10
122.7197092632
 20
135.1542291385
 11
122.5967370287
 21
135.0124766552
  0
LINE
  5
2FE
100
AcDbEntity
  8
RUNDUNGEN
100
AcDbLine
 62
7
  6
CONTINUOUS
 10
70.807387552
 20
90.4635401815
 11
71.4233034778
 21
90.8191394071
  0
LINE
  5
2FF
100
AcDbEntity
  8
0
100
AcDbLine
 62
7
  6
CONTINUOUS
 10
70.807387552
 20
90.4635401815
 11
71.6733828228
 21
90.9635227842
  0
LINE
  5
300
100
AcDbEntity
  8
0
100
AcDbLine
 62
7
  6
CONTINUOUS
 10
131.1993569572
 20
125.3308599745
 11
132.0653404454
 21
125.8308357745
  0
LINE
  5
301
100
AcDbEntity
  8
0
100
AcDbLine
 62
7
  6
CONTINUOUS
 10
137.1985164127
 20
109.5692713848
 11
137.5971125201
 21
109.6052073407
  0
LINE
  5
302
100
AcDbEntity
  8
0
100
AcDbLine
 62
7
  6
CONTINUOUS
 10
137.5872600786
 20
109.7144891096
 11
137.1886639712
 21
109.6785531537
  0
LINE
  5
303
100
AcDbEntity
  8
0
100
AcDbLine
 62
7
  6
CONTINUOUS
 10
137.2978969415
 20
105.3367044678
 11
137.458473625
 21
105.350001595
  0
LINE
  5
304
100
AcDbEntity
  8
0
100
AcDbLine
 62
7
  6
CONTINUOUS
 10
136.8649611285
 20
108.3825179165
 11
137.5039420714
 21
108.4242217906
  0
LINE
  5
305
100
AcDbEntity
  8
0
100
AcDbLine
 62
7
  6
CONTINUOUS
 10
137.4967959388
 20
108.5337138379
 11
136.8578149958
 21
108.4920099638
  0
LINE
  5
306
100
AcDbEntity
  8
0
100
AcDbLine
 62
7
  6
CONTINUOUS
 10
136.9187180156
 20
107.2866152598
 11
137.0786670596
 21
107.2932140824
  0
LINE
  5
307
100
AcDbEntity
  8
0
100
AcDbLine
 62
7
  6
CONTINUOUS
 10
137.0560523444
 20
107.8413727869
 11
138.149037482
 21
107.8864647418
  0
LINE
  5
308
100
AcDbEntity
  8
0
100
AcDbLine
 62
7
  6
CONTINUOUS
 10
138.144514539
 20
107.9960964827
 11
136.8915803573
 21
107.9444057051
  0
LINE
  5
309
100
AcDbEntity
  8
02___PRT_ALL_AXES
100
AcDbLine
 62
7
  6
CENTER
 10
102.5613639987
 20
106.1986308195
 11
53.0978655134
 21
106.1986308195
  0
LINE
  5
30A
100
AcDbEntity
  8
02___PRT_ALL_AXES
100
AcDbLine
 62
7
  6
CENTER
 10
102.5613639987
 20
106.1986308195
 11
152.0248624841
 21
106.1986308195
  0
LINE
  5
30B
100
AcDbEntity
  8
0
100
AcDbLine
 62
7
  6
CONTINUOUS
 10
137.2242824417
 20
105.6020355159
 11
137.3310026576
 21
105.601212212
  0
LINE
  5
30C
100
AcDbEntity
  8
0
100
AcDbLine
 62
7
  6
CONTINUOUS
 10
137.8380647947
 20
105.6155881946
 11
137.8914249773
 21
105.6151765421
  0
LINE
  5
30D
100
AcDbEntity
  8
0
100
AcDbLine
 62
7
  6
CONTINUOUS
 10
137.3317080394
 20
105.6926468516
 11
137.2249878236
 21
105.6934701556
  0
LINE
  5
30E
100
AcDbEntity
  8
0
100
AcDbLine
 62
7
  6
CONTINUOUS
 10
137.8921303624
 20
105.7066116003
 11
137.8387701797
 21
105.7070232528
  0
LINE
  5
30F
100
AcDbEntity
  8
0
100
AcDbLine
 62
7
  6
CONTINUOUS
 10
137.6273048191
 20
105.9646871029
 11
137.5205846032
 21
105.9655104069
  0
LINE
  5
310
100
AcDbEntity
  8
0
100
AcDbLine
 62
7
  6
CONTINUOUS
 10
137.4141640628
 20
104.7841937909
 11
137.6541753983
 21
104.7767213092
  0
LINE
  5
311
100
AcDbEntity
  8
0
100
AcDbLine
 62
7
  6
CONTINUOUS
 10
137.6303529053
 20
104.8689450801
 11
137.4436774222
 21
104.8747570102
  0
LINE
  5
312
100
AcDbEntity
  8
0
100
AcDbLine
 62
7
  6
CONTINUOUS
 10
137.458473625
 20
105.350001595
 11
137.6451491082
 21
105.3441896648
  0
LINE
  5
313
100
AcDbEntity
  8
0
100
AcDbLine
 62
7
  6
CONTINUOUS
 10
137.6746624545
 20
105.4347524658
 11
137.434651119
 21
105.4422249474
  0
LINE
  5
314
100
AcDbEntity
  8
0
100
AcDbLine
 62
7
  6
CONTINUOUS
 10
136.8517891581
 20
103.7773698667
 11
138.103700438
 21
103.705022461
  0
LINE
  5
315
100
AcDbEntity
  8
0
100
AcDbLine
 62
7
  6
CONTINUOUS
 10
137.8436667657
 20
103.8299577612
 11
136.8581195561
 21
103.8869121036
  0
LINE
  5
316
100
AcDbEntity
  8
0
100
AcDbLine
 62
7
  6
CONTINUOUS
 10
136.896101944
 20
104.5441655256
 11
137.8816491536
 21
104.4872111832
  0
LINE
  5
317
100
AcDbEntity
  8
0
100
AcDbLine
 62
7
  6
CONTINUOUS
 10
138.154343622
 20
104.581360357
 11
136.902432342
 21
104.6537077626
  0
LINE
  5
318
100
AcDbEntity
  8
0
100
AcDbLine
 62
7
  6
CONTINUOUS
 10
136.7644433346
 20
102.7569559142
 11
138.0136438358
 21
102.6473470284
  0
LINE
  5
319
100
AcDbEntity
  8
0
100
AcDbLine
 62
7
  6
CONTINUOUS
 10
137.7574473043
 20
102.779973109
 11
136.7740341121
 21
102.866260958
  0
LINE
  5
31A
100
AcDbEntity
  8
0
100
AcDbLine
 62
7
  6
CONTINUOUS
 10
136.8315787771
 20
103.5220912211
 11
137.8149919693
 21
103.4358033721
  0
LINE
  5
31B
100
AcDbEntity
  8
0
100
AcDbLine
 62
7
  6
CONTINUOUS
 10
138.0903700558
 20
103.5217873792
 11
136.8411695547
 21
103.631396265
  0
LINE
  5
31C
100
AcDbEntity
  8
0
100
AcDbLine
 62
7
  6
CONTINUOUS
 10
71.6733656963
 20
121.4337487428
 11
70.807387552
 21
121.9337214575
  0
LINE
  5
31D
100
AcDbEntity
  8
0
100
AcDbLine
 62
7
  6
CONTINUOUS
 10
131.1993445876
 20
87.0664088061
 11
132.0653404454
 21
86.5664258645
  0
LINE
  5
31E
100
AcDbEntity
  8
0
100
AcDbLine
 62
7
  6
CONTINUOUS
 10
81.7830898573
 20
135.5415860964
 11
82.8556897205
 21
133.9732973687
  0
LINE
  5
31F
100
AcDbEntity
  8
0
100
AcDbLine
 62
7
  6
CONTINUOUS
 10
83.0125185932
 20
134.080557355
 11
82.5332718391
 21
134.7812821156
  0
LINE
  5
320
100
AcDbEntity
  8
0
100
AcDbLine
 62
7
  6
CONTINUOUS
 10
82.3963442133
 20
134.9814891634
 11
82.0540250849
 21
135.4820068763
  0
LINE
  5
321
100
AcDbEntity
  8
0
100
AcDbLine
 62
7
  6
CONTINUOUS
 10
82.8444063224
 20
135.7287164211
 11
82.9128701992
 21
135.6286128037
  0
LINE
  5
322
100
AcDbEntity
  8
0
100
AcDbLine
 62
7
  6
CONTINUOUS
 10
83.0925203429
 20
135.7025049487
 11
83.0012351951
 21
135.8359764074
  0
LINE
  5
323
100
AcDbEntity
  8
0
100
AcDbLine
 62
7
  6
CONTINUOUS
 10
83.342393651
 20
135.8614638774
 11
84.037030176
 21
134.77016878
  0
LINE
  5
324
100
AcDbEntity
  8
0
100
AcDbLine
 62
7
  6
CONTINUOUS
 10
84.1706001022
 20
134.8551893666
 11
83.7364522512
 21
135.5372488383
  0
LINE
  5
325
100
AcDbEntity
  8
0
100
AcDbLine
 62
7
  6
CONTINUOUS
 10
83.6062079142
 20
135.7418666512
 11
83.4759635771
 21
135.9464844641
  0
LINE
  5
326
100
AcDbEntity
  8
0
100
AcDbLine
 62
7
  6
CONTINUOUS
 10
83.931782516
 20
135.997023262
 11
83.8232455685
 21
136.167538106
  0
LINE
  5
327
100
AcDbEntity
  8
0
100
AcDbLine
 62
7
  6
CONTINUOUS
 10
84.3602056966
 20
135.8374593197
 11
84.44280855
 21
135.6984472383
  0
LINE
  5
328
100
AcDbEntity
  8
0
100
AcDbLine
 62
7
  6
CONTINUOUS
 10
84.5789246188
 20
135.779329242
 11
84.4963217653
 21
135.9183413234
  0
LINE
  5
329
100
AcDbEntity
  8
0
100
AcDbLine
 62
7
  6
CONTINUOUS
 10
85.0952320629
 20
136.274221899
 11
85.1778349163
 21
136.1352098176
  0
LINE
  5
32A
100
AcDbEntity
  8
0
100
AcDbLine
 62
7
  6
CONTINUOUS
 10
85.3139506735
 20
136.2160916362
 11
85.2313478201
 21
136.3551037176
  0
LINE
  5
32B
100
AcDbEntity
  8
0
100
AcDbLine
 62
7
  6
CONTINUOUS
 10
84.8950419236
 20
137.5085307189
 11
85.825079405
 21
135.8517174273
  0
LINE
  5
32C
100
AcDbEntity
  8
0
100
AcDbLine
 62
7
  6
CONTINUOUS
 10
85.9631472846
 20
135.9292206099
 11
85.0331098032
 21
137.5860339014
  0
LINE
  5
32D
100
AcDbEntity
  8
0
100
AcDbLine
 62
7
  6
CONTINUOUS
 10
85.2748623963
 20
137.7198241618
 11
85.3716644089
 21
137.542384168
  0
LINE
  5
32E
100
AcDbEntity
  8
0
100
AcDbLine
 62
7
  6
CONTINUOUS
 10
85.5652684882
 20
137.187504081
 11
86.1848014227
 21
136.0518880214
  0
LINE
  5
32F
100
AcDbEntity
  8
0
100
AcDbLine
 62
7
  6
CONTINUOUS
 10
86.3237962071
 20
136.1277163315
 11
85.7042632726
 21
137.2633323911
  0
LINE
  5
330
100
AcDbEntity
  8
0
100
AcDbLine
 62
7
  6
CONTINUOUS
 10
85.5106591933
 20
137.6182124781
 11
85.4138571807
 21
137.7956524718
  0
LINE
  5
331
100
AcDbEntity
  8
0
100
AcDbLine
 62
7
  6
CONTINUOUS
 10
85.9521262023
 20
137.3996087764
 11
86.5456254116
 21
136.2501725753
  0
LINE
  5
332
100
AcDbEntity
  8
0
100
AcDbLine
 62
7
  6
CONTINUOUS
 10
86.6863114031
 20
136.322814297
 11
86.2597338318
 21
137.1489715949
  0
LINE
  5
333
100
AcDbEntity
  8
0
100
AcDbLine
 62
7
  6
CONTINUOUS
 10
86.1855464371
 20
137.2926511074
 11
86.0928121938
 21
137.4722504981
  0
LINE
  5
334
100
AcDbEntity
  8
0
100
AcDbLine
 62
7
  6
CONTINUOUS
 10
86.8403915686
 20
137.2668026797
 11
87.1927817452
 21
136.5843248944
  0
LINE
  5
335
100
AcDbEntity
  8
0
100
AcDbLine
 62
7
  6
CONTINUOUS
 10
87.3334680587
 20
136.6569667824
 11
86.9810778821
 21
137.3394445677
  0
LINE
  5
336
100
AcDbEntity
  8
0
100
AcDbLine
 62
7
  6
CONTINUOUS
 10
86.7458420767
 20
138.4859086658
 11
87.5605437298
 21
136.7694410091
  0
LINE
  5
337
100
AcDbEntity
  8
0
100
AcDbLine
 62
7
  6
CONTINUOUS
 10
87.7035824829
 20
136.83733271
 11
87.5129076264
 21
137.2390591861
  0
LINE
  5
338
100
AcDbEntity
  8
0
100
AcDbLine
 62
7
  6
CONTINUOUS
 10
87.4089031725
 20
137.4581826906
 11
86.8888808299
 21
138.5538003667
  0
LINE
  5
339
100
AcDbEntity
  8
RUNDUNGEN
100
AcDbLine
 62
7
  6
CONTINUOUS
 10
104.8113639987
 20
71.5425336776
 11
104.8113639987
 21
70.8313352265
  0
LINE
  5
33A
100
AcDbEntity
  8
0
100
AcDbLine
 62
7
  6
CONTINUOUS
 10
104.8113639987
 20
70.8313352265
 11
104.8113639987
 21
71.83128491
  0
LINE
  5
33B
100
AcDbEntity
  8
0
100
AcDbLine
 62
7
  6
CONTINUOUS
 10
104.8113639987
 20
140.5659611332
 11
104.8113639987
 21
141.5659264125
  0
LINE
  5
33C
100
AcDbEntity
  8
0
100
AcDbLine
 62
7
  6
CONTINUOUS
 10
106.5613639987
 20
124.2486308195
 11
106.5613639987
 21
120.8068476854
  0
LINE
  5
33D
100
AcDbEntity
  8
0
100
AcDbLine
 62
7
  6
CONTINUOUS
 10
119.2700769504
 20
136.8178603328
 11
119.2210418574
 21
136.6924541986
  0
LINE
  5
33E
100
AcDbEntity
  8
0
100
AcDbLine
 62
7
  6
CONTINUOUS
 10
119.9619883654
 20
136.7067528578
 11
120.0110234401
 21
136.8321589593
  0
LINE
  5
33F
100
AcDbEntity
  8
0
100
AcDbLine
 62
7
  6
CONTINUOUS
 10
119.3008893385
 20
136.6478989447
 11
119.3629255577
 21
136.7966039708
  0
LINE
  5
340
100
AcDbEntity
  8
0
100
AcDbLine
 62
7
  6
CONTINUOUS
 10
119.931175959
 20
136.8767142132
 11
119.8691395753
 21
136.7280093218
  0
LINE
  5
341
100
AcDbEntity
  8
0
100
AcDbLine
 62
7
  6
CONTINUOUS
 10
120.3485321941
 20
136.2352237758
 11
120.267502592
 21
136.0659602105
  0
LINE
  5
342
100
AcDbEntity
  8
0
100
AcDbLine
 62
7
  6
CONTINUOUS
 10
122.4886804941
 20
134.8601437963
 11
122.3955396379
 21
134.6972305315
  0
LINE
  5
343
100
AcDbEntity
  8
0
100
AcDbLine
 62
7
  6
CONTINUOUS
 10
73.057387552
 20
86.5664258645
 11
73.9233710402
 21
87.0664016645
  0
LINE
  5
344
100
AcDbEntity
  8
0
100
AcDbLine
 62
7
  6
CONTINUOUS
 10
133.4493451747
 20
121.4337388548
 11
134.3153404454
 21
121.9337214575
  0
LINE
  5
345
100
AcDbEntity
  8
0
100
AcDbLine
 62
7
  6
CONTINUOUS
 10
137.0119051082
 20
108.9648736932
 11
137.1464125556
 21
108.9586387349
  0
LINE
  5
346
100
AcDbEntity
  8
0
100
AcDbLine
 62
7
  6
CONTINUOUS
 10
137.7217675834
 20
109.7082541385
 11
137.5872600786
 21
109.7144891096
  0
LINE
  5
347
100
AcDbEntity
  8
0
100
AcDbLine
 62
7
  6
CONTINUOUS
 10
137.4436774222
 20
104.8747570102
 11
137.284238904
 21
104.8980170301
  0
LINE
  5
348
100
AcDbEntity
  8
0
100
AcDbLine
 62
7
  6
CONTINUOUS
 10
137.6451491082
 20
105.3441896648
 11
137.804587576
 21
105.3209292277
  0
LINE
  5
349
100
AcDbEntity
  8
0
100
AcDbLine
 62
7
  6
CONTINUOUS
 10
137.2813934839
 20
104.8066239534
 11
137.4141640628
 21
104.7841937909
  0
LINE
  5
34A
100
AcDbEntity
  8
0
100
AcDbLine
 62
7
  6
CONTINUOUS
 10
137.8074330091
 20
105.4123227228
 11
137.6746624545
 21
105.4347524658
  0
LINE
  5
34B
100
AcDbEntity
  8
0
100
AcDbLine
 62
7
  6
CONTINUOUS
 10
73.9234103875
 20
125.3308372573
 11
73.057387552
 21
125.8308357745
  0
LINE
  5
34C
100
AcDbEntity
  8
RUNDUNGEN
100
AcDbLine
 62
7
  6
CONTINUOUS
 10
133.6994245197
 20
90.8191394071
 11
134.3153404454
 21
90.4635401815
  0
LINE
  5
34D
100
AcDbEntity
  8
0
100
AcDbLine
 62
7
  6
CONTINUOUS
 10
133.4493616597
 20
90.9635132666
 11
134.3153404454
 21
90.4635401815
  0
LINE
  5
34E
100
AcDbEntity
  8
RUNDUNGEN
100
AcDbLine
 62
7
  6
CONTINUOUS
 10
111.5613639987
 20
63.3313352265
 11
111.5613639987
 21
69.7710580937
  0
LINE
  5
34F
100
AcDbEntity
  8
RUNDUNGEN
100
AcDbLine
 62
7
  6
CONTINUOUS
 10
111.5613639987
 20
142.6262695561
 11
111.5613639987
 21
149.0659264125
  0
LINE
  5
350
100
AcDbEntity
  8
0
100
AcDbLine
 62
7
  6
CONTINUOUS
 10
117.0105988254
 20
137.6816449015
 11
117.0278532051
 21
137.7619164974
  0
LINE
  5
351
100
AcDbEntity
  8
0
100
AcDbLine
 62
7
  6
CONTINUOUS
 10
117.2858435856
 20
138.1420765612
 11
117.3030979653
 21
138.2223481571
  0
LINE
  5
352
100
AcDbEntity
  8
0
100
AcDbLine
 62
7
  6
CONTINUOUS
 10
117.7512764455
 20
138.1016696058
 11
117.7685308252
 21
138.1819412017
  0
LINE
  5
353
100
AcDbEntity
  8
0
100
AcDbLine
 62
7
  6
CONTINUOUS
 10
119.1061381195
 20
136.8461281642
 11
119.1360507014
 21
136.9811825023
  0
LINE
  5
354
100
AcDbEntity
  8
0
100
AcDbLine
 62
7
  6
CONTINUOUS
 10
119.0339997995
 20
136.9445309741
 11
119.012817399
 21
136.8652053742
  0
LINE
  5
355
100
AcDbEntity
  8
0
100
AcDbLine
 62
7
  6
CONTINUOUS
 10
116.9284092512
 20
137.808289595
 11
116.8998786869
 21
137.7038371119
  0
LINE
  5
356
100
AcDbEntity
  8
0
100
AcDbLine
 62
7
  6
CONTINUOUS
 10
117.1923778743
 20
138.2445403454
 11
117.1638473099
 21
138.1400878624
  0
LINE
  5
357
100
AcDbEntity
  8
0
100
AcDbLine
 62
7
  6
CONTINUOUS
 10
120.267502592
 20
136.0659602105
 11
120.2297420803
 21
135.9328865809
  0
LINE
  5
358
100
AcDbEntity
  8
0
100
AcDbLine
 62
7
  6
CONTINUOUS
 10
120.8841965671
 20
135.8487837772
 11
120.9219570691
 21
135.9818573907
  0
LINE
  5
359
100
AcDbEntity
  8
0
100
AcDbLine
 62
7
  6
CONTINUOUS
 10
119.2210418574
 20
136.6924541986
 11
119.1980084868
 21
136.6136461868
  0
LINE
  5
35A
100
AcDbEntity
  8
0
100
AcDbLine
 62
7
  6
CONTINUOUS
 10
120.0110234401
 20
136.8321589593
 11
120.0340566644
 21
136.9109671385
  0
LINE
  5
35B
100
AcDbEntity
  8
RUNDUNGEN
100
AcDbLine
 62
7
  6
CONTINUOUS
 10
97.774060569
 20
63.0223182321
 11
100.3113639987
 21
70.8313352265
  0
LINE
  5
35C
100
AcDbEntity
  8
0
100
AcDbLine
 62
7
  6
CONTINUOUS
 10
120.3337618491
 20
135.963506528
 11
120.3595478997
 21
136.0414572229
  0
LINE
  5
35D
100
AcDbEntity
  8
0
100
AcDbLine
 62
7
  6
CONTINUOUS
 10
120.81793731
 20
135.9512374596
 11
120.79215124
 21
135.8732867327
  0
LINE
  5
35E
100
AcDbEntity
  8
0
100
AcDbLine
 62
7
  6
CONTINUOUS
 10
121.1014985872
 20
136.2786241795
 11
121.1272846378
 21
136.3565748744
  0
LINE
  5
35F
100
AcDbEntity
  8
0
100
AcDbLine
 62
7
  6
CONTINUOUS
 10
122.3955396379
 20
134.6972305315
 11
122.3481884708
 21
134.5672600961
  0
LINE
  5
360
100
AcDbEntity
  8
0
100
AcDbLine
 62
7
  6
CONTINUOUS
 10
122.99478059
 20
134.4357207926
 11
123.0421317463
 21
134.5656912129
  0
LINE
  5
361
100
AcDbEntity
  8
0
100
AcDbLine
 62
7
  6
CONTINUOUS
 10
121.7539701809
 20
135.0361832584
 11
121.7835592935
 21
135.1127713186
  0
LINE
  5
362
100
AcDbEntity
  8
0
100
AcDbLine
 62
7
  6
CONTINUOUS
 10
122.0977998715
 20
135.4479333466
 11
122.1273889842
 21
135.5245214068
  0
LINE
  5
363
100
AcDbEntity
  8
0
100
AcDbLine
 62
7
  6
CONTINUOUS
 10
122.551196146
 20
135.3352732943
 11
122.5807852587
 21
135.4118613545
  0
LINE
  5
364
100
AcDbEntity
  8
0
100
AcDbLine
 62
7
  6
CONTINUOUS
 10
122.4541619075
 20
134.5902236359
 11
122.485556151
 21
134.6660895224
  0
LINE
  5
365
100
AcDbEntity
  8
0
100
AcDbLine
 62
7
  6
CONTINUOUS
 10
122.9361583203
 20
134.5427276882
 11
122.9047640553
 21
134.4668617713
  0
LINE
  5
366
100
AcDbEntity
  8
0
100
AcDbLine
 62
7
  6
CONTINUOUS
 10
123.2428082108
 20
134.8485951545
 11
123.2742024543
 21
134.9244610409
  0
LINE
  5
367
100
AcDbEntity
  8
0
100
AcDbLine
 62
7
  6
CONTINUOUS
 10
121.6925859606
 20
135.174118106
 11
121.6480796978
 21
135.0754088732
  0
LINE
  5
368
100
AcDbEntity
  8
0
100
AcDbLine
 62
7
  6
CONTINUOUS
 10
122.0214985011
 20
135.5637470216
 11
121.9769922383
 21
135.4650377889
  0
LINE
  5
369
100
AcDbEntity
  8
RUNDUNGEN
100
AcDbLine
 62
7
  6
CONTINUOUS
 10
132.0653404454
 20
125.8308357745
 11
137.5594958263
 21
131.9327134989
  0
LINE
  5
36A
100
AcDbEntity
  8
RUNDUNGEN
100
AcDbLine
 62
7
  6
CONTINUOUS
 10
69.9371970236
 20
76.970754389
 11
75.5141600842
 21
80.1906155133
  0
LINE
  5
36B
100
AcDbEntity
  8
RUNDUNGEN
100
AcDbLine
 62
7
  6
CONTINUOUS
 10
138.6086233816
 20
116.6182208823
 11
144.1855309738
 21
119.838049982
  0
LINE
  5
36C
100
AcDbEntity
  8
0
100
AcDbLine
 62
7
  6
CONTINUOUS
 10
137.8258180087
 20
109.1484231092
 11
137.7477407922
 21
109.1230223012
  0
LINE
  5
36D
100
AcDbEntity
  8
RUNDUNGEN
100
AcDbLine
 62
7
  6
CONTINUOUS
 10
142.346799256
 20
123.6408607275
 11
134.3153404454
 21
121.9337214575
  0
LINE
  5
36E
100
AcDbEntity
  8
0
100
AcDbLine
 62
7
  6
CONTINUOUS
 10
137.5971125201
 20
109.6052073407
 11
137.7050468786
 21
109.5965766376
  0
LINE
  5
36F
100
AcDbEntity
  8
0
100
AcDbLine
 62
7
  6
CONTINUOUS
 10
137.1365601141
 20
109.0679205039
 11
137.055198828
 21
109.0789469241
  0
LINE
  5
370
100
AcDbEntity
  8
0
100
AcDbLine
 62
7
  6
CONTINUOUS
 10
137.7314856565
 20
105.6346985939
 11
137.8380647947
 21
105.6155881946
  0
LINE
  5
371
100
AcDbEntity
  8
0
100
AcDbLine
 62
7
  6
CONTINUOUS
 10
138.002800722
 20
106.2178229899
 11
137.8962215822
 21
106.2369331799
  0
LINE
  5
372
100
AcDbEntity
  8
RUNDUNGEN
100
AcDbLine
 62
7
  6
CONTINUOUS
 10
70.807387552
 20
121.9337214575
 11
62.7759287415
 21
123.6408607275
  0
LINE
  5
373
100
AcDbEntity
  8
0
100
AcDbLine
 62
7
  6
CONTINUOUS
 10
137.1443833356
 20
105.6209396709
 11
137.2242824417
 21
105.6020355159
  0
LINE
  5
374
100
AcDbEntity
  8
0
100
AcDbLine
 62
7
  6
CONTINUOUS
 10
137.2019587946
 20
104.8273935633
 11
137.2813934839
 21
104.8066239534
  0
LINE
  5
375
100
AcDbEntity
  8
0
100
AcDbLine
 62
7
  6
CONTINUOUS
 10
137.8868677731
 20
105.3915531106
 11
137.8074330091
 21
105.4123227228
  0
LINE
  5
376
100
AcDbEntity
  8
0
100
AcDbLine
 62
7
  6
CONTINUOUS
 10
138.113196035
 20
103.8693358165
 11
137.0102928039
 21
104.207842282
  0
LINE
  5
377
100
AcDbEntity
  8
0
100
AcDbLine
 62
7
  6
CONTINUOUS
 10
136.8728904767
 20
104.1425105174
 11
137.8436667657
 21
103.8299577612
  0
LINE
  5
378
100
AcDbEntity
  8
0
100
AcDbLine
 62
7
  6
CONTINUOUS
 10
138.028030002
 20
102.8113045942
 11
136.9357001177
 21
103.1825155696
  0
LINE
  5
379
100
AcDbEntity
  8
0
100
AcDbLine
 62
7
  6
CONTINUOUS
 10
136.7964125808
 20
103.1213059214
 11
137.7574473043
 21
102.779973109
  0
LINE
  5
37A
100
AcDbEntity
  8
RUNDUNGEN
100
AcDbLine
 62
7
  6
CONTINUOUS
 10
144.1855309738
 20
92.5592116571
 11
138.6085668403
 21
95.7790734008
  0
LINE
  5
37B
100
AcDbEntity
  8
RUNDUNGEN
100
AcDbLine
 62
7
  6
CONTINUOUS
 10
75.514131396
 20
132.2066626889
 11
69.9371970236
 21
135.4265072501
  0
LINE
  5
37C
100
AcDbEntity
  8
0
100
AcDbLine
 62
7
  6
CONTINUOUS
 10
82.7498043889
 20
135.8109432976
 11
82.8444063224
 21
135.7287164211
  0
LINE
  5
37D
100
AcDbEntity
  8
0
100
AcDbLine
 62
7
  6
CONTINUOUS
 10
83.0012351951
 20
135.8359764074
 11
82.9066332617
 21
135.9182032839
  0
LINE
  5
37E
100
AcDbEntity
  8
0
100
AcDbLine
 62
7
  6
CONTINUOUS
 10
85.1215219064
 20
136.4779394236
 11
85.0323466989
 21
136.5660221214
  0
LINE
  5
37F
100
AcDbEntity
  8
0
100
AcDbLine
 62
7
  6
CONTINUOUS
 10
84.44280855
 20
135.6984472383
 11
84.6418099972
 21
135.4875289952
  0
LINE
  5
380
100
AcDbEntity
  8
RUNDUNGEN
100
AcDbLine
 62
7
  6
CONTINUOUS
 10
137.5594958263
 20
80.4645481401
 11
132.0653404454
 21
86.5664258645
  0
LINE
  5
381
100
AcDbEntity
  8
0
100
AcDbLine
 62
7
  6
CONTINUOUS
 10
86.8602065048
 20
137.5045156473
 11
86.7764285029
 21
137.5977468044
  0
LINE
  5
382
100
AcDbEntity
  8
0
100
AcDbLine
 62
7
  6
CONTINUOUS
 10
84.6887505324
 20
135.656493536
 11
84.5789246188
 21
135.779329242
  0
LINE
  5
383
100
AcDbEntity
  8
0
100
AcDbLine
 62
7
  6
CONTINUOUS
 10
84.9854058377
 20
136.3970574199
 11
85.0952320629
 21
136.274221899
  0
LINE
  5
384
100
AcDbEntity
  8
0
100
AcDbLine
 62
7
  6
CONTINUOUS
 10
85.2313478201
 20
136.3551037176
 11
85.1215219064
 21
136.4779394236
  0
LINE
  5
385
100
AcDbEntity
  8
0
100
AcDbLine
 62
7
  6
CONTINUOUS
 10
86.7195201914
 20
137.4318737593
 11
86.8403915686
 21
137.2668026797
  0
LINE
  5
386
100
AcDbEntity
  8
0
100
AcDbLine
 62
7
  6
CONTINUOUS
 10
86.9810778821
 20
137.3394445677
 11
86.8602065048
 21
137.5045156473
  0
LINE
  5
387
100
AcDbEntity
  8
RUNDUNGEN
100
AcDbLine
 62
7
  6
CONTINUOUS
 10
100.3113639987
 20
141.5659264125
 11
97.774060569
 21
149.3749434069
  0
LINE
  5
388
100
AcDbEntity
  8
0
100
AcDbLine
 62
7
  6
CONTINUOUS
 10
117.465435975
 20
137.7050574226
 11
117.4647555165
 21
137.6170569691
  0
LINE
  5
389
100
AcDbEntity
  8
0
100
AcDbLine
 62
7
  6
CONTINUOUS
 10
116.8998786869
 20
137.7038371119
 11
116.8932199898
 21
137.5597459802
  0
LINE
  5
38A
100
AcDbEntity
  8
0
100
AcDbLine
 62
7
  6
CONTINUOUS
 10
119.0390083308
 20
137.0323914267
 11
119.0339997995
 21
136.9445309741
  0
LINE
  5
38B
100
AcDbEntity
  8
0
100
AcDbLine
 62
7
  6
CONTINUOUS
 10
119.286761873
 20
136.4724606399
 11
119.3008893385
 21
136.6478989447
  0
LINE
  5
38C
100
AcDbEntity
  8
0
100
AcDbLine
 62
7
  6
CONTINUOUS
 10
119.9453034518
 20
137.052152567
 11
119.931175959
 21
136.8767142132
  0
LINE
  5
38D
100
AcDbEntity
  8
0
100
AcDbLine
 62
7
  6
CONTINUOUS
 10
117.575475655
 20
137.5948647586
 11
117.5874322507
 21
137.7070461215
  0
LINE
  5
38E
100
AcDbEntity
  8
0
100
AcDbLine
 62
7
  6
CONTINUOUS
 10
117.6578106867
 20
138.2041334121
 11
117.6518324442
 21
138.1480427255
  0
LINE
  5
38F
100
AcDbEntity
  8
0
100
AcDbLine
 62
7
  6
CONTINUOUS
 10
120.3236231035
 20
135.8760893177
 11
120.3337618491
 21
135.963506528
  0
LINE
  5
390
100
AcDbEntity
  8
0
100
AcDbLine
 62
7
  6
CONTINUOUS
 10
121.0334036147
 20
136.4133721376
 11
121.0232645206
 21
136.32595516
  0
LINE
  5
391
100
AcDbEntity
  8
0
100
AcDbLine
 62
7
  6
CONTINUOUS
 10
118.461623813
 20
137.0353970796
 11
118.4441630713
 21
136.9239397819
  0
LINE
  5
392
100
AcDbEntity
  8
0
100
AcDbLine
 62
7
  6
CONTINUOUS
 10
118.5412054419
 20
136.8727308575
 11
118.5586661835
 21
136.9841881552
  0
LINE
  5
393
100
AcDbEntity
  8
0
100
AcDbLine
 62
7
  6
CONTINUOUS
 10
122.2068760591
 20
134.9882146054
 11
122.1924492634
 21
134.9014019717
  0
LINE
  5
394
100
AcDbEntity
  8
0
100
AcDbLine
 62
7
  6
CONTINUOUS
 10
119.1980084868
 20
136.6136461868
 11
119.177943806
 21
136.5026280324
  0
LINE
  5
395
100
AcDbEntity
  8
0
100
AcDbLine
 62
7
  6
CONTINUOUS
 10
120.0340566644
 20
136.9109671385
 11
120.0541215188
 21
137.0219851746
  0
LINE
  5
396
100
AcDbEntity
  8
0
100
AcDbLine
 62
7
  6
CONTINUOUS
 10
122.437684036
 20
134.5037768744
 11
122.4541619075
 21
134.5902236359
  0
LINE
  5
397
100
AcDbEntity
  8
0
100
AcDbLine
 62
7
  6
CONTINUOUS
 10
123.184706889
 20
134.9879442626
 11
123.1682290283
 21
134.9014975163
  0
LINE
  5
398
100
AcDbEntity
  8
0
100
AcDbLine
 62
7
  6
CONTINUOUS
 10
121.6480796978
 20
135.0754088732
 11
121.6189805977
 21
134.9341295936
  0
LINE
  5
399
100
AcDbEntity
  8
0
100
AcDbLine
 62
7
  6
CONTINUOUS
 10
122.2983397465
 20
134.8621763568
 11
122.3276836924
 21
134.9711101631
  0
LINE
  5
39A
100
AcDbEntity
  8
0
100
AcDbLine
 62
7
  6
CONTINUOUS
 10
122.4748947756
 20
135.4510869694
 11
122.4602228131
 21
135.3966200817
  0
LINE
  5
39B
100
AcDbEntity
  8
0
100
AcDbLine
 62
7
  6
CONTINUOUS
 10
137.017431134
 20
109.4978603891
 11
137.0938662005
 21
109.5414748403
  0
LINE
  5
39C
100
AcDbEntity
  8
0
100
AcDbLine
 62
7
  6
CONTINUOUS
 10
137.6068658165
 20
108.4859184591
 11
138.0972424555
 21
108.756166831
  0
LINE
  5
39D
100
AcDbEntity
  8
0
100
AcDbLine
 62
7
  6
CONTINUOUS
 10
137.1491799405
 20
106.2426963087
 11
137.0688576249
 21
106.2067398053
  0
LINE
  5
39E
100
AcDbEntity
  8
0
100
AcDbLine
 62
7
  6
CONTINUOUS
 10
137.4378639852
 20
105.6186755845
 11
137.5181863024
 21
105.6546322972
  0
LINE
  5
39F
100
AcDbEntity
  8
0
100
AcDbLine
 62
7
  6
CONTINUOUS
 10
137.9724526764
 20
105.7425678944
 11
137.8921303624
 21
105.7066116003
  0
LINE
  5
3A0
100
AcDbEntity
  8
0
100
AcDbLine
 62
7
  6
CONTINUOUS
 10
137.0574406881
 20
109.6483608741
 11
136.9544325312
 21
109.602350696
  0
LINE
  5
3A1
100
AcDbEntity
  8
0
100
AcDbLine
 62
7
  6
CONTINUOUS
 10
137.1356130349
 20
105.2685718288
 11
137.2978969415
 21
105.3367044678
  0
LINE
  5
3A2
100
AcDbEntity
  8
0
100
AcDbLine
 62
7
  6
CONTINUOUS
 10
137.9532135141
 20
104.9503748457
 11
137.7909295385
 21
104.88224179
  0
LINE
  5
3A3
100
AcDbEntity
  8
0
100
AcDbLine
 62
7
  6
CONTINUOUS
 10
137.1751546297
 20
106.1510556336
 11
137.2286558152
 21
106.168931077
  0
LINE
  5
3A4
100
AcDbEntity
  8
0
100
AcDbLine
 62
7
  6
CONTINUOUS
 10
137.4387104447
 20
105.7283973195
 11
137.3317080394
 21
105.6926468516
  0
LINE
  5
3A5
100
AcDbEntity
  8
0
100
AcDbLine
 62
7
  6
CONTINUOUS
 10
137.2201695069
 20
105.4123100074
 11
137.1123596181
 21
105.3790739639
  0
LINE
  5
3A6
100
AcDbEntity
  8
0
100
AcDbLine
 62
7
  6
CONTINUOUS
 10
137.8686570608
 20
104.8066366664
 11
137.9764669309
 21
104.8398727105
  0
LINE
  5
3A7
100
AcDbEntity
  8
0
100
AcDbLine
 62
7
  6
CONTINUOUS
 10
137.8313440159
 20
109.6814098034
 11
137.7217675834
 21
109.7082541385
  0
LINE
  5
3A8
100
AcDbEntity
  8
0
100
AcDbLine
 62
7
  6
CONTINUOUS
 10
137.2249878236
 20
105.6934701556
 11
137.1717687933
 21
105.7121689029
  0
LINE
  5
3A9
100
AcDbEntity
  8
0
100
AcDbLine
 62
7
  6
CONTINUOUS
 10
137.8387701797
 20
105.7070232528
 11
137.732332116
 21
105.7444203289
  0
LINE
  5
3AA
100
AcDbEntity
  8
0
100
AcDbLine
 62
7
  6
CONTINUOUS
 10
137.7050468786
 20
109.5965766376
 11
137.7880503147
 21
109.5673365742
  0
LINE
  5
3AB
100
AcDbEntity
  8
0
100
AcDbLine
 62
7
  6
CONTINUOUS
 10
137.0964252367
 20
104.8672718138
 11
137.2019587946
 21
104.8273935633
  0
LINE
  5
3AC
100
AcDbEntity
  8
0
100
AcDbLine
 62
7
  6
CONTINUOUS
 10
137.9924013123
 20
105.3516748607
 11
137.8868677731
 21
105.3915531106
  0
LINE
  5
3AD
100
AcDbEntity
  8
0
100
AcDbLine
 62
7
  6
CONTINUOUS
 10
138.1282090347
 20
108.2817012233
 11
137.6068658165
 21
108.4859184591
  0
LINE
  5
3AE
100
AcDbEntity
  8
0
100
AcDbLine
 62
7
  6
CONTINUOUS
 10
137.064625329
 20
105.6581313395
 11
137.1443833356
 21
105.6209396709
  0
LINE
  5
3AF
100
AcDbEntity
  8
0
100
AcDbLine
 62
7
  6
CONTINUOUS
 10
137.6517276467
 20
105.6718898441
 11
137.7314856565
 21
105.6346985939
  0
LINE
  5
3B0
100
AcDbEntity
  8
0
100
AcDbLine
 62
7
  6
CONTINUOUS
 10
137.8955161987
 20
106.145498331
 11
137.9752742069
 21
106.1083068716
  0
LINE
  5
3B1
100
AcDbEntity
  8
0
100
AcDbLine
 62
7
  6
CONTINUOUS
 10
137.284238904
 20
104.8980170301
 11
137.1265076723
 21
104.9761133975
  0
LINE
  5
3B2
100
AcDbEntity
  8
0
100
AcDbLine
 62
7
  6
CONTINUOUS
 10
137.804587576
 20
105.3209292277
 11
137.9623188768
 21
105.242833277
  0
LINE
  5
3B3
100
AcDbEntity
  8
0
100
AcDbLine
 62
7
  6
CONTINUOUS
 10
119.177943806
 20
136.5026280324
 11
119.186849533
 21
136.4059978496
  0
LINE
  5
3B4
100
AcDbEntity
  8
0
100
AcDbLine
 62
7
  6
CONTINUOUS
 10
117.7685308252
 20
138.1819412017
 11
117.7639133733
 21
138.3018513987
  0
LINE
  5
3B5
100
AcDbEntity
  8
0
100
AcDbLine
 62
7
  6
CONTINUOUS
 10
121.7547053864
 20
134.9391463316
 11
121.7539701809
 21
135.0361832584
  0
LINE
  5
3B6
100
AcDbEntity
  8
0
100
AcDbLine
 62
7
  6
CONTINUOUS
 10
121.9769922383
 20
135.4650377889
 11
121.9779722949
 21
135.3356553965
  0
LINE
  5
3B7
100
AcDbEntity
  8
0
100
AcDbLine
 62
7
  6
CONTINUOUS
 10
118.4441630713
 20
136.9239397819
 11
118.4428761858
 21
136.8039476066
  0
LINE
  5
3B8
100
AcDbEntity
  8
0
100
AcDbLine
 62
7
  6
CONTINUOUS
 10
119.1360507014
 20
136.9811825023
 11
119.1373375825
 21
137.1011746693
  0
LINE
  5
3B9
100
AcDbEntity
  8
0
100
AcDbLine
 62
7
  6
CONTINUOUS
 10
120.2297420803
 20
135.9328865809
 11
120.2214390549
 21
135.8131751029
  0
LINE
  5
3BA
100
AcDbEntity
  8
0
100
AcDbLine
 62
7
  6
CONTINUOUS
 10
121.1272846378
 20
136.3565748744
 11
121.1355876584
 21
136.4762863444
  0
LINE
  5
3BB
100
AcDbEntity
  8
0
100
AcDbLine
 62
7
  6
CONTINUOUS
 10
122.5807852587
 20
135.4118613545
 11
122.5949671929
 21
135.5310194384
  0
LINE
  5
3BC
100
AcDbEntity
  8
0
100
AcDbLine
 62
7
  6
CONTINUOUS
 10
122.3481884708
 20
134.5672600961
 11
122.3311896568
 21
134.4484711297
  0
LINE
  5
3BD
100
AcDbEntity
  8
0
100
AcDbLine
 62
7
  6
CONTINUOUS
 10
123.2742024543
 20
134.9244610409
 11
123.2912012628
 21
135.0432499997
  0
LINE
  5
3BE
100
AcDbEntity
  8
0
100
AcDbLine
 62
7
  6
CONTINUOUS
 10
136.9544325312
 20
109.602350696
 11
136.8547085305
 21
109.5199132662
  0
LINE
  5
3BF
100
AcDbEntity
  8
0
100
AcDbLine
 62
7
  6
CONTINUOUS
 10
137.1215123493
 20
106.1148933043
 11
137.1751546297
 21
106.1510556336
  0
LINE
  5
3C0
100
AcDbEntity
  8
0
100
AcDbLine
 62
7
  6
CONTINUOUS
 10
137.1123596181
 20
105.3790739639
 11
137.0306485756
 21
105.3267288617
  0
LINE
  5
3C1
100
AcDbEntity
  8
0
100
AcDbLine
 62
7
  6
CONTINUOUS
 10
138.0900963263
 20
108.8656588261
 11
137.4967959388
 21
108.5337138379
  0
LINE
  5
3C2
100
AcDbEntity
  8
0
100
AcDbLine
 62
7
  6
CONTINUOUS
 10
98.5613639987
 20
124.2486308195
 11
106.5613639987
 21
124.2486308195
  0
LINE
  5
3C3
100
AcDbEntity
  8
0
100
AcDbLine
 62
7
  6
CONTINUOUS
 10
137.5039420714
 20
108.4242217906
 11
138.1353551674
 21
108.172209176
  0
LINE
  5
3C4
100
AcDbEntity
  8
0
100
AcDbLine
 62
7
  6
CONTINUOUS
 10
82.9066332617
 20
135.9182032839
 11
82.7369337415
 21
135.998044656
  0
LINE
  5
3C5
100
AcDbEntity
  8
0
100
AcDbLine
 62
7
  6
CONTINUOUS
 10
136.8990445161
 20
109.028145319
 11
137.0119051082
 21
108.9648736932
  0
LINE
  5
3C6
100
AcDbEntity
  8
0
100
AcDbLine
 62
7
  6
CONTINUOUS
 10
84.6418099972
 20
135.4875289952
 11
84.7582084569
 21
135.4156227045
  0
LINE
  5
3C7
100
AcDbEntity
  8
0
100
AcDbLine
 62
7
  6
CONTINUOUS
 10
84.8051491551
 20
135.5845873256
 11
84.6887505324
 21
135.656493536
  0
LINE
  5
3C8
100
AcDbEntity
  8
0
100
AcDbLine
 62
7
  6
CONTINUOUS
 10
84.8690073852
 20
136.4689636985
 11
84.9854058377
 21
136.3970574199
  0
LINE
  5
3C9
100
AcDbEntity
  8
0
100
AcDbLine
 62
7
  6
CONTINUOUS
 10
85.0323466989
 20
136.5660221214
 11
84.9159480907
 21
136.6379283074
  0
LINE
  5
3CA
100
AcDbEntity
  8
0
100
AcDbLine
 62
7
  6
CONTINUOUS
 10
88.3615618605
 20
137.1496350621
 11
87.6030974602
 21
137.6398508488
  0
LINE
  5
3CB
100
AcDbEntity
  8
0
100
AcDbLine
 62
7
  6
CONTINUOUS
 10
87.5692763286
 20
137.4895539627
 11
88.1899150948
 21
137.0681648968
  0
LINE
  5
3CC
100
AcDbEntity
  8
0
100
AcDbLine
 62
7
  6
CONTINUOUS
 10
137.1717687933
 20
105.7121689029
 11
137.1186908188
 21
105.7491543272
  0
LINE
  5
3CD
100
AcDbEntity
  8
0
100
AcDbLine
 62
7
  6
CONTINUOUS
 10
137.732332116
 20
105.7444203289
 11
137.6792541601
 21
105.7814057531
  0
LINE
  5
3CE
100
AcDbEntity
  8
0
100
AcDbLine
 62
7
  6
CONTINUOUS
 10
137.0181287036
 20
104.924598571
 11
137.0964252367
 21
104.8672718138
  0
LINE
  5
3CF
100
AcDbEntity
  8
0
100
AcDbLine
 62
7
  6
CONTINUOUS
 10
117.0264924066
 20
137.5859155968
 11
117.0105988254
 21
137.6816449015
  0
LINE
  5
3D0
100
AcDbEntity
  8
0
100
AcDbLine
 62
7
  6
CONTINUOUS
 10
117.1638473099
 20
138.1400878624
 11
117.1850387936
 21
138.0124487973
  0
LINE
  5
3D1
100
AcDbEntity
  8
0
100
AcDbLine
 62
7
  6
CONTINUOUS
 10
120.0541215188
 20
137.0219851746
 11
120.0452157873
 21
137.1186153492
  0
LINE
  5
3D2
100
AcDbEntity
  8
0
100
AcDbLine
 62
7
  6
CONTINUOUS
 10
120.8142651629
 20
136.0158264443
 11
120.81793731
 21
135.9512374596
  0
LINE
  5
3D3
100
AcDbEntity
  8
0
100
AcDbLine
 62
7
  6
CONTINUOUS
 10
120.9219570691
 20
135.9818573907
 11
120.9164492066
 21
136.0787406511
  0
LINE
  5
3D4
100
AcDbEntity
  8
0
100
AcDbLine
 62
7
  6
CONTINUOUS
 10
122.3276836924
 20
134.9711101631
 11
122.3267036358
 21
135.1004925555
  0
LINE
  5
3D5
100
AcDbEntity
  8
0
100
AcDbLine
 62
7
  6
CONTINUOUS
 10
122.4744047473
 20
135.5157781656
 11
122.4748947756
 21
135.4510869694
  0
LINE
  5
3D6
100
AcDbEntity
  8
0
100
AcDbLine
 62
7
  6
CONTINUOUS
 10
122.9371995332
 20
134.6074125975
 11
122.9361583203
 21
134.5427276882
  0
LINE
  5
3D7
100
AcDbEntity
  8
0
100
AcDbLine
 62
7
  6
CONTINUOUS
 10
123.0421317463
 20
134.5656912129
 11
123.043693907
 21
134.6627183346
  0
LINE
  5
3D8
100
AcDbEntity
  8
0
100
AcDbLine
 62
7
  6
CONTINUOUS
 10
137.8888165929
 20
109.0439328006
 11
137.9885405808
 21
109.1263702687
  0
LINE
  5
3D9
100
AcDbEntity
  8
0
100
AcDbLine
 62
7
  6
CONTINUOUS
 10
137.9982862708
 20
105.6326403334
 11
138.1055707941
 21
105.7049649923
  0
LINE
  5
3DA
100
AcDbEntity
  8
0
100
AcDbLine
 62
7
  6
CONTINUOUS
 10
137.9764669309
 20
104.8398727105
 11
138.0581779641
 21
104.892217813
  0
LINE
  5
3DB
100
AcDbEntity
  8
0
100
AcDbLine
 62
7
  6
CONTINUOUS
 10
82.6518855312
 20
135.8419256344
 11
82.7498043889
 21
135.8109432976
  0
LINE
  5
3DC
100
AcDbEntity
  8
0
100
AcDbLine
 62
7
  6
CONTINUOUS
 10
84.7582084569
 20
135.4156227045
 11
84.8539562068
 21
135.378469428
  0
LINE
  5
3DD
100
AcDbEntity
  8
0
100
AcDbLine
 62
7
  6
CONTINUOUS
 10
84.9008969014
 20
135.5474340552
 11
84.8051491551
 21
135.5845873256
  0
LINE
  5
3DE
100
AcDbEntity
  8
0
100
AcDbLine
 62
7
  6
CONTINUOUS
 10
84.7732596389
 20
136.5061169689
 11
84.8690073852
 21
136.4689636985
  0
LINE
  5
3DF
100
AcDbEntity
  8
0
100
AcDbLine
 62
7
  6
CONTINUOUS
 10
84.9159480907
 20
136.6379283074
 11
84.8202001886
 21
136.6750814853
  0
LINE
  5
3E0
100
AcDbEntity
  8
0
100
AcDbLine
 62
7
  6
CONTINUOUS
 10
86.6261519042
 20
137.4746567271
 11
86.7195201914
 21
137.4318737593
  0
LINE
  5
3E1
100
AcDbEntity
  8
0
100
AcDbLine
 62
7
  6
CONTINUOUS
 10
86.7764285029
 20
137.5977468044
 11
86.6830605378
 21
137.6405299384
  0
LINE
  5
3E2
100
AcDbEntity
  8
0
100
AcDbLine
 62
7
  6
CONTINUOUS
 10
137.9442045952
 20
109.6181382159
 11
137.8313440159
 21
109.6814098034
  0
LINE
  5
3E3
100
AcDbEntity
  8
0
100
AcDbLine
 62
7
  6
CONTINUOUS
 10
138.1089566304
 20
106.143851723
 11
138.002800722
 21
106.2178229899
  0
LINE
  5
3E4
100
AcDbEntity
  8
0
100
AcDbLine
 62
7
  6
CONTINUOUS
 10
138.0706978361
 20
105.2943481037
 11
137.9924013123
 21
105.3516748607
  0
LINE
  5
3E5
100
AcDbEntity
  8
0
100
AcDbLine
 62
7
  6
CONTINUOUS
 10
137.5722517922
 20
105.7456552849
 11
137.6517276467
 21
105.6718898441
  0
LINE
  5
3E6
100
AcDbEntity
  8
0
100
AcDbLine
 62
7
  6
CONTINUOUS
 10
117.7639133733
 20
138.3018513987
 11
117.7314458472
 21
138.4053095102
  0
LINE
  5
3E7
100
AcDbEntity
  8
0
100
AcDbLine
 62
7
  6
CONTINUOUS
 10
117.5874322507
 20
137.7070461215
 11
117.566240767
 21
137.8346851865
  0
LINE
  5
3E8
100
AcDbEntity
  8
0
100
AcDbLine
 62
7
  6
CONTINUOUS
 10
117.6472149923
 20
138.2679529225
 11
117.6578106867
 21
138.2041334121
  0
LINE
  5
3E9
100
AcDbEntity
  8
0
100
AcDbLine
 62
7
  6
CONTINUOUS
 10
122.5949671929
 20
135.5310194384
 11
122.5790696391
 21
135.6382808923
  0
LINE
  5
3EA
100
AcDbEntity
  8
0
100
AcDbLine
 62
7
  6
CONTINUOUS
 10
136.8547085305
 20
109.5199132662
 11
136.8081306759
 21
109.4422672839
  0
LINE
  5
3EB
100
AcDbEntity
  8
0
100
AcDbLine
 62
7
  6
CONTINUOUS
 10
137.9885405808
 20
109.1263702687
 11
138.0351184307
 21
109.2040162243
  0
LINE
  5
3EC
100
AcDbEntity
  8
0
100
AcDbLine
 62
7
  6
CONTINUOUS
 10
137.0150742779
 20
106.1522905898
 11
136.9611498571
 21
106.0795544883
  0
LINE
  5
3ED
100
AcDbEntity
  8
0
100
AcDbLine
 62
7
  6
CONTINUOUS
 10
137.0945501433
 20
106.0785253582
 11
137.1215123493
 21
106.1148933043
  0
LINE
  5
3EE
100
AcDbEntity
  8
0
100
AcDbLine
 62
7
  6
CONTINUOUS
 10
138.1055707941
 20
105.7049649923
 11
138.1594952062
 21
105.7777008846
  0
LINE
  5
3EF
100
AcDbEntity
  8
0
100
AcDbLine
 62
7
  6
CONTINUOUS
 10
136.9692111935
 20
109.4384280426
 11
137.017431134
 21
109.4978603891
  0
LINE
  5
3F0
100
AcDbEntity
  8
0
100
AcDbLine
 62
7
  6
CONTINUOUS
 10
137.8740379306
 20
109.207855454
 11
137.8258180087
 21
109.1484231092
  0
LINE
  5
3F1
100
AcDbEntity
  8
0
100
AcDbLine
 62
7
  6
CONTINUOUS
 10
137.0306485756
 20
105.3267288617
 11
136.9477993569
 21
105.237826194
  0
LINE
  5
3F2
100
AcDbEntity
  8
0
100
AcDbLine
 62
7
  6
CONTINUOUS
 10
138.0581779641
 20
104.892217813
 11
138.1410271627
 21
104.9811200626
  0
LINE
  5
3F3
100
AcDbEntity
  8
0
100
AcDbLine
 62
7
  6
CONTINUOUS
 10
137.0688576249
 20
106.2067398053
 11
137.0150742779
 21
106.1522905898
  0
LINE
  5
3F4
100
AcDbEntity
  8
0
100
AcDbLine
 62
7
  6
CONTINUOUS
 10
137.4924937824
 20
105.782846535
 11
137.4387104447
 21
105.7283973195
  0
LINE
  5
3F5
100
AcDbEntity
  8
0
100
AcDbLine
 62
7
  6
CONTINUOUS
 10
138.026236014
 20
105.7970171099
 11
137.9724526764
 21
105.7425678944
  0
LINE
  5
3F6
100
AcDbEntity
  8
0
100
AcDbLine
 62
7
  6
CONTINUOUS
 10
137.0805699279
 20
105.2153964505
 11
137.1356130349
 21
105.2685718288
  0
LINE
  5
3F7
100
AcDbEntity
  8
0
100
AcDbLine
 62
7
  6
CONTINUOUS
 10
138.0082566211
 20
105.0035502239
 11
137.9532135141
 21
104.9503748457
  0
LINE
  5
3F8
100
AcDbEntity
  8
0
100
AcDbLine
 62
7
  6
CONTINUOUS
 10
119.5422741416
 20
136.329883644
 11
119.4683636929
 21
136.3100188494
  0
LINE
  5
3F9
100
AcDbEntity
  8
0
100
AcDbLine
 62
7
  6
CONTINUOUS
 10
119.6897911832
 20
137.194729563
 11
119.7637014491
 21
137.2145944595
  0
LINE
  5
3FA
100
AcDbEntity
  8
0
100
AcDbLine
 62
7
  6
CONTINUOUS
 10
118.7451684297
 20
136.5539255864
 11
118.8633931867
 21
136.582042235
  0
LINE
  5
3FB
100
AcDbEntity
  8
0
100
AcDbLine
 62
7
  6
CONTINUOUS
 10
118.8350453353
 20
137.3511966833
 11
118.7168205816
 21
137.3230800409
  0
LINE
  5
3FC
100
AcDbEntity
  8
0
100
AcDbLine
 62
7
  6
CONTINUOUS
 10
120.6209127715
 20
135.6962314619
 11
120.5463504938
 21
135.6789736743
  0
LINE
  5
3FD
100
AcDbEntity
  8
0
100
AcDbLine
 62
7
  6
CONTINUOUS
 10
120.5169754949
 20
136.1956843001
 11
120.5915377726
 21
136.2129420877
  0
LINE
  5
3FE
100
AcDbEntity
  8
0
100
AcDbLine
 62
7
  6
CONTINUOUS
 10
120.6449452311
 20
136.3365494185
 11
120.4958206758
 21
136.3020338433
  0
LINE
  5
3FF
100
AcDbEntity
  8
0
100
AcDbLine
 62
7
  6
CONTINUOUS
 10
120.7517605451
 20
136.5837639273
 11
120.8263228227
 21
136.6010217149
  0
LINE
  5
400
100
AcDbEntity
  8
0
100
AcDbLine
 62
7
  6
CONTINUOUS
 10
119.4193286102
 20
136.1846127336
 11
119.5381789251
 21
136.2099544673
  0
LINE
  5
401
100
AcDbEntity
  8
0
100
AcDbLine
 62
7
  6
CONTINUOUS
 10
119.8127368894
 20
137.3400003571
 11
119.6938863952
 21
137.3146587314
  0
LINE
  5
402
100
AcDbEntity
  8
0
100
AcDbLine
 62
7
  6
CONTINUOUS
 10
117.2405935486
 20
137.3094396352
 11
117.3294418584
 21
137.3268860322
  0
LINE
  5
403
100
AcDbEntity
  8
0
100
AcDbLine
 62
7
  6
CONTINUOUS
 10
117.499409781
 20
138.5135134857
 11
117.410561569
 21
138.4960670508
  0
LINE
  5
404
100
AcDbEntity
  8
0
100
AcDbLine
 62
7
  6
CONTINUOUS
 10
122.0726216868
 20
134.7891240215
 11
121.9973007095
 21
134.7755550546
  0
LINE
  5
405
100
AcDbEntity
  8
0
100
AcDbLine
 62
7
  6
CONTINUOUS
 10
122.2171371146
 20
135.6249027889
 11
122.2924580814
 21
135.6384717403
  0
LINE
  5
406
100
AcDbEntity
  8
0
100
AcDbLine
 62
7
  6
CONTINUOUS
 10
120.4929430268
 20
135.5553663296
 11
120.6126097461
 21
135.5765199839
  0
LINE
  5
407
100
AcDbEntity
  8
0
100
AcDbLine
 62
7
  6
CONTINUOUS
 10
120.8797302813
 20
136.7246290457
 11
120.7600635656
 21
136.7034753974
  0
LINE
  5
408
100
AcDbEntity
  8
0
100
AcDbLine
 62
7
  6
CONTINUOUS
 10
122.7210864317
 20
134.3027468341
 11
122.6454653535
 21
134.2909647709
  0
LINE
  5
409
100
AcDbEntity
  8
0
100
AcDbLine
 62
7
  6
CONTINUOUS
 10
122.6537971376
 20
134.8084426379
 11
122.7294182158
 21
134.820224701
  0
LINE
  5
40A
100
AcDbEntity
  8
0
100
AcDbLine
 62
7
  6
CONTINUOUS
 10
122.7916857548
 20
134.9396142614
 11
122.6404435984
 21
134.9160501351
  0
LINE
  5
40B
100
AcDbEntity
  8
0
100
AcDbLine
 62
7
  6
CONTINUOUS
 10
122.9162201933
 20
135.1783939274
 11
122.9918412715
 21
135.1901759906
  0
LINE
  5
40C
100
AcDbEntity
  8
0
100
AcDbLine
 62
7
  6
CONTINUOUS
 10
122.5831984878
 20
134.1715747129
 11
122.7040876177
 21
134.1839578677
  0
LINE
  5
40D
100
AcDbEntity
  8
0
100
AcDbLine
 62
7
  6
CONTINUOUS
 10
123.0541088106
 20
135.309565551
 11
122.9332190019
 21
135.2971828862
  0
LINE
  5
40E
100
AcDbEntity
  8
0
100
AcDbLine
 62
7
  6
CONTINUOUS
 10
121.9229601372
 20
134.6326034632
 11
122.0134434458
 21
134.6359478779
  0
LINE
  5
40F
100
AcDbEntity
  8
0
100
AcDbLine
 62
7
  6
CONTINUOUS
 10
122.3667986446
 20
135.7814233181
 11
122.27631534
 21
135.7780789093
  0
LINE
  5
410
100
AcDbEntity
  8
0
100
AcDbLine
 62
7
  6
CONTINUOUS
 10
84.8539562068
 20
135.378469428
 11
84.9290534046
 21
135.3760692553
  0
LINE
  5
411
100
AcDbEntity
  8
0
100
AcDbLine
 62
7
  6
CONTINUOUS
 10
82.7369337415
 20
135.998044656
 11
82.5639173717
 21
136.0266415394
  0
LINE
  5
412
100
AcDbEntity
  8
0
100
AcDbLine
 62
7
  6
CONTINUOUS
 10
86.6830605378
 20
137.6405299384
 11
86.5615551168
 21
137.6687845952
  0
LINE
  5
413
100
AcDbEntity
  8
0
100
AcDbLine
 62
7
  6
CONTINUOUS
 10
137.055198828
 20
109.0789469241
 11
136.997126446
 21
109.1287963466
  0
LINE
  5
414
100
AcDbEntity
  8
0
100
AcDbLine
 62
7
  6
CONTINUOUS
 10
137.7880503147
 20
109.5673365742
 11
137.8461226781
 21
109.51748715
  0
LINE
  5
415
100
AcDbEntity
  8
0
100
AcDbLine
 62
7
  6
CONTINUOUS
 10
137.0116884415
 20
105.7134038591
 11
137.064625329
 21
105.6581313395
  0
LINE
  5
416
100
AcDbEntity
  8
0
100
AcDbLine
 62
7
  6
CONTINUOUS
 10
137.9752742069
 20
106.1083068716
 11
138.0282110851
 21
106.0530343521
  0
LINE
  5
417
100
AcDbEntity
  8
0
100
AcDbLine
 62
7
  6
CONTINUOUS
 10
137.1265076723
 20
104.9761133975
 11
137.0748790746
 21
105.0326098787
  0
LINE
  5
418
100
AcDbEntity
  8
0
100
AcDbLine
 62
7
  6
CONTINUOUS
 10
137.9623188768
 20
105.242833277
 11
138.0139474744
 21
105.1863367958
  0
LINE
  5
419
100
AcDbEntity
  8
0
100
AcDbLine
 62
7
  6
CONTINUOUS
 10
136.8393300736
 20
109.0962083533
 11
136.8990445161
 21
109.028145319
  0
LINE
  5
41A
100
AcDbEntity
  8
0
100
AcDbLine
 62
7
  6
CONTINUOUS
 10
138.003919033
 20
109.5500751549
 11
137.9442045952
 21
109.6181382159
  0
LINE
  5
41B
100
AcDbEntity
  8
0
100
AcDbLine
 62
7
  6
CONTINUOUS
 10
136.9409703382
 20
105.0184824752
 11
137.0181287036
 21
104.924598571
  0
LINE
  5
41C
100
AcDbEntity
  8
0
100
AcDbLine
 62
7
  6
CONTINUOUS
 10
138.1478561815
 20
105.2004637814
 11
138.0706978361
 21
105.2943481037
  0
LINE
  5
41D
100
AcDbEntity
  8
0
100
AcDbLine
 62
7
  6
CONTINUOUS
 10
136.9588926307
 20
105.7869630554
 11
137.0116884415
 21
105.7134038591
  0
LINE
  5
41E
100
AcDbEntity
  8
0
100
AcDbLine
 62
7
  6
CONTINUOUS
 10
137.1186908188
 20
105.7491543272
 11
137.0922929169
 21
105.7859339253
  0
LINE
  5
41F
100
AcDbEntity
  8
0
100
AcDbLine
 62
7
  6
CONTINUOUS
 10
138.1617524326
 20
106.0702923175
 11
138.1089566304
 21
106.143851723
  0
LINE
  5
420
100
AcDbEntity
  8
0
100
AcDbLine
 62
7
  6
CONTINUOUS
 10
117.1850387936
 20
138.0124487973
 11
117.2287824569
 21
137.9331715951
  0
LINE
  5
421
100
AcDbEntity
  8
0
100
AcDbLine
 62
7
  6
CONTINUOUS
 10
117.566240767
 20
137.8346851865
 11
117.5224970089
 21
137.913962433
  0
LINE
  5
422
100
AcDbEntity
  8
0
100
AcDbLine
 62
7
  6
CONTINUOUS
 10
116.8932199898
 20
137.5597459802
 11
116.9422615447
 21
137.4485589943
  0
LINE
  5
423
100
AcDbEntity
  8
0
100
AcDbLine
 62
7
  6
CONTINUOUS
 10
118.4428761858
 20
136.8039476066
 11
118.4863888365
 21
136.6904826856
  0
LINE
  5
424
100
AcDbEntity
  8
0
100
AcDbLine
 62
7
  6
CONTINUOUS
 10
119.1373375825
 20
137.1011746693
 11
119.0938249285
 21
137.2146395841
  0
LINE
  5
425
100
AcDbEntity
  8
0
100
AcDbLine
 62
7
  6
CONTINUOUS
 10
117.3130133118
 20
138.0705281828
 11
117.2858435856
 21
138.1420765612
  0
LINE
  5
426
100
AcDbEntity
  8
0
100
AcDbLine
 62
7
  6
CONTINUOUS
 10
117.4382662488
 20
137.7766058011
 11
117.465435975
 21
137.7050574226
  0
LINE
  5
427
100
AcDbEntity
  8
0
100
AcDbLine
 62
7
  6
CONTINUOUS
 10
121.9779722949
 20
135.3356553965
 11
122.0087869988
 21
135.2505151151
  0
LINE
  5
428
100
AcDbEntity
  8
0
100
AcDbLine
 62
7
  6
CONTINUOUS
 10
122.3267036358
 20
135.1004925555
 11
122.2958889318
 21
135.1856328369
  0
LINE
  5
429
100
AcDbEntity
  8
0
100
AcDbLine
 62
7
  6
CONTINUOUS
 10
119.186849533
 20
136.4059978496
 11
119.2276943631
 21
136.2915455061
  0
LINE
  5
42A
100
AcDbEntity
  8
0
100
AcDbLine
 62
7
  6
CONTINUOUS
 10
120.0452157873
 20
137.1186153492
 11
120.0043711365
 21
137.2330675846
  0
LINE
  5
42B
100
AcDbEntity
  8
0
100
AcDbLine
 62
7
  6
CONTINUOUS
 10
118.5648225939
 20
136.7999325429
 11
118.5412054419
 21
136.8727308575
  0
LINE
  5
42C
100
AcDbEntity
  8
0
100
AcDbLine
 62
7
  6
CONTINUOUS
 10
119.0153911787
 20
137.1051897413
 11
119.0390083308
 21
137.0323914267
  0
LINE
  5
42D
100
AcDbEntity
  8
0
100
AcDbLine
 62
7
  6
CONTINUOUS
 10
120.2214390549
 20
135.8131751029
 11
120.2582404688
 21
135.6973594876
  0
LINE
  5
42E
100
AcDbEntity
  8
0
100
AcDbLine
 62
7
  6
CONTINUOUS
 10
120.9164492066
 20
136.0787406511
 11
120.8796477891
 21
136.1945562604
  0
LINE
  5
42F
100
AcDbEntity
  8
0
100
AcDbLine
 62
7
  6
CONTINUOUS
 10
121.1355876584
 20
136.4762863444
 11
121.0987858827
 21
136.5921021704
  0
LINE
  5
430
100
AcDbEntity
  8
0
100
AcDbLine
 62
7
  6
CONTINUOUS
 10
119.3086683652
 20
136.3991295611
 11
119.286761873
 21
136.4724606399
  0
LINE
  5
431
100
AcDbEntity
  8
0
100
AcDbLine
 62
7
  6
CONTINUOUS
 10
119.9233967769
 20
137.1254837478
 11
119.9453034518
 21
137.052152567
  0
LINE
  5
432
100
AcDbEntity
  8
0
100
AcDbLine
 62
7
  6
CONTINUOUS
 10
121.6189805977
 20
134.9341295936
 11
121.6500401384
 21
134.8166438253
  0
LINE
  5
433
100
AcDbEntity
  8
0
100
AcDbLine
 62
7
  6
CONTINUOUS
 10
120.342941849
 20
135.8020342669
 11
120.3236231035
 21
135.8760893177
  0
LINE
  5
434
100
AcDbEntity
  8
0
100
AcDbLine
 62
7
  6
CONTINUOUS
 10
120.7949464174
 20
136.0898814952
 11
120.8142651629
 21
136.0158264443
  0
LINE
  5
435
100
AcDbEntity
  8
0
100
AcDbLine
 62
7
  6
CONTINUOUS
 10
121.0140848691
 20
136.4874271885
 11
121.0334036147
 21
136.4133721376
  0
LINE
  5
436
100
AcDbEntity
  8
0
100
AcDbLine
 62
7
  6
CONTINUOUS
 10
122.3311896568
 20
134.4484711297
 11
122.3594595747
 21
134.3302827669
  0
LINE
  5
437
100
AcDbEntity
  8
0
100
AcDbLine
 62
7
  6
CONTINUOUS
 10
123.043693907
 20
134.6627183346
 11
123.0154246679
 21
134.7809062073
  0
LINE
  5
438
100
AcDbEntity
  8
0
100
AcDbLine
 62
7
  6
CONTINUOUS
 10
123.2912012628
 20
135.0432499997
 11
123.2629313409
 21
135.1614383567
  0
LINE
  5
439
100
AcDbEntity
  8
0
100
AcDbLine
 62
7
  6
CONTINUOUS
 10
122.1134522377
 20
135.3730176078
 11
122.0977998715
 21
135.4479333466
  0
LINE
  5
43A
100
AcDbEntity
  8
0
100
AcDbLine
 62
7
  6
CONTINUOUS
 10
122.191223693
 20
135.0631303442
 11
122.2068760591
 21
134.9882146054
  0
LINE
  5
43B
100
AcDbEntity
  8
0
100
AcDbLine
 62
7
  6
CONTINUOUS
 10
122.451558523
 20
134.4285115897
 11
122.437684036
 21
134.5037768744
  0
LINE
  5
43C
100
AcDbEntity
  8
0
100
AcDbLine
 62
7
  6
CONTINUOUS
 10
122.9233250462
 20
134.6826778823
 11
122.9371995332
 21
134.6074125975
  0
LINE
  5
43D
100
AcDbEntity
  8
0
100
AcDbLine
 62
7
  6
CONTINUOUS
 10
123.170832402
 20
135.0632095473
 11
123.184706889
 21
134.9879442626
  0
LINE
  5
43E
100
AcDbEntity
  8
RUNDUNGEN
100
AcDbLine
 62
7
  6
CONTINUOUS
 10
129.1820154755
 20
67.6280700413
 11
130.2204108398
 21
73.6733402426
  0
LINE
  5
43F
100
AcDbEntity
  8
0
100
AcDbLine
 62
7
  6
CONTINUOUS
 10
136.8081306759
 20
109.4422672839
 11
136.7897679706
 21
109.3488034084
  0
LINE
  5
440
100
AcDbEntity
  8
0
100
AcDbLine
 62
7
  6
CONTINUOUS
 10
137.5200202958
 20
105.892362444
 11
137.4924937824
 21
105.782846535
  0
LINE
  5
441
100
AcDbEntity
  8
0
100
AcDbLine
 62
7
  6
CONTINUOUS
 10
136.9492064172
 20
109.3631777911
 11
136.9692111935
 21
109.4384280426
  0
LINE
  5
442
100
AcDbEntity
  8
0
100
AcDbLine
 62
7
  6
CONTINUOUS
 10
137.8940427045
 20
109.2831057316
 11
137.8740379306
 21
109.207855454
  0
LINE
  5
443
100
AcDbEntity
  8
0
100
AcDbLine
 62
7
  6
CONTINUOUS
 10
136.9477993569
 20
105.237826194
 11
136.9177169191
 21
105.1289846104
  0
LINE
  5
444
100
AcDbEntity
  8
0
100
AcDbLine
 62
7
  6
CONTINUOUS
 10
137.0671647075
 20
105.9872965445
 11
137.0945501433
 21
106.0785253582
  0
LINE
  5
445
100
AcDbEntity
  8
0
100
AcDbLine
 62
7
  6
CONTINUOUS
 10
137.0510565686
 20
105.1248332312
 11
137.0805699279
 21
105.2153964505
  0
LINE
  5
446
100
AcDbEntity
  8
0
100
AcDbLine
 62
7
  6
CONTINUOUS
 10
136.9611498571
 20
106.0795544883
 11
136.9339054934
 21
106.0066123514
  0
LINE
  5
447
100
AcDbEntity
  8
0
100
AcDbLine
 62
7
  6
CONTINUOUS
 10
137.5181863024
 20
105.6546322972
 11
137.5722517922
 21
105.7456552849
  0
LINE
  5
448
100
AcDbEntity
  8
RUNDUNGEN
100
AcDbLine
 62
7
  6
CONTINUOUS
 10
144.5586153245
 20
98.5078388993
 11
149.2747752093
 21
102.4297507645
  0
LINE
  5
449
100
AcDbEntity
  8
RUNDUNGEN
100
AcDbLine
 62
7
  6
CONTINUOUS
 10
82.4686042649
 20
63.8591899862
 11
88.2231595141
 21
65.9825483222
  0
LINE
  5
44A
100
AcDbEntity
  8
0
100
AcDbLine
 62
7
  6
CONTINUOUS
 10
84.9290534046
 20
135.3760692553
 11
85.0585967806
 21
135.4060217359
  0
LINE
  5
44B
100
AcDbEntity
  8
0
100
AcDbLine
 62
7
  6
CONTINUOUS
 10
85.0304404386
 20
135.5773866193
 11
84.9008969014
 21
135.5474340552
  0
LINE
  5
44C
100
AcDbEntity
  8
0
100
AcDbLine
 62
7
  6
CONTINUOUS
 10
84.6437161089
 20
136.4761643926
 11
84.7732596389
 21
136.5061169689
  0
LINE
  5
44D
100
AcDbEntity
  8
0
100
AcDbLine
 62
7
  6
CONTINUOUS
 10
84.7451031484
 20
136.6774817475
 11
84.6155597742
 21
136.6475292638
  0
LINE
  5
44E
100
AcDbEntity
  8
0
100
AcDbLine
 62
7
  6
CONTINUOUS
 10
82.5506498238
 20
135.8216634825
 11
82.6518855312
 21
135.8419256344
  0
LINE
  5
44F
100
AcDbEntity
  8
0
100
AcDbLine
 62
7
  6
CONTINUOUS
 10
86.4202347595
 20
137.4593262843
 11
86.5513307878
 21
137.481519983
  0
LINE
  5
450
100
AcDbEntity
  8
0
100
AcDbLine
 62
7
  6
CONTINUOUS
 10
86.5615551168
 20
137.6687845952
 11
86.4585965445
 21
137.6611193737
  0
LINE
  5
451
100
AcDbEntity
  8
0
100
AcDbLine
 62
7
  6
CONTINUOUS
 10
117.4483269897
 20
138.360699162
 11
117.5093251275
 21
138.3616935114
  0
LINE
  5
452
100
AcDbEntity
  8
0
100
AcDbLine
 62
7
  6
CONTINUOUS
 10
84.8202001886
 20
136.6750814853
 11
84.7451031484
 21
136.6774817475
  0
LINE
  5
453
100
AcDbEntity
  8
0
100
AcDbLine
 62
7
  6
CONTINUOUS
 10
117.2916764416
 20
137.4622539295
 11
117.214104272
 21
137.4689884481
  0
LINE
  5
454
100
AcDbEntity
  8
0
100
AcDbLine
 62
7
  6
CONTINUOUS
 10
117.5769819507
 20
138.5067789671
 11
117.499409781
 21
138.5135134857
  0
LINE
  5
455
100
AcDbEntity
  8
0
100
AcDbLine
 62
7
  6
CONTINUOUS
 10
86.5513307878
 20
137.481519983
 11
86.6261519042
 21
137.4746567271
  0
LINE
  5
456
100
AcDbEntity
  8
0
100
AcDbLine
 62
7
  6
CONTINUOUS
 10
120.5463504938
 20
135.6789736743
 11
120.4855990992
 21
135.6845440963
  0
LINE
  5
457
100
AcDbEntity
  8
0
100
AcDbLine
 62
7
  6
CONTINUOUS
 10
120.5915377726
 20
136.2129420877
 11
120.6522891672
 21
136.2073716657
  0
LINE
  5
458
100
AcDbEntity
  8
0
100
AcDbLine
 62
7
  6
CONTINUOUS
 10
120.8263228227
 20
136.6010217149
 11
120.8870742174
 21
136.5954512929
  0
LINE
  5
459
100
AcDbEntity
  8
0
100
AcDbLine
 62
7
  6
CONTINUOUS
 10
118.7912548536
 20
136.6804450201
 11
118.714107985
 21
136.6909873442
  0
LINE
  5
45A
100
AcDbEntity
  8
0
100
AcDbLine
 62
7
  6
CONTINUOUS
 10
118.788958919
 20
137.2246772641
 11
118.8661059727
 21
137.2141348423
  0
LINE
  5
45B
100
AcDbEntity
  8
0
100
AcDbLine
 62
7
  6
CONTINUOUS
 10
122.2924580814
 20
135.6384717403
 11
122.3528618981
 21
135.6299195192
  0
LINE
  5
45C
100
AcDbEntity
  8
0
100
AcDbLine
 62
7
  6
CONTINUOUS
 10
117.1464474409
 20
137.3239029755
 11
117.2405935486
 21
137.3094396352
  0
LINE
  5
45D
100
AcDbEntity
  8
0
100
AcDbLine
 62
7
  6
CONTINUOUS
 10
122.6454653535
 20
134.2909647709
 11
122.5852809231
 21
134.3009445448
  0
LINE
  5
45E
100
AcDbEntity
  8
0
100
AcDbLine
 62
7
  6
CONTINUOUS
 10
122.7294182158
 20
134.820224701
 11
122.7896026462
 21
134.8102449272
  0
LINE
  5
45F
100
AcDbEntity
  8
0
100
AcDbLine
 62
7
  6
CONTINUOUS
 10
122.9918412715
 20
135.1901759906
 11
123.0520257019
 21
135.1801962167
  0
LINE
  5
460
100
AcDbEntity
  8
0
100
AcDbLine
 62
7
  6
CONTINUOUS
 10
118.6518478933
 20
136.5730026967
 11
118.7451684297
 21
136.5539255864
  0
LINE
  5
461
100
AcDbEntity
  8
0
100
AcDbLine
 62
7
  6
CONTINUOUS
 10
118.9283660558
 20
137.3321194733
 11
118.8350453353
 21
137.3511966833
  0
LINE
  5
462
100
AcDbEntity
  8
0
100
AcDbLine
 62
7
  6
CONTINUOUS
 10
119.4683636929
 20
136.3100188494
 11
119.3755152684
 21
136.3312751095
  0
LINE
  5
463
100
AcDbEntity
  8
0
100
AcDbLine
 62
7
  6
CONTINUOUS
 10
121.9973007095
 20
134.7755550546
 11
121.9217349021
 21
134.7943315843
  0
LINE
  5
464
100
AcDbEntity
  8
0
100
AcDbLine
 62
7
  6
CONTINUOUS
 10
122.4423647991
 20
135.7626465544
 11
122.3667986446
 21
135.7814233181
  0
LINE
  5
465
100
AcDbEntity
  8
0
100
AcDbLine
 62
7
  6
CONTINUOUS
 10
120.4008980759
 20
135.5798690984
 11
120.4929430268
 21
135.5553663296
  0
LINE
  5
466
100
AcDbEntity
  8
0
100
AcDbLine
 62
7
  6
CONTINUOUS
 10
120.7369901808
 20
136.3120466476
 11
120.6449452311
 21
136.3365494185
  0
LINE
  5
467
100
AcDbEntity
  8
0
100
AcDbLine
 62
7
  6
CONTINUOUS
 10
119.3105105421
 20
136.214780124
 11
119.4193286102
 21
136.1846127336
  0
LINE
  5
468
100
AcDbEntity
  8
0
100
AcDbLine
 62
7
  6
CONTINUOUS
 10
121.8322319907
 20
134.6616045336
 11
121.9229601372
 21
134.6326034632
  0
LINE
  5
469
100
AcDbEntity
  8
0
100
AcDbLine
 62
7
  6
CONTINUOUS
 10
122.4931819733
 20
134.2027157201
 11
122.5831984878
 21
134.1715747129
  0
LINE
  5
46A
100
AcDbEntity
  8
0
100
AcDbLine
 62
7
  6
CONTINUOUS
 10
122.8817015851
 20
134.9084737366
 11
122.7916857548
 21
134.9396142614
  0
LINE
  5
46B
100
AcDbEntity
  8
RUNDUNGEN
100
AcDbLine
 62
7
  6
CONTINUOUS
 10
88.2231595289
 20
146.4147133114
 11
82.4686042649
 21
148.5380716528
  0
LINE
  5
46C
100
AcDbEntity
  8
RUNDUNGEN
100
AcDbLine
 62
7
  6
CONTINUOUS
 10
149.2747752093
 20
109.9675108746
 11
144.5586153244
 21
113.8894227399
  0
LINE
  5
46D
100
AcDbEntity
  8
0
100
AcDbLine
 62
7
  6
CONTINUOUS
 10
116.9422615447
 20
137.4485589943
 11
117.0138554708
 21
137.385733787
  0
LINE
  5
46E
100
AcDbEntity
  8
0
100
AcDbLine
 62
7
  6
CONTINUOUS
 10
117.5224970089
 20
137.913962433
 11
117.4509031766
 21
137.9767875939
  0
LINE
  5
46F
100
AcDbEntity
  8
0
100
AcDbLine
 62
7
  6
CONTINUOUS
 10
119.2276943631
 20
136.2915455061
 11
119.3105105421
 21
136.214780124
  0
LINE
  5
470
100
AcDbEntity
  8
0
100
AcDbLine
 62
7
  6
CONTINUOUS
 10
118.4863888365
 20
136.6904826856
 11
118.5548055227
 21
136.6242116211
  0
LINE
  5
471
100
AcDbEntity
  8
0
100
AcDbLine
 62
7
  6
CONTINUOUS
 10
119.0938249285
 20
137.2146395841
 11
119.0254084263
 21
137.2809105489
  0
LINE
  5
472
100
AcDbEntity
  8
0
100
AcDbLine
 62
7
  6
CONTINUOUS
 10
117.0815123018
 20
137.5308192597
 11
117.0264924066
 21
137.5859155968
  0
LINE
  5
473
100
AcDbEntity
  8
0
100
AcDbLine
 62
7
  6
CONTINUOUS
 10
117.2287824569
 20
137.9331715951
 11
117.2838023522
 21
137.8780752579
  0
LINE
  5
474
100
AcDbEntity
  8
0
100
AcDbLine
 62
7
  6
CONTINUOUS
 10
117.3832463535
 20
137.8317021382
 11
117.4382662488
 21
137.7766058011
  0
LINE
  5
475
100
AcDbEntity
  8
0
100
AcDbLine
 62
7
  6
CONTINUOUS
 10
119.3755152684
 20
136.3312751095
 11
119.3086683652
 21
136.3991295611
  0
LINE
  5
476
100
AcDbEntity
  8
0
100
AcDbLine
 62
7
  6
CONTINUOUS
 10
120.2582404688
 20
135.6973594876
 11
120.3226636512
 21
135.6272002956
  0
LINE
  5
477
100
AcDbEntity
  8
0
100
AcDbLine
 62
7
  6
CONTINUOUS
 10
120.8796477891
 20
136.1945562604
 11
120.8152246055
 21
136.2647154505
  0
LINE
  5
478
100
AcDbEntity
  8
0
100
AcDbLine
 62
7
  6
CONTINUOUS
 10
118.6170656144
 20
136.7421962686
 11
118.5648225939
 21
136.7999325429
  0
LINE
  5
479
100
AcDbEntity
  8
0
100
AcDbLine
 62
7
  6
CONTINUOUS
 10
118.9631483433
 20
137.1629259179
 11
119.0153911787
 21
137.1051897413
  0
LINE
  5
47A
100
AcDbEntity
  8
0
100
AcDbLine
 62
7
  6
CONTINUOUS
 10
121.6500401384
 20
134.8166438253
 11
121.7109339821
 21
134.7434004061
  0
LINE
  5
47B
100
AcDbEntity
  8
0
100
AcDbLine
 62
7
  6
CONTINUOUS
 10
122.2958889318
 20
135.1856328369
 11
122.2349950869
 21
135.2588762542
  0
LINE
  5
47C
100
AcDbEntity
  8
0
100
AcDbLine
 62
7
  6
CONTINUOUS
 10
117.3514591753
 20
138.0231607136
 11
117.3130133118
 21
138.0705281828
  0
LINE
  5
47D
100
AcDbEntity
  8
0
100
AcDbLine
 62
7
  6
CONTINUOUS
 10
117.6087691288
 20
138.3153203917
 11
117.6472149923
 21
138.2679529225
  0
LINE
  5
47E
100
AcDbEntity
  8
0
100
AcDbLine
 62
7
  6
CONTINUOUS
 10
122.3594595747
 20
134.3302827669
 11
122.418602108
 21
134.2556185663
  0
LINE
  5
47F
100
AcDbEntity
  8
0
100
AcDbLine
 62
7
  6
CONTINUOUS
 10
123.0154246679
 20
134.7809062073
 11
122.9562814504
 21
134.8555708904
  0
LINE
  5
480
100
AcDbEntity
  8
0
100
AcDbLine
 62
7
  6
CONTINUOUS
 10
121.8004368935
 20
134.8761274568
 11
121.7547053864
 21
134.9391463316
  0
LINE
  5
481
100
AcDbEntity
  8
0
100
AcDbLine
 62
7
  6
CONTINUOUS
 10
122.0087869988
 20
135.2505151151
 11
122.054518853
 21
135.1874960063
  0
LINE
  5
482
100
AcDbEntity
  8
0
100
AcDbLine
 62
7
  6
CONTINUOUS
 10
122.1454921859
 20
135.126149219
 11
122.191223693
 21
135.0631303442
  0
LINE
  5
483
100
AcDbEntity
  8
0
100
AcDbLine
 62
7
  6
CONTINUOUS
 10
120.3760714776
 20
135.7508074257
 11
120.342941849
 21
135.8020342669
  0
LINE
  5
484
100
AcDbEntity
  8
0
100
AcDbLine
 62
7
  6
CONTINUOUS
 10
120.7618167888
 20
136.1411083364
 11
120.7949464174
 21
136.0898814952
  0
LINE
  5
485
100
AcDbEntity
  8
0
100
AcDbLine
 62
7
  6
CONTINUOUS
 10
120.9809552406
 20
136.5386540297
 11
121.0140848691
 21
136.4874271885
  0
LINE
  5
486
100
AcDbEntity
  8
0
100
AcDbLine
 62
7
  6
CONTINUOUS
 10
122.144021754
 20
135.3202230416
 11
122.1134522377
 21
135.3730176078
  0
LINE
  5
487
100
AcDbEntity
  8
0
100
AcDbLine
 62
7
  6
CONTINUOUS
 10
122.443835231
 20
135.5685727318
 11
122.4744047473
 21
135.5157781656
  0
LINE
  5
488
100
AcDbEntity
  8
0
100
AcDbLine
 62
7
  6
CONTINUOUS
 10
122.4808696579
 20
134.3750081419
 11
122.451558523
 21
134.4285115897
  0
LINE
  5
489
100
AcDbEntity
  8
0
100
AcDbLine
 62
7
  6
CONTINUOUS
 10
122.8940139114
 20
134.7361813301
 11
122.9233250462
 21
134.6826778823
  0
LINE
  5
48A
100
AcDbEntity
  8
0
100
AcDbLine
 62
7
  6
CONTINUOUS
 10
123.1415212672
 20
135.1167129951
 11
123.170832402
 21
135.0632095473
  0
LINE
  5
48B
100
AcDbEntity
  8
0
100
AcDbLine
 62
7
  6
CONTINUOUS
 10
137.6792541601
 20
105.7814057531
 11
137.6267405117
 21
105.8915391401
  0
LINE
  5
48C
100
AcDbEntity
  8
0
100
AcDbLine
 62
7
  6
CONTINUOUS
 10
136.997126446
 20
109.1287963466
 11
136.9639850772
 21
109.1992551638
  0
LINE
  5
48D
100
AcDbEntity
  8
0
100
AcDbLine
 62
7
  6
CONTINUOUS
 10
137.8461226781
 20
109.51748715
 11
137.8792640446
 21
109.4470283589
  0
LINE
  5
48E
100
AcDbEntity
  8
0
100
AcDbLine
 62
7
  6
CONTINUOUS
 10
136.8045466305
 20
109.184880781
 11
136.8393300736
 21
109.0962083533
  0
LINE
  5
48F
100
AcDbEntity
  8
0
100
AcDbLine
 62
7
  6
CONTINUOUS
 10
136.9327768818
 20
105.8603168443
 11
136.9588926307
 21
105.7869630554
  0
LINE
  5
490
100
AcDbEntity
  8
0
100
AcDbLine
 62
7
  6
CONTINUOUS
 10
137.0922929169
 20
105.7859339253
 11
137.066318248
 21
105.8775748095
  0
LINE
  5
491
100
AcDbEntity
  8
0
100
AcDbLine
 62
7
  6
CONTINUOUS
 10
137.0748790746
 20
105.0326098787
 11
137.0510565686
 21
105.1248332312
  0
LINE
  5
492
100
AcDbEntity
  8
0
100
AcDbLine
 62
7
  6
CONTINUOUS
 10
136.9177169191
 20
105.1289846104
 11
136.9409703382
 21
105.0184824752
  0
LINE
  5
493
100
AcDbEntity
  8
RUNDUNGEN
100
AcDbLine
 62
7
  6
CONTINUOUS
 10
130.2204108397
 20
138.7239213966
 11
129.1820154755
 21
144.7691915978
  0
LINE
  5
494
100
AcDbEntity
  8
0
100
AcDbLine
 62
7
  6
CONTINUOUS
 10
136.7897679706
 20
109.3488034084
 11
136.8045466305
 21
109.184880781
  0
LINE
  5
495
100
AcDbEntity
  8
0
100
AcDbLine
 62
7
  6
CONTINUOUS
 10
136.9639850772
 20
109.1992551638
 11
136.9492064172
 21
109.3631777911
  0
LINE
  5
496
100
AcDbEntity
  8
0
100
AcDbLine
 62
7
  6
CONTINUOUS
 10
137.1464125556
 20
108.9586387349
 11
137.1365601141
 21
109.0679205039
  0
LINE
  5
497
100
AcDbEntity
  8
0
100
AcDbLine
 62
7
  6
CONTINUOUS
 10
137.7477407922
 20
109.1230223012
 11
137.7575932338
 21
109.0137405323
  0
LINE
  5
498
100
AcDbEntity
  8
0
100
AcDbLine
 62
7
  6
CONTINUOUS
 10
137.8792640446
 20
109.4470283589
 11
137.8940427045
 21
109.2831057316
  0
LINE
  5
499
100
AcDbEntity
  8
0
100
AcDbLine
 62
7
  6
CONTINUOUS
 10
138.0534811326
 20
109.2974801126
 11
138.0387024727
 21
109.4614027399
  0
LINE
  5
49A
100
AcDbEntity
  8
0
100
AcDbLine
 62
7
  6
CONTINUOUS
 10
136.8578149958
 20
108.4920099638
 11
136.8649611285
 21
108.3825179165
  0
LINE
  5
49B
100
AcDbEntity
  8
0
100
AcDbLine
 62
7
  6
CONTINUOUS
 10
138.1353551674
 20
108.172209176
 11
138.1282090347
 21
108.2817012233
  0
LINE
  5
49C
100
AcDbEntity
  8
0
100
AcDbLine
 62
7
  6
CONTINUOUS
 10
138.0972424555
 20
108.756166831
 11
138.0900963263
 21
108.8656588261
  0
LINE
  5
49D
100
AcDbEntity
  8
0
100
AcDbLine
 62
7
  6
CONTINUOUS
 10
136.8915803573
 20
107.9444057051
 11
136.9187180156
 21
107.2866152598
  0
LINE
  5
49E
100
AcDbEntity
  8
0
100
AcDbLine
 62
7
  6
CONTINUOUS
 10
137.0786670596
 20
107.2932140824
 11
137.0560523444
 21
107.8413727869
  0
LINE
  5
49F
100
AcDbEntity
  8
0
100
AcDbLine
 62
7
  6
CONTINUOUS
 10
138.149037482
 20
107.8864647418
 11
138.144514539
 21
107.9960964827
  0
LINE
  5
4A0
100
AcDbEntity
  8
0
100
AcDbLine
 62
7
  6
CONTINUOUS
 10
136.9339054934
 20
106.0066123514
 11
136.9327768818
 21
105.8603168443
  0
LINE
  5
4A1
100
AcDbEntity
  8
0
100
AcDbLine
 62
7
  6
CONTINUOUS
 10
137.066318248
 20
105.8775748095
 11
137.0671647075
 21
105.9872965445
  0
LINE
  5
4A2
100
AcDbEntity
  8
0
100
AcDbLine
 62
7
  6
CONTINUOUS
 10
137.2286558152
 20
106.168931077
 11
137.2293611971
 21
106.2603657167
  0
LINE
  5
4A3
100
AcDbEntity
  8
0
100
AcDbLine
 62
7
  6
CONTINUOUS
 10
137.5205846032
 20
105.9655104069
 11
137.5200202958
 21
105.892362444
  0
LINE
  5
4A4
100
AcDbEntity
  8
0
100
AcDbLine
 62
7
  6
CONTINUOUS
 10
137.6267405117
 20
105.8915391401
 11
137.6273048191
 21
105.9646871029
  0
LINE
  5
4A5
100
AcDbEntity
  8
0
100
AcDbLine
 62
7
  6
CONTINUOUS
 10
137.8962215822
 20
106.2369331799
 11
137.8955161987
 21
106.145498331
  0
LINE
  5
4A6
100
AcDbEntity
  8
0
100
AcDbLine
 62
7
  6
CONTINUOUS
 10
138.0541857572
 20
105.9613938865
 11
138.0536214498
 21
105.8882459236
  0
LINE
  5
4A7
100
AcDbEntity
  8
0
100
AcDbLine
 62
7
  6
CONTINUOUS
 10
138.1871627973
 20
105.905503889
 11
138.1874449494
 21
105.9420776611
  0
LINE
  5
4A8
100
AcDbEntity
  8
0
100
AcDbLine
 62
7
  6
CONTINUOUS
 10
136.902432342
 20
104.6537077626
 11
136.896101944
 21
104.5441655256
  0
LINE
  5
4A9
100
AcDbEntity
  8
0
100
AcDbLine
 62
7
  6
CONTINUOUS
 10
136.8813310234
 20
104.2885671119
 11
136.8728904767
 21
104.1425105174
  0
LINE
  5
4AA
100
AcDbEntity
  8
0
100
AcDbLine
 62
7
  6
CONTINUOUS
 10
136.8581195561
 20
103.8869121036
 11
136.8517891581
 21
103.7773698667
  0
LINE
  5
4AB
100
AcDbEntity
  8
0
100
AcDbLine
 62
7
  6
CONTINUOUS
 10
138.103700438
 20
103.705022461
 11
138.113196035
 21
103.8693358165
  0
LINE
  5
4AC
100
AcDbEntity
  8
0
100
AcDbLine
 62
7
  6
CONTINUOUS
 10
138.144848025
 20
104.4170470015
 11
138.154343622
 21
104.581360357
  0
LINE
  5
4AD
100
AcDbEntity
  8
0
100
AcDbLine
 62
7
  6
CONTINUOUS
 10
136.8411695547
 20
103.631396265
 11
136.8315787771
 21
103.5220912211
  0
LINE
  5
4AE
100
AcDbEntity
  8
0
100
AcDbLine
 62
7
  6
CONTINUOUS
 10
136.8092002719
 20
103.2670458408
 11
136.7964125808
 21
103.1213059214
  0
LINE
  5
4AF
100
AcDbEntity
  8
0
100
AcDbLine
 62
7
  6
CONTINUOUS
 10
136.7740341121
 20
102.866260958
 11
136.7644433346
 21
102.7569559142
  0
LINE
  5
4B0
100
AcDbEntity
  8
0
100
AcDbLine
 62
7
  6
CONTINUOUS
 10
138.0136438358
 20
102.6473470284
 11
138.028030002
 21
102.8113045942
  0
LINE
  5
4B1
100
AcDbEntity
  8
0
100
AcDbLine
 62
7
  6
CONTINUOUS
 10
138.0759838896
 20
103.3578298134
 11
138.0903700558
 21
103.5217873792
  0
LINE
  5
4B2
100
AcDbEntity
  8
0
100
AcDbLine
 62
7
  6
CONTINUOUS
 10
138.0351184307
 20
109.2040162243
 11
138.0534811326
 21
109.2974801126
  0
LINE
  5
4B3
100
AcDbEntity
  8
0
100
AcDbLine
 62
7
  6
CONTINUOUS
 10
138.1594952062
 20
105.7777008846
 11
138.1871627973
 21
105.905503889
  0
LINE
  5
4B4
100
AcDbEntity
  8
RUNDUNGEN
100
AcDbLine
 62
7
  6
CONTINUOUS
 10
144.6303596298
 20
118.7169476461
 11
143.9054649112
 21
115.9269723488
  0
LINE
  5
4B5
100
AcDbEntity
  8
0
100
AcDbLine
 62
7
  6
CONTINUOUS
 10
138.1410271627
 20
104.9811200626
 11
138.1711095983
 21
105.0899616463
  0
LINE
  5
4B6
100
AcDbEntity
  8
RUNDUNGEN
100
AcDbLine
 62
7
  6
CONTINUOUS
 10
144.6304339545
 20
118.7172363721
 11
144.6304428919
 21
118.7172681077
  0
LINE
  5
4B7
100
AcDbEntity
  8
0
100
AcDbLine
 62
7
  6
CONTINUOUS
 10
138.0536214498
 20
105.8882459236
 11
138.026236014
 21
105.7970171099
  0
LINE
  5
4B8
100
AcDbEntity
  8
0
100
AcDbLine
 62
7
  6
CONTINUOUS
 10
138.0377699674
 20
105.0941130249
 11
138.0082566211
 21
105.0035502239
  0
LWPOLYLINE
  5
4B9
100
AcDbEntity
  8
RUNDUNGEN
100
AcDbPolyline
 62
7
  6
CONTINUOUS
 90
3
 70
0
 10
134.3153404454
 20
90.4635401815
 10
134.3222247927
 20
90.4820870385
 10
134.6083961474
 20
91.2254378429
  0
LINE
  5
4BA
100
AcDbEntity
  8
RUNDUNGEN
100
AcDbLine
 62
7
  6
CONTINUOUS
 10
134.6083961474
 20
91.2254378429
 11
134.6781754965
 21
91.4087578055
  0
LWPOLYLINE
  5
4BB
100
AcDbEntity
  8
RUNDUNGEN
100
AcDbPolyline
 62
7
  6
CONTINUOUS
 90
3
 70
0
 10
132.0653404454
 20
86.5664258645
 10
132.0530617481
 20
86.5509141356
 10
131.5511885851
 20
85.9323773211
  0
LINE
  5
4BC
100
AcDbEntity
  8
RUNDUNGEN
100
AcDbLine
 62
7
  6
CONTINUOUS
 10
131.5511885851
 20
85.9323773211
 11
131.4281754965
 21
85.7795926809
  0
LINE
  5
4BD
100
AcDbEntity
  8
RUNDUNGEN
100
AcDbLine
 62
7
  6
CONTINUOUS
 10
114.8084235564
 20
65.5294183706
 11
112.7546069324
 21
63.5065801042
  0
LINE
  5
4BE
100
AcDbEntity
  8
RUNDUNGEN
100
AcDbLine
 62
7
  6
CONTINUOUS
 10
73.4643224494
 20
137.1395016886
 11
70.6857293788
 21
136.3723033673
  0
LINE
  5
4BF
100
AcDbEntity
  8
RUNDUNGEN
100
AcDbLine
 62
7
  6
CONTINUOUS
 10
70.6853945134
 20
136.3722100736
 11
70.6853545182
 21
136.3721998637
  0
LWPOLYLINE
  5
4C0
100
AcDbEntity
  8
RUNDUNGEN
100
AcDbPolyline
 62
7
  6
CONTINUOUS
 90
3
 70
0
 10
100.3113639987
 20
141.5659264125
 10
100.2918597758
 20
141.5626150037
 10
99.5050134179
 20
141.4387712645
  0
LINE
  5
4C1
100
AcDbEntity
  8
RUNDUNGEN
100
AcDbLine
 62
7
  6
CONTINUOUS
 10
99.5050134179
 20
141.4387712645
 11
99.3113639987
 21
141.4075419722
  0
LWPOLYLINE
  5
4C2
100
AcDbEntity
  8
RUNDUNGEN
100
AcDbPolyline
 62
7
  6
CONTINUOUS
 90
3
 70
0
 10
104.8113639987
 20
141.5659264125
 10
104.8309368987
 20
141.5630486131
 10
105.6175420747
 20
141.4376821117
  0
LINE
  5
4C3
100
AcDbEntity
  8
RUNDUNGEN
100
AcDbLine
 62
7
  6
CONTINUOUS
 10
105.6175420747
 20
141.4376821117
 11
105.8113639987
 21
141.4075419722
  0
LINE
  5
4C4
100
AcDbEntity
  8
0
100
AcDbLine
 62
7
  6
CONTINUOUS
 10
119.7637014491
 20
137.2145944595
 11
119.8565502392
 21
137.1933379955
  0
LINE
  5
4C5
100
AcDbEntity
  8
0
100
AcDbLine
 62
7
  6
CONTINUOUS
 10
120.971775231
 20
136.7001262748
 11
120.8797302813
 21
136.7246290457
  0
LINE
  5
4C6
100
AcDbEntity
  8
RUNDUNGEN
100
AcDbLine
 62
7
  6
CONTINUOUS
 10
131.6584053526
 20
137.1395017426
 11
134.437142991
 21
136.3722635046
  0
LINE
  5
4C7
100
AcDbEntity
  8
0
100
AcDbLine
 62
7
  6
CONTINUOUS
 10
119.9215549564
 20
137.3098329646
 11
119.8127368894
 21
137.3400003571
  0
LINE
  5
4C8
100
AcDbEntity
  8
0
100
AcDbLine
 62
7
  6
CONTINUOUS
 10
123.1441246409
 20
135.2784250261
 11
123.0541088106
 21
135.309565551
  0
LINE
  5
4C9
100
AcDbEntity
  8
0
100
AcDbLine
 62
7
  6
CONTINUOUS
 10
116.0453513447
 20
137.8181433147
 11
116.6484349296
 21
137.5541074986
  0
LINE
  5
4CA
100
AcDbEntity
  8
0
100
AcDbLine
 62
7
  6
CONTINUOUS
 10
116.7126381674
 20
137.7007539626
 11
116.2100685133
 21
137.9207838094
  0
LINE
  5
4CB
100
AcDbEntity
  8
0
100
AcDbLine
 62
7
  6
CONTINUOUS
 10
116.6487906396
 20
138.9228679831
 11
116.5482767088
 21
138.9668739525
  0
LINE
  5
4CC
100
AcDbEntity
  8
0
100
AcDbLine
 62
7
  6
CONTINUOUS
 10
117.0138554708
 20
137.385733787
 11
117.1464474409
 21
137.3239029755
  0
LINE
  5
4CD
100
AcDbEntity
  8
0
100
AcDbLine
 62
7
  6
CONTINUOUS
 10
117.214104272
 20
137.4689884481
 11
117.0815123018
 21
137.5308192597
  0
LINE
  5
4CE
100
AcDbEntity
  8
0
100
AcDbLine
 62
7
  6
CONTINUOUS
 10
117.0278532051
 20
137.7619164974
 11
116.9284092512
 21
137.808289595
  0
LINE
  5
4CF
100
AcDbEntity
  8
0
100
AcDbLine
 62
7
  6
CONTINUOUS
 10
117.2838023522
 20
137.8780752579
 11
117.3832463535
 21
137.8317021382
  0
LINE
  5
4D0
100
AcDbEntity
  8
0
100
AcDbLine
 62
7
  6
CONTINUOUS
 10
117.4509031766
 20
137.9767875939
 11
117.3514591753
 21
138.0231607136
  0
LINE
  5
4D1
100
AcDbEntity
  8
0
100
AcDbLine
 62
7
  6
CONTINUOUS
 10
117.6518324442
 20
138.1480427255
 11
117.7512764455
 21
138.1016696058
  0
LINE
  5
4D2
100
AcDbEntity
  8
0
100
AcDbLine
 62
7
  6
CONTINUOUS
 10
117.5093251275
 20
138.3616935114
 11
117.6087691288
 21
138.3153203917
  0
LINE
  5
4D3
100
AcDbEntity
  8
0
100
AcDbLine
 62
7
  6
CONTINUOUS
 10
117.6598519201
 20
138.4681347154
 11
117.5769819507
 21
138.5067789671
  0
LINE
  5
4D4
100
AcDbEntity
  8
0
100
AcDbLine
 62
7
  6
CONTINUOUS
 10
118.5548055227
 20
136.6242116211
 11
118.6518478933
 21
136.5730026967
  0
LINE
  5
4D5
100
AcDbEntity
  8
0
100
AcDbLine
 62
7
  6
CONTINUOUS
 10
118.714107985
 20
136.6909873442
 11
118.6170656144
 21
136.7421962686
  0
LINE
  5
4D6
100
AcDbEntity
  8
0
100
AcDbLine
 62
7
  6
CONTINUOUS
 10
118.5586661835
 20
136.9841881552
 11
118.461623813
 21
137.0353970796
  0
LINE
  5
4D7
100
AcDbEntity
  8
0
100
AcDbLine
 62
7
  6
CONTINUOUS
 10
118.5736919799
 20
137.2477694484
 11
118.6869080172
 21
137.1880257359
  0
LINE
  5
4D8
100
AcDbEntity
  8
0
100
AcDbLine
 62
7
  6
CONTINUOUS
 10
118.8661059727
 20
137.2141348423
 11
118.9631483433
 21
137.1629259179
  0
LINE
  5
4D9
100
AcDbEntity
  8
0
100
AcDbLine
 62
7
  6
CONTINUOUS
 10
119.0254084263
 20
137.2809105489
 11
118.9283660558
 21
137.3321194733
  0
LINE
  5
4DA
100
AcDbEntity
  8
0
100
AcDbLine
 62
7
  6
CONTINUOUS
 10
118.9160528822
 20
137.7006309263
 11
119.3850910684
 21
137.4531210925
  0
LINE
  5
4DB
100
AcDbEntity
  8
0
100
AcDbLine
 62
7
  6
CONTINUOUS
 10
119.4473511514
 20
137.5711057235
 11
118.8974444465
 21
137.8612895958
  0
LINE
  5
4DC
100
AcDbEntity
  8
0
100
AcDbLine
 62
7
  6
CONTINUOUS
 10
119.9524828074
 20
136.3725009061
 11
120.173740758
 21
136.2436845698
  0
LINE
  5
4DD
100
AcDbEntity
  8
0
100
AcDbLine
 62
7
  6
CONTINUOUS
 10
120.2408617795
 20
136.3589732055
 11
120.019603829
 21
136.4877895418
  0
LINE
  5
4DE
100
AcDbEntity
  8
0
100
AcDbLine
 62
7
  6
CONTINUOUS
 10
120.3226636512
 20
135.6272002956
 11
120.4008980759
 21
135.5798690984
  0
LINE
  5
4DF
100
AcDbEntity
  8
0
100
AcDbLine
 62
7
  6
CONTINUOUS
 10
120.4855990992
 20
135.6845440963
 11
120.3760714776
 21
135.7508074257
  0
LINE
  5
4E0
100
AcDbEntity
  8
0
100
AcDbLine
 62
7
  6
CONTINUOUS
 10
120.6522891672
 20
136.2073716657
 11
120.7618167888
 21
136.1411083364
  0
LINE
  5
4E1
100
AcDbEntity
  8
0
100
AcDbLine
 62
7
  6
CONTINUOUS
 10
120.8152246055
 20
136.2647154505
 11
120.7369901808
 21
136.3120466476
  0
LINE
  5
4E2
100
AcDbEntity
  8
0
100
AcDbLine
 62
7
  6
CONTINUOUS
 10
121.0232645206
 20
136.32595516
 11
121.1014985872
 21
136.2786241795
  0
LINE
  5
4E3
100
AcDbEntity
  8
0
100
AcDbLine
 62
7
  6
CONTINUOUS
 10
120.8870742174
 20
136.5954512929
 11
120.9809552406
 21
136.5386540297
  0
LINE
  5
4E4
100
AcDbEntity
  8
0
100
AcDbLine
 62
7
  6
CONTINUOUS
 10
121.0343626991
 20
136.6622613605
 11
120.971775231
 21
136.7001262748
  0
LINE
  5
4E5
100
AcDbEntity
  8
0
100
AcDbLine
 62
7
  6
CONTINUOUS
 10
121.7109339821
 20
134.7434004061
 11
121.8322319907
 21
134.6616045336
  0
LINE
  5
4E6
100
AcDbEntity
  8
0
100
AcDbLine
 62
7
  6
CONTINUOUS
 10
121.9217349021
 20
134.7943315843
 11
121.8004368935
 21
134.8761274568
  0
LINE
  5
4E7
100
AcDbEntity
  8
0
100
AcDbLine
 62
7
  6
CONTINUOUS
 10
121.7835592935
 20
135.1127713186
 11
121.6925859606
 21
135.174118106
  0
LINE
  5
4E8
100
AcDbEntity
  8
0
100
AcDbLine
 62
7
  6
CONTINUOUS
 10
122.054518853
 20
135.1874960063
 11
122.1454921859
 21
135.126149219
  0
LINE
  5
4E9
100
AcDbEntity
  8
0
100
AcDbLine
 62
7
  6
CONTINUOUS
 10
122.2349950869
 20
135.2588762542
 11
122.144021754
 21
135.3202230416
  0
LINE
  5
4EA
100
AcDbEntity
  8
0
100
AcDbLine
 62
7
  6
CONTINUOUS
 10
122.4602228131
 20
135.3966200817
 11
122.551196146
 21
135.3352732943
  0
LINE
  5
4EB
100
AcDbEntity
  8
0
100
AcDbLine
 62
7
  6
CONTINUOUS
 10
122.3528618981
 20
135.6299195192
 11
122.443835231
 21
135.5685727318
  0
LINE
  5
4EC
100
AcDbEntity
  8
0
100
AcDbLine
 62
7
  6
CONTINUOUS
 10
122.5181757942
 20
135.7115243096
 11
122.4423647991
 21
135.7626465544
  0
LINE
  5
4ED
100
AcDbEntity
  8
0
100
AcDbLine
 62
7
  6
CONTINUOUS
 10
122.418602108
 20
134.2556185663
 11
122.4931819733
 21
134.2027157201
  0
LINE
  5
4EE
100
AcDbEntity
  8
0
100
AcDbLine
 62
7
  6
CONTINUOUS
 10
122.5852809231
 20
134.3009445448
 11
122.4808696579
 21
134.3750081419
  0
LINE
  5
4EF
100
AcDbEntity
  8
0
100
AcDbLine
 62
7
  6
CONTINUOUS
 10
122.7896026462
 20
134.8102449272
 11
122.8940139114
 21
134.7361813301
  0
LINE
  5
4F0
100
AcDbEntity
  8
0
100
AcDbLine
 62
7
  6
CONTINUOUS
 10
122.9562814504
 20
134.8555708904
 11
122.8817015851
 21
134.9084737366
  0
LINE
  5
4F1
100
AcDbEntity
  8
0
100
AcDbLine
 62
7
  6
CONTINUOUS
 10
123.1682290283
 20
134.9014975163
 11
123.2428082108
 21
134.8485951545
  0
LINE
  5
4F2
100
AcDbEntity
  8
0
100
AcDbLine
 62
7
  6
CONTINUOUS
 10
123.0520257019
 20
135.1801962167
 11
123.1415212672
 21
135.1167129951
  0
LINE
  5
4F3
100
AcDbEntity
  8
0
100
AcDbLine
 62
7
  6
CONTINUOUS
 10
123.2037888062
 20
135.2361025555
 11
123.1441246409
 21
135.2784250261
  0
LINE
  5
4F4
100
AcDbEntity
  8
0
100
AcDbLine
 62
7
  6
CONTINUOUS
 10
122.8343514883
 20
133.9567142805
 11
122.908119976
 21
133.902687208
  0
LINE
  5
4F5
100
AcDbEntity
  8
0
100
AcDbLine
 62
7
  6
CONTINUOUS
 10
122.9869441511
 20
134.0103136244
 11
122.9131756634
 21
134.0643406969
  0
LINE
  5
4F6
100
AcDbEntity
  8
0
100
AcDbLine
 62
7
  6
CONTINUOUS
 10
123.1138875438
 20
133.7503441044
 11
123.2018377297
 21
133.6847366321
  0
LINE
  5
4F7
100
AcDbEntity
  8
0
100
AcDbLine
 62
7
  6
CONTINUOUS
 10
123.9516374133
 20
134.6898816138
 11
123.8636872274
 21
134.7554890862
  0
LINE
  5
4F8
100
AcDbEntity
  8
0
100
AcDbLine
 62
7
  6
CONTINUOUS
 10
117.7314458472
 20
138.4053095102
 11
117.6598519201
 21
138.4681347154
  0
LINE
  5
4F9
100
AcDbEntity
  8
0
100
AcDbLine
 62
7
  6
CONTINUOUS
 10
120.0043711365
 20
137.2330675846
 11
119.9215549564
 21
137.3098329646
  0
LINE
  5
4FA
100
AcDbEntity
  8
RUNDUNGEN
100
AcDbLine
 62
7
  6
CONTINUOUS
 10
112.7546814298
 20
148.890608161
 11
114.8084235539
 21
146.867843271
  0
LINE
  5
4FB
100
AcDbEntity
  8
0
100
AcDbLine
 62
7
  6
CONTINUOUS
 10
119.8565502392
 20
137.1933379955
 11
119.9233967769
 21
137.1254837478
  0
LINE
  5
4FC
100
AcDbEntity
  8
RUNDUNGEN
100
AcDbLine
 62
7
  6
CONTINUOUS
 10
112.7544685481
 20
148.8908168911
 11
112.754445533
 21
148.8908404989
  0
LINE
  5
4FD
100
AcDbEntity
  8
0
100
AcDbLine
 62
7
  6
CONTINUOUS
 10
121.0987858827
 20
136.5921021704
 11
121.0343626991
 21
136.6622613605
  0
LINE
  5
4FE
100
AcDbEntity
  8
0
100
AcDbLine
 62
7
  6
CONTINUOUS
 10
122.5790696391
 20
135.6382808923
 11
122.5181757942
 21
135.7115243096
  0
LWPOLYLINE
  5
4FF
100
AcDbEntity
  8
RUNDUNGEN
100
AcDbPolyline
 62
7
  6
CONTINUOUS
 90
3
 70
0
 10
132.0653404454
 20
125.8308357745
 10
132.0527205698
 20
125.8460712227
 10
131.5520455666
 20
126.4655782879
  0
LINE
  5
500
100
AcDbEntity
  8
RUNDUNGEN
100
AcDbLine
 62
7
  6
CONTINUOUS
 10
131.5520455666
 20
126.4655782879
 11
131.4281754965
 21
126.6176689582
  0
LINE
  5
501
100
AcDbEntity
  8
0
100
AcDbLine
 62
7
  6
CONTINUOUS
 10
123.2629313409
 20
135.1614383567
 11
123.2037888062
 21
135.2361025555
  0
LWPOLYLINE
  5
502
100
AcDbEntity
  8
RUNDUNGEN
100
AcDbPolyline
 62
7
  6
CONTINUOUS
 90
3
 70
0
 10
134.3153404454
 20
121.9337214575
 10
134.322634648
 20
121.9153319292
 10
134.607366661
 20
121.1714286133
  0
LINE
  5
503
100
AcDbEntity
  8
0
100
AcDbLine
 62
7
  6
CONTINUOUS
 10
138.0387024727
 20
109.4614027399
 11
138.003919033
 21
109.5500751549
  0
LINE
  5
504
100
AcDbEntity
  8
RUNDUNGEN
100
AcDbLine
 62
7
  6
CONTINUOUS
 10
134.607366661
 20
121.1714286133
 11
134.6781754965
 21
120.9885038336
  0
LINE
  5
505
100
AcDbEntity
  8
0
100
AcDbLine
 62
7
  6
CONTINUOUS
 10
138.0282110851
 20
106.0530343521
 11
138.0541857572
 21
105.9613938865
  0
LINE
  5
506
100
AcDbEntity
  8
RUNDUNGEN
100
AcDbLine
 62
7
  6
CONTINUOUS
 10
143.9054649103
 20
96.4702892937
 11
144.6303859246
 21
93.6802127893
  0
LINE
  5
507
100
AcDbEntity
  8
0
100
AcDbLine
 62
7
  6
CONTINUOUS
 10
138.0139474744
 20
105.1863367958
 11
138.0377699674
 21
105.0941130249
  0
LINE
  5
508
100
AcDbEntity
  8
0
100
AcDbLine
 62
7
  6
CONTINUOUS
 10
138.1711095983
 20
105.0899616463
 11
138.1478561815
 21
105.2004637814
  0
LINE
  5
509
100
AcDbEntity
  8
0
100
AcDbLine
 62
7
  6
CONTINUOUS
 10
138.1874449494
 20
105.9420776611
 11
138.1617524326
 21
106.0702923175
  0
LINE
  5
50A
100
AcDbEntity
  8
RUNDUNGEN
100
AcDbLine
 62
7
  6
CONTINUOUS
 10
149.6353821682
 20
103.1986308195
 11
149.6353821682
 21
109.1986308195
  0
LINE
  5
50B
100
AcDbEntity
  8
RUNDUNGEN
100
AcDbLine
 62
7
  6
CONTINUOUS
 10
136.1637915368
 20
76.6651513871
 11
137.6823764046
 21
79.2954175337
  0
LINE
  5
50C
100
AcDbEntity
  8
RUNDUNGEN
100
AcDbLine
 62
7
  6
CONTINUOUS
 10
143.4207363506
 20
89.2345485123
 11
144.9393255298
 21
91.8648221265
  0
LINE
  5
50D
100
AcDbEntity
  8
RUNDUNGEN
100
AcDbLine
 62
7
  6
CONTINUOUS
 10
123.5002968721
 20
63.9313352265
 11
128.6964492948
 21
66.9313352265
  0
LINE
  5
50E
100
AcDbEntity
  8
RUNDUNGEN
100
AcDbLine
 62
7
  6
CONTINUOUS
 10
111.3368936803
 20
150.0659264125
 11
108.2997239447
 21
150.0659264125
  0
LINE
  5
50F
100
AcDbEntity
  8
RUNDUNGEN
100
AcDbLine
 62
7
  6
CONTINUOUS
 10
96.8230040527
 20
150.0659264125
 11
93.7858269404
 21
150.0659264125
  0
LINE
  5
510
100
AcDbEntity
  8
RUNDUNGEN
100
AcDbLine
 62
7
  6
CONTINUOUS
 10
128.6964492948
 20
145.4659264125
 11
123.5002968721
 21
148.4659264125
  0
LINE
  5
511
100
AcDbEntity
  8
RUNDUNGEN
100
AcDbLine
 62
7
  6
CONTINUOUS
 10
144.9393212184
 20
120.5324469801
 11
143.4207363506
 21
123.1627131267
  0
LINE
  5
512
100
AcDbEntity
  8
RUNDUNGEN
100
AcDbLine
 62
7
  6
CONTINUOUS
 10
137.6823764046
 20
133.1018441053
 11
136.1637872254
 21
135.7321177195
  0
LINE
  5
513
100
AcDbEntity
  8
RUNDUNGEN
100
AcDbLine
 62
7
  6
CONTINUOUS
 10
214.802345743
 20
62.3313352265
 11
242.802345743
 21
62.3313352265
  0
LWPOLYLINE
  5
514
100
AcDbEntity
  8
RUNDUNGEN
100
AcDbPolyline
 62
7
  6
CONTINUOUS
 90
3
 70
0
 10
229.052345743
 20
63.7973606303
 10
229.2088560251
 20
63.809684302
 10
229.361438867
 20
63.8463288534
  0
LINE
  5
515
100
AcDbEntity
  8
0
100
AcDbLine
 62
7
  6
CONTINUOUS
 10
228.552345743
 20
63.7973606303
 11
229.052345743
 21
63.7973606303
  0
LWPOLYLINE
  5
516
100
AcDbEntity
  8
RUNDUNGEN
100
AcDbPolyline
 62
7
  6
CONTINUOUS
 90
11
 70
0
 10
228.552345743
 20
63.7973606303
 10
228.3958354609
 20
63.809684302
 10
228.2432526189
 20
63.8463288534
 10
228.0982890611
 20
63.9063878309
 10
227.9645132201
 20
63.9883779821
 10
227.8452264779
 20
64.0902663334
 10
227.743337811
 20
64.2095629049
 10
227.6613632945
 20
64.3433228824
 10
227.6013091484
 20
64.4882823298
 10
227.5646630989
 20
64.6408902832
 10
227.552345743
 20
64.7973606303
  0
LWPOLYLINE
  5
517
100
AcDbEntity
  8
0
100
AcDbPolyline
 62
7
  6
CONTINUOUS
 90
9
 70
0
 10
214.4925884746
 20
135.5112975144
 10
214.3477510093
 20
135.4511802381
 10
214.2141523223
 20
135.3692021316
 10
214.0951154706
 20
135.2674651136
 10
213.9933784511
 20
135.1483355022
 10
213.9115522572
 20
135.0148902146
 10
213.8514833966
 20
134.8700957967
 10
213.8147154035
 20
134.717281296
 10
213.802345743
 20
134.5604818463
  0
LINE
  5
518
100
AcDbEntity
  8
0
100
AcDbLine
 62
2
  6
CONTINUOUS
 10
213.4650959738
 20
131.1761458392
 11
209.752345743
 21
127.4633956084
  0
LWPOLYLINE
  5
519
100
AcDbEntity
  8
RUNDUNGEN
100
AcDbPolyline
 62
7
  6
CONTINUOUS
 90
5
 70
0
 10
230.6450897574
 20
76.3530451361
 10
232.1197461819
 20
76.623171884
 10
232.902529656
 20
76.7403375788
 10
233.7164539787
 20
76.8174194009
 10
234.3405337493
 20
76.8368387621
  0
LINE
  5
51A
100
AcDbEntity
  8
RUNDUNGEN
100
AcDbLine
 62
7
  6
CONTINUOUS
 10
229.8751976546
 20
76.2351685769
 11
230.6450897574
 21
76.3530451361
  0
LINE
  5
51B
100
AcDbEntity
  8
RUNDUNGEN
100
AcDbLine
 62
7
  6
CONTINUOUS
 10
229.8790144335
 20
76.2356204919
 11
229.882999545
 21
76.236116722
  0
LINE
  5
51C
100
AcDbEntity
  8
RUNDUNGEN
100
AcDbLine
 62
7
  6
CONTINUOUS
 10
242.802345743
 20
76.8367797927
 11
234.3405335621
 21
76.8367797927
  0
LINE
  5
51D
100
AcDbEntity
  8
RUNDUNGEN
100
AcDbLine
 62
7
  6
CONTINUOUS
 10
223.2641542074
 20
76.8367797927
 11
214.802345743
 21
76.8367797927
  0
LWPOLYLINE
  5
51E
100
AcDbEntity
  8
RUNDUNGEN
100
AcDbPolyline
 62
7
  6
CONTINUOUS
 90
8
 70
0
 10
223.2641542061
 20
76.8368526754
 10
223.8818593982
 20
76.8178094092
 10
224.6784180855
 20
76.7433036734
 10
225.4514887808
 20
76.6288552826
 10
226.2005642629
 20
76.4935518643
 10
226.9273630232
 20
76.3588006094
 10
227.6464163335
 20
76.2457629908
 10
227.7223893314
 20
76.236031254
  0
LINE
  5
51F
100
AcDbEntity
  8
RUNDUNGEN
100
AcDbLine
 62
7
  6
CONTINUOUS
 10
214.802345743
 20
76.8367797927
 11
214.6451695482
 21
76.8492092311
  0
LWPOLYLINE
  5
520
100
AcDbEntity
  8
RUNDUNGEN
100
AcDbPolyline
 62
7
  6
CONTINUOUS
 90
5
 70
0
 10
214.0951061505
 20
77.1298058495
 10
214.2147249748
 20
77.0276433192
 10
214.3488375326
 20
76.9455276966
 10
214.4939002691
 20
76.885537768
 10
214.6456398195
 20
76.8491720423
  0
LWPOLYLINE
  5
521
100
AcDbEntity
  8
RUNDUNGEN
100
AcDbPolyline
 62
7
  6
CONTINUOUS
 90
6
 70
0
 10
214.0951154706
 20
77.1297965255
 10
213.9933784511
 20
77.2489261369
 10
213.9115522572
 20
77.3823714245
 10
213.8514833966
 20
77.5271658423
 10
213.8147154035
 20
77.679980343
 10
213.802345743
 20
77.8367797927
  0
LINE
  5
522
100
AcDbEntity
  8
AUSFORMSCHRAEGEN
100
AcDbLine
 62
7
  6
CONTINUOUS
 10
243.802345743
 20
81.1975329987
 11
245.0616151642
 21
81.2855896947
  0
LINE
  5
523
100
AcDbEntity
  8
AUSFORMSCHRAEGEN
100
AcDbLine
 62
7
  6
CONTINUOUS
 10
212.5430763218
 20
81.2855896947
 11
213.802345743
 21
81.1975329987
  0
LINE
  5
524
100
AcDbEntity
  8
0
100
AcDbLine
 62
2
  6
CONTINUOUS
 10
226.5057938896
 20
138.3159264125
 11
223.5005611739
 21
135.3106936968
  0
LINE
  5
525
100
AcDbEntity
  8
0
100
AcDbLine
 62
2
  6
CONTINUOUS
 10
219.8096690872
 20
131.6198016101
 11
212.4384982966
 21
124.2486308195
  0
LINE
  5
526
100
AcDbEntity
  8
RUNDUNGEN
100
AcDbLine
 62
7
  6
CONTINUOUS
 10
235.3382360092
 20
135.8282659752
 11
235.336593011
 21
135.8272624507
  0
LINE
  5
527
100
AcDbEntity
  8
0
100
AcDbLine
 62
7
  6
CONTINUOUS
 10
235.3382350993
 20
135.8282674582
 11
235.772848895
 21
136.087896299
  0
LWPOLYLINE
  5
528
100
AcDbEntity
  8
0
100
AcDbPolyline
 62
7
  6
CONTINUOUS
 90
5
 70
0
 10
235.772848895
 20
136.087896299
 10
236.453978917
 20
136.4771407831
 10
237.1871380909
 20
136.8780902033
 10
237.96262684
 20
137.2870687674
 10
238.7716861567
 20
137.7008698167
  0
LINE
  5
529
100
AcDbEntity
  8
0
100
AcDbLine
 62
7
  6
CONTINUOUS
 10
238.7716861567
 20
137.7008698167
 11
239.3361770083
 21
137.9830255258
  0
LINE
  5
52A
100
AcDbEntity
  8
0
100
AcDbLine
 62
7
  6
CONTINUOUS
 10
239.3361770083
 20
137.9830255258
 11
243.2426882223
 21
139.9000610478
  0
LINE
  5
52B
100
AcDbEntity
  8
RUNDUNGEN
100
AcDbLine
 62
7
  6
CONTINUOUS
 10
239.3090390137
 20
137.9695743133
 11
239.308971445
 21
137.9695411927
  0
LINE
  5
52C
100
AcDbEntity
  8
0
100
AcDbLine
 62
7
  6
CONTINUOUS
 10
234.9256034494
 20
136.0524387441
 11
235.6733089472
 21
136.4171190821
  0
LINE
  5
52D
100
AcDbEntity
  8
RUNDUNGEN
100
AcDbLine
 62
7
  6
CONTINUOUS
 10
239.3090389732
 20
74.4276872426
 11
239.3089714167
 21
74.4277203573
  0
LINE
  5
52E
100
AcDbEntity
  8
RUNDUNGEN
100
AcDbLine
 62
7
  6
CONTINUOUS
 10
243.2426882223
 20
72.4972005913
 11
239.3093162245
 21
74.4275513228
  0
LWPOLYLINE
  5
52F
100
AcDbEntity
  8
RUNDUNGEN
100
AcDbPolyline
 62
7
  6
CONTINUOUS
 90
4
 70
0
 10
239.3092482639
 20
74.4275859422
 10
238.7716544667
 20
74.6964078774
 10
237.9625792005
 20
75.110217649
 10
237.1870847574
 20
75.5192000357
  0
LINE
  5
530
100
AcDbEntity
  8
RUNDUNGEN
100
AcDbLine
 62
7
  6
CONTINUOUS
 10
237.1869886032
 20
75.5192526205
 11
236.4539288227
 21
75.9201486357
  0
LINE
  5
531
100
AcDbEntity
  8
RUNDUNGEN
100
AcDbLine
 62
7
  6
CONTINUOUS
 10
236.4536645049
 20
75.9202996858
 11
235.772821757
 21
76.3093818807
  0
LINE
  5
532
100
AcDbEntity
  8
RUNDUNGEN
100
AcDbLine
 62
7
  6
CONTINUOUS
 10
235.7726799678
 20
76.3094665823
 11
235.3382323322
 21
76.5689956715
  0
LINE
  5
533
100
AcDbEntity
  8
RUNDUNGEN
100
AcDbLine
 62
7
  6
CONTINUOUS
 10
235.3382333323
 20
76.5689973015
 11
235.336593011
 21
76.5699991883
  0
LWPOLYLINE
  5
534
100
AcDbEntity
  8
RUNDUNGEN
100
AcDbPolyline
 62
7
  6
CONTINUOUS
 90
3
 70
0
 10
235.336593011
 20
76.5699991883
 10
235.2662295941
 20
76.6157949013
 10
235.200336233
 20
76.6639598201
  0
LINE
  5
535
100
AcDbEntity
  8
RUNDUNGEN
100
AcDbLine
 62
7
  6
CONTINUOUS
 10
213.851055884
 20
77.5284818781
 11
213.9109913552
 21
77.3834726618
  0
LINE
  5
536
100
AcDbEntity
  8
RUNDUNGEN
100
AcDbLine
 62
7
  6
CONTINUOUS
 10
209.752345743
 20
106.1986308195
 11
209.752345743
 21
84.2782818455
  0
LINE
  5
537
100
AcDbEntity
  8
0
100
AcDbLine
 62
7
  6
CONTINUOUS
 10
209.752345743
 20
106.1986308201
 11
209.752345743
 21
128.1189797936
  0
LINE
  5
538
100
AcDbEntity
  8
0
100
AcDbLine
 62
2
  6
CONTINUOUS
 10
232.4067112321
 20
138.3159264125
 11
218.3394156391
 21
124.2486308195
  0
LINE
  5
539
100
AcDbEntity
  8
RUNDUNGEN
100
AcDbLine
 62
7
  6
CONTINUOUS
 10
235.0818816332
 20
135.6341265006
 11
235.0817644037
 21
135.6340205181
  0
LWPOLYLINE
  5
53A
100
AcDbEntity
  8
0
100
AcDbPolyline
 62
7
  6
CONTINUOUS
 90
5
 70
0
 10
235.0818909318
 20
135.6341166497
 10
235.1363157754
 20
135.6816703365
 10
235.200336233
 20
135.7333018189
 10
235.2662295941
 20
135.7814667378
 10
235.336593011
 20
135.8272624507
  0
LWPOLYLINE
  5
53B
100
AcDbEntity
  8
RUNDUNGEN
100
AcDbPolyline
 62
7
  6
CONTINUOUS
 90
11
 70
0
 10
242.802345743
 20
88.7345485123
 10
242.9607884923
 20
88.7471804203
 10
243.1133679413
 20
88.7841458649
 10
243.2578445565
 20
88.8443121254
 10
243.3910777531
 20
88.9262202249
 10
243.5098348562
 20
89.0278242733
 10
243.6114059634
 20
89.1468227602
 10
243.6928784594
 20
89.2796293097
 10
243.7528843291
 20
89.4239420147
 10
243.7898684105
 20
89.5770736485
 10
243.802345743
 20
89.7345485123
  0
LWPOLYLINE
  5
53C
100
AcDbEntity
  8
RUNDUNGEN
100
AcDbPolyline
 62
7
  6
CONTINUOUS
 90
8
 70
0
 10
214.802345743
 20
86.5664258645
 10
214.6058055913
 20
86.5509141356
 10
214.4173153669
 20
86.5057640951
 10
214.2441204165
 20
86.4323676201
 10
214.0928231661
 20
86.334060416
 10
213.9691087983
 20
86.2146137333
 10
213.8775013814
 20
86.0788613562
 10
213.8212749492
 20
85.9323773211
  0
LINE
  5
53D
100
AcDbEntity
  8
RUNDUNGEN
100
AcDbLine
 62
7
  6
CONTINUOUS
 10
214.802345743
 20
86.5664258645
 11
242.802345743
 21
86.5664258645
  0
LWPOLYLINE
  5
53E
100
AcDbEntity
  8
RUNDUNGEN
100
AcDbPolyline
 62
7
  6
CONTINUOUS
 90
8
 70
0
 10
242.802345743
 20
86.5664258645
 10
242.9988858946
 20
86.5511904164
 10
243.1873761191
 20
86.5057640951
 10
243.3605710695
 20
86.4324549502
 10
243.5118683199
 20
86.334060416
 10
243.6355826877
 20
86.2146667094
 10
243.7271901045
 20
86.0788613562
 10
243.7834165368
 20
85.9316833512
  0
LWPOLYLINE
  5
53F
100
AcDbEntity
  8
RUNDUNGEN
100
AcDbPolyline
 62
7
  6
CONTINUOUS
 90
11
 70
0
 10
214.802345743
 20
88.7345485123
 10
214.6439029937
 20
88.7471804203
 10
214.4913235447
 20
88.7841458649
 10
214.3468469295
 20
88.8443121254
 10
214.2136137328
 20
88.9262202249
 10
214.0948566297
 20
89.0278242733
 10
213.9932855225
 20
89.1468227602
 10
213.9118130266
 20
89.2796293097
 10
213.8518071569
 20
89.4239420147
 10
213.8148230754
 20
89.5770736485
 10
213.802345743
 20
89.7345485123
  0
LINE
  5
540
100
AcDbEntity
  8
RUNDUNGEN
100
AcDbLine
 62
7
  6
CONTINUOUS
 10
235.2003475613
 20
76.6639526047
 11
235.1363039579
 21
76.715602357
  0
LINE
  5
541
100
AcDbEntity
  8
RUNDUNGEN
100
AcDbLine
 62
7
  6
CONTINUOUS
 10
235.1363039579
 20
76.715602357
 11
235.081899616
 21
76.7631368707
  0
LINE
  5
542
100
AcDbEntity
  8
RUNDUNGEN
100
AcDbLine
 62
7
  6
CONTINUOUS
 10
235.0818816332
 20
76.7631351385
 11
235.0817644037
 21
76.7632411209
  0
LINE
  5
543
100
AcDbEntity
  8
RUNDUNGEN
100
AcDbLine
 62
7
  6
CONTINUOUS
 10
213.802345743
 20
140.8174561283
 11
213.802345743
 21
140.7978304081
  0
LINE
  5
544
100
AcDbEntity
  8
RUNDUNGEN
100
AcDbLine
 62
7
  6
CONTINUOUS
 10
213.802345743
 20
63.3313352265
 11
213.802345743
 21
71.5994312309
  0
LINE
  5
545
100
AcDbEntity
  8
RUNDUNGEN
100
AcDbLine
 62
7
  6
CONTINUOUS
 10
213.802345743
 20
77.8367797927
 11
213.802345743
 21
86.0559996862
  0
LINE
  5
546
100
AcDbEntity
  8
0
100
AcDbLine
 62
7
  6
CONTINUOUS
 10
213.802345743
 20
85.7795926809
 11
213.802345743
 21
86.0559996862
  0
LINE
  5
547
100
AcDbEntity
  8
RUNDUNGEN
100
AcDbLine
 62
7
  6
CONTINUOUS
 10
213.802345743
 20
89.7345485123
 11
213.802345743
 21
94.2537371749
  0
LINE
  5
548
100
AcDbEntity
  8
RUNDUNGEN
100
AcDbLine
 62
7
  6
CONTINUOUS
 10
213.802345743
 20
131.1997286404
 11
213.802345743
 21
134.5604818463
  0
LINE
  5
549
100
AcDbEntity
  8
0
100
AcDbLine
 62
7
  6
CONTINUOUS
 10
213.802345743
 20
140.8174561283
 11
213.802345743
 21
149.0659264125
  0
LINE
  5
54A
100
AcDbEntity
  8
RUNDUNGEN
100
AcDbLine
 62
7
  6
CONTINUOUS
 10
213.802345743
 20
141.4075419722
 11
213.802345743
 21
149.0659264125
  0
LINE
  5
54B
100
AcDbEntity
  8
0
100
AcDbLine
 62
2
  6
CONTINUOUS
 10
233.802345743
 20
133.8106435809
 11
224.2403329816
 21
124.2486308195
  0
LWPOLYLINE
  5
54C
100
AcDbEntity
  8
0
100
AcDbPolyline
 62
7
  6
CONTINUOUS
 90
4
 70
0
 10
215.715521319
 20
87.3192654344
 10
215.5436815757
 20
87.271987687
 10
215.3686075113
 20
87.2257342384
 10
215.1903618418
 20
87.1806409417
  0
LINE
  5
54D
100
AcDbEntity
  8
0
100
AcDbLine
 62
7
  6
CONTINUOUS
 10
215.1903618418
 20
87.1806409417
 11
214.5644408717
 21
87.0272881461
  0
LINE
  5
54E
100
AcDbEntity
  8
0
100
AcDbLine
 62
7
  6
CONTINUOUS
 10
214.802345743
 20
88.7345485123
 11
242.802345743
 21
88.7345485123
  0
LINE
  5
54F
100
AcDbEntity
  8
0
100
AcDbLine
 62
7
  6
CONTINUOUS
 10
243.0402506142
 20
87.0272881461
 11
242.3184687362
 21
87.2046410818
  0
LINE
  5
550
100
AcDbEntity
  8
0
100
AcDbLine
 62
7
  6
CONTINUOUS
 10
242.3184687362
 20
87.2046410818
 11
242.1195611314
 21
87.2563036554
  0
LINE
  5
551
100
AcDbEntity
  8
0
100
AcDbLine
 62
7
  6
CONTINUOUS
 10
242.1195611314
 20
87.2563036554
 11
241.9251078933
 21
87.3092240176
  0
LWPOLYLINE
  5
552
100
AcDbEntity
  8
0
100
AcDbPolyline
 62
7
  6
CONTINUOUS
 90
25
 70
0
 10
241.9251078933
 20
87.3092240176
 10
241.7351539949
 20
87.3632188003
 10
241.5497099552
 20
87.4181270172
 10
241.3687844
 20
87.4737946072
 10
241.1923887567
 20
87.5300723947
 10
241.0205775015
 20
87.5868021873
 10
240.8532033171
 20
87.6439036456
 10
240.6902536617
 20
87.701263098
 10
240.5313612834
 20
87.7589007473
 10
240.3762470165
 20
87.8168213589
 10
240.2246209156
 20
87.8750476413
 10
240.0761961865
 20
87.9336173168
 10
239.9306867858
 20
87.9925862329
 10
239.7878082148
 20
88.052022958
 10
239.647275337
 20
88.1120091436
 10
239.5088021816
 20
88.1726399926
 10
239.3721169692
 20
88.2340185837
 10
239.2369155771
 20
88.296281927
 10
239.103055073
 20
88.3595084338
 10
238.9702590423
 20
88.423851426
 10
238.8386492587
 20
88.4892808913
 10
238.7082387636
 20
88.5558210307
 10
238.579098467
 20
88.6234738797
 10
238.4512966671
 20
88.692248307
 10
238.3748165062
 20
88.7345485123
  0
LWPOLYLINE
  5
553
100
AcDbEntity
  8
0
100
AcDbPolyline
 62
7
  6
CONTINUOUS
 90
10
 70
0
 10
243.0407063788
 20
87.0271763955
 10
243.1118572496
 20
87.0068953836
 10
243.2567488257
 20
86.9467958674
 10
243.3904151753
 20
86.8648101354
 10
243.5095335431
 20
86.7630254384
 10
243.6113194656
 20
86.6438444923
 10
243.6932044477
 20
86.5102801809
 10
243.7532725417
 20
86.3654156255
 10
243.7899959551
 20
86.2126741738
 10
243.802345743
 20
86.0559996862
  0
LINE
  5
554
100
AcDbEntity
  8
RUNDUNGEN
100
AcDbLine
 62
7
  6
CONTINUOUS
 10
235.0817644037
 20
76.7632411209
 11
235.0117811284
 21
76.8367797927
  0
LWPOLYLINE
  5
555
100
AcDbEntity
  8
0
100
AcDbPolyline
 62
7
  6
CONTINUOUS
 90
10
 70
0
 10
213.802345743
 20
86.0559996862
 10
213.8145960419
 20
86.2120457113
 10
213.8511318019
 20
86.3645317564
 10
213.9111109226
 20
86.5095418503
 10
213.9930834733
 20
86.6434471978
 10
214.095153742
 20
86.7630212363
 10
214.214663416
 20
86.8650914502
 10
214.3486743559
 20
86.947168733
 10
214.493716191
 20
87.007182003
 10
214.5639893822
 20
87.0271774456
  0
LINE
  5
556
100
AcDbEntity
  8
RUNDUNGEN
100
AcDbLine
 62
7
  6
CONTINUOUS
 10
213.8212749492
 20
85.9323773211
 11
213.802345743
 21
85.7795926809
  0
LINE
  5
557
100
AcDbEntity
  8
0
100
AcDbLine
 62
2
  6
CONTINUOUS
 10
237.5308909825
 20
131.638271478
 11
230.141250324
 21
124.2486308195
  0
LINE
  5
558
100
AcDbEntity
  8
0
100
AcDbLine
 62
2
  6
CONTINUOUS
 10
243.0461442472
 20
131.2526074002
 11
236.0421676665
 21
124.2486308195
  0
LINE
  5
559
100
AcDbEntity
  8
RUNDUNGEN
100
AcDbLine
 62
7
  6
CONTINUOUS
 10
218.9668807282
 20
96.3050447852
 11
214.5642387077
 21
95.2252955472
  0
LINE
  5
55A
100
AcDbEntity
  8
RUNDUNGEN
100
AcDbLine
 62
7
  6
CONTINUOUS
 10
243.0404508535
 20
95.2252960192
 11
238.6378285917
 21
96.3050404098
  0
LWPOLYLINE
  5
55B
100
AcDbEntity
  8
RUNDUNGEN
100
AcDbPolyline
 62
7
  6
CONTINUOUS
 90
4
 70
0
 10
238.6387472401
 20
96.3047686158
 10
238.5627020825
 20
96.3241633188
 10
238.4853664891
 20
96.3454160062
 10
238.4719035377
 20
96.3492716347
  0
LINE
  5
55C
100
AcDbEntity
  8
RUNDUNGEN
100
AcDbLine
 62
7
  6
CONTINUOUS
 10
223.802345743
 20
73.054331685
 11
223.802345743
 21
76.8202607399
  0
LINE
  5
55D
100
AcDbEntity
  8
RUNDUNGEN
100
AcDbLine
 62
7
  6
CONTINUOUS
 10
223.802345743
 20
100.8847956323
 11
223.802345743
 21
106.1986308201
  0
LINE
  5
55E
100
AcDbEntity
  8
0
100
AcDbLine
 62
7
  6
CONTINUOUS
 10
223.802345743
 20
133.7640269321
 11
223.802345743
 21
134.2548506515
  0
LINE
  5
55F
100
AcDbEntity
  8
RUNDUNGEN
100
AcDbLine
 62
7
  6
CONTINUOUS
 10
223.8023449721
 20
105.0203244158
 11
223.7862275303
 21
104.2574268176
  0
LINE
  5
560
100
AcDbEntity
  8
RUNDUNGEN
100
AcDbLine
 62
7
  6
CONTINUOUS
 10
223.7862275303
 20
104.2574268176
 11
223.7239224806
 21
103.3583738231
  0
LWPOLYLINE
  5
561
100
AcDbEntity
  8
RUNDUNGEN
100
AcDbPolyline
 62
7
  6
CONTINUOUS
 90
8
 70
0
 10
223.7239224806
 20
103.3583738231
 10
223.6166740111
 20
102.5046018034
 10
223.4685008371
 20
101.7074109252
 10
223.2877929959
 20
100.984989054
 10
223.0745307787
 20
100.3182239587
 10
222.8266180444
 20
99.6966808028
 10
222.5447045965
 20
99.1240107147
 10
222.2271866686
 20
98.6020880711
  0
LINE
  5
562
100
AcDbEntity
  8
0
100
AcDbLine
 62
2
  6
CONTINUOUS
 10
247.3947623369
 20
129.7003081475
 11
241.943085009
 21
124.2486308195
  0
LWPOLYLINE
  5
563
100
AcDbEntity
  8
RUNDUNGEN
100
AcDbPolyline
 62
7
  6
CONTINUOUS
 90
7
 70
0
 10
238.4721318013
 20
96.3492393642
 10
238.2192222961
 20
96.4300878674
 10
237.7979576882
 20
96.5997042419
 10
237.3651933351
 20
96.8192487565
 10
236.9163755345
 20
97.0970668851
 10
236.4486776377
 20
97.4448268994
 10
236.1113961946
 20
97.7359457573
  0
LINE
  5
564
100
AcDbEntity
  8
RUNDUNGEN
100
AcDbLine
 62
7
  6
CONTINUOUS
 10
227.552345743
 20
64.7973606303
 11
227.552345743
 21
73.3190954948
  0
LINE
  5
565
100
AcDbEntity
  8
RUNDUNGEN
100
AcDbLine
 62
7
  6
CONTINUOUS
 10
227.552345743
 20
99.6165141004
 11
227.552345743
 21
106.1986308201
  0
LWPOLYLINE
  5
566
100
AcDbEntity
  8
0
100
AcDbPolyline
 62
7
  6
CONTINUOUS
 90
6
 70
0
 10
234.0267340685
 20
133.4391437243
 10
234.1940721436
 20
134.0757708943
 10
234.3953615971
 20
134.6144548887
 10
234.6234612737
 20
135.0591880157
 10
234.8731626971
 20
135.4148211109
 10
235.0817644037
 20
135.6340205181
  0
LINE
  5
567
100
AcDbEntity
  8
RUNDUNGEN
100
AcDbLine
 62
7
  6
CONTINUOUS
 10
222.2271866686
 20
98.6020880711
 11
221.9787776481
 21
98.2653799234
  0
LINE
  5
568
100
AcDbEntity
  8
RUNDUNGEN
100
AcDbLine
 62
7
  6
CONTINUOUS
 10
221.9787776481
 20
98.2653799234
 11
221.9790164046
 21
98.2656775296
  0
LWPOLYLINE
  5
569
100
AcDbEntity
  8
RUNDUNGEN
100
AcDbPolyline
 62
7
  6
CONTINUOUS
 90
5
 70
0
 10
221.9790346712
 20
98.2656628425
 10
221.858205888
 20
98.1195251152
 10
221.729997415
 20
97.9741360058
 10
221.6046030274
 20
97.8428331873
 10
221.4928297516
 20
97.7355292156
  0
LINE
  5
56A
100
AcDbEntity
  8
02___PRT_ALL_AXES
100
AcDbLine
 62
7
  6
CENTER
 10
206.752345743
 20
106.1986308195
 11
250.852345743
 21
106.1986308195
  0
LINE
  5
56B
100
AcDbEntity
  8
0
100
AcDbLine
 62
2
  6
CONTINUOUS
 10
209.752345743
 20
106.1986308201
 11
247.852345743
 21
106.1986308201
  0
LINE
  5
56C
100
AcDbEntity
  8
RUNDUNGEN
100
AcDbLine
 62
7
  6
CONTINUOUS
 10
236.1113963726
 20
97.7359459556
 11
236.1118780919
 21
97.7355064885
  0
LWPOLYLINE
  5
56D
100
AcDbEntity
  8
RUNDUNGEN
100
AcDbPolyline
 62
7
  6
CONTINUOUS
 90
5
 70
0
 10
236.1118780919
 20
97.7355064885
 10
235.9991556438
 20
97.8437554751
 10
235.8735495822
 20
97.9753830879
 10
235.7453831061
 20
98.1207966259
 10
235.6256485802
 20
98.2656725812
  0
LINE
  5
56E
100
AcDbEntity
  8
RUNDUNGEN
100
AcDbLine
 62
7
  6
CONTINUOUS
 10
235.6257169842
 20
98.2657276681
 11
235.6259802612
 21
98.2653993655
  0
LINE
  5
56F
100
AcDbEntity
  8
0
100
AcDbLine
 62
7
  6
CONTINUOUS
 10
223.5780639146
 20
133.4386469461
 11
223.6503983099
 21
133.0145175537
  0
LINE
  5
570
100
AcDbEntity
  8
RUNDUNGEN
100
AcDbLine
 62
7
  6
CONTINUOUS
 10
230.052345743
 20
106.1986308201
 11
230.052345743
 21
99.6163857326
  0
LINE
  5
571
100
AcDbEntity
  8
RUNDUNGEN
100
AcDbLine
 62
7
  6
CONTINUOUS
 10
230.052345743
 20
73.3190654062
 11
230.052345743
 21
64.7973606303
  0
LINE
  5
572
100
AcDbEntity
  8
0
100
AcDbLine
 62
7
  6
CONTINUOUS
 10
233.9542941031
 20
133.014515209
 11
234.0267340685
 21
133.4391437243
  0
LINE
  5
573
100
AcDbEntity
  8
0
100
AcDbLine
 62
2
  6
CONTINUOUS
 10
247.852345743
 20
124.256974211
 11
247.8440023515
 21
124.2486308195
  0
LINE
  5
574
100
AcDbEntity
  8
RUNDUNGEN
100
AcDbLine
 62
7
  6
CONTINUOUS
 10
221.4928297516
 20
97.7355292156
 11
221.4932940422
 21
97.7359526791
  0
LWPOLYLINE
  5
575
100
AcDbEntity
  8
RUNDUNGEN
100
AcDbPolyline
 62
7
  6
CONTINUOUS
 90
7
 70
0
 10
221.493297331
 20
97.7359490943
 10
221.1561590275
 20
97.444945595
 10
220.6885136194
 20
97.0972004706
 10
220.2395964953
 20
96.8193046969
 10
219.8067051935
 20
96.5996927713
 10
219.385401123
 20
96.4300646768
 10
219.1325049767
 20
96.3492237183
  0
LWPOLYLINE
  5
576
100
AcDbEntity
  8
RUNDUNGEN
100
AcDbPolyline
 62
7
  6
CONTINUOUS
 90
9
 70
0
 10
235.6259802612
 20
98.2653993655
 10
235.3774004869
 20
98.6026527486
 10
235.0593060248
 20
99.1252112975
 10
234.7775679479
 20
99.6978769298
 10
234.5297956448
 20
100.3192433112
 10
234.3164658526
 20
100.9865087205
 10
234.1356973468
 20
101.7096681117
 10
233.9875505721
 20
102.5075236558
 10
233.8804875465
 20
103.361234017
  0
LINE
  5
577
100
AcDbEntity
  8
0
100
AcDbLine
 62
7
  6
CONTINUOUS
 10
223.4108065581
 20
134.0751784936
 11
223.5780639146
 21
133.4386469461
  0
LWPOLYLINE
  5
578
100
AcDbEntity
  8
RUNDUNGEN
100
AcDbPolyline
 62
7
  6
CONTINUOUS
 90
3
 70
0
 10
233.8804875465
 20
103.361234017
 10
233.8183674976
 20
104.2589364477
 10
233.8023458784
 20
105.0224746956
  0
LINE
  5
579
100
AcDbEntity
  8
RUNDUNGEN
100
AcDbLine
 62
7
  6
CONTINUOUS
 10
233.802345743
 20
106.1986308201
 11
233.802345743
 21
100.8848404018
  0
LINE
  5
57A
100
AcDbEntity
  8
RUNDUNGEN
100
AcDbLine
 62
7
  6
CONTINUOUS
 10
233.802345743
 20
76.8200920772
 11
233.802345743
 21
73.0543894857
  0
LINE
  5
57B
100
AcDbEntity
  8
0
100
AcDbLine
 62
7
  6
CONTINUOUS
 10
233.802345743
 20
133.7640269321
 11
233.802345743
 21
134.2548506515
  0
LINE
  5
57C
100
AcDbEntity
  8
0
100
AcDbLine
 62
7
  6
CONTINUOUS
 10
234.302345743
 20
134.3655290211
 11
234.302345743
 21
133.6847366321
  0
LWPOLYLINE
  5
57D
100
AcDbEntity
  8
RUNDUNGEN
100
AcDbPolyline
 62
7
  6
CONTINUOUS
 90
4
 70
0
 10
219.1327296822
 20
96.349288495
 10
219.1192980042
 20
96.3454122552
 10
219.04197628
 20
96.3241645275
 10
218.9668609704
 20
96.3049988713
  0
LWPOLYLINE
  5
57E
100
AcDbEntity
  8
0
100
AcDbPolyline
 62
7
  6
CONTINUOUS
 90
28
 70
0
 10
219.2300555407
 20
88.7345485123
 10
219.2056613186
 20
88.7209218031
 10
219.0924262953
 20
88.6592064312
 10
218.9780362587
 20
88.5983505755
 10
218.8625481254
 20
88.5383536875
 10
218.7460184104
 20
88.4792163112
 10
218.6284940053
 20
88.4209385367
 10
218.5100534001
 20
88.3635380833
 10
218.3906290647
 20
88.3069632567
 10
218.2702590482
 20
88.251215763
 10
218.1486964254
 20
88.1961700185
 10
218.0257672607
 20
88.1417447418
 10
217.9012665603
 20
88.0878573375
 10
217.774994621
 20
88.0344374826
 10
217.6467418361
 20
87.981419195
 10
217.51629901
 20
87.9287451945
 10
217.3834598596
 20
87.8763676739
 10
217.248016525
 20
87.8242470524
 10
217.1097599953
 20
87.772355788
 10
216.9684750875
 20
87.7206744159
 10
216.8239706507
 20
87.6692012517
 10
216.6759734786
 20
87.6179152061
 10
216.5245225184
 20
87.5669108892
 10
216.369544433
 20
87.5162480421
 10
216.2111151969
 20
87.4660435228
 10
216.0492810198
 20
87.4164068167
 10
215.8840717647
 20
87.367444186
 10
215.715521319
 20
87.3192654344
  0
LWPOLYLINE
  5
57F
100
AcDbEntity
  8
0
100
AcDbPolyline
 62
7
  6
CONTINUOUS
 90
3
 70
0
 10
222.9815283151
 20
135.05868683
 10
223.2095991295
 20
134.6138410126
 10
223.4108065581
 20
134.0751784936
  0
LINE
  5
580
100
AcDbEntity
  8
RUNDUNGEN
100
AcDbLine
 62
7
  6
CONTINUOUS
 10
243.7834165368
 20
85.9316833512
 11
243.802345743
 21
85.7795926809
  0
LWPOLYLINE
  5
581
100
AcDbEntity
  8
0
100
AcDbPolyline
 62
7
  6
CONTINUOUS
 90
11
 70
0
 10
243.802345743
 20
134.5604818463
 10
243.790124166
 20
134.7163456854
 10
243.753635602
 20
134.8687797609
 10
243.6937001308
 20
135.0137889772
 10
243.6117452395
 20
135.1477402689
 10
243.5095853355
 20
135.2674557895
 10
243.3899665111
 20
135.3696183198
 10
243.2558539533
 20
135.4517339424
 10
243.1107912169
 20
135.511723871
 10
242.9585894486
 20
135.5482003714
 10
242.802345743
 20
135.5604818463
  0
LINE
  5
582
100
AcDbEntity
  8
RUNDUNGEN
100
AcDbLine
 62
7
  6
CONTINUOUS
 10
243.802345743
 20
149.0659264125
 11
243.802345743
 21
141.4075419722
  0
LINE
  5
583
100
AcDbEntity
  8
RUNDUNGEN
100
AcDbLine
 62
7
  6
CONTINUOUS
 10
243.802345743
 20
140.8174561288
 11
243.802345743
 21
140.7978206515
  0
LINE
  5
584
100
AcDbEntity
  8
0
100
AcDbLine
 62
7
  6
CONTINUOUS
 10
243.802345743
 20
141.4075419722
 11
243.802345743
 21
140.8174561288
  0
LINE
  5
585
100
AcDbEntity
  8
RUNDUNGEN
100
AcDbLine
 62
7
  6
CONTINUOUS
 10
243.802345743
 20
134.5604818463
 11
243.802345743
 21
131.1997286404
  0
LINE
  5
586
100
AcDbEntity
  8
RUNDUNGEN
100
AcDbLine
 62
7
  6
CONTINUOUS
 10
243.802345743
 20
94.2537403039
 11
243.802345743
 21
89.7345485123
  0
LINE
  5
587
100
AcDbEntity
  8
0
100
AcDbLine
 62
7
  6
CONTINUOUS
 10
243.802345743
 20
86.0559996862
 11
243.802345743
 21
85.7795926809
  0
LINE
  5
588
100
AcDbEntity
  8
RUNDUNGEN
100
AcDbLine
 62
7
  6
CONTINUOUS
 10
243.802345743
 20
86.0559996862
 11
243.802345743
 21
77.8367797927
  0
LINE
  5
589
100
AcDbEntity
  8
RUNDUNGEN
100
AcDbLine
 62
7
  6
CONTINUOUS
 10
243.802345743
 20
71.5994312281
 11
243.802345743
 21
63.3313352265
  0
LINE
  5
58A
100
AcDbEntity
  8
0
100
AcDbLine
 62
7
  6
CONTINUOUS
 10
243.802345743
 20
71.5425336776
 11
243.802345743
 21
71.5798055103
  0
LWPOLYLINE
  5
58B
100
AcDbEntity
  8
RUNDUNGEN
100
AcDbPolyline
 62
7
  6
CONTINUOUS
 90
11
 70
0
 10
243.802345743
 20
77.8367797927
 10
243.790124166
 20
77.6809159536
 10
243.753635602
 20
77.5284818781
 10
243.6937001308
 20
77.3834726618
 10
243.6117452395
 20
77.2495213701
 10
243.5095853355
 20
77.1298058495
 10
243.3899665111
 20
77.0276433192
 10
243.2558539533
 20
76.9455276966
 10
243.1107912169
 20
76.885537768
 10
242.9585894486
 20
76.8490612676
 10
242.802345743
 20
76.8367797927
  0
LINE
  5
58C
100
AcDbEntity
  8
RUNDUNGEN
100
AcDbLine
 62
7
  6
CONTINUOUS
 10
222.5928962355
 20
76.8367797927
 11
222.5228935549
 21
76.7632147438
  0
LINE
  5
58D
100
AcDbEntity
  8
RUNDUNGEN
100
AcDbLine
 62
7
  6
CONTINUOUS
 10
222.5228935549
 20
76.7632147438
 11
222.5228054638
 21
76.763135102
  0
LINE
  5
58E
100
AcDbEntity
  8
RUNDUNGEN
100
AcDbLine
 62
7
  6
CONTINUOUS
 10
222.5227922134
 20
76.7631372259
 11
222.4683868061
 21
76.7156013872
  0
LINE
  5
58F
100
AcDbEntity
  8
0
100
AcDbLine
 62
7
  6
CONTINUOUS
 10
209.752345743
 20
124.2486308195
 11
247.852345743
 21
124.2486308195
  0
LINE
  5
590
100
AcDbEntity
  8
RUNDUNGEN
100
AcDbLine
 62
7
  6
CONTINUOUS
 10
222.5228935549
 20
135.6340468952
 11
222.5228054638
 21
135.634126537
  0
LWPOLYLINE
  5
591
100
AcDbEntity
  8
0
100
AcDbPolyline
 62
7
  6
CONTINUOUS
 90
3
 70
0
 10
222.5228935549
 20
135.6340468952
 10
222.731720657
 20
135.414592785
 10
222.9815283151
 20
135.05868683
  0
LINE
  5
592
100
AcDbEntity
  8
RUNDUNGEN
100
AcDbLine
 62
7
  6
CONTINUOUS
 10
247.852345743
 20
106.1986308195
 11
247.852345743
 21
84.2782818455
  0
LINE
  5
593
100
AcDbEntity
  8
0
100
AcDbLine
 62
7
  6
CONTINUOUS
 10
247.852345743
 20
106.1986308201
 11
247.852345743
 21
128.1189797936
  0
LWPOLYLINE
  5
594
100
AcDbEntity
  8
RUNDUNGEN
100
AcDbPolyline
 62
7
  6
CONTINUOUS
 90
3
 70
0
 10
222.4683756478
 20
76.7155930754
 10
222.4043395853
 20
76.6639485512
 10
222.338431152
 20
76.6157697095
  0
LINE
  5
595
100
AcDbEntity
  8
RUNDUNGEN
100
AcDbLine
 62
7
  6
CONTINUOUS
 10
222.3384458111
 20
76.6157811103
 11
222.2680785916
 21
76.5699867928
  0
LINE
  5
596
100
AcDbEntity
  8
RUNDUNGEN
100
AcDbLine
 62
7
  6
CONTINUOUS
 10
222.2664429922
 20
76.5689877518
 11
222.2680785916
 21
76.5699867928
  0
LINE
  5
597
100
AcDbEntity
  8
RUNDUNGEN
100
AcDbLine
 62
7
  6
CONTINUOUS
 10
222.2664440549
 20
76.568986012
 11
221.8316726204
 21
76.3092660698
  0
LINE
  5
598
100
AcDbEntity
  8
0
100
AcDbLine
 62
7
  6
CONTINUOUS
 10
221.8316726019
 20
136.0879955802
 11
222.2664484493
 21
135.8282735306
  0
LINE
  5
599
100
AcDbEntity
  8
RUNDUNGEN
100
AcDbLine
 62
7
  6
CONTINUOUS
 10
222.2680778337
 20
135.8272765691
 11
222.2664476973
 21
135.8282722692
  0
LWPOLYLINE
  5
59A
100
AcDbEntity
  8
0
100
AcDbPolyline
 62
7
  6
CONTINUOUS
 90
5
 70
0
 10
222.2680778337
 20
135.8272765691
 10
222.338431152
 20
135.7814919296
 10
222.4043395853
 20
135.7333130878
 10
222.4683756478
 20
135.6816685636
 10
222.5227979146
 20
135.6341184529
  0
LINE
  5
59B
100
AcDbEntity
  8
RUNDUNGEN
100
AcDbLine
 62
7
  6
CONTINUOUS
 10
221.8319283639
 20
76.3094188433
 11
221.1504181258
 21
75.9199545564
  0
LWPOLYLINE
  5
59C
100
AcDbEntity
  8
RUNDUNGEN
100
AcDbPolyline
 62
7
  6
CONTINUOUS
 90
3
 70
0
 10
221.1509616234
 20
75.9202651449
 10
220.4171591353
 20
75.5189557745
 10
219.6416201774
 20
75.1099602226
  0
LINE
  5
59D
100
AcDbEntity
  8
RUNDUNGEN
100
AcDbLine
 62
7
  6
CONTINUOUS
 10
219.6422082901
 20
75.1102703752
 11
218.8326157935
 21
74.6961960631
  0
LINE
  5
59E
100
AcDbEntity
  8
RUNDUNGEN
100
AcDbLine
 62
7
  6
CONTINUOUS
 10
218.8328194277
 20
74.6963002115
 11
218.2683095217
 21
74.4141368925
  0
LINE
  5
59F
100
AcDbEntity
  8
RUNDUNGEN
100
AcDbLine
 62
7
  6
CONTINUOUS
 10
218.2683420204
 20
74.4141530988
 11
214.3619917469
 21
72.4971949444
  0
LINE
  5
5A0
100
AcDbEntity
  8
RUNDUNGEN
100
AcDbLine
 62
7
  6
CONTINUOUS
 10
218.2954553956
 20
74.4275874863
 11
218.2953871462
 21
74.4275540291
  0
LINE
  5
5A1
100
AcDbEntity
  8
0
100
AcDbLine
 62
7
  6
CONTINUOUS
 10
221.9314640004
 20
136.4170793506
 11
222.6790880366
 21
136.0524387441
  0
LINE
  5
5A2
100
AcDbEntity
  8
RUNDUNGEN
100
AcDbLine
 62
7
  6
CONTINUOUS
 10
218.2954553956
 20
137.9696741527
 11
218.2953871462
 21
137.9697076099
  0
LINE
  5
5A3
100
AcDbEntity
  8
0
100
AcDbLine
 62
7
  6
CONTINUOUS
 10
214.3619917469
 20
139.9000666947
 11
218.295385937
 21
137.9697052261
  0
LWPOLYLINE
  5
5A4
100
AcDbEntity
  8
0
100
AcDbPolyline
 62
7
  6
CONTINUOUS
 90
5
 70
0
 10
218.2954553956
 20
137.9696741527
 10
218.8326157726
 20
137.7010655865
 10
219.6416201448
 20
137.2873014334
 10
220.4171591
 20
136.8783058835
 10
221.1504180959
 20
136.4773070995
  0
LINE
  5
5A5
100
AcDbEntity
  8
0
100
AcDbLine
 62
7
  6
CONTINUOUS
 10
221.1504180959
 20
136.4773070995
 11
221.8316726019
 21
136.0879955802
  0
LINE
  5
5A6
100
AcDbEntity
  8
0
100
AcDbLine
 62
7
  6
CONTINUOUS
 10
212.5430763218
 20
131.1116719444
 11
221.9418586905
 21
131.7688988316
  0
LINE
  5
5A7
100
AcDbEntity
  8
0
100
AcDbLine
 62
7
  6
CONTINUOUS
 10
234.0912884048
 20
133.6847366321
 11
234.302345743
 21
133.6847366321
  0
LINE
  5
5A8
100
AcDbEntity
  8
0
100
AcDbLine
 62
7
  6
CONTINUOUS
 10
234.1085333932
 20
133.7503441044
 11
234.302345743
 21
133.7503441044
  0
LINE
  5
5A9
100
AcDbEntity
  8
0
100
AcDbLine
 62
7
  6
CONTINUOUS
 10
234.1485769271
 20
133.902687208
 11
234.302345743
 21
133.902687208
  0
LINE
  5
5AA
100
AcDbEntity
  8
0
100
AcDbLine
 62
7
  6
CONTINUOUS
 10
234.162777996
 20
133.9567142805
 11
234.302345743
 21
133.9567142805
  0
LINE
  5
5AB
100
AcDbEntity
  8
0
100
AcDbLine
 62
7
  6
CONTINUOUS
 10
234.191067705
 20
134.0643406969
 11
234.302345743
 21
134.0643406969
  0
LINE
  5
5AC
100
AcDbEntity
  8
0
100
AcDbLine
 62
7
  6
CONTINUOUS
 10
234.2298710507
 20
134.1715747129
 11
234.302345743
 21
134.1715747129
  0
LINE
  5
5AD
100
AcDbEntity
  8
0
100
AcDbLine
 62
7
  6
CONTINUOUS
 10
234.2415074765
 20
134.2027157201
 11
234.302345743
 21
134.2027157201
  0
LINE
  5
5AE
100
AcDbEntity
  8
0
100
AcDbLine
 62
7
  6
CONTINUOUS
 10
234.2612756246
 20
134.2556185663
 11
234.302345743
 21
134.2556185663
  0
LINE
  5
5AF
100
AcDbEntity
  8
0
100
AcDbLine
 62
7
  6
CONTINUOUS
 10
235.6628327955
 20
131.7688988316
 11
245.0616151642
 21
131.1116719444
  0
LWPOLYLINE
  5
5B0
100
AcDbEntity
  8
0
100
AcDbPolyline
 62
7
  6
CONTINUOUS
 90
3
 70
0
 10
214.802345743
 20
135.5604818463
 10
214.6451695482
 20
135.5480524079
 10
214.4925884746
 20
135.5112975144
  0
LINE
  5
5B1
100
AcDbEntity
  8
0
100
AcDbLine
 62
7
  6
CONTINUOUS
 10
242.802345743
 20
135.5604818463
 11
235.0117811284
 21
135.5604818463
  0
LINE
  5
5B2
100
AcDbEntity
  8
0
100
AcDbLine
 62
7
  6
CONTINUOUS
 10
222.5928962355
 20
135.5604818463
 11
214.802345743
 21
135.5604818463
  0
LINE
  5
5B3
100
AcDbEntity
  8
0
100
AcDbLine
 62
7
  6
CONTINUOUS
 10
222.3696211893
 20
138.3159264125
 11
235.2349937786
 21
138.3159264125
  0
LWPOLYLINE
  5
5B4
100
AcDbEntity
  8
RUNDUNGEN
100
AcDbPolyline
 62
7
  6
CONTINUOUS
 90
9
 70
0
 10
214.802345743
 20
141.5659264125
 10
214.6058055913
 20
141.5626150037
 10
214.4173153669
 20
141.5537155899
 10
214.2441204165
 20
141.5388816127
 10
214.0928231661
 20
141.5191527478
 10
213.9691087983
 20
141.4950726618
 10
213.8775013814
 20
141.4677828246
 10
213.8212749492
 20
141.4387712645
 10
213.802345743
 20
141.4075419722
  0
LINE
  5
5B5
100
AcDbEntity
  8
RUNDUNGEN
100
AcDbLine
 62
7
  6
CONTINUOUS
 10
214.802345743
 20
141.5659264125
 11
242.802345743
 21
141.5659264125
  0
LWPOLYLINE
  5
5B6
100
AcDbEntity
  8
RUNDUNGEN
100
AcDbPolyline
 62
7
  6
CONTINUOUS
 90
9
 70
0
 10
242.802345743
 20
141.5659264125
 10
242.9988858946
 20
141.5630486131
 10
243.1873761191
 20
141.5537155899
 10
243.3605710695
 20
141.539018673
 10
243.5118683199
 20
141.5191527478
 10
243.6355826877
 20
141.4951558053
 10
243.7271901045
 20
141.4677828246
 10
243.7834165368
 20
141.4376821117
 10
243.802345743
 20
141.4075419722
  0
LWPOLYLINE
  5
5B7
100
AcDbEntity
  8
RUNDUNGEN
100
AcDbPolyline
 62
7
  6
CONTINUOUS
 90
9
 70
0
 10
229.361438867
 20
63.8463288534
 10
229.5064024249
 20
63.9063878309
 10
229.6401782659
 20
63.9883779821
 10
229.7594650081
 20
64.0902663334
 10
229.861353675
 20
64.2095629049
 10
229.9433281914
 20
64.3433228824
 10
230.0033823375
 20
64.4882823298
 10
230.0400283871
 20
64.6408902832
 10
230.052345743
 20
64.7973606303
  0
LINE
  5
5B8
100
AcDbEntity
  8
RUNDUNGEN
100
AcDbLine
 62
7
  6
CONTINUOUS
 10
214.802345743
 20
150.0659264125
 11
242.802345743
 21
150.0659264125
  0
LINE
  5
5B9
100
AcDbEntity
  8
0
100
AcDbLine
 62
7
  6
CONTINUOUS
 10
214.802345743
 20
150.0659264125
 11
242.802345743
 21
150.0659264125
  0
ARC
  5
5BA
100
AcDbEntity
  8
RUNDUNGEN
100
AcDbCircle
 62
7
  6
CONTINUOUS
 10
69.6208698327
 20
72.1693206466
 40
3.9999927091
100
AcDbArc
 50
74.5647289875
 51
87.6605028395
  0
ARC
  5
5BB
100
AcDbEntity
  8
RUNDUNGEN
100
AcDbCircle
 62
7
  6
CONTINUOUS
 10
72.932019886
 20
73.3298973875
 40
2.0000000057
100
AcDbArc
 50
9.7684286213
 51
74.5646197584
  0
ARC
  5
5BC
100
AcDbEntity
  8
RUNDUNGEN
100
AcDbCircle
 62
7
  6
CONTINUOUS
 10
68.3063769966
 20
79.7954175337
 40
1.0
100
AcDbArc
 50
138.0
 51
210.0
  0
ARC
  5
5BD
100
AcDbEntity
  8
RUNDUNGEN
100
AcDbCircle
 62
7
  6
CONTINUOUS
 10
69.8249659507
 20
77.1651443095
 40
1.0
100
AcDbArc
 50
210.0000255006
 51
267.6607322053
  0
ARC
  5
5BE
100
AcDbEntity
  8
RUNDUNGEN
100
AcDbCircle
 62
7
  6
CONTINUOUS
 10
69.4371970236
 20
77.8367797927
 40
1.0
100
AcDbArc
 50
209.9975408863
 51
299.9996760811
  0
ARC
  5
5BF
100
AcDbEntity
  8
RUNDUNGEN
100
AcDbCircle
 62
7
  6
CONTINUOUS
 10
56.6209274521
 20
94.6860144116
 40
3.9999721244
100
AcDbArc
 50
332.3388753264
 51
345.4335180135
  0
ARC
  5
5C0
100
AcDbEntity
  8
RUNDUNGEN
100
AcDbCircle
 62
7
  6
CONTINUOUS
 10
62.5680170507
 20
89.7345485123
 40
1.0
100
AcDbArc
 50
210.0
 51
282.0
  0
ARC
  5
5C1
100
AcDbEntity
  8
RUNDUNGEN
100
AcDbCircle
 62
7
  6
CONTINUOUS
 10
61.0494351347
 20
92.3648095462
 40
1.0
100
AcDbArc
 50
152.3379941261
 51
209.9994578529
  0
ARC
  5
5C2
100
AcDbEntity
  8
RUNDUNGEN
100
AcDbCircle
 62
7
  6
CONTINUOUS
 10
61.4371970236
 20
91.6931862533
 40
1.0
100
AcDbArc
 50
120.0
 51
210.0
  0
ARC
  5
5C3
100
AcDbEntity
  8
RUNDUNGEN
100
AcDbCircle
 62
7
  6
CONTINUOUS
 10
59.2815338
 20
96.9732328365
 40
2.0000000058
100
AcDbArc
 50
345.4353802416
 51
50.253423902
  0
ARC
  5
5C4
100
AcDbEntity
  8
RUNDUNGEN
100
AcDbCircle
 62
7
  6
CONTINUOUS
 10
56.4873458292
 20
103.1986308195
 40
1.0
100
AcDbArc
 50
180.0
 51
230.2534250243
  0
ARC
  5
5C5
100
AcDbEntity
  8
0
100
AcDbCircle
 62
7
  6
CONTINUOUS
 10
72.7984129558
 20
89.014983023
 40
2.25
100
AcDbArc
 50
299.9987675046
 51
120.0008860385
  0
ARC
  5
5C6
100
AcDbEntity
  8
RUNDUNGEN
100
AcDbCircle
 62
7
  6
CONTINUOUS
 10
82.1224311253
 20
64.7973606303
 40
1.0
100
AcDbArc
 50
240.0
 51
290.2534250243
  0
ARC
  5
5C7
100
AcDbEntity
  8
RUNDUNGEN
100
AcDbCircle
 62
7
  6
CONTINUOUS
 10
76.9262787026
 20
67.7973606303
 40
1.0
100
AcDbArc
 50
189.7465749757
 51
240.0
  0
ARC
  5
5C8
100
AcDbEntity
  8
RUNDUNGEN
100
AcDbCircle
 62
7
  6
CONTINUOUS
 10
89.5613639987
 20
60.6567375052
 40
3.9999721244
100
AcDbArc
 50
32.3388970725
 51
45.4335180135
  0
ARC
  5
5C9
100
AcDbEntity
  8
RUNDUNGEN
100
AcDbCircle
 62
7
  6
CONTINUOUS
 10
88.9108779127
 20
64.1044994044
 40
2.0000000058
100
AcDbArc
 50
45.4353802416
 51
110.253423902
  0
ARC
  5
5CA
100
AcDbEntity
  8
RUNDUNGEN
100
AcDbCircle
 62
7
  6
CONTINUOUS
 10
96.8230040527
 20
63.3313352265
 40
1.0
100
AcDbArc
 50
270.0
 51
342.0
  0
ARC
  5
5CB
100
AcDbEntity
  8
RUNDUNGEN
100
AcDbCircle
 62
7
  6
CONTINUOUS
 10
93.7858402194
 20
63.3313352265
 40
1.0
100
AcDbArc
 50
212.3379184408
 51
269.9996649209
  0
ARC
  5
5CC
100
AcDbEntity
  8
RUNDUNGEN
100
AcDbCircle
 62
7
  6
CONTINUOUS
 10
94.5613639987
 20
63.3313352265
 40
1.0
100
AcDbArc
 50
180.0
 51
270.0
  0
ARC
  5
5CD
100
AcDbEntity
  8
RUNDUNGEN
100
AcDbCircle
 62
7
  6
CONTINUOUS
 10
59.2815338
 20
115.4240288026
 40
2.0000000057
100
AcDbArc
 50
309.7684286211
 51
14.5646197584
  0
ARC
  5
5CE
100
AcDbEntity
  8
RUNDUNGEN
100
AcDbCircle
 62
7
  6
CONTINUOUS
 10
56.4873458292
 20
109.1986308195
 40
1.0
100
AcDbArc
 50
129.7465749757
 51
180.0
  0
ARC
  5
5CF
100
AcDbEntity
  8
RUNDUNGEN
100
AcDbCircle
 62
7
  6
CONTINUOUS
 10
56.6208698327
 20
117.711280494
 40
3.9999927091
100
AcDbArc
 50
14.5647289875
 51
27.6605028395
  0
ARC
  5
5D0
100
AcDbEntity
  8
RUNDUNGEN
100
AcDbCircle
 62
7
  6
CONTINUOUS
 10
62.5680170507
 20
122.6627131267
 40
1.0
100
AcDbArc
 50
78.0
 51
150.0
  0
ARC
  5
5D1
100
AcDbEntity
  8
RUNDUNGEN
100
AcDbCircle
 62
7
  6
CONTINUOUS
 10
61.0494280966
 20
120.0324399025
 40
1.0
100
AcDbArc
 50
150.0000255007
 51
207.6607322054
  0
ARC
  5
5D2
100
AcDbEntity
  8
RUNDUNGEN
100
AcDbCircle
 62
7
  6
CONTINUOUS
 10
61.4371970236
 20
120.7040753857
 40
1.0
100
AcDbArc
 50
149.9975408863
 51
239.9996760811
  0
ARC
  5
5D3
100
AcDbEntity
  8
0
100
AcDbCircle
 62
7
  6
CONTINUOUS
 10
72.7984129558
 20
123.382278616
 40
2.25
100
AcDbArc
 50
239.9986103693
 51
60.000075518
  0
ARC
  5
5D4
100
AcDbEntity
  8
RUNDUNGEN
100
AcDbCircle
 62
7
  6
CONTINUOUS
 10
68.3063769966
 20
132.6018441053
 40
1.0
100
AcDbArc
 50
150.0
 51
222.0
  0
ARC
  5
5D5
100
AcDbEntity
  8
RUNDUNGEN
100
AcDbCircle
 62
7
  6
CONTINUOUS
 10
69.8249593099
 20
135.2321058273
 40
1.0
100
AcDbArc
 50
92.3380274666
 51
149.9996792764
  0
ARC
  5
5D6
100
AcDbEntity
  8
RUNDUNGEN
100
AcDbCircle
 62
7
  6
CONTINUOUS
 10
69.4371970236
 20
134.5604818463
 40
1.0
100
AcDbArc
 50
60.0
 51
150.0
  0
ARC
  5
5D7
100
AcDbEntity
  8
RUNDUNGEN
100
AcDbCircle
 62
7
  6
CONTINUOUS
 10
69.6209222695
 20
140.227910718
 40
3.9999741049
100
AcDbArc
 50
272.3389448649
 51
285.4336632495
  0
ARC
  5
5D8
100
AcDbEntity
  8
RUNDUNGEN
100
AcDbCircle
 62
7
  6
CONTINUOUS
 10
72.9320198861
 20
139.0673642517
 40
2.0000000058
100
AcDbArc
 50
285.4353802416
 51
350.2534239042
  0
ARC
  5
5D9
100
AcDbEntity
  8
RUNDUNGEN
100
AcDbCircle
 62
7
  6
CONTINUOUS
 10
76.9262787026
 20
144.5999010087
 40
1.0
100
AcDbArc
 50
120.0
 51
170.2534250243
  0
ARC
  5
5DA
100
AcDbEntity
  8
0
100
AcDbCircle
 62
7
  6
CONTINUOUS
 10
98.3613639987
 20
120.8068476854
 40
0.2
100
AcDbArc
 50
286.0404419761
 51
360.0
  0
ARC
  5
5DB
100
AcDbEntity
  8
RUNDUNGEN
100
AcDbCircle
 62
7
  6
CONTINUOUS
 10
89.5613639987
 20
151.7405732823
 40
3.9999871222
100
AcDbArc
 50
314.565850095
 51
327.6606843009
  0
ARC
  5
5DC
100
AcDbEntity
  8
RUNDUNGEN
100
AcDbCircle
 62
7
  6
CONTINUOUS
 10
88.9108779126
 20
148.2927622346
 40
2.0000000058
100
AcDbArc
 50
249.76846326
 51
314.5646197584
  0
ARC
  5
5DD
100
AcDbEntity
  8
RUNDUNGEN
100
AcDbCircle
 62
7
  6
CONTINUOUS
 10
96.8230040527
 20
149.0659264125
 40
1.0
100
AcDbArc
 50
18.000001169
 51
89.9999991136
  0
ARC
  5
5DE
100
AcDbEntity
  8
RUNDUNGEN
100
AcDbCircle
 62
7
  6
CONTINUOUS
 10
82.1224311253
 20
147.5999010087
 40
1.0
100
AcDbArc
 50
69.7465749757
 51
120.0
  0
ARC
  5
5DF
100
AcDbEntity
  8
RUNDUNGEN
100
AcDbCircle
 62
7
  6
CONTINUOUS
 10
94.5614140289
 20
149.0659264125
 40
1.0
100
AcDbArc
 50
90.0
 51
180.0015673547
  0
ARC
  5
5E0
100
AcDbEntity
  8
RUNDUNGEN
100
AcDbCircle
 62
7
  6
CONTINUOUS
 10
93.7858259485
 20
149.0659264125
 40
1.0
100
AcDbArc
 50
89.9999431238
 51
147.6607508719
  0
ARC
  5
5E1
100
AcDbEntity
  8
RUNDUNGEN
100
AcDbCircle
 62
7
  6
CONTINUOUS
 10
108.2997239447
 20
63.3313352265
 40
1.0
100
AcDbArc
 50
198.0
 51
270.0
  0
ARC
  5
5E2
100
AcDbEntity
  8
RUNDUNGEN
100
AcDbCircle
 62
7
  6
CONTINUOUS
 10
110.5613639987
 20
63.3313352265
 40
1.0
100
AcDbArc
 50
270.0
 51
360.0
  0
ARC
  5
5E3
100
AcDbEntity
  8
RUNDUNGEN
100
AcDbCircle
 62
7
  6
CONTINUOUS
 10
111.3369018528
 20
63.3313352265
 40
1.0
100
AcDbArc
 50
270.0000255006
 51
327.6607322054
  0
ARC
  5
5E4
100
AcDbEntity
  8
0
100
AcDbCircle
 62
7
  6
CONTINUOUS
 10
102.5613639987
 20
71.8313352265
 40
2.25
100
AcDbArc
 50
359.998718701
 51
180.0007345199
  0
ARC
  5
5E5
100
AcDbEntity
  8
RUNDUNGEN
100
AcDbCircle
 62
7
  6
CONTINUOUS
 10
115.5613639987
 20
60.6566709721
 40
3.9999927091
100
AcDbArc
 50
134.5647289875
 51
147.6605028395
  0
ARC
  5
5E6
100
AcDbEntity
  8
RUNDUNGEN
100
AcDbCircle
 62
7
  6
CONTINUOUS
 10
116.2118500847
 20
64.1044994045
 40
2.0000000057
100
AcDbArc
 50
69.7684286247
 51
134.5646197584
  0
ARC
  5
5E7
100
AcDbEntity
  8
RUNDUNGEN
100
AcDbCircle
 62
7
  6
CONTINUOUS
 10
123.0002968721
 20
64.7973606303
 40
1.0
100
AcDbArc
 50
249.7465749757
 51
300.0
  0
ARC
  5
5E8
100
AcDbEntity
  8
RUNDUNGEN
100
AcDbCircle
 62
7
  6
CONTINUOUS
 10
135.5018005453
 20
72.1693539132
 40
3.9999721244
100
AcDbArc
 50
92.3388970725
 51
105.4335180135
  0
ARC
  5
5E9
100
AcDbEntity
  8
RUNDUNGEN
100
AcDbCircle
 62
7
  6
CONTINUOUS
 10
132.1907081114
 20
73.3298973874
 40
2.0000000058
100
AcDbArc
 50
105.4353802416
 51
170.253423902
  0
ARC
  5
5EA
100
AcDbEntity
  8
RUNDUNGEN
100
AcDbCircle
 62
7
  6
CONTINUOUS
 10
136.8163510008
 20
79.7954175337
 40
1.0
100
AcDbArc
 50
330.0
 51
42.0
  0
ARC
  5
5EB
100
AcDbEntity
  8
RUNDUNGEN
100
AcDbCircle
 62
7
  6
CONTINUOUS
 10
128.1964492948
 20
67.7973606303
 40
1.0
100
AcDbArc
 50
300.0
 51
350.2534250243
  0
ARC
  5
5EC
100
AcDbEntity
  8
RUNDUNGEN
100
AcDbCircle
 62
7
  6
CONTINUOUS
 10
135.2977690841
 20
77.1651564986
 40
1.0
100
AcDbArc
 50
272.3379184408
 51
329.9996649208
  0
ARC
  5
5ED
100
AcDbEntity
  8
RUNDUNGEN
100
AcDbCircle
 62
7
  6
CONTINUOUS
 10
135.6855309738
 20
77.8367797927
 40
1.0
100
AcDbArc
 50
240.0
 51
330.0
  0
ARC
  5
5EE
100
AcDbEntity
  8
RUNDUNGEN
100
AcDbCircle
 62
7
  6
CONTINUOUS
 10
148.5018581647
 20
94.685981145
 40
3.9999927091
100
AcDbArc
 50
194.5647289875
 51
207.6605028395
  0
ARC
  5
5EF
100
AcDbEntity
  8
0
100
AcDbCircle
 62
7
  6
CONTINUOUS
 10
132.3243150416
 20
89.014983023
 40
2.25
100
AcDbArc
 50
59.9986292319
 51
240.000868777
  0
ARC
  5
5F0
100
AcDbEntity
  8
RUNDUNGEN
100
AcDbCircle
 62
7
  6
CONTINUOUS
 10
145.8411941974
 20
96.9732328365
 40
2.0000000057
100
AcDbArc
 50
129.7684286193
 51
194.5646197584
  0
ARC
  5
5F1
100
AcDbEntity
  8
RUNDUNGEN
100
AcDbCircle
 62
7
  6
CONTINUOUS
 10
142.5547109468
 20
89.7345485123
 40
1.0
100
AcDbArc
 50
258.0
 51
330.0
  0
ARC
  5
5F2
100
AcDbEntity
  8
RUNDUNGEN
100
AcDbCircle
 62
7
  6
CONTINUOUS
 10
148.6353821682
 20
103.1986308195
 40
1.0
100
AcDbArc
 50
309.7465749757
 51
360.0
  0
ARC
  5
5F3
100
AcDbEntity
  8
RUNDUNGEN
100
AcDbCircle
 62
7
  6
CONTINUOUS
 10
143.6855309738
 20
91.6931862533
 40
1.0
100
AcDbArc
 50
330.0
 51
60.0
  0
ARC
  5
5F4
100
AcDbEntity
  8
RUNDUNGEN
100
AcDbCircle
 62
7
  6
CONTINUOUS
 10
144.0732999008
 20
92.3648217365
 40
1.0
100
AcDbArc
 50
330.0000255007
 51
27.6607322054
  0
ARC
  5
5F5
100
AcDbEntity
  8
0
100
AcDbCircle
 62
7
  6
CONTINUOUS
 10
102.5613639987
 20
106.1986308195
 40
15.0
100
AcDbArc
 50
106.0404419761
 51
73.9595580239
  0
ARC
  5
5F6
100
AcDbEntity
  8
0
100
AcDbCircle
 62
7
  6
CONTINUOUS
 10
106.7613639987
 20
120.8068476854
 40
0.2
100
AcDbArc
 50
180.0
 51
253.9595580239
  0
ARC
  5
5F7
100
AcDbEntity
  8
0
100
AcDbCircle
 62
7
  6
CONTINUOUS
 10
102.5613639987
 20
140.5659264125
 40
2.25
100
AcDbArc
 50
179.9986966448
 51
0.0008841566
  0
ARC
  5
5F8
100
AcDbEntity
  8
RUNDUNGEN
100
AcDbCircle
 62
7
  6
CONTINUOUS
 10
108.2997239447
 20
149.0659264125
 40
1.0
100
AcDbArc
 50
90.000001169
 51
161.9999991136
  0
ARC
  5
5F9
100
AcDbEntity
  8
RUNDUNGEN
100
AcDbCircle
 62
7
  6
CONTINUOUS
 10
111.3368877781
 20
149.0659264125
 40
1.0
100
AcDbArc
 50
32.3379184408
 51
89.9996649209
  0
ARC
  5
5FA
100
AcDbEntity
  8
RUNDUNGEN
100
AcDbCircle
 62
7
  6
CONTINUOUS
 10
110.5613639987
 20
149.0659264125
 40
1.0
100
AcDbArc
 50
0.0
 51
90.0
  0
ARC
  5
5FB
100
AcDbEntity
  8
RUNDUNGEN
100
AcDbCircle
 62
7
  6
CONTINUOUS
 10
115.5613639987
 20
151.7405241338
 40
3.9999721244
100
AcDbArc
 50
212.3388970725
 51
225.4335180135
  0
ARC
  5
5FC
100
AcDbEntity
  8
RUNDUNGEN
100
AcDbCircle
 62
7
  6
CONTINUOUS
 10
116.2118500848
 20
148.2927622346
 40
2.0000000058
100
AcDbArc
 50
225.4353802416
 51
290.253423902
  0
ARC
  5
5FD
100
AcDbEntity
  8
RUNDUNGEN
100
AcDbCircle
 62
7
  6
CONTINUOUS
 10
123.0002968721
 20
147.5999010087
 40
1.0
100
AcDbArc
 50
60.0
 51
110.2534250243
  0
ARC
  5
5FE
100
AcDbEntity
  8
RUNDUNGEN
100
AcDbCircle
 62
7
  6
CONTINUOUS
 10
148.5018005453
 20
117.7112472275
 40
3.9999721244
100
AcDbArc
 50
152.3388970725
 51
165.4335180135
  0
ARC
  5
5FF
100
AcDbEntity
  8
0
100
AcDbCircle
 62
7
  6
CONTINUOUS
 10
132.3243150416
 20
123.382278616
 40
2.25
100
AcDbArc
 50
119.9987675045
 51
300.0008860361
  0
ARC
  5
600
100
AcDbEntity
  8
RUNDUNGEN
100
AcDbCircle
 62
7
  6
CONTINUOUS
 10
145.8411941974
 20
115.4240288025
 40
2.0000000058
100
AcDbArc
 50
165.4353802416
 51
230.253423902
  0
ARC
  5
601
100
AcDbEntity
  8
RUNDUNGEN
100
AcDbCircle
 62
7
  6
CONTINUOUS
 10
142.5547109468
 20
122.6627131267
 40
1.0
100
AcDbArc
 50
30.0
 51
102.0
  0
ARC
  5
602
100
AcDbEntity
  8
RUNDUNGEN
100
AcDbCircle
 62
7
  6
CONTINUOUS
 10
148.6353821682
 20
109.1986308195
 40
1.0
100
AcDbArc
 50
0.0
 51
50.2534250243
  0
ARC
  5
603
100
AcDbEntity
  8
RUNDUNGEN
100
AcDbCircle
 62
7
  6
CONTINUOUS
 10
144.0732928635
 20
120.0324520916
 40
1.0
100
AcDbArc
 50
332.3379184408
 51
29.999664921
  0
ARC
  5
604
100
AcDbEntity
  8
RUNDUNGEN
100
AcDbCircle
 62
7
  6
CONTINUOUS
 10
143.6855309738
 20
120.7040753857
 40
1.0
100
AcDbArc
 50
300.0
 51
30.0
  0
ARC
  5
605
100
AcDbEntity
  8
RUNDUNGEN
100
AcDbCircle
 62
7
  6
CONTINUOUS
 10
135.5018581647
 20
140.2279409924
 40
3.9999927091
100
AcDbArc
 50
254.5647289875
 51
267.6605028395
  0
ARC
  5
606
100
AcDbEntity
  8
RUNDUNGEN
100
AcDbCircle
 62
7
  6
CONTINUOUS
 10
132.1907081114
 20
139.0673642515
 40
2.0000000057
100
AcDbArc
 50
189.7684286226
 51
254.5646197584
  0
ARC
  5
607
100
AcDbEntity
  8
RUNDUNGEN
100
AcDbCircle
 62
7
  6
CONTINUOUS
 10
136.8163510008
 20
132.6018441053
 40
1.0
100
AcDbArc
 50
318.0
 51
30.0
  0
ARC
  5
608
100
AcDbEntity
  8
RUNDUNGEN
100
AcDbCircle
 62
7
  6
CONTINUOUS
 10
128.1964492948
 20
144.5999010087
 40
1.0
100
AcDbArc
 50
9.7465749757
 51
60.0
  0
ARC
  5
609
100
AcDbEntity
  8
RUNDUNGEN
100
AcDbCircle
 62
7
  6
CONTINUOUS
 10
135.6855309738
 20
134.5604818463
 40
1.0
100
AcDbArc
 50
30.0
 51
120.0
  0
ARC
  5
60A
100
AcDbEntity
  8
RUNDUNGEN
100
AcDbCircle
 62
7
  6
CONTINUOUS
 10
135.2977620468
 20
135.2321173295
 40
1.0
100
AcDbArc
 50
30.0000255006
 51
87.6607322053
  0
ARC
  5
60B
100
AcDbEntity
  8
RUNDUNGEN
100
AcDbCircle
 62
7
  6
CONTINUOUS
 10
212.752345743
 20
84.2782818455
 40
3.0
100
AcDbArc
 50
180.0
 51
266.0
  0
ARC
  5
60C
100
AcDbEntity
  8
RUNDUNGEN
100
AcDbCircle
 62
7
  6
CONTINUOUS
 10
214.802345743
 20
94.2540488469
 40
1.0
100
AcDbArc
 50
103.7763516152
 51
179.9999997013
  0
ARC
  5
60D
100
AcDbEntity
  8
RUNDUNGEN
100
AcDbCircle
 62
7
  6
CONTINUOUS
 10
214.802345743
 20
71.5992997227
 40
1.0
100
AcDbArc
 50
116.1246746959
 51
180.0000010783
  0
ARC
  5
60E
100
AcDbEntity
  8
RUNDUNGEN
100
AcDbCircle
 62
7
  6
CONTINUOUS
 10
214.802345743
 20
63.3313352265
 40
1.0
100
AcDbArc
 50
180.0
 51
270.0
  0
ARC
  5
60F
100
AcDbEntity
  8
0
100
AcDbCircle
 62
7
  6
CONTINUOUS
 10
212.752345743
 20
128.1189797936
 40
3.0
100
AcDbArc
 50
94.0
 51
180.0
  0
ARC
  5
610
100
AcDbEntity
  8
0
100
AcDbCircle
 62
7
  6
CONTINUOUS
 10
221.802345743
 20
134.2548506515
 40
2.0
100
AcDbArc
 50
0.0
 51
64.0
  0
ARC
  5
611
100
AcDbEntity
  8
0
100
AcDbCircle
 62
7
  6
CONTINUOUS
 10
221.802345743
 20
133.7640269321
 40
2.0
100
AcDbArc
 50
274.0
 51
360.0
  0
ARC
  5
612
100
AcDbEntity
  8
0
100
AcDbCircle
 62
7
  6
CONTINUOUS
 10
214.802345743
 20
140.7979619163
 40
1.0
100
AcDbArc
 50
179.9999993566
 51
243.8753257389
  0
ARC
  5
613
100
AcDbEntity
  8
RUNDUNGEN
100
AcDbCircle
 62
7
  6
CONTINUOUS
 10
214.802345743
 20
149.0659264125
 40
1.0
100
AcDbArc
 50
90.0
 51
180.0
  0
ARC
  5
614
100
AcDbEntity
  8
0
100
AcDbCircle
 62
7
  6
CONTINUOUS
 10
222.3696214815
 20
137.3159721984
 40
0.9999859194
100
AcDbArc
 50
90.0000218002
 51
244.0134721286
  0
ARC
  5
615
100
AcDbEntity
  8
RUNDUNGEN
100
AcDbCircle
 62
7
  6
CONTINUOUS
 10
244.852345743
 20
84.2782818455
 40
3.0
100
AcDbArc
 50
274.0
 51
360.0
  0
ARC
  5
616
100
AcDbEntity
  8
RUNDUNGEN
100
AcDbCircle
 62
7
  6
CONTINUOUS
 10
242.802345743
 20
94.2540434215
 40
1.0
100
AcDbArc
 50
0.000000276
 51
76.2235259548
  0
ARC
  5
617
100
AcDbEntity
  8
RUNDUNGEN
100
AcDbCircle
 62
7
  6
CONTINUOUS
 10
242.802345743
 20
71.5993157795
 40
1.0
100
AcDbArc
 50
359.9999986565
 51
63.8756604921
  0
ARC
  5
618
100
AcDbEntity
  8
RUNDUNGEN
100
AcDbCircle
 62
7
  6
CONTINUOUS
 10
242.802345743
 20
63.3313352265
 40
1.0
100
AcDbArc
 50
270.0
 51
360.0
  0
ARC
  5
619
100
AcDbEntity
  8
0
100
AcDbCircle
 62
7
  6
CONTINUOUS
 10
244.852345743
 20
128.1189797936
 40
3.0
100
AcDbArc
 50
0.0
 51
86.0
  0
ARC
  5
61A
100
AcDbEntity
  8
0
100
AcDbCircle
 62
7
  6
CONTINUOUS
 10
235.802345743
 20
134.2548506515
 40
2.0
100
AcDbArc
 50
116.0
 51
180.0
  0
ARC
  5
61B
100
AcDbEntity
  8
0
100
AcDbCircle
 62
7
  6
CONTINUOUS
 10
235.802345743
 20
133.7640269321
 40
2.0
100
AcDbArc
 50
180.0
 51
266.0
  0
ARC
  5
61C
100
AcDbEntity
  8
0
100
AcDbCircle
 62
7
  6
CONTINUOUS
 10
242.802345743
 20
140.7979458595
 40
1.0
100
AcDbArc
 50
296.1243403911
 51
0.0000022831
  0
ARC
  5
61D
100
AcDbEntity
  8
RUNDUNGEN
100
AcDbCircle
 62
7
  6
CONTINUOUS
 10
242.802345743
 20
149.0659264125
 40
1.0
100
AcDbArc
 50
0.0
 51
90.0
  0
ARC
  5
61E
100
AcDbEntity
  8
0
100
AcDbCircle
 62
7
  6
CONTINUOUS
 10
235.2349936098
 20
137.3159388768
 40
0.9999961679
100
AcDbArc
 50
295.9964836924
 51
89.999986967
  0
ENDSEC
  0
SECTION
  2
OBJECTS
  0
DICTIONARY
  5
C
100
AcDbDictionary
280
0
281
1
  3
ACAD_GROUP
350
D
  3
ACAD_MLINESTYLE
350
17
  3
ACAD_LAYOUT
350
1A
  3
ACAD_PLOTSETTINGS
350
19
  3
ACAD_PLOTSTYLENAME
350
E
  0
DICTIONARY
  5
D
102
{ACAD_REACTORS
330
C
102
}
100
AcDbDictionary
280
0
281
1
  0
ACDBDICTIONARYWDFLT
  5
E
102
{ACAD_REACTORS
330
C
102
}
100
AcDbDictionary
281
1
  3
Normal
350
F
100
AcDbDictionaryWithDefault
340
F
  0
DICTIONARY
  5
17
102
{ACAD_REACTORS
330
C
102
}
100
AcDbDictionary
280
0
281
1
  3
Standard
350
18
  0
DICTIONARY
  5
19
102
{ACAD_REACTORS
330
C
102
}
100
AcDbDictionary
281
1
  0
DICTIONARY
  5
1A
102
{ACAD_REACTORS
330
C
102
}
100
AcDbDictionary
281
1
  3
Model
350
61F
  3
Layout1
350
620
  0
ACDBPLACEHOLDER
  5
F
102
{ACAD_REACTORS
330
E
102
}
  0
MLINESTYLE
  5
18
102
{ACAD_REACTORS
330
17
102
}
100
AcDbMlineStyle
  2
STANDARD
 70
0
  3

 62
256
 51
90.0
 52
90.0
 71
2
 49
0.5
 62
256
  6
BYLAYER
 49
-0.5
 62
256
  6
BYLAYER
  0
LAYOUT
  5
61F
102
{ACAD_REACTORS
330
1A
102
}
100
AcDbPlotSettings
  1

  2
none_device
  4
ISO_A4_(297.00_x_210.00_MM)
  6

 40
0.0
 41
0.0
 42
0.0
 43
0.0
 44
297.0
 45
210.0
 46
0.0
 47
0.0
 48
0.0
 49
0.0
140
0.0
141
0.0
142
1.0
143
1.0
 70
1024
 72
1
 73
0
 74
0
  7

 75
0
147
1.0
148
0.0
149
0.0
100
AcDbLayout
  1
Model
 70
0
 71
0
 10
0.0
 20
0.0
 11
297.0
 21
210.0
 12
0.0
 22
0.0
 32
0.0
 14
0.0
 24
0.0
 34
0.0
 15
0.0
 25
0.0
 35
0.0
146
0.0
 13
0.0
 23
0.0
 33
0.0
 16
1.0
 26
0.0
 36
0.0
 17
0.0
 27
1.0
 37
0.0
 76
0
330
210
345
0
346
0
  0
LAYOUT
  5
620
102
{ACAD_REACTORS
330
1A
102
}
100
AcDbPlotSettings
  1

  2
none_device
  4
ISO_A4_(297.00_x_210.00_MM)
  6

 40
0.0
 41
0.0
 42
0.0
 43
0.0
 44
297.0
 45
210.0
 46
0.0
 47
0.0
 48
0.0
 49
0.0
140
0.0
141
0.0
142
1.0
143
1.0
 70
0
 72
1
 73
0
 74
0
  7

 75
0
147
1.0
148
0.0
149
0.0
100
AcDbLayout
  1
Layout1
 70
0
 71
1
 10
0.0
 20
0.0
 11
297.0
 21
210.0
 12
0.0
 22
0.0
 32
0.0
 14
0.0
 24
0.0
 34
0.0
 15
0.0
 25
0.0
 35
0.0
146
0.0
 13
0.0
 23
0.0
 33
0.0
 16
1.0
 26
0.0
 36
0.0
 17
0.0
 27
1.0
 37
0.0
 76
0
330
211
345
0
346
0
  0
ENDSEC
  0
EOF
