  0
SECTION
  2
HEADER
  9
$ACADVER
  1
AC1015
  9
$DWGCODEPAGE
  3
ANSI_1252
  9
$EXTMAX
 10
297.0
 20
210.0
 30
0.0
  9
$EXTMIN
 10
0.0
 20
0.0
 30
0.0
  9
$LIMMIN
 10
0.0
 20
0.0
  9
$LIMMAX
 10
297.0
 20
210.0
  9
$VIEWCTR
 10
148.5
 20
105.0
  9
$VIEWSIZE
 40
210.0
  9
$CLAYER
  8
0
  9
$LTSCALE
 40
16.335
  9
$CELTYPE
  6
BYLAYER
  9
$DIMSCALE
 40
1.0
  9
$DIMASZ
 40
3.5
  9
$DIMEXO
 40
1.85625
  9
$DIMDLI
 40
11.286
  9
$DIMEXE
 40
5.346
  9
$DIMCEN
 40
2.673
  9
$DIMLFAC
 40
1.0
  9
$DIMBLK
  1
_FILLED
  9
$DIMTXT
 40
3.5
  9
$DIMTOL
 70
1
  9
$DIMLIM
 70
0
  9
$DIMTFAC
 40
1.0
  9
$DIMTP
 40
0.005
  9
$DIMTM
 40
0.005
  9
$PDMODE
 70
3
  9
$PDSIZE
 40
0.3125
  9
$HANDSEED
  5
5B0
  9
$TILEMODE
 70
1
  9
$MEASUREMENT
 70
1
  9
$INSUNITS
 70
4
  0
ENDSEC
  0
SECTION
  2
CLASSES
  0
CLASS
  1
ACDBDICTIONARYWDFLT
  2
AcDbDictionaryWithDefault
  3
AutoCAD 2000
 90
0
280
0
281
0
  0
CLASS
  1
ACDBPLACEHOLDER
  2
AcDbPlaceHolder
  3
AutoCAD 2000
 90
0
280
0
281
0
  0
CLASS
  1
LAYOUT
  2
AcDbLayout
  3
AutoCAD 2000
 90
0
280
0
281
0
  0
ENDSEC
  0
SECTION
  2
TABLES
  0
TABLE
  2
VPORT
  5
8
100
AcDbSymbolTable
 70
2
  0
VPORT
  5
1F4
100
AcDbSymbolTableRecord
100
AcDbViewportTableRecord
  2
*ACTIVE
 70
0
 10
0.0
 20
0.0
 11
1.0
 21
1.0
 12
148.5
 22
105.0
 13
0.0
 23
0.0
 14
1.0
 24
1.0
 15
0.0
 25
0.0
 16
0.0
 26
0.0
 36
1.0
 17
0.0
 27
0.0
 37
0.0
 40
210.0
 41
1.4142857143
 42
50.0
 43
0.0
 44
0.0
 50
0.0
 51
0.0
 71
0
 72
100
 73
1
 74
1
 75
0
 76
0
 77
0
 78
0
  0
ENDTAB
  0
TABLE
  2
LTYPE
  5
5
100
AcDbSymbolTable
 70
6
  0
LTYPE
  5
14
100
AcDbSymbolTableRecord
100
AcDbLinetypeTableRecord
  2
BYBLOCK
 70
0
  3

 72
65
 73
0
 40
0.0
  0
LTYPE
  5
15
100
AcDbSymbolTableRecord
100
AcDbLinetypeTableRecord
  2
BYLAYER
 70
0
  3

 72
65
 73
0
 40
0.0
  0
LTYPE
  5
16
100
AcDbSymbolTableRecord
100
AcDbLinetypeTableRecord
  2
CONTINUOUS
 70
64
  3
Solid line
 72
65
 73
0
 40
0.0
  0
LTYPE
  5
1F5
100
AcDbSymbolTableRecord
100
AcDbLinetypeTableRecord
  2
CENTER
 70
64
  3
____ _ ____ _ ____ _ ____ _ ____ _ ____ _ ____
 72
65
 73
4
 40
0.6
 49
0.375
 74
0
 49
-0.075
 74
0
 49
0.075
 74
0
 49
-0.075
 74
0
  0
LTYPE
  5
1F6
100
AcDbSymbolTableRecord
100
AcDbLinetypeTableRecord
  2
HIDDEN
 70
64
  3
- - - - - - - - - - - - - - - - - - - -
 72
65
 73
2
 40
0.2
 49
0.1
 74
0
 49
-0.1
 74
0
  0
LTYPE
  5
1F7
100
AcDbSymbolTableRecord
100
AcDbLinetypeTableRecord
  2
PHANTOM
 70
64
  3
_____ _ _ _____ _ _ _____ _ _ _____
 72
65
 73
6
 40
0.8
 49
0.45
 74
0
 49
-0.05
 74
0
 49
0.1
 74
0
 49
-0.05
 74
0
 49
0.1
 74
0
 49
-0.05
 74
0
  0
LTYPE
  5
1F8
100
AcDbSymbolTableRecord
100
AcDbLinetypeTableRecord
  2
DOT
 70
64
  3
. . . . . . . . . . . . . . . . . . . .
 72
65
 73
2
 40
0.2
 49
0.1
 74
0
 49
-0.1
 74
0
  0
LTYPE
  5
1F9
100
AcDbSymbolTableRecord
100
AcDbLinetypeTableRecord
  2
DASHED
 70
64
  3
- - - - - - - - - - - - - - - - - - - -
 72
65
 73
2
 40
0.2
 49
0.1
 74
0
 49
-0.1
 74
0
  0
ENDTAB
  0
TABLE
  2
LAYER
  5
2
100
AcDbSymbolTable
 70
36
  0
LAYER
  5
10
100
AcDbSymbolTableRecord
100
AcDbLayerTableRecord
  2
0
 70
0
 62
7
  6
CONTINUOUS
370
-3
390
F
  0
LAYER
  5
1FA
100
AcDbSymbolTableRecord
100
AcDbLayerTableRecord
  2
DEFAULT_1
 70
0
 62
7
  6
CENTER
370
-3
390
F
  0
LAYER
  5
1FB
100
AcDbSymbolTableRecord
100
AcDbLayerTableRecord
  2
DEFAULT_2
 70
0
 62
8
  6
HIDDEN
370
-3
390
F
  0
LAYER
  5
1FC
100
AcDbSymbolTableRecord
100
AcDbLayerTableRecord
  2
DEFAULT_3
 70
0
 62
7
  6
PHANTOM
370
-3
390
F
  0
LAYER
  5
1FD
100
AcDbSymbolTableRecord
100
AcDbLayerTableRecord
  2
01___PRT_ALL_DTM_PLN
 70
0
 62
7
  6
CONTINUOUS
370
-3
390
F
  0
LAYER
  5
1FE
100
AcDbSymbolTableRecord
100
AcDbLayerTableRecord
  2
01___PRT_DEF_DTM_PLN
 70
0
 62
7
  6
CONTINUOUS
370
-3
390
F
  0
LAYER
  5
1FF
100
AcDbSymbolTableRecord
100
AcDbLayerTableRecord
  2
02___PRT_ALL_AXES
 70
0
 62
7
  6
CONTINUOUS
370
-3
390
F
  0
LAYER
  5
200
100
AcDbSymbolTableRecord
100
AcDbLayerTableRecord
  2
03___PRT_ALL_CURVES
 70
0
 62
7
  6
CONTINUOUS
370
-3
390
F
  0
LAYER
  5
201
100
AcDbSymbolTableRecord
100
AcDbLayerTableRecord
  2
04___PRT_ALL_DTM_PNT
 70
0
 62
7
  6
CONTINUOUS
370
-3
390
F
  0
LAYER
  5
202
100
AcDbSymbolTableRecord
100
AcDbLayerTableRecord
  2
05___PRT_ALL_DTM_CSYS
 70
0
 62
7
  6
CONTINUOUS
370
-3
390
F
  0
LAYER
  5
203
100
AcDbSymbolTableRecord
100
AcDbLayerTableRecord
  2
05___PRT_DEF_DTM_CSYS
 70
0
 62
7
  6
CONTINUOUS
370
-3
390
F
  0
LAYER
  5
204
100
AcDbSymbolTableRecord
100
AcDbLayerTableRecord
  2
06___PRT_ALL_SURFS
 70
0
 62
7
  6
CONTINUOUS
370
-3
390
F
  0
LAYER
  5
205
100
AcDbSymbolTableRecord
100
AcDbLayerTableRecord
  2
AUSFORMSCHRAEGEN
 70
0
 62
7
  6
CONTINUOUS
370
-3
390
F
  0
LAYER
  5
206
100
AcDbSymbolTableRecord
100
AcDbLayerTableRecord
  2
BEZUGSACHSEN
 70
0
 62
7
  6
CONTINUOUS
370
-3
390
F
  0
LAYER
  5
207
100
AcDbSymbolTableRecord
100
AcDbLayerTableRecord
  2
BEZUGSEBENEN
 70
0
 62
7
  6
CONTINUOUS
370
-3
390
F
  0
LAYER
  5
208
100
AcDbSymbolTableRecord
100
AcDbLayerTableRecord
  2
BOHRUNGEN
 70
0
 62
7
  6
CONTINUOUS
370
-3
390
F
  0
LAYER
  5
209
100
AcDbSymbolTableRecord
100
AcDbLayerTableRecord
  2
FASEN
 70
0
 62
7
  6
CONTINUOUS
370
-3
390
F
  0
LAYER
  5
20A
100
AcDbSymbolTableRecord
100
AcDbLayerTableRecord
  2
GEWINDE
 70
0
 62
7
  6
CONTINUOUS
370
-3
390
F
  0
LAYER
  5
20B
100
AcDbSymbolTableRecord
100
AcDbLayerTableRecord
  2
KURVEN
 70
0
 62
7
  6
CONTINUOUS
370
-3
390
F
  0
LAYER
  5
20C
100
AcDbSymbolTableRecord
100
AcDbLayerTableRecord
  2
RUNDUNGEN
 70
0
 62
7
  6
CONTINUOUS
370
-3
390
F
  0
LAYER
  5
20D
100
AcDbSymbolTableRecord
100
AcDbLayerTableRecord
  2
ZEICHNUNGSBEMASSUNGEN
 70
0
 62
7
  6
CONTINUOUS
370
-3
390
F
  0
ENDTAB
  0
TABLE
  2
STYLE
  5
3
100
AcDbSymbolTable
 70
1
  0
STYLE
  5
11
100
AcDbSymbolTableRecord
100
AcDbTextStyleTableRecord
  2
STANDARD
 70
0
 40
0.0
 41
0.7
 50
0.0
 71
0
 42
0.2
  3
txt
  4

  0
STYLE
  5
20E
100
AcDbSymbolTableRecord
100
AcDbTextStyleTableRecord
  2
TEXTSTYLE_1
 70
0
 40
0.0
 41
0.8
 50
0.0
 71
0
 42
0.2
  3
gdt
  4

  0
ENDTAB
  0
TABLE
  2
VIEW
  5
6
100
AcDbSymbolTable
 70
0
  0
ENDTAB
  0
TABLE
  2
UCS
  5
7
100
AcDbSymbolTable
 70
0
  0
ENDTAB
  0
TABLE
  2
APPID
  5
9
100
AcDbSymbolTable
 70
1
  0
APPID
  5
20F
100
AcDbSymbolTableRecord
100
AcDbRegAppTableRecord
  2
ACAD
 70
0
  0
ENDTAB
  0
TABLE
  2
BLOCK_RECORD
  5
1
100
AcDbSymbolTable
 70
0
  0
BLOCK_RECORD
  5
210
100
AcDbSymbolTableRecord
100
AcDbBlockTableRecord
  2
*Model_Space
  0
BLOCK_RECORD
  5
211
100
AcDbSymbolTableRecord
100
AcDbBlockTableRecord
  2
*Paper_Space
  0
ENDTAB
  0
TABLE
  2
DIMSTYLE
  5
A
100
AcDbSymbolTable
 70
1
100
AcDbDimStyleTable
 71
0
  0
DIMSTYLE
105
212
100
AcDbSymbolTableRecord
100
AcDbDimStyleTableRecord
  2
STANDARD
 70
0
  3

  4

 40
1.0
 41
3.5
 42
0.0625
 43
0.38
 44
0.18
 45
0.0
 46
0.0
 47
0.005
 48
0.005
140
3.5
141
0.09
142
0.0
143
25.4
144
1.0
145
0.0
146
1.0
147
0.09
 71
1.0
 72
0.0
 73
0
 74
0
 75
0
 76
0
 77
1
 78
8
170
0
171
2
172
0
173
0
174
0
175
0
176
0
177
0
178
5
270
2
271
3
272
3
273
2
274
2
275
0
280
0
281
0
282
0
283
1
284
8
285
0
286
0
287
3
288
0
340
11
  0
ENDTAB
  0
ENDSEC
  0
SECTION
  2
BLOCKS
  0
BLOCK
  5
20
100
AcDbEntity
  8
0
100
AcDbBlockBegin
  2
*Model_Space
 70
0
 10
0.0
 20
0.0
 30
0.0
  3
*Model_Space
  1

  0
ENDBLK
  5
21
100
AcDbEntity
  8
0
100
AcDbBlockEnd
  0
BLOCK
  5
1C
100
AcDbEntity
  8
0
100
AcDbBlockBegin
  2
*Paper_Space
 70
0
 10
0.0
 20
0.0
 30
0.0
  3
*Paper_Space
  1

  0
ENDBLK
  5
1D
100
AcDbEntity
  8
0
100
AcDbBlockEnd
  0
ENDSEC
  0
SECTION
  2
ENTITIES
  0
LINE
  5
213
100
AcDbEntity
  8
0
100
AcDbLine
 62
7
  6
CONTINUOUS
 10
0.0
 20
0.0
 11
0.0
 21
210.0
  0
LINE
  5
214
100
AcDbEntity
  8
0
100
AcDbLine
 62
7
  6
CONTINUOUS
 10
0.0
 20
0.0
 11
297.0
 21
0.0
  0
LINE
  5
215
100
AcDbEntity
  8
0
100
AcDbLine
 62
7
  6
CONTINUOUS
 10
0.0
 20
210.0
 11
297.0
 21
210.0
  0
LINE
  5
216
100
AcDbEntity
  8
0
100
AcDbLine
 62
7
  6
CONTINUOUS
 10
297.0
 20
0.0
 11
297.0
 21
210.0
  0
LINE
  5
217
100
AcDbEntity
  8
RUNDUNGEN
100
AcDbLine
 62
7
  6
CONTINUOUS
 10
55.3186496398
 20
108.6392697704
 11
55.3186496398
 21
102.6392697704
  0
LINE
  5
218
100
AcDbEntity
  8
RUNDUNGEN
100
AcDbLine
 62
7
  6
CONTINUOUS
 10
68.7902405415
 20
135.1727496709
 11
67.2716554034
 21
132.5424830562
  0
LINE
  5
219
100
AcDbEntity
  8
RUNDUNGEN
100
AcDbLine
 62
7
  6
CONTINUOUS
 10
61.5332954575
 20
122.6033520776
 11
60.0147062783
 21
119.9730784634
  0
LINE
  5
21A
100
AcDbEntity
  8
RUNDUNGEN
100
AcDbLine
 62
7
  6
CONTINUOUS
 10
81.4537349359
 20
147.9065653634
 11
76.2575825132
 21
144.9065653634
  0
LINE
  5
21B
100
AcDbEntity
  8
RUNDUNGEN
100
AcDbLine
 62
7
  6
CONTINUOUS
 10
93.6171381278
 20
61.7719741774
 11
96.6543078633
 21
61.7719741774
  0
LINE
  5
21C
100
AcDbEntity
  8
RUNDUNGEN
100
AcDbLine
 62
7
  6
CONTINUOUS
 10
108.1310277553
 20
61.7719741774
 11
111.1682061137
 21
61.7719741774
  0
LINE
  5
21D
100
AcDbEntity
  8
RUNDUNGEN
100
AcDbLine
 62
7
  6
CONTINUOUS
 10
76.2575825132
 20
66.3719741774
 11
81.4537349359
 21
63.3719741774
  0
LINE
  5
21E
100
AcDbEntity
  8
RUNDUNGEN
100
AcDbLine
 62
7
  6
CONTINUOUS
 10
60.0147087836
 20
91.3054567379
 11
61.5332954575
 21
88.6751874632
  0
LINE
  5
21F
100
AcDbEntity
  8
RUNDUNGEN
100
AcDbLine
 62
7
  6
CONTINUOUS
 10
67.2716554034
 20
78.7360564846
 11
68.7902445826
 21
76.1057828704
  0
LINE
  5
220
100
AcDbEntity
  8
RUNDUNGEN
100
AcDbLine
 62
7
  6
CONTINUOUS
 10
60.3236721782
 20
93.1209529438
 11
61.0485668969
 21
95.9109282412
  0
LINE
  5
221
100
AcDbEntity
  8
RUNDUNGEN
100
AcDbLine
 62
7
  6
CONTINUOUS
 10
92.1995202491
 20
148.3314144206
 11
90.1456083934
 21
146.308482359
  0
LINE
  5
222
100
AcDbEntity
  8
RUNDUNGEN
100
AcDbLine
 62
7
  6
CONTINUOUS
 10
134.2683460093
 20
75.4656092555
 11
131.4897091666
 21
74.6983988483
  0
LINE
  5
223
100
AcDbEntity
  8
RUNDUNGEN
100
AcDbLine
 62
7
  6
CONTINUOUS
 10
73.2956264555
 20
74.6983988473
 11
70.516888817
 21
75.4656370853
  0
LINE
  5
224
100
AcDbEntity
  8
RUNDUNGEN
100
AcDbLine
 62
7
  6
CONTINUOUS
 10
92.1993503782
 20
62.9472924289
 11
90.1456082542
 21
64.9700573189
  0
LINE
  5
225
100
AcDbEntity
  8
RUNDUNGEN
100
AcDbLine
 62
7
  6
CONTINUOUS
 10
61.0485668978
 20
115.3676112962
 11
60.3236458834
 21
118.1576878006
  0
LWPOLYLINE
  5
226
100
AcDbEntity
  8
RUNDUNGEN
100
AcDbPolyline
 62
7
  6
CONTINUOUS
 90
3
 70
0
 10
70.6386913626
 20
121.3743604084
 10
70.6318070153
 20
121.3558135514
 10
70.3456356606
 20
120.6124627471
  0
LINE
  5
227
100
AcDbEntity
  8
RUNDUNGEN
100
AcDbLine
 62
7
  6
CONTINUOUS
 10
70.3456356606
 20
120.6124627471
 11
70.2758563115
 21
120.4291427844
  0
LWPOLYLINE
  5
228
100
AcDbEntity
  8
RUNDUNGEN
100
AcDbPolyline
 62
7
  6
CONTINUOUS
 90
3
 70
0
 10
72.8886913626
 20
125.2714747254
 10
72.90097006
 20
125.2869864543
 10
73.402843223
 20
125.9055232688
  0
LINE
  5
229
100
AcDbEntity
  8
RUNDUNGEN
100
AcDbLine
 62
7
  6
CONTINUOUS
 10
73.402843223
 20
125.9055232688
 11
73.5258563115
 21
126.058307909
  0
LINE
  5
22A
100
AcDbEntity
  8
0
100
AcDbLine
 62
7
  6
CONTINUOUS
 10
82.835062268
 20
134.5437010254
 11
82.9429317493
 21
134.6664522057
  0
LINE
  5
22B
100
AcDbEntity
  8
0
100
AcDbLine
 62
7
  6
CONTINUOUS
 10
84.2290779371
 20
135.9587570458
 11
84.1408359752
 21
135.8592985457
  0
LINE
  5
22C
100
AcDbEntity
  8
0
100
AcDbLine
 62
7
  6
CONTINUOUS
 10
84.2778851337
 20
135.752639259
 11
84.3661272514
 21
135.8520978516
  0
LINE
  5
22D
100
AcDbEntity
  8
0
100
AcDbLine
 62
7
  6
CONTINUOUS
 10
83.6545493791
 20
135.6081770569
 11
83.5426868425
 21
135.4890535015
  0
LINE
  5
22E
100
AcDbEntity
  8
0
100
AcDbLine
 62
7
  6
CONTINUOUS
 10
86.1773511754
 20
137.0436447477
 11
86.0833491665
 21
136.9496114589
  0
LINE
  5
22F
100
AcDbEntity
  8
0
100
AcDbLine
 62
7
  6
CONTINUOUS
 10
86.1575365612
 20
136.8059319463
 11
86.2515385701
 21
136.8999652351
  0
LINE
  5
230
100
AcDbEntity
  8
0
100
AcDbLine
 62
7
  6
CONTINUOUS
 10
83.6245097436
 20
135.3015345012
 11
83.7630863266
 21
135.4376622128
  0
LINE
  5
231
100
AcDbEntity
  8
0
100
AcDbLine
 62
7
  6
CONTINUOUS
 10
82.241709159
 20
135.4112649926
 11
81.6143936679
 21
134.9822250473
  0
LINE
  5
232
100
AcDbEntity
  8
0
100
AcDbLine
 62
7
  6
CONTINUOUS
 10
81.8853288955
 20
134.9226458272
 11
82.3819536344
 21
135.2623024334
  0
LINE
  5
233
100
AcDbEntity
  8
0
100
AcDbLine
 62
7
  6
CONTINUOUS
 10
82.7242727628
 20
134.7617847205
 11
82.2276480239
 21
134.4221281143
  0
LINE
  5
234
100
AcDbEntity
  8
0
100
AcDbLine
 62
7
  6
CONTINUOUS
 10
82.3645756497
 20
134.2219210665
 11
82.835062268
 21
134.5437010254
  0
LINE
  5
235
100
AcDbEntity
  8
0
100
AcDbLine
 62
7
  6
CONTINUOUS
 10
82.6869935311
 20
133.4139363196
 11
82.8438224038
 21
133.5211963059
  0
LINE
  5
236
100
AcDbEntity
  8
0
100
AcDbLine
 62
7
  6
CONTINUOUS
 10
83.3072673877
 20
135.387123415
 11
83.1736974615
 21
135.3021028283
  0
LINE
  5
237
100
AcDbEntity
  8
0
100
AcDbLine
 62
7
  6
CONTINUOUS
 10
83.8683339866
 20
134.2108077309
 11
84.0019039128
 21
134.2958283175
  0
LINE
  5
238
100
AcDbEntity
  8
0
100
AcDbLine
 62
7
  6
CONTINUOUS
 10
84.4468635848
 20
136.0881682147
 11
84.2290779371
 21
135.9587570458
  0
LINE
  5
239
100
AcDbEntity
  8
0
100
AcDbLine
 62
7
  6
CONTINUOUS
 10
84.3661272514
 20
135.8520978516
 11
84.4750199195
 21
135.9168033435
  0
LINE
  5
23A
100
AcDbEntity
  8
0
100
AcDbLine
 62
7
  6
CONTINUOUS
 10
84.9706369173
 20
135.0827310621
 11
84.8617442492
 21
135.0180255702
  0
LINE
  5
23B
100
AcDbEntity
  8
0
100
AcDbLine
 62
7
  6
CONTINUOUS
 10
84.8899005912
 20
134.8466606868
 11
85.1076862389
 21
134.9760718557
  0
LINE
  5
23C
100
AcDbEntity
  8
0
100
AcDbLine
 62
7
  6
CONTINUOUS
 10
84.8644136138
 20
137.0266728523
 11
84.7263457341
 21
136.9491696698
  0
LINE
  5
23D
100
AcDbEntity
  8
0
100
AcDbLine
 62
7
  6
CONTINUOUS
 10
85.6563832156
 20
135.2923563782
 11
85.7944510952
 21
135.3698595608
  0
LINE
  5
23E
100
AcDbEntity
  8
0
100
AcDbLine
 62
7
  6
CONTINUOUS
 10
85.2451609913
 20
137.2362914227
 11
85.1061662069
 21
137.1604631127
  0
LINE
  5
23F
100
AcDbEntity
  8
0
100
AcDbLine
 62
7
  6
CONTINUOUS
 10
85.2029682194
 20
136.9830231189
 11
85.3419630038
 21
137.0588514289
  0
LINE
  5
240
100
AcDbEntity
  8
0
100
AcDbLine
 62
7
  6
CONTINUOUS
 10
85.5355670832
 20
136.703971342
 11
85.3965722988
 21
136.6281430319
  0
LINE
  5
241
100
AcDbEntity
  8
0
100
AcDbLine
 62
7
  6
CONTINUOUS
 10
86.0161052333
 20
135.4925269723
 11
86.1551000177
 21
135.5683552824
  0
LINE
  5
242
100
AcDbEntity
  8
0
100
AcDbLine
 62
7
  6
CONTINUOUS
 10
86.289900355
 20
137.1017583246
 11
86.1773511754
 21
137.0436447477
  0
LINE
  5
243
100
AcDbEntity
  8
0
100
AcDbLine
 62
7
  6
CONTINUOUS
 10
85.9241160044
 20
136.912889449
 11
85.7834300129
 21
136.8402477273
  0
LINE
  5
244
100
AcDbEntity
  8
0
100
AcDbLine
 62
7
  6
CONTINUOUS
 10
86.3769292222
 20
135.6908115262
 11
86.5176152136
 21
135.7634532479
  0
LINE
  5
245
100
AcDbEntity
  8
0
100
AcDbLine
 62
7
  6
CONTINUOUS
 10
87.0240855558
 20
136.0249638453
 11
87.1647718693
 21
136.0976057333
  0
LINE
  5
246
100
AcDbEntity
  8
0
100
AcDbLine
 62
7
  6
CONTINUOUS
 10
86.7201846405
 20
137.9944393176
 11
86.5771458873
 21
137.9265476167
  0
LINE
  5
247
100
AcDbEntity
  8
0
100
AcDbLine
 62
7
  6
CONTINUOUS
 10
87.523743806
 20
137.704619259
 11
87.3520973678
 21
137.623149249
  0
LINE
  5
248
100
AcDbEntity
  8
0
100
AcDbLine
 62
7
  6
CONTINUOUS
 10
87.3918475404
 20
136.21007996
 11
87.5348862935
 21
136.2779716609
  0
LINE
  5
249
100
AcDbEntity
  8
0
100
AcDbLine
 62
7
  6
CONTINUOUS
 10
88.0212189054
 20
136.5088038477
 11
88.192865671
 21
136.590274013
  0
LINE
  5
24A
100
AcDbEntity
  8
0
100
AcDbLine
 62
7
  6
CONTINUOUS
 10
82.3952211822
 20
135.4672804902
 11
82.241709159
 21
135.4112649926
  0
LINE
  5
24B
100
AcDbEntity
  8
RUNDUNGEN
100
AcDbLine
 62
7
  6
CONTINUOUS
 10
134.2686332157
 20
75.4656892514
 11
134.2686651683
 21
75.4656973792
  0
LWPOLYLINE
  5
24C
100
AcDbEntity
  8
RUNDUNGEN
100
AcDbPolyline
 62
7
  6
CONTINUOUS
 90
3
 70
0
 10
104.6426678093
 20
70.2719741774
 10
104.6621720323
 20
70.2752855862
 10
105.4490183901
 20
70.3991293254
  0
LINE
  5
24D
100
AcDbEntity
  8
RUNDUNGEN
100
AcDbLine
 62
7
  6
CONTINUOUS
 10
105.4490183901
 20
70.3991293254
 11
105.6426678093
 21
70.4303586177
  0
LWPOLYLINE
  5
24E
100
AcDbEntity
  8
RUNDUNGEN
100
AcDbPolyline
 62
7
  6
CONTINUOUS
 90
3
 70
0
 10
100.1426678093
 20
70.2719741774
 10
100.1230949094
 20
70.2748519768
 10
99.3364897334
 20
70.4002184782
  0
LINE
  5
24F
100
AcDbEntity
  8
RUNDUNGEN
100
AcDbLine
 62
7
  6
CONTINUOUS
 10
99.3364897334
 20
70.4002184782
 11
99.1426678093
 21
70.4303586177
  0
LINE
  5
250
100
AcDbEntity
  8
RUNDUNGEN
100
AcDbLine
 62
7
  6
CONTINUOUS
 10
92.1995632599
 20
62.9470836988
 11
92.199586275
 21
62.947060091
  0
LWPOLYLINE
  5
251
100
AcDbEntity
  8
RUNDUNGEN
100
AcDbPolyline
 62
7
  6
CONTINUOUS
 90
3
 70
0
 10
72.8886913626
 20
86.0070648154
 10
72.9013112383
 20
85.9918293672
 10
73.4019862414
 20
85.3723223021
  0
LINE
  5
252
100
AcDbEntity
  8
RUNDUNGEN
100
AcDbLine
 62
7
  6
CONTINUOUS
 10
73.4019862414
 20
85.3723223021
 11
73.5258563115
 21
85.2202316318
  0
LWPOLYLINE
  5
253
100
AcDbEntity
  8
RUNDUNGEN
100
AcDbPolyline
 62
7
  6
CONTINUOUS
 90
3
 70
0
 10
70.6386913626
 20
89.9041791324
 10
70.63139716
 20
89.9225686607
 10
70.346665147
 20
90.6664719766
  0
LINE
  5
254
100
AcDbEntity
  8
RUNDUNGEN
100
AcDbLine
 62
7
  6
CONTINUOUS
 10
70.346665147
 20
90.6664719766
 11
70.2758563115
 21
90.8493967564
  0
LINE
  5
255
100
AcDbEntity
  8
RUNDUNGEN
100
AcDbLine
 62
7
  6
CONTINUOUS
 10
75.7720163325
 20
144.2098305487
 11
74.7336209656
 21
138.1645603318
  0
LINE
  5
256
100
AcDbEntity
  8
0
100
AcDbLine
 62
7
  6
CONTINUOUS
 10
83.56106849
 20
135.1653120359
 11
83.6245097436
 21
135.3015345012
  0
LINE
  5
257
100
AcDbEntity
  8
0
100
AcDbLine
 62
7
  6
CONTINUOUS
 10
84.1408359752
 20
135.8592985457
 11
84.1070401915
 21
135.7921926991
  0
LINE
  5
258
100
AcDbEntity
  8
0
100
AcDbLine
 62
7
  6
CONTINUOUS
 10
85.195928199
 20
135.0755303588
 11
85.2297238251
 21
135.142636116
  0
LINE
  5
259
100
AcDbEntity
  8
0
100
AcDbLine
 62
7
  6
CONTINUOUS
 10
82.7798659282
 20
134.848782555
 11
82.7242727628
 21
134.7617847205
  0
LINE
  5
25A
100
AcDbEntity
  8
0
100
AcDbLine
 62
7
  6
CONTINUOUS
 10
83.5426868425
 20
135.4890535015
 11
83.4842522457
 21
135.4039381612
  0
LINE
  5
25B
100
AcDbEntity
  8
0
100
AcDbLine
 62
7
  6
CONTINUOUS
 10
85.0588790278
 20
135.1821896669
 11
84.9706369173
 21
135.0827310621
  0
LINE
  5
25C
100
AcDbEntity
  8
0
100
AcDbLine
 62
7
  6
CONTINUOUS
 10
85.1076862389
 20
134.9760718557
 11
85.195928199
 21
135.0755303588
  0
LINE
  5
25D
100
AcDbEntity
  8
RUNDUNGEN
100
AcDbLine
 62
7
  6
CONTINUOUS
 10
60.3954164835
 20
113.3300616906
 11
55.6792565988
 21
109.4081498255
  0
LINE
  5
25E
100
AcDbEntity
  8
RUNDUNGEN
100
AcDbLine
 62
7
  6
CONTINUOUS
 10
122.4854275431
 20
147.9787106037
 11
116.7308722939
 21
145.8553522677
  0
LINE
  5
25F
100
AcDbEntity
  8
RUNDUNGEN
100
AcDbLine
 62
7
  6
CONTINUOUS
 10
116.7308722941
 20
65.4231872731
 11
122.4854275431
 21
63.2998289371
  0
LINE
  5
260
100
AcDbEntity
  8
RUNDUNGEN
100
AcDbLine
 62
7
  6
CONTINUOUS
 10
55.6792565988
 20
101.8703897154
 11
60.3954164837
 21
97.9484778501
  0
LINE
  5
261
100
AcDbEntity
  8
RUNDUNGEN
100
AcDbLine
 62
7
  6
CONTINUOUS
 10
74.7336209683
 20
73.1139791933
 11
75.7720163325
 21
67.0687089922
  0
LINE
  5
262
100
AcDbEntity
  8
0
100
AcDbLine
 62
7
  6
CONTINUOUS
 10
82.9429317493
 20
134.6664522057
 11
82.9790204933
 21
134.8380623701
  0
LINE
  5
263
100
AcDbEntity
  8
0
100
AcDbLine
 62
7
  6
CONTINUOUS
 10
83.4842522457
 20
135.4039381612
 11
83.4475250385
 21
135.2847198522
  0
LINE
  5
264
100
AcDbEntity
  8
0
100
AcDbLine
 62
7
  6
CONTINUOUS
 10
86.0833491665
 20
136.9496114589
 11
86.0360311402
 21
136.8341866031
  0
LINE
  5
265
100
AcDbEntity
  8
0
100
AcDbLine
 62
7
  6
CONTINUOUS
 10
86.1102185348
 20
136.6905070905
 11
86.1575365612
 21
136.8059319463
  0
LINE
  5
266
100
AcDbEntity
  8
0
100
AcDbLine
 62
7
  6
CONTINUOUS
 10
118.5182118278
 20
136.6286646868
 11
118.6202627296
 21
136.665316215
  0
LINE
  5
267
100
AcDbEntity
  8
0
100
AcDbLine
 62
7
  6
CONTINUOUS
 10
117.2073565253
 20
137.7761628541
 11
117.2796308003
 21
137.8013381129
  0
LINE
  5
268
100
AcDbEntity
  8
0
100
AcDbLine
 62
7
  6
CONTINUOUS
 10
117.1952545351
 20
136.9280681561
 11
117.1229802522
 21
136.9028928804
  0
LINE
  5
269
100
AcDbEntity
  8
0
100
AcDbLine
 62
7
  6
CONTINUOUS
 10
118.6959838827
 20
136.1426733612
 11
118.6225586642
 21
136.121083971
  0
LINE
  5
26A
100
AcDbEntity
  8
0
100
AcDbLine
 62
7
  6
CONTINUOUS
 10
82.7864997021
 20
134.9512715834
 11
82.7798659282
 21
134.848782555
  0
LINE
  5
26B
100
AcDbEntity
  8
0
100
AcDbLine
 62
7
  6
CONTINUOUS
 10
83.4475250385
 20
135.2847198522
 11
83.4375117247
 21
135.1825056021
  0
LINE
  5
26C
100
AcDbEntity
  8
0
100
AcDbLine
 62
7
  6
CONTINUOUS
 10
84.1070401915
 20
135.7921926991
 11
84.0938952697
 21
135.6903339368
  0
LINE
  5
26D
100
AcDbEntity
  8
0
100
AcDbLine
 62
7
  6
CONTINUOUS
 10
84.2647402119
 20
135.6507804967
 11
84.2778851337
 21
135.752639259
  0
LINE
  5
26E
100
AcDbEntity
  8
0
100
AcDbLine
 62
7
  6
CONTINUOUS
 10
85.0720239496
 20
135.2840484292
 11
85.0588790278
 21
135.1821896669
  0
LINE
  5
26F
100
AcDbEntity
  8
0
100
AcDbLine
 62
7
  6
CONTINUOUS
 10
85.2297238251
 20
135.142636116
 11
85.2428688991
 21
135.2444949769
  0
LINE
  5
270
100
AcDbEntity
  8
0
100
AcDbLine
 62
7
  6
CONTINUOUS
 10
87.4344012708
 20
137.0804897997
 11
87.523743806
 21
137.704619259
  0
LINE
  5
271
100
AcDbEntity
  8
0
100
AcDbLine
 62
7
  6
CONTINUOUS
 10
87.3520973678
 20
137.623149249
 11
87.240206983
 21
136.8988216415
  0
LINE
  5
272
100
AcDbEntity
  8
0
100
AcDbLine
 62
7
  6
CONTINUOUS
 10
86.0360311402
 20
136.8341866031
 11
86.0168502477
 21
136.7332900583
  0
LINE
  5
273
100
AcDbEntity
  8
0
100
AcDbLine
 62
7
  6
CONTINUOUS
 10
86.0910376424
 20
136.5896105458
 11
86.1102185348
 21
136.6905070905
  0
LINE
  5
274
100
AcDbEntity
  8
0
100
AcDbLine
 62
7
  6
CONTINUOUS
 10
87.344211437
 20
136.679698137
 11
87.4005801392
 21
136.9301929136
  0
LINE
  5
275
100
AcDbEntity
  8
0
100
AcDbLine
 62
7
  6
CONTINUOUS
 10
117.2418653796
 20
137.9367060017
 11
117.1304647983
 21
137.8708977924
  0
LINE
  5
276
100
AcDbEntity
  8
0
100
AcDbLine
 62
7
  6
CONTINUOUS
 10
117.160745669
 20
136.7675249831
 11
117.2721462541
 21
136.8333332009
  0
LINE
  5
277
100
AcDbEntity
  8
0
100
AcDbLine
 62
7
  6
CONTINUOUS
 10
119.5251902058
 20
136.7552976823
 11
119.4382788137
 21
136.7121338939
  0
LINE
  5
278
100
AcDbEntity
  8
0
100
AcDbLine
 62
7
  6
CONTINUOUS
 10
119.3694827357
 20
135.6505934182
 11
119.4563941323
 21
135.6937572148
  0
LINE
  5
279
100
AcDbEntity
  8
0
100
AcDbLine
 62
7
  6
CONTINUOUS
 10
120.2893636263
 20
135.6095993973
 11
120.3482793055
 21
135.636323251
  0
LINE
  5
27A
100
AcDbEntity
  8
0
100
AcDbLine
 62
7
  6
CONTINUOUS
 10
122.1076191506
 20
135.2187178602
 11
121.9873018926
 21
135.1711308723
  0
LINE
  5
27B
100
AcDbEntity
  8
0
100
AcDbLine
 62
7
  6
CONTINUOUS
 10
121.8447472564
 20
134.0765868288
 11
121.9650645195
 21
134.1241738245
  0
LINE
  5
27C
100
AcDbEntity
  8
0
100
AcDbLine
 62
7
  6
CONTINUOUS
 10
122.4243955699
 20
134.2267191501
 11
122.4851009482
 21
134.2490815887
  0
LINE
  5
27D
100
AcDbEntity
  8
0
100
AcDbLine
 62
7
  6
CONTINUOUS
 10
82.9790204933
 20
134.8380623701
 11
82.9661498459
 21
135.0251637284
  0
LINE
  5
27E
100
AcDbEntity
  8
0
100
AcDbLine
 62
7
  6
CONTINUOUS
 10
84.0938952697
 20
135.6903339368
 11
84.101401054
 21
135.5537221663
  0
LINE
  5
27F
100
AcDbEntity
  8
0
100
AcDbLine
 62
7
  6
CONTINUOUS
 10
84.2722458405
 20
135.5141686337
 11
84.2647402119
 21
135.6507804967
  0
LINE
  5
280
100
AcDbEntity
  8
0
100
AcDbLine
 62
7
  6
CONTINUOUS
 10
85.0645181508
 20
135.420660224
 11
85.0720239496
 21
135.2840484292
  0
LINE
  5
281
100
AcDbEntity
  8
0
100
AcDbLine
 62
7
  6
CONTINUOUS
 10
85.2428688991
 20
135.2444949769
 11
85.2353632632
 21
135.3811068521
  0
LINE
  5
282
100
AcDbEntity
  8
0
100
AcDbLine
 62
7
  6
CONTINUOUS
 10
83.5677560618
 20
134.9778877892
 11
83.56106849
 21
135.1653120359
  0
LINE
  5
283
100
AcDbEntity
  8
0
100
AcDbLine
 62
7
  6
CONTINUOUS
 10
117.2622309155
 20
136.9851531921
 11
117.1952545351
 21
136.9280681561
  0
LINE
  5
284
100
AcDbEntity
  8
0
100
AcDbLine
 62
7
  6
CONTINUOUS
 10
118.7656874598
 20
136.1963944823
 11
118.6959838827
 21
136.1426733612
  0
LINE
  5
285
100
AcDbEntity
  8
0
100
AcDbLine
 62
7
  6
CONTINUOUS
 10
119.3792110926
 20
136.5312188111
 11
119.5210949938
 21
136.6353685139
  0
LINE
  5
286
100
AcDbEntity
  8
0
100
AcDbLine
 62
7
  6
CONTINUOUS
 10
119.5154618261
 20
135.8746722487
 11
119.3735779522
 21
135.7705225948
  0
LINE
  5
287
100
AcDbEntity
  8
0
100
AcDbLine
 62
7
  6
CONTINUOUS
 10
118.6946969972
 20
136.0226811859
 11
118.7930262533
 21
136.0914644368
  0
LINE
  5
288
100
AcDbEntity
  8
0
100
AcDbLine
 62
7
  6
CONTINUOUS
 10
120.5103377934
 20
135.9748508149
 11
120.5830643557
 21
136.0244028782
  0
LINE
  5
289
100
AcDbEntity
  8
0
100
AcDbLine
 62
7
  6
CONTINUOUS
 10
120.524943154
 20
135.1864224921
 11
120.4522165821
 21
135.1368704128
  0
LINE
  5
28A
100
AcDbEntity
  8
0
100
AcDbLine
 62
7
  6
CONTINUOUS
 10
120.5913673762
 20
136.1441143483
 11
120.4891833325
 21
136.0812001415
  0
LINE
  5
28B
100
AcDbEntity
  8
0
100
AcDbLine
 62
7
  6
CONTINUOUS
 10
120.4439135567
 20
135.0171589348
 11
120.5460976053
 21
135.0800731496
  0
LINE
  5
28C
100
AcDbEntity
  8
0
100
AcDbLine
 62
7
  6
CONTINUOUS
 10
121.9790016235
 20
134.2756774049
 11
121.9039254974
 21
134.2297629724
  0
LINE
  5
28D
100
AcDbEntity
  8
0
100
AcDbLine
 62
7
  6
CONTINUOUS
 10
122.6713819778
 20
134.5749086027
 11
122.7475240039
 21
134.6190328783
  0
LINE
  5
28E
100
AcDbEntity
  8
0
100
AcDbLine
 62
7
  6
CONTINUOUS
 10
122.6285322791
 20
133.7875100758
 11
122.5523902423
 21
133.743385785
  0
LINE
  5
28F
100
AcDbEntity
  8
0
100
AcDbLine
 62
7
  6
CONTINUOUS
 10
122.7645228125
 20
134.7378218371
 11
122.6580284387
 21
134.6825161
  0
LINE
  5
290
100
AcDbEntity
  8
0
100
AcDbLine
 62
7
  6
CONTINUOUS
 10
122.5353914283
 20
133.6245968186
 11
122.6418858075
 21
133.6799025634
  0
LINE
  5
291
100
AcDbEntity
  8
0
100
AcDbLine
 62
7
  6
CONTINUOUS
 10
123.694991038
 20
134.1961280371
 11
123.4953685721
 21
134.1120330831
  0
LINE
  5
292
100
AcDbEntity
  8
0
100
AcDbLine
 62
7
  6
CONTINUOUS
 10
123.3677430645
 20
133.9409445361
 11
123.5673655751
 21
134.0250395499
  0
LINE
  5
293
100
AcDbEntity
  8
RUNDUNGEN
100
AcDbLine
 62
7
  6
CONTINUOUS
 10
93.3926678093
 20
148.5065653634
 11
93.3926678093
 21
142.0668333959
  0
LINE
  5
294
100
AcDbEntity
  8
RUNDUNGEN
100
AcDbLine
 62
7
  6
CONTINUOUS
 10
93.3926678093
 20
62.7719741774
 11
93.3926678093
 21
69.2116310339
  0
LINE
  5
295
100
AcDbEntity
  8
0
100
AcDbLine
 62
7
  6
CONTINUOUS
 10
117.2721462541
 20
136.8333332009
 11
117.3503987796
 21
136.9145991631
  0
LINE
  5
296
100
AcDbEntity
  8
0
100
AcDbLine
 62
7
  6
CONTINUOUS
 10
120.4891833325
 20
136.0812001415
 11
120.3888349655
 21
135.985991595
  0
LINE
  5
297
100
AcDbEntity
  8
0
100
AcDbLine
 62
7
  6
CONTINUOUS
 10
119.4382788137
 20
136.7121338939
 11
119.3543359378
 21
136.6367600814
  0
LINE
  5
298
100
AcDbEntity
  8
0
100
AcDbLine
 62
7
  6
CONTINUOUS
 10
119.4563941323
 20
135.6937572148
 11
119.5403368345
 21
135.7691311456
  0
LINE
  5
299
100
AcDbEntity
  8
0
100
AcDbLine
 62
7
  6
CONTINUOUS
 10
122.6580284387
 20
134.6825161
 11
122.5510130738
 21
134.5948680894
  0
LINE
  5
29A
100
AcDbEntity
  8
0
100
AcDbLine
 62
7
  6
CONTINUOUS
 10
121.9650645195
 20
134.1241738245
 11
122.0550578063
 21
134.192209445
  0
LINE
  5
29B
100
AcDbEntity
  8
RUNDUNGEN
100
AcDbLine
 62
7
  6
CONTINUOUS
 10
135.0168347844
 20
134.867146201
 11
129.4398717252
 21
131.6472850775
  0
LINE
  5
29C
100
AcDbEntity
  8
RUNDUNGEN
100
AcDbLine
 62
7
  6
CONTINUOUS
 10
60.7685008342
 20
91.999850608
 11
66.3454084279
 21
95.2196797084
  0
LINE
  5
29D
100
AcDbEntity
  8
RUNDUNGEN
100
AcDbLine
 62
7
  6
CONTINUOUS
 10
60.7685008342
 20
119.2786889329
 11
66.3454649678
 21
116.0588271891
  0
LINE
  5
29E
100
AcDbEntity
  8
RUNDUNGEN
100
AcDbLine
 62
7
  6
CONTINUOUS
 10
129.4399295178
 20
79.6312210968
 11
135.0168347844
 21
76.4113933398
  0
LINE
  5
29F
100
AcDbEntity
  8
0
100
AcDbLine
 62
7
  6
CONTINUOUS
 10
84.101401054
 20
135.5537221663
 11
84.1361299275
 21
135.4332867225
  0
LINE
  5
2A0
100
AcDbEntity
  8
RUNDUNGEN
100
AcDbLine
 62
7
  6
CONTINUOUS
 10
107.179971239
 20
148.8155823578
 11
104.6426678093
 21
141.0065653634
  0
LINE
  5
2A1
100
AcDbEntity
  8
0
100
AcDbLine
 62
7
  6
CONTINUOUS
 10
117.1304647983
 20
137.8708977924
 11
117.0687862652
 21
137.7819030012
  0
LINE
  5
2A2
100
AcDbEntity
  8
0
100
AcDbLine
 62
7
  6
CONTINUOUS
 10
119.2852359723
 20
136.4003358785
 11
119.3792110926
 21
136.5312188111
  0
LINE
  5
2A3
100
AcDbEntity
  8
0
100
AcDbLine
 62
7
  6
CONTINUOUS
 10
119.2993636114
 20
136.575774065
 11
119.2183892518
 21
136.4681902282
  0
LINE
  5
2A4
100
AcDbEntity
  8
0
100
AcDbLine
 62
7
  6
CONTINUOUS
 10
119.5953093072
 20
135.8301169948
 11
119.676283685
 21
135.9377008642
  0
LINE
  5
2A5
100
AcDbEntity
  8
0
100
AcDbLine
 62
7
  6
CONTINUOUS
 10
120.3547462525
 20
135.7883292134
 11
120.4532585072
 21
135.9158321883
  0
LINE
  5
2A6
100
AcDbEntity
  8
0
100
AcDbLine
 62
7
  6
CONTINUOUS
 10
117.1569540503
 20
137.7113489266
 11
117.2073565253
 21
137.7761628541
  0
LINE
  5
2A7
100
AcDbEntity
  8
0
100
AcDbLine
 62
7
  6
CONTINUOUS
 10
118.8192171764
 20
136.2586504727
 11
118.7656874598
 21
136.1963944823
  0
LINE
  5
2A8
100
AcDbEntity
  8
0
100
AcDbLine
 62
7
  6
CONTINUOUS
 10
122.5026207046
 20
134.4002127599
 11
122.6101562913
 21
134.5202034063
  0
LINE
  5
2A9
100
AcDbEntity
  8
RUNDUNGEN
100
AcDbLine
 62
7
  6
CONTINUOUS
 10
72.8886913626
 20
86.0070648154
 11
67.3945359817
 21
79.905187091
  0
LINE
  5
2AA
100
AcDbEntity
  8
0
100
AcDbLine
 62
7
  6
CONTINUOUS
 10
119.3543359378
 20
136.6367600814
 11
119.2993636114
 21
136.575774065
  0
LINE
  5
2AB
100
AcDbEntity
  8
0
100
AcDbLine
 62
7
  6
CONTINUOUS
 10
119.5403368345
 20
135.7691311456
 11
119.5953093072
 21
135.8301169948
  0
LINE
  5
2AC
100
AcDbEntity
  8
0
100
AcDbLine
 62
7
  6
CONTINUOUS
 10
118.7930262533
 20
136.0914644368
 11
118.8876338636
 21
136.1923794103
  0
LINE
  5
2AD
100
AcDbEntity
  8
0
100
AcDbLine
 62
7
  6
CONTINUOUS
 10
121.9873018926
 20
135.1711308723
 11
121.9124709541
 21
135.0928707246
  0
LINE
  5
2AE
100
AcDbEntity
  8
0
100
AcDbLine
 62
7
  6
CONTINUOUS
 10
120.4532585072
 20
135.9158321883
 11
120.5103377934
 21
135.9748508149
  0
LINE
  5
2AF
100
AcDbEntity
  8
0
100
AcDbLine
 62
7
  6
CONTINUOUS
 10
120.2322843594
 20
135.5505808026
 11
120.2893636263
 21
135.6095993973
  0
LINE
  5
2B0
100
AcDbEntity
  8
0
100
AcDbLine
 62
7
  6
CONTINUOUS
 10
120.5820224015
 20
135.2454410548
 11
120.524943154
 21
135.1864224921
  0
LINE
  5
2B1
100
AcDbEntity
  8
0
100
AcDbLine
 62
7
  6
CONTINUOUS
 10
120.5460976053
 20
135.0800731496
 11
120.6464459432
 21
135.1752816481
  0
LINE
  5
2B2
100
AcDbEntity
  8
0
100
AcDbLine
 62
7
  6
CONTINUOUS
 10
121.9885270951
 20
135.0094027028
 11
122.0484409252
 21
135.0655417398
  0
LINE
  5
2B3
100
AcDbEntity
  8
0
100
AcDbLine
 62
7
  6
CONTINUOUS
 10
122.6101562913
 20
134.5202034063
 11
122.6713819778
 21
134.5749086027
  0
LINE
  5
2B4
100
AcDbEntity
  8
0
100
AcDbLine
 62
7
  6
CONTINUOUS
 10
122.3631699049
 20
134.1720139842
 11
122.4243955699
 21
134.2267191501
  0
LINE
  5
2B5
100
AcDbEntity
  8
0
100
AcDbLine
 62
7
  6
CONTINUOUS
 10
122.6897579225
 20
133.8422152113
 11
122.6285322791
 21
133.7875100758
  0
LINE
  5
2B6
100
AcDbEntity
  8
0
100
AcDbLine
 62
7
  6
CONTINUOUS
 10
122.6418858075
 20
133.6799025634
 11
122.74890114
 21
133.7675505282
  0
LINE
  5
2B7
100
AcDbEntity
  8
0
100
AcDbLine
 62
7
  6
CONTINUOUS
 10
137.7471325005
 20
107.1705494879
 11
137.6680982306
 21
107.1483045568
  0
LINE
  5
2B8
100
AcDbEntity
  8
0
100
AcDbLine
 62
7
  6
CONTINUOUS
 10
137.0315550972
 20
107.5926775404
 11
137.1372371349
 21
107.6162491698
  0
LINE
  5
2B9
100
AcDbEntity
  8
RUNDUNGEN
100
AcDbLine
 62
7
  6
CONTINUOUS
 10
62.6072325521
 20
88.1970398625
 11
70.6386913626
 21
89.9041791324
  0
LINE
  5
2BA
100
AcDbEntity
  8
0
100
AcDbLine
 62
7
  6
CONTINUOUS
 10
137.6735542395
 20
107.0387152891
 11
137.8058841955
 21
107.0636135981
  0
LINE
  5
2BB
100
AcDbEntity
  8
0
100
AcDbLine
 62
7
  6
CONTINUOUS
 10
137.131781126
 20
107.7258384375
 11
136.9994512455
 21
107.7009401143
  0
LINE
  5
2BC
100
AcDbEntity
  8
RUNDUNGEN
100
AcDbLine
 62
7
  6
CONTINUOUS
 10
134.146644256
 20
89.9041791324
 11
142.1781030666
 21
88.1970398625
  0
LINE
  5
2BD
100
AcDbEntity
  8
RUNDUNGEN
100
AcDbLine
 62
7
  6
CONTINUOUS
 10
67.3945359817
 20
131.3733524498
 11
72.8886913626
 21
125.2714747254
  0
LINE
  5
2BE
100
AcDbEntity
  8
0
100
AcDbLine
 62
7
  6
CONTINUOUS
 10
82.7441740098
 20
135.0692517546
 11
82.7864997021
 21
134.9512715834
  0
LINE
  5
2BF
100
AcDbEntity
  8
0
100
AcDbLine
 62
7
  6
CONTINUOUS
 10
82.9661498459
 20
135.0251637284
 11
82.9238241535
 21
135.1431438996
  0
LINE
  5
2C0
100
AcDbEntity
  8
0
100
AcDbLine
 62
7
  6
CONTINUOUS
 10
84.1361299275
 20
135.4332867225
 11
84.1915095072
 21
135.2780982706
  0
LINE
  5
2C1
100
AcDbEntity
  8
0
100
AcDbLine
 62
7
  6
CONTINUOUS
 10
84.3276255759
 20
135.3589802743
 11
84.2722458405
 21
135.5141686337
  0
LINE
  5
2C2
100
AcDbEntity
  8
0
100
AcDbLine
 62
7
  6
CONTINUOUS
 10
85.0091387269
 20
135.5758487685
 11
85.0645181508
 21
135.420660224
  0
LINE
  5
2C3
100
AcDbEntity
  8
0
100
AcDbLine
 62
7
  6
CONTINUOUS
 10
85.2353632632
 20
135.3811068521
 11
85.1452544841
 21
135.6567305871
  0
LINE
  5
2C4
100
AcDbEntity
  8
RUNDUNGEN
100
AcDbLine
 62
7
  6
CONTINUOUS
 10
104.6426678093
 20
70.2719741774
 11
107.179971239
 21
62.462957183
  0
LINE
  5
2C5
100
AcDbEntity
  8
0
100
AcDbLine
 62
7
  6
CONTINUOUS
 10
99.2176678093
 20
118.0899474628
 11
99.2176678093
 21
121.3642697704
  0
LINE
  5
2C6
100
AcDbEntity
  8
0
100
AcDbLine
 62
7
  6
CONTINUOUS
 10
100.1426678093
 20
70.2719741774
 11
100.1426678093
 21
71.2719453329
  0
LINE
  5
2C7
100
AcDbEntity
  8
0
100
AcDbLine
 62
7
  6
CONTINUOUS
 10
100.1426678093
 20
140.006616546
 11
100.1426678093
 21
141.0065653634
  0
LINE
  5
2C8
100
AcDbEntity
  8
RUNDUNGEN
100
AcDbLine
 62
7
  6
CONTINUOUS
 10
100.1426678093
 20
140.2953669124
 11
100.1426678093
 21
141.0065653634
  0
LINE
  5
2C9
100
AcDbEntity
  8
02___PRT_ALL_AXES
100
AcDbLine
 62
7
  6
CENTER
 10
102.3926678093
 20
105.6392697704
 11
102.3926678093
 21
56.7351323342
  0
LINE
  5
2CA
100
AcDbEntity
  8
02___PRT_ALL_AXES
100
AcDbLine
 62
7
  6
CENTER
 10
102.3926678093
 20
105.6392697704
 11
102.3926678093
 21
154.5434072066
  0
LINE
  5
2CB
100
AcDbEntity
  8
0
100
AcDbLine
 62
7
  6
CONTINUOUS
 10
116.3795805194
 20
138.4075129034
 11
115.8766551553
 21
137.2587822656
  0
LINE
  5
2CC
100
AcDbEntity
  8
0
100
AcDbLine
 62
7
  6
CONTINUOUS
 10
116.0413723239
 20
137.3614227603
 11
116.4800944502
 21
138.363506934
  0
LINE
  5
2CD
100
AcDbEntity
  8
0
100
AcDbLine
 62
7
  6
CONTINUOUS
 10
116.4797387401
 20
136.9947464495
 11
116.543941978
 21
137.1413929135
  0
LINE
  5
2CE
100
AcDbEntity
  8
0
100
AcDbLine
 62
7
  6
CONTINUOUS
 10
117.0687862652
 20
137.7819030012
 11
117.0236816848
 21
137.6851792963
  0
LINE
  5
2CF
100
AcDbEntity
  8
0
100
AcDbLine
 62
7
  6
CONTINUOUS
 10
117.1344017759
 20
137.662987108
 11
117.1569540503
 21
137.7113489266
  0
LINE
  5
2D0
100
AcDbEntity
  8
0
100
AcDbLine
 62
7
  6
CONTINUOUS
 10
117.2960593271
 20
137.05769592
 11
117.2622309155
 21
136.9851531921
  0
LINE
  5
2D1
100
AcDbEntity
  8
0
100
AcDbLine
 62
7
  6
CONTINUOUS
 10
117.3503987796
 20
136.9145991631
 11
117.4067794655
 21
137.0355037095
  0
LINE
  5
2D2
100
AcDbEntity
  8
0
100
AcDbLine
 62
7
  6
CONTINUOUS
 10
118.7287482571
 20
137.3019285467
 11
118.4049957904
 21
136.6884083993
  0
LINE
  5
2D3
100
AcDbEntity
  8
0
100
AcDbLine
 62
7
  6
CONTINUOUS
 10
118.5481243922
 20
136.7637189918
 11
118.7473566928
 21
137.1412698771
  0
LINE
  5
2D4
100
AcDbEntity
  8
0
100
AcDbLine
 62
7
  6
CONTINUOUS
 10
118.8441212096
 20
136.3058443251
 11
118.8192171764
 21
136.2586504727
  0
LINE
  5
2D5
100
AcDbEntity
  8
0
100
AcDbLine
 62
7
  6
CONTINUOUS
 10
119.216394879
 20
136.8937600433
 11
119.278654962
 21
137.0117446744
  0
LINE
  5
2D6
100
AcDbEntity
  8
0
100
AcDbLine
 62
7
  6
CONTINUOUS
 10
118.8876338636
 20
136.1923794103
 11
118.93744193
 21
136.2867671151
  0
LINE
  5
2D7
100
AcDbEntity
  8
0
100
AcDbLine
 62
7
  6
CONTINUOUS
 10
119.2183892518
 20
136.4681902282
 11
119.1013807609
 21
136.2584992837
  0
LINE
  5
2D8
100
AcDbEntity
  8
0
100
AcDbLine
 62
7
  6
CONTINUOUS
 10
119.1942293683
 20
136.2372429216
 11
119.2852359723
 21
136.4003358785
  0
LINE
  5
2D9
100
AcDbEntity
  8
0
100
AcDbLine
 62
7
  6
CONTINUOUS
 10
119.7004433859
 20
136.1686482727
 11
119.6094367818
 21
136.0055553159
  0
LINE
  5
2DA
100
AcDbEntity
  8
0
100
AcDbLine
 62
7
  6
CONTINUOUS
 10
119.676283685
 20
135.9377008642
 11
119.7932921759
 21
136.1473918087
  0
LINE
  5
2DB
100
AcDbEntity
  8
0
100
AcDbLine
 62
7
  6
CONTINUOUS
 10
119.8509076395
 20
135.9284284927
 11
119.783786618
 21
135.813139857
  0
LINE
  5
2DC
100
AcDbEntity
  8
0
100
AcDbLine
 62
7
  6
CONTINUOUS
 10
120.0050445686
 20
135.6843235207
 11
120.0721655901
 21
135.7996121564
  0
LINE
  5
2DD
100
AcDbEntity
  8
0
100
AcDbLine
 62
7
  6
CONTINUOUS
 10
120.2765121859
 20
135.8356601939
 11
120.1798360047
 21
135.6758627266
  0
LINE
  5
2DE
100
AcDbEntity
  8
0
100
AcDbLine
 62
7
  6
CONTINUOUS
 10
120.3271244864
 20
135.7426727942
 11
120.3547462525
 21
135.7883292134
  0
LINE
  5
2DF
100
AcDbEntity
  8
0
100
AcDbLine
 62
7
  6
CONTINUOUS
 10
120.1908517103
 20
135.4820961738
 11
120.2322843594
 21
135.5505808026
  0
LINE
  5
2E0
100
AcDbEntity
  8
0
100
AcDbLine
 62
7
  6
CONTINUOUS
 10
120.6234550506
 20
135.3139256836
 11
120.5820224015
 21
135.2454410548
  0
LINE
  5
2E1
100
AcDbEntity
  8
0
100
AcDbLine
 62
7
  6
CONTINUOUS
 10
120.6464459432
 20
135.1752816481
 11
120.7155003777
 21
135.2894227281
  0
LINE
  5
2E2
100
AcDbEntity
  8
0
100
AcDbLine
 62
7
  6
CONTINUOUS
 10
121.9124709541
 20
135.0928707246
 11
121.8528023117
 21
135.0043859725
  0
LINE
  5
2E3
100
AcDbEntity
  8
0
100
AcDbLine
 62
7
  6
CONTINUOUS
 10
121.9586927948
 20
134.9651603577
 11
121.9885270951
 21
135.0094027028
  0
LINE
  5
2E4
100
AcDbEntity
  8
0
100
AcDbLine
 62
7
  6
CONTINUOUS
 10
122.023753074
 20
134.3420409225
 11
121.9790016235
 21
134.2756774049
  0
LINE
  5
2E5
100
AcDbEntity
  8
0
100
AcDbLine
 62
7
  6
CONTINUOUS
 10
122.0550578063
 20
134.192209445
 11
122.1296435571
 21
134.3028153077
  0
LINE
  5
2E6
100
AcDbEntity
  8
0
100
AcDbLine
 62
7
  6
CONTINUOUS
 10
122.4280408393
 20
134.4531156061
 11
122.3199843047
 21
134.3007827472
  0
LINE
  5
2E7
100
AcDbEntity
  8
0
100
AcDbLine
 62
7
  6
CONTINUOUS
 10
122.471747409
 20
134.356689086
 11
122.5026207046
 21
134.4002127599
  0
LINE
  5
2E8
100
AcDbEntity
  8
0
100
AcDbLine
 62
7
  6
CONTINUOUS
 10
122.3168599616
 20
134.1067284733
 11
122.3631699049
 21
134.1720139842
  0
LINE
  5
2E9
100
AcDbEntity
  8
0
100
AcDbLine
 62
7
  6
CONTINUOUS
 10
122.7360678658
 20
133.9075007222
 11
122.6897579225
 21
133.8422152113
  0
LINE
  5
2EA
100
AcDbEntity
  8
0
100
AcDbLine
 62
7
  6
CONTINUOUS
 10
122.74890114
 20
133.7675505282
 11
122.8260844006
 21
133.8763597435
  0
LINE
  5
2EB
100
AcDbEntity
  8
0
100
AcDbLine
 62
7
  6
CONTINUOUS
 10
119.6094367818
 20
136.0055553159
 11
119.5154618261
 21
135.8746722487
  0
LINE
  5
2EC
100
AcDbEntity
  8
0
100
AcDbLine
 62
7
  6
CONTINUOUS
 10
122.744479474
 20
133.5049796478
 11
122.6656552988
 21
133.3973532314
  0
LINE
  5
2ED
100
AcDbEntity
  8
0
100
AcDbLine
 62
7
  6
CONTINUOUS
 10
122.7394237866
 20
133.3433261589
 11
122.8182479617
 21
133.4509525753
  0
LINE
  5
2EE
100
AcDbEntity
  8
0
100
AcDbLine
 62
7
  6
CONTINUOUS
 10
123.4953685721
 20
134.1120330831
 11
123.3677430645
 21
133.9409445361
  0
LINE
  5
2EF
100
AcDbEntity
  8
0
100
AcDbLine
 62
7
  6
CONTINUOUS
 10
123.5673655751
 20
134.0250395499
 11
122.9451913543
 21
133.1909830553
  0
LINE
  5
2F0
100
AcDbEntity
  8
0
100
AcDbLine
 62
7
  6
CONTINUOUS
 10
123.0331415403
 20
133.1253755829
 11
123.7829412239
 21
134.1305205647
  0
LINE
  5
2F1
100
AcDbEntity
  8
0
100
AcDbLine
 62
7
  6
CONTINUOUS
 10
120.3888349655
 20
135.985991595
 11
120.2765121859
 21
135.8356601939
  0
LINE
  5
2F2
100
AcDbEntity
  8
0
100
AcDbLine
 62
7
  6
CONTINUOUS
 10
122.5510130738
 20
134.5948680894
 11
122.4280408393
 21
134.4531156061
  0
LINE
  5
2F3
100
AcDbEntity
  8
RUNDUNGEN
100
AcDbLine
 62
7
  6
CONTINUOUS
 10
70.6386913626
 20
89.9041791324
 11
71.2546072884
 21
90.2597783579
  0
LINE
  5
2F4
100
AcDbEntity
  8
0
100
AcDbLine
 62
7
  6
CONTINUOUS
 10
70.6386913626
 20
89.9041791324
 11
71.5046866334
 21
90.4041617351
  0
LINE
  5
2F5
100
AcDbEntity
  8
0
100
AcDbLine
 62
7
  6
CONTINUOUS
 10
131.0306607678
 20
124.7714989254
 11
131.896644256
 21
125.2714747254
  0
LINE
  5
2F6
100
AcDbEntity
  8
0
100
AcDbLine
 62
7
  6
CONTINUOUS
 10
137.1372371349
 20
107.6162491698
 11
137.5369548183
 21
107.6361495057
  0
LINE
  5
2F7
100
AcDbEntity
  8
0
100
AcDbLine
 62
7
  6
CONTINUOUS
 10
137.5314988094
 20
107.7457387734
 11
137.131781126
 21
107.7258384375
  0
LINE
  5
2F8
100
AcDbEntity
  8
0
100
AcDbLine
 62
7
  6
CONTINUOUS
 10
136.7562938285
 20
106.4438477371
 11
137.396434069
 21
106.4598580788
  0
LINE
  5
2F9
100
AcDbEntity
  8
0
100
AcDbLine
 62
7
  6
CONTINUOUS
 10
137.3936906302
 20
106.5695487765
 11
136.7535503897
 21
106.5535384348
  0
LINE
  5
2FA
100
AcDbEntity
  8
0
100
AcDbLine
 62
7
  6
CONTINUOUS
 10
136.7659986161
 20
105.3466703344
 11
136.9260836314
 21
105.3468406766
  0
LINE
  5
2FB
100
AcDbEntity
  8
0
100
AcDbLine
 62
7
  6
CONTINUOUS
 10
136.9254998544
 20
105.895465366
 11
138.0194141292
 21
105.8966293712
  0
LINE
  5
2FC
100
AcDbEntity
  8
0
100
AcDbLine
 62
7
  6
CONTINUOUS
 10
138.0192973738
 20
106.0063543091
 11
136.7652980837
 21
106.0050199617
  0
LINE
  5
2FD
100
AcDbEntity
  8
02___PRT_ALL_AXES
100
AcDbLine
 62
7
  6
CENTER
 10
102.3926678093
 20
105.6392697704
 11
53.4885303731
 21
105.6392697704
  0
LINE
  5
2FE
100
AcDbEntity
  8
02___PRT_ALL_AXES
100
AcDbLine
 62
7
  6
CENTER
 10
102.3926678093
 20
105.6392697704
 11
151.2968052455
 21
105.6392697704
  0
LINE
  5
2FF
100
AcDbEntity
  8
0
100
AcDbLine
 62
7
  6
CONTINUOUS
 10
136.731522785
 20
104.103624137
 11
137.9844431723
 21
104.0516000755
  0
LINE
  5
300
100
AcDbEntity
  8
0
100
AcDbLine
 62
7
  6
CONTINUOUS
 10
137.7757322498
 20
104.1700855586
 11
136.7360748817
 21
104.2132544618
  0
LINE
  5
301
100
AcDbEntity
  8
0
100
AcDbLine
 62
7
  6
CONTINUOUS
 10
137.8069422326
 20
104.2786091977
 11
137.5936791387
 21
104.2874643592
  0
LINE
  5
302
100
AcDbEntity
  8
0
100
AcDbLine
 62
7
  6
CONTINUOUS
 10
71.5046695068
 20
120.8743876937
 11
70.6386913626
 21
121.3743604084
  0
LINE
  5
303
100
AcDbEntity
  8
0
100
AcDbLine
 62
7
  6
CONTINUOUS
 10
131.0306483982
 20
86.507047757
 11
131.896644256
 21
86.0070648154
  0
LINE
  5
304
100
AcDbEntity
  8
0
100
AcDbLine
 62
7
  6
CONTINUOUS
 10
81.6143936679
 20
134.9822250473
 11
82.6869935311
 21
133.4139363196
  0
LINE
  5
305
100
AcDbEntity
  8
0
100
AcDbLine
 62
7
  6
CONTINUOUS
 10
82.8438224038
 20
133.5211963059
 11
82.3645756497
 21
134.2219210665
  0
LINE
  5
306
100
AcDbEntity
  8
0
100
AcDbLine
 62
7
  6
CONTINUOUS
 10
82.2276480239
 20
134.4221281143
 11
81.8853288955
 21
134.9226458272
  0
LINE
  5
307
100
AcDbEntity
  8
0
100
AcDbLine
 62
7
  6
CONTINUOUS
 10
82.6757101329
 20
135.169355372
 11
82.7441740098
 21
135.0692517546
  0
LINE
  5
308
100
AcDbEntity
  8
0
100
AcDbLine
 62
7
  6
CONTINUOUS
 10
82.9238241535
 20
135.1431438996
 11
82.8325390057
 21
135.2766153583
  0
LINE
  5
309
100
AcDbEntity
  8
0
100
AcDbLine
 62
7
  6
CONTINUOUS
 10
83.1736974615
 20
135.3021028283
 11
83.8683339866
 21
134.2108077309
  0
LINE
  5
30A
100
AcDbEntity
  8
0
100
AcDbLine
 62
7
  6
CONTINUOUS
 10
84.0019039128
 20
134.2958283175
 11
83.5677560618
 21
134.9778877892
  0
LINE
  5
30B
100
AcDbEntity
  8
0
100
AcDbLine
 62
7
  6
CONTINUOUS
 10
83.4375117247
 20
135.1825056021
 11
83.3072673877
 21
135.387123415
  0
LINE
  5
30C
100
AcDbEntity
  8
0
100
AcDbLine
 62
7
  6
CONTINUOUS
 10
83.7630863266
 20
135.4376622128
 11
83.6545493791
 21
135.6081770569
  0
LINE
  5
30D
100
AcDbEntity
  8
0
100
AcDbLine
 62
7
  6
CONTINUOUS
 10
84.1915095072
 20
135.2780982706
 11
84.2741123606
 21
135.1390861892
  0
LINE
  5
30E
100
AcDbEntity
  8
0
100
AcDbLine
 62
7
  6
CONTINUOUS
 10
84.4102284294
 20
135.2199681929
 11
84.3276255759
 21
135.3589802743
  0
LINE
  5
30F
100
AcDbEntity
  8
0
100
AcDbLine
 62
7
  6
CONTINUOUS
 10
84.9265358735
 20
135.7148608499
 11
85.0091387269
 21
135.5758487685
  0
LINE
  5
310
100
AcDbEntity
  8
0
100
AcDbLine
 62
7
  6
CONTINUOUS
 10
85.1452544841
 20
135.6567305871
 11
85.0626516307
 21
135.7957426684
  0
LINE
  5
311
100
AcDbEntity
  8
0
100
AcDbLine
 62
7
  6
CONTINUOUS
 10
84.7263457341
 20
136.9491696698
 11
85.6563832156
 21
135.2923563782
  0
LINE
  5
312
100
AcDbEntity
  8
0
100
AcDbLine
 62
7
  6
CONTINUOUS
 10
85.7944510952
 20
135.3698595608
 11
84.8644136138
 21
137.0266728523
  0
LINE
  5
313
100
AcDbEntity
  8
0
100
AcDbLine
 62
7
  6
CONTINUOUS
 10
85.1061662069
 20
137.1604631127
 11
85.2029682194
 21
136.9830231189
  0
LINE
  5
314
100
AcDbEntity
  8
0
100
AcDbLine
 62
7
  6
CONTINUOUS
 10
85.3965722988
 20
136.6281430319
 11
86.0161052333
 21
135.4925269723
  0
LINE
  5
315
100
AcDbEntity
  8
0
100
AcDbLine
 62
7
  6
CONTINUOUS
 10
86.1551000177
 20
135.5683552824
 11
85.5355670832
 21
136.703971342
  0
LINE
  5
316
100
AcDbEntity
  8
0
100
AcDbLine
 62
7
  6
CONTINUOUS
 10
85.3419630038
 20
137.0588514289
 11
85.2451609913
 21
137.2362914227
  0
LINE
  5
317
100
AcDbEntity
  8
0
100
AcDbLine
 62
7
  6
CONTINUOUS
 10
85.7834300129
 20
136.8402477273
 11
86.3769292222
 21
135.6908115262
  0
LINE
  5
318
100
AcDbEntity
  8
0
100
AcDbLine
 62
7
  6
CONTINUOUS
 10
86.5176152136
 20
135.7634532479
 11
86.0910376424
 21
136.5896105458
  0
LINE
  5
319
100
AcDbEntity
  8
0
100
AcDbLine
 62
7
  6
CONTINUOUS
 10
86.0168502477
 20
136.7332900583
 11
85.9241160044
 21
136.912889449
  0
LINE
  5
31A
100
AcDbEntity
  8
0
100
AcDbLine
 62
7
  6
CONTINUOUS
 10
86.6716953792
 20
136.7074416306
 11
87.0240855558
 21
136.0249638453
  0
LINE
  5
31B
100
AcDbEntity
  8
0
100
AcDbLine
 62
7
  6
CONTINUOUS
 10
87.1647718693
 20
136.0976057333
 11
86.8123816927
 21
136.7800835186
  0
LINE
  5
31C
100
AcDbEntity
  8
0
100
AcDbLine
 62
7
  6
CONTINUOUS
 10
86.5771458873
 20
137.9265476167
 11
87.3918475404
 21
136.21007996
  0
LINE
  5
31D
100
AcDbEntity
  8
0
100
AcDbLine
 62
7
  6
CONTINUOUS
 10
87.5348862935
 20
136.2779716609
 11
87.344211437
 21
136.679698137
  0
LINE
  5
31E
100
AcDbEntity
  8
0
100
AcDbLine
 62
7
  6
CONTINUOUS
 10
87.240206983
 20
136.8988216415
 11
86.7201846405
 21
137.9944393176
  0
LINE
  5
31F
100
AcDbEntity
  8
RUNDUNGEN
100
AcDbLine
 62
7
  6
CONTINUOUS
 10
104.6426678093
 20
70.9831726284
 11
104.6426678093
 21
70.2719741774
  0
LINE
  5
320
100
AcDbEntity
  8
0
100
AcDbLine
 62
7
  6
CONTINUOUS
 10
104.6426678093
 20
70.2719741774
 11
104.6426678093
 21
71.2719238609
  0
LINE
  5
321
100
AcDbEntity
  8
0
100
AcDbLine
 62
7
  6
CONTINUOUS
 10
104.6426678093
 20
140.0066000841
 11
104.6426678093
 21
141.0065653634
  0
LINE
  5
322
100
AcDbEntity
  8
0
100
AcDbLine
 62
7
  6
CONTINUOUS
 10
105.5676678093
 20
121.3642697704
 11
105.5676678093
 21
118.0899474628
  0
LINE
  5
323
100
AcDbEntity
  8
0
100
AcDbLine
 62
7
  6
CONTINUOUS
 10
119.1013807609
 20
136.2584992837
 11
119.052345668
 21
136.1330931495
  0
LINE
  5
324
100
AcDbEntity
  8
0
100
AcDbLine
 62
7
  6
CONTINUOUS
 10
119.7932921759
 20
136.1473918087
 11
119.8423272507
 21
136.2727979102
  0
LINE
  5
325
100
AcDbEntity
  8
0
100
AcDbLine
 62
7
  6
CONTINUOUS
 10
119.1321931491
 20
136.0885378956
 11
119.1942293683
 21
136.2372429216
  0
LINE
  5
326
100
AcDbEntity
  8
0
100
AcDbLine
 62
7
  6
CONTINUOUS
 10
119.7624797696
 20
136.3173531641
 11
119.7004433859
 21
136.1686482727
  0
LINE
  5
327
100
AcDbEntity
  8
0
100
AcDbLine
 62
7
  6
CONTINUOUS
 10
120.1798360047
 20
135.6758627266
 11
120.0988064025
 21
135.5065991613
  0
LINE
  5
328
100
AcDbEntity
  8
0
100
AcDbLine
 62
7
  6
CONTINUOUS
 10
122.3199843047
 20
134.3007827472
 11
122.2268434485
 21
134.1378694824
  0
LINE
  5
329
100
AcDbEntity
  8
0
100
AcDbLine
 62
7
  6
CONTINUOUS
 10
72.8886913626
 20
86.0070648154
 11
73.7546748508
 21
86.5070406154
  0
LINE
  5
32A
100
AcDbEntity
  8
0
100
AcDbLine
 62
7
  6
CONTINUOUS
 10
133.2806489852
 20
120.8743778057
 11
134.146644256
 21
121.3743604084
  0
LINE
  5
32B
100
AcDbEntity
  8
0
100
AcDbLine
 62
7
  6
CONTINUOUS
 10
136.9265052436
 20
107.0198328567
 11
137.0606538116
 21
107.0082014418
  0
LINE
  5
32C
100
AcDbEntity
  8
0
100
AcDbLine
 62
7
  6
CONTINUOUS
 10
137.6656474342
 20
107.7341073433
 11
137.5314988094
 21
107.7457387734
  0
LINE
  5
32D
100
AcDbEntity
  8
0
100
AcDbLine
 62
7
  6
CONTINUOUS
 10
73.7547141981
 20
124.7714762082
 11
72.8886913626
 21
125.2714747254
  0
LINE
  5
32E
100
AcDbEntity
  8
RUNDUNGEN
100
AcDbLine
 62
7
  6
CONTINUOUS
 10
133.5307283303
 20
90.2597783579
 11
134.146644256
 21
89.9041791324
  0
LINE
  5
32F
100
AcDbEntity
  8
0
100
AcDbLine
 62
7
  6
CONTINUOUS
 10
133.2806654703
 20
90.4041522175
 11
134.146644256
 21
89.9041791324
  0
LINE
  5
330
100
AcDbEntity
  8
RUNDUNGEN
100
AcDbLine
 62
7
  6
CONTINUOUS
 10
111.3926678093
 20
62.7719741774
 11
111.3926678093
 21
69.2116970446
  0
LINE
  5
331
100
AcDbEntity
  8
RUNDUNGEN
100
AcDbLine
 62
7
  6
CONTINUOUS
 10
111.3926678093
 20
142.066908507
 11
111.3926678093
 21
148.5065653634
  0
LINE
  5
332
100
AcDbEntity
  8
0
100
AcDbLine
 62
7
  6
CONTINUOUS
 10
116.841902636
 20
137.1222838524
 11
116.8591570157
 21
137.2025554483
  0
LINE
  5
333
100
AcDbEntity
  8
0
100
AcDbLine
 62
7
  6
CONTINUOUS
 10
117.1171473962
 20
137.5827155121
 11
117.1344017759
 21
137.662987108
  0
LINE
  5
334
100
AcDbEntity
  8
0
100
AcDbLine
 62
7
  6
CONTINUOUS
 10
117.5825802561
 20
137.5423085567
 11
117.5998346358
 21
137.6225801526
  0
LINE
  5
335
100
AcDbEntity
  8
0
100
AcDbLine
 62
7
  6
CONTINUOUS
 10
118.93744193
 20
136.2867671151
 11
118.967354512
 21
136.4218214532
  0
LINE
  5
336
100
AcDbEntity
  8
0
100
AcDbLine
 62
7
  6
CONTINUOUS
 10
118.8653036101
 20
136.3851699249
 11
118.8441212096
 21
136.3058443251
  0
LINE
  5
337
100
AcDbEntity
  8
0
100
AcDbLine
 62
7
  6
CONTINUOUS
 10
116.7597130618
 20
137.2489285459
 11
116.7311824975
 21
137.1444760628
  0
LINE
  5
338
100
AcDbEntity
  8
0
100
AcDbLine
 62
7
  6
CONTINUOUS
 10
117.0236816848
 20
137.6851792963
 11
116.9951511205
 21
137.5807268133
  0
LINE
  5
339
100
AcDbEntity
  8
0
100
AcDbLine
 62
7
  6
CONTINUOUS
 10
120.0988064025
 20
135.5065991613
 11
120.0610458909
 21
135.3735255318
  0
LINE
  5
33A
100
AcDbEntity
  8
0
100
AcDbLine
 62
7
  6
CONTINUOUS
 10
120.7155003777
 20
135.2894227281
 11
120.7532608797
 21
135.4224963416
  0
LINE
  5
33B
100
AcDbEntity
  8
0
100
AcDbLine
 62
7
  6
CONTINUOUS
 10
119.052345668
 20
136.1330931495
 11
119.0293122974
 21
136.0542851376
  0
LINE
  5
33C
100
AcDbEntity
  8
0
100
AcDbLine
 62
7
  6
CONTINUOUS
 10
119.8423272507
 20
136.2727979102
 11
119.865360475
 21
136.3516060894
  0
LINE
  5
33D
100
AcDbEntity
  8
RUNDUNGEN
100
AcDbLine
 62
7
  6
CONTINUOUS
 10
97.6053643796
 20
62.462957183
 11
100.1426678093
 21
70.2719741774
  0
LINE
  5
33E
100
AcDbEntity
  8
0
100
AcDbLine
 62
7
  6
CONTINUOUS
 10
120.1650656597
 20
135.4041454789
 11
120.1908517103
 21
135.4820961738
  0
LINE
  5
33F
100
AcDbEntity
  8
0
100
AcDbLine
 62
7
  6
CONTINUOUS
 10
120.6492411206
 20
135.3918764105
 11
120.6234550506
 21
135.3139256836
  0
LINE
  5
340
100
AcDbEntity
  8
0
100
AcDbLine
 62
7
  6
CONTINUOUS
 10
120.9328023978
 20
135.7192631304
 11
120.9585884484
 21
135.7972138253
  0
LINE
  5
341
100
AcDbEntity
  8
0
100
AcDbLine
 62
7
  6
CONTINUOUS
 10
122.2268434485
 20
134.1378694824
 11
122.1794922814
 21
134.007899047
  0
LINE
  5
342
100
AcDbEntity
  8
0
100
AcDbLine
 62
7
  6
CONTINUOUS
 10
122.8260844006
 20
133.8763597435
 11
122.8734355568
 21
134.0063301637
  0
LINE
  5
343
100
AcDbEntity
  8
0
100
AcDbLine
 62
7
  6
CONTINUOUS
 10
121.5852739915
 20
134.4768222093
 11
121.6148631041
 21
134.5534102695
  0
LINE
  5
344
100
AcDbEntity
  8
0
100
AcDbLine
 62
7
  6
CONTINUOUS
 10
121.9291036821
 20
134.8885722975
 11
121.9586927948
 21
134.9651603577
  0
LINE
  5
345
100
AcDbEntity
  8
0
100
AcDbLine
 62
7
  6
CONTINUOUS
 10
122.3824999566
 20
134.7759122452
 11
122.4120890693
 21
134.8525003054
  0
LINE
  5
346
100
AcDbEntity
  8
0
100
AcDbLine
 62
7
  6
CONTINUOUS
 10
122.2854657181
 20
134.0308625868
 11
122.3168599616
 21
134.1067284733
  0
LINE
  5
347
100
AcDbEntity
  8
0
100
AcDbLine
 62
7
  6
CONTINUOUS
 10
122.7674621309
 20
133.9833666391
 11
122.7360678658
 21
133.9075007222
  0
LINE
  5
348
100
AcDbEntity
  8
0
100
AcDbLine
 62
7
  6
CONTINUOUS
 10
123.0741120214
 20
134.2892341054
 11
123.1055062649
 21
134.3650999918
  0
LINE
  5
349
100
AcDbEntity
  8
0
100
AcDbLine
 62
7
  6
CONTINUOUS
 10
121.5238897712
 20
134.6147570569
 11
121.4793835084
 21
134.5160478241
  0
LINE
  5
34A
100
AcDbEntity
  8
0
100
AcDbLine
 62
7
  6
CONTINUOUS
 10
121.8528023117
 20
135.0043859725
 11
121.8082960489
 21
134.9056767398
  0
LINE
  5
34B
100
AcDbEntity
  8
RUNDUNGEN
100
AcDbLine
 62
7
  6
CONTINUOUS
 10
131.896644256
 20
125.2714747254
 11
137.3907996369
 21
131.3733524498
  0
LINE
  5
34C
100
AcDbEntity
  8
RUNDUNGEN
100
AcDbLine
 62
7
  6
CONTINUOUS
 10
69.7685008342
 20
76.4113933398
 11
75.3454638948
 21
79.6312544641
  0
LINE
  5
34D
100
AcDbEntity
  8
RUNDUNGEN
100
AcDbLine
 62
7
  6
CONTINUOUS
 10
138.4399271922
 20
116.0588598332
 11
144.0168347844
 21
119.2786889329
  0
LINE
  5
34E
100
AcDbEntity
  8
RUNDUNGEN
100
AcDbLine
 62
7
  6
CONTINUOUS
 10
142.1781030666
 20
123.0814996784
 11
134.146644256
 21
121.3743604084
  0
LINE
  5
34F
100
AcDbEntity
  8
0
100
AcDbLine
 62
7
  6
CONTINUOUS
 10
137.5369548183
 20
107.6361495057
 11
137.6444555251
 21
107.6231913878
  0
LINE
  5
350
100
AcDbEntity
  8
0
100
AcDbLine
 62
7
  6
CONTINUOUS
 10
137.0551978027
 20
107.1177907094
 11
136.9743449395
 21
107.1320755032
  0
LINE
  5
351
100
AcDbEntity
  8
RUNDUNGEN
100
AcDbLine
 62
7
  6
CONTINUOUS
 10
70.6386913626
 20
121.3743604084
 11
62.6072325521
 21
123.0814996784
  0
LINE
  5
352
100
AcDbEntity
  8
RUNDUNGEN
100
AcDbLine
 62
7
  6
CONTINUOUS
 10
144.0168347844
 20
91.999850608
 11
138.4398706509
 21
95.2197123517
  0
LINE
  5
353
100
AcDbEntity
  8
RUNDUNGEN
100
AcDbLine
 62
7
  6
CONTINUOUS
 10
75.3454352066
 20
131.6473016398
 11
69.7685008342
 21
134.867146201
  0
LINE
  5
354
100
AcDbEntity
  8
0
100
AcDbLine
 62
7
  6
CONTINUOUS
 10
82.5811081995
 20
135.2515822485
 11
82.6757101329
 21
135.169355372
  0
LINE
  5
355
100
AcDbEntity
  8
0
100
AcDbLine
 62
7
  6
CONTINUOUS
 10
82.8325390057
 20
135.2766153583
 11
82.7379370723
 21
135.3588422348
  0
LINE
  5
356
100
AcDbEntity
  8
0
100
AcDbLine
 62
7
  6
CONTINUOUS
 10
84.952825717
 20
135.9185783745
 11
84.8636505095
 21
136.0066610723
  0
LINE
  5
357
100
AcDbEntity
  8
0
100
AcDbLine
 62
7
  6
CONTINUOUS
 10
84.2741123606
 20
135.1390861892
 11
84.4731138078
 21
134.9281679461
  0
LINE
  5
358
100
AcDbEntity
  8
RUNDUNGEN
100
AcDbLine
 62
7
  6
CONTINUOUS
 10
137.3907996369
 20
79.905187091
 11
131.896644256
 21
86.0070648154
  0
LINE
  5
359
100
AcDbEntity
  8
0
100
AcDbLine
 62
7
  6
CONTINUOUS
 10
86.6915103154
 20
136.9451545982
 11
86.6077323135
 21
137.0383857553
  0
LINE
  5
35A
100
AcDbEntity
  8
0
100
AcDbLine
 62
7
  6
CONTINUOUS
 10
84.520054343
 20
135.0971324869
 11
84.4102284294
 21
135.2199681929
  0
LINE
  5
35B
100
AcDbEntity
  8
0
100
AcDbLine
 62
7
  6
CONTINUOUS
 10
84.8167096483
 20
135.8376963708
 11
84.9265358735
 21
135.7148608499
  0
LINE
  5
35C
100
AcDbEntity
  8
0
100
AcDbLine
 62
7
  6
CONTINUOUS
 10
85.0626516307
 20
135.7957426684
 11
84.952825717
 21
135.9185783745
  0
LINE
  5
35D
100
AcDbEntity
  8
0
100
AcDbLine
 62
7
  6
CONTINUOUS
 10
86.5508240019
 20
136.8725127102
 11
86.6716953792
 21
136.7074416306
  0
LINE
  5
35E
100
AcDbEntity
  8
0
100
AcDbLine
 62
7
  6
CONTINUOUS
 10
86.8123816927
 20
136.7800835186
 11
86.6915103154
 21
136.9451545982
  0
LINE
  5
35F
100
AcDbEntity
  8
RUNDUNGEN
100
AcDbLine
 62
7
  6
CONTINUOUS
 10
100.1426678093
 20
141.0065653634
 11
97.6053643796
 21
148.8155823578
  0
LINE
  5
360
100
AcDbEntity
  8
0
100
AcDbLine
 62
7
  6
CONTINUOUS
 10
117.2967397856
 20
137.1456963735
 11
117.2960593271
 21
137.05769592
  0
LINE
  5
361
100
AcDbEntity
  8
0
100
AcDbLine
 62
7
  6
CONTINUOUS
 10
116.7311824975
 20
137.1444760628
 11
116.7245238003
 21
137.0003849311
  0
LINE
  5
362
100
AcDbEntity
  8
0
100
AcDbLine
 62
7
  6
CONTINUOUS
 10
118.8703121414
 20
136.4730303776
 11
118.8653036101
 21
136.3851699249
  0
LINE
  5
363
100
AcDbEntity
  8
0
100
AcDbLine
 62
7
  6
CONTINUOUS
 10
119.1180656836
 20
135.9130995908
 11
119.1321931491
 21
136.0885378956
  0
LINE
  5
364
100
AcDbEntity
  8
0
100
AcDbLine
 62
7
  6
CONTINUOUS
 10
119.7766072624
 20
136.4927915179
 11
119.7624797696
 21
136.3173531641
  0
LINE
  5
365
100
AcDbEntity
  8
0
100
AcDbLine
 62
7
  6
CONTINUOUS
 10
117.4067794655
 20
137.0355037095
 11
117.4187360613
 21
137.1476850724
  0
LINE
  5
366
100
AcDbEntity
  8
0
100
AcDbLine
 62
7
  6
CONTINUOUS
 10
117.4891144973
 20
137.644772363
 11
117.4831362548
 21
137.5886816764
  0
LINE
  5
367
100
AcDbEntity
  8
0
100
AcDbLine
 62
7
  6
CONTINUOUS
 10
120.1549269141
 20
135.3167282686
 11
120.1650656597
 21
135.4041454789
  0
LINE
  5
368
100
AcDbEntity
  8
0
100
AcDbLine
 62
7
  6
CONTINUOUS
 10
120.8647074252
 20
135.8540110885
 11
120.8545683312
 21
135.7665941109
  0
LINE
  5
369
100
AcDbEntity
  8
0
100
AcDbLine
 62
7
  6
CONTINUOUS
 10
118.2929276236
 20
136.4760360305
 11
118.2754668819
 21
136.3645787328
  0
LINE
  5
36A
100
AcDbEntity
  8
0
100
AcDbLine
 62
7
  6
CONTINUOUS
 10
118.3725092524
 20
136.3133698084
 11
118.3899699941
 21
136.4248271061
  0
LINE
  5
36B
100
AcDbEntity
  8
0
100
AcDbLine
 62
7
  6
CONTINUOUS
 10
122.0381798697
 20
134.4288535563
 11
122.023753074
 21
134.3420409225
  0
LINE
  5
36C
100
AcDbEntity
  8
0
100
AcDbLine
 62
7
  6
CONTINUOUS
 10
119.0293122974
 20
136.0542851376
 11
119.0092476166
 21
135.9432669833
  0
LINE
  5
36D
100
AcDbEntity
  8
0
100
AcDbLine
 62
7
  6
CONTINUOUS
 10
119.865360475
 20
136.3516060894
 11
119.8854253294
 21
136.4626241254
  0
LINE
  5
36E
100
AcDbEntity
  8
0
100
AcDbLine
 62
7
  6
CONTINUOUS
 10
122.2689878466
 20
133.9444158253
 11
122.2854657181
 21
134.0308625868
  0
LINE
  5
36F
100
AcDbEntity
  8
0
100
AcDbLine
 62
7
  6
CONTINUOUS
 10
123.0160106996
 20
134.4285832135
 11
122.9995328389
 21
134.3421364672
  0
LINE
  5
370
100
AcDbEntity
  8
0
100
AcDbLine
 62
7
  6
CONTINUOUS
 10
121.4793835084
 20
134.5160478241
 11
121.4502844083
 21
134.3747685445
  0
LINE
  5
371
100
AcDbEntity
  8
0
100
AcDbLine
 62
7
  6
CONTINUOUS
 10
122.1296435571
 20
134.3028153077
 11
122.158987503
 21
134.411749114
  0
LINE
  5
372
100
AcDbEntity
  8
0
100
AcDbLine
 62
7
  6
CONTINUOUS
 10
122.3061985862
 20
134.8917259203
 11
122.2915266237
 21
134.8372590326
  0
LINE
  5
373
100
AcDbEntity
  8
0
100
AcDbLine
 62
7
  6
CONTINUOUS
 10
136.9534302379
 20
107.5521677134
 11
137.0315550972
 21
107.5926775404
  0
LINE
  5
374
100
AcDbEntity
  8
0
100
AcDbLine
 62
7
  6
CONTINUOUS
 10
137.5017523772
 20
106.5173718176
 11
138.002585965
 21
106.7677098851
  0
LINE
  5
375
100
AcDbEntity
  8
0
100
AcDbLine
 62
7
  6
CONTINUOUS
 10
136.9994512455
 20
107.7009401143
 11
136.8946785242
 21
107.6591036023
  0
LINE
  5
376
100
AcDbEntity
  8
0
100
AcDbLine
 62
7
  6
CONTINUOUS
 10
137.7740574761
 20
107.7028843437
 11
137.6656474342
 21
107.7341073433
  0
LINE
  5
377
100
AcDbEntity
  8
0
100
AcDbLine
 62
7
  6
CONTINUOUS
 10
137.6444555251
 20
107.6231913878
 11
137.7262177989
 21
107.5906416981
  0
LINE
  5
378
100
AcDbEntity
  8
0
100
AcDbLine
 62
7
  6
CONTINUOUS
 10
138.0144742014
 20
106.2923834585
 11
137.5017523772
 21
106.5173718176
  0
LINE
  5
379
100
AcDbEntity
  8
0
100
AcDbLine
 62
7
  6
CONTINUOUS
 10
137.5070385659
 20
103.6015495944
 11
137.6893444922
 21
103.5179013153
  0
LINE
  5
37A
100
AcDbEntity
  8
0
100
AcDbLine
 62
7
  6
CONTINUOUS
 10
137.6945421267
 20
103.6091912492
 11
137.5122361766
 21
103.6928391104
  0
LINE
  5
37B
100
AcDbEntity
  8
0
100
AcDbLine
 62
7
  6
CONTINUOUS
 10
137.5195128507
 20
103.8206447671
 11
137.701818777
 21
103.736996488
  0
LINE
  5
37C
100
AcDbEntity
  8
0
100
AcDbLine
 62
7
  6
CONTINUOUS
 10
137.7070164115
 20
103.8282864219
 11
137.5247104614
 21
103.9119342831
  0
LINE
  5
37D
100
AcDbEntity
  8
0
100
AcDbLine
 62
7
  6
CONTINUOUS
 10
119.0092476166
 20
135.9432669833
 11
119.0181533435
 21
135.8466368005
  0
LINE
  5
37E
100
AcDbEntity
  8
0
100
AcDbLine
 62
7
  6
CONTINUOUS
 10
117.5998346358
 20
137.6225801526
 11
117.5952171839
 21
137.7424903496
  0
LINE
  5
37F
100
AcDbEntity
  8
0
100
AcDbLine
 62
7
  6
CONTINUOUS
 10
121.586009197
 20
134.3797852825
 11
121.5852739915
 21
134.4768222093
  0
LINE
  5
380
100
AcDbEntity
  8
0
100
AcDbLine
 62
7
  6
CONTINUOUS
 10
121.8082960489
 20
134.9056767398
 11
121.8092761055
 21
134.7762943473
  0
LINE
  5
381
100
AcDbEntity
  8
0
100
AcDbLine
 62
7
  6
CONTINUOUS
 10
118.2754668819
 20
136.3645787328
 11
118.2741799964
 21
136.2445865575
  0
LINE
  5
382
100
AcDbEntity
  8
0
100
AcDbLine
 62
7
  6
CONTINUOUS
 10
118.967354512
 20
136.4218214532
 11
118.9686413931
 21
136.5418136202
  0
LINE
  5
383
100
AcDbEntity
  8
0
100
AcDbLine
 62
7
  6
CONTINUOUS
 10
120.0610458909
 20
135.3735255318
 11
120.0527428655
 21
135.2538140538
  0
LINE
  5
384
100
AcDbEntity
  8
0
100
AcDbLine
 62
7
  6
CONTINUOUS
 10
120.9585884484
 20
135.7972138253
 11
120.966891469
 21
135.9169252953
  0
LINE
  5
385
100
AcDbEntity
  8
0
100
AcDbLine
 62
7
  6
CONTINUOUS
 10
122.4120890693
 20
134.8525003054
 11
122.4262710035
 21
134.9716583893
  0
LINE
  5
386
100
AcDbEntity
  8
0
100
AcDbLine
 62
7
  6
CONTINUOUS
 10
122.1794922814
 20
134.007899047
 11
122.1624934674
 21
133.8891100806
  0
LINE
  5
387
100
AcDbEntity
  8
0
100
AcDbLine
 62
7
  6
CONTINUOUS
 10
123.1055062649
 20
134.3650999918
 11
123.1225050734
 21
134.4838889506
  0
LINE
  5
388
100
AcDbEntity
  8
0
100
AcDbLine
 62
7
  6
CONTINUOUS
 10
136.8946785242
 20
107.6591036023
 11
136.7917244816
 21
107.5807373386
  0
LINE
  5
389
100
AcDbEntity
  8
0
100
AcDbLine
 62
7
  6
CONTINUOUS
 10
137.9998425276
 20
106.8774005305
 11
137.3936906302
 21
106.5695487765
  0
LINE
  5
38A
100
AcDbEntity
  8
0
100
AcDbLine
 62
7
  6
CONTINUOUS
 10
99.2176678093
 20
121.3642697704
 11
105.5676678093
 21
121.3642697704
  0
LINE
  5
38B
100
AcDbEntity
  8
0
100
AcDbLine
 62
7
  6
CONTINUOUS
 10
137.396434069
 20
106.4598580788
 11
138.0172176401
 21
106.1826927608
  0
LINE
  5
38C
100
AcDbEntity
  8
0
100
AcDbLine
 62
7
  6
CONTINUOUS
 10
82.7379370723
 20
135.3588422348
 11
82.5682375521
 21
135.4386836069
  0
LINE
  5
38D
100
AcDbEntity
  8
0
100
AcDbLine
 62
7
  6
CONTINUOUS
 10
136.816276521
 20
107.0875856471
 11
136.9265052436
 21
107.0198328567
  0
LINE
  5
38E
100
AcDbEntity
  8
0
100
AcDbLine
 62
7
  6
CONTINUOUS
 10
84.4731138078
 20
134.9281679461
 11
84.5895122675
 21
134.8562616554
  0
LINE
  5
38F
100
AcDbEntity
  8
0
100
AcDbLine
 62
7
  6
CONTINUOUS
 10
84.6364529657
 20
135.0252262765
 11
84.520054343
 21
135.0971324869
  0
LINE
  5
390
100
AcDbEntity
  8
0
100
AcDbLine
 62
7
  6
CONTINUOUS
 10
84.7003111958
 20
135.9096026493
 11
84.8167096483
 21
135.8376963708
  0
LINE
  5
391
100
AcDbEntity
  8
0
100
AcDbLine
 62
7
  6
CONTINUOUS
 10
84.8636505095
 20
136.0066610723
 11
84.7472519013
 21
136.0785672583
  0
LINE
  5
392
100
AcDbEntity
  8
0
100
AcDbLine
 62
7
  6
CONTINUOUS
 10
137.5936791387
 20
104.2874643592
 11
137.7757322498
 21
104.1700855586
  0
LINE
  5
393
100
AcDbEntity
  8
0
100
AcDbLine
 62
7
  6
CONTINUOUS
 10
137.988995269
 20
104.1612304003
 11
137.8069422326
 21
104.2786091977
  0
LINE
  5
394
100
AcDbEntity
  8
0
100
AcDbLine
 62
7
  6
CONTINUOUS
 10
88.192865671
 20
136.590274013
 11
87.4344012708
 21
137.0804897997
  0
LINE
  5
395
100
AcDbEntity
  8
0
100
AcDbLine
 62
7
  6
CONTINUOUS
 10
87.4005801392
 20
136.9301929136
 11
88.0212189054
 21
136.5088038477
  0
LINE
  5
396
100
AcDbEntity
  8
0
100
AcDbLine
 62
7
  6
CONTINUOUS
 10
116.8577962171
 20
137.0265545477
 11
116.841902636
 21
137.1222838524
  0
LINE
  5
397
100
AcDbEntity
  8
0
100
AcDbLine
 62
7
  6
CONTINUOUS
 10
116.9951511205
 20
137.5807268133
 11
117.0163426042
 21
137.4530877482
  0
LINE
  5
398
100
AcDbEntity
  8
0
100
AcDbLine
 62
7
  6
CONTINUOUS
 10
119.8854253294
 20
136.4626241254
 11
119.8765195979
 21
136.5592543001
  0
LINE
  5
399
100
AcDbEntity
  8
0
100
AcDbLine
 62
7
  6
CONTINUOUS
 10
120.6455689735
 20
135.4564653952
 11
120.6492411206
 21
135.3918764105
  0
LINE
  5
39A
100
AcDbEntity
  8
0
100
AcDbLine
 62
7
  6
CONTINUOUS
 10
120.7532608797
 20
135.4224963416
 11
120.7477530172
 21
135.519379602
  0
LINE
  5
39B
100
AcDbEntity
  8
0
100
AcDbLine
 62
7
  6
CONTINUOUS
 10
122.158987503
 20
134.411749114
 11
122.1580074464
 21
134.5411315064
  0
LINE
  5
39C
100
AcDbEntity
  8
0
100
AcDbLine
 62
7
  6
CONTINUOUS
 10
122.3057085579
 20
134.9564171165
 11
122.3061985862
 21
134.8917259203
  0
LINE
  5
39D
100
AcDbEntity
  8
0
100
AcDbLine
 62
7
  6
CONTINUOUS
 10
122.7685033438
 20
134.0480515484
 11
122.7674621309
 21
133.9833666391
  0
LINE
  5
39E
100
AcDbEntity
  8
0
100
AcDbLine
 62
7
  6
CONTINUOUS
 10
122.8734355568
 20
134.0063301637
 11
122.8749977176
 21
134.1033572855
  0
LINE
  5
39F
100
AcDbEntity
  8
0
100
AcDbLine
 62
7
  6
CONTINUOUS
 10
137.8058841955
 20
107.0636135981
 11
137.9088382268
 21
107.1419799004
  0
LINE
  5
3A0
100
AcDbEntity
  8
0
100
AcDbLine
 62
7
  6
CONTINUOUS
 10
82.4831893417
 20
135.2825645853
 11
82.5811081995
 21
135.2515822485
  0
LINE
  5
3A1
100
AcDbEntity
  8
0
100
AcDbLine
 62
7
  6
CONTINUOUS
 10
84.5895122675
 20
134.8562616554
 11
84.6852600174
 21
134.8191083789
  0
LINE
  5
3A2
100
AcDbEntity
  8
0
100
AcDbLine
 62
7
  6
CONTINUOUS
 10
84.732200712
 20
134.9880730061
 11
84.6364529657
 21
135.0252262765
  0
LINE
  5
3A3
100
AcDbEntity
  8
0
100
AcDbLine
 62
7
  6
CONTINUOUS
 10
84.6045634495
 20
135.9467559198
 11
84.7003111958
 21
135.9096026493
  0
LINE
  5
3A4
100
AcDbEntity
  8
0
100
AcDbLine
 62
7
  6
CONTINUOUS
 10
84.7472519013
 20
136.0785672583
 11
84.6515039992
 21
136.1157204362
  0
LINE
  5
3A5
100
AcDbEntity
  8
0
100
AcDbLine
 62
7
  6
CONTINUOUS
 10
86.4574557148
 20
136.915295678
 11
86.5508240019
 21
136.8725127102
  0
LINE
  5
3A6
100
AcDbEntity
  8
0
100
AcDbLine
 62
7
  6
CONTINUOUS
 10
86.6077323135
 20
137.0383857553
 11
86.5143643484
 21
137.0811688893
  0
LINE
  5
3A7
100
AcDbEntity
  8
0
100
AcDbLine
 62
7
  6
CONTINUOUS
 10
137.8842861874
 20
107.635131592
 11
137.7740574761
 21
107.7028843437
  0
LINE
  5
3A8
100
AcDbEntity
  8
0
100
AcDbLine
 62
7
  6
CONTINUOUS
 10
117.5952171839
 20
137.7424903496
 11
117.5627496578
 21
137.8459484611
  0
LINE
  5
3A9
100
AcDbEntity
  8
0
100
AcDbLine
 62
7
  6
CONTINUOUS
 10
117.4187360613
 20
137.1476850724
 11
117.3975445776
 21
137.2753241374
  0
LINE
  5
3AA
100
AcDbEntity
  8
0
100
AcDbLine
 62
7
  6
CONTINUOUS
 10
117.4785188029
 20
137.7085918734
 11
117.4891144973
 21
137.644772363
  0
LINE
  5
3AB
100
AcDbEntity
  8
0
100
AcDbLine
 62
7
  6
CONTINUOUS
 10
122.4262710035
 20
134.9716583893
 11
122.4103734497
 21
135.0789198432
  0
LINE
  5
3AC
100
AcDbEntity
  8
0
100
AcDbLine
 62
7
  6
CONTINUOUS
 10
136.7917244816
 20
107.5807373386
 11
136.7420661282
 21
107.5050244399
  0
LINE
  5
3AD
100
AcDbEntity
  8
0
100
AcDbLine
 62
7
  6
CONTINUOUS
 10
137.9088382268
 20
107.1419799004
 11
137.9584965746
 21
107.2176927727
  0
LINE
  5
3AE
100
AcDbEntity
  8
0
100
AcDbLine
 62
7
  6
CONTINUOUS
 10
136.9028625375
 20
107.4947197007
 11
136.9534302379
 21
107.5521677134
  0
LINE
  5
3AF
100
AcDbEntity
  8
0
100
AcDbLine
 62
7
  6
CONTINUOUS
 10
137.7977001822
 20
107.2279974996
 11
137.7471325005
 21
107.1705494879
  0
LINE
  5
3B0
100
AcDbEntity
  8
0
100
AcDbLine
 62
7
  6
CONTINUOUS
 10
119.3735779522
 20
135.7705225948
 11
119.2996675035
 21
135.7506578003
  0
LINE
  5
3B1
100
AcDbEntity
  8
0
100
AcDbLine
 62
7
  6
CONTINUOUS
 10
119.5210949938
 20
136.6353685139
 11
119.5950052597
 21
136.6552334104
  0
LINE
  5
3B2
100
AcDbEntity
  8
0
100
AcDbLine
 62
7
  6
CONTINUOUS
 10
118.5764722403
 20
135.9945645373
 11
118.6946969972
 21
136.0226811859
  0
LINE
  5
3B3
100
AcDbEntity
  8
0
100
AcDbLine
 62
7
  6
CONTINUOUS
 10
118.6663491459
 20
136.7918356342
 11
118.5481243922
 21
136.7637189918
  0
LINE
  5
3B4
100
AcDbEntity
  8
0
100
AcDbLine
 62
7
  6
CONTINUOUS
 10
120.4522165821
 20
135.1368704128
 11
120.3776543044
 21
135.1196126252
  0
LINE
  5
3B5
100
AcDbEntity
  8
0
100
AcDbLine
 62
7
  6
CONTINUOUS
 10
120.3482793055
 20
135.636323251
 11
120.4228415831
 21
135.6535810386
  0
LINE
  5
3B6
100
AcDbEntity
  8
0
100
AcDbLine
 62
7
  6
CONTINUOUS
 10
120.4762490417
 20
135.7771883694
 11
120.3271244864
 21
135.7426727942
  0
LINE
  5
3B7
100
AcDbEntity
  8
0
100
AcDbLine
 62
7
  6
CONTINUOUS
 10
120.5830643557
 20
136.0244028782
 11
120.6576266333
 21
136.0416606658
  0
LINE
  5
3B8
100
AcDbEntity
  8
0
100
AcDbLine
 62
7
  6
CONTINUOUS
 10
119.2506324208
 20
135.6252516845
 11
119.3694827357
 21
135.6505934182
  0
LINE
  5
3B9
100
AcDbEntity
  8
0
100
AcDbLine
 62
7
  6
CONTINUOUS
 10
119.6440406999
 20
136.7806393079
 11
119.5251902058
 21
136.7552976823
  0
LINE
  5
3BA
100
AcDbEntity
  8
0
100
AcDbLine
 62
7
  6
CONTINUOUS
 10
117.0718973592
 20
136.7500785861
 11
117.160745669
 21
136.7675249831
  0
LINE
  5
3BB
100
AcDbEntity
  8
0
100
AcDbLine
 62
7
  6
CONTINUOUS
 10
117.3307135916
 20
137.9541524366
 11
117.2418653796
 21
137.9367060017
  0
LINE
  5
3BC
100
AcDbEntity
  8
0
100
AcDbLine
 62
7
  6
CONTINUOUS
 10
121.9039254974
 20
134.2297629724
 11
121.8286045201
 21
134.2161940055
  0
LINE
  5
3BD
100
AcDbEntity
  8
0
100
AcDbLine
 62
7
  6
CONTINUOUS
 10
122.0484409252
 20
135.0655417398
 11
122.123761892
 21
135.0791106912
  0
LINE
  5
3BE
100
AcDbEntity
  8
0
100
AcDbLine
 62
7
  6
CONTINUOUS
 10
120.3242468374
 20
134.9960052804
 11
120.4439135567
 21
135.0171589348
  0
LINE
  5
3BF
100
AcDbEntity
  8
0
100
AcDbLine
 62
7
  6
CONTINUOUS
 10
120.7110340919
 20
136.1652679966
 11
120.5913673762
 21
136.1441143483
  0
LINE
  5
3C0
100
AcDbEntity
  8
0
100
AcDbLine
 62
7
  6
CONTINUOUS
 10
122.5523902423
 20
133.743385785
 11
122.4767691641
 21
133.7316037218
  0
LINE
  5
3C1
100
AcDbEntity
  8
0
100
AcDbLine
 62
7
  6
CONTINUOUS
 10
122.4851009482
 20
134.2490815887
 11
122.5607220264
 21
134.2608636519
  0
LINE
  5
3C2
100
AcDbEntity
  8
0
100
AcDbLine
 62
7
  6
CONTINUOUS
 10
122.6229895654
 20
134.3802532123
 11
122.471747409
 21
134.356689086
  0
LINE
  5
3C3
100
AcDbEntity
  8
0
100
AcDbLine
 62
7
  6
CONTINUOUS
 10
122.7475240039
 20
134.6190328783
 11
122.8231450821
 21
134.6308149415
  0
LINE
  5
3C4
100
AcDbEntity
  8
0
100
AcDbLine
 62
7
  6
CONTINUOUS
 10
122.4145022984
 20
133.6122136638
 11
122.5353914283
 21
133.6245968186
  0
LINE
  5
3C5
100
AcDbEntity
  8
0
100
AcDbLine
 62
7
  6
CONTINUOUS
 10
122.8854126211
 20
134.7502045019
 11
122.7645228125
 21
134.7378218371
  0
LINE
  5
3C6
100
AcDbEntity
  8
0
100
AcDbLine
 62
7
  6
CONTINUOUS
 10
121.7542639478
 20
134.0732424141
 11
121.8447472564
 21
134.0765868288
  0
LINE
  5
3C7
100
AcDbEntity
  8
0
100
AcDbLine
 62
7
  6
CONTINUOUS
 10
122.1981024552
 20
135.222062269
 11
122.1076191506
 21
135.2187178602
  0
LINE
  5
3C8
100
AcDbEntity
  8
0
100
AcDbLine
 62
7
  6
CONTINUOUS
 10
84.6852600174
 20
134.8191083789
 11
84.7603572151
 21
134.8167082062
  0
LINE
  5
3C9
100
AcDbEntity
  8
0
100
AcDbLine
 62
7
  6
CONTINUOUS
 10
82.5682375521
 20
135.4386836069
 11
82.3952211822
 21
135.4672804902
  0
LINE
  5
3CA
100
AcDbEntity
  8
0
100
AcDbLine
 62
7
  6
CONTINUOUS
 10
86.5143643484
 20
137.0811688893
 11
86.3928589274
 21
137.1094235461
  0
LINE
  5
3CB
100
AcDbEntity
  8
0
100
AcDbLine
 62
7
  6
CONTINUOUS
 10
136.9743449395
 20
107.1320755032
 11
136.9183212303
 21
107.1842167582
  0
LINE
  5
3CC
100
AcDbEntity
  8
0
100
AcDbLine
 62
7
  6
CONTINUOUS
 10
137.7262177989
 20
107.5906416981
 11
137.7822414894
 21
107.5385004421
  0
LINE
  5
3CD
100
AcDbEntity
  8
0
100
AcDbLine
 62
7
  6
CONTINUOUS
 10
136.7593434895
 20
107.1579917632
 11
136.816276521
 21
107.0875856471
  0
LINE
  5
3CE
100
AcDbEntity
  8
0
100
AcDbLine
 62
7
  6
CONTINUOUS
 10
137.9412192133
 20
107.5647254493
 11
137.8842861874
 21
107.635131592
  0
LINE
  5
3CF
100
AcDbEntity
  8
0
100
AcDbLine
 62
7
  6
CONTINUOUS
 10
117.0163426042
 20
137.4530877482
 11
117.0600862675
 21
137.373810546
  0
LINE
  5
3D0
100
AcDbEntity
  8
0
100
AcDbLine
 62
7
  6
CONTINUOUS
 10
117.3975445776
 20
137.2753241374
 11
117.3538008195
 21
137.3546013839
  0
LINE
  5
3D1
100
AcDbEntity
  8
0
100
AcDbLine
 62
7
  6
CONTINUOUS
 10
116.7245238003
 20
137.0003849311
 11
116.7735653553
 21
136.8891979452
  0
LINE
  5
3D2
100
AcDbEntity
  8
0
100
AcDbLine
 62
7
  6
CONTINUOUS
 10
118.2741799964
 20
136.2445865575
 11
118.3176926471
 21
136.1311216365
  0
LINE
  5
3D3
100
AcDbEntity
  8
0
100
AcDbLine
 62
7
  6
CONTINUOUS
 10
118.9686413931
 20
136.5418136202
 11
118.9251287391
 21
136.655278535
  0
LINE
  5
3D4
100
AcDbEntity
  8
0
100
AcDbLine
 62
7
  6
CONTINUOUS
 10
117.1443171224
 20
137.5111671337
 11
117.1171473962
 21
137.5827155121
  0
LINE
  5
3D5
100
AcDbEntity
  8
0
100
AcDbLine
 62
7
  6
CONTINUOUS
 10
117.2695700593
 20
137.2172447519
 11
117.2967397856
 21
137.1456963735
  0
LINE
  5
3D6
100
AcDbEntity
  8
0
100
AcDbLine
 62
7
  6
CONTINUOUS
 10
121.8092761055
 20
134.7762943473
 11
121.8400908094
 21
134.691154066
  0
LINE
  5
3D7
100
AcDbEntity
  8
0
100
AcDbLine
 62
7
  6
CONTINUOUS
 10
122.1580074464
 20
134.5411315064
 11
122.1271927424
 21
134.6262717878
  0
LINE
  5
3D8
100
AcDbEntity
  8
0
100
AcDbLine
 62
7
  6
CONTINUOUS
 10
119.0181533435
 20
135.8466368005
 11
119.0589981737
 21
135.732184457
  0
LINE
  5
3D9
100
AcDbEntity
  8
0
100
AcDbLine
 62
7
  6
CONTINUOUS
 10
119.8765195979
 20
136.5592543001
 11
119.8356749471
 21
136.6737065355
  0
LINE
  5
3DA
100
AcDbEntity
  8
0
100
AcDbLine
 62
7
  6
CONTINUOUS
 10
118.3961264045
 20
136.2405714938
 11
118.3725092524
 21
136.3133698084
  0
LINE
  5
3DB
100
AcDbEntity
  8
0
100
AcDbLine
 62
7
  6
CONTINUOUS
 10
118.8466949893
 20
136.5458286922
 11
118.8703121414
 21
136.4730303776
  0
LINE
  5
3DC
100
AcDbEntity
  8
0
100
AcDbLine
 62
7
  6
CONTINUOUS
 10
120.0527428655
 20
135.2538140538
 11
120.0895442794
 21
135.1379984385
  0
LINE
  5
3DD
100
AcDbEntity
  8
0
100
AcDbLine
 62
7
  6
CONTINUOUS
 10
120.7477530172
 20
135.519379602
 11
120.7109515997
 21
135.6351952113
  0
LINE
  5
3DE
100
AcDbEntity
  8
0
100
AcDbLine
 62
7
  6
CONTINUOUS
 10
120.966891469
 20
135.9169252953
 11
120.9300896933
 21
136.0327411213
  0
LINE
  5
3DF
100
AcDbEntity
  8
0
100
AcDbLine
 62
7
  6
CONTINUOUS
 10
119.1399721758
 20
135.839768512
 11
119.1180656836
 21
135.9130995908
  0
LINE
  5
3E0
100
AcDbEntity
  8
0
100
AcDbLine
 62
7
  6
CONTINUOUS
 10
119.7547005875
 20
136.5661226987
 11
119.7766072624
 21
136.4927915179
  0
LINE
  5
3E1
100
AcDbEntity
  8
0
100
AcDbLine
 62
7
  6
CONTINUOUS
 10
121.4502844083
 20
134.3747685445
 11
121.481343949
 21
134.2572827762
  0
LINE
  5
3E2
100
AcDbEntity
  8
0
100
AcDbLine
 62
7
  6
CONTINUOUS
 10
120.1742456596
 20
135.2426732178
 11
120.1549269141
 21
135.3167282686
  0
LINE
  5
3E3
100
AcDbEntity
  8
0
100
AcDbLine
 62
7
  6
CONTINUOUS
 10
120.626250228
 20
135.530520446
 11
120.6455689735
 21
135.4564653952
  0
LINE
  5
3E4
100
AcDbEntity
  8
0
100
AcDbLine
 62
7
  6
CONTINUOUS
 10
120.8453886797
 20
135.9280661394
 11
120.8647074252
 21
135.8540110885
  0
LINE
  5
3E5
100
AcDbEntity
  8
0
100
AcDbLine
 62
7
  6
CONTINUOUS
 10
122.1624934674
 20
133.8891100806
 11
122.1907633853
 21
133.7709217178
  0
LINE
  5
3E6
100
AcDbEntity
  8
0
100
AcDbLine
 62
7
  6
CONTINUOUS
 10
122.8749977176
 20
134.1033572855
 11
122.8467284785
 21
134.2215451582
  0
LINE
  5
3E7
100
AcDbEntity
  8
0
100
AcDbLine
 62
7
  6
CONTINUOUS
 10
123.1225050734
 20
134.4838889506
 11
123.0942351515
 21
134.6020773076
  0
LINE
  5
3E8
100
AcDbEntity
  8
0
100
AcDbLine
 62
7
  6
CONTINUOUS
 10
121.9447560483
 20
134.8136565587
 11
121.9291036821
 21
134.8885722975
  0
LINE
  5
3E9
100
AcDbEntity
  8
0
100
AcDbLine
 62
7
  6
CONTINUOUS
 10
122.0225275036
 20
134.5037692951
 11
122.0381798697
 21
134.4288535563
  0
LINE
  5
3EA
100
AcDbEntity
  8
0
100
AcDbLine
 62
7
  6
CONTINUOUS
 10
122.2828623336
 20
133.8691505406
 11
122.2689878466
 21
133.9444158253
  0
LINE
  5
3EB
100
AcDbEntity
  8
0
100
AcDbLine
 62
7
  6
CONTINUOUS
 10
122.7546288568
 20
134.1233168332
 11
122.7685033438
 21
134.0480515484
  0
LINE
  5
3EC
100
AcDbEntity
  8
0
100
AcDbLine
 62
7
  6
CONTINUOUS
 10
123.0021362126
 20
134.5038484982
 11
123.0160106996
 21
134.4285832135
  0
LINE
  5
3ED
100
AcDbEntity
  8
RUNDUNGEN
100
AcDbLine
 62
7
  6
CONTINUOUS
 10
129.0133192861
 20
67.0687089922
 11
130.0517146504
 21
73.1139791935
  0
LINE
  5
3EE
100
AcDbEntity
  8
0
100
AcDbLine
 62
7
  6
CONTINUOUS
 10
136.7420661282
 20
107.5050244399
 11
136.7199649571
 21
107.4123733568
  0
LINE
  5
3EF
100
AcDbEntity
  8
0
100
AcDbLine
 62
7
  6
CONTINUOUS
 10
136.8798520342
 20
107.4203334913
 11
136.9028625375
 21
107.4947197007
  0
LINE
  5
3F0
100
AcDbEntity
  8
0
100
AcDbLine
 62
7
  6
CONTINUOUS
 10
137.8207106843
 20
107.3023837352
 11
137.7977001822
 21
107.2279974996
  0
LINE
  5
3F1
100
AcDbEntity
  8
RUNDUNGEN
100
AcDbLine
 62
7
  6
CONTINUOUS
 10
144.3899191351
 20
97.9484778502
 11
149.1060790199
 21
101.8703897154
  0
LINE
  5
3F2
100
AcDbEntity
  8
RUNDUNGEN
100
AcDbLine
 62
7
  6
CONTINUOUS
 10
82.2999080755
 20
63.2998289371
 11
88.0544633247
 21
65.4231872731
  0
LINE
  5
3F3
100
AcDbEntity
  8
0
100
AcDbLine
 62
7
  6
CONTINUOUS
 10
84.7603572151
 20
134.8167082062
 11
84.8899005912
 21
134.8466606868
  0
LINE
  5
3F4
100
AcDbEntity
  8
0
100
AcDbLine
 62
7
  6
CONTINUOUS
 10
84.8617442492
 20
135.0180255702
 11
84.732200712
 21
134.9880730061
  0
LINE
  5
3F5
100
AcDbEntity
  8
0
100
AcDbLine
 62
7
  6
CONTINUOUS
 10
84.4750199195
 20
135.9168033435
 11
84.6045634495
 21
135.9467559198
  0
LINE
  5
3F6
100
AcDbEntity
  8
0
100
AcDbLine
 62
7
  6
CONTINUOUS
 10
84.576406959
 20
136.1181206984
 11
84.4468635848
 21
136.0881682147
  0
LINE
  5
3F7
100
AcDbEntity
  8
0
100
AcDbLine
 62
7
  6
CONTINUOUS
 10
82.3819536344
 20
135.2623024334
 11
82.4831893417
 21
135.2825645853
  0
LINE
  5
3F8
100
AcDbEntity
  8
0
100
AcDbLine
 62
7
  6
CONTINUOUS
 10
86.2515385701
 20
136.8999652351
 11
86.3826345984
 21
136.9221589339
  0
LINE
  5
3F9
100
AcDbEntity
  8
0
100
AcDbLine
 62
7
  6
CONTINUOUS
 10
86.3928589274
 20
137.1094235461
 11
86.289900355
 21
137.1017583246
  0
LINE
  5
3FA
100
AcDbEntity
  8
0
100
AcDbLine
 62
7
  6
CONTINUOUS
 10
117.2796308003
 20
137.8013381129
 11
117.3406289381
 21
137.8023324623
  0
LINE
  5
3FB
100
AcDbEntity
  8
0
100
AcDbLine
 62
7
  6
CONTINUOUS
 10
84.6515039992
 20
136.1157204362
 11
84.576406959
 21
136.1181206984
  0
LINE
  5
3FC
100
AcDbEntity
  8
0
100
AcDbLine
 62
7
  6
CONTINUOUS
 10
117.1229802522
 20
136.9028928804
 11
117.0454080825
 21
136.909627399
  0
LINE
  5
3FD
100
AcDbEntity
  8
0
100
AcDbLine
 62
7
  6
CONTINUOUS
 10
117.4082857612
 20
137.947417918
 11
117.3307135916
 21
137.9541524366
  0
LINE
  5
3FE
100
AcDbEntity
  8
0
100
AcDbLine
 62
7
  6
CONTINUOUS
 10
86.3826345984
 20
136.9221589339
 11
86.4574557148
 21
136.915295678
  0
LINE
  5
3FF
100
AcDbEntity
  8
0
100
AcDbLine
 62
7
  6
CONTINUOUS
 10
120.3776543044
 20
135.1196126252
 11
120.3169029098
 21
135.1251830472
  0
LINE
  5
400
100
AcDbEntity
  8
0
100
AcDbLine
 62
7
  6
CONTINUOUS
 10
120.4228415831
 20
135.6535810386
 11
120.4835929778
 21
135.6480106166
  0
LINE
  5
401
100
AcDbEntity
  8
0
100
AcDbLine
 62
7
  6
CONTINUOUS
 10
120.6576266333
 20
136.0416606658
 11
120.718378028
 21
136.0360902438
  0
LINE
  5
402
100
AcDbEntity
  8
0
100
AcDbLine
 62
7
  6
CONTINUOUS
 10
118.6225586642
 20
136.121083971
 11
118.5454117956
 21
136.1316262951
  0
LINE
  5
403
100
AcDbEntity
  8
0
100
AcDbLine
 62
7
  6
CONTINUOUS
 10
118.6202627296
 20
136.665316215
 11
118.6974097833
 21
136.6547737932
  0
LINE
  5
404
100
AcDbEntity
  8
0
100
AcDbLine
 62
7
  6
CONTINUOUS
 10
122.123761892
 20
135.0791106912
 11
122.1841657087
 21
135.0705584701
  0
LINE
  5
405
100
AcDbEntity
  8
0
100
AcDbLine
 62
7
  6
CONTINUOUS
 10
116.9777512515
 20
136.7645419264
 11
117.0718973592
 21
136.7500785861
  0
LINE
  5
406
100
AcDbEntity
  8
0
100
AcDbLine
 62
7
  6
CONTINUOUS
 10
122.4767691641
 20
133.7316037218
 11
122.4165847336
 21
133.7415834957
  0
LINE
  5
407
100
AcDbEntity
  8
0
100
AcDbLine
 62
7
  6
CONTINUOUS
 10
122.5607220264
 20
134.2608636519
 11
122.6209064568
 21
134.2508838781
  0
LINE
  5
408
100
AcDbEntity
  8
0
100
AcDbLine
 62
7
  6
CONTINUOUS
 10
122.8231450821
 20
134.6308149415
 11
122.8833295125
 21
134.6208351676
  0
LINE
  5
409
100
AcDbEntity
  8
0
100
AcDbLine
 62
7
  6
CONTINUOUS
 10
118.4831517039
 20
136.0136416476
 11
118.5764722403
 21
135.9945645373
  0
LINE
  5
40A
100
AcDbEntity
  8
0
100
AcDbLine
 62
7
  6
CONTINUOUS
 10
118.7596698663
 20
136.7727584242
 11
118.6663491459
 21
136.7918356342
  0
LINE
  5
40B
100
AcDbEntity
  8
0
100
AcDbLine
 62
7
  6
CONTINUOUS
 10
119.2996675035
 20
135.7506578003
 11
119.206819079
 21
135.7719140604
  0
LINE
  5
40C
100
AcDbEntity
  8
0
100
AcDbLine
 62
7
  6
CONTINUOUS
 10
121.8286045201
 20
134.2161940055
 11
121.7530387127
 21
134.2349705352
  0
LINE
  5
40D
100
AcDbEntity
  8
0
100
AcDbLine
 62
7
  6
CONTINUOUS
 10
122.2736686097
 20
135.2032855053
 11
122.1981024552
 21
135.222062269
  0
LINE
  5
40E
100
AcDbEntity
  8
0
100
AcDbLine
 62
7
  6
CONTINUOUS
 10
120.2322018865
 20
135.0205080493
 11
120.3242468374
 21
134.9960052804
  0
LINE
  5
40F
100
AcDbEntity
  8
0
100
AcDbLine
 62
7
  6
CONTINUOUS
 10
120.5682939914
 20
135.7526855985
 11
120.4762490417
 21
135.7771883694
  0
LINE
  5
410
100
AcDbEntity
  8
0
100
AcDbLine
 62
7
  6
CONTINUOUS
 10
119.1418143527
 20
135.6554190749
 11
119.2506324208
 21
135.6252516845
  0
LINE
  5
411
100
AcDbEntity
  8
0
100
AcDbLine
 62
7
  6
CONTINUOUS
 10
121.6635358012
 20
134.1022434845
 11
121.7542639478
 21
134.0732424141
  0
LINE
  5
412
100
AcDbEntity
  8
0
100
AcDbLine
 62
7
  6
CONTINUOUS
 10
122.3244857839
 20
133.643354671
 11
122.4145022984
 21
133.6122136638
  0
LINE
  5
413
100
AcDbEntity
  8
0
100
AcDbLine
 62
7
  6
CONTINUOUS
 10
122.7130053957
 20
134.3491126875
 11
122.6229895654
 21
134.3802532123
  0
LINE
  5
414
100
AcDbEntity
  8
RUNDUNGEN
100
AcDbLine
 62
7
  6
CONTINUOUS
 10
88.0544633395
 20
145.8553522623
 11
82.2999080755
 21
147.9787106037
  0
LINE
  5
415
100
AcDbEntity
  8
RUNDUNGEN
100
AcDbLine
 62
7
  6
CONTINUOUS
 10
149.1060790199
 20
109.4081498255
 11
144.3899191349
 21
113.3300616907
  0
LINE
  5
416
100
AcDbEntity
  8
0
100
AcDbLine
 62
7
  6
CONTINUOUS
 10
116.7735653553
 20
136.8891979452
 11
116.8451592814
 21
136.8263727379
  0
LINE
  5
417
100
AcDbEntity
  8
0
100
AcDbLine
 62
7
  6
CONTINUOUS
 10
117.3538008195
 20
137.3546013839
 11
117.2822069872
 21
137.4174265448
  0
LINE
  5
418
100
AcDbEntity
  8
0
100
AcDbLine
 62
7
  6
CONTINUOUS
 10
119.0589981737
 20
135.732184457
 11
119.1418143527
 21
135.6554190749
  0
LINE
  5
419
100
AcDbEntity
  8
0
100
AcDbLine
 62
7
  6
CONTINUOUS
 10
118.3176926471
 20
136.1311216365
 11
118.3861093333
 21
136.064850572
  0
LINE
  5
41A
100
AcDbEntity
  8
0
100
AcDbLine
 62
7
  6
CONTINUOUS
 10
118.9251287391
 20
136.655278535
 11
118.8567122369
 21
136.7215494998
  0
LINE
  5
41B
100
AcDbEntity
  8
0
100
AcDbLine
 62
7
  6
CONTINUOUS
 10
116.9128161124
 20
136.9714582106
 11
116.8577962171
 21
137.0265545477
  0
LINE
  5
41C
100
AcDbEntity
  8
0
100
AcDbLine
 62
7
  6
CONTINUOUS
 10
117.0600862675
 20
137.373810546
 11
117.1151061628
 21
137.3187142088
  0
LINE
  5
41D
100
AcDbEntity
  8
0
100
AcDbLine
 62
7
  6
CONTINUOUS
 10
117.2145501641
 20
137.2723410891
 11
117.2695700593
 21
137.2172447519
  0
LINE
  5
41E
100
AcDbEntity
  8
0
100
AcDbLine
 62
7
  6
CONTINUOUS
 10
119.206819079
 20
135.7719140604
 11
119.1399721758
 21
135.839768512
  0
LINE
  5
41F
100
AcDbEntity
  8
0
100
AcDbLine
 62
7
  6
CONTINUOUS
 10
120.0895442794
 20
135.1379984385
 11
120.1539674618
 21
135.0678392464
  0
LINE
  5
420
100
AcDbEntity
  8
0
100
AcDbLine
 62
7
  6
CONTINUOUS
 10
120.7109515997
 20
135.6351952113
 11
120.6465284161
 21
135.7053544014
  0
LINE
  5
421
100
AcDbEntity
  8
0
100
AcDbLine
 62
7
  6
CONTINUOUS
 10
118.448369425
 20
136.1828352195
 11
118.3961264045
 21
136.2405714938
  0
LINE
  5
422
100
AcDbEntity
  8
0
100
AcDbLine
 62
7
  6
CONTINUOUS
 10
118.7944521539
 20
136.6035648688
 11
118.8466949893
 21
136.5458286922
  0
LINE
  5
423
100
AcDbEntity
  8
0
100
AcDbLine
 62
7
  6
CONTINUOUS
 10
121.481343949
 20
134.2572827762
 11
121.5422377926
 21
134.184039357
  0
LINE
  5
424
100
AcDbEntity
  8
0
100
AcDbLine
 62
7
  6
CONTINUOUS
 10
122.1271927424
 20
134.6262717878
 11
122.0662988975
 21
134.6995152051
  0
LINE
  5
425
100
AcDbEntity
  8
0
100
AcDbLine
 62
7
  6
CONTINUOUS
 10
117.1827629859
 20
137.4637996645
 11
117.1443171224
 21
137.5111671337
  0
LINE
  5
426
100
AcDbEntity
  8
0
100
AcDbLine
 62
7
  6
CONTINUOUS
 10
117.4400729394
 20
137.7559593426
 11
117.4785188029
 21
137.7085918734
  0
LINE
  5
427
100
AcDbEntity
  8
0
100
AcDbLine
 62
7
  6
CONTINUOUS
 10
122.1907633853
 20
133.7709217178
 11
122.2499059186
 21
133.6962575172
  0
LINE
  5
428
100
AcDbEntity
  8
0
100
AcDbLine
 62
7
  6
CONTINUOUS
 10
122.8467284785
 20
134.2215451582
 11
122.787585261
 21
134.2962098413
  0
LINE
  5
429
100
AcDbEntity
  8
0
100
AcDbLine
 62
7
  6
CONTINUOUS
 10
121.6317407041
 20
134.3167664077
 11
121.586009197
 21
134.3797852825
  0
LINE
  5
42A
100
AcDbEntity
  8
0
100
AcDbLine
 62
7
  6
CONTINUOUS
 10
121.8400908094
 20
134.691154066
 11
121.8858226636
 21
134.6281349572
  0
LINE
  5
42B
100
AcDbEntity
  8
0
100
AcDbLine
 62
7
  6
CONTINUOUS
 10
121.9767959965
 20
134.5667881698
 11
122.0225275036
 21
134.5037692951
  0
LINE
  5
42C
100
AcDbEntity
  8
0
100
AcDbLine
 62
7
  6
CONTINUOUS
 10
120.2073752882
 20
135.1914463765
 11
120.1742456596
 21
135.2426732178
  0
LINE
  5
42D
100
AcDbEntity
  8
0
100
AcDbLine
 62
7
  6
CONTINUOUS
 10
120.5931205994
 20
135.5817472873
 11
120.626250228
 21
135.530520446
  0
LINE
  5
42E
100
AcDbEntity
  8
0
100
AcDbLine
 62
7
  6
CONTINUOUS
 10
120.8122590511
 20
135.9792929806
 11
120.8453886797
 21
135.9280661394
  0
LINE
  5
42F
100
AcDbEntity
  8
0
100
AcDbLine
 62
7
  6
CONTINUOUS
 10
121.9753255646
 20
134.7608619925
 11
121.9447560483
 21
134.8136565587
  0
LINE
  5
430
100
AcDbEntity
  8
0
100
AcDbLine
 62
7
  6
CONTINUOUS
 10
122.2751390416
 20
135.0092116827
 11
122.3057085579
 21
134.9564171165
  0
LINE
  5
431
100
AcDbEntity
  8
0
100
AcDbLine
 62
7
  6
CONTINUOUS
 10
122.3121734685
 20
133.8156470928
 11
122.2828623336
 21
133.8691505406
  0
LINE
  5
432
100
AcDbEntity
  8
0
100
AcDbLine
 62
7
  6
CONTINUOUS
 10
122.725317722
 20
134.1768202809
 11
122.7546288568
 21
134.1233168332
  0
LINE
  5
433
100
AcDbEntity
  8
0
100
AcDbLine
 62
7
  6
CONTINUOUS
 10
122.9728250778
 20
134.557351946
 11
123.0021362126
 21
134.5038484982
  0
LINE
  5
434
100
AcDbEntity
  8
0
100
AcDbLine
 62
7
  6
CONTINUOUS
 10
136.9183212303
 20
107.1842167582
 11
136.8880360462
 21
107.2559496159
  0
LINE
  5
435
100
AcDbEntity
  8
0
100
AcDbLine
 62
7
  6
CONTINUOUS
 10
137.7822414894
 20
107.5385004421
 11
137.8125266722
 21
107.4667676106
  0
LINE
  5
436
100
AcDbEntity
  8
0
100
AcDbLine
 62
7
  6
CONTINUOUS
 10
136.7281489691
 20
107.2479894814
 11
136.7593434895
 21
107.1579917632
  0
LINE
  5
437
100
AcDbEntity
  8
RUNDUNGEN
100
AcDbLine
 62
7
  6
CONTINUOUS
 10
130.0517146503
 20
138.1645603475
 11
129.0133192861
 21
144.2098305487
  0
LINE
  5
438
100
AcDbEntity
  8
0
100
AcDbLine
 62
7
  6
CONTINUOUS
 10
136.7199649571
 20
107.4123733568
 11
136.7281489691
 21
107.2479894814
  0
LINE
  5
439
100
AcDbEntity
  8
0
100
AcDbLine
 62
7
  6
CONTINUOUS
 10
136.8880360462
 20
107.2559496159
 11
136.8798520342
 21
107.4203334913
  0
LINE
  5
43A
100
AcDbEntity
  8
0
100
AcDbLine
 62
7
  6
CONTINUOUS
 10
137.0606538116
 20
107.0082014418
 11
137.0551978027
 21
107.1177907094
  0
LINE
  5
43B
100
AcDbEntity
  8
0
100
AcDbLine
 62
7
  6
CONTINUOUS
 10
137.6680982306
 20
107.1483045568
 11
137.6735542395
 21
107.0387152891
  0
LINE
  5
43C
100
AcDbEntity
  8
0
100
AcDbLine
 62
7
  6
CONTINUOUS
 10
137.8125266722
 20
107.4667676106
 11
137.8207106843
 21
107.3023837352
  0
LINE
  5
43D
100
AcDbEntity
  8
0
100
AcDbLine
 62
7
  6
CONTINUOUS
 10
137.9805977427
 20
107.3103438688
 11
137.9724137306
 21
107.4747277442
  0
LINE
  5
43E
100
AcDbEntity
  8
0
100
AcDbLine
 62
7
  6
CONTINUOUS
 10
136.7535503897
 20
106.5535384348
 11
136.7562938285
 21
106.4438477371
  0
LINE
  5
43F
100
AcDbEntity
  8
0
100
AcDbLine
 62
7
  6
CONTINUOUS
 10
138.0172176401
 20
106.1826927608
 11
138.0144742014
 21
106.2923834585
  0
LINE
  5
440
100
AcDbEntity
  8
0
100
AcDbLine
 62
7
  6
CONTINUOUS
 10
138.002585965
 20
106.7677098851
 11
137.9998425276
 21
106.8774005305
  0
LINE
  5
441
100
AcDbEntity
  8
0
100
AcDbLine
 62
7
  6
CONTINUOUS
 10
136.7652980837
 20
106.0050199617
 11
136.7659986161
 21
105.3466703344
  0
LINE
  5
442
100
AcDbEntity
  8
0
100
AcDbLine
 62
7
  6
CONTINUOUS
 10
136.9260836314
 20
105.3468406766
 11
136.9254998544
 21
105.895465366
  0
LINE
  5
443
100
AcDbEntity
  8
0
100
AcDbLine
 62
7
  6
CONTINUOUS
 10
138.0194141292
 20
105.8966293712
 11
138.0192973738
 21
106.0063543091
  0
LINE
  5
444
100
AcDbEntity
  8
0
100
AcDbLine
 62
7
  6
CONTINUOUS
 10
136.7360748817
 20
104.2132544618
 11
136.731522785
 21
104.103624137
  0
LINE
  5
445
100
AcDbEntity
  8
0
100
AcDbLine
 62
7
  6
CONTINUOUS
 10
137.9844431723
 20
104.0516000755
 11
137.988995269
 21
104.1612304003
  0
LINE
  5
446
100
AcDbEntity
  8
0
100
AcDbLine
 62
7
  6
CONTINUOUS
 10
137.5122361766
 20
103.6928391104
 11
137.5070385659
 21
103.6015495944
  0
LINE
  5
447
100
AcDbEntity
  8
0
100
AcDbLine
 62
7
  6
CONTINUOUS
 10
137.5247104614
 20
103.9119342831
 11
137.5195128507
 21
103.8206447671
  0
LINE
  5
448
100
AcDbEntity
  8
0
100
AcDbLine
 62
7
  6
CONTINUOUS
 10
137.6893444922
 20
103.5179013153
 11
137.6945421267
 21
103.6091912492
  0
LINE
  5
449
100
AcDbEntity
  8
0
100
AcDbLine
 62
7
  6
CONTINUOUS
 10
137.701818777
 20
103.736996488
 11
137.7070164115
 21
103.8282864219
  0
LINE
  5
44A
100
AcDbEntity
  8
0
100
AcDbLine
 62
7
  6
CONTINUOUS
 10
137.9584965746
 20
107.2176927727
 11
137.9805977427
 21
107.3103438688
  0
LINE
  5
44B
100
AcDbEntity
  8
RUNDUNGEN
100
AcDbLine
 62
7
  6
CONTINUOUS
 10
144.4616634404
 20
118.157586597
 11
143.7367687218
 21
115.3676112997
  0
LINE
  5
44C
100
AcDbEntity
  8
RUNDUNGEN
100
AcDbLine
 62
7
  6
CONTINUOUS
 10
144.4617377651
 20
118.157875323
 11
144.4617467025
 21
118.1579070586
  0
LWPOLYLINE
  5
44D
100
AcDbEntity
  8
RUNDUNGEN
100
AcDbPolyline
 62
7
  6
CONTINUOUS
 90
3
 70
0
 10
134.146644256
 20
89.9041791324
 10
134.1535286033
 20
89.9227259894
 10
134.439699958
 20
90.6660767938
  0
LINE
  5
44E
100
AcDbEntity
  8
RUNDUNGEN
100
AcDbLine
 62
7
  6
CONTINUOUS
 10
134.439699958
 20
90.6660767938
 11
134.5094793071
 21
90.8493967564
  0
LWPOLYLINE
  5
44F
100
AcDbEntity
  8
RUNDUNGEN
100
AcDbPolyline
 62
7
  6
CONTINUOUS
 90
3
 70
0
 10
131.896644256
 20
86.0070648154
 10
131.8843655586
 20
85.9915530865
 10
131.3824923956
 20
85.373016272
  0
LINE
  5
450
100
AcDbEntity
  8
RUNDUNGEN
100
AcDbLine
 62
7
  6
CONTINUOUS
 10
131.3824923956
 20
85.373016272
 11
131.2594793071
 21
85.2202316318
  0
LINE
  5
451
100
AcDbEntity
  8
RUNDUNGEN
100
AcDbLine
 62
7
  6
CONTINUOUS
 10
114.639727367
 20
64.9700573215
 11
112.5859107429
 21
62.9472190551
  0
LINE
  5
452
100
AcDbEntity
  8
RUNDUNGEN
100
AcDbLine
 62
7
  6
CONTINUOUS
 10
73.29562626
 20
136.5801406395
 11
70.5170331894
 21
135.8129423182
  0
LINE
  5
453
100
AcDbEntity
  8
RUNDUNGEN
100
AcDbLine
 62
7
  6
CONTINUOUS
 10
70.516698324
 20
135.8128490245
 11
70.5166583288
 21
135.8128388146
  0
LWPOLYLINE
  5
454
100
AcDbEntity
  8
RUNDUNGEN
100
AcDbPolyline
 62
7
  6
CONTINUOUS
 90
3
 70
0
 10
100.1426678093
 20
141.0065653634
 10
100.1231635863
 20
141.0032539546
 10
99.3363172285
 20
140.8794102154
  0
LINE
  5
455
100
AcDbEntity
  8
RUNDUNGEN
100
AcDbLine
 62
7
  6
CONTINUOUS
 10
99.3363172285
 20
140.8794102154
 11
99.1426678093
 21
140.8481809231
  0
LWPOLYLINE
  5
456
100
AcDbEntity
  8
RUNDUNGEN
100
AcDbPolyline
 62
7
  6
CONTINUOUS
 90
3
 70
0
 10
104.6426678093
 20
141.0065653634
 10
104.6622407093
 20
141.003687564
 10
105.4488458853
 20
140.8783210626
  0
LINE
  5
457
100
AcDbEntity
  8
RUNDUNGEN
100
AcDbLine
 62
7
  6
CONTINUOUS
 10
105.4488458853
 20
140.8783210626
 11
105.6426678093
 21
140.8481809231
  0
LINE
  5
458
100
AcDbEntity
  8
0
100
AcDbLine
 62
7
  6
CONTINUOUS
 10
119.5950052597
 20
136.6552334104
 11
119.6878540498
 21
136.6339769464
  0
LINE
  5
459
100
AcDbEntity
  8
0
100
AcDbLine
 62
7
  6
CONTINUOUS
 10
120.8030790416
 20
136.1407652257
 11
120.7110340919
 21
136.1652679966
  0
LINE
  5
45A
100
AcDbEntity
  8
RUNDUNGEN
100
AcDbLine
 62
7
  6
CONTINUOUS
 10
131.4897091631
 20
136.5801406935
 11
134.2684468016
 21
135.8129024555
  0
LINE
  5
45B
100
AcDbEntity
  8
0
100
AcDbLine
 62
7
  6
CONTINUOUS
 10
119.7528587669
 20
136.7504719155
 11
119.6440406999
 21
136.7806393079
  0
LINE
  5
45C
100
AcDbEntity
  8
0
100
AcDbLine
 62
7
  6
CONTINUOUS
 10
122.9754284514
 20
134.719063977
 11
122.8854126211
 21
134.7502045019
  0
LINE
  5
45D
100
AcDbEntity
  8
0
100
AcDbLine
 62
7
  6
CONTINUOUS
 10
115.8766551553
 20
137.2587822656
 11
116.4797387401
 21
136.9947464495
  0
LINE
  5
45E
100
AcDbEntity
  8
0
100
AcDbLine
 62
7
  6
CONTINUOUS
 10
116.543941978
 20
137.1413929135
 11
116.0413723239
 21
137.3614227603
  0
LINE
  5
45F
100
AcDbEntity
  8
0
100
AcDbLine
 62
7
  6
CONTINUOUS
 10
116.4800944502
 20
138.363506934
 11
116.3795805194
 21
138.4075129034
  0
LINE
  5
460
100
AcDbEntity
  8
0
100
AcDbLine
 62
7
  6
CONTINUOUS
 10
116.8451592814
 20
136.8263727379
 11
116.9777512515
 21
136.7645419264
  0
LINE
  5
461
100
AcDbEntity
  8
0
100
AcDbLine
 62
7
  6
CONTINUOUS
 10
117.0454080825
 20
136.909627399
 11
116.9128161124
 21
136.9714582106
  0
LINE
  5
462
100
AcDbEntity
  8
0
100
AcDbLine
 62
7
  6
CONTINUOUS
 10
116.8591570157
 20
137.2025554483
 11
116.7597130618
 21
137.2489285459
  0
LINE
  5
463
100
AcDbEntity
  8
0
100
AcDbLine
 62
7
  6
CONTINUOUS
 10
117.1151061628
 20
137.3187142088
 11
117.2145501641
 21
137.2723410891
  0
LINE
  5
464
100
AcDbEntity
  8
0
100
AcDbLine
 62
7
  6
CONTINUOUS
 10
117.2822069872
 20
137.4174265448
 11
117.1827629859
 21
137.4637996645
  0
LINE
  5
465
100
AcDbEntity
  8
0
100
AcDbLine
 62
7
  6
CONTINUOUS
 10
117.4831362548
 20
137.5886816764
 11
117.5825802561
 21
137.5423085567
  0
LINE
  5
466
100
AcDbEntity
  8
0
100
AcDbLine
 62
7
  6
CONTINUOUS
 10
117.3406289381
 20
137.8023324623
 11
117.4400729394
 21
137.7559593426
  0
LINE
  5
467
100
AcDbEntity
  8
0
100
AcDbLine
 62
7
  6
CONTINUOUS
 10
117.4911557307
 20
137.9087736663
 11
117.4082857612
 21
137.947417918
  0
LINE
  5
468
100
AcDbEntity
  8
0
100
AcDbLine
 62
7
  6
CONTINUOUS
 10
118.3861093333
 20
136.064850572
 11
118.4831517039
 21
136.0136416476
  0
LINE
  5
469
100
AcDbEntity
  8
0
100
AcDbLine
 62
7
  6
CONTINUOUS
 10
118.5454117956
 20
136.1316262951
 11
118.448369425
 21
136.1828352195
  0
LINE
  5
46A
100
AcDbEntity
  8
0
100
AcDbLine
 62
7
  6
CONTINUOUS
 10
118.3899699941
 20
136.4248271061
 11
118.2929276236
 21
136.4760360305
  0
LINE
  5
46B
100
AcDbEntity
  8
0
100
AcDbLine
 62
7
  6
CONTINUOUS
 10
118.4049957904
 20
136.6884083993
 11
118.5182118278
 21
136.6286646868
  0
LINE
  5
46C
100
AcDbEntity
  8
0
100
AcDbLine
 62
7
  6
CONTINUOUS
 10
118.6974097833
 20
136.6547737932
 11
118.7944521539
 21
136.6035648688
  0
LINE
  5
46D
100
AcDbEntity
  8
0
100
AcDbLine
 62
7
  6
CONTINUOUS
 10
118.8567122369
 20
136.7215494998
 11
118.7596698663
 21
136.7727584242
  0
LINE
  5
46E
100
AcDbEntity
  8
0
100
AcDbLine
 62
7
  6
CONTINUOUS
 10
118.7473566928
 20
137.1412698771
 11
119.216394879
 21
136.8937600433
  0
LINE
  5
46F
100
AcDbEntity
  8
0
100
AcDbLine
 62
7
  6
CONTINUOUS
 10
119.278654962
 20
137.0117446744
 11
118.7287482571
 21
137.3019285467
  0
LINE
  5
470
100
AcDbEntity
  8
0
100
AcDbLine
 62
7
  6
CONTINUOUS
 10
119.783786618
 20
135.813139857
 11
120.0050445686
 21
135.6843235207
  0
LINE
  5
471
100
AcDbEntity
  8
0
100
AcDbLine
 62
7
  6
CONTINUOUS
 10
120.0721655901
 20
135.7996121564
 11
119.8509076395
 21
135.9284284927
  0
LINE
  5
472
100
AcDbEntity
  8
0
100
AcDbLine
 62
7
  6
CONTINUOUS
 10
120.1539674618
 20
135.0678392464
 11
120.2322018865
 21
135.0205080493
  0
LINE
  5
473
100
AcDbEntity
  8
0
100
AcDbLine
 62
7
  6
CONTINUOUS
 10
120.3169029098
 20
135.1251830472
 11
120.2073752882
 21
135.1914463765
  0
LINE
  5
474
100
AcDbEntity
  8
0
100
AcDbLine
 62
7
  6
CONTINUOUS
 10
120.4835929778
 20
135.6480106166
 11
120.5931205994
 21
135.5817472873
  0
LINE
  5
475
100
AcDbEntity
  8
0
100
AcDbLine
 62
7
  6
CONTINUOUS
 10
120.6465284161
 20
135.7053544014
 11
120.5682939914
 21
135.7526855985
  0
LINE
  5
476
100
AcDbEntity
  8
0
100
AcDbLine
 62
7
  6
CONTINUOUS
 10
120.8545683312
 20
135.7665941109
 11
120.9328023978
 21
135.7192631304
  0
LINE
  5
477
100
AcDbEntity
  8
0
100
AcDbLine
 62
7
  6
CONTINUOUS
 10
120.718378028
 20
136.0360902438
 11
120.8122590511
 21
135.9792929806
  0
LINE
  5
478
100
AcDbEntity
  8
0
100
AcDbLine
 62
7
  6
CONTINUOUS
 10
120.8656665097
 20
136.1029003114
 11
120.8030790416
 21
136.1407652257
  0
LINE
  5
479
100
AcDbEntity
  8
0
100
AcDbLine
 62
7
  6
CONTINUOUS
 10
121.5422377926
 20
134.184039357
 11
121.6635358012
 21
134.1022434845
  0
LINE
  5
47A
100
AcDbEntity
  8
0
100
AcDbLine
 62
7
  6
CONTINUOUS
 10
121.7530387127
 20
134.2349705352
 11
121.6317407041
 21
134.3167664077
  0
LINE
  5
47B
100
AcDbEntity
  8
0
100
AcDbLine
 62
7
  6
CONTINUOUS
 10
121.6148631041
 20
134.5534102695
 11
121.5238897712
 21
134.6147570569
  0
LINE
  5
47C
100
AcDbEntity
  8
0
100
AcDbLine
 62
7
  6
CONTINUOUS
 10
121.8858226636
 20
134.6281349572
 11
121.9767959965
 21
134.5667881698
  0
LINE
  5
47D
100
AcDbEntity
  8
0
100
AcDbLine
 62
7
  6
CONTINUOUS
 10
122.0662988975
 20
134.6995152051
 11
121.9753255646
 21
134.7608619925
  0
LINE
  5
47E
100
AcDbEntity
  8
0
100
AcDbLine
 62
7
  6
CONTINUOUS
 10
122.2915266237
 20
134.8372590326
 11
122.3824999566
 21
134.7759122452
  0
LINE
  5
47F
100
AcDbEntity
  8
0
100
AcDbLine
 62
7
  6
CONTINUOUS
 10
122.1841657087
 20
135.0705584701
 11
122.2751390416
 21
135.0092116827
  0
LINE
  5
480
100
AcDbEntity
  8
0
100
AcDbLine
 62
7
  6
CONTINUOUS
 10
122.3494796048
 20
135.1521632605
 11
122.2736686097
 21
135.2032855053
  0
LINE
  5
481
100
AcDbEntity
  8
0
100
AcDbLine
 62
7
  6
CONTINUOUS
 10
122.2499059186
 20
133.6962575172
 11
122.3244857839
 21
133.643354671
  0
LINE
  5
482
100
AcDbEntity
  8
0
100
AcDbLine
 62
7
  6
CONTINUOUS
 10
122.4165847336
 20
133.7415834957
 11
122.3121734685
 21
133.8156470928
  0
LINE
  5
483
100
AcDbEntity
  8
0
100
AcDbLine
 62
7
  6
CONTINUOUS
 10
122.6209064568
 20
134.2508838781
 11
122.725317722
 21
134.1768202809
  0
LINE
  5
484
100
AcDbEntity
  8
0
100
AcDbLine
 62
7
  6
CONTINUOUS
 10
122.787585261
 20
134.2962098413
 11
122.7130053957
 21
134.3491126875
  0
LINE
  5
485
100
AcDbEntity
  8
0
100
AcDbLine
 62
7
  6
CONTINUOUS
 10
122.9995328389
 20
134.3421364672
 11
123.0741120214
 21
134.2892341054
  0
LINE
  5
486
100
AcDbEntity
  8
0
100
AcDbLine
 62
7
  6
CONTINUOUS
 10
122.8833295125
 20
134.6208351676
 11
122.9728250778
 21
134.557351946
  0
LINE
  5
487
100
AcDbEntity
  8
0
100
AcDbLine
 62
7
  6
CONTINUOUS
 10
123.0350926168
 20
134.6767415064
 11
122.9754284514
 21
134.719063977
  0
LINE
  5
488
100
AcDbEntity
  8
0
100
AcDbLine
 62
7
  6
CONTINUOUS
 10
122.6656552988
 20
133.3973532314
 11
122.7394237866
 21
133.3433261589
  0
LINE
  5
489
100
AcDbEntity
  8
0
100
AcDbLine
 62
7
  6
CONTINUOUS
 10
122.8182479617
 20
133.4509525753
 11
122.744479474
 21
133.5049796478
  0
LINE
  5
48A
100
AcDbEntity
  8
0
100
AcDbLine
 62
7
  6
CONTINUOUS
 10
122.9451913543
 20
133.1909830553
 11
123.0331415403
 21
133.1253755829
  0
LINE
  5
48B
100
AcDbEntity
  8
0
100
AcDbLine
 62
7
  6
CONTINUOUS
 10
123.7829412239
 20
134.1305205647
 11
123.694991038
 21
134.1961280371
  0
LINE
  5
48C
100
AcDbEntity
  8
0
100
AcDbLine
 62
7
  6
CONTINUOUS
 10
117.5627496578
 20
137.8459484611
 11
117.4911557307
 21
137.9087736663
  0
LINE
  5
48D
100
AcDbEntity
  8
0
100
AcDbLine
 62
7
  6
CONTINUOUS
 10
119.8356749471
 20
136.6737065355
 11
119.7528587669
 21
136.7504719155
  0
LINE
  5
48E
100
AcDbEntity
  8
RUNDUNGEN
100
AcDbLine
 62
7
  6
CONTINUOUS
 10
112.5859852404
 20
148.3312471119
 11
114.6397273645
 21
146.3084822219
  0
LINE
  5
48F
100
AcDbEntity
  8
0
100
AcDbLine
 62
7
  6
CONTINUOUS
 10
119.6878540498
 20
136.6339769464
 11
119.7547005875
 21
136.5661226987
  0
LINE
  5
490
100
AcDbEntity
  8
RUNDUNGEN
100
AcDbLine
 62
7
  6
CONTINUOUS
 10
112.5857723587
 20
148.331455842
 11
112.5857493436
 21
148.3314794498
  0
LINE
  5
491
100
AcDbEntity
  8
0
100
AcDbLine
 62
7
  6
CONTINUOUS
 10
120.9300896933
 20
136.0327411213
 11
120.8656665097
 21
136.1029003114
  0
LINE
  5
492
100
AcDbEntity
  8
0
100
AcDbLine
 62
7
  6
CONTINUOUS
 10
122.4103734497
 20
135.0789198432
 11
122.3494796048
 21
135.1521632605
  0
LWPOLYLINE
  5
493
100
AcDbEntity
  8
RUNDUNGEN
100
AcDbPolyline
 62
7
  6
CONTINUOUS
 90
3
 70
0
 10
131.896644256
 20
125.2714747254
 10
131.8840243803
 20
125.2867101736
 10
131.3833493772
 20
125.9062172388
  0
LINE
  5
494
100
AcDbEntity
  8
RUNDUNGEN
100
AcDbLine
 62
7
  6
CONTINUOUS
 10
131.3833493772
 20
125.9062172388
 11
131.2594793071
 21
126.058307909
  0
LINE
  5
495
100
AcDbEntity
  8
0
100
AcDbLine
 62
7
  6
CONTINUOUS
 10
123.0942351515
 20
134.6020773076
 11
123.0350926168
 21
134.6767415064
  0
LWPOLYLINE
  5
496
100
AcDbEntity
  8
RUNDUNGEN
100
AcDbPolyline
 62
7
  6
CONTINUOUS
 90
3
 70
0
 10
134.146644256
 20
121.3743604084
 10
134.1539384586
 20
121.3559708801
 10
134.4386704716
 20
120.6120675642
  0
LINE
  5
497
100
AcDbEntity
  8
RUNDUNGEN
100
AcDbLine
 62
7
  6
CONTINUOUS
 10
134.4386704716
 20
120.6120675642
 11
134.5094793071
 21
120.4291427844
  0
LINE
  5
498
100
AcDbEntity
  8
0
100
AcDbLine
 62
7
  6
CONTINUOUS
 10
137.9724137306
 20
107.4747277442
 11
137.9412192133
 21
107.5647254493
  0
LINE
  5
499
100
AcDbEntity
  8
RUNDUNGEN
100
AcDbLine
 62
7
  6
CONTINUOUS
 10
143.7367687208
 20
95.9109282446
 11
144.4616897352
 21
93.1208517402
  0
LINE
  5
49A
100
AcDbEntity
  8
RUNDUNGEN
100
AcDbLine
 62
7
  6
CONTINUOUS
 10
149.4666859788
 20
102.6392697704
 11
149.4666859788
 21
108.6392697704
  0
LINE
  5
49B
100
AcDbEntity
  8
RUNDUNGEN
100
AcDbLine
 62
7
  6
CONTINUOUS
 10
135.9950953474
 20
76.105790338
 11
137.5136802152
 21
78.7360564846
  0
LINE
  5
49C
100
AcDbEntity
  8
RUNDUNGEN
100
AcDbLine
 62
7
  6
CONTINUOUS
 10
143.2520401612
 20
88.6751874632
 11
144.7706293404
 21
91.3054610774
  0
LINE
  5
49D
100
AcDbEntity
  8
RUNDUNGEN
100
AcDbLine
 62
7
  6
CONTINUOUS
 10
123.3316006827
 20
63.3719741774
 11
128.5277531054
 21
66.3719741774
  0
LINE
  5
49E
100
AcDbEntity
  8
RUNDUNGEN
100
AcDbLine
 62
7
  6
CONTINUOUS
 10
111.1681974909
 20
149.5065653634
 11
108.1310277553
 21
149.5065653634
  0
LINE
  5
49F
100
AcDbEntity
  8
RUNDUNGEN
100
AcDbLine
 62
7
  6
CONTINUOUS
 10
96.6543078633
 20
149.5065653634
 11
93.617130751
 21
149.5065653634
  0
LINE
  5
4A0
100
AcDbEntity
  8
RUNDUNGEN
100
AcDbLine
 62
7
  6
CONTINUOUS
 10
128.5277531054
 20
144.9065653634
 11
123.3316006827
 21
147.9065653634
  0
LINE
  5
4A1
100
AcDbEntity
  8
RUNDUNGEN
100
AcDbLine
 62
7
  6
CONTINUOUS
 10
144.770625029
 20
119.973085931
 11
143.2520401612
 21
122.6033520776
  0
LINE
  5
4A2
100
AcDbEntity
  8
RUNDUNGEN
100
AcDbLine
 62
7
  6
CONTINUOUS
 10
137.5136802152
 20
132.5424830562
 11
135.995091036
 21
135.1727566704
  0
LINE
  5
4A3
100
AcDbEntity
  8
RUNDUNGEN
100
AcDbLine
 62
7
  6
CONTINUOUS
 10
214.7993861607
 20
61.7719741774
 11
242.7993861607
 21
61.7719741774
  0
LWPOLYLINE
  5
4A4
100
AcDbEntity
  8
RUNDUNGEN
100
AcDbPolyline
 62
7
  6
CONTINUOUS
 90
3
 70
0
 10
229.0493861607
 20
63.2379995812
 10
229.2058964428
 20
63.2503232529
 10
229.3584792848
 20
63.2869678043
  0
LINE
  5
4A5
100
AcDbEntity
  8
0
100
AcDbLine
 62
7
  6
CONTINUOUS
 10
228.5493861607
 20
63.2379995812
 11
229.0493861607
 21
63.2379995812
  0
LWPOLYLINE
  5
4A6
100
AcDbEntity
  8
RUNDUNGEN
100
AcDbPolyline
 62
7
  6
CONTINUOUS
 90
11
 70
0
 10
228.5493861607
 20
63.2379995812
 10
228.3928758786
 20
63.2503232529
 10
228.2402930367
 20
63.2869678043
 10
228.0953294788
 20
63.3470267818
 10
227.9615536378
 20
63.429016933
 10
227.8422668956
 20
63.5309052843
 10
227.7403782287
 20
63.6502018558
 10
227.6584037123
 20
63.7839618333
 10
227.5983495662
 20
63.9289212807
 10
227.5617035166
 20
64.0815292341
 10
227.5493861607
 20
64.2379995812
  0
LWPOLYLINE
  5
4A7
100
AcDbEntity
  8
0
100
AcDbPolyline
 62
7
  6
CONTINUOUS
 90
9
 70
0
 10
214.4896288924
 20
134.9519364653
 10
214.344791427
 20
134.891819189
 10
214.21119274
 20
134.8098410825
 10
214.0921558883
 20
134.7081040645
 10
213.9904188689
 20
134.5889744531
 10
213.9085926749
 20
134.4555291654
 10
213.8485238144
 20
134.3107347476
 10
213.8117558212
 20
134.1579202469
 10
213.7993861607
 20
134.0011207972
  0
LINE
  5
4A8
100
AcDbEntity
  8
0
100
AcDbLine
 62
2
  6
CONTINUOUS
 10
213.6773882691
 20
130.7318366676
 11
209.7493861607
 21
126.8038345593
  0
LWPOLYLINE
  5
4A9
100
AcDbEntity
  8
RUNDUNGEN
100
AcDbPolyline
 62
7
  6
CONTINUOUS
 90
5
 70
0
 10
230.6421301752
 20
75.793684087
 10
232.1167865997
 20
76.0638108349
 10
232.8995700737
 20
76.1809765297
 10
233.7134943965
 20
76.2580583518
 10
234.3375741671
 20
76.277477713
  0
LINE
  5
4AA
100
AcDbEntity
  8
RUNDUNGEN
100
AcDbLine
 62
7
  6
CONTINUOUS
 10
229.8722380723
 20
75.6758075278
 11
230.6421301752
 21
75.793684087
  0
LINE
  5
4AB
100
AcDbEntity
  8
RUNDUNGEN
100
AcDbLine
 62
7
  6
CONTINUOUS
 10
229.8760548513
 20
75.6762594428
 11
229.8800399627
 21
75.6767556729
  0
LINE
  5
4AC
100
AcDbEntity
  8
RUNDUNGEN
100
AcDbLine
 62
7
  6
CONTINUOUS
 10
242.7993861607
 20
76.2774187436
 11
234.3375739798
 21
76.2774187436
  0
LINE
  5
4AD
100
AcDbEntity
  8
RUNDUNGEN
100
AcDbLine
 62
7
  6
CONTINUOUS
 10
223.2611946251
 20
76.2774187436
 11
214.7993861607
 21
76.2774187436
  0
LWPOLYLINE
  5
4AE
100
AcDbEntity
  8
RUNDUNGEN
100
AcDbPolyline
 62
7
  6
CONTINUOUS
 90
8
 70
0
 10
223.2611946238
 20
76.2774916263
 10
223.8788998159
 20
76.2584483601
 10
224.6754585032
 20
76.1839426243
 10
225.4485291985
 20
76.0694942335
 10
226.1976046806
 20
75.9341908152
 10
226.9244034409
 20
75.7994395603
 10
227.6434567512
 20
75.6864019417
 10
227.7194297492
 20
75.6766702049
  0
LINE
  5
4AF
100
AcDbEntity
  8
RUNDUNGEN
100
AcDbLine
 62
7
  6
CONTINUOUS
 10
214.7993861607
 20
76.2774187436
 11
214.6422099659
 21
76.289848182
  0
LWPOLYLINE
  5
4B0
100
AcDbEntity
  8
RUNDUNGEN
100
AcDbPolyline
 62
7
  6
CONTINUOUS
 90
5
 70
0
 10
214.0921465682
 20
76.5704448004
 10
214.2117653926
 20
76.4682822701
 10
214.3458779504
 20
76.3861666475
 10
214.4909406868
 20
76.3261767189
 10
214.6426802372
 20
76.2898109932
  0
LWPOLYLINE
  5
4B1
100
AcDbEntity
  8
RUNDUNGEN
100
AcDbPolyline
 62
7
  6
CONTINUOUS
 90
6
 70
0
 10
214.0921558883
 20
76.5704354764
 10
213.9904188689
 20
76.6895650877
 10
213.9085926749
 20
76.8230103754
 10
213.8485238144
 20
76.9678047932
 10
213.8117558212
 20
77.1206192939
 10
213.7993861607
 20
77.2774187436
  0
LINE
  5
4B2
100
AcDbEntity
  8
AUSFORMSCHRAEGEN
100
AcDbLine
 62
7
  6
CONTINUOUS
 10
243.7993861607
 20
80.5381719496
 11
245.0586555819
 21
80.6262286456
  0
LINE
  5
4B3
100
AcDbEntity
  8
AUSFORMSCHRAEGEN
100
AcDbLine
 62
7
  6
CONTINUOUS
 10
212.5401167395
 20
80.6262286456
 11
213.7993861607
 21
80.5381719496
  0
LINE
  5
4B4
100
AcDbEntity
  8
0
100
AcDbLine
 62
2
  6
CONTINUOUS
 10
226.6030343074
 20
137.7565653634
 11
223.5323289978
 21
134.6858600538
  0
LINE
  5
4B5
100
AcDbEntity
  8
0
100
AcDbLine
 62
2
  6
CONTINUOUS
 10
220.0219613825
 20
131.1754924386
 11
210.2107387143
 21
121.3642697704
  0
LINE
  5
4B6
100
AcDbEntity
  8
RUNDUNGEN
100
AcDbLine
 62
7
  6
CONTINUOUS
 10
235.335276427
 20
135.2689049261
 11
235.3336334287
 21
135.2679014016
  0
LINE
  5
4B7
100
AcDbEntity
  8
0
100
AcDbLine
 62
7
  6
CONTINUOUS
 10
235.3352755171
 20
135.268906409
 11
235.7698893128
 21
135.5285352499
  0
LWPOLYLINE
  5
4B8
100
AcDbEntity
  8
0
100
AcDbPolyline
 62
7
  6
CONTINUOUS
 90
5
 70
0
 10
235.7698893128
 20
135.5285352499
 10
236.4510193347
 20
135.917779734
 10
237.1841785086
 20
136.3187291542
 10
237.9596672577
 20
136.7277077183
 10
238.7687265744
 20
137.1415087676
  0
LINE
  5
4B9
100
AcDbEntity
  8
0
100
AcDbLine
 62
7
  6
CONTINUOUS
 10
238.7687265744
 20
137.1415087676
 11
239.333217426
 21
137.4236644767
  0
LINE
  5
4BA
100
AcDbEntity
  8
0
100
AcDbLine
 62
7
  6
CONTINUOUS
 10
239.333217426
 20
137.4236644767
 11
243.2397286401
 21
139.3406999987
  0
LINE
  5
4BB
100
AcDbEntity
  8
RUNDUNGEN
100
AcDbLine
 62
7
  6
CONTINUOUS
 10
239.3060794315
 20
137.4102132642
 11
239.3060118627
 21
137.4101801436
  0
LINE
  5
4BC
100
AcDbEntity
  8
0
100
AcDbLine
 62
7
  6
CONTINUOUS
 10
234.9226438671
 20
135.493077695
 11
235.670349365
 21
135.857758033
  0
LINE
  5
4BD
100
AcDbEntity
  8
RUNDUNGEN
100
AcDbLine
 62
7
  6
CONTINUOUS
 10
239.306079391
 20
73.8683261935
 11
239.3060118345
 21
73.8683593082
  0
LINE
  5
4BE
100
AcDbEntity
  8
RUNDUNGEN
100
AcDbLine
 62
7
  6
CONTINUOUS
 10
243.2397286401
 20
71.9378395422
 11
239.3063566422
 21
73.8681902737
  0
LWPOLYLINE
  5
4BF
100
AcDbEntity
  8
RUNDUNGEN
100
AcDbPolyline
 62
7
  6
CONTINUOUS
 90
4
 70
0
 10
239.3062886816
 20
73.8682248931
 10
238.7686948844
 20
74.1370468283
 10
237.9596196182
 20
74.5508565999
 10
237.1841251751
 20
74.9598389866
  0
LINE
  5
4C0
100
AcDbEntity
  8
RUNDUNGEN
100
AcDbLine
 62
7
  6
CONTINUOUS
 10
237.1840290209
 20
74.9598915714
 11
236.4509692404
 21
75.3607875866
  0
LINE
  5
4C1
100
AcDbEntity
  8
RUNDUNGEN
100
AcDbLine
 62
7
  6
CONTINUOUS
 10
236.4507049226
 20
75.3609386367
 11
235.7698621747
 21
75.7500208316
  0
LINE
  5
4C2
100
AcDbEntity
  8
RUNDUNGEN
100
AcDbLine
 62
7
  6
CONTINUOUS
 10
235.7697203855
 20
75.7501055332
 11
235.33527275
 21
76.0096346224
  0
LINE
  5
4C3
100
AcDbEntity
  8
RUNDUNGEN
100
AcDbLine
 62
7
  6
CONTINUOUS
 10
235.33527375
 20
76.0096362524
 11
235.3336334287
 21
76.0106381392
  0
LWPOLYLINE
  5
4C4
100
AcDbEntity
  8
RUNDUNGEN
100
AcDbPolyline
 62
7
  6
CONTINUOUS
 90
3
 70
0
 10
235.3336334287
 20
76.0106381392
 10
235.2632700118
 20
76.0564338522
 10
235.1973766507
 20
76.104598771
  0
LINE
  5
4C5
100
AcDbEntity
  8
RUNDUNGEN
100
AcDbLine
 62
7
  6
CONTINUOUS
 10
213.8480963017
 20
76.969120829
 11
213.9080317729
 21
76.8241116127
  0
LINE
  5
4C6
100
AcDbEntity
  8
RUNDUNGEN
100
AcDbLine
 62
7
  6
CONTINUOUS
 10
209.7493861607
 20
105.6392697704
 11
209.7493861607
 21
83.6189207963
  0
LINE
  5
4C7
100
AcDbEntity
  8
0
100
AcDbLine
 62
7
  6
CONTINUOUS
 10
209.7493861607
 20
105.639269771
 11
209.7493861607
 21
127.6596187445
  0
LINE
  5
4C8
100
AcDbEntity
  8
0
100
AcDbLine
 62
2
  6
CONTINUOUS
 10
232.5039516498
 20
137.7565653634
 11
216.1116560568
 21
121.3642697704
  0
LINE
  5
4C9
100
AcDbEntity
  8
RUNDUNGEN
100
AcDbLine
 62
7
  6
CONTINUOUS
 10
235.0789220509
 20
135.0747654515
 11
235.0788048214
 21
135.074659469
  0
LWPOLYLINE
  5
4CA
100
AcDbEntity
  8
0
100
AcDbPolyline
 62
7
  6
CONTINUOUS
 90
5
 70
0
 10
235.0789313496
 20
135.0747556006
 10
235.1333561931
 20
135.1223092874
 10
235.1973766507
 20
135.1739407698
 10
235.2632700118
 20
135.2221056887
 10
235.3336334287
 20
135.2679014016
  0
LWPOLYLINE
  5
4CB
100
AcDbEntity
  8
RUNDUNGEN
100
AcDbPolyline
 62
7
  6
CONTINUOUS
 90
11
 70
0
 10
242.7993861607
 20
88.1751874632
 10
242.95782891
 20
88.1878193712
 10
243.110408359
 20
88.2247848158
 10
243.2548849742
 20
88.2849510763
 10
243.3881181709
 20
88.3668591758
 10
243.506875274
 20
88.4684632242
 10
243.6084463812
 20
88.5874617111
 10
243.6899188771
 20
88.7202682606
 10
243.7499247468
 20
88.8645809655
 10
243.7869088283
 20
89.0177125993
 10
243.7993861607
 20
89.1751874632
  0
LWPOLYLINE
  5
4CC
100
AcDbEntity
  8
RUNDUNGEN
100
AcDbPolyline
 62
7
  6
CONTINUOUS
 90
8
 70
0
 10
214.7993861607
 20
86.0070648154
 10
214.6028460091
 20
85.9915530865
 10
214.4143557846
 20
85.946403046
 10
214.2411608342
 20
85.873006571
 10
214.0898635838
 20
85.7746993669
 10
213.966149216
 20
85.6552526842
 10
213.8745417992
 20
85.5195003071
 10
213.8183153669
 20
85.373016272
  0
LINE
  5
4CD
100
AcDbEntity
  8
RUNDUNGEN
100
AcDbLine
 62
7
  6
CONTINUOUS
 10
214.7993861607
 20
86.0070648154
 11
242.7993861607
 21
86.0070648154
  0
LWPOLYLINE
  5
4CE
100
AcDbEntity
  8
RUNDUNGEN
100
AcDbPolyline
 62
7
  6
CONTINUOUS
 90
8
 70
0
 10
242.7993861607
 20
86.0070648154
 10
242.9959263124
 20
85.9918293672
 10
243.1844165368
 20
85.946403046
 10
243.3576114872
 20
85.873093901
 10
243.5089087376
 20
85.7746993669
 10
243.6326231054
 20
85.6553056603
 10
243.7242305223
 20
85.5195003071
 10
243.7804569545
 20
85.3723223021
  0
LWPOLYLINE
  5
4CF
100
AcDbEntity
  8
RUNDUNGEN
100
AcDbPolyline
 62
7
  6
CONTINUOUS
 90
11
 70
0
 10
214.7993861607
 20
88.1751874632
 10
214.6409434114
 20
88.1878193712
 10
214.4883639624
 20
88.2247848158
 10
214.3438873472
 20
88.2849510763
 10
214.2106541506
 20
88.3668591758
 10
214.0918970475
 20
88.4684632242
 10
213.9903259403
 20
88.5874617111
 10
213.9088534443
 20
88.7202682606
 10
213.8488475746
 20
88.8645809655
 10
213.8118634932
 20
89.0177125993
 10
213.7993861607
 20
89.1751874632
  0
LINE
  5
4D0
100
AcDbEntity
  8
RUNDUNGEN
100
AcDbLine
 62
7
  6
CONTINUOUS
 10
235.1973879791
 20
76.1045915556
 11
235.1333443756
 21
76.1562413079
  0
LINE
  5
4D1
100
AcDbEntity
  8
RUNDUNGEN
100
AcDbLine
 62
7
  6
CONTINUOUS
 10
235.1333443756
 20
76.1562413079
 11
235.0789400337
 21
76.2037758216
  0
LINE
  5
4D2
100
AcDbEntity
  8
RUNDUNGEN
100
AcDbLine
 62
7
  6
CONTINUOUS
 10
235.0789220509
 20
76.2037740894
 11
235.0788048214
 21
76.2038800718
  0
LINE
  5
4D3
100
AcDbEntity
  8
RUNDUNGEN
100
AcDbLine
 62
7
  6
CONTINUOUS
 10
213.7993861607
 20
140.2580950792
 11
213.7993861607
 21
140.238469359
  0
LINE
  5
4D4
100
AcDbEntity
  8
RUNDUNGEN
100
AcDbLine
 62
7
  6
CONTINUOUS
 10
213.7993861607
 20
62.7719741774
 11
213.7993861607
 21
71.0400701818
  0
LINE
  5
4D5
100
AcDbEntity
  8
RUNDUNGEN
100
AcDbLine
 62
7
  6
CONTINUOUS
 10
213.7993861607
 20
77.2774187436
 11
213.7993861607
 21
85.4966386371
  0
LINE
  5
4D6
100
AcDbEntity
  8
0
100
AcDbLine
 62
7
  6
CONTINUOUS
 10
213.7993861607
 20
85.2202316318
 11
213.7993861607
 21
85.4966386371
  0
LINE
  5
4D7
100
AcDbEntity
  8
RUNDUNGEN
100
AcDbLine
 62
7
  6
CONTINUOUS
 10
213.7993861607
 20
89.1751874632
 11
213.7993861607
 21
93.6943761258
  0
LINE
  5
4D8
100
AcDbEntity
  8
RUNDUNGEN
100
AcDbLine
 62
7
  6
CONTINUOUS
 10
213.7993861607
 20
130.7403675913
 11
213.7993861607
 21
134.0011207972
  0
LINE
  5
4D9
100
AcDbEntity
  8
0
100
AcDbLine
 62
7
  6
CONTINUOUS
 10
213.7993861607
 20
140.2580950792
 11
213.7993861607
 21
148.5065653634
  0
LINE
  5
4DA
100
AcDbEntity
  8
RUNDUNGEN
100
AcDbLine
 62
7
  6
CONTINUOUS
 10
213.7993861607
 20
140.8481809231
 11
213.7993861607
 21
148.5065653634
  0
LINE
  5
4DB
100
AcDbEntity
  8
0
100
AcDbLine
 62
2
  6
CONTINUOUS
 10
233.8104025634
 20
133.1620989346
 11
222.0125733993
 21
121.3642697704
  0
LWPOLYLINE
  5
4DC
100
AcDbEntity
  8
0
100
AcDbPolyline
 62
7
  6
CONTINUOUS
 90
4
 70
0
 10
215.7125617367
 20
86.7599043853
 10
215.5407219935
 20
86.7126266379
 10
215.365647929
 20
86.6663731892
 10
215.1874022595
 20
86.6212798926
  0
LINE
  5
4DD
100
AcDbEntity
  8
0
100
AcDbLine
 62
7
  6
CONTINUOUS
 10
215.1874022595
 20
86.6212798926
 11
214.5614812895
 21
86.467927097
  0
LINE
  5
4DE
100
AcDbEntity
  8
0
100
AcDbLine
 62
7
  6
CONTINUOUS
 10
214.7993861607
 20
88.1751874632
 11
242.7993861607
 21
88.1751874632
  0
LINE
  5
4DF
100
AcDbEntity
  8
0
100
AcDbLine
 62
7
  6
CONTINUOUS
 10
243.037291032
 20
86.467927097
 11
242.3155091539
 21
86.6452800327
  0
LINE
  5
4E0
100
AcDbEntity
  8
0
100
AcDbLine
 62
7
  6
CONTINUOUS
 10
242.3155091539
 20
86.6452800327
 11
242.1166015491
 21
86.6969426063
  0
LINE
  5
4E1
100
AcDbEntity
  8
0
100
AcDbLine
 62
7
  6
CONTINUOUS
 10
242.1166015491
 20
86.6969426063
 11
241.9221483111
 21
86.7498629685
  0
LWPOLYLINE
  5
4E2
100
AcDbEntity
  8
0
100
AcDbPolyline
 62
7
  6
CONTINUOUS
 90
25
 70
0
 10
241.9221483111
 20
86.7498629685
 10
241.7321944127
 20
86.8038577512
 10
241.5467503729
 20
86.8587659681
 10
241.3658248178
 20
86.9144335581
 10
241.1894291744
 20
86.9707113456
 10
241.0176179192
 20
87.0274411382
 10
240.8502437349
 20
87.0845425965
 10
240.6872940795
 20
87.1419020489
 10
240.5284017012
 20
87.1995396982
 10
240.3732874342
 20
87.2574603098
 10
240.2216613333
 20
87.3156865922
 10
240.0732366042
 20
87.3742562677
 10
239.9277272035
 20
87.4332251838
 10
239.7848486325
 20
87.4926619089
 10
239.6443157547
 20
87.5526480945
 10
239.5058425993
 20
87.6132789435
 10
239.3691573869
 20
87.6746575346
 10
239.2339559948
 20
87.7369208779
 10
239.1000954907
 20
87.8001473847
 10
238.9672994601
 20
87.8644903769
 10
238.8356896764
 20
87.9299198422
 10
238.7052791814
 20
87.9964599816
 10
238.5761388848
 20
88.0641128306
 10
238.4483370848
 20
88.1328872579
 10
238.3718569239
 20
88.1751874632
  0
LWPOLYLINE
  5
4E3
100
AcDbEntity
  8
0
100
AcDbPolyline
 62
7
  6
CONTINUOUS
 90
10
 70
0
 10
243.0377467966
 20
86.4678153464
 10
243.1088976674
 20
86.4475343345
 10
243.2537892434
 20
86.3874348183
 10
243.3874555931
 20
86.3054490863
 10
243.5065739608
 20
86.2036643893
 10
243.6083598834
 20
86.0844834432
 10
243.6902448655
 20
85.9509191318
 10
243.7503129594
 20
85.8060545764
 10
243.7870363728
 20
85.6533131246
 10
243.7993861607
 20
85.4966386371
  0
LINE
  5
4E4
100
AcDbEntity
  8
RUNDUNGEN
100
AcDbLine
 62
7
  6
CONTINUOUS
 10
235.0788048214
 20
76.2038800718
 11
235.0088215462
 21
76.2774187436
  0
LWPOLYLINE
  5
4E5
100
AcDbEntity
  8
0
100
AcDbPolyline
 62
7
  6
CONTINUOUS
 90
10
 70
0
 10
213.7993861607
 20
85.4966386371
 10
213.8116364597
 20
85.6526846622
 10
213.8481722197
 20
85.8051707073
 10
213.9081513403
 20
85.9501808012
 10
213.990123891
 20
86.0840861487
 10
214.0921941597
 20
86.2036601872
 10
214.2117038337
 20
86.3057304011
 10
214.3457147736
 20
86.3878076839
 10
214.4907566087
 20
86.4478209538
 10
214.5610298
 20
86.4678163965
  0
LINE
  5
4E6
100
AcDbEntity
  8
RUNDUNGEN
100
AcDbLine
 62
7
  6
CONTINUOUS
 10
213.8183153669
 20
85.373016272
 11
213.7993861607
 21
85.2202316318
  0
LINE
  5
4E7
100
AcDbEntity
  8
0
100
AcDbLine
 62
2
  6
CONTINUOUS
 10
237.7150470027
 20
131.1658260314
 11
227.9134907418
 21
121.3642697704
  0
LINE
  5
4E8
100
AcDbEntity
  8
0
100
AcDbLine
 62
2
  6
CONTINUOUS
 10
243.2303002673
 20
130.7801619535
 11
233.8144080842
 21
121.3642697704
  0
LINE
  5
4E9
100
AcDbEntity
  8
RUNDUNGEN
100
AcDbLine
 62
7
  6
CONTINUOUS
 10
218.963921146
 20
95.7456837361
 11
214.5612791254
 21
94.6659344981
  0
LINE
  5
4EA
100
AcDbEntity
  8
RUNDUNGEN
100
AcDbLine
 62
7
  6
CONTINUOUS
 10
243.0374912712
 20
94.6659349701
 11
238.6348690094
 21
95.7456793607
  0
LWPOLYLINE
  5
4EB
100
AcDbEntity
  8
RUNDUNGEN
100
AcDbPolyline
 62
7
  6
CONTINUOUS
 90
4
 70
0
 10
238.6357876578
 20
95.7454075667
 10
238.5597425003
 20
95.7648022697
 10
238.4824069069
 20
95.7860549571
 10
238.4689439554
 20
95.7899105856
  0
LINE
  5
4EC
100
AcDbEntity
  8
RUNDUNGEN
100
AcDbLine
 62
7
  6
CONTINUOUS
 10
223.7993861607
 20
72.4949706359
 11
223.7993861607
 21
76.2608996908
  0
LINE
  5
4ED
100
AcDbEntity
  8
RUNDUNGEN
100
AcDbLine
 62
7
  6
CONTINUOUS
 10
223.7993861607
 20
100.3254345832
 11
223.7993861607
 21
105.639269771
  0
LINE
  5
4EE
100
AcDbEntity
  8
0
100
AcDbLine
 62
7
  6
CONTINUOUS
 10
223.7993861607
 20
133.304665883
 11
223.7993861607
 21
133.6954896024
  0
LINE
  5
4EF
100
AcDbEntity
  8
RUNDUNGEN
100
AcDbLine
 62
7
  6
CONTINUOUS
 10
223.7993853898
 20
104.4609633667
 11
223.7832679481
 21
103.6980657685
  0
LINE
  5
4F0
100
AcDbEntity
  8
RUNDUNGEN
100
AcDbLine
 62
7
  6
CONTINUOUS
 10
223.7832679481
 20
103.6980657685
 11
223.7209628984
 21
102.799012774
  0
LWPOLYLINE
  5
4F1
100
AcDbEntity
  8
RUNDUNGEN
100
AcDbPolyline
 62
7
  6
CONTINUOUS
 90
8
 70
0
 10
223.7209628984
 20
102.799012774
 10
223.6137144288
 20
101.9452407543
 10
223.4655412548
 20
101.1480498761
 10
223.2848334136
 20
100.4256280049
 10
223.0715711965
 20
99.7588629096
 10
222.8236584621
 20
99.1373197537
 10
222.5417450142
 20
98.5646496656
 10
222.2242270863
 20
98.042727022
  0
LINE
  5
4F2
100
AcDbEntity
  8
0
100
AcDbLine
 62
2
  6
CONTINUOUS
 10
247.469329147
 20
129.1182734907
 11
239.7153254267
 21
121.3642697704
  0
LWPOLYLINE
  5
4F3
100
AcDbEntity
  8
RUNDUNGEN
100
AcDbPolyline
 62
7
  6
CONTINUOUS
 90
7
 70
0
 10
238.469172219
 20
95.7898783151
 10
238.2162627139
 20
95.8707268183
 10
237.7949981059
 20
96.0403431928
 10
237.3622337529
 20
96.2598877074
 10
236.9134159522
 20
96.537705836
 10
236.4457180555
 20
96.8854658503
 10
236.1084366123
 20
97.1765847082
  0
LINE
  5
4F4
100
AcDbEntity
  8
RUNDUNGEN
100
AcDbLine
 62
7
  6
CONTINUOUS
 10
227.5493861607
 20
64.2379995812
 11
227.5493861607
 21
72.7597344457
  0
LINE
  5
4F5
100
AcDbEntity
  8
RUNDUNGEN
100
AcDbLine
 62
7
  6
CONTINUOUS
 10
227.5493861607
 20
99.0571530513
 11
227.5493861607
 21
105.639269771
  0
LWPOLYLINE
  5
4F6
100
AcDbEntity
  8
0
100
AcDbPolyline
 62
7
  6
CONTINUOUS
 90
6
 70
0
 10
234.0237744863
 20
132.8797826752
 10
234.1911125613
 20
133.5164098452
 10
234.3924020149
 20
134.0550938395
 10
234.6205016915
 20
134.4998269666
 10
234.8702031148
 20
134.8554600618
 10
235.0788048214
 20
135.074659469
  0
LINE
  5
4F7
100
AcDbEntity
  8
RUNDUNGEN
100
AcDbLine
 62
7
  6
CONTINUOUS
 10
222.2242270863
 20
98.042727022
 11
221.9758180658
 21
97.7060188742
  0
LINE
  5
4F8
100
AcDbEntity
  8
RUNDUNGEN
100
AcDbLine
 62
7
  6
CONTINUOUS
 10
221.9758180658
 20
97.7060188742
 11
221.9760568223
 21
97.7063164805
  0
LWPOLYLINE
  5
4F9
100
AcDbEntity
  8
RUNDUNGEN
100
AcDbPolyline
 62
7
  6
CONTINUOUS
 90
5
 70
0
 10
221.9760750889
 20
97.7063017934
 10
221.8552463057
 20
97.5601640661
 10
221.7270378328
 20
97.4147749567
 10
221.6016434451
 20
97.2834721382
 10
221.4898701694
 20
97.1761681665
  0
LINE
  5
4FA
100
AcDbEntity
  8
02___PRT_ALL_AXES
100
AcDbLine
 62
7
  6
CENTER
 10
206.7493861607
 20
105.6392697704
 11
250.8493861607
 21
105.6392697704
  0
LINE
  5
4FB
100
AcDbEntity
  8
0
100
AcDbLine
 62
2
  6
CONTINUOUS
 10
209.7493861607
 20
105.639269771
 11
247.8493861607
 21
105.639269771
  0
LINE
  5
4FC
100
AcDbEntity
  8
RUNDUNGEN
100
AcDbLine
 62
7
  6
CONTINUOUS
 10
236.1084367904
 20
97.1765849065
 11
236.1089185096
 21
97.1761454394
  0
LWPOLYLINE
  5
4FD
100
AcDbEntity
  8
RUNDUNGEN
100
AcDbPolyline
 62
7
  6
CONTINUOUS
 90
5
 70
0
 10
236.1089185096
 20
97.1761454394
 10
235.9961960615
 20
97.284394426
 10
235.8705899999
 20
97.4160220388
 10
235.7424235238
 20
97.5614355768
 10
235.622688998
 20
97.7063115321
  0
LINE
  5
4FE
100
AcDbEntity
  8
RUNDUNGEN
100
AcDbLine
 62
7
  6
CONTINUOUS
 10
235.6227574019
 20
97.706366619
 11
235.623020679
 21
97.7060383164
  0
LINE
  5
4FF
100
AcDbEntity
  8
RUNDUNGEN
100
AcDbLine
 62
7
  6
CONTINUOUS
 10
230.0493861607
 20
105.639269771
 11
230.0493861607
 21
99.0570246835
  0
LINE
  5
500
100
AcDbEntity
  8
RUNDUNGEN
100
AcDbLine
 62
7
  6
CONTINUOUS
 10
230.0493861607
 20
72.7597043571
 11
230.0493861607
 21
64.2379995812
  0
LINE
  5
501
100
AcDbEntity
  8
0
100
AcDbLine
 62
7
  6
CONTINUOUS
 10
233.9631692748
 20
132.5245271087
 11
234.0237744863
 21
132.8797826752
  0
LINE
  5
502
100
AcDbEntity
  8
0
100
AcDbLine
 62
2
  6
CONTINUOUS
 10
247.8493861607
 20
123.5974131619
 11
245.6162427692
 21
121.3642697704
  0
LINE
  5
503
100
AcDbEntity
  8
RUNDUNGEN
100
AcDbLine
 62
7
  6
CONTINUOUS
 10
221.4898701694
 20
97.1761681665
 11
221.4903344599
 21
97.17659163
  0
LWPOLYLINE
  5
504
100
AcDbEntity
  8
RUNDUNGEN
100
AcDbPolyline
 62
7
  6
CONTINUOUS
 90
7
 70
0
 10
221.4903377488
 20
97.1765880452
 10
221.1531994453
 20
96.8855845458
 10
220.6855540371
 20
96.5378394215
 10
220.2366369131
 20
96.2599436478
 10
219.8037456112
 20
96.0403317222
 10
219.3824415408
 20
95.8707036277
 10
219.1295453944
 20
95.7898626692
  0
LWPOLYLINE
  5
505
100
AcDbEntity
  8
RUNDUNGEN
100
AcDbPolyline
 62
7
  6
CONTINUOUS
 90
9
 70
0
 10
235.623020679
 20
97.7060383164
 10
235.3744409047
 20
98.0432916995
 10
235.0563464425
 20
98.5658502484
 10
234.7746083656
 20
99.1385158807
 10
234.5268360625
 20
99.7598822621
 10
234.3135062704
 20
100.4271476714
 10
234.1327377646
 20
101.1503070626
 10
233.9845909898
 20
101.9481626067
 10
233.8775279642
 20
102.8018729679
  0
LWPOLYLINE
  5
506
100
AcDbEntity
  8
0
100
AcDbPolyline
 62
7
  6
CONTINUOUS
 90
3
 70
0
 10
223.4078469758
 20
133.5158174445
 10
223.5751043323
 20
132.879285897
 10
223.6355237218
 20
132.5250195919
  0
LWPOLYLINE
  5
507
100
AcDbEntity
  8
RUNDUNGEN
100
AcDbPolyline
 62
7
  6
CONTINUOUS
 90
3
 70
0
 10
233.8775279642
 20
102.8018729679
 10
233.8154079153
 20
103.6995753986
 10
233.7993862962
 20
104.4631136465
  0
LINE
  5
508
100
AcDbEntity
  8
RUNDUNGEN
100
AcDbLine
 62
7
  6
CONTINUOUS
 10
233.7993861607
 20
105.639269771
 11
233.7993861607
 21
100.3254793527
  0
LINE
  5
509
100
AcDbEntity
  8
RUNDUNGEN
100
AcDbLine
 62
7
  6
CONTINUOUS
 10
233.7993861607
 20
76.2607310281
 11
233.7993861607
 21
72.4950284366
  0
LINE
  5
50A
100
AcDbEntity
  8
0
100
AcDbLine
 62
7
  6
CONTINUOUS
 10
233.7993861607
 20
133.304665883
 11
233.7993861607
 21
133.6954896024
  0
LINE
  5
50B
100
AcDbEntity
  8
0
100
AcDbLine
 62
7
  6
CONTINUOUS
 10
234.2993861607
 20
133.806167972
 11
234.2993861607
 21
133.1253755829
  0
LWPOLYLINE
  5
50C
100
AcDbEntity
  8
RUNDUNGEN
100
AcDbPolyline
 62
7
  6
CONTINUOUS
 90
4
 70
0
 10
219.1297700999
 20
95.7899274459
 10
219.1163384219
 20
95.7860512061
 10
219.0390166977
 20
95.7648034784
 10
218.9639013881
 20
95.7456378222
  0
LWPOLYLINE
  5
50D
100
AcDbEntity
  8
0
100
AcDbPolyline
 62
7
  6
CONTINUOUS
 90
28
 70
0
 10
219.2270959584
 20
88.1751874632
 10
219.2027017364
 20
88.161560754
 10
219.089466713
 20
88.0998453821
 10
218.9750766764
 20
88.0389895263
 10
218.8595885431
 20
87.9789926384
 10
218.7430588281
 20
87.9198552621
 10
218.625534423
 20
87.8615774876
 10
218.5070938179
 20
87.8041770342
 10
218.3876694824
 20
87.7476022076
 10
218.2672994659
 20
87.6918547139
 10
218.1457368431
 20
87.6368089694
 10
218.0228076784
 20
87.5823836927
 10
217.898306978
 20
87.5284962884
 10
217.7720350387
 20
87.4750764335
 10
217.6437822539
 20
87.4220581458
 10
217.5133394277
 20
87.3693841454
 10
217.3805002773
 20
87.3170066248
 10
217.2450569427
 20
87.2648860033
 10
217.106800413
 20
87.2129947389
 10
216.9655155052
 20
87.1613133668
 10
216.8210110684
 20
87.1098402026
 10
216.6730138963
 20
87.058554157
 10
216.5215629361
 20
87.0075498401
 10
216.3665848508
 20
86.956886993
 10
216.2081556146
 20
86.9066824737
 10
216.0463214375
 20
86.8570457676
 10
215.8811121824
 20
86.8080831369
 10
215.7125617367
 20
86.7599043853
  0
LWPOLYLINE
  5
50E
100
AcDbEntity
  8
0
100
AcDbPolyline
 62
7
  6
CONTINUOUS
 90
3
 70
0
 10
222.9785687328
 20
134.4993257809
 10
223.2066395472
 20
134.0544799635
 10
223.4078469758
 20
133.5158174445
  0
LINE
  5
50F
100
AcDbEntity
  8
RUNDUNGEN
100
AcDbLine
 62
7
  6
CONTINUOUS
 10
243.7804569545
 20
85.3723223021
 11
243.7993861607
 21
85.2202316318
  0
LWPOLYLINE
  5
510
100
AcDbEntity
  8
0
100
AcDbPolyline
 62
7
  6
CONTINUOUS
 90
11
 70
0
 10
243.7993861607
 20
134.0011207972
 10
243.7871645837
 20
134.1569846363
 10
243.7506760197
 20
134.3094187118
 10
243.6907405485
 20
134.4544279281
 10
243.6087856573
 20
134.5883792198
 10
243.5066257532
 20
134.7080947404
 10
243.3870069289
 20
134.8102572707
 10
243.2528943711
 20
134.8923728933
 10
243.1078316346
 20
134.9523628219
 10
242.9556298663
 20
134.9888393223
 10
242.7993861607
 20
135.0011207972
  0
LINE
  5
511
100
AcDbEntity
  8
RUNDUNGEN
100
AcDbLine
 62
7
  6
CONTINUOUS
 10
243.7993861607
 20
148.5065653634
 11
243.7993861607
 21
140.8481809231
  0
LINE
  5
512
100
AcDbEntity
  8
RUNDUNGEN
100
AcDbLine
 62
7
  6
CONTINUOUS
 10
243.7993861607
 20
140.2580950796
 11
243.7993861607
 21
140.2384596024
  0
LINE
  5
513
100
AcDbEntity
  8
0
100
AcDbLine
 62
7
  6
CONTINUOUS
 10
243.7993861607
 20
140.8481809231
 11
243.7993861607
 21
140.2580950796
  0
LINE
  5
514
100
AcDbEntity
  8
RUNDUNGEN
100
AcDbLine
 62
7
  6
CONTINUOUS
 10
243.7993861607
 20
134.0011207972
 11
243.7993861607
 21
130.7403675913
  0
LINE
  5
515
100
AcDbEntity
  8
RUNDUNGEN
100
AcDbLine
 62
7
  6
CONTINUOUS
 10
243.7993861607
 20
93.6943792548
 11
243.7993861607
 21
89.1751874632
  0
LINE
  5
516
100
AcDbEntity
  8
0
100
AcDbLine
 62
7
  6
CONTINUOUS
 10
243.7993861607
 20
85.4966386371
 11
243.7993861607
 21
85.2202316318
  0
LINE
  5
517
100
AcDbEntity
  8
RUNDUNGEN
100
AcDbLine
 62
7
  6
CONTINUOUS
 10
243.7993861607
 20
85.4966386371
 11
243.7993861607
 21
77.2774187436
  0
LINE
  5
518
100
AcDbEntity
  8
RUNDUNGEN
100
AcDbLine
 62
7
  6
CONTINUOUS
 10
243.7993861607
 20
71.040070179
 11
243.7993861607
 21
62.7719741774
  0
LINE
  5
519
100
AcDbEntity
  8
0
100
AcDbLine
 62
7
  6
CONTINUOUS
 10
243.7993861607
 20
70.9831726284
 11
243.7993861607
 21
71.0204444612
  0
LWPOLYLINE
  5
51A
100
AcDbEntity
  8
RUNDUNGEN
100
AcDbPolyline
 62
7
  6
CONTINUOUS
 90
11
 70
0
 10
243.7993861607
 20
77.2774187436
 10
243.7871645837
 20
77.1215549045
 10
243.7506760197
 20
76.969120829
 10
243.6907405485
 20
76.8241116127
 10
243.6087856573
 20
76.690160321
 10
243.5066257532
 20
76.5704448004
 10
243.3870069289
 20
76.4682822701
 10
243.2528943711
 20
76.3861666475
 10
243.1078316346
 20
76.3261767189
 10
242.9556298663
 20
76.2897002185
 10
242.7993861607
 20
76.2774187436
  0
LINE
  5
51B
100
AcDbEntity
  8
RUNDUNGEN
100
AcDbLine
 62
7
  6
CONTINUOUS
 10
222.5899366532
 20
76.2774187436
 11
222.5199339727
 21
76.2038536947
  0
LINE
  5
51C
100
AcDbEntity
  8
RUNDUNGEN
100
AcDbLine
 62
7
  6
CONTINUOUS
 10
222.5199339727
 20
76.2038536947
 11
222.5198458815
 21
76.2037740529
  0
LINE
  5
51D
100
AcDbEntity
  8
RUNDUNGEN
100
AcDbLine
 62
7
  6
CONTINUOUS
 10
222.5198326312
 20
76.2037761768
 11
222.4654272238
 21
76.1562403381
  0
LINE
  5
51E
100
AcDbEntity
  8
0
100
AcDbLine
 62
7
  6
CONTINUOUS
 10
209.7493861607
 20
121.3642697704
 11
247.8493861607
 21
121.3642697704
  0
LINE
  5
51F
100
AcDbEntity
  8
RUNDUNGEN
100
AcDbLine
 62
7
  6
CONTINUOUS
 10
222.5199339727
 20
135.0746858461
 11
222.5198458815
 21
135.0747654879
  0
LWPOLYLINE
  5
520
100
AcDbEntity
  8
0
100
AcDbPolyline
 62
7
  6
CONTINUOUS
 90
3
 70
0
 10
222.5199339727
 20
135.0746858461
 10
222.7287610747
 20
134.8552317359
 10
222.9785687328
 20
134.4993257809
  0
LINE
  5
521
100
AcDbEntity
  8
RUNDUNGEN
100
AcDbLine
 62
7
  6
CONTINUOUS
 10
247.8493861607
 20
105.6392697704
 11
247.8493861607
 21
83.6189207963
  0
LINE
  5
522
100
AcDbEntity
  8
0
100
AcDbLine
 62
7
  6
CONTINUOUS
 10
247.8493861607
 20
105.639269771
 11
247.8493861607
 21
127.6596187445
  0
LWPOLYLINE
  5
523
100
AcDbEntity
  8
RUNDUNGEN
100
AcDbPolyline
 62
7
  6
CONTINUOUS
 90
3
 70
0
 10
222.4654160655
 20
76.1562320263
 10
222.401380003
 20
76.1045875021
 10
222.3354715697
 20
76.0564086604
  0
LINE
  5
524
100
AcDbEntity
  8
RUNDUNGEN
100
AcDbLine
 62
7
  6
CONTINUOUS
 10
222.3354862288
 20
76.0564200612
 11
222.2651190093
 21
76.0106257437
  0
LINE
  5
525
100
AcDbEntity
  8
RUNDUNGEN
100
AcDbLine
 62
7
  6
CONTINUOUS
 10
222.26348341
 20
76.0096267026
 11
222.2651190093
 21
76.0106257437
  0
LINE
  5
526
100
AcDbEntity
  8
RUNDUNGEN
100
AcDbLine
 62
7
  6
CONTINUOUS
 10
222.2634844727
 20
76.0096249629
 11
221.8287130381
 21
75.7499050207
  0
LINE
  5
527
100
AcDbEntity
  8
0
100
AcDbLine
 62
7
  6
CONTINUOUS
 10
221.8287130196
 20
135.5286345311
 11
222.263488867
 21
135.2689124815
  0
LINE
  5
528
100
AcDbEntity
  8
RUNDUNGEN
100
AcDbLine
 62
7
  6
CONTINUOUS
 10
222.2651182514
 20
135.26791552
 11
222.263488115
 21
135.2689112201
  0
LWPOLYLINE
  5
529
100
AcDbEntity
  8
0
100
AcDbPolyline
 62
7
  6
CONTINUOUS
 90
5
 70
0
 10
222.2651182514
 20
135.26791552
 10
222.3354715697
 20
135.2221308804
 10
222.401380003
 20
135.1739520387
 10
222.4654160655
 20
135.1223075145
 10
222.5198383324
 20
135.0747574038
  0
LINE
  5
52A
100
AcDbEntity
  8
RUNDUNGEN
100
AcDbLine
 62
7
  6
CONTINUOUS
 10
221.8289687816
 20
75.7500577942
 11
221.1474585435
 21
75.3605935073
  0
LWPOLYLINE
  5
52B
100
AcDbEntity
  8
RUNDUNGEN
100
AcDbPolyline
 62
7
  6
CONTINUOUS
 90
3
 70
0
 10
221.1480020411
 20
75.3609040958
 10
220.414199553
 20
74.9595947254
 10
219.6386605951
 20
74.5505991735
  0
LINE
  5
52C
100
AcDbEntity
  8
RUNDUNGEN
100
AcDbLine
 62
7
  6
CONTINUOUS
 10
219.6392487078
 20
74.5509093261
 11
218.8296562113
 21
74.136835014
  0
LINE
  5
52D
100
AcDbEntity
  8
RUNDUNGEN
100
AcDbLine
 62
7
  6
CONTINUOUS
 10
218.8298598455
 20
74.1369391624
 11
218.2653499394
 21
73.8547758434
  0
LINE
  5
52E
100
AcDbEntity
  8
RUNDUNGEN
100
AcDbLine
 62
7
  6
CONTINUOUS
 10
218.2653824381
 20
73.8547920497
 11
214.3590321646
 21
71.9378338953
  0
LINE
  5
52F
100
AcDbEntity
  8
RUNDUNGEN
100
AcDbLine
 62
7
  6
CONTINUOUS
 10
218.2924958133
 20
73.8682264372
 11
218.2924275639
 21
73.86819298
  0
LINE
  5
530
100
AcDbEntity
  8
0
100
AcDbLine
 62
7
  6
CONTINUOUS
 10
221.9285044181
 20
135.8577183015
 11
222.6761284543
 21
135.493077695
  0
LINE
  5
531
100
AcDbEntity
  8
RUNDUNGEN
100
AcDbLine
 62
7
  6
CONTINUOUS
 10
218.2924958133
 20
137.4103131036
 11
218.2924275639
 21
137.4103465608
  0
LINE
  5
532
100
AcDbEntity
  8
0
100
AcDbLine
 62
7
  6
CONTINUOUS
 10
214.3590321646
 20
139.3407056456
 11
218.2924263548
 21
137.410344177
  0
LWPOLYLINE
  5
533
100
AcDbEntity
  8
0
100
AcDbPolyline
 62
7
  6
CONTINUOUS
 90
5
 70
0
 10
218.2924958133
 20
137.4103131036
 10
218.8296561904
 20
137.1417045374
 10
219.6386605626
 20
136.7279403842
 10
220.4141995177
 20
136.3189448344
 10
221.1474585136
 20
135.9179460504
  0
LINE
  5
534
100
AcDbEntity
  8
0
100
AcDbLine
 62
7
  6
CONTINUOUS
 10
221.1474585136
 20
135.9179460504
 11
221.8287130196
 21
135.5286345311
  0
LINE
  5
535
100
AcDbEntity
  8
0
100
AcDbLine
 62
7
  6
CONTINUOUS
 10
212.5401167395
 20
130.6523108953
 11
221.9388991082
 21
131.3095377824
  0
LINE
  5
536
100
AcDbEntity
  8
0
100
AcDbLine
 62
7
  6
CONTINUOUS
 10
234.0883288226
 20
133.1253755829
 11
234.2993861607
 21
133.1253755829
  0
LINE
  5
537
100
AcDbEntity
  8
0
100
AcDbLine
 62
7
  6
CONTINUOUS
 10
234.1055738109
 20
133.1909830553
 11
234.2993861607
 21
133.1909830553
  0
LINE
  5
538
100
AcDbEntity
  8
0
100
AcDbLine
 62
7
  6
CONTINUOUS
 10
234.1456173449
 20
133.3433261589
 11
234.2993861607
 21
133.3433261589
  0
LINE
  5
539
100
AcDbEntity
  8
0
100
AcDbLine
 62
7
  6
CONTINUOUS
 10
234.1598184138
 20
133.3973532314
 11
234.2993861607
 21
133.3973532314
  0
LINE
  5
53A
100
AcDbEntity
  8
0
100
AcDbLine
 62
7
  6
CONTINUOUS
 10
234.1881081227
 20
133.5049796478
 11
234.2993861607
 21
133.5049796478
  0
LINE
  5
53B
100
AcDbEntity
  8
0
100
AcDbLine
 62
7
  6
CONTINUOUS
 10
234.2269114684
 20
133.6122136638
 11
234.2993861607
 21
133.6122136638
  0
LINE
  5
53C
100
AcDbEntity
  8
0
100
AcDbLine
 62
7
  6
CONTINUOUS
 10
234.2385478942
 20
133.643354671
 11
234.2993861607
 21
133.643354671
  0
LINE
  5
53D
100
AcDbEntity
  8
0
100
AcDbLine
 62
7
  6
CONTINUOUS
 10
234.2583160424
 20
133.6962575172
 11
234.2993861607
 21
133.6962575172
  0
LINE
  5
53E
100
AcDbEntity
  8
0
100
AcDbLine
 62
7
  6
CONTINUOUS
 10
235.6598732132
 20
131.3095377824
 11
245.0586555819
 21
130.6523108953
  0
LWPOLYLINE
  5
53F
100
AcDbEntity
  8
0
100
AcDbPolyline
 62
7
  6
CONTINUOUS
 90
3
 70
0
 10
214.7993861607
 20
135.0011207972
 10
214.6422099659
 20
134.9886913588
 10
214.4896288924
 20
134.9519364653
  0
LINE
  5
540
100
AcDbEntity
  8
0
100
AcDbLine
 62
7
  6
CONTINUOUS
 10
242.7993861607
 20
135.0011207972
 11
235.0088215462
 21
135.0011207972
  0
LINE
  5
541
100
AcDbEntity
  8
0
100
AcDbLine
 62
7
  6
CONTINUOUS
 10
222.5899366532
 20
135.0011207972
 11
214.7993861607
 21
135.0011207972
  0
LINE
  5
542
100
AcDbEntity
  8
0
100
AcDbLine
 62
7
  6
CONTINUOUS
 10
222.366661607
 20
137.7565653634
 11
235.2320341963
 21
137.7565653634
  0
LWPOLYLINE
  5
543
100
AcDbEntity
  8
RUNDUNGEN
100
AcDbPolyline
 62
7
  6
CONTINUOUS
 90
9
 70
0
 10
214.7993861607
 20
141.0065653634
 10
214.6028460091
 20
141.0032539546
 10
214.4143557846
 20
140.9943545408
 10
214.2411608342
 20
140.9795205636
 10
214.0898635838
 20
140.9597916987
 10
213.966149216
 20
140.9357116127
 10
213.8745417992
 20
140.9084217754
 10
213.8183153669
 20
140.8794102154
 10
213.7993861607
 20
140.8481809231
  0
LINE
  5
544
100
AcDbEntity
  8
RUNDUNGEN
100
AcDbLine
 62
7
  6
CONTINUOUS
 10
214.7993861607
 20
141.0065653634
 11
242.7993861607
 21
141.0065653634
  0
LWPOLYLINE
  5
545
100
AcDbEntity
  8
RUNDUNGEN
100
AcDbPolyline
 62
7
  6
CONTINUOUS
 90
9
 70
0
 10
242.7993861607
 20
141.0065653634
 10
242.9959263124
 20
141.003687564
 10
243.1844165368
 20
140.9943545408
 10
243.3576114872
 20
140.9796576239
 10
243.5089087376
 20
140.9597916987
 10
243.6326231054
 20
140.9357947562
 10
243.7242305223
 20
140.9084217754
 10
243.7804569545
 20
140.8783210626
 10
243.7993861607
 20
140.8481809231
  0
LWPOLYLINE
  5
546
100
AcDbEntity
  8
RUNDUNGEN
100
AcDbPolyline
 62
7
  6
CONTINUOUS
 90
9
 70
0
 10
229.3584792848
 20
63.2869678043
 10
229.5034428426
 20
63.3470267818
 10
229.6372186836
 20
63.429016933
 10
229.7565054258
 20
63.5309052843
 10
229.8583940927
 20
63.6502018558
 10
229.9403686092
 20
63.7839618333
 10
230.0004227553
 20
63.9289212807
 10
230.0370688048
 20
64.0815292341
 10
230.0493861607
 20
64.2379995812
  0
LINE
  5
547
100
AcDbEntity
  8
RUNDUNGEN
100
AcDbLine
 62
7
  6
CONTINUOUS
 10
214.7993861607
 20
149.5065653634
 11
242.7993861607
 21
149.5065653634
  0
LINE
  5
548
100
AcDbEntity
  8
0
100
AcDbLine
 62
7
  6
CONTINUOUS
 10
214.7993861607
 20
149.5065653634
 11
242.7993861607
 21
149.5065653634
  0
ARC
  5
549
100
AcDbEntity
  8
RUNDUNGEN
100
AcDbCircle
 62
7
  6
CONTINUOUS
 10
69.4521736433
 20
71.6099595975
 40
3.9999927091
100
AcDbArc
 50
74.5647289875
 51
87.6605028395
  0
ARC
  5
54A
100
AcDbEntity
  8
RUNDUNGEN
100
AcDbCircle
 62
7
  6
CONTINUOUS
 10
72.7633236966
 20
72.7705363384
 40
2.0000000057
100
AcDbArc
 50
9.7684286213
 51
74.5646197584
  0
ARC
  5
54B
100
AcDbEntity
  8
RUNDUNGEN
100
AcDbCircle
 62
7
  6
CONTINUOUS
 10
68.1376808072
 20
79.2360564846
 40
1.0
100
AcDbArc
 50
138.0
 51
210.0
  0
ARC
  5
54C
100
AcDbEntity
  8
RUNDUNGEN
100
AcDbCircle
 62
7
  6
CONTINUOUS
 10
69.6562697613
 20
76.6057832604
 40
1.0
100
AcDbArc
 50
210.0000255006
 51
267.6607322053
  0
ARC
  5
54D
100
AcDbEntity
  8
RUNDUNGEN
100
AcDbCircle
 62
7
  6
CONTINUOUS
 10
69.2685008342
 20
77.2774187436
 40
1.0
100
AcDbArc
 50
209.9975408863
 51
300.0
  0
ARC
  5
54E
100
AcDbEntity
  8
RUNDUNGEN
100
AcDbCircle
 62
7
  6
CONTINUOUS
 10
56.4522312627
 20
94.1266533625
 40
3.9999721244
100
AcDbArc
 50
332.3388753264
 51
345.4335180135
  0
ARC
  5
54F
100
AcDbEntity
  8
RUNDUNGEN
100
AcDbCircle
 62
7
  6
CONTINUOUS
 10
62.3993208612
 20
89.1751874632
 40
1.0
100
AcDbArc
 50
210.0
 51
282.0
  0
ARC
  5
550
100
AcDbEntity
  8
RUNDUNGEN
100
AcDbCircle
 62
7
  6
CONTINUOUS
 10
60.8807389453
 20
91.8054484971
 40
1.0
100
AcDbArc
 50
152.3379941261
 51
209.9994578529
  0
ARC
  5
551
100
AcDbEntity
  8
RUNDUNGEN
100
AcDbCircle
 62
7
  6
CONTINUOUS
 10
61.2685008342
 20
91.1338252042
 40
1.0
100
AcDbArc
 50
120.0
 51
210.0
  0
ARC
  5
552
100
AcDbEntity
  8
RUNDUNGEN
100
AcDbCircle
 62
7
  6
CONTINUOUS
 10
59.1128376106
 20
96.4138717874
 40
2.0000000058
100
AcDbArc
 50
345.4353802416
 51
50.253423902
  0
ARC
  5
553
100
AcDbEntity
  8
RUNDUNGEN
100
AcDbCircle
 62
7
  6
CONTINUOUS
 10
56.3186496398
 20
102.6392697704
 40
1.0
100
AcDbArc
 50
180.0
 51
230.2534250243
  0
ARC
  5
554
100
AcDbEntity
  8
0
100
AcDbCircle
 62
7
  6
CONTINUOUS
 10
72.6297167664
 20
88.4556219739
 40
2.25
100
AcDbArc
 50
299.9987675046
 51
120.0008860385
  0
ARC
  5
555
100
AcDbEntity
  8
RUNDUNGEN
100
AcDbCircle
 62
7
  6
CONTINUOUS
 10
81.9537349359
 20
64.2379995812
 40
1.0
100
AcDbArc
 50
240.0
 51
290.2534250243
  0
ARC
  5
556
100
AcDbEntity
  8
RUNDUNGEN
100
AcDbCircle
 62
7
  6
CONTINUOUS
 10
76.7575825132
 20
67.2379995812
 40
1.0
100
AcDbArc
 50
189.7465749757
 51
240.0
  0
ARC
  5
557
100
AcDbEntity
  8
RUNDUNGEN
100
AcDbCircle
 62
7
  6
CONTINUOUS
 10
89.3926678093
 20
60.0973764561
 40
3.9999721244
100
AcDbArc
 50
32.3388970725
 51
45.4335180135
  0
ARC
  5
558
100
AcDbEntity
  8
RUNDUNGEN
100
AcDbCircle
 62
7
  6
CONTINUOUS
 10
88.7421817233
 20
63.5451383553
 40
2.0000000058
100
AcDbArc
 50
45.4353802416
 51
110.253423902
  0
ARC
  5
559
100
AcDbEntity
  8
RUNDUNGEN
100
AcDbCircle
 62
7
  6
CONTINUOUS
 10
96.6543078633
 20
62.7719741774
 40
1.0
100
AcDbArc
 50
270.0
 51
342.0
  0
ARC
  5
55A
100
AcDbEntity
  8
RUNDUNGEN
100
AcDbCircle
 62
7
  6
CONTINUOUS
 10
93.61714403
 20
62.7719741774
 40
1.0
100
AcDbArc
 50
212.3379184408
 51
269.9996649209
  0
ARC
  5
55B
100
AcDbEntity
  8
RUNDUNGEN
100
AcDbCircle
 62
7
  6
CONTINUOUS
 10
94.3926678093
 20
62.7719741774
 40
1.0
100
AcDbArc
 50
180.0
 51
270.0
  0
ARC
  5
55C
100
AcDbEntity
  8
RUNDUNGEN
100
AcDbCircle
 62
7
  6
CONTINUOUS
 10
59.1128376106
 20
114.8646677534
 40
2.0000000057
100
AcDbArc
 50
309.7684286211
 51
14.5646197584
  0
ARC
  5
55D
100
AcDbEntity
  8
RUNDUNGEN
100
AcDbCircle
 62
7
  6
CONTINUOUS
 10
56.3186496398
 20
108.6392697704
 40
1.0
100
AcDbArc
 50
129.7465749757
 51
180.0
  0
ARC
  5
55E
100
AcDbEntity
  8
RUNDUNGEN
100
AcDbCircle
 62
7
  6
CONTINUOUS
 10
56.4521736433
 20
117.1519194449
 40
3.9999927091
100
AcDbArc
 50
14.5647289875
 51
27.6605028395
  0
ARC
  5
55F
100
AcDbEntity
  8
RUNDUNGEN
100
AcDbCircle
 62
7
  6
CONTINUOUS
 10
62.3993208612
 20
122.1033520776
 40
1.0
100
AcDbArc
 50
78.0
 51
150.0
  0
ARC
  5
560
100
AcDbEntity
  8
RUNDUNGEN
100
AcDbCircle
 62
7
  6
CONTINUOUS
 10
60.8807319072
 20
119.4730788534
 40
1.0
100
AcDbArc
 50
150.0000255007
 51
207.6607322054
  0
ARC
  5
561
100
AcDbEntity
  8
RUNDUNGEN
100
AcDbCircle
 62
7
  6
CONTINUOUS
 10
61.2685008342
 20
120.1447143366
 40
1.0
100
AcDbArc
 50
149.9975408863
 51
239.9996760811
  0
ARC
  5
562
100
AcDbEntity
  8
0
100
AcDbCircle
 62
7
  6
CONTINUOUS
 10
72.6297167664
 20
122.8229175669
 40
2.25
100
AcDbArc
 50
239.9986103693
 51
60.000075518
  0
ARC
  5
563
100
AcDbEntity
  8
RUNDUNGEN
100
AcDbCircle
 62
7
  6
CONTINUOUS
 10
68.1376808072
 20
132.0424830562
 40
1.0
100
AcDbArc
 50
150.0
 51
222.0
  0
ARC
  5
564
100
AcDbEntity
  8
RUNDUNGEN
100
AcDbCircle
 62
7
  6
CONTINUOUS
 10
69.6562631205
 20
134.6727447782
 40
1.0
100
AcDbArc
 50
92.3380274666
 51
149.9996792764
  0
ARC
  5
565
100
AcDbEntity
  8
RUNDUNGEN
100
AcDbCircle
 62
7
  6
CONTINUOUS
 10
69.2685008342
 20
134.0011207972
 40
1.0
100
AcDbArc
 50
60.0
 51
150.0
  0
ARC
  5
566
100
AcDbEntity
  8
RUNDUNGEN
100
AcDbCircle
 62
7
  6
CONTINUOUS
 10
69.4522260801
 20
139.6685496689
 40
3.9999741049
100
AcDbArc
 50
272.3389448649
 51
285.4336632495
  0
ARC
  5
567
100
AcDbEntity
  8
RUNDUNGEN
100
AcDbCircle
 62
7
  6
CONTINUOUS
 10
72.7633236967
 20
138.5080032026
 40
2.0000000058
100
AcDbArc
 50
285.4353802416
 51
350.2534239042
  0
ARC
  5
568
100
AcDbEntity
  8
RUNDUNGEN
100
AcDbCircle
 62
7
  6
CONTINUOUS
 10
76.7575825132
 20
144.0405399596
 40
1.0
100
AcDbArc
 50
120.0
 51
170.2534250243
  0
ARC
  5
569
100
AcDbEntity
  8
0
100
AcDbCircle
 62
7
  6
CONTINUOUS
 10
99.0176678093
 20
118.0899474628
 40
0.2
100
AcDbArc
 50
285.1666783324
 51
360.0
  0
ARC
  5
56A
100
AcDbEntity
  8
RUNDUNGEN
100
AcDbCircle
 62
7
  6
CONTINUOUS
 10
89.3926678093
 20
151.1812122332
 40
3.9999871222
100
AcDbArc
 50
314.565850095
 51
327.6606843009
  0
ARC
  5
56B
100
AcDbEntity
  8
RUNDUNGEN
100
AcDbCircle
 62
7
  6
CONTINUOUS
 10
88.7421817232
 20
147.7334011855
 40
2.0000000058
100
AcDbArc
 50
249.76846326
 51
314.5646197584
  0
ARC
  5
56C
100
AcDbEntity
  8
RUNDUNGEN
100
AcDbCircle
 62
7
  6
CONTINUOUS
 10
96.6543078633
 20
148.5065653634
 40
1.0
100
AcDbArc
 50
18.000001169
 51
89.9999991136
  0
ARC
  5
56D
100
AcDbEntity
  8
RUNDUNGEN
100
AcDbCircle
 62
7
  6
CONTINUOUS
 10
81.9537349359
 20
147.0405399596
 40
1.0
100
AcDbArc
 50
69.7465749757
 51
120.0
  0
ARC
  5
56E
100
AcDbEntity
  8
RUNDUNGEN
100
AcDbCircle
 62
7
  6
CONTINUOUS
 10
93.6171297591
 20
148.5065653634
 40
1.0
100
AcDbArc
 50
89.9999431238
 51
147.6607508719
  0
ARC
  5
56F
100
AcDbEntity
  8
RUNDUNGEN
100
AcDbCircle
 62
7
  6
CONTINUOUS
 10
94.3927178395
 20
148.5065653634
 40
1.0
100
AcDbArc
 50
90.0011887172
 51
180.0015673547
  0
ARC
  5
570
100
AcDbEntity
  8
RUNDUNGEN
100
AcDbCircle
 62
7
  6
CONTINUOUS
 10
108.1310277553
 20
62.7719741774
 40
1.0
100
AcDbArc
 50
198.0
 51
270.0
  0
ARC
  5
571
100
AcDbEntity
  8
RUNDUNGEN
100
AcDbCircle
 62
7
  6
CONTINUOUS
 10
111.1682056634
 20
62.7719741774
 40
1.0
100
AcDbArc
 50
270.0000255006
 51
327.6607322054
  0
ARC
  5
572
100
AcDbEntity
  8
RUNDUNGEN
100
AcDbCircle
 62
7
  6
CONTINUOUS
 10
110.3926678093
 20
62.7719741774
 40
1.0
100
AcDbArc
 50
269.9975408863
 51
360.0
  0
ARC
  5
573
100
AcDbEntity
  8
0
100
AcDbCircle
 62
7
  6
CONTINUOUS
 10
102.3926678093
 20
71.2719741774
 40
2.25
100
AcDbArc
 50
359.998718701
 51
180.0007345199
  0
ARC
  5
574
100
AcDbEntity
  8
RUNDUNGEN
100
AcDbCircle
 62
7
  6
CONTINUOUS
 10
115.3926678093
 20
60.097309923
 40
3.9999927091
100
AcDbArc
 50
134.5647289875
 51
147.6605028395
  0
ARC
  5
575
100
AcDbEntity
  8
RUNDUNGEN
100
AcDbCircle
 62
7
  6
CONTINUOUS
 10
116.0431538953
 20
63.5451383553
 40
2.0000000057
100
AcDbArc
 50
69.7684286247
 51
134.5646197584
  0
ARC
  5
576
100
AcDbEntity
  8
RUNDUNGEN
100
AcDbCircle
 62
7
  6
CONTINUOUS
 10
122.8316006827
 20
64.2379995812
 40
1.0
100
AcDbArc
 50
249.7465749757
 51
300.0
  0
ARC
  5
577
100
AcDbEntity
  8
RUNDUNGEN
100
AcDbCircle
 62
7
  6
CONTINUOUS
 10
135.3331043559
 20
71.6099928641
 40
3.9999721244
100
AcDbArc
 50
92.3388970725
 51
105.4335180135
  0
ARC
  5
578
100
AcDbEntity
  8
RUNDUNGEN
100
AcDbCircle
 62
7
  6
CONTINUOUS
 10
132.022011922
 20
72.7705363383
 40
2.0000000058
100
AcDbArc
 50
105.4353802416
 51
170.253423902
  0
ARC
  5
579
100
AcDbEntity
  8
RUNDUNGEN
100
AcDbCircle
 62
7
  6
CONTINUOUS
 10
136.6476548114
 20
79.2360564846
 40
1.0
100
AcDbArc
 50
330.0
 51
42.0
  0
ARC
  5
57A
100
AcDbEntity
  8
RUNDUNGEN
100
AcDbCircle
 62
7
  6
CONTINUOUS
 10
128.0277531054
 20
67.2379995812
 40
1.0
100
AcDbArc
 50
300.0
 51
350.2534250243
  0
ARC
  5
57B
100
AcDbEntity
  8
RUNDUNGEN
100
AcDbCircle
 62
7
  6
CONTINUOUS
 10
135.1290728947
 20
76.6057954495
 40
1.0
100
AcDbArc
 50
272.3379184408
 51
329.9996649208
  0
ARC
  5
57C
100
AcDbEntity
  8
RUNDUNGEN
100
AcDbCircle
 62
7
  6
CONTINUOUS
 10
135.5168347844
 20
77.2774187436
 40
1.0
100
AcDbArc
 50
240.0
 51
330.0
  0
ARC
  5
57D
100
AcDbEntity
  8
RUNDUNGEN
100
AcDbCircle
 62
7
  6
CONTINUOUS
 10
148.3331619753
 20
94.1266200959
 40
3.9999927091
100
AcDbArc
 50
194.5647289875
 51
207.6605028395
  0
ARC
  5
57E
100
AcDbEntity
  8
0
100
AcDbCircle
 62
7
  6
CONTINUOUS
 10
132.1556188522
 20
88.4556219739
 40
2.25
100
AcDbArc
 50
59.9986292319
 51
240.000868777
  0
ARC
  5
57F
100
AcDbEntity
  8
RUNDUNGEN
100
AcDbCircle
 62
7
  6
CONTINUOUS
 10
145.672498008
 20
96.4138717874
 40
2.0000000057
100
AcDbArc
 50
129.7684286193
 51
194.5646197584
  0
ARC
  5
580
100
AcDbEntity
  8
RUNDUNGEN
100
AcDbCircle
 62
7
  6
CONTINUOUS
 10
142.3860147574
 20
89.1751874632
 40
1.0
100
AcDbArc
 50
258.0
 51
330.0
  0
ARC
  5
581
100
AcDbEntity
  8
RUNDUNGEN
100
AcDbCircle
 62
7
  6
CONTINUOUS
 10
148.4666859788
 20
102.6392697704
 40
1.0
100
AcDbArc
 50
309.7465749757
 51
360.0
  0
ARC
  5
582
100
AcDbEntity
  8
RUNDUNGEN
100
AcDbCircle
 62
7
  6
CONTINUOUS
 10
143.516803232
 20
91.1337705539
 40
1.0
100
AcDbArc
 50
330.0011804226
 51
60.0
  0
ARC
  5
583
100
AcDbEntity
  8
RUNDUNGEN
100
AcDbCircle
 62
7
  6
CONTINUOUS
 10
143.9046037114
 20
91.8054606874
 40
1.0
100
AcDbArc
 50
330.0000255007
 51
27.6607322054
  0
ARC
  5
584
100
AcDbEntity
  8
0
100
AcDbCircle
 62
7
  6
CONTINUOUS
 10
102.3926678093
 20
105.6392697704
 40
12.7
100
AcDbArc
 50
105.1666783324
 51
74.8333216676
  0
ARC
  5
585
100
AcDbEntity
  8
0
100
AcDbCircle
 62
7
  6
CONTINUOUS
 10
105.7676678093
 20
118.0899474628
 40
0.2
100
AcDbArc
 50
180.0
 51
254.8333216676
  0
ARC
  5
586
100
AcDbEntity
  8
0
100
AcDbCircle
 62
7
  6
CONTINUOUS
 10
102.3926678093
 20
140.0065653634
 40
2.25
100
AcDbArc
 50
179.9986966448
 51
0.0008841566
  0
ARC
  5
587
100
AcDbEntity
  8
RUNDUNGEN
100
AcDbCircle
 62
7
  6
CONTINUOUS
 10
108.1310277553
 20
148.5065653634
 40
1.0
100
AcDbArc
 50
90.000001169
 51
161.9999991136
  0
ARC
  5
588
100
AcDbEntity
  8
RUNDUNGEN
100
AcDbCircle
 62
7
  6
CONTINUOUS
 10
111.1681915887
 20
148.5065653634
 40
1.0
100
AcDbArc
 50
32.3379184408
 51
89.9996649209
  0
ARC
  5
589
100
AcDbEntity
  8
RUNDUNGEN
100
AcDbCircle
 62
7
  6
CONTINUOUS
 10
110.3926678093
 20
148.5065653634
 40
1.0
100
AcDbArc
 50
0.0
 51
90.0
  0
ARC
  5
58A
100
AcDbEntity
  8
RUNDUNGEN
100
AcDbCircle
 62
7
  6
CONTINUOUS
 10
115.3926678093
 20
151.1811630847
 40
3.9999721244
100
AcDbArc
 50
212.3388970725
 51
225.4335180135
  0
ARC
  5
58B
100
AcDbEntity
  8
RUNDUNGEN
100
AcDbCircle
 62
7
  6
CONTINUOUS
 10
116.0431538954
 20
147.7334011855
 40
2.0000000058
100
AcDbArc
 50
225.4353802416
 51
290.253423902
  0
ARC
  5
58C
100
AcDbEntity
  8
RUNDUNGEN
100
AcDbCircle
 62
7
  6
CONTINUOUS
 10
122.8316006827
 20
147.0405399596
 40
1.0
100
AcDbArc
 50
60.0
 51
110.2534250243
  0
ARC
  5
58D
100
AcDbEntity
  8
RUNDUNGEN
100
AcDbCircle
 62
7
  6
CONTINUOUS
 10
148.3331043559
 20
117.1518861784
 40
3.9999721244
100
AcDbArc
 50
152.3388970725
 51
165.4335180135
  0
ARC
  5
58E
100
AcDbEntity
  8
0
100
AcDbCircle
 62
7
  6
CONTINUOUS
 10
132.1556188522
 20
122.8229175669
 40
2.25
100
AcDbArc
 50
119.9987675045
 51
300.0008860361
  0
ARC
  5
58F
100
AcDbEntity
  8
RUNDUNGEN
100
AcDbCircle
 62
7
  6
CONTINUOUS
 10
145.672498008
 20
114.8646677534
 40
2.0000000058
100
AcDbArc
 50
165.4353802416
 51
230.253423902
  0
ARC
  5
590
100
AcDbEntity
  8
RUNDUNGEN
100
AcDbCircle
 62
7
  6
CONTINUOUS
 10
142.3860147574
 20
122.1033520776
 40
1.0
100
AcDbArc
 50
30.0
 51
102.0
  0
ARC
  5
591
100
AcDbEntity
  8
RUNDUNGEN
100
AcDbCircle
 62
7
  6
CONTINUOUS
 10
148.4666859788
 20
108.6392697704
 40
1.0
100
AcDbArc
 50
0.0
 51
50.2534250243
  0
ARC
  5
592
100
AcDbEntity
  8
RUNDUNGEN
100
AcDbCircle
 62
7
  6
CONTINUOUS
 10
143.9045966741
 20
119.4730910425
 40
1.0
100
AcDbArc
 50
332.3379184408
 51
29.999664921
  0
ARC
  5
593
100
AcDbEntity
  8
RUNDUNGEN
100
AcDbCircle
 62
7
  6
CONTINUOUS
 10
143.5168347844
 20
120.1447143366
 40
1.0
100
AcDbArc
 50
300.0
 51
30.0
  0
ARC
  5
594
100
AcDbEntity
  8
RUNDUNGEN
100
AcDbCircle
 62
7
  6
CONTINUOUS
 10
135.3331619753
 20
139.6685799433
 40
3.9999927091
100
AcDbArc
 50
254.5647289875
 51
267.6605028395
  0
ARC
  5
595
100
AcDbEntity
  8
RUNDUNGEN
100
AcDbCircle
 62
7
  6
CONTINUOUS
 10
132.022011922
 20
138.5080032024
 40
2.0000000057
100
AcDbArc
 50
189.7684286226
 51
254.5646197584
  0
ARC
  5
596
100
AcDbEntity
  8
RUNDUNGEN
100
AcDbCircle
 62
7
  6
CONTINUOUS
 10
136.6476548114
 20
132.0424830562
 40
1.0
100
AcDbArc
 50
318.0
 51
30.0
  0
ARC
  5
597
100
AcDbEntity
  8
RUNDUNGEN
100
AcDbCircle
 62
7
  6
CONTINUOUS
 10
128.0277531054
 20
144.0405399596
 40
1.0
100
AcDbArc
 50
9.7465749757
 51
60.0
  0
ARC
  5
598
100
AcDbEntity
  8
RUNDUNGEN
100
AcDbCircle
 62
7
  6
CONTINUOUS
 10
135.1290658574
 20
134.6727562804
 40
1.0
100
AcDbArc
 50
30.0000255006
 51
87.6607322053
  0
ARC
  5
599
100
AcDbEntity
  8
RUNDUNGEN
100
AcDbCircle
 62
7
  6
CONTINUOUS
 10
135.5168347844
 20
134.0011207972
 40
1.0
100
AcDbArc
 50
29.9975408863
 51
120.0
  0
ARC
  5
59A
100
AcDbEntity
  8
RUNDUNGEN
100
AcDbCircle
 62
7
  6
CONTINUOUS
 10
212.7493861607
 20
83.6189207963
 40
3.0
100
AcDbArc
 50
180.0
 51
266.0
  0
ARC
  5
59B
100
AcDbEntity
  8
RUNDUNGEN
100
AcDbCircle
 62
7
  6
CONTINUOUS
 10
214.7993861607
 20
93.6946877978
 40
1.0
100
AcDbArc
 50
103.7763516152
 51
179.9999997013
  0
ARC
  5
59C
100
AcDbEntity
  8
RUNDUNGEN
100
AcDbCircle
 62
7
  6
CONTINUOUS
 10
214.7993861607
 20
71.0399386736
 40
1.0
100
AcDbArc
 50
116.1246746959
 51
180.0000010783
  0
ARC
  5
59D
100
AcDbEntity
  8
RUNDUNGEN
100
AcDbCircle
 62
7
  6
CONTINUOUS
 10
214.7993861607
 20
62.7719741774
 40
1.0
100
AcDbArc
 50
180.0
 51
270.0
  0
ARC
  5
59E
100
AcDbEntity
  8
0
100
AcDbCircle
 62
7
  6
CONTINUOUS
 10
212.7493861607
 20
127.6596187445
 40
3.0
100
AcDbArc
 50
94.0
 51
180.0
  0
ARC
  5
59F
100
AcDbEntity
  8
0
100
AcDbCircle
 62
7
  6
CONTINUOUS
 10
221.7993861607
 20
133.6954896024
 40
2.0
100
AcDbArc
 50
0.0
 51
64.0
  0
ARC
  5
5A0
100
AcDbEntity
  8
0
100
AcDbCircle
 62
7
  6
CONTINUOUS
 10
221.7993861607
 20
133.304665883
 40
2.0
100
AcDbArc
 50
274.0
 51
360.0
  0
ARC
  5
5A1
100
AcDbEntity
  8
0
100
AcDbCircle
 62
7
  6
CONTINUOUS
 10
214.7993861607
 20
140.2386008672
 40
1.0
100
AcDbArc
 50
179.9999993566
 51
243.8753257389
  0
ARC
  5
5A2
100
AcDbEntity
  8
RUNDUNGEN
100
AcDbCircle
 62
7
  6
CONTINUOUS
 10
214.7993861607
 20
148.5065653634
 40
1.0
100
AcDbArc
 50
90.0
 51
180.0
  0
ARC
  5
5A3
100
AcDbEntity
  8
0
100
AcDbCircle
 62
7
  6
CONTINUOUS
 10
222.3666618993
 20
136.7566111493
 40
0.9999859194
100
AcDbArc
 50
90.0000218002
 51
244.0134721286
  0
ARC
  5
5A4
100
AcDbEntity
  8
RUNDUNGEN
100
AcDbCircle
 62
7
  6
CONTINUOUS
 10
244.8493861607
 20
83.6189207963
 40
3.0
100
AcDbArc
 50
274.0
 51
360.0
  0
ARC
  5
5A5
100
AcDbEntity
  8
RUNDUNGEN
100
AcDbCircle
 62
7
  6
CONTINUOUS
 10
242.7993861607
 20
93.6946823724
 40
1.0
100
AcDbArc
 50
0.000000276
 51
76.2235259548
  0
ARC
  5
5A6
100
AcDbEntity
  8
RUNDUNGEN
100
AcDbCircle
 62
7
  6
CONTINUOUS
 10
242.7993861607
 20
71.0399547304
 40
1.0
100
AcDbArc
 50
359.9999986565
 51
63.8756604921
  0
ARC
  5
5A7
100
AcDbEntity
  8
RUNDUNGEN
100
AcDbCircle
 62
7
  6
CONTINUOUS
 10
242.7993861607
 20
62.7719741774
 40
1.0
100
AcDbArc
 50
270.0
 51
360.0
  0
ARC
  5
5A8
100
AcDbEntity
  8
0
100
AcDbCircle
 62
7
  6
CONTINUOUS
 10
244.8493861607
 20
127.6596187445
 40
3.0
100
AcDbArc
 50
0.0
 51
86.0
  0
ARC
  5
5A9
100
AcDbEntity
  8
0
100
AcDbCircle
 62
7
  6
CONTINUOUS
 10
235.7993861607
 20
133.6954896024
 40
2.0
100
AcDbArc
 50
116.0
 51
180.0
  0
ARC
  5
5AA
100
AcDbEntity
  8
0
100
AcDbCircle
 62
7
  6
CONTINUOUS
 10
235.7993861607
 20
133.304665883
 40
2.0
100
AcDbArc
 50
180.0
 51
266.0
  0
ARC
  5
5AB
100
AcDbEntity
  8
0
100
AcDbCircle
 62
7
  6
CONTINUOUS
 10
242.7993861607
 20
140.2385848104
 40
1.0
100
AcDbArc
 50
296.1243403911
 51
0.0000022831
  0
ARC
  5
5AC
100
AcDbEntity
  8
RUNDUNGEN
100
AcDbCircle
 62
7
  6
CONTINUOUS
 10
242.7993861607
 20
148.5065653634
 40
1.0
100
AcDbArc
 50
0.0
 51
90.0
  0
ARC
  5
5AD
100
AcDbEntity
  8
0
100
AcDbCircle
 62
7
  6
CONTINUOUS
 10
235.2320340275
 20
136.7565778277
 40
0.9999961679
100
AcDbArc
 50
295.9964836924
 51
89.999986967
  0
ENDSEC
  0
SECTION
  2
OBJECTS
  0
DICTIONARY
  5
C
100
AcDbDictionary
280
0
281
1
  3
ACAD_GROUP
350
D
  3
ACAD_MLINESTYLE
350
17
  3
ACAD_LAYOUT
350
1A
  3
ACAD_PLOTSETTINGS
350
19
  3
ACAD_PLOTSTYLENAME
350
E
  0
DICTIONARY
  5
D
102
{ACAD_REACTORS
330
C
102
}
100
AcDbDictionary
280
0
281
1
  0
ACDBDICTIONARYWDFLT
  5
E
102
{ACAD_REACTORS
330
C
102
}
100
AcDbDictionary
281
1
  3
Normal
350
F
100
AcDbDictionaryWithDefault
340
F
  0
DICTIONARY
  5
17
102
{ACAD_REACTORS
330
C
102
}
100
AcDbDictionary
280
0
281
1
  3
Standard
350
18
  0
DICTIONARY
  5
19
102
{ACAD_REACTORS
330
C
102
}
100
AcDbDictionary
281
1
  0
DICTIONARY
  5
1A
102
{ACAD_REACTORS
330
C
102
}
100
AcDbDictionary
281
1
  3
Model
350
5AE
  3
Layout1
350
5AF
  0
ACDBPLACEHOLDER
  5
F
102
{ACAD_REACTORS
330
E
102
}
  0
MLINESTYLE
  5
18
102
{ACAD_REACTORS
330
17
102
}
100
AcDbMlineStyle
  2
STANDARD
 70
0
  3

 62
256
 51
90.0
 52
90.0
 71
2
 49
0.5
 62
256
  6
BYLAYER
 49
-0.5
 62
256
  6
BYLAYER
  0
LAYOUT
  5
5AE
102
{ACAD_REACTORS
330
1A
102
}
100
AcDbPlotSettings
  1

  2
none_device
  4
ISO_A4_(297.00_x_210.00_MM)
  6

 40
0.0
 41
0.0
 42
0.0
 43
0.0
 44
297.0
 45
210.0
 46
0.0
 47
0.0
 48
0.0
 49
0.0
140
0.0
141
0.0
142
1.0
143
1.0
 70
1024
 72
1
 73
0
 74
0
  7

 75
0
147
1.0
148
0.0
149
0.0
100
AcDbLayout
  1
Model
 70
0
 71
0
 10
0.0
 20
0.0
 11
297.0
 21
210.0
 12
0.0
 22
0.0
 32
0.0
 14
0.0
 24
0.0
 34
0.0
 15
0.0
 25
0.0
 35
0.0
146
0.0
 13
0.0
 23
0.0
 33
0.0
 16
1.0
 26
0.0
 36
0.0
 17
0.0
 27
1.0
 37
0.0
 76
0
330
210
345
0
346
0
  0
LAYOUT
  5
5AF
102
{ACAD_REACTORS
330
1A
102
}
100
AcDbPlotSettings
  1

  2
none_device
  4
ISO_A4_(297.00_x_210.00_MM)
  6

 40
0.0
 41
0.0
 42
0.0
 43
0.0
 44
297.0
 45
210.0
 46
0.0
 47
0.0
 48
0.0
 49
0.0
140
0.0
141
0.0
142
1.0
143
1.0
 70
0
 72
1
 73
0
 74
0
  7

 75
0
147
1.0
148
0.0
149
0.0
100
AcDbLayout
  1
Layout1
 70
0
 71
1
 10
0.0
 20
0.0
 11
297.0
 21
210.0
 12
0.0
 22
0.0
 32
0.0
 14
0.0
 24
0.0
 34
0.0
 15
0.0
 25
0.0
 35
0.0
146
0.0
 13
0.0
 23
0.0
 33
0.0
 16
1.0
 26
0.0
 36
0.0
 17
0.0
 27
1.0
 37
0.0
 76
0
330
211
345
0
346
0
  0
ENDSEC
  0
EOF
