  0
SECTION
  2
HEADER
  9
$ACADVER
  1
AC1015
  9
$DWGCODEPAGE
  3
ANSI_1252
  9
$EXTMAX
 10
297.0
 20
210.0
 30
0.0
  9
$EXTMIN
 10
0.0
 20
0.0
 30
0.0
  9
$LIMMIN
 10
0.0
 20
0.0
  9
$LIMMAX
 10
297.0
 20
210.0
  9
$VIEWCTR
 10
148.5
 20
105.0
  9
$VIEWSIZE
 40
210.0
  9
$CLAYER
  8
0
  9
$LTSCALE
 40
16.335
  9
$CELTYPE
  6
BYLAYER
  9
$DIMSCALE
 40
1.0
  9
$DIMASZ
 40
3.5
  9
$DIMEXO
 40
1.85625
  9
$DIMDLI
 40
11.286
  9
$DIMEXE
 40
5.346
  9
$DIMCEN
 40
2.673
  9
$DIMLFAC
 40
1.0
  9
$DIMBLK
  1
_FILLED
  9
$DIMTXT
 40
3.5
  9
$DIMTOL
 70
1
  9
$DIMLIM
 70
0
  9
$DIMTFAC
 40
1.0
  9
$DIMTP
 40
0.005
  9
$DIMTM
 40
0.005
  9
$PDMODE
 70
3
  9
$PDSIZE
 40
0.3125
  9
$HANDSEED
  5
819
  9
$TILEMODE
 70
1
  9
$MEASUREMENT
 70
1
  9
$INSUNITS
 70
4
  0
ENDSEC
  0
SECTION
  2
CLASSES
  0
CLASS
  1
ACDBDICTIONARYWDFLT
  2
AcDbDictionaryWithDefault
  3
AutoCAD 2000
 90
0
280
0
281
0
  0
CLASS
  1
ACDBPLACEHOLDER
  2
AcDbPlaceHolder
  3
AutoCAD 2000
 90
0
280
0
281
0
  0
CLASS
  1
LAYOUT
  2
AcDbLayout
  3
AutoCAD 2000
 90
0
280
0
281
0
  0
ENDSEC
  0
SECTION
  2
TABLES
  0
TABLE
  2
VPORT
  5
8
100
AcDbSymbolTable
 70
2
  0
VPORT
  5
1F4
100
AcDbSymbolTableRecord
100
AcDbViewportTableRecord
  2
*ACTIVE
 70
0
 10
0.0
 20
0.0
 11
1.0
 21
1.0
 12
148.5
 22
105.0
 13
0.0
 23
0.0
 14
1.0
 24
1.0
 15
0.0
 25
0.0
 16
0.0
 26
0.0
 36
1.0
 17
0.0
 27
0.0
 37
0.0
 40
210.0
 41
1.4142857143
 42
50.0
 43
0.0
 44
0.0
 50
0.0
 51
0.0
 71
0
 72
100
 73
1
 74
1
 75
0
 76
0
 77
0
 78
0
  0
ENDTAB
  0
TABLE
  2
LTYPE
  5
5
100
AcDbSymbolTable
 70
6
  0
LTYPE
  5
14
100
AcDbSymbolTableRecord
100
AcDbLinetypeTableRecord
  2
BYBLOCK
 70
0
  3

 72
65
 73
0
 40
0.0
  0
LTYPE
  5
15
100
AcDbSymbolTableRecord
100
AcDbLinetypeTableRecord
  2
BYLAYER
 70
0
  3

 72
65
 73
0
 40
0.0
  0
LTYPE
  5
16
100
AcDbSymbolTableRecord
100
AcDbLinetypeTableRecord
  2
CONTINUOUS
 70
64
  3
Solid line
 72
65
 73
0
 40
0.0
  0
LTYPE
  5
1F5
100
AcDbSymbolTableRecord
100
AcDbLinetypeTableRecord
  2
CENTER
 70
64
  3
____ _ ____ _ ____ _ ____ _ ____ _ ____ _ ____
 72
65
 73
4
 40
0.6
 49
0.375
 74
0
 49
-0.075
 74
0
 49
0.075
 74
0
 49
-0.075
 74
0
  0
LTYPE
  5
1F6
100
AcDbSymbolTableRecord
100
AcDbLinetypeTableRecord
  2
HIDDEN
 70
64
  3
- - - - - - - - - - - - - - - - - - - -
 72
65
 73
2
 40
0.2
 49
0.1
 74
0
 49
-0.1
 74
0
  0
LTYPE
  5
1F7
100
AcDbSymbolTableRecord
100
AcDbLinetypeTableRecord
  2
PHANTOM
 70
64
  3
_____ _ _ _____ _ _ _____ _ _ _____
 72
65
 73
6
 40
0.8
 49
0.45
 74
0
 49
-0.05
 74
0
 49
0.1
 74
0
 49
-0.05
 74
0
 49
0.1
 74
0
 49
-0.05
 74
0
  0
LTYPE
  5
1F8
100
AcDbSymbolTableRecord
100
AcDbLinetypeTableRecord
  2
DOT
 70
64
  3
. . . . . . . . . . . . . . . . . . . .
 72
65
 73
2
 40
0.2
 49
0.1
 74
0
 49
-0.1
 74
0
  0
LTYPE
  5
1F9
100
AcDbSymbolTableRecord
100
AcDbLinetypeTableRecord
  2
DASHED
 70
64
  3
- - - - - - - - - - - - - - - - - - - -
 72
65
 73
2
 40
0.2
 49
0.1
 74
0
 49
-0.1
 74
0
  0
ENDTAB
  0
TABLE
  2
LAYER
  5
2
100
AcDbSymbolTable
 70
36
  0
LAYER
  5
10
100
AcDbSymbolTableRecord
100
AcDbLayerTableRecord
  2
0
 70
0
 62
7
  6
CONTINUOUS
370
-3
390
F
  0
LAYER
  5
1FA
100
AcDbSymbolTableRecord
100
AcDbLayerTableRecord
  2
DEFAULT_1
 70
0
 62
7
  6
CENTER
370
-3
390
F
  0
LAYER
  5
1FB
100
AcDbSymbolTableRecord
100
AcDbLayerTableRecord
  2
DEFAULT_2
 70
0
 62
8
  6
HIDDEN
370
-3
390
F
  0
LAYER
  5
1FC
100
AcDbSymbolTableRecord
100
AcDbLayerTableRecord
  2
DEFAULT_3
 70
0
 62
7
  6
PHANTOM
370
-3
390
F
  0
LAYER
  5
1FD
100
AcDbSymbolTableRecord
100
AcDbLayerTableRecord
  2
01___PRT_ALL_DTM_PLN
 70
0
 62
7
  6
CONTINUOUS
370
-3
390
F
  0
LAYER
  5
1FE
100
AcDbSymbolTableRecord
100
AcDbLayerTableRecord
  2
01___PRT_DEF_DTM_PLN
 70
0
 62
7
  6
CONTINUOUS
370
-3
390
F
  0
LAYER
  5
1FF
100
AcDbSymbolTableRecord
100
AcDbLayerTableRecord
  2
02___PRT_ALL_AXES
 70
0
 62
7
  6
CONTINUOUS
370
-3
390
F
  0
LAYER
  5
200
100
AcDbSymbolTableRecord
100
AcDbLayerTableRecord
  2
03___PRT_ALL_CURVES
 70
0
 62
7
  6
CONTINUOUS
370
-3
390
F
  0
LAYER
  5
201
100
AcDbSymbolTableRecord
100
AcDbLayerTableRecord
  2
04___PRT_ALL_DTM_PNT
 70
0
 62
7
  6
CONTINUOUS
370
-3
390
F
  0
LAYER
  5
202
100
AcDbSymbolTableRecord
100
AcDbLayerTableRecord
  2
05___PRT_ALL_DTM_CSYS
 70
0
 62
7
  6
CONTINUOUS
370
-3
390
F
  0
LAYER
  5
203
100
AcDbSymbolTableRecord
100
AcDbLayerTableRecord
  2
05___PRT_DEF_DTM_CSYS
 70
0
 62
7
  6
CONTINUOUS
370
-3
390
F
  0
LAYER
  5
204
100
AcDbSymbolTableRecord
100
AcDbLayerTableRecord
  2
06___PRT_ALL_SURFS
 70
0
 62
7
  6
CONTINUOUS
370
-3
390
F
  0
LAYER
  5
205
100
AcDbSymbolTableRecord
100
AcDbLayerTableRecord
  2
AUSFORMSCHRAEGEN
 70
0
 62
7
  6
CONTINUOUS
370
-3
390
F
  0
LAYER
  5
206
100
AcDbSymbolTableRecord
100
AcDbLayerTableRecord
  2
BEZUGSACHSEN
 70
0
 62
7
  6
CONTINUOUS
370
-3
390
F
  0
LAYER
  5
207
100
AcDbSymbolTableRecord
100
AcDbLayerTableRecord
  2
BEZUGSEBENEN
 70
0
 62
7
  6
CONTINUOUS
370
-3
390
F
  0
LAYER
  5
208
100
AcDbSymbolTableRecord
100
AcDbLayerTableRecord
  2
BOHRUNGEN
 70
0
 62
7
  6
CONTINUOUS
370
-3
390
F
  0
LAYER
  5
209
100
AcDbSymbolTableRecord
100
AcDbLayerTableRecord
  2
FASEN
 70
0
 62
7
  6
CONTINUOUS
370
-3
390
F
  0
LAYER
  5
20A
100
AcDbSymbolTableRecord
100
AcDbLayerTableRecord
  2
GEWINDE
 70
0
 62
7
  6
CONTINUOUS
370
-3
390
F
  0
LAYER
  5
20B
100
AcDbSymbolTableRecord
100
AcDbLayerTableRecord
  2
KURVEN
 70
0
 62
7
  6
CONTINUOUS
370
-3
390
F
  0
LAYER
  5
20C
100
AcDbSymbolTableRecord
100
AcDbLayerTableRecord
  2
RUNDUNGEN
 70
0
 62
7
  6
CONTINUOUS
370
-3
390
F
  0
LAYER
  5
20D
100
AcDbSymbolTableRecord
100
AcDbLayerTableRecord
  2
ZEICHNUNGSBEMASSUNGEN
 70
0
 62
7
  6
CONTINUOUS
370
-3
390
F
  0
ENDTAB
  0
TABLE
  2
STYLE
  5
3
100
AcDbSymbolTable
 70
1
  0
STYLE
  5
11
100
AcDbSymbolTableRecord
100
AcDbTextStyleTableRecord
  2
STANDARD
 70
0
 40
0.0
 41
0.7
 50
0.0
 71
0
 42
0.2
  3
txt
  4

  0
STYLE
  5
20E
100
AcDbSymbolTableRecord
100
AcDbTextStyleTableRecord
  2
TEXTSTYLE_1
 70
0
 40
0.0
 41
0.8
 50
0.0
 71
0
 42
0.2
  3
gdt
  4

  0
ENDTAB
  0
TABLE
  2
VIEW
  5
6
100
AcDbSymbolTable
 70
0
  0
ENDTAB
  0
TABLE
  2
UCS
  5
7
100
AcDbSymbolTable
 70
0
  0
ENDTAB
  0
TABLE
  2
APPID
  5
9
100
AcDbSymbolTable
 70
1
  0
APPID
  5
20F
100
AcDbSymbolTableRecord
100
AcDbRegAppTableRecord
  2
ACAD
 70
0
  0
ENDTAB
  0
TABLE
  2
BLOCK_RECORD
  5
1
100
AcDbSymbolTable
 70
0
  0
BLOCK_RECORD
  5
210
100
AcDbSymbolTableRecord
100
AcDbBlockTableRecord
  2
*Model_Space
  0
BLOCK_RECORD
  5
211
100
AcDbSymbolTableRecord
100
AcDbBlockTableRecord
  2
*Paper_Space
  0
ENDTAB
  0
TABLE
  2
DIMSTYLE
  5
A
100
AcDbSymbolTable
 70
1
100
AcDbDimStyleTable
 71
0
  0
DIMSTYLE
105
212
100
AcDbSymbolTableRecord
100
AcDbDimStyleTableRecord
  2
STANDARD
 70
0
  3

  4

 40
1.0
 41
3.5
 42
0.0625
 43
0.38
 44
0.18
 45
0.0
 46
0.0
 47
0.005
 48
0.005
140
3.5
141
0.09
142
0.0
143
25.4
144
1.0
145
0.0
146
1.0
147
0.09
 71
1.0
 72
0.0
 73
0
 74
0
 75
0
 76
0
 77
1
 78
8
170
0
171
2
172
0
173
0
174
0
175
0
176
0
177
0
178
5
270
2
271
3
272
3
273
2
274
2
275
0
280
0
281
0
282
0
283
1
284
8
285
0
286
0
287
3
288
0
340
11
  0
ENDTAB
  0
ENDSEC
  0
SECTION
  2
BLOCKS
  0
BLOCK
  5
20
100
AcDbEntity
  8
0
100
AcDbBlockBegin
  2
*Model_Space
 70
0
 10
0.0
 20
0.0
 30
0.0
  3
*Model_Space
  1

  0
ENDBLK
  5
21
100
AcDbEntity
  8
0
100
AcDbBlockEnd
  0
BLOCK
  5
1C
100
AcDbEntity
  8
0
100
AcDbBlockBegin
  2
*Paper_Space
 70
0
 10
0.0
 20
0.0
 30
0.0
  3
*Paper_Space
  1

  0
ENDBLK
  5
1D
100
AcDbEntity
  8
0
100
AcDbBlockEnd
  0
ENDSEC
  0
SECTION
  2
ENTITIES
  0
LINE
  5
213
100
AcDbEntity
  8
0
100
AcDbLine
 62
7
  6
CONTINUOUS
 10
0.0
 20
0.0
 11
0.0
 21
210.0
  0
LINE
  5
214
100
AcDbEntity
  8
0
100
AcDbLine
 62
7
  6
CONTINUOUS
 10
0.0
 20
0.0
 11
297.0
 21
0.0
  0
LINE
  5
215
100
AcDbEntity
  8
0
100
AcDbLine
 62
7
  6
CONTINUOUS
 10
0.0
 20
210.0
 11
297.0
 21
210.0
  0
LINE
  5
216
100
AcDbEntity
  8
0
100
AcDbLine
 62
7
  6
CONTINUOUS
 10
297.0
 20
0.0
 11
297.0
 21
210.0
  0
LINE
  5
217
100
AcDbEntity
  8
RUNDUNGEN
100
AcDbLine
 62
7
  6
CONTINUOUS
 10
18.7065046302
 20
114.3219356085
 11
18.7065046302
 21
111.2266910206
  0
LINE
  5
218
100
AcDbEntity
  8
RUNDUNGEN
100
AcDbLine
 62
7
  6
CONTINUOUS
 10
18.7065046302
 20
99.7499711286
 11
18.7065046302
 21
96.6547315426
  0
LINE
  5
219
100
AcDbEntity
  8
RUNDUNGEN
100
AcDbLine
 62
7
  6
CONTINUOUS
 10
22.5829617655
 20
132.841106703
 11
21.0300474949
 21
127.0455517453
  0
LINE
  5
21A
100
AcDbEntity
  8
RUNDUNGEN
100
AcDbLine
 62
7
  6
CONTINUOUS
 10
35.7661275203
 20
160.3221053244
 11
34.2185049262
 21
157.6415443604
  0
LINE
  5
21B
100
AcDbEntity
  8
RUNDUNGEN
100
AcDbLine
 62
7
  6
CONTINUOUS
 10
28.4801449802
 20
147.7024133818
 11
26.9325251639
 21
145.0218572291
  0
LINE
  5
21C
100
AcDbEntity
  8
RUNDUNGEN
100
AcDbLine
 62
7
  6
CONTINUOUS
 10
48.3828231233
 20
174.4219488617
 11
44.1401824362
 21
170.1793081745
  0
LINE
  5
21D
100
AcDbEntity
  8
RUNDUNGEN
100
AcDbLine
 62
7
  6
CONTINUOUS
 10
73.5402839001
 20
191.6296118101
 11
70.859717916
 21
190.0819863176
  0
LINE
  5
21E
100
AcDbEntity
  8
RUNDUNGEN
100
AcDbLine
 62
7
  6
CONTINUOUS
 10
60.9205869374
 20
184.3436263716
 11
58.2400307847
 21
182.7960065553
  0
LINE
  5
21F
100
AcDbEntity
  8
RUNDUNGEN
100
AcDbLine
 62
7
  6
CONTINUOUS
 10
134.6310208939
 20
13.4445783463
 11
140.4265758516
 21
14.9974926169
  0
LINE
  5
220
100
AcDbEntity
  8
RUNDUNGEN
100
AcDbLine
 62
7
  6
CONTINUOUS
 10
104.2401951096
 20
11.1210354816
 11
107.3354402772
 21
11.1210354816
  0
LINE
  5
221
100
AcDbEntity
  8
RUNDUNGEN
100
AcDbLine
 62
7
  6
CONTINUOUS
 10
118.8121601692
 20
11.1210354816
 11
121.9074008271
 21
11.1210354816
  0
LINE
  5
222
100
AcDbEntity
  8
RUNDUNGEN
100
AcDbLine
 62
7
  6
CONTINUOUS
 10
85.7210245948
 20
14.9974926169
 11
91.5165795526
 21
13.4445783463
  0
LINE
  5
223
100
AcDbEntity
  8
RUNDUNGEN
100
AcDbLine
 62
7
  6
CONTINUOUS
 10
58.2400260022
 20
28.1806583552
 11
60.9205869374
 21
26.6330357776
  0
LINE
  5
224
100
AcDbEntity
  8
RUNDUNGEN
100
AcDbLine
 62
7
  6
CONTINUOUS
 10
70.859717916
 20
20.8946758316
 11
73.5402746905
 21
19.3470556563
  0
LINE
  5
225
100
AcDbEntity
  8
RUNDUNGEN
100
AcDbLine
 62
7
  6
CONTINUOUS
 10
44.1401824362
 20
40.7973539747
 11
48.3828231233
 21
36.5547132876
  0
LINE
  5
226
100
AcDbEntity
  8
RUNDUNGEN
100
AcDbLine
 62
7
  6
CONTINUOUS
 10
26.9325224027
 20
65.9548097026
 11
28.4801449802
 21
63.2742487674
  0
LINE
  5
227
100
AcDbEntity
  8
RUNDUNGEN
100
AcDbLine
 62
7
  6
CONTINUOUS
 10
34.2185049262
 20
53.3351177888
 11
35.7661247192
 21
50.6545616766
  0
LINE
  5
228
100
AcDbEntity
  8
RUNDUNGEN
100
AcDbLine
 62
7
  6
CONTINUOUS
 10
21.0300474949
 20
83.931110404
 11
22.5829617655
 21
78.1355554462
  0
LINE
  5
229
100
AcDbEntity
  8
RUNDUNGEN
100
AcDbLine
 62
7
  6
CONTINUOUS
 10
28.2824045239
 20
72.7805833229
 11
28.2521762632
 21
73.1710544689
  0
LINE
  5
22A
100
AcDbEntity
  8
RUNDUNGEN
100
AcDbLine
 62
7
  6
CONTINUOUS
 10
23.5544135829
 20
90.6857085564
 11
23.5755034918
 21
90.2947476155
  0
LINE
  5
22B
100
AcDbEntity
  8
RUNDUNGEN
100
AcDbLine
 62
7
  6
CONTINUOUS
 10
23.5544139757
 20
120.290953902
 11
23.5755051593
 21
120.6819161441
  0
LINE
  5
22C
100
AcDbEntity
  8
RUNDUNGEN
100
AcDbLine
 62
7
  6
CONTINUOUS
 10
28.2824075261
 20
138.1960800636
 11
28.2521777117
 21
137.8056092553
  0
LINE
  5
22D
100
AcDbEntity
  8
RUNDUNGEN
100
AcDbLine
 62
7
  6
CONTINUOUS
 10
23.5755034918
 20
90.2947476155
 11
23.5199417869
 21
89.9072214522
  0
LWPOLYLINE
  5
22E
100
AcDbEntity
  8
RUNDUNGEN
100
AcDbPolyline
 62
7
  6
CONTINUOUS
 90
3
 70
0
 10
27.2065046302
 20
107.7383310746
 10
27.2093824296
 20
107.7579039746
 10
27.334748931
 20
108.5445091506
  0
LINE
  5
22F
100
AcDbEntity
  8
RUNDUNGEN
100
AcDbLine
 62
7
  6
CONTINUOUS
 10
27.334748931
 20
108.5445091506
 11
27.3648890705
 21
108.7383310746
  0
LINE
  5
230
100
AcDbEntity
  8
RUNDUNGEN
100
AcDbLine
 62
7
  6
CONTINUOUS
 10
23.4574807807
 20
119.911560532
 11
23.5544139757
 21
120.290953902
  0
LINE
  5
231
100
AcDbEntity
  8
RUNDUNGEN
100
AcDbLine
 62
7
  6
CONTINUOUS
 10
28.2521777117
 20
137.8056092553
 11
28.1464260024
 21
137.4285772514
  0
LWPOLYLINE
  5
232
100
AcDbEntity
  8
RUNDUNGEN
100
AcDbPolyline
 62
7
  6
CONTINUOUS
 90
3
 70
0
 10
37.5855408854
 20
146.4734217126
 10
37.5786565381
 20
146.4548748556
 10
37.2924851834
 20
145.7115240513
  0
LINE
  5
233
100
AcDbEntity
  8
RUNDUNGEN
100
AcDbLine
 62
7
  6
CONTINUOUS
 10
37.2924851834
 20
145.7115240513
 11
37.2227058343
 21
145.5282040887
  0
LINE
  5
234
100
AcDbEntity
  8
RUNDUNGEN
100
AcDbLine
 62
7
  6
CONTINUOUS
 10
43.1627956384
 20
163.3955092514
 11
43.3084412075
 21
163.758897173
  0
LINE
  5
235
100
AcDbEntity
  8
RUNDUNGEN
100
AcDbLine
 62
7
  6
CONTINUOUS
 10
23.2884236502
 20
119.5582884695
 11
23.4574807807
 21
119.911560532
  0
LINE
  5
236
100
AcDbEntity
  8
RUNDUNGEN
100
AcDbLine
 62
7
  6
CONTINUOUS
 10
28.1464260024
 20
137.4285772514
 11
27.9692099288
 21
137.0794501902
  0
LINE
  5
237
100
AcDbEntity
  8
RUNDUNGEN
100
AcDbLine
 62
7
  6
CONTINUOUS
 10
42.9490490145
 20
163.0674716082
 11
43.1627956384
 21
163.3955092514
  0
LINE
  5
238
100
AcDbEntity
  8
RUNDUNGEN
100
AcDbLine
 62
7
  6
CONTINUOUS
 10
55.9961746197
 20
176.2097689482
 11
55.7747594284
 21
175.8867262161
  0
LINE
  5
239
100
AcDbEntity
  8
RUNDUNGEN
100
AcDbLine
 62
7
  6
CONTINUOUS
 10
27.9692099288
 20
137.0794501902
 11
27.7273289993
 21
136.7716235406
  0
LWPOLYLINE
  5
23A
100
AcDbEntity
  8
RUNDUNGEN
100
AcDbPolyline
 62
7
  6
CONTINUOUS
 90
3
 70
0
 10
39.8355408854
 20
150.3705360296
 10
39.8478195828
 20
150.3860477585
 10
40.3496927458
 20
151.004584573
  0
LINE
  5
23B
100
AcDbEntity
  8
RUNDUNGEN
100
AcDbLine
 62
7
  6
CONTINUOUS
 10
40.3496927458
 20
151.004584573
 11
40.4727058343
 21
151.1573692133
  0
LINE
  5
23C
100
AcDbEntity
  8
RUNDUNGEN
100
AcDbLine
 62
7
  6
CONTINUOUS
 10
42.6754057215
 20
162.7873739114
 11
42.9490490145
 21
163.0674716082
  0
LINE
  5
23D
100
AcDbEntity
  8
RUNDUNGEN
100
AcDbLine
 62
7
  6
CONTINUOUS
 10
55.7747594284
 20
175.8867262161
 11
55.4946597597
 21
175.6130827772
  0
LWPOLYLINE
  5
23E
100
AcDbEntity
  8
RUNDUNGEN
100
AcDbPolyline
 62
7
  6
CONTINUOUS
 90
3
 70
0
 10
68.1915952682
 20
178.7265904124
 10
68.17635982
 20
178.7139705368
 10
67.5568527549
 20
178.2132955336
  0
LINE
  5
23F
100
AcDbEntity
  8
RUNDUNGEN
100
AcDbLine
 62
7
  6
CONTINUOUS
 10
67.5568527549
 20
178.2132955336
 11
67.4047620846
 21
178.0894254635
  0
LINE
  5
240
100
AcDbEntity
  8
RUNDUNGEN
100
AcDbLine
 62
7
  6
CONTINUOUS
 10
81.4826832144
 20
190.5929207838
 11
81.790509944
 21
190.8348011818
  0
LINE
  5
241
100
AcDbEntity
  8
RUNDUNGEN
100
AcDbLine
 62
7
  6
CONTINUOUS
 10
42.35236192
 20
162.5659598967
 11
42.6754057215
 21
162.7873739114
  0
LINE
  5
242
100
AcDbEntity
  8
RUNDUNGEN
100
AcDbLine
 62
7
  6
CONTINUOUS
 10
55.4946597597
 20
175.6130827772
 11
55.1666226074
 21
175.3993379099
  0
LINE
  5
243
100
AcDbEntity
  8
RUNDUNGEN
100
AcDbLine
 62
7
  6
CONTINUOUS
 10
81.1335547433
 20
190.4157052297
 11
81.4826832144
 21
190.5929207838
  0
LINE
  5
244
100
AcDbEntity
  8
RUNDUNGEN
100
AcDbLine
 62
7
  6
CONTINUOUS
 10
99.0038453991
 20
195.2737056675
 11
98.6505728526
 21
195.1046500504
  0
LINE
  5
245
100
AcDbEntity
  8
RUNDUNGEN
100
AcDbLine
 62
7
  6
CONTINUOUS
 10
55.1666226074
 20
175.3993379099
 11
54.8032342529
 21
175.2536926761
  0
LWPOLYLINE
  5
246
100
AcDbEntity
  8
RUNDUNGEN
100
AcDbPolyline
 62
7
  6
CONTINUOUS
 90
3
 70
0
 10
72.0887095852
 20
180.9765904124
 10
72.1070991135
 20
180.983884615
 10
72.8510024294
 20
181.268616628
  0
LINE
  5
247
100
AcDbEntity
  8
RUNDUNGEN
100
AcDbLine
 62
7
  6
CONTINUOUS
 10
72.8510024294
 20
181.268616628
 11
73.0339272092
 21
181.3394254635
  0
LINE
  5
248
100
AcDbEntity
  8
0
100
AcDbLine
 62
7
  6
CONTINUOUS
 10
87.5110259595
 20
185.5303559945
 11
86.3691080524
 21
185.1615423651
  0
LINE
  5
249
100
AcDbEntity
  8
0
100
AcDbLine
 62
7
  6
CONTINUOUS
 10
86.7526762487
 20
184.9500442376
 11
87.6566945465
 21
185.2420216796
  0
LINE
  5
24A
100
AcDbEntity
  8
0
100
AcDbLine
 62
7
  6
CONTINUOUS
 10
87.9509607601
 20
184.3309169049
 11
87.0469424623
 21
184.0389394629
  0
LINE
  5
24B
100
AcDbEntity
  8
0
100
AcDbLine
 62
7
  6
CONTINUOUS
 10
87.1646489257
 20
183.6744976211
 11
88.0210873561
 21
183.9511078431
  0
LINE
  5
24C
100
AcDbEntity
  8
0
100
AcDbLine
 62
7
  6
CONTINUOUS
 10
89.0896367705
 20
185.0177237581
 11
88.8501112681
 21
184.9461172916
  0
LINE
  5
24D
100
AcDbEntity
  8
RUNDUNGEN
100
AcDbLine
 62
7
  6
CONTINUOUS
 10
145.391076829
 20
20.6667071146
 11
145.0140459372
 21
20.5609570402
  0
LINE
  5
24E
100
AcDbEntity
  8
RUNDUNGEN
100
AcDbLine
 62
7
  6
CONTINUOUS
 10
127.4970275933
 20
15.8720120991
 11
127.8764227414
 21
15.9689444343
  0
LWPOLYLINE
  5
24F
100
AcDbEntity
  8
RUNDUNGEN
100
AcDbPolyline
 62
7
  6
CONTINUOUS
 90
3
 70
0
 10
115.3238002232
 20
19.6210354816
 10
115.3433044462
 20
19.6243468905
 10
116.130150804
 20
19.7481906296
  0
LINE
  5
250
100
AcDbEntity
  8
RUNDUNGEN
100
AcDbLine
 62
7
  6
CONTINUOUS
 10
116.130150804
 20
19.7481906296
 11
116.3238002232
 21
19.7794199219
  0
LINE
  5
251
100
AcDbEntity
  8
RUNDUNGEN
100
AcDbLine
 62
7
  6
CONTINUOUS
 10
97.880215153
 20
15.9900360117
 11
97.492689197
 21
15.9344748137
  0
LINE
  5
252
100
AcDbEntity
  8
RUNDUNGEN
100
AcDbLine
 62
7
  6
CONTINUOUS
 10
145.7815479749
 20
20.6969353753
 11
145.391076829
 21
20.6667071146
  0
LINE
  5
253
100
AcDbEntity
  8
RUNDUNGEN
100
AcDbLine
 62
7
  6
CONTINUOUS
 10
127.8764227414
 20
15.9689444343
 11
128.2673836823
 21
15.9900343432
  0
LINE
  5
254
100
AcDbEntity
  8
RUNDUNGEN
100
AcDbLine
 62
7
  6
CONTINUOUS
 10
98.2711773974
 20
15.9689448271
 11
97.880215153
 21
15.9900360117
  0
LINE
  5
255
100
AcDbEntity
  8
RUNDUNGEN
100
AcDbLine
 62
7
  6
CONTINUOUS
 10
80.3660512343
 20
20.6969383775
 11
80.7565220425
 21
20.6667085631
  0
LINE
  5
256
100
AcDbEntity
  8
RUNDUNGEN
100
AcDbLine
 62
7
  6
CONTINUOUS
 10
128.2673836823
 20
15.9900343432
 11
128.6549098457
 21
15.9344726383
  0
LWPOLYLINE
  5
257
100
AcDbEntity
  8
RUNDUNGEN
100
AcDbPolyline
 62
7
  6
CONTINUOUS
 90
3
 70
0
 10
110.8238002232
 20
19.6210354816
 10
110.8042273233
 20
19.623913281
 10
110.0176221473
 20
19.7492797824
  0
LINE
  5
258
100
AcDbEntity
  8
RUNDUNGEN
100
AcDbLine
 62
7
  6
CONTINUOUS
 10
110.0176221473
 20
19.7492797824
 11
109.8238002232
 21
19.7794199219
  0
LINE
  5
259
100
AcDbEntity
  8
RUNDUNGEN
100
AcDbLine
 62
7
  6
CONTINUOUS
 10
98.6505707649
 20
15.8720116321
 11
98.2711773974
 21
15.9689448271
  0
LINE
  5
25A
100
AcDbEntity
  8
RUNDUNGEN
100
AcDbLine
 62
7
  6
CONTINUOUS
 10
80.7565220425
 20
20.6667085631
 11
81.1335540465
 21
20.5609568538
  0
LWPOLYLINE
  5
25B
100
AcDbEntity
  8
RUNDUNGEN
100
AcDbPolyline
 62
7
  6
CONTINUOUS
 90
3
 70
0
 10
72.0887095852
 20
30.0000717368
 10
72.1072564422
 20
29.9931873895
 10
72.8506072466
 20
29.7070160348
  0
LINE
  5
25C
100
AcDbEntity
  8
RUNDUNGEN
100
AcDbLine
 62
7
  6
CONTINUOUS
 10
72.8506072466
 20
29.7070160348
 11
73.0339272092
 21
29.6372366857
  0
LINE
  5
25D
100
AcDbEntity
  8
RUNDUNGEN
100
AcDbLine
 62
7
  6
CONTINUOUS
 10
55.1666220464
 20
35.5773264898
 11
54.8032341248
 21
35.7229720589
  0
LINE
  5
25E
100
AcDbEntity
  8
RUNDUNGEN
100
AcDbLine
 62
7
  6
CONTINUOUS
 10
99.0038428271
 20
15.7029545008
 11
98.6505707649
 21
15.8720116321
  0
LINE
  5
25F
100
AcDbEntity
  8
RUNDUNGEN
100
AcDbLine
 62
7
  6
CONTINUOUS
 10
81.1335540465
 20
20.5609568538
 11
81.4826811076
 21
20.3837407802
  0
LINE
  5
260
100
AcDbEntity
  8
RUNDUNGEN
100
AcDbLine
 62
7
  6
CONTINUOUS
 10
55.4946596897
 20
35.3635798659
 11
55.1666220464
 21
35.5773264898
  0
LINE
  5
261
100
AcDbEntity
  8
RUNDUNGEN
100
AcDbLine
 62
7
  6
CONTINUOUS
 10
42.3523623496
 20
48.4107054711
 11
42.6754050818
 21
48.1892902798
  0
LINE
  5
262
100
AcDbEntity
  8
RUNDUNGEN
100
AcDbLine
 62
7
  6
CONTINUOUS
 10
81.4826811076
 20
20.3837407802
 11
81.7905077573
 21
20.1418598507
  0
LWPOLYLINE
  5
263
100
AcDbEntity
  8
RUNDUNGEN
100
AcDbPolyline
 62
7
  6
CONTINUOUS
 90
3
 70
0
 10
68.1915952682
 20
32.2500717368
 10
68.1760835393
 20
32.2623504342
 10
67.5575467248
 20
32.7642235972
  0
LINE
  5
264
100
AcDbEntity
  8
RUNDUNGEN
100
AcDbLine
 62
7
  6
CONTINUOUS
 10
67.5575467248
 20
32.7642235972
 11
67.4047620846
 21
32.8872366857
  0
LINE
  5
265
100
AcDbEntity
  8
RUNDUNGEN
100
AcDbLine
 62
7
  6
CONTINUOUS
 10
55.7747573865
 20
35.0899365729
 11
55.4946596897
 21
35.3635798659
  0
LINE
  5
266
100
AcDbEntity
  8
RUNDUNGEN
100
AcDbLine
 62
7
  6
CONTINUOUS
 10
42.6754050818
 20
48.1892902798
 11
42.9490485206
 21
47.9091906111
  0
LWPOLYLINE
  5
267
100
AcDbEntity
  8
RUNDUNGEN
100
AcDbPolyline
 62
7
  6
CONTINUOUS
 90
3
 70
0
 10
39.8355408854
 20
60.6061261196
 10
39.8481607611
 20
60.5908906715
 10
40.3488357642
 20
59.9713836063
  0
LINE
  5
268
100
AcDbEntity
  8
RUNDUNGEN
100
AcDbLine
 62
7
  6
CONTINUOUS
 10
40.3488357642
 20
59.9713836063
 11
40.4727058343
 21
59.819292936
  0
LINE
  5
269
100
AcDbEntity
  8
RUNDUNGEN
100
AcDbLine
 62
7
  6
CONTINUOUS
 10
27.9692105682
 20
73.8972141885
 11
27.7273301813
 21
74.2050409121
  0
LINE
  5
26A
100
AcDbEntity
  8
RUNDUNGEN
100
AcDbLine
 62
7
  6
CONTINUOUS
 10
55.9961714012
 20
34.7668927714
 11
55.7747573865
 21
35.0899365729
  0
LINE
  5
26B
100
AcDbEntity
  8
RUNDUNGEN
100
AcDbLine
 62
7
  6
CONTINUOUS
 10
42.9490485206
 20
47.9091906111
 11
43.1627933879
 21
47.5811534588
  0
LINE
  5
26C
100
AcDbEntity
  8
RUNDUNGEN
100
AcDbLine
 62
7
  6
CONTINUOUS
 10
28.1464261888
 20
73.5480853606
 11
27.9692105682
 21
73.8972141885
  0
LINE
  5
26D
100
AcDbEntity
  8
RUNDUNGEN
100
AcDbLine
 62
7
  6
CONTINUOUS
 10
23.2884256307
 20
91.4183762511
 11
23.4574812477
 21
91.0651037045
  0
LINE
  5
26E
100
AcDbEntity
  8
RUNDUNGEN
100
AcDbLine
 62
7
  6
CONTINUOUS
 10
43.1627933879
 20
47.5811534588
 11
43.3084386217
 21
47.2177651043
  0
LWPOLYLINE
  5
26F
100
AcDbEntity
  8
RUNDUNGEN
100
AcDbPolyline
 62
7
  6
CONTINUOUS
 90
3
 70
0
 10
37.5855408854
 20
64.5032404366
 10
37.5782466828
 20
64.5216299649
 10
37.2935146698
 20
65.2655332808
  0
LINE
  5
270
100
AcDbEntity
  8
RUNDUNGEN
100
AcDbLine
 62
7
  6
CONTINUOUS
 10
37.2935146698
 20
65.2655332808
 11
37.2227058343
 21
65.4484580606
  0
LINE
  5
271
100
AcDbEntity
  8
RUNDUNGEN
100
AcDbLine
 62
7
  6
CONTINUOUS
 10
28.2521762632
 20
73.1710544689
 11
28.1464261888
 21
73.5480853606
  0
LINE
  5
272
100
AcDbEntity
  8
RUNDUNGEN
100
AcDbLine
 62
7
  6
CONTINUOUS
 10
23.4574812477
 20
91.0651037045
 11
23.5544135829
 21
90.6857085564
  0
LWPOLYLINE
  5
273
100
AcDbEntity
  8
RUNDUNGEN
100
AcDbPolyline
 62
7
  6
CONTINUOUS
 90
3
 70
0
 10
27.2065046302
 20
103.2383310746
 10
27.2098160391
 20
103.2188268517
 10
27.3336597782
 20
102.4319804938
  0
LINE
  5
274
100
AcDbEntity
  8
RUNDUNGEN
100
AcDbLine
 62
7
  6
CONTINUOUS
 10
27.3336597782
 20
102.4319804938
 11
27.3648890705
 21
102.2383310746
  0
LINE
  5
275
100
AcDbEntity
  8
RUNDUNGEN
100
AcDbLine
 62
7
  6
CONTINUOUS
 10
23.5755051593
 20
120.6819161441
 11
23.5199439612
 21
121.0694421002
  0
LINE
  5
276
100
AcDbEntity
  8
RUNDUNGEN
100
AcDbLine
 62
7
  6
CONTINUOUS
 10
43.3803964326
 20
46.8329655771
 11
43.8510449931
 21
41.4178729644
  0
LINE
  5
277
100
AcDbEntity
  8
RUNDUNGEN
100
AcDbLine
 62
7
  6
CONTINUOUS
 10
43.8510449931
 20
169.5587891848
 11
43.3803964213
 21
164.1436964416
  0
LINE
  5
278
100
AcDbEntity
  8
RUNDUNGEN
100
AcDbLine
 62
7
  6
CONTINUOUS
 10
28.2359507314
 20
72.3916553026
 11
28.2824045239
 21
72.7805833229
  0
LINE
  5
279
100
AcDbEntity
  8
RUNDUNGEN
100
AcDbLine
 62
7
  6
CONTINUOUS
 10
43.3084412075
 20
163.758897173
 11
43.38039856
 21
164.1436937298
  0
LINE
  5
27A
100
AcDbEntity
  8
RUNDUNGEN
100
AcDbLine
 62
7
  6
CONTINUOUS
 10
27.2281677614
 20
67.8222175166
 11
28.2332336267
 21
72.3941286122
  0
LINE
  5
27B
100
AcDbEntity
  8
RUNDUNGEN
100
AcDbLine
 62
7
  6
CONTINUOUS
 10
27.2280865438
 20
67.8218439407
 11
27.2280781918
 21
67.8218100734
  0
LINE
  5
27C
100
AcDbEntity
  8
RUNDUNGEN
100
AcDbLine
 62
7
  6
CONTINUOUS
 10
57.5625167383
 20
181.0314531471
 11
57.5625268069
 21
181.0314890682
  0
LINE
  5
27D
100
AcDbEntity
  8
RUNDUNGEN
100
AcDbLine
 62
7
  6
CONTINUOUS
 10
56.1468155087
 20
176.5690344181
 11
57.5623750228
 21
181.031010633
  0
LINE
  5
27E
100
AcDbEntity
  8
RUNDUNGEN
100
AcDbLine
 62
7
  6
CONTINUOUS
 10
23.5199417869
 20
89.9072214522
 11
23.3898602855
 21
89.5379988497
  0
LINE
  5
27F
100
AcDbEntity
  8
RUNDUNGEN
100
AcDbLine
 62
7
  6
CONTINUOUS
 10
56.150409973
 20
176.5698163206
 11
55.9961746197
 21
176.2097689482
  0
LINE
  5
280
100
AcDbEntity
  8
RUNDUNGEN
100
AcDbLine
 62
7
  6
CONTINUOUS
 10
23.3898593156
 20
89.5379963808
 11
21.0899066189
 21
84.6130643341
  0
LINE
  5
281
100
AcDbEntity
  8
RUNDUNGEN
100
AcDbLine
 62
7
  6
CONTINUOUS
 10
85.1603647291
 20
195.5863530452
 11
82.0452232959
 21
191.1320673895
  0
LINE
  5
282
100
AcDbEntity
  8
RUNDUNGEN
100
AcDbLine
 62
7
  6
CONTINUOUS
 10
23.0537294765
 20
119.2446938196
 11
23.2884236502
 21
119.5582884695
  0
LINE
  5
283
100
AcDbEntity
  8
RUNDUNGEN
100
AcDbLine
 62
7
  6
CONTINUOUS
 10
81.790509944
 20
190.8348011818
 11
82.0452251469
 21
191.132066095
  0
LINE
  5
284
100
AcDbEntity
  8
RUNDUNGEN
100
AcDbLine
 62
7
  6
CONTINUOUS
 10
19.8962449284
 20
115.7913361024
 11
23.052613051
 21
119.2481943259
  0
LINE
  5
285
100
AcDbEntity
  8
RUNDUNGEN
100
AcDbLine
 62
7
  6
CONTINUOUS
 10
19.8960024473
 20
115.7910693683
 11
19.8959795546
 21
115.7910454639
  0
LINE
  5
286
100
AcDbEntity
  8
RUNDUNGEN
100
AcDbLine
 62
7
  6
CONTINUOUS
 10
102.7709035624
 20
198.6659853166
 11
99.3139366669
 21
195.5095179683
  0
LINE
  5
287
100
AcDbEntity
  8
0
100
AcDbLine
 62
7
  6
CONTINUOUS
 10
88.0740827546
 20
184.4377589155
 11
87.9509607601
 21
184.3309169049
  0
LINE
  5
288
100
AcDbEntity
  8
RUNDUNGEN
100
AcDbLine
 62
7
  6
CONTINUOUS
 10
27.7273289993
 20
136.7716235406
 11
27.4300638133
 21
136.5169081379
  0
LINE
  5
289
100
AcDbEntity
  8
0
100
AcDbLine
 62
7
  6
CONTINUOUS
 10
89.49116041
 20
185.0711387394
 11
89.3657275607
 21
184.9670193797
  0
LINE
  5
28A
100
AcDbEntity
  8
RUNDUNGEN
100
AcDbLine
 62
7
  6
CONTINUOUS
 10
99.3174408195
 20
195.508398162
 11
99.0038453991
 21
195.2737056675
  0
LINE
  5
28B
100
AcDbEntity
  8
RUNDUNGEN
100
AcDbLine
 62
7
  6
CONTINUOUS
 10
27.4300617389
 20
136.5169064847
 11
22.9757782526
 21
133.4017665687
  0
LINE
  5
28C
100
AcDbEntity
  8
0
100
AcDbLine
 62
7
  6
CONTINUOUS
 10
90.7140524292
 20
185.4896190371
 11
90.5383387999
 21
185.3747326369
  0
LINE
  5
28D
100
AcDbEntity
  8
0
100
AcDbLine
 62
7
  6
CONTINUOUS
 10
90.702845998
 20
185.1553580373
 11
90.8785599031
 21
185.2702445138
  0
LINE
  5
28E
100
AcDbEntity
  8
0
100
AcDbLine
 62
7
  6
CONTINUOUS
 10
91.6558229368
 20
183.9621405961
 11
91.4801090377
 21
183.847254098
  0
LINE
  5
28F
100
AcDbEntity
  8
0
100
AcDbLine
 62
7
  6
CONTINUOUS
 10
91.6446165175
 20
183.6278795532
 11
91.8203301454
 21
183.7427659588
  0
LINE
  5
290
100
AcDbEntity
  8
0
100
AcDbLine
 62
7
  6
CONTINUOUS
 10
88.0210873561
 20
183.9511078431
 11
88.2393692216
 21
184.0886843376
  0
LINE
  5
291
100
AcDbEntity
  8
0
100
AcDbLine
 62
7
  6
CONTINUOUS
 10
89.7124034055
 20
185.2039006694
 11
89.49116041
 21
185.0711387394
  0
LINE
  5
292
100
AcDbEntity
  8
0
100
AcDbLine
 62
7
  6
CONTINUOUS
 10
94.0849629188
 20
186.3558057163
 11
93.9048501363
 21
186.2479467803
  0
LINE
  5
293
100
AcDbEntity
  8
0
100
AcDbLine
 62
7
  6
CONTINUOUS
 10
93.9632152376
 20
185.9993882013
 11
94.14332802
 21
186.1072471372
  0
LINE
  5
294
100
AcDbEntity
  8
0
100
AcDbLine
 62
7
  6
CONTINUOUS
 10
89.5346677343
 20
184.7510400961
 11
89.8038159399
 21
184.8981233521
  0
LINE
  5
295
100
AcDbEntity
  8
RUNDUNGEN
100
AcDbLine
 62
7
  6
CONTINUOUS
 10
133.9490669637
 20
197.472224679
 11
129.0241347983
 21
195.1722719268
  0
LINE
  5
296
100
AcDbEntity
  8
RUNDUNGEN
100
AcDbLine
 62
7
  6
CONTINUOUS
 10
41.9923134779
 20
162.4117260509
 11
42.35236192
 21
162.5659598967
  0
LINE
  5
297
100
AcDbEntity
  8
RUNDUNGEN
100
AcDbLine
 62
7
  6
CONTINUOUS
 10
128.6549112495
 20
195.0421873355
 11
129.0241335192
 21
195.1722687187
  0
LINE
  5
298
100
AcDbEntity
  8
0
100
AcDbLine
 62
7
  6
CONTINUOUS
 10
87.2911421259
 20
182.3067475972
 11
87.5766216027
 21
182.3989510045
  0
LINE
  5
299
100
AcDbEntity
  8
RUNDUNGEN
100
AcDbLine
 62
7
  6
CONTINUOUS
 10
37.531174174
 20
160.9997732508
 11
41.9930968745
 21
162.4153157875
  0
LINE
  5
29A
100
AcDbEntity
  8
0
100
AcDbLine
 62
7
  6
CONTINUOUS
 10
89.4351515397
 20
182.9891422901
 11
89.674677042
 21
183.0607487566
  0
LINE
  5
29B
100
AcDbEntity
  8
RUNDUNGEN
100
AcDbLine
 62
7
  6
CONTINUOUS
 10
37.5308083141
 20
160.9996562434
 11
37.5307745938
 21
160.9996464835
  0
LINE
  5
29C
100
AcDbEntity
  8
RUNDUNGEN
100
AcDbLine
 62
7
  6
CONTINUOUS
 10
79.9795977715
 20
20.6477644804
 11
75.4075451554
 21
19.642667504
  0
LINE
  5
29D
100
AcDbEntity
  8
RUNDUNGEN
100
AcDbLine
 62
7
  6
CONTINUOUS
 10
171.3443661935
 20
35.7229694731
 11
171.7291630976
 21
35.7949268896
  0
LINE
  5
29E
100
AcDbEntity
  8
RUNDUNGEN
100
AcDbLine
 62
7
  6
CONTINUOUS
 10
79.9771233866
 20
20.6504864254
 11
80.3660512343
 21
20.6969383775
  0
LINE
  5
29F
100
AcDbEntity
  8
RUNDUNGEN
100
AcDbLine
 62
7
  6
CONTINUOUS
 10
171.7291657202
 20
35.794927284
 11
177.1442583334
 21
36.2655758445
  0
LINE
  5
2A0
100
AcDbEntity
  8
RUNDUNGEN
100
AcDbLine
 62
7
  6
CONTINUOUS
 10
49.003342113
 20
36.2655758445
 11
54.4184348562
 21
35.7949272727
  0
LINE
  5
2A1
100
AcDbEntity
  8
RUNDUNGEN
100
AcDbLine
 62
7
  6
CONTINUOUS
 10
146.1704759952
 20
20.6504815828
 11
145.7815479749
 21
20.6969353753
  0
LINE
  5
2A2
100
AcDbEntity
  8
RUNDUNGEN
100
AcDbLine
 62
7
  6
CONTINUOUS
 10
54.8032341248
 20
35.7229720589
 11
54.418437568
 21
35.7949294114
  0
LINE
  5
2A3
100
AcDbEntity
  8
RUNDUNGEN
100
AcDbLine
 62
7
  6
CONTINUOUS
 10
150.7399138533
 20
19.642698597
 11
146.1680026856
 21
20.6477644781
  0
LINE
  5
2A4
100
AcDbEntity
  8
RUNDUNGEN
100
AcDbLine
 62
7
  6
CONTINUOUS
 10
150.7402812086
 20
19.642618719
 11
150.7403144723
 21
19.6426105276
  0
LINE
  5
2A5
100
AcDbEntity
  8
RUNDUNGEN
100
AcDbLine
 62
7
  6
CONTINUOUS
 10
37.5306792352
 20
49.9770472311
 11
37.530643544
 21
49.9770572413
  0
LINE
  5
2A6
100
AcDbEntity
  8
RUNDUNGEN
100
AcDbLine
 62
7
  6
CONTINUOUS
 10
41.9930968797
 20
48.5613463601
 11
37.5311192781
 21
49.9769063142
  0
LINE
  5
2A7
100
AcDbEntity
  8
RUNDUNGEN
100
AcDbLine
 62
7
  6
CONTINUOUS
 10
128.6549098457
 20
15.9344726383
 11
129.0241324481
 21
15.8043911369
  0
LINE
  5
2A8
100
AcDbEntity
  8
RUNDUNGEN
100
AcDbLine
 62
7
  6
CONTINUOUS
 10
41.9923149772
 20
48.5649408244
 11
42.3523623496
 21
48.4107054711
  0
LINE
  5
2A9
100
AcDbEntity
  8
RUNDUNGEN
100
AcDbLine
 62
7
  6
CONTINUOUS
 10
129.0241349166
 20
15.8043901672
 11
133.9490669637
 21
13.5044374703
  0
LINE
  5
2AA
100
AcDbEntity
  8
RUNDUNGEN
100
AcDbLine
 62
7
  6
CONTINUOUS
 10
22.9757782526
 20
77.5748955805
 11
27.4300618462
 21
74.4597555895
  0
LINE
  5
2AB
100
AcDbEntity
  8
RUNDUNGEN
100
AcDbLine
 62
7
  6
CONTINUOUS
 10
99.3174374767
 20
15.4682603263
 11
99.0038428271
 21
15.7029545008
  0
LINE
  5
2AC
100
AcDbEntity
  8
RUNDUNGEN
100
AcDbLine
 62
7
  6
CONTINUOUS
 10
27.7273301813
 20
74.2050409121
 11
27.430065264
 21
74.4597560857
  0
LINE
  5
2AD
100
AcDbEntity
  8
RUNDUNGEN
100
AcDbLine
 62
7
  6
CONTINUOUS
 10
102.7707952499
 20
12.31077573
 11
99.3139369754
 21
15.4671438993
  0
LINE
  5
2AE
100
AcDbEntity
  8
RUNDUNGEN
100
AcDbLine
 62
7
  6
CONTINUOUS
 10
102.7710734499
 20
12.310522876
 11
102.7710981614
 21
12.3104991501
  0
LINE
  5
2AF
100
AcDbEntity
  8
RUNDUNGEN
100
AcDbLine
 62
7
  6
CONTINUOUS
 10
19.8958964447
 20
95.1857095634
 11
19.8958705403
 21
95.1857360782
  0
LINE
  5
2B0
100
AcDbEntity
  8
RUNDUNGEN
100
AcDbLine
 62
7
  6
CONTINUOUS
 10
23.0526130516
 20
91.7284678228
 11
19.8962070746
 21
95.1853675043
  0
LINE
  5
2B1
100
AcDbEntity
  8
RUNDUNGEN
100
AcDbLine
 62
7
  6
CONTINUOUS
 10
81.7905077573
 20
20.1418598507
 11
82.0452231599
 21
19.8445946647
  0
LINE
  5
2B2
100
AcDbEntity
  8
RUNDUNGEN
100
AcDbLine
 62
7
  6
CONTINUOUS
 10
23.0537331364
 20
91.7319716714
 11
23.2884256307
 21
91.4183762511
  0
LINE
  5
2B3
100
AcDbEntity
  8
RUNDUNGEN
100
AcDbLine
 62
7
  6
CONTINUOUS
 10
82.0452248128
 20
19.8445925906
 11
85.1603647291
 21
15.390309104
  0
LINE
  5
2B4
100
AcDbEntity
  8
RUNDUNGEN
100
AcDbLine
 62
7
  6
CONTINUOUS
 10
21.0899066189
 20
126.3635978151
 11
23.3898593713
 21
121.4386656492
  0
LINE
  5
2B5
100
AcDbEntity
  8
RUNDUNGEN
100
AcDbLine
 62
7
  6
CONTINUOUS
 10
56.1504052469
 20
34.4068443293
 11
55.9961714012
 21
34.7668927714
  0
LINE
  5
2B6
100
AcDbEntity
  8
RUNDUNGEN
100
AcDbLine
 62
7
  6
CONTINUOUS
 10
23.5199439612
 20
121.0694421002
 11
23.389862578
 21
121.4386643701
  0
LINE
  5
2B7
100
AcDbEntity
  8
RUNDUNGEN
100
AcDbLine
 62
7
  6
CONTINUOUS
 10
57.5623584864
 20
29.9457036406
 11
56.1468155103
 21
34.4076277259
  0
LINE
  5
2B8
100
AcDbEntity
  8
RUNDUNGEN
100
AcDbLine
 62
7
  6
CONTINUOUS
 10
57.5624749378
 20
29.9453395056
 11
57.5624846384
 21
29.9453059997
  0
LINE
  5
2B9
100
AcDbEntity
  8
RUNDUNGEN
100
AcDbLine
 62
7
  6
CONTINUOUS
 10
27.2280574923
 20
143.1549521282
 11
27.2280482515
 21
143.154988271
  0
LINE
  5
2BA
100
AcDbEntity
  8
RUNDUNGEN
100
AcDbLine
 62
7
  6
CONTINUOUS
 10
28.2332336278
 20
138.5825335317
 11
27.2281560202
 21
143.1544980419
  0
LINE
  5
2BB
100
AcDbEntity
  8
RUNDUNGEN
100
AcDbLine
 62
7
  6
CONTINUOUS
 10
43.3084386217
 20
47.2177651043
 11
43.3803960381
 21
46.8329682002
  0
LINE
  5
2BC
100
AcDbEntity
  8
RUNDUNGEN
100
AcDbLine
 62
7
  6
CONTINUOUS
 10
28.235955574
 20
138.5850079113
 11
28.2824075261
 21
138.1960800636
  0
LINE
  5
2BD
100
AcDbEntity
  8
0
100
AcDbLine
 62
7
  6
CONTINUOUS
 10
93.9048501363
 20
186.2479467803
 11
93.7880045043
 21
186.0893779897
  0
LINE
  5
2BE
100
AcDbEntity
  8
0
100
AcDbLine
 62
7
  6
CONTINUOUS
 10
89.3796121818
 20
184.5714439468
 11
89.5346677343
 21
184.7510400961
  0
LINE
  5
2BF
100
AcDbEntity
  8
0
100
AcDbLine
 62
7
  6
CONTINUOUS
 10
91.8203301454
 20
183.7427659588
 11
91.8996702493
 21
183.8309666976
  0
LINE
  5
2C0
100
AcDbEntity
  8
0
100
AcDbLine
 62
7
  6
CONTINUOUS
 10
90.5383387999
 20
185.3747326369
 11
90.4589984188
 21
185.2865318272
  0
LINE
  5
2C1
100
AcDbEntity
  8
0
100
AcDbLine
 62
7
  6
CONTINUOUS
 10
129.4878247083
 20
187.3311132881
 11
129.3578775576
 21
187.2715069153
  0
LINE
  5
2C2
100
AcDbEntity
  8
0
100
AcDbLine
 62
7
  6
CONTINUOUS
 10
129.5353433213
 20
185.3871001281
 11
129.6652906361
 21
185.446706479
  0
LINE
  5
2C3
100
AcDbEntity
  8
0
100
AcDbLine
 62
7
  6
CONTINUOUS
 10
135.837568918
 20
185.7970489658
 11
135.7033327039
 21
185.7478565189
  0
LINE
  5
2C4
100
AcDbEntity
  8
0
100
AcDbLine
 62
7
  6
CONTINUOUS
 10
138.4968950187
 20
184.995107209
 11
138.361120275
 21
184.9503375283
  0
LINE
  5
2C5
100
AcDbEntity
  8
0
100
AcDbLine
 62
7
  6
CONTINUOUS
 10
138.3277028085
 20
183.0578876155
 11
138.4634775556
 21
183.1026573068
  0
LINE
  5
2C6
100
AcDbEntity
  8
0
100
AcDbLine
 62
7
  6
CONTINUOUS
 10
88.2393692216
 20
184.0886843376
 11
88.3708355957
 21
184.3323741821
  0
LINE
  5
2C7
100
AcDbEntity
  8
0
100
AcDbLine
 62
7
  6
CONTINUOUS
 10
89.3657275607
 20
184.9670193797
 11
89.2585772182
 21
184.8017445565
  0
LINE
  5
2C8
100
AcDbEntity
  8
0
100
AcDbLine
 62
7
  6
CONTINUOUS
 10
93.8463696056
 20
185.8408194107
 11
93.9632152376
 21
185.9993882013
  0
LINE
  5
2C9
100
AcDbEntity
  8
0
100
AcDbLine
 62
7
  6
CONTINUOUS
 10
131.7900349726
 20
185.754849523
 11
131.9315892363
 21
185.8511577183
  0
LINE
  5
2CA
100
AcDbEntity
  8
0
100
AcDbLine
 62
7
  6
CONTINUOUS
 10
129.3642133248
 20
187.012305202
 11
129.4658621837
 21
187.0776531723
  0
LINE
  5
2CB
100
AcDbEntity
  8
0
100
AcDbLine
 62
7
  6
CONTINUOUS
 10
129.6589548777
 20
185.7059082357
 11
129.5573060129
 21
185.6405602365
  0
LINE
  5
2CC
100
AcDbEntity
  8
0
100
AcDbLine
 62
7
  6
CONTINUOUS
 10
132.2536139979
 20
185.0820076672
 11
132.1498793624
 21
185.020024015
  0
LINE
  5
2CD
100
AcDbEntity
  8
0
100
AcDbLine
 62
7
  6
CONTINUOUS
 10
133.3089363515
 20
186.1671676287
 11
133.4136238863
 21
186.2275274707
  0
LINE
  5
2CE
100
AcDbEntity
  8
0
100
AcDbLine
 62
7
  6
CONTINUOUS
 10
133.435517923
 20
184.7876945446
 11
133.3308300678
 21
184.7273347838
  0
LINE
  5
2CF
100
AcDbEntity
  8
0
100
AcDbLine
 62
7
  6
CONTINUOUS
 10
135.7008461325
 20
185.5294593212
 11
135.8073234976
 21
185.5866031612
  0
LINE
  5
2D0
100
AcDbEntity
  8
0
100
AcDbLine
 62
7
  6
CONTINUOUS
 10
131.952117031
 20
186.0627725828
 11
131.7824673881
 21
185.9731298217
  0
LINE
  5
2D1
100
AcDbEntity
  8
0
100
AcDbLine
 62
7
  6
CONTINUOUS
 10
132.1293515617
 20
184.8084091255
 11
132.2990012071
 21
184.8980518973
  0
LINE
  5
2D2
100
AcDbEntity
  8
0
100
AcDbLine
 62
7
  6
CONTINUOUS
 10
133.4374468375
 20
186.4387967045
 11
133.2664210001
 21
186.3518082633
  0
LINE
  5
2D3
100
AcDbEntity
  8
0
100
AcDbLine
 62
7
  6
CONTINUOUS
 10
133.3070077509
 20
184.5160653624
 11
133.4780332707
 21
184.6030538956
  0
LINE
  5
2D4
100
AcDbEntity
  8
0
100
AcDbLine
 62
7
  6
CONTINUOUS
 10
138.3385610296
 20
184.6920417066
 11
138.4468528745
 21
184.7456674845
  0
LINE
  5
2D5
100
AcDbEntity
  8
0
100
AcDbLine
 62
7
  6
CONTINUOUS
 10
138.4860361855
 20
183.3609533733
 11
138.3777443315
 21
183.3073275673
  0
LINE
  5
2D6
100
AcDbEntity
  8
0
100
AcDbLine
 62
7
  6
CONTINUOUS
 10
139.5834601172
 20
184.3285968542
 11
139.6925835927
 21
184.3805094234
  0
LINE
  5
2D7
100
AcDbEntity
  8
0
100
AcDbLine
 62
7
  6
CONTINUOUS
 10
139.5026276764
 20
183.9111341559
 11
139.2843807255
 21
183.8073090174
  0
LINE
  5
2D8
100
AcDbEntity
  8
0
100
AcDbLine
 62
7
  6
CONTINUOUS
 10
139.3530892511
 20
183.6504898682
 11
139.4622127265
 21
183.7024024374
  0
LINE
  5
2D9
100
AcDbEntity
  8
0
100
AcDbLine
 62
7
  6
CONTINUOUS
 10
139.682838145
 20
182.9155724735
 11
139.5737146696
 21
182.8636599043
  0
LINE
  5
2DA
100
AcDbEntity
  8
0
100
AcDbLine
 62
7
  6
CONTINUOUS
 10
139.7329985425
 20
184.5892411418
 11
139.5556439929
 21
184.5160161229
  0
LINE
  5
2DB
100
AcDbEntity
  8
0
100
AcDbLine
 62
7
  6
CONTINUOUS
 10
139.5332984598
 20
182.6549285865
 11
139.7106542646
 21
182.7281531907
  0
LINE
  5
2DC
100
AcDbEntity
  8
0
100
AcDbLine
 62
7
  6
CONTINUOUS
 10
88.1300071377
 20
184.5899740132
 11
88.0740827546
 21
184.4377589155
  0
LINE
  5
2DD
100
AcDbEntity
  8
0
100
AcDbLine
 62
7
  6
CONTINUOUS
 10
89.2585772182
 20
184.8017445565
 11
89.1993318118
 21
184.6507909774
  0
LINE
  5
2DE
100
AcDbEntity
  8
0
100
AcDbLine
 62
7
  6
CONTINUOUS
 10
96.0087912397
 20
185.935488123
 11
96.3751930919
 21
186.861120854
  0
LINE
  5
2DF
100
AcDbEntity
  8
0
100
AcDbLine
 62
7
  6
CONTINUOUS
 10
96.0816859598
 20
186.799046543
 11
95.64386213
 21
185.7278252149
  0
LINE
  5
2E0
100
AcDbEntity
  8
0
100
AcDbLine
 62
7
  6
CONTINUOUS
 10
90.4589984188
 20
185.2865318272
 11
90.3966917319
 21
185.1368160272
  0
LINE
  5
2E1
100
AcDbEntity
  8
0
100
AcDbLine
 62
7
  6
CONTINUOUS
 10
90.6405393112
 20
185.0056422373
 11
90.702845998
 21
185.1553580373
  0
LINE
  5
2E2
100
AcDbEntity
  8
0
100
AcDbLine
 62
7
  6
CONTINUOUS
 10
91.7181296237
 20
184.1118563961
 11
91.6558229368
 21
183.9621405961
  0
LINE
  5
2E3
100
AcDbEntity
  8
0
100
AcDbLine
 62
7
  6
CONTINUOUS
 10
91.8996702493
 20
183.8309666976
 11
91.9619772088
 21
183.9806825847
  0
LINE
  5
2E4
100
AcDbEntity
  8
0
100
AcDbLine
 62
7
  6
CONTINUOUS
 10
93.7880045043
 20
186.0893779897
 11
93.7198347475
 21
185.9422389892
  0
LINE
  5
2E5
100
AcDbEntity
  8
0
100
AcDbLine
 62
7
  6
CONTINUOUS
 10
93.7781998488
 20
185.6936804101
 11
93.8463696056
 21
185.8408194107
  0
LINE
  5
2E6
100
AcDbEntity
  8
0
100
AcDbLine
 62
7
  6
CONTINUOUS
 10
95.723106073
 20
185.3531345891
 11
95.9016593837
 21
185.7171055079
  0
LINE
  5
2E7
100
AcDbEntity
  8
0
100
AcDbLine
 62
7
  6
CONTINUOUS
 10
129.3578775576
 20
187.2715069153
 11
129.2111765854
 21
187.1293277468
  0
LINE
  5
2E8
100
AcDbEntity
  8
0
100
AcDbLine
 62
7
  6
CONTINUOUS
 10
129.6652906361
 20
185.446706479
 11
129.8119916112
 21
185.5888856619
  0
LINE
  5
2E9
100
AcDbEntity
  8
0
100
AcDbLine
 62
7
  6
CONTINUOUS
 10
133.2664210001
 20
186.3518082633
 11
133.151371061
 21
186.2506151033
  0
LINE
  5
2EA
100
AcDbEntity
  8
0
100
AcDbLine
 62
7
  6
CONTINUOUS
 10
133.4780332707
 20
184.6030538956
 11
133.5930832134
 21
184.70424707
  0
LINE
  5
2EB
100
AcDbEntity
  8
0
100
AcDbLine
 62
7
  6
CONTINUOUS
 10
135.7033327039
 20
185.7478565189
 11
135.5458950363
 21
185.6176662345
  0
LINE
  5
2EC
100
AcDbEntity
  8
0
100
AcDbLine
 62
7
  6
CONTINUOUS
 10
138.361120275
 20
184.9503375283
 11
138.1995030116
 21
184.8253735754
  0
LINE
  5
2ED
100
AcDbEntity
  8
0
100
AcDbLine
 62
7
  6
CONTINUOUS
 10
138.4634775556
 20
183.1026573068
 11
138.6250941944
 21
183.2276214764
  0
LINE
  5
2EE
100
AcDbEntity
  8
0
100
AcDbLine
 62
7
  6
CONTINUOUS
 10
139.2713057002
 20
183.589289204
 11
139.3530892511
 21
183.6504898682
  0
LINE
  5
2EF
100
AcDbEntity
  8
0
100
AcDbLine
 62
7
  6
CONTINUOUS
 10
136.1516127256
 20
185.0059421692
 11
135.0843524786
 21
184.2161064858
  0
LINE
  5
2F0
100
AcDbEntity
  8
0
100
AcDbLine
 62
7
  6
CONTINUOUS
 10
135.3064213641
 20
184.1524958869
 11
136.2556035192
 21
184.8446888115
  0
LINE
  5
2F1
100
AcDbEntity
  8
0
100
AcDbLine
 62
7
  6
CONTINUOUS
 10
90.3966917319
 20
185.1368160272
 11
90.3514184637
 21
184.9255851606
  0
LINE
  5
2F2
100
AcDbEntity
  8
0
100
AcDbLine
 62
7
  6
CONTINUOUS
 10
90.5952657671
 20
184.7944112944
 11
90.6405393112
 21
185.0056422373
  0
LINE
  5
2F3
100
AcDbEntity
  8
0
100
AcDbLine
 62
7
  6
CONTINUOUS
 10
91.76340288
 20
184.3230873058
 11
91.7181296237
 21
184.1118563961
  0
LINE
  5
2F4
100
AcDbEntity
  8
0
100
AcDbLine
 62
7
  6
CONTINUOUS
 10
91.9619772088
 20
183.9806825847
 11
92.0072507469
 21
184.1919135492
  0
LINE
  5
2F5
100
AcDbEntity
  8
0
100
AcDbLine
 62
7
  6
CONTINUOUS
 10
88.3708355957
 20
184.3323741821
 11
88.4351043584
 21
184.6214371136
  0
LINE
  5
2F6
100
AcDbEntity
  8
0
100
AcDbLine
 62
7
  6
CONTINUOUS
 10
89.3090268531
 20
184.2838581968
 11
89.3796121818
 21
184.5714439468
  0
LINE
  5
2F7
100
AcDbEntity
  8
0
100
AcDbLine
 62
7
  6
CONTINUOUS
 10
132.2990012071
 20
184.8980518973
 11
132.422184987
 21
185.0420153663
  0
LINE
  5
2F8
100
AcDbEntity
  8
0
100
AcDbLine
 62
7
  6
CONTINUOUS
 10
63.6414197052
 20
117.831504156
 11
100.7306440516
 21
154.9207285023
  0
LINE
  5
2F9
100
AcDbEntity
  8
0
100
AcDbLine
 62
7
  6
CONTINUOUS
 10
135.159933987
 20
186.0293977966
 11
134.9148649869
 21
185.7908208231
  0
LINE
  5
2FA
100
AcDbEntity
  8
0
100
AcDbLine
 62
7
  6
CONTINUOUS
 10
134.825736697
 20
185.4657984527
 11
135.0708057283
 21
185.70437554
  0
LINE
  5
2FB
100
AcDbEntity
  8
0
100
AcDbLine
 62
7
  6
CONTINUOUS
 10
139.5556439929
 20
184.5160161229
 11
139.419418067
 21
184.3843262744
  0
LINE
  5
2FC
100
AcDbEntity
  8
0
100
AcDbLine
 62
7
  6
CONTINUOUS
 10
139.7106542646
 20
182.7281531907
 11
139.8468801952
 21
182.8598430532
  0
LINE
  5
2FD
100
AcDbEntity
  8
0
100
AcDbLine
 62
7
  6
CONTINUOUS
 10
141.1946609708
 20
184.1259678917
 11
140.9322317019
 21
183.9066310139
  0
LINE
  5
2FE
100
AcDbEntity
  8
0
100
AcDbLine
 62
7
  6
CONTINUOUS
 10
140.8187503539
 20
183.5892899087
 11
141.0811796626
 21
183.8086268977
  0
LINE
  5
2FF
100
AcDbEntity
  8
0
100
AcDbLine
 62
7
  6
CONTINUOUS
 10
100.7306271419
 20
56.0559505567
 11
63.6414027955
 21
93.145174903
  0
LINE
  5
300
100
AcDbEntity
  8
0
100
AcDbLine
 62
7
  6
CONTINUOUS
 10
78.7614436661
 20
93.7680361765
 11
78.7614436661
 21
94.6165643139
  0
LINE
  5
301
100
AcDbEntity
  8
0
100
AcDbLine
 62
7
  6
CONTINUOUS
 10
78.7614436661
 20
116.3600978354
 11
78.7614436661
 21
117.2086259728
  0
LINE
  5
302
100
AcDbEntity
  8
0
100
AcDbLine
 62
7
  6
CONTINUOUS
 10
133.151371061
 20
186.2506151033
 11
133.053946827
 21
186.1014862252
  0
LINE
  5
303
100
AcDbEntity
  8
0
100
AcDbLine
 62
7
  6
CONTINUOUS
 10
136.2535326954
 20
185.1520352397
 11
136.1516127256
 21
185.0059421692
  0
LINE
  5
304
100
AcDbEntity
  8
0
100
AcDbLine
 62
7
  6
CONTINUOUS
 10
129.7406821125
 20
185.8182842506
 11
129.6589548777
 21
185.7059082357
  0
LINE
  5
305
100
AcDbEntity
  8
0
100
AcDbLine
 62
7
  6
CONTINUOUS
 10
132.338978153
 20
185.1916466073
 11
132.2536139979
 21
185.0820076672
  0
LINE
  5
306
100
AcDbEntity
  8
0
100
AcDbLine
 62
7
  6
CONTINUOUS
 10
133.1348120222
 20
185.9505765565
 11
133.3089363515
 21
186.1671676287
  0
LINE
  5
307
100
AcDbEntity
  8
0
100
AcDbLine
 62
7
  6
CONTINUOUS
 10
133.6096422305
 20
185.0042855309
 11
133.435517923
 21
184.7876945446
  0
LINE
  5
308
100
AcDbEntity
  8
0
100
AcDbLine
 62
7
  6
CONTINUOUS
 10
135.6105268895
 20
185.4238651693
 11
135.7008461325
 21
185.5294593212
  0
LINE
  5
309
100
AcDbEntity
  8
0
100
AcDbLine
 62
7
  6
CONTINUOUS
 10
136.2556035192
 20
184.8446888115
 11
136.3459227622
 21
184.9502829634
  0
LINE
  5
30A
100
AcDbEntity
  8
0
100
AcDbLine
 62
7
  6
CONTINUOUS
 10
138.579766077
 20
183.4635324858
 11
138.4860361855
 21
183.3609533733
  0
LINE
  5
30B
100
AcDbEntity
  8
0
100
AcDbLine
 62
7
  6
CONTINUOUS
 10
139.4881253411
 20
184.2275075503
 11
139.5834601172
 21
184.3285968542
  0
LINE
  5
30C
100
AcDbEntity
  8
0
100
AcDbLine
 62
7
  6
CONTINUOUS
 10
139.7781729306
 20
183.0166618053
 11
139.682838145
 21
182.9155724735
  0
LINE
  5
30D
100
AcDbEntity
  8
0
100
AcDbLine
 62
7
  6
CONTINUOUS
 10
78.7614436661
 20
117.2086259728
 11
101.353505325
 21
139.8006876317
  0
LINE
  5
30E
100
AcDbEntity
  8
0
100
AcDbLine
 62
7
  6
CONTINUOUS
 10
68.8556027317
 20
106.4542569009
 11
78.7614436661
 21
116.3600978354
  0
LINE
  5
30F
100
AcDbEntity
  8
0
100
AcDbLine
 62
7
  6
CONTINUOUS
 10
102.2020334625
 20
139.8006876317
 11
112.1078743969
 21
149.7065285661
  0
LINE
  5
310
100
AcDbEntity
  8
0
100
AcDbLine
 62
7
  6
CONTINUOUS
 10
169.3090720676
 20
166.834293559
 11
169.1521337231
 21
166.7500246434
  0
LINE
  5
311
100
AcDbEntity
  8
0
100
AcDbLine
 62
7
  6
CONTINUOUS
 10
171.7363744945
 20
164.1595176883
 11
171.5767182809
 21
164.0805189721
  0
LINE
  5
312
100
AcDbEntity
  8
0
100
AcDbLine
 62
7
  6
CONTINUOUS
 10
174.4930757845
 20
161.2671653069
 11
174.3298010928
 21
161.1959451068
  0
LINE
  5
313
100
AcDbEntity
  8
0
100
AcDbLine
 62
7
  6
CONTINUOUS
 10
173.7710220347
 20
162.2363505305
 11
172.7460480398
 21
161.7896439252
  0
LINE
  5
314
100
AcDbEntity
  8
0
100
AcDbLine
 62
7
  6
CONTINUOUS
 10
172.7438547928
 20
161.668821587
 11
173.7688287017
 21
162.1155281116
  0
LINE
  5
315
100
AcDbEntity
  8
0
100
AcDbLine
 62
7
  6
CONTINUOUS
 10
168.1373773511
 20
166.30517745
 11
168.0099852982
 21
166.2496889422
  0
LINE
  5
316
100
AcDbEntity
  8
0
100
AcDbLine
 62
7
  6
CONTINUOUS
 10
169.2505015963
 20
166.6013165338
 11
169.3787901851
 21
166.6546998405
  0
LINE
  5
317
100
AcDbEntity
  8
0
100
AcDbLine
 62
7
  6
CONTINUOUS
 10
169.1419665775
 20
165.3803813094
 11
169.0136780689
 21
165.3269980892
  0
LINE
  5
318
100
AcDbEntity
  8
0
100
AcDbLine
 62
7
  6
CONTINUOUS
 10
171.3035953012
 20
164.7072860215
 11
171.4335896278
 21
164.7563696622
  0
LINE
  5
319
100
AcDbEntity
  8
0
100
AcDbLine
 62
7
  6
CONTINUOUS
 10
171.5902541671
 20
163.8891198976
 11
171.7202484937
 21
163.9382035383
  0
LINE
  5
31A
100
AcDbEntity
  8
0
100
AcDbLine
 62
7
  6
CONTINUOUS
 10
174.9488087359
 20
160.9502954767
 11
174.6517666574
 21
160.8404383025
  0
LINE
  5
31B
100
AcDbEntity
  8
0
100
AcDbLine
 62
7
  6
CONTINUOUS
 10
174.7477807631
 20
160.7326173002
 11
175.0448228416
 21
160.8424744744
  0
LINE
  5
31C
100
AcDbEntity
  8
0
100
AcDbLine
 62
7
  6
CONTINUOUS
 10
175.179242941
 20
160.6915246763
 11
174.8822008625
 21
160.5816675021
  0
LINE
  5
31D
100
AcDbEntity
  8
0
100
AcDbLine
 62
7
  6
CONTINUOUS
 10
174.9782149681
 20
160.4738464998
 11
175.2752570466
 21
160.583703674
  0
LINE
  5
31E
100
AcDbEntity
  8
0
100
AcDbLine
 62
7
  6
CONTINUOUS
 10
174.0871708143
 20
161.8351346126
 11
174.2193773062
 21
161.8779029896
  0
LINE
  5
31F
100
AcDbEntity
  8
0
100
AcDbLine
 62
7
  6
CONTINUOUS
 10
174.334106581
 20
161.0041160576
 11
174.4663130728
 21
161.0468844345
  0
LINE
  5
320
100
AcDbEntity
  8
0
100
AcDbLine
 62
7
  6
CONTINUOUS
 10
124.7940951214
 20
71.1759745175
 11
123.945566984
 21
71.1759745175
  0
LINE
  5
321
100
AcDbEntity
  8
0
100
AcDbLine
 62
7
  6
CONTINUOUS
 10
102.2020334625
 20
71.1759745175
 11
101.353505325
 21
71.1759745175
  0
LINE
  5
322
100
AcDbEntity
  8
0
100
AcDbLine
 62
7
  6
CONTINUOUS
 10
101.353505325
 20
71.1759745175
 11
78.7614436661
 21
93.7680361765
  0
LINE
  5
323
100
AcDbEntity
  8
0
100
AcDbLine
 62
7
  6
CONTINUOUS
 10
112.1078743969
 20
61.2701335831
 11
102.2020334625
 21
71.1759745175
  0
LINE
  5
324
100
AcDbEntity
  8
0
100
AcDbLine
 62
7
  6
CONTINUOUS
 10
78.7614436661
 20
94.6165643139
 11
68.8556027317
 21
104.5224052483
  0
LINE
  5
325
100
AcDbEntity
  8
0
100
AcDbLine
 62
7
  6
CONTINUOUS
 10
88.1187337734
 20
184.787562154
 11
88.1300071377
 21
184.5899740132
  0
LINE
  5
326
100
AcDbEntity
  8
0
100
AcDbLine
 62
7
  6
CONTINUOUS
 10
88.4351043584
 20
184.6214371136
 11
88.4238309941
 21
184.8190252544
  0
LINE
  5
327
100
AcDbEntity
  8
0
100
AcDbLine
 62
7
  6
CONTINUOUS
 10
90.3514184637
 20
184.9255851606
 11
90.3543318195
 21
184.7276970892
  0
LINE
  5
328
100
AcDbEntity
  8
RUNDUNGEN
100
AcDbLine
 62
7
  6
CONTINUOUS
 10
72.0887095852
 20
30.0000717368
 11
70.3815703153
 21
21.9686129262
  0
LINE
  5
329
100
AcDbEntity
  8
RUNDUNGEN
100
AcDbLine
 62
7
  6
CONTINUOUS
 10
117.8611036529
 20
199.164643662
 11
115.3238002232
 21
191.3556266676
  0
LINE
  5
32A
100
AcDbEntity
  8
0
100
AcDbLine
 62
7
  6
CONTINUOUS
 10
129.3107843584
 20
186.8941874739
 11
129.3642133248
 21
187.012305202
  0
LINE
  5
32B
100
AcDbEntity
  8
0
100
AcDbLine
 62
7
  6
CONTINUOUS
 10
132.3962469221
 20
185.3079509531
 11
132.338978153
 21
185.1916466073
  0
LINE
  5
32C
100
AcDbEntity
  8
0
100
AcDbLine
 62
7
  6
CONTINUOUS
 10
133.053946827
 20
186.1014862252
 11
132.9948727571
 21
185.9860882318
  0
LINE
  5
32D
100
AcDbEntity
  8
0
100
AcDbLine
 62
7
  6
CONTINUOUS
 10
133.6905071345
 20
184.853376058
 11
133.7495814956
 21
184.9687738556
  0
LINE
  5
32E
100
AcDbEntity
  8
0
100
AcDbLine
 62
7
  6
CONTINUOUS
 10
132.422184987
 20
185.0420153663
 11
132.5269982831
 21
185.233634109
  0
LINE
  5
32F
100
AcDbEntity
  8
0
100
AcDbLine
 62
7
  6
CONTINUOUS
 10
129.8119916112
 20
185.5888856619
 11
129.9020956816
 21
185.74254812
  0
LINE
  5
330
100
AcDbEntity
  8
0
100
AcDbLine
 62
7
  6
CONTINUOUS
 10
138.2723146296
 20
184.5806061818
 11
138.3385610296
 21
184.6920417066
  0
LINE
  5
331
100
AcDbEntity
  8
0
100
AcDbLine
 62
7
  6
CONTINUOUS
 10
139.4201317031
 20
184.1171296146
 11
139.4881253411
 21
184.2275075503
  0
LINE
  5
332
100
AcDbEntity
  8
0
100
AcDbLine
 62
7
  6
CONTINUOUS
 10
139.2033120811
 20
183.4789113241
 11
139.2713057002
 21
183.589289204
  0
LINE
  5
333
100
AcDbEntity
  8
0
100
AcDbLine
 62
7
  6
CONTINUOUS
 10
139.8461665307
 20
183.1270396293
 11
139.7781729306
 21
183.0166618053
  0
LINE
  5
334
100
AcDbEntity
  8
0
100
AcDbLine
 62
7
  6
CONTINUOUS
 10
133.5930832134
 20
184.70424707
 11
133.6905071345
 21
184.853376058
  0
LINE
  5
335
100
AcDbEntity
  8
0
100
AcDbLine
 62
7
  6
CONTINUOUS
 10
139.419418067
 20
184.3843262744
 11
139.2969808026
 21
184.2034595795
  0
LINE
  5
336
100
AcDbEntity
  8
0
100
AcDbLine
 62
7
  6
CONTINUOUS
 10
139.8468801952
 20
182.8598430532
 11
139.9693174312
 21
183.0407096644
  0
LINE
  5
337
100
AcDbEntity
  8
0
100
AcDbLine
 62
7
  6
CONTINUOUS
 10
138.6250941944
 20
183.2276214764
 11
138.7317450403
 21
183.3702978544
  0
LINE
  5
338
100
AcDbEntity
  8
RUNDUNGEN
100
AcDbLine
 62
7
  6
CONTINUOUS
 10
39.8355408854
 20
60.6061261196
 11
34.3413855045
 21
54.5042483952
  0
LINE
  5
339
100
AcDbEntity
  8
RUNDUNGEN
100
AcDbLine
 62
7
  6
CONTINUOUS
 10
164.0578829026
 20
184.2207457933
 11
157.9560051782
 21
178.7265904124
  0
LINE
  5
33A
100
AcDbEntity
  8
0
100
AcDbLine
 62
7
  6
CONTINUOUS
 10
168.3117529184
 20
167.4505912973
 11
168.4176549821
 21
167.5253656342
  0
LINE
  5
33B
100
AcDbEntity
  8
0
100
AcDbLine
 62
7
  6
CONTINUOUS
 10
168.0826513112
 20
166.0712676006
 11
168.2381806791
 21
166.1581094697
  0
LINE
  5
33C
100
AcDbEntity
  8
0
100
AcDbLine
 62
7
  6
CONTINUOUS
 10
169.0833961664
 20
165.1474043491
 11
169.2403344704
 21
165.2316733425
  0
LINE
  5
33D
100
AcDbEntity
  8
RUNDUNGEN
100
AcDbLine
 62
7
  6
CONTINUOUS
 10
27.2065046302
 20
103.2383310746
 11
19.3974876358
 21
100.7010276449
  0
LINE
  5
33E
100
AcDbEntity
  8
RUNDUNGEN
100
AcDbLine
 62
7
  6
CONTINUOUS
 10
29.5540820748
 20
62.7961011667
 11
37.5855408854
 21
64.5032404366
  0
LINE
  5
33F
100
AcDbEntity
  8
RUNDUNGEN
100
AcDbLine
 62
7
  6
CONTINUOUS
 10
188.562059561
 20
64.5032404366
 11
196.5935183716
 21
62.7961011667
  0
LINE
  5
340
100
AcDbEntity
  8
RUNDUNGEN
100
AcDbLine
 62
7
  6
CONTINUOUS
 10
19.3974876358
 20
110.2756345043
 11
27.2065046302
 21
107.7383310746
  0
LINE
  5
341
100
AcDbEntity
  8
RUNDUNGEN
100
AcDbLine
 62
7
  6
CONTINUOUS
 10
157.9560051782
 20
32.2500717368
 11
164.0578829026
 21
26.7559163559
  0
LINE
  5
342
100
AcDbEntity
  8
RUNDUNGEN
100
AcDbLine
 62
7
  6
CONTINUOUS
 10
34.3413855045
 20
156.472413754
 11
39.8355408854
 21
150.3705360296
  0
LINE
  5
343
100
AcDbEntity
  8
RUNDUNGEN
100
AcDbLine
 62
7
  6
CONTINUOUS
 10
115.3238002232
 20
19.6210354816
 11
117.8611036529
 21
11.8120184872
  0
LINE
  5
344
100
AcDbEntity
  8
RUNDUNGEN
100
AcDbLine
 62
7
  6
CONTINUOUS
 10
70.3815703153
 20
189.008049223
 11
72.0887095852
 21
180.9765904124
  0
LINE
  5
345
100
AcDbEntity
  8
0
100
AcDbLine
 62
7
  6
CONTINUOUS
 10
90.3543318195
 20
184.7276970892
 11
90.3742785938
 21
184.4682939512
  0
LINE
  5
346
100
AcDbEntity
  8
0
100
AcDbLine
 62
7
  6
CONTINUOUS
 10
90.6152128172
 20
184.5350082327
 11
90.5952657671
 21
184.7944112944
  0
LINE
  5
347
100
AcDbEntity
  8
0
100
AcDbLine
 62
7
  6
CONTINUOUS
 10
91.7434563814
 20
184.5824905201
 11
91.76340288
 21
184.3230873058
  0
LINE
  5
348
100
AcDbEntity
  8
0
100
AcDbLine
 62
7
  6
CONTINUOUS
 10
92.0072507469
 20
184.1919135492
 11
91.9843900534
 21
184.6492046489
  0
LINE
  5
349
100
AcDbEntity
  8
RUNDUNGEN
100
AcDbLine
 62
7
  6
CONTINUOUS
 10
103.0738002232
 20
50.4344534128
 11
103.0738002232
 21
49.0814060136
  0
LINE
  5
34A
100
AcDbEntity
  8
RUNDUNGEN
100
AcDbLine
 62
7
  6
CONTINUOUS
 10
103.0738002232
 20
160.5422087122
 11
103.0738002232
 21
161.8952561357
  0
LINE
  5
34B
100
AcDbEntity
  8
RUNDUNGEN
100
AcDbLine
 62
7
  6
CONTINUOUS
 10
104.0738002232
 20
198.8556266676
 11
104.0738002232
 21
192.5682628624
  0
LINE
  5
34C
100
AcDbEntity
  8
RUNDUNGEN
100
AcDbLine
 62
7
  6
CONTINUOUS
 10
104.0738002232
 20
12.1210354816
 11
104.0738002232
 21
18.4083145365
  0
LWPOLYLINE
  5
34D
100
AcDbEntity
  8
RUNDUNGEN
100
AcDbPolyline
 62
7
  6
CONTINUOUS
 90
9
 70
0
 10
103.07379334
 20
160.5675990582
 10
103.0286218832
 20
159.7285917645
 10
102.8956970055
 20
158.898926052
 10
102.6764777325
 20
158.087756056
 10
102.3733753037
 20
157.304032566
 10
101.9897267403
 20
156.5564047117
 10
101.5297584301
 20
155.853124926
 10
100.9985395513
 20
155.201957367
 10
100.7306545857
 20
154.9207393749
  0
LINE
  5
34E
100
AcDbEntity
  8
0
100
AcDbLine
 62
7
  6
CONTINUOUS
 10
133.0446517295
 20
185.7126784799
 11
133.1348120222
 21
185.9505765565
  0
LINE
  5
34F
100
AcDbEntity
  8
0
100
AcDbLine
 62
7
  6
CONTINUOUS
 10
133.6998022174
 20
185.2421837461
 11
133.6096422305
 21
185.0042855309
  0
LINE
  5
350
100
AcDbEntity
  8
0
100
AcDbLine
 62
7
  6
CONTINUOUS
 10
129.2111765854
 20
187.1293277468
 11
129.1493708937
 21
186.9699237038
  0
LINE
  5
351
100
AcDbEntity
  8
0
100
AcDbLine
 62
7
  6
CONTINUOUS
 10
132.9948727571
 20
185.9860882318
 11
132.915074228
 21
185.7890236357
  0
LINE
  5
352
100
AcDbEntity
  8
0
100
AcDbLine
 62
7
  6
CONTINUOUS
 10
133.7495814956
 20
184.9687738556
 11
133.8293800392
 21
185.165838509
  0
LINE
  5
353
100
AcDbEntity
  8
0
100
AcDbLine
 62
7
  6
CONTINUOUS
 10
139.2969808026
 20
184.2034595795
 11
139.1747823018
 21
183.9335271968
  0
LINE
  5
354
100
AcDbEntity
  8
0
100
AcDbLine
 62
7
  6
CONTINUOUS
 10
139.3114831759
 20
183.8870862967
 11
139.4201317031
 21
184.1171296146
  0
LINE
  5
355
100
AcDbEntity
  8
0
100
AcDbLine
 62
7
  6
CONTINUOUS
 10
135.5458950363
 20
185.6176662345
 11
135.4717339154
 21
185.4636217709
  0
LINE
  5
356
100
AcDbEntity
  8
0
100
AcDbLine
 62
7
  6
CONTINUOUS
 10
136.3459227622
 20
184.9502829634
 11
136.4200845183
 21
185.104327245
  0
LINE
  5
357
100
AcDbEntity
  8
0
100
AcDbLine
 62
7
  6
CONTINUOUS
 10
138.1995030116
 20
184.8253735754
 11
138.1203357025
 21
184.6738409256
  0
LINE
  5
358
100
AcDbEntity
  8
RUNDUNGEN
100
AcDbLine
 62
7
  6
CONTINUOUS
 10
151.9632193857
 20
190.8467809408
 11
148.8196131597
 21
185.4018952385
  0
LINE
  5
359
100
AcDbEntity
  8
RUNDUNGEN
100
AcDbLine
 62
7
  6
CONTINUOUS
 10
58.5959237927
 20
29.1298812084
 11
61.7395624095
 21
34.5748230135
  0
LINE
  5
35A
100
AcDbEntity
  8
0
100
AcDbLine
 62
7
  6
CONTINUOUS
 10
169.1521337231
 20
166.7500246434
 11
168.9877151746
 21
166.6152328164
  0
LINE
  5
35B
100
AcDbEntity
  8
0
100
AcDbLine
 62
7
  6
CONTINUOUS
 10
169.2403344704
 20
165.2316733425
 11
169.4047529992
 21
165.3664650268
  0
LINE
  5
35C
100
AcDbEntity
  8
0
100
AcDbLine
 62
7
  6
CONTINUOUS
 10
168.3449889571
 20
167.703786947
 11
168.2109496692
 21
167.5976593654
  0
LINE
  5
35D
100
AcDbEntity
  8
0
100
AcDbLine
 62
7
  6
CONTINUOUS
 10
169.1147328429
 20
166.497410601
 11
169.2505015963
 21
166.6013165338
  0
LINE
  5
35E
100
AcDbEntity
  8
0
100
AcDbLine
 62
7
  6
CONTINUOUS
 10
169.2777353309
 20
165.4842872422
 11
169.1419665775
 21
165.3803813094
  0
LINE
  5
35F
100
AcDbEntity
  8
0
100
AcDbLine
 62
7
  6
CONTINUOUS
 10
171.3402257522
 20
164.9082692623
 11
171.2010737542
 21
164.8089398696
  0
LINE
  5
360
100
AcDbEntity
  8
0
100
AcDbLine
 62
7
  6
CONTINUOUS
 10
171.7202484937
 20
163.9382035383
 11
171.859400257
 21
164.0375331636
  0
LINE
  5
361
100
AcDbEntity
  8
0
100
AcDbLine
 62
7
  6
CONTINUOUS
 10
174.1334349186
 20
162.0341214513
 11
173.9896620659
 21
161.9416067302
  0
LINE
  5
362
100
AcDbEntity
  8
0
100
AcDbLine
 62
7
  6
CONTINUOUS
 10
174.4663130728
 20
161.0468844345
 11
174.6100859255
 21
161.1393991557
  0
LINE
  5
363
100
AcDbEntity
  8
RUNDUNGEN
100
AcDbLine
 62
7
  6
CONTINUOUS
 10
189.4322500894
 20
159.9662075052
 11
183.9873665656
 21
156.822602537
  0
LINE
  5
364
100
AcDbEntity
  8
RUNDUNGEN
100
AcDbLine
 62
7
  6
CONTINUOUS
 10
27.715350357
 20
66.5989119122
 11
33.1602943837
 21
69.7425518117
  0
LINE
  5
365
100
AcDbEntity
  8
RUNDUNGEN
100
AcDbLine
 62
7
  6
CONTINUOUS
 10
58.0199225856
 20
95.4883310746
 11
56.6668751622
 21
95.4883310746
  0
LINE
  5
366
100
AcDbEntity
  8
RUNDUNGEN
100
AcDbLine
 62
7
  6
CONTINUOUS
 10
168.127677885
 20
95.4883310746
 11
169.4807252843
 21
95.4883310746
  0
LINE
  5
367
100
AcDbEntity
  8
RUNDUNGEN
100
AcDbLine
 62
7
  6
CONTINUOUS
 10
19.7065046302
 20
96.4883310746
 11
25.9937303943
 21
96.4883310746
  0
LINE
  5
368
100
AcDbEntity
  8
RUNDUNGEN
100
AcDbLine
 62
7
  6
CONTINUOUS
 10
200.1538165822
 20
96.4883310746
 11
206.4410958162
 21
96.4883310746
  0
LWPOLYLINE
  5
369
100
AcDbEntity
  8
RUNDUNGEN
100
AcDbPolyline
 62
7
  6
CONTINUOUS
 90
9
 70
0
 10
57.9945322396
 20
95.4883241914
 10
58.8335395334
 20
95.4431527346
 10
59.6632052458
 20
95.3102278569
 10
60.4743752418
 20
95.0910085839
 10
61.2580987318
 20
94.7879061551
 10
62.0057265861
 20
94.4042575917
 10
62.7090063718
 20
93.9442892815
 10
63.3601739309
 20
93.4130704027
 10
63.641391923
 20
93.1451854371
  0
LINE
  5
36A
100
AcDbEntity
  8
RUNDUNGEN
100
AcDbLine
 62
7
  6
CONTINUOUS
 10
27.715350357
 20
144.3777502371
 11
33.1602495975
 21
141.2341361949
  0
LINE
  5
36B
100
AcDbEntity
  8
RUNDUNGEN
100
AcDbLine
 62
7
  6
CONTINUOUS
 10
183.9873078366
 20
54.1540935195
 11
189.4322500894
 21
51.0104546441
  0
LINE
  5
36C
100
AcDbEntity
  8
RUNDUNGEN
100
AcDbLine
 62
7
  6
CONTINUOUS
 10
58.5959237927
 20
181.8467809408
 11
61.7395358347
 21
176.4018851647
  0
LINE
  5
36D
100
AcDbEntity
  8
RUNDUNGEN
100
AcDbLine
 62
7
  6
CONTINUOUS
 10
148.8195792062
 20
25.5748257199
 11
151.9632193857
 21
20.1298812084
  0
LINE
  5
36E
100
AcDbEntity
  8
RUNDUNGEN
100
AcDbLine
 62
7
  6
CONTINUOUS
 10
110.8238002232
 20
19.6210354816
 11
110.8238002232
 21
20.6210176245
  0
LINE
  5
36F
100
AcDbEntity
  8
RUNDUNGEN
100
AcDbLine
 62
7
  6
CONTINUOUS
 10
110.8238002232
 20
190.355616162
 11
110.8238002232
 21
191.3556266676
  0
LINE
  5
370
100
AcDbEntity
  8
02___PRT_ALL_AXES
100
AcDbLine
 62
7
  6
CENTER
 10
113.0738002232
 20
105.4883310746
 11
113.0738002232
 21
4.8289919483
  0
LINE
  5
371
100
AcDbEntity
  8
02___PRT_ALL_AXES
100
AcDbLine
 62
7
  6
CENTER
 10
113.0738002232
 20
105.4883310746
 11
113.0738002232
 21
206.1476702009
  0
LINE
  5
372
100
AcDbEntity
  8
0
100
AcDbLine
 62
7
  6
CONTINUOUS
 10
127.877336453
 20
187.6819207791
 11
127.5142536342
 21
185.7354956286
  0
LINE
  5
373
100
AcDbEntity
  8
0
100
AcDbLine
 62
7
  6
CONTINUOUS
 10
127.7309168329
 20
185.9522056878
 11
128.0476486537
 21
187.6501510325
  0
LINE
  5
374
100
AcDbEntity
  8
0
100
AcDbLine
 62
7
  6
CONTINUOUS
 10
128.5361268383
 20
185.5448771487
 11
128.5824778363
 21
185.7933569546
  0
LINE
  5
375
100
AcDbEntity
  8
0
100
AcDbLine
 62
7
  6
CONTINUOUS
 10
129.1493708937
 20
186.9699237038
 11
129.1158635513
 21
186.8047779311
  0
LINE
  5
376
100
AcDbEntity
  8
0
100
AcDbLine
 62
7
  6
CONTINUOUS
 10
129.2940306989
 20
186.8116146454
 11
129.3107843584
 21
186.8941874739
  0
LINE
  5
377
100
AcDbEntity
  8
0
100
AcDbLine
 62
7
  6
CONTINUOUS
 10
129.7658126017
 20
185.9421434933
 11
129.7406821125
 21
185.8182842506
  0
LINE
  5
378
100
AcDbEntity
  8
0
100
AcDbLine
 62
7
  6
CONTINUOUS
 10
129.9020956816
 20
185.74254812
 11
129.9439798303
 21
185.9489801912
  0
LINE
  5
379
100
AcDbEntity
  8
0
100
AcDbLine
 62
7
  6
CONTINUOUS
 10
131.8462077855
 20
186.86724473
 11
131.5933689258
 21
185.8015071819
  0
LINE
  5
37A
100
AcDbEntity
  8
0
100
AcDbLine
 62
7
  6
CONTINUOUS
 10
131.7824673881
 20
185.9731298217
 11
131.938060543
 21
186.6289683571
  0
LINE
  5
37B
100
AcDbEntity
  8
0
100
AcDbLine
 62
7
  6
CONTINUOUS
 10
132.4156960631
 20
185.3899307557
 11
132.3962469221
 21
185.3079509531
  0
LINE
  5
37C
100
AcDbEntity
  8
0
100
AcDbLine
 62
7
  6
CONTINUOUS
 10
132.7528204309
 20
186.4356722109
 11
132.8014432833
 21
186.6406217173
  0
LINE
  5
37D
100
AcDbEntity
  8
0
100
AcDbLine
 62
7
  6
CONTINUOUS
 10
132.5269982831
 20
185.233634109
 11
132.565896565
 21
185.3975937142
  0
LINE
  5
37E
100
AcDbEntity
  8
0
100
AcDbLine
 62
7
  6
CONTINUOUS
 10
132.915074228
 20
185.7890236357
 11
132.8218154724
 21
185.4215230425
  0
LINE
  5
37F
100
AcDbEntity
  8
0
100
AcDbLine
 62
7
  6
CONTINUOUS
 10
132.9721171418
 20
185.4268446851
 11
133.0446517295
 21
185.7126784799
  0
LINE
  5
380
100
AcDbEntity
  8
0
100
AcDbLine
 62
7
  6
CONTINUOUS
 10
133.7723368051
 20
185.5280175408
 11
133.6998022174
 21
185.2421837461
  0
LINE
  5
381
100
AcDbEntity
  8
0
100
AcDbLine
 62
7
  6
CONTINUOUS
 10
133.8293800392
 20
185.165838509
 11
133.9226387948
 21
185.5333391022
  0
LINE
  5
382
100
AcDbEntity
  8
0
100
AcDbLine
 62
7
  6
CONTINUOUS
 10
134.0945018537
 20
185.2256774697
 11
134.0402136652
 21
185.0221552365
  0
LINE
  5
383
100
AcDbEntity
  8
0
100
AcDbLine
 62
7
  6
CONTINUOUS
 10
134.4308064753
 20
184.9179672282
 11
134.4850946639
 21
185.1214894613
  0
LINE
  5
384
100
AcDbEntity
  8
0
100
AcDbLine
 62
7
  6
CONTINUOUS
 10
134.9148649869
 20
185.7908208231
 11
134.825736697
 21
185.4657984527
  0
LINE
  5
385
100
AcDbEntity
  8
0
100
AcDbLine
 62
7
  6
CONTINUOUS
 10
135.0708057283
 20
185.70437554
 11
134.6363054044
 21
184.1198918115
  0
LINE
  5
386
100
AcDbEntity
  8
0
100
AcDbLine
 62
7
  6
CONTINUOUS
 10
134.8033871781
 20
184.0740743105
 11
135.3270157607
 21
185.9835802957
  0
LINE
  5
387
100
AcDbEntity
  8
0
100
AcDbLine
 62
7
  6
CONTINUOUS
 10
135.0843524786
 20
184.2161064858
 11
135.0263488364
 21
184.013611864
  0
LINE
  5
388
100
AcDbEntity
  8
0
100
AcDbLine
 62
7
  6
CONTINUOUS
 10
136.2767341815
 20
185.2330331906
 11
136.2535326954
 21
185.1520352397
  0
LINE
  5
389
100
AcDbEntity
  8
0
100
AcDbLine
 62
7
  6
CONTINUOUS
 10
136.0256597744
 20
183.7273638959
 11
136.0836634166
 21
183.9298585177
  0
LINE
  5
38A
100
AcDbEntity
  8
0
100
AcDbLine
 62
7
  6
CONTINUOUS
 10
136.4200845183
 20
185.104327245
 11
136.4432860045
 21
185.1853251959
  0
LINE
  5
38B
100
AcDbEntity
  8
0
100
AcDbLine
 62
7
  6
CONTINUOUS
 10
138.1203357025
 20
184.6738409256
 11
138.068651885
 21
184.5134518635
  0
LINE
  5
38C
100
AcDbEntity
  8
0
100
AcDbLine
 62
7
  6
CONTINUOUS
 10
138.246472739
 20
184.500411707
 11
138.2723146296
 21
184.5806061818
  0
LINE
  5
38D
100
AcDbEntity
  8
0
100
AcDbLine
 62
7
  6
CONTINUOUS
 10
138.618528913
 20
183.5838241981
 11
138.579766077
 21
183.4635324858
  0
LINE
  5
38E
100
AcDbEntity
  8
0
100
AcDbLine
 62
7
  6
CONTINUOUS
 10
138.7317450403
 20
183.3702978544
 11
138.796349767
 21
183.5707840416
  0
LINE
  5
38F
100
AcDbEntity
  8
0
100
AcDbLine
 62
7
  6
CONTINUOUS
 10
139.1747823018
 20
183.9335271968
 11
139.0799237255
 21
183.6543067192
  0
LINE
  5
390
100
AcDbEntity
  8
0
100
AcDbLine
 62
7
  6
CONTINUOUS
 10
139.2843807255
 20
183.8073090174
 11
139.3114831759
 21
183.8870862967
  0
LINE
  5
391
100
AcDbEntity
  8
0
100
AcDbLine
 62
7
  6
CONTINUOUS
 10
139.1626584055
 20
183.3592454051
 11
139.2033120811
 21
183.4789113241
  0
LINE
  5
392
100
AcDbEntity
  8
0
100
AcDbLine
 62
7
  6
CONTINUOUS
 10
139.8868202063
 20
183.2467055482
 11
139.8461665307
 21
183.1270396293
  0
LINE
  5
393
100
AcDbEntity
  8
0
100
AcDbLine
 62
7
  6
CONTINUOUS
 10
139.9693174312
 20
183.0407096644
 11
140.0370735761
 21
183.2401529185
  0
LINE
  5
394
100
AcDbEntity
  8
0
100
AcDbLine
 62
7
  6
CONTINUOUS
 10
140.0805277689
 20
182.6433618248
 11
140.0107621144
 21
182.4446126164
  0
LINE
  5
395
100
AcDbEntity
  8
0
100
AcDbLine
 62
7
  6
CONTINUOUS
 10
140.1469885472
 20
182.3967939291
 11
140.2167542017
 21
182.5955431375
  0
LINE
  5
396
100
AcDbEntity
  8
0
100
AcDbLine
 62
7
  6
CONTINUOUS
 10
140.9322317019
 20
183.9066310139
 11
140.8187503539
 21
183.5892899087
  0
LINE
  5
397
100
AcDbEntity
  8
0
100
AcDbLine
 62
7
  6
CONTINUOUS
 10
141.0811796626
 20
183.8086268977
 11
140.5279582055
 21
182.2615893296
  0
LINE
  5
398
100
AcDbEntity
  8
0
100
AcDbLine
 62
7
  6
CONTINUOUS
 10
140.6910913296
 20
182.2032528376
 11
141.357794095
 21
184.0676313997
  0
LINE
  5
399
100
AcDbEntity
  8
RUNDUNGEN
100
AcDbLine
 62
7
  6
CONTINUOUS
 10
68.1915952682
 20
32.2500717368
 11
68.6915896842
 21
33.1160874688
  0
LINE
  5
39A
100
AcDbEntity
  8
RUNDUNGEN
100
AcDbLine
 62
7
  6
CONTINUOUS
 10
153.5588929541
 20
180.1105686336
 11
154.0588908612
 21
180.9765904124
  0
LINE
  5
39B
100
AcDbEntity
  8
0
100
AcDbLine
 62
7
  6
CONTINUOUS
 10
168.2109496692
 20
167.5976593654
 11
168.0984004089
 21
167.4722459202
  0
LINE
  5
39C
100
AcDbEntity
  8
0
100
AcDbLine
 62
7
  6
CONTINUOUS
 10
168.2554783277
 20
167.3878846186
 11
168.3117529184
 21
167.4505912973
  0
LINE
  5
39D
100
AcDbEntity
  8
0
100
AcDbLine
 62
7
  6
CONTINUOUS
 10
168.2217892372
 20
166.399237468
 11
168.1373773511
 21
166.30517745
  0
LINE
  5
39E
100
AcDbEntity
  8
0
100
AcDbLine
 62
7
  6
CONTINUOUS
 10
168.2381806791
 20
166.1581094697
 11
168.3788671559
 21
166.3148761664
  0
LINE
  5
39F
100
AcDbEntity
  8
0
100
AcDbLine
 62
7
  6
CONTINUOUS
 10
168.9877151746
 20
166.6152328164
 11
168.5579685035
 21
166.1519465002
  0
LINE
  5
3A0
100
AcDbEntity
  8
0
100
AcDbLine
 62
7
  6
CONTINUOUS
 10
168.6849861718
 20
166.0341242848
 11
169.1147328429
 21
166.497410601
  0
LINE
  5
3A1
100
AcDbEntity
  8
0
100
AcDbLine
 62
7
  6
CONTINUOUS
 10
169.7074820021
 20
165.9475735584
 11
169.2777353309
 21
165.4842872422
  0
LINE
  5
3A2
100
AcDbEntity
  8
0
100
AcDbLine
 62
7
  6
CONTINUOUS
 10
169.4047529992
 20
165.3664650268
 11
169.8344996704
 21
165.829751343
  0
LINE
  5
3A3
100
AcDbEntity
  8
0
100
AcDbLine
 62
7
  6
CONTINUOUS
 10
170.2610508978
 20
163.9019030598
 11
170.1127414423
 21
163.7523276614
  0
LINE
  5
3A4
100
AcDbEntity
  8
0
100
AcDbLine
 62
7
  6
CONTINUOUS
 10
171.7956983515
 20
164.219347923
 11
171.7363744945
 21
164.1595176883
  0
LINE
  5
3A5
100
AcDbEntity
  8
0
100
AcDbLine
 62
7
  6
CONTINUOUS
 10
170.8508960176
 20
163.0204205137
 11
170.9992054732
 21
163.169995912
  0
LINE
  5
3A6
100
AcDbEntity
  8
0
100
AcDbLine
 62
7
  6
CONTINUOUS
 10
171.859400257
 20
164.0375331636
 11
171.918724114
 21
164.0973633984
  0
LINE
  5
3A7
100
AcDbEntity
  8
0
100
AcDbLine
 62
7
  6
CONTINUOUS
 10
173.1992798704
 20
163.0248296387
 11
172.9553004938
 21
162.7923270427
  0
LINE
  5
3A8
100
AcDbEntity
  8
0
100
AcDbLine
 62
7
  6
CONTINUOUS
 10
173.2883032972
 20
162.870346205
 11
172.0989040818
 21
161.7368962837
  0
LINE
  5
3A9
100
AcDbEntity
  8
0
100
AcDbLine
 62
7
  6
CONTINUOUS
 10
172.21842492
 20
161.6114756644
 11
173.6518034265
 21
162.9774281003
  0
LINE
  5
3AA
100
AcDbEntity
  8
0
100
AcDbLine
 62
7
  6
CONTINUOUS
 10
173.0070601646
 20
161.0808789978
 11
172.8517213756
 21
160.9386174252
  0
LINE
  5
3AB
100
AcDbEntity
  8
0
100
AcDbLine
 62
7
  6
CONTINUOUS
 10
174.5552113784
 20
161.3240700077
 11
174.4930757845
 21
161.2671653069
  0
LINE
  5
3AC
100
AcDbEntity
  8
0
100
AcDbLine
 62
7
  6
CONTINUOUS
 10
173.5537822217
 20
160.1720205178
 11
173.7091210107
 21
160.3142820904
  0
LINE
  5
3AD
100
AcDbEntity
  8
0
100
AcDbLine
 62
7
  6
CONTINUOUS
 10
174.6100859255
 20
161.1393991557
 11
174.6722215194
 21
161.1963038565
  0
LINE
  5
3AE
100
AcDbEntity
  8
RUNDUNGEN
100
AcDbLine
 62
7
  6
CONTINUOUS
 10
37.5855408854
 20
64.5032404366
 11
38.4515508316
 21
65.0032315122
  0
LINE
  5
3AF
100
AcDbEntity
  8
RUNDUNGEN
100
AcDbLine
 62
7
  6
CONTINUOUS
 10
185.4460378182
 20
149.8705381433
 11
186.312059561
 21
150.3705360296
  0
LINE
  5
3B0
100
AcDbEntity
  8
RUNDUNGEN
100
AcDbLine
 62
7
  6
CONTINUOUS
 10
27.2065046302
 20
103.2383310746
 11
28.2065004237
 21
103.2383310746
  0
LINE
  5
3B1
100
AcDbEntity
  8
RUNDUNGEN
100
AcDbLine
 62
7
  6
CONTINUOUS
 10
197.9411136733
 20
103.2383310746
 11
198.9410958162
 21
103.2383310746
  0
LINE
  5
3B2
100
AcDbEntity
  8
02___PRT_ALL_AXES
100
AcDbLine
 62
7
  6
CENTER
 10
113.0738002232
 20
105.4883310746
 11
12.4144610969
 21
105.4883310746
  0
LINE
  5
3B3
100
AcDbEntity
  8
02___PRT_ALL_AXES
100
AcDbLine
 62
7
  6
CENTER
 10
113.0738002232
 20
105.4883310746
 11
213.7331393495
 21
105.4883310746
  0
LINE
  5
3B4
100
AcDbEntity
  8
RUNDUNGEN
100
AcDbLine
 62
7
  6
CONTINUOUS
 10
38.4515626642
 20
145.9734238055
 11
37.5855408854
 21
146.4734217126
  0
LINE
  5
3B5
100
AcDbEntity
  8
RUNDUNGEN
100
AcDbLine
 62
7
  6
CONTINUOUS
 10
185.4460475127
 20
61.1061184088
 11
186.312059561
 21
60.6061261196
  0
LINE
  5
3B6
100
AcDbEntity
  8
RUNDUNGEN
100
AcDbLine
 62
7
  6
CONTINUOUS
 10
153.5588997857
 20
30.866081683
 11
154.0588908612
 21
30.0000717368
  0
LINE
  5
3B7
100
AcDbEntity
  8
RUNDUNGEN
100
AcDbLine
 62
7
  6
CONTINUOUS
 10
68.691605994
 20
177.860546431
 11
68.1915952682
 21
178.7265904124
  0
LINE
  5
3B8
100
AcDbEntity
  8
0
100
AcDbLine
 62
7
  6
CONTINUOUS
 10
86.3691080524
 20
185.1615423651
 11
87.2911421259
 21
182.3067475972
  0
LINE
  5
3B9
100
AcDbEntity
  8
0
100
AcDbLine
 62
7
  6
CONTINUOUS
 10
87.5766216027
 20
182.3989510045
 11
87.1646489257
 21
183.6744976211
  0
LINE
  5
3BA
100
AcDbEntity
  8
0
100
AcDbLine
 62
7
  6
CONTINUOUS
 10
87.0469424623
 20
184.0389394629
 11
86.7526762487
 21
184.9500442376
  0
LINE
  5
3BB
100
AcDbEntity
  8
0
100
AcDbLine
 62
7
  6
CONTINUOUS
 10
88.0598804868
 20
184.9697832451
 11
88.1187337734
 21
184.787562154
  0
LINE
  5
3BC
100
AcDbEntity
  8
0
100
AcDbLine
 62
7
  6
CONTINUOUS
 10
88.4238309941
 20
184.8190252544
 11
88.3453599635
 21
185.0619866525
  0
LINE
  5
3BD
100
AcDbEntity
  8
0
100
AcDbLine
 62
7
  6
CONTINUOUS
 10
88.8501112681
 20
184.9461172916
 11
89.4351515397
 21
182.9891422901
  0
LINE
  5
3BE
100
AcDbEntity
  8
0
100
AcDbLine
 62
7
  6
CONTINUOUS
 10
89.674677042
 20
183.0607487566
 11
89.3090268531
 21
184.2838581968
  0
LINE
  5
3BF
100
AcDbEntity
  8
0
100
AcDbLine
 62
7
  6
CONTINUOUS
 10
89.1993318118
 20
184.6507909774
 11
89.0896367705
 21
185.0177237581
  0
LINE
  5
3C0
100
AcDbEntity
  8
0
100
AcDbLine
 62
7
  6
CONTINUOUS
 10
89.8038159399
 20
184.8981233521
 11
89.7124034055
 21
185.2039006694
  0
LINE
  5
3C1
100
AcDbEntity
  8
0
100
AcDbLine
 62
7
  6
CONTINUOUS
 10
90.3742785938
 20
184.4682939512
 11
90.4424122918
 21
184.2222335986
  0
LINE
  5
3C2
100
AcDbEntity
  8
0
100
AcDbLine
 62
7
  6
CONTINUOUS
 10
90.6833465153
 20
184.2889478801
 11
90.6152128172
 21
184.5350082327
  0
LINE
  5
3C3
100
AcDbEntity
  8
0
100
AcDbLine
 62
7
  6
CONTINUOUS
 10
91.6753226834
 20
184.8285508727
 11
91.7434563814
 21
184.5824905201
  0
LINE
  5
3C4
100
AcDbEntity
  8
0
100
AcDbLine
 62
7
  6
CONTINUOUS
 10
91.9843900534
 20
184.6492046489
 11
91.9162563553
 21
184.8952650015
  0
LINE
  5
3C5
100
AcDbEntity
  8
0
100
AcDbLine
 62
7
  6
CONTINUOUS
 10
91.8574717285
 20
186.7901673795
 11
92.6106573537
 21
183.8862542586
  0
LINE
  5
3C6
100
AcDbEntity
  8
0
100
AcDbLine
 62
7
  6
CONTINUOUS
 10
92.8526502984
 20
183.9490197752
 11
92.0994646732
 21
186.8529328962
  0
LINE
  5
3C7
100
AcDbEntity
  8
0
100
AcDbLine
 62
7
  6
CONTINUOUS
 10
92.5103726394
 20
186.9577524998
 11
92.5880179138
 21
186.6481927632
  0
LINE
  5
3C8
100
AcDbEntity
  8
0
100
AcDbLine
 62
7
  6
CONTINUOUS
 10
92.7433085062
 20
186.0290731165
 11
93.240238306
 21
184.0478906287
  0
LINE
  5
3C9
100
AcDbEntity
  8
0
100
AcDbLine
 62
7
  6
CONTINUOUS
 10
93.4827269803
 20
184.108712814
 11
92.9857971805
 21
186.0898953018
  0
LINE
  5
3CA
100
AcDbEntity
  8
0
100
AcDbLine
 62
7
  6
CONTINUOUS
 10
92.8305065881
 20
186.7090149485
 11
92.7528613137
 21
187.0185746851
  0
LINE
  5
3CB
100
AcDbEntity
  8
0
100
AcDbLine
 62
7
  6
CONTINUOUS
 10
93.403498438
 20
186.1957881318
 11
93.8704192889
 21
184.2073193252
  0
LINE
  5
3CC
100
AcDbEntity
  8
0
100
AcDbLine
 62
7
  6
CONTINUOUS
 10
94.1137992219
 20
184.2644684064
 11
93.7781998488
 21
185.6936804101
  0
LINE
  5
3CD
100
AcDbEntity
  8
0
100
AcDbLine
 62
7
  6
CONTINUOUS
 10
93.7198347475
 20
185.9422389892
 11
93.646878371
 21
186.252937213
  0
LINE
  5
3CE
100
AcDbEntity
  8
0
100
AcDbLine
 62
7
  6
CONTINUOUS
 10
94.7127340457
 20
185.6508588375
 11
94.9899683175
 21
184.4702054129
  0
LINE
  5
3CF
100
AcDbEntity
  8
0
100
AcDbLine
 62
7
  6
CONTINUOUS
 10
95.2333488075
 20
184.5273546249
 11
94.9561145357
 21
185.7080080496
  0
LINE
  5
3D0
100
AcDbEntity
  8
0
100
AcDbLine
 62
7
  6
CONTINUOUS
 10
95.0030529896
 20
187.5495499945
 11
95.6237972836
 21
184.6144730753
  0
LINE
  5
3D1
100
AcDbEntity
  8
0
100
AcDbLine
 62
7
  6
CONTINUOUS
 10
95.8683866537
 20
184.6662016875
 11
95.723106073
 21
185.3531345891
  0
LINE
  5
3D2
100
AcDbEntity
  8
0
100
AcDbLine
 62
7
  6
CONTINUOUS
 10
95.64386213
 20
185.7278252149
 11
95.2476423597
 21
187.6012786067
  0
LINE
  5
3D3
100
AcDbEntity
  8
RUNDUNGEN
100
AcDbLine
 62
7
  6
CONTINUOUS
 10
115.3238002232
 20
19.6210354816
 11
115.3238002232
 21
20.6210312751
  0
LINE
  5
3D4
100
AcDbEntity
  8
RUNDUNGEN
100
AcDbLine
 62
7
  6
CONTINUOUS
 10
115.3238002232
 20
190.3556426577
 11
115.3238002232
 21
191.3556266676
  0
LINE
  5
3D5
100
AcDbEntity
  8
RUNDUNGEN
100
AcDbLine
 62
7
  6
CONTINUOUS
 10
122.0738002232
 20
12.1210354816
 11
122.0738002232
 21
18.4082466546
  0
LINE
  5
3D6
100
AcDbEntity
  8
RUNDUNGEN
100
AcDbLine
 62
7
  6
CONTINUOUS
 10
122.0738002232
 20
192.5683806798
 11
122.0738002232
 21
198.8556266676
  0
LINE
  5
3D7
100
AcDbEntity
  8
RUNDUNGEN
100
AcDbLine
 62
7
  6
CONTINUOUS
 10
123.0738002232
 20
50.434453437
 11
123.0738002232
 21
49.0814060136
  0
LINE
  5
3D8
100
AcDbEntity
  8
RUNDUNGEN
100
AcDbLine
 62
7
  6
CONTINUOUS
 10
123.0738002232
 20
160.5422087364
 11
123.0738002232
 21
161.8952561357
  0
LINE
  5
3D9
100
AcDbEntity
  8
0
100
AcDbLine
 62
7
  6
CONTINUOUS
 10
132.9379324125
 20
185.1747419137
 11
132.9721171418
 21
185.4268446851
  0
LINE
  5
3DA
100
AcDbEntity
  8
0
100
AcDbLine
 62
7
  6
CONTINUOUS
 10
133.8065218402
 20
185.7801201738
 11
133.7723368051
 21
185.5280175408
  0
LINE
  5
3DB
100
AcDbEntity
  8
0
100
AcDbLine
 62
7
  6
CONTINUOUS
 10
139.0799237255
 20
183.6543067192
 11
139.0124050547
 21
183.3657980907
  0
LINE
  5
3DC
100
AcDbEntity
  8
RUNDUNGEN
100
AcDbLine
 62
7
  6
CONTINUOUS
 10
72.0887095852
 20
30.0000717368
 11
72.5887048078
 21
30.8660888659
  0
LINE
  5
3DD
100
AcDbEntity
  8
RUNDUNGEN
100
AcDbLine
 62
7
  6
CONTINUOUS
 10
157.4560141109
 20
177.8605804805
 11
157.9560051782
 21
178.7265904124
  0
LINE
  5
3DE
100
AcDbEntity
  8
RUNDUNGEN
100
AcDbLine
 62
7
  6
CONTINUOUS
 10
74.1843810608
 20
20.1298812084
 11
77.3279872939
 21
25.5747669232
  0
LINE
  5
3DF
100
AcDbEntity
  8
RUNDUNGEN
100
AcDbLine
 62
7
  6
CONTINUOUS
 10
164.4080376904
 20
176.4018385356
 11
167.5516766538
 21
181.8467809408
  0
LINE
  5
3E0
100
AcDbEntity
  8
RUNDUNGEN
100
AcDbLine
 62
7
  6
CONTINUOUS
 10
39.8355408854
 20
60.6061261196
 11
40.7015626282
 21
61.1061240059
  0
LINE
  5
3E1
100
AcDbEntity
  8
RUNDUNGEN
100
AcDbLine
 62
7
  6
CONTINUOUS
 10
187.6960496148
 20
145.9734306371
 11
188.562059561
 21
146.4734217126
  0
LINE
  5
3E2
100
AcDbEntity
  8
RUNDUNGEN
100
AcDbLine
 62
7
  6
CONTINUOUS
 10
36.715350357
 20
51.0104546441
 11
42.1602458526
 21
54.1540665241
  0
LINE
  5
3E3
100
AcDbEntity
  8
RUNDUNGEN
100
AcDbLine
 62
7
  6
CONTINUOUS
 10
192.98730542
 20
141.2341099664
 11
198.4322500894
 21
144.3777502371
  0
LINE
  5
3E4
100
AcDbEntity
  8
RUNDUNGEN
100
AcDbLine
 62
7
  6
CONTINUOUS
 10
27.2065046302
 20
107.7383310746
 11
28.2064867731
 21
107.7383310746
  0
LINE
  5
3E5
100
AcDbEntity
  8
RUNDUNGEN
100
AcDbLine
 62
7
  6
CONTINUOUS
 10
197.9411000227
 20
107.7383310746
 11
198.9410958162
 21
107.7383310746
  0
LINE
  5
3E6
100
AcDbEntity
  8
RUNDUNGEN
100
AcDbLine
 62
7
  6
CONTINUOUS
 10
206.4410958162
 20
114.4883310746
 11
200.1538846221
 21
114.4883310746
  0
LINE
  5
3E7
100
AcDbEntity
  8
RUNDUNGEN
100
AcDbLine
 62
7
  6
CONTINUOUS
 10
19.7065046302
 20
114.4883310746
 11
25.9937831467
 21
114.4883310746
  0
LINE
  5
3E8
100
AcDbEntity
  8
RUNDUNGEN
100
AcDbLine
 62
7
  6
CONTINUOUS
 10
58.0199225614
 20
115.4883310746
 11
56.6668751622
 21
115.4883310746
  0
LINE
  5
3E9
100
AcDbEntity
  8
RUNDUNGEN
100
AcDbLine
 62
7
  6
CONTINUOUS
 10
168.1276778608
 20
115.4883310746
 11
169.4807252843
 21
115.4883310746
  0
LINE
  5
3EA
100
AcDbEntity
  8
RUNDUNGEN
100
AcDbLine
 62
7
  6
CONTINUOUS
 10
40.7015508173
 20
149.8705449623
 11
39.8355408854
 21
150.3705360296
  0
LINE
  5
3EB
100
AcDbEntity
  8
RUNDUNGEN
100
AcDbLine
 62
7
  6
CONTINUOUS
 10
187.6960353303
 20
65.0032397594
 11
188.562059561
 21
64.5032404366
  0
LINE
  5
3EC
100
AcDbEntity
  8
RUNDUNGEN
100
AcDbLine
 62
7
  6
CONTINUOUS
 10
198.4322500894
 20
66.5989119122
 11
192.9873644058
 21
69.7425181273
  0
LINE
  5
3ED
100
AcDbEntity
  8
RUNDUNGEN
100
AcDbLine
 62
7
  6
CONTINUOUS
 10
42.1602921846
 20
156.8225688753
 11
36.715350357
 21
159.9662075052
  0
LINE
  5
3EE
100
AcDbEntity
  8
RUNDUNGEN
100
AcDbLine
 62
7
  6
CONTINUOUS
 10
157.4560072919
 20
33.1160934796
 11
157.9560051782
 21
32.2500717368
  0
LINE
  5
3EF
100
AcDbEntity
  8
RUNDUNGEN
100
AcDbLine
 62
7
  6
CONTINUOUS
 10
72.588698126
 20
180.1105848566
 11
72.0887095852
 21
180.9765904124
  0
LINE
  5
3F0
100
AcDbEntity
  8
RUNDUNGEN
100
AcDbLine
 62
7
  6
CONTINUOUS
 10
167.5516766538
 20
29.1298812084
 11
164.408071696
 21
34.5747647143
  0
LINE
  5
3F1
100
AcDbEntity
  8
RUNDUNGEN
100
AcDbLine
 62
7
  6
CONTINUOUS
 10
77.3279924211
 20
185.4018863454
 11
74.1843810608
 21
190.8467809408
  0
LINE
  5
3F2
100
AcDbEntity
  8
0
100
AcDbLine
 62
7
  6
CONTINUOUS
 10
129.0447668577
 20
185.8735102876
 11
129.0415988931
 21
186.0031111607
  0
LINE
  5
3F3
100
AcDbEntity
  8
0
100
AcDbLine
 62
7
  6
CONTINUOUS
 10
129.2971986635
 20
186.6820137723
 11
129.2940306989
 21
186.8116146454
  0
LINE
  5
3F4
100
AcDbEntity
  8
0
100
AcDbLine
 62
7
  6
CONTINUOUS
 10
130.0266212608
 20
186.7919335079
 11
130.0234532962
 21
186.921534381
  0
LINE
  5
3F5
100
AcDbEntity
  8
0
100
AcDbLine
 62
7
  6
CONTINUOUS
 10
132.4167747305
 20
185.519565875
 11
132.4156960631
 21
185.3899307557
  0
LINE
  5
3F6
100
AcDbEntity
  8
0
100
AcDbLine
 62
7
  6
CONTINUOUS
 10
132.7979931473
 20
185.2102535889
 11
132.7948946844
 21
185.0806510724
  0
LINE
  5
3F7
100
AcDbEntity
  8
0
100
AcDbLine
 62
7
  6
CONTINUOUS
 10
133.9464611054
 20
185.7446084985
 11
133.949559277
 21
185.8742112107
  0
LINE
  5
3F8
100
AcDbEntity
  8
0
100
AcDbLine
 62
7
  6
CONTINUOUS
 10
128.8718085752
 20
186.0375608607
 11
128.8665996291
 21
185.8666735898
  0
LINE
  5
3F9
100
AcDbEntity
  8
0
100
AcDbLine
 62
7
  6
CONTINUOUS
 10
129.1158635513
 20
186.8047779311
 11
129.1106546052
 21
186.6338906602
  0
LWPOLYLINE
  5
3FA
100
AcDbEntity
  8
RUNDUNGEN
100
AcDbPolyline
 62
7
  6
CONTINUOUS
 90
9
 70
0
 10
123.0738071064
 20
50.409063091
 10
123.1189785632
 20
51.2480703848
 10
123.2519034409
 20
52.0777360972
 10
123.4711227139
 20
52.8889060932
 10
123.7742251427
 20
53.6726295832
 10
124.1578737061
 20
54.4202574375
 10
124.6178420164
 20
55.1235372232
 10
125.1490608951
 20
55.7747047823
 10
125.4169458607
 20
56.0559227744
  0
LINE
  5
3FB
100
AcDbEntity
  8
0
100
AcDbLine
 62
7
  6
CONTINUOUS
 10
137.8943245519
 20
183.5958875868
 11
137.9056038601
 21
183.7250355991
  0
LINE
  5
3FC
100
AcDbEntity
  8
0
100
AcDbLine
 62
7
  6
CONTINUOUS
 10
138.2351934308
 20
184.3712636948
 11
138.246472739
 21
184.500411707
  0
LINE
  5
3FD
100
AcDbEntity
  8
0
100
AcDbLine
 62
7
  6
CONTINUOUS
 10
138.9723187734
 20
184.3992976558
 11
138.9835987106
 21
184.5284454653
  0
LINE
  5
3FE
100
AcDbEntity
  8
0
100
AcDbLine
 62
7
  6
CONTINUOUS
 10
139.1493446545
 20
183.2302913912
 11
139.1626584055
 21
183.3592454051
  0
LINE
  5
3FF
100
AcDbEntity
  8
0
100
AcDbLine
 62
7
  6
CONTINUOUS
 10
139.9001339763
 20
183.3756596181
 11
139.8868202063
 21
183.2467055482
  0
LINE
  5
400
100
AcDbEntity
  8
0
100
AcDbLine
 62
7
  6
CONTINUOUS
 10
140.2263145668
 20
183.9767251593
 11
140.2396283179
 21
184.1056791733
  0
LINE
  5
401
100
AcDbEntity
  8
0
100
AcDbLine
 62
7
  6
CONTINUOUS
 10
136.4432860045
 20
185.1853251959
 11
136.4619300627
 21
185.3552722638
  0
LINE
  5
402
100
AcDbEntity
  8
0
100
AcDbLine
 62
7
  6
CONTINUOUS
 10
132.8218154724
 20
185.4215230425
 11
132.7979931473
 21
185.2102535889
  0
LINE
  5
403
100
AcDbEntity
  8
0
100
AcDbLine
 62
7
  6
CONTINUOUS
 10
133.9226387948
 20
185.5333391022
 11
133.9464611054
 21
185.7446084985
  0
LINE
  5
404
100
AcDbEntity
  8
0
100
AcDbLine
 62
7
  6
CONTINUOUS
 10
137.7407039515
 20
183.778172993
 11
137.716503698
 21
183.6089277434
  0
LINE
  5
405
100
AcDbEntity
  8
0
100
AcDbLine
 62
7
  6
CONTINUOUS
 10
138.068651885
 20
184.5134518635
 11
138.0444516315
 21
184.3442066139
  0
LINE
  5
406
100
AcDbEntity
  8
0
100
AcDbLine
 62
7
  6
CONTINUOUS
 10
167.5653402821
 20
166.7053293214
 11
167.6282620694
 21
166.8186751083
  0
LINE
  5
407
100
AcDbEntity
  8
0
100
AcDbLine
 62
7
  6
CONTINUOUS
 10
168.1925565404
 20
167.2745388317
 11
168.2554783277
 21
167.3878846186
  0
LINE
  5
408
100
AcDbEntity
  8
0
100
AcDbLine
 62
7
  6
CONTINUOUS
 10
168.8771428697
 20
166.9998004055
 11
168.9400646724
 21
167.1131461786
  0
LINE
  5
409
100
AcDbEntity
  8
0
100
AcDbLine
 62
7
  6
CONTINUOUS
 10
167.499321446
 20
166.9343897493
 11
167.4082623691
 21
166.7896906178
  0
LINE
  5
40A
100
AcDbEntity
  8
0
100
AcDbLine
 62
7
  6
CONTINUOUS
 10
168.0984004089
 20
167.4722459202
 11
168.007341334
 21
167.327546787
  0
LINE
  5
40B
100
AcDbEntity
  8
0
100
AcDbLine
 62
7
  6
CONTINUOUS
 10
168.5915567219
 20
165.8909442053
 11
168.6849861718
 21
166.0341242848
  0
LINE
  5
40C
100
AcDbEntity
  8
0
100
AcDbLine
 62
7
  6
CONTINUOUS
 10
169.8009114519
 20
166.0907536379
 11
169.7074820021
 21
165.9475735584
  0
LINE
  5
40D
100
AcDbEntity
  8
0
100
AcDbLine
 62
7
  6
CONTINUOUS
 10
171.918724114
 20
164.0973633984
 11
172.0168674463
 21
164.2373543768
  0
LINE
  5
40E
100
AcDbEntity
  8
0
100
AcDbLine
 62
7
  6
CONTINUOUS
 10
168.5579685035
 20
166.1519465002
 11
168.4358892176
 21
165.9778807254
  0
LINE
  5
40F
100
AcDbEntity
  8
0
100
AcDbLine
 62
7
  6
CONTINUOUS
 10
169.8344996704
 20
165.829751343
 11
169.9565789759
 21
166.0038172605
  0
LINE
  5
410
100
AcDbEntity
  8
0
100
AcDbLine
 62
7
  6
CONTINUOUS
 10
174.6722215194
 20
161.1963038565
 11
174.7769906942
 21
161.3314076196
  0
LWPOLYLINE
  5
411
100
AcDbEntity
  8
RUNDUNGEN
100
AcDbPolyline
 62
7
  6
CONTINUOUS
 90
9
 70
0
 10
168.1530682069
 20
115.4883379578
 10
167.3140609131
 20
115.5335094147
 10
166.4843952006
 20
115.6664342923
 10
165.6732252046
 20
115.8856535653
 10
164.8895017146
 20
116.1887559941
 10
164.1418738603
 20
116.5724045575
 10
163.4385940746
 20
117.0323728678
 10
162.7874265156
 20
117.5635917465
 10
162.5062085235
 20
117.8314767121
  0
LINE
  5
412
100
AcDbEntity
  8
0
100
AcDbLine
 62
7
  6
CONTINUOUS
 10
90.4424122918
 20
184.2222335986
 11
90.6580200332
 21
183.8183138324
  0
LINE
  5
413
100
AcDbEntity
  8
0
100
AcDbLine
 62
7
  6
CONTINUOUS
 10
90.7996668135
 20
184.0562304089
 11
90.6833465153
 21
184.2889478801
  0
LINE
  5
414
100
AcDbEntity
  8
0
100
AcDbLine
 62
7
  6
CONTINUOUS
 10
91.5590018336
 20
185.0612681912
 11
91.6753226834
 21
184.8285508727
  0
LINE
  5
415
100
AcDbEntity
  8
0
100
AcDbLine
 62
7
  6
CONTINUOUS
 10
91.9162563553
 20
184.8952650015
 11
91.799936057
 21
185.1279824727
  0
LINE
  5
416
100
AcDbEntity
  8
0
100
AcDbLine
 62
7
  6
CONTINUOUS
 10
94.5911017939
 20
185.9501272713
 11
94.7127340457
 21
185.6508588375
  0
LINE
  5
417
100
AcDbEntity
  8
0
100
AcDbLine
 62
7
  6
CONTINUOUS
 10
94.9561145357
 20
185.7080080496
 11
94.834482284
 21
186.0072764833
  0
LINE
  5
418
100
AcDbEntity
  8
0
100
AcDbLine
 62
7
  6
CONTINUOUS
 10
131.5058477779
 20
185.4325980129
 11
131.5231396045
 21
185.255307663
  0
LINE
  5
419
100
AcDbEntity
  8
0
100
AcDbLine
 62
7
  6
CONTINUOUS
 10
131.6917105936
 20
185.2153153621
 11
131.674418767
 21
185.3926057121
  0
LINE
  5
41A
100
AcDbEntity
  8
0
100
AcDbLine
 62
7
  6
CONTINUOUS
 10
132.7948946844
 20
185.0806510724
 11
132.8094222395
 21
184.9031127279
  0
LINE
  5
41B
100
AcDbEntity
  8
0
100
AcDbLine
 62
7
  6
CONTINUOUS
 10
133.949559277
 20
185.8742112107
 11
133.9350320349
 21
186.0517494453
  0
LINE
  5
41C
100
AcDbEntity
  8
0
100
AcDbLine
 62
7
  6
CONTINUOUS
 10
132.565896565
 20
185.3975937142
 11
132.5583289941
 21
185.6158740704
  0
LINE
  5
41D
100
AcDbEntity
  8
0
100
AcDbLine
 62
7
  6
CONTINUOUS
 10
138.796349767
 20
183.5707840416
 11
138.7930665108
 21
183.7488856473
  0
LINE
  5
41E
100
AcDbEntity
  8
0
100
AcDbLine
 62
7
  6
CONTINUOUS
 10
138.8057778567
 20
184.5414856219
 11
138.8074188648
 21
184.4524350498
  0
LINE
  5
41F
100
AcDbEntity
  8
0
100
AcDbLine
 62
7
  6
CONTINUOUS
 10
139.0124050547
 20
183.3657980907
 11
138.9993300199
 21
183.1477782493
  0
LINE
  5
420
100
AcDbEntity
  8
0
100
AcDbLine
 62
7
  6
CONTINUOUS
 10
140.0370735761
 20
183.2401529185
 11
140.0501486014
 21
183.458172732
  0
LINE
  5
421
100
AcDbEntity
  8
RUNDUNGEN
100
AcDbLine
 62
7
  6
CONTINUOUS
 10
154.0588908612
 20
180.9765904124
 11
155.7660301312
 21
189.008049223
  0
LINE
  5
422
100
AcDbEntity
  8
RUNDUNGEN
100
AcDbLine
 62
7
  6
CONTINUOUS
 10
108.2864967935
 20
11.8120184872
 11
110.8238002232
 21
19.6210354816
  0
LINE
  5
423
100
AcDbEntity
  8
0
100
AcDbLine
 62
7
  6
CONTINUOUS
 10
168.3788671559
 20
166.3148761664
 11
168.44843621
 21
166.4788610779
  0
LINE
  5
424
100
AcDbEntity
  8
0
100
AcDbLine
 62
7
  6
CONTINUOUS
 10
168.7829867536
 20
167.1975074802
 11
168.7482022463
 21
167.1155150465
  0
LINE
  5
425
100
AcDbEntity
  8
0
100
AcDbLine
 62
7
  6
CONTINUOUS
 10
168.4358892176
 20
165.9778807254
 11
168.3636293389
 21
165.8150636071
  0
LINE
  5
426
100
AcDbEntity
  8
0
100
AcDbLine
 62
7
  6
CONTINUOUS
 10
169.9565789759
 20
166.0038172605
 11
170.0288388951
 21
166.166634301
  0
LINE
  5
427
100
AcDbEntity
  8
RUNDUNGEN
100
AcDbLine
 62
7
  6
CONTINUOUS
 10
186.312059561
 20
150.3705360296
 11
191.8062149419
 21
156.472413754
  0
LINE
  5
428
100
AcDbEntity
  8
RUNDUNGEN
100
AcDbLine
 62
7
  6
CONTINUOUS
 10
62.0897175438
 20
26.7559163559
 11
68.1915952682
 21
32.2500717368
  0
LINE
  5
429
100
AcDbEntity
  8
RUNDUNGEN
100
AcDbLine
 62
7
  6
CONTINUOUS
 10
198.9410958162
 20
107.7383310746
 11
206.7501128106
 21
110.2756345043
  0
LINE
  5
42A
100
AcDbEntity
  8
RUNDUNGEN
100
AcDbLine
 62
7
  6
CONTINUOUS
 10
196.5935183716
 20
148.1805609826
 11
188.562059561
 21
146.4734217126
  0
LINE
  5
42B
100
AcDbEntity
  8
RUNDUNGEN
100
AcDbLine
 62
7
  6
CONTINUOUS
 10
37.5855408854
 20
146.4734217126
 11
29.5540820748
 21
148.1805609826
  0
LINE
  5
42C
100
AcDbEntity
  8
RUNDUNGEN
100
AcDbLine
 62
7
  6
CONTINUOUS
 10
206.7501128106
 20
100.7010276449
 11
198.9410958162
 21
103.2383310746
  0
LINE
  5
42D
100
AcDbEntity
  8
RUNDUNGEN
100
AcDbLine
 62
7
  6
CONTINUOUS
 10
68.1915952682
 20
178.7265904124
 11
62.0897175438
 21
184.2207457933
  0
LINE
  5
42E
100
AcDbEntity
  8
RUNDUNGEN
100
AcDbLine
 62
7
  6
CONTINUOUS
 10
191.8062149419
 20
54.5042483952
 11
186.312059561
 21
60.6061261196
  0
LINE
  5
42F
100
AcDbEntity
  8
0
100
AcDbLine
 62
7
  6
CONTINUOUS
 10
87.9534473876
 20
185.1366369461
 11
88.0598804868
 21
184.9697832451
  0
LINE
  5
430
100
AcDbEntity
  8
0
100
AcDbLine
 62
7
  6
CONTINUOUS
 10
88.3453599635
 20
185.0619866525
 11
88.2389268644
 21
185.2288403535
  0
LINE
  5
431
100
AcDbEntity
  8
0
100
AcDbLine
 62
7
  6
CONTINUOUS
 10
91.799936057
 20
185.1279824727
 11
91.7006491773
 21
185.2991848773
  0
LINE
  5
432
100
AcDbEntity
  8
0
100
AcDbLine
 62
7
  6
CONTINUOUS
 10
94.834482284
 20
186.0072764833
 11
94.7420320258
 21
186.1822654967
  0
LINE
  5
433
100
AcDbEntity
  8
RUNDUNGEN
100
AcDbLine
 62
7
  6
CONTINUOUS
 10
110.8238002232
 20
191.3556266676
 11
108.2864967935
 21
199.164643662
  0
LINE
  5
434
100
AcDbEntity
  8
RUNDUNGEN
100
AcDbLine
 62
7
  6
CONTINUOUS
 10
155.7660301312
 20
21.9686129262
 11
154.0588908612
 21
30.0000717368
  0
LINE
  5
435
100
AcDbEntity
  8
0
100
AcDbLine
 62
7
  6
CONTINUOUS
 10
129.9439798303
 20
185.9489801912
 11
129.9208904153
 21
186.1256091339
  0
LINE
  5
436
100
AcDbEntity
  8
0
100
AcDbLine
 62
7
  6
CONTINUOUS
 10
129.8452860676
 20
186.9146976831
 11
129.8568308619
 21
186.8263832243
  0
LINE
  5
437
100
AcDbEntity
  8
0
100
AcDbLine
 62
7
  6
CONTINUOUS
 10
139.16337207
 20
183.0920488291
 11
139.1493446545
 21
183.2302913912
  0
LINE
  5
438
100
AcDbEntity
  8
0
100
AcDbLine
 62
7
  6
CONTINUOUS
 10
140.0755862677
 20
184.1614085935
 11
140.0896124412
 21
184.0231664846
  0
LINE
  5
439
100
AcDbEntity
  8
0
100
AcDbLine
 62
7
  6
CONTINUOUS
 10
137.716503698
 20
183.6089277434
 11
137.7343489121
 21
183.3818728171
  0
LINE
  5
43A
100
AcDbEntity
  8
0
100
AcDbLine
 62
7
  6
CONTINUOUS
 10
147.3861567803
 20
117.2086259728
 11
147.3861567803
 21
116.3600978354
  0
LINE
  5
43B
100
AcDbEntity
  8
0
100
AcDbLine
 62
7
  6
CONTINUOUS
 10
147.3861567803
 20
94.6165643139
 11
147.3861567803
 21
93.7680361765
  0
LINE
  5
43C
100
AcDbEntity
  8
0
100
AcDbLine
 62
7
  6
CONTINUOUS
 10
168.2632209958
 20
166.5318690402
 11
168.2217892372
 21
166.399237468
  0
LINE
  5
43D
100
AcDbEntity
  8
0
100
AcDbLine
 62
7
  6
CONTINUOUS
 10
168.5479465781
 20
165.7590129164
 11
168.5915567219
 21
165.8909442053
  0
LINE
  5
43E
100
AcDbEntity
  8
0
100
AcDbLine
 62
7
  6
CONTINUOUS
 10
169.844521676
 20
166.2226850133
 11
169.8009114519
 21
166.0907536379
  0
LINE
  5
43F
100
AcDbEntity
  8
0
100
AcDbLine
 62
7
  6
CONTINUOUS
 10
167.4082623691
 20
166.7896906178
 11
167.3320461763
 21
166.575066566
  0
LINE
  5
440
100
AcDbEntity
  8
0
100
AcDbLine
 62
7
  6
CONTINUOUS
 10
171.8436753466
 20
164.3497547352
 11
171.7956983515
 21
164.219347923
  0
LINE
  5
441
100
AcDbEntity
  8
0
100
AcDbLine
 62
7
  6
CONTINUOUS
 10
174.6094109608
 20
161.4520159813
 11
174.5552113784
 21
161.3240700077
  0
LINE
  5
442
100
AcDbEntity
  8
0
100
AcDbLine
 62
7
  6
CONTINUOUS
 10
157.2919977147
 20
104.5224052483
 11
147.3861567803
 21
94.6165643139
  0
LINE
  5
443
100
AcDbEntity
  8
0
100
AcDbLine
 62
7
  6
CONTINUOUS
 10
123.945566984
 20
71.1759745175
 11
114.0397260495
 21
61.2701335831
  0
LINE
  5
444
100
AcDbEntity
  8
0
100
AcDbLine
 62
7
  6
CONTINUOUS
 10
147.3861567803
 20
93.7680361765
 11
124.7940951214
 21
71.1759745175
  0
LINE
  5
445
100
AcDbEntity
  8
0
100
AcDbLine
 62
7
  6
CONTINUOUS
 10
101.353505325
 20
139.8006876317
 11
102.2020334625
 21
139.8006876317
  0
LINE
  5
446
100
AcDbEntity
  8
0
100
AcDbLine
 62
7
  6
CONTINUOUS
 10
123.945566984
 20
139.8006876317
 11
124.7940951214
 21
139.8006876317
  0
LINE
  5
447
100
AcDbEntity
  8
0
100
AcDbLine
 62
7
  6
CONTINUOUS
 10
114.0397260495
 20
149.7065285661
 11
123.945566984
 21
139.8006876317
  0
LINE
  5
448
100
AcDbEntity
  8
0
100
AcDbLine
 62
7
  6
CONTINUOUS
 10
147.3861567803
 20
116.3600978354
 11
157.2919977147
 21
106.4542569009
  0
LINE
  5
449
100
AcDbEntity
  8
0
100
AcDbLine
 62
7
  6
CONTINUOUS
 10
124.7940951214
 20
139.8006876317
 11
147.3861567803
 21
117.2086259728
  0
LINE
  5
44A
100
AcDbEntity
  8
0
100
AcDbLine
 62
7
  6
CONTINUOUS
 10
90.6580200332
 20
183.8183138324
 11
90.8054938188
 21
183.6604542779
  0
LINE
  5
44B
100
AcDbEntity
  8
0
100
AcDbLine
 62
7
  6
CONTINUOUS
 10
90.9471408808
 20
183.8983709091
 11
90.7996668135
 21
184.0562304089
  0
LINE
  5
44C
100
AcDbEntity
  8
0
100
AcDbLine
 62
7
  6
CONTINUOUS
 10
131.5231396045
 20
185.255307663
 11
131.5685268138
 21
185.0713518931
  0
LINE
  5
44D
100
AcDbEntity
  8
0
100
AcDbLine
 62
7
  6
CONTINUOUS
 10
129.734346357
 20
186.0774860218
 11
129.7658126017
 21
185.9421434933
  0
LINE
  5
44E
100
AcDbEntity
  8
0
100
AcDbLine
 62
7
  6
CONTINUOUS
 10
132.389758005
 20
185.6558663712
 11
132.4167747305
 21
185.519565875
  0
LINE
  5
44F
100
AcDbEntity
  8
0
100
AcDbLine
 62
7
  6
CONTINUOUS
 10
128.8665996291
 20
185.8666735898
 11
128.9096106711
 21
185.6430166169
  0
LINE
  5
450
100
AcDbEntity
  8
0
100
AcDbLine
 62
7
  6
CONTINUOUS
 10
132.9877116979
 20
184.9013320518
 11
132.9379324125
 21
185.1747419137
  0
LINE
  5
451
100
AcDbEntity
  8
0
100
AcDbLine
 62
7
  6
CONTINUOUS
 10
133.7567425765
 20
186.0535301214
 11
133.8065218402
 21
185.7801201738
  0
LINE
  5
452
100
AcDbEntity
  8
0
100
AcDbLine
 62
7
  6
CONTINUOUS
 10
136.2560192993
 20
185.3704325509
 11
136.2767341815
 21
185.2330331906
  0
LINE
  5
453
100
AcDbEntity
  8
0
100
AcDbLine
 62
7
  6
CONTINUOUS
 10
138.9993300199
 20
183.1477782493
 11
139.0271461394
 21
182.9603589666
  0
LINE
  5
454
100
AcDbEntity
  8
0
100
AcDbLine
 62
7
  6
CONTINUOUS
 10
138.6023247115
 20
183.7218285664
 11
138.618528913
 21
183.5838241981
  0
LINE
  5
455
100
AcDbEntity
  8
0
100
AcDbLine
 62
7
  6
CONTINUOUS
 10
167.545398688
 20
166.5534119609
 11
167.5653402821
 21
166.7053293214
  0
LINE
  5
456
100
AcDbEntity
  8
0
100
AcDbLine
 62
7
  6
CONTINUOUS
 10
168.007341334
 20
167.327546787
 11
167.9807525707
 21
167.1249903334
  0
LINE
  5
457
100
AcDbEntity
  8
0
100
AcDbLine
 62
7
  6
CONTINUOUS
 10
168.44843621
 20
166.4788610779
 11
168.4750249348
 21
166.681417566
  0
LINE
  5
458
100
AcDbEntity
  8
0
100
AcDbLine
 62
7
  6
CONTINUOUS
 10
168.796281116
 20
167.2987857243
 11
168.7829867536
 21
167.1975074802
  0
LINE
  5
459
100
AcDbEntity
  8
0
100
AcDbLine
 62
7
  6
CONTINUOUS
 10
168.3636293389
 20
165.8150636071
 11
168.3337087132
 21
165.6129724091
  0
LINE
  5
45A
100
AcDbEntity
  8
0
100
AcDbLine
 62
7
  6
CONTINUOUS
 10
168.9091008927
 20
165.5963886669
 11
168.8717000122
 21
165.3437747455
  0
LINE
  5
45B
100
AcDbEntity
  8
0
100
AcDbLine
 62
7
  6
CONTINUOUS
 10
168.8342991366
 20
165.0911608296
 11
168.8193388844
 21
164.9901151745
  0
LINE
  5
45C
100
AcDbEntity
  8
0
100
AcDbLine
 62
7
  6
CONTINUOUS
 10
169.0136780689
 20
165.3269980892
 11
169.036118561
 21
165.4785664515
  0
LINE
  5
45D
100
AcDbEntity
  8
0
100
AcDbLine
 62
7
  6
CONTINUOUS
 10
168.9463565527
 20
164.8722929591
 11
168.9837573121
 21
165.1249069928
  0
LINE
  5
45E
100
AcDbEntity
  8
0
100
AcDbLine
 62
7
  6
CONTINUOUS
 10
168.9400646724
 20
167.1131461786
 11
168.9881435421
 21
167.2964168565
  0
LINE
  5
45F
100
AcDbEntity
  8
0
100
AcDbLine
 62
7
  6
CONTINUOUS
 10
162.5061807412
 20
93.1451579933
 11
125.4169563948
 21
56.0559336469
  0
LINE
  5
460
100
AcDbEntity
  8
0
100
AcDbLine
 62
7
  6
CONTINUOUS
 10
167.8841416633
 20
166.022997363
 11
168.0826513112
 21
166.0712676006
  0
LINE
  5
461
100
AcDbEntity
  8
0
100
AcDbLine
 62
7
  6
CONTINUOUS
 10
172.9553004938
 20
162.7923270427
 11
173.2883032972
 21
162.870346205
  0
LINE
  5
462
100
AcDbEntity
  8
0
100
AcDbLine
 62
7
  6
CONTINUOUS
 10
173.5322825883
 20
163.1028487196
 11
173.1992798704
 21
163.0248296387
  0
LINE
  5
463
100
AcDbEntity
  8
0
100
AcDbLine
 62
7
  6
CONTINUOUS
 10
168.9837573121
 20
165.1249069928
 11
169.0833961664
 21
165.1474043491
  0
LINE
  5
464
100
AcDbEntity
  8
0
100
AcDbLine
 62
7
  6
CONTINUOUS
 10
88.2389268644
 20
185.2288403535
 11
88.0177161504
 21
185.4256998777
  0
LINE
  5
465
100
AcDbEntity
  8
0
100
AcDbLine
 62
7
  6
CONTINUOUS
 10
125.4169733045
 20
154.9207115926
 11
162.5061976509
 21
117.8314872462
  0
LINE
  5
466
100
AcDbEntity
  8
0
100
AcDbLine
 62
7
  6
CONTINUOUS
 10
96.9934996593
 20
184.9041537063
 11
96.0087912397
 21
185.935488123
  0
LINE
  5
467
100
AcDbEntity
  8
0
100
AcDbLine
 62
7
  6
CONTINUOUS
 10
91.4115280541
 20
185.2191277243
 11
91.5590018336
 21
185.0612681912
  0
LINE
  5
468
100
AcDbEntity
  8
0
100
AcDbLine
 62
7
  6
CONTINUOUS
 10
91.7006491773
 20
185.2991848773
 11
91.553175122
 21
185.457044334
  0
LINE
  5
469
100
AcDbEntity
  8
0
100
AcDbLine
 62
7
  6
CONTINUOUS
 10
95.9016593837
 20
185.7171055079
 11
96.6999919674
 21
184.8420792769
  0
LINE
  5
46A
100
AcDbEntity
  8
0
100
AcDbLine
 62
7
  6
CONTINUOUS
 10
129.104531562
 20
185.7324261578
 11
129.0447668577
 21
185.8735102876
  0
LINE
  5
46B
100
AcDbEntity
  8
0
100
AcDbLine
 62
7
  6
CONTINUOUS
 10
129.1106546052
 20
186.6338906602
 11
129.1903409395
 21
186.4457785146
  0
LINE
  5
46C
100
AcDbEntity
  8
0
100
AcDbLine
 62
7
  6
CONTINUOUS
 10
129.9208904153
 20
186.1256091339
 11
129.8412040811
 21
186.3137212794
  0
LINE
  5
46D
100
AcDbEntity
  8
0
100
AcDbLine
 62
7
  6
CONTINUOUS
 10
129.8054429814
 20
187.0087537395
 11
129.8452860676
 21
186.9146976831
  0
LINE
  5
46E
100
AcDbEntity
  8
0
100
AcDbLine
 62
7
  6
CONTINUOUS
 10
132.8094222395
 20
184.9031127279
 11
132.8622996712
 21
184.7593054782
  0
LINE
  5
46F
100
AcDbEntity
  8
0
100
AcDbLine
 62
7
  6
CONTINUOUS
 10
137.9380116612
 20
183.4490271495
 11
137.8943245519
 21
183.5958875868
  0
LINE
  5
470
100
AcDbEntity
  8
0
100
AcDbLine
 62
7
  6
CONTINUOUS
 10
138.0444516315
 20
184.3442066139
 11
138.1027013323
 21
184.1483926672
  0
LINE
  5
471
100
AcDbEntity
  8
0
100
AcDbLine
 62
7
  6
CONTINUOUS
 10
138.7930665108
 20
183.7488856473
 11
138.734817439
 21
183.9446993912
  0
LINE
  5
472
100
AcDbEntity
  8
0
100
AcDbLine
 62
7
  6
CONTINUOUS
 10
138.7766526918
 20
184.6393926965
 11
138.8057778567
 21
184.5414856219
  0
LINE
  5
473
100
AcDbEntity
  8
0
100
AcDbLine
 62
7
  6
CONTINUOUS
 10
130.0234532962
 20
186.921534381
 11
129.9720654157
 21
187.1039048962
  0
LINE
  5
474
100
AcDbEntity
  8
0
100
AcDbLine
 62
7
  6
CONTINUOUS
 10
139.8725553261
 20
183.4740135125
 11
139.9001339763
 21
183.3756596181
  0
LINE
  5
475
100
AcDbEntity
  8
0
100
AcDbLine
 62
7
  6
CONTINUOUS
 10
140.0501486014
 20
183.458172732
 11
140.0087812519
 21
183.6057033611
  0
LINE
  5
476
100
AcDbEntity
  8
0
100
AcDbLine
 62
7
  6
CONTINUOUS
 10
132.5583289941
 20
185.6158740704
 11
132.5129417815
 21
185.7998298259
  0
LINE
  5
477
100
AcDbEntity
  8
0
100
AcDbLine
 62
7
  6
CONTINUOUS
 10
138.9835987106
 20
184.5284454653
 11
138.9528325376
 21
184.7154031121
  0
LINE
  5
478
100
AcDbEntity
  8
0
100
AcDbLine
 62
7
  6
CONTINUOUS
 10
140.2396283179
 20
184.1056791733
 11
140.2118121935
 21
184.293098442
  0
LINE
  5
479
100
AcDbEntity
  8
0
100
AcDbLine
 62
7
  6
CONTINUOUS
 10
168.9881435421
 20
167.2964168565
 11
168.9865950331
 21
167.4676199501
  0
LINE
  5
47A
100
AcDbEntity
  8
0
100
AcDbLine
 62
7
  6
CONTINUOUS
 10
170.0288388951
 20
166.166634301
 11
170.0587595108
 21
166.3687254882
  0
LINE
  5
47B
100
AcDbEntity
  8
0
100
AcDbLine
 62
7
  6
CONTINUOUS
 10
172.0168674463
 20
164.2373543768
 11
172.0534976626
 21
164.4383378503
  0
LINE
  5
47C
100
AcDbEntity
  8
0
100
AcDbLine
 62
7
  6
CONTINUOUS
 10
174.7769906942
 20
161.3314076196
 11
174.8232547985
 21
161.5303944583
  0
LINE
  5
47D
100
AcDbEntity
  8
0
100
AcDbLine
 62
7
  6
CONTINUOUS
 10
168.5434985567
 20
167.7520572081
 11
168.3449889571
 21
167.703786947
  0
LINE
  5
47E
100
AcDbEntity
  8
0
100
AcDbLine
 62
7
  6
CONTINUOUS
 10
169.5083496552
 20
166.879288384
 11
169.3090720676
 21
166.834293559
  0
LINE
  5
47F
100
AcDbEntity
  8
0
100
AcDbLine
 62
7
  6
CONTINUOUS
 10
171.5408903968
 20
164.9466066253
 11
171.3402257522
 21
164.9082692623
  0
LINE
  5
480
100
AcDbEntity
  8
0
100
AcDbLine
 62
7
  6
CONTINUOUS
 10
174.3357128418
 20
162.0627530968
 11
174.1334349186
 21
162.0341214513
  0
LINE
  5
481
100
AcDbEntity
  8
0
100
AcDbLine
 62
7
  6
CONTINUOUS
 10
171.5767182809
 20
164.0805189721
 11
170.2610508978
 21
163.9019030598
  0
LINE
  5
482
100
AcDbEntity
  8
0
100
AcDbLine
 62
7
  6
CONTINUOUS
 10
170.4250853261
 20
163.7392569494
 11
171.5902541671
 21
163.8891198976
  0
LINE
  5
483
100
AcDbEntity
  8
0
100
AcDbLine
 62
7
  6
CONTINUOUS
 10
174.3298010928
 20
161.1959451068
 11
173.0070601646
 21
161.0808789978
  0
LINE
  5
484
100
AcDbEntity
  8
0
100
AcDbLine
 62
7
  6
CONTINUOUS
 10
173.1630735371
 20
160.9105242919
 11
174.334106581
 21
161.0041160576
  0
LINE
  5
485
100
AcDbEntity
  8
0
100
AcDbLine
 62
7
  6
CONTINUOUS
 10
87.8190520288
 20
185.2273830763
 11
87.9534473876
 21
185.1366369461
  0
LINE
  5
486
100
AcDbEntity
  8
0
100
AcDbLine
 62
7
  6
CONTINUOUS
 10
90.8054938188
 20
183.6604542779
 11
90.9359341828
 21
183.5641098007
  0
LINE
  5
487
100
AcDbEntity
  8
0
100
AcDbLine
 62
7
  6
CONTINUOUS
 10
91.0775812418
 20
183.8020264427
 11
90.9471408808
 21
183.8983709091
  0
LINE
  5
488
100
AcDbEntity
  8
0
100
AcDbLine
 62
7
  6
CONTINUOUS
 10
91.281087693
 20
185.3154721907
 11
91.4115280541
 21
185.2191277243
  0
LINE
  5
489
100
AcDbEntity
  8
0
100
AcDbLine
 62
7
  6
CONTINUOUS
 10
91.553175122
 20
185.457044334
 11
91.4227344853
 21
185.5533887241
  0
LINE
  5
48A
100
AcDbEntity
  8
0
100
AcDbLine
 62
7
  6
CONTINUOUS
 10
94.4645669359
 20
186.0515468498
 11
94.5911017939
 21
185.9501272713
  0
LINE
  5
48B
100
AcDbEntity
  8
0
100
AcDbLine
 62
7
  6
CONTINUOUS
 10
94.7420320258
 20
186.1822654967
 11
94.6154977248
 21
186.2836852061
  0
LINE
  5
48C
100
AcDbEntity
  8
0
100
AcDbLine
 62
7
  6
CONTINUOUS
 10
129.9720654157
 20
187.1039048962
 11
129.8840024136
 21
187.2507305947
  0
LINE
  5
48D
100
AcDbEntity
  8
0
100
AcDbLine
 62
7
  6
CONTINUOUS
 10
138.9528325376
 20
184.7154031121
 11
138.8816612624
 21
184.871120024
  0
LINE
  5
48E
100
AcDbEntity
  8
0
100
AcDbLine
 62
7
  6
CONTINUOUS
 10
133.9350320349
 20
186.0517494453
 11
133.8821545996
 21
186.1955566807
  0
LINE
  5
48F
100
AcDbEntity
  8
0
100
AcDbLine
 62
7
  6
CONTINUOUS
 10
136.4619300627
 20
185.3552722638
 11
136.3972988449
 21
185.549073147
  0
LINE
  5
490
100
AcDbEntity
  8
0
100
AcDbLine
 62
7
  6
CONTINUOUS
 10
168.2007522768
 20
167.1539748187
 11
168.1925565404
 21
167.2745388317
  0
LINE
  5
491
100
AcDbEntity
  8
0
100
AcDbLine
 62
7
  6
CONTINUOUS
 10
168.2550252749
 20
166.6524330393
 11
168.2632209958
 21
166.5318690402
  0
LINE
  5
492
100
AcDbEntity
  8
0
100
AcDbLine
 62
7
  6
CONTINUOUS
 10
168.5541558414
 20
165.638330284
 11
168.5479465781
 21
165.7590129164
  0
LINE
  5
493
100
AcDbEntity
  8
0
100
AcDbLine
 62
7
  6
CONTINUOUS
 10
169.8383123926
 20
166.3433676241
 11
169.844521676
 21
166.2226850133
  0
LINE
  5
494
100
AcDbEntity
  8
0
100
AcDbLine
 62
7
  6
CONTINUOUS
 10
171.8414862392
 20
164.4705771485
 11
171.8436753466
 21
164.3497547352
  0
LINE
  5
495
100
AcDbEntity
  8
0
100
AcDbLine
 62
7
  6
CONTINUOUS
 10
172.7460480398
 20
161.7896439252
 11
172.7438547928
 21
161.668821587
  0
LINE
  5
496
100
AcDbEntity
  8
0
100
AcDbLine
 62
7
  6
CONTINUOUS
 10
173.7688287017
 20
162.1155281116
 11
173.7710220347
 21
162.2363505305
  0
LINE
  5
497
100
AcDbEntity
  8
0
100
AcDbLine
 62
7
  6
CONTINUOUS
 10
174.6130413971
 20
161.572803678
 11
174.6094109608
 21
161.4520159813
  0
LINE
  5
498
100
AcDbEntity
  8
0
100
AcDbLine
 62
7
  6
CONTINUOUS
 10
168.0099852982
 20
166.2496889422
 11
167.8892403761
 21
166.244839562
  0
LINE
  5
499
100
AcDbEntity
  8
0
100
AcDbLine
 62
7
  6
CONTINUOUS
 10
168.4176549821
 20
167.5253656342
 11
168.5383998999
 21
167.5302149786
  0
LINE
  5
49A
100
AcDbEntity
  8
0
100
AcDbLine
 62
7
  6
CONTINUOUS
 10
169.3787901851
 20
166.6546998405
 11
169.4995985701
 21
166.6575602359
  0
LINE
  5
49B
100
AcDbEntity
  8
0
100
AcDbLine
 62
7
  6
CONTINUOUS
 10
171.4335896278
 20
164.7563696622
 11
171.554426283
 21
164.7552075508
  0
LINE
  5
49C
100
AcDbEntity
  8
0
100
AcDbLine
 62
7
  6
CONTINUOUS
 10
174.2193773062
 20
161.8779029896
 11
174.3400178835
 21
161.870924535
  0
LINE
  5
49D
100
AcDbEntity
  8
0
100
AcDbLine
 62
7
  6
CONTINUOUS
 10
88.0177161504
 20
185.4256998777
 11
87.7685433128
 21
185.546451875
  0
LINE
  5
49E
100
AcDbEntity
  8
0
100
AcDbLine
 62
7
  6
CONTINUOUS
 10
94.6154977248
 20
186.2836852061
 11
94.4402869916
 21
186.3736749945
  0
LINE
  5
49F
100
AcDbEntity
  8
0
100
AcDbLine
 62
7
  6
CONTINUOUS
 10
128.9096106711
 20
185.6430166169
 11
129.0259721247
 21
185.4904492773
  0
LINE
  5
4A0
100
AcDbEntity
  8
0
100
AcDbLine
 62
7
  6
CONTINUOUS
 10
131.5685268138
 20
185.0713518931
 11
131.6798290312
 21
184.9150552356
  0
LINE
  5
4A1
100
AcDbEntity
  8
0
100
AcDbLine
 62
7
  6
CONTINUOUS
 10
132.5129417815
 20
185.7998298259
 11
132.4016395615
 21
185.9561264726
  0
LINE
  5
4A2
100
AcDbEntity
  8
0
100
AcDbLine
 62
7
  6
CONTINUOUS
 10
132.8622996712
 20
184.7593054782
 11
132.9711530021
 21
184.6012935132
  0
LINE
  5
4A3
100
AcDbEntity
  8
0
100
AcDbLine
 62
7
  6
CONTINUOUS
 10
133.8821545996
 20
186.1955566807
 11
133.7733015863
 21
186.3535685538
  0
LINE
  5
4A4
100
AcDbEntity
  8
0
100
AcDbLine
 62
7
  6
CONTINUOUS
 10
129.3653402035
 20
186.5822160856
 11
129.2971986635
 21
186.6820137723
  0
LINE
  5
4A5
100
AcDbEntity
  8
0
100
AcDbLine
 62
7
  6
CONTINUOUS
 10
129.6662048171
 20
186.1772837085
 11
129.734346357
 21
186.0774860218
  0
LINE
  5
4A6
100
AcDbEntity
  8
0
100
AcDbLine
 62
7
  6
CONTINUOUS
 10
131.7565469473
 20
185.1133394091
 11
131.6917105936
 21
185.2153153621
  0
LINE
  5
4A7
100
AcDbEntity
  8
0
100
AcDbLine
 62
7
  6
CONTINUOUS
 10
132.3249216514
 20
185.7578423242
 11
132.389758005
 21
185.6558663712
  0
LINE
  5
4A8
100
AcDbEntity
  8
0
100
AcDbLine
 62
7
  6
CONTINUOUS
 10
133.0509508969
 20
184.7983582969
 11
132.9877116979
 21
184.9013320518
  0
LINE
  5
4A9
100
AcDbEntity
  8
0
100
AcDbLine
 62
7
  6
CONTINUOUS
 10
133.6935030572
 20
186.1565039576
 11
133.7567425765
 21
186.0535301214
  0
LINE
  5
4AA
100
AcDbEntity
  8
0
100
AcDbLine
 62
7
  6
CONTINUOUS
 10
137.7343489121
 20
183.3818728171
 11
137.8330024536
 21
183.2173000002
  0
LINE
  5
4AB
100
AcDbEntity
  8
0
100
AcDbLine
 62
7
  6
CONTINUOUS
 10
139.0271461394
 20
182.9603589666
 11
139.1231933344
 21
182.7942521371
  0
LINE
  5
4AC
100
AcDbEntity
  8
0
100
AcDbLine
 62
7
  6
CONTINUOUS
 10
140.0087812519
 20
183.6057033611
 11
139.9127328018
 21
183.7718106053
  0
LINE
  5
4AD
100
AcDbEntity
  8
0
100
AcDbLine
 62
7
  6
CONTINUOUS
 10
140.2118121935
 20
184.293098442
 11
140.1157637434
 21
184.4592056863
  0
LINE
  5
4AE
100
AcDbEntity
  8
0
100
AcDbLine
 62
7
  6
CONTINUOUS
 10
136.1959448415
 20
185.4752843856
 11
136.2560192993
 21
185.3704325509
  0
LINE
  5
4AF
100
AcDbEntity
  8
0
100
AcDbLine
 62
7
  6
CONTINUOUS
 10
138.2918014945
 20
184.2645005229
 11
138.2351934308
 21
184.3712636948
  0
LINE
  5
4B0
100
AcDbEntity
  8
0
100
AcDbLine
 62
7
  6
CONTINUOUS
 10
138.5457166478
 20
183.8285917383
 11
138.6023247115
 21
183.7218285664
  0
LINE
  5
4B1
100
AcDbEntity
  8
0
100
AcDbLine
 62
7
  6
CONTINUOUS
 10
139.2182906447
 20
182.9844068397
 11
139.16337207
 21
183.0920488291
  0
LINE
  5
4B2
100
AcDbEntity
  8
0
100
AcDbLine
 62
7
  6
CONTINUOUS
 10
139.8176367514
 20
183.581655502
 11
139.8725553261
 21
183.4740135125
  0
LINE
  5
4B3
100
AcDbEntity
  8
0
100
AcDbLine
 62
7
  6
CONTINUOUS
 10
140.020667693
 20
184.2690505829
 11
140.0755862677
 21
184.1614085935
  0
LINE
  5
4B4
100
AcDbEntity
  8
0
100
AcDbLine
 62
7
  6
CONTINUOUS
 10
167.3320461763
 20
166.575066566
 11
167.3550847998
 21
166.3845776745
  0
LINE
  5
4B5
100
AcDbEntity
  8
RUNDUNGEN
100
AcDbLine
 62
7
  6
CONTINUOUS
 10
182.767204243
 20
164.1436939346
 11
182.2965554533
 21
169.5587891848
  0
LINE
  5
4B6
100
AcDbEntity
  8
RUNDUNGEN
100
AcDbLine
 62
7
  6
CONTINUOUS
 10
182.2965554533
 20
41.4178729644
 11
182.7672040251
 21
46.8329657076
  0
LINE
  5
4B7
100
AcDbEntity
  8
RUNDUNGEN
100
AcDbLine
 62
7
  6
CONTINUOUS
 10
198.9195122095
 20
143.1548103609
 11
198.9195203806
 21
143.1548435513
  0
LINE
  5
4B8
100
AcDbEntity
  8
RUNDUNGEN
100
AcDbLine
 62
7
  6
CONTINUOUS
 10
202.7577411306
 20
121.438665768
 11
205.0576938276
 21
126.3635978151
  0
LINE
  5
4B9
100
AcDbEntity
  8
RUNDUNGEN
100
AcDbLine
 62
7
  6
CONTINUOUS
 10
140.9872357173
 20
15.390309104
 11
144.1023757084
 21
19.8445926976
  0
LINE
  5
4BA
100
AcDbEntity
  8
RUNDUNGEN
100
AcDbLine
 62
7
  6
CONTINUOUS
 10
206.2516072524
 20
95.1856030146
 11
206.251630924
 21
95.1856276727
  0
LINE
  5
4BB
100
AcDbEntity
  8
RUNDUNGEN
100
AcDbLine
 62
7
  6
CONTINUOUS
 10
198.7175387072
 20
74.4597556642
 11
203.1718221938
 21
77.5748955805
  0
LINE
  5
4BC
100
AcDbEntity
  8
RUNDUNGEN
100
AcDbLine
 62
7
  6
CONTINUOUS
 10
92.1985334827
 20
13.5044374703
 11
97.1234679281
 21
15.8043912872
  0
LINE
  5
4BD
100
AcDbEntity
  8
RUNDUNGEN
100
AcDbLine
 62
7
  6
CONTINUOUS
 10
188.6167858055
 20
49.9770038613
 11
188.6168187085
 21
49.9770133992
  0
LINE
  5
4BE
100
AcDbEntity
  8
0
100
AcDbLine
 62
7
  6
CONTINUOUS
 10
129.4658621837
 20
187.0776531723
 11
129.5591342129
 21
187.1017147283
  0
LINE
  5
4BF
100
AcDbEntity
  8
0
100
AcDbLine
 62
7
  6
CONTINUOUS
 10
138.4468528745
 20
184.7456674845
 11
138.5422237742
 21
184.7591960249
  0
LINE
  5
4C0
100
AcDbEntity
  8
0
100
AcDbLine
 62
7
  6
CONTINUOUS
 10
139.5737146696
 20
182.8636599043
 11
139.4781424193
 21
182.8516359747
  0
LINE
  5
4C1
100
AcDbEntity
  8
0
100
AcDbLine
 62
7
  6
CONTINUOUS
 10
139.4622127265
 20
183.7024024374
 11
139.5577849768
 21
183.7144263669
  0
LINE
  5
4C2
100
AcDbEntity
  8
RUNDUNGEN
100
AcDbLine
 62
7
  6
CONTINUOUS
 10
54.4184347257
 20
175.1817348652
 11
49.003342113
 21
174.7110863047
  0
LINE
  5
4C3
100
AcDbEntity
  8
RUNDUNGEN
100
AcDbLine
 62
7
  6
CONTINUOUS
 10
177.1442583334
 20
174.7110863047
 11
171.7291655902
 21
175.1817348765
  0
LINE
  5
4C4
100
AcDbEntity
  8
0
100
AcDbLine
 62
7
  6
CONTINUOUS
 10
167.7419066701
 20
166.0374337517
 11
167.8841416633
 21
166.022997363
  0
LINE
  5
4C5
100
AcDbEntity
  8
0
100
AcDbLine
 62
7
  6
CONTINUOUS
 10
168.6857335579
 20
167.7376207974
 11
168.5434985567
 21
167.7520572081
  0
LINE
  5
4C6
100
AcDbEntity
  8
0
100
AcDbLine
 62
7
  6
CONTINUOUS
 10
169.6503275707
 20
166.8625118184
 11
169.5083496552
 21
166.879288384
  0
LINE
  5
4C7
100
AcDbEntity
  8
0
100
AcDbLine
 62
7
  6
CONTINUOUS
 10
171.6822312676
 20
164.9251138374
 11
171.5408903968
 21
164.9466066253
  0
LINE
  5
4C8
100
AcDbEntity
  8
0
100
AcDbLine
 62
7
  6
CONTINUOUS
 10
174.4758548118
 20
162.0344806087
 11
174.3357128418
 21
162.0627530968
  0
LINE
  5
4C9
100
AcDbEntity
  8
RUNDUNGEN
100
AcDbLine
 62
7
  6
CONTINUOUS
 10
75.407461732
 20
191.3340120144
 11
75.4074176766
 21
191.3340226687
  0
LINE
  5
4CA
100
AcDbEntity
  8
0
100
AcDbLine
 62
7
  6
CONTINUOUS
 10
168.5383998999
 20
167.5302149786
 11
168.631007507
 21
167.5037109975
  0
LINE
  5
4CB
100
AcDbEntity
  8
0
100
AcDbLine
 62
7
  6
CONTINUOUS
 10
168.7421405246
 20
165.1191861831
 11
168.8342991366
 21
165.0911608296
  0
LINE
  5
4CC
100
AcDbEntity
  8
0
100
AcDbLine
 62
7
  6
CONTINUOUS
 10
168.8717000122
 20
165.3437747455
 11
168.7795414026
 21
165.3718001017
  0
LINE
  5
4CD
100
AcDbEntity
  8
0
100
AcDbLine
 62
7
  6
CONTINUOUS
 10
90.9359341828
 20
183.5641098007
 11
91.0493414025
 21
183.5292804718
  0
LINE
  5
4CE
100
AcDbEntity
  8
0
100
AcDbLine
 62
7
  6
CONTINUOUS
 10
91.4227344853
 20
185.5533887241
 11
91.3093275428
 21
185.5882181239
  0
LINE
  5
4CF
100
AcDbEntity
  8
0
100
AcDbLine
 62
7
  6
CONTINUOUS
 10
94.3526239102
 20
186.0908269144
 11
94.4645669359
 21
186.0515468498
  0
LINE
  5
4D0
100
AcDbEntity
  8
RUNDUNGEN
100
AcDbLine
 62
7
  6
CONTINUOUS
 10
97.12346563
 20
195.1722719352
 11
92.1985334827
 21
197.472224679
  0
LINE
  5
4D1
100
AcDbEntity
  8
RUNDUNGEN
100
AcDbLine
 62
7
  6
CONTINUOUS
 10
203.1718221938
 20
133.4017665687
 11
198.7175386002
 21
136.5169065598
  0
LINE
  5
4D2
100
AcDbEntity
  8
0
100
AcDbLine
 62
7
  6
CONTINUOUS
 10
129.4418585731
 20
186.5237048131
 11
129.3653402035
 21
186.5822160856
  0
LINE
  5
4D3
100
AcDbEntity
  8
0
100
AcDbLine
 62
7
  6
CONTINUOUS
 10
129.7289246117
 20
187.0672650119
 11
129.8054429814
 21
187.0087537395
  0
LINE
  5
4D4
100
AcDbEntity
  8
RUNDUNGEN
100
AcDbLine
 62
7
  6
CONTINUOUS
 10
123.3765105357
 20
198.6661545021
 11
123.3764882229
 21
198.666175839
  0
LINE
  5
4D5
100
AcDbEntity
  8
0
100
AcDbLine
 62
7
  6
CONTINUOUS
 10
138.3613305034
 20
184.1978345885
 11
138.2918014945
 21
184.2645005229
  0
LINE
  5
4D6
100
AcDbEntity
  8
0
100
AcDbLine
 62
7
  6
CONTINUOUS
 10
138.7071236828
 20
184.7060586309
 11
138.7766526918
 21
184.6393926965
  0
LINE
  5
4D7
100
AcDbEntity
  8
0
100
AcDbLine
 62
7
  6
CONTINUOUS
 10
139.2867604446
 20
182.9166534899
 11
139.2182906447
 21
182.9844068397
  0
LINE
  5
4D8
100
AcDbEntity
  8
0
100
AcDbLine
 62
7
  6
CONTINUOUS
 10
139.7491669515
 20
183.6494088517
 11
139.8176367514
 21
183.581655502
  0
LINE
  5
4D9
100
AcDbEntity
  8
0
100
AcDbLine
 62
7
  6
CONTINUOUS
 10
129.1903409395
 20
186.4457785146
 11
129.2867807713
 21
186.3402392304
  0
LINE
  5
4DA
100
AcDbEntity
  8
0
100
AcDbLine
 62
7
  6
CONTINUOUS
 10
129.8412040811
 20
186.3137212794
 11
129.7447640873
 21
186.4192605965
  0
LINE
  5
4DB
100
AcDbEntity
  8
0
100
AcDbLine
 62
7
  6
CONTINUOUS
 10
136.3972988449
 20
185.549073147
 11
136.309465538
 21
185.6618763749
  0
LINE
  5
4DC
100
AcDbEntity
  8
0
100
AcDbLine
 62
7
  6
CONTINUOUS
 10
138.1027013323
 20
184.1483926672
 11
138.1867922947
 21
184.0327733982
  0
LINE
  5
4DD
100
AcDbEntity
  8
0
100
AcDbLine
 62
7
  6
CONTINUOUS
 10
138.734817439
 20
183.9446993912
 11
138.6507264766
 21
184.0603186603
  0
LINE
  5
4DE
100
AcDbEntity
  8
RUNDUNGEN
100
AcDbLine
 62
7
  6
CONTINUOUS
 10
144.1023756336
 20
191.1320695586
 11
140.9872357173
 21
195.5863530452
  0
LINE
  5
4DF
100
AcDbEntity
  8
RUNDUNGEN
100
AcDbLine
 62
7
  6
CONTINUOUS
 10
205.0576938276
 20
84.6130643341
 11
202.7577410754
 21
89.5379964995
  0
LINE
  5
4E0
100
AcDbEntity
  8
0
100
AcDbLine
 62
7
  6
CONTINUOUS
 10
168.2370852931
 20
167.0647641589
 11
168.2007522768
 21
167.1539748187
  0
LINE
  5
4E1
100
AcDbEntity
  8
0
100
AcDbLine
 62
7
  6
CONTINUOUS
 10
168.7599481304
 20
167.3879963565
 11
168.796281116
 21
167.2987857243
  0
LINE
  5
4E2
100
AcDbEntity
  8
RUNDUNGEN
100
AcDbLine
 62
7
  6
CONTINUOUS
 10
168.5851279661
 20
181.0313150008
 11
168.5851184474
 21
181.0313478301
  0
LINE
  5
4E3
100
AcDbEntity
  8
0
100
AcDbLine
 62
7
  6
CONTINUOUS
 10
167.9807525707
 20
167.1249903334
 11
168.0104383905
 21
166.9851405653
  0
LINE
  5
4E4
100
AcDbEntity
  8
0
100
AcDbLine
 62
7
  6
CONTINUOUS
 10
168.4750249348
 20
166.681417566
 11
168.4453391304
 21
166.8212673203
  0
LINE
  5
4E5
100
AcDbEntity
  8
0
100
AcDbLine
 62
7
  6
CONTINUOUS
 10
168.3337087132
 20
165.6129724091
 11
168.3610875197
 21
165.4726528293
  0
LINE
  5
4E6
100
AcDbEntity
  8
0
100
AcDbLine
 62
7
  6
CONTINUOUS
 10
170.0587595108
 20
166.3687254882
 11
170.0313805757
 21
166.5090451723
  0
LINE
  5
4E7
100
AcDbEntity
  8
0
100
AcDbLine
 62
7
  6
CONTINUOUS
 10
172.0534976626
 20
164.4383378503
 11
172.0308043397
 21
164.5794909401
  0
LINE
  5
4E8
100
AcDbEntity
  8
0
100
AcDbLine
 62
7
  6
CONTINUOUS
 10
174.8232547985
 20
161.5303944583
 11
174.8073838422
 21
161.6724761886
  0
LINE
  5
4E9
100
AcDbEntity
  8
RUNDUNGEN
100
AcDbLine
 62
7
  6
CONTINUOUS
 10
197.911649715
 20
138.5850068467
 11
197.8651959225
 21
138.1960788263
  0
LINE
  5
4EA
100
AcDbEntity
  8
RUNDUNGEN
100
AcDbLine
 62
7
  6
CONTINUOUS
 10
182.8391592389
 20
47.2177649762
 11
182.7672018864
 21
46.8329684194
  0
LINE
  5
4EB
100
AcDbEntity
  8
RUNDUNGEN
100
AcDbLine
 62
7
  6
CONTINUOUS
 10
198.9194325422
 20
143.1544439833
 11
197.9143668198
 21
138.582533537
  0
LINE
  5
4EC
100
AcDbEntity
  8
RUNDUNGEN
100
AcDbLine
 62
7
  6
CONTINUOUS
 10
170.0007849394
 20
34.4076277364
 11
168.5851985718
 21
29.9455668768
  0
LINE
  5
4ED
100
AcDbEntity
  8
RUNDUNGEN
100
AcDbLine
 62
7
  6
CONTINUOUS
 10
202.6276586595
 20
121.0694406971
 11
202.7577401609
 21
121.4386632995
  0
LINE
  5
4EE
100
AcDbEntity
  8
RUNDUNGEN
100
AcDbLine
 62
7
  6
CONTINUOUS
 10
169.9971904734
 20
34.4068458286
 11
170.1514258268
 21
34.766893201
  0
LINE
  5
4EF
100
AcDbEntity
  8
RUNDUNGEN
100
AcDbLine
 62
7
  6
CONTINUOUS
 10
203.0938709716
 20
91.7319683281
 11
202.859176797
 21
91.4183736785
  0
LINE
  5
4F0
100
AcDbEntity
  8
RUNDUNGEN
100
AcDbLine
 62
7
  6
CONTINUOUS
 10
144.3570903857
 20
20.1418610327
 11
144.1023752121
 21
19.8445961154
  0
LINE
  5
4F1
100
AcDbEntity
  8
RUNDUNGEN
100
AcDbLine
 62
7
  6
CONTINUOUS
 10
206.2513550698
 20
95.1853255559
 11
203.0949873985
 21
91.7284678268
  0
LINE
  5
4F2
100
AcDbEntity
  8
RUNDUNGEN
100
AcDbLine
 62
7
  6
CONTINUOUS
 10
126.8336634792
 20
15.4671439067
 11
123.3766992938
 21
12.3106790329
  0
LINE
  5
4F3
100
AcDbEntity
  8
RUNDUNGEN
100
AcDbLine
 62
7
  6
CONTINUOUS
 10
198.4202714472
 20
74.2050386087
 11
198.7175366332
 21
74.4597540113
  0
LINE
  5
4F4
100
AcDbEntity
  8
RUNDUNGEN
100
AcDbLine
 62
7
  6
CONTINUOUS
 10
126.8301596264
 20
15.4682639878
 11
127.1437550468
 21
15.7029564821
  0
LINE
  5
4F5
100
AcDbEntity
  8
RUNDUNGEN
100
AcDbLine
 62
7
  6
CONTINUOUS
 10
184.1552869685
 20
48.5649360983
 11
183.7952385264
 21
48.4107022526
  0
LINE
  5
4F6
100
AcDbEntity
  8
RUNDUNGEN
100
AcDbLine
 62
7
  6
CONTINUOUS
 10
97.492689197
 20
15.9344748137
 11
97.1234669272
 21
15.8043934305
  0
LINE
  5
4F7
100
AcDbEntity
  8
RUNDUNGEN
100
AcDbLine
 62
7
  6
CONTINUOUS
 10
188.6164277275
 20
49.9768893601
 11
184.1545035719
 21
48.5613463617
  0
LINE
  5
4F8
100
AcDbEntity
  8
0
100
AcDbLine
 62
7
  6
CONTINUOUS
 10
91.2591218704
 20
183.5211367334
 11
91.6446165175
 21
183.6278795532
  0
LINE
  5
4F9
100
AcDbEntity
  8
0
100
AcDbLine
 62
7
  6
CONTINUOUS
 10
91.4801090377
 20
183.847254098
 11
91.2873619899
 21
183.7938827645
  0
LINE
  5
4FA
100
AcDbEntity
  8
0
100
AcDbLine
 62
7
  6
CONTINUOUS
 10
90.8785599031
 20
185.2702445138
 11
91.0713069509
 21
185.3236158474
  0
LINE
  5
4FB
100
AcDbEntity
  8
0
100
AcDbLine
 62
7
  6
CONTINUOUS
 10
91.0995470764
 20
185.596361857
 11
90.7140524292
 21
185.4896190371
  0
LINE
  5
4FC
100
AcDbEntity
  8
0
100
AcDbLine
 62
7
  6
CONTINUOUS
 10
92.6106573537
 20
183.8862542586
 11
92.8526502984
 21
183.9490197752
  0
LINE
  5
4FD
100
AcDbEntity
  8
0
100
AcDbLine
 62
7
  6
CONTINUOUS
 10
92.0994646732
 20
186.8529328962
 11
91.8574717285
 21
186.7901673795
  0
LINE
  5
4FE
100
AcDbEntity
  8
0
100
AcDbLine
 62
7
  6
CONTINUOUS
 10
93.240238306
 20
184.0478906287
 11
93.4827269803
 21
184.108712814
  0
LINE
  5
4FF
100
AcDbEntity
  8
0
100
AcDbLine
 62
7
  6
CONTINUOUS
 10
92.9857971805
 20
186.0898953018
 11
92.7433085062
 21
186.0290731165
  0
LINE
  5
500
100
AcDbEntity
  8
0
100
AcDbLine
 62
7
  6
CONTINUOUS
 10
92.5880179138
 20
186.6481927632
 11
92.8305065881
 21
186.7090149485
  0
LINE
  5
501
100
AcDbEntity
  8
0
100
AcDbLine
 62
7
  6
CONTINUOUS
 10
92.7528613137
 20
187.0185746851
 11
92.5103726394
 21
186.9577524998
  0
LINE
  5
502
100
AcDbEntity
  8
0
100
AcDbLine
 62
7
  6
CONTINUOUS
 10
93.8704192889
 20
184.2073193252
 11
94.1137992219
 21
184.2644684064
  0
LINE
  5
503
100
AcDbEntity
  8
0
100
AcDbLine
 62
7
  6
CONTINUOUS
 10
94.9899683175
 20
184.4702054129
 11
95.2333488075
 21
184.5273546249
  0
LINE
  5
504
100
AcDbEntity
  8
0
100
AcDbLine
 62
7
  6
CONTINUOUS
 10
94.2796675336
 20
186.4015251382
 11
94.0849629188
 21
186.3558057163
  0
LINE
  5
505
100
AcDbEntity
  8
0
100
AcDbLine
 62
7
  6
CONTINUOUS
 10
93.646878371
 20
186.252937213
 11
93.403498438
 21
186.1957881318
  0
LINE
  5
506
100
AcDbEntity
  8
RUNDUNGEN
100
AcDbLine
 62
7
  6
CONTINUOUS
 10
146.1680026749
 20
190.3288976688
 11
150.7400534297
 21
191.333994236
  0
LINE
  5
507
100
AcDbEntity
  8
0
100
AcDbLine
 62
7
  6
CONTINUOUS
 10
95.6237972836
 20
184.6144730753
 11
95.8683866537
 21
184.6662016875
  0
LINE
  5
508
100
AcDbEntity
  8
0
100
AcDbLine
 62
7
  6
CONTINUOUS
 10
96.6999919674
 20
184.8420792769
 11
96.9934996593
 21
184.9041537063
  0
LINE
  5
509
100
AcDbEntity
  8
0
100
AcDbLine
 62
7
  6
CONTINUOUS
 10
96.3751930919
 20
186.861120854
 11
96.0816859598
 21
186.799046543
  0
LINE
  5
50A
100
AcDbEntity
  8
0
100
AcDbLine
 62
7
  6
CONTINUOUS
 10
95.2476423597
 20
187.6012786067
 11
95.0030529896
 21
187.5495499945
  0
LINE
  5
50B
100
AcDbEntity
  8
RUNDUNGEN
100
AcDbLine
 62
7
  6
CONTINUOUS
 10
54.8032342529
 20
175.2536926761
 11
54.4184373488
 21
175.1817352597
  0
LINE
  5
50C
100
AcDbEntity
  8
0
100
AcDbLine
 62
7
  6
CONTINUOUS
 10
129.5573060129
 20
185.6405602365
 11
129.43573553
 21
185.6222403107
  0
LINE
  5
50D
100
AcDbEntity
  8
0
100
AcDbLine
 62
7
  6
CONTINUOUS
 10
129.6093951913
 20
187.3494332138
 11
129.4878247083
 21
187.3311132881
  0
LINE
  5
50E
100
AcDbEntity
  8
0
100
AcDbLine
 62
7
  6
CONTINUOUS
 10
139.6925835927
 20
184.3805094234
 11
139.7881558429
 21
184.3925333529
  0
LINE
  5
50F
100
AcDbEntity
  8
RUNDUNGEN
100
AcDbLine
 62
7
  6
CONTINUOUS
 10
146.1704770599
 20
190.3261757238
 11
145.7815492122
 21
190.2797237718
  0
LINE
  5
510
100
AcDbEntity
  8
0
100
AcDbLine
 62
7
  6
CONTINUOUS
 10
132.1498793624
 20
185.020024015
 11
132.0277742397
 21
185.0056956222
  0
LINE
  5
511
100
AcDbEntity
  8
0
100
AcDbLine
 62
7
  6
CONTINUOUS
 10
131.9315892363
 20
185.8511577183
 11
132.0536946805
 21
185.8654860348
  0
LINE
  5
512
100
AcDbEntity
  8
0
100
AcDbLine
 62
7
  6
CONTINUOUS
 10
129.3854745457
 20
185.3745217963
 11
129.5353433213
 21
185.3871001281
  0
LINE
  5
513
100
AcDbEntity
  8
0
100
AcDbLine
 62
7
  6
CONTINUOUS
 10
87.7685433128
 20
185.546451875
 11
87.5110259595
 21
185.5303559945
  0
LINE
  5
514
100
AcDbEntity
  8
0
100
AcDbLine
 62
7
  6
CONTINUOUS
 10
131.9791513805
 20
184.8007460871
 11
132.1293515617
 21
184.8084091255
  0
LINE
  5
515
100
AcDbEntity
  8
0
100
AcDbLine
 62
7
  6
CONTINUOUS
 10
132.1023175329
 20
186.0704355413
 11
131.952117031
 21
186.0627725828
  0
LINE
  5
516
100
AcDbEntity
  8
0
100
AcDbLine
 62
7
  6
CONTINUOUS
 10
138.3777443315
 20
183.3073275673
 11
138.2548905331
 21
183.3026551241
  0
LINE
  5
517
100
AcDbEntity
  8
0
100
AcDbLine
 62
7
  6
CONTINUOUS
 10
138.6197494461
 20
184.9997794495
 11
138.4968950187
 21
184.995107209
  0
LINE
  5
518
100
AcDbEntity
  8
0
100
AcDbLine
 62
7
  6
CONTINUOUS
 10
133.3308300678
 20
184.7273347838
 11
133.1805287187
 21
184.7220130598
  0
LINE
  5
519
100
AcDbEntity
  8
0
100
AcDbLine
 62
7
  6
CONTINUOUS
 10
133.4136238863
 20
186.2275274707
 11
133.5639258761
 21
186.2328490321
  0
LINE
  5
51A
100
AcDbEntity
  8
0
100
AcDbLine
 62
7
  6
CONTINUOUS
 10
135.8073234976
 20
185.5866031612
 11
135.9577178338
 21
185.5873452963
  0
LINE
  5
51B
100
AcDbEntity
  8
0
100
AcDbLine
 62
7
  6
CONTINUOUS
 10
133.1287182916
 20
184.517846035
 11
133.3070077509
 21
184.5160653624
  0
LINE
  5
51C
100
AcDbEntity
  8
0
100
AcDbLine
 62
7
  6
CONTINUOUS
 10
133.6157362959
 20
186.4370160284
 11
133.4374468375
 21
186.4387967045
  0
LINE
  5
51D
100
AcDbEntity
  8
0
100
AcDbLine
 62
7
  6
CONTINUOUS
 10
138.1773648522
 20
183.0620716714
 11
138.3277028085
 21
183.0578876155
  0
LINE
  5
51E
100
AcDbEntity
  8
0
100
AcDbLine
 62
7
  6
CONTINUOUS
 10
91.0493414025
 20
183.5292804718
 11
91.2591218704
 21
183.5211367334
  0
LINE
  5
51F
100
AcDbEntity
  8
0
100
AcDbLine
 62
7
  6
CONTINUOUS
 10
91.2873619899
 20
183.7938827645
 11
91.0775812418
 21
183.8020264427
  0
LINE
  5
520
100
AcDbEntity
  8
0
100
AcDbLine
 62
7
  6
CONTINUOUS
 10
91.0713069509
 20
185.3236158474
 11
91.281087693
 21
185.3154721907
  0
LINE
  5
521
100
AcDbEntity
  8
0
100
AcDbLine
 62
7
  6
CONTINUOUS
 10
91.3093275428
 20
185.5882181239
 11
91.0995470764
 21
185.596361857
  0
LINE
  5
522
100
AcDbEntity
  8
0
100
AcDbLine
 62
7
  6
CONTINUOUS
 10
139.3830463594
 20
182.6614808434
 11
139.5332984598
 21
182.6549285865
  0
LINE
  5
523
100
AcDbEntity
  8
0
100
AcDbLine
 62
7
  6
CONTINUOUS
 10
139.6528810273
 20
183.9045814703
 11
139.5026276764
 21
183.9111341559
  0
LINE
  5
524
100
AcDbEntity
  8
0
100
AcDbLine
 62
7
  6
CONTINUOUS
 10
139.8832518934
 20
184.5826884563
 11
139.7329985425
 21
184.5892411418
  0
LINE
  5
525
100
AcDbEntity
  8
0
100
AcDbLine
 62
7
  6
CONTINUOUS
 10
136.0434796814
 20
185.7818886787
 11
135.837568918
 21
185.7970489658
  0
LINE
  5
526
100
AcDbEntity
  8
0
100
AcDbLine
 62
7
  6
CONTINUOUS
 10
94.14332802
 20
186.1072471372
 11
94.3526239102
 21
186.0908269144
  0
LINE
  5
527
100
AcDbEntity
  8
0
100
AcDbLine
 62
7
  6
CONTINUOUS
 10
87.6566945465
 20
185.2420216796
 11
87.8190520288
 21
185.2273830763
  0
LINE
  5
528
100
AcDbEntity
  8
RUNDUNGEN
100
AcDbLine
 62
7
  6
CONTINUOUS
 10
79.9771244077
 20
190.3261803689
 11
80.3660524081
 21
190.279726671
  0
LINE
  5
529
100
AcDbEntity
  8
0
100
AcDbLine
 62
7
  6
CONTINUOUS
 10
94.4402869916
 20
186.3736749945
 11
94.2796675336
 21
186.4015251382
  0
LINE
  5
52A
100
AcDbEntity
  8
0
100
AcDbLine
 62
7
  6
CONTINUOUS
 10
127.5142536342
 20
185.7354956286
 11
128.5361268383
 21
185.5448771487
  0
LINE
  5
52B
100
AcDbEntity
  8
0
100
AcDbLine
 62
7
  6
CONTINUOUS
 10
128.5824778363
 20
185.7933569546
 11
127.7309168329
 21
185.9522056878
  0
LINE
  5
52C
100
AcDbEntity
  8
0
100
AcDbLine
 62
7
  6
CONTINUOUS
 10
128.0476486537
 20
187.6501510325
 11
127.877336453
 21
187.6819207791
  0
LINE
  5
52D
100
AcDbEntity
  8
RUNDUNGEN
100
AcDbLine
 62
7
  6
CONTINUOUS
 10
171.3443663216
 20
175.2536900903
 11
171.7291628784
 21
175.1817327378
  0
LINE
  5
52E
100
AcDbEntity
  8
0
100
AcDbLine
 62
7
  6
CONTINUOUS
 10
129.1590874012
 20
185.4204547405
 11
129.3854745457
 21
185.3745217963
  0
LINE
  5
52F
100
AcDbEntity
  8
0
100
AcDbLine
 62
7
  6
CONTINUOUS
 10
129.43573553
 20
185.6222403107
 11
129.2093483855
 21
185.668173255
  0
LINE
  5
530
100
AcDbEntity
  8
0
100
AcDbLine
 62
7
  6
CONTINUOUS
 10
129.0415988931
 20
186.0031111607
 11
128.8718085752
 21
186.0375608607
  0
LINE
  5
531
100
AcDbEntity
  8
0
100
AcDbLine
 62
7
  6
CONTINUOUS
 10
129.3915975947
 20
186.2759863276
 11
129.5613879936
 21
186.2415366113
  0
LINE
  5
532
100
AcDbEntity
  8
0
100
AcDbLine
 62
7
  6
CONTINUOUS
 10
129.611648972
 20
186.4892550968
 11
129.4418585731
 21
186.5237048131
  0
LINE
  5
533
100
AcDbEntity
  8
0
100
AcDbLine
 62
7
  6
CONTINUOUS
 10
129.8568308619
 20
186.8263832243
 11
130.0266212608
 21
186.7919335079
  0
LINE
  5
534
100
AcDbEntity
  8
0
100
AcDbLine
 62
7
  6
CONTINUOUS
 10
129.5591342129
 20
187.1017147283
 11
129.7289246117
 21
187.0672650119
  0
LINE
  5
535
100
AcDbEntity
  8
0
100
AcDbLine
 62
7
  6
CONTINUOUS
 10
129.7508871363
 20
187.3207251278
 11
129.6093951913
 21
187.3494332138
  0
LINE
  5
536
100
AcDbEntity
  8
RUNDUNGEN
100
AcDbLine
 62
7
  6
CONTINUOUS
 10
79.9795981424
 20
190.3288975873
 11
75.4078974566
 21
191.3339171971
  0
LINE
  5
537
100
AcDbEntity
  8
0
100
AcDbLine
 62
7
  6
CONTINUOUS
 10
131.8105803913
 20
184.840738388
 11
131.9791513805
 21
184.8007460871
  0
LINE
  5
538
100
AcDbEntity
  8
0
100
AcDbLine
 62
7
  6
CONTINUOUS
 10
132.0277742397
 20
185.0056956222
 11
131.8592032505
 21
185.0456879231
  0
LINE
  5
539
100
AcDbEntity
  8
0
100
AcDbLine
 62
7
  6
CONTINUOUS
 10
131.674418767
 20
185.3926057121
 11
131.5058477779
 21
185.4325980129
  0
LINE
  5
53A
100
AcDbEntity
  8
0
100
AcDbLine
 62
7
  6
CONTINUOUS
 10
131.5933689258
 20
185.8015071819
 11
131.7900349726
 21
185.754849523
  0
LINE
  5
53B
100
AcDbEntity
  8
0
100
AcDbLine
 62
7
  6
CONTINUOUS
 10
132.0536946805
 20
185.8654860348
 11
132.2222656696
 21
185.825493734
  0
LINE
  5
53C
100
AcDbEntity
  8
0
100
AcDbLine
 62
7
  6
CONTINUOUS
 10
132.270888522
 20
186.0304432404
 11
132.1023175329
 21
186.0704355413
  0
LINE
  5
53D
100
AcDbEntity
  8
0
100
AcDbLine
 62
7
  6
CONTINUOUS
 10
131.938060543
 20
186.6289683571
 11
132.7528204309
 21
186.4356722109
  0
LINE
  5
53E
100
AcDbEntity
  8
0
100
AcDbLine
 62
7
  6
CONTINUOUS
 10
132.8014432833
 20
186.6406217173
 11
131.8462077855
 21
186.86724473
  0
LINE
  5
53F
100
AcDbEntity
  8
0
100
AcDbLine
 62
7
  6
CONTINUOUS
 10
134.0402136652
 20
185.0221552365
 11
134.4308064753
 21
184.9179672282
  0
LINE
  5
540
100
AcDbEntity
  8
0
100
AcDbLine
 62
7
  6
CONTINUOUS
 10
134.4850946639
 20
185.1214894613
 11
134.0945018537
 21
185.2256774697
  0
LINE
  5
541
100
AcDbEntity
  8
0
100
AcDbLine
 62
7
  6
CONTINUOUS
 10
134.6363054044
 20
184.1198918115
 11
134.8033871781
 21
184.0740743105
  0
LINE
  5
542
100
AcDbEntity
  8
0
100
AcDbLine
 62
7
  6
CONTINUOUS
 10
135.3270157607
 20
185.9835802957
 11
135.159933987
 21
186.0293977966
  0
LINE
  5
543
100
AcDbEntity
  8
0
100
AcDbLine
 62
7
  6
CONTINUOUS
 10
135.0263488364
 20
184.013611864
 11
136.0256597744
 21
183.7273638959
  0
LINE
  5
544
100
AcDbEntity
  8
0
100
AcDbLine
 62
7
  6
CONTINUOUS
 10
136.0836634166
 20
183.9298585177
 11
135.3064213641
 21
184.1524958869
  0
LINE
  5
545
100
AcDbEntity
  8
0
100
AcDbLine
 62
7
  6
CONTINUOUS
 10
135.4717339154
 20
185.4636217709
 11
135.6105268895
 21
185.4238651693
  0
LINE
  5
546
100
AcDbEntity
  8
0
100
AcDbLine
 62
7
  6
CONTINUOUS
 10
135.9577178338
 20
185.5873452963
 11
136.0687519589
 21
185.5555400879
  0
LINE
  5
547
100
AcDbEntity
  8
0
100
AcDbLine
 62
7
  6
CONTINUOUS
 10
136.1545144419
 20
185.7500832883
 11
136.0434796814
 21
185.7818886787
  0
LINE
  5
548
100
AcDbEntity
  8
RUNDUNGEN
100
AcDbLine
 62
7
  6
CONTINUOUS
 10
184.1545035615
 20
162.4153157908
 11
188.6165639461
 21
160.9997295739
  0
LINE
  5
549
100
AcDbEntity
  8
0
100
AcDbLine
 62
7
  6
CONTINUOUS
 10
137.957498517
 20
183.1329214624
 11
138.1773648522
 21
183.0620716714
  0
LINE
  5
54A
100
AcDbEntity
  8
0
100
AcDbLine
 62
7
  6
CONTINUOUS
 10
138.2548905331
 20
183.3026551241
 11
138.035024198
 21
183.3735049151
  0
LINE
  5
54B
100
AcDbEntity
  8
0
100
AcDbLine
 62
7
  6
CONTINUOUS
 10
137.9056038601
 20
183.7250355991
 11
137.7407039515
 21
183.778172993
  0
LINE
  5
54C
100
AcDbEntity
  8
0
100
AcDbLine
 62
7
  6
CONTINUOUS
 10
138.2838048315
 20
183.9572511639
 11
138.4487047401
 21
183.9041137699
  0
LINE
  5
54D
100
AcDbEntity
  8
0
100
AcDbLine
 62
7
  6
CONTINUOUS
 10
138.5262304121
 20
184.1446971945
 11
138.3613305034
 21
184.1978345885
  0
LINE
  5
54E
100
AcDbEntity
  8
0
100
AcDbLine
 62
7
  6
CONTINUOUS
 10
138.8074188648
 20
184.4524350498
 11
138.9723187734
 21
184.3992976558
  0
LINE
  5
54F
100
AcDbEntity
  8
0
100
AcDbLine
 62
7
  6
CONTINUOUS
 10
138.5422237742
 20
184.7591960249
 11
138.7071236828
 21
184.7060586309
  0
LINE
  5
550
100
AcDbEntity
  8
0
100
AcDbLine
 62
7
  6
CONTINUOUS
 10
138.7571658269
 20
184.9554983555
 11
138.6197494461
 21
184.9997794495
  0
LINE
  5
551
100
AcDbEntity
  8
0
100
AcDbLine
 62
7
  6
CONTINUOUS
 10
139.2463442337
 20
182.7079221687
 11
139.3830463594
 21
182.6614808434
  0
LINE
  5
552
100
AcDbEntity
  8
0
100
AcDbLine
 62
7
  6
CONTINUOUS
 10
139.4781424193
 20
182.8516359747
 11
139.2867604446
 21
182.9166534899
  0
LINE
  5
553
100
AcDbEntity
  8
0
100
AcDbLine
 62
7
  6
CONTINUOUS
 10
139.5577849768
 20
183.7144263669
 11
139.7491669515
 21
183.6494088517
  0
LINE
  5
554
100
AcDbEntity
  8
0
100
AcDbLine
 62
7
  6
CONTINUOUS
 10
139.7895831529
 20
183.858140145
 11
139.6528810273
 21
183.9045814703
  0
LINE
  5
555
100
AcDbEntity
  8
0
100
AcDbLine
 62
7
  6
CONTINUOUS
 10
140.0896124412
 20
184.0231664846
 11
140.2263145668
 21
183.9767251593
  0
LINE
  5
556
100
AcDbEntity
  8
0
100
AcDbLine
 62
7
  6
CONTINUOUS
 10
139.7881558429
 20
184.3925333529
 11
139.9521978931
 21
184.3368039327
  0
LINE
  5
557
100
AcDbEntity
  8
0
100
AcDbLine
 62
7
  6
CONTINUOUS
 10
139.992612843
 20
184.5455356512
 11
139.8832518934
 21
184.5826884563
  0
LINE
  5
558
100
AcDbEntity
  8
0
100
AcDbLine
 62
7
  6
CONTINUOUS
 10
140.0107621144
 20
182.4446126164
 11
140.1469885472
 21
182.3967939291
  0
LINE
  5
559
100
AcDbEntity
  8
0
100
AcDbLine
 62
7
  6
CONTINUOUS
 10
140.2167542017
 20
182.5955431375
 11
140.0805277689
 21
182.6433618248
  0
LINE
  5
55A
100
AcDbEntity
  8
RUNDUNGEN
100
AcDbLine
 62
7
  6
CONTINUOUS
 10
97.4926906003
 20
195.0421895102
 11
97.1234679978
 21
195.1722710112
  0
LINE
  5
55B
100
AcDbEntity
  8
0
100
AcDbLine
 62
7
  6
CONTINUOUS
 10
140.5279582055
 20
182.2615893296
 11
140.6910913296
 21
182.2032528376
  0
LINE
  5
55C
100
AcDbEntity
  8
0
100
AcDbLine
 62
7
  6
CONTINUOUS
 10
141.357794095
 20
184.0676313997
 11
141.1946609708
 21
184.1259678917
  0
LINE
  5
55D
100
AcDbEntity
  8
0
100
AcDbLine
 62
7
  6
CONTINUOUS
 10
167.8892403761
 20
166.244839562
 11
167.7751426548
 21
166.2906293259
  0
LINE
  5
55E
100
AcDbEntity
  8
0
100
AcDbLine
 62
7
  6
CONTINUOUS
 10
168.7998312791
 20
167.6918310336
 11
168.6857335579
 21
167.7376207974
  0
LINE
  5
55F
100
AcDbEntity
  8
0
100
AcDbLine
 62
7
  6
CONTINUOUS
 10
169.4995985701
 20
166.6575602359
 11
169.6129268314
 21
166.6098978064
  0
LINE
  5
560
100
AcDbEntity
  8
RUNDUNGEN
100
AcDbLine
 62
7
  6
CONTINUOUS
 10
184.1552854692
 20
162.4117213248
 11
183.7952380968
 21
162.5659566782
  0
LINE
  5
561
100
AcDbEntity
  8
0
100
AcDbLine
 62
7
  6
CONTINUOUS
 10
167.606318863
 20
166.1025092678
 11
167.7419066701
 21
166.0374337517
  0
LINE
  5
562
100
AcDbEntity
  8
0
100
AcDbLine
 62
7
  6
CONTINUOUS
 10
168.6076427301
 20
165.1864855709
 11
168.7421405246
 21
165.1191861831
  0
LINE
  5
563
100
AcDbEntity
  8
0
100
AcDbLine
 62
7
  6
CONTINUOUS
 10
169.7848254838
 20
166.7952123156
 11
169.6503275707
 21
166.8625118184
  0
LINE
  5
564
100
AcDbEntity
  8
0
100
AcDbLine
 62
7
  6
CONTINUOUS
 10
129.0259721247
 20
185.4904492773
 11
129.1590874012
 21
185.4204547405
  0
LINE
  5
565
100
AcDbEntity
  8
0
100
AcDbLine
 62
7
  6
CONTINUOUS
 10
129.7447640873
 20
186.4192605965
 11
129.611648972
 21
186.4892550968
  0
LINE
  5
566
100
AcDbEntity
  8
0
100
AcDbLine
 62
7
  6
CONTINUOUS
 10
129.8840024136
 20
187.2507305947
 11
129.7508871363
 21
187.3207251278
  0
LINE
  5
567
100
AcDbEntity
  8
0
100
AcDbLine
 62
7
  6
CONTINUOUS
 10
132.9711530021
 20
184.6012935132
 11
133.1287182916
 21
184.517846035
  0
LINE
  5
568
100
AcDbEntity
  8
0
100
AcDbLine
 62
7
  6
CONTINUOUS
 10
133.7733015863
 20
186.3535685538
 11
133.6157362959
 21
186.4370160284
  0
LINE
  5
569
100
AcDbEntity
  8
0
100
AcDbLine
 62
7
  6
CONTINUOUS
 10
171.554426283
 20
164.7552075508
 11
171.6866094823
 21
164.6834690109
  0
LINE
  5
56A
100
AcDbEntity
  8
0
100
AcDbLine
 62
7
  6
CONTINUOUS
 10
131.6798290312
 20
184.9150552356
 11
131.8105803913
 21
184.840738388
  0
LINE
  5
56B
100
AcDbEntity
  8
0
100
AcDbLine
 62
7
  6
CONTINUOUS
 10
132.4016395615
 20
185.9561264726
 11
132.270888522
 21
186.0304432404
  0
LINE
  5
56C
100
AcDbEntity
  8
0
100
AcDbLine
 62
7
  6
CONTINUOUS
 10
136.309465538
 20
185.6618763749
 11
136.1545144419
 21
185.7500832883
  0
LINE
  5
56D
100
AcDbEntity
  8
0
100
AcDbLine
 62
7
  6
CONTINUOUS
 10
133.1805287187
 20
184.7220130598
 11
133.0509508969
 21
184.7983582969
  0
LINE
  5
56E
100
AcDbEntity
  8
0
100
AcDbLine
 62
7
  6
CONTINUOUS
 10
133.5639258761
 20
186.2328490321
 11
133.6935030572
 21
186.1565039576
  0
LINE
  5
56F
100
AcDbEntity
  8
0
100
AcDbLine
 62
7
  6
CONTINUOUS
 10
174.3400178835
 20
161.870924535
 11
174.468593939
 21
161.7929052153
  0
LINE
  5
570
100
AcDbEntity
  8
0
100
AcDbLine
 62
7
  6
CONTINUOUS
 10
129.2093483855
 20
185.668173255
 11
129.104531562
 21
185.7324261578
  0
LINE
  5
571
100
AcDbEntity
  8
0
100
AcDbLine
 62
7
  6
CONTINUOUS
 10
129.2867807713
 20
186.3402392304
 11
129.3915975947
 21
186.2759863276
  0
LINE
  5
572
100
AcDbEntity
  8
0
100
AcDbLine
 62
7
  6
CONTINUOUS
 10
129.5613879936
 20
186.2415366113
 11
129.6662048171
 21
186.1772837085
  0
LINE
  5
573
100
AcDbEntity
  8
0
100
AcDbLine
 62
7
  6
CONTINUOUS
 10
136.0687519589
 20
185.5555400879
 11
136.1959448415
 21
185.4752843856
  0
LINE
  5
574
100
AcDbEntity
  8
0
100
AcDbLine
 62
7
  6
CONTINUOUS
 10
171.8554233673
 20
164.812713479
 11
171.6822312676
 21
164.9251138374
  0
LINE
  5
575
100
AcDbEntity
  8
0
100
AcDbLine
 62
7
  6
CONTINUOUS
 10
131.8592032505
 20
185.0456879231
 11
131.7565469473
 21
185.1133394091
  0
LINE
  5
576
100
AcDbEntity
  8
0
100
AcDbLine
 62
7
  6
CONTINUOUS
 10
132.2222656696
 20
185.825493734
 11
132.3249216514
 21
185.7578423242
  0
LINE
  5
577
100
AcDbEntity
  8
0
100
AcDbLine
 62
7
  6
CONTINUOUS
 10
137.8330024536
 20
183.2173000002
 11
137.957498517
 21
183.1329214624
  0
LINE
  5
578
100
AcDbEntity
  8
0
100
AcDbLine
 62
7
  6
CONTINUOUS
 10
138.6507264766
 20
184.0603186603
 11
138.5262304121
 21
184.1446971945
  0
LINE
  5
579
100
AcDbEntity
  8
0
100
AcDbLine
 62
7
  6
CONTINUOUS
 10
138.8816612624
 20
184.871120024
 11
138.7571658269
 21
184.9554983555
  0
LINE
  5
57A
100
AcDbEntity
  8
0
100
AcDbLine
 62
7
  6
CONTINUOUS
 10
139.1231933344
 20
182.7942521371
 11
139.2463442337
 21
182.7079221687
  0
LINE
  5
57B
100
AcDbEntity
  8
0
100
AcDbLine
 62
7
  6
CONTINUOUS
 10
139.9127328018
 20
183.7718106053
 11
139.7895831529
 21
183.858140145
  0
LINE
  5
57C
100
AcDbEntity
  8
0
100
AcDbLine
 62
7
  6
CONTINUOUS
 10
140.1157637434
 20
184.4592056863
 11
139.992612843
 21
184.5455356512
  0
LINE
  5
57D
100
AcDbEntity
  8
0
100
AcDbLine
 62
7
  6
CONTINUOUS
 10
174.6434345452
 20
161.913872247
 11
174.4758548118
 21
162.0344806087
  0
LINE
  5
57E
100
AcDbEntity
  8
RUNDUNGEN
100
AcDbLine
 62
7
  6
CONTINUOUS
 10
126.8301629697
 20
195.508401823
 11
127.1437576193
 21
195.2737076484
  0
LINE
  5
57F
100
AcDbEntity
  8
0
100
AcDbLine
 62
7
  6
CONTINUOUS
 10
138.035024198
 20
183.3735049151
 11
137.9380116612
 21
183.4490271495
  0
LINE
  5
580
100
AcDbEntity
  8
0
100
AcDbLine
 62
7
  6
CONTINUOUS
 10
138.1867922947
 20
184.0327733982
 11
138.2838048315
 21
183.9572511639
  0
LINE
  5
581
100
AcDbEntity
  8
0
100
AcDbLine
 62
7
  6
CONTINUOUS
 10
138.4487047401
 20
183.9041137699
 11
138.5457166478
 21
183.8285917383
  0
LINE
  5
582
100
AcDbEntity
  8
RUNDUNGEN
100
AcDbLine
 62
7
  6
CONTINUOUS
 10
198.4202702652
 20
136.7716212371
 11
198.7175351824
 21
136.5169060635
  0
LINE
  5
583
100
AcDbEntity
  8
0
100
AcDbLine
 62
7
  6
CONTINUOUS
 10
167.4343980113
 20
166.2567954742
 11
167.606318863
 21
166.1025092678
  0
LINE
  5
584
100
AcDbEntity
  8
0
100
AcDbLine
 62
7
  6
CONTINUOUS
 10
167.7751426548
 20
166.2906293259
 11
167.6032218031
 21
166.4449155322
  0
LINE
  5
585
100
AcDbEntity
  8
0
100
AcDbLine
 62
7
  6
CONTINUOUS
 10
167.6282620694
 20
166.8186751083
 11
167.499321446
 21
166.9343897493
  0
LINE
  5
586
100
AcDbEntity
  8
0
100
AcDbLine
 62
7
  6
CONTINUOUS
 10
168.068261521
 20
166.8766441228
 11
168.1972021444
 21
166.7609294819
  0
LINE
  5
587
100
AcDbEntity
  8
0
100
AcDbLine
 62
7
  6
CONTINUOUS
 10
168.3660259165
 20
166.9490495179
 11
168.2370852931
 21
167.0647641589
  0
LINE
  5
588
100
AcDbEntity
  8
0
100
AcDbLine
 62
7
  6
CONTINUOUS
 10
168.7482022463
 20
167.1155150465
 11
168.8771428697
 21
166.9998004055
  0
LINE
  5
589
100
AcDbEntity
  8
0
100
AcDbLine
 62
7
  6
CONTINUOUS
 10
168.631007507
 20
167.5037109975
 11
168.7599481304
 21
167.3879963565
  0
LINE
  5
58A
100
AcDbEntity
  8
0
100
AcDbLine
 62
7
  6
CONTINUOUS
 10
168.9072817884
 20
167.5954021753
 11
168.7998312791
 21
167.6918310336
  0
LINE
  5
58B
100
AcDbEntity
  8
RUNDUNGEN
100
AcDbLine
 62
7
  6
CONTINUOUS
 10
123.376762873
 20
198.6659250638
 11
126.833663471
 21
195.5095182499
  0
LINE
  5
58C
100
AcDbEntity
  8
0
100
AcDbLine
 62
7
  6
CONTINUOUS
 10
168.4382858794
 20
165.3435818206
 11
168.6076427301
 21
165.1864855709
  0
LINE
  5
58D
100
AcDbEntity
  8
0
100
AcDbLine
 62
7
  6
CONTINUOUS
 10
168.8193388844
 20
164.9901151745
 11
168.9463565527
 21
164.8722929591
  0
LINE
  5
58E
100
AcDbEntity
  8
0
100
AcDbLine
 62
7
  6
CONTINUOUS
 10
168.7795414026
 20
165.3718001017
 11
168.6101845519
 21
165.5288963514
  0
LINE
  5
58F
100
AcDbEntity
  8
0
100
AcDbLine
 62
7
  6
CONTINUOUS
 10
169.036118561
 20
165.4785664515
 11
168.9091008927
 21
165.5963886669
  0
LINE
  5
590
100
AcDbEntity
  8
0
100
AcDbLine
 62
7
  6
CONTINUOUS
 10
169.6129268314
 20
166.6098978064
 11
169.7822836821
 21
166.4528015567
  0
LINE
  5
591
100
AcDbEntity
  8
0
100
AcDbLine
 62
7
  6
CONTINUOUS
 10
169.9541823345
 20
166.6381160658
 11
169.7848254838
 21
166.7952123156
  0
LINE
  5
592
100
AcDbEntity
  8
0
100
AcDbLine
 62
7
  6
CONTINUOUS
 10
139.9521978931
 20
184.3368039327
 11
140.020667693
 21
184.2690505829
  0
LINE
  5
593
100
AcDbEntity
  8
0
100
AcDbLine
 62
7
  6
CONTINUOUS
 10
170.1127414423
 20
163.7523276614
 11
170.8508960176
 21
163.0204205137
  0
LINE
  5
594
100
AcDbEntity
  8
0
100
AcDbLine
 62
7
  6
CONTINUOUS
 10
170.9992054732
 20
163.169995912
 11
170.4250853261
 21
163.7392569494
  0
LINE
  5
595
100
AcDbEntity
  8
0
100
AcDbLine
 62
7
  6
CONTINUOUS
 10
171.2010737542
 20
164.8089398696
 11
171.3035953012
 21
164.7072860215
  0
LINE
  5
596
100
AcDbEntity
  8
0
100
AcDbLine
 62
7
  6
CONTINUOUS
 10
171.6866094823
 20
164.6834690109
 11
171.7686268138
 21
164.6021458394
  0
LINE
  5
597
100
AcDbEntity
  8
0
100
AcDbLine
 62
7
  6
CONTINUOUS
 10
171.9374404641
 20
164.7313905402
 11
171.8554233673
 21
164.812713479
  0
LINE
  5
598
100
AcDbEntity
  8
0
100
AcDbLine
 62
7
  6
CONTINUOUS
 10
172.0989040818
 20
161.7368962837
 11
172.21842492
 21
161.6114756644
  0
LINE
  5
599
100
AcDbEntity
  8
0
100
AcDbLine
 62
7
  6
CONTINUOUS
 10
173.6518034265
 20
162.9774281003
 11
173.5322825883
 21
163.1028487196
  0
LINE
  5
59A
100
AcDbEntity
  8
0
100
AcDbLine
 62
7
  6
CONTINUOUS
 10
172.8517213756
 20
160.9386174252
 11
173.5537822217
 21
160.1720205178
  0
LINE
  5
59B
100
AcDbEntity
  8
0
100
AcDbLine
 62
7
  6
CONTINUOUS
 10
173.7091210107
 20
160.3142820904
 11
173.1630735371
 21
160.9105242919
  0
LINE
  5
59C
100
AcDbEntity
  8
0
100
AcDbLine
 62
7
  6
CONTINUOUS
 10
173.9896620659
 20
161.9416067302
 11
174.0871708143
 21
161.8351346126
  0
LINE
  5
59D
100
AcDbEntity
  8
0
100
AcDbLine
 62
7
  6
CONTINUOUS
 10
174.468593939
 20
161.7929052153
 11
174.5466008485
 21
161.7077276187
  0
LINE
  5
59E
100
AcDbEntity
  8
0
100
AcDbLine
 62
7
  6
CONTINUOUS
 10
174.7214414546
 20
161.8286946504
 11
174.6434345452
 21
161.913872247
  0
LINE
  5
59F
100
AcDbEntity
  8
RUNDUNGEN
100
AcDbLine
 62
7
  6
CONTINUOUS
 10
203.0949873911
 20
119.2481943306
 11
206.2514519289
 21
115.7912305131
  0
LINE
  5
5A0
100
AcDbEntity
  8
0
100
AcDbLine
 62
7
  6
CONTINUOUS
 10
174.6517666574
 20
160.8404383025
 11
174.7477807631
 21
160.7326173002
  0
LINE
  5
5A1
100
AcDbEntity
  8
0
100
AcDbLine
 62
7
  6
CONTINUOUS
 10
174.8822008625
 20
160.5816675021
 11
174.9782149681
 21
160.4738464998
  0
LINE
  5
5A2
100
AcDbEntity
  8
0
100
AcDbLine
 62
7
  6
CONTINUOUS
 10
175.2752570466
 20
160.583703674
 11
175.179242941
 21
160.6915246763
  0
LINE
  5
5A3
100
AcDbEntity
  8
0
100
AcDbLine
 62
7
  6
CONTINUOUS
 10
175.0448228416
 20
160.8424744744
 11
174.9488087359
 21
160.9502954767
  0
LINE
  5
5A4
100
AcDbEntity
  8
RUNDUNGEN
100
AcDbLine
 62
7
  6
CONTINUOUS
 10
144.3570926892
 20
190.8348022986
 11
144.1023772865
 21
191.1320674846
  0
LINE
  5
5A5
100
AcDbEntity
  8
RUNDUNGEN
100
AcDbLine
 62
7
  6
CONTINUOUS
 10
203.0938673101
 20
119.2446904778
 11
202.8591748157
 21
119.5582858982
  0
LINE
  5
5A6
100
AcDbEntity
  8
0
100
AcDbLine
 62
7
  6
CONTINUOUS
 10
167.3550847998
 20
166.3845776745
 11
167.4343980113
 21
166.2567954742
  0
LINE
  5
5A7
100
AcDbEntity
  8
0
100
AcDbLine
 62
7
  6
CONTINUOUS
 10
168.4453391304
 20
166.8212673203
 11
168.3660259165
 21
166.9490495179
  0
LINE
  5
5A8
100
AcDbEntity
  8
0
100
AcDbLine
 62
7
  6
CONTINUOUS
 10
168.9865950331
 20
167.4676199501
 11
168.9072817884
 21
167.5954021753
  0
LINE
  5
5A9
100
AcDbEntity
  8
0
100
AcDbLine
 62
7
  6
CONTINUOUS
 10
172.0308043397
 20
164.5794909401
 11
171.9374404641
 21
164.7313905402
  0
LINE
  5
5AA
100
AcDbEntity
  8
0
100
AcDbLine
 62
7
  6
CONTINUOUS
 10
168.3610875197
 20
165.4726528293
 11
168.4382858794
 21
165.3435818206
  0
LINE
  5
5AB
100
AcDbEntity
  8
0
100
AcDbLine
 62
7
  6
CONTINUOUS
 10
170.0313805757
 20
166.5090451723
 11
169.9541823345
 21
166.6381160658
  0
LINE
  5
5AC
100
AcDbEntity
  8
0
100
AcDbLine
 62
7
  6
CONTINUOUS
 10
171.7686268138
 20
164.6021458394
 11
171.8414862392
 21
164.4705771485
  0
LINE
  5
5AD
100
AcDbEntity
  8
0
100
AcDbLine
 62
7
  6
CONTINUOUS
 10
174.8073838422
 20
161.6724761886
 11
174.7214414546
 21
161.8286946504
  0
LINE
  5
5AE
100
AcDbEntity
  8
0
100
AcDbLine
 62
7
  6
CONTINUOUS
 10
167.6032218031
 20
166.4449155322
 11
167.545398688
 21
166.5534119609
  0
LINE
  5
5AF
100
AcDbEntity
  8
0
100
AcDbLine
 62
7
  6
CONTINUOUS
 10
168.0104383905
 20
166.9851405653
 11
168.068261521
 21
166.8766441228
  0
LINE
  5
5B0
100
AcDbEntity
  8
0
100
AcDbLine
 62
7
  6
CONTINUOUS
 10
168.1972021444
 20
166.7609294819
 11
168.2550252749
 21
166.6524330393
  0
LINE
  5
5B1
100
AcDbEntity
  8
0
100
AcDbLine
 62
7
  6
CONTINUOUS
 10
168.6101845519
 20
165.5288963514
 11
168.5541558414
 21
165.638330284
  0
LINE
  5
5B2
100
AcDbEntity
  8
0
100
AcDbLine
 62
7
  6
CONTINUOUS
 10
169.7822836821
 20
166.4528015567
 11
169.8383123926
 21
166.3433676241
  0
LINE
  5
5B3
100
AcDbEntity
  8
0
100
AcDbLine
 62
7
  6
CONTINUOUS
 10
174.5466008485
 20
161.7077276187
 11
174.6130413971
 21
161.572803678
  0
LINE
  5
5B4
100
AcDbEntity
  8
RUNDUNGEN
100
AcDbLine
 62
7
  6
CONTINUOUS
 10
169.9971951995
 20
176.5698178199
 11
170.1514290453
 21
176.2097693778
  0
LINE
  5
5B5
100
AcDbEntity
  8
RUNDUNGEN
100
AcDbLine
 62
7
  6
CONTINUOUS
 10
202.6276564841
 20
89.9072200484
 11
202.7577378673
 21
89.5379977786
  0
LINE
  5
5B6
100
AcDbEntity
  8
RUNDUNGEN
100
AcDbLine
 62
7
  6
CONTINUOUS
 10
168.5852421611
 20
181.0309578749
 11
170.0007849361
 21
176.5690344233
  0
LINE
  5
5B7
100
AcDbEntity
  8
RUNDUNGEN
100
AcDbLine
 62
7
  6
CONTINUOUS
 10
197.9143668174
 20
72.3941286229
 11
198.9194634916
 21
67.8220773815
  0
LINE
  5
5B8
100
AcDbEntity
  8
RUNDUNGEN
100
AcDbLine
 62
7
  6
CONTINUOUS
 10
182.8391618247
 20
163.7588970449
 11
182.7672044083
 21
164.143693949
  0
LINE
  5
5B9
100
AcDbEntity
  8
RUNDUNGEN
100
AcDbLine
 62
7
  6
CONTINUOUS
 10
197.9116448724
 20
72.391654238
 11
197.8651929204
 21
72.7805820857
  0
LINE
  5
5BA
100
AcDbEntity
  8
RUNDUNGEN
100
AcDbLine
 62
7
  6
CONTINUOUS
 10
197.8651959225
 20
138.1960788263
 11
197.8954241832
 21
137.8056076804
  0
LINE
  5
5BB
100
AcDbEntity
  8
RUNDUNGEN
100
AcDbLine
 62
7
  6
CONTINUOUS
 10
202.5931868635
 20
120.2909535928
 11
202.5720969546
 21
120.6819145337
  0
LINE
  5
5BC
100
AcDbEntity
  8
RUNDUNGEN
100
AcDbLine
 62
7
  6
CONTINUOUS
 10
202.5931864708
 20
90.6857082489
 11
202.5720952861
 21
90.2947460044
  0
LINE
  5
5BD
100
AcDbEntity
  8
RUNDUNGEN
100
AcDbLine
 62
7
  6
CONTINUOUS
 10
197.8651929204
 20
72.7805820857
 11
197.8954227348
 21
73.1710528939
  0
LINE
  5
5BE
100
AcDbEntity
  8
RUNDUNGEN
100
AcDbLine
 62
7
  6
CONTINUOUS
 10
202.5720969546
 20
120.6819145337
 11
202.6276586595
 21
121.0694406971
  0
LWPOLYLINE
  5
5BF
100
AcDbEntity
  8
RUNDUNGEN
100
AcDbPolyline
 62
7
  6
CONTINUOUS
 90
3
 70
0
 10
198.9410958162
 20
103.2383310746
 10
198.9382180168
 20
103.2187581747
 10
198.8128515154
 20
102.4321529987
  0
LINE
  5
5C0
100
AcDbEntity
  8
RUNDUNGEN
100
AcDbLine
 62
7
  6
CONTINUOUS
 10
198.8128515154
 20
102.4321529987
 11
198.7827113759
 21
102.2383310746
  0
LINE
  5
5C1
100
AcDbEntity
  8
RUNDUNGEN
100
AcDbLine
 62
7
  6
CONTINUOUS
 10
202.6901196657
 20
91.0651016163
 11
202.5931864708
 21
90.6857082489
  0
LINE
  5
5C2
100
AcDbEntity
  8
RUNDUNGEN
100
AcDbLine
 62
7
  6
CONTINUOUS
 10
197.8954227348
 20
73.1710528939
 11
198.001174444
 21
73.5480848979
  0
LWPOLYLINE
  5
5C3
100
AcDbEntity
  8
RUNDUNGEN
100
AcDbPolyline
 62
7
  6
CONTINUOUS
 90
3
 70
0
 10
188.562059561
 20
64.5032404366
 10
188.5689439083
 20
64.5217872936
 10
188.855115263
 20
65.265138098
  0
LINE
  5
5C4
100
AcDbEntity
  8
RUNDUNGEN
100
AcDbLine
 62
7
  6
CONTINUOUS
 10
188.855115263
 20
65.265138098
 11
188.9248946121
 21
65.4484580606
  0
LINE
  5
5C5
100
AcDbEntity
  8
RUNDUNGEN
100
AcDbLine
 62
7
  6
CONTINUOUS
 10
182.984804808
 20
47.5811528978
 11
182.8391592389
 21
47.2177649762
  0
LINE
  5
5C6
100
AcDbEntity
  8
RUNDUNGEN
100
AcDbLine
 62
7
  6
CONTINUOUS
 10
202.859176797
 20
91.4183736785
 11
202.6901196657
 21
91.0651016163
  0
LINE
  5
5C7
100
AcDbEntity
  8
RUNDUNGEN
100
AcDbLine
 62
7
  6
CONTINUOUS
 10
198.001174444
 20
73.5480848979
 11
198.1783905176
 21
73.897211959
  0
LINE
  5
5C8
100
AcDbEntity
  8
RUNDUNGEN
100
AcDbLine
 62
7
  6
CONTINUOUS
 10
183.1985514319
 20
47.9091905411
 11
182.984804808
 21
47.5811528978
  0
LINE
  5
5C9
100
AcDbEntity
  8
RUNDUNGEN
100
AcDbLine
 62
7
  6
CONTINUOUS
 10
170.1514258268
 20
34.766893201
 11
170.3728410181
 21
35.0899359332
  0
LINE
  5
5CA
100
AcDbEntity
  8
RUNDUNGEN
100
AcDbLine
 62
7
  6
CONTINUOUS
 10
198.1783905176
 20
73.897211959
 11
198.4202714472
 21
74.2050386087
  0
LWPOLYLINE
  5
5CB
100
AcDbEntity
  8
RUNDUNGEN
100
AcDbPolyline
 62
7
  6
CONTINUOUS
 90
3
 70
0
 10
186.312059561
 20
60.6061261196
 10
186.2997808637
 20
60.5906143907
 10
185.7979077007
 20
59.9720775762
  0
LINE
  5
5CC
100
AcDbEntity
  8
RUNDUNGEN
100
AcDbLine
 62
7
  6
CONTINUOUS
 10
185.7979077007
 20
59.9720775762
 11
185.6748946121
 21
59.819292936
  0
LINE
  5
5CD
100
AcDbEntity
  8
RUNDUNGEN
100
AcDbLine
 62
7
  6
CONTINUOUS
 10
183.4721947249
 20
48.1892882379
 11
183.1985514319
 21
47.9091905411
  0
LINE
  5
5CE
100
AcDbEntity
  8
RUNDUNGEN
100
AcDbLine
 62
7
  6
CONTINUOUS
 10
170.3728410181
 20
35.0899359332
 11
170.6529406868
 21
35.363579372
  0
LWPOLYLINE
  5
5CF
100
AcDbEntity
  8
RUNDUNGEN
100
AcDbPolyline
 62
7
  6
CONTINUOUS
 90
3
 70
0
 10
157.9560051782
 20
32.2500717368
 10
157.9712406264
 20
32.2626916125
 10
158.5907476916
 20
32.7633666156
  0
LINE
  5
5D0
100
AcDbEntity
  8
RUNDUNGEN
100
AcDbLine
 62
7
  6
CONTINUOUS
 10
158.5907476916
 20
32.7633666156
 11
158.7428383619
 21
32.8872366857
  0
LINE
  5
5D1
100
AcDbEntity
  8
RUNDUNGEN
100
AcDbLine
 62
7
  6
CONTINUOUS
 10
144.6649171093
 20
20.3837414196
 11
144.3570903857
 21
20.1418610327
  0
LINE
  5
5D2
100
AcDbEntity
  8
RUNDUNGEN
100
AcDbLine
 62
7
  6
CONTINUOUS
 10
183.7952385264
 20
48.4107022526
 11
183.4721947249
 21
48.1892882379
  0
LINE
  5
5D3
100
AcDbEntity
  8
RUNDUNGEN
100
AcDbLine
 62
7
  6
CONTINUOUS
 10
170.6529406868
 20
35.363579372
 11
170.980977839
 21
35.5773242393
  0
LINE
  5
5D4
100
AcDbEntity
  8
RUNDUNGEN
100
AcDbLine
 62
7
  6
CONTINUOUS
 10
145.0140459372
 20
20.5609570402
 11
144.6649171093
 21
20.3837414196
  0
LINE
  5
5D5
100
AcDbEntity
  8
RUNDUNGEN
100
AcDbLine
 62
7
  6
CONTINUOUS
 10
127.1437550468
 20
15.7029564821
 11
127.4970275933
 21
15.8720120991
  0
LINE
  5
5D6
100
AcDbEntity
  8
RUNDUNGEN
100
AcDbLine
 62
7
  6
CONTINUOUS
 10
170.980977839
 20
35.5773242393
 11
171.3443661935
 21
35.7229694731
  0
LWPOLYLINE
  5
5D7
100
AcDbEntity
  8
RUNDUNGEN
100
AcDbPolyline
 62
7
  6
CONTINUOUS
 90
3
 70
0
 10
154.0588908612
 20
30.0000717368
 10
154.0405013329
 20
29.9927775342
 10
153.296598017
 20
29.7080455212
  0
LINE
  5
5D8
100
AcDbEntity
  8
RUNDUNGEN
100
AcDbLine
 62
7
  6
CONTINUOUS
 10
153.296598017
 20
29.7080455212
 11
153.1136732373
 21
29.6372366857
  0
LINE
  5
5D9
100
AcDbEntity
  8
RUNDUNGEN
100
AcDbLine
 62
7
  6
CONTINUOUS
 10
80.7565235288
 20
190.3099550062
 11
81.1335547433
 21
190.4157052297
  0
LINE
  5
5DA
100
AcDbEntity
  8
RUNDUNGEN
100
AcDbLine
 62
7
  6
CONTINUOUS
 10
98.6505728526
 20
195.1046500504
 11
98.2711777046
 21
195.0077177149
  0
LWPOLYLINE
  5
5DB
100
AcDbEntity
  8
RUNDUNGEN
100
AcDbPolyline
 62
7
  6
CONTINUOUS
 90
3
 70
0
 10
110.8238002232
 20
191.3556266676
 10
110.8042960002
 20
191.3523152588
 10
110.0174496424
 20
191.2284715196
  0
LINE
  5
5DC
100
AcDbEntity
  8
RUNDUNGEN
100
AcDbLine
 62
7
  6
CONTINUOUS
 10
110.0174496424
 20
191.2284715196
 11
109.8238002232
 21
191.1972422273
  0
LINE
  5
5DD
100
AcDbEntity
  8
RUNDUNGEN
100
AcDbLine
 62
7
  6
CONTINUOUS
 10
128.2673852934
 20
194.9866261375
 11
128.6549112495
 21
195.0421873355
  0
LINE
  5
5DE
100
AcDbEntity
  8
RUNDUNGEN
100
AcDbLine
 62
7
  6
CONTINUOUS
 10
80.3660524081
 20
190.279726671
 11
80.7565235288
 21
190.3099550062
  0
LINE
  5
5DF
100
AcDbEntity
  8
RUNDUNGEN
100
AcDbLine
 62
7
  6
CONTINUOUS
 10
98.2711777046
 20
195.0077177149
 11
97.8802167636
 21
194.9866278057
  0
LINE
  5
5E0
100
AcDbEntity
  8
RUNDUNGEN
100
AcDbLine
 62
7
  6
CONTINUOUS
 10
127.876423049
 20
195.0077173222
 11
128.2673852934
 21
194.9866261375
  0
LINE
  5
5E1
100
AcDbEntity
  8
RUNDUNGEN
100
AcDbLine
 62
7
  6
CONTINUOUS
 10
145.7815492122
 20
190.2797237718
 11
145.3910784039
 21
190.3099535862
  0
LINE
  5
5E2
100
AcDbEntity
  8
RUNDUNGEN
100
AcDbLine
 62
7
  6
CONTINUOUS
 10
97.8802167636
 20
194.9866278057
 11
97.4926906003
 21
195.0421895102
  0
LWPOLYLINE
  5
5E3
100
AcDbEntity
  8
RUNDUNGEN
100
AcDbPolyline
 62
7
  6
CONTINUOUS
 90
3
 70
0
 10
115.3238002232
 20
191.3556266676
 10
115.3433731232
 20
191.3527488682
 10
116.1299782992
 20
191.2273823668
  0
LINE
  5
5E4
100
AcDbEntity
  8
RUNDUNGEN
100
AcDbLine
 62
7
  6
CONTINUOUS
 10
116.1299782992
 20
191.2273823668
 11
116.3238002232
 21
191.1972422273
  0
LINE
  5
5E5
100
AcDbEntity
  8
RUNDUNGEN
100
AcDbLine
 62
7
  6
CONTINUOUS
 10
127.4970296815
 20
195.1046505171
 11
127.876423049
 21
195.0077173222
  0
LINE
  5
5E6
100
AcDbEntity
  8
RUNDUNGEN
100
AcDbLine
 62
7
  6
CONTINUOUS
 10
145.3910784039
 20
190.3099535862
 11
145.0140464
 21
190.4157052954
  0
LWPOLYLINE
  5
5E7
100
AcDbEntity
  8
RUNDUNGEN
100
AcDbPolyline
 62
7
  6
CONTINUOUS
 90
3
 70
0
 10
154.0588908612
 20
180.9765904124
 10
154.0403440042
 20
180.9834747597
 10
153.2969931999
 20
181.2696461144
  0
LINE
  5
5E8
100
AcDbEntity
  8
RUNDUNGEN
100
AcDbLine
 62
7
  6
CONTINUOUS
 10
153.2969931999
 20
181.2696461144
 11
153.1136732373
 21
181.3394254635
  0
LINE
  5
5E9
100
AcDbEntity
  8
RUNDUNGEN
100
AcDbLine
 62
7
  6
CONTINUOUS
 10
170.9809784
 20
175.3993356594
 11
171.3443663216
 21
175.2536900903
  0
LINE
  5
5EA
100
AcDbEntity
  8
RUNDUNGEN
100
AcDbLine
 62
7
  6
CONTINUOUS
 10
127.1437576193
 20
195.2737076484
 11
127.4970296815
 21
195.1046505171
  0
LINE
  5
5EB
100
AcDbEntity
  8
RUNDUNGEN
100
AcDbLine
 62
7
  6
CONTINUOUS
 10
145.0140464
 20
190.4157052954
 11
144.6649193388
 21
190.592921369
  0
LINE
  5
5EC
100
AcDbEntity
  8
RUNDUNGEN
100
AcDbLine
 62
7
  6
CONTINUOUS
 10
170.6529407567
 20
175.6130822833
 11
170.9809784
 21
175.3993356594
  0
LINE
  5
5ED
100
AcDbEntity
  8
RUNDUNGEN
100
AcDbLine
 62
7
  6
CONTINUOUS
 10
183.7952380968
 20
162.5659566782
 11
183.4721953647
 21
162.7873718695
  0
LINE
  5
5EE
100
AcDbEntity
  8
RUNDUNGEN
100
AcDbLine
 62
7
  6
CONTINUOUS
 10
144.6649193388
 20
190.592921369
 11
144.3570926892
 21
190.8348022986
  0
LWPOLYLINE
  5
5EF
100
AcDbEntity
  8
RUNDUNGEN
100
AcDbPolyline
 62
7
  6
CONTINUOUS
 90
3
 70
0
 10
157.9560051782
 20
178.7265904124
 10
157.9715169071
 20
178.7143117151
 10
158.5900537216
 20
178.2124385521
  0
LINE
  5
5F0
100
AcDbEntity
  8
RUNDUNGEN
100
AcDbLine
 62
7
  6
CONTINUOUS
 10
158.5900537216
 20
178.2124385521
 11
158.7428383619
 21
178.0894254635
  0
LINE
  5
5F1
100
AcDbEntity
  8
RUNDUNGEN
100
AcDbLine
 62
7
  6
CONTINUOUS
 10
170.37284306
 20
175.8867255763
 11
170.6529407567
 21
175.6130822833
  0
LINE
  5
5F2
100
AcDbEntity
  8
RUNDUNGEN
100
AcDbLine
 62
7
  6
CONTINUOUS
 10
183.4721953647
 20
162.7873718695
 11
183.1985519258
 21
163.0674715382
  0
LWPOLYLINE
  5
5F3
100
AcDbEntity
  8
RUNDUNGEN
100
AcDbPolyline
 62
7
  6
CONTINUOUS
 90
3
 70
0
 10
186.312059561
 20
150.3705360296
 10
186.2994396854
 20
150.3857714778
 10
185.7987646822
 20
151.005278543
  0
LINE
  5
5F4
100
AcDbEntity
  8
RUNDUNGEN
100
AcDbLine
 62
7
  6
CONTINUOUS
 10
185.7987646822
 20
151.005278543
 11
185.6748946121
 21
151.1573692133
  0
LINE
  5
5F5
100
AcDbEntity
  8
RUNDUNGEN
100
AcDbLine
 62
7
  6
CONTINUOUS
 10
198.1783898782
 20
137.0794479607
 11
198.4202702652
 21
136.7716212371
  0
LINE
  5
5F6
100
AcDbEntity
  8
RUNDUNGEN
100
AcDbLine
 62
7
  6
CONTINUOUS
 10
170.1514290453
 20
176.2097693778
 11
170.37284306
 21
175.8867255763
  0
LINE
  5
5F7
100
AcDbEntity
  8
RUNDUNGEN
100
AcDbLine
 62
7
  6
CONTINUOUS
 10
183.1985519258
 20
163.0674715382
 11
182.9848070585
 21
163.3955086904
  0
LINE
  5
5F8
100
AcDbEntity
  8
RUNDUNGEN
100
AcDbLine
 62
7
  6
CONTINUOUS
 10
198.0011742577
 20
137.4285767886
 11
198.1783898782
 21
137.0794479607
  0
LINE
  5
5F9
100
AcDbEntity
  8
RUNDUNGEN
100
AcDbLine
 62
7
  6
CONTINUOUS
 10
202.8591748157
 20
119.5582858982
 11
202.6901191988
 21
119.9115584447
  0
LINE
  5
5FA
100
AcDbEntity
  8
RUNDUNGEN
100
AcDbLine
 62
7
  6
CONTINUOUS
 10
182.9848070585
 20
163.3955086904
 11
182.8391618247
 21
163.7588970449
  0
LWPOLYLINE
  5
5FB
100
AcDbEntity
  8
RUNDUNGEN
100
AcDbPolyline
 62
7
  6
CONTINUOUS
 90
3
 70
0
 10
188.562059561
 20
146.4734217126
 10
188.5693537636
 20
146.4550321843
 10
188.8540857766
 20
145.7111288685
  0
LINE
  5
5FC
100
AcDbEntity
  8
RUNDUNGEN
100
AcDbLine
 62
7
  6
CONTINUOUS
 10
188.8540857766
 20
145.7111288685
 11
188.9248946121
 21
145.5282040887
  0
LINE
  5
5FD
100
AcDbEntity
  8
RUNDUNGEN
100
AcDbLine
 62
7
  6
CONTINUOUS
 10
197.8954241832
 20
137.8056076804
 11
198.0011742577
 21
137.4285767886
  0
LINE
  5
5FE
100
AcDbEntity
  8
RUNDUNGEN
100
AcDbLine
 62
7
  6
CONTINUOUS
 10
202.6901191988
 20
119.9115584447
 11
202.5931868635
 21
120.2909535928
  0
LWPOLYLINE
  5
5FF
100
AcDbEntity
  8
RUNDUNGEN
100
AcDbPolyline
 62
7
  6
CONTINUOUS
 90
3
 70
0
 10
198.9410958162
 20
107.7383310746
 10
198.9377844074
 20
107.7578352976
 10
198.8139406682
 20
108.5446816554
  0
LINE
  5
600
100
AcDbEntity
  8
RUNDUNGEN
100
AcDbLine
 62
7
  6
CONTINUOUS
 10
198.8139406682
 20
108.5446816554
 11
198.7827113759
 21
108.7383310746
  0
LINE
  5
601
100
AcDbEntity
  8
RUNDUNGEN
100
AcDbLine
 62
7
  6
CONTINUOUS
 10
202.5720952861
 20
90.2947460044
 11
202.6276564841
 21
89.9072200484
  0
LINE
  5
602
100
AcDbEntity
  8
RUNDUNGEN
100
AcDbLine
 62
7
  6
CONTINUOUS
 10
207.4410958162
 20
96.6547259392
 11
207.4410958162
 21
99.7499711286
  0
LINE
  5
603
100
AcDbEntity
  8
RUNDUNGEN
100
AcDbLine
 62
7
  6
CONTINUOUS
 10
207.4410958162
 20
111.2266910206
 11
207.4410958162
 21
114.321931736
  0
LINE
  5
604
100
AcDbEntity
  8
RUNDUNGEN
100
AcDbLine
 62
7
  6
CONTINUOUS
 10
203.5646386809
 20
78.1355554462
 11
205.1175529515
 21
83.931110404
  0
LINE
  5
605
100
AcDbEntity
  8
RUNDUNGEN
100
AcDbLine
 62
7
  6
CONTINUOUS
 10
190.3814729364
 20
50.6545568427
 11
191.9290955202
 21
53.3351177888
  0
LINE
  5
606
100
AcDbEntity
  8
RUNDUNGEN
100
AcDbLine
 62
7
  6
CONTINUOUS
 10
197.6674554662
 20
63.2742487674
 11
199.2150757951
 21
65.9548058079
  0
LINE
  5
607
100
AcDbEntity
  8
RUNDUNGEN
100
AcDbLine
 62
7
  6
CONTINUOUS
 10
177.7647773231
 20
36.5547132876
 11
182.0074180103
 21
40.7973539747
  0
LINE
  5
608
100
AcDbEntity
  8
RUNDUNGEN
100
AcDbLine
 62
7
  6
CONTINUOUS
 10
152.6073215843
 20
19.3470532478
 11
155.2878825304
 21
20.8946758316
  0
LINE
  5
609
100
AcDbEntity
  8
RUNDUNGEN
100
AcDbLine
 62
7
  6
CONTINUOUS
 10
165.227013509
 20
26.6330357776
 11
167.9075705495
 21
28.1806561066
  0
LINE
  5
60A
100
AcDbEntity
  8
RUNDUNGEN
100
AcDbLine
 62
7
  6
CONTINUOUS
 10
91.5165795526
 20
197.5320838029
 11
85.7210245948
 21
195.9791695323
  0
LINE
  5
60B
100
AcDbEntity
  8
RUNDUNGEN
100
AcDbLine
 62
7
  6
CONTINUOUS
 10
121.9073998348
 20
199.8556266676
 11
118.8121601692
 21
199.8556266676
  0
LINE
  5
60C
100
AcDbEntity
  8
RUNDUNGEN
100
AcDbLine
 62
7
  6
CONTINUOUS
 10
107.3354402772
 20
199.8556266676
 11
104.2401879201
 21
199.8556266676
  0
LINE
  5
60D
100
AcDbEntity
  8
RUNDUNGEN
100
AcDbLine
 62
7
  6
CONTINUOUS
 10
140.4265758516
 20
195.9791695323
 11
134.6310208939
 21
197.5320838029
  0
LINE
  5
60E
100
AcDbEntity
  8
RUNDUNGEN
100
AcDbLine
 62
7
  6
CONTINUOUS
 10
167.907574474
 20
182.7960037769
 11
165.227013509
 21
184.3436263716
  0
LINE
  5
60F
100
AcDbEntity
  8
RUNDUNGEN
100
AcDbLine
 62
7
  6
CONTINUOUS
 10
155.2878825304
 20
190.0819863176
 11
152.60732544
 21
191.6296066753
  0
LINE
  5
610
100
AcDbEntity
  8
RUNDUNGEN
100
AcDbLine
 62
7
  6
CONTINUOUS
 10
182.0074180103
 20
170.1793081745
 11
177.7647773231
 21
174.4219488617
  0
LINE
  5
611
100
AcDbEntity
  8
RUNDUNGEN
100
AcDbLine
 62
7
  6
CONTINUOUS
 10
199.2150780609
 20
145.0218524168
 11
197.6674554659
 21
147.7024133823
  0
LINE
  5
612
100
AcDbEntity
  8
RUNDUNGEN
100
AcDbLine
 62
7
  6
CONTINUOUS
 10
191.9290955202
 20
157.6415443604
 11
190.3814751625
 21
160.3221014508
  0
LINE
  5
613
100
AcDbEntity
  8
RUNDUNGEN
100
AcDbLine
 62
7
  6
CONTINUOUS
 10
205.1175529515
 20
127.0455517453
 11
203.5646386809
 21
132.841106703
  0
LINE
  5
614
100
AcDbEntity
  8
RUNDUNGEN
100
AcDbLine
 62
7
  6
CONTINUOUS
 10
231.624611368
 20
11.1210354816
 11
259.624611368
 21
11.1210354816
  0
LINE
  5
615
100
AcDbEntity
  8
0
100
AcDbLine
 62
7
  6
CONTINUOUS
 10
245.374611368
 20
13.4105041726
 11
245.874611368
 21
13.4105041726
  0
LINE
  5
616
100
AcDbEntity
  8
RUNDUNGEN
100
AcDbLine
 62
7
  6
CONTINUOUS
 10
245.874611368
 20
13.4105041726
 11
246.0698204405
 21
13.4297425271
  0
LWPOLYLINE
  5
617
100
AcDbEntity
  8
RUNDUNGEN
100
AcDbPolyline
 62
7
  6
CONTINUOUS
 90
6
 70
0
 10
246.2450893557
 20
19.2279627666
 10
247.3111795991
 20
19.3112732066
 10
248.3824796853
 20
19.4298775215
 10
249.4783002457
 20
19.5419426087
 10
250.6109462565
 20
19.6154133183
 10
251.3325568388
 20
19.6299540012
  0
LINE
  5
618
100
AcDbEntity
  8
RUNDUNGEN
100
AcDbLine
 62
7
  6
CONTINUOUS
 10
245.6249555971
 20
19.2130928384
 11
246.2450893557
 21
19.2279627666
  0
LINE
  5
619
100
AcDbEntity
  8
RUNDUNGEN
100
AcDbLine
 62
7
  6
CONTINUOUS
 10
259.624611368
 20
19.6298812084
 11
251.3325562598
 21
19.6298812084
  0
LINE
  5
61A
100
AcDbEntity
  8
RUNDUNGEN
100
AcDbLine
 62
7
  6
CONTINUOUS
 10
239.9169479872
 20
19.6298812084
 11
231.624611368
 21
19.6298812084
  0
LWPOLYLINE
  5
61B
100
AcDbEntity
  8
RUNDUNGEN
100
AcDbPolyline
 62
7
  6
CONTINUOUS
 90
6
 70
0
 10
239.9169480886
 20
19.6298923256
 10
240.6777319261
 20
19.6138422668
 10
241.8113061704
 20
19.538362362
 10
242.9073517668
 20
19.4253173556
 10
243.9789270974
 20
19.3071269254
 10
245.0453822326
 20
19.2260871227
  0
LINE
  5
61C
100
AcDbEntity
  8
RUNDUNGEN
100
AcDbLine
 62
7
  6
CONTINUOUS
 10
245.0453822326
 20
19.2260871227
 11
245.6249556241
 21
19.2130820248
  0
LINE
  5
61D
100
AcDbEntity
  8
RUNDUNGEN
100
AcDbLine
 62
7
  6
CONTINUOUS
 10
245.374611368
 20
13.4105041726
 11
245.1794022955
 21
13.4297425271
  0
LINE
  5
61E
100
AcDbEntity
  8
RUNDUNGEN
100
AcDbLine
 62
7
  6
CONTINUOUS
 10
231.624611368
 20
19.6298812084
 11
231.4284879724
 21
19.6493020671
  0
LWPOLYLINE
  5
61F
100
AcDbEntity
  8
RUNDUNGEN
100
AcDbPolyline
 62
7
  6
CONTINUOUS
 90
3
 70
0
 10
245.1794022955
 20
13.4297425271
 10
244.991827385
 20
13.4866662959
 10
244.8189772058
 20
13.5790772809
  0
LWPOLYLINE
  5
620
100
AcDbEntity
  8
RUNDUNGEN
100
AcDbPolyline
 62
7
  6
CONTINUOUS
 90
8
 70
0
 10
231.4284879724
 20
19.6493020671
 10
231.2410775847
 20
19.7063543615
 10
231.06854343
 20
19.7987443758
 10
230.9172782741
 20
19.9230008124
 10
230.7932648513
 20
20.0741267985
 10
230.7008937443
 20
20.2468071273
 10
230.6438677725
 20
20.4345837328
 10
230.624611368
 20
20.6298812084
  0
LINE
  5
621
100
AcDbEntity
  8
RUNDUNGEN
100
AcDbLine
 62
7
  6
CONTINUOUS
 10
259.624611368
 20
26.4990611814
 11
259.8198713145
 21
26.5183096662
  0
LINE
  5
622
100
AcDbEntity
  8
0
100
AcDbLine
 62
7
  6
CONTINUOUS
 10
231.624611368
 20
26.4990611814
 11
259.624611368
 21
26.4990611814
  0
LINE
  5
623
100
AcDbEntity
  8
RUNDUNGEN
100
AcDbLine
 62
7
  6
CONTINUOUS
 10
231.624611368
 20
26.4990611814
 11
231.4293514215
 21
26.5183096662
  0
LWPOLYLINE
  5
624
100
AcDbEntity
  8
RUNDUNGEN
100
AcDbPolyline
 62
7
  6
CONTINUOUS
 90
8
 70
0
 10
231.4293514215
 20
26.5183096662
 10
231.2417845387
 20
26.5752410589
 10
231.0689503608
 20
26.667652231
 10
230.9174581212
 20
26.7920008688
 10
230.7931558958
 20
26.9434697877
 10
230.7007551833
 20
27.1163213873
 10
230.6438320093
 20
27.3039414449
 10
230.624611368
 20
27.4990611814
  0
LINE
  5
625
100
AcDbEntity
  8
0
100
AcDbLine
 62
7
  6
CONTINUOUS
 10
251.8911268867
 20
185.733029247
 11
251.9133995282
 21
185.745146047
  0
LINE
  5
626
100
AcDbEntity
  8
RUNDUNGEN
100
AcDbLine
 62
7
  6
CONTINUOUS
 10
251.9135039644
 20
185.7452018944
 11
251.9133995282
 21
185.745146047
  0
LINE
  5
627
100
AcDbEntity
  8
0
100
AcDbLine
 62
7
  6
CONTINUOUS
 10
251.9135055965
 20
185.7451990993
 11
252.5213391351
 21
186.0666759965
  0
LINE
  5
628
100
AcDbEntity
  8
0
100
AcDbLine
 62
7
  6
CONTINUOUS
 10
252.5213391351
 20
186.0666759965
 11
253.1114227506
 21
186.3731710417
  0
LINE
  5
629
100
AcDbEntity
  8
RUNDUNGEN
100
AcDbLine
 62
7
  6
CONTINUOUS
 10
253.1118788983
 20
186.3734062717
 11
253.1114227506
 21
186.3731710417
  0
LINE
  5
62A
100
AcDbEntity
  8
0
100
AcDbLine
 62
7
  6
CONTINUOUS
 10
253.1118516042
 20
186.3734589796
 11
254.0702220837
 21
186.8623737095
  0
LINE
  5
62B
100
AcDbEntity
  8
0
100
AcDbLine
 62
7
  6
CONTINUOUS
 10
254.0702220837
 20
186.8623737095
 11
255.5728558336
 21
187.6127207571
  0
LINE
  5
62C
100
AcDbEntity
  8
0
100
AcDbLine
 62
7
  6
CONTINUOUS
 10
255.5728558336
 20
187.6127207571
 11
260.0634320755
 21
189.8078788789
  0
LINE
  5
62D
100
AcDbEntity
  8
0
100
AcDbLine
 62
7
  6
CONTINUOUS
 10
251.7478690744
 20
185.8421389992
 11
252.4954004018
 21
186.2067343886
  0
LWPOLYLINE
  5
62E
100
AcDbEntity
  8
RUNDUNGEN
100
AcDbPolyline
 62
7
  6
CONTINUOUS
 90
6
 70
0
 10
244.8189772058
 20
13.5790772809
 10
244.6674716689
 20
13.7034303108
 10
244.5431514049
 20
13.8549194994
 10
244.4507480519
 20
14.0277815926
 10
244.3938301976
 20
14.2153934357
 10
244.374611368
 20
14.4105041726
  0
LINE
  5
62F
100
AcDbEntity
  8
0
100
AcDbLine
 62
2
  6
CONTINUOUS
 10
240.8574610282
 20
188.1056266676
 11
238.8914454639
 21
186.1396111033
  0
LINE
  5
630
100
AcDbEntity
  8
RUNDUNGEN
100
AcDbLine
 62
7
  6
CONTINUOUS
 10
251.6476136184
 20
185.5705186957
 11
251.6418780425
 21
185.5659799613
  0
LINE
  5
631
100
AcDbEntity
  8
0
100
AcDbLine
 62
7
  6
CONTINUOUS
 10
251.6415406863
 20
185.566405847
 11
251.7042606437
 21
185.6138689709
  0
LWPOLYLINE
  5
632
100
AcDbEntity
  8
0
100
AcDbPolyline
 62
7
  6
CONTINUOUS
 90
3
 70
0
 10
251.7042606437
 20
185.6138689709
 10
251.7974839174
 20
185.6773257394
 10
251.8911268867
 20
185.733029247
  0
LWPOLYLINE
  5
633
100
AcDbEntity
  8
0
100
AcDbPolyline
 62
7
  6
CONTINUOUS
 90
9
 70
0
 10
257.0571959131
 20
178.6827863436
 10
257.2614550254
 20
178.7846256793
 10
257.4698588037
 20
178.8868269656
 10
257.6825084958
 20
178.9893872079
 10
257.8995044421
 20
179.092294594
 10
258.120945924
 20
179.1955268837
 10
258.3469209995
 20
179.2990463752
 10
258.5775162862
 20
179.4028060814
 10
258.8128198714
 20
179.5067495696
  0
LINE
  5
634
100
AcDbEntity
  8
0
100
AcDbLine
 62
7
  6
CONTINUOUS
 10
258.8128198714
 20
179.5067495696
 11
259.0529124166
 21
179.6108044469
  0
LINE
  5
635
100
AcDbEntity
  8
RUNDUNGEN
100
AcDbLine
 62
7
  6
CONTINUOUS
 10
260.0159114299
 20
180.0184629578
 11
260.0159477353
 21
180.0184783871
  0
LINE
  5
636
100
AcDbEntity
  8
RUNDUNGEN
100
AcDbLine
 62
7
  6
CONTINUOUS
 10
256.2687708229
 20
174.2968416408
 11
256.2688806054
 21
174.2968880908
  0
LINE
  5
637
100
AcDbEntity
  8
0
100
AcDbLine
 62
7
  6
CONTINUOUS
 10
256.2687849319
 20
174.296808172
 11
260.0141027498
 21
175.8804223265
  0
LINE
  5
638
100
AcDbEntity
  8
0
100
AcDbLine
 62
7
  6
CONTINUOUS
 10
259.0529124166
 20
179.6108044469
 11
260.0139535919
 21
180.0176329241
  0
LINE
  5
639
100
AcDbEntity
  8
RUNDUNGEN
100
AcDbLine
 62
7
  6
CONTINUOUS
 10
260.0140612746
 20
35.0962573591
 11
256.2687845034
 21
36.6798541584
  0
LWPOLYLINE
  5
63A
100
AcDbEntity
  8
RUNDUNGEN
100
AcDbPolyline
 62
7
  6
CONTINUOUS
 90
4
 70
0
 10
256.2688801694
 20
36.6797747662
 10
256.1544458151
 20
36.7287925535
 10
255.5867841153
 20
36.9901007503
 10
255.0084489317
 20
37.2876035672
  0
LINE
  5
63B
100
AcDbEntity
  8
0
100
AcDbLine
 62
2
  6
CONTINUOUS
 10
246.7583783707
 20
188.1056266676
 11
240.624611368
 21
181.9718596649
  0
LINE
  5
63C
100
AcDbEntity
  8
0
100
AcDbLine
 62
2
  6
CONTINUOUS
 10
252.5333051122
 20
187.9796360667
 11
240.624611368
 21
176.0709423225
  0
LINE
  5
63D
100
AcDbEntity
  8
0
100
AcDbLine
 62
7
  6
CONTINUOUS
 10
251.4206056284
 20
185.3630981753
 11
251.6476136184
 21
185.5705186957
  0
LWPOLYLINE
  5
63E
100
AcDbEntity
  8
0
100
AcDbPolyline
 62
7
  6
CONTINUOUS
 90
3
 70
0
 10
260.0159477353
 20
180.0184783871
 10
260.1807411884
 20
180.1076306708
 10
260.3319663907
 20
180.2318676442
  0
LINE
  5
63F
100
AcDbEntity
  8
0
100
AcDbLine
 62
7
  6
CONTINUOUS
 10
228.710978681
 20
160.9523544198
 11
234.9276137723
 21
162.8210772426
  0
LWPOLYLINE
  5
640
100
AcDbEntity
  8
RUNDUNGEN
100
AcDbPolyline
 62
7
  6
CONTINUOUS
 90
6
 70
0
 10
247.0030852789
 20
50.2680188627
 10
247.343914795
 20
50.3239598981
 10
248.4222709393
 20
50.5299285372
 10
249.5083531646
 20
50.7239002996
 10
250.619759167
 20
50.8510124498
 10
251.3325433861
 20
50.8765884491
  0
LINE
  5
641
100
AcDbEntity
  8
RUNDUNGEN
100
AcDbLine
 62
7
  6
CONTINUOUS
 10
247.0030853134
 20
50.2680182455
 11
246.9873234305
 21
50.2656263462
  0
LINE
  5
642
100
AcDbEntity
  8
RUNDUNGEN
100
AcDbLine
 62
7
  6
CONTINUOUS
 10
259.8197393653
 20
50.8957023248
 11
259.624611368
 21
50.8764800478
  0
LINE
  5
643
100
AcDbEntity
  8
RUNDUNGEN
100
AcDbLine
 62
7
  6
CONTINUOUS
 10
259.624611368
 20
50.8764800478
 11
251.3325424473
 21
50.8764800478
  0
LINE
  5
644
100
AcDbEntity
  8
RUNDUNGEN
100
AcDbLine
 62
7
  6
CONTINUOUS
 10
239.9167070724
 20
50.8764800478
 11
231.624611368
 21
50.8764800478
  0
LWPOLYLINE
  5
645
100
AcDbEntity
  8
RUNDUNGEN
100
AcDbPolyline
 62
7
  6
CONTINUOUS
 90
6
 70
0
 10
239.9167070591
 20
50.876591303
 10
240.6697227699
 20
50.8481359845
 10
241.7833756698
 20
50.7173156109
 10
242.8693598854
 20
50.5216401771
 10
243.9465465013
 20
50.3168046743
 10
244.2473665363
 20
50.2678310062
  0
LWPOLYLINE
  5
646
100
AcDbEntity
  8
RUNDUNGEN
100
AcDbPolyline
 62
7
  6
CONTINUOUS
 90
9
 70
0
 10
231.624611368
 20
50.8764800478
 10
231.4284879724
 20
50.8959009065
 10
231.2410775847
 20
50.9529532009
 10
231.06854343
 20
51.0453432153
 10
230.9172782741
 20
51.1695996518
 10
230.7932648513
 20
51.3207256379
 10
230.7008937443
 20
51.4934059667
 10
230.6438677725
 20
51.6811825722
 10
230.624611368
 20
51.8764800478
  0
LINE
  5
647
100
AcDbEntity
  8
RUNDUNGEN
100
AcDbLine
 62
7
  6
CONTINUOUS
 10
244.2618745163
 20
50.2656300388
 11
244.2473667361
 21
50.2678309582
  0
LINE
  5
648
100
AcDbEntity
  8
RUNDUNGEN
100
AcDbLine
 62
7
  6
CONTINUOUS
 10
228.7109786897
 20
50.0243077268
 11
234.909820625
 21
48.1609335333
  0
LINE
  5
649
100
AcDbEntity
  8
RUNDUNGEN
100
AcDbLine
 62
7
  6
CONTINUOUS
 10
255.0084556775
 20
37.2876174502
 11
254.4262748761
 21
37.6198089262
  0
LWPOLYLINE
  5
64A
100
AcDbEntity
  8
RUNDUNGEN
100
AcDbPolyline
 62
7
  6
CONTINUOUS
 90
3
 70
0
 10
254.4262584787
 20
37.6198021373
 10
253.8478774106
 20
37.9844787669
 10
253.647561747
 20
38.1194630905
  0
LINE
  5
64B
100
AcDbEntity
  8
0
100
AcDbLine
 62
2
  6
CONTINUOUS
 10
250.624611368
 20
180.17002498
 11
240.6115396521
 21
170.1569532641
  0
LINE
  5
64C
100
AcDbEntity
  8
0
100
AcDbLine
 62
2
  6
CONTINUOUS
 10
232.5656592098
 20
162.1110728218
 11
226.574611368
 21
156.12002498
  0
LINE
  5
64D
100
AcDbEntity
  8
RUNDUNGEN
100
AcDbLine
 62
7
  6
CONTINUOUS
 10
252.7093716581
 20
172.157134621
 11
252.709142579
 21
172.1569485282
  0
LWPOLYLINE
  5
64E
100
AcDbEntity
  8
0
100
AcDbPolyline
 62
7
  6
CONTINUOUS
 90
5
 70
0
 10
252.7093607617
 20
172.1571480067
 10
252.9224819715
 20
172.326863578
 10
253.192542365
 20
172.5324719231
 10
253.4689348736
 20
172.7327777401
 10
253.6474144952
 20
172.8570348296
  0
LINE
  5
64F
100
AcDbEntity
  8
RUNDUNGEN
100
AcDbLine
 62
7
  6
CONTINUOUS
 10
253.647588251
 20
172.8571541415
 11
253.6474144952
 21
172.8570348296
  0
LWPOLYLINE
  5
650
100
AcDbEntity
  8
0
100
AcDbPolyline
 62
7
  6
CONTINUOUS
 90
7
 70
0
 10
253.6475586749
 20
172.8571969311
 10
253.8478753472
 20
172.992182047
 10
254.4262581684
 20
173.3568600391
 10
255.0084498897
 20
173.6890594952
 10
255.5867857646
 20
173.9865627085
 10
256.1544475431
 20
174.2478708733
 10
256.2688806054
 20
174.2968880908
  0
LINE
  5
651
100
AcDbEntity
  8
RUNDUNGEN
100
AcDbLine
 62
7
  6
CONTINUOUS
 10
253.6475913307
 20
38.1195058939
 11
253.6474176049
 21
38.119625185
  0
LINE
  5
652
100
AcDbEntity
  8
RUNDUNGEN
100
AcDbLine
 62
7
  6
CONTINUOUS
 10
253.6474176049
 20
38.119625185
 11
253.4689388693
 21
38.2438815823
  0
LINE
  5
653
100
AcDbEntity
  8
RUNDUNGEN
100
AcDbLine
 62
7
  6
CONTINUOUS
 10
253.4687959734
 20
38.243985141
 11
253.1925460918
 21
38.4441874586
  0
LINE
  5
654
100
AcDbEntity
  8
RUNDUNGEN
100
AcDbLine
 62
7
  6
CONTINUOUS
 10
253.1923682113
 20
38.4443228865
 11
252.9224849164
 21
38.6497962721
  0
LINE
  5
655
100
AcDbEntity
  8
RUNDUNGEN
100
AcDbLine
 62
7
  6
CONTINUOUS
 10
252.9223295232
 20
38.6499200168
 11
252.7093603238
 21
38.819513781
  0
LINE
  5
656
100
AcDbEntity
  8
RUNDUNGEN
100
AcDbLine
 62
7
  6
CONTINUOUS
 10
252.7093716601
 20
38.8195275243
 11
252.7091425715
 21
38.8197136249
  0
LWPOLYLINE
  5
657
100
AcDbEntity
  8
RUNDUNGEN
100
AcDbPolyline
 62
7
  6
CONTINUOUS
 90
3
 70
0
 10
252.7091425715
 20
38.8197136249
 10
252.6479949543
 20
38.8710690776
 10
252.5119221852
 20
38.9968673105
  0
LINE
  5
658
100
AcDbEntity
  8
0
100
AcDbLine
 62
7
  6
CONTINUOUS
 10
251.1521346571
 20
185.0158509106
 11
251.4206056284
 21
185.3630981753
  0
LWPOLYLINE
  5
659
100
AcDbEntity
  8
0
100
AcDbPolyline
 62
7
  6
CONTINUOUS
 90
5
 70
0
 10
252.3065484424
 20
171.7617556428
 10
252.3717098769
 20
171.8344278217
 10
252.5119221877
 20
171.9797948346
 10
252.6479949719
 20
172.1055930851
 10
252.709142579
 20
172.1569485282
  0
LINE
  5
65A
100
AcDbEntity
  8
0
100
AcDbLine
 62
2
  6
CONTINUOUS
 10
250.624611368
 20
174.2691076375
 11
227.3208513417
 21
150.9653476113
  0
LINE
  5
65B
100
AcDbEntity
  8
0
100
AcDbLine
 62
2
  6
CONTINUOUS
 10
250.8510054344
 20
168.5945843614
 11
233.2217686842
 21
150.9653476113
  0
LINE
  5
65C
100
AcDbEntity
  8
RUNDUNGEN
100
AcDbLine
 62
7
  6
CONTINUOUS
 10
232.4087020692
 20
61.2733073282
 11
232.1638737225
 21
61.2115874375
  0
LINE
  5
65D
100
AcDbEntity
  8
RUNDUNGEN
100
AcDbLine
 62
7
  6
CONTINUOUS
 10
232.1638748103
 20
61.2115891077
 11
231.3875256865
 21
61.0221255672
  0
LWPOLYLINE
  5
65E
100
AcDbEntity
  8
RUNDUNGEN
100
AcDbPolyline
 62
7
  6
CONTINUOUS
 90
4
 70
0
 10
259.624611368
 20
62.7742487674
 10
259.8222405412
 20
62.7939722699
 10
260.0093026571
 20
62.8512034749
 10
260.1811932769
 20
62.9434560455
  0
LWPOLYLINE
  5
65F
100
AcDbEntity
  8
RUNDUNGEN
100
AcDbPolyline
 62
7
  6
CONTINUOUS
 90
3
 70
0
 10
231.624611368
 20
60.6061261196
 10
231.4280712163
 20
60.5906143907
 10
231.2395809919
 20
60.5454643502
  0
LINE
  5
660
100
AcDbEntity
  8
RUNDUNGEN
100
AcDbLine
 62
7
  6
CONTINUOUS
 10
231.624611368
 20
60.6061261196
 11
259.624611368
 21
60.6061261196
  0
LINE
  5
661
100
AcDbEntity
  8
0
100
AcDbLine
 62
7
  6
CONTINUOUS
 10
231.624611368
 20
62.7742487674
 11
259.624611368
 21
62.7742487674
  0
LWPOLYLINE
  5
662
100
AcDbEntity
  8
RUNDUNGEN
100
AcDbPolyline
 62
7
  6
CONTINUOUS
 90
3
 70
0
 10
259.624611368
 20
60.6061261196
 10
259.8211515196
 20
60.5908906715
 10
260.0096417441
 20
60.5454643502
  0
LWPOLYLINE
  5
663
100
AcDbEntity
  8
RUNDUNGEN
100
AcDbPolyline
 62
7
  6
CONTINUOUS
 90
9
 70
0
 10
231.624611368
 20
62.7742487674
 10
231.4269821948
 20
62.7939722699
 10
231.2399200788
 20
62.8512034749
 10
231.0680294591
 20
62.9434560455
 10
230.9171696491
 20
63.0674770826
 10
230.7935957999
 20
63.2179996157
 10
230.7012201757
 20
63.3903884984
 10
230.6439566762
 20
63.5785093104
 10
230.624611368
 20
63.7742487674
  0
LINE
  5
664
100
AcDbEntity
  8
RUNDUNGEN
100
AcDbLine
 62
7
  6
CONTINUOUS
 10
259.8616970494
 20
61.0221255672
 11
259.085347926
 21
61.2115891076
  0
LWPOLYLINE
  5
665
100
AcDbEntity
  8
RUNDUNGEN
100
AcDbPolyline
 62
7
  6
CONTINUOUS
 90
3
 70
0
 10
259.0853480829
 20
61.2115891088
 10
258.8326508688
 20
61.2753536288
 10
258.588174748
 20
61.3410343448
  0
LINE
  5
666
100
AcDbEntity
  8
RUNDUNGEN
100
AcDbLine
 62
7
  6
CONTINUOUS
 10
252.5120998392
 20
38.9967104415
 11
252.372335277
 21
39.1415859296
  0
LINE
  5
667
100
AcDbEntity
  8
RUNDUNGEN
100
AcDbLine
 62
7
  6
CONTINUOUS
 10
252.372335277
 20
39.1415859296
 11
252.3065484588
 21
39.2149064848
  0
LWPOLYLINE
  5
668
100
AcDbEntity
  8
0
100
AcDbPolyline
 62
7
  6
CONTINUOUS
 90
3
 70
0
 10
260.3319663907
 20
180.2318676442
 10
260.4559325843
 20
180.3829338426
 10
260.5483012985
 20
180.5555852449
  0
LINE
  5
669
100
AcDbEntity
  8
RUNDUNGEN
100
AcDbLine
 62
7
  6
CONTINUOUS
 10
252.3067886207
 20
171.761802916
 11
252.3066609661
 21
171.7616569727
  0
LINE
  5
66A
100
AcDbEntity
  8
0
100
AcDbLine
 62
2
  6
CONTINUOUS
 10
252.9777236322
 20
164.8203852167
 11
239.1226860267
 21
150.9653476113
  0
LINE
  5
66B
100
AcDbEntity
  8
0
100
AcDbLine
 62
2
  6
CONTINUOUS
 10
256.7504294136
 20
162.6921736557
 11
245.0236033692
 21
150.9653476113
  0
LWPOLYLINE
  5
66C
100
AcDbEntity
  8
RUNDUNGEN
100
AcDbPolyline
 62
7
  6
CONTINUOUS
 90
3
 70
0
 10
232.897666781
 20
61.408356141
 10
232.6578161175
 20
61.3401465146
 10
232.4087020692
 20
61.2733073282
  0
LINE
  5
66D
100
AcDbEntity
  8
RUNDUNGEN
100
AcDbLine
 62
7
  6
CONTINUOUS
 10
258.588174748
 20
61.3410343448
 11
258.3540954475
 21
61.407610982
  0
LWPOLYLINE
  5
66E
100
AcDbEntity
  8
RUNDUNGEN
100
AcDbPolyline
 62
7
  6
CONTINUOUS
 90
20
 70
0
 10
258.3540954475
 20
61.407610982
 10
258.1299072205
 20
61.4747766701
 10
257.915242261
 20
61.5422355838
 10
257.7091756777
 20
61.6099324099
 10
257.5109693286
 20
61.6778162888
 10
257.3196424227
 20
61.7459730062
 10
257.1342652309
 20
61.8145284055
 10
256.9539298945
 20
61.8836579366
 10
256.7777048662
 20
61.9536081995
 10
256.604770425
 20
62.0246326074
 10
256.4339862626
 20
62.0971700001
 10
256.2654291177
 20
62.1711839814
 10
256.0987171433
 20
62.2468552427
 10
255.9341475086
 20
62.324078207
 10
255.7718453183
 20
62.4028205362
 10
255.6119605988
 20
62.4830356504
 10
255.4546346288
 20
62.5646797339
 10
255.3000463934
 20
62.6476959873
 10
255.1483771332
 20
62.7320276682
 10
255.0750865203
 20
62.7742487674
  0
LINE
  5
66F
100
AcDbEntity
  8
RUNDUNGEN
100
AcDbLine
 62
7
  6
CONTINUOUS
 10
259.8634562027
 20
61.0216945142
 11
260.0080320467
 21
60.9742106336
  0
LWPOLYLINE
  5
670
100
AcDbEntity
  8
RUNDUNGEN
100
AcDbPolyline
 62
7
  6
CONTINUOUS
 90
5
 70
0
 10
260.0096417441
 20
60.5454643502
 10
260.1828366945
 20
60.4721552053
 10
260.3341339449
 20
60.3737606711
 10
260.4578483127
 20
60.2543669645
 10
260.5494557295
 20
60.1185616113
  0
LINE
  5
671
100
AcDbEntity
  8
RUNDUNGEN
100
AcDbLine
 62
7
  6
CONTINUOUS
 10
260.0080320467
 20
60.9742106336
 11
260.1806189122
 21
60.8818140599
  0
LINE
  5
672
100
AcDbEntity
  8
RUNDUNGEN
100
AcDbLine
 62
7
  6
CONTINUOUS
 10
252.3067886451
 20
39.2148592189
 11
252.3066609907
 21
39.215005162
  0
LWPOLYLINE
  5
673
100
AcDbEntity
  8
RUNDUNGEN
100
AcDbPolyline
 62
7
  6
CONTINUOUS
 90
10
 70
0
 10
252.3067886451
 20
39.2148592189
 10
252.1629057665
 20
39.3886333918
 10
251.8462642732
 20
39.8454340062
 10
251.558965309
 20
40.3680602418
 10
251.3052492712
 20
40.9479450781
 10
251.0871084568
 20
41.5806659539
 10
250.9084361657
 20
42.2572817786
 10
250.7713593466
 20
42.9733851487
 10
250.6783548188
 20
43.719784264
 10
250.6309603976
 20
44.4903875398
  0
LINE
  5
674
100
AcDbEntity
  8
0
100
AcDbLine
 62
7
  6
CONTINUOUS
 10
250.9195303379
 20
184.5668267804
 11
251.1521346571
 21
185.0158509106
  0
LWPOLYLINE
  5
675
100
AcDbEntity
  8
0
100
AcDbPolyline
 62
7
  6
CONTINUOUS
 90
32
 70
0
 10
253.0255637209
 20
175.9906744808
 10
253.0323984822
 20
176.0021276669
 10
253.057677201
 20
176.039764198
 10
253.0986402587
 20
176.0934602509
 10
253.1511640467
 20
176.15527263
 10
253.2154602393
 20
176.2243255265
 10
253.289945765
 20
176.2987865276
 10
253.3736309405
 20
176.3776179089
 10
253.4659561111
 20
176.4600574862
 10
253.5658142829
 20
176.5450198273
 10
253.6719086942
 20
176.631597612
 10
253.7844672192
 20
176.7200884908
 10
253.9036125323
 20
176.8105446444
 10
254.0290756595
 20
176.9027544352
 10
254.1609711815
 20
176.9968507391
 10
254.2987017401
 20
177.0924191766
 10
254.4418466285
 20
177.1891526749
 10
254.5899489039
 20
177.2867680653
 10
254.7425901095
 20
177.3850440899
 10
254.8993632518
 20
177.4837594999
 10
255.0597325764
 20
177.5826058906
 10
255.2236578082
 20
177.681603164
 10
255.3909332373
 20
177.7806724567
 10
255.5616497357
 20
177.8798963984
 10
255.7358298524
 20
177.9792978201
 10
255.9135225423
 20
178.0789130992
 10
256.0947930438
 20
178.1787845323
 10
256.2797053637
 20
178.2789418807
 10
256.4683243545
 20
178.3794034051
 10
256.6607230204
 20
178.4801860122
 10
256.8569812507
 20
178.5813076803
 10
257.0571959131
 20
178.6827863436
  0
LWPOLYLINE
  5
676
100
AcDbEntity
  8
0
100
AcDbPolyline
 62
7
  6
CONTINUOUS
 90
3
 70
0
 10
251.8462642638
 20
171.1312281438
 10
252.1629057186
 20
171.588028719
 10
252.3067886207
 20
171.761802916
  0
LINE
  5
677
100
AcDbEntity
  8
0
100
AcDbLine
 62
2
  6
CONTINUOUS
 10
261.2875012677
 20
161.3283281673
 11
250.9245207116
 21
150.9653476113
  0
LINE
  5
678
100
AcDbEntity
  8
RUNDUNGEN
100
AcDbLine
 62
7
  6
CONTINUOUS
 10
235.7419010384
 20
70.2696602033
 11
231.387483735
 21
69.2066715591
  0
LINE
  5
679
100
AcDbEntity
  8
RUNDUNGEN
100
AcDbLine
 62
7
  6
CONTINUOUS
 10
259.8617574808
 20
69.2066670479
 11
255.5072803399
 21
70.2696702997
  0
LWPOLYLINE
  5
67A
100
AcDbEntity
  8
RUNDUNGEN
100
AcDbPolyline
 62
7
  6
CONTINUOUS
 90
7
 70
0
 10
255.5074752727
 20
70.2695813381
 10
255.4310532358
 20
70.2889221726
 10
255.0453609274
 20
70.4071956991
 10
254.6336211719
 20
70.5701652343
 10
254.2030352796
 20
70.7803467258
 10
253.7616137313
 20
71.0386388875
 10
253.6085975944
 20
71.1386474963
  0
LINE
  5
67B
100
AcDbEntity
  8
RUNDUNGEN
100
AcDbLine
 62
7
  6
CONTINUOUS
 10
226.574611368
 20
52.8973114385
 11
226.574611368
 21
105.4883310752
  0
LINE
  5
67C
100
AcDbEntity
  8
0
100
AcDbLine
 62
7
  6
CONTINUOUS
 10
226.574611368
 20
105.4883310752
 11
226.574611368
 21
158.0793506985
  0
LINE
  5
67D
100
AcDbEntity
  8
0
100
AcDbLine
 62
7
  6
CONTINUOUS
 10
230.6438677725
 20
190.5420784164
 11
230.624611368
 21
190.3467809408
  0
LWPOLYLINE
  5
67E
100
AcDbEntity
  8
0
100
AcDbPolyline
 62
7
  6
CONTINUOUS
 90
3
 70
0
 10
251.3052492563
 20
170.028717001
 10
251.5589653136
 20
170.6086019041
 10
251.8462642638
 20
171.1312281438
  0
LINE
  5
67F
100
AcDbEntity
  8
0
100
AcDbLine
 62
2
  6
CONTINUOUS
 10
264.5982158335
 20
158.7381253907
 11
256.8254380541
 21
150.9653476113
  0
LINE
  5
680
100
AcDbEntity
  8
0
100
AcDbLine
 62
2
  6
CONTINUOUS
 10
264.674611368
 20
152.9136035827
 11
262.7263553966
 21
150.9653476113
  0
LINE
  5
681
100
AcDbEntity
  8
RUNDUNGEN
100
AcDbLine
 62
7
  6
CONTINUOUS
 10
253.6086199009
 20
71.1386816832
 11
253.6087106159
 21
71.1386207594
  0
LWPOLYLINE
  5
682
100
AcDbEntity
  8
RUNDUNGEN
100
AcDbPolyline
 62
7
  6
CONTINUOUS
 90
5
 70
0
 10
253.6087106159
 20
71.1386207594
 10
253.4714099227
 20
71.2331373202
 10
253.2495788741
 20
71.3957704046
 10
253.0274961421
 20
71.5714264478
 10
252.8440436856
 20
71.7267612064
  0
LWPOLYLINE
  5
683
100
AcDbEntity
  8
RUNDUNGEN
100
AcDbPolyline
 62
7
  6
CONTINUOUS
 90
4
 70
0
 10
260.1806189122
 20
60.8818140599
 10
260.3319214168
 20
60.7575402784
 10
260.4559799183
 20
60.6063582724
 10
260.5483539788
 20
60.4336506466
  0
LINE
  5
684
100
AcDbEntity
  8
RUNDUNGEN
100
AcDbLine
 62
7
  6
CONTINUOUS
 10
252.844077953
 20
71.7268005283
 11
252.8441965157
 21
71.7266967641
  0
LWPOLYLINE
  5
685
100
AcDbEntity
  8
RUNDUNGEN
100
AcDbPolyline
 62
7
  6
CONTINUOUS
 90
3
 70
0
 10
252.8441965157
 20
71.7266967641
 10
252.7622163635
 20
71.800665459
 10
252.5967842939
 20
71.9643595387
  0
LINE
  5
686
100
AcDbEntity
  8
RUNDUNGEN
100
AcDbLine
 62
7
  6
CONTINUOUS
 10
230.624611368
 20
12.1210354816
 11
230.624611368
 21
20.2702668437
  0
LINE
  5
687
100
AcDbEntity
  8
RUNDUNGEN
100
AcDbLine
 62
7
  6
CONTINUOUS
 10
230.624611368
 20
20.6298812084
 11
230.624611368
 21
34.1749053699
  0
LINE
  5
688
100
AcDbEntity
  8
RUNDUNGEN
100
AcDbLine
 62
7
  6
CONTINUOUS
 10
230.624611368
 20
51.8764800478
 11
230.624611368
 21
60.0506368233
  0
LINE
  5
689
100
AcDbEntity
  8
RUNDUNGEN
100
AcDbLine
 62
7
  6
CONTINUOUS
 10
230.624611368
 20
63.7742487674
 11
230.624611368
 21
68.2349213196
  0
LINE
  5
68A
100
AcDbEntity
  8
RUNDUNGEN
100
AcDbLine
 62
7
  6
CONTINUOUS
 10
230.624611368
 20
97.4883310746
 11
230.624611368
 21
102.2383310746
  0
LINE
  5
68B
100
AcDbEntity
  8
0
100
AcDbLine
 62
7
  6
CONTINUOUS
 10
230.624611368
 20
177.6887260967
 11
230.624611368
 21
178.0894254635
  0
LINE
  5
68C
100
AcDbEntity
  8
0
100
AcDbLine
 62
7
  6
CONTINUOUS
 10
230.624611368
 20
180.9387260967
 11
230.624611368
 21
181.2116649683
  0
LINE
  5
68D
100
AcDbEntity
  8
RUNDUNGEN
100
AcDbLine
 62
7
  6
CONTINUOUS
 10
230.624611368
 20
176.8017567793
 11
230.624611368
 21
190.3467809408
  0
LINE
  5
68E
100
AcDbEntity
  8
0
100
AcDbLine
 62
7
  6
CONTINUOUS
 10
230.624611368
 20
190.7345544527
 11
230.624611368
 21
191.1972422273
  0
LINE
  5
68F
100
AcDbEntity
  8
RUNDUNGEN
100
AcDbLine
 62
7
  6
CONTINUOUS
 10
230.624611368
 20
190.7345544527
 11
230.624611368
 21
198.8556266676
  0
LWPOLYLINE
  5
690
100
AcDbEntity
  8
RUNDUNGEN
100
AcDbPolyline
 62
7
  6
CONTINUOUS
 90
3
 70
0
 10
252.5967842939
 20
71.9643595387
 10
252.4317791788
 20
72.1457440774
 10
252.3710974689
 20
72.2166153711
  0
LINE
  5
691
100
AcDbEntity
  8
RUNDUNGEN
100
AcDbLine
 62
7
  6
CONTINUOUS
 10
252.3708709848
 20
72.216701601
 11
252.3710082285
 21
72.2165394945
  0
LINE
  5
692
100
AcDbEntity
  8
RUNDUNGEN
100
AcDbLine
 62
7
  6
CONTINUOUS
 10
252.3708709848
 20
72.216701601
 11
252.1799251877
 21
72.4586291016
  0
LWPOLYLINE
  5
693
100
AcDbEntity
  8
RUNDUNGEN
100
AcDbPolyline
 62
7
  6
CONTINUOUS
 90
5
 70
0
 10
252.1799251877
 20
72.4586291016
 10
251.8266785331
 20
72.9970354785
 10
251.5303195615
 20
73.5637904043
 10
251.2798666452
 20
74.1608807077
 10
251.0674566117
 20
74.7977748194
  0
LINE
  5
694
100
AcDbEntity
  8
0
100
AcDbLine
 62
7
  6
CONTINUOUS
 10
230.624611368
 20
180.9387260967
 11
230.6436439065
 21
180.7445566804
  0
LWPOLYLINE
  5
695
100
AcDbEntity
  8
RUNDUNGEN
100
AcDbPolyline
 62
7
  6
CONTINUOUS
 90
38
 70
0
 10
238.1892077326
 20
105.4883310752
 10
238.1891186392
 20
105.433328244
 10
238.1669963465
 20
105.3241959814
 10
238.1228851981
 20
105.2104364195
 10
238.0625702027
 20
105.1011157823
 10
237.9899047156
 20
104.9967128077
 10
237.9067269722
 20
104.896263963
 10
237.815633758
 20
104.8006144905
 10
237.7166894199
 20
104.7083157067
 10
237.6113743335
 20
104.6197758209
 10
237.4998235788
 20
104.5343748955
 10
237.3829391523
 20
104.4522651919
 10
237.2611015188
 20
104.373271086
 10
237.1346422485
 20
104.2972601726
 10
237.003764671
 20
104.2240860886
 10
236.8684010089
 20
104.1535130699
 10
236.7284851185
 20
104.0853793124
 10
236.5836522616
 20
104.0194403248
 10
236.4335879728
 20
103.9555491915
 10
236.2776874085
 20
103.8935007084
 10
236.1154130459
 20
103.8331931817
 10
235.9459748689
 20
103.7745000058
 10
235.7679689466
 20
103.717187508
 10
235.5825060758
 20
103.6618727379
 10
235.3900096639
 20
103.6088929832
 10
235.1912375631
 20
103.5586279726
 10
234.9870445522
 20
103.5114279907
 10
234.7776384127
 20
103.4674454108
 10
234.563619579
 20
103.4269085622
 10
234.3446671801
 20
103.3898576261
 10
234.1207118822
 20
103.3564150855
 10
233.8915674082
 20
103.3267086038
 10
233.6570804342
 20
103.3008995074
 10
233.417079424
 20
103.2791831827
 10
233.1713952498
 20
103.2617815273
 10
232.9198968709
 20
103.2489640573
 10
232.662458362
 20
103.2410313105
 10
232.4008994045
 20
103.2383290977
  0
LINE
  5
696
100
AcDbEntity
  8
RUNDUNGEN
100
AcDbLine
 62
7
  6
CONTINUOUS
 10
230.624611368
 20
60.0506368233
 11
230.6436891955
 21
60.2450356511
  0
LINE
  5
697
100
AcDbEntity
  8
RUNDUNGEN
100
AcDbLine
 62
7
  6
CONTINUOUS
 10
230.6435405742
 20
59.9720775762
 11
230.624611368
 21
59.819292936
  0
LWPOLYLINE
  5
698
100
AcDbEntity
  8
0
100
AcDbPolyline
 62
7
  6
CONTINUOUS
 90
3
 70
0
 10
250.6463963967
 20
183.4270142148
 10
250.7460926032
 20
184.0305209438
 10
250.9195303379
 20
184.5668267804
  0
LWPOLYLINE
  5
699
100
AcDbEntity
  8
0
100
AcDbPolyline
 62
7
  6
CONTINUOUS
 90
4
 70
0
 10
250.8708262123
 20
168.5229021175
 10
250.9084361599
 20
168.7193803425
 10
251.0871084328
 20
169.3959961406
 10
251.3052492563
 20
170.028717001
  0
LINE
  5
69A
100
AcDbEntity
  8
0
100
AcDbLine
 62
7
  6
CONTINUOUS
 10
260.5483012985
 20
180.5555852449
 11
260.6053476798
 21
180.7433924106
  0
LINE
  5
69B
100
AcDbEntity
  8
RUNDUNGEN
100
AcDbLine
 62
7
  6
CONTINUOUS
 10
259.624611368
 20
96.4883310746
 11
251.3325224589
 21
96.4883310746
  0
LINE
  5
69C
100
AcDbEntity
  8
RUNDUNGEN
100
AcDbLine
 62
7
  6
CONTINUOUS
 10
239.9167006302
 20
96.4883310746
 11
231.624611368
 21
96.4883310746
  0
LWPOLYLINE
  5
69D
100
AcDbEntity
  8
RUNDUNGEN
100
AcDbPolyline
 62
7
  6
CONTINUOUS
 90
3
 70
0
 10
237.9037701285
 20
96.319960122
 10
238.194922292
 20
96.2044400204
 10
238.2719968172
 20
96.1687094248
  0
LINE
  5
69E
100
AcDbEntity
  8
RUNDUNGEN
100
AcDbLine
 62
7
  6
CONTINUOUS
 10
238.2720649549
 20
96.168677918
 11
238.2719552538
 21
96.1687303794
  0
LWPOLYLINE
  5
69F
100
AcDbEntity
  8
RUNDUNGEN
100
AcDbPolyline
 62
7
  6
CONTINUOUS
 90
3
 70
0
 10
238.2720649549
 20
96.168677918
 10
238.3876813528
 20
96.1108851325
 10
238.5501562438
 20
96.0209691276
  0
LINE
  5
6A0
100
AcDbEntity
  8
RUNDUNGEN
100
AcDbLine
 62
7
  6
CONTINUOUS
 10
238.5501562438
 20
96.0209691276
 11
238.7105486337
 21
95.9219291726
  0
LINE
  5
6A1
100
AcDbEntity
  8
RUNDUNGEN
100
AcDbLine
 62
7
  6
CONTINUOUS
 10
238.7105486337
 20
95.9219291726
 11
238.8278958429
 21
95.8427609658
  0
LINE
  5
6A2
100
AcDbEntity
  8
RUNDUNGEN
100
AcDbLine
 62
7
  6
CONTINUOUS
 10
238.8278365991
 20
95.8426763317
 11
238.8269514229
 21
95.8432961469
  0
LWPOLYLINE
  5
6A3
100
AcDbEntity
  8
RUNDUNGEN
100
AcDbPolyline
 62
7
  6
CONTINUOUS
 90
4
 70
0
 10
238.8269514229
 20
95.8432961469
 10
238.8911630491
 20
95.7974693122
 10
239.0268949894
 20
95.6943603357
 10
239.1645620007
 20
95.5810137145
  0
LWPOLYLINE
  5
6A4
100
AcDbEntity
  8
RUNDUNGEN
100
AcDbPolyline
 62
7
  6
CONTINUOUS
 90
3
 70
0
 10
239.1645620007
 20
95.5810137145
 10
239.3049961954
 20
95.4573538246
 10
239.3240191126
 20
95.4400390472
  0
LWPOLYLINE
  5
6A5
100
AcDbEntity
  8
RUNDUNGEN
100
AcDbPolyline
 62
7
  6
CONTINUOUS
 90
5
 70
0
 10
244.374611368
 20
36.8264178447
 10
244.3756835278
 20
36.7746176651
 10
244.3789016258
 20
36.7234431685
 10
244.3842646191
 20
36.672993718
 10
244.3917668158
 20
36.6233687925
  0
LINE
  5
6A6
100
AcDbEntity
  8
RUNDUNGEN
100
AcDbLine
 62
7
  6
CONTINUOUS
 10
240.624611368
 20
39.2371042973
 11
240.624611368
 21
50.8498406758
  0
LINE
  5
6A7
100
AcDbEntity
  8
RUNDUNGEN
100
AcDbLine
 62
7
  6
CONTINUOUS
 10
240.624611368
 20
74.7437209601
 11
240.624611368
 21
92.4883310746
  0
LINE
  5
6A8
100
AcDbEntity
  8
0
100
AcDbLine
 62
7
  6
CONTINUOUS
 10
240.624611368
 20
170.4824192836
 11
240.624611368
 21
184.0445509066
  0
LINE
  5
6A9
100
AcDbEntity
  8
RUNDUNGEN
100
AcDbLine
 62
7
  6
CONTINUOUS
 10
244.374611368
 20
14.4105041726
 11
244.374611368
 21
19.2770589233
  0
LINE
  5
6AA
100
AcDbEntity
  8
RUNDUNGEN
100
AcDbLine
 62
7
  6
CONTINUOUS
 10
244.374611368
 20
36.8264178447
 11
244.374611368
 21
46.5140232298
  0
LINE
  5
6AB
100
AcDbEntity
  8
RUNDUNGEN
100
AcDbLine
 62
7
  6
CONTINUOUS
 10
244.374611368
 20
75.5125238675
 11
244.374611368
 21
88.7460389253
  0
LINE
  5
6AC
100
AcDbEntity
  8
0
100
AcDbLine
 62
7
  6
CONTINUOUS
 10
240.6246101567
 20
170.4824192836
 11
240.6242735962
 21
170.4148166158
  0
LWPOLYLINE
  5
6AD
100
AcDbEntity
  8
RUNDUNGEN
100
AcDbPolyline
 62
7
  6
CONTINUOUS
 90
5
 70
0
 10
240.6246113144
 20
78.0091474028
 10
240.618713859
 20
77.6258701596
 10
240.5733224714
 20
76.8833211051
 10
240.4844418542
 20
76.1618275397
 10
240.3533231592
 20
75.4645609491
  0
LINE
  5
6AE
100
AcDbEntity
  8
RUNDUNGEN
100
AcDbLine
 62
7
  6
CONTINUOUS
 10
240.6246112854
 20
44.8930986726
 11
240.6183958169
 21
44.4917565181
  0
LWPOLYLINE
  5
6AF
100
AcDbEntity
  8
RUNDUNGEN
100
AcDbPolyline
 62
7
  6
CONTINUOUS
 90
10
 70
0
 10
240.6183958169
 20
44.4917565181
 10
240.5710986226
 20
43.7220549452
 10
240.4782814463
 20
42.9760148728
 10
240.3415015457
 20
42.2606581144
 10
240.1632061958
 20
41.5843308143
 10
239.9452356617
 20
40.951279157
 10
239.691256853
 20
40.3704191947
 10
239.4036720837
 20
39.8466288294
 10
239.0872559885
 20
39.3895305028
 10
238.9425915926
 20
39.2148001405
  0
LINE
  5
6B0
100
AcDbEntity
  8
RUNDUNGEN
100
AcDbLine
 62
7
  6
CONTINUOUS
 10
230.6436891955
 20
60.2450356511
 11
230.7004191194
 21
60.4325644182
  0
LINE
  5
6B1
100
AcDbEntity
  8
RUNDUNGEN
100
AcDbLine
 62
7
  6
CONTINUOUS
 10
231.624611368
 20
103.2383310746
 11
259.624611368
 21
103.2383310746
  0
LINE
  5
6B2
100
AcDbEntity
  8
02___PRT_ALL_AXES
100
AcDbLine
 62
7
  6
CENTER
 10
223.574611368
 20
105.4883310746
 11
267.674611368
 21
105.4883310746
  0
LINE
  5
6B3
100
AcDbEntity
  8
0
100
AcDbLine
 62
2
  6
CONTINUOUS
 10
226.574611368
 20
105.4883310752
 11
264.674611368
 21
105.4883310752
  0
LWPOLYLINE
  5
6B4
100
AcDbEntity
  8
RUNDUNGEN
100
AcDbPolyline
 62
7
  6
CONTINUOUS
 90
37
 70
0
 10
258.8481899321
 20
103.238331147
 10
258.5596064717
 20
103.2416158542
 10
258.2976369404
 20
103.2502943376
 10
258.042056592
 20
103.2640117316
 10
257.7926325652
 20
103.2824350441
 10
257.549135599
 20
103.3052850273
 10
257.3112706211
 20
103.3323534148
 10
257.0787351716
 20
103.3634657481
 10
256.8512938521
 20
103.3984668854
 10
256.6286620759
 20
103.4372614079
 10
256.4107254672
 20
103.4797730179
 10
256.1969972501
 20
103.5260213869
 10
255.9883238769
 20
103.5757427943
 10
255.7850968802
 20
103.6287665223
 10
255.5882358151
 20
103.6847479571
 10
255.3985024812
 20
103.7432979867
 10
255.2166092531
 20
103.8039788158
 10
255.0439349304
 20
103.8660673534
 10
254.8791738035
 20
103.9297490596
 10
254.7217851991
 20
103.9950003383
 10
254.570936619
 20
104.0620108305
 10
254.4258849739
 20
104.1310531416
 10
254.2862428434
 20
104.2023053767
 10
254.1515186811
 20
104.2760728665
 10
254.0216802843
 20
104.3525335388
 10
253.8967268891
 20
104.4319324171
 10
253.776783421
 20
104.5145207819
 10
253.6622296768
 20
104.6004605518
 10
253.5534597807
 20
104.6900140201
 10
253.4514914032
 20
104.7831312758
 10
253.3566747582
 20
104.8806100448
 10
253.2715543765
 20
104.9808773535
 10
253.1956983702
 20
105.0870794145
 10
253.1319150799
 20
105.1998681145
 10
253.0850009437
 20
105.3146086793
 10
253.0601491588
 20
105.4316419926
 10
253.0599023276
 20
105.4883310752
  0
LINE
  5
6B5
100
AcDbEntity
  8
RUNDUNGEN
100
AcDbLine
 62
7
  6
CONTINUOUS
 10
260.5494557295
 20
60.1185616113
 11
260.6056821618
 21
59.9713836063
  0
LWPOLYLINE
  5
6B6
100
AcDbEntity
  8
RUNDUNGEN
100
AcDbPolyline
 62
7
  6
CONTINUOUS
 90
6
 70
0
 10
251.0674566117
 20
74.7977748194
 10
250.8956833593
 20
75.4653006413
 10
250.7646231904
 20
76.1628671481
 10
250.6758518104
 20
76.8840756204
 10
250.6305815434
 20
77.6264461104
 10
250.6246114522
 20
78.0099809582
  0
LINE
  5
6B7
100
AcDbEntity
  8
RUNDUNGEN
100
AcDbLine
 62
7
  6
CONTINUOUS
 10
250.6309603976
 20
44.4903875398
 11
250.6246157537
 21
44.8884929268
  0
LINE
  5
6B8
100
AcDbEntity
  8
0
100
AcDbLine
 62
7
  6
CONTINUOUS
 10
250.6249491436
 20
170.4148164439
 11
250.6246125817
 21
170.482419281
  0
LINE
  5
6B9
100
AcDbEntity
  8
RUNDUNGEN
100
AcDbLine
 62
7
  6
CONTINUOUS
 10
246.874611368
 20
88.7460389253
 11
246.874611368
 21
75.5125238675
  0
LINE
  5
6BA
100
AcDbEntity
  8
RUNDUNGEN
100
AcDbLine
 62
7
  6
CONTINUOUS
 10
246.874611368
 20
46.5140232298
 11
246.874611368
 21
36.8264178447
  0
LINE
  5
6BB
100
AcDbEntity
  8
RUNDUNGEN
100
AcDbLine
 62
7
  6
CONTINUOUS
 10
246.874611368
 20
14.4105041726
 11
246.874611368
 21
19.2771572472
  0
LINE
  5
6BC
100
AcDbEntity
  8
RUNDUNGEN
100
AcDbLine
 62
7
  6
CONTINUOUS
 10
250.624611368
 20
92.4883310746
 11
250.624611368
 21
74.7437251024
  0
LINE
  5
6BD
100
AcDbEntity
  8
RUNDUNGEN
100
AcDbLine
 62
7
  6
CONTINUOUS
 10
250.624611368
 20
50.8511865557
 11
250.624611368
 21
39.2371114721
  0
LINE
  5
6BE
100
AcDbEntity
  8
0
100
AcDbLine
 62
7
  6
CONTINUOUS
 10
250.624611368
 20
170.482419281
 11
250.624611368
 21
184.0445509066
  0
LINE
  5
6BF
100
AcDbEntity
  8
0
100
AcDbLine
 62
7
  6
CONTINUOUS
 10
251.124611368
 20
184.9627193909
 11
251.124611368
 21
182.6614808434
  0
LINE
  5
6C0
100
AcDbEntity
  8
0
100
AcDbLine
 62
7
  6
CONTINUOUS
 10
251.124611368
 20
182.6433618248
 11
251.124611368
 21
182.2032528376
  0
LINE
  5
6C1
100
AcDbEntity
  8
0
100
AcDbLine
 62
7
  6
CONTINUOUS
 10
260.6053476798
 20
180.7433924106
 11
260.624611368
 21
180.9387260967
  0
LWPOLYLINE
  5
6C2
100
AcDbEntity
  8
RUNDUNGEN
100
AcDbPolyline
 62
7
  6
CONTINUOUS
 90
7
 70
0
 10
240.3533231592
 20
75.4645609491
 10
240.1815649208
 20
74.797203762
 10
239.969090446
 20
74.1602223608
 10
239.7182413619
 20
73.5628300493
 10
239.4217285072
 20
72.9957032863
 10
239.069053566
 20
72.458412348
 10
238.8783023679
 20
72.2167449132
  0
LINE
  5
6C3
100
AcDbEntity
  8
RUNDUNGEN
100
AcDbLine
 62
7
  6
CONTINUOUS
 10
230.6997670064
 20
60.1185616113
 11
230.6435405742
 21
59.9720775762
  0
LINE
  5
6C4
100
AcDbEntity
  8
0
100
AcDbLine
 62
7
  6
CONTINUOUS
 10
264.674611368
 20
106.4542569009
 11
226.574611368
 21
106.4542569009
  0
LWPOLYLINE
  5
6C5
100
AcDbEntity
  8
RUNDUNGEN
100
AcDbPolyline
 62
7
  6
CONTINUOUS
 90
3
 70
0
 10
260.5483539788
 20
60.4336506466
 10
260.6053614956
 20
60.2459018272
 10
260.624611368
 20
60.0506368233
  0
LINE
  5
6C6
100
AcDbEntity
  8
0
100
AcDbLine
 62
7
  6
CONTINUOUS
 10
230.6436439065
 20
180.7445566804
 11
230.700317424
 21
180.5570446783
  0
LWPOLYLINE
  5
6C7
100
AcDbEntity
  8
RUNDUNGEN
100
AcDbPolyline
 62
7
  6
CONTINUOUS
 90
5
 70
0
 10
246.8574559202
 20
36.6233687925
 10
246.8649620998
 20
36.6730249561
 10
246.8703246549
 20
36.723485024
 10
246.8735405382
 20
36.7746491488
 10
246.874611368
 20
36.8264178447
  0
LWPOLYLINE
  5
6C8
100
AcDbEntity
  8
RUNDUNGEN
100
AcDbPolyline
 62
7
  6
CONTINUOUS
 90
4
 70
0
 10
230.7004191194
 20
60.4325644182
 10
230.7928335437
 20
60.6057455023
 10
230.9172949858
 20
60.7575339413
 10
231.069207479
 20
60.8822175487
  0
LWPOLYLINE
  5
6C9
100
AcDbEntity
  8
RUNDUNGEN
100
AcDbPolyline
 62
7
  6
CONTINUOUS
 90
5
 70
0
 10
251.9236993328
 20
95.4387675452
 10
251.943431929
 20
95.4566582988
 10
252.0834552548
 20
95.5801131696
 10
252.2208005253
 20
95.6931088956
 10
252.3567604527
 20
95.796611571
  0
LINE
  5
6CA
100
AcDbEntity
  8
RUNDUNGEN
100
AcDbLine
 62
7
  6
CONTINUOUS
 10
252.3567604527
 20
95.796611571
 11
252.4217461775
 21
95.8430586786
  0
LINE
  5
6CB
100
AcDbEntity
  8
RUNDUNGEN
100
AcDbLine
 62
7
  6
CONTINUOUS
 10
252.4217461775
 20
95.8430586786
 11
252.4213474833
 21
95.8427797353
  0
LINE
  5
6CC
100
AcDbEntity
  8
RUNDUNGEN
100
AcDbLine
 62
7
  6
CONTINUOUS
 10
252.4213497867
 20
95.8427764671
 11
252.5394920687
 21
95.9224603548
  0
LWPOLYLINE
  5
6CD
100
AcDbEntity
  8
RUNDUNGEN
100
AcDbPolyline
 62
7
  6
CONTINUOUS
 90
3
 70
0
 10
252.5394920687
 20
95.9224603548
 10
252.6999943364
 20
96.0215123842
 10
252.8623739317
 20
96.1113190275
  0
LINE
  5
6CE
100
AcDbEntity
  8
RUNDUNGEN
100
AcDbLine
 62
7
  6
CONTINUOUS
 10
252.8623739317
 20
96.1113190275
 11
252.9771706637
 21
96.1686840331
  0
LINE
  5
6CF
100
AcDbEntity
  8
RUNDUNGEN
100
AcDbLine
 62
7
  6
CONTINUOUS
 10
252.9772447204
 20
96.1687194468
 11
252.9771706637
 21
96.1686840331
  0
LINE
  5
6D0
100
AcDbEntity
  8
RUNDUNGEN
100
AcDbLine
 62
7
  6
CONTINUOUS
 10
252.9772144433
 20
96.1686704684
 11
253.0538333425
 21
96.2041950806
  0
LINE
  5
6D1
100
AcDbEntity
  8
RUNDUNGEN
100
AcDbLine
 62
7
  6
CONTINUOUS
 10
253.0538333425
 20
96.2041950806
 11
253.3447547243
 21
96.3197050033
  0
LWPOLYLINE
  5
6D2
100
AcDbEntity
  8
RUNDUNGEN
100
AcDbPolyline
 62
7
  6
CONTINUOUS
 90
5
 70
0
 10
253.3447547243
 20
96.3197050033
 10
253.6385111836
 20
96.405784842
 10
253.9347878876
 20
96.461806206
 10
254.2337624475
 20
96.4870490261
 10
254.3219100301
 20
96.4884151286
  0
LINE
  5
6D3
100
AcDbEntity
  8
0
100
AcDbLine
 62
7
  6
CONTINUOUS
 10
264.674611368
 20
116.3600978354
 11
226.574611368
 21
116.3600978354
  0
LINE
  5
6D4
100
AcDbEntity
  8
0
100
AcDbLine
 62
7
  6
CONTINUOUS
 10
264.674611368
 20
117.2086259728
 11
226.574611368
 21
117.2086259728
  0
LINE
  5
6D5
100
AcDbEntity
  8
RUNDUNGEN
100
AcDbLine
 62
7
  6
CONTINUOUS
 10
260.6056821618
 20
59.9713836063
 11
260.624611368
 21
59.819292936
  0
LINE
  5
6D6
100
AcDbEntity
  8
0
100
AcDbLine
 62
7
  6
CONTINUOUS
 10
260.624611368
 20
191.1972422273
 11
260.624611368
 21
190.7345544527
  0
LINE
  5
6D7
100
AcDbEntity
  8
RUNDUNGEN
100
AcDbLine
 62
7
  6
CONTINUOUS
 10
260.624611368
 20
198.8556266676
 11
260.624611368
 21
190.7345544527
  0
LINE
  5
6D8
100
AcDbEntity
  8
RUNDUNGEN
100
AcDbLine
 62
7
  6
CONTINUOUS
 10
260.624611368
 20
190.3467809408
 11
260.624611368
 21
176.8017690516
  0
LINE
  5
6D9
100
AcDbEntity
  8
RUNDUNGEN
100
AcDbLine
 62
7
  6
CONTINUOUS
 10
260.624611368
 20
102.2383310746
 11
260.624611368
 21
97.4883310746
  0
LINE
  5
6DA
100
AcDbEntity
  8
RUNDUNGEN
100
AcDbLine
 62
7
  6
CONTINUOUS
 10
260.624611368
 20
68.2349280767
 11
260.624611368
 21
63.7742487674
  0
LINE
  5
6DB
100
AcDbEntity
  8
RUNDUNGEN
100
AcDbLine
 62
7
  6
CONTINUOUS
 10
260.624611368
 20
60.0506368233
 11
260.624611368
 21
51.8764800478
  0
LINE
  5
6DC
100
AcDbEntity
  8
RUNDUNGEN
100
AcDbLine
 62
7
  6
CONTINUOUS
 10
260.624611368
 20
34.1748930977
 11
260.624611368
 21
20.6298812084
  0
LINE
  5
6DD
100
AcDbEntity
  8
RUNDUNGEN
100
AcDbLine
 62
7
  6
CONTINUOUS
 10
260.624611368
 20
20.2702411164
 11
260.624611368
 21
12.1210354816
  0
LINE
  5
6DE
100
AcDbEntity
  8
0
100
AcDbLine
 62
7
  6
CONTINUOUS
 10
260.624611368
 20
178.0894254635
 11
260.624611368
 21
181.2116649683
  0
LINE
  5
6DF
100
AcDbEntity
  8
RUNDUNGEN
100
AcDbLine
 62
7
  6
CONTINUOUS
 10
264.674611368
 20
105.4883310752
 11
264.674611368
 21
52.8973114369
  0
LINE
  5
6E0
100
AcDbEntity
  8
0
100
AcDbLine
 62
7
  6
CONTINUOUS
 10
264.674611368
 20
105.4883310752
 11
264.674611368
 21
158.0793507002
  0
LWPOLYLINE
  5
6E1
100
AcDbEntity
  8
RUNDUNGEN
100
AcDbPolyline
 62
7
  6
CONTINUOUS
 90
6
 70
0
 10
260.624611368
 20
51.8764800478
 10
260.6055554287
 20
51.682192055
 10
260.5488528633
 20
51.4946716427
 10
260.4564350033
 20
51.3214400191
 10
260.331953055
 20
51.1696082505
 10
260.1799772847
 20
51.0448739648
  0
LINE
  5
6E2
100
AcDbEntity
  8
RUNDUNGEN
100
AcDbLine
 62
7
  6
CONTINUOUS
 10
238.8781752262
 20
72.2165944864
 11
238.8783023679
 21
72.2167449132
  0
LWPOLYLINE
  5
6E3
100
AcDbEntity
  8
RUNDUNGEN
100
AcDbPolyline
 62
7
  6
CONTINUOUS
 90
3
 70
0
 10
238.8781406301
 20
72.2166236047
 10
238.8152716507
 20
72.1431811668
 10
238.6500864429
 20
71.9618589561
  0
LWPOLYLINE
  5
6E4
100
AcDbEntity
  8
RUNDUNGEN
100
AcDbPolyline
 62
7
  6
CONTINUOUS
 90
3
 70
0
 10
238.6500864429
 20
71.9618589561
 10
238.4850080367
 20
71.7987779228
 10
238.4050422153
 20
71.7266389504
  0
LINE
  5
6E5
100
AcDbEntity
  8
RUNDUNGEN
100
AcDbLine
 62
7
  6
CONTINUOUS
 10
238.4050422153
 20
71.7266389504
 11
238.4051768256
 21
71.7267567713
  0
LWPOLYLINE
  5
6E6
100
AcDbEntity
  8
0
100
AcDbPolyline
 62
7
  6
CONTINUOUS
 90
4
 70
0
 10
239.9452356587
 20
170.025383
 10
240.1632061937
 20
169.3923313416
 10
240.3415015444
 20
168.7160040403
 10
240.3784127813
 20
168.5229588444
  0
LWPOLYLINE
  5
6E7
100
AcDbEntity
  8
0
100
AcDbPolyline
 62
7
  6
CONTINUOUS
 90
3
 70
0
 10
240.3242180663
 20
184.5798954486
 10
240.4988341241
 20
184.0481346127
 10
240.6016377098
 20
183.4398694461
  0
LINE
  5
6E8
100
AcDbEntity
  8
0
100
AcDbLine
 62
7
  6
CONTINUOUS
 10
260.624611368
 20
190.3467809408
 11
260.6068294531
 21
190.5280794067
  0
LWPOLYLINE
  5
6E9
100
AcDbEntity
  8
RUNDUNGEN
100
AcDbPolyline
 62
7
  6
CONTINUOUS
 90
6
 70
0
 10
260.624611368
 20
20.6298812084
 10
260.6055554287
 20
20.4355932155
 10
260.5488528633
 20
20.2480728033
 10
260.4564350033
 20
20.0748411797
 10
260.331953055
 20
19.9230094111
 10
260.1799772847
 20
19.7982751254
  0
LWPOLYLINE
  5
6EA
100
AcDbEntity
  8
RUNDUNGEN
100
AcDbPolyline
 62
7
  6
CONTINUOUS
 90
5
 70
0
 10
238.4051755666
 20
71.7267582023
 10
238.2216813723
 20
71.57138904
 10
237.9996409266
 20
71.395768111
 10
237.7778604195
 20
71.2331708167
 10
237.6406020452
 20
71.1386810738
  0
LINE
  5
6EB
100
AcDbEntity
  8
RUNDUNGEN
100
AcDbLine
 62
7
  6
CONTINUOUS
 10
237.6406020452
 20
71.1386810738
 11
237.6407030331
 21
71.1387488922
  0
LWPOLYLINE
  5
6EC
100
AcDbEntity
  8
RUNDUNGEN
100
AcDbPolyline
 62
7
  6
CONTINUOUS
 90
7
 70
0
 10
237.6407067285
 20
71.1387419655
 10
237.4872213492
 20
71.0384300472
 10
237.0454544965
 20
70.7799675442
 10
236.6147203473
 20
70.5697608898
 10
236.2030487692
 20
70.4068741239
 10
235.8176734925
 20
70.2887471485
 10
235.7416928783
 20
70.2695234311
  0
LWPOLYLINE
  5
6ED
100
AcDbEntity
  8
0
100
AcDbPolyline
 62
7
  6
CONTINUOUS
 90
3
 70
0
 10
239.4036720781
 20
171.1300333289
 10
239.6912568488
 20
170.6062429632
 10
239.9452356587
 20
170.025383
  0
LWPOLYLINE
  5
6EE
100
AcDbEntity
  8
0
100
AcDbPolyline
 62
7
  6
CONTINUOUS
 90
3
 70
0
 10
230.700317424
 20
180.5570446783
 10
230.7927396924
 20
180.3837580723
 10
230.9172449275
 20
180.2318790702
  0
LWPOLYLINE
  5
6EF
100
AcDbEntity
  8
RUNDUNGEN
100
AcDbPolyline
 62
7
  6
CONTINUOUS
 90
20
 70
0
 10
236.174453671
 20
62.7742487674
 10
236.1524499772
 20
62.7614129761
 10
236.0004714206
 20
62.6758907703
 10
235.845567947
 20
62.5917428342
 10
235.6878428111
 20
62.5089830732
 10
235.5274094143
 20
62.4276343897
 10
235.3643526389
 20
62.3477121142
 10
235.1987598096
 20
62.2692360486
 10
235.0306963101
 20
62.1922206624
 10
234.8603491514
 20
62.1167398305
 10
234.6873989477
 20
62.0426488109
 10
234.5119716345
 20
61.9700125282
 10
234.332868806
 20
61.8983750689
 10
234.1492647782
 20
61.8274921886
 10
233.9601100851
 20
61.757091946
 10
233.7643908194
 20
61.6869776993
 10
233.5611466663
 20
61.6170326313
 10
233.3491409673
 20
61.5471186634
 10
233.1281984653
 20
61.4775069243
 10
232.897666781
 20
61.408356141
  0
LWPOLYLINE
  5
6F0
100
AcDbEntity
  8
RUNDUNGEN
100
AcDbPolyline
 62
7
  6
CONTINUOUS
 90
3
 70
0
 10
231.069207479
 20
60.8822175487
 10
231.2422687403
 20
60.9746574481
 10
231.3857817909
 20
61.0216982785
  0
LINE
  5
6F1
100
AcDbEntity
  8
0
100
AcDbLine
 62
7
  6
CONTINUOUS
 10
239.0872559819
 20
171.5871316548
 11
239.4036720781
 21
171.1300333289
  0
LINE
  5
6F2
100
AcDbEntity
  8
0
100
AcDbLine
 62
7
  6
CONTINUOUS
 10
240.0930347551
 20
185.0221744714
 11
240.3242180663
 21
184.5798954486
  0
LINE
  5
6F3
100
AcDbEntity
  8
RUNDUNGEN
100
AcDbLine
 62
7
  6
CONTINUOUS
 10
238.9425886862
 20
39.2148009227
 11
238.9427015886
 21
39.2149298307
  0
LWPOLYLINE
  5
6F4
100
AcDbEntity
  8
RUNDUNGEN
100
AcDbPolyline
 62
7
  6
CONTINUOUS
 90
3
 70
0
 10
238.9426992989
 20
39.2149311754
 10
238.8777480809
 20
39.1424608192
 10
238.7373174053
 20
38.9968715766
  0
LWPOLYLINE
  5
6F5
100
AcDbEntity
  8
RUNDUNGEN
100
AcDbPolyline
 62
7
  6
CONTINUOUS
 90
5
 70
0
 10
231.2395809919
 20
60.5454643502
 10
231.0663860415
 20
60.4720678752
 10
230.9150887911
 20
60.3737606711
 10
230.7913744233
 20
60.2543139884
 10
230.6997670064
 20
60.1185616113
  0
LINE
  5
6F6
100
AcDbEntity
  8
0
100
AcDbLine
 62
7
  6
CONTINUOUS
 10
264.674611368
 20
139.8006876317
 11
226.574611368
 21
139.8006876317
  0
LINE
  5
6F7
100
AcDbEntity
  8
RUNDUNGEN
100
AcDbLine
 62
7
  6
CONTINUOUS
 10
238.9427033189
 20
171.7617344461
 11
238.9425915851
 21
171.7618620171
  0
LINE
  5
6F8
100
AcDbEntity
  8
0
100
AcDbLine
 62
7
  6
CONTINUOUS
 10
238.9425915851
 20
171.7618620171
 11
239.0872559819
 21
171.5871316548
  0
LINE
  5
6F9
100
AcDbEntity
  8
RUNDUNGEN
100
AcDbLine
 62
7
  6
CONTINUOUS
 10
238.7372754374
 20
38.9968419678
 11
238.6011636008
 21
38.8710090297
  0
LINE
  5
6FA
100
AcDbEntity
  8
RUNDUNGEN
100
AcDbLine
 62
7
  6
CONTINUOUS
 10
238.6010744055
 20
38.8709265763
 11
238.5400553358
 21
38.8196719145
  0
LWPOLYLINE
  5
6FB
100
AcDbEntity
  8
RUNDUNGEN
100
AcDbPolyline
 62
7
  6
CONTINUOUS
 90
6
 70
0
 10
260.1811932769
 20
62.9434560455
 10
260.3320530869
 20
63.0674770826
 10
260.4556269361
 20
63.2179996157
 10
260.5480025602
 20
63.3903884984
 10
260.6052660597
 20
63.5785093104
 10
260.624611368
 20
63.7742487674
  0
LINE
  5
6FC
100
AcDbEntity
  8
RUNDUNGEN
100
AcDbLine
 62
7
  6
CONTINUOUS
 10
238.5400553358
 20
38.8196719145
 11
238.5398564303
 21
38.8195102898
  0
LINE
  5
6FD
100
AcDbEntity
  8
0
100
AcDbLine
 62
7
  6
CONTINUOUS
 10
264.674611368
 20
149.7065285661
 11
226.574611368
 21
149.7065285661
  0
LINE
  5
6FE
100
AcDbEntity
  8
0
100
AcDbLine
 62
7
  6
CONTINUOUS
 10
264.674611368
 20
150.9653476113
 11
226.574611368
 21
150.9653476113
  0
LINE
  5
6FF
100
AcDbEntity
  8
RUNDUNGEN
100
AcDbLine
 62
7
  6
CONTINUOUS
 10
238.540055318
 20
172.1569902471
 11
238.53985642
 21
172.1571518657
  0
LWPOLYLINE
  5
700
100
AcDbEntity
  8
0
100
AcDbPolyline
 62
7
  6
CONTINUOUS
 90
5
 70
0
 10
238.540055318
 20
172.1569902471
 10
238.6010743936
 20
172.1057355792
 10
238.7373174077
 20
171.9797905661
 10
238.8777480757
 20
171.8342013307
 10
238.9426992868
 20
171.7617309841
  0
LINE
  5
701
100
AcDbEntity
  8
0
100
AcDbLine
 62
7
  6
CONTINUOUS
 10
239.8271099539
 20
185.3648465183
 11
240.0930347551
 21
185.0221744714
  0
LWPOLYLINE
  5
702
100
AcDbEntity
  8
RUNDUNGEN
100
AcDbPolyline
 62
7
  6
CONTINUOUS
 90
3
 70
0
 10
238.5398567184
 20
38.8195099419
 10
238.32630942
 20
38.6494620725
 10
238.0561930789
 20
38.4438282861
  0
LWPOLYLINE
  5
703
100
AcDbEntity
  8
RUNDUNGEN
100
AcDbPolyline
 62
7
  6
CONTINUOUS
 90
3
 70
0
 10
238.0558599938
 20
38.4435869134
 10
237.779861374
 20
38.2435823494
 10
237.6019230444
 20
38.119705646
  0
LINE
  5
704
100
AcDbEntity
  8
RUNDUNGEN
100
AcDbLine
 62
7
  6
CONTINUOUS
 10
237.6019230444
 20
38.119705646
 11
237.6017344003
 21
38.1195760785
  0
LINE
  5
705
100
AcDbEntity
  8
RUNDUNGEN
100
AcDbLine
 62
7
  6
CONTINUOUS
 10
237.601770345
 20
38.1195240547
 11
237.4011193255
 21
37.9843126351
  0
LWPOLYLINE
  5
706
100
AcDbEntity
  8
RUNDUNGEN
100
AcDbPolyline
 62
7
  6
CONTINUOUS
 90
6
 70
0
 10
237.4012542801
 20
37.9844478926
 10
236.8229028204
 20
37.6197953022
 10
236.2407503771
 20
37.2876141709
 10
235.6624460423
 20
36.9901274349
 10
235.0947971695
 20
36.7288122886
 10
234.9803433328
 20
36.6797824272
  0
LINE
  5
707
100
AcDbEntity
  8
RUNDUNGEN
100
AcDbLine
 62
7
  6
CONTINUOUS
 10
237.6019245242
 20
172.8569554846
 11
237.6017358575
 21
172.8570850678
  0
LWPOLYLINE
  5
708
100
AcDbEntity
  8
0
100
AcDbPolyline
 62
7
  6
CONTINUOUS
 90
5
 70
0
 10
237.6019245242
 20
172.8569554846
 10
237.7798643288
 20
172.7330777081
 10
238.0561960252
 20
172.5328316752
 10
238.3263118432
 20
172.3271981853
 10
238.5398567079
 20
172.1571522135
  0
LINE
  5
709
100
AcDbEntity
  8
0
100
AcDbLine
 62
7
  6
CONTINUOUS
 10
230.9172449275
 20
180.2318790702
 11
231.0692893642
 21
180.107090692
  0
LWPOLYLINE
  5
70A
100
AcDbEntity
  8
RUNDUNGEN
100
AcDbPolyline
 62
7
  6
CONTINUOUS
 90
3
 70
0
 10
260.1799772847
 20
51.0448739648
 10
260.0068905235
 20
50.952433162
 10
259.8197393653
 20
50.8957023248
  0
LINE
  5
70B
100
AcDbEntity
  8
RUNDUNGEN
100
AcDbLine
 62
7
  6
CONTINUOUS
 10
234.9804191231
 20
36.6797991148
 11
231.2351614561
 21
35.0962573569
  0
LINE
  5
70C
100
AcDbEntity
  8
RUNDUNGEN
100
AcDbLine
 62
7
  6
CONTINUOUS
 10
256.3394021121
 20
48.1609335337
 11
262.5382440429
 21
50.0243077258
  0
LINE
  5
70D
100
AcDbEntity
  8
0
100
AcDbLine
 62
7
  6
CONTINUOUS
 10
256.3216089642
 20
162.8210772424
 11
262.5382440515
 21
160.9523544208
  0
LINE
  5
70E
100
AcDbEntity
  8
0
100
AcDbLine
 62
7
  6
CONTINUOUS
 10
231.235161456
 20
175.8804047924
 11
234.9804016624
 21
174.296823454
  0
LINE
  5
70F
100
AcDbEntity
  8
RUNDUNGEN
100
AcDbLine
 62
7
  6
CONTINUOUS
 10
234.9802704883
 20
174.2969263959
 11
234.9804186441
 21
174.2968637073
  0
LWPOLYLINE
  5
710
100
AcDbEntity
  8
0
100
AcDbPolyline
 62
7
  6
CONTINUOUS
 90
7
 70
0
 10
234.9802704883
 20
174.2969263959
 10
235.0943475519
 20
174.2480759419
 10
235.6617937483
 20
173.9869116637
 10
236.2401228738
 20
173.6894224551
 10
236.8224665598
 20
173.3571625969
 10
237.4011196852
 20
172.9923492351
 10
237.6017717739
 20
172.857137049
  0
LWPOLYLINE
  5
711
100
AcDbEntity
  8
0
100
AcDbPolyline
 62
7
  6
CONTINUOUS
 90
24
 70
0
 10
234.3049353673
 20
178.6257650367
 10
234.5544379119
 20
178.4978570778
 10
234.7975949641
 20
178.3705775365
 10
235.0345526504
 20
178.2439093381
 10
235.2656591342
 20
178.1177092008
 10
235.4911937939
 20
177.9918378769
 10
235.7114306213
 20
177.8661395219
 10
235.9266360743
 20
177.740428633
 10
236.1369258018
 20
177.6145629297
 10
236.3426873102
 20
177.4882193606
 10
236.5429645804
 20
177.3618644486
 10
236.7372782751
 20
177.2356445643
 10
236.9244678196
 20
177.1102028366
 10
237.1034280917
 20
176.9861834766
 10
237.2732129473
 20
176.8640858256
 10
237.4329059437
 20
176.7445260796
 10
237.5808976562
 20
176.6287680875
 10
237.7154077691
 20
176.5182055085
 10
237.8365270103
 20
176.4129807211
 10
237.9430044461
 20
176.3145945902
 10
238.0354617986
 20
176.2225121984
 10
238.1150859223
 20
176.1355508121
 10
238.175082259
 20
176.0624741041
 10
238.2073734543
 20
176.017530268
  0
LINE
  5
712
100
AcDbEntity
  8
0
100
AcDbLine
 62
7
  6
CONTINUOUS
 10
231.0692893642
 20
180.107090692
 11
231.2332749766
 21
180.0184783974
  0
LINE
  5
713
100
AcDbEntity
  8
0
100
AcDbLine
 62
7
  6
CONTINUOUS
 10
239.5450271776
 20
185.613817296
 11
239.6076244536
 21
185.5664507153
  0
LINE
  5
714
100
AcDbEntity
  8
RUNDUNGEN
100
AcDbLine
 62
7
  6
CONTINUOUS
 10
239.6076010028
 20
185.5664219158
 11
239.6038736633
 21
185.5693656332
  0
LINE
  5
715
100
AcDbEntity
  8
0
100
AcDbLine
 62
7
  6
CONTINUOUS
 10
239.6038736633
 20
185.5693656332
 11
239.8271099539
 21
185.3648465183
  0
LWPOLYLINE
  5
716
100
AcDbEntity
  8
0
100
AcDbPolyline
 62
7
  6
CONTINUOUS
 90
3
 70
0
 10
231.2352691441
 20
180.0176329241
 10
232.0597748037
 20
179.669076033
 10
232.3659963021
 20
179.5374728778
  0
LINE
  5
717
100
AcDbEntity
  8
RUNDUNGEN
100
AcDbLine
 62
7
  6
CONTINUOUS
 10
231.2332749766
 20
180.0184783974
 11
231.2333113061
 21
180.0184629578
  0
LWPOLYLINE
  5
718
100
AcDbEntity
  8
0
100
AcDbPolyline
 62
7
  6
CONTINUOUS
 90
8
 70
0
 10
232.3659963021
 20
179.5374728778
 10
232.6646458372
 20
179.4059535005
 10
232.9558436493
 20
179.2746837697
 10
233.2397176763
 20
179.1437986667
 10
233.5164072702
 20
179.0134013673
 10
233.786066592
 20
178.8835661968
 10
234.0488556336
 20
178.7543443611
 10
234.3049353673
 20
178.6257650367
  0
LWPOLYLINE
  5
719
100
AcDbEntity
  8
RUNDUNGEN
100
AcDbPolyline
 62
7
  6
CONTINUOUS
 90
6
 70
0
 10
260.1802723752
 20
26.667652231
 10
260.3317646147
 20
26.7920008688
 10
260.4560668402
 20
26.9434697877
 10
260.5484675527
 20
27.1163213873
 10
260.6053907267
 20
27.3039414449
 10
260.624611368
 20
27.4990611814
  0
LWPOLYLINE
  5
71A
100
AcDbEntity
  8
RUNDUNGEN
100
AcDbPolyline
 62
7
  6
CONTINUOUS
 90
6
 70
0
 10
246.4302455302
 20
13.5790772809
 10
246.5817510671
 20
13.7034303108
 10
246.7060713311
 20
13.8549194994
 10
246.798474684
 20
14.0277815926
 10
246.8553925383
 20
14.2153934357
 10
246.874611368
 20
14.4105041726
  0
LINE
  5
71B
100
AcDbEntity
  8
RUNDUNGEN
100
AcDbLine
 62
7
  6
CONTINUOUS
 10
231.624611368
 20
178.7265904124
 11
234.1041306463
 21
178.7265904124
  0
LINE
  5
71C
100
AcDbEntity
  8
RUNDUNGEN
100
AcDbLine
 62
7
  6
CONTINUOUS
 10
257.1450537153
 20
178.7265904124
 11
259.624611368
 21
178.7265904124
  0
LINE
  5
71D
100
AcDbEntity
  8
0
100
AcDbLine
 62
7
  6
CONTINUOUS
 10
238.7536209262
 20
186.2068326218
 11
239.5013536616
 21
185.8421389992
  0
LINE
  5
71E
100
AcDbEntity
  8
0
100
AcDbLine
 62
7
  6
CONTINUOUS
 10
231.1857753005
 20
189.807886378
 11
235.6783626186
 21
187.6117595685
  0
LWPOLYLINE
  5
71F
100
AcDbEntity
  8
0
100
AcDbPolyline
 62
7
  6
CONTINUOUS
 90
3
 70
0
 10
235.6783626186
 20
187.6117595685
 10
237.1811301818
 20
186.8613245745
 10
237.9057036564
 20
186.492675135
  0
LINE
  5
720
100
AcDbEntity
  8
RUNDUNGEN
100
AcDbLine
 62
7
  6
CONTINUOUS
 10
238.1380229575
 20
186.3730566829
 11
238.1374777866
 21
186.3733378741
  0
LINE
  5
721
100
AcDbEntity
  8
0
100
AcDbLine
 62
7
  6
CONTINUOUS
 10
237.9057036564
 20
186.492675135
 11
238.3741359839
 21
186.2509917821
  0
LINE
  5
722
100
AcDbEntity
  8
0
100
AcDbLine
 62
7
  6
CONTINUOUS
 10
238.3741359839
 20
186.2509917821
 11
239.0712996591
 21
185.8858619509
  0
LINE
  5
723
100
AcDbEntity
  8
0
100
AcDbLine
 62
7
  6
CONTINUOUS
 10
239.0712996591
 20
185.8858619509
 11
239.3357008038
 21
185.7452077331
  0
LINE
  5
724
100
AcDbEntity
  8
RUNDUNGEN
100
AcDbLine
 62
7
  6
CONTINUOUS
 10
239.3358739559
 20
185.7451108042
 11
239.3356989886
 21
185.7452043656
  0
LWPOLYLINE
  5
725
100
AcDbEntity
  8
0
100
AcDbPolyline
 62
7
  6
CONTINUOUS
 90
4
 70
0
 10
239.3358739559
 20
185.7451108042
 10
239.3581748777
 20
185.7329778228
 10
239.4518176921
 20
185.6772788658
 10
239.5450271776
 20
185.613817296
  0
LWPOLYLINE
  5
726
100
AcDbEntity
  8
RUNDUNGEN
100
AcDbPolyline
 62
7
  6
CONTINUOUS
 90
3
 70
0
 10
259.8198713145
 20
26.5183096662
 10
260.0074381972
 20
26.5752410589
 10
260.1802723752
 20
26.667652231
  0
LWPOLYLINE
  5
727
100
AcDbEntity
  8
RUNDUNGEN
100
AcDbPolyline
 62
7
  6
CONTINUOUS
 90
9
 70
0
 10
231.624611368
 20
178.7265904124
 10
231.4280712163
 20
178.7139705368
 10
231.2395809919
 20
178.6774674801
 10
231.0663860415
 20
178.618013624
 10
230.9150887911
 20
178.5384245824
 10
230.7913744233
 20
178.4416873055
 10
230.6997670064
 20
178.3317684584
 10
230.6435405742
 20
178.2132955336
 10
230.624611368
 20
178.0894254635
  0
LINE
  5
728
100
AcDbEntity
  8
0
100
AcDbLine
 62
7
  6
CONTINUOUS
 10
250.624611368
 20
182.2032528376
 11
251.124611368
 21
182.2032528376
  0
LINE
  5
729
100
AcDbEntity
  8
0
100
AcDbLine
 62
7
  6
CONTINUOUS
 10
250.624611368
 20
182.2615893296
 11
251.124611368
 21
182.2615893296
  0
LINE
  5
72A
100
AcDbEntity
  8
0
100
AcDbLine
 62
7
  6
CONTINUOUS
 10
250.624611368
 20
182.3967939291
 11
251.124611368
 21
182.3967939291
  0
LINE
  5
72B
100
AcDbEntity
  8
0
100
AcDbLine
 62
7
  6
CONTINUOUS
 10
250.624611368
 20
182.4446126164
 11
251.124611368
 21
182.4446126164
  0
LINE
  5
72C
100
AcDbEntity
  8
0
100
AcDbLine
 62
7
  6
CONTINUOUS
 10
250.624611368
 20
182.6433618248
 11
251.124611368
 21
182.6433618248
  0
LINE
  5
72D
100
AcDbEntity
  8
0
100
AcDbLine
 62
7
  6
CONTINUOUS
 10
250.624611368
 20
182.6614808434
 11
251.124611368
 21
182.6614808434
  0
LINE
  5
72E
100
AcDbEntity
  8
0
100
AcDbLine
 62
7
  6
CONTINUOUS
 10
250.624611368
 20
182.7079221687
 11
251.124611368
 21
182.7079221687
  0
LINE
  5
72F
100
AcDbEntity
  8
0
100
AcDbLine
 62
7
  6
CONTINUOUS
 10
250.624611368
 20
182.7942521371
 11
251.124611368
 21
182.7942521371
  0
LINE
  5
730
100
AcDbEntity
  8
0
100
AcDbLine
 62
7
  6
CONTINUOUS
 10
250.624611368
 20
182.9603589666
 11
251.124611368
 21
182.9603589666
  0
LINE
  5
731
100
AcDbEntity
  8
0
100
AcDbLine
 62
7
  6
CONTINUOUS
 10
250.624611368
 20
183.0620716714
 11
251.124611368
 21
183.0620716714
  0
LINE
  5
732
100
AcDbEntity
  8
0
100
AcDbLine
 62
7
  6
CONTINUOUS
 10
250.624611368
 20
183.1329214624
 11
251.124611368
 21
183.1329214624
  0
LINE
  5
733
100
AcDbEntity
  8
0
100
AcDbLine
 62
7
  6
CONTINUOUS
 10
250.624611368
 20
183.2173000002
 11
251.124611368
 21
183.2173000002
  0
LINE
  5
734
100
AcDbEntity
  8
0
100
AcDbLine
 62
7
  6
CONTINUOUS
 10
250.624611368
 20
183.3818728171
 11
251.124611368
 21
183.3818728171
  0
LINE
  5
735
100
AcDbEntity
  8
0
100
AcDbLine
 62
7
  6
CONTINUOUS
 10
250.6764475756
 20
183.6089277434
 11
251.124611368
 21
183.6089277434
  0
LINE
  5
736
100
AcDbEntity
  8
0
100
AcDbLine
 62
7
  6
CONTINUOUS
 10
250.6960126186
 20
183.7273638959
 11
251.124611368
 21
183.7273638959
  0
LINE
  5
737
100
AcDbEntity
  8
0
100
AcDbLine
 62
7
  6
CONTINUOUS
 10
250.7432993102
 20
184.013611864
 11
251.124611368
 21
184.013611864
  0
LINE
  5
738
100
AcDbEntity
  8
0
100
AcDbLine
 62
7
  6
CONTINUOUS
 10
250.7601774718
 20
184.0740743105
 11
251.124611368
 21
184.0740743105
  0
LINE
  5
739
100
AcDbEntity
  8
0
100
AcDbLine
 62
7
  6
CONTINUOUS
 10
250.7749945464
 20
184.1198918115
 11
251.124611368
 21
184.1198918115
  0
LINE
  5
73A
100
AcDbEntity
  8
0
100
AcDbLine
 62
7
  6
CONTINUOUS
 10
250.9036902912
 20
184.517846035
 11
251.124611368
 21
184.517846035
  0
LINE
  5
73B
100
AcDbEntity
  8
0
100
AcDbLine
 62
7
  6
CONTINUOUS
 10
250.9373848593
 20
184.6012935132
 11
251.124611368
 21
184.6012935132
  0
LINE
  5
73C
100
AcDbEntity
  8
0
100
AcDbLine
 62
7
  6
CONTINUOUS
 10
251.0192385127
 20
184.7593054782
 11
251.124611368
 21
184.7593054782
  0
LINE
  5
73D
100
AcDbEntity
  8
0
100
AcDbLine
 62
7
  6
CONTINUOUS
 10
251.0407056544
 20
184.8007460871
 11
251.124611368
 21
184.8007460871
  0
LINE
  5
73E
100
AcDbEntity
  8
0
100
AcDbLine
 62
7
  6
CONTINUOUS
 10
251.0614225408
 20
184.840738388
 11
251.124611368
 21
184.840738388
  0
LWPOLYLINE
  5
73F
100
AcDbEntity
  8
RUNDUNGEN
100
AcDbPolyline
 62
7
  6
CONTINUOUS
 90
9
 70
0
 10
259.624611368
 20
178.7265904124
 10
259.8211515196
 20
178.7143117151
 10
260.0096417441
 20
178.6774674801
 10
260.1828366945
 20
178.6181214677
 10
260.3341339449
 20
178.5384245824
 10
260.4578483127
 20
178.4417527256
 10
260.5494557295
 20
178.3317684584
 10
260.6056821618
 20
178.2124385521
 10
260.624611368
 20
178.0894254635
  0
LWPOLYLINE
  5
740
100
AcDbEntity
  8
RUNDUNGEN
100
AcDbPolyline
 62
7
  6
CONTINUOUS
 90
4
 70
0
 10
260.1799772847
 20
19.7982751254
 10
260.0068905235
 20
19.7058343226
 10
259.8197393653
 20
19.6491034854
 10
259.624611368
 20
19.6298812084
  0
LWPOLYLINE
  5
741
100
AcDbEntity
  8
RUNDUNGEN
100
AcDbPolyline
 62
7
  6
CONTINUOUS
 90
9
 70
0
 10
231.624611368
 20
191.3556266676
 10
231.4280712163
 20
191.3523152588
 10
231.2395809919
 20
191.343415845
 10
231.0663860415
 20
191.3285818678
 10
230.9150887911
 20
191.3088530029
 10
230.7913744233
 20
191.2847729169
 10
230.6997670064
 20
191.2574830797
 10
230.6435405742
 20
191.2284715196
 10
230.624611368
 20
191.1972422273
  0
LINE
  5
742
100
AcDbEntity
  8
0
100
AcDbLine
 62
7
  6
CONTINUOUS
 10
239.1919920752
 20
188.1056266676
 11
252.0574439486
 21
188.1056266676
  0
LINE
  5
743
100
AcDbEntity
  8
RUNDUNGEN
100
AcDbLine
 62
7
  6
CONTINUOUS
 10
231.624611368
 20
191.3556266676
 11
259.624611368
 21
191.3556266676
  0
LWPOLYLINE
  5
744
100
AcDbEntity
  8
RUNDUNGEN
100
AcDbPolyline
 62
7
  6
CONTINUOUS
 90
9
 70
0
 10
259.624611368
 20
191.3556266676
 10
259.8211515196
 20
191.3527488682
 10
260.0096417441
 20
191.343415845
 10
260.1828366945
 20
191.3287189281
 10
260.3341339449
 20
191.3088530029
 10
260.4578483127
 20
191.2848560604
 10
260.5494557295
 20
191.2574830797
 10
260.6056821618
 20
191.2273823668
 10
260.624611368
 20
191.1972422273
  0
LWPOLYLINE
  5
745
100
AcDbEntity
  8
RUNDUNGEN
100
AcDbPolyline
 62
7
  6
CONTINUOUS
 90
3
 70
0
 10
246.0698204405
 20
13.4297425271
 10
246.257395351
 20
13.4866662959
 10
246.4302455302
 20
13.5790772809
  0
LINE
  5
746
100
AcDbEntity
  8
RUNDUNGEN
100
AcDbLine
 62
7
  6
CONTINUOUS
 10
231.624611368
 20
199.8556266676
 11
259.624611368
 21
199.8556266676
  0
ARC
  5
747
100
AcDbEntity
  8
RUNDUNGEN
100
AcDbCircle
 62
7
  6
CONTINUOUS
 10
36.3214868521
 20
46.16425529
 40
3.9999744098
100
AcDbArc
 50
72.4035091458
 51
86.437572001
  0
ARC
  5
748
100
AcDbEntity
  8
RUNDUNGEN
100
AcDbCircle
 62
7
  6
CONTINUOUS
 10
35.08453033
 20
53.8351177888
 40
1.0
100
AcDbArc
 50
138.0
 51
210.0
  0
ARC
  5
749
100
AcDbEntity
  8
RUNDUNGEN
100
AcDbCircle
 62
7
  6
CONTINUOUS
 10
36.632150627
 20
51.1545608037
 40
1.0
100
AcDbArc
 50
209.9999368824
 51
266.4384521942
  0
ARC
  5
74A
100
AcDbEntity
  8
RUNDUNGEN
100
AcDbCircle
 62
7
  6
CONTINUOUS
 10
36.215350357
 20
51.8764800478
 40
1.0
100
AcDbArc
 50
209.9963849075
 51
300.0
  0
ARC
  5
74B
100
AcDbEntity
  8
RUNDUNGEN
100
AcDbCircle
 62
7
  6
CONTINUOUS
 10
41.3883265249
 20
46.6549744331
 40
2.000000079
100
AcDbArc
 50
6.2122200649
 51
72.3983983357
  0
ARC
  5
74C
100
AcDbEntity
  8
RUNDUNGEN
100
AcDbCircle
 62
7
  6
CONTINUOUS
 10
44.8472892174
 20
41.5044607559
 40
1.0
100
AcDbArc
 50
184.9673353002
 51
225.0
  0
ARC
  5
74D
100
AcDbEntity
  8
RUNDUNGEN
100
AcDbCircle
 62
7
  6
CONTINUOUS
 10
53.7497300629
 20
28.7360274452
 40
3.9999703967
100
AcDbArc
 50
3.5623030114
 51
17.5973106966
  0
ARC
  5
74E
100
AcDbEntity
  8
RUNDUNGEN
100
AcDbCircle
 62
7
  6
CONTINUOUS
 10
54.2404435879
 20
33.8028573757
 40
2.0000000773
100
AcDbArc
 50
17.6016016643
 51
83.8095711245
  0
ARC
  5
74F
100
AcDbEntity
  8
RUNDUNGEN
100
AcDbCircle
 62
7
  6
CONTINUOUS
 10
49.0899299045
 20
37.2618200688
 40
1.0
100
AcDbArc
 50
225.0
 51
265.0326646998
  0
ARC
  5
750
100
AcDbEntity
  8
RUNDUNGEN
100
AcDbCircle
 62
7
  6
CONTINUOUS
 10
61.4205869374
 20
27.4990611814
 40
1.0
100
AcDbArc
 50
240.0
 51
312.0
  0
ARC
  5
751
100
AcDbEntity
  8
RUNDUNGEN
100
AcDbCircle
 62
7
  6
CONTINUOUS
 10
58.7400313211
 20
29.0466806881
 40
1.0
100
AcDbArc
 50
183.5614773117
 51
239.9996534481
  0
ARC
  5
752
100
AcDbEntity
  8
RUNDUNGEN
100
AcDbCircle
 62
7
  6
CONTINUOUS
 10
59.4619491964
 20
28.6298812084
 40
1.0
100
AcDbArc
 50
150.0
 51
240.0
  0
ARC
  5
753
100
AcDbEntity
  8
RUNDUNGEN
100
AcDbCircle
 62
7
  6
CONTINUOUS
 10
23.3214965937
 20
68.6809214127
 40
3.9999703967
100
AcDbArc
 50
333.5623030114
 51
347.5973106966
  0
ARC
  5
754
100
AcDbEntity
  8
RUNDUNGEN
100
AcDbCircle
 62
7
  6
CONTINUOUS
 10
23.5488875918
 20
78.3943744913
 40
1.0
100
AcDbArc
 50
195.0
 51
235.0326646998
  0
ARC
  5
755
100
AcDbEntity
  8
RUNDUNGEN
100
AcDbCircle
 62
7
  6
CONTINUOUS
 10
21.9959733212
 20
84.1899294491
 40
1.0
100
AcDbArc
 50
154.9673353002
 51
195.0
  0
ARC
  5
756
100
AcDbEntity
  8
RUNDUNGEN
100
AcDbCircle
 62
7
  6
CONTINUOUS
 10
26.2798819377
 20
72.8235680867
 40
2.0000000773
100
AcDbArc
 50
347.6016016643
 51
53.8095711261
  0
ARC
  5
757
100
AcDbEntity
  8
RUNDUNGEN
100
AcDbCircle
 62
7
  6
CONTINUOUS
 10
29.346170384
 20
63.7742487674
 40
1.0
100
AcDbArc
 50
210.0
 51
282.0
  0
ARC
  5
758
100
AcDbEntity
  8
RUNDUNGEN
100
AcDbCircle
 62
7
  6
CONTINUOUS
 10
27.7985508774
 20
66.4548043837
 40
1.0
100
AcDbArc
 50
153.5614773117
 51
209.9996534481
  0
ARC
  5
759
100
AcDbEntity
  8
RUNDUNGEN
100
AcDbCircle
 62
7
  6
CONTINUOUS
 10
28.215350357
 20
65.7328865084
 40
1.0
100
AcDbArc
 50
120.0
 51
210.0
  0
ARC
  5
75A
100
AcDbEntity
  8
RUNDUNGEN
100
AcDbCircle
 62
7
  6
CONTINUOUS
 10
16.9423091523
 20
92.4883310746
 40
3.9999744098
100
AcDbArc
 50
42.4035091458
 51
56.437572001
  0
ARC
  5
75B
100
AcDbEntity
  8
RUNDUNGEN
100
AcDbCircle
 62
7
  6
CONTINUOUS
 10
21.5756805974
 20
90.3798864823
 40
2.000000079
100
AcDbArc
 50
336.2122199961
 51
42.3983983357
  0
ARC
  5
75C
100
AcDbEntity
  8
RUNDUNGEN
100
AcDbCircle
 62
7
  6
CONTINUOUS
 10
19.7065046302
 20
96.6547305347
 40
1.0
100
AcDbArc
 50
179.9999368824
 51
236.4384521942
  0
ARC
  5
75D
100
AcDbEntity
  8
RUNDUNGEN
100
AcDbCircle
 62
7
  6
CONTINUOUS
 10
19.7065046302
 20
97.4883310746
 40
1.0
100
AcDbArc
 50
179.9963849075
 51
270.0014880476
  0
ARC
  5
75E
100
AcDbEntity
  8
RUNDUNGEN
100
AcDbCircle
 62
7
  6
CONTINUOUS
 10
19.7065046302
 20
99.7499711286
 40
1.0
100
AcDbArc
 50
108.0
 51
180.0
  0
ARC
  5
75F
100
AcDbEntity
  8
RUNDUNGEN
100
AcDbCircle
 62
7
  6
CONTINUOUS
 10
28.2065046302
 20
105.4883310746
 40
2.25
100
AcDbArc
 50
270.0002776311
 51
89.9992874217
  0
ARC
  5
760
100
AcDbEntity
  8
RUNDUNGEN
100
AcDbCircle
 62
7
  6
CONTINUOUS
 10
39.5765662892
 20
63.0546832781
 40
2.25
100
AcDbArc
 50
299.9998923523
 51
120.0004545191
  0
ARC
  5
761
100
AcDbEntity
  8
RUNDUNGEN
100
AcDbCircle
 62
7
  6
CONTINUOUS
 10
56.6668751622
 20
90.4883310746
 40
5.0
100
AcDbArc
 50
90.0
 51
194.8917257366
  0
ARC
  5
762
100
AcDbEntity
  8
RUNDUNGEN
100
AcDbCircle
 62
7
  6
CONTINUOUS
 10
76.266425699
 20
15.7360883054
 40
3.9999464954
100
AcDbArc
 50
102.4043461563
 51
116.4383014066
  0
ARC
  5
763
100
AcDbEntity
  8
RUNDUNGEN
100
AcDbCircle
 62
7
  6
CONTINUOUS
 10
71.359717916
 20
21.7607012354
 40
1.0
100
AcDbArc
 50
168.0
 51
240.0
  0
ARC
  5
764
100
AcDbEntity
  8
RUNDUNGEN
100
AcDbCircle
 62
7
  6
CONTINUOUS
 10
73.318355657
 20
20.6298812084
 40
1.0
100
AcDbArc
 50
240.0
 51
330.0
  0
ARC
  5
765
100
AcDbEntity
  8
RUNDUNGEN
100
AcDbCircle
 62
7
  6
CONTINUOUS
 10
74.0402847307
 20
20.2130752634
 40
1.0
100
AcDbArc
 50
239.9993356691
 51
296.4373705498
  0
ARC
  5
766
100
AcDbEntity
  8
RUNDUNGEN
100
AcDbCircle
 62
7
  6
CONTINUOUS
 10
80.4090372389
 20
18.694412784
 40
2.000000079
100
AcDbArc
 50
36.2122294398
 51
102.3983983357
  0
ARC
  5
767
100
AcDbEntity
  8
RUNDUNGEN
100
AcDbCircle
 62
7
  6
CONTINUOUS
 10
85.9798436399
 20
15.9634184432
 40
1.0
100
AcDbArc
 50
214.9673353002
 51
255.0
  0
ARC
  5
768
100
AcDbEntity
  8
RUNDUNGEN
100
AcDbCircle
 62
7
  6
CONTINUOUS
 10
70.6401524267
 20
31.9910971406
 40
2.25
100
AcDbArc
 50
329.9997566879
 51
150.0002843923
  0
ARC
  5
769
100
AcDbEntity
  8
RUNDUNGEN
100
AcDbCircle
 62
7
  6
CONTINUOUS
 10
97.9653556366
 20
13.9902114514
 40
2.0000000773
100
AcDbArc
 50
47.6016016643
 51
113.8095711092
  0
ARC
  5
76A
100
AcDbEntity
  8
RUNDUNGEN
100
AcDbCircle
 62
7
  6
CONTINUOUS
 10
91.7753985977
 20
14.4105041726
 40
1.0
100
AcDbArc
 50
255.0
 51
295.0326646998
  0
ARC
  5
76B
100
AcDbEntity
  8
RUNDUNGEN
100
AcDbCircle
 62
7
  6
CONTINUOUS
 10
100.0738002232
 20
9.3568511525
 40
3.9999703821
100
AcDbArc
 50
33.562304122
 51
47.5974874937
  0
ARC
  5
76C
100
AcDbEntity
  8
RUNDUNGEN
100
AcDbCircle
 62
7
  6
CONTINUOUS
 10
107.3354402772
 20
12.1210354816
 40
1.0
100
AcDbArc
 50
270.0
 51
342.0
  0
ARC
  5
76D
100
AcDbEntity
  8
RUNDUNGEN
100
AcDbCircle
 62
7
  6
CONTINUOUS
 10
104.2402012293
 20
12.1210354816
 40
1.0
100
AcDbArc
 50
213.5614784202
 51
269.9996544393
  0
ARC
  5
76E
100
AcDbEntity
  8
RUNDUNGEN
100
AcDbCircle
 62
7
  6
CONTINUOUS
 10
105.0738002232
 20
12.1210354816
 40
1.0
100
AcDbArc
 50
180.0
 51
270.0
  0
ARC
  5
76F
100
AcDbEntity
  8
RUNDUNGEN
100
AcDbCircle
 62
7
  6
CONTINUOUS
 10
95.0738002232
 20
50.3990723631
 40
7.9999990424
100
AcDbArc
 50
0.0864239076
 51
44.9999998768
  0
ARC
  5
770
100
AcDbEntity
  8
RUNDUNGEN
100
AcDbCircle
 62
7
  6
CONTINUOUS
 10
98.0738002232
 20
49.0814060136
 40
5.0
100
AcDbArc
 50
255.1082742634
 51
360.0
  0
ARC
  5
771
100
AcDbEntity
  8
0
100
AcDbCircle
 62
7
  6
CONTINUOUS
 10
68.5967836866
 20
105.4883310746
 40
1.0
100
AcDbArc
 50
75.0
 51
285.0
  0
ARC
  5
772
100
AcDbEntity
  8
RUNDUNGEN
100
AcDbCircle
 62
7
  6
CONTINUOUS
 10
16.942320401
 20
118.4883310746
 40
3.9999703967
100
AcDbArc
 50
303.5623043265
 51
317.5973106966
  0
ARC
  5
773
100
AcDbEntity
  8
RUNDUNGEN
100
AcDbCircle
 62
7
  6
CONTINUOUS
 10
19.7065046302
 20
111.2266910206
 40
1.0
100
AcDbArc
 50
180.0
 51
252.0
  0
ARC
  5
774
100
AcDbEntity
  8
RUNDUNGEN
100
AcDbCircle
 62
7
  6
CONTINUOUS
 10
19.7065046302
 20
114.3219300314
 40
1.0
100
AcDbArc
 50
123.5614678999
 51
179.9996857608
  0
ARC
  5
775
100
AcDbEntity
  8
RUNDUNGEN
100
AcDbCircle
 62
7
  6
CONTINUOUS
 10
19.7065046302
 20
113.4883310746
 40
1.0
100
AcDbArc
 50
90.0
 51
180.0
  0
ARC
  5
776
100
AcDbEntity
  8
RUNDUNGEN
100
AcDbCircle
 62
7
  6
CONTINUOUS
 10
21.5756806
 20
120.5967756613
 40
2.0000000773
100
AcDbArc
 50
317.6016016643
 51
23.8095616507
  0
ARC
  5
777
100
AcDbEntity
  8
RUNDUNGEN
100
AcDbCircle
 62
7
  6
CONTINUOUS
 10
21.9959733212
 20
126.7867327002
 40
1.0
100
AcDbArc
 50
165.0
 51
205.0326646998
  0
ARC
  5
778
100
AcDbEntity
  8
RUNDUNGEN
100
AcDbCircle
 62
7
  6
CONTINUOUS
 10
26.2798819326
 20
138.1530940589
 40
2.000000079
100
AcDbArc
 50
306.2122200061
 51
12.3983983357
  0
ARC
  5
779
100
AcDbEntity
  8
RUNDUNGEN
100
AcDbCircle
 62
7
  6
CONTINUOUS
 10
23.5488875918
 20
132.5822876579
 40
1.0
100
AcDbArc
 50
124.9673353002
 51
165.0
  0
ARC
  5
77A
100
AcDbEntity
  8
RUNDUNGEN
100
AcDbCircle
 62
7
  6
CONTINUOUS
 10
23.3214865418
 20
142.29574654
 40
3.9999745381
100
AcDbArc
 50
12.4035256996
 51
26.4375690677
  0
ARC
  5
77B
100
AcDbEntity
  8
RUNDUNGEN
100
AcDbCircle
 62
7
  6
CONTINUOUS
 10
29.346170384
 20
147.2024133818
 40
1.0
100
AcDbArc
 50
78.0
 51
150.0
  0
ARC
  5
77C
100
AcDbEntity
  8
RUNDUNGEN
100
AcDbCircle
 62
7
  6
CONTINUOUS
 10
28.2154117416
 20
145.243881962
 40
1.0
100
AcDbArc
 50
150.0
 51
240.001492191
  0
ARC
  5
77D
100
AcDbEntity
  8
RUNDUNGEN
100
AcDbCircle
 62
7
  6
CONTINUOUS
 10
27.7985500619
 20
144.5218563531
 40
1.0
100
AcDbArc
 50
149.999936616
 51
206.4384452415
  0
ARC
  5
77E
100
AcDbEntity
  8
RUNDUNGEN
100
AcDbCircle
 62
7
  6
CONTINUOUS
 10
57.9845415117
 20
123.4883310746
 40
7.9999990424
100
AcDbArc
 50
270.0864239076
 51
314.9999998768
  0
ARC
  5
77F
100
AcDbEntity
  8
RUNDUNGEN
100
AcDbCircle
 62
7
  6
CONTINUOUS
 10
56.6668751622
 20
120.4883310746
 40
5.0
100
AcDbArc
 50
165.1082742634
 51
270.0
  0
ARC
  5
780
100
AcDbEntity
  8
RUNDUNGEN
100
AcDbCircle
 62
7
  6
CONTINUOUS
 10
39.5765662892
 20
147.9219788711
 40
2.25
100
AcDbArc
 50
239.9998934115
 51
60.0004549384
  0
ARC
  5
781
100
AcDbEntity
  8
RUNDUNGEN
100
AcDbCircle
 62
7
  6
CONTINUOUS
 10
35.08453033
 20
157.1415443604
 40
1.0
100
AcDbArc
 50
150.0
 51
222.0
  0
ARC
  5
782
100
AcDbEntity
  8
RUNDUNGEN
100
AcDbCircle
 62
7
  6
CONTINUOUS
 10
36.6321498539
 20
159.8221000066
 40
1.0
100
AcDbArc
 50
93.5614825264
 51
149.999653601
  0
ARC
  5
783
100
AcDbEntity
  8
RUNDUNGEN
100
AcDbCircle
 62
7
  6
CONTINUOUS
 10
36.215350357
 20
159.1001821014
 40
1.0
100
AcDbArc
 50
60.0
 51
150.0
  0
ARC
  5
784
100
AcDbEntity
  8
RUNDUNGEN
100
AcDbCircle
 62
7
  6
CONTINUOUS
 10
36.321496366
 20
164.8124013664
 40
3.9999704951
100
AcDbArc
 50
273.5623051629
 51
287.5972910008
  0
ARC
  5
785
100
AcDbEntity
  8
RUNDUNGEN
100
AcDbCircle
 62
7
  6
CONTINUOUS
 10
41.3883265243
 20
164.3216877099
 40
2.0000000773
100
AcDbArc
 50
287.6016016643
 51
353.8095711324
  0
ARC
  5
786
100
AcDbEntity
  8
RUNDUNGEN
100
AcDbCircle
 62
7
  6
CONTINUOUS
 10
44.8472892174
 20
169.4722013934
 40
1.0
100
AcDbArc
 50
135.0
 51
175.0326646998
  0
ARC
  5
787
100
AcDbEntity
  8
RUNDUNGEN
100
AcDbCircle
 62
7
  6
CONTINUOUS
 10
53.7497242594
 20
182.240644756
 40
3.9999745381
100
AcDbArc
 50
342.4035256995
 51
356.4375690677
  0
ARC
  5
788
100
AcDbEntity
  8
RUNDUNGEN
100
AcDbCircle
 62
7
  6
CONTINUOUS
 10
54.2404435817
 20
177.173804773
 40
2.000000079
100
AcDbArc
 50
276.2122200729
 51
342.3983983357
  0
ARC
  5
789
100
AcDbEntity
  8
RUNDUNGEN
100
AcDbCircle
 62
7
  6
CONTINUOUS
 10
61.4205869374
 20
183.4776009678
 40
1.0
100
AcDbArc
 50
48.0
 51
120.0
  0
ARC
  5
78A
100
AcDbEntity
  8
RUNDUNGEN
100
AcDbCircle
 62
7
  6
CONTINUOUS
 10
49.0899299045
 20
173.7148420805
 40
1.0
100
AcDbArc
 50
94.9673353002
 51
135.0
  0
ARC
  5
78B
100
AcDbEntity
  8
RUNDUNGEN
100
AcDbCircle
 62
7
  6
CONTINUOUS
 10
59.4620555177
 20
182.3468423254
 40
1.0
100
AcDbArc
 50
120.0
 51
210.001492191
  0
ARC
  5
78C
100
AcDbEntity
  8
RUNDUNGEN
100
AcDbCircle
 62
7
  6
CONTINUOUS
 10
58.7400299087
 20
181.9299806457
 40
1.0
100
AcDbArc
 50
119.999936616
 51
176.4384452415
  0
ARC
  5
78D
100
AcDbEntity
  8
RUNDUNGEN
100
AcDbCircle
 62
7
  6
CONTINUOUS
 10
70.6401524267
 20
178.9855650086
 40
2.25
100
AcDbArc
 50
210.0005462618
 51
30.000583614
  0
ARC
  5
78E
100
AcDbEntity
  8
RUNDUNGEN
100
AcDbCircle
 62
7
  6
CONTINUOUS
 10
76.2663516426
 20
195.2407021132
 40
3.9999959642
100
AcDbArc
 50
243.5629936652
 51
257.6011345045
  0
ARC
  5
78F
100
AcDbEntity
  8
RUNDUNGEN
100
AcDbCircle
 62
7
  6
CONTINUOUS
 10
80.4090372345
 20
192.282249359
 40
2.0000000769
100
AcDbArc
 50
257.6016016643
 51
323.8087729786
  0
ARC
  5
790
100
AcDbEntity
  8
RUNDUNGEN
100
AcDbCircle
 62
7
  6
CONTINUOUS
 10
71.359717916
 20
189.2159609138
 40
1.0
100
AcDbArc
 50
120.0
 51
192.0
  0
ARC
  5
791
100
AcDbEntity
  8
RUNDUNGEN
100
AcDbCircle
 62
7
  6
CONTINUOUS
 10
85.9798436399
 20
195.013243706
 40
1.0
100
AcDbArc
 50
105.0
 51
145.0326646998
  0
ARC
  5
792
100
AcDbEntity
  8
RUNDUNGEN
100
AcDbCircle
 62
7
  6
CONTINUOUS
 10
74.0402836195
 20
190.7635862443
 40
1.0
100
AcDbArc
 50
63.5628406396
 51
119.9999868012
  0
ARC
  5
793
100
AcDbEntity
  8
RUNDUNGEN
100
AcDbCircle
 62
7
  6
CONTINUOUS
 10
73.318355657
 20
190.3467809408
 40
1.0
100
AcDbArc
 50
30.0
 51
120.0
  0
ARC
  5
794
100
AcDbEntity
  8
RUNDUNGEN
100
AcDbCircle
 62
7
  6
CONTINUOUS
 10
98.0738002232
 20
161.8952561357
 40
5.0
100
AcDbArc
 50
0.0
 51
104.8917257366
  0
ARC
  5
795
100
AcDbEntity
  8
RUNDUNGEN
100
AcDbCircle
 62
7
  6
CONTINUOUS
 10
97.9653556324
 20
196.9864506998
 40
2.0000000785
100
AcDbArc
 50
246.2135649309
 51
312.3983983357
  0
ARC
  5
796
100
AcDbEntity
  8
RUNDUNGEN
100
AcDbCircle
 62
7
  6
CONTINUOUS
 10
91.7753985977
 20
196.5661579766
 40
1.0
100
AcDbArc
 50
64.9673353002
 51
105.0
  0
ARC
  5
797
100
AcDbEntity
  8
RUNDUNGEN
100
AcDbCircle
 62
7
  6
CONTINUOUS
 10
107.3354402772
 20
198.8556266676
 40
1.0
100
AcDbArc
 50
18.0000000307
 51
89.9999998832
  0
ARC
  5
798
100
AcDbEntity
  8
RUNDUNGEN
100
AcDbCircle
 62
7
  6
CONTINUOUS
 10
105.0738216629
 20
198.8556266676
 40
1.0
100
AcDbArc
 50
90.0
 51
179.9981385891
  0
ARC
  5
799
100
AcDbEntity
  8
RUNDUNGEN
100
AcDbCircle
 62
7
  6
CONTINUOUS
 10
104.2401878417
 20
198.8556266676
 40
1.0
100
AcDbArc
 50
89.9999951851
 51
146.4370580409
  0
ARC
  5
79A
100
AcDbEntity
  8
RUNDUNGEN
100
AcDbCircle
 62
7
  6
CONTINUOUS
 10
100.0738002232
 20
201.6198932262
 40
3.9999966598
100
AcDbArc
 50
312.3986549948
 51
326.4369701721
  0
ARC
  5
79B
100
AcDbEntity
  8
RUNDUNGEN
100
AcDbCircle
 62
7
  6
CONTINUOUS
 10
118.8121601692
 20
12.1210354816
 40
1.0
100
AcDbArc
 50
198.0
 51
270.0
  0
ARC
  5
79C
100
AcDbEntity
  8
RUNDUNGEN
100
AcDbCircle
 62
7
  6
CONTINUOUS
 10
113.0738002232
 20
20.6210354816
 40
2.25
100
AcDbArc
 50
359.9998928819
 51
180.0004547288
  0
ARC
  5
79D
100
AcDbEntity
  8
RUNDUNGEN
100
AcDbCircle
 62
7
  6
CONTINUOUS
 10
126.0738002232
 20
9.3569191282
 40
3.9999472835
100
AcDbArc
 50
132.4042933772
 51
146.4382810454
  0
ARC
  5
79E
100
AcDbEntity
  8
RUNDUNGEN
100
AcDbCircle
 62
7
  6
CONTINUOUS
 10
128.1822448155
 20
13.9902114488
 40
2.000000079
100
AcDbArc
 50
66.2122294415
 51
132.3983983357
  0
ARC
  5
79F
100
AcDbEntity
  8
RUNDUNGEN
100
AcDbCircle
 62
7
  6
CONTINUOUS
 10
121.0736579683
 20
12.1210354816
 40
1.0
100
AcDbArc
 50
270.0040519298
 51
360.0
  0
ARC
  5
7A0
100
AcDbEntity
  8
RUNDUNGEN
100
AcDbCircle
 62
7
  6
CONTINUOUS
 10
121.9074123537
 20
12.1210354816
 40
1.0
100
AcDbArc
 50
269.9993395002
 51
326.4373390362
  0
ARC
  5
7A1
100
AcDbEntity
  8
RUNDUNGEN
100
AcDbCircle
 62
7
  6
CONTINUOUS
 10
128.0738002232
 20
49.0814060136
 40
5.0
100
AcDbArc
 50
180.0
 51
284.8917257366
  0
ARC
  5
7A2
100
AcDbEntity
  8
RUNDUNGEN
100
AcDbCircle
 62
7
  6
CONTINUOUS
 10
140.1677568065
 20
15.9634184432
 40
1.0
100
AcDbArc
 50
285.0
 51
325.0326646998
  0
ARC
  5
7A3
100
AcDbEntity
  8
RUNDUNGEN
100
AcDbCircle
 62
7
  6
CONTINUOUS
 10
134.3722018488
 20
14.4105041726
 40
1.0
100
AcDbArc
 50
244.9673353002
 51
285.0
  0
ARC
  5
7A4
100
AcDbEntity
  8
RUNDUNGEN
100
AcDbCircle
 62
7
  6
CONTINUOUS
 10
149.8812099351
 20
15.7360273587
 40
3.9999703821
100
AcDbArc
 50
63.562304122
 51
77.5974874937
  0
ARC
  5
7A5
100
AcDbEntity
  8
RUNDUNGEN
100
AcDbCircle
 62
7
  6
CONTINUOUS
 10
145.7385632111
 20
18.6944127891
 40
2.0000000773
100
AcDbArc
 50
77.6016016643
 51
143.8095711119
  0
ARC
  5
7A6
100
AcDbEntity
  8
RUNDUNGEN
100
AcDbCircle
 62
7
  6
CONTINUOUS
 10
154.7878825304
 20
21.7607012354
 40
1.0
100
AcDbArc
 50
300.0
 51
12.0
  0
ARC
  5
7A7
100
AcDbEntity
  8
RUNDUNGEN
100
AcDbCircle
 62
7
  6
CONTINUOUS
 10
152.1073268841
 20
20.2130817115
 40
1.0
100
AcDbArc
 50
243.5614784202
 51
299.9996544393
  0
ARC
  5
7A8
100
AcDbEntity
  8
RUNDUNGEN
100
AcDbCircle
 62
7
  6
CONTINUOUS
 10
152.8292447894
 20
20.6298812084
 40
1.0
100
AcDbArc
 50
210.0
 51
300.0
  0
ARC
  5
7A9
100
AcDbEntity
  8
RUNDUNGEN
100
AcDbCircle
 62
7
  6
CONTINUOUS
 10
155.5074480197
 20
31.9910971406
 40
2.25
100
AcDbArc
 50
29.9998923523
 51
210.0004545191
  0
ARC
  5
7AA
100
AcDbEntity
  8
RUNDUNGEN
100
AcDbCircle
 62
7
  6
CONTINUOUS
 10
113.0738002232
 20
105.4883310746
 40
63.367295593
100
AcDbArc
 50
104.8917257366
 51
165.1082742634
  0
ARC
  5
7AB
100
AcDbEntity
  8
RUNDUNGEN
100
AcDbCircle
 62
7
  6
CONTINUOUS
 10
113.0738002232
 20
105.4883310746
 40
63.367295593
100
AcDbArc
 50
194.8917257366
 51
255.1082742634
  0
ARC
  5
7AC
100
AcDbEntity
  8
RUNDUNGEN
100
AcDbCircle
 62
7
  6
CONTINUOUS
 10
113.0738002232
 20
105.4883310746
 40
63.367295593
100
AcDbArc
 50
284.8917257366
 51
345.1082742634
  0
ARC
  5
7AD
100
AcDbEntity
  8
RUNDUNGEN
100
AcDbCircle
 62
7
  6
CONTINUOUS
 10
113.0738002232
 20
105.4883310746
 40
63.367295593
100
AcDbArc
 50
14.8917257366
 51
75.1082742634
  0
ARC
  5
7AE
100
AcDbEntity
  8
0
100
AcDbCircle
 62
7
  6
CONTINUOUS
 10
113.0738002232
 20
61.011314538
 40
1.0
100
AcDbArc
 50
165.0
 51
15.0
  0
ARC
  5
7AF
100
AcDbEntity
  8
0
100
AcDbCircle
 62
7
  6
CONTINUOUS
 10
157.5508167598
 20
105.4883310746
 40
1.0
100
AcDbArc
 50
255.0
 51
105.0
  0
ARC
  5
7B0
100
AcDbEntity
  8
RUNDUNGEN
100
AcDbCircle
 62
7
  6
CONTINUOUS
 10
172.3978364456
 20
28.7360862274
 40
3.9999472835
100
AcDbArc
 50
162.4042933772
 51
176.4382810454
  0
ARC
  5
7B1
100
AcDbEntity
  8
RUNDUNGEN
100
AcDbCircle
 62
7
  6
CONTINUOUS
 10
171.9071568647
 20
33.8028573763
 40
2.000000079
100
AcDbArc
 50
96.2122295073
 51
162.3983983357
  0
ARC
  5
7B2
100
AcDbEntity
  8
RUNDUNGEN
100
AcDbCircle
 62
7
  6
CONTINUOUS
 10
164.727013509
 20
27.4990611814
 40
1.0
100
AcDbArc
 50
228.0
 51
300.0
  0
ARC
  5
7B3
100
AcDbEntity
  8
RUNDUNGEN
100
AcDbCircle
 62
7
  6
CONTINUOUS
 10
177.057670542
 20
37.2618200688
 40
1.0
100
AcDbArc
 50
274.9673353002
 51
315.0
  0
ARC
  5
7B4
100
AcDbEntity
  8
RUNDUNGEN
100
AcDbCircle
 62
7
  6
CONTINUOUS
 10
167.4075805319
 20
29.0466872737
 40
1.0
100
AcDbArc
 50
299.9993395002
 51
356.4373390362
  0
ARC
  5
7B5
100
AcDbEntity
  8
RUNDUNGEN
100
AcDbCircle
 62
7
  6
CONTINUOUS
 10
166.68565125
 20
28.6298812084
 40
1.0
100
AcDbArc
 50
299.9994860579
 51
30.0
  0
ARC
  5
7B6
100
AcDbEntity
  8
RUNDUNGEN
100
AcDbCircle
 62
7
  6
CONTINUOUS
 10
189.8261039391
 20
46.1642608644
 40
3.9999703821
100
AcDbArc
 50
93.562304122
 51
107.5974874937
  0
ARC
  5
7B7
100
AcDbEntity
  8
RUNDUNGEN
100
AcDbCircle
 62
7
  6
CONTINUOUS
 10
184.7592739221
 20
46.6549744393
 40
2.0000000773
100
AcDbArc
 50
107.6016016643
 51
173.8095711102
  0
ARC
  5
7B8
100
AcDbEntity
  8
RUNDUNGEN
100
AcDbCircle
 62
7
  6
CONTINUOUS
 10
191.0630701164
 20
53.8351177888
 40
1.0
100
AcDbArc
 50
330.0
 51
42.0
  0
ARC
  5
7B9
100
AcDbEntity
  8
RUNDUNGEN
100
AcDbCircle
 62
7
  6
CONTINUOUS
 10
181.3003112291
 20
41.5044607559
 40
1.0
100
AcDbArc
 50
315.0
 51
355.0326646998
  0
ARC
  5
7BA
100
AcDbEntity
  8
RUNDUNGEN
100
AcDbCircle
 62
7
  6
CONTINUOUS
 10
189.5154505924
 20
51.1545621425
 40
1.0
100
AcDbArc
 50
273.5614784202
 51
329.9996544393
  0
ARC
  5
7BB
100
AcDbEntity
  8
RUNDUNGEN
100
AcDbCircle
 62
7
  6
CONTINUOUS
 10
189.9322500894
 20
51.8764800478
 40
1.0
100
AcDbArc
 50
240.0
 51
330.0
  0
ARC
  5
7BC
100
AcDbEntity
  8
RUNDUNGEN
100
AcDbCircle
 62
7
  6
CONTINUOUS
 10
186.5710341572
 20
63.0546832781
 40
2.25
100
AcDbArc
 50
59.9999655066
 51
240.0003927066
  0
ARC
  5
7BD
100
AcDbEntity
  8
RUNDUNGEN
100
AcDbCircle
 62
7
  6
CONTINUOUS
 10
168.1630589347
 20
87.4883310746
 40
7.9999990424
100
AcDbArc
 50
90.0864239075
 51
134.9999998768
  0
ARC
  5
7BE
100
AcDbEntity
  8
RUNDUNGEN
100
AcDbCircle
 62
7
  6
CONTINUOUS
 10
169.4807252843
 20
90.4883310746
 40
5.0
100
AcDbArc
 50
345.1082742634
 51
90.0
  0
ARC
  5
7BF
100
AcDbEntity
  8
RUNDUNGEN
100
AcDbCircle
 62
7
  6
CONTINUOUS
 10
199.8677185138
 20
72.8235680903
 40
2.000000079
100
AcDbArc
 50
126.2122294414
 51
192.3983983357
  0
ARC
  5
7C0
100
AcDbEntity
  8
RUNDUNGEN
100
AcDbCircle
 62
7
  6
CONTINUOUS
 10
196.8014300624
 20
63.7742487674
 40
1.0
100
AcDbArc
 50
258.0
 51
330.0
  0
ARC
  5
7C1
100
AcDbEntity
  8
RUNDUNGEN
100
AcDbCircle
 62
7
  6
CONTINUOUS
 10
197.932178962
 20
65.7327633121
 40
1.0
100
AcDbArc
 50
330.0040519279
 51
60.0
  0
ARC
  5
7C2
100
AcDbEntity
  8
RUNDUNGEN
100
AcDbCircle
 62
7
  6
CONTINUOUS
 10
198.3490561546
 20
66.4548157903
 40
1.0
100
AcDbArc
 50
329.9993395002
 51
26.4373390362
  0
ARC
  5
7C3
100
AcDbEntity
  8
RUNDUNGEN
100
AcDbCircle
 62
7
  6
CONTINUOUS
 10
202.8260450705
 20
68.6809553506
 40
3.9999472835
100
AcDbArc
 50
192.4042933772
 51
206.4382810454
  0
ARC
  5
7C4
100
AcDbEntity
  8
RUNDUNGEN
100
AcDbCircle
 62
7
  6
CONTINUOUS
 10
204.1516271252
 20
84.1899294491
 40
1.0
100
AcDbArc
 50
345.0
 51
25.0326646998
  0
ARC
  5
7C5
100
AcDbEntity
  8
RUNDUNGEN
100
AcDbCircle
 62
7
  6
CONTINUOUS
 10
202.5987128546
 20
78.3943744913
 40
1.0
100
AcDbArc
 50
304.9673353002
 51
345.0
  0
ARC
  5
7C6
100
AcDbEntity
  8
RUNDUNGEN
100
AcDbCircle
 62
7
  6
CONTINUOUS
 10
209.205280309
 20
92.4883310746
 40
3.9999704278
100
AcDbArc
 50
123.5623055446
 51
137.5975309489
  0
ARC
  5
7C7
100
AcDbEntity
  8
RUNDUNGEN
100
AcDbCircle
 62
7
  6
CONTINUOUS
 10
197.9410958162
 20
105.4883310746
 40
2.25
100
AcDbArc
 50
89.9998928819
 51
270.0004547288
  0
ARC
  5
7C8
100
AcDbEntity
  8
RUNDUNGEN
100
AcDbCircle
 62
7
  6
CONTINUOUS
 10
204.5719198464
 20
90.379886488
 40
2.0000000773
100
AcDbArc
 50
137.6016016643
 51
203.8095711108
  0
ARC
  5
7C9
100
AcDbEntity
  8
RUNDUNGEN
100
AcDbCircle
 62
7
  6
CONTINUOUS
 10
206.4410958162
 20
99.7499711286
 40
1.0
100
AcDbArc
 50
0.0
 51
72.0
  0
ARC
  5
7CA
100
AcDbEntity
  8
RUNDUNGEN
100
AcDbCircle
 62
7
  6
CONTINUOUS
 10
206.4410958162
 20
96.6547320527
 40
1.0
100
AcDbArc
 50
303.561481431
 51
359.9996547445
  0
ARC
  5
7CB
100
AcDbEntity
  8
RUNDUNGEN
100
AcDbCircle
 62
7
  6
CONTINUOUS
 10
206.4410958162
 20
97.4883310746
 40
1.0
100
AcDbArc
 50
270.0
 51
360.0
  0
ARC
  5
7CC
100
AcDbEntity
  8
0
100
AcDbCircle
 62
7
  6
CONTINUOUS
 10
113.0738002232
 20
149.9653476113
 40
1.0
100
AcDbArc
 50
345.0
 51
195.0
  0
ARC
  5
7CD
100
AcDbEntity
  8
RUNDUNGEN
100
AcDbCircle
 62
7
  6
CONTINUOUS
 10
131.0738002232
 20
160.5775897861
 40
7.9999990424
100
AcDbArc
 50
180.0864239074
 51
224.9999998768
  0
ARC
  5
7CE
100
AcDbEntity
  8
RUNDUNGEN
100
AcDbCircle
 62
7
  6
CONTINUOUS
 10
128.0738002232
 20
161.8952561357
 40
5.0
100
AcDbArc
 50
75.1082742634
 51
180.0
  0
ARC
  5
7CF
100
AcDbEntity
  8
RUNDUNGEN
100
AcDbCircle
 62
7
  6
CONTINUOUS
 10
126.0738002232
 20
201.6197464674
 40
3.9999497664
100
AcDbArc
 50
213.5617419739
 51
227.5942736728
  0
ARC
  5
7D0
100
AcDbEntity
  8
RUNDUNGEN
100
AcDbCircle
 62
7
  6
CONTINUOUS
 10
113.0738002232
 20
190.3556266676
 40
2.25
100
AcDbArc
 50
180.0002675238
 51
0.0004071844
  0
ARC
  5
7D1
100
AcDbEntity
  8
RUNDUNGEN
100
AcDbCircle
 62
7
  6
CONTINUOUS
 10
128.1822448099
 20
196.9864506978
 40
2.0000000773
100
AcDbArc
 50
227.6016016643
 51
293.8095711117
  0
ARC
  5
7D2
100
AcDbEntity
  8
RUNDUNGEN
100
AcDbCircle
 62
7
  6
CONTINUOUS
 10
118.8121601692
 20
198.8556266676
 40
1.0
100
AcDbArc
 50
90.0000000307
 51
161.9999998832
  0
ARC
  5
7D3
100
AcDbEntity
  8
RUNDUNGEN
100
AcDbCircle
 62
7
  6
CONTINUOUS
 10
121.9073888361
 20
198.8556266676
 40
1.0
100
AcDbArc
 50
33.5603508006
 51
89.9993765094
  0
ARC
  5
7D4
100
AcDbEntity
  8
RUNDUNGEN
100
AcDbCircle
 62
7
  6
CONTINUOUS
 10
121.0738002232
 20
198.8556266676
 40
1.0
100
AcDbArc
 50
0.0
 51
90.0
  0
ARC
  5
7D5
100
AcDbEntity
  8
RUNDUNGEN
100
AcDbCircle
 62
7
  6
CONTINUOUS
 10
155.5074480197
 20
178.9855650086
 40
2.25
100
AcDbArc
 50
149.9998934113
 51
330.0004549376
  0
ARC
  5
7D6
100
AcDbEntity
  8
RUNDUNGEN
100
AcDbCircle
 62
7
  6
CONTINUOUS
 10
134.3722018488
 20
196.5661579766
 40
1.0
100
AcDbArc
 50
75.0
 51
115.0326646998
  0
ARC
  5
7D7
100
AcDbEntity
  8
RUNDUNGEN
100
AcDbCircle
 62
7
  6
CONTINUOUS
 10
140.1677568065
 20
195.013243706
 40
1.0
100
AcDbArc
 50
34.9673353002
 51
75.0
  0
ARC
  5
7D8
100
AcDbEntity
  8
RUNDUNGEN
100
AcDbCircle
 62
7
  6
CONTINUOUS
 10
145.7385632075
 20
192.2822493652
 40
2.000000079
100
AcDbArc
 50
216.21222945
 51
282.3983983357
  0
ARC
  5
7D9
100
AcDbEntity
  8
RUNDUNGEN
100
AcDbCircle
 62
7
  6
CONTINUOUS
 10
154.7878825304
 20
189.2159609138
 40
1.0
100
AcDbArc
 50
348.0
 51
60.0
  0
ARC
  5
7DA
100
AcDbEntity
  8
RUNDUNGEN
100
AcDbCircle
 62
7
  6
CONTINUOUS
 10
152.8292447894
 20
190.3467809408
 40
1.0
100
AcDbArc
 50
60.0
 51
150.0
  0
ARC
  5
7DB
100
AcDbEntity
  8
RUNDUNGEN
100
AcDbCircle
 62
7
  6
CONTINUOUS
 10
152.1073154614
 20
190.7635870327
 40
1.0
100
AcDbArc
 50
59.9993397456
 51
116.4373322657
  0
ARC
  5
7DC
100
AcDbEntity
  8
RUNDUNGEN
100
AcDbCircle
 62
7
  6
CONTINUOUS
 10
149.8811761431
 20
195.2405762612
 40
3.9999474123
100
AcDbArc
 50
282.4042861052
 51
296.4382777398
  0
ARC
  5
7DD
100
AcDbEntity
  8
RUNDUNGEN
100
AcDbCircle
 62
7
  6
CONTINUOUS
 10
169.4807252843
 20
120.4883310746
 40
5.0
100
AcDbArc
 50
270.0
 51
14.8917257366
  0
ARC
  5
7DE
100
AcDbEntity
  8
RUNDUNGEN
100
AcDbCircle
 62
7
  6
CONTINUOUS
 10
186.5710341572
 20
147.9219788711
 40
2.25
100
AcDbArc
 50
119.9998923523
 51
300.0004545191
  0
ARC
  5
7DF
100
AcDbEntity
  8
RUNDUNGEN
100
AcDbCircle
 62
7
  6
CONTINUOUS
 10
209.2052125614
 20
118.4883310746
 40
3.9999474123
100
AcDbArc
 50
222.4042861052
 51
236.4382777398
  0
ARC
  5
7E0
100
AcDbEntity
  8
RUNDUNGEN
100
AcDbCircle
 62
7
  6
CONTINUOUS
 10
204.5719198491
 20
120.5967756669
 40
2.000000079
100
AcDbArc
 50
156.212229449
 51
222.3983983357
  0
ARC
  5
7E1
100
AcDbEntity
  8
RUNDUNGEN
100
AcDbCircle
 62
7
  6
CONTINUOUS
 10
206.4410958162
 20
111.2266910206
 40
1.0
100
AcDbArc
 50
288.0
 51
360.0
  0
ARC
  5
7E2
100
AcDbEntity
  8
RUNDUNGEN
100
AcDbCircle
 62
7
  6
CONTINUOUS
 10
204.1516271252
 20
126.7867327002
 40
1.0
100
AcDbArc
 50
334.9673353002
 51
15.0
  0
ARC
  5
7E3
100
AcDbEntity
  8
RUNDUNGEN
100
AcDbCircle
 62
7
  6
CONTINUOUS
 10
206.4410958162
 20
113.4883310746
 40
1.0
100
AcDbArc
 50
0.0
 51
90.0
  0
ARC
  5
7E4
100
AcDbEntity
  8
RUNDUNGEN
100
AcDbCircle
 62
7
  6
CONTINUOUS
 10
206.4410958162
 20
114.3219432583
 40
1.0
100
AcDbArc
 50
359.9993397455
 51
56.4373322657
  0
ARC
  5
7E5
100
AcDbEntity
  8
RUNDUNGEN
100
AcDbCircle
 62
7
  6
CONTINUOUS
 10
196.8014300624
 20
147.2024133818
 40
1.0
100
AcDbArc
 50
30.0
 51
102.0
  0
ARC
  5
7E6
100
AcDbEntity
  8
RUNDUNGEN
100
AcDbCircle
 62
7
  6
CONTINUOUS
 10
198.3490496004
 20
144.5218577113
 40
1.0
100
AcDbArc
 50
333.561481431
 51
29.9996547445
  0
ARC
  5
7E7
100
AcDbEntity
  8
RUNDUNGEN
100
AcDbCircle
 62
7
  6
CONTINUOUS
 10
197.9322500894
 20
145.2437756408
 40
1.0
100
AcDbArc
 50
300.0
 51
30.0
  0
ARC
  5
7E8
100
AcDbEntity
  8
RUNDUNGEN
100
AcDbCircle
 62
7
  6
CONTINUOUS
 10
199.8677185088
 20
138.1530940625
 40
2.0000000773
100
AcDbArc
 50
167.6016016643
 51
233.8095711126
  0
ARC
  5
7E9
100
AcDbEntity
  8
RUNDUNGEN
100
AcDbCircle
 62
7
  6
CONTINUOUS
 10
202.5987128546
 20
132.5822876579
 40
1.0
100
AcDbArc
 50
15.0
 51
55.0326646998
  0
ARC
  5
7EA
100
AcDbEntity
  8
RUNDUNGEN
100
AcDbCircle
 62
7
  6
CONTINUOUS
 10
202.8261040809
 20
142.2957408683
 40
3.9999704278
100
AcDbArc
 50
153.5623055446
 51
167.5975309489
  0
ARC
  5
7EB
100
AcDbEntity
  8
RUNDUNGEN
100
AcDbCircle
 62
7
  6
CONTINUOUS
 10
164.727013509
 20
183.4776009678
 40
1.0
100
AcDbArc
 50
60.0
 51
132.0
  0
ARC
  5
7EC
100
AcDbEntity
  8
RUNDUNGEN
100
AcDbCircle
 62
7
  6
CONTINUOUS
 10
167.4075691795
 20
181.9299814299
 40
1.0
100
AcDbArc
 50
3.561481431
 51
59.9996547445
  0
ARC
  5
7ED
100
AcDbEntity
  8
RUNDUNGEN
100
AcDbCircle
 62
7
  6
CONTINUOUS
 10
166.68565125
 20
182.3467809408
 40
1.0
100
AcDbArc
 50
330.0
 51
60.0
  0
ARC
  5
7EE
100
AcDbEntity
  8
RUNDUNGEN
100
AcDbCircle
 62
7
  6
CONTINUOUS
 10
171.9071568585
 20
177.1738047735
 40
2.0000000773
100
AcDbArc
 50
197.6016016643
 51
263.809571109
  0
ARC
  5
7EF
100
AcDbEntity
  8
RUNDUNGEN
100
AcDbCircle
 62
7
  6
CONTINUOUS
 10
177.057670542
 20
173.7148420805
 40
1.0
100
AcDbArc
 50
45.0
 51
85.0326646998
  0
ARC
  5
7F0
100
AcDbEntity
  8
RUNDUNGEN
100
AcDbCircle
 62
7
  6
CONTINUOUS
 10
172.3978705153
 20
182.2406349323
 40
3.9999704278
100
AcDbArc
 50
183.5623055446
 51
197.5975309489
  0
ARC
  5
7F1
100
AcDbEntity
  8
RUNDUNGEN
100
AcDbCircle
 62
7
  6
CONTINUOUS
 10
184.7592739216
 20
164.3216877161
 40
2.000000079
100
AcDbArc
 50
186.2122295168
 51
252.3983983357
  0
ARC
  5
7F2
100
AcDbEntity
  8
RUNDUNGEN
100
AcDbCircle
 62
7
  6
CONTINUOUS
 10
181.3003112291
 20
169.4722013934
 40
1.0
100
AcDbArc
 50
4.9673353002
 51
45.0
  0
ARC
  5
7F3
100
AcDbEntity
  8
RUNDUNGEN
100
AcDbCircle
 62
7
  6
CONTINUOUS
 10
191.0630701164
 20
157.1415443604
 40
1.0
100
AcDbArc
 50
318.0
 51
30.0
  0
ARC
  5
7F4
100
AcDbEntity
  8
RUNDUNGEN
100
AcDbCircle
 62
7
  6
CONTINUOUS
 10
189.9323212793
 20
159.100058797
 40
1.0
100
AcDbArc
 50
30.0
 51
120.0010846009
  0
ARC
  5
7F5
100
AcDbEntity
  8
RUNDUNGEN
100
AcDbCircle
 62
7
  6
CONTINUOUS
 10
189.5154439975
 20
159.8221114294
 40
1.0
100
AcDbArc
 50
29.9993397455
 51
86.4373322657
  0
ARC
  5
7F6
100
AcDbEntity
  8
RUNDUNGEN
100
AcDbCircle
 62
7
  6
CONTINUOUS
 10
189.8260454098
 20
164.8123674929
 40
3.9999474123
100
AcDbArc
 50
252.4042861052
 51
266.4382777398
  0
ARC
  5
7F7
100
AcDbEntity
  8
RUNDUNGEN
100
AcDbCircle
 62
7
  6
CONTINUOUS
 10
232.624611368
 20
40.4942424486
 40
7.9999995236
100
AcDbArc
 50
14.1235391696
 51
73.2692023899
  0
ARC
  5
7F8
100
AcDbEntity
  8
RUNDUNGEN
100
AcDbCircle
 62
7
  6
CONTINUOUS
 10
236.624611368
 20
92.4883310746
 40
4.0
100
AcDbArc
 50
0.0
 51
47.5280078991
  0
ARC
  5
7F9
100
AcDbEntity
  8
RUNDUNGEN
100
AcDbCircle
 62
7
  6
CONTINUOUS
 10
229.574611368
 20
52.8973114404
 40
3.0
100
AcDbArc
 50
179.9999993068
 51
253.2690830325
  0
ARC
  5
7FA
100
AcDbEntity
  8
RUNDUNGEN
100
AcDbCircle
 62
7
  6
CONTINUOUS
 10
231.624611368
 20
68.2351538778
 40
1.0
100
AcDbArc
 50
103.7193828297
 51
179.9999998226
  0
ARC
  5
7FB
100
AcDbEntity
  8
RUNDUNGEN
100
AcDbCircle
 62
7
  6
CONTINUOUS
 10
231.624611368
 20
34.1751323185
 40
1.0
100
AcDbArc
 50
112.9219287136
 51
180.0000009011
  0
ARC
  5
7FC
100
AcDbEntity
  8
RUNDUNGEN
100
AcDbCircle
 62
7
  6
CONTINUOUS
 10
231.624611368
 20
20.2700551186
 40
1.0
100
AcDbArc
 50
168.6238865262
 51
179.9999999974
  0
ARC
  5
7FD
100
AcDbEntity
  8
RUNDUNGEN
100
AcDbCircle
 62
7
  6
CONTINUOUS
 10
231.624611368
 20
97.4883310746
 40
1.0
100
AcDbArc
 50
180.0
 51
270.0
  0
ARC
  5
7FE
100
AcDbEntity
  8
RUNDUNGEN
100
AcDbCircle
 62
7
  6
CONTINUOUS
 10
231.624611368
 20
102.2383310746
 40
1.0
100
AcDbArc
 50
90.0
 51
180.0
  0
ARC
  5
7FF
100
AcDbEntity
  8
RUNDUNGEN
100
AcDbCircle
 62
7
  6
CONTINUOUS
 10
231.624611368
 20
12.1210354816
 40
1.0
100
AcDbArc
 50
180.0
 51
270.0
  0
ARC
  5
800
100
AcDbEntity
  8
0
100
AcDbCircle
 62
7
  6
CONTINUOUS
 10
232.624611368
 20
170.4824197313
 40
7.9999995335
100
AcDbArc
 50
286.7307975474
 51
359.515819432
  0
ARC
  5
801
100
AcDbEntity
  8
0
100
AcDbCircle
 62
7
  6
CONTINUOUS
 10
229.574611368
 20
158.0793506982
 40
3.0
100
AcDbArc
 50
106.7309200668
 51
179.9999999936
  0
ARC
  5
802
100
AcDbEntity
  8
0
100
AcDbCircle
 62
7
  6
CONTINUOUS
 10
238.624611368
 20
184.0445509066
 40
2.0
100
AcDbArc
 50
0.0
 51
64.0
  0
ARC
  5
803
100
AcDbEntity
  8
0
100
AcDbCircle
 62
7
  6
CONTINUOUS
 10
231.624611368
 20
176.8015298307
 40
1.0
100
AcDbArc
 50
179.999999387
 51
247.0780715747
  0
ARC
  5
804
100
AcDbEntity
  8
0
100
AcDbCircle
 62
7
  6
CONTINUOUS
 10
231.624611368
 20
190.7066070307
 40
1.0
100
AcDbArc
 50
180.0000000026
 51
243.9742175389
  0
ARC
  5
805
100
AcDbEntity
  8
RUNDUNGEN
100
AcDbCircle
 62
7
  6
CONTINUOUS
 10
231.624611368
 20
198.8556266676
 40
1.0
100
AcDbArc
 50
90.0
 51
180.0
  0
ARC
  5
806
100
AcDbEntity
  8
0
100
AcDbCircle
 62
7
  6
CONTINUOUS
 10
239.1919920752
 20
187.1056266671
 40
1.0000000002
100
AcDbArc
 50
90.0
 51
243.9999998592
  0
ARC
  5
807
100
AcDbEntity
  8
RUNDUNGEN
100
AcDbCircle
 62
7
  6
CONTINUOUS
 10
258.624611368
 20
40.4942424506
 40
7.9999995224
100
AcDbArc
 50
106.7307976132
 51
165.8760130357
  0
ARC
  5
808
100
AcDbEntity
  8
RUNDUNGEN
100
AcDbCircle
 62
7
  6
CONTINUOUS
 10
254.624611368
 20
92.4883310746
 40
4.0
100
AcDbArc
 50
132.4719012942
 51
180.0
  0
ARC
  5
809
100
AcDbEntity
  8
RUNDUNGEN
100
AcDbCircle
 62
7
  6
CONTINUOUS
 10
261.674611368
 20
52.8973114388
 40
3.0
100
AcDbArc
 50
286.7309173978
 51
0.0000011799
  0
ARC
  5
80A
100
AcDbEntity
  8
RUNDUNGEN
100
AcDbCircle
 62
7
  6
CONTINUOUS
 10
259.624611368
 20
68.2351455249
 40
1.0
100
AcDbArc
 50
359.9999998878
 51
76.2814455943
  0
ARC
  5
80B
100
AcDbEntity
  8
RUNDUNGEN
100
AcDbCircle
 62
7
  6
CONTINUOUS
 10
259.624611368
 20
34.1751230283
 40
1.0
100
AcDbArc
 50
0.0000000039
 51
67.0796216933
  0
ARC
  5
80C
100
AcDbEntity
  8
RUNDUNGEN
100
AcDbCircle
 62
7
  6
CONTINUOUS
 10
259.624611368
 20
20.270076791
 40
1.0
100
AcDbArc
 50
359.9999980419
 51
10.2951611659
  0
ARC
  5
80D
100
AcDbEntity
  8
RUNDUNGEN
100
AcDbCircle
 62
7
  6
CONTINUOUS
 10
259.624611368
 20
12.1210354816
 40
1.0
100
AcDbArc
 50
270.0
 51
360.0
  0
ARC
  5
80E
100
AcDbEntity
  8
RUNDUNGEN
100
AcDbCircle
 62
7
  6
CONTINUOUS
 10
259.624611368
 20
102.2383310746
 40
1.0
100
AcDbArc
 50
0.0
 51
90.0
  0
ARC
  5
80F
100
AcDbEntity
  8
RUNDUNGEN
100
AcDbCircle
 62
7
  6
CONTINUOUS
 10
259.624611368
 20
97.4883310746
 40
1.0
100
AcDbArc
 50
270.0
 51
360.0
  0
ARC
  5
810
100
AcDbEntity
  8
0
100
AcDbCircle
 62
7
  6
CONTINUOUS
 10
258.624611368
 20
170.4824197294
 40
7.9999995323
100
AcDbArc
 50
180.4841817858
 51
253.2692024526
  0
ARC
  5
811
100
AcDbEntity
  8
0
100
AcDbCircle
 62
7
  6
CONTINUOUS
 10
261.674611368
 20
158.0793506998
 40
3.0
100
AcDbArc
 50
0.0000000064
 51
73.2690799916
  0
ARC
  5
812
100
AcDbEntity
  8
0
100
AcDbCircle
 62
7
  6
CONTINUOUS
 10
252.624611368
 20
184.0445509066
 40
2.0
100
AcDbArc
 50
116.0
 51
180.0
  0
ARC
  5
813
100
AcDbEntity
  8
0
100
AcDbCircle
 62
7
  6
CONTINUOUS
 10
259.624611368
 20
176.8015391209
 40
1.0
100
AcDbArc
 50
292.9203783
 51
359.9999999961
  0
ARC
  5
814
100
AcDbEntity
  8
0
100
AcDbCircle
 62
7
  6
CONTINUOUS
 10
259.624611368
 20
190.7065853621
 40
1.0
100
AcDbArc
 50
296.025336398
 51
0.0000031775
  0
ARC
  5
815
100
AcDbEntity
  8
RUNDUNGEN
100
AcDbCircle
 62
7
  6
CONTINUOUS
 10
259.624611368
 20
198.8556266676
 40
1.0
100
AcDbArc
 50
0.0
 51
90.0
  0
ARC
  5
816
100
AcDbEntity
  8
0
100
AcDbCircle
 62
7
  6
CONTINUOUS
 10
252.0574431699
 20
187.1057258422
 40
0.9999695067
100
AcDbArc
 50
295.9737556255
 51
89.9999286816
  0
ENDSEC
  0
SECTION
  2
OBJECTS
  0
DICTIONARY
  5
C
100
AcDbDictionary
280
0
281
1
  3
ACAD_GROUP
350
D
  3
ACAD_MLINESTYLE
350
17
  3
ACAD_LAYOUT
350
1A
  3
ACAD_PLOTSETTINGS
350
19
  3
ACAD_PLOTSTYLENAME
350
E
  0
DICTIONARY
  5
D
102
{ACAD_REACTORS
330
C
102
}
100
AcDbDictionary
280
0
281
1
  0
ACDBDICTIONARYWDFLT
  5
E
102
{ACAD_REACTORS
330
C
102
}
100
AcDbDictionary
281
1
  3
Normal
350
F
100
AcDbDictionaryWithDefault
340
F
  0
DICTIONARY
  5
17
102
{ACAD_REACTORS
330
C
102
}
100
AcDbDictionary
280
0
281
1
  3
Standard
350
18
  0
DICTIONARY
  5
19
102
{ACAD_REACTORS
330
C
102
}
100
AcDbDictionary
281
1
  0
DICTIONARY
  5
1A
102
{ACAD_REACTORS
330
C
102
}
100
AcDbDictionary
281
1
  3
Model
350
817
  3
Layout1
350
818
  0
ACDBPLACEHOLDER
  5
F
102
{ACAD_REACTORS
330
E
102
}
  0
MLINESTYLE
  5
18
102
{ACAD_REACTORS
330
17
102
}
100
AcDbMlineStyle
  2
STANDARD
 70
0
  3

 62
256
 51
90.0
 52
90.0
 71
2
 49
0.5
 62
256
  6
BYLAYER
 49
-0.5
 62
256
  6
BYLAYER
  0
LAYOUT
  5
817
102
{ACAD_REACTORS
330
1A
102
}
100
AcDbPlotSettings
  1

  2
none_device
  4
ISO_A4_(297.00_x_210.00_MM)
  6

 40
0.0
 41
0.0
 42
0.0
 43
0.0
 44
297.0
 45
210.0
 46
0.0
 47
0.0
 48
0.0
 49
0.0
140
0.0
141
0.0
142
1.0
143
1.0
 70
1024
 72
1
 73
0
 74
0
  7

 75
0
147
1.0
148
0.0
149
0.0
100
AcDbLayout
  1
Model
 70
0
 71
0
 10
0.0
 20
0.0
 11
297.0
 21
210.0
 12
0.0
 22
0.0
 32
0.0
 14
0.0
 24
0.0
 34
0.0
 15
0.0
 25
0.0
 35
0.0
146
0.0
 13
0.0
 23
0.0
 33
0.0
 16
1.0
 26
0.0
 36
0.0
 17
0.0
 27
1.0
 37
0.0
 76
0
330
210
345
0
346
0
  0
LAYOUT
  5
818
102
{ACAD_REACTORS
330
1A
102
}
100
AcDbPlotSettings
  1

  2
none_device
  4
ISO_A4_(297.00_x_210.00_MM)
  6

 40
0.0
 41
0.0
 42
0.0
 43
0.0
 44
297.0
 45
210.0
 46
0.0
 47
0.0
 48
0.0
 49
0.0
140
0.0
141
0.0
142
1.0
143
1.0
 70
0
 72
1
 73
0
 74
0
  7

 75
0
147
1.0
148
0.0
149
0.0
100
AcDbLayout
  1
Layout1
 70
0
 71
1
 10
0.0
 20
0.0
 11
297.0
 21
210.0
 12
0.0
 22
0.0
 32
0.0
 14
0.0
 24
0.0
 34
0.0
 15
0.0
 25
0.0
 35
0.0
146
0.0
 13
0.0
 23
0.0
 33
0.0
 16
1.0
 26
0.0
 36
0.0
 17
0.0
 27
1.0
 37
0.0
 76
0
330
211
345
0
346
0
  0
ENDSEC
  0
EOF
