  0
SECTION
  2
HEADER
  9
$ACADVER
  1
AC1015
  9
$DWGCODEPAGE
  3
ANSI_1252
  9
$EXTMAX
 10
297.0
 20
210.0
 30
0.0
  9
$EXTMIN
 10
0.0
 20
0.0
 30
0.0
  9
$LIMMIN
 10
0.0
 20
0.0
  9
$LIMMAX
 10
297.0
 20
210.0
  9
$VIEWCTR
 10
148.5
 20
105.0
  9
$VIEWSIZE
 40
210.0
  9
$CLAYER
  8
0
  9
$LTSCALE
 40
16.335
  9
$CELTYPE
  6
BYLAYER
  9
$DIMSCALE
 40
1.0
  9
$DIMASZ
 40
3.5
  9
$DIMEXO
 40
1.85625
  9
$DIMDLI
 40
11.286
  9
$DIMEXE
 40
5.346
  9
$DIMCEN
 40
2.673
  9
$DIMLFAC
 40
1.0
  9
$DIMBLK
  1
_FILLED
  9
$DIMTXT
 40
3.5
  9
$DIMTOL
 70
1
  9
$DIMLIM
 70
0
  9
$DIMTFAC
 40
1.0
  9
$DIMTP
 40
0.005
  9
$DIMTM
 40
0.005
  9
$PDMODE
 70
3
  9
$PDSIZE
 40
0.3125
  9
$HANDSEED
  5
85E
  9
$TILEMODE
 70
1
  9
$MEASUREMENT
 70
1
  9
$INSUNITS
 70
4
  0
ENDSEC
  0
SECTION
  2
CLASSES
  0
CLASS
  1
ACDBDICTIONARYWDFLT
  2
AcDbDictionaryWithDefault
  3
AutoCAD 2000
 90
0
280
0
281
0
  0
CLASS
  1
ACDBPLACEHOLDER
  2
AcDbPlaceHolder
  3
AutoCAD 2000
 90
0
280
0
281
0
  0
CLASS
  1
LAYOUT
  2
AcDbLayout
  3
AutoCAD 2000
 90
0
280
0
281
0
  0
ENDSEC
  0
SECTION
  2
TABLES
  0
TABLE
  2
VPORT
  5
8
100
AcDbSymbolTable
 70
2
  0
VPORT
  5
1F4
100
AcDbSymbolTableRecord
100
AcDbViewportTableRecord
  2
*ACTIVE
 70
0
 10
0.0
 20
0.0
 11
1.0
 21
1.0
 12
148.5
 22
105.0
 13
0.0
 23
0.0
 14
1.0
 24
1.0
 15
0.0
 25
0.0
 16
0.0
 26
0.0
 36
1.0
 17
0.0
 27
0.0
 37
0.0
 40
210.0
 41
1.4142857143
 42
50.0
 43
0.0
 44
0.0
 50
0.0
 51
0.0
 71
0
 72
100
 73
1
 74
1
 75
0
 76
0
 77
0
 78
0
  0
ENDTAB
  0
TABLE
  2
LTYPE
  5
5
100
AcDbSymbolTable
 70
6
  0
LTYPE
  5
14
100
AcDbSymbolTableRecord
100
AcDbLinetypeTableRecord
  2
BYBLOCK
 70
0
  3

 72
65
 73
0
 40
0.0
  0
LTYPE
  5
15
100
AcDbSymbolTableRecord
100
AcDbLinetypeTableRecord
  2
BYLAYER
 70
0
  3

 72
65
 73
0
 40
0.0
  0
LTYPE
  5
16
100
AcDbSymbolTableRecord
100
AcDbLinetypeTableRecord
  2
CONTINUOUS
 70
64
  3
Solid line
 72
65
 73
0
 40
0.0
  0
LTYPE
  5
1F5
100
AcDbSymbolTableRecord
100
AcDbLinetypeTableRecord
  2
CENTER
 70
64
  3
____ _ ____ _ ____ _ ____ _ ____ _ ____ _ ____
 72
65
 73
4
 40
0.6
 49
0.375
 74
0
 49
-0.075
 74
0
 49
0.075
 74
0
 49
-0.075
 74
0
  0
LTYPE
  5
1F6
100
AcDbSymbolTableRecord
100
AcDbLinetypeTableRecord
  2
HIDDEN
 70
64
  3
- - - - - - - - - - - - - - - - - - - -
 72
65
 73
2
 40
0.2
 49
0.1
 74
0
 49
-0.1
 74
0
  0
LTYPE
  5
1F7
100
AcDbSymbolTableRecord
100
AcDbLinetypeTableRecord
  2
PHANTOM
 70
64
  3
_____ _ _ _____ _ _ _____ _ _ _____
 72
65
 73
6
 40
0.8
 49
0.45
 74
0
 49
-0.05
 74
0
 49
0.1
 74
0
 49
-0.05
 74
0
 49
0.1
 74
0
 49
-0.05
 74
0
  0
LTYPE
  5
1F8
100
AcDbSymbolTableRecord
100
AcDbLinetypeTableRecord
  2
DOT
 70
64
  3
. . . . . . . . . . . . . . . . . . . .
 72
65
 73
2
 40
0.2
 49
0.1
 74
0
 49
-0.1
 74
0
  0
LTYPE
  5
1F9
100
AcDbSymbolTableRecord
100
AcDbLinetypeTableRecord
  2
DASHED
 70
64
  3
- - - - - - - - - - - - - - - - - - - -
 72
65
 73
2
 40
0.2
 49
0.1
 74
0
 49
-0.1
 74
0
  0
ENDTAB
  0
TABLE
  2
LAYER
  5
2
100
AcDbSymbolTable
 70
36
  0
LAYER
  5
10
100
AcDbSymbolTableRecord
100
AcDbLayerTableRecord
  2
0
 70
0
 62
7
  6
CONTINUOUS
370
-3
390
F
  0
LAYER
  5
1FA
100
AcDbSymbolTableRecord
100
AcDbLayerTableRecord
  2
DEFAULT_1
 70
0
 62
7
  6
CENTER
370
-3
390
F
  0
LAYER
  5
1FB
100
AcDbSymbolTableRecord
100
AcDbLayerTableRecord
  2
DEFAULT_2
 70
0
 62
8
  6
HIDDEN
370
-3
390
F
  0
LAYER
  5
1FC
100
AcDbSymbolTableRecord
100
AcDbLayerTableRecord
  2
DEFAULT_3
 70
0
 62
7
  6
PHANTOM
370
-3
390
F
  0
LAYER
  5
1FD
100
AcDbSymbolTableRecord
100
AcDbLayerTableRecord
  2
01___PRT_ALL_DTM_PLN
 70
0
 62
7
  6
CONTINUOUS
370
-3
390
F
  0
LAYER
  5
1FE
100
AcDbSymbolTableRecord
100
AcDbLayerTableRecord
  2
01___PRT_DEF_DTM_PLN
 70
0
 62
7
  6
CONTINUOUS
370
-3
390
F
  0
LAYER
  5
1FF
100
AcDbSymbolTableRecord
100
AcDbLayerTableRecord
  2
02___PRT_ALL_AXES
 70
0
 62
7
  6
CONTINUOUS
370
-3
390
F
  0
LAYER
  5
200
100
AcDbSymbolTableRecord
100
AcDbLayerTableRecord
  2
03___PRT_ALL_CURVES
 70
0
 62
7
  6
CONTINUOUS
370
-3
390
F
  0
LAYER
  5
201
100
AcDbSymbolTableRecord
100
AcDbLayerTableRecord
  2
04___PRT_ALL_DTM_PNT
 70
0
 62
7
  6
CONTINUOUS
370
-3
390
F
  0
LAYER
  5
202
100
AcDbSymbolTableRecord
100
AcDbLayerTableRecord
  2
05___PRT_ALL_DTM_CSYS
 70
0
 62
7
  6
CONTINUOUS
370
-3
390
F
  0
LAYER
  5
203
100
AcDbSymbolTableRecord
100
AcDbLayerTableRecord
  2
05___PRT_DEF_DTM_CSYS
 70
0
 62
7
  6
CONTINUOUS
370
-3
390
F
  0
LAYER
  5
204
100
AcDbSymbolTableRecord
100
AcDbLayerTableRecord
  2
06___PRT_ALL_SURFS
 70
0
 62
7
  6
CONTINUOUS
370
-3
390
F
  0
LAYER
  5
205
100
AcDbSymbolTableRecord
100
AcDbLayerTableRecord
  2
AUSFORMSCHRAEGEN
 70
0
 62
7
  6
CONTINUOUS
370
-3
390
F
  0
LAYER
  5
206
100
AcDbSymbolTableRecord
100
AcDbLayerTableRecord
  2
BEZUGSACHSEN
 70
0
 62
7
  6
CONTINUOUS
370
-3
390
F
  0
LAYER
  5
207
100
AcDbSymbolTableRecord
100
AcDbLayerTableRecord
  2
BEZUGSEBENEN
 70
0
 62
7
  6
CONTINUOUS
370
-3
390
F
  0
LAYER
  5
208
100
AcDbSymbolTableRecord
100
AcDbLayerTableRecord
  2
BOHRUNGEN
 70
0
 62
7
  6
CONTINUOUS
370
-3
390
F
  0
LAYER
  5
209
100
AcDbSymbolTableRecord
100
AcDbLayerTableRecord
  2
FASEN
 70
0
 62
7
  6
CONTINUOUS
370
-3
390
F
  0
LAYER
  5
20A
100
AcDbSymbolTableRecord
100
AcDbLayerTableRecord
  2
GEWINDE
 70
0
 62
7
  6
CONTINUOUS
370
-3
390
F
  0
LAYER
  5
20B
100
AcDbSymbolTableRecord
100
AcDbLayerTableRecord
  2
KURVEN
 70
0
 62
7
  6
CONTINUOUS
370
-3
390
F
  0
LAYER
  5
20C
100
AcDbSymbolTableRecord
100
AcDbLayerTableRecord
  2
RUNDUNGEN
 70
0
 62
7
  6
CONTINUOUS
370
-3
390
F
  0
LAYER
  5
20D
100
AcDbSymbolTableRecord
100
AcDbLayerTableRecord
  2
ZEICHNUNGSBEMASSUNGEN
 70
0
 62
7
  6
CONTINUOUS
370
-3
390
F
  0
ENDTAB
  0
TABLE
  2
STYLE
  5
3
100
AcDbSymbolTable
 70
1
  0
STYLE
  5
11
100
AcDbSymbolTableRecord
100
AcDbTextStyleTableRecord
  2
STANDARD
 70
0
 40
0.0
 41
0.7
 50
0.0
 71
0
 42
0.2
  3
txt
  4

  0
STYLE
  5
20E
100
AcDbSymbolTableRecord
100
AcDbTextStyleTableRecord
  2
TEXTSTYLE_1
 70
0
 40
0.0
 41
0.8
 50
0.0
 71
0
 42
0.2
  3
gdt
  4

  0
ENDTAB
  0
TABLE
  2
VIEW
  5
6
100
AcDbSymbolTable
 70
0
  0
ENDTAB
  0
TABLE
  2
UCS
  5
7
100
AcDbSymbolTable
 70
0
  0
ENDTAB
  0
TABLE
  2
APPID
  5
9
100
AcDbSymbolTable
 70
1
  0
APPID
  5
20F
100
AcDbSymbolTableRecord
100
AcDbRegAppTableRecord
  2
ACAD
 70
0
  0
ENDTAB
  0
TABLE
  2
BLOCK_RECORD
  5
1
100
AcDbSymbolTable
 70
0
  0
BLOCK_RECORD
  5
210
100
AcDbSymbolTableRecord
100
AcDbBlockTableRecord
  2
*Model_Space
  0
BLOCK_RECORD
  5
211
100
AcDbSymbolTableRecord
100
AcDbBlockTableRecord
  2
*Paper_Space
  0
ENDTAB
  0
TABLE
  2
DIMSTYLE
  5
A
100
AcDbSymbolTable
 70
1
100
AcDbDimStyleTable
 71
0
  0
DIMSTYLE
105
212
100
AcDbSymbolTableRecord
100
AcDbDimStyleTableRecord
  2
STANDARD
 70
0
  3

  4

 40
1.0
 41
3.5
 42
0.0625
 43
0.38
 44
0.18
 45
0.0
 46
0.0
 47
0.005
 48
0.005
140
3.5
141
0.09
142
0.0
143
25.4
144
1.0
145
0.0
146
1.0
147
0.09
 71
1.0
 72
0.0
 73
0
 74
0
 75
0
 76
0
 77
1
 78
8
170
0
171
2
172
0
173
0
174
0
175
0
176
0
177
0
178
5
270
2
271
3
272
3
273
2
274
2
275
0
280
0
281
0
282
0
283
1
284
8
285
0
286
0
287
3
288
0
340
11
  0
ENDTAB
  0
ENDSEC
  0
SECTION
  2
BLOCKS
  0
BLOCK
  5
20
100
AcDbEntity
  8
0
100
AcDbBlockBegin
  2
*Model_Space
 70
0
 10
0.0
 20
0.0
 30
0.0
  3
*Model_Space
  1

  0
ENDBLK
  5
21
100
AcDbEntity
  8
0
100
AcDbBlockEnd
  0
BLOCK
  5
1C
100
AcDbEntity
  8
0
100
AcDbBlockBegin
  2
*Paper_Space
 70
0
 10
0.0
 20
0.0
 30
0.0
  3
*Paper_Space
  1

  0
ENDBLK
  5
1D
100
AcDbEntity
  8
0
100
AcDbBlockEnd
  0
ENDSEC
  0
SECTION
  2
ENTITIES
  0
LINE
  5
213
100
AcDbEntity
  8
0
100
AcDbLine
 62
7
  6
CONTINUOUS
 10
0.0
 20
0.0
 11
0.0
 21
210.0
  0
LINE
  5
214
100
AcDbEntity
  8
0
100
AcDbLine
 62
7
  6
CONTINUOUS
 10
0.0
 20
0.0
 11
297.0
 21
0.0
  0
LINE
  5
215
100
AcDbEntity
  8
0
100
AcDbLine
 62
7
  6
CONTINUOUS
 10
0.0
 20
210.0
 11
297.0
 21
210.0
  0
LINE
  5
216
100
AcDbEntity
  8
0
100
AcDbLine
 62
7
  6
CONTINUOUS
 10
297.0
 20
0.0
 11
297.0
 21
210.0
  0
LINE
  5
217
100
AcDbEntity
  8
RUNDUNGEN
100
AcDbLine
 62
7
  6
CONTINUOUS
 10
18.2803247833
 20
114.3219356085
 11
18.2803247833
 21
111.2266910206
  0
LINE
  5
218
100
AcDbEntity
  8
RUNDUNGEN
100
AcDbLine
 62
7
  6
CONTINUOUS
 10
18.2803247833
 20
99.7499711286
 11
18.2803247833
 21
96.6547315426
  0
LINE
  5
219
100
AcDbEntity
  8
RUNDUNGEN
100
AcDbLine
 62
7
  6
CONTINUOUS
 10
22.1567819186
 20
132.841106703
 11
20.603867648
 21
127.0455517453
  0
LINE
  5
21A
100
AcDbEntity
  8
RUNDUNGEN
100
AcDbLine
 62
7
  6
CONTINUOUS
 10
35.3399476734
 20
160.3221053244
 11
33.7923250793
 21
157.6415443604
  0
LINE
  5
21B
100
AcDbEntity
  8
RUNDUNGEN
100
AcDbLine
 62
7
  6
CONTINUOUS
 10
28.0539651333
 20
147.7024133818
 11
26.506345317
 21
145.0218572291
  0
LINE
  5
21C
100
AcDbEntity
  8
RUNDUNGEN
100
AcDbLine
 62
7
  6
CONTINUOUS
 10
47.9566432763
 20
174.4219488617
 11
43.7140025892
 21
170.1793081745
  0
LINE
  5
21D
100
AcDbEntity
  8
RUNDUNGEN
100
AcDbLine
 62
7
  6
CONTINUOUS
 10
73.1141040532
 20
191.6296118101
 11
70.4335380691
 21
190.0819863176
  0
LINE
  5
21E
100
AcDbEntity
  8
RUNDUNGEN
100
AcDbLine
 62
7
  6
CONTINUOUS
 10
60.4944070905
 20
184.3436263716
 11
57.8138509378
 21
182.7960065553
  0
LINE
  5
21F
100
AcDbEntity
  8
RUNDUNGEN
100
AcDbLine
 62
7
  6
CONTINUOUS
 10
134.2048410469
 20
13.4445783463
 11
140.0003960047
 21
14.9974926169
  0
LINE
  5
220
100
AcDbEntity
  8
RUNDUNGEN
100
AcDbLine
 62
7
  6
CONTINUOUS
 10
103.8140152627
 20
11.1210354816
 11
106.9092604303
 21
11.1210354816
  0
LINE
  5
221
100
AcDbEntity
  8
RUNDUNGEN
100
AcDbLine
 62
7
  6
CONTINUOUS
 10
118.3859803223
 20
11.1210354816
 11
121.4812209801
 21
11.1210354816
  0
LINE
  5
222
100
AcDbEntity
  8
RUNDUNGEN
100
AcDbLine
 62
7
  6
CONTINUOUS
 10
85.2948447479
 20
14.9974926169
 11
91.0903997056
 21
13.4445783463
  0
LINE
  5
223
100
AcDbEntity
  8
RUNDUNGEN
100
AcDbLine
 62
7
  6
CONTINUOUS
 10
57.8138461552
 20
28.1806583552
 11
60.4944070905
 21
26.6330357776
  0
LINE
  5
224
100
AcDbEntity
  8
RUNDUNGEN
100
AcDbLine
 62
7
  6
CONTINUOUS
 10
70.4335380691
 20
20.8946758316
 11
73.1140948435
 21
19.3470556563
  0
LINE
  5
225
100
AcDbEntity
  8
RUNDUNGEN
100
AcDbLine
 62
7
  6
CONTINUOUS
 10
43.7140025892
 20
40.7973539747
 11
47.9566432763
 21
36.5547132876
  0
LINE
  5
226
100
AcDbEntity
  8
RUNDUNGEN
100
AcDbLine
 62
7
  6
CONTINUOUS
 10
26.5063425558
 20
65.9548097026
 11
28.0539651333
 21
63.2742487674
  0
LINE
  5
227
100
AcDbEntity
  8
RUNDUNGEN
100
AcDbLine
 62
7
  6
CONTINUOUS
 10
33.7923250793
 20
53.3351177888
 11
35.3399448723
 21
50.6545616766
  0
LINE
  5
228
100
AcDbEntity
  8
RUNDUNGEN
100
AcDbLine
 62
7
  6
CONTINUOUS
 10
20.603867648
 20
83.931110404
 11
22.1567819186
 21
78.1355554462
  0
LINE
  5
229
100
AcDbEntity
  8
RUNDUNGEN
100
AcDbLine
 62
7
  6
CONTINUOUS
 10
27.856224677
 20
72.7805833229
 11
27.8259964162
 21
73.1710544689
  0
LINE
  5
22A
100
AcDbEntity
  8
RUNDUNGEN
100
AcDbLine
 62
7
  6
CONTINUOUS
 10
23.128233736
 20
90.6857085564
 11
23.1493236449
 21
90.2947476155
  0
LINE
  5
22B
100
AcDbEntity
  8
RUNDUNGEN
100
AcDbLine
 62
7
  6
CONTINUOUS
 10
23.1282341288
 20
120.290953902
 11
23.1493253124
 21
120.6819161441
  0
LINE
  5
22C
100
AcDbEntity
  8
RUNDUNGEN
100
AcDbLine
 62
7
  6
CONTINUOUS
 10
27.8562276791
 20
138.1960800636
 11
27.8259978647
 21
137.8056092553
  0
LINE
  5
22D
100
AcDbEntity
  8
RUNDUNGEN
100
AcDbLine
 62
7
  6
CONTINUOUS
 10
23.1493236449
 20
90.2947476155
 11
23.09376194
 21
89.9072214522
  0
LWPOLYLINE
  5
22E
100
AcDbEntity
  8
RUNDUNGEN
100
AcDbPolyline
 62
7
  6
CONTINUOUS
 90
3
 70
0
 10
26.7803247833
 20
107.7383310746
 10
26.7832025827
 20
107.7579039746
 10
26.9085690841
 20
108.5445091506
  0
LINE
  5
22F
100
AcDbEntity
  8
RUNDUNGEN
100
AcDbLine
 62
7
  6
CONTINUOUS
 10
26.9085690841
 20
108.5445091506
 11
26.9387092236
 21
108.7383310746
  0
LINE
  5
230
100
AcDbEntity
  8
RUNDUNGEN
100
AcDbLine
 62
7
  6
CONTINUOUS
 10
23.0313009338
 20
119.911560532
 11
23.1282341288
 21
120.290953902
  0
LINE
  5
231
100
AcDbEntity
  8
RUNDUNGEN
100
AcDbLine
 62
7
  6
CONTINUOUS
 10
27.8259978647
 20
137.8056092553
 11
27.7202461555
 21
137.4285772514
  0
LWPOLYLINE
  5
232
100
AcDbEntity
  8
RUNDUNGEN
100
AcDbPolyline
 62
7
  6
CONTINUOUS
 90
3
 70
0
 10
37.1593610385
 20
146.4734217126
 10
37.1524766912
 20
146.4548748556
 10
36.8663053365
 20
145.7115240513
  0
LINE
  5
233
100
AcDbEntity
  8
RUNDUNGEN
100
AcDbLine
 62
7
  6
CONTINUOUS
 10
36.8663053365
 20
145.7115240513
 11
36.7965259873
 21
145.5282040887
  0
LINE
  5
234
100
AcDbEntity
  8
RUNDUNGEN
100
AcDbLine
 62
7
  6
CONTINUOUS
 10
42.7366157915
 20
163.3955092514
 11
42.8822613606
 21
163.758897173
  0
LINE
  5
235
100
AcDbEntity
  8
RUNDUNGEN
100
AcDbLine
 62
7
  6
CONTINUOUS
 10
22.8622438033
 20
119.5582884695
 11
23.0313009338
 21
119.911560532
  0
LINE
  5
236
100
AcDbEntity
  8
RUNDUNGEN
100
AcDbLine
 62
7
  6
CONTINUOUS
 10
27.7202461555
 20
137.4285772514
 11
27.5430300819
 21
137.0794501902
  0
LINE
  5
237
100
AcDbEntity
  8
RUNDUNGEN
100
AcDbLine
 62
7
  6
CONTINUOUS
 10
42.5228691676
 20
163.0674716082
 11
42.7366157915
 21
163.3955092514
  0
LINE
  5
238
100
AcDbEntity
  8
RUNDUNGEN
100
AcDbLine
 62
7
  6
CONTINUOUS
 10
55.5699947727
 20
176.2097689482
 11
55.3485795814
 21
175.8867262161
  0
LINE
  5
239
100
AcDbEntity
  8
RUNDUNGEN
100
AcDbLine
 62
7
  6
CONTINUOUS
 10
27.5430300819
 20
137.0794501902
 11
27.3011491523
 21
136.7716235406
  0
LWPOLYLINE
  5
23A
100
AcDbEntity
  8
RUNDUNGEN
100
AcDbPolyline
 62
7
  6
CONTINUOUS
 90
3
 70
0
 10
39.4093610385
 20
150.3705360296
 10
39.4216397358
 20
150.3860477585
 10
39.9235128988
 20
151.004584573
  0
LINE
  5
23B
100
AcDbEntity
  8
RUNDUNGEN
100
AcDbLine
 62
7
  6
CONTINUOUS
 10
39.9235128988
 20
151.004584573
 11
40.0465259873
 21
151.1573692133
  0
LINE
  5
23C
100
AcDbEntity
  8
RUNDUNGEN
100
AcDbLine
 62
7
  6
CONTINUOUS
 10
42.2492258745
 20
162.7873739114
 11
42.5228691676
 21
163.0674716082
  0
LINE
  5
23D
100
AcDbEntity
  8
RUNDUNGEN
100
AcDbLine
 62
7
  6
CONTINUOUS
 10
55.3485795814
 20
175.8867262161
 11
55.0684799127
 21
175.6130827772
  0
LWPOLYLINE
  5
23E
100
AcDbEntity
  8
RUNDUNGEN
100
AcDbPolyline
 62
7
  6
CONTINUOUS
 90
3
 70
0
 10
67.7654154213
 20
178.7265904124
 10
67.7501799731
 20
178.7139705368
 10
67.1306729079
 20
178.2132955336
  0
LINE
  5
23F
100
AcDbEntity
  8
RUNDUNGEN
100
AcDbLine
 62
7
  6
CONTINUOUS
 10
67.1306729079
 20
178.2132955336
 11
66.9785822376
 21
178.0894254635
  0
LINE
  5
240
100
AcDbEntity
  8
RUNDUNGEN
100
AcDbLine
 62
7
  6
CONTINUOUS
 10
81.0565033674
 20
190.5929207838
 11
81.364330097
 21
190.8348011818
  0
LINE
  5
241
100
AcDbEntity
  8
RUNDUNGEN
100
AcDbLine
 62
7
  6
CONTINUOUS
 10
41.9261820731
 20
162.5659598967
 11
42.2492258745
 21
162.7873739114
  0
LINE
  5
242
100
AcDbEntity
  8
RUNDUNGEN
100
AcDbLine
 62
7
  6
CONTINUOUS
 10
55.0684799127
 20
175.6130827772
 11
54.7404427605
 21
175.3993379099
  0
LINE
  5
243
100
AcDbEntity
  8
RUNDUNGEN
100
AcDbLine
 62
7
  6
CONTINUOUS
 10
80.7073748963
 20
190.4157052297
 11
81.0565033674
 21
190.5929207838
  0
LINE
  5
244
100
AcDbEntity
  8
RUNDUNGEN
100
AcDbLine
 62
7
  6
CONTINUOUS
 10
98.5776655522
 20
195.2737056675
 11
98.2243930057
 21
195.1046500504
  0
LINE
  5
245
100
AcDbEntity
  8
RUNDUNGEN
100
AcDbLine
 62
7
  6
CONTINUOUS
 10
54.7404427605
 20
175.3993379099
 11
54.377054406
 21
175.2536926761
  0
LWPOLYLINE
  5
246
100
AcDbEntity
  8
RUNDUNGEN
100
AcDbPolyline
 62
7
  6
CONTINUOUS
 90
3
 70
0
 10
71.6625297383
 20
180.9765904124
 10
71.6809192666
 20
180.983884615
 10
72.4248225824
 20
181.268616628
  0
LINE
  5
247
100
AcDbEntity
  8
RUNDUNGEN
100
AcDbLine
 62
7
  6
CONTINUOUS
 10
72.4248225824
 20
181.268616628
 11
72.6077473622
 21
181.3394254635
  0
LINE
  5
248
100
AcDbEntity
  8
0
100
AcDbLine
 62
7
  6
CONTINUOUS
 10
87.0848461126
 20
185.5303559945
 11
85.9429282054
 21
185.1615423651
  0
LINE
  5
249
100
AcDbEntity
  8
0
100
AcDbLine
 62
7
  6
CONTINUOUS
 10
86.3264964018
 20
184.9500442376
 11
87.2305146996
 21
185.2420216796
  0
LINE
  5
24A
100
AcDbEntity
  8
0
100
AcDbLine
 62
7
  6
CONTINUOUS
 10
87.5247809131
 20
184.3309169049
 11
86.6207626153
 21
184.0389394629
  0
LINE
  5
24B
100
AcDbEntity
  8
0
100
AcDbLine
 62
7
  6
CONTINUOUS
 10
86.7384690788
 20
183.6744976211
 11
87.5949075092
 21
183.9511078431
  0
LINE
  5
24C
100
AcDbEntity
  8
0
100
AcDbLine
 62
7
  6
CONTINUOUS
 10
88.6634569235
 20
185.0177237581
 11
88.4239314212
 21
184.9461172916
  0
LINE
  5
24D
100
AcDbEntity
  8
RUNDUNGEN
100
AcDbLine
 62
7
  6
CONTINUOUS
 10
144.964896982
 20
20.6667071146
 11
144.5878660903
 21
20.5609570402
  0
LINE
  5
24E
100
AcDbEntity
  8
RUNDUNGEN
100
AcDbLine
 62
7
  6
CONTINUOUS
 10
127.0708477464
 20
15.8720120991
 11
127.4502428945
 21
15.9689444343
  0
LWPOLYLINE
  5
24F
100
AcDbEntity
  8
RUNDUNGEN
100
AcDbPolyline
 62
7
  6
CONTINUOUS
 90
3
 70
0
 10
114.8976203763
 20
19.6210354816
 10
114.9171245992
 20
19.6243468905
 10
115.7039709571
 20
19.7481906296
  0
LINE
  5
250
100
AcDbEntity
  8
RUNDUNGEN
100
AcDbLine
 62
7
  6
CONTINUOUS
 10
115.7039709571
 20
19.7481906296
 11
115.8976203763
 21
19.7794199219
  0
LINE
  5
251
100
AcDbEntity
  8
RUNDUNGEN
100
AcDbLine
 62
7
  6
CONTINUOUS
 10
97.4540353061
 20
15.9900360117
 11
97.06650935
 21
15.9344748137
  0
LINE
  5
252
100
AcDbEntity
  8
RUNDUNGEN
100
AcDbLine
 62
7
  6
CONTINUOUS
 10
145.355368128
 20
20.6969353753
 11
144.964896982
 21
20.6667071146
  0
LINE
  5
253
100
AcDbEntity
  8
RUNDUNGEN
100
AcDbLine
 62
7
  6
CONTINUOUS
 10
127.4502428945
 20
15.9689444343
 11
127.8412038354
 21
15.9900343432
  0
LINE
  5
254
100
AcDbEntity
  8
RUNDUNGEN
100
AcDbLine
 62
7
  6
CONTINUOUS
 10
97.8449975505
 20
15.9689448271
 11
97.4540353061
 21
15.9900360117
  0
LINE
  5
255
100
AcDbEntity
  8
RUNDUNGEN
100
AcDbLine
 62
7
  6
CONTINUOUS
 10
79.9398713873
 20
20.6969383775
 11
80.3303421956
 21
20.6667085631
  0
LINE
  5
256
100
AcDbEntity
  8
RUNDUNGEN
100
AcDbLine
 62
7
  6
CONTINUOUS
 10
127.8412038354
 20
15.9900343432
 11
128.2287299987
 21
15.9344726383
  0
LWPOLYLINE
  5
257
100
AcDbEntity
  8
RUNDUNGEN
100
AcDbPolyline
 62
7
  6
CONTINUOUS
 90
3
 70
0
 10
110.3976203763
 20
19.6210354816
 10
110.3780474763
 20
19.623913281
 10
109.5914423003
 20
19.7492797824
  0
LINE
  5
258
100
AcDbEntity
  8
RUNDUNGEN
100
AcDbLine
 62
7
  6
CONTINUOUS
 10
109.5914423003
 20
19.7492797824
 11
109.3976203763
 21
19.7794199219
  0
LINE
  5
259
100
AcDbEntity
  8
RUNDUNGEN
100
AcDbLine
 62
7
  6
CONTINUOUS
 10
98.224390918
 20
15.8720116321
 11
97.8449975505
 21
15.9689448271
  0
LINE
  5
25A
100
AcDbEntity
  8
RUNDUNGEN
100
AcDbLine
 62
7
  6
CONTINUOUS
 10
80.3303421956
 20
20.6667085631
 11
80.7073741995
 21
20.5609568538
  0
LWPOLYLINE
  5
25B
100
AcDbEntity
  8
RUNDUNGEN
100
AcDbPolyline
 62
7
  6
CONTINUOUS
 90
3
 70
0
 10
71.6625297383
 20
30.0000717368
 10
71.6810765953
 20
29.9931873895
 10
72.4244273996
 20
29.7070160348
  0
LINE
  5
25C
100
AcDbEntity
  8
RUNDUNGEN
100
AcDbLine
 62
7
  6
CONTINUOUS
 10
72.4244273996
 20
29.7070160348
 11
72.6077473622
 21
29.6372366857
  0
LINE
  5
25D
100
AcDbEntity
  8
RUNDUNGEN
100
AcDbLine
 62
7
  6
CONTINUOUS
 10
54.7404421995
 20
35.5773264898
 11
54.3770542779
 21
35.7229720589
  0
LINE
  5
25E
100
AcDbEntity
  8
RUNDUNGEN
100
AcDbLine
 62
7
  6
CONTINUOUS
 10
98.5776629802
 20
15.7029545008
 11
98.224390918
 21
15.8720116321
  0
LINE
  5
25F
100
AcDbEntity
  8
RUNDUNGEN
100
AcDbLine
 62
7
  6
CONTINUOUS
 10
80.7073741995
 20
20.5609568538
 11
81.0565012607
 21
20.3837407802
  0
LINE
  5
260
100
AcDbEntity
  8
RUNDUNGEN
100
AcDbLine
 62
7
  6
CONTINUOUS
 10
55.0684798427
 20
35.3635798659
 11
54.7404421995
 21
35.5773264898
  0
LINE
  5
261
100
AcDbEntity
  8
RUNDUNGEN
100
AcDbLine
 62
7
  6
CONTINUOUS
 10
41.9261825027
 20
48.4107054711
 11
42.2492252348
 21
48.1892902798
  0
LINE
  5
262
100
AcDbEntity
  8
RUNDUNGEN
100
AcDbLine
 62
7
  6
CONTINUOUS
 10
81.0565012607
 20
20.3837407802
 11
81.3643279103
 21
20.1418598507
  0
LWPOLYLINE
  5
263
100
AcDbEntity
  8
RUNDUNGEN
100
AcDbPolyline
 62
7
  6
CONTINUOUS
 90
3
 70
0
 10
67.7654154213
 20
32.2500717368
 10
67.7499036924
 20
32.2623504342
 10
67.1313668779
 20
32.7642235972
  0
LINE
  5
264
100
AcDbEntity
  8
RUNDUNGEN
100
AcDbLine
 62
7
  6
CONTINUOUS
 10
67.1313668779
 20
32.7642235972
 11
66.9785822376
 21
32.8872366857
  0
LINE
  5
265
100
AcDbEntity
  8
RUNDUNGEN
100
AcDbLine
 62
7
  6
CONTINUOUS
 10
55.3485775395
 20
35.0899365729
 11
55.0684798427
 21
35.3635798659
  0
LINE
  5
266
100
AcDbEntity
  8
RUNDUNGEN
100
AcDbLine
 62
7
  6
CONTINUOUS
 10
42.2492252348
 20
48.1892902798
 11
42.5228686737
 21
47.9091906111
  0
LWPOLYLINE
  5
267
100
AcDbEntity
  8
RUNDUNGEN
100
AcDbPolyline
 62
7
  6
CONTINUOUS
 90
3
 70
0
 10
39.4093610385
 20
60.6061261196
 10
39.4219809141
 20
60.5908906715
 10
39.9226559173
 20
59.9713836063
  0
LINE
  5
268
100
AcDbEntity
  8
RUNDUNGEN
100
AcDbLine
 62
7
  6
CONTINUOUS
 10
39.9226559173
 20
59.9713836063
 11
40.0465259873
 21
59.819292936
  0
LINE
  5
269
100
AcDbEntity
  8
RUNDUNGEN
100
AcDbLine
 62
7
  6
CONTINUOUS
 10
27.5430307213
 20
73.8972141885
 11
27.3011503343
 21
74.2050409121
  0
LINE
  5
26A
100
AcDbEntity
  8
RUNDUNGEN
100
AcDbLine
 62
7
  6
CONTINUOUS
 10
55.5699915542
 20
34.7668927714
 11
55.3485775395
 21
35.0899365729
  0
LINE
  5
26B
100
AcDbEntity
  8
RUNDUNGEN
100
AcDbLine
 62
7
  6
CONTINUOUS
 10
42.5228686737
 20
47.9091906111
 11
42.736613541
 21
47.5811534588
  0
LINE
  5
26C
100
AcDbEntity
  8
RUNDUNGEN
100
AcDbLine
 62
7
  6
CONTINUOUS
 10
27.7202463418
 20
73.5480853606
 11
27.5430307213
 21
73.8972141885
  0
LINE
  5
26D
100
AcDbEntity
  8
RUNDUNGEN
100
AcDbLine
 62
7
  6
CONTINUOUS
 10
22.8622457838
 20
91.4183762511
 11
23.0313014007
 21
91.0651037045
  0
LINE
  5
26E
100
AcDbEntity
  8
RUNDUNGEN
100
AcDbLine
 62
7
  6
CONTINUOUS
 10
42.736613541
 20
47.5811534588
 11
42.8822587748
 21
47.2177651043
  0
LWPOLYLINE
  5
26F
100
AcDbEntity
  8
RUNDUNGEN
100
AcDbPolyline
 62
7
  6
CONTINUOUS
 90
3
 70
0
 10
37.1593610385
 20
64.5032404366
 10
37.1520668359
 20
64.5216299649
 10
36.8673348229
 20
65.2655332808
  0
LINE
  5
270
100
AcDbEntity
  8
RUNDUNGEN
100
AcDbLine
 62
7
  6
CONTINUOUS
 10
36.8673348229
 20
65.2655332808
 11
36.7965259873
 21
65.4484580606
  0
LINE
  5
271
100
AcDbEntity
  8
RUNDUNGEN
100
AcDbLine
 62
7
  6
CONTINUOUS
 10
27.8259964162
 20
73.1710544689
 11
27.7202463418
 21
73.5480853606
  0
LINE
  5
272
100
AcDbEntity
  8
RUNDUNGEN
100
AcDbLine
 62
7
  6
CONTINUOUS
 10
23.0313014007
 20
91.0651037045
 11
23.128233736
 21
90.6857085564
  0
LWPOLYLINE
  5
273
100
AcDbEntity
  8
RUNDUNGEN
100
AcDbPolyline
 62
7
  6
CONTINUOUS
 90
3
 70
0
 10
26.7803247833
 20
103.2383310746
 10
26.7836361921
 20
103.2188268517
 10
26.9074799313
 20
102.4319804938
  0
LINE
  5
274
100
AcDbEntity
  8
RUNDUNGEN
100
AcDbLine
 62
7
  6
CONTINUOUS
 10
26.9074799313
 20
102.4319804938
 11
26.9387092236
 21
102.2383310746
  0
LINE
  5
275
100
AcDbEntity
  8
RUNDUNGEN
100
AcDbLine
 62
7
  6
CONTINUOUS
 10
23.1493253124
 20
120.6819161441
 11
23.0937641142
 21
121.0694421002
  0
LINE
  5
276
100
AcDbEntity
  8
RUNDUNGEN
100
AcDbLine
 62
7
  6
CONTINUOUS
 10
42.9542165857
 20
46.8329655771
 11
43.4248651462
 21
41.4178729644
  0
LINE
  5
277
100
AcDbEntity
  8
RUNDUNGEN
100
AcDbLine
 62
7
  6
CONTINUOUS
 10
43.4248651462
 20
169.5587891848
 11
42.9542165744
 21
164.1436964416
  0
LINE
  5
278
100
AcDbEntity
  8
RUNDUNGEN
100
AcDbLine
 62
7
  6
CONTINUOUS
 10
27.8097708845
 20
72.3916553026
 11
27.856224677
 21
72.7805833229
  0
LINE
  5
279
100
AcDbEntity
  8
RUNDUNGEN
100
AcDbLine
 62
7
  6
CONTINUOUS
 10
42.8822613606
 20
163.758897173
 11
42.9542187131
 21
164.1436937298
  0
LINE
  5
27A
100
AcDbEntity
  8
RUNDUNGEN
100
AcDbLine
 62
7
  6
CONTINUOUS
 10
26.8019879145
 20
67.8222175166
 11
27.8070537797
 21
72.3941286122
  0
LINE
  5
27B
100
AcDbEntity
  8
RUNDUNGEN
100
AcDbLine
 62
7
  6
CONTINUOUS
 10
26.8019066969
 20
67.8218439407
 11
26.8018983449
 21
67.8218100734
  0
LINE
  5
27C
100
AcDbEntity
  8
RUNDUNGEN
100
AcDbLine
 62
7
  6
CONTINUOUS
 10
57.1363368914
 20
181.0314531471
 11
57.13634696
 21
181.0314890682
  0
LINE
  5
27D
100
AcDbEntity
  8
RUNDUNGEN
100
AcDbLine
 62
7
  6
CONTINUOUS
 10
55.7206356617
 20
176.5690344181
 11
57.1361951759
 21
181.031010633
  0
LINE
  5
27E
100
AcDbEntity
  8
RUNDUNGEN
100
AcDbLine
 62
7
  6
CONTINUOUS
 10
23.09376194
 20
89.9072214522
 11
22.9636804386
 21
89.5379988497
  0
LINE
  5
27F
100
AcDbEntity
  8
RUNDUNGEN
100
AcDbLine
 62
7
  6
CONTINUOUS
 10
55.7242301261
 20
176.5698163206
 11
55.5699947727
 21
176.2097689482
  0
LINE
  5
280
100
AcDbEntity
  8
RUNDUNGEN
100
AcDbLine
 62
7
  6
CONTINUOUS
 10
22.9636794687
 20
89.5379963808
 11
20.6637267719
 21
84.6130643341
  0
LINE
  5
281
100
AcDbEntity
  8
RUNDUNGEN
100
AcDbLine
 62
7
  6
CONTINUOUS
 10
84.7341848822
 20
195.5863530452
 11
81.6190434489
 21
191.1320673895
  0
LINE
  5
282
100
AcDbEntity
  8
RUNDUNGEN
100
AcDbLine
 62
7
  6
CONTINUOUS
 10
22.6275496296
 20
119.2446938196
 11
22.8622438033
 21
119.5582884695
  0
LINE
  5
283
100
AcDbEntity
  8
RUNDUNGEN
100
AcDbLine
 62
7
  6
CONTINUOUS
 10
81.364330097
 20
190.8348011818
 11
81.6190453
 21
191.132066095
  0
LINE
  5
284
100
AcDbEntity
  8
RUNDUNGEN
100
AcDbLine
 62
7
  6
CONTINUOUS
 10
19.4700650814
 20
115.7913361024
 11
22.6264332041
 21
119.2481943259
  0
LINE
  5
285
100
AcDbEntity
  8
RUNDUNGEN
100
AcDbLine
 62
7
  6
CONTINUOUS
 10
19.4698226004
 20
115.7910693683
 11
19.4697997076
 21
115.7910454639
  0
LINE
  5
286
100
AcDbEntity
  8
RUNDUNGEN
100
AcDbLine
 62
7
  6
CONTINUOUS
 10
102.3447237155
 20
198.6659853166
 11
98.88775682
 21
195.5095179683
  0
LINE
  5
287
100
AcDbEntity
  8
0
100
AcDbLine
 62
7
  6
CONTINUOUS
 10
87.6479029076
 20
184.4377589155
 11
87.5247809131
 21
184.3309169049
  0
LINE
  5
288
100
AcDbEntity
  8
RUNDUNGEN
100
AcDbLine
 62
7
  6
CONTINUOUS
 10
27.3011491523
 20
136.7716235406
 11
27.0038839663
 21
136.5169081379
  0
LINE
  5
289
100
AcDbEntity
  8
0
100
AcDbLine
 62
7
  6
CONTINUOUS
 10
89.0649805631
 20
185.0711387394
 11
88.9395477138
 21
184.9670193797
  0
LINE
  5
28A
100
AcDbEntity
  8
RUNDUNGEN
100
AcDbLine
 62
7
  6
CONTINUOUS
 10
98.8912609725
 20
195.508398162
 11
98.5776655522
 21
195.2737056675
  0
LINE
  5
28B
100
AcDbEntity
  8
RUNDUNGEN
100
AcDbLine
 62
7
  6
CONTINUOUS
 10
27.0038818919
 20
136.5169064847
 11
22.5495984057
 21
133.4017665687
  0
LINE
  5
28C
100
AcDbEntity
  8
0
100
AcDbLine
 62
7
  6
CONTINUOUS
 10
90.2878725823
 20
185.4896190371
 11
90.112158953
 21
185.3747326369
  0
LINE
  5
28D
100
AcDbEntity
  8
0
100
AcDbLine
 62
7
  6
CONTINUOUS
 10
90.2766661511
 20
185.1553580373
 11
90.4523800561
 21
185.2702445138
  0
LINE
  5
28E
100
AcDbEntity
  8
0
100
AcDbLine
 62
7
  6
CONTINUOUS
 10
91.2296430899
 20
183.9621405961
 11
91.0539291908
 21
183.847254098
  0
LINE
  5
28F
100
AcDbEntity
  8
0
100
AcDbLine
 62
7
  6
CONTINUOUS
 10
91.2184366706
 20
183.6278795532
 11
91.3941502984
 21
183.7427659588
  0
LINE
  5
290
100
AcDbEntity
  8
0
100
AcDbLine
 62
7
  6
CONTINUOUS
 10
87.5949075092
 20
183.9511078431
 11
87.8131893746
 21
184.0886843376
  0
LINE
  5
291
100
AcDbEntity
  8
0
100
AcDbLine
 62
7
  6
CONTINUOUS
 10
89.2862235586
 20
185.2039006694
 11
89.0649805631
 21
185.0711387394
  0
LINE
  5
292
100
AcDbEntity
  8
0
100
AcDbLine
 62
7
  6
CONTINUOUS
 10
93.6587830718
 20
186.3558057163
 11
93.4786702894
 21
186.2479467803
  0
LINE
  5
293
100
AcDbEntity
  8
0
100
AcDbLine
 62
7
  6
CONTINUOUS
 10
93.5370353906
 20
185.9993882013
 11
93.7171481731
 21
186.1072471372
  0
LINE
  5
294
100
AcDbEntity
  8
0
100
AcDbLine
 62
7
  6
CONTINUOUS
 10
89.1084878874
 20
184.7510400961
 11
89.377636093
 21
184.8981233521
  0
LINE
  5
295
100
AcDbEntity
  8
RUNDUNGEN
100
AcDbLine
 62
7
  6
CONTINUOUS
 10
133.5228871168
 20
197.472224679
 11
128.5979549514
 21
195.1722719268
  0
LINE
  5
296
100
AcDbEntity
  8
RUNDUNGEN
100
AcDbLine
 62
7
  6
CONTINUOUS
 10
41.566133631
 20
162.4117260509
 11
41.9261820731
 21
162.5659598967
  0
LINE
  5
297
100
AcDbEntity
  8
RUNDUNGEN
100
AcDbLine
 62
7
  6
CONTINUOUS
 10
128.2287314025
 20
195.0421873355
 11
128.5979536723
 21
195.1722687187
  0
LINE
  5
298
100
AcDbEntity
  8
0
100
AcDbLine
 62
7
  6
CONTINUOUS
 10
86.864962279
 20
182.3067475972
 11
87.1504417558
 21
182.3989510045
  0
LINE
  5
299
100
AcDbEntity
  8
RUNDUNGEN
100
AcDbLine
 62
7
  6
CONTINUOUS
 10
37.1049943271
 20
160.9997732508
 11
41.5669170276
 21
162.4153157875
  0
LINE
  5
29A
100
AcDbEntity
  8
0
100
AcDbLine
 62
7
  6
CONTINUOUS
 10
89.0089716927
 20
182.9891422901
 11
89.2484971951
 21
183.0607487566
  0
LINE
  5
29B
100
AcDbEntity
  8
RUNDUNGEN
100
AcDbLine
 62
7
  6
CONTINUOUS
 10
37.1046284671
 20
160.9996562434
 11
37.1045947468
 21
160.9996464835
  0
LINE
  5
29C
100
AcDbEntity
  8
RUNDUNGEN
100
AcDbLine
 62
7
  6
CONTINUOUS
 10
79.5534179246
 20
20.6477644804
 11
74.9813653085
 21
19.642667504
  0
LINE
  5
29D
100
AcDbEntity
  8
RUNDUNGEN
100
AcDbLine
 62
7
  6
CONTINUOUS
 10
170.9181863466
 20
35.7229694731
 11
171.3029832507
 21
35.7949268896
  0
LINE
  5
29E
100
AcDbEntity
  8
RUNDUNGEN
100
AcDbLine
 62
7
  6
CONTINUOUS
 10
79.5509435396
 20
20.6504864254
 11
79.9398713873
 21
20.6969383775
  0
LINE
  5
29F
100
AcDbEntity
  8
RUNDUNGEN
100
AcDbLine
 62
7
  6
CONTINUOUS
 10
171.3029858733
 20
35.794927284
 11
176.7180784865
 21
36.2655758445
  0
LINE
  5
2A0
100
AcDbEntity
  8
RUNDUNGEN
100
AcDbLine
 62
7
  6
CONTINUOUS
 10
48.5771622661
 20
36.2655758445
 11
53.9922550093
 21
35.7949272727
  0
LINE
  5
2A1
100
AcDbEntity
  8
RUNDUNGEN
100
AcDbLine
 62
7
  6
CONTINUOUS
 10
145.7442961483
 20
20.6504815828
 11
145.355368128
 21
20.6969353753
  0
LINE
  5
2A2
100
AcDbEntity
  8
RUNDUNGEN
100
AcDbLine
 62
7
  6
CONTINUOUS
 10
54.3770542779
 20
35.7229720589
 11
53.9922577211
 21
35.7949294114
  0
LINE
  5
2A3
100
AcDbEntity
  8
RUNDUNGEN
100
AcDbLine
 62
7
  6
CONTINUOUS
 10
150.3137340063
 20
19.642698597
 11
145.7418228387
 21
20.6477644781
  0
LINE
  5
2A4
100
AcDbEntity
  8
RUNDUNGEN
100
AcDbLine
 62
7
  6
CONTINUOUS
 10
150.3141013616
 20
19.642618719
 11
150.3141346254
 21
19.6426105276
  0
LINE
  5
2A5
100
AcDbEntity
  8
RUNDUNGEN
100
AcDbLine
 62
7
  6
CONTINUOUS
 10
37.1044993883
 20
49.9770472311
 11
37.104463697
 21
49.9770572413
  0
LINE
  5
2A6
100
AcDbEntity
  8
RUNDUNGEN
100
AcDbLine
 62
7
  6
CONTINUOUS
 10
41.5669170327
 20
48.5613463601
 11
37.1049394312
 21
49.9769063142
  0
LINE
  5
2A7
100
AcDbEntity
  8
RUNDUNGEN
100
AcDbLine
 62
7
  6
CONTINUOUS
 10
128.2287299987
 20
15.9344726383
 11
128.5979526012
 21
15.8043911369
  0
LINE
  5
2A8
100
AcDbEntity
  8
RUNDUNGEN
100
AcDbLine
 62
7
  6
CONTINUOUS
 10
41.5661351303
 20
48.5649408244
 11
41.9261825027
 21
48.4107054711
  0
LINE
  5
2A9
100
AcDbEntity
  8
RUNDUNGEN
100
AcDbLine
 62
7
  6
CONTINUOUS
 10
128.5979550696
 20
15.8043901672
 11
133.5228871168
 21
13.5044374703
  0
LINE
  5
2AA
100
AcDbEntity
  8
RUNDUNGEN
100
AcDbLine
 62
7
  6
CONTINUOUS
 10
22.5495984057
 20
77.5748955805
 11
27.0038819993
 21
74.4597555895
  0
LINE
  5
2AB
100
AcDbEntity
  8
RUNDUNGEN
100
AcDbLine
 62
7
  6
CONTINUOUS
 10
98.8912576298
 20
15.4682603263
 11
98.5776629802
 21
15.7029545008
  0
LINE
  5
2AC
100
AcDbEntity
  8
RUNDUNGEN
100
AcDbLine
 62
7
  6
CONTINUOUS
 10
27.3011503343
 20
74.2050409121
 11
27.0038854171
 21
74.4597560857
  0
LINE
  5
2AD
100
AcDbEntity
  8
RUNDUNGEN
100
AcDbLine
 62
7
  6
CONTINUOUS
 10
102.3446154029
 20
12.31077573
 11
98.8877571284
 21
15.4671438993
  0
LINE
  5
2AE
100
AcDbEntity
  8
RUNDUNGEN
100
AcDbLine
 62
7
  6
CONTINUOUS
 10
102.3448936029
 20
12.310522876
 11
102.3449183145
 21
12.3104991501
  0
LINE
  5
2AF
100
AcDbEntity
  8
RUNDUNGEN
100
AcDbLine
 62
7
  6
CONTINUOUS
 10
19.4697165977
 20
95.1857095634
 11
19.4696906934
 21
95.1857360782
  0
LINE
  5
2B0
100
AcDbEntity
  8
RUNDUNGEN
100
AcDbLine
 62
7
  6
CONTINUOUS
 10
22.6264332047
 20
91.7284678228
 11
19.4700272276
 21
95.1853675043
  0
LINE
  5
2B1
100
AcDbEntity
  8
RUNDUNGEN
100
AcDbLine
 62
7
  6
CONTINUOUS
 10
81.3643279103
 20
20.1418598507
 11
81.619043313
 21
19.8445946647
  0
LINE
  5
2B2
100
AcDbEntity
  8
RUNDUNGEN
100
AcDbLine
 62
7
  6
CONTINUOUS
 10
22.6275532894
 20
91.7319716714
 11
22.8622457838
 21
91.4183762511
  0
LINE
  5
2B3
100
AcDbEntity
  8
RUNDUNGEN
100
AcDbLine
 62
7
  6
CONTINUOUS
 10
81.6190449659
 20
19.8445925906
 11
84.7341848822
 21
15.390309104
  0
LINE
  5
2B4
100
AcDbEntity
  8
RUNDUNGEN
100
AcDbLine
 62
7
  6
CONTINUOUS
 10
20.6637267719
 20
126.3635978151
 11
22.9636795243
 21
121.4386656492
  0
LINE
  5
2B5
100
AcDbEntity
  8
RUNDUNGEN
100
AcDbLine
 62
7
  6
CONTINUOUS
 10
55.7242254
 20
34.4068443293
 11
55.5699915542
 21
34.7668927714
  0
LINE
  5
2B6
100
AcDbEntity
  8
RUNDUNGEN
100
AcDbLine
 62
7
  6
CONTINUOUS
 10
23.0937641142
 20
121.0694421002
 11
22.9636827311
 21
121.4386643701
  0
LINE
  5
2B7
100
AcDbEntity
  8
RUNDUNGEN
100
AcDbLine
 62
7
  6
CONTINUOUS
 10
57.1361786395
 20
29.9457036406
 11
55.7206356634
 21
34.4076277259
  0
LINE
  5
2B8
100
AcDbEntity
  8
RUNDUNGEN
100
AcDbLine
 62
7
  6
CONTINUOUS
 10
57.1362950909
 20
29.9453395056
 11
57.1363047915
 21
29.9453059997
  0
LINE
  5
2B9
100
AcDbEntity
  8
RUNDUNGEN
100
AcDbLine
 62
7
  6
CONTINUOUS
 10
26.8018776454
 20
143.1549521282
 11
26.8018684046
 21
143.154988271
  0
LINE
  5
2BA
100
AcDbEntity
  8
RUNDUNGEN
100
AcDbLine
 62
7
  6
CONTINUOUS
 10
27.8070537809
 20
138.5825335317
 11
26.8019761733
 21
143.1544980419
  0
LINE
  5
2BB
100
AcDbEntity
  8
RUNDUNGEN
100
AcDbLine
 62
7
  6
CONTINUOUS
 10
42.8822587748
 20
47.2177651043
 11
42.9542161912
 21
46.8329682002
  0
LINE
  5
2BC
100
AcDbEntity
  8
RUNDUNGEN
100
AcDbLine
 62
7
  6
CONTINUOUS
 10
27.8097757271
 20
138.5850079113
 11
27.8562276791
 21
138.1960800636
  0
LINE
  5
2BD
100
AcDbEntity
  8
0
100
AcDbLine
 62
7
  6
CONTINUOUS
 10
93.4786702894
 20
186.2479467803
 11
93.3618246574
 21
186.0893779897
  0
LINE
  5
2BE
100
AcDbEntity
  8
0
100
AcDbLine
 62
7
  6
CONTINUOUS
 10
88.9534323348
 20
184.5714439468
 11
89.1084878874
 21
184.7510400961
  0
LINE
  5
2BF
100
AcDbEntity
  8
0
100
AcDbLine
 62
7
  6
CONTINUOUS
 10
91.3941502984
 20
183.7427659588
 11
91.4734904023
 21
183.8309666976
  0
LINE
  5
2C0
100
AcDbEntity
  8
0
100
AcDbLine
 62
7
  6
CONTINUOUS
 10
90.112158953
 20
185.3747326369
 11
90.0328185719
 21
185.2865318272
  0
LINE
  5
2C1
100
AcDbEntity
  8
0
100
AcDbLine
 62
7
  6
CONTINUOUS
 10
129.0616448614
 20
187.3311132881
 11
128.9316977106
 21
187.2715069153
  0
LINE
  5
2C2
100
AcDbEntity
  8
0
100
AcDbLine
 62
7
  6
CONTINUOUS
 10
129.1091634743
 20
185.3871001281
 11
129.2391107892
 21
185.446706479
  0
LINE
  5
2C3
100
AcDbEntity
  8
0
100
AcDbLine
 62
7
  6
CONTINUOUS
 10
135.4113890711
 20
185.7970489658
 11
135.277152857
 21
185.7478565189
  0
LINE
  5
2C4
100
AcDbEntity
  8
0
100
AcDbLine
 62
7
  6
CONTINUOUS
 10
138.0707151717
 20
184.995107209
 11
137.934940428
 21
184.9503375283
  0
LINE
  5
2C5
100
AcDbEntity
  8
0
100
AcDbLine
 62
7
  6
CONTINUOUS
 10
137.9015229615
 20
183.0578876155
 11
138.0372977086
 21
183.1026573068
  0
LINE
  5
2C6
100
AcDbEntity
  8
0
100
AcDbLine
 62
7
  6
CONTINUOUS
 10
87.8131893746
 20
184.0886843376
 11
87.9446557487
 21
184.3323741821
  0
LINE
  5
2C7
100
AcDbEntity
  8
0
100
AcDbLine
 62
7
  6
CONTINUOUS
 10
88.9395477138
 20
184.9670193797
 11
88.8323973713
 21
184.8017445565
  0
LINE
  5
2C8
100
AcDbEntity
  8
0
100
AcDbLine
 62
7
  6
CONTINUOUS
 10
93.4201897586
 20
185.8408194107
 11
93.5370353906
 21
185.9993882013
  0
LINE
  5
2C9
100
AcDbEntity
  8
0
100
AcDbLine
 62
7
  6
CONTINUOUS
 10
131.3638551257
 20
185.754849523
 11
131.5054093893
 21
185.8511577183
  0
LINE
  5
2CA
100
AcDbEntity
  8
0
100
AcDbLine
 62
7
  6
CONTINUOUS
 10
128.9380334779
 20
187.012305202
 11
129.0396823368
 21
187.0776531723
  0
LINE
  5
2CB
100
AcDbEntity
  8
0
100
AcDbLine
 62
7
  6
CONTINUOUS
 10
129.2327750308
 20
185.7059082357
 11
129.131126166
 21
185.6405602365
  0
LINE
  5
2CC
100
AcDbEntity
  8
0
100
AcDbLine
 62
7
  6
CONTINUOUS
 10
131.8274341509
 20
185.0820076672
 11
131.7236995154
 21
185.020024015
  0
LINE
  5
2CD
100
AcDbEntity
  8
0
100
AcDbLine
 62
7
  6
CONTINUOUS
 10
132.8827565046
 20
186.1671676287
 11
132.9874440394
 21
186.2275274707
  0
LINE
  5
2CE
100
AcDbEntity
  8
0
100
AcDbLine
 62
7
  6
CONTINUOUS
 10
133.009338076
 20
184.7876945446
 11
132.9046502209
 21
184.7273347838
  0
LINE
  5
2CF
100
AcDbEntity
  8
0
100
AcDbLine
 62
7
  6
CONTINUOUS
 10
135.2746662855
 20
185.5294593212
 11
135.3811436506
 21
185.5866031612
  0
LINE
  5
2D0
100
AcDbEntity
  8
0
100
AcDbLine
 62
7
  6
CONTINUOUS
 10
131.5259371841
 20
186.0627725828
 11
131.3562875412
 21
185.9731298217
  0
LINE
  5
2D1
100
AcDbEntity
  8
0
100
AcDbLine
 62
7
  6
CONTINUOUS
 10
131.7031717148
 20
184.8084091255
 11
131.8728213602
 21
184.8980518973
  0
LINE
  5
2D2
100
AcDbEntity
  8
0
100
AcDbLine
 62
7
  6
CONTINUOUS
 10
133.0112669905
 20
186.4387967045
 11
132.8402411532
 21
186.3518082633
  0
LINE
  5
2D3
100
AcDbEntity
  8
0
100
AcDbLine
 62
7
  6
CONTINUOUS
 10
132.880827904
 20
184.5160653624
 11
133.0518534238
 21
184.6030538956
  0
LINE
  5
2D4
100
AcDbEntity
  8
0
100
AcDbLine
 62
7
  6
CONTINUOUS
 10
137.9123811826
 20
184.6920417066
 11
138.0206730276
 21
184.7456674845
  0
LINE
  5
2D5
100
AcDbEntity
  8
0
100
AcDbLine
 62
7
  6
CONTINUOUS
 10
138.0598563386
 20
183.3609533733
 11
137.9515644846
 21
183.3073275673
  0
LINE
  5
2D6
100
AcDbEntity
  8
0
100
AcDbLine
 62
7
  6
CONTINUOUS
 10
139.1572802703
 20
184.3285968542
 11
139.2664037457
 21
184.3805094234
  0
LINE
  5
2D7
100
AcDbEntity
  8
0
100
AcDbLine
 62
7
  6
CONTINUOUS
 10
139.0764478295
 20
183.9111341559
 11
138.8582008786
 21
183.8073090174
  0
LINE
  5
2D8
100
AcDbEntity
  8
0
100
AcDbLine
 62
7
  6
CONTINUOUS
 10
138.9269094042
 20
183.6504898682
 11
139.0360328796
 21
183.7024024374
  0
LINE
  5
2D9
100
AcDbEntity
  8
0
100
AcDbLine
 62
7
  6
CONTINUOUS
 10
139.2566582981
 20
182.9155724735
 11
139.1475348226
 21
182.8636599043
  0
LINE
  5
2DA
100
AcDbEntity
  8
0
100
AcDbLine
 62
7
  6
CONTINUOUS
 10
139.3068186956
 20
184.5892411418
 11
139.1294641459
 21
184.5160161229
  0
LINE
  5
2DB
100
AcDbEntity
  8
0
100
AcDbLine
 62
7
  6
CONTINUOUS
 10
139.1071186129
 20
182.6549285865
 11
139.2844744177
 21
182.7281531907
  0
LINE
  5
2DC
100
AcDbEntity
  8
0
100
AcDbLine
 62
7
  6
CONTINUOUS
 10
87.7038272908
 20
184.5899740132
 11
87.6479029076
 21
184.4377589155
  0
LINE
  5
2DD
100
AcDbEntity
  8
0
100
AcDbLine
 62
7
  6
CONTINUOUS
 10
88.8323973713
 20
184.8017445565
 11
88.7731519648
 21
184.6507909774
  0
LINE
  5
2DE
100
AcDbEntity
  8
0
100
AcDbLine
 62
7
  6
CONTINUOUS
 10
95.5826113928
 20
185.935488123
 11
95.949013245
 21
186.861120854
  0
LINE
  5
2DF
100
AcDbEntity
  8
0
100
AcDbLine
 62
7
  6
CONTINUOUS
 10
95.6555061129
 20
186.799046543
 11
95.2176822831
 21
185.7278252149
  0
LINE
  5
2E0
100
AcDbEntity
  8
0
100
AcDbLine
 62
7
  6
CONTINUOUS
 10
90.0328185719
 20
185.2865318272
 11
89.970511885
 21
185.1368160272
  0
LINE
  5
2E1
100
AcDbEntity
  8
0
100
AcDbLine
 62
7
  6
CONTINUOUS
 10
90.2143594642
 20
185.0056422373
 11
90.2766661511
 21
185.1553580373
  0
LINE
  5
2E2
100
AcDbEntity
  8
0
100
AcDbLine
 62
7
  6
CONTINUOUS
 10
91.2919497767
 20
184.1118563961
 11
91.2296430899
 21
183.9621405961
  0
LINE
  5
2E3
100
AcDbEntity
  8
0
100
AcDbLine
 62
7
  6
CONTINUOUS
 10
91.4734904023
 20
183.8309666976
 11
91.5357973619
 21
183.9806825847
  0
LINE
  5
2E4
100
AcDbEntity
  8
0
100
AcDbLine
 62
7
  6
CONTINUOUS
 10
93.3618246574
 20
186.0893779897
 11
93.2936549006
 21
185.9422389892
  0
LINE
  5
2E5
100
AcDbEntity
  8
0
100
AcDbLine
 62
7
  6
CONTINUOUS
 10
93.3520200018
 20
185.6936804101
 11
93.4201897586
 21
185.8408194107
  0
LINE
  5
2E6
100
AcDbEntity
  8
0
100
AcDbLine
 62
7
  6
CONTINUOUS
 10
95.2969262261
 20
185.3531345891
 11
95.4754795368
 21
185.7171055079
  0
LINE
  5
2E7
100
AcDbEntity
  8
0
100
AcDbLine
 62
7
  6
CONTINUOUS
 10
128.9316977106
 20
187.2715069153
 11
128.7849967385
 21
187.1293277468
  0
LINE
  5
2E8
100
AcDbEntity
  8
0
100
AcDbLine
 62
7
  6
CONTINUOUS
 10
129.2391107892
 20
185.446706479
 11
129.3858117643
 21
185.5888856619
  0
LINE
  5
2E9
100
AcDbEntity
  8
0
100
AcDbLine
 62
7
  6
CONTINUOUS
 10
132.8402411532
 20
186.3518082633
 11
132.7251912141
 21
186.2506151033
  0
LINE
  5
2EA
100
AcDbEntity
  8
0
100
AcDbLine
 62
7
  6
CONTINUOUS
 10
133.0518534238
 20
184.6030538956
 11
133.1669033665
 21
184.70424707
  0
LINE
  5
2EB
100
AcDbEntity
  8
0
100
AcDbLine
 62
7
  6
CONTINUOUS
 10
135.277152857
 20
185.7478565189
 11
135.1197151893
 21
185.6176662345
  0
LINE
  5
2EC
100
AcDbEntity
  8
0
100
AcDbLine
 62
7
  6
CONTINUOUS
 10
137.934940428
 20
184.9503375283
 11
137.7733231647
 21
184.8253735754
  0
LINE
  5
2ED
100
AcDbEntity
  8
0
100
AcDbLine
 62
7
  6
CONTINUOUS
 10
138.0372977086
 20
183.1026573068
 11
138.1989143475
 21
183.2276214764
  0
LINE
  5
2EE
100
AcDbEntity
  8
0
100
AcDbLine
 62
7
  6
CONTINUOUS
 10
138.8451258532
 20
183.589289204
 11
138.9269094042
 21
183.6504898682
  0
LINE
  5
2EF
100
AcDbEntity
  8
0
100
AcDbLine
 62
7
  6
CONTINUOUS
 10
135.7254328786
 20
185.0059421692
 11
134.6581726316
 21
184.2161064858
  0
LINE
  5
2F0
100
AcDbEntity
  8
0
100
AcDbLine
 62
7
  6
CONTINUOUS
 10
134.8802415172
 20
184.1524958869
 11
135.8294236723
 21
184.8446888115
  0
LINE
  5
2F1
100
AcDbEntity
  8
0
100
AcDbLine
 62
7
  6
CONTINUOUS
 10
89.970511885
 20
185.1368160272
 11
89.9252386167
 21
184.9255851606
  0
LINE
  5
2F2
100
AcDbEntity
  8
0
100
AcDbLine
 62
7
  6
CONTINUOUS
 10
90.1690859202
 20
184.7944112944
 11
90.2143594642
 21
185.0056422373
  0
LINE
  5
2F3
100
AcDbEntity
  8
0
100
AcDbLine
 62
7
  6
CONTINUOUS
 10
91.3372230331
 20
184.3230873058
 11
91.2919497767
 21
184.1118563961
  0
LINE
  5
2F4
100
AcDbEntity
  8
0
100
AcDbLine
 62
7
  6
CONTINUOUS
 10
91.5357973619
 20
183.9806825847
 11
91.5810709
 21
184.1919135492
  0
LINE
  5
2F5
100
AcDbEntity
  8
0
100
AcDbLine
 62
7
  6
CONTINUOUS
 10
87.9446557487
 20
184.3323741821
 11
88.0089245115
 21
184.6214371136
  0
LINE
  5
2F6
100
AcDbEntity
  8
0
100
AcDbLine
 62
7
  6
CONTINUOUS
 10
88.8828470062
 20
184.2838581968
 11
88.9534323348
 21
184.5714439468
  0
LINE
  5
2F7
100
AcDbEntity
  8
0
100
AcDbLine
 62
7
  6
CONTINUOUS
 10
131.8728213602
 20
184.8980518973
 11
131.9960051401
 21
185.0420153663
  0
LINE
  5
2F8
100
AcDbEntity
  8
0
100
AcDbLine
 62
7
  6
CONTINUOUS
 10
134.7337541401
 20
186.0293977966
 11
134.48868514
 21
185.7908208231
  0
LINE
  5
2F9
100
AcDbEntity
  8
0
100
AcDbLine
 62
7
  6
CONTINUOUS
 10
134.39955685
 20
185.4657984527
 11
134.6446258813
 21
185.70437554
  0
LINE
  5
2FA
100
AcDbEntity
  8
0
100
AcDbLine
 62
7
  6
CONTINUOUS
 10
139.1294641459
 20
184.5160161229
 11
138.9932382201
 21
184.3843262744
  0
LINE
  5
2FB
100
AcDbEntity
  8
0
100
AcDbLine
 62
7
  6
CONTINUOUS
 10
139.2844744177
 20
182.7281531907
 11
139.4207003482
 21
182.8598430532
  0
LINE
  5
2FC
100
AcDbEntity
  8
0
100
AcDbLine
 62
7
  6
CONTINUOUS
 10
140.7684811239
 20
184.1259678917
 11
140.506051855
 21
183.9066310139
  0
LINE
  5
2FD
100
AcDbEntity
  8
0
100
AcDbLine
 62
7
  6
CONTINUOUS
 10
140.392570507
 20
183.5892899087
 11
140.6549998156
 21
183.8086268977
  0
LINE
  5
2FE
100
AcDbEntity
  8
0
100
AcDbLine
 62
7
  6
CONTINUOUS
 10
132.7251912141
 20
186.2506151033
 11
132.62776698
 21
186.1014862252
  0
LINE
  5
2FF
100
AcDbEntity
  8
0
100
AcDbLine
 62
7
  6
CONTINUOUS
 10
135.8273528484
 20
185.1520352397
 11
135.7254328786
 21
185.0059421692
  0
LINE
  5
300
100
AcDbEntity
  8
0
100
AcDbLine
 62
7
  6
CONTINUOUS
 10
129.3145022656
 20
185.8182842506
 11
129.2327750308
 21
185.7059082357
  0
LINE
  5
301
100
AcDbEntity
  8
0
100
AcDbLine
 62
7
  6
CONTINUOUS
 10
131.9127983061
 20
185.1916466073
 11
131.8274341509
 21
185.0820076672
  0
LINE
  5
302
100
AcDbEntity
  8
0
100
AcDbLine
 62
7
  6
CONTINUOUS
 10
132.7086321753
 20
185.9505765565
 11
132.8827565046
 21
186.1671676287
  0
LINE
  5
303
100
AcDbEntity
  8
0
100
AcDbLine
 62
7
  6
CONTINUOUS
 10
133.1834623835
 20
185.0042855309
 11
133.009338076
 21
184.7876945446
  0
LINE
  5
304
100
AcDbEntity
  8
0
100
AcDbLine
 62
7
  6
CONTINUOUS
 10
135.1843470425
 20
185.4238651693
 11
135.2746662855
 21
185.5294593212
  0
LINE
  5
305
100
AcDbEntity
  8
0
100
AcDbLine
 62
7
  6
CONTINUOUS
 10
135.8294236723
 20
184.8446888115
 11
135.9197429152
 21
184.9502829634
  0
LINE
  5
306
100
AcDbEntity
  8
0
100
AcDbLine
 62
7
  6
CONTINUOUS
 10
138.1535862301
 20
183.4635324858
 11
138.0598563386
 21
183.3609533733
  0
LINE
  5
307
100
AcDbEntity
  8
0
100
AcDbLine
 62
7
  6
CONTINUOUS
 10
139.0619454941
 20
184.2275075503
 11
139.1572802703
 21
184.3285968542
  0
LINE
  5
308
100
AcDbEntity
  8
0
100
AcDbLine
 62
7
  6
CONTINUOUS
 10
139.3519930837
 20
183.0166618053
 11
139.2566582981
 21
182.9155724735
  0
LINE
  5
309
100
AcDbEntity
  8
0
100
AcDbLine
 62
7
  6
CONTINUOUS
 10
79.8322492162
 20
117.831504156
 11
100.3044642047
 21
138.3037191444
  0
LINE
  5
30A
100
AcDbEntity
  8
0
100
AcDbLine
 62
7
  6
CONTINUOUS
 10
169.1430893456
 20
166.5947538016
 11
168.9857942965
 21
166.5111525955
  0
LINE
  5
30B
100
AcDbEntity
  8
0
100
AcDbLine
 62
7
  6
CONTINUOUS
 10
173.8292979062
 20
161.5276752304
 11
173.6663273536
 21
161.4557618046
  0
LINE
  5
30C
100
AcDbEntity
  8
0
100
AcDbLine
 62
7
  6
CONTINUOUS
 10
173.1031461535
 20
162.4937653489
 11
172.0800732049
 21
162.0427218662
  0
LINE
  5
30D
100
AcDbEntity
  8
0
100
AcDbLine
 62
7
  6
CONTINUOUS
 10
172.0783916742
 20
161.9218913229
 11
173.1014645371
 21
162.3729347245
  0
LINE
  5
30E
100
AcDbEntity
  8
0
100
AcDbLine
 62
7
  6
CONTINUOUS
 10
167.9691565991
 20
166.0706218791
 11
167.8415298843
 21
166.0156752566
  0
LINE
  5
30F
100
AcDbEntity
  8
0
100
AcDbLine
 62
7
  6
CONTINUOUS
 10
169.0835293093
 20
166.36202779
 11
169.2120436053
 21
166.4148654204
  0
LINE
  5
310
100
AcDbEntity
  8
0
100
AcDbLine
 62
7
  6
CONTINUOUS
 10
168.9698066024
 20
165.1415648376
 11
168.841292387
 21
165.0887272933
  0
LINE
  5
311
100
AcDbEntity
  8
0
100
AcDbLine
 62
7
  6
CONTINUOUS
 10
174.2864714227
 20
161.2126680739
 11
173.9898901363
 21
161.1015729088
  0
LINE
  5
312
100
AcDbEntity
  8
0
100
AcDbLine
 62
7
  6
CONTINUOUS
 10
174.0863531223
 20
160.994153314
 11
174.3829344087
 21
161.1052484791
  0
LINE
  5
313
100
AcDbEntity
  8
0
100
AcDbLine
 62
7
  6
CONTINUOUS
 10
174.5179829424
 20
160.9548606531
 11
174.221401656
 21
160.843765488
  0
LINE
  5
314
100
AcDbEntity
  8
0
100
AcDbLine
 62
7
  6
CONTINUOUS
 10
174.317864642
 20
160.7363458932
 11
174.6144459284
 21
160.8474410583
  0
LINE
  5
315
100
AcDbEntity
  8
0
100
AcDbLine
 62
7
  6
CONTINUOUS
 10
173.4209829012
 20
162.0939144322
 11
173.5530064464
 21
162.1372442611
  0
LINE
  5
316
100
AcDbEntity
  8
0
100
AcDbLine
 62
7
  6
CONTINUOUS
 10
173.6714480191
 20
161.2639527846
 11
173.8034715643
 21
161.3072826136
  0
LINE
  5
317
100
AcDbEntity
  8
0
100
AcDbLine
 62
7
  6
CONTINUOUS
 10
100.3044472949
 20
72.6729599145
 11
79.8322323065
 21
93.145174903
  0
LINE
  5
318
100
AcDbEntity
  8
0
100
AcDbLine
 62
7
  6
CONTINUOUS
 10
87.6925539265
 20
184.787562154
 11
87.7038272908
 21
184.5899740132
  0
LINE
  5
319
100
AcDbEntity
  8
0
100
AcDbLine
 62
7
  6
CONTINUOUS
 10
88.0089245115
 20
184.6214371136
 11
87.9976511472
 21
184.8190252544
  0
LINE
  5
31A
100
AcDbEntity
  8
0
100
AcDbLine
 62
7
  6
CONTINUOUS
 10
89.9252386167
 20
184.9255851606
 11
89.9281519725
 21
184.7276970892
  0
LINE
  5
31B
100
AcDbEntity
  8
0
100
AcDbLine
 62
7
  6
CONTINUOUS
 10
91.8056480008
 20
98.258164237
 11
91.8056480008
 21
99.1066923744
  0
LINE
  5
31C
100
AcDbEntity
  8
0
100
AcDbLine
 62
7
  6
CONTINUOUS
 10
91.8056480008
 20
111.8699697748
 11
91.8056480008
 21
112.7184979122
  0
LINE
  5
31D
100
AcDbEntity
  8
RUNDUNGEN
100
AcDbLine
 62
7
  6
CONTINUOUS
 10
71.6625297383
 20
30.0000717368
 11
69.9553904683
 21
21.9686129262
  0
LINE
  5
31E
100
AcDbEntity
  8
RUNDUNGEN
100
AcDbLine
 62
7
  6
CONTINUOUS
 10
117.434923806
 20
199.164643662
 11
114.8976203763
 21
191.3556266676
  0
LINE
  5
31F
100
AcDbEntity
  8
0
100
AcDbLine
 62
7
  6
CONTINUOUS
 10
128.8846045114
 20
186.8941874739
 11
128.9380334779
 21
187.012305202
  0
LINE
  5
320
100
AcDbEntity
  8
0
100
AcDbLine
 62
7
  6
CONTINUOUS
 10
131.9700670752
 20
185.3079509531
 11
131.9127983061
 21
185.1916466073
  0
LINE
  5
321
100
AcDbEntity
  8
0
100
AcDbLine
 62
7
  6
CONTINUOUS
 10
132.62776698
 20
186.1014862252
 11
132.5686929101
 21
185.9860882318
  0
LINE
  5
322
100
AcDbEntity
  8
0
100
AcDbLine
 62
7
  6
CONTINUOUS
 10
133.2643272875
 20
184.853376058
 11
133.3234016487
 21
184.9687738556
  0
LINE
  5
323
100
AcDbEntity
  8
0
100
AcDbLine
 62
7
  6
CONTINUOUS
 10
131.9960051401
 20
185.0420153663
 11
132.1008184361
 21
185.233634109
  0
LINE
  5
324
100
AcDbEntity
  8
0
100
AcDbLine
 62
7
  6
CONTINUOUS
 10
129.3858117643
 20
185.5888856619
 11
129.4759158347
 21
185.74254812
  0
LINE
  5
325
100
AcDbEntity
  8
0
100
AcDbLine
 62
7
  6
CONTINUOUS
 10
137.8461347827
 20
184.5806061818
 11
137.9123811826
 21
184.6920417066
  0
LINE
  5
326
100
AcDbEntity
  8
0
100
AcDbLine
 62
7
  6
CONTINUOUS
 10
138.9939518561
 20
184.1171296146
 11
139.0619454941
 21
184.2275075503
  0
LINE
  5
327
100
AcDbEntity
  8
0
100
AcDbLine
 62
7
  6
CONTINUOUS
 10
138.7771322342
 20
183.4789113241
 11
138.8451258532
 21
183.589289204
  0
LINE
  5
328
100
AcDbEntity
  8
0
100
AcDbLine
 62
7
  6
CONTINUOUS
 10
139.4199866838
 20
183.1270396293
 11
139.3519930837
 21
183.0166618053
  0
LINE
  5
329
100
AcDbEntity
  8
0
100
AcDbLine
 62
7
  6
CONTINUOUS
 10
133.1669033665
 20
184.70424707
 11
133.2643272875
 21
184.853376058
  0
LINE
  5
32A
100
AcDbEntity
  8
0
100
AcDbLine
 62
7
  6
CONTINUOUS
 10
138.9932382201
 20
184.3843262744
 11
138.8708009556
 21
184.2034595795
  0
LINE
  5
32B
100
AcDbEntity
  8
0
100
AcDbLine
 62
7
  6
CONTINUOUS
 10
139.4207003482
 20
182.8598430532
 11
139.5431375842
 21
183.0407096644
  0
LINE
  5
32C
100
AcDbEntity
  8
0
100
AcDbLine
 62
7
  6
CONTINUOUS
 10
138.1989143475
 20
183.2276214764
 11
138.3055651934
 21
183.3702978544
  0
LINE
  5
32D
100
AcDbEntity
  8
RUNDUNGEN
100
AcDbLine
 62
7
  6
CONTINUOUS
 10
39.4093610385
 20
60.6061261196
 11
33.9152056576
 21
54.5042483952
  0
LINE
  5
32E
100
AcDbEntity
  8
0
100
AcDbLine
 62
7
  6
CONTINUOUS
 10
91.8056480008
 20
112.7184979122
 11
105.4174535386
 21
126.3303034501
  0
LINE
  5
32F
100
AcDbEntity
  8
0
100
AcDbLine
 62
7
  6
CONTINUOUS
 10
86.3899351269
 20
106.4542569009
 11
91.8056480008
 21
111.8699697748
  0
LINE
  5
330
100
AcDbEntity
  8
0
100
AcDbLine
 62
7
  6
CONTINUOUS
 10
106.2659816761
 20
126.3303034501
 11
111.68169455
 21
131.746016324
  0
LINE
  5
331
100
AcDbEntity
  8
RUNDUNGEN
100
AcDbLine
 62
7
  6
CONTINUOUS
 10
163.6317030557
 20
184.2207457933
 11
157.5298253313
 21
178.7265904124
  0
LINE
  5
332
100
AcDbEntity
  8
0
100
AcDbLine
 62
7
  6
CONTINUOUS
 10
168.1483983131
 20
167.2152843306
 11
168.2546171926
 21
167.2896079351
  0
LINE
  5
333
100
AcDbEntity
  8
0
100
AcDbLine
 62
7
  6
CONTINUOUS
 10
167.9134369952
 20
165.8369467138
 11
168.0693340149
 21
165.923126838
  0
LINE
  5
334
100
AcDbEntity
  8
0
100
AcDbLine
 62
7
  6
CONTINUOUS
 10
168.9102466265
 20
164.9088388906
 11
169.0675416355
 21
164.9924401747
  0
LINE
  5
335
100
AcDbEntity
  8
RUNDUNGEN
100
AcDbLine
 62
7
  6
CONTINUOUS
 10
26.7803247833
 20
103.2383310746
 11
18.9713077889
 21
100.7010276449
  0
LINE
  5
336
100
AcDbEntity
  8
RUNDUNGEN
100
AcDbLine
 62
7
  6
CONTINUOUS
 10
29.1279022279
 20
62.7961011667
 11
37.1593610385
 21
64.5032404366
  0
LINE
  5
337
100
AcDbEntity
  8
0
100
AcDbLine
 62
7
  6
CONTINUOUS
 10
119.8777872139
 20
84.6463586991
 11
119.0292590765
 21
84.6463586991
  0
LINE
  5
338
100
AcDbEntity
  8
0
100
AcDbLine
 62
7
  6
CONTINUOUS
 10
106.2659816761
 20
84.6463586991
 11
105.4174535386
 21
84.6463586991
  0
LINE
  5
339
100
AcDbEntity
  8
RUNDUNGEN
100
AcDbLine
 62
7
  6
CONTINUOUS
 10
188.1358797141
 20
64.5032404366
 11
196.1673385246
 21
62.7961011667
  0
LINE
  5
33A
100
AcDbEntity
  8
RUNDUNGEN
100
AcDbLine
 62
7
  6
CONTINUOUS
 10
18.9713077889
 20
110.2756345043
 11
26.7803247833
 21
107.7383310746
  0
LINE
  5
33B
100
AcDbEntity
  8
RUNDUNGEN
100
AcDbLine
 62
7
  6
CONTINUOUS
 10
157.5298253313
 20
32.2500717368
 11
163.6317030557
 21
26.7559163559
  0
LINE
  5
33C
100
AcDbEntity
  8
0
100
AcDbLine
 62
7
  6
CONTINUOUS
 10
105.4174535386
 20
84.6463586991
 11
91.8056480008
 21
98.258164237
  0
LINE
  5
33D
100
AcDbEntity
  8
0
100
AcDbLine
 62
7
  6
CONTINUOUS
 10
111.68169455
 20
79.2306458252
 11
106.2659816761
 21
84.6463586991
  0
LINE
  5
33E
100
AcDbEntity
  8
0
100
AcDbLine
 62
7
  6
CONTINUOUS
 10
91.8056480008
 20
99.1066923744
 11
86.3899351269
 21
104.5224052483
  0
LINE
  5
33F
100
AcDbEntity
  8
RUNDUNGEN
100
AcDbLine
 62
7
  6
CONTINUOUS
 10
33.9152056576
 20
156.472413754
 11
39.4093610385
 21
150.3705360296
  0
LINE
  5
340
100
AcDbEntity
  8
RUNDUNGEN
100
AcDbLine
 62
7
  6
CONTINUOUS
 10
114.8976203763
 20
19.6210354816
 11
117.434923806
 21
11.8120184872
  0
LINE
  5
341
100
AcDbEntity
  8
RUNDUNGEN
100
AcDbLine
 62
7
  6
CONTINUOUS
 10
69.9553904683
 20
189.008049223
 11
71.6625297383
 21
180.9765904124
  0
LINE
  5
342
100
AcDbEntity
  8
0
100
AcDbLine
 62
7
  6
CONTINUOUS
 10
89.9281519725
 20
184.7276970892
 11
89.9480987469
 21
184.4682939512
  0
LINE
  5
343
100
AcDbEntity
  8
0
100
AcDbLine
 62
7
  6
CONTINUOUS
 10
90.1890329703
 20
184.5350082327
 11
90.1690859202
 21
184.7944112944
  0
LINE
  5
344
100
AcDbEntity
  8
0
100
AcDbLine
 62
7
  6
CONTINUOUS
 10
91.3172765345
 20
184.5824905201
 11
91.3372230331
 21
184.3230873058
  0
LINE
  5
345
100
AcDbEntity
  8
0
100
AcDbLine
 62
7
  6
CONTINUOUS
 10
91.5810709
 20
184.1919135492
 11
91.5582102064
 21
184.6492046489
  0
LINE
  5
346
100
AcDbEntity
  8
RUNDUNGEN
100
AcDbLine
 62
7
  6
CONTINUOUS
 10
102.6476203763
 20
67.051462768
 11
102.6476203763
 21
49.0814060136
  0
LINE
  5
347
100
AcDbEntity
  8
RUNDUNGEN
100
AcDbLine
 62
7
  6
CONTINUOUS
 10
102.6476203763
 20
143.9251993584
 11
102.6476203763
 21
161.8952561357
  0
LINE
  5
348
100
AcDbEntity
  8
RUNDUNGEN
100
AcDbLine
 62
7
  6
CONTINUOUS
 10
103.6476203763
 20
198.8556266676
 11
103.6476203763
 21
192.5682628624
  0
LINE
  5
349
100
AcDbEntity
  8
RUNDUNGEN
100
AcDbLine
 62
7
  6
CONTINUOUS
 10
103.6476203763
 20
12.1210354816
 11
103.6476203763
 21
18.4083145365
  0
LWPOLYLINE
  5
34A
100
AcDbEntity
  8
RUNDUNGEN
100
AcDbPolyline
 62
7
  6
CONTINUOUS
 90
9
 70
0
 10
102.6476134931
 20
143.9505897004
 10
102.6024420362
 20
143.1115824066
 10
102.4695171585
 20
142.2819166941
 10
102.2502978855
 20
141.4707466981
 10
101.9471954568
 20
140.6870232081
 10
101.5635468934
 20
139.9393953538
 10
101.1035785831
 20
139.2361155681
 10
100.5723597044
 20
138.5849480091
 10
100.3044747388
 20
138.303730017
  0
LINE
  5
34B
100
AcDbEntity
  8
0
100
AcDbLine
 62
7
  6
CONTINUOUS
 10
132.6184718826
 20
185.7126784799
 11
132.7086321753
 21
185.9505765565
  0
LINE
  5
34C
100
AcDbEntity
  8
0
100
AcDbLine
 62
7
  6
CONTINUOUS
 10
133.2736223705
 20
185.2421837461
 11
133.1834623835
 21
185.0042855309
  0
LINE
  5
34D
100
AcDbEntity
  8
0
100
AcDbLine
 62
7
  6
CONTINUOUS
 10
128.7849967385
 20
187.1293277468
 11
128.7231910468
 21
186.9699237038
  0
LINE
  5
34E
100
AcDbEntity
  8
0
100
AcDbLine
 62
7
  6
CONTINUOUS
 10
132.5686929101
 20
185.9860882318
 11
132.4888943811
 21
185.7890236357
  0
LINE
  5
34F
100
AcDbEntity
  8
0
100
AcDbLine
 62
7
  6
CONTINUOUS
 10
133.3234016487
 20
184.9687738556
 11
133.4032001923
 21
185.165838509
  0
LINE
  5
350
100
AcDbEntity
  8
0
100
AcDbLine
 62
7
  6
CONTINUOUS
 10
138.8708009556
 20
184.2034595795
 11
138.7486024548
 21
183.9335271968
  0
LINE
  5
351
100
AcDbEntity
  8
0
100
AcDbLine
 62
7
  6
CONTINUOUS
 10
138.8853033289
 20
183.8870862967
 11
138.9939518561
 21
184.1171296146
  0
LINE
  5
352
100
AcDbEntity
  8
0
100
AcDbLine
 62
7
  6
CONTINUOUS
 10
135.1197151893
 20
185.6176662345
 11
135.0455540685
 21
185.4636217709
  0
LINE
  5
353
100
AcDbEntity
  8
0
100
AcDbLine
 62
7
  6
CONTINUOUS
 10
135.9197429152
 20
184.9502829634
 11
135.9939046714
 21
185.104327245
  0
LINE
  5
354
100
AcDbEntity
  8
0
100
AcDbLine
 62
7
  6
CONTINUOUS
 10
137.7733231647
 20
184.8253735754
 11
137.6941558556
 21
184.6738409256
  0
LINE
  5
355
100
AcDbEntity
  8
RUNDUNGEN
100
AcDbLine
 62
7
  6
CONTINUOUS
 10
151.5370395387
 20
190.8467809408
 11
148.3934333128
 21
185.4018952385
  0
LINE
  5
356
100
AcDbEntity
  8
RUNDUNGEN
100
AcDbLine
 62
7
  6
CONTINUOUS
 10
58.1697439457
 20
29.1298812084
 11
61.3133825626
 21
34.5748230135
  0
LINE
  5
357
100
AcDbEntity
  8
0
100
AcDbLine
 62
7
  6
CONTINUOUS
 10
168.9857942965
 20
166.5111525955
 11
168.8208044013
 21
166.3770607233
  0
LINE
  5
358
100
AcDbEntity
  8
0
100
AcDbLine
 62
7
  6
CONTINUOUS
 10
169.0675416355
 20
164.9924401747
 11
169.2325315103
 21
165.1265319043
  0
LINE
  5
359
100
AcDbEntity
  8
0
100
AcDbLine
 62
7
  6
CONTINUOUS
 10
168.1827100696
 20
167.4683364491
 11
168.0482209765
 21
167.3627794592
  0
LINE
  5
35A
100
AcDbEntity
  8
0
100
AcDbLine
 62
7
  6
CONTINUOUS
 10
168.9473202078
 20
166.2586997786
 11
169.0835293093
 21
166.36202779
  0
LINE
  5
35B
100
AcDbEntity
  8
0
100
AcDbLine
 62
7
  6
CONTINUOUS
 10
169.1060157039
 20
165.2448928489
 11
168.9698066024
 21
165.1415648376
  0
LINE
  5
35C
100
AcDbEntity
  8
0
100
AcDbLine
 62
7
  6
CONTINUOUS
 10
173.466400953
 20
162.2930960827
 11
173.3230225585
 21
162.1999712052
  0
LINE
  5
35D
100
AcDbEntity
  8
0
100
AcDbLine
 62
7
  6
CONTINUOUS
 10
173.8034715643
 20
161.3072826136
 11
173.9468499587
 21
161.4004074911
  0
LINE
  5
35E
100
AcDbEntity
  8
RUNDUNGEN
100
AcDbLine
 62
7
  6
CONTINUOUS
 10
189.0060702425
 20
159.9662075052
 11
183.5611867187
 21
156.822602537
  0
LINE
  5
35F
100
AcDbEntity
  8
RUNDUNGEN
100
AcDbLine
 62
7
  6
CONTINUOUS
 10
27.2891705101
 20
66.5989119122
 11
32.7341145368
 21
69.7425518117
  0
LINE
  5
360
100
AcDbEntity
  8
RUNDUNGEN
100
AcDbLine
 62
7
  6
CONTINUOUS
 10
74.2107520925
 20
95.4883310746
 11
56.2406953152
 21
95.4883310746
  0
LINE
  5
361
100
AcDbEntity
  8
RUNDUNGEN
100
AcDbLine
 62
7
  6
CONTINUOUS
 10
151.0844886829
 20
95.4883310746
 11
169.0545454373
 21
95.4883310746
  0
LINE
  5
362
100
AcDbEntity
  8
RUNDUNGEN
100
AcDbLine
 62
7
  6
CONTINUOUS
 10
19.2803247833
 20
96.4883310746
 11
25.5675505474
 21
96.4883310746
  0
LINE
  5
363
100
AcDbEntity
  8
RUNDUNGEN
100
AcDbLine
 62
7
  6
CONTINUOUS
 10
199.7276367353
 20
96.4883310746
 11
206.0149159693
 21
96.4883310746
  0
LWPOLYLINE
  5
364
100
AcDbEntity
  8
RUNDUNGEN
100
AcDbPolyline
 62
7
  6
CONTINUOUS
 90
9
 70
0
 10
74.1853617505
 20
95.4883241914
 10
75.0243690443
 20
95.4431527346
 10
75.8540347568
 20
95.3102278569
 10
76.6652047528
 20
95.0910085839
 10
77.4489282428
 20
94.7879061551
 10
78.1965560971
 20
94.4042575917
 10
78.8998358828
 20
93.9442892815
 10
79.5510034418
 20
93.4130704027
 10
79.8322214339
 20
93.1451854371
  0
LINE
  5
365
100
AcDbEntity
  8
RUNDUNGEN
100
AcDbLine
 62
7
  6
CONTINUOUS
 10
27.2891705101
 20
144.3777502371
 11
32.7340697505
 21
141.2341361949
  0
LINE
  5
366
100
AcDbEntity
  8
RUNDUNGEN
100
AcDbLine
 62
7
  6
CONTINUOUS
 10
183.5611279896
 20
54.1540935195
 11
189.0060702425
 21
51.0104546441
  0
LINE
  5
367
100
AcDbEntity
  8
RUNDUNGEN
100
AcDbLine
 62
7
  6
CONTINUOUS
 10
58.1697439457
 20
181.8467809408
 11
61.3133559878
 21
176.4018851647
  0
LINE
  5
368
100
AcDbEntity
  8
RUNDUNGEN
100
AcDbLine
 62
7
  6
CONTINUOUS
 10
148.3933993593
 20
25.5748257199
 11
151.5370395387
 21
20.1298812084
  0
LINE
  5
369
100
AcDbEntity
  8
RUNDUNGEN
100
AcDbLine
 62
7
  6
CONTINUOUS
 10
110.3976203763
 20
19.6210354816
 11
110.3976203763
 21
20.6210176245
  0
LINE
  5
36A
100
AcDbEntity
  8
RUNDUNGEN
100
AcDbLine
 62
7
  6
CONTINUOUS
 10
110.3976203763
 20
190.355616162
 11
110.3976203763
 21
191.3556266676
  0
LINE
  5
36B
100
AcDbEntity
  8
02___PRT_ALL_AXES
100
AcDbLine
 62
7
  6
CENTER
 10
112.6476203763
 20
105.4883310746
 11
112.6476203763
 21
5.0
  0
LINE
  5
36C
100
AcDbEntity
  8
02___PRT_ALL_AXES
100
AcDbLine
 62
7
  6
CENTER
 10
112.6476203763
 20
105.4883310746
 11
112.6476203763
 21
205.9766621492
  0
LINE
  5
36D
100
AcDbEntity
  8
0
100
AcDbLine
 62
7
  6
CONTINUOUS
 10
127.451156606
 20
187.6819207791
 11
127.0880737873
 21
185.7354956286
  0
LINE
  5
36E
100
AcDbEntity
  8
0
100
AcDbLine
 62
7
  6
CONTINUOUS
 10
127.304736986
 20
185.9522056878
 11
127.6214688067
 21
187.6501510325
  0
LINE
  5
36F
100
AcDbEntity
  8
0
100
AcDbLine
 62
7
  6
CONTINUOUS
 10
128.1099469913
 20
185.5448771487
 11
128.1562979893
 21
185.7933569546
  0
LINE
  5
370
100
AcDbEntity
  8
0
100
AcDbLine
 62
7
  6
CONTINUOUS
 10
128.7231910468
 20
186.9699237038
 11
128.6896837044
 21
186.8047779311
  0
LINE
  5
371
100
AcDbEntity
  8
0
100
AcDbLine
 62
7
  6
CONTINUOUS
 10
128.867850852
 20
186.8116146454
 11
128.8846045114
 21
186.8941874739
  0
LINE
  5
372
100
AcDbEntity
  8
0
100
AcDbLine
 62
7
  6
CONTINUOUS
 10
129.3396327548
 20
185.9421434933
 11
129.3145022656
 21
185.8182842506
  0
LINE
  5
373
100
AcDbEntity
  8
0
100
AcDbLine
 62
7
  6
CONTINUOUS
 10
129.4759158347
 20
185.74254812
 11
129.5177999834
 21
185.9489801912
  0
LINE
  5
374
100
AcDbEntity
  8
0
100
AcDbLine
 62
7
  6
CONTINUOUS
 10
131.4200279385
 20
186.86724473
 11
131.1671890789
 21
185.8015071819
  0
LINE
  5
375
100
AcDbEntity
  8
0
100
AcDbLine
 62
7
  6
CONTINUOUS
 10
131.3562875412
 20
185.9731298217
 11
131.5118806961
 21
186.6289683571
  0
LINE
  5
376
100
AcDbEntity
  8
0
100
AcDbLine
 62
7
  6
CONTINUOUS
 10
131.9895162161
 20
185.3899307557
 11
131.9700670752
 21
185.3079509531
  0
LINE
  5
377
100
AcDbEntity
  8
0
100
AcDbLine
 62
7
  6
CONTINUOUS
 10
132.326640584
 20
186.4356722109
 11
132.3752634364
 21
186.6406217173
  0
LINE
  5
378
100
AcDbEntity
  8
0
100
AcDbLine
 62
7
  6
CONTINUOUS
 10
132.1008184361
 20
185.233634109
 11
132.1397167181
 21
185.3975937142
  0
LINE
  5
379
100
AcDbEntity
  8
0
100
AcDbLine
 62
7
  6
CONTINUOUS
 10
132.4888943811
 20
185.7890236357
 11
132.3956356254
 21
185.4215230425
  0
LINE
  5
37A
100
AcDbEntity
  8
0
100
AcDbLine
 62
7
  6
CONTINUOUS
 10
132.5459372948
 20
185.4268446851
 11
132.6184718826
 21
185.7126784799
  0
LINE
  5
37B
100
AcDbEntity
  8
0
100
AcDbLine
 62
7
  6
CONTINUOUS
 10
133.3461569582
 20
185.5280175408
 11
133.2736223705
 21
185.2421837461
  0
LINE
  5
37C
100
AcDbEntity
  8
0
100
AcDbLine
 62
7
  6
CONTINUOUS
 10
133.4032001923
 20
185.165838509
 11
133.4964589479
 21
185.5333391022
  0
LINE
  5
37D
100
AcDbEntity
  8
0
100
AcDbLine
 62
7
  6
CONTINUOUS
 10
133.6683220068
 20
185.2256774697
 11
133.6140338182
 21
185.0221552365
  0
LINE
  5
37E
100
AcDbEntity
  8
0
100
AcDbLine
 62
7
  6
CONTINUOUS
 10
134.0046266284
 20
184.9179672282
 11
134.0589148169
 21
185.1214894613
  0
LINE
  5
37F
100
AcDbEntity
  8
0
100
AcDbLine
 62
7
  6
CONTINUOUS
 10
134.48868514
 20
185.7908208231
 11
134.39955685
 21
185.4657984527
  0
LINE
  5
380
100
AcDbEntity
  8
0
100
AcDbLine
 62
7
  6
CONTINUOUS
 10
134.6446258813
 20
185.70437554
 11
134.2101255575
 21
184.1198918115
  0
LINE
  5
381
100
AcDbEntity
  8
0
100
AcDbLine
 62
7
  6
CONTINUOUS
 10
134.3772073312
 20
184.0740743105
 11
134.9008359138
 21
185.9835802957
  0
LINE
  5
382
100
AcDbEntity
  8
0
100
AcDbLine
 62
7
  6
CONTINUOUS
 10
134.6581726316
 20
184.2161064858
 11
134.6001689895
 21
184.013611864
  0
LINE
  5
383
100
AcDbEntity
  8
0
100
AcDbLine
 62
7
  6
CONTINUOUS
 10
135.8505543345
 20
185.2330331906
 11
135.8273528484
 21
185.1520352397
  0
LINE
  5
384
100
AcDbEntity
  8
0
100
AcDbLine
 62
7
  6
CONTINUOUS
 10
135.5994799274
 20
183.7273638959
 11
135.6574835696
 21
183.9298585177
  0
LINE
  5
385
100
AcDbEntity
  8
0
100
AcDbLine
 62
7
  6
CONTINUOUS
 10
135.9939046714
 20
185.104327245
 11
136.0171061575
 21
185.1853251959
  0
LINE
  5
386
100
AcDbEntity
  8
0
100
AcDbLine
 62
7
  6
CONTINUOUS
 10
137.6941558556
 20
184.6738409256
 11
137.6424720381
 21
184.5134518635
  0
LINE
  5
387
100
AcDbEntity
  8
0
100
AcDbLine
 62
7
  6
CONTINUOUS
 10
137.820292892
 20
184.500411707
 11
137.8461347827
 21
184.5806061818
  0
LINE
  5
388
100
AcDbEntity
  8
0
100
AcDbLine
 62
7
  6
CONTINUOUS
 10
138.1923490661
 20
183.5838241981
 11
138.1535862301
 21
183.4635324858
  0
LINE
  5
389
100
AcDbEntity
  8
0
100
AcDbLine
 62
7
  6
CONTINUOUS
 10
138.3055651934
 20
183.3702978544
 11
138.37016992
 21
183.5707840416
  0
LINE
  5
38A
100
AcDbEntity
  8
0
100
AcDbLine
 62
7
  6
CONTINUOUS
 10
138.7486024548
 20
183.9335271968
 11
138.6537438785
 21
183.6543067192
  0
LINE
  5
38B
100
AcDbEntity
  8
0
100
AcDbLine
 62
7
  6
CONTINUOUS
 10
138.8582008786
 20
183.8073090174
 11
138.8853033289
 21
183.8870862967
  0
LINE
  5
38C
100
AcDbEntity
  8
0
100
AcDbLine
 62
7
  6
CONTINUOUS
 10
138.7364785586
 20
183.3592454051
 11
138.7771322342
 21
183.4789113241
  0
LINE
  5
38D
100
AcDbEntity
  8
0
100
AcDbLine
 62
7
  6
CONTINUOUS
 10
139.4606403593
 20
183.2467055482
 11
139.4199866838
 21
183.1270396293
  0
LINE
  5
38E
100
AcDbEntity
  8
0
100
AcDbLine
 62
7
  6
CONTINUOUS
 10
139.5431375842
 20
183.0407096644
 11
139.6108937291
 21
183.2401529185
  0
LINE
  5
38F
100
AcDbEntity
  8
0
100
AcDbLine
 62
7
  6
CONTINUOUS
 10
139.6543479219
 20
182.6433618248
 11
139.5845822674
 21
182.4446126164
  0
LINE
  5
390
100
AcDbEntity
  8
0
100
AcDbLine
 62
7
  6
CONTINUOUS
 10
139.7208087002
 20
182.3967939291
 11
139.7905743547
 21
182.5955431375
  0
LINE
  5
391
100
AcDbEntity
  8
0
100
AcDbLine
 62
7
  6
CONTINUOUS
 10
140.506051855
 20
183.9066310139
 11
140.392570507
 21
183.5892899087
  0
LINE
  5
392
100
AcDbEntity
  8
0
100
AcDbLine
 62
7
  6
CONTINUOUS
 10
140.6549998156
 20
183.8086268977
 11
140.1017783585
 21
182.2615893296
  0
LINE
  5
393
100
AcDbEntity
  8
0
100
AcDbLine
 62
7
  6
CONTINUOUS
 10
140.2649114827
 20
182.2032528376
 11
140.931614248
 21
184.0676313997
  0
LINE
  5
394
100
AcDbEntity
  8
RUNDUNGEN
100
AcDbLine
 62
7
  6
CONTINUOUS
 10
67.7654154213
 20
32.2500717368
 11
68.2654098372
 21
33.1160874688
  0
LINE
  5
395
100
AcDbEntity
  8
RUNDUNGEN
100
AcDbLine
 62
7
  6
CONTINUOUS
 10
153.1327131071
 20
180.1105686336
 11
153.6327110143
 21
180.9765904124
  0
LINE
  5
396
100
AcDbEntity
  8
0
100
AcDbLine
 62
7
  6
CONTINUOUS
 10
168.0482209765
 20
167.3627794592
 11
167.9351397569
 21
167.2378454526
  0
LINE
  5
397
100
AcDbEntity
  8
0
100
AcDbLine
 62
7
  6
CONTINUOUS
 10
168.0918577429
 20
167.152817371
 11
168.1483983131
 21
167.2152843306
  0
LINE
  5
398
100
AcDbEntity
  8
0
100
AcDbLine
 62
7
  6
CONTINUOUS
 10
168.0539674544
 20
166.1643223184
 11
167.9691565991
 21
166.0706218791
  0
LINE
  5
399
100
AcDbEntity
  8
0
100
AcDbLine
 62
7
  6
CONTINUOUS
 10
168.0693340149
 20
165.923126838
 11
168.2106854403
 21
166.0792942368
  0
LINE
  5
39A
100
AcDbEntity
  8
0
100
AcDbLine
 62
7
  6
CONTINUOUS
 10
168.8208044013
 20
166.3770607233
 11
168.3890927603
 21
165.9156049061
  0
LINE
  5
39B
100
AcDbEntity
  8
0
100
AcDbLine
 62
7
  6
CONTINUOUS
 10
168.5156085668
 20
165.7972439615
 11
168.9473202078
 21
166.2586997786
  0
LINE
  5
39C
100
AcDbEntity
  8
0
100
AcDbLine
 62
7
  6
CONTINUOUS
 10
169.5377273449
 20
165.7063486661
 11
169.1060157039
 21
165.2448928489
  0
LINE
  5
39D
100
AcDbEntity
  8
0
100
AcDbLine
 62
7
  6
CONTINUOUS
 10
169.2325315103
 20
165.1265319043
 11
169.6642431513
 21
165.5879877214
  0
LINE
  5
39E
100
AcDbEntity
  8
0
100
AcDbLine
 62
7
  6
CONTINUOUS
 10
171.119090161
 20
164.70496042
 11
170.8817949767
 21
164.465639738
  0
LINE
  5
39F
100
AcDbEntity
  8
0
100
AcDbLine
 62
7
  6
CONTINUOUS
 10
171.212454033
 20
164.5530608177
 11
170.0556402483
 21
163.3863727339
  0
LINE
  5
3A0
100
AcDbEntity
  8
0
100
AcDbLine
 62
7
  6
CONTINUOUS
 10
170.178666008
 20
163.2643882064
 11
171.572774894
 21
164.6703968884
  0
LINE
  5
3A1
100
AcDbEntity
  8
0
100
AcDbLine
 62
7
  6
CONTINUOUS
 10
172.5280441259
 20
163.2798254435
 11
172.2850550191
 21
163.0462881074
  0
LINE
  5
3A2
100
AcDbEntity
  8
0
100
AcDbLine
 62
7
  6
CONTINUOUS
 10
172.6177232572
 20
163.1257217279
 11
171.4331516064
 21
161.9872274496
  0
LINE
  5
3A3
100
AcDbEntity
  8
0
100
AcDbLine
 62
7
  6
CONTINUOUS
 10
171.5532043655
 20
161.8623158908
 11
172.980765038
 21
163.2343474233
  0
LINE
  5
3A4
100
AcDbEntity
  8
0
100
AcDbLine
 62
7
  6
CONTINUOUS
 10
172.3440873663
 20
161.3350754801
 11
172.1893545494
 21
161.1921550486
  0
LINE
  5
3A5
100
AcDbEntity
  8
0
100
AcDbLine
 62
7
  6
CONTINUOUS
 10
173.891191111
 20
161.584843475
 11
173.8292979062
 21
161.5276752304
  0
LINE
  5
3A6
100
AcDbEntity
  8
0
100
AcDbLine
 62
7
  6
CONTINUOUS
 10
172.8946668641
 20
160.4285486129
 11
173.0493996811
 21
160.5714690444
  0
LINE
  5
3A7
100
AcDbEntity
  8
0
100
AcDbLine
 62
7
  6
CONTINUOUS
 10
173.9468499587
 20
161.4004074911
 11
174.0087431635
 21
161.4575757357
  0
LINE
  5
3A8
100
AcDbEntity
  8
RUNDUNGEN
100
AcDbLine
 62
7
  6
CONTINUOUS
 10
37.1593610385
 20
64.5032404366
 11
38.0253709847
 21
65.0032315122
  0
LINE
  5
3A9
100
AcDbEntity
  8
RUNDUNGEN
100
AcDbLine
 62
7
  6
CONTINUOUS
 10
185.0198579713
 20
149.8705381433
 11
185.8858797141
 21
150.3705360296
  0
LINE
  5
3AA
100
AcDbEntity
  8
RUNDUNGEN
100
AcDbLine
 62
7
  6
CONTINUOUS
 10
26.7803247833
 20
103.2383310746
 11
27.7803205768
 21
103.2383310746
  0
LINE
  5
3AB
100
AcDbEntity
  8
RUNDUNGEN
100
AcDbLine
 62
7
  6
CONTINUOUS
 10
197.5149338264
 20
103.2383310746
 11
198.5149159693
 21
103.2383310746
  0
LINE
  5
3AC
100
AcDbEntity
  8
02___PRT_ALL_AXES
100
AcDbLine
 62
7
  6
CENTER
 10
112.6476203763
 20
105.4883310746
 11
12.1592893017
 21
105.4883310746
  0
LINE
  5
3AD
100
AcDbEntity
  8
02___PRT_ALL_AXES
100
AcDbLine
 62
7
  6
CENTER
 10
112.6476203763
 20
105.4883310746
 11
213.1359514509
 21
105.4883310746
  0
LINE
  5
3AE
100
AcDbEntity
  8
RUNDUNGEN
100
AcDbLine
 62
7
  6
CONTINUOUS
 10
38.0253828173
 20
145.9734238055
 11
37.1593610385
 21
146.4734217126
  0
LINE
  5
3AF
100
AcDbEntity
  8
RUNDUNGEN
100
AcDbLine
 62
7
  6
CONTINUOUS
 10
185.0198676657
 20
61.1061184088
 11
185.8858797141
 21
60.6061261196
  0
LINE
  5
3B0
100
AcDbEntity
  8
RUNDUNGEN
100
AcDbLine
 62
7
  6
CONTINUOUS
 10
153.1327199387
 20
30.866081683
 11
153.6327110143
 21
30.0000717368
  0
LINE
  5
3B1
100
AcDbEntity
  8
RUNDUNGEN
100
AcDbLine
 62
7
  6
CONTINUOUS
 10
68.2654261471
 20
177.860546431
 11
67.7654154213
 21
178.7265904124
  0
LINE
  5
3B2
100
AcDbEntity
  8
0
100
AcDbLine
 62
7
  6
CONTINUOUS
 10
85.9429282054
 20
185.1615423651
 11
86.864962279
 21
182.3067475972
  0
LINE
  5
3B3
100
AcDbEntity
  8
0
100
AcDbLine
 62
7
  6
CONTINUOUS
 10
87.1504417558
 20
182.3989510045
 11
86.7384690788
 21
183.6744976211
  0
LINE
  5
3B4
100
AcDbEntity
  8
0
100
AcDbLine
 62
7
  6
CONTINUOUS
 10
86.6207626153
 20
184.0389394629
 11
86.3264964018
 21
184.9500442376
  0
LINE
  5
3B5
100
AcDbEntity
  8
0
100
AcDbLine
 62
7
  6
CONTINUOUS
 10
87.6337006398
 20
184.9697832451
 11
87.6925539265
 21
184.787562154
  0
LINE
  5
3B6
100
AcDbEntity
  8
0
100
AcDbLine
 62
7
  6
CONTINUOUS
 10
87.9976511472
 20
184.8190252544
 11
87.9191801166
 21
185.0619866525
  0
LINE
  5
3B7
100
AcDbEntity
  8
0
100
AcDbLine
 62
7
  6
CONTINUOUS
 10
88.4239314212
 20
184.9461172916
 11
89.0089716927
 21
182.9891422901
  0
LINE
  5
3B8
100
AcDbEntity
  8
0
100
AcDbLine
 62
7
  6
CONTINUOUS
 10
89.2484971951
 20
183.0607487566
 11
88.8828470062
 21
184.2838581968
  0
LINE
  5
3B9
100
AcDbEntity
  8
0
100
AcDbLine
 62
7
  6
CONTINUOUS
 10
88.7731519648
 20
184.6507909774
 11
88.6634569235
 21
185.0177237581
  0
LINE
  5
3BA
100
AcDbEntity
  8
0
100
AcDbLine
 62
7
  6
CONTINUOUS
 10
89.377636093
 20
184.8981233521
 11
89.2862235586
 21
185.2039006694
  0
LINE
  5
3BB
100
AcDbEntity
  8
0
100
AcDbLine
 62
7
  6
CONTINUOUS
 10
89.9480987469
 20
184.4682939512
 11
90.0162324449
 21
184.2222335986
  0
LINE
  5
3BC
100
AcDbEntity
  8
0
100
AcDbLine
 62
7
  6
CONTINUOUS
 10
90.2571666683
 20
184.2889478801
 11
90.1890329703
 21
184.5350082327
  0
LINE
  5
3BD
100
AcDbEntity
  8
0
100
AcDbLine
 62
7
  6
CONTINUOUS
 10
91.2491428364
 20
184.8285508727
 11
91.3172765345
 21
184.5824905201
  0
LINE
  5
3BE
100
AcDbEntity
  8
0
100
AcDbLine
 62
7
  6
CONTINUOUS
 10
91.5582102064
 20
184.6492046489
 11
91.4900765084
 21
184.8952650015
  0
LINE
  5
3BF
100
AcDbEntity
  8
0
100
AcDbLine
 62
7
  6
CONTINUOUS
 10
91.4312918815
 20
186.7901673795
 11
92.1844775067
 21
183.8862542586
  0
LINE
  5
3C0
100
AcDbEntity
  8
0
100
AcDbLine
 62
7
  6
CONTINUOUS
 10
92.4264704515
 20
183.9490197752
 11
91.6732848262
 21
186.8529328962
  0
LINE
  5
3C1
100
AcDbEntity
  8
0
100
AcDbLine
 62
7
  6
CONTINUOUS
 10
92.0841927925
 20
186.9577524998
 11
92.1618380669
 21
186.6481927632
  0
LINE
  5
3C2
100
AcDbEntity
  8
0
100
AcDbLine
 62
7
  6
CONTINUOUS
 10
92.3171286593
 20
186.0290731165
 11
92.8140584591
 21
184.0478906287
  0
LINE
  5
3C3
100
AcDbEntity
  8
0
100
AcDbLine
 62
7
  6
CONTINUOUS
 10
93.0565471334
 20
184.108712814
 11
92.5596173335
 21
186.0898953018
  0
LINE
  5
3C4
100
AcDbEntity
  8
0
100
AcDbLine
 62
7
  6
CONTINUOUS
 10
92.4043267412
 20
186.7090149485
 11
92.3266814667
 21
187.0185746851
  0
LINE
  5
3C5
100
AcDbEntity
  8
0
100
AcDbLine
 62
7
  6
CONTINUOUS
 10
92.977318591
 20
186.1957881318
 11
93.4442394419
 21
184.2073193252
  0
LINE
  5
3C6
100
AcDbEntity
  8
0
100
AcDbLine
 62
7
  6
CONTINUOUS
 10
93.6876193749
 20
184.2644684064
 11
93.3520200018
 21
185.6936804101
  0
LINE
  5
3C7
100
AcDbEntity
  8
0
100
AcDbLine
 62
7
  6
CONTINUOUS
 10
93.2936549006
 20
185.9422389892
 11
93.220698524
 21
186.252937213
  0
LINE
  5
3C8
100
AcDbEntity
  8
0
100
AcDbLine
 62
7
  6
CONTINUOUS
 10
94.2865541987
 20
185.6508588375
 11
94.5637884706
 21
184.4702054129
  0
LINE
  5
3C9
100
AcDbEntity
  8
0
100
AcDbLine
 62
7
  6
CONTINUOUS
 10
94.8071689606
 20
184.5273546249
 11
94.5299346888
 21
185.7080080496
  0
LINE
  5
3CA
100
AcDbEntity
  8
0
100
AcDbLine
 62
7
  6
CONTINUOUS
 10
94.5768731427
 20
187.5495499945
 11
95.1976174367
 21
184.6144730753
  0
LINE
  5
3CB
100
AcDbEntity
  8
0
100
AcDbLine
 62
7
  6
CONTINUOUS
 10
95.4422068067
 20
184.6662016875
 11
95.2969262261
 21
185.3531345891
  0
LINE
  5
3CC
100
AcDbEntity
  8
0
100
AcDbLine
 62
7
  6
CONTINUOUS
 10
95.2176822831
 20
185.7278252149
 11
94.8214625127
 21
187.6012786067
  0
LINE
  5
3CD
100
AcDbEntity
  8
RUNDUNGEN
100
AcDbLine
 62
7
  6
CONTINUOUS
 10
114.8976203763
 20
19.6210354816
 11
114.8976203763
 21
20.6210312751
  0
LINE
  5
3CE
100
AcDbEntity
  8
RUNDUNGEN
100
AcDbLine
 62
7
  6
CONTINUOUS
 10
114.8976203763
 20
190.3556426577
 11
114.8976203763
 21
191.3556266676
  0
LINE
  5
3CF
100
AcDbEntity
  8
RUNDUNGEN
100
AcDbLine
 62
7
  6
CONTINUOUS
 10
121.6476203763
 20
12.1210354816
 11
121.6476203763
 21
18.4082466546
  0
LINE
  5
3D0
100
AcDbEntity
  8
RUNDUNGEN
100
AcDbLine
 62
7
  6
CONTINUOUS
 10
121.6476203763
 20
192.5683806798
 11
121.6476203763
 21
198.8556266676
  0
LINE
  5
3D1
100
AcDbEntity
  8
RUNDUNGEN
100
AcDbLine
 62
7
  6
CONTINUOUS
 10
122.6476203763
 20
67.0514627908
 11
122.6476203763
 21
49.0814060136
  0
LINE
  5
3D2
100
AcDbEntity
  8
RUNDUNGEN
100
AcDbLine
 62
7
  6
CONTINUOUS
 10
122.6476203763
 20
143.9251993813
 11
122.6476203763
 21
161.8952561357
  0
LINE
  5
3D3
100
AcDbEntity
  8
0
100
AcDbLine
 62
7
  6
CONTINUOUS
 10
132.5117525655
 20
185.1747419137
 11
132.5459372948
 21
185.4268446851
  0
LINE
  5
3D4
100
AcDbEntity
  8
0
100
AcDbLine
 62
7
  6
CONTINUOUS
 10
133.3803419933
 20
185.7801201738
 11
133.3461569582
 21
185.5280175408
  0
LINE
  5
3D5
100
AcDbEntity
  8
0
100
AcDbLine
 62
7
  6
CONTINUOUS
 10
138.6537438785
 20
183.6543067192
 11
138.5862252078
 21
183.3657980907
  0
LINE
  5
3D6
100
AcDbEntity
  8
RUNDUNGEN
100
AcDbLine
 62
7
  6
CONTINUOUS
 10
71.6625297383
 20
30.0000717368
 11
72.1625249609
 21
30.8660888659
  0
LINE
  5
3D7
100
AcDbEntity
  8
RUNDUNGEN
100
AcDbLine
 62
7
  6
CONTINUOUS
 10
157.029834264
 20
177.8605804805
 11
157.5298253313
 21
178.7265904124
  0
LINE
  5
3D8
100
AcDbEntity
  8
RUNDUNGEN
100
AcDbLine
 62
7
  6
CONTINUOUS
 10
73.7582012138
 20
20.1298812084
 11
76.901807447
 21
25.5747669232
  0
LINE
  5
3D9
100
AcDbEntity
  8
RUNDUNGEN
100
AcDbLine
 62
7
  6
CONTINUOUS
 10
163.9818578435
 20
176.4018385356
 11
167.1254968068
 21
181.8467809408
  0
LINE
  5
3DA
100
AcDbEntity
  8
RUNDUNGEN
100
AcDbLine
 62
7
  6
CONTINUOUS
 10
39.4093610385
 20
60.6061261196
 11
40.2753827813
 21
61.1061240059
  0
LINE
  5
3DB
100
AcDbEntity
  8
RUNDUNGEN
100
AcDbLine
 62
7
  6
CONTINUOUS
 10
187.2698697679
 20
145.9734306371
 11
188.1358797141
 21
146.4734217126
  0
LINE
  5
3DC
100
AcDbEntity
  8
RUNDUNGEN
100
AcDbLine
 62
7
  6
CONTINUOUS
 10
36.2891705101
 20
51.0104546441
 11
41.7340660057
 21
54.1540665241
  0
LINE
  5
3DD
100
AcDbEntity
  8
RUNDUNGEN
100
AcDbLine
 62
7
  6
CONTINUOUS
 10
192.561125573
 20
141.2341099664
 11
198.0060702425
 21
144.3777502371
  0
LINE
  5
3DE
100
AcDbEntity
  8
RUNDUNGEN
100
AcDbLine
 62
7
  6
CONTINUOUS
 10
26.7803247833
 20
107.7383310746
 11
27.7803069261
 21
107.7383310746
  0
LINE
  5
3DF
100
AcDbEntity
  8
RUNDUNGEN
100
AcDbLine
 62
7
  6
CONTINUOUS
 10
197.5149201758
 20
107.7383310746
 11
198.5149159693
 21
107.7383310746
  0
LINE
  5
3E0
100
AcDbEntity
  8
RUNDUNGEN
100
AcDbLine
 62
7
  6
CONTINUOUS
 10
206.0149159693
 20
114.4883310746
 11
199.7277047752
 21
114.4883310746
  0
LINE
  5
3E1
100
AcDbEntity
  8
RUNDUNGEN
100
AcDbLine
 62
7
  6
CONTINUOUS
 10
19.2803247833
 20
114.4883310746
 11
25.5676032998
 21
114.4883310746
  0
LINE
  5
3E2
100
AcDbEntity
  8
RUNDUNGEN
100
AcDbLine
 62
7
  6
CONTINUOUS
 10
74.2107520696
 20
115.4883310746
 11
56.2406953152
 21
115.4883310746
  0
LINE
  5
3E3
100
AcDbEntity
  8
RUNDUNGEN
100
AcDbLine
 62
7
  6
CONTINUOUS
 10
151.0844886601
 20
115.4883310746
 11
169.0545454373
 21
115.4883310746
  0
LINE
  5
3E4
100
AcDbEntity
  8
RUNDUNGEN
100
AcDbLine
 62
7
  6
CONTINUOUS
 10
40.2753709704
 20
149.8705449623
 11
39.4093610385
 21
150.3705360296
  0
LINE
  5
3E5
100
AcDbEntity
  8
RUNDUNGEN
100
AcDbLine
 62
7
  6
CONTINUOUS
 10
187.2698554834
 20
65.0032397594
 11
188.1358797141
 21
64.5032404366
  0
LINE
  5
3E6
100
AcDbEntity
  8
RUNDUNGEN
100
AcDbLine
 62
7
  6
CONTINUOUS
 10
198.0060702425
 20
66.5989119122
 11
192.5611845588
 21
69.7425181273
  0
LINE
  5
3E7
100
AcDbEntity
  8
RUNDUNGEN
100
AcDbLine
 62
7
  6
CONTINUOUS
 10
41.7341123377
 20
156.8225688753
 11
36.2891705101
 21
159.9662075052
  0
LINE
  5
3E8
100
AcDbEntity
  8
RUNDUNGEN
100
AcDbLine
 62
7
  6
CONTINUOUS
 10
157.029827445
 20
33.1160934796
 11
157.5298253313
 21
32.2500717368
  0
LINE
  5
3E9
100
AcDbEntity
  8
RUNDUNGEN
100
AcDbLine
 62
7
  6
CONTINUOUS
 10
72.1625182791
 20
180.1105848566
 11
71.6625297383
 21
180.9765904124
  0
LINE
  5
3EA
100
AcDbEntity
  8
RUNDUNGEN
100
AcDbLine
 62
7
  6
CONTINUOUS
 10
167.1254968068
 20
29.1298812084
 11
163.981891849
 21
34.5747647143
  0
LINE
  5
3EB
100
AcDbEntity
  8
RUNDUNGEN
100
AcDbLine
 62
7
  6
CONTINUOUS
 10
76.9018125742
 20
185.4018863454
 11
73.7582012138
 21
190.8467809408
  0
LINE
  5
3EC
100
AcDbEntity
  8
0
100
AcDbLine
 62
7
  6
CONTINUOUS
 10
128.6185870107
 20
185.8735102876
 11
128.6154190462
 21
186.0031111607
  0
LINE
  5
3ED
100
AcDbEntity
  8
0
100
AcDbLine
 62
7
  6
CONTINUOUS
 10
128.8710188166
 20
186.6820137723
 11
128.867850852
 21
186.8116146454
  0
LINE
  5
3EE
100
AcDbEntity
  8
0
100
AcDbLine
 62
7
  6
CONTINUOUS
 10
129.6004414138
 20
186.7919335079
 11
129.5972734492
 21
186.921534381
  0
LINE
  5
3EF
100
AcDbEntity
  8
0
100
AcDbLine
 62
7
  6
CONTINUOUS
 10
131.9905948835
 20
185.519565875
 11
131.9895162161
 21
185.3899307557
  0
LINE
  5
3F0
100
AcDbEntity
  8
0
100
AcDbLine
 62
7
  6
CONTINUOUS
 10
132.3718133004
 20
185.2102535889
 11
132.3687148375
 21
185.0806510724
  0
LINE
  5
3F1
100
AcDbEntity
  8
0
100
AcDbLine
 62
7
  6
CONTINUOUS
 10
133.5202812584
 20
185.7446084985
 11
133.5233794301
 21
185.8742112107
  0
LINE
  5
3F2
100
AcDbEntity
  8
0
100
AcDbLine
 62
7
  6
CONTINUOUS
 10
128.4456287283
 20
186.0375608607
 11
128.4404197822
 21
185.8666735898
  0
LINE
  5
3F3
100
AcDbEntity
  8
0
100
AcDbLine
 62
7
  6
CONTINUOUS
 10
128.6896837044
 20
186.8047779311
 11
128.6844747582
 21
186.6338906602
  0
LWPOLYLINE
  5
3F4
100
AcDbEntity
  8
RUNDUNGEN
100
AcDbPolyline
 62
7
  6
CONTINUOUS
 90
9
 70
0
 10
122.6476272595
 20
67.0260724488
 10
122.6927987163
 20
67.8650797426
 10
122.825723594
 20
68.6947454551
 10
123.044942867
 20
69.5059154511
 10
123.3480452958
 20
70.2896389411
 10
123.7316938592
 20
71.0372667954
 10
124.1916621694
 20
71.7405465811
 10
124.7228810482
 20
72.3917141401
 10
124.9907660138
 20
72.6729321323
  0
LINE
  5
3F5
100
AcDbEntity
  8
0
100
AcDbLine
 62
7
  6
CONTINUOUS
 10
137.468144705
 20
183.5958875868
 11
137.4794240132
 21
183.7250355991
  0
LINE
  5
3F6
100
AcDbEntity
  8
0
100
AcDbLine
 62
7
  6
CONTINUOUS
 10
137.8090135839
 20
184.3712636948
 11
137.820292892
 21
184.500411707
  0
LINE
  5
3F7
100
AcDbEntity
  8
0
100
AcDbLine
 62
7
  6
CONTINUOUS
 10
138.5461389265
 20
184.3992976558
 11
138.5574188637
 21
184.5284454653
  0
LINE
  5
3F8
100
AcDbEntity
  8
0
100
AcDbLine
 62
7
  6
CONTINUOUS
 10
138.7231648076
 20
183.2302913912
 11
138.7364785586
 21
183.3592454051
  0
LINE
  5
3F9
100
AcDbEntity
  8
0
100
AcDbLine
 62
7
  6
CONTINUOUS
 10
139.4739541294
 20
183.3756596181
 11
139.4606403593
 21
183.2467055482
  0
LINE
  5
3FA
100
AcDbEntity
  8
0
100
AcDbLine
 62
7
  6
CONTINUOUS
 10
139.8001347199
 20
183.9767251593
 11
139.8134484709
 21
184.1056791733
  0
LINE
  5
3FB
100
AcDbEntity
  8
0
100
AcDbLine
 62
7
  6
CONTINUOUS
 10
136.0171061575
 20
185.1853251959
 11
136.0357502158
 21
185.3552722638
  0
LINE
  5
3FC
100
AcDbEntity
  8
0
100
AcDbLine
 62
7
  6
CONTINUOUS
 10
132.3956356254
 20
185.4215230425
 11
132.3718133004
 21
185.2102535889
  0
LINE
  5
3FD
100
AcDbEntity
  8
0
100
AcDbLine
 62
7
  6
CONTINUOUS
 10
133.4964589479
 20
185.5333391022
 11
133.5202812584
 21
185.7446084985
  0
LINE
  5
3FE
100
AcDbEntity
  8
0
100
AcDbLine
 62
7
  6
CONTINUOUS
 10
137.3145241046
 20
183.778172993
 11
137.2903238511
 21
183.6089277434
  0
LINE
  5
3FF
100
AcDbEntity
  8
0
100
AcDbLine
 62
7
  6
CONTINUOUS
 10
137.6424720381
 20
184.5134518635
 11
137.6182717846
 21
184.3442066139
  0
LINE
  5
400
100
AcDbEntity
  8
0
100
AcDbLine
 62
7
  6
CONTINUOUS
 10
167.3988252407
 20
166.4732011509
 11
167.462228151
 21
166.5862785125
  0
LINE
  5
401
100
AcDbEntity
  8
0
100
AcDbLine
 62
7
  6
CONTINUOUS
 10
168.0284548327
 20
167.0397400095
 11
168.0918577429
 21
167.152817371
  0
LINE
  5
402
100
AcDbEntity
  8
0
100
AcDbLine
 62
7
  6
CONTINUOUS
 10
168.7118674106
 20
166.7620947442
 11
168.7752703362
 21
166.8751720919
  0
LINE
  5
403
100
AcDbEntity
  8
0
100
AcDbLine
 62
7
  6
CONTINUOUS
 10
167.3337804501
 20
166.7025400738
 11
167.2421072605
 21
166.5582292273
  0
LINE
  5
404
100
AcDbEntity
  8
0
100
AcDbLine
 62
7
  6
CONTINUOUS
 10
167.9351397569
 20
167.2378454526
 11
167.8434665693
 21
167.0935346043
  0
LINE
  5
405
100
AcDbEntity
  8
0
100
AcDbLine
 62
7
  6
CONTINUOUS
 10
168.4215714813
 20
165.6544622267
 11
168.5156085668
 21
165.7972439615
  0
LINE
  5
406
100
AcDbEntity
  8
0
100
AcDbLine
 62
7
  6
CONTINUOUS
 10
169.6317644304
 20
165.8491304009
 11
169.5377273449
 21
165.7063486661
  0
LINE
  5
407
100
AcDbEntity
  8
0
100
AcDbLine
 62
7
  6
CONTINUOUS
 10
168.3890927603
 20
165.9156049061
 11
168.2662748411
 21
165.7420595095
  0
LINE
  5
408
100
AcDbEntity
  8
0
100
AcDbLine
 62
7
  6
CONTINUOUS
 10
169.6642431513
 20
165.5879877214
 11
169.7870610909
 21
165.7615332607
  0
LINE
  5
409
100
AcDbEntity
  8
0
100
AcDbLine
 62
7
  6
CONTINUOUS
 10
174.0087431635
 20
161.4575757357
 11
174.1129372415
 21
161.5931235166
  0
LINE
  5
40A
100
AcDbEntity
  8
0
100
AcDbLine
 62
7
  6
CONTINUOUS
 10
138.9053056257
 20
104.5224052483
 11
133.4895927517
 21
99.1066923744
  0
LINE
  5
40B
100
AcDbEntity
  8
0
100
AcDbLine
 62
7
  6
CONTINUOUS
 10
119.0292590765
 20
84.6463586991
 11
113.6135462026
 21
79.2306458252
  0
LWPOLYLINE
  5
40C
100
AcDbEntity
  8
RUNDUNGEN
100
AcDbPolyline
 62
7
  6
CONTINUOUS
 90
9
 70
0
 10
151.109879002
 20
115.4883379578
 10
150.2708717082
 20
115.5335094147
 10
149.4412059958
 20
115.6664342923
 10
148.6300359998
 20
115.8856535654
 10
147.8463125098
 20
116.1887559941
 10
147.0986846554
 20
116.5724045575
 10
146.3954048698
 20
117.0323728678
 10
145.7442373107
 20
117.5635917465
 10
145.4630193186
 20
117.8314767121
  0
LINE
  5
40D
100
AcDbEntity
  8
0
100
AcDbLine
 62
7
  6
CONTINUOUS
 10
113.6135462026
 20
131.746016324
 11
119.0292590765
 21
126.3303034501
  0
LINE
  5
40E
100
AcDbEntity
  8
0
100
AcDbLine
 62
7
  6
CONTINUOUS
 10
133.4895927517
 20
111.8699697748
 11
138.9053056257
 21
106.4542569009
  0
LINE
  5
40F
100
AcDbEntity
  8
0
100
AcDbLine
 62
7
  6
CONTINUOUS
 10
90.0162324449
 20
184.2222335986
 11
90.2318401863
 21
183.8183138324
  0
LINE
  5
410
100
AcDbEntity
  8
0
100
AcDbLine
 62
7
  6
CONTINUOUS
 10
90.3734869666
 20
184.0562304089
 11
90.2571666683
 21
184.2889478801
  0
LINE
  5
411
100
AcDbEntity
  8
0
100
AcDbLine
 62
7
  6
CONTINUOUS
 10
91.1328219867
 20
185.0612681912
 11
91.2491428364
 21
184.8285508727
  0
LINE
  5
412
100
AcDbEntity
  8
0
100
AcDbLine
 62
7
  6
CONTINUOUS
 10
91.4900765084
 20
184.8952650015
 11
91.3737562101
 21
185.1279824727
  0
LINE
  5
413
100
AcDbEntity
  8
0
100
AcDbLine
 62
7
  6
CONTINUOUS
 10
94.164921947
 20
185.9501272713
 11
94.2865541987
 21
185.6508588375
  0
LINE
  5
414
100
AcDbEntity
  8
0
100
AcDbLine
 62
7
  6
CONTINUOUS
 10
94.5299346888
 20
185.7080080496
 11
94.408302437
 21
186.0072764833
  0
LINE
  5
415
100
AcDbEntity
  8
0
100
AcDbLine
 62
7
  6
CONTINUOUS
 10
131.079667931
 20
185.4325980129
 11
131.0969597576
 21
185.255307663
  0
LINE
  5
416
100
AcDbEntity
  8
0
100
AcDbLine
 62
7
  6
CONTINUOUS
 10
131.2655307467
 20
185.2153153621
 11
131.2482389201
 21
185.3926057121
  0
LINE
  5
417
100
AcDbEntity
  8
0
100
AcDbLine
 62
7
  6
CONTINUOUS
 10
132.3687148375
 20
185.0806510724
 11
132.3832423926
 21
184.9031127279
  0
LINE
  5
418
100
AcDbEntity
  8
0
100
AcDbLine
 62
7
  6
CONTINUOUS
 10
133.5233794301
 20
185.8742112107
 11
133.508852188
 21
186.0517494453
  0
LINE
  5
419
100
AcDbEntity
  8
0
100
AcDbLine
 62
7
  6
CONTINUOUS
 10
132.1397167181
 20
185.3975937142
 11
132.1321491472
 21
185.6158740704
  0
LINE
  5
41A
100
AcDbEntity
  8
0
100
AcDbLine
 62
7
  6
CONTINUOUS
 10
138.37016992
 20
183.5707840416
 11
138.3668866638
 21
183.7488856473
  0
LINE
  5
41B
100
AcDbEntity
  8
0
100
AcDbLine
 62
7
  6
CONTINUOUS
 10
138.3795980097
 20
184.5414856219
 11
138.3812390178
 21
184.4524350498
  0
LINE
  5
41C
100
AcDbEntity
  8
0
100
AcDbLine
 62
7
  6
CONTINUOUS
 10
133.4895927517
 20
112.7184979122
 11
133.4895927517
 21
111.8699697748
  0
LINE
  5
41D
100
AcDbEntity
  8
0
100
AcDbLine
 62
7
  6
CONTINUOUS
 10
133.4895927517
 20
99.1066923744
 11
133.4895927517
 21
98.258164237
  0
LINE
  5
41E
100
AcDbEntity
  8
0
100
AcDbLine
 62
7
  6
CONTINUOUS
 10
138.5862252078
 20
183.3657980907
 11
138.5731501729
 21
183.1477782493
  0
LINE
  5
41F
100
AcDbEntity
  8
0
100
AcDbLine
 62
7
  6
CONTINUOUS
 10
139.6108937291
 20
183.2401529185
 11
139.6239687545
 21
183.458172732
  0
LINE
  5
420
100
AcDbEntity
  8
RUNDUNGEN
100
AcDbLine
 62
7
  6
CONTINUOUS
 10
153.6327110143
 20
180.9765904124
 11
155.3398502842
 21
189.008049223
  0
LINE
  5
421
100
AcDbEntity
  8
RUNDUNGEN
100
AcDbLine
 62
7
  6
CONTINUOUS
 10
107.8603169466
 20
11.8120184872
 11
110.3976203763
 21
19.6210354816
  0
LINE
  5
422
100
AcDbEntity
  8
0
100
AcDbLine
 62
7
  6
CONTINUOUS
 10
168.2106854403
 20
166.0792942368
 11
168.2809507609
 21
166.2429820165
  0
LINE
  5
423
100
AcDbEntity
  8
0
100
AcDbLine
 62
7
  6
CONTINUOUS
 10
168.6185523502
 20
166.9602001734
 11
168.5834197098
 21
166.8783563055
  0
LINE
  5
424
100
AcDbEntity
  8
0
100
AcDbLine
 62
7
  6
CONTINUOUS
 10
168.2662748411
 20
165.7420595095
 11
168.193323683
 21
165.5795509478
  0
LINE
  5
425
100
AcDbEntity
  8
0
100
AcDbLine
 62
7
  6
CONTINUOUS
 10
169.7870610909
 20
165.7615332607
 11
169.8600122891
 21
165.9240417444
  0
LINE
  5
426
100
AcDbEntity
  8
RUNDUNGEN
100
AcDbLine
 62
7
  6
CONTINUOUS
 10
185.8858797141
 20
150.3705360296
 11
191.380035095
 21
156.472413754
  0
LINE
  5
427
100
AcDbEntity
  8
0
100
AcDbLine
 62
7
  6
CONTINUOUS
 10
133.4895927517
 20
98.258164237
 11
119.8777872139
 21
84.6463586991
  0
LINE
  5
428
100
AcDbEntity
  8
RUNDUNGEN
100
AcDbLine
 62
7
  6
CONTINUOUS
 10
61.6635376968
 20
26.7559163559
 11
67.7654154213
 21
32.2500717368
  0
LINE
  5
429
100
AcDbEntity
  8
RUNDUNGEN
100
AcDbLine
 62
7
  6
CONTINUOUS
 10
198.5149159693
 20
107.7383310746
 11
206.3239329637
 21
110.2756345043
  0
LINE
  5
42A
100
AcDbEntity
  8
RUNDUNGEN
100
AcDbLine
 62
7
  6
CONTINUOUS
 10
196.1673385246
 20
148.1805609826
 11
188.1358797141
 21
146.4734217126
  0
LINE
  5
42B
100
AcDbEntity
  8
0
100
AcDbLine
 62
7
  6
CONTINUOUS
 10
105.4174535386
 20
126.3303034501
 11
106.2659816761
 21
126.3303034501
  0
LINE
  5
42C
100
AcDbEntity
  8
0
100
AcDbLine
 62
7
  6
CONTINUOUS
 10
119.0292590765
 20
126.3303034501
 11
119.8777872139
 21
126.3303034501
  0
LINE
  5
42D
100
AcDbEntity
  8
RUNDUNGEN
100
AcDbLine
 62
7
  6
CONTINUOUS
 10
37.1593610385
 20
146.4734217126
 11
29.1279022279
 21
148.1805609826
  0
LINE
  5
42E
100
AcDbEntity
  8
RUNDUNGEN
100
AcDbLine
 62
7
  6
CONTINUOUS
 10
206.3239329637
 20
100.7010276449
 11
198.5149159693
 21
103.2383310746
  0
LINE
  5
42F
100
AcDbEntity
  8
RUNDUNGEN
100
AcDbLine
 62
7
  6
CONTINUOUS
 10
67.7654154213
 20
178.7265904124
 11
61.6635376968
 21
184.2207457933
  0
LINE
  5
430
100
AcDbEntity
  8
0
100
AcDbLine
 62
7
  6
CONTINUOUS
 10
119.8777872139
 20
126.3303034501
 11
133.4895927517
 21
112.7184979122
  0
LINE
  5
431
100
AcDbEntity
  8
RUNDUNGEN
100
AcDbLine
 62
7
  6
CONTINUOUS
 10
191.380035095
 20
54.5042483952
 11
185.8858797141
 21
60.6061261196
  0
LINE
  5
432
100
AcDbEntity
  8
0
100
AcDbLine
 62
7
  6
CONTINUOUS
 10
87.5272675407
 20
185.1366369461
 11
87.6337006398
 21
184.9697832451
  0
LINE
  5
433
100
AcDbEntity
  8
0
100
AcDbLine
 62
7
  6
CONTINUOUS
 10
87.9191801166
 20
185.0619866525
 11
87.8127470175
 21
185.2288403535
  0
LINE
  5
434
100
AcDbEntity
  8
0
100
AcDbLine
 62
7
  6
CONTINUOUS
 10
91.3737562101
 20
185.1279824727
 11
91.2744693304
 21
185.2991848773
  0
LINE
  5
435
100
AcDbEntity
  8
0
100
AcDbLine
 62
7
  6
CONTINUOUS
 10
94.408302437
 20
186.0072764833
 11
94.3158521789
 21
186.1822654967
  0
LINE
  5
436
100
AcDbEntity
  8
RUNDUNGEN
100
AcDbLine
 62
7
  6
CONTINUOUS
 10
110.3976203763
 20
191.3556266676
 11
107.8603169466
 21
199.164643662
  0
LINE
  5
437
100
AcDbEntity
  8
RUNDUNGEN
100
AcDbLine
 62
7
  6
CONTINUOUS
 10
155.3398502842
 20
21.9686129262
 11
153.6327110143
 21
30.0000717368
  0
LINE
  5
438
100
AcDbEntity
  8
0
100
AcDbLine
 62
7
  6
CONTINUOUS
 10
129.5177999834
 20
185.9489801912
 11
129.4947105684
 21
186.1256091339
  0
LINE
  5
439
100
AcDbEntity
  8
0
100
AcDbLine
 62
7
  6
CONTINUOUS
 10
129.4191062206
 20
186.9146976831
 11
129.430651015
 21
186.8263832243
  0
LINE
  5
43A
100
AcDbEntity
  8
0
100
AcDbLine
 62
7
  6
CONTINUOUS
 10
138.7371922231
 20
183.0920488291
 11
138.7231648076
 21
183.2302913912
  0
LINE
  5
43B
100
AcDbEntity
  8
0
100
AcDbLine
 62
7
  6
CONTINUOUS
 10
139.6494064208
 20
184.1614085935
 11
139.6634325942
 21
184.0231664846
  0
LINE
  5
43C
100
AcDbEntity
  8
0
100
AcDbLine
 62
7
  6
CONTINUOUS
 10
137.2903238511
 20
183.6089277434
 11
137.3081690652
 21
183.3818728171
  0
LINE
  5
43D
100
AcDbEntity
  8
0
100
AcDbLine
 62
7
  6
CONTINUOUS
 10
168.0959624898
 20
166.2967766183
 11
168.0539674544
 21
166.1643223184
  0
LINE
  5
43E
100
AcDbEntity
  8
0
100
AcDbLine
 62
7
  6
CONTINUOUS
 10
168.3774010564
 20
165.5227174613
 11
168.4215714813
 21
165.6544622267
  0
LINE
  5
43F
100
AcDbEntity
  8
0
100
AcDbLine
 62
7
  6
CONTINUOUS
 10
169.6759349359
 20
165.9808752524
 11
169.6317644304
 21
165.8491304009
  0
LINE
  5
440
100
AcDbEntity
  8
0
100
AcDbLine
 62
7
  6
CONTINUOUS
 10
167.2421072605
 20
166.5582292273
 11
167.1649796576
 21
166.3439310132
  0
LINE
  5
441
100
AcDbEntity
  8
0
100
AcDbLine
 62
7
  6
CONTINUOUS
 10
173.9448464718
 20
161.7130186253
 11
173.891191111
 21
161.584843475
  0
LINE
  5
442
100
AcDbEntity
  8
0
100
AcDbLine
 62
7
  6
CONTINUOUS
 10
145.4629915364
 20
93.1451579933
 11
124.9907765479
 21
72.6729430048
  0
LINE
  5
443
100
AcDbEntity
  8
0
100
AcDbLine
 62
7
  6
CONTINUOUS
 10
124.9907934576
 20
138.3037022347
 11
145.4630084461
 21
117.8314872462
  0
LINE
  5
444
100
AcDbEntity
  8
0
100
AcDbLine
 62
7
  6
CONTINUOUS
 10
90.2318401863
 20
183.8183138324
 11
90.3793139718
 21
183.6604542779
  0
LINE
  5
445
100
AcDbEntity
  8
0
100
AcDbLine
 62
7
  6
CONTINUOUS
 10
90.5209610338
 20
183.8983709091
 11
90.3734869666
 21
184.0562304089
  0
LINE
  5
446
100
AcDbEntity
  8
0
100
AcDbLine
 62
7
  6
CONTINUOUS
 10
131.0969597576
 20
185.255307663
 11
131.1423469668
 21
185.0713518931
  0
LINE
  5
447
100
AcDbEntity
  8
0
100
AcDbLine
 62
7
  6
CONTINUOUS
 10
129.3081665101
 20
186.0774860218
 11
129.3396327548
 21
185.9421434933
  0
LINE
  5
448
100
AcDbEntity
  8
0
100
AcDbLine
 62
7
  6
CONTINUOUS
 10
131.9635781581
 20
185.6558663712
 11
131.9905948835
 21
185.519565875
  0
LINE
  5
449
100
AcDbEntity
  8
0
100
AcDbLine
 62
7
  6
CONTINUOUS
 10
128.4404197822
 20
185.8666735898
 11
128.4834308241
 21
185.6430166169
  0
LINE
  5
44A
100
AcDbEntity
  8
0
100
AcDbLine
 62
7
  6
CONTINUOUS
 10
132.561531851
 20
184.9013320518
 11
132.5117525655
 21
185.1747419137
  0
LINE
  5
44B
100
AcDbEntity
  8
0
100
AcDbLine
 62
7
  6
CONTINUOUS
 10
133.3305627296
 20
186.0535301214
 11
133.3803419933
 21
185.7801201738
  0
LINE
  5
44C
100
AcDbEntity
  8
0
100
AcDbLine
 62
7
  6
CONTINUOUS
 10
135.8298394524
 20
185.3704325509
 11
135.8505543345
 21
185.2330331906
  0
LINE
  5
44D
100
AcDbEntity
  8
0
100
AcDbLine
 62
7
  6
CONTINUOUS
 10
138.5731501729
 20
183.1477782493
 11
138.6009662925
 21
182.9603589666
  0
LINE
  5
44E
100
AcDbEntity
  8
0
100
AcDbLine
 62
7
  6
CONTINUOUS
 10
138.1761448646
 20
183.7218285664
 11
138.1923490661
 21
183.5838241981
  0
LINE
  5
44F
100
AcDbEntity
  8
0
100
AcDbLine
 62
7
  6
CONTINUOUS
 10
167.3782382161
 20
166.3213699091
 11
167.3988252407
 21
166.4732011509
  0
LINE
  5
450
100
AcDbEntity
  8
0
100
AcDbLine
 62
7
  6
CONTINUOUS
 10
167.8434665693
 20
167.0935346043
 11
167.816017232
 21
166.8910929754
  0
LINE
  5
451
100
AcDbEntity
  8
0
100
AcDbLine
 62
7
  6
CONTINUOUS
 10
168.2809507609
 20
166.2429820165
 11
168.3084000598
 21
166.4454236801
  0
LINE
  5
452
100
AcDbEntity
  8
0
100
AcDbLine
 62
7
  6
CONTINUOUS
 10
168.6322769997
 20
167.0614210052
 11
168.6185523502
 21
166.9602001734
  0
LINE
  5
453
100
AcDbEntity
  8
0
100
AcDbLine
 62
7
  6
CONTINUOUS
 10
168.193323683
 20
165.5795509478
 11
168.1625444906
 21
165.3775887299
  0
LINE
  5
454
100
AcDbEntity
  8
0
100
AcDbLine
 62
7
  6
CONTINUOUS
 10
168.7378609974
 20
165.3585598651
 11
168.6993869089
 21
165.1061071693
  0
LINE
  5
455
100
AcDbEntity
  8
0
100
AcDbLine
 62
7
  6
CONTINUOUS
 10
168.6609128254
 20
164.8536544789
 11
168.6455232895
 21
164.7526733135
  0
LINE
  5
456
100
AcDbEntity
  8
0
100
AcDbLine
 62
7
  6
CONTINUOUS
 10
168.841292387
 20
165.0887272933
 11
168.8643768039
 21
165.2401989205
  0
LINE
  5
457
100
AcDbEntity
  8
0
100
AcDbLine
 62
7
  6
CONTINUOUS
 10
168.772039096
 20
164.6343123689
 11
168.8105130639
 21
164.8867651775
  0
LINE
  5
458
100
AcDbEntity
  8
0
100
AcDbLine
 62
7
  6
CONTINUOUS
 10
168.7752703362
 20
166.8751720919
 11
168.8241276261
 21
167.0582367916
  0
LINE
  5
459
100
AcDbEntity
  8
0
100
AcDbLine
 62
7
  6
CONTINUOUS
 10
170.8817949767
 20
164.465639738
 11
171.212454033
 21
164.5530608177
  0
LINE
  5
45A
100
AcDbEntity
  8
0
100
AcDbLine
 62
7
  6
CONTINUOUS
 10
171.4497491343
 20
164.7923814159
 11
171.119090161
 21
164.70496042
  0
LINE
  5
45B
100
AcDbEntity
  8
0
100
AcDbLine
 62
7
  6
CONTINUOUS
 10
172.2850550191
 20
163.0462881074
 11
172.6177232572
 21
163.1257217279
  0
LINE
  5
45C
100
AcDbEntity
  8
0
100
AcDbLine
 62
7
  6
CONTINUOUS
 10
172.8607122789
 20
163.3592589822
 11
172.5280441259
 21
163.2798254435
  0
LINE
  5
45D
100
AcDbEntity
  8
0
100
AcDbLine
 62
7
  6
CONTINUOUS
 10
167.7147240035
 20
165.7895205283
 11
167.9134369952
 21
165.8369467138
  0
LINE
  5
45E
100
AcDbEntity
  8
0
100
AcDbLine
 62
7
  6
CONTINUOUS
 10
168.8105130639
 20
164.8867651775
 11
168.9102466265
 21
164.9088388906
  0
LINE
  5
45F
100
AcDbEntity
  8
0
100
AcDbLine
 62
7
  6
CONTINUOUS
 10
87.8127470175
 20
185.2288403535
 11
87.5915363034
 21
185.4256998777
  0
LINE
  5
460
100
AcDbEntity
  8
0
100
AcDbLine
 62
7
  6
CONTINUOUS
 10
96.5673198123
 20
184.9041537063
 11
95.5826113928
 21
185.935488123
  0
LINE
  5
461
100
AcDbEntity
  8
0
100
AcDbLine
 62
7
  6
CONTINUOUS
 10
90.9853482071
 20
185.2191277243
 11
91.1328219867
 21
185.0612681912
  0
LINE
  5
462
100
AcDbEntity
  8
0
100
AcDbLine
 62
7
  6
CONTINUOUS
 10
91.2744693304
 20
185.2991848773
 11
91.1269952751
 21
185.457044334
  0
LINE
  5
463
100
AcDbEntity
  8
0
100
AcDbLine
 62
7
  6
CONTINUOUS
 10
95.4754795368
 20
185.7171055079
 11
96.2738121204
 21
184.8420792769
  0
LINE
  5
464
100
AcDbEntity
  8
0
100
AcDbLine
 62
7
  6
CONTINUOUS
 10
128.6783517151
 20
185.7324261578
 11
128.6185870107
 21
185.8735102876
  0
LINE
  5
465
100
AcDbEntity
  8
0
100
AcDbLine
 62
7
  6
CONTINUOUS
 10
128.6844747582
 20
186.6338906602
 11
128.7641610925
 21
186.4457785146
  0
LINE
  5
466
100
AcDbEntity
  8
0
100
AcDbLine
 62
7
  6
CONTINUOUS
 10
129.4947105684
 20
186.1256091339
 11
129.4150242341
 21
186.3137212794
  0
LINE
  5
467
100
AcDbEntity
  8
0
100
AcDbLine
 62
7
  6
CONTINUOUS
 10
129.3792631345
 20
187.0087537395
 11
129.4191062206
 21
186.9146976831
  0
LINE
  5
468
100
AcDbEntity
  8
0
100
AcDbLine
 62
7
  6
CONTINUOUS
 10
132.3832423926
 20
184.9031127279
 11
132.4361198243
 21
184.7593054782
  0
LINE
  5
469
100
AcDbEntity
  8
0
100
AcDbLine
 62
7
  6
CONTINUOUS
 10
137.5118318143
 20
183.4490271495
 11
137.468144705
 21
183.5958875868
  0
LINE
  5
46A
100
AcDbEntity
  8
0
100
AcDbLine
 62
7
  6
CONTINUOUS
 10
137.6182717846
 20
184.3442066139
 11
137.6765214854
 21
184.1483926672
  0
LINE
  5
46B
100
AcDbEntity
  8
0
100
AcDbLine
 62
7
  6
CONTINUOUS
 10
138.3668866638
 20
183.7488856473
 11
138.3086375921
 21
183.9446993912
  0
LINE
  5
46C
100
AcDbEntity
  8
0
100
AcDbLine
 62
7
  6
CONTINUOUS
 10
138.3504728448
 20
184.6393926965
 11
138.3795980097
 21
184.5414856219
  0
LINE
  5
46D
100
AcDbEntity
  8
0
100
AcDbLine
 62
7
  6
CONTINUOUS
 10
129.5972734492
 20
186.921534381
 11
129.5458855687
 21
187.1039048962
  0
LINE
  5
46E
100
AcDbEntity
  8
0
100
AcDbLine
 62
7
  6
CONTINUOUS
 10
139.4463754792
 20
183.4740135125
 11
139.4739541294
 21
183.3756596181
  0
LINE
  5
46F
100
AcDbEntity
  8
0
100
AcDbLine
 62
7
  6
CONTINUOUS
 10
139.6239687545
 20
183.458172732
 11
139.582601405
 21
183.6057033611
  0
LINE
  5
470
100
AcDbEntity
  8
0
100
AcDbLine
 62
7
  6
CONTINUOUS
 10
132.1321491472
 20
185.6158740704
 11
132.0867619345
 21
185.7998298259
  0
LINE
  5
471
100
AcDbEntity
  8
0
100
AcDbLine
 62
7
  6
CONTINUOUS
 10
138.5574188637
 20
184.5284454653
 11
138.5266526907
 21
184.7154031121
  0
LINE
  5
472
100
AcDbEntity
  8
0
100
AcDbLine
 62
7
  6
CONTINUOUS
 10
139.8134484709
 20
184.1056791733
 11
139.7856323466
 21
184.293098442
  0
LINE
  5
473
100
AcDbEntity
  8
0
100
AcDbLine
 62
7
  6
CONTINUOUS
 10
168.8241276261
 20
167.0582367916
 11
168.8233067013
 21
167.22944492
  0
LINE
  5
474
100
AcDbEntity
  8
0
100
AcDbLine
 62
7
  6
CONTINUOUS
 10
169.8600122891
 20
165.9240417444
 11
169.8907914715
 21
166.1260039515
  0
LINE
  5
475
100
AcDbEntity
  8
0
100
AcDbLine
 62
7
  6
CONTINUOUS
 10
174.1129372415
 20
161.5931235166
 11
174.1583552933
 21
161.7923051672
  0
LINE
  5
476
100
AcDbEntity
  8
0
100
AcDbLine
 62
7
  6
CONTINUOUS
 10
168.3814230131
 20
167.5157626583
 11
168.1827100696
 21
167.4683364491
  0
LINE
  5
477
100
AcDbEntity
  8
0
100
AcDbLine
 62
7
  6
CONTINUOUS
 10
169.3425563503
 20
166.6389013406
 11
169.1430893456
 21
166.5947538016
  0
LINE
  5
478
100
AcDbEntity
  8
0
100
AcDbLine
 62
7
  6
CONTINUOUS
 10
173.6685553736
 20
162.3225870905
 11
173.466400953
 21
162.2930960827
  0
LINE
  5
479
100
AcDbEntity
  8
0
100
AcDbLine
 62
7
  6
CONTINUOUS
 10
173.6663273536
 20
161.4557618046
 11
172.3440873663
 21
161.3350754801
  0
LINE
  5
47A
100
AcDbEntity
  8
0
100
AcDbLine
 62
7
  6
CONTINUOUS
 10
172.5008232868
 20
161.1653853229
 11
173.6714480191
 21
161.2639527846
  0
LINE
  5
47B
100
AcDbEntity
  8
0
100
AcDbLine
 62
7
  6
CONTINUOUS
 10
87.3928721819
 20
185.2273830763
 11
87.5272675407
 21
185.1366369461
  0
LINE
  5
47C
100
AcDbEntity
  8
0
100
AcDbLine
 62
7
  6
CONTINUOUS
 10
90.3793139718
 20
183.6604542779
 11
90.5097543358
 21
183.5641098007
  0
LINE
  5
47D
100
AcDbEntity
  8
0
100
AcDbLine
 62
7
  6
CONTINUOUS
 10
90.6514013948
 20
183.8020264427
 11
90.5209610338
 21
183.8983709091
  0
LINE
  5
47E
100
AcDbEntity
  8
0
100
AcDbLine
 62
7
  6
CONTINUOUS
 10
90.8549078461
 20
185.3154721907
 11
90.9853482071
 21
185.2191277243
  0
LINE
  5
47F
100
AcDbEntity
  8
0
100
AcDbLine
 62
7
  6
CONTINUOUS
 10
91.1269952751
 20
185.457044334
 11
90.9965546383
 21
185.5533887241
  0
LINE
  5
480
100
AcDbEntity
  8
0
100
AcDbLine
 62
7
  6
CONTINUOUS
 10
94.0383870889
 20
186.0515468498
 11
94.164921947
 21
185.9501272713
  0
LINE
  5
481
100
AcDbEntity
  8
0
100
AcDbLine
 62
7
  6
CONTINUOUS
 10
94.3158521789
 20
186.1822654967
 11
94.1893178779
 21
186.2836852061
  0
LINE
  5
482
100
AcDbEntity
  8
0
100
AcDbLine
 62
7
  6
CONTINUOUS
 10
129.5458855687
 20
187.1039048962
 11
129.4578225667
 21
187.2507305947
  0
LINE
  5
483
100
AcDbEntity
  8
0
100
AcDbLine
 62
7
  6
CONTINUOUS
 10
138.5266526907
 20
184.7154031121
 11
138.4554814155
 21
184.871120024
  0
LINE
  5
484
100
AcDbEntity
  8
0
100
AcDbLine
 62
7
  6
CONTINUOUS
 10
133.508852188
 20
186.0517494453
 11
133.4559747527
 21
186.1955566807
  0
LINE
  5
485
100
AcDbEntity
  8
0
100
AcDbLine
 62
7
  6
CONTINUOUS
 10
136.0357502158
 20
185.3552722638
 11
135.9711189979
 21
185.549073147
  0
LINE
  5
486
100
AcDbEntity
  8
0
100
AcDbLine
 62
7
  6
CONTINUOUS
 10
168.0361381282
 20
166.9191422554
 11
168.0284548327
 21
167.0397400095
  0
LINE
  5
487
100
AcDbEntity
  8
0
100
AcDbLine
 62
7
  6
CONTINUOUS
 10
168.0882792096
 20
166.4173743585
 11
168.0959624898
 21
166.2967766183
  0
LINE
  5
488
100
AcDbEntity
  8
0
100
AcDbLine
 62
7
  6
CONTINUOUS
 10
168.3830973927
 20
165.4020095309
 11
168.3774010564
 21
165.5227174613
  0
LINE
  5
489
100
AcDbEntity
  8
0
100
AcDbLine
 62
7
  6
CONTINUOUS
 10
169.6702385794
 20
166.1015831613
 11
169.6759349359
 21
165.9808752524
  0
LINE
  5
48A
100
AcDbEntity
  8
0
100
AcDbLine
 62
7
  6
CONTINUOUS
 10
172.0800732049
 20
162.0427218662
 11
172.0783916742
 21
161.9218913229
  0
LINE
  5
48B
100
AcDbEntity
  8
0
100
AcDbLine
 62
7
  6
CONTINUOUS
 10
173.1014645371
 20
162.3729347245
 11
173.1031461535
 21
162.4937653489
  0
LINE
  5
48C
100
AcDbEntity
  8
0
100
AcDbLine
 62
7
  6
CONTINUOUS
 10
173.9479635636
 20
161.8338206596
 11
173.9448464718
 21
161.7130186253
  0
LINE
  5
48D
100
AcDbEntity
  8
0
100
AcDbLine
 62
7
  6
CONTINUOUS
 10
167.8415298843
 20
166.0156752566
 11
167.7207654439
 21
166.0113390558
  0
LINE
  5
48E
100
AcDbEntity
  8
0
100
AcDbLine
 62
7
  6
CONTINUOUS
 10
168.2546171926
 20
167.2896079351
 11
168.3753816286
 21
167.2939441002
  0
LINE
  5
48F
100
AcDbEntity
  8
0
100
AcDbLine
 62
7
  6
CONTINUOUS
 10
169.2120436053
 20
166.4148654204
 11
169.3328630553
 21
166.4172123846
  0
LINE
  5
490
100
AcDbEntity
  8
0
100
AcDbLine
 62
7
  6
CONTINUOUS
 10
173.5530064464
 20
162.1372442611
 11
173.6736755907
 21
162.1307785561
  0
LINE
  5
491
100
AcDbEntity
  8
0
100
AcDbLine
 62
7
  6
CONTINUOUS
 10
87.5915363034
 20
185.4256998777
 11
87.3423634659
 21
185.546451875
  0
LINE
  5
492
100
AcDbEntity
  8
0
100
AcDbLine
 62
7
  6
CONTINUOUS
 10
94.1893178779
 20
186.2836852061
 11
94.0141071446
 21
186.3736749945
  0
LINE
  5
493
100
AcDbEntity
  8
0
100
AcDbLine
 62
7
  6
CONTINUOUS
 10
128.4834308241
 20
185.6430166169
 11
128.5997922778
 21
185.4904492773
  0
LINE
  5
494
100
AcDbEntity
  8
0
100
AcDbLine
 62
7
  6
CONTINUOUS
 10
131.1423469668
 20
185.0713518931
 11
131.2536491843
 21
184.9150552356
  0
LINE
  5
495
100
AcDbEntity
  8
0
100
AcDbLine
 62
7
  6
CONTINUOUS
 10
132.0867619345
 20
185.7998298259
 11
131.9754597145
 21
185.9561264726
  0
LINE
  5
496
100
AcDbEntity
  8
0
100
AcDbLine
 62
7
  6
CONTINUOUS
 10
132.4361198243
 20
184.7593054782
 11
132.5449731552
 21
184.6012935132
  0
LINE
  5
497
100
AcDbEntity
  8
0
100
AcDbLine
 62
7
  6
CONTINUOUS
 10
133.4559747527
 20
186.1955566807
 11
133.3471217394
 21
186.3535685538
  0
LINE
  5
498
100
AcDbEntity
  8
0
100
AcDbLine
 62
7
  6
CONTINUOUS
 10
128.9391603565
 20
186.5822160856
 11
128.8710188166
 21
186.6820137723
  0
LINE
  5
499
100
AcDbEntity
  8
0
100
AcDbLine
 62
7
  6
CONTINUOUS
 10
129.2400249701
 20
186.1772837085
 11
129.3081665101
 21
186.0774860218
  0
LINE
  5
49A
100
AcDbEntity
  8
0
100
AcDbLine
 62
7
  6
CONTINUOUS
 10
131.3303671003
 20
185.1133394091
 11
131.2655307467
 21
185.2153153621
  0
LINE
  5
49B
100
AcDbEntity
  8
0
100
AcDbLine
 62
7
  6
CONTINUOUS
 10
131.8987418045
 20
185.7578423242
 11
131.9635781581
 21
185.6558663712
  0
LINE
  5
49C
100
AcDbEntity
  8
0
100
AcDbLine
 62
7
  6
CONTINUOUS
 10
132.62477105
 20
184.7983582969
 11
132.561531851
 21
184.9013320518
  0
LINE
  5
49D
100
AcDbEntity
  8
0
100
AcDbLine
 62
7
  6
CONTINUOUS
 10
133.2673232103
 20
186.1565039576
 11
133.3305627296
 21
186.0535301214
  0
LINE
  5
49E
100
AcDbEntity
  8
0
100
AcDbLine
 62
7
  6
CONTINUOUS
 10
137.3081690652
 20
183.3818728171
 11
137.4068226067
 21
183.2173000002
  0
LINE
  5
49F
100
AcDbEntity
  8
0
100
AcDbLine
 62
7
  6
CONTINUOUS
 10
138.6009662925
 20
182.9603589666
 11
138.6970134875
 21
182.7942521371
  0
LINE
  5
4A0
100
AcDbEntity
  8
0
100
AcDbLine
 62
7
  6
CONTINUOUS
 10
139.582601405
 20
183.6057033611
 11
139.4865529549
 21
183.7718106053
  0
LINE
  5
4A1
100
AcDbEntity
  8
0
100
AcDbLine
 62
7
  6
CONTINUOUS
 10
139.7856323466
 20
184.293098442
 11
139.6895838965
 21
184.4592056863
  0
LINE
  5
4A2
100
AcDbEntity
  8
0
100
AcDbLine
 62
7
  6
CONTINUOUS
 10
135.7697649945
 20
185.4752843856
 11
135.8298394524
 21
185.3704325509
  0
LINE
  5
4A3
100
AcDbEntity
  8
0
100
AcDbLine
 62
7
  6
CONTINUOUS
 10
137.8656216475
 20
184.2645005229
 11
137.8090135839
 21
184.3712636948
  0
LINE
  5
4A4
100
AcDbEntity
  8
0
100
AcDbLine
 62
7
  6
CONTINUOUS
 10
138.1195368009
 20
183.8285917383
 11
138.1761448646
 21
183.7218285664
  0
LINE
  5
4A5
100
AcDbEntity
  8
0
100
AcDbLine
 62
7
  6
CONTINUOUS
 10
138.7921107978
 20
182.9844068397
 11
138.7371922231
 21
183.0920488291
  0
LINE
  5
4A6
100
AcDbEntity
  8
0
100
AcDbLine
 62
7
  6
CONTINUOUS
 10
139.3914569044
 20
183.581655502
 11
139.4463754792
 21
183.4740135125
  0
LINE
  5
4A7
100
AcDbEntity
  8
0
100
AcDbLine
 62
7
  6
CONTINUOUS
 10
139.5944878461
 20
184.2690505829
 11
139.6494064208
 21
184.1614085935
  0
LINE
  5
4A8
100
AcDbEntity
  8
0
100
AcDbLine
 62
7
  6
CONTINUOUS
 10
167.1649796576
 20
166.3439310132
 11
167.1872085431
 21
166.1533459336
  0
LINE
  5
4A9
100
AcDbEntity
  8
RUNDUNGEN
100
AcDbLine
 62
7
  6
CONTINUOUS
 10
182.3410243961
 20
164.1436939346
 11
181.8703756064
 21
169.5587891848
  0
LINE
  5
4AA
100
AcDbEntity
  8
RUNDUNGEN
100
AcDbLine
 62
7
  6
CONTINUOUS
 10
181.8703756064
 20
41.4178729644
 11
182.3410241782
 21
46.8329657076
  0
LINE
  5
4AB
100
AcDbEntity
  8
RUNDUNGEN
100
AcDbLine
 62
7
  6
CONTINUOUS
 10
198.4933323625
 20
143.1548103609
 11
198.4933405337
 21
143.1548435513
  0
LINE
  5
4AC
100
AcDbEntity
  8
RUNDUNGEN
100
AcDbLine
 62
7
  6
CONTINUOUS
 10
202.3315612837
 20
121.438665768
 11
204.6315139806
 21
126.3635978151
  0
LINE
  5
4AD
100
AcDbEntity
  8
RUNDUNGEN
100
AcDbLine
 62
7
  6
CONTINUOUS
 10
140.5610558704
 20
15.390309104
 11
143.6761958614
 21
19.8445926976
  0
LINE
  5
4AE
100
AcDbEntity
  8
RUNDUNGEN
100
AcDbLine
 62
7
  6
CONTINUOUS
 10
205.8254274055
 20
95.1856030146
 11
205.8254510771
 21
95.1856276727
  0
LINE
  5
4AF
100
AcDbEntity
  8
RUNDUNGEN
100
AcDbLine
 62
7
  6
CONTINUOUS
 10
198.2913588602
 20
74.4597556642
 11
202.7456423469
 21
77.5748955805
  0
LINE
  5
4B0
100
AcDbEntity
  8
RUNDUNGEN
100
AcDbLine
 62
7
  6
CONTINUOUS
 10
91.7723536358
 20
13.5044374703
 11
96.6972880812
 21
15.8043912872
  0
LINE
  5
4B1
100
AcDbEntity
  8
RUNDUNGEN
100
AcDbLine
 62
7
  6
CONTINUOUS
 10
188.1906059586
 20
49.9770038613
 11
188.1906388616
 21
49.9770133992
  0
LINE
  5
4B2
100
AcDbEntity
  8
0
100
AcDbLine
 62
7
  6
CONTINUOUS
 10
129.0396823368
 20
187.0776531723
 11
129.1329543659
 21
187.1017147283
  0
LINE
  5
4B3
100
AcDbEntity
  8
0
100
AcDbLine
 62
7
  6
CONTINUOUS
 10
138.0206730276
 20
184.7456674845
 11
138.1160439272
 21
184.7591960249
  0
LINE
  5
4B4
100
AcDbEntity
  8
0
100
AcDbLine
 62
7
  6
CONTINUOUS
 10
139.1475348226
 20
182.8636599043
 11
139.0519625724
 21
182.8516359747
  0
LINE
  5
4B5
100
AcDbEntity
  8
0
100
AcDbLine
 62
7
  6
CONTINUOUS
 10
139.0360328796
 20
183.7024024374
 11
139.1316051299
 21
183.7144263669
  0
LINE
  5
4B6
100
AcDbEntity
  8
RUNDUNGEN
100
AcDbLine
 62
7
  6
CONTINUOUS
 10
53.9922548788
 20
175.1817348652
 11
48.5771622661
 21
174.7110863047
  0
LINE
  5
4B7
100
AcDbEntity
  8
RUNDUNGEN
100
AcDbLine
 62
7
  6
CONTINUOUS
 10
176.7180784865
 20
174.7110863047
 11
171.3029857433
 21
175.1817348765
  0
LINE
  5
4B8
100
AcDbEntity
  8
0
100
AcDbLine
 62
7
  6
CONTINUOUS
 10
167.5725516457
 20
165.8045612496
 11
167.7147240035
 21
165.7895205283
  0
LINE
  5
4B9
100
AcDbEntity
  8
0
100
AcDbLine
 62
7
  6
CONTINUOUS
 10
168.5235953788
 20
167.5007219149
 11
168.3814230131
 21
167.5157626583
  0
LINE
  5
4BA
100
AcDbEntity
  8
0
100
AcDbLine
 62
7
  6
CONTINUOUS
 10
169.4844616876
 20
166.621521556
 11
169.3425563503
 21
166.6389013406
  0
LINE
  5
4BB
100
AcDbEntity
  8
0
100
AcDbLine
 62
7
  6
CONTINUOUS
 10
173.8088162278
 20
162.2949104193
 11
173.6685553736
 21
162.3225870905
  0
LINE
  5
4BC
100
AcDbEntity
  8
RUNDUNGEN
100
AcDbLine
 62
7
  6
CONTINUOUS
 10
74.9812818851
 20
191.3340120144
 11
74.9812378297
 21
191.3340226687
  0
LINE
  5
4BD
100
AcDbEntity
  8
0
100
AcDbLine
 62
7
  6
CONTINUOUS
 10
168.3753816286
 20
167.2939441002
 11
168.4678757641
 21
167.2670467993
  0
LINE
  5
4BE
100
AcDbEntity
  8
0
100
AcDbLine
 62
7
  6
CONTINUOUS
 10
90.5097543358
 20
183.5641098007
 11
90.6231615555
 21
183.5292804718
  0
LINE
  5
4BF
100
AcDbEntity
  8
0
100
AcDbLine
 62
7
  6
CONTINUOUS
 10
90.9965546383
 20
185.5533887241
 11
90.8831476959
 21
185.5882181239
  0
LINE
  5
4C0
100
AcDbEntity
  8
0
100
AcDbLine
 62
7
  6
CONTINUOUS
 10
168.5688741462
 20
164.8820712302
 11
168.6609128254
 21
164.8536544789
  0
LINE
  5
4C1
100
AcDbEntity
  8
0
100
AcDbLine
 62
7
  6
CONTINUOUS
 10
168.6993869089
 20
165.1061071693
 11
168.6073482323
 21
165.1345239233
  0
LINE
  5
4C2
100
AcDbEntity
  8
0
100
AcDbLine
 62
7
  6
CONTINUOUS
 10
93.9264440633
 20
186.0908269144
 11
94.0383870889
 21
186.0515468498
  0
LINE
  5
4C3
100
AcDbEntity
  8
RUNDUNGEN
100
AcDbLine
 62
7
  6
CONTINUOUS
 10
96.6972857831
 20
195.1722719352
 11
91.7723536358
 21
197.472224679
  0
LINE
  5
4C4
100
AcDbEntity
  8
RUNDUNGEN
100
AcDbLine
 62
7
  6
CONTINUOUS
 10
202.7456423469
 20
133.4017665687
 11
198.2913587533
 21
136.5169065598
  0
LINE
  5
4C5
100
AcDbEntity
  8
0
100
AcDbLine
 62
7
  6
CONTINUOUS
 10
129.0156787262
 20
186.5237048131
 11
128.9391603565
 21
186.5822160856
  0
LINE
  5
4C6
100
AcDbEntity
  8
0
100
AcDbLine
 62
7
  6
CONTINUOUS
 10
129.3027447648
 20
187.0672650119
 11
129.3792631345
 21
187.0087537395
  0
LINE
  5
4C7
100
AcDbEntity
  8
RUNDUNGEN
100
AcDbLine
 62
7
  6
CONTINUOUS
 10
122.9503306887
 20
198.6661545021
 11
122.950308376
 21
198.666175839
  0
LINE
  5
4C8
100
AcDbEntity
  8
0
100
AcDbLine
 62
7
  6
CONTINUOUS
 10
137.9351506565
 20
184.1978345885
 11
137.8656216475
 21
184.2645005229
  0
LINE
  5
4C9
100
AcDbEntity
  8
0
100
AcDbLine
 62
7
  6
CONTINUOUS
 10
138.2809438358
 20
184.7060586309
 11
138.3504728448
 21
184.6393926965
  0
LINE
  5
4CA
100
AcDbEntity
  8
0
100
AcDbLine
 62
7
  6
CONTINUOUS
 10
138.8605805977
 20
182.9166534899
 11
138.7921107978
 21
182.9844068397
  0
LINE
  5
4CB
100
AcDbEntity
  8
0
100
AcDbLine
 62
7
  6
CONTINUOUS
 10
139.3229871046
 20
183.6494088517
 11
139.3914569044
 21
183.581655502
  0
LINE
  5
4CC
100
AcDbEntity
  8
0
100
AcDbLine
 62
7
  6
CONTINUOUS
 10
128.7641610925
 20
186.4457785146
 11
128.8606009243
 21
186.3402392304
  0
LINE
  5
4CD
100
AcDbEntity
  8
0
100
AcDbLine
 62
7
  6
CONTINUOUS
 10
129.4150242341
 20
186.3137212794
 11
129.3185842404
 21
186.4192605965
  0
LINE
  5
4CE
100
AcDbEntity
  8
0
100
AcDbLine
 62
7
  6
CONTINUOUS
 10
135.9711189979
 20
185.549073147
 11
135.8832856911
 21
185.6618763749
  0
LINE
  5
4CF
100
AcDbEntity
  8
0
100
AcDbLine
 62
7
  6
CONTINUOUS
 10
137.6765214854
 20
184.1483926672
 11
137.7606124478
 21
184.0327733982
  0
LINE
  5
4D0
100
AcDbEntity
  8
0
100
AcDbLine
 62
7
  6
CONTINUOUS
 10
138.3086375921
 20
183.9446993912
 11
138.2245466297
 21
184.0603186603
  0
LINE
  5
4D1
100
AcDbEntity
  8
RUNDUNGEN
100
AcDbLine
 62
7
  6
CONTINUOUS
 10
143.6761957866
 20
191.1320695586
 11
140.5610558704
 21
195.5863530452
  0
LINE
  5
4D2
100
AcDbEntity
  8
RUNDUNGEN
100
AcDbLine
 62
7
  6
CONTINUOUS
 10
204.6315139806
 20
84.6130643341
 11
202.3315612284
 21
89.5379964995
  0
LINE
  5
4D3
100
AcDbEntity
  8
0
100
AcDbLine
 62
7
  6
CONTINUOUS
 10
168.0720916936
 20
166.829777995
 11
168.0361381282
 21
166.9191422554
  0
LINE
  5
4D4
100
AcDbEntity
  8
0
100
AcDbLine
 62
7
  6
CONTINUOUS
 10
168.596323465
 20
167.150785238
 11
168.6322769997
 21
167.0614210052
  0
LINE
  5
4D5
100
AcDbEntity
  8
RUNDUNGEN
100
AcDbLine
 62
7
  6
CONTINUOUS
 10
168.1589481192
 20
181.0313150008
 11
168.1589386004
 21
181.0313478301
  0
LINE
  5
4D6
100
AcDbEntity
  8
0
100
AcDbLine
 62
7
  6
CONTINUOUS
 10
167.816017232
 20
166.8910929754
 11
167.8451084573
 21
166.7511183129
  0
LINE
  5
4D7
100
AcDbEntity
  8
0
100
AcDbLine
 62
7
  6
CONTINUOUS
 10
168.3084000598
 20
166.4454236801
 11
168.2793088499
 21
166.5853983287
  0
LINE
  5
4D8
100
AcDbEntity
  8
0
100
AcDbLine
 62
7
  6
CONTINUOUS
 10
168.1625444906
 20
165.3775887299
 11
168.1893267268
 21
165.2371540641
  0
LINE
  5
4D9
100
AcDbEntity
  8
0
100
AcDbLine
 62
7
  6
CONTINUOUS
 10
169.8907914715
 20
166.1260039515
 11
169.864009107
 21
166.2664387221
  0
LINE
  5
4DA
100
AcDbEntity
  8
0
100
AcDbLine
 62
7
  6
CONTINUOUS
 10
174.1583552933
 20
161.7923051672
 11
174.1418806753
 21
161.9343181676
  0
LINE
  5
4DB
100
AcDbEntity
  8
RUNDUNGEN
100
AcDbLine
 62
7
  6
CONTINUOUS
 10
197.4854698681
 20
138.5850068467
 11
197.4390160755
 21
138.1960788263
  0
LINE
  5
4DC
100
AcDbEntity
  8
RUNDUNGEN
100
AcDbLine
 62
7
  6
CONTINUOUS
 10
182.412979392
 20
47.2177649762
 11
182.3410220395
 21
46.8329684194
  0
LINE
  5
4DD
100
AcDbEntity
  8
RUNDUNGEN
100
AcDbLine
 62
7
  6
CONTINUOUS
 10
198.4932526953
 20
143.1544439833
 11
197.4881869728
 21
138.582533537
  0
LINE
  5
4DE
100
AcDbEntity
  8
RUNDUNGEN
100
AcDbLine
 62
7
  6
CONTINUOUS
 10
169.5746050925
 20
34.4076277364
 11
168.1590187249
 21
29.9455668768
  0
LINE
  5
4DF
100
AcDbEntity
  8
RUNDUNGEN
100
AcDbLine
 62
7
  6
CONTINUOUS
 10
202.2014788125
 20
121.0694406971
 11
202.3315603139
 21
121.4386632995
  0
LINE
  5
4E0
100
AcDbEntity
  8
RUNDUNGEN
100
AcDbLine
 62
7
  6
CONTINUOUS
 10
169.5710106265
 20
34.4068458286
 11
169.7252459798
 21
34.766893201
  0
LINE
  5
4E1
100
AcDbEntity
  8
RUNDUNGEN
100
AcDbLine
 62
7
  6
CONTINUOUS
 10
202.6676911246
 20
91.7319683281
 11
202.43299695
 21
91.4183736785
  0
LINE
  5
4E2
100
AcDbEntity
  8
RUNDUNGEN
100
AcDbLine
 62
7
  6
CONTINUOUS
 10
143.9309105388
 20
20.1418610327
 11
143.6761953651
 21
19.8445961154
  0
LINE
  5
4E3
100
AcDbEntity
  8
RUNDUNGEN
100
AcDbLine
 62
7
  6
CONTINUOUS
 10
205.8251752229
 20
95.1853255559
 11
202.6688075516
 21
91.7284678268
  0
LINE
  5
4E4
100
AcDbEntity
  8
RUNDUNGEN
100
AcDbLine
 62
7
  6
CONTINUOUS
 10
126.4074836322
 20
15.4671439067
 11
122.9505194468
 21
12.3106790329
  0
LINE
  5
4E5
100
AcDbEntity
  8
RUNDUNGEN
100
AcDbLine
 62
7
  6
CONTINUOUS
 10
197.9940916002
 20
74.2050386087
 11
198.2913567862
 21
74.4597540113
  0
LINE
  5
4E6
100
AcDbEntity
  8
RUNDUNGEN
100
AcDbLine
 62
7
  6
CONTINUOUS
 10
126.4039797795
 20
15.4682639878
 11
126.7175751998
 21
15.7029564821
  0
LINE
  5
4E7
100
AcDbEntity
  8
RUNDUNGEN
100
AcDbLine
 62
7
  6
CONTINUOUS
 10
183.7291071216
 20
48.5649360983
 11
183.3690586795
 21
48.4107022526
  0
LINE
  5
4E8
100
AcDbEntity
  8
RUNDUNGEN
100
AcDbLine
 62
7
  6
CONTINUOUS
 10
97.06650935
 20
15.9344748137
 11
96.6972870803
 21
15.8043934305
  0
LINE
  5
4E9
100
AcDbEntity
  8
RUNDUNGEN
100
AcDbLine
 62
7
  6
CONTINUOUS
 10
188.1902478805
 20
49.9768893601
 11
183.728323725
 21
48.5613463617
  0
LINE
  5
4EA
100
AcDbEntity
  8
0
100
AcDbLine
 62
7
  6
CONTINUOUS
 10
90.8329420234
 20
183.5211367334
 11
91.2184366706
 21
183.6278795532
  0
LINE
  5
4EB
100
AcDbEntity
  8
0
100
AcDbLine
 62
7
  6
CONTINUOUS
 10
91.0539291908
 20
183.847254098
 11
90.8611821429
 21
183.7938827645
  0
LINE
  5
4EC
100
AcDbEntity
  8
0
100
AcDbLine
 62
7
  6
CONTINUOUS
 10
90.4523800561
 20
185.2702445138
 11
90.645127104
 21
185.3236158474
  0
LINE
  5
4ED
100
AcDbEntity
  8
0
100
AcDbLine
 62
7
  6
CONTINUOUS
 10
90.6733672295
 20
185.596361857
 11
90.2878725823
 21
185.4896190371
  0
LINE
  5
4EE
100
AcDbEntity
  8
0
100
AcDbLine
 62
7
  6
CONTINUOUS
 10
92.1844775067
 20
183.8862542586
 11
92.4264704515
 21
183.9490197752
  0
LINE
  5
4EF
100
AcDbEntity
  8
0
100
AcDbLine
 62
7
  6
CONTINUOUS
 10
91.6732848262
 20
186.8529328962
 11
91.4312918815
 21
186.7901673795
  0
LINE
  5
4F0
100
AcDbEntity
  8
0
100
AcDbLine
 62
7
  6
CONTINUOUS
 10
92.8140584591
 20
184.0478906287
 11
93.0565471334
 21
184.108712814
  0
LINE
  5
4F1
100
AcDbEntity
  8
0
100
AcDbLine
 62
7
  6
CONTINUOUS
 10
92.5596173335
 20
186.0898953018
 11
92.3171286593
 21
186.0290731165
  0
LINE
  5
4F2
100
AcDbEntity
  8
0
100
AcDbLine
 62
7
  6
CONTINUOUS
 10
92.1618380669
 20
186.6481927632
 11
92.4043267412
 21
186.7090149485
  0
LINE
  5
4F3
100
AcDbEntity
  8
0
100
AcDbLine
 62
7
  6
CONTINUOUS
 10
92.3266814667
 20
187.0185746851
 11
92.0841927925
 21
186.9577524998
  0
LINE
  5
4F4
100
AcDbEntity
  8
0
100
AcDbLine
 62
7
  6
CONTINUOUS
 10
93.4442394419
 20
184.2073193252
 11
93.6876193749
 21
184.2644684064
  0
LINE
  5
4F5
100
AcDbEntity
  8
0
100
AcDbLine
 62
7
  6
CONTINUOUS
 10
94.5637884706
 20
184.4702054129
 11
94.8071689606
 21
184.5273546249
  0
LINE
  5
4F6
100
AcDbEntity
  8
0
100
AcDbLine
 62
7
  6
CONTINUOUS
 10
93.8534876867
 20
186.4015251382
 11
93.6587830718
 21
186.3558057163
  0
LINE
  5
4F7
100
AcDbEntity
  8
0
100
AcDbLine
 62
7
  6
CONTINUOUS
 10
93.220698524
 20
186.252937213
 11
92.977318591
 21
186.1957881318
  0
LINE
  5
4F8
100
AcDbEntity
  8
RUNDUNGEN
100
AcDbLine
 62
7
  6
CONTINUOUS
 10
145.741822828
 20
190.3288976688
 11
150.3138735827
 21
191.333994236
  0
LINE
  5
4F9
100
AcDbEntity
  8
0
100
AcDbLine
 62
7
  6
CONTINUOUS
 10
95.1976174367
 20
184.6144730753
 11
95.4422068067
 21
184.6662016875
  0
LINE
  5
4FA
100
AcDbEntity
  8
0
100
AcDbLine
 62
7
  6
CONTINUOUS
 10
96.2738121204
 20
184.8420792769
 11
96.5673198123
 21
184.9041537063
  0
LINE
  5
4FB
100
AcDbEntity
  8
0
100
AcDbLine
 62
7
  6
CONTINUOUS
 10
95.949013245
 20
186.861120854
 11
95.6555061129
 21
186.799046543
  0
LINE
  5
4FC
100
AcDbEntity
  8
0
100
AcDbLine
 62
7
  6
CONTINUOUS
 10
94.8214625127
 20
187.6012786067
 11
94.5768731427
 21
187.5495499945
  0
LINE
  5
4FD
100
AcDbEntity
  8
RUNDUNGEN
100
AcDbLine
 62
7
  6
CONTINUOUS
 10
54.377054406
 20
175.2536926761
 11
53.9922575019
 21
175.1817352597
  0
LINE
  5
4FE
100
AcDbEntity
  8
0
100
AcDbLine
 62
7
  6
CONTINUOUS
 10
129.131126166
 20
185.6405602365
 11
129.0095556831
 21
185.6222403107
  0
LINE
  5
4FF
100
AcDbEntity
  8
0
100
AcDbLine
 62
7
  6
CONTINUOUS
 10
129.1832153443
 20
187.3494332138
 11
129.0616448614
 21
187.3311132881
  0
LINE
  5
500
100
AcDbEntity
  8
0
100
AcDbLine
 62
7
  6
CONTINUOUS
 10
139.2664037457
 20
184.3805094234
 11
139.361975996
 21
184.3925333529
  0
LINE
  5
501
100
AcDbEntity
  8
RUNDUNGEN
100
AcDbLine
 62
7
  6
CONTINUOUS
 10
145.7442972129
 20
190.3261757238
 11
145.3553693652
 21
190.2797237718
  0
LINE
  5
502
100
AcDbEntity
  8
0
100
AcDbLine
 62
7
  6
CONTINUOUS
 10
131.7236995154
 20
185.020024015
 11
131.6015943927
 21
185.0056956222
  0
LINE
  5
503
100
AcDbEntity
  8
0
100
AcDbLine
 62
7
  6
CONTINUOUS
 10
131.5054093893
 20
185.8511577183
 11
131.6275148336
 21
185.8654860348
  0
LINE
  5
504
100
AcDbEntity
  8
0
100
AcDbLine
 62
7
  6
CONTINUOUS
 10
128.9592946988
 20
185.3745217963
 11
129.1091634743
 21
185.3871001281
  0
LINE
  5
505
100
AcDbEntity
  8
0
100
AcDbLine
 62
7
  6
CONTINUOUS
 10
87.3423634659
 20
185.546451875
 11
87.0848461126
 21
185.5303559945
  0
LINE
  5
506
100
AcDbEntity
  8
0
100
AcDbLine
 62
7
  6
CONTINUOUS
 10
131.5529715335
 20
184.8007460871
 11
131.7031717148
 21
184.8084091255
  0
LINE
  5
507
100
AcDbEntity
  8
0
100
AcDbLine
 62
7
  6
CONTINUOUS
 10
131.676137686
 20
186.0704355413
 11
131.5259371841
 21
186.0627725828
  0
LINE
  5
508
100
AcDbEntity
  8
0
100
AcDbLine
 62
7
  6
CONTINUOUS
 10
137.9515644846
 20
183.3073275673
 11
137.8287106862
 21
183.3026551241
  0
LINE
  5
509
100
AcDbEntity
  8
0
100
AcDbLine
 62
7
  6
CONTINUOUS
 10
138.1935695991
 20
184.9997794495
 11
138.0707151717
 21
184.995107209
  0
LINE
  5
50A
100
AcDbEntity
  8
0
100
AcDbLine
 62
7
  6
CONTINUOUS
 10
132.9046502209
 20
184.7273347838
 11
132.7543488718
 21
184.7220130598
  0
LINE
  5
50B
100
AcDbEntity
  8
0
100
AcDbLine
 62
7
  6
CONTINUOUS
 10
132.9874440394
 20
186.2275274707
 11
133.1377460291
 21
186.2328490321
  0
LINE
  5
50C
100
AcDbEntity
  8
0
100
AcDbLine
 62
7
  6
CONTINUOUS
 10
135.3811436506
 20
185.5866031612
 11
135.5315379868
 21
185.5873452963
  0
LINE
  5
50D
100
AcDbEntity
  8
0
100
AcDbLine
 62
7
  6
CONTINUOUS
 10
132.7025384447
 20
184.517846035
 11
132.880827904
 21
184.5160653624
  0
LINE
  5
50E
100
AcDbEntity
  8
0
100
AcDbLine
 62
7
  6
CONTINUOUS
 10
133.1895564489
 20
186.4370160284
 11
133.0112669905
 21
186.4387967045
  0
LINE
  5
50F
100
AcDbEntity
  8
0
100
AcDbLine
 62
7
  6
CONTINUOUS
 10
137.7511850052
 20
183.0620716714
 11
137.9015229615
 21
183.0578876155
  0
LINE
  5
510
100
AcDbEntity
  8
0
100
AcDbLine
 62
7
  6
CONTINUOUS
 10
90.6231615555
 20
183.5292804718
 11
90.8329420234
 21
183.5211367334
  0
LINE
  5
511
100
AcDbEntity
  8
0
100
AcDbLine
 62
7
  6
CONTINUOUS
 10
90.8611821429
 20
183.7938827645
 11
90.6514013948
 21
183.8020264427
  0
LINE
  5
512
100
AcDbEntity
  8
0
100
AcDbLine
 62
7
  6
CONTINUOUS
 10
90.645127104
 20
185.3236158474
 11
90.8549078461
 21
185.3154721907
  0
LINE
  5
513
100
AcDbEntity
  8
0
100
AcDbLine
 62
7
  6
CONTINUOUS
 10
90.8831476959
 20
185.5882181239
 11
90.6733672295
 21
185.596361857
  0
LINE
  5
514
100
AcDbEntity
  8
0
100
AcDbLine
 62
7
  6
CONTINUOUS
 10
138.9568665124
 20
182.6614808434
 11
139.1071186129
 21
182.6549285865
  0
LINE
  5
515
100
AcDbEntity
  8
0
100
AcDbLine
 62
7
  6
CONTINUOUS
 10
139.2267011803
 20
183.9045814703
 11
139.0764478295
 21
183.9111341559
  0
LINE
  5
516
100
AcDbEntity
  8
0
100
AcDbLine
 62
7
  6
CONTINUOUS
 10
139.4570720464
 20
184.5826884563
 11
139.3068186956
 21
184.5892411418
  0
LINE
  5
517
100
AcDbEntity
  8
0
100
AcDbLine
 62
7
  6
CONTINUOUS
 10
135.6172998345
 20
185.7818886787
 11
135.4113890711
 21
185.7970489658
  0
LINE
  5
518
100
AcDbEntity
  8
0
100
AcDbLine
 62
7
  6
CONTINUOUS
 10
93.7171481731
 20
186.1072471372
 11
93.9264440633
 21
186.0908269144
  0
LINE
  5
519
100
AcDbEntity
  8
0
100
AcDbLine
 62
7
  6
CONTINUOUS
 10
87.2305146996
 20
185.2420216796
 11
87.3928721819
 21
185.2273830763
  0
LINE
  5
51A
100
AcDbEntity
  8
RUNDUNGEN
100
AcDbLine
 62
7
  6
CONTINUOUS
 10
79.5509445608
 20
190.3261803689
 11
79.9398725612
 21
190.279726671
  0
LINE
  5
51B
100
AcDbEntity
  8
0
100
AcDbLine
 62
7
  6
CONTINUOUS
 10
94.0141071446
 20
186.3736749945
 11
93.8534876867
 21
186.4015251382
  0
LINE
  5
51C
100
AcDbEntity
  8
0
100
AcDbLine
 62
7
  6
CONTINUOUS
 10
127.0880737873
 20
185.7354956286
 11
128.1099469913
 21
185.5448771487
  0
LINE
  5
51D
100
AcDbEntity
  8
0
100
AcDbLine
 62
7
  6
CONTINUOUS
 10
128.1562979893
 20
185.7933569546
 11
127.304736986
 21
185.9522056878
  0
LINE
  5
51E
100
AcDbEntity
  8
0
100
AcDbLine
 62
7
  6
CONTINUOUS
 10
127.6214688067
 20
187.6501510325
 11
127.451156606
 21
187.6819207791
  0
LINE
  5
51F
100
AcDbEntity
  8
RUNDUNGEN
100
AcDbLine
 62
7
  6
CONTINUOUS
 10
170.9181864747
 20
175.2536900903
 11
171.3029830315
 21
175.1817327378
  0
LINE
  5
520
100
AcDbEntity
  8
0
100
AcDbLine
 62
7
  6
CONTINUOUS
 10
128.7329075543
 20
185.4204547405
 11
128.9592946988
 21
185.3745217963
  0
LINE
  5
521
100
AcDbEntity
  8
0
100
AcDbLine
 62
7
  6
CONTINUOUS
 10
129.0095556831
 20
185.6222403107
 11
128.7831685386
 21
185.668173255
  0
LINE
  5
522
100
AcDbEntity
  8
0
100
AcDbLine
 62
7
  6
CONTINUOUS
 10
128.6154190462
 20
186.0031111607
 11
128.4456287283
 21
186.0375608607
  0
LINE
  5
523
100
AcDbEntity
  8
0
100
AcDbLine
 62
7
  6
CONTINUOUS
 10
128.9654177478
 20
186.2759863276
 11
129.1352081467
 21
186.2415366113
  0
LINE
  5
524
100
AcDbEntity
  8
0
100
AcDbLine
 62
7
  6
CONTINUOUS
 10
129.1854691251
 20
186.4892550968
 11
129.0156787262
 21
186.5237048131
  0
LINE
  5
525
100
AcDbEntity
  8
0
100
AcDbLine
 62
7
  6
CONTINUOUS
 10
129.430651015
 20
186.8263832243
 11
129.6004414138
 21
186.7919335079
  0
LINE
  5
526
100
AcDbEntity
  8
0
100
AcDbLine
 62
7
  6
CONTINUOUS
 10
129.1329543659
 20
187.1017147283
 11
129.3027447648
 21
187.0672650119
  0
LINE
  5
527
100
AcDbEntity
  8
0
100
AcDbLine
 62
7
  6
CONTINUOUS
 10
129.3247072894
 20
187.3207251278
 11
129.1832153443
 21
187.3494332138
  0
LINE
  5
528
100
AcDbEntity
  8
RUNDUNGEN
100
AcDbLine
 62
7
  6
CONTINUOUS
 10
79.5534182955
 20
190.3288975873
 11
74.9817176097
 21
191.3339171971
  0
LINE
  5
529
100
AcDbEntity
  8
0
100
AcDbLine
 62
7
  6
CONTINUOUS
 10
131.3844005444
 20
184.840738388
 11
131.5529715335
 21
184.8007460871
  0
LINE
  5
52A
100
AcDbEntity
  8
0
100
AcDbLine
 62
7
  6
CONTINUOUS
 10
131.6015943927
 20
185.0056956222
 11
131.4330234036
 21
185.0456879231
  0
LINE
  5
52B
100
AcDbEntity
  8
0
100
AcDbLine
 62
7
  6
CONTINUOUS
 10
131.2482389201
 20
185.3926057121
 11
131.079667931
 21
185.4325980129
  0
LINE
  5
52C
100
AcDbEntity
  8
0
100
AcDbLine
 62
7
  6
CONTINUOUS
 10
131.1671890789
 20
185.8015071819
 11
131.3638551257
 21
185.754849523
  0
LINE
  5
52D
100
AcDbEntity
  8
0
100
AcDbLine
 62
7
  6
CONTINUOUS
 10
131.6275148336
 20
185.8654860348
 11
131.7960858227
 21
185.825493734
  0
LINE
  5
52E
100
AcDbEntity
  8
0
100
AcDbLine
 62
7
  6
CONTINUOUS
 10
131.8447086751
 20
186.0304432404
 11
131.676137686
 21
186.0704355413
  0
LINE
  5
52F
100
AcDbEntity
  8
0
100
AcDbLine
 62
7
  6
CONTINUOUS
 10
131.5118806961
 20
186.6289683571
 11
132.326640584
 21
186.4356722109
  0
LINE
  5
530
100
AcDbEntity
  8
0
100
AcDbLine
 62
7
  6
CONTINUOUS
 10
132.3752634364
 20
186.6406217173
 11
131.4200279385
 21
186.86724473
  0
LINE
  5
531
100
AcDbEntity
  8
0
100
AcDbLine
 62
7
  6
CONTINUOUS
 10
133.6140338182
 20
185.0221552365
 11
134.0046266284
 21
184.9179672282
  0
LINE
  5
532
100
AcDbEntity
  8
0
100
AcDbLine
 62
7
  6
CONTINUOUS
 10
134.0589148169
 20
185.1214894613
 11
133.6683220068
 21
185.2256774697
  0
LINE
  5
533
100
AcDbEntity
  8
0
100
AcDbLine
 62
7
  6
CONTINUOUS
 10
134.2101255575
 20
184.1198918115
 11
134.3772073312
 21
184.0740743105
  0
LINE
  5
534
100
AcDbEntity
  8
0
100
AcDbLine
 62
7
  6
CONTINUOUS
 10
134.9008359138
 20
185.9835802957
 11
134.7337541401
 21
186.0293977966
  0
LINE
  5
535
100
AcDbEntity
  8
0
100
AcDbLine
 62
7
  6
CONTINUOUS
 10
134.6001689895
 20
184.013611864
 11
135.5994799274
 21
183.7273638959
  0
LINE
  5
536
100
AcDbEntity
  8
0
100
AcDbLine
 62
7
  6
CONTINUOUS
 10
135.6574835696
 20
183.9298585177
 11
134.8802415172
 21
184.1524958869
  0
LINE
  5
537
100
AcDbEntity
  8
0
100
AcDbLine
 62
7
  6
CONTINUOUS
 10
135.0455540685
 20
185.4636217709
 11
135.1843470425
 21
185.4238651693
  0
LINE
  5
538
100
AcDbEntity
  8
0
100
AcDbLine
 62
7
  6
CONTINUOUS
 10
135.5315379868
 20
185.5873452963
 11
135.6425721119
 21
185.5555400879
  0
LINE
  5
539
100
AcDbEntity
  8
0
100
AcDbLine
 62
7
  6
CONTINUOUS
 10
135.7283345949
 20
185.7500832883
 11
135.6172998345
 21
185.7818886787
  0
LINE
  5
53A
100
AcDbEntity
  8
RUNDUNGEN
100
AcDbLine
 62
7
  6
CONTINUOUS
 10
183.7283237145
 20
162.4153157908
 11
188.1903840991
 21
160.9997295739
  0
LINE
  5
53B
100
AcDbEntity
  8
0
100
AcDbLine
 62
7
  6
CONTINUOUS
 10
137.5313186701
 20
183.1329214624
 11
137.7511850052
 21
183.0620716714
  0
LINE
  5
53C
100
AcDbEntity
  8
0
100
AcDbLine
 62
7
  6
CONTINUOUS
 10
137.8287106862
 20
183.3026551241
 11
137.6088443511
 21
183.3735049151
  0
LINE
  5
53D
100
AcDbEntity
  8
0
100
AcDbLine
 62
7
  6
CONTINUOUS
 10
137.4794240132
 20
183.7250355991
 11
137.3145241046
 21
183.778172993
  0
LINE
  5
53E
100
AcDbEntity
  8
0
100
AcDbLine
 62
7
  6
CONTINUOUS
 10
137.8576249846
 20
183.9572511639
 11
138.0225248932
 21
183.9041137699
  0
LINE
  5
53F
100
AcDbEntity
  8
0
100
AcDbLine
 62
7
  6
CONTINUOUS
 10
138.1000505651
 20
184.1446971945
 11
137.9351506565
 21
184.1978345885
  0
LINE
  5
540
100
AcDbEntity
  8
0
100
AcDbLine
 62
7
  6
CONTINUOUS
 10
138.3812390178
 20
184.4524350498
 11
138.5461389265
 21
184.3992976558
  0
LINE
  5
541
100
AcDbEntity
  8
0
100
AcDbLine
 62
7
  6
CONTINUOUS
 10
138.1160439272
 20
184.7591960249
 11
138.2809438358
 21
184.7060586309
  0
LINE
  5
542
100
AcDbEntity
  8
0
100
AcDbLine
 62
7
  6
CONTINUOUS
 10
138.33098598
 20
184.9554983555
 11
138.1935695991
 21
184.9997794495
  0
LINE
  5
543
100
AcDbEntity
  8
0
100
AcDbLine
 62
7
  6
CONTINUOUS
 10
138.8201643868
 20
182.7079221687
 11
138.9568665124
 21
182.6614808434
  0
LINE
  5
544
100
AcDbEntity
  8
0
100
AcDbLine
 62
7
  6
CONTINUOUS
 10
139.0519625724
 20
182.8516359747
 11
138.8605805977
 21
182.9166534899
  0
LINE
  5
545
100
AcDbEntity
  8
0
100
AcDbLine
 62
7
  6
CONTINUOUS
 10
139.1316051299
 20
183.7144263669
 11
139.3229871046
 21
183.6494088517
  0
LINE
  5
546
100
AcDbEntity
  8
0
100
AcDbLine
 62
7
  6
CONTINUOUS
 10
139.363403306
 20
183.858140145
 11
139.2267011803
 21
183.9045814703
  0
LINE
  5
547
100
AcDbEntity
  8
0
100
AcDbLine
 62
7
  6
CONTINUOUS
 10
139.6634325942
 20
184.0231664846
 11
139.8001347199
 21
183.9767251593
  0
LINE
  5
548
100
AcDbEntity
  8
0
100
AcDbLine
 62
7
  6
CONTINUOUS
 10
139.361975996
 20
184.3925333529
 11
139.5260180462
 21
184.3368039327
  0
LINE
  5
549
100
AcDbEntity
  8
0
100
AcDbLine
 62
7
  6
CONTINUOUS
 10
139.566432996
 20
184.5455356512
 11
139.4570720464
 21
184.5826884563
  0
LINE
  5
54A
100
AcDbEntity
  8
0
100
AcDbLine
 62
7
  6
CONTINUOUS
 10
139.5845822674
 20
182.4446126164
 11
139.7208087002
 21
182.3967939291
  0
LINE
  5
54B
100
AcDbEntity
  8
0
100
AcDbLine
 62
7
  6
CONTINUOUS
 10
139.7905743547
 20
182.5955431375
 11
139.6543479219
 21
182.6433618248
  0
LINE
  5
54C
100
AcDbEntity
  8
RUNDUNGEN
100
AcDbLine
 62
7
  6
CONTINUOUS
 10
97.0665107534
 20
195.0421895102
 11
96.6972881509
 21
195.1722710112
  0
LINE
  5
54D
100
AcDbEntity
  8
0
100
AcDbLine
 62
7
  6
CONTINUOUS
 10
140.1017783585
 20
182.2615893296
 11
140.2649114827
 21
182.2032528376
  0
LINE
  5
54E
100
AcDbEntity
  8
0
100
AcDbLine
 62
7
  6
CONTINUOUS
 10
140.931614248
 20
184.0676313997
 11
140.7684811239
 21
184.1259678917
  0
LINE
  5
54F
100
AcDbEntity
  8
0
100
AcDbLine
 62
7
  6
CONTINUOUS
 10
167.7207654439
 20
166.0113390558
 11
167.606863348
 21
166.0576132928
  0
LINE
  5
550
100
AcDbEntity
  8
0
100
AcDbLine
 62
7
  6
CONTINUOUS
 10
168.6374974747
 20
167.4544476779
 11
168.5235953788
 21
167.5007219149
  0
LINE
  5
551
100
AcDbEntity
  8
0
100
AcDbLine
 62
7
  6
CONTINUOUS
 10
169.3328630553
 20
166.4172123846
 11
169.4459877399
 21
166.3690687688
  0
LINE
  5
552
100
AcDbEntity
  8
RUNDUNGEN
100
AcDbLine
 62
7
  6
CONTINUOUS
 10
183.7291056223
 20
162.4117213248
 11
183.3690582499
 21
162.5659566782
  0
LINE
  5
553
100
AcDbEntity
  8
0
100
AcDbLine
 62
7
  6
CONTINUOUS
 10
167.4372416176
 20
165.8702123923
 11
167.5725516457
 21
165.8045612496
  0
LINE
  5
554
100
AcDbEntity
  8
0
100
AcDbLine
 62
7
  6
CONTINUOUS
 10
168.4346635718
 20
164.9499415922
 11
168.5688741462
 21
164.8820712302
  0
LINE
  5
555
100
AcDbEntity
  8
0
100
AcDbLine
 62
7
  6
CONTINUOUS
 10
169.6186723802
 20
166.5536510785
 11
169.4844616876
 21
166.621521556
  0
LINE
  5
556
100
AcDbEntity
  8
0
100
AcDbLine
 62
7
  6
CONTINUOUS
 10
128.5997922778
 20
185.4904492773
 11
128.7329075543
 21
185.4204547405
  0
LINE
  5
557
100
AcDbEntity
  8
0
100
AcDbLine
 62
7
  6
CONTINUOUS
 10
129.3185842404
 20
186.4192605965
 11
129.1854691251
 21
186.4892550968
  0
LINE
  5
558
100
AcDbEntity
  8
0
100
AcDbLine
 62
7
  6
CONTINUOUS
 10
129.4578225667
 20
187.2507305947
 11
129.3247072894
 21
187.3207251278
  0
LINE
  5
559
100
AcDbEntity
  8
0
100
AcDbLine
 62
7
  6
CONTINUOUS
 10
132.5449731552
 20
184.6012935132
 11
132.7025384447
 21
184.517846035
  0
LINE
  5
55A
100
AcDbEntity
  8
0
100
AcDbLine
 62
7
  6
CONTINUOUS
 10
133.3471217394
 20
186.3535685538
 11
133.1895564489
 21
186.4370160284
  0
LINE
  5
55B
100
AcDbEntity
  8
0
100
AcDbLine
 62
7
  6
CONTINUOUS
 10
131.2536491843
 20
184.9150552356
 11
131.3844005444
 21
184.840738388
  0
LINE
  5
55C
100
AcDbEntity
  8
0
100
AcDbLine
 62
7
  6
CONTINUOUS
 10
131.9754597145
 20
185.9561264726
 11
131.8447086751
 21
186.0304432404
  0
LINE
  5
55D
100
AcDbEntity
  8
0
100
AcDbLine
 62
7
  6
CONTINUOUS
 10
135.8832856911
 20
185.6618763749
 11
135.7283345949
 21
185.7500832883
  0
LINE
  5
55E
100
AcDbEntity
  8
0
100
AcDbLine
 62
7
  6
CONTINUOUS
 10
132.7543488718
 20
184.7220130598
 11
132.62477105
 21
184.7983582969
  0
LINE
  5
55F
100
AcDbEntity
  8
0
100
AcDbLine
 62
7
  6
CONTINUOUS
 10
133.1377460291
 20
186.2328490321
 11
133.2673232103
 21
186.1565039576
  0
LINE
  5
560
100
AcDbEntity
  8
0
100
AcDbLine
 62
7
  6
CONTINUOUS
 10
173.6736755907
 20
162.1307785561
 11
173.802582044
 21
162.0533063508
  0
LINE
  5
561
100
AcDbEntity
  8
0
100
AcDbLine
 62
7
  6
CONTINUOUS
 10
128.7831685386
 20
185.668173255
 11
128.6783517151
 21
185.7324261578
  0
LINE
  5
562
100
AcDbEntity
  8
0
100
AcDbLine
 62
7
  6
CONTINUOUS
 10
128.8606009243
 20
186.3402392304
 11
128.9654177478
 21
186.2759863276
  0
LINE
  5
563
100
AcDbEntity
  8
0
100
AcDbLine
 62
7
  6
CONTINUOUS
 10
129.1352081467
 20
186.2415366113
 11
129.2400249701
 21
186.1772837085
  0
LINE
  5
564
100
AcDbEntity
  8
0
100
AcDbLine
 62
7
  6
CONTINUOUS
 10
135.6425721119
 20
185.5555400879
 11
135.7697649945
 21
185.4752843856
  0
LINE
  5
565
100
AcDbEntity
  8
0
100
AcDbLine
 62
7
  6
CONTINUOUS
 10
131.4330234036
 20
185.0456879231
 11
131.3303671003
 21
185.1133394091
  0
LINE
  5
566
100
AcDbEntity
  8
0
100
AcDbLine
 62
7
  6
CONTINUOUS
 10
131.7960858227
 20
185.825493734
 11
131.8987418045
 21
185.7578423242
  0
LINE
  5
567
100
AcDbEntity
  8
0
100
AcDbLine
 62
7
  6
CONTINUOUS
 10
137.4068226067
 20
183.2173000002
 11
137.5313186701
 21
183.1329214624
  0
LINE
  5
568
100
AcDbEntity
  8
0
100
AcDbLine
 62
7
  6
CONTINUOUS
 10
138.2245466297
 20
184.0603186603
 11
138.1000505651
 21
184.1446971945
  0
LINE
  5
569
100
AcDbEntity
  8
0
100
AcDbLine
 62
7
  6
CONTINUOUS
 10
138.4554814155
 20
184.871120024
 11
138.33098598
 21
184.9554983555
  0
LINE
  5
56A
100
AcDbEntity
  8
0
100
AcDbLine
 62
7
  6
CONTINUOUS
 10
138.6970134875
 20
182.7942521371
 11
138.8201643868
 21
182.7079221687
  0
LINE
  5
56B
100
AcDbEntity
  8
0
100
AcDbLine
 62
7
  6
CONTINUOUS
 10
139.4865529549
 20
183.7718106053
 11
139.363403306
 21
183.858140145
  0
LINE
  5
56C
100
AcDbEntity
  8
0
100
AcDbLine
 62
7
  6
CONTINUOUS
 10
139.6895838965
 20
184.4592056863
 11
139.566432996
 21
184.5455356512
  0
LINE
  5
56D
100
AcDbEntity
  8
0
100
AcDbLine
 62
7
  6
CONTINUOUS
 10
173.9769069975
 20
162.1750153106
 11
173.8088162278
 21
162.2949104193
  0
LINE
  5
56E
100
AcDbEntity
  8
RUNDUNGEN
100
AcDbLine
 62
7
  6
CONTINUOUS
 10
126.4039831228
 20
195.508401823
 11
126.7175777723
 21
195.2737076484
  0
LINE
  5
56F
100
AcDbEntity
  8
0
100
AcDbLine
 62
7
  6
CONTINUOUS
 10
137.6088443511
 20
183.3735049151
 11
137.5118318143
 21
183.4490271495
  0
LINE
  5
570
100
AcDbEntity
  8
0
100
AcDbLine
 62
7
  6
CONTINUOUS
 10
137.7606124478
 20
184.0327733982
 11
137.8576249846
 21
183.9572511639
  0
LINE
  5
571
100
AcDbEntity
  8
0
100
AcDbLine
 62
7
  6
CONTINUOUS
 10
138.0225248932
 20
183.9041137699
 11
138.1195368009
 21
183.8285917383
  0
LINE
  5
572
100
AcDbEntity
  8
RUNDUNGEN
100
AcDbLine
 62
7
  6
CONTINUOUS
 10
197.9940904182
 20
136.7716212371
 11
198.2913553355
 21
136.5169060635
  0
LINE
  5
573
100
AcDbEntity
  8
0
100
AcDbLine
 62
7
  6
CONTINUOUS
 10
167.2659779961
 20
166.0252278259
 11
167.4372416176
 21
165.8702123923
  0
LINE
  5
574
100
AcDbEntity
  8
0
100
AcDbLine
 62
7
  6
CONTINUOUS
 10
167.606863348
 20
166.0576132928
 11
167.4355997264
 21
166.2126287264
  0
LINE
  5
575
100
AcDbEntity
  8
0
100
AcDbLine
 62
7
  6
CONTINUOUS
 10
167.462228151
 20
166.5862785125
 11
167.3337804501
 21
166.7025400738
  0
LINE
  5
576
100
AcDbEntity
  8
0
100
AcDbLine
 62
7
  6
CONTINUOUS
 10
167.902469983
 20
166.6423771163
 11
168.0309176839
 21
166.526115555
  0
LINE
  5
577
100
AcDbEntity
  8
0
100
AcDbLine
 62
7
  6
CONTINUOUS
 10
168.2005393944
 20
166.7135164337
 11
168.0720916936
 21
166.829777995
  0
LINE
  5
578
100
AcDbEntity
  8
0
100
AcDbLine
 62
7
  6
CONTINUOUS
 10
168.5834197098
 20
166.8783563055
 11
168.7118674106
 21
166.7620947442
  0
LINE
  5
579
100
AcDbEntity
  8
0
100
AcDbLine
 62
7
  6
CONTINUOUS
 10
168.4678757641
 20
167.2670467993
 11
168.596323465
 21
167.150785238
  0
LINE
  5
57A
100
AcDbEntity
  8
0
100
AcDbLine
 62
7
  6
CONTINUOUS
 10
168.7445372152
 20
167.3575630527
 11
168.6374974747
 21
167.4544476779
  0
LINE
  5
57B
100
AcDbEntity
  8
RUNDUNGEN
100
AcDbLine
 62
7
  6
CONTINUOUS
 10
122.950583026
 20
198.6659250638
 11
126.4074836241
 21
195.5095182499
  0
LINE
  5
57C
100
AcDbEntity
  8
0
100
AcDbLine
 62
7
  6
CONTINUOUS
 10
168.2659758701
 20
165.1077561474
 11
168.4346635718
 21
164.9499415922
  0
LINE
  5
57D
100
AcDbEntity
  8
0
100
AcDbLine
 62
7
  6
CONTINUOUS
 10
168.6455232895
 20
164.7526733135
 11
168.772039096
 21
164.6343123689
  0
LINE
  5
57E
100
AcDbEntity
  8
0
100
AcDbLine
 62
7
  6
CONTINUOUS
 10
168.6073482323
 20
165.1345239233
 11
168.4386605305
 21
165.2923384786
  0
LINE
  5
57F
100
AcDbEntity
  8
0
100
AcDbLine
 62
7
  6
CONTINUOUS
 10
168.8643768039
 20
165.2401989205
 11
168.7378609974
 21
165.3585598651
  0
LINE
  5
580
100
AcDbEntity
  8
0
100
AcDbLine
 62
7
  6
CONTINUOUS
 10
169.4459877399
 20
166.3690687688
 11
169.6146754416
 21
166.2112542136
  0
LINE
  5
581
100
AcDbEntity
  8
0
100
AcDbLine
 62
7
  6
CONTINUOUS
 10
169.7873600819
 20
166.3958365232
 11
169.6186723802
 21
166.5536510785
  0
LINE
  5
582
100
AcDbEntity
  8
0
100
AcDbLine
 62
7
  6
CONTINUOUS
 10
139.5260180462
 20
184.3368039327
 11
139.5944878461
 21
184.2690505829
  0
LINE
  5
583
100
AcDbEntity
  8
0
100
AcDbLine
 62
7
  6
CONTINUOUS
 10
170.0556402483
 20
163.3863727339
 11
170.178666008
 21
163.2643882064
  0
LINE
  5
584
100
AcDbEntity
  8
0
100
AcDbLine
 62
7
  6
CONTINUOUS
 10
171.572774894
 20
164.6703968884
 11
171.4497491343
 21
164.7923814159
  0
LINE
  5
585
100
AcDbEntity
  8
0
100
AcDbLine
 62
7
  6
CONTINUOUS
 10
171.4331516064
 20
161.9872274496
 11
171.5532043655
 21
161.8623158908
  0
LINE
  5
586
100
AcDbEntity
  8
0
100
AcDbLine
 62
7
  6
CONTINUOUS
 10
172.980765038
 20
163.2343474233
 11
172.8607122789
 21
163.3592589822
  0
LINE
  5
587
100
AcDbEntity
  8
0
100
AcDbLine
 62
7
  6
CONTINUOUS
 10
172.1893545494
 20
161.1921550486
 11
172.8946668641
 21
160.4285486129
  0
LINE
  5
588
100
AcDbEntity
  8
0
100
AcDbLine
 62
7
  6
CONTINUOUS
 10
173.0493996811
 20
160.5714690444
 11
172.5008232868
 21
161.1653853229
  0
LINE
  5
589
100
AcDbEntity
  8
0
100
AcDbLine
 62
7
  6
CONTINUOUS
 10
173.3230225585
 20
162.1999712052
 11
173.4209829012
 21
162.0939144322
  0
LINE
  5
58A
100
AcDbEntity
  8
0
100
AcDbLine
 62
7
  6
CONTINUOUS
 10
173.802582044
 20
162.0533063508
 11
173.8809502285
 21
161.9684610294
  0
LINE
  5
58B
100
AcDbEntity
  8
0
100
AcDbLine
 62
7
  6
CONTINUOUS
 10
174.0552751819
 20
162.0901699892
 11
173.9769069975
 21
162.1750153106
  0
LINE
  5
58C
100
AcDbEntity
  8
RUNDUNGEN
100
AcDbLine
 62
7
  6
CONTINUOUS
 10
202.6688075442
 20
119.2481943306
 11
205.825272082
 21
115.7912305131
  0
LINE
  5
58D
100
AcDbEntity
  8
0
100
AcDbLine
 62
7
  6
CONTINUOUS
 10
173.9898901363
 20
161.1015729088
 11
174.0863531223
 21
160.994153314
  0
LINE
  5
58E
100
AcDbEntity
  8
0
100
AcDbLine
 62
7
  6
CONTINUOUS
 10
174.221401656
 20
160.843765488
 11
174.317864642
 21
160.7363458932
  0
LINE
  5
58F
100
AcDbEntity
  8
0
100
AcDbLine
 62
7
  6
CONTINUOUS
 10
174.6144459284
 20
160.8474410583
 11
174.5179829424
 21
160.9548606531
  0
LINE
  5
590
100
AcDbEntity
  8
0
100
AcDbLine
 62
7
  6
CONTINUOUS
 10
174.3829344087
 20
161.1052484791
 11
174.2864714227
 21
161.2126680739
  0
LINE
  5
591
100
AcDbEntity
  8
RUNDUNGEN
100
AcDbLine
 62
7
  6
CONTINUOUS
 10
143.9309128422
 20
190.8348022986
 11
143.6761974396
 21
191.1320674846
  0
LINE
  5
592
100
AcDbEntity
  8
RUNDUNGEN
100
AcDbLine
 62
7
  6
CONTINUOUS
 10
202.6676874631
 20
119.2446904778
 11
202.4329949687
 21
119.5582858982
  0
LINE
  5
593
100
AcDbEntity
  8
0
100
AcDbLine
 62
7
  6
CONTINUOUS
 10
167.1872085431
 20
166.1533459336
 11
167.2659779961
 21
166.0252278259
  0
LINE
  5
594
100
AcDbEntity
  8
0
100
AcDbLine
 62
7
  6
CONTINUOUS
 10
168.2793088499
 20
166.5853983287
 11
168.2005393944
 21
166.7135164337
  0
LINE
  5
595
100
AcDbEntity
  8
0
100
AcDbLine
 62
7
  6
CONTINUOUS
 10
168.8233067013
 20
167.22944492
 11
168.7445372152
 21
167.3575630527
  0
LINE
  5
596
100
AcDbEntity
  8
0
100
AcDbLine
 62
7
  6
CONTINUOUS
 10
168.1893267268
 20
165.2371540641
 11
168.2659758701
 21
165.1077561474
  0
LINE
  5
597
100
AcDbEntity
  8
0
100
AcDbLine
 62
7
  6
CONTINUOUS
 10
169.864009107
 20
166.2664387221
 11
169.7873600819
 21
166.3958365232
  0
LINE
  5
598
100
AcDbEntity
  8
0
100
AcDbLine
 62
7
  6
CONTINUOUS
 10
174.1418806753
 20
161.9343181676
 11
174.0552751819
 21
162.0901699892
  0
LINE
  5
599
100
AcDbEntity
  8
0
100
AcDbLine
 62
7
  6
CONTINUOUS
 10
167.4355997264
 20
166.2126287264
 11
167.3782382161
 21
166.3213699091
  0
LINE
  5
59A
100
AcDbEntity
  8
0
100
AcDbLine
 62
7
  6
CONTINUOUS
 10
167.8451084573
 20
166.7511183129
 11
167.902469983
 21
166.6423771163
  0
LINE
  5
59B
100
AcDbEntity
  8
0
100
AcDbLine
 62
7
  6
CONTINUOUS
 10
168.0309176839
 20
166.526115555
 11
168.0882792096
 21
166.4173743585
  0
LINE
  5
59C
100
AcDbEntity
  8
0
100
AcDbLine
 62
7
  6
CONTINUOUS
 10
168.4386605305
 20
165.2923384786
 11
168.3830973927
 21
165.4020095309
  0
LINE
  5
59D
100
AcDbEntity
  8
0
100
AcDbLine
 62
7
  6
CONTINUOUS
 10
169.6146754416
 20
166.2112542136
 11
169.6702385794
 21
166.1015831613
  0
LINE
  5
59E
100
AcDbEntity
  8
0
100
AcDbLine
 62
7
  6
CONTINUOUS
 10
173.8809502285
 20
161.9684610294
 11
173.9479635636
 21
161.8338206596
  0
LINE
  5
59F
100
AcDbEntity
  8
RUNDUNGEN
100
AcDbLine
 62
7
  6
CONTINUOUS
 10
169.5710153526
 20
176.5698178199
 11
169.7252491983
 21
176.2097693778
  0
LINE
  5
5A0
100
AcDbEntity
  8
RUNDUNGEN
100
AcDbLine
 62
7
  6
CONTINUOUS
 10
202.2014766372
 20
89.9072200484
 11
202.3315580204
 21
89.5379977786
  0
LINE
  5
5A1
100
AcDbEntity
  8
RUNDUNGEN
100
AcDbLine
 62
7
  6
CONTINUOUS
 10
168.1590623141
 20
181.0309578749
 11
169.5746050892
 21
176.5690344233
  0
LINE
  5
5A2
100
AcDbEntity
  8
RUNDUNGEN
100
AcDbLine
 62
7
  6
CONTINUOUS
 10
197.4881869705
 20
72.3941286229
 11
198.4932836446
 21
67.8220773815
  0
LINE
  5
5A3
100
AcDbEntity
  8
RUNDUNGEN
100
AcDbLine
 62
7
  6
CONTINUOUS
 10
182.4129819778
 20
163.7588970449
 11
182.3410245613
 21
164.143693949
  0
LINE
  5
5A4
100
AcDbEntity
  8
RUNDUNGEN
100
AcDbLine
 62
7
  6
CONTINUOUS
 10
197.4854650255
 20
72.391654238
 11
197.4390130734
 21
72.7805820857
  0
LINE
  5
5A5
100
AcDbEntity
  8
RUNDUNGEN
100
AcDbLine
 62
7
  6
CONTINUOUS
 10
197.4390160755
 20
138.1960788263
 11
197.4692443363
 21
137.8056076804
  0
LINE
  5
5A6
100
AcDbEntity
  8
RUNDUNGEN
100
AcDbLine
 62
7
  6
CONTINUOUS
 10
202.1670070166
 20
120.2909535928
 11
202.1459171077
 21
120.6819145337
  0
LINE
  5
5A7
100
AcDbEntity
  8
RUNDUNGEN
100
AcDbLine
 62
7
  6
CONTINUOUS
 10
202.1670066238
 20
90.6857082489
 11
202.1459154392
 21
90.2947460044
  0
LINE
  5
5A8
100
AcDbEntity
  8
RUNDUNGEN
100
AcDbLine
 62
7
  6
CONTINUOUS
 10
197.4390130734
 20
72.7805820857
 11
197.4692428878
 21
73.1710528939
  0
LINE
  5
5A9
100
AcDbEntity
  8
RUNDUNGEN
100
AcDbLine
 62
7
  6
CONTINUOUS
 10
202.1459171077
 20
120.6819145337
 11
202.2014788125
 21
121.0694406971
  0
LWPOLYLINE
  5
5AA
100
AcDbEntity
  8
RUNDUNGEN
100
AcDbPolyline
 62
7
  6
CONTINUOUS
 90
3
 70
0
 10
198.5149159693
 20
103.2383310746
 10
198.5120381699
 20
103.2187581747
 10
198.3866716685
 20
102.4321529987
  0
LINE
  5
5AB
100
AcDbEntity
  8
RUNDUNGEN
100
AcDbLine
 62
7
  6
CONTINUOUS
 10
198.3866716685
 20
102.4321529987
 11
198.356531529
 21
102.2383310746
  0
LINE
  5
5AC
100
AcDbEntity
  8
RUNDUNGEN
100
AcDbLine
 62
7
  6
CONTINUOUS
 10
202.2639398188
 20
91.0651016163
 11
202.1670066238
 21
90.6857082489
  0
LINE
  5
5AD
100
AcDbEntity
  8
RUNDUNGEN
100
AcDbLine
 62
7
  6
CONTINUOUS
 10
197.4692428878
 20
73.1710528939
 11
197.5749945971
 21
73.5480848979
  0
LWPOLYLINE
  5
5AE
100
AcDbEntity
  8
RUNDUNGEN
100
AcDbPolyline
 62
7
  6
CONTINUOUS
 90
3
 70
0
 10
188.1358797141
 20
64.5032404366
 10
188.1427640614
 20
64.5217872936
 10
188.4289354161
 20
65.265138098
  0
LINE
  5
5AF
100
AcDbEntity
  8
RUNDUNGEN
100
AcDbLine
 62
7
  6
CONTINUOUS
 10
188.4289354161
 20
65.265138098
 11
188.4987147652
 21
65.4484580606
  0
LINE
  5
5B0
100
AcDbEntity
  8
RUNDUNGEN
100
AcDbLine
 62
7
  6
CONTINUOUS
 10
182.5586249611
 20
47.5811528978
 11
182.412979392
 21
47.2177649762
  0
LINE
  5
5B1
100
AcDbEntity
  8
RUNDUNGEN
100
AcDbLine
 62
7
  6
CONTINUOUS
 10
202.43299695
 20
91.4183736785
 11
202.2639398188
 21
91.0651016163
  0
LINE
  5
5B2
100
AcDbEntity
  8
RUNDUNGEN
100
AcDbLine
 62
7
  6
CONTINUOUS
 10
197.5749945971
 20
73.5480848979
 11
197.7522106707
 21
73.897211959
  0
LINE
  5
5B3
100
AcDbEntity
  8
RUNDUNGEN
100
AcDbLine
 62
7
  6
CONTINUOUS
 10
182.772371585
 20
47.9091905411
 11
182.5586249611
 21
47.5811528978
  0
LINE
  5
5B4
100
AcDbEntity
  8
RUNDUNGEN
100
AcDbLine
 62
7
  6
CONTINUOUS
 10
169.7252459798
 20
34.766893201
 11
169.9466611711
 21
35.0899359332
  0
LINE
  5
5B5
100
AcDbEntity
  8
RUNDUNGEN
100
AcDbLine
 62
7
  6
CONTINUOUS
 10
197.7522106707
 20
73.897211959
 11
197.9940916002
 21
74.2050386087
  0
LWPOLYLINE
  5
5B6
100
AcDbEntity
  8
RUNDUNGEN
100
AcDbPolyline
 62
7
  6
CONTINUOUS
 90
3
 70
0
 10
185.8858797141
 20
60.6061261196
 10
185.8736010167
 20
60.5906143907
 10
185.3717278537
 20
59.9720775762
  0
LINE
  5
5B7
100
AcDbEntity
  8
RUNDUNGEN
100
AcDbLine
 62
7
  6
CONTINUOUS
 10
185.3717278537
 20
59.9720775762
 11
185.2487147652
 21
59.819292936
  0
LINE
  5
5B8
100
AcDbEntity
  8
RUNDUNGEN
100
AcDbLine
 62
7
  6
CONTINUOUS
 10
183.046014878
 20
48.1892882379
 11
182.772371585
 21
47.9091905411
  0
LINE
  5
5B9
100
AcDbEntity
  8
RUNDUNGEN
100
AcDbLine
 62
7
  6
CONTINUOUS
 10
169.9466611711
 20
35.0899359332
 11
170.2267608398
 21
35.363579372
  0
LWPOLYLINE
  5
5BA
100
AcDbEntity
  8
RUNDUNGEN
100
AcDbPolyline
 62
7
  6
CONTINUOUS
 90
3
 70
0
 10
157.5298253313
 20
32.2500717368
 10
157.5450607794
 20
32.2626916125
 10
158.1645678446
 20
32.7633666156
  0
LINE
  5
5BB
100
AcDbEntity
  8
RUNDUNGEN
100
AcDbLine
 62
7
  6
CONTINUOUS
 10
158.1645678446
 20
32.7633666156
 11
158.3166585149
 21
32.8872366857
  0
LINE
  5
5BC
100
AcDbEntity
  8
RUNDUNGEN
100
AcDbLine
 62
7
  6
CONTINUOUS
 10
144.2387372624
 20
20.3837414196
 11
143.9309105388
 21
20.1418610327
  0
LINE
  5
5BD
100
AcDbEntity
  8
RUNDUNGEN
100
AcDbLine
 62
7
  6
CONTINUOUS
 10
183.3690586795
 20
48.4107022526
 11
183.046014878
 21
48.1892882379
  0
LINE
  5
5BE
100
AcDbEntity
  8
RUNDUNGEN
100
AcDbLine
 62
7
  6
CONTINUOUS
 10
170.2267608398
 20
35.363579372
 11
170.5547979921
 21
35.5773242393
  0
LINE
  5
5BF
100
AcDbEntity
  8
RUNDUNGEN
100
AcDbLine
 62
7
  6
CONTINUOUS
 10
144.5878660903
 20
20.5609570402
 11
144.2387372624
 21
20.3837414196
  0
LINE
  5
5C0
100
AcDbEntity
  8
RUNDUNGEN
100
AcDbLine
 62
7
  6
CONTINUOUS
 10
126.7175751998
 20
15.7029564821
 11
127.0708477464
 21
15.8720120991
  0
LINE
  5
5C1
100
AcDbEntity
  8
RUNDUNGEN
100
AcDbLine
 62
7
  6
CONTINUOUS
 10
170.5547979921
 20
35.5773242393
 11
170.9181863466
 21
35.7229694731
  0
LWPOLYLINE
  5
5C2
100
AcDbEntity
  8
RUNDUNGEN
100
AcDbPolyline
 62
7
  6
CONTINUOUS
 90
3
 70
0
 10
153.6327110143
 20
30.0000717368
 10
153.614321486
 20
29.9927775342
 10
152.8704181701
 20
29.7080455212
  0
LINE
  5
5C3
100
AcDbEntity
  8
RUNDUNGEN
100
AcDbLine
 62
7
  6
CONTINUOUS
 10
152.8704181701
 20
29.7080455212
 11
152.6874933903
 21
29.6372366857
  0
LINE
  5
5C4
100
AcDbEntity
  8
RUNDUNGEN
100
AcDbLine
 62
7
  6
CONTINUOUS
 10
80.3303436819
 20
190.3099550062
 11
80.7073748963
 21
190.4157052297
  0
LINE
  5
5C5
100
AcDbEntity
  8
RUNDUNGEN
100
AcDbLine
 62
7
  6
CONTINUOUS
 10
98.2243930057
 20
195.1046500504
 11
97.8449978576
 21
195.0077177149
  0
LWPOLYLINE
  5
5C6
100
AcDbEntity
  8
RUNDUNGEN
100
AcDbPolyline
 62
7
  6
CONTINUOUS
 90
3
 70
0
 10
110.3976203763
 20
191.3556266676
 10
110.3781161533
 20
191.3523152588
 10
109.5912697955
 20
191.2284715196
  0
LINE
  5
5C7
100
AcDbEntity
  8
RUNDUNGEN
100
AcDbLine
 62
7
  6
CONTINUOUS
 10
109.5912697955
 20
191.2284715196
 11
109.3976203763
 21
191.1972422273
  0
LINE
  5
5C8
100
AcDbEntity
  8
RUNDUNGEN
100
AcDbLine
 62
7
  6
CONTINUOUS
 10
127.8412054465
 20
194.9866261375
 11
128.2287314025
 21
195.0421873355
  0
LINE
  5
5C9
100
AcDbEntity
  8
RUNDUNGEN
100
AcDbLine
 62
7
  6
CONTINUOUS
 10
79.9398725612
 20
190.279726671
 11
80.3303436819
 21
190.3099550062
  0
LINE
  5
5CA
100
AcDbEntity
  8
RUNDUNGEN
100
AcDbLine
 62
7
  6
CONTINUOUS
 10
97.8449978576
 20
195.0077177149
 11
97.4540369167
 21
194.9866278057
  0
LINE
  5
5CB
100
AcDbEntity
  8
RUNDUNGEN
100
AcDbLine
 62
7
  6
CONTINUOUS
 10
127.450243202
 20
195.0077173222
 11
127.8412054465
 21
194.9866261375
  0
LINE
  5
5CC
100
AcDbEntity
  8
RUNDUNGEN
100
AcDbLine
 62
7
  6
CONTINUOUS
 10
145.3553693652
 20
190.2797237718
 11
144.964898557
 21
190.3099535862
  0
LINE
  5
5CD
100
AcDbEntity
  8
RUNDUNGEN
100
AcDbLine
 62
7
  6
CONTINUOUS
 10
97.4540369167
 20
194.9866278057
 11
97.0665107534
 21
195.0421895102
  0
LWPOLYLINE
  5
5CE
100
AcDbEntity
  8
RUNDUNGEN
100
AcDbPolyline
 62
7
  6
CONTINUOUS
 90
3
 70
0
 10
114.8976203763
 20
191.3556266676
 10
114.9171932762
 20
191.3527488682
 10
115.7037984522
 20
191.2273823668
  0
LINE
  5
5CF
100
AcDbEntity
  8
RUNDUNGEN
100
AcDbLine
 62
7
  6
CONTINUOUS
 10
115.7037984522
 20
191.2273823668
 11
115.8976203763
 21
191.1972422273
  0
LINE
  5
5D0
100
AcDbEntity
  8
RUNDUNGEN
100
AcDbLine
 62
7
  6
CONTINUOUS
 10
127.0708498346
 20
195.1046505171
 11
127.450243202
 21
195.0077173222
  0
LINE
  5
5D1
100
AcDbEntity
  8
RUNDUNGEN
100
AcDbLine
 62
7
  6
CONTINUOUS
 10
144.964898557
 20
190.3099535862
 11
144.587866553
 21
190.4157052954
  0
LWPOLYLINE
  5
5D2
100
AcDbEntity
  8
RUNDUNGEN
100
AcDbPolyline
 62
7
  6
CONTINUOUS
 90
3
 70
0
 10
153.6327110143
 20
180.9765904124
 10
153.6141641573
 20
180.9834747597
 10
152.8708133529
 20
181.2696461144
  0
LINE
  5
5D3
100
AcDbEntity
  8
RUNDUNGEN
100
AcDbLine
 62
7
  6
CONTINUOUS
 10
152.8708133529
 20
181.2696461144
 11
152.6874933903
 21
181.3394254635
  0
LINE
  5
5D4
100
AcDbEntity
  8
RUNDUNGEN
100
AcDbLine
 62
7
  6
CONTINUOUS
 10
170.5547985531
 20
175.3993356594
 11
170.9181864747
 21
175.2536900903
  0
LINE
  5
5D5
100
AcDbEntity
  8
RUNDUNGEN
100
AcDbLine
 62
7
  6
CONTINUOUS
 10
126.7175777723
 20
195.2737076484
 11
127.0708498346
 21
195.1046505171
  0
LINE
  5
5D6
100
AcDbEntity
  8
RUNDUNGEN
100
AcDbLine
 62
7
  6
CONTINUOUS
 10
144.587866553
 20
190.4157052954
 11
144.2387394919
 21
190.592921369
  0
LINE
  5
5D7
100
AcDbEntity
  8
RUNDUNGEN
100
AcDbLine
 62
7
  6
CONTINUOUS
 10
170.2267609098
 20
175.6130822833
 11
170.5547985531
 21
175.3993356594
  0
LINE
  5
5D8
100
AcDbEntity
  8
RUNDUNGEN
100
AcDbLine
 62
7
  6
CONTINUOUS
 10
183.3690582499
 20
162.5659566782
 11
183.0460155177
 21
162.7873718695
  0
LINE
  5
5D9
100
AcDbEntity
  8
RUNDUNGEN
100
AcDbLine
 62
7
  6
CONTINUOUS
 10
144.2387394919
 20
190.592921369
 11
143.9309128422
 21
190.8348022986
  0
LWPOLYLINE
  5
5DA
100
AcDbEntity
  8
RUNDUNGEN
100
AcDbPolyline
 62
7
  6
CONTINUOUS
 90
3
 70
0
 10
157.5298253313
 20
178.7265904124
 10
157.5453370602
 20
178.7143117151
 10
158.1638738746
 20
178.2124385521
  0
LINE
  5
5DB
100
AcDbEntity
  8
RUNDUNGEN
100
AcDbLine
 62
7
  6
CONTINUOUS
 10
158.1638738746
 20
178.2124385521
 11
158.3166585149
 21
178.0894254635
  0
LINE
  5
5DC
100
AcDbEntity
  8
RUNDUNGEN
100
AcDbLine
 62
7
  6
CONTINUOUS
 10
169.946663213
 20
175.8867255763
 11
170.2267609098
 21
175.6130822833
  0
LINE
  5
5DD
100
AcDbEntity
  8
RUNDUNGEN
100
AcDbLine
 62
7
  6
CONTINUOUS
 10
183.0460155177
 20
162.7873718695
 11
182.7723720789
 21
163.0674715382
  0
LWPOLYLINE
  5
5DE
100
AcDbEntity
  8
RUNDUNGEN
100
AcDbPolyline
 62
7
  6
CONTINUOUS
 90
3
 70
0
 10
185.8858797141
 20
150.3705360296
 10
185.8732598384
 20
150.3857714778
 10
185.3725848353
 20
151.005278543
  0
LINE
  5
5DF
100
AcDbEntity
  8
RUNDUNGEN
100
AcDbLine
 62
7
  6
CONTINUOUS
 10
185.3725848353
 20
151.005278543
 11
185.2487147652
 21
151.1573692133
  0
LINE
  5
5E0
100
AcDbEntity
  8
RUNDUNGEN
100
AcDbLine
 62
7
  6
CONTINUOUS
 10
197.7522100313
 20
137.0794479607
 11
197.9940904182
 21
136.7716212371
  0
LINE
  5
5E1
100
AcDbEntity
  8
RUNDUNGEN
100
AcDbLine
 62
7
  6
CONTINUOUS
 10
169.7252491983
 20
176.2097693778
 11
169.946663213
 21
175.8867255763
  0
LINE
  5
5E2
100
AcDbEntity
  8
RUNDUNGEN
100
AcDbLine
 62
7
  6
CONTINUOUS
 10
182.7723720789
 20
163.0674715382
 11
182.5586272116
 21
163.3955086904
  0
LINE
  5
5E3
100
AcDbEntity
  8
RUNDUNGEN
100
AcDbLine
 62
7
  6
CONTINUOUS
 10
197.5749944107
 20
137.4285767886
 11
197.7522100313
 21
137.0794479607
  0
LINE
  5
5E4
100
AcDbEntity
  8
RUNDUNGEN
100
AcDbLine
 62
7
  6
CONTINUOUS
 10
202.4329949687
 20
119.5582858982
 11
202.2639393518
 21
119.9115584447
  0
LINE
  5
5E5
100
AcDbEntity
  8
RUNDUNGEN
100
AcDbLine
 62
7
  6
CONTINUOUS
 10
182.5586272116
 20
163.3955086904
 11
182.4129819778
 21
163.7588970449
  0
LWPOLYLINE
  5
5E6
100
AcDbEntity
  8
RUNDUNGEN
100
AcDbPolyline
 62
7
  6
CONTINUOUS
 90
3
 70
0
 10
188.1358797141
 20
146.4734217126
 10
188.1431739167
 20
146.4550321843
 10
188.4279059297
 20
145.7111288685
  0
LINE
  5
5E7
100
AcDbEntity
  8
RUNDUNGEN
100
AcDbLine
 62
7
  6
CONTINUOUS
 10
188.4279059297
 20
145.7111288685
 11
188.4987147652
 21
145.5282040887
  0
LINE
  5
5E8
100
AcDbEntity
  8
RUNDUNGEN
100
AcDbLine
 62
7
  6
CONTINUOUS
 10
197.4692443363
 20
137.8056076804
 11
197.5749944107
 21
137.4285767886
  0
LINE
  5
5E9
100
AcDbEntity
  8
RUNDUNGEN
100
AcDbLine
 62
7
  6
CONTINUOUS
 10
202.2639393518
 20
119.9115584447
 11
202.1670070166
 21
120.2909535928
  0
LWPOLYLINE
  5
5EA
100
AcDbEntity
  8
RUNDUNGEN
100
AcDbPolyline
 62
7
  6
CONTINUOUS
 90
3
 70
0
 10
198.5149159693
 20
107.7383310746
 10
198.5116045604
 20
107.7578352976
 10
198.3877608213
 20
108.5446816554
  0
LINE
  5
5EB
100
AcDbEntity
  8
RUNDUNGEN
100
AcDbLine
 62
7
  6
CONTINUOUS
 10
198.3877608213
 20
108.5446816554
 11
198.356531529
 21
108.7383310746
  0
LINE
  5
5EC
100
AcDbEntity
  8
RUNDUNGEN
100
AcDbLine
 62
7
  6
CONTINUOUS
 10
202.1459154392
 20
90.2947460044
 11
202.2014766372
 21
89.9072200484
  0
LINE
  5
5ED
100
AcDbEntity
  8
RUNDUNGEN
100
AcDbLine
 62
7
  6
CONTINUOUS
 10
207.0149159693
 20
96.6547259392
 11
207.0149159693
 21
99.7499711286
  0
LINE
  5
5EE
100
AcDbEntity
  8
RUNDUNGEN
100
AcDbLine
 62
7
  6
CONTINUOUS
 10
207.0149159693
 20
111.2266910206
 11
207.0149159693
 21
114.321931736
  0
LINE
  5
5EF
100
AcDbEntity
  8
RUNDUNGEN
100
AcDbLine
 62
7
  6
CONTINUOUS
 10
203.138458834
 20
78.1355554462
 11
204.6913731046
 21
83.931110404
  0
LINE
  5
5F0
100
AcDbEntity
  8
RUNDUNGEN
100
AcDbLine
 62
7
  6
CONTINUOUS
 10
189.9552930895
 20
50.6545568427
 11
191.5029156733
 21
53.3351177888
  0
LINE
  5
5F1
100
AcDbEntity
  8
RUNDUNGEN
100
AcDbLine
 62
7
  6
CONTINUOUS
 10
197.2412756192
 20
63.2742487674
 11
198.7888959482
 21
65.9548058079
  0
LINE
  5
5F2
100
AcDbEntity
  8
RUNDUNGEN
100
AcDbLine
 62
7
  6
CONTINUOUS
 10
177.3385974762
 20
36.5547132876
 11
181.5812381633
 21
40.7973539747
  0
LINE
  5
5F3
100
AcDbEntity
  8
RUNDUNGEN
100
AcDbLine
 62
7
  6
CONTINUOUS
 10
152.1811417374
 20
19.3470532478
 11
154.8617026835
 21
20.8946758316
  0
LINE
  5
5F4
100
AcDbEntity
  8
RUNDUNGEN
100
AcDbLine
 62
7
  6
CONTINUOUS
 10
164.8008336621
 20
26.6330357776
 11
167.4813907026
 21
28.1806561066
  0
LINE
  5
5F5
100
AcDbEntity
  8
RUNDUNGEN
100
AcDbLine
 62
7
  6
CONTINUOUS
 10
91.0903997056
 20
197.5320838029
 11
85.2948447479
 21
195.9791695323
  0
LINE
  5
5F6
100
AcDbEntity
  8
RUNDUNGEN
100
AcDbLine
 62
7
  6
CONTINUOUS
 10
121.4812199878
 20
199.8556266676
 11
118.3859803223
 21
199.8556266676
  0
LINE
  5
5F7
100
AcDbEntity
  8
RUNDUNGEN
100
AcDbLine
 62
7
  6
CONTINUOUS
 10
106.9092604303
 20
199.8556266676
 11
103.8140080731
 21
199.8556266676
  0
LINE
  5
5F8
100
AcDbEntity
  8
RUNDUNGEN
100
AcDbLine
 62
7
  6
CONTINUOUS
 10
140.0003960047
 20
195.9791695323
 11
134.2048410469
 21
197.5320838029
  0
LINE
  5
5F9
100
AcDbEntity
  8
RUNDUNGEN
100
AcDbLine
 62
7
  6
CONTINUOUS
 10
167.4813946271
 20
182.7960037769
 11
164.8008336621
 21
184.3436263716
  0
LINE
  5
5FA
100
AcDbEntity
  8
RUNDUNGEN
100
AcDbLine
 62
7
  6
CONTINUOUS
 10
154.8617026835
 20
190.0819863176
 11
152.1811455931
 21
191.6296066753
  0
LINE
  5
5FB
100
AcDbEntity
  8
RUNDUNGEN
100
AcDbLine
 62
7
  6
CONTINUOUS
 10
181.5812381633
 20
170.1793081745
 11
177.3385974762
 21
174.4219488617
  0
LINE
  5
5FC
100
AcDbEntity
  8
RUNDUNGEN
100
AcDbLine
 62
7
  6
CONTINUOUS
 10
198.788898214
 20
145.0218524168
 11
197.241275619
 21
147.7024133823
  0
LINE
  5
5FD
100
AcDbEntity
  8
RUNDUNGEN
100
AcDbLine
 62
7
  6
CONTINUOUS
 10
191.5029156733
 20
157.6415443604
 11
189.9552953155
 21
160.3221014508
  0
LINE
  5
5FE
100
AcDbEntity
  8
RUNDUNGEN
100
AcDbLine
 62
7
  6
CONTINUOUS
 10
204.6913731046
 20
127.0455517453
 11
203.138458834
 21
132.841106703
  0
LINE
  5
5FF
100
AcDbEntity
  8
RUNDUNGEN
100
AcDbLine
 62
7
  6
CONTINUOUS
 10
231.0563715721
 20
11.1210354816
 11
259.0563715721
 21
11.1210354816
  0
LINE
  5
600
100
AcDbEntity
  8
0
100
AcDbLine
 62
7
  6
CONTINUOUS
 10
244.8063715721
 20
13.4105041726
 11
245.3063715721
 21
13.4105041726
  0
LINE
  5
601
100
AcDbEntity
  8
RUNDUNGEN
100
AcDbLine
 62
7
  6
CONTINUOUS
 10
245.3063715721
 20
13.4105041726
 11
245.5015806445
 21
13.4297425271
  0
LWPOLYLINE
  5
602
100
AcDbEntity
  8
RUNDUNGEN
100
AcDbPolyline
 62
7
  6
CONTINUOUS
 90
6
 70
0
 10
245.6768495598
 20
19.2279627666
 10
246.7429398032
 20
19.3112732066
 10
247.8142398894
 20
19.4298775215
 10
248.9100604498
 20
19.5419426087
 10
250.0427064605
 20
19.6154133183
 10
250.7643170429
 20
19.6299540012
  0
LINE
  5
603
100
AcDbEntity
  8
RUNDUNGEN
100
AcDbLine
 62
7
  6
CONTINUOUS
 10
245.0567158012
 20
19.2130928384
 11
245.6768495598
 21
19.2279627666
  0
LINE
  5
604
100
AcDbEntity
  8
RUNDUNGEN
100
AcDbLine
 62
7
  6
CONTINUOUS
 10
259.0563715721
 20
19.6298812084
 11
250.7643164639
 21
19.6298812084
  0
LINE
  5
605
100
AcDbEntity
  8
RUNDUNGEN
100
AcDbLine
 62
7
  6
CONTINUOUS
 10
239.3487081913
 20
19.6298812084
 11
231.0563715721
 21
19.6298812084
  0
LWPOLYLINE
  5
606
100
AcDbEntity
  8
RUNDUNGEN
100
AcDbPolyline
 62
7
  6
CONTINUOUS
 90
6
 70
0
 10
239.3487082926
 20
19.6298923256
 10
240.1094921302
 20
19.6138422668
 10
241.2430663745
 20
19.538362362
 10
242.3391119709
 20
19.4253173556
 10
243.4106873015
 20
19.3071269254
 10
244.4771424367
 20
19.2260871227
  0
LINE
  5
607
100
AcDbEntity
  8
RUNDUNGEN
100
AcDbLine
 62
7
  6
CONTINUOUS
 10
244.4771424367
 20
19.2260871227
 11
245.0567158282
 21
19.2130820248
  0
LINE
  5
608
100
AcDbEntity
  8
RUNDUNGEN
100
AcDbLine
 62
7
  6
CONTINUOUS
 10
244.8063715721
 20
13.4105041726
 11
244.6111624996
 21
13.4297425271
  0
LINE
  5
609
100
AcDbEntity
  8
RUNDUNGEN
100
AcDbLine
 62
7
  6
CONTINUOUS
 10
231.0563715721
 20
19.6298812084
 11
230.8602481765
 21
19.6493020671
  0
LWPOLYLINE
  5
60A
100
AcDbEntity
  8
RUNDUNGEN
100
AcDbPolyline
 62
7
  6
CONTINUOUS
 90
3
 70
0
 10
244.6111624996
 20
13.4297425271
 10
244.423587589
 20
13.4866662959
 10
244.2507374099
 20
13.5790772809
  0
LWPOLYLINE
  5
60B
100
AcDbEntity
  8
RUNDUNGEN
100
AcDbPolyline
 62
7
  6
CONTINUOUS
 90
8
 70
0
 10
230.8602481765
 20
19.6493020671
 10
230.6728377887
 20
19.7063543615
 10
230.5003036341
 20
19.7987443758
 10
230.3490384782
 20
19.9230008124
 10
230.2250250554
 20
20.0741267985
 10
230.1326539484
 20
20.2468071273
 10
230.0756279766
 20
20.4345837328
 10
230.0563715721
 20
20.6298812084
  0
LINE
  5
60C
100
AcDbEntity
  8
RUNDUNGEN
100
AcDbLine
 62
7
  6
CONTINUOUS
 10
259.0563715721
 20
26.4990611814
 11
259.2516315186
 21
26.5183096662
  0
LINE
  5
60D
100
AcDbEntity
  8
0
100
AcDbLine
 62
7
  6
CONTINUOUS
 10
231.0563715721
 20
26.4990611814
 11
259.0563715721
 21
26.4990611814
  0
LINE
  5
60E
100
AcDbEntity
  8
RUNDUNGEN
100
AcDbLine
 62
7
  6
CONTINUOUS
 10
231.0563715721
 20
26.4990611814
 11
230.8611116256
 21
26.5183096662
  0
LWPOLYLINE
  5
60F
100
AcDbEntity
  8
RUNDUNGEN
100
AcDbPolyline
 62
7
  6
CONTINUOUS
 90
8
 70
0
 10
230.8611116256
 20
26.5183096662
 10
230.6735447428
 20
26.5752410589
 10
230.5007105649
 20
26.667652231
 10
230.3492183253
 20
26.7920008688
 10
230.2249160999
 20
26.9434697877
 10
230.1325153874
 20
27.1163213873
 10
230.0755922134
 20
27.3039414449
 10
230.0563715721
 20
27.4990611814
  0
LINE
  5
610
100
AcDbEntity
  8
0
100
AcDbLine
 62
7
  6
CONTINUOUS
 10
251.3228870908
 20
185.733029247
 11
251.3451597322
 21
185.745146047
  0
LINE
  5
611
100
AcDbEntity
  8
RUNDUNGEN
100
AcDbLine
 62
7
  6
CONTINUOUS
 10
251.3452641685
 20
185.7452018944
 11
251.3451597322
 21
185.745146047
  0
LINE
  5
612
100
AcDbEntity
  8
0
100
AcDbLine
 62
7
  6
CONTINUOUS
 10
251.3452658005
 20
185.7451990993
 11
251.9530993392
 21
186.0666759965
  0
LINE
  5
613
100
AcDbEntity
  8
0
100
AcDbLine
 62
7
  6
CONTINUOUS
 10
251.9530993392
 20
186.0666759965
 11
252.5431829546
 21
186.3731710417
  0
LINE
  5
614
100
AcDbEntity
  8
RUNDUNGEN
100
AcDbLine
 62
7
  6
CONTINUOUS
 10
252.5436391024
 20
186.3734062717
 11
252.5431829546
 21
186.3731710417
  0
LINE
  5
615
100
AcDbEntity
  8
0
100
AcDbLine
 62
7
  6
CONTINUOUS
 10
252.5436118083
 20
186.3734589796
 11
253.5019822878
 21
186.8623737095
  0
LINE
  5
616
100
AcDbEntity
  8
0
100
AcDbLine
 62
7
  6
CONTINUOUS
 10
253.5019822878
 20
186.8623737095
 11
255.0046160377
 21
187.6127207571
  0
LINE
  5
617
100
AcDbEntity
  8
0
100
AcDbLine
 62
7
  6
CONTINUOUS
 10
255.0046160377
 20
187.6127207571
 11
259.4951922796
 21
189.8078788789
  0
LINE
  5
618
100
AcDbEntity
  8
0
100
AcDbLine
 62
7
  6
CONTINUOUS
 10
251.1796292785
 20
185.8421389992
 11
251.9271606059
 21
186.2067343886
  0
LWPOLYLINE
  5
619
100
AcDbEntity
  8
RUNDUNGEN
100
AcDbPolyline
 62
7
  6
CONTINUOUS
 90
6
 70
0
 10
244.2507374099
 20
13.5790772809
 10
244.099231873
 20
13.7034303108
 10
243.974911609
 20
13.8549194994
 10
243.882508256
 20
14.0277815926
 10
243.8255904017
 20
14.2153934357
 10
243.8063715721
 20
14.4105041726
  0
LINE
  5
61A
100
AcDbEntity
  8
0
100
AcDbLine
 62
2
  6
CONTINUOUS
 10
240.2892212323
 20
188.1056266676
 11
238.3232056679
 21
186.1396111033
  0
LINE
  5
61B
100
AcDbEntity
  8
RUNDUNGEN
100
AcDbLine
 62
7
  6
CONTINUOUS
 10
251.0793738225
 20
185.5705186957
 11
251.0736382466
 21
185.5659799613
  0
LINE
  5
61C
100
AcDbEntity
  8
0
100
AcDbLine
 62
7
  6
CONTINUOUS
 10
251.0733008904
 20
185.566405847
 11
251.1360208478
 21
185.6138689709
  0
LWPOLYLINE
  5
61D
100
AcDbEntity
  8
0
100
AcDbPolyline
 62
7
  6
CONTINUOUS
 90
3
 70
0
 10
251.1360208478
 20
185.6138689709
 10
251.2292441215
 20
185.6773257394
 10
251.3228870908
 20
185.733029247
  0
LWPOLYLINE
  5
61E
100
AcDbEntity
  8
0
100
AcDbPolyline
 62
7
  6
CONTINUOUS
 90
9
 70
0
 10
256.4889561172
 20
178.6827863436
 10
256.6932152295
 20
178.7846256793
 10
256.9016190078
 20
178.8868269656
 10
257.1142686998
 20
178.9893872079
 10
257.3312646462
 20
179.092294594
 10
257.5527061281
 20
179.1955268837
 10
257.7786812036
 20
179.2990463752
 10
258.0092764902
 20
179.4028060814
 10
258.2445800755
 20
179.5067495696
  0
LINE
  5
61F
100
AcDbEntity
  8
0
100
AcDbLine
 62
7
  6
CONTINUOUS
 10
258.2445800755
 20
179.5067495696
 11
258.4846726207
 21
179.6108044469
  0
LINE
  5
620
100
AcDbEntity
  8
RUNDUNGEN
100
AcDbLine
 62
7
  6
CONTINUOUS
 10
259.447671634
 20
180.0184629578
 11
259.4477079393
 21
180.0184783871
  0
LINE
  5
621
100
AcDbEntity
  8
RUNDUNGEN
100
AcDbLine
 62
7
  6
CONTINUOUS
 10
255.700531027
 20
174.2968416408
 11
255.7006408094
 21
174.2968880908
  0
LINE
  5
622
100
AcDbEntity
  8
0
100
AcDbLine
 62
7
  6
CONTINUOUS
 10
255.700545136
 20
174.296808172
 11
259.4458629539
 21
175.8804223265
  0
LINE
  5
623
100
AcDbEntity
  8
0
100
AcDbLine
 62
7
  6
CONTINUOUS
 10
258.4846726207
 20
179.6108044469
 11
259.4457137959
 21
180.0176329241
  0
LINE
  5
624
100
AcDbEntity
  8
RUNDUNGEN
100
AcDbLine
 62
7
  6
CONTINUOUS
 10
259.4458214787
 20
35.0962573591
 11
255.7005447075
 21
36.6798541584
  0
LWPOLYLINE
  5
625
100
AcDbEntity
  8
RUNDUNGEN
100
AcDbPolyline
 62
7
  6
CONTINUOUS
 90
4
 70
0
 10
255.7006403734
 20
36.6797747662
 10
255.5862060192
 20
36.7287925535
 10
255.0185443194
 20
36.9901007503
 10
254.4402091358
 20
37.2876035672
  0
LINE
  5
626
100
AcDbEntity
  8
0
100
AcDbLine
 62
2
  6
CONTINUOUS
 10
246.1901385748
 20
188.1056266676
 11
240.0563715721
 21
181.9718596649
  0
LINE
  5
627
100
AcDbEntity
  8
0
100
AcDbLine
 62
2
  6
CONTINUOUS
 10
251.9650653163
 20
187.9796360667
 11
240.0563715721
 21
176.0709423225
  0
LINE
  5
628
100
AcDbEntity
  8
0
100
AcDbLine
 62
7
  6
CONTINUOUS
 10
250.8523658325
 20
185.3630981753
 11
251.0793738225
 21
185.5705186957
  0
LWPOLYLINE
  5
629
100
AcDbEntity
  8
0
100
AcDbPolyline
 62
7
  6
CONTINUOUS
 90
3
 70
0
 10
259.4477079393
 20
180.0184783871
 10
259.6125013924
 20
180.1076306708
 10
259.7637265947
 20
180.2318676442
  0
LWPOLYLINE
  5
62A
100
AcDbEntity
  8
0
100
AcDbPolyline
 62
7
  6
CONTINUOUS
 90
3
 70
0
 10
230.8602481765
 20
160.0807612428
 10
230.6728377887
 20
160.0237089484
 10
230.5003036341
 20
159.931318934
  0
LWPOLYLINE
  5
62B
100
AcDbEntity
  8
RUNDUNGEN
100
AcDbPolyline
 62
7
  6
CONTINUOUS
 90
6
 70
0
 10
246.4348454829
 20
50.2680188627
 10
246.775674999
 20
50.3239598981
 10
247.8540311434
 20
50.5299285372
 10
248.9401133687
 20
50.7239002996
 10
250.0515193711
 20
50.8510124498
 10
250.7643035901
 20
50.8765884491
  0
LINE
  5
62C
100
AcDbEntity
  8
RUNDUNGEN
100
AcDbLine
 62
7
  6
CONTINUOUS
 10
246.4348455174
 20
50.2680182455
 11
246.4190836345
 21
50.2656263462
  0
LINE
  5
62D
100
AcDbEntity
  8
RUNDUNGEN
100
AcDbLine
 62
7
  6
CONTINUOUS
 10
259.2514995693
 20
50.8957023248
 11
259.0563715721
 21
50.8764800478
  0
LINE
  5
62E
100
AcDbEntity
  8
RUNDUNGEN
100
AcDbLine
 62
7
  6
CONTINUOUS
 10
259.0563715721
 20
50.8764800478
 11
250.7643026514
 21
50.8764800478
  0
LINE
  5
62F
100
AcDbEntity
  8
RUNDUNGEN
100
AcDbLine
 62
7
  6
CONTINUOUS
 10
239.3484672765
 20
50.8764800478
 11
231.0563715721
 21
50.8764800478
  0
LWPOLYLINE
  5
630
100
AcDbEntity
  8
RUNDUNGEN
100
AcDbPolyline
 62
7
  6
CONTINUOUS
 90
6
 70
0
 10
239.3484672632
 20
50.876591303
 10
240.101482974
 20
50.8481359845
 10
241.2151358738
 20
50.7173156109
 10
242.3011200895
 20
50.5216401771
 10
243.3783067054
 20
50.3168046743
 10
243.6791267404
 20
50.2678310062
  0
LWPOLYLINE
  5
631
100
AcDbEntity
  8
RUNDUNGEN
100
AcDbPolyline
 62
7
  6
CONTINUOUS
 90
9
 70
0
 10
231.0563715721
 20
50.8764800478
 10
230.8602481765
 20
50.8959009065
 10
230.6728377887
 20
50.9529532009
 10
230.5003036341
 20
51.0453432153
 10
230.3490384782
 20
51.1695996518
 10
230.2250250554
 20
51.3207256379
 10
230.1326539484
 20
51.4934059667
 10
230.0756279766
 20
51.6811825722
 10
230.0563715721
 20
51.8764800478
  0
LINE
  5
632
100
AcDbEntity
  8
RUNDUNGEN
100
AcDbLine
 62
7
  6
CONTINUOUS
 10
243.6936347204
 20
50.2656300388
 11
243.6791269402
 21
50.2678309582
  0
LINE
  5
633
100
AcDbEntity
  8
RUNDUNGEN
100
AcDbLine
 62
7
  6
CONTINUOUS
 10
254.4402158816
 20
37.2876174502
 11
253.8580350802
 21
37.6198089262
  0
LWPOLYLINE
  5
634
100
AcDbEntity
  8
RUNDUNGEN
100
AcDbPolyline
 62
7
  6
CONTINUOUS
 90
3
 70
0
 10
253.8580186828
 20
37.6198021373
 10
253.2796376147
 20
37.9844787669
 10
253.079321951
 20
38.1194630905
  0
LINE
  5
635
100
AcDbEntity
  8
0
100
AcDbLine
 62
2
  6
CONTINUOUS
 10
250.0563715721
 20
180.17002498
 11
240.0563715721
 21
170.17002498
  0
LWPOLYLINE
  5
636
100
AcDbEntity
  8
0
100
AcDbPolyline
 62
7
  6
CONTINUOUS
 90
6
 70
0
 10
230.5003036341
 20
159.931318934
 10
230.3490384782
 20
159.8070624974
 10
230.2250250554
 20
159.6559365113
 10
230.1326539484
 20
159.4832561826
 10
230.0756279766
 20
159.295479577
 10
230.0563715721
 20
159.1001821014
  0
LINE
  5
637
100
AcDbEntity
  8
RUNDUNGEN
100
AcDbLine
 62
7
  6
CONTINUOUS
 10
252.1411318621
 20
172.157134621
 11
252.1409027831
 21
172.1569485282
  0
LWPOLYLINE
  5
638
100
AcDbEntity
  8
0
100
AcDbPolyline
 62
7
  6
CONTINUOUS
 90
5
 70
0
 10
252.1411209658
 20
172.1571480067
 10
252.3542421756
 20
172.326863578
 10
252.6243025691
 20
172.5324719231
 10
252.9006950777
 20
172.7327777401
 10
253.0791746993
 20
172.8570348296
  0
LINE
  5
639
100
AcDbEntity
  8
RUNDUNGEN
100
AcDbLine
 62
7
  6
CONTINUOUS
 10
253.0793484551
 20
172.8571541415
 11
253.0791746993
 21
172.8570348296
  0
LWPOLYLINE
  5
63A
100
AcDbEntity
  8
0
100
AcDbPolyline
 62
7
  6
CONTINUOUS
 90
7
 70
0
 10
253.079318879
 20
172.8571969311
 10
253.2796355513
 20
172.992182047
 10
253.8580183725
 20
173.3568600391
 10
254.4402100938
 20
173.6890594952
 10
255.0185459687
 20
173.9865627085
 10
255.5862077472
 20
174.2478708733
 10
255.7006408094
 20
174.2968880908
  0
LINE
  5
63B
100
AcDbEntity
  8
RUNDUNGEN
100
AcDbLine
 62
7
  6
CONTINUOUS
 10
253.0793515348
 20
38.1195058939
 11
253.079177809
 21
38.119625185
  0
LINE
  5
63C
100
AcDbEntity
  8
RUNDUNGEN
100
AcDbLine
 62
7
  6
CONTINUOUS
 10
253.079177809
 20
38.119625185
 11
252.9006990734
 21
38.2438815823
  0
LINE
  5
63D
100
AcDbEntity
  8
RUNDUNGEN
100
AcDbLine
 62
7
  6
CONTINUOUS
 10
252.9005561774
 20
38.243985141
 11
252.6243062959
 21
38.4441874586
  0
LINE
  5
63E
100
AcDbEntity
  8
RUNDUNGEN
100
AcDbLine
 62
7
  6
CONTINUOUS
 10
252.6241284154
 20
38.4443228865
 11
252.3542451205
 21
38.6497962721
  0
LINE
  5
63F
100
AcDbEntity
  8
RUNDUNGEN
100
AcDbLine
 62
7
  6
CONTINUOUS
 10
252.3540897273
 20
38.6499200168
 11
252.1411205279
 21
38.819513781
  0
LINE
  5
640
100
AcDbEntity
  8
RUNDUNGEN
100
AcDbLine
 62
7
  6
CONTINUOUS
 10
252.1411318642
 20
38.8195275243
 11
252.1409027755
 21
38.8197136249
  0
LWPOLYLINE
  5
641
100
AcDbEntity
  8
RUNDUNGEN
100
AcDbPolyline
 62
7
  6
CONTINUOUS
 90
3
 70
0
 10
252.1409027755
 20
38.8197136249
 10
252.0797551584
 20
38.8710690776
 10
251.9436823892
 20
38.9968673105
  0
LINE
  5
642
100
AcDbEntity
  8
0
100
AcDbLine
 62
7
  6
CONTINUOUS
 10
250.5838948612
 20
185.0158509106
 11
250.8523658325
 21
185.3630981753
  0
LWPOLYLINE
  5
643
100
AcDbEntity
  8
0
100
AcDbPolyline
 62
7
  6
CONTINUOUS
 90
5
 70
0
 10
251.7383086465
 20
171.7617556428
 10
251.803470081
 20
171.8344278217
 10
251.9436823918
 20
171.9797948346
 10
252.079755176
 20
172.1055930851
 10
252.1409027831
 20
172.1569485282
  0
LINE
  5
644
100
AcDbEntity
  8
0
100
AcDbLine
 62
2
  6
CONTINUOUS
 10
250.0563715721
 20
174.2691076375
 11
240.0563715721
 21
164.2691076375
  0
LINE
  5
645
100
AcDbEntity
  8
0
100
AcDbLine
 62
2
  6
CONTINUOUS
 10
250.0563715721
 20
168.368190295
 11
240.0563715721
 21
158.368190295
  0
LINE
  5
646
100
AcDbEntity
  8
0
100
AcDbLine
 62
7
  6
CONTINUOUS
 10
228.1427388851
 20
144.3353450619
 11
234.3593739764
 21
146.2040678847
  0
LINE
  5
647
100
AcDbEntity
  8
RUNDUNGEN
100
AcDbLine
 62
7
  6
CONTINUOUS
 10
231.8404622733
 20
61.2733073282
 11
231.5956339266
 21
61.2115874375
  0
LINE
  5
648
100
AcDbEntity
  8
RUNDUNGEN
100
AcDbLine
 62
7
  6
CONTINUOUS
 10
231.5956350144
 20
61.2115891077
 11
230.8192859015
 21
61.0221255699
  0
LWPOLYLINE
  5
649
100
AcDbEntity
  8
RUNDUNGEN
100
AcDbPolyline
 62
7
  6
CONTINUOUS
 90
4
 70
0
 10
259.0563715721
 20
62.7742487674
 10
259.2540007453
 20
62.7939722699
 10
259.4410628612
 20
62.8512034749
 10
259.612953481
 20
62.9434560455
  0
LWPOLYLINE
  5
64A
100
AcDbEntity
  8
RUNDUNGEN
100
AcDbPolyline
 62
7
  6
CONTINUOUS
 90
3
 70
0
 10
231.0563715721
 20
60.6061261196
 10
230.8598314204
 20
60.5906143907
 10
230.671341196
 20
60.5454643502
  0
LINE
  5
64B
100
AcDbEntity
  8
RUNDUNGEN
100
AcDbLine
 62
7
  6
CONTINUOUS
 10
231.0563715721
 20
60.6061261196
 11
259.0563715721
 21
60.6061261196
  0
LINE
  5
64C
100
AcDbEntity
  8
0
100
AcDbLine
 62
7
  6
CONTINUOUS
 10
231.0563715721
 20
62.7742487674
 11
259.0563715721
 21
62.7742487674
  0
LWPOLYLINE
  5
64D
100
AcDbEntity
  8
RUNDUNGEN
100
AcDbPolyline
 62
7
  6
CONTINUOUS
 90
3
 70
0
 10
259.0563715721
 20
60.6061261196
 10
259.2529117237
 20
60.5908906715
 10
259.4414019481
 20
60.5454643502
  0
LWPOLYLINE
  5
64E
100
AcDbEntity
  8
RUNDUNGEN
100
AcDbPolyline
 62
7
  6
CONTINUOUS
 90
9
 70
0
 10
231.0563715721
 20
62.7742487674
 10
230.8587423989
 20
62.7939722699
 10
230.6716802829
 20
62.8512034749
 10
230.4997896631
 20
62.9434560455
 10
230.3489298532
 20
63.0674770826
 10
230.225356004
 20
63.2179996157
 10
230.1329803798
 20
63.3903884984
 10
230.0757168803
 20
63.5785093104
 10
230.0563715721
 20
63.7742487674
  0
LINE
  5
64F
100
AcDbEntity
  8
RUNDUNGEN
100
AcDbLine
 62
7
  6
CONTINUOUS
 10
259.2934572535
 20
61.0221255672
 11
258.5171081414
 21
61.2115891049
  0
LWPOLYLINE
  5
650
100
AcDbEntity
  8
RUNDUNGEN
100
AcDbPolyline
 62
7
  6
CONTINUOUS
 90
3
 70
0
 10
258.5171114285
 20
61.2115883265
 10
258.2644110728
 20
61.2753536288
 10
258.019934952
 20
61.3410343448
  0
LWPOLYLINE
  5
651
100
AcDbEntity
  8
RUNDUNGEN
100
AcDbPolyline
 62
7
  6
CONTINUOUS
 90
4
 70
0
 10
258.3316460602
 20
61.2579788845
 10
258.118940469
 20
61.3139621475
 10
257.9140310396
 20
61.3707070284
 10
257.7165569166
 20
61.4280155327
  0
LINE
  5
652
100
AcDbEntity
  8
RUNDUNGEN
100
AcDbLine
 62
7
  6
CONTINUOUS
 10
228.1427388938
 20
66.6413170847
 11
230.0563715721
 21
66.0660783892
  0
LINE
  5
653
100
AcDbEntity
  8
RUNDUNGEN
100
AcDbLine
 62
7
  6
CONTINUOUS
 10
251.9438600433
 20
38.9967104415
 11
251.8040954811
 21
39.1415859296
  0
LINE
  5
654
100
AcDbEntity
  8
RUNDUNGEN
100
AcDbLine
 62
7
  6
CONTINUOUS
 10
251.8040954811
 20
39.1415859296
 11
251.7383086629
 21
39.2149064848
  0
LWPOLYLINE
  5
655
100
AcDbEntity
  8
0
100
AcDbPolyline
 62
7
  6
CONTINUOUS
 90
3
 70
0
 10
259.7637265947
 20
180.2318676442
 10
259.8876927884
 20
180.3829338426
 10
259.9800615026
 20
180.5555852449
  0
LINE
  5
656
100
AcDbEntity
  8
RUNDUNGEN
100
AcDbLine
 62
7
  6
CONTINUOUS
 10
251.7385488248
 20
171.761802916
 11
251.7384211702
 21
171.7616569727
  0
LINE
  5
657
100
AcDbEntity
  8
0
100
AcDbLine
 62
2
  6
CONTINUOUS
 10
250.0563715721
 20
162.4672729526
 11
239.896802743
 21
152.3077041235
  0
LINE
  5
658
100
AcDbEntity
  8
0
100
AcDbLine
 62
2
  6
CONTINUOUS
 10
233.549811818
 20
145.9607131985
 11
226.0063715721
 21
138.4172729526
  0
LINE
  5
659
100
AcDbEntity
  8
0
100
AcDbLine
 62
2
  6
CONTINUOUS
 10
250.0563715721
 20
156.5663556101
 11
226.4948513311
 21
133.0048353691
  0
LWPOLYLINE
  5
65A
100
AcDbEntity
  8
0
100
AcDbPolyline
 62
7
  6
CONTINUOUS
 90
7
 70
0
 10
259.2952164068
 20
149.954967635
 10
259.4397922507
 20
150.0024515156
 10
259.6123791163
 20
150.0948480893
 10
259.7636816209
 20
150.2191218708
 10
259.8877401224
 20
150.3703038768
 10
259.9801141829
 20
150.5430115026
 10
260.0371216997
 20
150.7307603221
  0
LWPOLYLINE
  5
65B
100
AcDbEntity
  8
RUNDUNGEN
100
AcDbPolyline
 62
7
  6
CONTINUOUS
 90
3
 70
0
 10
232.329426985
 20
61.408356141
 10
232.0895763216
 20
61.3401465146
 10
231.8404622733
 20
61.2733073282
  0
LINE
  5
65C
100
AcDbEntity
  8
RUNDUNGEN
100
AcDbLine
 62
7
  6
CONTINUOUS
 10
258.019934952
 20
61.3410343448
 11
257.7858556516
 21
61.407610982
  0
LINE
  5
65D
100
AcDbEntity
  8
RUNDUNGEN
100
AcDbLine
 62
7
  6
CONTINUOUS
 10
257.7858556516
 20
61.407610982
 11
257.5261690301
 21
61.485718647
  0
LINE
  5
65E
100
AcDbEntity
  8
RUNDUNGEN
100
AcDbLine
 62
7
  6
CONTINUOUS
 10
257.5616674245
 20
61.4747766701
 11
257.3470024651
 21
61.5422355838
  0
LINE
  5
65F
100
AcDbEntity
  8
RUNDUNGEN
100
AcDbLine
 62
7
  6
CONTINUOUS
 10
259.2952164068
 20
61.0216945142
 11
259.4397922507
 21
60.9742106336
  0
LINE
  5
660
100
AcDbEntity
  8
RUNDUNGEN
100
AcDbLine
 62
7
  6
CONTINUOUS
 10
257.3424365171
 20
61.5437044627
 11
257.1409358818
 21
61.6099324099
  0
LINE
  5
661
100
AcDbEntity
  8
RUNDUNGEN
100
AcDbLine
 62
7
  6
CONTINUOUS
 10
257.1649955888
 20
61.6018781605
 11
256.9427295327
 21
61.6778162888
  0
LWPOLYLINE
  5
662
100
AcDbEntity
  8
RUNDUNGEN
100
AcDbPolyline
 62
7
  6
CONTINUOUS
 90
3
 70
0
 10
256.9932635655
 20
61.6602475943
 10
256.7514026268
 20
61.7459730062
 10
256.5660254349
 20
61.8145284055
  0
LWPOLYLINE
  5
663
100
AcDbEntity
  8
RUNDUNGEN
100
AcDbPolyline
 62
7
  6
CONTINUOUS
 90
3
 70
0
 10
256.82671043
 20
61.7188336579
 10
256.6647929592
 20
61.7776903037
 10
256.5069671807
 20
61.8368997093
  0
LINE
  5
664
100
AcDbEntity
  8
RUNDUNGEN
100
AcDbLine
 62
7
  6
CONTINUOUS
 10
256.5660254349
 20
61.8145284055
 11
256.3527017865
 21
61.8965700344
  0
LINE
  5
665
100
AcDbEntity
  8
RUNDUNGEN
100
AcDbLine
 62
7
  6
CONTINUOUS
 10
256.3856900985
 20
61.8836579366
 11
256.2094650702
 21
61.9536081995
  0
LINE
  5
666
100
AcDbEntity
  8
RUNDUNGEN
100
AcDbLine
 62
7
  6
CONTINUOUS
 10
256.2014657809
 20
61.9568407986
 11
256.0365306291
 21
62.0246326074
  0
LWPOLYLINE
  5
667
100
AcDbEntity
  8
RUNDUNGEN
100
AcDbPolyline
 62
7
  6
CONTINUOUS
 90
5
 70
0
 10
259.4414019481
 20
60.5454643502
 10
259.6145968985
 20
60.4721552053
 10
259.765894149
 20
60.3737606711
 10
259.8896085168
 20
60.2543669645
 10
259.9812159336
 20
60.1185616113
  0
LINE
  5
668
100
AcDbEntity
  8
RUNDUNGEN
100
AcDbLine
 62
7
  6
CONTINUOUS
 10
256.0527374574
 20
62.0178735188
 11
255.8657464666
 21
62.0971700001
  0
LWPOLYLINE
  5
669
100
AcDbEntity
  8
RUNDUNGEN
100
AcDbPolyline
 62
7
  6
CONTINUOUS
 90
3
 70
0
 10
255.9058622487
 20
62.0799122521
 10
255.6971893218
 20
62.1711839814
 10
255.5304773474
 20
62.2468552427
  0
LWPOLYLINE
  5
66A
100
AcDbEntity
  8
RUNDUNGEN
100
AcDbPolyline
 62
7
  6
CONTINUOUS
 90
3
 70
0
 10
255.7607315825
 20
62.1429935846
 10
255.616959844
 20
62.2072876148
 10
255.4747512248
 20
62.2727174306
  0
LINE
  5
66B
100
AcDbEntity
  8
RUNDUNGEN
100
AcDbLine
 62
7
  6
CONTINUOUS
 10
255.5304773474
 20
62.2468552427
 11
255.3341624806
 21
62.3392730946
  0
LINE
  5
66C
100
AcDbEntity
  8
RUNDUNGEN
100
AcDbLine
 62
7
  6
CONTINUOUS
 10
255.3659077127
 20
62.324078207
 11
255.2036055224
 21
62.4028205362
  0
LINE
  5
66D
100
AcDbEntity
  8
RUNDUNGEN
100
AcDbLine
 62
7
  6
CONTINUOUS
 10
255.1952784064
 20
62.4069310625
 11
255.0437208029
 21
62.4830356504
  0
LINE
  5
66E
100
AcDbEntity
  8
RUNDUNGEN
100
AcDbLine
 62
7
  6
CONTINUOUS
 10
255.0581726431
 20
62.4756723142
 11
254.8863948329
 21
62.5646797339
  0
LINE
  5
66F
100
AcDbEntity
  8
RUNDUNGEN
100
AcDbLine
 62
7
  6
CONTINUOUS
 10
259.4397922507
 20
60.9742106336
 11
259.6123791163
 21
60.8818140599
  0
LWPOLYLINE
  5
670
100
AcDbEntity
  8
RUNDUNGEN
100
AcDbPolyline
 62
7
  6
CONTINUOUS
 90
4
 70
0
 10
254.9229350166
 20
62.5454690074
 10
254.7318065975
 20
62.6476959873
 10
254.5801373373
 20
62.7320276682
 10
254.5068467244
 20
62.7742487674
  0
LWPOLYLINE
  5
671
100
AcDbEntity
  8
RUNDUNGEN
100
AcDbPolyline
 62
7
  6
CONTINUOUS
 90
4
 70
0
 10
254.789657974
 20
62.6162937917
 10
254.6584516722
 20
62.6881144957
 10
254.5294198342
 20
62.7609020511
 10
254.5064730201
 20
62.7742487674
  0
LINE
  5
672
100
AcDbEntity
  8
RUNDUNGEN
100
AcDbLine
 62
7
  6
CONTINUOUS
 10
251.7385488491
 20
39.2148592189
 11
251.7384211948
 21
39.215005162
  0
LWPOLYLINE
  5
673
100
AcDbEntity
  8
RUNDUNGEN
100
AcDbPolyline
 62
7
  6
CONTINUOUS
 90
10
 70
0
 10
251.7385488491
 20
39.2148592189
 10
251.5946659706
 20
39.3886333918
 10
251.2780244773
 20
39.8454340062
 10
250.9907255131
 20
40.3680602418
 10
250.7370094753
 20
40.9479450781
 10
250.5188686609
 20
41.5806659539
 10
250.3401963698
 20
42.2572817786
 10
250.2031195507
 20
42.9733851487
 10
250.1101150229
 20
43.719784264
 10
250.0627206016
 20
44.4903875398
  0
LINE
  5
674
100
AcDbEntity
  8
0
100
AcDbLine
 62
7
  6
CONTINUOUS
 10
250.351290542
 20
184.5668267804
 11
250.5838948612
 21
185.0158509106
  0
LWPOLYLINE
  5
675
100
AcDbEntity
  8
0
100
AcDbPolyline
 62
7
  6
CONTINUOUS
 90
32
 70
0
 10
252.457323925
 20
175.9906744808
 10
252.4641586863
 20
176.0021276669
 10
252.489437405
 20
176.039764198
 10
252.5304004628
 20
176.0934602509
 10
252.5829242508
 20
176.15527263
 10
252.6472204434
 20
176.2243255265
 10
252.7217059691
 20
176.2987865276
 10
252.8053911446
 20
176.3776179089
 10
252.8977163152
 20
176.4600574862
 10
252.997574487
 20
176.5450198273
 10
253.1036688983
 20
176.631597612
 10
253.2162274232
 20
176.7200884908
 10
253.3353727364
 20
176.8105446444
 10
253.4608358636
 20
176.9027544352
 10
253.5927313856
 20
176.9968507391
 10
253.7304619442
 20
177.0924191766
 10
253.8736068325
 20
177.1891526749
 10
254.021709108
 20
177.2867680653
 10
254.1743503136
 20
177.3850440899
 10
254.3311234558
 20
177.4837594999
 10
254.4914927805
 20
177.5826058906
 10
254.6554180123
 20
177.681603164
 10
254.8226934414
 20
177.7806724567
 10
254.9934099397
 20
177.8798963984
 10
255.1675900565
 20
177.9792978201
 10
255.3452827464
 20
178.0789130992
 10
255.5265532479
 20
178.1787845323
 10
255.7114655678
 20
178.2789418807
 10
255.9000845586
 20
178.3794034051
 10
256.0924832245
 20
178.4801860122
 10
256.2887414548
 20
178.5813076803
 10
256.4889561172
 20
178.6827863436
  0
LWPOLYLINE
  5
676
100
AcDbEntity
  8
0
100
AcDbPolyline
 62
7
  6
CONTINUOUS
 90
3
 70
0
 10
251.2780244679
 20
171.1312281438
 10
251.5946659227
 20
171.588028719
 10
251.7385488248
 20
171.761802916
  0
LINE
  5
677
100
AcDbEntity
  8
0
100
AcDbLine
 62
2
  6
CONTINUOUS
 10
250.5384564254
 20
151.1475231209
 11
232.3957686736
 21
133.0048353691
  0
LWPOLYLINE
  5
678
100
AcDbEntity
  8
0
100
AcDbPolyline
 62
7
  6
CONTINUOUS
 90
39
 70
0
 10
253.3423846731
 20
147.4075668278
 10
253.3716460926
 20
147.4321127656
 10
253.4682212048
 20
147.5097552058
 10
253.5669411087
 20
147.5860380965
 10
253.6677671713
 20
147.6610930378
 10
253.7706316705
 20
147.7349924332
 10
253.8755107732
 20
147.8078130727
 10
253.9824321249
 20
147.8796561917
 10
254.0914524014
 20
147.9506272463
 10
254.2026338317
 20
148.0208172425
 10
254.3160805698
 20
148.0903267219
 10
254.4317711746
 20
148.1591659899
 10
254.5498177038
 20
148.227414862
 10
254.6700380397
 20
148.2949777838
 10
254.7923243994
 20
148.3618070373
 10
254.9165626078
 20
148.427854294
 10
255.0426378268
 20
148.4930738717
 10
255.1704408714
 20
148.5574233636
 10
255.2998691981
 20
148.6208619725
 10
255.4308341639
 20
148.6833577041
 10
255.5632414741
 20
148.744877925
 10
255.6970021532
 20
148.8053946084
 10
255.8319665876
 20
148.8648550817
 10
255.9682277279
 20
148.9233097096
 10
256.105643794
 20
148.9807024768
 10
256.2447964975
 20
149.0372719127
 10
256.3860597106
 20
149.093148409
 10
256.5299371646
 20
149.1484944711
 10
256.676905496
 20
149.2034400332
 10
256.8274364053
 20
149.2580876051
 10
256.9820019899
 20
149.3125146661
 10
257.1410892085
 20
149.3667811942
 10
257.3051982746
 20
149.4209276823
 10
257.4747529879
 20
149.4749454046
 10
257.6502750069
 20
149.5288312467
 10
257.8319501327
 20
149.5824475227
 10
258.0200572996
 20
149.6356616573
 10
258.2148055628
 20
149.6882991796
 10
258.4164168922
 20
149.7401671572
  0
LINE
  5
679
100
AcDbEntity
  8
RUNDUNGEN
100
AcDbLine
 62
7
  6
CONTINUOUS
 10
235.1736612425
 20
70.2696602033
 11
230.8192439391
 21
69.2066715591
  0
LINE
  5
67A
100
AcDbEntity
  8
RUNDUNGEN
100
AcDbLine
 62
7
  6
CONTINUOUS
 10
259.2935176849
 20
69.2066670479
 11
254.9390405439
 21
70.2696702997
  0
LWPOLYLINE
  5
67B
100
AcDbEntity
  8
RUNDUNGEN
100
AcDbPolyline
 62
7
  6
CONTINUOUS
 90
7
 70
0
 10
254.9392354767
 20
70.2695813381
 10
254.8628134399
 20
70.2889221726
 10
254.4771211315
 20
70.4071956991
 10
254.065381376
 20
70.5701652343
 10
253.6347954836
 20
70.7803467258
 10
253.1933739354
 20
71.0386388875
 10
253.0403577985
 20
71.1386474963
  0
LINE
  5
67C
100
AcDbEntity
  8
RUNDUNGEN
100
AcDbLine
 62
7
  6
CONTINUOUS
 10
226.0063715721
 20
69.5143207964
 11
226.0063715721
 21
105.4883310752
  0
LINE
  5
67D
100
AcDbEntity
  8
0
100
AcDbLine
 62
7
  6
CONTINUOUS
 10
226.0063715721
 20
105.4883310752
 11
226.0063715721
 21
141.4623413407
  0
LINE
  5
67E
100
AcDbEntity
  8
0
100
AcDbLine
 62
7
  6
CONTINUOUS
 10
230.0756279766
 20
190.5420784164
 11
230.0563715721
 21
190.3467809408
  0
LINE
  5
67F
100
AcDbEntity
  8
0
100
AcDbLine
 62
2
  6
CONTINUOUS
 10
252.9776961424
 20
147.6858454955
 11
238.296686016
 21
133.0048353691
  0
LINE
  5
680
100
AcDbEntity
  8
0
100
AcDbLine
 62
2
  6
CONTINUOUS
 10
257.0169907547
 20
145.8242227653
 11
244.1976033585
 21
133.0048353691
  0
LINE
  5
681
100
AcDbEntity
  8
RUNDUNGEN
100
AcDbLine
 62
7
  6
CONTINUOUS
 10
253.0403801049
 20
71.1386816832
 11
253.04047082
 21
71.1386207594
  0
LWPOLYLINE
  5
682
100
AcDbEntity
  8
RUNDUNGEN
100
AcDbPolyline
 62
7
  6
CONTINUOUS
 90
5
 70
0
 10
253.04047082
 20
71.1386207594
 10
252.9031701268
 20
71.2331373202
 10
252.6813390782
 20
71.3957704046
 10
252.4592563462
 20
71.5714264478
 10
252.2758038897
 20
71.7267612064
  0
LWPOLYLINE
  5
683
100
AcDbEntity
  8
RUNDUNGEN
100
AcDbPolyline
 62
7
  6
CONTINUOUS
 90
4
 70
0
 10
259.6123791163
 20
60.8818140599
 10
259.7636816209
 20
60.7575402784
 10
259.8877401224
 20
60.6063582724
 10
259.9801141829
 20
60.4336506466
  0
LINE
  5
684
100
AcDbEntity
  8
RUNDUNGEN
100
AcDbLine
 62
7
  6
CONTINUOUS
 10
252.2758381571
 20
71.7268005283
 11
252.2759567198
 21
71.7266967641
  0
LWPOLYLINE
  5
685
100
AcDbEntity
  8
RUNDUNGEN
100
AcDbPolyline
 62
7
  6
CONTINUOUS
 90
3
 70
0
 10
252.2759567198
 20
71.7266967641
 10
252.1939765675
 20
71.800665459
 10
252.028544498
 20
71.9643595387
  0
LINE
  5
686
100
AcDbEntity
  8
RUNDUNGEN
100
AcDbLine
 62
7
  6
CONTINUOUS
 10
230.0563715721
 20
12.1210354816
 11
230.0563715721
 21
20.2702668437
  0
LINE
  5
687
100
AcDbEntity
  8
RUNDUNGEN
100
AcDbLine
 62
7
  6
CONTINUOUS
 10
230.0563715721
 20
20.6298812084
 11
230.0563715721
 21
34.1749053699
  0
LINE
  5
688
100
AcDbEntity
  8
RUNDUNGEN
100
AcDbLine
 62
7
  6
CONTINUOUS
 10
230.0563715721
 20
51.8764800478
 11
230.0563715721
 21
60.0506368233
  0
LINE
  5
689
100
AcDbEntity
  8
RUNDUNGEN
100
AcDbLine
 62
7
  6
CONTINUOUS
 10
230.0563715721
 20
63.7742487674
 11
230.0563715721
 21
68.2349213196
  0
LINE
  5
68A
100
AcDbEntity
  8
RUNDUNGEN
100
AcDbLine
 62
7
  6
CONTINUOUS
 10
230.0563715721
 20
97.4883310746
 11
230.0563715721
 21
102.2383310746
  0
LINE
  5
68B
100
AcDbEntity
  8
RUNDUNGEN
100
AcDbLine
 62
7
  6
CONTINUOUS
 10
230.0563715721
 20
144.91058376
 11
230.0563715721
 21
147.2024133818
  0
LINE
  5
68C
100
AcDbEntity
  8
0
100
AcDbLine
 62
7
  6
CONTINUOUS
 10
230.0563715721
 20
145.5282040887
 11
230.0563715721
 21
147.2024133818
  0
LINE
  5
68D
100
AcDbEntity
  8
RUNDUNGEN
100
AcDbLine
 62
7
  6
CONTINUOUS
 10
230.0563715721
 20
150.926025326
 11
230.0563715721
 21
159.1001821014
  0
LINE
  5
68E
100
AcDbEntity
  8
0
100
AcDbLine
 62
7
  6
CONTINUOUS
 10
230.0563715721
 20
177.6887260967
 11
230.0563715721
 21
178.0894254635
  0
LINE
  5
68F
100
AcDbEntity
  8
0
100
AcDbLine
 62
7
  6
CONTINUOUS
 10
230.0563715721
 20
180.9387260967
 11
230.0563715721
 21
181.2116649683
  0
LINE
  5
690
100
AcDbEntity
  8
RUNDUNGEN
100
AcDbLine
 62
7
  6
CONTINUOUS
 10
230.0563715721
 20
176.8017567793
 11
230.0563715721
 21
190.3467809408
  0
LINE
  5
691
100
AcDbEntity
  8
0
100
AcDbLine
 62
7
  6
CONTINUOUS
 10
230.0563715721
 20
190.7345544527
 11
230.0563715721
 21
191.1972422273
  0
LINE
  5
692
100
AcDbEntity
  8
RUNDUNGEN
100
AcDbLine
 62
7
  6
CONTINUOUS
 10
230.0563715721
 20
190.7345544527
 11
230.0563715721
 21
198.8556266676
  0
LINE
  5
693
100
AcDbEntity
  8
0
100
AcDbLine
 62
2
  6
CONTINUOUS
 10
261.5540626087
 20
144.4603772768
 11
250.098520701
 21
133.0048353691
  0
LWPOLYLINE
  5
694
100
AcDbEntity
  8
RUNDUNGEN
100
AcDbPolyline
 62
7
  6
CONTINUOUS
 90
3
 70
0
 10
252.028544498
 20
71.9643595387
 10
251.8635393829
 20
72.1457440774
 10
251.802857673
 20
72.2166153711
  0
LINE
  5
695
100
AcDbEntity
  8
RUNDUNGEN
100
AcDbLine
 62
7
  6
CONTINUOUS
 10
251.8026311889
 20
72.216701601
 11
251.8027684326
 21
72.2165394945
  0
LINE
  5
696
100
AcDbEntity
  8
RUNDUNGEN
100
AcDbLine
 62
7
  6
CONTINUOUS
 10
251.8026311889
 20
72.216701601
 11
251.6116853917
 21
72.4586291016
  0
LWPOLYLINE
  5
697
100
AcDbEntity
  8
RUNDUNGEN
100
AcDbPolyline
 62
7
  6
CONTINUOUS
 90
5
 70
0
 10
251.6116853917
 20
72.4586291016
 10
251.2584387372
 20
72.9970354785
 10
250.9620797656
 20
73.5637904043
 10
250.7116268492
 20
74.1608807077
 10
250.4992168158
 20
74.7977748194
  0
LINE
  5
698
100
AcDbEntity
  8
0
100
AcDbLine
 62
7
  6
CONTINUOUS
 10
230.0563715721
 20
150.926025326
 11
230.0754493996
 21
150.7316264982
  0
LINE
  5
699
100
AcDbEntity
  8
0
100
AcDbLine
 62
7
  6
CONTINUOUS
 10
230.0563715721
 20
180.9387260967
 11
230.0754041106
 21
180.7445566804
  0
LWPOLYLINE
  5
69A
100
AcDbEntity
  8
RUNDUNGEN
100
AcDbPolyline
 62
7
  6
CONTINUOUS
 90
38
 70
0
 10
237.6209679367
 20
105.4883310752
 10
237.6208788433
 20
105.433328244
 10
237.5987565506
 20
105.3241959814
 10
237.5546454022
 20
105.2104364195
 10
237.4943304068
 20
105.1011157823
 10
237.4216649197
 20
104.9967128077
 10
237.3384871763
 20
104.896263963
 10
237.2473939621
 20
104.8006144905
 10
237.148449624
 20
104.7083157067
 10
237.0431345376
 20
104.6197758209
 10
236.9315837829
 20
104.5343748955
 10
236.8146993564
 20
104.4522651919
 10
236.6928617229
 20
104.373271086
 10
236.5664024526
 20
104.2972601726
 10
236.4355248751
 20
104.2240860886
 10
236.300161213
 20
104.1535130699
 10
236.1602453226
 20
104.0853793124
 10
236.0154124657
 20
104.0194403248
 10
235.8653481769
 20
103.9555491915
 10
235.7094476126
 20
103.8935007084
 10
235.54717325
 20
103.8331931817
 10
235.377735073
 20
103.7745000058
 10
235.1997291506
 20
103.717187508
 10
235.0142662799
 20
103.6618727379
 10
234.8217698679
 20
103.6088929832
 10
234.6229977672
 20
103.5586279726
 10
234.4188047563
 20
103.5114279907
 10
234.2093986168
 20
103.4674454108
 10
233.9953797831
 20
103.4269085622
 10
233.7764273842
 20
103.3898576261
 10
233.5524720863
 20
103.3564150855
 10
233.3233276122
 20
103.3267086038
 10
233.0888406383
 20
103.3008995074
 10
232.8488396281
 20
103.2791831827
 10
232.6031554539
 20
103.2617815273
 10
232.351657075
 20
103.2489640573
 10
232.0942185661
 20
103.2410313105
 10
231.8326596086
 20
103.2383290977
  0
LINE
  5
69B
100
AcDbEntity
  8
RUNDUNGEN
100
AcDbLine
 62
7
  6
CONTINUOUS
 10
230.0563715721
 20
60.0506368233
 11
230.0754493996
 21
60.2450356511
  0
LINE
  5
69C
100
AcDbEntity
  8
RUNDUNGEN
100
AcDbLine
 62
7
  6
CONTINUOUS
 10
230.0753007783
 20
59.9720775762
 11
230.0563715721
 21
59.819292936
  0
LWPOLYLINE
  5
69D
100
AcDbEntity
  8
0
100
AcDbPolyline
 62
7
  6
CONTINUOUS
 90
3
 70
0
 10
250.0781566007
 20
183.4270142148
 10
250.1778528072
 20
184.0305209438
 10
250.351290542
 20
184.5668267804
  0
LINE
  5
69E
100
AcDbEntity
  8
0
100
AcDbLine
 62
7
  6
CONTINUOUS
 10
259.9800615026
 20
180.5555852449
 11
260.0371078839
 21
180.7433924106
  0
LINE
  5
69F
100
AcDbEntity
  8
0
100
AcDbLine
 62
2
  6
CONTINUOUS
 10
264.1063715721
 20
141.1117688977
 11
255.9994380435
 21
133.0048353691
  0
LINE
  5
6A0
100
AcDbEntity
  8
0
100
AcDbLine
 62
2
  6
CONTINUOUS
 10
264.1063715721
 20
135.2108515552
 11
261.9003553859
 21
133.0048353691
  0
LINE
  5
6A1
100
AcDbEntity
  8
RUNDUNGEN
100
AcDbLine
 62
7
  6
CONTINUOUS
 10
259.0563715721
 20
96.4883310746
 11
250.764282663
 21
96.4883310746
  0
LINE
  5
6A2
100
AcDbEntity
  8
RUNDUNGEN
100
AcDbLine
 62
7
  6
CONTINUOUS
 10
239.3484608343
 20
96.4883310746
 11
231.0563715721
 21
96.4883310746
  0
LWPOLYLINE
  5
6A3
100
AcDbEntity
  8
RUNDUNGEN
100
AcDbPolyline
 62
7
  6
CONTINUOUS
 90
3
 70
0
 10
237.3355303326
 20
96.319960122
 10
237.6266824961
 20
96.2044400204
 10
237.7037570213
 20
96.1687094248
  0
LINE
  5
6A4
100
AcDbEntity
  8
RUNDUNGEN
100
AcDbLine
 62
7
  6
CONTINUOUS
 10
237.703825159
 20
96.168677918
 11
237.7037154579
 21
96.1687303794
  0
LWPOLYLINE
  5
6A5
100
AcDbEntity
  8
RUNDUNGEN
100
AcDbPolyline
 62
7
  6
CONTINUOUS
 90
3
 70
0
 10
237.703825159
 20
96.168677918
 10
237.8194415569
 20
96.1108851325
 10
237.9819164479
 20
96.0209691276
  0
LINE
  5
6A6
100
AcDbEntity
  8
RUNDUNGEN
100
AcDbLine
 62
7
  6
CONTINUOUS
 10
237.9819164479
 20
96.0209691276
 11
238.1423088377
 21
95.9219291726
  0
LINE
  5
6A7
100
AcDbEntity
  8
RUNDUNGEN
100
AcDbLine
 62
7
  6
CONTINUOUS
 10
238.1423088377
 20
95.9219291726
 11
238.2596560469
 21
95.8427609658
  0
LINE
  5
6A8
100
AcDbEntity
  8
RUNDUNGEN
100
AcDbLine
 62
7
  6
CONTINUOUS
 10
238.2595968032
 20
95.8426763317
 11
238.258711627
 21
95.8432961469
  0
LWPOLYLINE
  5
6A9
100
AcDbEntity
  8
RUNDUNGEN
100
AcDbPolyline
 62
7
  6
CONTINUOUS
 90
4
 70
0
 10
238.258711627
 20
95.8432961469
 10
238.3229232532
 20
95.7974693122
 10
238.4586551934
 20
95.6943603357
 10
238.5963222048
 20
95.5810137145
  0
LWPOLYLINE
  5
6AA
100
AcDbEntity
  8
RUNDUNGEN
100
AcDbPolyline
 62
7
  6
CONTINUOUS
 90
3
 70
0
 10
238.5963222048
 20
95.5810137145
 10
238.7367563994
 20
95.4573538246
 10
238.7557793166
 20
95.4400390472
  0
LWPOLYLINE
  5
6AB
100
AcDbEntity
  8
RUNDUNGEN
100
AcDbPolyline
 62
7
  6
CONTINUOUS
 90
5
 70
0
 10
243.8063715721
 20
36.8264178447
 10
243.8074437319
 20
36.7746176651
 10
243.8106618299
 20
36.7234431685
 10
243.8160248232
 20
36.672993718
 10
243.8235270199
 20
36.6233687925
  0
LINE
  5
6AC
100
AcDbEntity
  8
RUNDUNGEN
100
AcDbLine
 62
7
  6
CONTINUOUS
 10
240.0563715721
 20
39.2371042973
 11
240.0563715721
 21
50.8498406758
  0
LINE
  5
6AD
100
AcDbEntity
  8
RUNDUNGEN
100
AcDbLine
 62
7
  6
CONTINUOUS
 10
240.0563715721
 20
74.7437209601
 11
240.0563715721
 21
92.4883310746
  0
LINE
  5
6AE
100
AcDbEntity
  8
0
100
AcDbLine
 62
7
  6
CONTINUOUS
 10
240.0563715721
 20
153.8654099257
 11
240.0563715721
 21
184.0445509066
  0
LINE
  5
6AF
100
AcDbEntity
  8
RUNDUNGEN
100
AcDbLine
 62
7
  6
CONTINUOUS
 10
243.8063715721
 20
14.4105041726
 11
243.8063715721
 21
19.2770589233
  0
LINE
  5
6B0
100
AcDbEntity
  8
RUNDUNGEN
100
AcDbLine
 62
7
  6
CONTINUOUS
 10
243.8063715721
 20
36.8264178447
 11
243.8063715721
 21
46.5140232298
  0
LINE
  5
6B1
100
AcDbEntity
  8
RUNDUNGEN
100
AcDbLine
 62
7
  6
CONTINUOUS
 10
243.8063715721
 20
75.5125238675
 11
243.8063715721
 21
88.7460389253
  0
LINE
  5
6B2
100
AcDbEntity
  8
0
100
AcDbLine
 62
7
  6
CONTINUOUS
 10
240.0563703608
 20
153.8654099257
 11
240.0560190132
 21
153.7977993657
  0
LWPOLYLINE
  5
6B3
100
AcDbEntity
  8
RUNDUNGEN
100
AcDbPolyline
 62
7
  6
CONTINUOUS
 90
5
 70
0
 10
240.0563715185
 20
78.0091474028
 10
240.0504740631
 20
77.6258701596
 10
240.0050826755
 20
76.8833211051
 10
239.9162020583
 20
76.1618275397
 10
239.7850833633
 20
75.4645609491
  0
LINE
  5
6B4
100
AcDbEntity
  8
RUNDUNGEN
100
AcDbLine
 62
7
  6
CONTINUOUS
 10
240.0563714895
 20
44.8930986726
 11
240.050156021
 21
44.4917565181
  0
LWPOLYLINE
  5
6B5
100
AcDbEntity
  8
RUNDUNGEN
100
AcDbPolyline
 62
7
  6
CONTINUOUS
 90
10
 70
0
 10
240.050156021
 20
44.4917565181
 10
240.0028588267
 20
43.7220549452
 10
239.9100416504
 20
42.9760148728
 10
239.7732617497
 20
42.2606581144
 10
239.5949663998
 20
41.5843308143
 10
239.3769958658
 20
40.951279157
 10
239.1230170571
 20
40.3704191947
 10
238.8354322878
 20
39.8466288294
 10
238.5190161926
 20
39.3895305028
 10
238.3743517967
 20
39.2148001405
  0
LINE
  5
6B6
100
AcDbEntity
  8
RUNDUNGEN
100
AcDbLine
 62
7
  6
CONTINUOUS
 10
230.0754493996
 20
60.2450356511
 11
230.1321793235
 21
60.4325644182
  0
LINE
  5
6B7
100
AcDbEntity
  8
RUNDUNGEN
100
AcDbLine
 62
7
  6
CONTINUOUS
 10
231.0563715721
 20
103.2383310746
 11
259.0563715721
 21
103.2383310746
  0
LINE
  5
6B8
100
AcDbEntity
  8
02___PRT_ALL_AXES
100
AcDbLine
 62
7
  6
CENTER
 10
223.0063715721
 20
105.4883310746
 11
267.1063715721
 21
105.4883310746
  0
LINE
  5
6B9
100
AcDbEntity
  8
0
100
AcDbLine
 62
2
  6
CONTINUOUS
 10
226.0063715721
 20
105.4883310752
 11
264.1063715721
 21
105.4883310752
  0
LWPOLYLINE
  5
6BA
100
AcDbEntity
  8
RUNDUNGEN
100
AcDbPolyline
 62
7
  6
CONTINUOUS
 90
37
 70
0
 10
258.2799501362
 20
103.238331147
 10
257.9913666758
 20
103.2416158542
 10
257.7293971445
 20
103.2502943376
 10
257.4738167961
 20
103.2640117316
 10
257.2243927693
 20
103.2824350441
 10
256.9808958031
 20
103.3052850273
 10
256.7430308251
 20
103.3323534148
 10
256.5104953756
 20
103.3634657481
 10
256.2830540561
 20
103.3984668854
 10
256.0604222799
 20
103.4372614079
 10
255.8424856713
 20
103.4797730179
 10
255.6287574542
 20
103.5260213869
 10
255.420084081
 20
103.5757427943
 10
255.2168570843
 20
103.6287665223
 10
255.0199960192
 20
103.6847479571
 10
254.8302626853
 20
103.7432979867
 10
254.6483694572
 20
103.8039788158
 10
254.4756951345
 20
103.8660673534
 10
254.3109340075
 20
103.9297490596
 10
254.1535454032
 20
103.9950003383
 10
254.0026968231
 20
104.0620108305
 10
253.857645178
 20
104.1310531416
 10
253.7180030475
 20
104.2023053767
 10
253.5832788852
 20
104.2760728665
 10
253.4534404884
 20
104.3525335388
 10
253.3284870932
 20
104.4319324171
 10
253.2085436251
 20
104.5145207819
 10
253.0939898809
 20
104.6004605518
 10
252.9852199848
 20
104.6900140201
 10
252.8832516073
 20
104.7831312758
 10
252.7884349623
 20
104.8806100448
 10
252.7033145806
 20
104.9808773535
 10
252.6274585743
 20
105.0870794145
 10
252.563675284
 20
105.1998681145
 10
252.5167611478
 20
105.3146086793
 10
252.4919093629
 20
105.4316419926
 10
252.4916625316
 20
105.4883310752
  0
LINE
  5
6BB
100
AcDbEntity
  8
RUNDUNGEN
100
AcDbLine
 62
7
  6
CONTINUOUS
 10
259.9812159336
 20
60.1185616113
 11
260.0374423659
 21
59.9713836063
  0
LWPOLYLINE
  5
6BC
100
AcDbEntity
  8
0
100
AcDbPolyline
 62
7
  6
CONTINUOUS
 90
7
 70
0
 10
230.0754493996
 20
150.7316264982
 10
230.1321793235
 20
150.5440977311
 10
230.2245937478
 20
150.3709166469
 10
230.3490551899
 20
150.2191282079
 10
230.5009676831
 20
150.0944446006
 10
230.6740289443
 20
150.0020047012
 10
230.817541995
 20
149.9549638708
  0
LWPOLYLINE
  5
6BD
100
AcDbEntity
  8
RUNDUNGEN
100
AcDbPolyline
 62
7
  6
CONTINUOUS
 90
6
 70
0
 10
250.4992168158
 20
74.7977748194
 10
250.3274435633
 20
75.4653006413
 10
250.1963833945
 20
76.1628671481
 10
250.1076120145
 20
76.8840756204
 10
250.0623417475
 20
77.6264461104
 10
250.0563716563
 20
78.0099809582
  0
LINE
  5
6BE
100
AcDbEntity
  8
RUNDUNGEN
100
AcDbLine
 62
7
  6
CONTINUOUS
 10
250.0627206016
 20
44.4903875398
 11
250.0563759578
 21
44.8884929268
  0
LINE
  5
6BF
100
AcDbEntity
  8
0
100
AcDbLine
 62
7
  6
CONTINUOUS
 10
250.056724134
 20
153.797799282
 11
250.0563727858
 21
153.8654099231
  0
LINE
  5
6C0
100
AcDbEntity
  8
RUNDUNGEN
100
AcDbLine
 62
7
  6
CONTINUOUS
 10
246.3063715721
 20
88.7460389253
 11
246.3063715721
 21
75.5125238675
  0
LINE
  5
6C1
100
AcDbEntity
  8
RUNDUNGEN
100
AcDbLine
 62
7
  6
CONTINUOUS
 10
246.3063715721
 20
46.5140232298
 11
246.3063715721
 21
36.8264178447
  0
LINE
  5
6C2
100
AcDbEntity
  8
RUNDUNGEN
100
AcDbLine
 62
7
  6
CONTINUOUS
 10
246.3063715721
 20
14.4105041726
 11
246.3063715721
 21
19.2771572472
  0
LINE
  5
6C3
100
AcDbEntity
  8
RUNDUNGEN
100
AcDbLine
 62
7
  6
CONTINUOUS
 10
250.0563715721
 20
92.4883310746
 11
250.0563715721
 21
74.7437251024
  0
LINE
  5
6C4
100
AcDbEntity
  8
RUNDUNGEN
100
AcDbLine
 62
7
  6
CONTINUOUS
 10
250.0563715721
 20
50.8511865557
 11
250.0563715721
 21
39.2371114721
  0
LINE
  5
6C5
100
AcDbEntity
  8
0
100
AcDbLine
 62
7
  6
CONTINUOUS
 10
250.0563715721
 20
153.8654099231
 11
250.0563715721
 21
184.0445509066
  0
LINE
  5
6C6
100
AcDbEntity
  8
0
100
AcDbLine
 62
7
  6
CONTINUOUS
 10
250.5563715721
 20
184.9627193909
 11
250.5563715721
 21
182.6614808434
  0
LINE
  5
6C7
100
AcDbEntity
  8
0
100
AcDbLine
 62
7
  6
CONTINUOUS
 10
250.5563715721
 20
182.6433618248
 11
250.5563715721
 21
182.2032528376
  0
LINE
  5
6C8
100
AcDbEntity
  8
0
100
AcDbLine
 62
7
  6
CONTINUOUS
 10
250.5563715721
 20
167.5157626583
 11
250.5563715721
 21
161.8623158908
  0
LINE
  5
6C9
100
AcDbEntity
  8
0
100
AcDbLine
 62
7
  6
CONTINUOUS
 10
250.5563715721
 20
161.8338206596
 11
250.5563715721
 21
160.4285486129
  0
LWPOLYLINE
  5
6CA
100
AcDbEntity
  8
0
100
AcDbPolyline
 62
7
  6
CONTINUOUS
 90
9
 70
0
 10
250.0563759576
 20
166.0881690897
 10
250.0627205972
 20
166.4862745914
 10
250.1101150153
 20
167.256877876
 10
250.2031195482
 20
168.0032769916
 10
250.340196364
 20
168.7193803425
 10
250.5188686369
 20
169.3959961406
 10
250.7370094604
 20
170.028717001
 10
250.9907255176
 20
170.6086019041
 10
251.2780244679
 20
171.1312281438
  0
LINE
  5
6CB
100
AcDbEntity
  8
0
100
AcDbLine
 62
7
  6
CONTINUOUS
 10
260.0371078839
 20
180.7433924106
 11
260.0563715721
 21
180.9387260967
  0
LWPOLYLINE
  5
6CC
100
AcDbEntity
  8
RUNDUNGEN
100
AcDbPolyline
 62
7
  6
CONTINUOUS
 90
7
 70
0
 10
239.7850833633
 20
75.4645609491
 10
239.6133251249
 20
74.797203762
 10
239.4008506501
 20
74.1602223608
 10
239.150001566
 20
73.5628300493
 10
238.8534887113
 20
72.9957032863
 10
238.5008137701
 20
72.458412348
 10
238.310062572
 20
72.2167449132
  0
LINE
  5
6CD
100
AcDbEntity
  8
RUNDUNGEN
100
AcDbLine
 62
7
  6
CONTINUOUS
 10
230.1315272105
 20
60.1185616113
 11
230.0753007783
 21
59.9720775762
  0
LINE
  5
6CE
100
AcDbEntity
  8
0
100
AcDbLine
 62
7
  6
CONTINUOUS
 10
264.1063715721
 20
106.4542569009
 11
226.0063715721
 21
106.4542569009
  0
LINE
  5
6CF
100
AcDbEntity
  8
0
100
AcDbLine
 62
7
  6
CONTINUOUS
 10
264.1063715721
 20
111.8699697748
 11
226.0063715721
 21
111.8699697748
  0
LINE
  5
6D0
100
AcDbEntity
  8
0
100
AcDbLine
 62
7
  6
CONTINUOUS
 10
264.1063715721
 20
112.7184979122
 11
226.0063715721
 21
112.7184979122
  0
LWPOLYLINE
  5
6D1
100
AcDbEntity
  8
RUNDUNGEN
100
AcDbPolyline
 62
7
  6
CONTINUOUS
 90
3
 70
0
 10
259.9801141829
 20
60.4336506466
 10
260.0371216997
 20
60.2459018272
 10
260.0563715721
 20
60.0506368233
  0
LINE
  5
6D2
100
AcDbEntity
  8
0
100
AcDbLine
 62
7
  6
CONTINUOUS
 10
230.0754041106
 20
180.7445566804
 11
230.1320776281
 21
180.5570446783
  0
LINE
  5
6D3
100
AcDbEntity
  8
0
100
AcDbLine
 62
7
  6
CONTINUOUS
 10
260.0371216997
 20
150.7307603221
 11
260.0563715721
 21
150.926025326
  0
LWPOLYLINE
  5
6D4
100
AcDbEntity
  8
RUNDUNGEN
100
AcDbPolyline
 62
7
  6
CONTINUOUS
 90
5
 70
0
 10
246.2892161243
 20
36.6233687925
 10
246.2967223039
 20
36.6730249561
 10
246.302084859
 20
36.723485024
 10
246.3053007423
 20
36.7746491488
 10
246.3063715721
 20
36.8264178447
  0
LWPOLYLINE
  5
6D5
100
AcDbEntity
  8
RUNDUNGEN
100
AcDbPolyline
 62
7
  6
CONTINUOUS
 90
4
 70
0
 10
230.1321793235
 20
60.4325644182
 10
230.2245937478
 20
60.6057455023
 10
230.3490551899
 20
60.7575339413
 10
230.5009676831
 20
60.8822175487
  0
LWPOLYLINE
  5
6D6
100
AcDbEntity
  8
RUNDUNGEN
100
AcDbPolyline
 62
7
  6
CONTINUOUS
 90
5
 70
0
 10
251.3554595369
 20
95.4387675452
 10
251.3751921331
 20
95.4566582988
 10
251.5152154589
 20
95.5801131696
 10
251.6525607294
 20
95.6931088956
 10
251.7885206568
 20
95.796611571
  0
LINE
  5
6D7
100
AcDbEntity
  8
RUNDUNGEN
100
AcDbLine
 62
7
  6
CONTINUOUS
 10
251.7885206568
 20
95.796611571
 11
251.8535063816
 21
95.8430586786
  0
LINE
  5
6D8
100
AcDbEntity
  8
RUNDUNGEN
100
AcDbLine
 62
7
  6
CONTINUOUS
 10
251.8535063816
 20
95.8430586786
 11
251.8531076874
 21
95.8427797353
  0
LINE
  5
6D9
100
AcDbEntity
  8
RUNDUNGEN
100
AcDbLine
 62
7
  6
CONTINUOUS
 10
251.8531099908
 20
95.8427764671
 11
251.9712522728
 21
95.9224603548
  0
LWPOLYLINE
  5
6DA
100
AcDbEntity
  8
RUNDUNGEN
100
AcDbPolyline
 62
7
  6
CONTINUOUS
 90
3
 70
0
 10
251.9712522728
 20
95.9224603548
 10
252.1317545405
 20
96.0215123842
 10
252.2941341358
 20
96.1113190275
  0
LINE
  5
6DB
100
AcDbEntity
  8
RUNDUNGEN
100
AcDbLine
 62
7
  6
CONTINUOUS
 10
252.2941341358
 20
96.1113190275
 11
252.4089308678
 21
96.1686840331
  0
LINE
  5
6DC
100
AcDbEntity
  8
RUNDUNGEN
100
AcDbLine
 62
7
  6
CONTINUOUS
 10
252.4090049245
 20
96.1687194468
 11
252.4089308678
 21
96.1686840331
  0
LINE
  5
6DD
100
AcDbEntity
  8
RUNDUNGEN
100
AcDbLine
 62
7
  6
CONTINUOUS
 10
252.4089746473
 20
96.1686704684
 11
252.4855935466
 21
96.2041950806
  0
LINE
  5
6DE
100
AcDbEntity
  8
RUNDUNGEN
100
AcDbLine
 62
7
  6
CONTINUOUS
 10
252.4855935466
 20
96.2041950806
 11
252.7765149283
 21
96.3197050033
  0
LWPOLYLINE
  5
6DF
100
AcDbEntity
  8
RUNDUNGEN
100
AcDbPolyline
 62
7
  6
CONTINUOUS
 90
5
 70
0
 10
252.7765149283
 20
96.3197050033
 10
253.0702713877
 20
96.405784842
 10
253.3665480917
 20
96.461806206
 10
253.6655226515
 20
96.4870490261
 10
253.7536702342
 20
96.4884151286
  0
LINE
  5
6E0
100
AcDbEntity
  8
RUNDUNGEN
100
AcDbLine
 62
7
  6
CONTINUOUS
 10
260.0374423659
 20
59.9713836063
 11
260.0563715721
 21
59.819292936
  0
LWPOLYLINE
  5
6E1
100
AcDbEntity
  8
0
100
AcDbPolyline
 62
7
  6
CONTINUOUS
 90
9
 70
0
 10
260.0563715721
 20
159.1001821014
 10
260.0373156328
 20
159.2944700943
 10
259.9806130674
 20
159.4819905066
 10
259.8881952074
 20
159.6552221301
 10
259.763713259
 20
159.8070538987
 10
259.6117374888
 20
159.9317881845
 10
259.4386507276
 20
160.0242289873
 10
259.2514995693
 20
160.0809598244
 10
259.0563715721
 20
160.1001821014
  0
LINE
  5
6E2
100
AcDbEntity
  8
0
100
AcDbLine
 62
7
  6
CONTINUOUS
 10
260.0563715721
 20
191.1972422273
 11
260.0563715721
 21
190.7345544527
  0
LINE
  5
6E3
100
AcDbEntity
  8
RUNDUNGEN
100
AcDbLine
 62
7
  6
CONTINUOUS
 10
260.0563715721
 20
198.8556266676
 11
260.0563715721
 21
190.7345544527
  0
LINE
  5
6E4
100
AcDbEntity
  8
RUNDUNGEN
100
AcDbLine
 62
7
  6
CONTINUOUS
 10
260.0563715721
 20
190.3467809408
 11
260.0563715721
 21
176.8017690516
  0
LINE
  5
6E5
100
AcDbEntity
  8
RUNDUNGEN
100
AcDbLine
 62
7
  6
CONTINUOUS
 10
260.0563715721
 20
159.1001821014
 11
260.0563715721
 21
150.926025326
  0
LINE
  5
6E6
100
AcDbEntity
  8
0
100
AcDbLine
 62
7
  6
CONTINUOUS
 10
260.0563715721
 20
147.2024133818
 11
260.0563715721
 21
145.5282040887
  0
LINE
  5
6E7
100
AcDbEntity
  8
RUNDUNGEN
100
AcDbLine
 62
7
  6
CONTINUOUS
 10
260.0563715721
 20
147.2024133818
 11
260.0563715721
 21
144.91058376
  0
LINE
  5
6E8
100
AcDbEntity
  8
RUNDUNGEN
100
AcDbLine
 62
7
  6
CONTINUOUS
 10
260.0563715721
 20
102.2383310746
 11
260.0563715721
 21
97.4883310746
  0
LINE
  5
6E9
100
AcDbEntity
  8
RUNDUNGEN
100
AcDbLine
 62
7
  6
CONTINUOUS
 10
260.0563715721
 20
68.2349280767
 11
260.0563715721
 21
63.7742487674
  0
LINE
  5
6EA
100
AcDbEntity
  8
RUNDUNGEN
100
AcDbLine
 62
7
  6
CONTINUOUS
 10
260.0563715721
 20
60.0506368233
 11
260.0563715721
 21
51.8764800478
  0
LINE
  5
6EB
100
AcDbEntity
  8
RUNDUNGEN
100
AcDbLine
 62
7
  6
CONTINUOUS
 10
260.0563715721
 20
34.1748930977
 11
260.0563715721
 21
20.6298812084
  0
LINE
  5
6EC
100
AcDbEntity
  8
RUNDUNGEN
100
AcDbLine
 62
7
  6
CONTINUOUS
 10
260.0563715721
 20
20.2702411164
 11
260.0563715721
 21
12.1210354816
  0
LINE
  5
6ED
100
AcDbEntity
  8
0
100
AcDbLine
 62
7
  6
CONTINUOUS
 10
260.0563715721
 20
150.926025326
 11
260.0563715721
 21
151.423229114
  0
LINE
  5
6EE
100
AcDbEntity
  8
0
100
AcDbLine
 62
7
  6
CONTINUOUS
 10
260.0563715721
 20
178.0894254635
 11
260.0563715721
 21
181.2116649683
  0
LINE
  5
6EF
100
AcDbEntity
  8
RUNDUNGEN
100
AcDbLine
 62
7
  6
CONTINUOUS
 10
264.1063715721
 20
105.4883310752
 11
264.1063715721
 21
69.5143207948
  0
LINE
  5
6F0
100
AcDbEntity
  8
0
100
AcDbLine
 62
7
  6
CONTINUOUS
 10
264.1063715721
 20
105.4883310752
 11
264.1063715721
 21
141.4623413423
  0
LWPOLYLINE
  5
6F1
100
AcDbEntity
  8
RUNDUNGEN
100
AcDbPolyline
 62
7
  6
CONTINUOUS
 90
6
 70
0
 10
260.0563715721
 20
51.8764800478
 10
260.0373156328
 20
51.682192055
 10
259.9806130674
 20
51.4946716427
 10
259.8881952074
 20
51.3214400191
 10
259.763713259
 20
51.1696082505
 10
259.6117374888
 20
51.0448739648
  0
LINE
  5
6F2
100
AcDbEntity
  8
RUNDUNGEN
100
AcDbLine
 62
7
  6
CONTINUOUS
 10
238.3099354303
 20
72.2165944864
 11
238.310062572
 21
72.2167449132
  0
LWPOLYLINE
  5
6F3
100
AcDbEntity
  8
RUNDUNGEN
100
AcDbPolyline
 62
7
  6
CONTINUOUS
 90
3
 70
0
 10
238.3099008342
 20
72.2166236047
 10
238.2470318548
 20
72.1431811668
 10
238.081846647
 20
71.9618589561
  0
LWPOLYLINE
  5
6F4
100
AcDbEntity
  8
RUNDUNGEN
100
AcDbPolyline
 62
7
  6
CONTINUOUS
 90
3
 70
0
 10
238.081846647
 20
71.9618589561
 10
237.9167682408
 20
71.7987779228
 10
237.8368024194
 20
71.7266389504
  0
LINE
  5
6F5
100
AcDbEntity
  8
RUNDUNGEN
100
AcDbLine
 62
7
  6
CONTINUOUS
 10
237.8368024194
 20
71.7266389504
 11
237.8369370297
 21
71.7267567713
  0
LWPOLYLINE
  5
6F6
100
AcDbEntity
  8
0
100
AcDbPolyline
 62
7
  6
CONTINUOUS
 90
3
 70
0
 10
239.7559782704
 20
184.5798954486
 10
239.9305943282
 20
184.0481346127
 10
240.0333979139
 20
183.4398694461
  0
LINE
  5
6F7
100
AcDbEntity
  8
0
100
AcDbLine
 62
7
  6
CONTINUOUS
 10
260.0563715721
 20
190.3467809408
 11
260.0385896572
 21
190.5280794067
  0
LWPOLYLINE
  5
6F8
100
AcDbEntity
  8
RUNDUNGEN
100
AcDbPolyline
 62
7
  6
CONTINUOUS
 90
6
 70
0
 10
260.0563715721
 20
20.6298812084
 10
260.0373156328
 20
20.4355932155
 10
259.9806130674
 20
20.2480728033
 10
259.8881952074
 20
20.0748411797
 10
259.763713259
 20
19.9230094111
 10
259.6117374888
 20
19.7982751254
  0
LWPOLYLINE
  5
6F9
100
AcDbEntity
  8
RUNDUNGEN
100
AcDbPolyline
 62
7
  6
CONTINUOUS
 90
5
 70
0
 10
237.8369357707
 20
71.7267582023
 10
237.6534415764
 20
71.57138904
 10
237.4314011307
 20
71.395768111
 10
237.2096206236
 20
71.2331708167
 10
237.0723622493
 20
71.1386810738
  0
LINE
  5
6FA
100
AcDbEntity
  8
RUNDUNGEN
100
AcDbLine
 62
7
  6
CONTINUOUS
 10
237.0723622493
 20
71.1386810738
 11
237.0724632372
 21
71.1387488922
  0
LWPOLYLINE
  5
6FB
100
AcDbEntity
  8
RUNDUNGEN
100
AcDbPolyline
 62
7
  6
CONTINUOUS
 90
7
 70
0
 10
237.0724669326
 20
71.1387419655
 10
236.9189815533
 20
71.0384300472
 10
236.4772147006
 20
70.7799675442
 10
236.0464805514
 20
70.5697608898
 10
235.6348089733
 20
70.4068741239
 10
235.2494336965
 20
70.2887471485
 10
235.1734530824
 20
70.2695234311
  0
LINE
  5
6FC
100
AcDbEntity
  8
0
100
AcDbLine
 62
7
  6
CONTINUOUS
 10
264.1063715721
 20
126.3303034501
 11
226.0063715721
 21
126.3303034501
  0
LINE
  5
6FD
100
AcDbEntity
  8
0
100
AcDbLine
 62
7
  6
CONTINUOUS
 10
264.1063715721
 20
131.746016324
 11
226.0063715721
 21
131.746016324
  0
LWPOLYLINE
  5
6FE
100
AcDbEntity
  8
0
100
AcDbPolyline
 62
7
  6
CONTINUOUS
 90
9
 70
0
 10
238.8354322822
 20
171.1300333289
 10
239.1230170528
 20
170.6062429632
 10
239.3769958628
 20
170.025383
 10
239.5949663978
 20
169.3923313416
 10
239.7732617485
 20
168.7160040403
 10
239.9100416497
 20
168.0006472805
 10
240.0028588265
 20
167.2546072065
 10
240.050156021
 20
166.4849056323
 10
240.0563714895
 20
166.0835634775
  0
LWPOLYLINE
  5
6FF
100
AcDbEntity
  8
0
100
AcDbPolyline
 62
7
  6
CONTINUOUS
 90
3
 70
0
 10
230.1320776281
 20
180.5570446783
 10
230.2244998964
 20
180.3837580723
 10
230.3490051316
 20
180.2318790702
  0
LWPOLYLINE
  5
700
100
AcDbEntity
  8
RUNDUNGEN
100
AcDbPolyline
 62
7
  6
CONTINUOUS
 90
20
 70
0
 10
235.6062138751
 20
62.7742487674
 10
235.5842101813
 20
62.7614129761
 10
235.4322316246
 20
62.6758907703
 10
235.277328151
 20
62.5917428342
 10
235.1196030152
 20
62.5089830732
 10
234.9591696184
 20
62.4276343897
 10
234.796112843
 20
62.3477121142
 10
234.6305200137
 20
62.2692360486
 10
234.4624565142
 20
62.1922206624
 10
234.2921093555
 20
62.1167398305
 10
234.1191591518
 20
62.0426488109
 10
233.9437318386
 20
61.9700125282
 10
233.7646290101
 20
61.8983750689
 10
233.5810249822
 20
61.8274921886
 10
233.3918702892
 20
61.757091946
 10
233.1961510235
 20
61.6869776993
 10
232.9929068704
 20
61.6170326313
 10
232.7809011713
 20
61.5471186634
 10
232.5599586694
 20
61.4775069243
 10
232.329426985
 20
61.408356141
  0
LWPOLYLINE
  5
701
100
AcDbEntity
  8
RUNDUNGEN
100
AcDbPolyline
 62
7
  6
CONTINUOUS
 90
3
 70
0
 10
230.5009676831
 20
60.8822175487
 10
230.6740289443
 20
60.9746574481
 10
230.817541995
 20
61.0216982785
  0
LINE
  5
702
100
AcDbEntity
  8
0
100
AcDbLine
 62
7
  6
CONTINUOUS
 10
264.1063715721
 20
133.0048353691
 11
226.0063715721
 21
133.0048353691
  0
LINE
  5
703
100
AcDbEntity
  8
0
100
AcDbLine
 62
7
  6
CONTINUOUS
 10
238.519016186
 20
171.5871316548
 11
238.8354322822
 21
171.1300333289
  0
LINE
  5
704
100
AcDbEntity
  8
0
100
AcDbLine
 62
7
  6
CONTINUOUS
 10
239.5247949592
 20
185.0221744714
 11
239.7559782704
 21
184.5798954486
  0
LINE
  5
705
100
AcDbEntity
  8
RUNDUNGEN
100
AcDbLine
 62
7
  6
CONTINUOUS
 10
238.3743488902
 20
39.2148009227
 11
238.3744617927
 21
39.2149298307
  0
LWPOLYLINE
  5
706
100
AcDbEntity
  8
RUNDUNGEN
100
AcDbPolyline
 62
7
  6
CONTINUOUS
 90
3
 70
0
 10
238.374459503
 20
39.2149311754
 10
238.309508285
 20
39.1424608192
 10
238.1690776094
 20
38.9968715766
  0
LWPOLYLINE
  5
707
100
AcDbEntity
  8
RUNDUNGEN
100
AcDbPolyline
 62
7
  6
CONTINUOUS
 90
5
 70
0
 10
230.671341196
 20
60.5454643502
 10
230.4981462456
 20
60.4720678752
 10
230.3468489951
 20
60.3737606711
 10
230.2231346274
 20
60.2543139884
 10
230.1315272105
 20
60.1185616113
  0
LINE
  5
708
100
AcDbEntity
  8
RUNDUNGEN
100
AcDbLine
 62
7
  6
CONTINUOUS
 10
259.2949308759
 20
149.9548974612
 11
259.2952164068
 21
149.954967635
  0
LINE
  5
709
100
AcDbEntity
  8
0
100
AcDbLine
 62
7
  6
CONTINUOUS
 10
258.4164168922
 20
149.7401671572
 11
259.2934572535
 21
149.954536582
  0
LINE
  5
70A
100
AcDbEntity
  8
0
100
AcDbLine
 62
7
  6
CONTINUOUS
 10
230.8192858906
 20
149.954536582
 11
231.5956350144
 21
149.7650730415
  0
LINE
  5
70B
100
AcDbEntity
  8
RUNDUNGEN
100
AcDbLine
 62
7
  6
CONTINUOUS
 10
230.817541995
 20
149.9549638708
 11
230.8178122682
 21
149.9548974612
  0
LWPOLYLINE
  5
70C
100
AcDbEntity
  8
0
100
AcDbPolyline
 62
7
  6
CONTINUOUS
 90
31
 70
0
 10
231.5956339037
 20
149.7650747173
 10
231.8400315065
 20
149.7034668731
 10
232.0890451267
 20
149.6366624915
 10
232.3288076465
 20
149.5684870311
 10
232.5592577935
 20
149.4993708295
 10
232.7801178037
 20
149.4297961239
 10
232.992039982
 20
149.3599216886
 10
233.1951942597
 20
149.2900205002
 10
233.3908255283
 20
149.2199517815
 10
233.579898596
 20
149.1495969963
 10
233.7634330931
 20
149.0787570602
 10
233.9424841785
 20
149.007157365
 10
234.1178818593
 20
148.9345512489
 10
234.290835326
 20
148.8604773424
 10
234.4612044096
 20
148.7850056297
 10
234.6293044693
 20
148.7079924896
 10
234.7949290305
 20
148.6295204986
 10
234.9579977054
 20
148.5496118973
 10
235.1184078262
 20
148.4682954427
 10
235.2760600924
 20
148.385596164
 10
235.4308267351
 20
148.301547925
 10
235.5825833089
 20
148.2161809793
 10
235.731174153
 20
148.1295385895
 10
235.8763563499
 20
148.0417146866
 10
236.0181969391
 20
147.952609338
 10
236.1566342802
 20
147.862179187
 10
236.2916502127
 20
147.770331497
 10
236.4231618832
 20
147.6769868009
 10
236.5510414546
 20
147.5820688923
 10
236.6750726416
 20
147.4855299495
 10
236.7703159156
 20
147.4075343549
  0
LINE
  5
70D
100
AcDbEntity
  8
RUNDUNGEN
100
AcDbLine
 62
7
  6
CONTINUOUS
 10
238.374463523
 20
171.7617344461
 11
238.3743517892
 21
171.7618620171
  0
LINE
  5
70E
100
AcDbEntity
  8
0
100
AcDbLine
 62
7
  6
CONTINUOUS
 10
238.3743517892
 20
171.7618620171
 11
238.519016186
 21
171.5871316548
  0
LWPOLYLINE
  5
70F
100
AcDbEntity
  8
RUNDUNGEN
100
AcDbPolyline
 62
7
  6
CONTINUOUS
 90
3
 70
0
 10
238.1690356415
 20
38.9968419678
 10
238.0328346096
 20
38.8709265763
 10
237.9718155399
 20
38.8196719145
  0
LWPOLYLINE
  5
710
100
AcDbEntity
  8
RUNDUNGEN
100
AcDbPolyline
 62
7
  6
CONTINUOUS
 90
6
 70
0
 10
259.612953481
 20
62.9434560455
 10
259.763813291
 20
63.0674770826
 10
259.8873871402
 20
63.2179996157
 10
259.9797627643
 20
63.3903884984
 10
260.0370262638
 20
63.5785093104
 10
260.0563715721
 20
63.7742487674
  0
LINE
  5
711
100
AcDbEntity
  8
RUNDUNGEN
100
AcDbLine
 62
7
  6
CONTINUOUS
 10
237.9718155399
 20
38.8196719145
 11
237.9716166344
 21
38.8195102898
  0
LINE
  5
712
100
AcDbEntity
  8
RUNDUNGEN
100
AcDbLine
 62
7
  6
CONTINUOUS
 10
260.0563715721
 20
66.0660783892
 11
261.970004247
 21
66.6413170837
  0
LWPOLYLINE
  5
713
100
AcDbEntity
  8
0
100
AcDbPolyline
 62
7
  6
CONTINUOUS
 90
9
 70
0
 10
231.0563715721
 20
148.2024133818
 10
230.8587423989
 20
148.1826898793
 10
230.6716802829
 20
148.1254586744
 10
230.4997896631
 20
148.0332061037
 10
230.3489298532
 20
147.9091850666
 10
230.225356004
 20
147.7586625336
 10
230.1329803798
 20
147.5862736508
 10
230.0757168803
 20
147.3981528389
 10
230.0563715721
 20
147.2024133818
  0
LWPOLYLINE
  5
714
100
AcDbEntity
  8
RUNDUNGEN
100
AcDbPolyline
 62
7
  6
CONTINUOUS
 90
9
 70
0
 10
231.0563715721
 20
146.4734217126
 10
230.8598314204
 20
146.4548748556
 10
230.671341196
 20
146.4005491206
 10
230.4981462456
 20
146.3124059984
 10
230.3468489951
 20
146.1942825994
 10
230.2231346274
 20
146.0508088069
 10
230.1315272105
 20
145.8877136163
 10
230.0753007783
 20
145.7115240513
 10
230.0563715721
 20
145.5282040887
  0
LINE
  5
715
100
AcDbEntity
  8
RUNDUNGEN
100
AcDbLine
 62
7
  6
CONTINUOUS
 10
231.0563715721
 20
146.4734217126
 11
235.1034473146
 21
146.4734217126
  0
LINE
  5
716
100
AcDbEntity
  8
RUNDUNGEN
100
AcDbLine
 62
7
  6
CONTINUOUS
 10
255.0092958288
 20
146.4734217126
 11
259.0563715721
 21
146.4734217126
  0
LINE
  5
717
100
AcDbEntity
  8
0
100
AcDbLine
 62
7
  6
CONTINUOUS
 10
231.0563715721
 20
148.2024133818
 11
235.6061946028
 21
148.2024133818
  0
LINE
  5
718
100
AcDbEntity
  8
0
100
AcDbLine
 62
7
  6
CONTINUOUS
 10
254.5065739421
 20
148.2024133818
 11
259.0563715721
 21
148.2024133818
  0
LWPOLYLINE
  5
719
100
AcDbEntity
  8
RUNDUNGEN
100
AcDbPolyline
 62
7
  6
CONTINUOUS
 90
9
 70
0
 10
259.0563715721
 20
146.4734217126
 10
259.2529117237
 20
146.4550321843
 10
259.4414019481
 20
146.4005491206
 10
259.6145968985
 20
146.3124557287
 10
259.765894149
 20
146.1942825994
 10
259.8896085168
 20
146.0508389742
 10
259.9812159336
 20
145.8877136163
 10
260.0374423659
 20
145.7111288685
 10
260.0563715721
 20
145.5282040887
  0
LWPOLYLINE
  5
71A
100
AcDbEntity
  8
0
100
AcDbPolyline
 62
7
  6
CONTINUOUS
 90
9
 70
0
 10
259.0563715721
 20
148.2024133818
 10
259.2540007453
 20
148.1826898793
 10
259.4410628612
 20
148.1254586744
 10
259.612953481
 20
148.0332061037
 10
259.763813291
 20
147.9091850666
 10
259.8873871402
 20
147.7586625336
 10
259.9797627643
 20
147.5862736508
 10
260.0370262638
 20
147.3981528389
 10
260.0563715721
 20
147.2024133818
  0
LINE
  5
71B
100
AcDbEntity
  8
0
100
AcDbLine
 62
7
  6
CONTINUOUS
 10
255.7533691683
 20
146.2040678846
 11
261.9700042556
 21
144.3353450629
  0
LINE
  5
71C
100
AcDbEntity
  8
RUNDUNGEN
100
AcDbLine
 62
7
  6
CONTINUOUS
 10
237.9718155221
 20
172.1569902471
 11
237.9716166241
 21
172.1571518657
  0
LWPOLYLINE
  5
71D
100
AcDbEntity
  8
0
100
AcDbPolyline
 62
7
  6
CONTINUOUS
 90
5
 70
0
 10
237.9718155221
 20
172.1569902471
 10
238.0328345976
 20
172.1057355792
 10
238.1690776118
 20
171.9797905661
 10
238.3095082798
 20
171.8342013307
 10
238.3744594909
 20
171.7617309841
  0
LINE
  5
71E
100
AcDbEntity
  8
0
100
AcDbLine
 62
7
  6
CONTINUOUS
 10
239.258870158
 20
185.3648465183
 11
239.5247949592
 21
185.0221744714
  0
LWPOLYLINE
  5
71F
100
AcDbEntity
  8
RUNDUNGEN
100
AcDbPolyline
 62
7
  6
CONTINUOUS
 90
3
 70
0
 10
237.9716169225
 20
38.8195099419
 10
237.7580696241
 20
38.6494620725
 10
237.4879532829
 20
38.4438282861
  0
LWPOLYLINE
  5
720
100
AcDbEntity
  8
RUNDUNGEN
100
AcDbPolyline
 62
7
  6
CONTINUOUS
 90
3
 70
0
 10
237.4876201979
 20
38.4435869134
 10
237.2116215781
 20
38.2435823494
 10
237.0336832484
 20
38.119705646
  0
LINE
  5
721
100
AcDbEntity
  8
RUNDUNGEN
100
AcDbLine
 62
7
  6
CONTINUOUS
 10
237.0336832484
 20
38.119705646
 11
237.0334946043
 21
38.1195760785
  0
LINE
  5
722
100
AcDbEntity
  8
RUNDUNGEN
100
AcDbLine
 62
7
  6
CONTINUOUS
 10
237.0335305491
 20
38.1195240547
 11
236.8328795296
 21
37.9843126351
  0
LWPOLYLINE
  5
723
100
AcDbEntity
  8
RUNDUNGEN
100
AcDbPolyline
 62
7
  6
CONTINUOUS
 90
6
 70
0
 10
236.8330144842
 20
37.9844478926
 10
236.2546630245
 20
37.6197953022
 10
235.6725105812
 20
37.2876141709
 10
235.0942062464
 20
36.9901274349
 10
234.5265573736
 20
36.7288122886
 10
234.4121035369
 20
36.6797824272
  0
LINE
  5
724
100
AcDbEntity
  8
RUNDUNGEN
100
AcDbLine
 62
7
  6
CONTINUOUS
 10
237.0336847283
 20
172.8569554846
 11
237.0334960616
 21
172.8570850678
  0
LWPOLYLINE
  5
725
100
AcDbEntity
  8
0
100
AcDbPolyline
 62
7
  6
CONTINUOUS
 90
5
 70
0
 10
237.0336847283
 20
172.8569554846
 10
237.2116245329
 20
172.7330777081
 10
237.4879562293
 20
172.5328316752
 10
237.7580720472
 20
172.3271981853
 10
237.971616912
 20
172.1571522135
  0
LINE
  5
726
100
AcDbEntity
  8
0
100
AcDbLine
 62
7
  6
CONTINUOUS
 10
230.3490051316
 20
180.2318790702
 11
230.5010495683
 21
180.107090692
  0
LWPOLYLINE
  5
727
100
AcDbEntity
  8
RUNDUNGEN
100
AcDbPolyline
 62
7
  6
CONTINUOUS
 90
3
 70
0
 10
259.6117374888
 20
51.0448739648
 10
259.4386507276
 20
50.952433162
 10
259.2514995693
 20
50.8957023248
  0
LINE
  5
728
100
AcDbEntity
  8
RUNDUNGEN
100
AcDbLine
 62
7
  6
CONTINUOUS
 10
234.4121793272
 20
36.6797991148
 11
230.6669216602
 21
35.0962573569
  0
LINE
  5
729
100
AcDbEntity
  8
0
100
AcDbLine
 62
7
  6
CONTINUOUS
 10
231.0563715721
 20
160.1001821014
 11
230.8602481765
 21
160.0807612428
  0
LINE
  5
72A
100
AcDbEntity
  8
0
100
AcDbLine
 62
7
  6
CONTINUOUS
 10
240.0563715721
 20
160.1269975447
 11
239.3487186894
 21
160.1001648726
  0
LINE
  5
72B
100
AcDbEntity
  8
0
100
AcDbLine
 62
7
  6
CONTINUOUS
 10
259.0563715721
 20
160.1001821014
 11
250.7643292384
 21
160.1001821014
  0
LINE
  5
72C
100
AcDbEntity
  8
0
100
AcDbLine
 62
7
  6
CONTINUOUS
 10
239.3487186657
 20
160.1001821014
 11
231.0563715721
 21
160.1001821014
  0
LINE
  5
72D
100
AcDbEntity
  8
0
100
AcDbLine
 62
7
  6
CONTINUOUS
 10
250.0563715721
 20
160.4285486129
 11
250.5563715721
 21
160.4285486129
  0
LINE
  5
72E
100
AcDbEntity
  8
0
100
AcDbLine
 62
7
  6
CONTINUOUS
 10
250.0563715721
 20
161.1921550486
 11
250.5563715721
 21
161.1921550486
  0
LINE
  5
72F
100
AcDbEntity
  8
0
100
AcDbLine
 62
7
  6
CONTINUOUS
 10
250.0563715721
 20
161.3350754801
 11
250.5563715721
 21
161.3350754801
  0
LINE
  5
730
100
AcDbEntity
  8
0
100
AcDbLine
 62
7
  6
CONTINUOUS
 10
250.0563715721
 20
161.4557618046
 11
250.5563715721
 21
161.4557618046
  0
LINE
  5
731
100
AcDbEntity
  8
0
100
AcDbLine
 62
7
  6
CONTINUOUS
 10
250.0563715721
 20
161.5276752304
 11
250.5563715721
 21
161.5276752304
  0
LINE
  5
732
100
AcDbEntity
  8
0
100
AcDbLine
 62
7
  6
CONTINUOUS
 10
250.0563715721
 20
161.584843475
 11
250.5563715721
 21
161.584843475
  0
LINE
  5
733
100
AcDbEntity
  8
0
100
AcDbLine
 62
7
  6
CONTINUOUS
 10
250.0563715721
 20
161.7130186253
 11
250.5563715721
 21
161.7130186253
  0
LINE
  5
734
100
AcDbEntity
  8
0
100
AcDbLine
 62
7
  6
CONTINUOUS
 10
250.0563715721
 20
161.8338206596
 11
250.5563715721
 21
161.8338206596
  0
LINE
  5
735
100
AcDbEntity
  8
0
100
AcDbLine
 62
7
  6
CONTINUOUS
 10
250.0563715721
 20
161.8623158908
 11
250.5563715721
 21
161.8623158908
  0
LINE
  5
736
100
AcDbEntity
  8
0
100
AcDbLine
 62
7
  6
CONTINUOUS
 10
250.0563715721
 20
161.9872274496
 11
250.5563715721
 21
161.9872274496
  0
LINE
  5
737
100
AcDbEntity
  8
0
100
AcDbLine
 62
7
  6
CONTINUOUS
 10
250.0563715721
 20
163.0462881074
 11
250.5563715721
 21
163.0462881074
  0
LINE
  5
738
100
AcDbEntity
  8
0
100
AcDbLine
 62
7
  6
CONTINUOUS
 10
250.0563715721
 20
163.2643882064
 11
250.5563715721
 21
163.2643882064
  0
LINE
  5
739
100
AcDbEntity
  8
0
100
AcDbLine
 62
7
  6
CONTINUOUS
 10
250.0563715721
 20
163.3863727339
 11
250.5563715721
 21
163.3863727339
  0
LINE
  5
73A
100
AcDbEntity
  8
0
100
AcDbLine
 62
7
  6
CONTINUOUS
 10
250.0563715721
 20
164.465639738
 11
250.5563715721
 21
164.465639738
  0
LINE
  5
73B
100
AcDbEntity
  8
0
100
AcDbLine
 62
7
  6
CONTINUOUS
 10
250.0563715721
 20
164.6343123689
 11
250.5563715721
 21
164.6343123689
  0
LINE
  5
73C
100
AcDbEntity
  8
0
100
AcDbLine
 62
7
  6
CONTINUOUS
 10
250.0563715721
 20
164.7526733135
 11
250.5563715721
 21
164.7526733135
  0
LINE
  5
73D
100
AcDbEntity
  8
0
100
AcDbLine
 62
7
  6
CONTINUOUS
 10
250.0563715721
 20
164.8536544789
 11
250.5563715721
 21
164.8536544789
  0
LINE
  5
73E
100
AcDbEntity
  8
0
100
AcDbLine
 62
7
  6
CONTINUOUS
 10
250.0563715721
 20
164.8820712302
 11
250.5563715721
 21
164.8820712302
  0
LINE
  5
73F
100
AcDbEntity
  8
0
100
AcDbLine
 62
7
  6
CONTINUOUS
 10
250.0563715721
 20
164.9499415922
 11
250.5563715721
 21
164.9499415922
  0
LINE
  5
740
100
AcDbEntity
  8
0
100
AcDbLine
 62
7
  6
CONTINUOUS
 10
250.0563715721
 20
165.1077561474
 11
250.5563715721
 21
165.1077561474
  0
LINE
  5
741
100
AcDbEntity
  8
0
100
AcDbLine
 62
7
  6
CONTINUOUS
 10
250.0563715721
 20
165.2371540641
 11
250.5563715721
 21
165.2371540641
  0
LINE
  5
742
100
AcDbEntity
  8
0
100
AcDbLine
 62
7
  6
CONTINUOUS
 10
250.0563715721
 20
165.3775887299
 11
250.5563715721
 21
165.3775887299
  0
LINE
  5
743
100
AcDbEntity
  8
0
100
AcDbLine
 62
7
  6
CONTINUOUS
 10
250.0563715721
 20
165.5795509478
 11
250.5563715721
 21
165.5795509478
  0
LINE
  5
744
100
AcDbEntity
  8
0
100
AcDbLine
 62
7
  6
CONTINUOUS
 10
250.0563715721
 20
165.7420595095
 11
250.5563715721
 21
165.7420595095
  0
LINE
  5
745
100
AcDbEntity
  8
0
100
AcDbLine
 62
7
  6
CONTINUOUS
 10
250.0563715721
 20
165.7895205283
 11
250.5563715721
 21
165.7895205283
  0
LINE
  5
746
100
AcDbEntity
  8
0
100
AcDbLine
 62
7
  6
CONTINUOUS
 10
250.0563715721
 20
165.8045612496
 11
250.5563715721
 21
165.8045612496
  0
LINE
  5
747
100
AcDbEntity
  8
0
100
AcDbLine
 62
7
  6
CONTINUOUS
 10
250.0563715721
 20
165.8702123923
 11
250.5563715721
 21
165.8702123923
  0
LINE
  5
748
100
AcDbEntity
  8
0
100
AcDbLine
 62
7
  6
CONTINUOUS
 10
250.0563715721
 20
166.0252278259
 11
250.5563715721
 21
166.0252278259
  0
LINE
  5
749
100
AcDbEntity
  8
0
100
AcDbLine
 62
7
  6
CONTINUOUS
 10
250.7643299161
 20
160.1000567274
 11
250.0563715721
 21
160.1255568799
  0
LINE
  5
74A
100
AcDbEntity
  8
0
100
AcDbLine
 62
7
  6
CONTINUOUS
 10
230.6669216601
 20
175.8804047924
 11
234.4121618664
 21
174.296823454
  0
LINE
  5
74B
100
AcDbEntity
  8
RUNDUNGEN
100
AcDbLine
 62
7
  6
CONTINUOUS
 10
234.4120306924
 20
174.2969263959
 11
234.4121788482
 21
174.2968637073
  0
LWPOLYLINE
  5
74C
100
AcDbEntity
  8
0
100
AcDbPolyline
 62
7
  6
CONTINUOUS
 90
7
 70
0
 10
234.4120306924
 20
174.2969263959
 10
234.526107756
 20
174.2480759419
 10
235.0935539524
 20
173.9869116637
 10
235.6718830779
 20
173.6894224551
 10
236.2542267639
 20
173.3571625969
 10
236.8328798892
 20
172.9923492351
 10
237.033531978
 20
172.857137049
  0
LWPOLYLINE
  5
74D
100
AcDbEntity
  8
0
100
AcDbPolyline
 62
7
  6
CONTINUOUS
 90
24
 70
0
 10
233.7366955714
 20
178.6257650367
 10
233.986198116
 20
178.4978570778
 10
234.2293551682
 20
178.3705775365
 10
234.4663128545
 20
178.2439093381
 10
234.6974193383
 20
178.1177092008
 10
234.922953998
 20
177.9918378769
 10
235.1431908254
 20
177.8661395219
 10
235.3583962784
 20
177.740428633
 10
235.5686860058
 20
177.6145629297
 10
235.7744475143
 20
177.4882193606
 10
235.9747247845
 20
177.3618644486
 10
236.1690384792
 20
177.2356445643
 10
236.3562280237
 20
177.1102028366
 10
236.5351882958
 20
176.9861834766
 10
236.7049731514
 20
176.8640858256
 10
236.8646661478
 20
176.7445260796
 10
237.0126578603
 20
176.6287680875
 10
237.1471679732
 20
176.5182055085
 10
237.2682872144
 20
176.4129807211
 10
237.3747646502
 20
176.3145945902
 10
237.4672220027
 20
176.2225121984
 10
237.5468461264
 20
176.1355508121
 10
237.6068424631
 20
176.0624741041
 10
237.6391336584
 20
176.017530268
  0
LINE
  5
74E
100
AcDbEntity
  8
0
100
AcDbLine
 62
7
  6
CONTINUOUS
 10
230.5010495683
 20
180.107090692
 11
230.6650351807
 21
180.0184783974
  0
LINE
  5
74F
100
AcDbEntity
  8
0
100
AcDbLine
 62
7
  6
CONTINUOUS
 10
238.9767873817
 20
185.613817296
 11
239.0393846576
 21
185.5664507153
  0
LINE
  5
750
100
AcDbEntity
  8
RUNDUNGEN
100
AcDbLine
 62
7
  6
CONTINUOUS
 10
239.0393612069
 20
185.5664219158
 11
239.0356338674
 21
185.5693656332
  0
LINE
  5
751
100
AcDbEntity
  8
0
100
AcDbLine
 62
7
  6
CONTINUOUS
 10
239.0356338674
 20
185.5693656332
 11
239.258870158
 21
185.3648465183
  0
LINE
  5
752
100
AcDbEntity
  8
0
100
AcDbLine
 62
7
  6
CONTINUOUS
 10
250.0563715721
 20
166.1533459336
 11
250.5563715721
 21
166.1533459336
  0
LINE
  5
753
100
AcDbEntity
  8
0
100
AcDbLine
 62
7
  6
CONTINUOUS
 10
250.0563715721
 20
166.3439310132
 11
250.5563715721
 21
166.3439310132
  0
LINE
  5
754
100
AcDbEntity
  8
0
100
AcDbLine
 62
7
  6
CONTINUOUS
 10
250.0563715721
 20
166.5582292273
 11
250.5563715721
 21
166.5582292273
  0
LINE
  5
755
100
AcDbEntity
  8
0
100
AcDbLine
 62
7
  6
CONTINUOUS
 10
250.0563715721
 20
166.7025400738
 11
250.5563715721
 21
166.7025400738
  0
LINE
  5
756
100
AcDbEntity
  8
0
100
AcDbLine
 62
7
  6
CONTINUOUS
 10
250.0563715721
 20
166.7511183129
 11
250.5563715721
 21
166.7511183129
  0
LINE
  5
757
100
AcDbEntity
  8
0
100
AcDbLine
 62
7
  6
CONTINUOUS
 10
250.0563715721
 20
166.8910929754
 11
250.5563715721
 21
166.8910929754
  0
LINE
  5
758
100
AcDbEntity
  8
0
100
AcDbLine
 62
7
  6
CONTINUOUS
 10
250.1000689132
 20
167.0935346043
 11
250.5563715721
 21
167.0935346043
  0
LINE
  5
759
100
AcDbEntity
  8
0
100
AcDbLine
 62
7
  6
CONTINUOUS
 10
250.1089444641
 20
167.2378454526
 11
250.5563715721
 21
167.2378454526
  0
LINE
  5
75A
100
AcDbEntity
  8
0
100
AcDbLine
 62
7
  6
CONTINUOUS
 10
250.123310807
 20
167.3627794592
 11
250.5563715721
 21
167.3627794592
  0
LINE
  5
75B
100
AcDbEntity
  8
0
100
AcDbLine
 62
7
  6
CONTINUOUS
 10
250.136463661
 20
167.4683364491
 11
250.5563715721
 21
167.4683364491
  0
LINE
  5
75C
100
AcDbEntity
  8
0
100
AcDbLine
 62
7
  6
CONTINUOUS
 10
250.1423731701
 20
167.5157626583
 11
250.5563715721
 21
167.5157626583
  0
LWPOLYLINE
  5
75D
100
AcDbEntity
  8
0
100
AcDbPolyline
 62
7
  6
CONTINUOUS
 90
3
 70
0
 10
230.6670293482
 20
180.0176329241
 10
231.4915350078
 20
179.669076033
 10
231.7977565061
 20
179.5374728778
  0
LINE
  5
75E
100
AcDbEntity
  8
RUNDUNGEN
100
AcDbLine
 62
7
  6
CONTINUOUS
 10
230.6650351807
 20
180.0184783974
 11
230.6650715102
 21
180.0184629578
  0
LWPOLYLINE
  5
75F
100
AcDbEntity
  8
0
100
AcDbPolyline
 62
7
  6
CONTINUOUS
 90
8
 70
0
 10
231.7977565061
 20
179.5374728778
 10
232.0964060413
 20
179.4059535005
 10
232.3876038533
 20
179.2746837697
 10
232.6714778804
 20
179.1437986667
 10
232.9481674743
 20
179.0134013673
 10
233.2178267961
 20
178.8835661968
 10
233.4806158377
 20
178.7543443611
 10
233.7366955714
 20
178.6257650367
  0
LWPOLYLINE
  5
760
100
AcDbEntity
  8
RUNDUNGEN
100
AcDbPolyline
 62
7
  6
CONTINUOUS
 90
6
 70
0
 10
259.6120325792
 20
26.667652231
 10
259.7635248188
 20
26.7920008688
 10
259.8878270443
 20
26.9434697877
 10
259.9802277568
 20
27.1163213873
 10
260.0371509308
 20
27.3039414449
 10
260.0563715721
 20
27.4990611814
  0
LWPOLYLINE
  5
761
100
AcDbEntity
  8
RUNDUNGEN
100
AcDbPolyline
 62
7
  6
CONTINUOUS
 90
6
 70
0
 10
245.8620057343
 20
13.5790772809
 10
246.0135112712
 20
13.7034303108
 10
246.1378315351
 20
13.8549194994
 10
246.2302348881
 20
14.0277815926
 10
246.2871527424
 20
14.2153934357
 10
246.3063715721
 20
14.4105041726
  0
LINE
  5
762
100
AcDbEntity
  8
RUNDUNGEN
100
AcDbLine
 62
7
  6
CONTINUOUS
 10
231.0563715721
 20
178.7265904124
 11
233.5358908504
 21
178.7265904124
  0
LINE
  5
763
100
AcDbEntity
  8
RUNDUNGEN
100
AcDbLine
 62
7
  6
CONTINUOUS
 10
256.5768139193
 20
178.7265904124
 11
259.0563715721
 21
178.7265904124
  0
LINE
  5
764
100
AcDbEntity
  8
0
100
AcDbLine
 62
7
  6
CONTINUOUS
 10
238.1853811302
 20
186.2068326218
 11
238.9331138656
 21
185.8421389992
  0
LINE
  5
765
100
AcDbEntity
  8
0
100
AcDbLine
 62
7
  6
CONTINUOUS
 10
230.6175355045
 20
189.807886378
 11
235.1101228227
 21
187.6117595685
  0
LWPOLYLINE
  5
766
100
AcDbEntity
  8
0
100
AcDbPolyline
 62
7
  6
CONTINUOUS
 90
3
 70
0
 10
235.1101228227
 20
187.6117595685
 10
236.6128903859
 20
186.8613245745
 10
237.3374638605
 20
186.492675135
  0
LINE
  5
767
100
AcDbEntity
  8
RUNDUNGEN
100
AcDbLine
 62
7
  6
CONTINUOUS
 10
237.5697831616
 20
186.3730566829
 11
237.5692379907
 21
186.3733378741
  0
LINE
  5
768
100
AcDbEntity
  8
0
100
AcDbLine
 62
7
  6
CONTINUOUS
 10
237.3374638605
 20
186.492675135
 11
237.8058961879
 21
186.2509917821
  0
LINE
  5
769
100
AcDbEntity
  8
0
100
AcDbLine
 62
7
  6
CONTINUOUS
 10
237.8058961879
 20
186.2509917821
 11
238.5030598632
 21
185.8858619509
  0
LINE
  5
76A
100
AcDbEntity
  8
0
100
AcDbLine
 62
7
  6
CONTINUOUS
 10
238.5030598632
 20
185.8858619509
 11
238.7674610079
 21
185.7452077331
  0
LINE
  5
76B
100
AcDbEntity
  8
RUNDUNGEN
100
AcDbLine
 62
7
  6
CONTINUOUS
 10
238.7676341599
 20
185.7451108042
 11
238.7674591927
 21
185.7452043656
  0
LWPOLYLINE
  5
76C
100
AcDbEntity
  8
0
100
AcDbPolyline
 62
7
  6
CONTINUOUS
 90
4
 70
0
 10
238.7676341599
 20
185.7451108042
 10
238.7899350818
 20
185.7329778228
 10
238.8835778962
 20
185.6772788658
 10
238.9767873817
 20
185.613817296
  0
LWPOLYLINE
  5
76D
100
AcDbEntity
  8
RUNDUNGEN
100
AcDbPolyline
 62
7
  6
CONTINUOUS
 90
3
 70
0
 10
259.2516315186
 20
26.5183096662
 10
259.4391984013
 20
26.5752410589
 10
259.6120325792
 20
26.667652231
  0
LWPOLYLINE
  5
76E
100
AcDbEntity
  8
RUNDUNGEN
100
AcDbPolyline
 62
7
  6
CONTINUOUS
 90
9
 70
0
 10
231.0563715721
 20
178.7265904124
 10
230.8598314204
 20
178.7139705368
 10
230.671341196
 20
178.6774674801
 10
230.4981462456
 20
178.618013624
 10
230.3468489951
 20
178.5384245824
 10
230.2231346274
 20
178.4416873055
 10
230.1315272105
 20
178.3317684584
 10
230.0753007783
 20
178.2132955336
 10
230.0563715721
 20
178.0894254635
  0
LINE
  5
76F
100
AcDbEntity
  8
0
100
AcDbLine
 62
7
  6
CONTINUOUS
 10
250.0563715721
 20
182.2032528376
 11
250.5563715721
 21
182.2032528376
  0
LINE
  5
770
100
AcDbEntity
  8
0
100
AcDbLine
 62
7
  6
CONTINUOUS
 10
250.0563715721
 20
182.2615893296
 11
250.5563715721
 21
182.2615893296
  0
LINE
  5
771
100
AcDbEntity
  8
0
100
AcDbLine
 62
7
  6
CONTINUOUS
 10
250.0563715721
 20
182.3967939291
 11
250.5563715721
 21
182.3967939291
  0
LINE
  5
772
100
AcDbEntity
  8
0
100
AcDbLine
 62
7
  6
CONTINUOUS
 10
250.0563715721
 20
182.4446126164
 11
250.5563715721
 21
182.4446126164
  0
LINE
  5
773
100
AcDbEntity
  8
0
100
AcDbLine
 62
7
  6
CONTINUOUS
 10
250.0563715721
 20
182.6433618248
 11
250.5563715721
 21
182.6433618248
  0
LINE
  5
774
100
AcDbEntity
  8
0
100
AcDbLine
 62
7
  6
CONTINUOUS
 10
250.0563715721
 20
182.6614808434
 11
250.5563715721
 21
182.6614808434
  0
LINE
  5
775
100
AcDbEntity
  8
0
100
AcDbLine
 62
7
  6
CONTINUOUS
 10
250.0563715721
 20
182.7079221687
 11
250.5563715721
 21
182.7079221687
  0
LINE
  5
776
100
AcDbEntity
  8
0
100
AcDbLine
 62
7
  6
CONTINUOUS
 10
250.0563715721
 20
182.7942521371
 11
250.5563715721
 21
182.7942521371
  0
LINE
  5
777
100
AcDbEntity
  8
0
100
AcDbLine
 62
7
  6
CONTINUOUS
 10
250.0563715721
 20
182.9603589666
 11
250.5563715721
 21
182.9603589666
  0
LINE
  5
778
100
AcDbEntity
  8
0
100
AcDbLine
 62
7
  6
CONTINUOUS
 10
250.0563715721
 20
183.0620716714
 11
250.5563715721
 21
183.0620716714
  0
LINE
  5
779
100
AcDbEntity
  8
0
100
AcDbLine
 62
7
  6
CONTINUOUS
 10
250.0563715721
 20
183.1329214624
 11
250.5563715721
 21
183.1329214624
  0
LINE
  5
77A
100
AcDbEntity
  8
0
100
AcDbLine
 62
7
  6
CONTINUOUS
 10
250.0563715721
 20
183.2173000002
 11
250.5563715721
 21
183.2173000002
  0
LINE
  5
77B
100
AcDbEntity
  8
0
100
AcDbLine
 62
7
  6
CONTINUOUS
 10
250.0563715721
 20
183.3818728171
 11
250.5563715721
 21
183.3818728171
  0
LINE
  5
77C
100
AcDbEntity
  8
0
100
AcDbLine
 62
7
  6
CONTINUOUS
 10
250.1082077797
 20
183.6089277434
 11
250.5563715721
 21
183.6089277434
  0
LINE
  5
77D
100
AcDbEntity
  8
0
100
AcDbLine
 62
7
  6
CONTINUOUS
 10
250.1277728227
 20
183.7273638959
 11
250.5563715721
 21
183.7273638959
  0
LINE
  5
77E
100
AcDbEntity
  8
0
100
AcDbLine
 62
7
  6
CONTINUOUS
 10
250.1750595143
 20
184.013611864
 11
250.5563715721
 21
184.013611864
  0
LINE
  5
77F
100
AcDbEntity
  8
0
100
AcDbLine
 62
7
  6
CONTINUOUS
 10
250.1919376759
 20
184.0740743105
 11
250.5563715721
 21
184.0740743105
  0
LINE
  5
780
100
AcDbEntity
  8
0
100
AcDbLine
 62
7
  6
CONTINUOUS
 10
250.2067547505
 20
184.1198918115
 11
250.5563715721
 21
184.1198918115
  0
LINE
  5
781
100
AcDbEntity
  8
0
100
AcDbLine
 62
7
  6
CONTINUOUS
 10
250.3354504952
 20
184.517846035
 11
250.5563715721
 21
184.517846035
  0
LINE
  5
782
100
AcDbEntity
  8
0
100
AcDbLine
 62
7
  6
CONTINUOUS
 10
250.3691450633
 20
184.6012935132
 11
250.5563715721
 21
184.6012935132
  0
LINE
  5
783
100
AcDbEntity
  8
0
100
AcDbLine
 62
7
  6
CONTINUOUS
 10
250.4509987168
 20
184.7593054782
 11
250.5563715721
 21
184.7593054782
  0
LINE
  5
784
100
AcDbEntity
  8
0
100
AcDbLine
 62
7
  6
CONTINUOUS
 10
250.4724658585
 20
184.8007460871
 11
250.5563715721
 21
184.8007460871
  0
LINE
  5
785
100
AcDbEntity
  8
0
100
AcDbLine
 62
7
  6
CONTINUOUS
 10
250.4931827449
 20
184.840738388
 11
250.5563715721
 21
184.840738388
  0
LWPOLYLINE
  5
786
100
AcDbEntity
  8
RUNDUNGEN
100
AcDbPolyline
 62
7
  6
CONTINUOUS
 90
9
 70
0
 10
259.0563715721
 20
178.7265904124
 10
259.2529117237
 20
178.7143117151
 10
259.4414019481
 20
178.6774674801
 10
259.6145968985
 20
178.6181214677
 10
259.765894149
 20
178.5384245824
 10
259.8896085168
 20
178.4417527256
 10
259.9812159336
 20
178.3317684584
 10
260.0374423659
 20
178.2124385521
 10
260.0563715721
 20
178.0894254635
  0
LWPOLYLINE
  5
787
100
AcDbEntity
  8
RUNDUNGEN
100
AcDbPolyline
 62
7
  6
CONTINUOUS
 90
4
 70
0
 10
259.6117374888
 20
19.7982751254
 10
259.4386507276
 20
19.7058343226
 10
259.2514995693
 20
19.6491034854
 10
259.0563715721
 20
19.6298812084
  0
LWPOLYLINE
  5
788
100
AcDbEntity
  8
RUNDUNGEN
100
AcDbPolyline
 62
7
  6
CONTINUOUS
 90
9
 70
0
 10
231.0563715721
 20
191.3556266676
 10
230.8598314204
 20
191.3523152588
 10
230.671341196
 20
191.343415845
 10
230.4981462456
 20
191.3285818678
 10
230.3468489951
 20
191.3088530029
 10
230.2231346274
 20
191.2847729169
 10
230.1315272105
 20
191.2574830797
 10
230.0753007783
 20
191.2284715196
 10
230.0563715721
 20
191.1972422273
  0
LINE
  5
789
100
AcDbEntity
  8
0
100
AcDbLine
 62
7
  6
CONTINUOUS
 10
238.6237522793
 20
188.1056266676
 11
251.4892041527
 21
188.1056266676
  0
LINE
  5
78A
100
AcDbEntity
  8
RUNDUNGEN
100
AcDbLine
 62
7
  6
CONTINUOUS
 10
231.0563715721
 20
191.3556266676
 11
259.0563715721
 21
191.3556266676
  0
LWPOLYLINE
  5
78B
100
AcDbEntity
  8
RUNDUNGEN
100
AcDbPolyline
 62
7
  6
CONTINUOUS
 90
9
 70
0
 10
259.0563715721
 20
191.3556266676
 10
259.2529117237
 20
191.3527488682
 10
259.4414019481
 20
191.343415845
 10
259.6145968985
 20
191.3287189281
 10
259.765894149
 20
191.3088530029
 10
259.8896085168
 20
191.2848560604
 10
259.9812159336
 20
191.2574830797
 10
260.0374423659
 20
191.2273823668
 10
260.0563715721
 20
191.1972422273
  0
LWPOLYLINE
  5
78C
100
AcDbEntity
  8
RUNDUNGEN
100
AcDbPolyline
 62
7
  6
CONTINUOUS
 90
3
 70
0
 10
245.5015806445
 20
13.4297425271
 10
245.6891555551
 20
13.4866662959
 10
245.8620057343
 20
13.5790772809
  0
LINE
  5
78D
100
AcDbEntity
  8
RUNDUNGEN
100
AcDbLine
 62
7
  6
CONTINUOUS
 10
231.0563715721
 20
199.8556266676
 11
259.0563715721
 21
199.8556266676
  0
ARC
  5
78E
100
AcDbEntity
  8
RUNDUNGEN
100
AcDbCircle
 62
7
  6
CONTINUOUS
 10
35.8953070052
 20
46.16425529
 40
3.9999744098
100
AcDbArc
 50
72.4035091458
 51
86.437572001
  0
ARC
  5
78F
100
AcDbEntity
  8
RUNDUNGEN
100
AcDbCircle
 62
7
  6
CONTINUOUS
 10
34.6583504831
 20
53.8351177888
 40
1.0
100
AcDbArc
 50
138.0
 51
210.0
  0
ARC
  5
790
100
AcDbEntity
  8
RUNDUNGEN
100
AcDbCircle
 62
7
  6
CONTINUOUS
 10
36.20597078
 20
51.1545608037
 40
1.0
100
AcDbArc
 50
209.9999368824
 51
266.4384521942
  0
ARC
  5
791
100
AcDbEntity
  8
RUNDUNGEN
100
AcDbCircle
 62
7
  6
CONTINUOUS
 10
35.7891705101
 20
51.8764800478
 40
1.0
100
AcDbArc
 50
209.9963849075
 51
300.0
  0
ARC
  5
792
100
AcDbEntity
  8
RUNDUNGEN
100
AcDbCircle
 62
7
  6
CONTINUOUS
 10
40.9621466779
 20
46.6549744331
 40
2.000000079
100
AcDbArc
 50
6.2122200649
 51
72.3983983357
  0
ARC
  5
793
100
AcDbEntity
  8
RUNDUNGEN
100
AcDbCircle
 62
7
  6
CONTINUOUS
 10
44.4211093704
 20
41.5044607559
 40
1.0
100
AcDbArc
 50
184.9673353002
 51
225.0
  0
ARC
  5
794
100
AcDbEntity
  8
RUNDUNGEN
100
AcDbCircle
 62
7
  6
CONTINUOUS
 10
53.3235502159
 20
28.7360274452
 40
3.9999703967
100
AcDbArc
 50
3.5623030114
 51
17.5973106966
  0
ARC
  5
795
100
AcDbEntity
  8
RUNDUNGEN
100
AcDbCircle
 62
7
  6
CONTINUOUS
 10
53.814263741
 20
33.8028573757
 40
2.0000000773
100
AcDbArc
 50
17.6016016643
 51
83.8095711245
  0
ARC
  5
796
100
AcDbEntity
  8
RUNDUNGEN
100
AcDbCircle
 62
7
  6
CONTINUOUS
 10
48.6637500575
 20
37.2618200688
 40
1.0
100
AcDbArc
 50
225.0
 51
265.0326646998
  0
ARC
  5
797
100
AcDbEntity
  8
RUNDUNGEN
100
AcDbCircle
 62
7
  6
CONTINUOUS
 10
60.9944070905
 20
27.4990611814
 40
1.0
100
AcDbArc
 50
240.0
 51
312.0
  0
ARC
  5
798
100
AcDbEntity
  8
RUNDUNGEN
100
AcDbCircle
 62
7
  6
CONTINUOUS
 10
58.3138514742
 20
29.0466806881
 40
1.0
100
AcDbArc
 50
183.5614773117
 51
239.9996534481
  0
ARC
  5
799
100
AcDbEntity
  8
RUNDUNGEN
100
AcDbCircle
 62
7
  6
CONTINUOUS
 10
59.0357693495
 20
28.6298812084
 40
1.0
100
AcDbArc
 50
150.0
 51
240.0
  0
ARC
  5
79A
100
AcDbEntity
  8
RUNDUNGEN
100
AcDbCircle
 62
7
  6
CONTINUOUS
 10
22.8953167468
 20
68.6809214127
 40
3.9999703967
100
AcDbArc
 50
333.5623030114
 51
347.5973106966
  0
ARC
  5
79B
100
AcDbEntity
  8
RUNDUNGEN
100
AcDbCircle
 62
7
  6
CONTINUOUS
 10
23.1227077449
 20
78.3943744913
 40
1.0
100
AcDbArc
 50
195.0
 51
235.0326646998
  0
ARC
  5
79C
100
AcDbEntity
  8
RUNDUNGEN
100
AcDbCircle
 62
7
  6
CONTINUOUS
 10
21.5697934743
 20
84.1899294491
 40
1.0
100
AcDbArc
 50
154.9673353002
 51
195.0
  0
ARC
  5
79D
100
AcDbEntity
  8
RUNDUNGEN
100
AcDbCircle
 62
7
  6
CONTINUOUS
 10
25.8537020907
 20
72.8235680867
 40
2.0000000773
100
AcDbArc
 50
347.6016016643
 51
53.8095711261
  0
ARC
  5
79E
100
AcDbEntity
  8
RUNDUNGEN
100
AcDbCircle
 62
7
  6
CONTINUOUS
 10
28.9199905371
 20
63.7742487674
 40
1.0
100
AcDbArc
 50
210.0
 51
282.0
  0
ARC
  5
79F
100
AcDbEntity
  8
RUNDUNGEN
100
AcDbCircle
 62
7
  6
CONTINUOUS
 10
27.3723710304
 20
66.4548043837
 40
1.0
100
AcDbArc
 50
153.5614773117
 51
209.9996534481
  0
ARC
  5
7A0
100
AcDbEntity
  8
RUNDUNGEN
100
AcDbCircle
 62
7
  6
CONTINUOUS
 10
27.7891705101
 20
65.7328865084
 40
1.0
100
AcDbArc
 50
120.0
 51
210.0
  0
ARC
  5
7A1
100
AcDbEntity
  8
RUNDUNGEN
100
AcDbCircle
 62
7
  6
CONTINUOUS
 10
16.5161293053
 20
92.4883310746
 40
3.9999744098
100
AcDbArc
 50
42.4035091458
 51
56.437572001
  0
ARC
  5
7A2
100
AcDbEntity
  8
RUNDUNGEN
100
AcDbCircle
 62
7
  6
CONTINUOUS
 10
21.1495007504
 20
90.3798864823
 40
2.000000079
100
AcDbArc
 50
336.2122199961
 51
42.3983983357
  0
ARC
  5
7A3
100
AcDbEntity
  8
RUNDUNGEN
100
AcDbCircle
 62
7
  6
CONTINUOUS
 10
19.2803247833
 20
96.6547305347
 40
1.0
100
AcDbArc
 50
179.9999368824
 51
236.4384521942
  0
ARC
  5
7A4
100
AcDbEntity
  8
RUNDUNGEN
100
AcDbCircle
 62
7
  6
CONTINUOUS
 10
19.2803247833
 20
97.4883310746
 40
1.0
100
AcDbArc
 50
179.9963849075
 51
270.0014880476
  0
ARC
  5
7A5
100
AcDbEntity
  8
RUNDUNGEN
100
AcDbCircle
 62
7
  6
CONTINUOUS
 10
19.2803247833
 20
99.7499711286
 40
1.0
100
AcDbArc
 50
108.0
 51
180.0
  0
ARC
  5
7A6
100
AcDbEntity
  8
RUNDUNGEN
100
AcDbCircle
 62
7
  6
CONTINUOUS
 10
27.7803247833
 20
105.4883310746
 40
2.25
100
AcDbArc
 50
270.0002776311
 51
89.9992874217
  0
ARC
  5
7A7
100
AcDbEntity
  8
RUNDUNGEN
100
AcDbCircle
 62
7
  6
CONTINUOUS
 10
39.1503864422
 20
63.0546832781
 40
2.25
100
AcDbArc
 50
299.9998923523
 51
120.0004545191
  0
ARC
  5
7A8
100
AcDbEntity
  8
RUNDUNGEN
100
AcDbCircle
 62
7
  6
CONTINUOUS
 10
56.2406953152
 20
90.4883310746
 40
5.0
100
AcDbArc
 50
90.0
 51
194.8917257366
  0
ARC
  5
7A9
100
AcDbEntity
  8
RUNDUNGEN
100
AcDbCircle
 62
7
  6
CONTINUOUS
 10
75.8402458521
 20
15.7360883054
 40
3.9999464954
100
AcDbArc
 50
102.4043461563
 51
116.4383014066
  0
ARC
  5
7AA
100
AcDbEntity
  8
RUNDUNGEN
100
AcDbCircle
 62
7
  6
CONTINUOUS
 10
70.9335380691
 20
21.7607012354
 40
1.0
100
AcDbArc
 50
168.0
 51
240.0
  0
ARC
  5
7AB
100
AcDbEntity
  8
RUNDUNGEN
100
AcDbCircle
 62
7
  6
CONTINUOUS
 10
72.89217581
 20
20.6298812084
 40
1.0
100
AcDbArc
 50
240.0
 51
330.0
  0
ARC
  5
7AC
100
AcDbEntity
  8
RUNDUNGEN
100
AcDbCircle
 62
7
  6
CONTINUOUS
 10
73.6141048838
 20
20.2130752634
 40
1.0
100
AcDbArc
 50
239.9993356691
 51
296.4373705498
  0
ARC
  5
7AD
100
AcDbEntity
  8
RUNDUNGEN
100
AcDbCircle
 62
7
  6
CONTINUOUS
 10
79.9828573919
 20
18.694412784
 40
2.000000079
100
AcDbArc
 50
36.2122294398
 51
102.3983983357
  0
ARC
  5
7AE
100
AcDbEntity
  8
RUNDUNGEN
100
AcDbCircle
 62
7
  6
CONTINUOUS
 10
85.553663793
 20
15.9634184432
 40
1.0
100
AcDbArc
 50
214.9673353002
 51
255.0
  0
ARC
  5
7AF
100
AcDbEntity
  8
RUNDUNGEN
100
AcDbCircle
 62
7
  6
CONTINUOUS
 10
70.2139725798
 20
31.9910971406
 40
2.25
100
AcDbArc
 50
329.9997566879
 51
150.0002843923
  0
ARC
  5
7B0
100
AcDbEntity
  8
RUNDUNGEN
100
AcDbCircle
 62
7
  6
CONTINUOUS
 10
97.5391757896
 20
13.9902114514
 40
2.0000000773
100
AcDbArc
 50
47.6016016643
 51
113.8095711092
  0
ARC
  5
7B1
100
AcDbEntity
  8
RUNDUNGEN
100
AcDbCircle
 62
7
  6
CONTINUOUS
 10
91.3492187507
 20
14.4105041726
 40
1.0
100
AcDbArc
 50
255.0
 51
295.0326646998
  0
ARC
  5
7B2
100
AcDbEntity
  8
RUNDUNGEN
100
AcDbCircle
 62
7
  6
CONTINUOUS
 10
99.6476203763
 20
9.3568511525
 40
3.9999703821
100
AcDbArc
 50
33.562304122
 51
47.5974874937
  0
ARC
  5
7B3
100
AcDbEntity
  8
RUNDUNGEN
100
AcDbCircle
 62
7
  6
CONTINUOUS
 10
106.9092604303
 20
12.1210354816
 40
1.0
100
AcDbArc
 50
270.0
 51
342.0
  0
ARC
  5
7B4
100
AcDbEntity
  8
RUNDUNGEN
100
AcDbCircle
 62
7
  6
CONTINUOUS
 10
103.8140213823
 20
12.1210354816
 40
1.0
100
AcDbArc
 50
213.5614784202
 51
269.9996544393
  0
ARC
  5
7B5
100
AcDbEntity
  8
RUNDUNGEN
100
AcDbCircle
 62
7
  6
CONTINUOUS
 10
104.6476203763
 20
12.1210354816
 40
1.0
100
AcDbArc
 50
180.0
 51
270.0
  0
ARC
  5
7B6
100
AcDbEntity
  8
RUNDUNGEN
100
AcDbCircle
 62
7
  6
CONTINUOUS
 10
97.6476203763
 20
49.0814060136
 40
5.0
100
AcDbArc
 50
255.1082742634
 51
360.0
  0
ARC
  5
7B7
100
AcDbEntity
  8
RUNDUNGEN
100
AcDbCircle
 62
7
  6
CONTINUOUS
 10
94.6476203763
 20
67.016081721
 40
7.9999990424
100
AcDbArc
 50
0.0864239075
 51
44.9999998768
  0
ARC
  5
7B8
100
AcDbEntity
  8
0
100
AcDbCircle
 62
7
  6
CONTINUOUS
 10
86.1311160818
 20
105.4883310746
 40
1.0
100
AcDbArc
 50
75.0
 51
285.0
  0
ARC
  5
7B9
100
AcDbEntity
  8
RUNDUNGEN
100
AcDbCircle
 62
7
  6
CONTINUOUS
 10
16.516140554
 20
118.4883310746
 40
3.9999703967
100
AcDbArc
 50
303.5623043265
 51
317.5973106966
  0
ARC
  5
7BA
100
AcDbEntity
  8
RUNDUNGEN
100
AcDbCircle
 62
7
  6
CONTINUOUS
 10
19.2803247833
 20
111.2266910206
 40
1.0
100
AcDbArc
 50
180.0
 51
252.0
  0
ARC
  5
7BB
100
AcDbEntity
  8
RUNDUNGEN
100
AcDbCircle
 62
7
  6
CONTINUOUS
 10
19.2803247833
 20
114.3219300314
 40
1.0
100
AcDbArc
 50
123.5614678999
 51
179.9996857608
  0
ARC
  5
7BC
100
AcDbEntity
  8
RUNDUNGEN
100
AcDbCircle
 62
7
  6
CONTINUOUS
 10
19.2803247833
 20
113.4883310746
 40
1.0
100
AcDbArc
 50
90.0
 51
180.0
  0
ARC
  5
7BD
100
AcDbEntity
  8
RUNDUNGEN
100
AcDbCircle
 62
7
  6
CONTINUOUS
 10
21.1495007531
 20
120.5967756613
 40
2.0000000773
100
AcDbArc
 50
317.6016016643
 51
23.8095616507
  0
ARC
  5
7BE
100
AcDbEntity
  8
RUNDUNGEN
100
AcDbCircle
 62
7
  6
CONTINUOUS
 10
21.5697934743
 20
126.7867327002
 40
1.0
100
AcDbArc
 50
165.0
 51
205.0326646998
  0
ARC
  5
7BF
100
AcDbEntity
  8
RUNDUNGEN
100
AcDbCircle
 62
7
  6
CONTINUOUS
 10
25.8537020856
 20
138.1530940589
 40
2.000000079
100
AcDbArc
 50
306.2122200062
 51
12.3983983357
  0
ARC
  5
7C0
100
AcDbEntity
  8
RUNDUNGEN
100
AcDbCircle
 62
7
  6
CONTINUOUS
 10
23.1227077449
 20
132.5822876579
 40
1.0
100
AcDbArc
 50
124.9673353002
 51
165.0
  0
ARC
  5
7C1
100
AcDbEntity
  8
RUNDUNGEN
100
AcDbCircle
 62
7
  6
CONTINUOUS
 10
22.8953066949
 20
142.29574654
 40
3.9999745381
100
AcDbArc
 50
12.4035256996
 51
26.4375690677
  0
ARC
  5
7C2
100
AcDbEntity
  8
RUNDUNGEN
100
AcDbCircle
 62
7
  6
CONTINUOUS
 10
28.9199905371
 20
147.2024133818
 40
1.0
100
AcDbArc
 50
78.0
 51
150.0
  0
ARC
  5
7C3
100
AcDbEntity
  8
RUNDUNGEN
100
AcDbCircle
 62
7
  6
CONTINUOUS
 10
27.372370215
 20
144.5218563531
 40
1.0
100
AcDbArc
 50
149.999936616
 51
206.4384452415
  0
ARC
  5
7C4
100
AcDbEntity
  8
RUNDUNGEN
100
AcDbCircle
 62
7
  6
CONTINUOUS
 10
27.7891705101
 20
145.2437756408
 40
1.0
100
AcDbArc
 50
149.9963840347
 51
240.001492191
  0
ARC
  5
7C5
100
AcDbEntity
  8
RUNDUNGEN
100
AcDbCircle
 62
7
  6
CONTINUOUS
 10
56.2406953152
 20
120.4883310746
 40
5.0
100
AcDbArc
 50
165.1082742634
 51
270.0
  0
ARC
  5
7C6
100
AcDbEntity
  8
RUNDUNGEN
100
AcDbCircle
 62
7
  6
CONTINUOUS
 10
39.1503864422
 20
147.9219788711
 40
2.25
100
AcDbArc
 50
239.9998934115
 51
60.0004549384
  0
ARC
  5
7C7
100
AcDbEntity
  8
RUNDUNGEN
100
AcDbCircle
 62
7
  6
CONTINUOUS
 10
34.6583504831
 20
157.1415443604
 40
1.0
100
AcDbArc
 50
150.0
 51
222.0
  0
ARC
  5
7C8
100
AcDbEntity
  8
RUNDUNGEN
100
AcDbCircle
 62
7
  6
CONTINUOUS
 10
36.205970007
 20
159.8221000066
 40
1.0
100
AcDbArc
 50
93.5614825264
 51
149.999653601
  0
ARC
  5
7C9
100
AcDbEntity
  8
RUNDUNGEN
100
AcDbCircle
 62
7
  6
CONTINUOUS
 10
35.7891705101
 20
159.1001821014
 40
1.0
100
AcDbArc
 50
60.0
 51
150.0
  0
ARC
  5
7CA
100
AcDbEntity
  8
RUNDUNGEN
100
AcDbCircle
 62
7
  6
CONTINUOUS
 10
35.8953165191
 20
164.8124013664
 40
3.9999704951
100
AcDbArc
 50
273.5623051629
 51
287.5972910008
  0
ARC
  5
7CB
100
AcDbEntity
  8
RUNDUNGEN
100
AcDbCircle
 62
7
  6
CONTINUOUS
 10
40.9621466774
 20
164.3216877099
 40
2.0000000773
100
AcDbArc
 50
287.6016016643
 51
353.8095711324
  0
ARC
  5
7CC
100
AcDbEntity
  8
RUNDUNGEN
100
AcDbCircle
 62
7
  6
CONTINUOUS
 10
44.4211093704
 20
169.4722013934
 40
1.0
100
AcDbArc
 50
135.0
 51
175.0326646998
  0
ARC
  5
7CD
100
AcDbEntity
  8
RUNDUNGEN
100
AcDbCircle
 62
7
  6
CONTINUOUS
 10
53.8142637347
 20
177.173804773
 40
2.000000079
100
AcDbArc
 50
276.2122200729
 51
342.3983983357
  0
ARC
  5
7CE
100
AcDbEntity
  8
RUNDUNGEN
100
AcDbCircle
 62
7
  6
CONTINUOUS
 10
48.6637500575
 20
173.7148420805
 40
1.0
100
AcDbArc
 50
94.9673353002
 51
135.0
  0
ARC
  5
7CF
100
AcDbEntity
  8
RUNDUNGEN
100
AcDbCircle
 62
7
  6
CONTINUOUS
 10
53.3235444125
 20
182.240644756
 40
3.9999745381
100
AcDbArc
 50
342.4035256995
 51
356.4375690677
  0
ARC
  5
7D0
100
AcDbEntity
  8
RUNDUNGEN
100
AcDbCircle
 62
7
  6
CONTINUOUS
 10
60.9944070905
 20
183.4776009678
 40
1.0
100
AcDbArc
 50
48.0
 51
120.0
  0
ARC
  5
7D1
100
AcDbEntity
  8
RUNDUNGEN
100
AcDbCircle
 62
7
  6
CONTINUOUS
 10
58.3138500617
 20
181.9299806457
 40
1.0
100
AcDbArc
 50
119.999936616
 51
176.4384452415
  0
ARC
  5
7D2
100
AcDbEntity
  8
RUNDUNGEN
100
AcDbCircle
 62
7
  6
CONTINUOUS
 10
59.0357693495
 20
182.3467809408
 40
1.0
100
AcDbArc
 50
119.9963840347
 51
210.001492191
  0
ARC
  5
7D3
100
AcDbEntity
  8
RUNDUNGEN
100
AcDbCircle
 62
7
  6
CONTINUOUS
 10
74.1753710227
 20
123.4883310746
 40
7.9999990424
100
AcDbArc
 50
270.0864239075
 51
314.9999998768
  0
ARC
  5
7D4
100
AcDbEntity
  8
RUNDUNGEN
100
AcDbCircle
 62
7
  6
CONTINUOUS
 10
70.2139725798
 20
178.9855650086
 40
2.25
100
AcDbArc
 50
210.0005462618
 51
30.000583614
  0
ARC
  5
7D5
100
AcDbEntity
  8
RUNDUNGEN
100
AcDbCircle
 62
7
  6
CONTINUOUS
 10
75.8401717956
 20
195.2407021132
 40
3.9999959642
100
AcDbArc
 50
243.5629936652
 51
257.6011345045
  0
ARC
  5
7D6
100
AcDbEntity
  8
RUNDUNGEN
100
AcDbCircle
 62
7
  6
CONTINUOUS
 10
79.9828573876
 20
192.282249359
 40
2.0000000769
100
AcDbArc
 50
257.6016016643
 51
323.8087729786
  0
ARC
  5
7D7
100
AcDbEntity
  8
RUNDUNGEN
100
AcDbCircle
 62
7
  6
CONTINUOUS
 10
70.9335380691
 20
189.2159609138
 40
1.0
100
AcDbArc
 50
120.0
 51
192.0
  0
ARC
  5
7D8
100
AcDbEntity
  8
RUNDUNGEN
100
AcDbCircle
 62
7
  6
CONTINUOUS
 10
85.553663793
 20
195.013243706
 40
1.0
100
AcDbArc
 50
105.0
 51
145.0326646998
  0
ARC
  5
7D9
100
AcDbEntity
  8
RUNDUNGEN
100
AcDbCircle
 62
7
  6
CONTINUOUS
 10
73.6141037726
 20
190.7635862443
 40
1.0
100
AcDbArc
 50
63.5628406396
 51
119.9999868012
  0
ARC
  5
7DA
100
AcDbEntity
  8
RUNDUNGEN
100
AcDbCircle
 62
7
  6
CONTINUOUS
 10
72.89217581
 20
190.3467809408
 40
1.0
100
AcDbArc
 50
30.0
 51
120.0
  0
ARC
  5
7DB
100
AcDbEntity
  8
RUNDUNGEN
100
AcDbCircle
 62
7
  6
CONTINUOUS
 10
97.6476203763
 20
161.8952561357
 40
5.0
100
AcDbArc
 50
0.0
 51
104.8917257366
  0
ARC
  5
7DC
100
AcDbEntity
  8
RUNDUNGEN
100
AcDbCircle
 62
7
  6
CONTINUOUS
 10
97.5391757854
 20
196.9864506998
 40
2.0000000785
100
AcDbArc
 50
246.2135649308
 51
312.3983983357
  0
ARC
  5
7DD
100
AcDbEntity
  8
RUNDUNGEN
100
AcDbCircle
 62
7
  6
CONTINUOUS
 10
91.3492187507
 20
196.5661579766
 40
1.0
100
AcDbArc
 50
64.9673353002
 51
105.0
  0
ARC
  5
7DE
100
AcDbEntity
  8
RUNDUNGEN
100
AcDbCircle
 62
7
  6
CONTINUOUS
 10
106.9092604303
 20
198.8556266676
 40
1.0
100
AcDbArc
 50
18.0000000307
 51
89.9999998832
  0
ARC
  5
7DF
100
AcDbEntity
  8
RUNDUNGEN
100
AcDbCircle
 62
7
  6
CONTINUOUS
 10
104.647641816
 20
198.8556266676
 40
1.0
100
AcDbArc
 50
90.0
 51
179.9981385891
  0
ARC
  5
7E0
100
AcDbEntity
  8
RUNDUNGEN
100
AcDbCircle
 62
7
  6
CONTINUOUS
 10
103.8140079948
 20
198.8556266676
 40
1.0
100
AcDbArc
 50
89.9999951851
 51
146.4370580409
  0
ARC
  5
7E1
100
AcDbEntity
  8
RUNDUNGEN
100
AcDbCircle
 62
7
  6
CONTINUOUS
 10
99.6476203763
 20
201.6198932262
 40
3.9999966598
100
AcDbArc
 50
312.3986549948
 51
326.4369701721
  0
ARC
  5
7E2
100
AcDbEntity
  8
RUNDUNGEN
100
AcDbCircle
 62
7
  6
CONTINUOUS
 10
118.3859803223
 20
12.1210354816
 40
1.0
100
AcDbArc
 50
198.0
 51
270.0
  0
ARC
  5
7E3
100
AcDbEntity
  8
RUNDUNGEN
100
AcDbCircle
 62
7
  6
CONTINUOUS
 10
112.6476203763
 20
20.6210354816
 40
2.25
100
AcDbArc
 50
359.9998928819
 51
180.0004547288
  0
ARC
  5
7E4
100
AcDbEntity
  8
RUNDUNGEN
100
AcDbCircle
 62
7
  6
CONTINUOUS
 10
125.6476203763
 20
9.3569191282
 40
3.9999472835
100
AcDbArc
 50
132.4042933772
 51
146.4382810454
  0
ARC
  5
7E5
100
AcDbEntity
  8
RUNDUNGEN
100
AcDbCircle
 62
7
  6
CONTINUOUS
 10
127.7560649686
 20
13.9902114488
 40
2.000000079
100
AcDbArc
 50
66.2122294415
 51
132.3983983357
  0
ARC
  5
7E6
100
AcDbEntity
  8
RUNDUNGEN
100
AcDbCircle
 62
7
  6
CONTINUOUS
 10
120.6476203763
 20
12.1210354816
 40
1.0
100
AcDbArc
 50
270.0
 51
360.0
  0
ARC
  5
7E7
100
AcDbEntity
  8
RUNDUNGEN
100
AcDbCircle
 62
7
  6
CONTINUOUS
 10
121.4812325067
 20
12.1210354816
 40
1.0
100
AcDbArc
 50
269.9993395002
 51
326.4373390362
  0
ARC
  5
7E8
100
AcDbEntity
  8
RUNDUNGEN
100
AcDbCircle
 62
7
  6
CONTINUOUS
 10
127.6476203763
 20
49.0814060136
 40
5.0
100
AcDbArc
 50
180.0
 51
284.8917257366
  0
ARC
  5
7E9
100
AcDbEntity
  8
RUNDUNGEN
100
AcDbCircle
 62
7
  6
CONTINUOUS
 10
139.7415769596
 20
15.9634184432
 40
1.0
100
AcDbArc
 50
285.0
 51
325.0326646998
  0
ARC
  5
7EA
100
AcDbEntity
  8
RUNDUNGEN
100
AcDbCircle
 62
7
  6
CONTINUOUS
 10
133.9460220018
 20
14.4105041726
 40
1.0
100
AcDbArc
 50
244.9673353002
 51
285.0
  0
ARC
  5
7EB
100
AcDbEntity
  8
RUNDUNGEN
100
AcDbCircle
 62
7
  6
CONTINUOUS
 10
149.4550300881
 20
15.7360273587
 40
3.9999703821
100
AcDbArc
 50
63.562304122
 51
77.5974874937
  0
ARC
  5
7EC
100
AcDbEntity
  8
RUNDUNGEN
100
AcDbCircle
 62
7
  6
CONTINUOUS
 10
145.3123833642
 20
18.6944127891
 40
2.0000000773
100
AcDbArc
 50
77.6016016643
 51
143.8095711119
  0
ARC
  5
7ED
100
AcDbEntity
  8
RUNDUNGEN
100
AcDbCircle
 62
7
  6
CONTINUOUS
 10
154.3617026835
 20
21.7607012354
 40
1.0
100
AcDbArc
 50
300.0
 51
12.0
  0
ARC
  5
7EE
100
AcDbEntity
  8
RUNDUNGEN
100
AcDbCircle
 62
7
  6
CONTINUOUS
 10
151.6811470372
 20
20.2130817115
 40
1.0
100
AcDbArc
 50
243.5614784202
 51
299.9996544393
  0
ARC
  5
7EF
100
AcDbEntity
  8
RUNDUNGEN
100
AcDbCircle
 62
7
  6
CONTINUOUS
 10
152.4030649425
 20
20.6298812084
 40
1.0
100
AcDbArc
 50
210.0
 51
300.0
  0
ARC
  5
7F0
100
AcDbEntity
  8
RUNDUNGEN
100
AcDbCircle
 62
7
  6
CONTINUOUS
 10
155.0812681728
 20
31.9910971406
 40
2.25
100
AcDbArc
 50
29.9998923523
 51
210.0004545191
  0
ARC
  5
7F1
100
AcDbEntity
  8
RUNDUNGEN
100
AcDbCircle
 62
7
  6
CONTINUOUS
 10
112.6476203763
 20
105.4883310746
 40
63.367295593
100
AcDbArc
 50
104.8917257366
 51
165.1082742634
  0
ARC
  5
7F2
100
AcDbEntity
  8
RUNDUNGEN
100
AcDbCircle
 62
7
  6
CONTINUOUS
 10
112.6476203763
 20
105.4883310746
 40
63.367295593
100
AcDbArc
 50
194.8917257366
 51
255.1082742634
  0
ARC
  5
7F3
100
AcDbEntity
  8
RUNDUNGEN
100
AcDbCircle
 62
7
  6
CONTINUOUS
 10
112.6476203763
 20
105.4883310746
 40
63.367295593
100
AcDbArc
 50
284.8917257366
 51
345.1082742634
  0
ARC
  5
7F4
100
AcDbEntity
  8
RUNDUNGEN
100
AcDbCircle
 62
7
  6
CONTINUOUS
 10
112.6476203763
 20
105.4883310746
 40
63.367295593
100
AcDbArc
 50
14.8917257366
 51
75.1082742634
  0
ARC
  5
7F5
100
AcDbEntity
  8
RUNDUNGEN
100
AcDbCircle
 62
7
  6
CONTINUOUS
 10
151.1198697299
 20
87.4883310746
 40
7.9999990424
100
AcDbArc
 50
90.0864239076
 51
134.9999998768
  0
ARC
  5
7F6
100
AcDbEntity
  8
0
100
AcDbCircle
 62
7
  6
CONTINUOUS
 10
112.6476203763
 20
78.9718267801
 40
1.0
100
AcDbArc
 50
165.0
 51
15.0
  0
ARC
  5
7F7
100
AcDbEntity
  8
0
100
AcDbCircle
 62
7
  6
CONTINUOUS
 10
139.1641246708
 20
105.4883310746
 40
1.0
100
AcDbArc
 50
255.0
 51
105.0
  0
ARC
  5
7F8
100
AcDbEntity
  8
RUNDUNGEN
100
AcDbCircle
 62
7
  6
CONTINUOUS
 10
171.9716565987
 20
28.7360862274
 40
3.9999472835
100
AcDbArc
 50
162.4042933772
 51
176.4382810454
  0
ARC
  5
7F9
100
AcDbEntity
  8
RUNDUNGEN
100
AcDbCircle
 62
7
  6
CONTINUOUS
 10
171.4809770178
 20
33.8028573763
 40
2.000000079
100
AcDbArc
 50
96.2122295073
 51
162.3983983357
  0
ARC
  5
7FA
100
AcDbEntity
  8
RUNDUNGEN
100
AcDbCircle
 62
7
  6
CONTINUOUS
 10
164.3008336621
 20
27.4990611814
 40
1.0
100
AcDbArc
 50
228.0
 51
300.0
  0
ARC
  5
7FB
100
AcDbEntity
  8
RUNDUNGEN
100
AcDbCircle
 62
7
  6
CONTINUOUS
 10
176.631490695
 20
37.2618200688
 40
1.0
100
AcDbArc
 50
274.9673353002
 51
315.0
  0
ARC
  5
7FC
100
AcDbEntity
  8
RUNDUNGEN
100
AcDbCircle
 62
7
  6
CONTINUOUS
 10
166.2594714031
 20
28.6298812084
 40
1.0
100
AcDbArc
 50
300.0
 51
30.0
  0
ARC
  5
7FD
100
AcDbEntity
  8
RUNDUNGEN
100
AcDbCircle
 62
7
  6
CONTINUOUS
 10
166.9814006849
 20
29.0466872737
 40
1.0
100
AcDbArc
 50
299.9993395002
 51
356.4373390362
  0
ARC
  5
7FE
100
AcDbEntity
  8
RUNDUNGEN
100
AcDbCircle
 62
7
  6
CONTINUOUS
 10
189.3999240922
 20
46.1642608644
 40
3.9999703821
100
AcDbArc
 50
93.562304122
 51
107.5974874937
  0
ARC
  5
7FF
100
AcDbEntity
  8
RUNDUNGEN
100
AcDbCircle
 62
7
  6
CONTINUOUS
 10
184.3330940752
 20
46.6549744393
 40
2.0000000773
100
AcDbArc
 50
107.6016016643
 51
173.8095711102
  0
ARC
  5
800
100
AcDbEntity
  8
RUNDUNGEN
100
AcDbCircle
 62
7
  6
CONTINUOUS
 10
190.6368902695
 20
53.8351177888
 40
1.0
100
AcDbArc
 50
330.0
 51
42.0
  0
ARC
  5
801
100
AcDbEntity
  8
RUNDUNGEN
100
AcDbCircle
 62
7
  6
CONTINUOUS
 10
180.8741313821
 20
41.5044607559
 40
1.0
100
AcDbArc
 50
315.0
 51
355.0326646998
  0
ARC
  5
802
100
AcDbEntity
  8
RUNDUNGEN
100
AcDbCircle
 62
7
  6
CONTINUOUS
 10
189.0892707455
 20
51.1545621425
 40
1.0
100
AcDbArc
 50
273.5614784202
 51
329.9996544393
  0
ARC
  5
803
100
AcDbEntity
  8
RUNDUNGEN
100
AcDbCircle
 62
7
  6
CONTINUOUS
 10
189.5060702425
 20
51.8764800478
 40
1.0
100
AcDbArc
 50
240.0
 51
330.0
  0
ARC
  5
804
100
AcDbEntity
  8
RUNDUNGEN
100
AcDbCircle
 62
7
  6
CONTINUOUS
 10
186.1448543103
 20
63.0546832781
 40
2.25
100
AcDbArc
 50
59.9999655066
 51
240.0003927066
  0
ARC
  5
805
100
AcDbEntity
  8
RUNDUNGEN
100
AcDbCircle
 62
7
  6
CONTINUOUS
 10
169.0545454373
 20
90.4883310746
 40
5.0
100
AcDbArc
 50
345.1082742634
 51
90.0
  0
ARC
  5
806
100
AcDbEntity
  8
RUNDUNGEN
100
AcDbCircle
 62
7
  6
CONTINUOUS
 10
202.3998652235
 20
68.6809553506
 40
3.9999472835
100
AcDbArc
 50
192.4042933772
 51
206.4382810454
  0
ARC
  5
807
100
AcDbEntity
  8
RUNDUNGEN
100
AcDbCircle
 62
7
  6
CONTINUOUS
 10
199.4415386669
 20
72.8235680903
 40
2.000000079
100
AcDbArc
 50
126.2122294414
 51
192.3983983357
  0
ARC
  5
808
100
AcDbEntity
  8
RUNDUNGEN
100
AcDbCircle
 62
7
  6
CONTINUOUS
 10
203.7254472783
 20
84.1899294491
 40
1.0
100
AcDbArc
 50
345.0
 51
25.0326646998
  0
ARC
  5
809
100
AcDbEntity
  8
RUNDUNGEN
100
AcDbCircle
 62
7
  6
CONTINUOUS
 10
196.3752502155
 20
63.7742487674
 40
1.0
100
AcDbArc
 50
258.0
 51
330.0
  0
ARC
  5
80A
100
AcDbEntity
  8
RUNDUNGEN
100
AcDbCircle
 62
7
  6
CONTINUOUS
 10
202.1725330077
 20
78.3943744913
 40
1.0
100
AcDbArc
 50
304.9673353002
 51
345.0
  0
ARC
  5
80B
100
AcDbEntity
  8
RUNDUNGEN
100
AcDbCircle
 62
7
  6
CONTINUOUS
 10
197.5060702425
 20
65.7328865084
 40
1.0
100
AcDbArc
 50
330.0
 51
60.0
  0
ARC
  5
80C
100
AcDbEntity
  8
RUNDUNGEN
100
AcDbCircle
 62
7
  6
CONTINUOUS
 10
197.9228763077
 20
66.4548157903
 40
1.0
100
AcDbArc
 50
329.9993395002
 51
26.4373390362
  0
ARC
  5
80D
100
AcDbEntity
  8
RUNDUNGEN
100
AcDbCircle
 62
7
  6
CONTINUOUS
 10
197.5149159693
 20
105.4883310746
 40
2.25
100
AcDbArc
 50
89.9998928819
 51
270.0004547288
  0
ARC
  5
80E
100
AcDbEntity
  8
RUNDUNGEN
100
AcDbCircle
 62
7
  6
CONTINUOUS
 10
208.7791004621
 20
92.4883310746
 40
3.9999704278
100
AcDbArc
 50
123.5623055446
 51
137.5975309489
  0
ARC
  5
80F
100
AcDbEntity
  8
RUNDUNGEN
100
AcDbCircle
 62
7
  6
CONTINUOUS
 10
204.1457399995
 20
90.379886488
 40
2.0000000773
100
AcDbArc
 50
137.6016016643
 51
203.8095711108
  0
ARC
  5
810
100
AcDbEntity
  8
RUNDUNGEN
100
AcDbCircle
 62
7
  6
CONTINUOUS
 10
206.0149159693
 20
96.6547320527
 40
1.0
100
AcDbArc
 50
303.561481431
 51
359.9996547445
  0
ARC
  5
811
100
AcDbEntity
  8
RUNDUNGEN
100
AcDbCircle
 62
7
  6
CONTINUOUS
 10
206.0149159693
 20
97.4883310746
 40
1.0
100
AcDbArc
 50
270.0
 51
360.0
  0
ARC
  5
812
100
AcDbEntity
  8
RUNDUNGEN
100
AcDbCircle
 62
7
  6
CONTINUOUS
 10
206.0149159693
 20
99.7499711286
 40
1.0
100
AcDbArc
 50
0.0
 51
72.0
  0
ARC
  5
813
100
AcDbEntity
  8
RUNDUNGEN
100
AcDbCircle
 62
7
  6
CONTINUOUS
 10
130.6476203763
 20
143.9605804282
 40
7.9999990424
100
AcDbArc
 50
180.0864239075
 51
224.9999998768
  0
ARC
  5
814
100
AcDbEntity
  8
0
100
AcDbCircle
 62
7
  6
CONTINUOUS
 10
112.6476203763
 20
132.0048353691
 40
1.0
100
AcDbArc
 50
345.0
 51
195.0
  0
ARC
  5
815
100
AcDbEntity
  8
RUNDUNGEN
100
AcDbCircle
 62
7
  6
CONTINUOUS
 10
127.6476203763
 20
161.8952561357
 40
5.0
100
AcDbArc
 50
75.1082742634
 51
180.0
  0
ARC
  5
816
100
AcDbEntity
  8
RUNDUNGEN
100
AcDbCircle
 62
7
  6
CONTINUOUS
 10
112.6476203763
 20
190.3556266676
 40
2.25
100
AcDbArc
 50
180.0002675238
 51
0.0004071844
  0
ARC
  5
817
100
AcDbEntity
  8
RUNDUNGEN
100
AcDbCircle
 62
7
  6
CONTINUOUS
 10
118.3859803223
 20
198.8556266676
 40
1.0
100
AcDbArc
 50
90.0000000307
 51
161.9999998832
  0
ARC
  5
818
100
AcDbEntity
  8
RUNDUNGEN
100
AcDbCircle
 62
7
  6
CONTINUOUS
 10
125.6476203763
 20
201.6197464674
 40
3.9999497664
100
AcDbArc
 50
213.5617419739
 51
227.5942736728
  0
ARC
  5
819
100
AcDbEntity
  8
RUNDUNGEN
100
AcDbCircle
 62
7
  6
CONTINUOUS
 10
127.7560649629
 20
196.9864506978
 40
2.0000000773
100
AcDbArc
 50
227.6016016643
 51
293.8095711119
  0
ARC
  5
81A
100
AcDbEntity
  8
RUNDUNGEN
100
AcDbCircle
 62
7
  6
CONTINUOUS
 10
121.4812089892
 20
198.8556266676
 40
1.0
100
AcDbArc
 50
33.5603508006
 51
89.9993765094
  0
ARC
  5
81B
100
AcDbEntity
  8
RUNDUNGEN
100
AcDbCircle
 62
7
  6
CONTINUOUS
 10
120.6476203763
 20
198.8556266676
 40
1.0
100
AcDbArc
 50
0.0
 51
90.0
  0
ARC
  5
81C
100
AcDbEntity
  8
RUNDUNGEN
100
AcDbCircle
 62
7
  6
CONTINUOUS
 10
155.0812681728
 20
178.9855650086
 40
2.25
100
AcDbArc
 50
149.9998934113
 51
330.0004549376
  0
ARC
  5
81D
100
AcDbEntity
  8
RUNDUNGEN
100
AcDbCircle
 62
7
  6
CONTINUOUS
 10
133.9460220018
 20
196.5661579766
 40
1.0
100
AcDbArc
 50
75.0
 51
115.0326646998
  0
ARC
  5
81E
100
AcDbEntity
  8
RUNDUNGEN
100
AcDbCircle
 62
7
  6
CONTINUOUS
 10
139.7415769596
 20
195.013243706
 40
1.0
100
AcDbArc
 50
34.9673353002
 51
75.0
  0
ARC
  5
81F
100
AcDbEntity
  8
RUNDUNGEN
100
AcDbCircle
 62
7
  6
CONTINUOUS
 10
145.3123833606
 20
192.2822493652
 40
2.000000079
100
AcDbArc
 50
216.2122294499
 51
282.3983983357
  0
ARC
  5
820
100
AcDbEntity
  8
RUNDUNGEN
100
AcDbCircle
 62
7
  6
CONTINUOUS
 10
154.3617026835
 20
189.2159609138
 40
1.0
100
AcDbArc
 50
348.0
 51
60.0
  0
ARC
  5
821
100
AcDbEntity
  8
RUNDUNGEN
100
AcDbCircle
 62
7
  6
CONTINUOUS
 10
152.4031882469
 20
190.346709751
 40
1.0
100
AcDbArc
 50
60.0040555306
 51
150.0010846009
  0
ARC
  5
822
100
AcDbEntity
  8
RUNDUNGEN
100
AcDbCircle
 62
7
  6
CONTINUOUS
 10
151.6811356145
 20
190.7635870327
 40
1.0
100
AcDbArc
 50
59.9993397456
 51
116.4373322657
  0
ARC
  5
823
100
AcDbEntity
  8
RUNDUNGEN
100
AcDbCircle
 62
7
  6
CONTINUOUS
 10
149.4549962962
 20
195.2405762612
 40
3.9999474123
100
AcDbArc
 50
282.4042861052
 51
296.4382777398
  0
ARC
  5
824
100
AcDbEntity
  8
RUNDUNGEN
100
AcDbCircle
 62
7
  6
CONTINUOUS
 10
169.0545454373
 20
120.4883310746
 40
5.0
100
AcDbArc
 50
270.0
 51
14.8917257366
  0
ARC
  5
825
100
AcDbEntity
  8
RUNDUNGEN
100
AcDbCircle
 62
7
  6
CONTINUOUS
 10
186.1448543103
 20
147.9219788711
 40
2.25
100
AcDbArc
 50
119.9998923523
 51
300.0004545191
  0
ARC
  5
826
100
AcDbEntity
  8
RUNDUNGEN
100
AcDbCircle
 62
7
  6
CONTINUOUS
 10
208.7790327145
 20
118.4883310746
 40
3.9999474123
100
AcDbArc
 50
222.4042861052
 51
236.4382777398
  0
ARC
  5
827
100
AcDbEntity
  8
RUNDUNGEN
100
AcDbCircle
 62
7
  6
CONTINUOUS
 10
204.1457400021
 20
120.5967756669
 40
2.000000079
100
AcDbArc
 50
156.212229449
 51
222.3983983357
  0
ARC
  5
828
100
AcDbEntity
  8
RUNDUNGEN
100
AcDbCircle
 62
7
  6
CONTINUOUS
 10
206.0149159693
 20
111.2266910206
 40
1.0
100
AcDbArc
 50
288.0
 51
360.0
  0
ARC
  5
829
100
AcDbEntity
  8
RUNDUNGEN
100
AcDbCircle
 62
7
  6
CONTINUOUS
 10
203.7254472783
 20
126.7867327002
 40
1.0
100
AcDbArc
 50
334.9673353002
 51
15.0
  0
ARC
  5
82A
100
AcDbEntity
  8
RUNDUNGEN
100
AcDbCircle
 62
7
  6
CONTINUOUS
 10
206.0149159693
 20
113.4883310746
 40
1.0
100
AcDbArc
 50
0.0
 51
90.0
  0
ARC
  5
82B
100
AcDbEntity
  8
RUNDUNGEN
100
AcDbCircle
 62
7
  6
CONTINUOUS
 10
206.0149159693
 20
114.3219432583
 40
1.0
100
AcDbArc
 50
359.9993397455
 51
56.4373322657
  0
ARC
  5
82C
100
AcDbEntity
  8
RUNDUNGEN
100
AcDbCircle
 62
7
  6
CONTINUOUS
 10
196.3752502155
 20
147.2024133818
 40
1.0
100
AcDbArc
 50
30.0
 51
102.0
  0
ARC
  5
82D
100
AcDbEntity
  8
RUNDUNGEN
100
AcDbCircle
 62
7
  6
CONTINUOUS
 10
197.9228697534
 20
144.5218577113
 40
1.0
100
AcDbArc
 50
333.561481431
 51
29.9996547445
  0
ARC
  5
82E
100
AcDbEntity
  8
RUNDUNGEN
100
AcDbCircle
 62
7
  6
CONTINUOUS
 10
197.5060702425
 20
145.2437756408
 40
1.0
100
AcDbArc
 50
300.0
 51
30.0
  0
ARC
  5
82F
100
AcDbEntity
  8
RUNDUNGEN
100
AcDbCircle
 62
7
  6
CONTINUOUS
 10
199.4415386618
 20
138.1530940625
 40
2.0000000773
100
AcDbArc
 50
167.6016016643
 51
233.8095711126
  0
ARC
  5
830
100
AcDbEntity
  8
RUNDUNGEN
100
AcDbCircle
 62
7
  6
CONTINUOUS
 10
202.1725330077
 20
132.5822876579
 40
1.0
100
AcDbArc
 50
15.0
 51
55.0326646998
  0
ARC
  5
831
100
AcDbEntity
  8
RUNDUNGEN
100
AcDbCircle
 62
7
  6
CONTINUOUS
 10
202.399924234
 20
142.2957408683
 40
3.9999704278
100
AcDbArc
 50
153.5623055446
 51
167.5975309489
  0
ARC
  5
832
100
AcDbEntity
  8
RUNDUNGEN
100
AcDbCircle
 62
7
  6
CONTINUOUS
 10
164.3008336621
 20
183.4776009678
 40
1.0
100
AcDbArc
 50
60.0
 51
132.0
  0
ARC
  5
833
100
AcDbEntity
  8
RUNDUNGEN
100
AcDbCircle
 62
7
  6
CONTINUOUS
 10
166.9813893326
 20
181.9299814299
 40
1.0
100
AcDbArc
 50
3.561481431
 51
59.9996547445
  0
ARC
  5
834
100
AcDbEntity
  8
RUNDUNGEN
100
AcDbCircle
 62
7
  6
CONTINUOUS
 10
166.2594714031
 20
182.3467809408
 40
1.0
100
AcDbArc
 50
330.0
 51
60.0
  0
ARC
  5
835
100
AcDbEntity
  8
RUNDUNGEN
100
AcDbCircle
 62
7
  6
CONTINUOUS
 10
171.4809770116
 20
177.1738047735
 40
2.0000000773
100
AcDbArc
 50
197.6016016643
 51
263.809571109
  0
ARC
  5
836
100
AcDbEntity
  8
RUNDUNGEN
100
AcDbCircle
 62
7
  6
CONTINUOUS
 10
176.631490695
 20
173.7148420805
 40
1.0
100
AcDbArc
 50
45.0
 51
85.0326646998
  0
ARC
  5
837
100
AcDbEntity
  8
RUNDUNGEN
100
AcDbCircle
 62
7
  6
CONTINUOUS
 10
171.9716906684
 20
182.2406349323
 40
3.9999704278
100
AcDbArc
 50
183.5623055446
 51
197.5975309489
  0
ARC
  5
838
100
AcDbEntity
  8
RUNDUNGEN
100
AcDbCircle
 62
7
  6
CONTINUOUS
 10
184.3330940746
 20
164.3216877161
 40
2.000000079
100
AcDbArc
 50
186.2122295168
 51
252.3983983357
  0
ARC
  5
839
100
AcDbEntity
  8
RUNDUNGEN
100
AcDbCircle
 62
7
  6
CONTINUOUS
 10
180.8741313821
 20
169.4722013934
 40
1.0
100
AcDbArc
 50
4.9673353002
 51
45.0
  0
ARC
  5
83A
100
AcDbEntity
  8
RUNDUNGEN
100
AcDbCircle
 62
7
  6
CONTINUOUS
 10
190.6368902695
 20
157.1415443604
 40
1.0
100
AcDbArc
 50
318.0
 51
30.0
  0
ARC
  5
83B
100
AcDbEntity
  8
RUNDUNGEN
100
AcDbCircle
 62
7
  6
CONTINUOUS
 10
189.5061414323
 20
159.100058797
 40
1.0
100
AcDbArc
 50
30.0
 51
120.0010846009
  0
ARC
  5
83C
100
AcDbEntity
  8
RUNDUNGEN
100
AcDbCircle
 62
7
  6
CONTINUOUS
 10
189.0892641506
 20
159.8221114294
 40
1.0
100
AcDbArc
 50
29.9993397455
 51
86.4373322657
  0
ARC
  5
83D
100
AcDbEntity
  8
RUNDUNGEN
100
AcDbCircle
 62
7
  6
CONTINUOUS
 10
189.3998655628
 20
164.8123674929
 40
3.9999474123
100
AcDbArc
 50
252.4042861052
 51
266.4382777398
  0
ARC
  5
83E
100
AcDbEntity
  8
RUNDUNGEN
100
AcDbCircle
 62
7
  6
CONTINUOUS
 10
236.0563715721
 20
92.4883310746
 40
4.0
100
AcDbArc
 50
0.0
 51
47.5280078991
  0
ARC
  5
83F
100
AcDbEntity
  8
RUNDUNGEN
100
AcDbCircle
 62
7
  6
CONTINUOUS
 10
229.0063715721
 20
69.5143207983
 40
3.0
100
AcDbArc
 50
179.9999993068
 51
253.2690830325
  0
ARC
  5
840
100
AcDbEntity
  8
RUNDUNGEN
100
AcDbCircle
 62
7
  6
CONTINUOUS
 10
231.0563715721
 20
68.2351538778
 40
1.0
100
AcDbArc
 50
103.7193828297
 51
179.9999998226
  0
ARC
  5
841
100
AcDbEntity
  8
RUNDUNGEN
100
AcDbCircle
 62
7
  6
CONTINUOUS
 10
231.0563715721
 20
34.1751323185
 40
1.0
100
AcDbArc
 50
112.9219287136
 51
180.0000009011
  0
ARC
  5
842
100
AcDbEntity
  8
RUNDUNGEN
100
AcDbCircle
 62
7
  6
CONTINUOUS
 10
231.0563715721
 20
20.2700551186
 40
1.0
100
AcDbArc
 50
168.6238865262
 51
179.9999999974
  0
ARC
  5
843
100
AcDbEntity
  8
RUNDUNGEN
100
AcDbCircle
 62
7
  6
CONTINUOUS
 10
231.0563715721
 20
97.4883310746
 40
1.0
100
AcDbArc
 50
180.0
 51
270.0
  0
ARC
  5
844
100
AcDbEntity
  8
RUNDUNGEN
100
AcDbCircle
 62
7
  6
CONTINUOUS
 10
231.0563715721
 20
102.2383310746
 40
1.0
100
AcDbArc
 50
90.0
 51
180.0
  0
ARC
  5
845
100
AcDbEntity
  8
RUNDUNGEN
100
AcDbCircle
 62
7
  6
CONTINUOUS
 10
231.0563715721
 20
12.1210354816
 40
1.0
100
AcDbArc
 50
180.0
 51
270.0
  0
ARC
  5
846
100
AcDbEntity
  8
0
100
AcDbCircle
 62
7
  6
CONTINUOUS
 10
232.0563715721
 20
153.8654103734
 40
7.9999995335
100
AcDbArc
 50
286.7307975474
 51
359.515762015
  0
ARC
  5
847
100
AcDbEntity
  8
0
100
AcDbCircle
 62
7
  6
CONTINUOUS
 10
229.0063715721
 20
141.4623413403
 40
3.0
100
AcDbArc
 50
106.7309200668
 51
179.9999999936
  0
ARC
  5
848
100
AcDbEntity
  8
0
100
AcDbCircle
 62
7
  6
CONTINUOUS
 10
238.0563715721
 20
184.0445509066
 40
2.0
100
AcDbArc
 50
0.0
 51
64.0
  0
ARC
  5
849
100
AcDbEntity
  8
0
100
AcDbCircle
 62
7
  6
CONTINUOUS
 10
231.0563715721
 20
176.8015298307
 40
1.0
100
AcDbArc
 50
179.999999387
 51
247.0780715747
  0
ARC
  5
84A
100
AcDbEntity
  8
0
100
AcDbCircle
 62
7
  6
CONTINUOUS
 10
231.0563715721
 20
190.7066070307
 40
1.0
100
AcDbArc
 50
180.0000000026
 51
243.9742175389
  0
ARC
  5
84B
100
AcDbEntity
  8
RUNDUNGEN
100
AcDbCircle
 62
7
  6
CONTINUOUS
 10
231.0563715721
 20
198.8556266676
 40
1.0
100
AcDbArc
 50
90.0
 51
180.0
  0
ARC
  5
84C
100
AcDbEntity
  8
0
100
AcDbCircle
 62
7
  6
CONTINUOUS
 10
238.6237522793
 20
187.1056266671
 40
1.0000000002
100
AcDbArc
 50
90.0
 51
243.9999998592
  0
ARC
  5
84D
100
AcDbEntity
  8
RUNDUNGEN
100
AcDbCircle
 62
7
  6
CONTINUOUS
 10
254.0563715721
 20
92.4883310746
 40
4.0
100
AcDbArc
 50
132.4719012942
 51
180.0
  0
ARC
  5
84E
100
AcDbEntity
  8
RUNDUNGEN
100
AcDbCircle
 62
7
  6
CONTINUOUS
 10
261.1063715721
 20
69.5143207967
 40
3.0
100
AcDbArc
 50
286.7309173978
 51
0.0000011799
  0
ARC
  5
84F
100
AcDbEntity
  8
RUNDUNGEN
100
AcDbCircle
 62
7
  6
CONTINUOUS
 10
259.0563715721
 20
68.2351455249
 40
1.0
100
AcDbArc
 50
359.9999998878
 51
76.2814455943
  0
ARC
  5
850
100
AcDbEntity
  8
RUNDUNGEN
100
AcDbCircle
 62
7
  6
CONTINUOUS
 10
259.0563715721
 20
34.1751230283
 40
1.0
100
AcDbArc
 50
0.0000000039
 51
67.0796216933
  0
ARC
  5
851
100
AcDbEntity
  8
RUNDUNGEN
100
AcDbCircle
 62
7
  6
CONTINUOUS
 10
259.0563715721
 20
20.270076791
 40
1.0
100
AcDbArc
 50
359.9999980419
 51
10.2951611659
  0
ARC
  5
852
100
AcDbEntity
  8
RUNDUNGEN
100
AcDbCircle
 62
7
  6
CONTINUOUS
 10
259.0563715721
 20
12.1210354816
 40
1.0
100
AcDbArc
 50
270.0
 51
360.0
  0
ARC
  5
853
100
AcDbEntity
  8
RUNDUNGEN
100
AcDbCircle
 62
7
  6
CONTINUOUS
 10
259.0563715721
 20
102.2383310746
 40
1.0
100
AcDbArc
 50
0.0
 51
90.0
  0
ARC
  5
854
100
AcDbEntity
  8
RUNDUNGEN
100
AcDbCircle
 62
7
  6
CONTINUOUS
 10
259.0563715721
 20
97.4883310746
 40
1.0
100
AcDbArc
 50
270.0
 51
360.0
  0
ARC
  5
855
100
AcDbEntity
  8
0
100
AcDbCircle
 62
7
  6
CONTINUOUS
 10
258.0563715721
 20
153.8654103716
 40
7.9999995323
100
AcDbArc
 50
180.4842385709
 51
253.2692024526
  0
ARC
  5
856
100
AcDbEntity
  8
0
100
AcDbCircle
 62
7
  6
CONTINUOUS
 10
261.1063715721
 20
141.4623413419
 40
3.0
100
AcDbArc
 50
0.0000000064
 51
73.2690799916
  0
ARC
  5
857
100
AcDbEntity
  8
0
100
AcDbCircle
 62
7
  6
CONTINUOUS
 10
252.0563715721
 20
184.0445509066
 40
2.0
100
AcDbArc
 50
116.0
 51
180.0
  0
ARC
  5
858
100
AcDbEntity
  8
0
100
AcDbCircle
 62
7
  6
CONTINUOUS
 10
259.0563715721
 20
176.8015391209
 40
1.0
100
AcDbArc
 50
292.9203783
 51
359.9999999961
  0
ARC
  5
859
100
AcDbEntity
  8
0
100
AcDbCircle
 62
7
  6
CONTINUOUS
 10
259.0563715721
 20
190.7065853621
 40
1.0
100
AcDbArc
 50
296.025336398
 51
0.0000031775
  0
ARC
  5
85A
100
AcDbEntity
  8
RUNDUNGEN
100
AcDbCircle
 62
7
  6
CONTINUOUS
 10
259.0563715721
 20
198.8556266676
 40
1.0
100
AcDbArc
 50
0.0
 51
90.0
  0
ARC
  5
85B
100
AcDbEntity
  8
0
100
AcDbCircle
 62
7
  6
CONTINUOUS
 10
251.4892033739
 20
187.1057258422
 40
0.9999695067
100
AcDbArc
 50
295.9737556255
 51
89.9999286816
  0
ENDSEC
  0
SECTION
  2
OBJECTS
  0
DICTIONARY
  5
C
100
AcDbDictionary
280
0
281
1
  3
ACAD_GROUP
350
D
  3
ACAD_MLINESTYLE
350
17
  3
ACAD_LAYOUT
350
1A
  3
ACAD_PLOTSETTINGS
350
19
  3
ACAD_PLOTSTYLENAME
350
E
  0
DICTIONARY
  5
D
102
{ACAD_REACTORS
330
C
102
}
100
AcDbDictionary
280
0
281
1
  0
ACDBDICTIONARYWDFLT
  5
E
102
{ACAD_REACTORS
330
C
102
}
100
AcDbDictionary
281
1
  3
Normal
350
F
100
AcDbDictionaryWithDefault
340
F
  0
DICTIONARY
  5
17
102
{ACAD_REACTORS
330
C
102
}
100
AcDbDictionary
280
0
281
1
  3
Standard
350
18
  0
DICTIONARY
  5
19
102
{ACAD_REACTORS
330
C
102
}
100
AcDbDictionary
281
1
  0
DICTIONARY
  5
1A
102
{ACAD_REACTORS
330
C
102
}
100
AcDbDictionary
281
1
  3
Model
350
85C
  3
Layout1
350
85D
  0
ACDBPLACEHOLDER
  5
F
102
{ACAD_REACTORS
330
E
102
}
  0
MLINESTYLE
  5
18
102
{ACAD_REACTORS
330
17
102
}
100
AcDbMlineStyle
  2
STANDARD
 70
0
  3

 62
256
 51
90.0
 52
90.0
 71
2
 49
0.5
 62
256
  6
BYLAYER
 49
-0.5
 62
256
  6
BYLAYER
  0
LAYOUT
  5
85C
102
{ACAD_REACTORS
330
1A
102
}
100
AcDbPlotSettings
  1

  2
none_device
  4
ISO_A4_(297.00_x_210.00_MM)
  6

 40
0.0
 41
0.0
 42
0.0
 43
0.0
 44
297.0
 45
210.0
 46
0.0
 47
0.0
 48
0.0
 49
0.0
140
0.0
141
0.0
142
1.0
143
1.0
 70
1024
 72
1
 73
0
 74
0
  7

 75
0
147
1.0
148
0.0
149
0.0
100
AcDbLayout
  1
Model
 70
0
 71
0
 10
0.0
 20
0.0
 11
297.0
 21
210.0
 12
0.0
 22
0.0
 32
0.0
 14
0.0
 24
0.0
 34
0.0
 15
0.0
 25
0.0
 35
0.0
146
0.0
 13
0.0
 23
0.0
 33
0.0
 16
1.0
 26
0.0
 36
0.0
 17
0.0
 27
1.0
 37
0.0
 76
0
330
210
345
0
346
0
  0
LAYOUT
  5
85D
102
{ACAD_REACTORS
330
1A
102
}
100
AcDbPlotSettings
  1

  2
none_device
  4
ISO_A4_(297.00_x_210.00_MM)
  6

 40
0.0
 41
0.0
 42
0.0
 43
0.0
 44
297.0
 45
210.0
 46
0.0
 47
0.0
 48
0.0
 49
0.0
140
0.0
141
0.0
142
1.0
143
1.0
 70
0
 72
1
 73
0
 74
0
  7

 75
0
147
1.0
148
0.0
149
0.0
100
AcDbLayout
  1
Layout1
 70
0
 71
1
 10
0.0
 20
0.0
 11
297.0
 21
210.0
 12
0.0
 22
0.0
 32
0.0
 14
0.0
 24
0.0
 34
0.0
 15
0.0
 25
0.0
 35
0.0
146
0.0
 13
0.0
 23
0.0
 33
0.0
 16
1.0
 26
0.0
 36
0.0
 17
0.0
 27
1.0
 37
0.0
 76
0
330
211
345
0
346
0
  0
ENDSEC
  0
EOF
