  0
SECTION
  2
HEADER
  9
$ACADVER
  1
AC1015
  9
$DWGCODEPAGE
  3
ANSI_1252
  9
$EXTMAX
 10
297.0
 20
210.0
 30
0.0
  9
$EXTMIN
 10
0.0
 20
0.0
 30
0.0
  9
$LIMMIN
 10
0.0
 20
0.0
  9
$LIMMAX
 10
297.0
 20
210.0
  9
$VIEWCTR
 10
148.5
 20
105.0
  9
$VIEWSIZE
 40
210.0
  9
$CLAYER
  8
0
  9
$LTSCALE
 40
16.335
  9
$CELTYPE
  6
BYLAYER
  9
$DIMSCALE
 40
1.0
  9
$DIMASZ
 40
3.5
  9
$DIMEXO
 40
1.85625
  9
$DIMDLI
 40
11.286
  9
$DIMEXE
 40
5.346
  9
$DIMCEN
 40
2.673
  9
$DIMLFAC
 40
1.0
  9
$DIMBLK
  1
_FILLED
  9
$DIMTXT
 40
3.5
  9
$DIMTOL
 70
1
  9
$DIMLIM
 70
0
  9
$DIMTFAC
 40
1.0
  9
$DIMTP
 40
0.005
  9
$DIMTM
 40
0.005
  9
$PDMODE
 70
3
  9
$PDSIZE
 40
0.3125
  9
$HANDSEED
  5
888
  9
$TILEMODE
 70
1
  9
$MEASUREMENT
 70
1
  9
$INSUNITS
 70
4
  0
ENDSEC
  0
SECTION
  2
CLASSES
  0
CLASS
  1
ACDBDICTIONARYWDFLT
  2
AcDbDictionaryWithDefault
  3
AutoCAD 2000
 90
0
280
0
281
0
  0
CLASS
  1
ACDBPLACEHOLDER
  2
AcDbPlaceHolder
  3
AutoCAD 2000
 90
0
280
0
281
0
  0
CLASS
  1
LAYOUT
  2
AcDbLayout
  3
AutoCAD 2000
 90
0
280
0
281
0
  0
ENDSEC
  0
SECTION
  2
TABLES
  0
TABLE
  2
VPORT
  5
8
100
AcDbSymbolTable
 70
2
  0
VPORT
  5
1F4
100
AcDbSymbolTableRecord
100
AcDbViewportTableRecord
  2
*ACTIVE
 70
0
 10
0.0
 20
0.0
 11
1.0
 21
1.0
 12
148.5
 22
105.0
 13
0.0
 23
0.0
 14
1.0
 24
1.0
 15
0.0
 25
0.0
 16
0.0
 26
0.0
 36
1.0
 17
0.0
 27
0.0
 37
0.0
 40
210.0
 41
1.4142857143
 42
50.0
 43
0.0
 44
0.0
 50
0.0
 51
0.0
 71
0
 72
100
 73
1
 74
1
 75
0
 76
0
 77
0
 78
0
  0
ENDTAB
  0
TABLE
  2
LTYPE
  5
5
100
AcDbSymbolTable
 70
6
  0
LTYPE
  5
14
100
AcDbSymbolTableRecord
100
AcDbLinetypeTableRecord
  2
BYBLOCK
 70
0
  3

 72
65
 73
0
 40
0.0
  0
LTYPE
  5
15
100
AcDbSymbolTableRecord
100
AcDbLinetypeTableRecord
  2
BYLAYER
 70
0
  3

 72
65
 73
0
 40
0.0
  0
LTYPE
  5
16
100
AcDbSymbolTableRecord
100
AcDbLinetypeTableRecord
  2
CONTINUOUS
 70
64
  3
Solid line
 72
65
 73
0
 40
0.0
  0
LTYPE
  5
1F5
100
AcDbSymbolTableRecord
100
AcDbLinetypeTableRecord
  2
CENTER
 70
64
  3
____ _ ____ _ ____ _ ____ _ ____ _ ____ _ ____
 72
65
 73
4
 40
0.6
 49
0.375
 74
0
 49
-0.075
 74
0
 49
0.075
 74
0
 49
-0.075
 74
0
  0
LTYPE
  5
1F6
100
AcDbSymbolTableRecord
100
AcDbLinetypeTableRecord
  2
HIDDEN
 70
64
  3
- - - - - - - - - - - - - - - - - - - -
 72
65
 73
2
 40
0.2
 49
0.1
 74
0
 49
-0.1
 74
0
  0
LTYPE
  5
1F7
100
AcDbSymbolTableRecord
100
AcDbLinetypeTableRecord
  2
PHANTOM
 70
64
  3
_____ _ _ _____ _ _ _____ _ _ _____
 72
65
 73
6
 40
0.8
 49
0.45
 74
0
 49
-0.05
 74
0
 49
0.1
 74
0
 49
-0.05
 74
0
 49
0.1
 74
0
 49
-0.05
 74
0
  0
LTYPE
  5
1F8
100
AcDbSymbolTableRecord
100
AcDbLinetypeTableRecord
  2
DOT
 70
64
  3
. . . . . . . . . . . . . . . . . . . .
 72
65
 73
2
 40
0.2
 49
0.1
 74
0
 49
-0.1
 74
0
  0
LTYPE
  5
1F9
100
AcDbSymbolTableRecord
100
AcDbLinetypeTableRecord
  2
DASHED
 70
64
  3
- - - - - - - - - - - - - - - - - - - -
 72
65
 73
2
 40
0.2
 49
0.1
 74
0
 49
-0.1
 74
0
  0
ENDTAB
  0
TABLE
  2
LAYER
  5
2
100
AcDbSymbolTable
 70
36
  0
LAYER
  5
10
100
AcDbSymbolTableRecord
100
AcDbLayerTableRecord
  2
0
 70
0
 62
7
  6
CONTINUOUS
370
-3
390
F
  0
LAYER
  5
1FA
100
AcDbSymbolTableRecord
100
AcDbLayerTableRecord
  2
DEFAULT_1
 70
0
 62
7
  6
CENTER
370
-3
390
F
  0
LAYER
  5
1FB
100
AcDbSymbolTableRecord
100
AcDbLayerTableRecord
  2
DEFAULT_2
 70
0
 62
8
  6
HIDDEN
370
-3
390
F
  0
LAYER
  5
1FC
100
AcDbSymbolTableRecord
100
AcDbLayerTableRecord
  2
DEFAULT_3
 70
0
 62
7
  6
PHANTOM
370
-3
390
F
  0
LAYER
  5
1FD
100
AcDbSymbolTableRecord
100
AcDbLayerTableRecord
  2
01___PRT_ALL_DTM_PLN
 70
0
 62
7
  6
CONTINUOUS
370
-3
390
F
  0
LAYER
  5
1FE
100
AcDbSymbolTableRecord
100
AcDbLayerTableRecord
  2
01___PRT_DEF_DTM_PLN
 70
0
 62
7
  6
CONTINUOUS
370
-3
390
F
  0
LAYER
  5
1FF
100
AcDbSymbolTableRecord
100
AcDbLayerTableRecord
  2
02___PRT_ALL_AXES
 70
0
 62
7
  6
CONTINUOUS
370
-3
390
F
  0
LAYER
  5
200
100
AcDbSymbolTableRecord
100
AcDbLayerTableRecord
  2
03___PRT_ALL_CURVES
 70
0
 62
7
  6
CONTINUOUS
370
-3
390
F
  0
LAYER
  5
201
100
AcDbSymbolTableRecord
100
AcDbLayerTableRecord
  2
04___PRT_ALL_DTM_PNT
 70
0
 62
7
  6
CONTINUOUS
370
-3
390
F
  0
LAYER
  5
202
100
AcDbSymbolTableRecord
100
AcDbLayerTableRecord
  2
05___PRT_ALL_DTM_CSYS
 70
0
 62
7
  6
CONTINUOUS
370
-3
390
F
  0
LAYER
  5
203
100
AcDbSymbolTableRecord
100
AcDbLayerTableRecord
  2
05___PRT_DEF_DTM_CSYS
 70
0
 62
7
  6
CONTINUOUS
370
-3
390
F
  0
LAYER
  5
204
100
AcDbSymbolTableRecord
100
AcDbLayerTableRecord
  2
06___PRT_ALL_SURFS
 70
0
 62
7
  6
CONTINUOUS
370
-3
390
F
  0
LAYER
  5
205
100
AcDbSymbolTableRecord
100
AcDbLayerTableRecord
  2
AUSFORMSCHRAEGEN
 70
0
 62
7
  6
CONTINUOUS
370
-3
390
F
  0
LAYER
  5
206
100
AcDbSymbolTableRecord
100
AcDbLayerTableRecord
  2
BEZUGSACHSEN
 70
0
 62
7
  6
CONTINUOUS
370
-3
390
F
  0
LAYER
  5
207
100
AcDbSymbolTableRecord
100
AcDbLayerTableRecord
  2
BEZUGSEBENEN
 70
0
 62
7
  6
CONTINUOUS
370
-3
390
F
  0
LAYER
  5
208
100
AcDbSymbolTableRecord
100
AcDbLayerTableRecord
  2
BOHRUNGEN
 70
0
 62
7
  6
CONTINUOUS
370
-3
390
F
  0
LAYER
  5
209
100
AcDbSymbolTableRecord
100
AcDbLayerTableRecord
  2
FASEN
 70
0
 62
7
  6
CONTINUOUS
370
-3
390
F
  0
LAYER
  5
20A
100
AcDbSymbolTableRecord
100
AcDbLayerTableRecord
  2
GEWINDE
 70
0
 62
7
  6
CONTINUOUS
370
-3
390
F
  0
LAYER
  5
20B
100
AcDbSymbolTableRecord
100
AcDbLayerTableRecord
  2
KURVEN
 70
0
 62
7
  6
CONTINUOUS
370
-3
390
F
  0
LAYER
  5
20C
100
AcDbSymbolTableRecord
100
AcDbLayerTableRecord
  2
RUNDUNGEN
 70
0
 62
7
  6
CONTINUOUS
370
-3
390
F
  0
LAYER
  5
20D
100
AcDbSymbolTableRecord
100
AcDbLayerTableRecord
  2
ZEICHNUNGSBEMASSUNGEN
 70
0
 62
7
  6
CONTINUOUS
370
-3
390
F
  0
ENDTAB
  0
TABLE
  2
STYLE
  5
3
100
AcDbSymbolTable
 70
1
  0
STYLE
  5
11
100
AcDbSymbolTableRecord
100
AcDbTextStyleTableRecord
  2
STANDARD
 70
0
 40
0.0
 41
0.7
 50
0.0
 71
0
 42
0.2
  3
txt
  4

  0
STYLE
  5
20E
100
AcDbSymbolTableRecord
100
AcDbTextStyleTableRecord
  2
TEXTSTYLE_1
 70
0
 40
0.0
 41
0.8
 50
0.0
 71
0
 42
0.2
  3
gdt
  4

  0
ENDTAB
  0
TABLE
  2
VIEW
  5
6
100
AcDbSymbolTable
 70
0
  0
ENDTAB
  0
TABLE
  2
UCS
  5
7
100
AcDbSymbolTable
 70
0
  0
ENDTAB
  0
TABLE
  2
APPID
  5
9
100
AcDbSymbolTable
 70
1
  0
APPID
  5
20F
100
AcDbSymbolTableRecord
100
AcDbRegAppTableRecord
  2
ACAD
 70
0
  0
ENDTAB
  0
TABLE
  2
BLOCK_RECORD
  5
1
100
AcDbSymbolTable
 70
0
  0
BLOCK_RECORD
  5
210
100
AcDbSymbolTableRecord
100
AcDbBlockTableRecord
  2
*Model_Space
  0
BLOCK_RECORD
  5
211
100
AcDbSymbolTableRecord
100
AcDbBlockTableRecord
  2
*Paper_Space
  0
ENDTAB
  0
TABLE
  2
DIMSTYLE
  5
A
100
AcDbSymbolTable
 70
1
100
AcDbDimStyleTable
 71
0
  0
DIMSTYLE
105
212
100
AcDbSymbolTableRecord
100
AcDbDimStyleTableRecord
  2
STANDARD
 70
0
  3

  4

 40
1.0
 41
3.5
 42
0.0625
 43
0.38
 44
0.18
 45
0.0
 46
0.0
 47
0.005
 48
0.005
140
3.5
141
0.09
142
0.0
143
25.4
144
1.0
145
0.0
146
1.0
147
0.09
 71
1.0
 72
0.0
 73
0
 74
0
 75
0
 76
0
 77
1
 78
8
170
0
171
2
172
0
173
0
174
0
175
0
176
0
177
0
178
5
270
2
271
3
272
3
273
2
274
2
275
0
280
0
281
0
282
0
283
1
284
8
285
0
286
0
287
3
288
0
340
11
  0
ENDTAB
  0
ENDSEC
  0
SECTION
  2
BLOCKS
  0
BLOCK
  5
20
100
AcDbEntity
  8
0
100
AcDbBlockBegin
  2
*Model_Space
 70
0
 10
0.0
 20
0.0
 30
0.0
  3
*Model_Space
  1

  0
ENDBLK
  5
21
100
AcDbEntity
  8
0
100
AcDbBlockEnd
  0
BLOCK
  5
1C
100
AcDbEntity
  8
0
100
AcDbBlockBegin
  2
*Paper_Space
 70
0
 10
0.0
 20
0.0
 30
0.0
  3
*Paper_Space
  1

  0
ENDBLK
  5
1D
100
AcDbEntity
  8
0
100
AcDbBlockEnd
  0
ENDSEC
  0
SECTION
  2
ENTITIES
  0
LINE
  5
213
100
AcDbEntity
  8
0
100
AcDbLine
 62
7
  6
CONTINUOUS
 10
0.0
 20
0.0
 11
0.0
 21
210.0
  0
LINE
  5
214
100
AcDbEntity
  8
0
100
AcDbLine
 62
7
  6
CONTINUOUS
 10
0.0
 20
0.0
 11
297.0
 21
0.0
  0
LINE
  5
215
100
AcDbEntity
  8
0
100
AcDbLine
 62
7
  6
CONTINUOUS
 10
0.0
 20
210.0
 11
297.0
 21
210.0
  0
LINE
  5
216
100
AcDbEntity
  8
0
100
AcDbLine
 62
7
  6
CONTINUOUS
 10
297.0
 20
0.0
 11
297.0
 21
210.0
  0
LINE
  5
217
100
AcDbEntity
  8
RUNDUNGEN
100
AcDbLine
 62
7
  6
CONTINUOUS
 10
18.7065046302
 20
114.1798756595
 11
18.7065046302
 21
111.0846310716
  0
LINE
  5
218
100
AcDbEntity
  8
RUNDUNGEN
100
AcDbLine
 62
7
  6
CONTINUOUS
 10
18.7065046302
 20
99.6079111797
 11
18.7065046302
 21
96.5126715936
  0
LINE
  5
219
100
AcDbEntity
  8
RUNDUNGEN
100
AcDbLine
 62
7
  6
CONTINUOUS
 10
22.5829617655
 20
132.699046754
 11
21.0300474949
 21
126.9034917963
  0
LINE
  5
21A
100
AcDbEntity
  8
RUNDUNGEN
100
AcDbLine
 62
7
  6
CONTINUOUS
 10
35.7661275203
 20
160.1800453754
 11
34.2185049262
 21
157.4994844114
  0
LINE
  5
21B
100
AcDbEntity
  8
RUNDUNGEN
100
AcDbLine
 62
7
  6
CONTINUOUS
 10
28.4801449802
 20
147.5603534329
 11
26.9325251639
 21
144.8797972802
  0
LINE
  5
21C
100
AcDbEntity
  8
RUNDUNGEN
100
AcDbLine
 62
7
  6
CONTINUOUS
 10
48.3828231233
 20
174.2798889127
 11
44.1401824362
 21
170.0372482256
  0
LINE
  5
21D
100
AcDbEntity
  8
RUNDUNGEN
100
AcDbLine
 62
7
  6
CONTINUOUS
 10
73.5402839001
 20
191.4875518611
 11
70.859717916
 21
189.9399263686
  0
LINE
  5
21E
100
AcDbEntity
  8
RUNDUNGEN
100
AcDbLine
 62
7
  6
CONTINUOUS
 10
60.9205869374
 20
184.2015664226
 11
58.2400307847
 21
182.6539466063
  0
LINE
  5
21F
100
AcDbEntity
  8
RUNDUNGEN
100
AcDbLine
 62
7
  6
CONTINUOUS
 10
134.6310208939
 20
13.3025183973
 11
140.4265758516
 21
14.8554326679
  0
LINE
  5
220
100
AcDbEntity
  8
RUNDUNGEN
100
AcDbLine
 62
7
  6
CONTINUOUS
 10
104.2401951096
 20
10.9789755326
 11
107.3354402772
 21
10.9789755326
  0
LINE
  5
221
100
AcDbEntity
  8
RUNDUNGEN
100
AcDbLine
 62
7
  6
CONTINUOUS
 10
118.8121601692
 20
10.9789755326
 11
121.9074008271
 21
10.9789755326
  0
LINE
  5
222
100
AcDbEntity
  8
RUNDUNGEN
100
AcDbLine
 62
7
  6
CONTINUOUS
 10
85.7210245948
 20
14.8554326679
 11
91.5165795526
 21
13.3025183973
  0
LINE
  5
223
100
AcDbEntity
  8
RUNDUNGEN
100
AcDbLine
 62
7
  6
CONTINUOUS
 10
58.2400260022
 20
28.0385984062
 11
60.9205869374
 21
26.4909758287
  0
LINE
  5
224
100
AcDbEntity
  8
RUNDUNGEN
100
AcDbLine
 62
7
  6
CONTINUOUS
 10
70.859717916
 20
20.7526158827
 11
73.5402746905
 21
19.2049957073
  0
LINE
  5
225
100
AcDbEntity
  8
RUNDUNGEN
100
AcDbLine
 62
7
  6
CONTINUOUS
 10
44.1401824362
 20
40.6552940257
 11
48.3828231233
 21
36.4126533386
  0
LINE
  5
226
100
AcDbEntity
  8
RUNDUNGEN
100
AcDbLine
 62
7
  6
CONTINUOUS
 10
26.9325224027
 20
65.8127497537
 11
28.4801449802
 21
63.1321888184
  0
LINE
  5
227
100
AcDbEntity
  8
RUNDUNGEN
100
AcDbLine
 62
7
  6
CONTINUOUS
 10
34.2185049262
 20
53.1930578399
 11
35.7661247192
 21
50.5125017276
  0
LINE
  5
228
100
AcDbEntity
  8
RUNDUNGEN
100
AcDbLine
 62
7
  6
CONTINUOUS
 10
21.0300474949
 20
83.789050455
 11
22.5829617655
 21
77.9934954973
  0
LINE
  5
229
100
AcDbEntity
  8
RUNDUNGEN
100
AcDbLine
 62
7
  6
CONTINUOUS
 10
28.2824045239
 20
72.6385233739
 11
28.2521762632
 21
73.0289945199
  0
LINE
  5
22A
100
AcDbEntity
  8
RUNDUNGEN
100
AcDbLine
 62
7
  6
CONTINUOUS
 10
23.5544135829
 20
90.5436486074
 11
23.5755034918
 21
90.1526876665
  0
LINE
  5
22B
100
AcDbEntity
  8
RUNDUNGEN
100
AcDbLine
 62
7
  6
CONTINUOUS
 10
23.5544139757
 20
120.148893953
 11
23.5755051593
 21
120.5398561951
  0
LINE
  5
22C
100
AcDbEntity
  8
RUNDUNGEN
100
AcDbLine
 62
7
  6
CONTINUOUS
 10
28.2824075261
 20
138.0540201146
 11
28.2521777117
 21
137.6635493064
  0
LINE
  5
22D
100
AcDbEntity
  8
RUNDUNGEN
100
AcDbLine
 62
7
  6
CONTINUOUS
 10
23.5755034918
 20
90.1526876665
 11
23.5199417869
 21
89.7651615032
  0
LWPOLYLINE
  5
22E
100
AcDbEntity
  8
RUNDUNGEN
100
AcDbPolyline
 62
7
  6
CONTINUOUS
 90
3
 70
0
 10
27.2065046302
 20
107.5962711256
 10
27.2093824296
 20
107.6158440256
 10
27.334748931
 20
108.4024492016
  0
LINE
  5
22F
100
AcDbEntity
  8
RUNDUNGEN
100
AcDbLine
 62
7
  6
CONTINUOUS
 10
27.334748931
 20
108.4024492016
 11
27.3648890705
 21
108.5962711256
  0
LINE
  5
230
100
AcDbEntity
  8
RUNDUNGEN
100
AcDbLine
 62
7
  6
CONTINUOUS
 10
23.4574807807
 20
119.769500583
 11
23.5544139757
 21
120.148893953
  0
LINE
  5
231
100
AcDbEntity
  8
RUNDUNGEN
100
AcDbLine
 62
7
  6
CONTINUOUS
 10
28.2521777117
 20
137.6635493064
 11
28.1464260024
 21
137.2865173024
  0
LWPOLYLINE
  5
232
100
AcDbEntity
  8
RUNDUNGEN
100
AcDbPolyline
 62
7
  6
CONTINUOUS
 90
3
 70
0
 10
37.5855408854
 20
146.3313617636
 10
37.5786565381
 20
146.3128149066
 10
37.2924851834
 20
145.5694641023
  0
LINE
  5
233
100
AcDbEntity
  8
RUNDUNGEN
100
AcDbLine
 62
7
  6
CONTINUOUS
 10
37.2924851834
 20
145.5694641023
 11
37.2227058343
 21
145.3861441397
  0
LINE
  5
234
100
AcDbEntity
  8
RUNDUNGEN
100
AcDbLine
 62
7
  6
CONTINUOUS
 10
43.1627956384
 20
163.2534493025
 11
43.3084412075
 21
163.616837224
  0
LINE
  5
235
100
AcDbEntity
  8
RUNDUNGEN
100
AcDbLine
 62
7
  6
CONTINUOUS
 10
23.2884236502
 20
119.4162285206
 11
23.4574807807
 21
119.769500583
  0
LINE
  5
236
100
AcDbEntity
  8
RUNDUNGEN
100
AcDbLine
 62
7
  6
CONTINUOUS
 10
28.1464260024
 20
137.2865173024
 11
27.9692099288
 21
136.9373902412
  0
LINE
  5
237
100
AcDbEntity
  8
RUNDUNGEN
100
AcDbLine
 62
7
  6
CONTINUOUS
 10
42.9490490145
 20
162.9254116592
 11
43.1627956384
 21
163.2534493025
  0
LINE
  5
238
100
AcDbEntity
  8
RUNDUNGEN
100
AcDbLine
 62
7
  6
CONTINUOUS
 10
55.9961746197
 20
176.0677089992
 11
55.7747594284
 21
175.7446662671
  0
LINE
  5
239
100
AcDbEntity
  8
RUNDUNGEN
100
AcDbLine
 62
7
  6
CONTINUOUS
 10
27.9692099288
 20
136.9373902412
 11
27.7273289993
 21
136.6295635916
  0
LWPOLYLINE
  5
23A
100
AcDbEntity
  8
RUNDUNGEN
100
AcDbPolyline
 62
7
  6
CONTINUOUS
 90
3
 70
0
 10
39.8355408854
 20
150.2284760807
 10
39.8478195828
 20
150.2439878095
 10
40.3496927458
 20
150.862524624
  0
LINE
  5
23B
100
AcDbEntity
  8
RUNDUNGEN
100
AcDbLine
 62
7
  6
CONTINUOUS
 10
40.3496927458
 20
150.862524624
 11
40.4727058343
 21
151.0153092643
  0
LINE
  5
23C
100
AcDbEntity
  8
RUNDUNGEN
100
AcDbLine
 62
7
  6
CONTINUOUS
 10
42.6754057215
 20
162.6453139624
 11
42.9490490145
 21
162.9254116592
  0
LINE
  5
23D
100
AcDbEntity
  8
RUNDUNGEN
100
AcDbLine
 62
7
  6
CONTINUOUS
 10
55.7747594284
 20
175.7446662671
 11
55.4946597597
 21
175.4710228282
  0
LWPOLYLINE
  5
23E
100
AcDbEntity
  8
RUNDUNGEN
100
AcDbPolyline
 62
7
  6
CONTINUOUS
 90
3
 70
0
 10
68.1915952682
 20
178.5845304634
 10
68.17635982
 20
178.5719105878
 10
67.5568527549
 20
178.0712355846
  0
LINE
  5
23F
100
AcDbEntity
  8
RUNDUNGEN
100
AcDbLine
 62
7
  6
CONTINUOUS
 10
67.5568527549
 20
178.0712355846
 11
67.4047620846
 21
177.9473655146
  0
LINE
  5
240
100
AcDbEntity
  8
RUNDUNGEN
100
AcDbLine
 62
7
  6
CONTINUOUS
 10
81.4826832144
 20
190.4508608348
 11
81.790509944
 21
190.6927412328
  0
LINE
  5
241
100
AcDbEntity
  8
RUNDUNGEN
100
AcDbLine
 62
7
  6
CONTINUOUS
 10
42.35236192
 20
162.4238999477
 11
42.6754057215
 21
162.6453139624
  0
LINE
  5
242
100
AcDbEntity
  8
RUNDUNGEN
100
AcDbLine
 62
7
  6
CONTINUOUS
 10
55.4946597597
 20
175.4710228282
 11
55.1666226074
 21
175.2572779609
  0
LINE
  5
243
100
AcDbEntity
  8
RUNDUNGEN
100
AcDbLine
 62
7
  6
CONTINUOUS
 10
81.1335547433
 20
190.2736452807
 11
81.4826832144
 21
190.4508608348
  0
LINE
  5
244
100
AcDbEntity
  8
RUNDUNGEN
100
AcDbLine
 62
7
  6
CONTINUOUS
 10
99.0038453991
 20
195.1316457185
 11
98.6505728526
 21
194.9625901014
  0
LINE
  5
245
100
AcDbEntity
  8
RUNDUNGEN
100
AcDbLine
 62
7
  6
CONTINUOUS
 10
55.1666226074
 20
175.2572779609
 11
54.8032342529
 21
175.1116327272
  0
LWPOLYLINE
  5
246
100
AcDbEntity
  8
RUNDUNGEN
100
AcDbPolyline
 62
7
  6
CONTINUOUS
 90
3
 70
0
 10
72.0887095852
 20
180.8345304634
 10
72.1070991135
 20
180.841824666
 10
72.8510024294
 20
181.126556679
  0
LINE
  5
247
100
AcDbEntity
  8
RUNDUNGEN
100
AcDbLine
 62
7
  6
CONTINUOUS
 10
72.8510024294
 20
181.126556679
 11
73.0339272092
 21
181.1973655146
  0
LINE
  5
248
100
AcDbEntity
  8
0
100
AcDbLine
 62
7
  6
CONTINUOUS
 10
87.5110259595
 20
185.3882960456
 11
86.3691080524
 21
185.0194824161
  0
LINE
  5
249
100
AcDbEntity
  8
0
100
AcDbLine
 62
7
  6
CONTINUOUS
 10
86.7526762487
 20
184.8079842886
 11
87.6566945465
 21
185.0999617306
  0
LINE
  5
24A
100
AcDbEntity
  8
0
100
AcDbLine
 62
7
  6
CONTINUOUS
 10
87.9509607601
 20
184.1888569559
 11
87.0469424623
 21
183.8968795139
  0
LINE
  5
24B
100
AcDbEntity
  8
0
100
AcDbLine
 62
7
  6
CONTINUOUS
 10
87.1646489257
 20
183.5324376721
 11
88.0210873561
 21
183.8090478942
  0
LINE
  5
24C
100
AcDbEntity
  8
0
100
AcDbLine
 62
7
  6
CONTINUOUS
 10
89.0896367705
 20
184.8756638091
 11
88.8501112681
 21
184.8040573426
  0
LINE
  5
24D
100
AcDbEntity
  8
RUNDUNGEN
100
AcDbLine
 62
7
  6
CONTINUOUS
 10
145.391076829
 20
20.5246471656
 11
145.0140459372
 21
20.4188970912
  0
LINE
  5
24E
100
AcDbEntity
  8
RUNDUNGEN
100
AcDbLine
 62
7
  6
CONTINUOUS
 10
127.4970275933
 20
15.7299521501
 11
127.8764227414
 21
15.8268844853
  0
LWPOLYLINE
  5
24F
100
AcDbEntity
  8
RUNDUNGEN
100
AcDbPolyline
 62
7
  6
CONTINUOUS
 90
3
 70
0
 10
115.3238002232
 20
19.4789755326
 10
115.3433044462
 20
19.4822869415
 10
116.130150804
 20
19.6061306806
  0
LINE
  5
250
100
AcDbEntity
  8
RUNDUNGEN
100
AcDbLine
 62
7
  6
CONTINUOUS
 10
116.130150804
 20
19.6061306806
 11
116.3238002232
 21
19.637359973
  0
LINE
  5
251
100
AcDbEntity
  8
RUNDUNGEN
100
AcDbLine
 62
7
  6
CONTINUOUS
 10
97.880215153
 20
15.8479760627
 11
97.492689197
 21
15.7924148647
  0
LINE
  5
252
100
AcDbEntity
  8
RUNDUNGEN
100
AcDbLine
 62
7
  6
CONTINUOUS
 10
145.7815479749
 20
20.5548754264
 11
145.391076829
 21
20.5246471656
  0
LINE
  5
253
100
AcDbEntity
  8
RUNDUNGEN
100
AcDbLine
 62
7
  6
CONTINUOUS
 10
127.8764227414
 20
15.8268844853
 11
128.2673836823
 21
15.8479743942
  0
LINE
  5
254
100
AcDbEntity
  8
RUNDUNGEN
100
AcDbLine
 62
7
  6
CONTINUOUS
 10
98.2711773974
 20
15.8268848781
 11
97.880215153
 21
15.8479760627
  0
LINE
  5
255
100
AcDbEntity
  8
RUNDUNGEN
100
AcDbLine
 62
7
  6
CONTINUOUS
 10
80.3660512343
 20
20.5548784285
 11
80.7565220425
 21
20.5246486141
  0
LINE
  5
256
100
AcDbEntity
  8
RUNDUNGEN
100
AcDbLine
 62
7
  6
CONTINUOUS
 10
128.2673836823
 20
15.8479743942
 11
128.6549098457
 21
15.7924126894
  0
LWPOLYLINE
  5
257
100
AcDbEntity
  8
RUNDUNGEN
100
AcDbPolyline
 62
7
  6
CONTINUOUS
 90
3
 70
0
 10
110.8238002232
 20
19.4789755326
 10
110.8042273233
 20
19.481853332
 10
110.0176221473
 20
19.6072198334
  0
LINE
  5
258
100
AcDbEntity
  8
RUNDUNGEN
100
AcDbLine
 62
7
  6
CONTINUOUS
 10
110.0176221473
 20
19.6072198334
 11
109.8238002232
 21
19.637359973
  0
LINE
  5
259
100
AcDbEntity
  8
RUNDUNGEN
100
AcDbLine
 62
7
  6
CONTINUOUS
 10
98.6505707649
 20
15.7299516831
 11
98.2711773974
 21
15.8268848781
  0
LINE
  5
25A
100
AcDbEntity
  8
RUNDUNGEN
100
AcDbLine
 62
7
  6
CONTINUOUS
 10
80.7565220425
 20
20.5246486141
 11
81.1335540465
 21
20.4188969048
  0
LWPOLYLINE
  5
25B
100
AcDbEntity
  8
RUNDUNGEN
100
AcDbPolyline
 62
7
  6
CONTINUOUS
 90
3
 70
0
 10
72.0887095852
 20
29.8580117878
 10
72.1072564422
 20
29.8511274405
 10
72.8506072466
 20
29.5649560858
  0
LINE
  5
25C
100
AcDbEntity
  8
RUNDUNGEN
100
AcDbLine
 62
7
  6
CONTINUOUS
 10
72.8506072466
 20
29.5649560858
 11
73.0339272092
 21
29.4951767367
  0
LINE
  5
25D
100
AcDbEntity
  8
RUNDUNGEN
100
AcDbLine
 62
7
  6
CONTINUOUS
 10
55.1666220464
 20
35.4352665409
 11
54.8032341248
 21
35.5809121099
  0
LINE
  5
25E
100
AcDbEntity
  8
RUNDUNGEN
100
AcDbLine
 62
7
  6
CONTINUOUS
 10
99.0038428271
 20
15.5608945519
 11
98.6505707649
 21
15.7299516831
  0
LINE
  5
25F
100
AcDbEntity
  8
RUNDUNGEN
100
AcDbLine
 62
7
  6
CONTINUOUS
 10
81.1335540465
 20
20.4188969048
 11
81.4826811076
 21
20.2416808312
  0
LINE
  5
260
100
AcDbEntity
  8
RUNDUNGEN
100
AcDbLine
 62
7
  6
CONTINUOUS
 10
55.4946596897
 20
35.221519917
 11
55.1666220464
 21
35.4352665409
  0
LINE
  5
261
100
AcDbEntity
  8
RUNDUNGEN
100
AcDbLine
 62
7
  6
CONTINUOUS
 10
42.3523623496
 20
48.2686455221
 11
42.6754050818
 21
48.0472303308
  0
LINE
  5
262
100
AcDbEntity
  8
RUNDUNGEN
100
AcDbLine
 62
7
  6
CONTINUOUS
 10
81.4826811076
 20
20.2416808312
 11
81.7905077573
 21
19.9997999017
  0
LWPOLYLINE
  5
263
100
AcDbEntity
  8
RUNDUNGEN
100
AcDbPolyline
 62
7
  6
CONTINUOUS
 90
3
 70
0
 10
68.1915952682
 20
32.1080117878
 10
68.1760835393
 20
32.1202904852
 10
67.5575467248
 20
32.6221636482
  0
LINE
  5
264
100
AcDbEntity
  8
RUNDUNGEN
100
AcDbLine
 62
7
  6
CONTINUOUS
 10
67.5575467248
 20
32.6221636482
 11
67.4047620846
 21
32.7451767367
  0
LINE
  5
265
100
AcDbEntity
  8
RUNDUNGEN
100
AcDbLine
 62
7
  6
CONTINUOUS
 10
55.7747573865
 20
34.9478766239
 11
55.4946596897
 21
35.221519917
  0
LINE
  5
266
100
AcDbEntity
  8
RUNDUNGEN
100
AcDbLine
 62
7
  6
CONTINUOUS
 10
42.6754050818
 20
48.0472303308
 11
42.9490485206
 21
47.7671306621
  0
LWPOLYLINE
  5
267
100
AcDbEntity
  8
RUNDUNGEN
100
AcDbPolyline
 62
7
  6
CONTINUOUS
 90
3
 70
0
 10
39.8355408854
 20
60.4640661706
 10
39.8481607611
 20
60.4488307225
 10
40.3488357642
 20
59.8293236573
  0
LINE
  5
268
100
AcDbEntity
  8
RUNDUNGEN
100
AcDbLine
 62
7
  6
CONTINUOUS
 10
40.3488357642
 20
59.8293236573
 11
40.4727058343
 21
59.677232987
  0
LINE
  5
269
100
AcDbEntity
  8
RUNDUNGEN
100
AcDbLine
 62
7
  6
CONTINUOUS
 10
27.9692105682
 20
73.7551542395
 11
27.7273301813
 21
74.0629809631
  0
LINE
  5
26A
100
AcDbEntity
  8
RUNDUNGEN
100
AcDbLine
 62
7
  6
CONTINUOUS
 10
55.9961714012
 20
34.6248328224
 11
55.7747573865
 21
34.9478766239
  0
LINE
  5
26B
100
AcDbEntity
  8
RUNDUNGEN
100
AcDbLine
 62
7
  6
CONTINUOUS
 10
42.9490485206
 20
47.7671306621
 11
43.1627933879
 21
47.4390935098
  0
LINE
  5
26C
100
AcDbEntity
  8
RUNDUNGEN
100
AcDbLine
 62
7
  6
CONTINUOUS
 10
28.1464261888
 20
73.4060254116
 11
27.9692105682
 21
73.7551542395
  0
LINE
  5
26D
100
AcDbEntity
  8
RUNDUNGEN
100
AcDbLine
 62
7
  6
CONTINUOUS
 10
23.2884256307
 20
91.2763163021
 11
23.4574812477
 21
90.9230437555
  0
LINE
  5
26E
100
AcDbEntity
  8
RUNDUNGEN
100
AcDbLine
 62
7
  6
CONTINUOUS
 10
43.1627933879
 20
47.4390935098
 11
43.3084386217
 21
47.0757051553
  0
LWPOLYLINE
  5
26F
100
AcDbEntity
  8
RUNDUNGEN
100
AcDbPolyline
 62
7
  6
CONTINUOUS
 90
3
 70
0
 10
37.5855408854
 20
64.3611804876
 10
37.5782466828
 20
64.3795700159
 10
37.2935146698
 20
65.1234733318
  0
LINE
  5
270
100
AcDbEntity
  8
RUNDUNGEN
100
AcDbLine
 62
7
  6
CONTINUOUS
 10
37.2935146698
 20
65.1234733318
 11
37.2227058343
 21
65.3063981116
  0
LINE
  5
271
100
AcDbEntity
  8
RUNDUNGEN
100
AcDbLine
 62
7
  6
CONTINUOUS
 10
28.2521762632
 20
73.0289945199
 11
28.1464261888
 21
73.4060254116
  0
LINE
  5
272
100
AcDbEntity
  8
RUNDUNGEN
100
AcDbLine
 62
7
  6
CONTINUOUS
 10
23.4574812477
 20
90.9230437555
 11
23.5544135829
 21
90.5436486074
  0
LWPOLYLINE
  5
273
100
AcDbEntity
  8
RUNDUNGEN
100
AcDbPolyline
 62
7
  6
CONTINUOUS
 90
3
 70
0
 10
27.2065046302
 20
103.0962711256
 10
27.2098160391
 20
103.0767669027
 10
27.3336597782
 20
102.2899205448
  0
LINE
  5
274
100
AcDbEntity
  8
RUNDUNGEN
100
AcDbLine
 62
7
  6
CONTINUOUS
 10
27.3336597782
 20
102.2899205448
 11
27.3648890705
 21
102.0962711256
  0
LINE
  5
275
100
AcDbEntity
  8
RUNDUNGEN
100
AcDbLine
 62
7
  6
CONTINUOUS
 10
23.5755051593
 20
120.5398561951
 11
23.5199439612
 21
120.9273821512
  0
LINE
  5
276
100
AcDbEntity
  8
RUNDUNGEN
100
AcDbLine
 62
7
  6
CONTINUOUS
 10
43.3803964326
 20
46.6909056282
 11
43.8510449931
 21
41.2758130154
  0
LINE
  5
277
100
AcDbEntity
  8
RUNDUNGEN
100
AcDbLine
 62
7
  6
CONTINUOUS
 10
43.8510449931
 20
169.4167292359
 11
43.3803964213
 21
164.0016364926
  0
LINE
  5
278
100
AcDbEntity
  8
RUNDUNGEN
100
AcDbLine
 62
7
  6
CONTINUOUS
 10
28.2359507314
 20
72.2495953536
 11
28.2824045239
 21
72.6385233739
  0
LINE
  5
279
100
AcDbEntity
  8
RUNDUNGEN
100
AcDbLine
 62
7
  6
CONTINUOUS
 10
43.3084412075
 20
163.616837224
 11
43.38039856
 21
164.0016337809
  0
LINE
  5
27A
100
AcDbEntity
  8
RUNDUNGEN
100
AcDbLine
 62
7
  6
CONTINUOUS
 10
27.2281677614
 20
67.6801575676
 11
28.2332336267
 21
72.2520686632
  0
LINE
  5
27B
100
AcDbEntity
  8
RUNDUNGEN
100
AcDbLine
 62
7
  6
CONTINUOUS
 10
27.2280865438
 20
67.6797839917
 11
27.2280781918
 21
67.6797501245
  0
LINE
  5
27C
100
AcDbEntity
  8
RUNDUNGEN
100
AcDbLine
 62
7
  6
CONTINUOUS
 10
57.5625167383
 20
180.8893931982
 11
57.5625268069
 21
180.8894291192
  0
LINE
  5
27D
100
AcDbEntity
  8
RUNDUNGEN
100
AcDbLine
 62
7
  6
CONTINUOUS
 10
56.1468155087
 20
176.4269744692
 11
57.5623750228
 21
180.888950684
  0
LINE
  5
27E
100
AcDbEntity
  8
RUNDUNGEN
100
AcDbLine
 62
7
  6
CONTINUOUS
 10
23.5199417869
 20
89.7651615032
 11
23.3898602855
 21
89.3959389008
  0
LINE
  5
27F
100
AcDbEntity
  8
RUNDUNGEN
100
AcDbLine
 62
7
  6
CONTINUOUS
 10
56.150409973
 20
176.4277563716
 11
55.9961746197
 21
176.0677089992
  0
LINE
  5
280
100
AcDbEntity
  8
RUNDUNGEN
100
AcDbLine
 62
7
  6
CONTINUOUS
 10
23.3898593156
 20
89.3959364318
 11
21.0899066189
 21
84.4710043851
  0
LINE
  5
281
100
AcDbEntity
  8
RUNDUNGEN
100
AcDbLine
 62
7
  6
CONTINUOUS
 10
85.1603647291
 20
195.4442930963
 11
82.0452232959
 21
190.9900074405
  0
LINE
  5
282
100
AcDbEntity
  8
RUNDUNGEN
100
AcDbLine
 62
7
  6
CONTINUOUS
 10
23.0537294765
 20
119.1026338706
 11
23.2884236502
 21
119.4162285206
  0
LINE
  5
283
100
AcDbEntity
  8
RUNDUNGEN
100
AcDbLine
 62
7
  6
CONTINUOUS
 10
81.790509944
 20
190.6927412328
 11
82.0452251469
 21
190.990006146
  0
LINE
  5
284
100
AcDbEntity
  8
RUNDUNGEN
100
AcDbLine
 62
7
  6
CONTINUOUS
 10
19.8962449284
 20
115.6492761534
 11
23.052613051
 21
119.1061343769
  0
LINE
  5
285
100
AcDbEntity
  8
RUNDUNGEN
100
AcDbLine
 62
7
  6
CONTINUOUS
 10
19.8960024473
 20
115.6490094194
 11
19.8959795546
 21
115.6489855149
  0
LINE
  5
286
100
AcDbEntity
  8
RUNDUNGEN
100
AcDbLine
 62
7
  6
CONTINUOUS
 10
102.7709035624
 20
198.5239253676
 11
99.3139366669
 21
195.3674580193
  0
LINE
  5
287
100
AcDbEntity
  8
0
100
AcDbLine
 62
7
  6
CONTINUOUS
 10
88.0740827546
 20
184.2956989665
 11
87.9509607601
 21
184.1888569559
  0
LINE
  5
288
100
AcDbEntity
  8
RUNDUNGEN
100
AcDbLine
 62
7
  6
CONTINUOUS
 10
27.7273289993
 20
136.6295635916
 11
27.4300638133
 21
136.3748481889
  0
LINE
  5
289
100
AcDbEntity
  8
0
100
AcDbLine
 62
7
  6
CONTINUOUS
 10
89.49116041
 20
184.9290787904
 11
89.3657275607
 21
184.8249594307
  0
LINE
  5
28A
100
AcDbEntity
  8
RUNDUNGEN
100
AcDbLine
 62
7
  6
CONTINUOUS
 10
99.3174408195
 20
195.3663382131
 11
99.0038453991
 21
195.1316457185
  0
LINE
  5
28B
100
AcDbEntity
  8
RUNDUNGEN
100
AcDbLine
 62
7
  6
CONTINUOUS
 10
27.4300617389
 20
136.3748465357
 11
22.9757782526
 21
133.2597066198
  0
LINE
  5
28C
100
AcDbEntity
  8
0
100
AcDbLine
 62
7
  6
CONTINUOUS
 10
90.7140524292
 20
185.3475590881
 11
90.5383387999
 21
185.232672688
  0
LINE
  5
28D
100
AcDbEntity
  8
0
100
AcDbLine
 62
7
  6
CONTINUOUS
 10
90.702845998
 20
185.0132980883
 11
90.8785599031
 21
185.1281845649
  0
LINE
  5
28E
100
AcDbEntity
  8
0
100
AcDbLine
 62
7
  6
CONTINUOUS
 10
91.6558229368
 20
183.8200806471
 11
91.4801090377
 21
183.7051941491
  0
LINE
  5
28F
100
AcDbEntity
  8
0
100
AcDbLine
 62
7
  6
CONTINUOUS
 10
91.6446165175
 20
183.4858196042
 11
91.8203301454
 21
183.6007060098
  0
LINE
  5
290
100
AcDbEntity
  8
0
100
AcDbLine
 62
7
  6
CONTINUOUS
 10
88.0210873561
 20
183.8090478942
 11
88.2393692216
 21
183.9466243886
  0
LINE
  5
291
100
AcDbEntity
  8
0
100
AcDbLine
 62
7
  6
CONTINUOUS
 10
89.7124034055
 20
185.0618407204
 11
89.49116041
 21
184.9290787904
  0
LINE
  5
292
100
AcDbEntity
  8
0
100
AcDbLine
 62
7
  6
CONTINUOUS
 10
94.0849629188
 20
186.2137457673
 11
93.9048501363
 21
186.1058868313
  0
LINE
  5
293
100
AcDbEntity
  8
0
100
AcDbLine
 62
7
  6
CONTINUOUS
 10
93.9632152376
 20
185.8573282523
 11
94.14332802
 21
185.9651871882
  0
LINE
  5
294
100
AcDbEntity
  8
0
100
AcDbLine
 62
7
  6
CONTINUOUS
 10
89.5346677343
 20
184.6089801471
 11
89.8038159399
 21
184.7560634032
  0
LINE
  5
295
100
AcDbEntity
  8
RUNDUNGEN
100
AcDbLine
 62
7
  6
CONTINUOUS
 10
133.9490669637
 20
197.33016473
 11
129.0241347983
 21
195.0302119778
  0
LINE
  5
296
100
AcDbEntity
  8
RUNDUNGEN
100
AcDbLine
 62
7
  6
CONTINUOUS
 10
41.9923134779
 20
162.2696661019
 11
42.35236192
 21
162.4238999477
  0
LINE
  5
297
100
AcDbEntity
  8
RUNDUNGEN
100
AcDbLine
 62
7
  6
CONTINUOUS
 10
128.6549112495
 20
194.9001273866
 11
129.0241335192
 21
195.0302087697
  0
LINE
  5
298
100
AcDbEntity
  8
0
100
AcDbLine
 62
7
  6
CONTINUOUS
 10
87.2911421259
 20
182.1646876482
 11
87.5766216027
 21
182.2568910555
  0
LINE
  5
299
100
AcDbEntity
  8
RUNDUNGEN
100
AcDbLine
 62
7
  6
CONTINUOUS
 10
37.531174174
 20
160.8577133018
 11
41.9930968745
 21
162.2732558385
  0
LINE
  5
29A
100
AcDbEntity
  8
0
100
AcDbLine
 62
7
  6
CONTINUOUS
 10
89.4351515397
 20
182.8470823411
 11
89.674677042
 21
182.9186888076
  0
LINE
  5
29B
100
AcDbEntity
  8
RUNDUNGEN
100
AcDbLine
 62
7
  6
CONTINUOUS
 10
37.5308083141
 20
160.8575962944
 11
37.5307745938
 21
160.8575865345
  0
LINE
  5
29C
100
AcDbEntity
  8
RUNDUNGEN
100
AcDbLine
 62
7
  6
CONTINUOUS
 10
79.9795977715
 20
20.5057045314
 11
75.4075451554
 21
19.5006075551
  0
LINE
  5
29D
100
AcDbEntity
  8
RUNDUNGEN
100
AcDbLine
 62
7
  6
CONTINUOUS
 10
171.3443661935
 20
35.5809095241
 11
171.7291630976
 21
35.6528669406
  0
LINE
  5
29E
100
AcDbEntity
  8
RUNDUNGEN
100
AcDbLine
 62
7
  6
CONTINUOUS
 10
79.9771233866
 20
20.5084264765
 11
80.3660512343
 21
20.5548784285
  0
LINE
  5
29F
100
AcDbEntity
  8
RUNDUNGEN
100
AcDbLine
 62
7
  6
CONTINUOUS
 10
171.7291657202
 20
35.652867335
 11
177.1442583334
 21
36.1235158955
  0
LINE
  5
2A0
100
AcDbEntity
  8
RUNDUNGEN
100
AcDbLine
 62
7
  6
CONTINUOUS
 10
49.003342113
 20
36.1235158955
 11
54.4184348562
 21
35.6528673237
  0
LINE
  5
2A1
100
AcDbEntity
  8
RUNDUNGEN
100
AcDbLine
 62
7
  6
CONTINUOUS
 10
146.1704759952
 20
20.5084216338
 11
145.7815479749
 21
20.5548754264
  0
LINE
  5
2A2
100
AcDbEntity
  8
RUNDUNGEN
100
AcDbLine
 62
7
  6
CONTINUOUS
 10
54.8032341248
 20
35.5809121099
 11
54.418437568
 21
35.6528694624
  0
LINE
  5
2A3
100
AcDbEntity
  8
RUNDUNGEN
100
AcDbLine
 62
7
  6
CONTINUOUS
 10
150.7399138533
 20
19.500638648
 11
146.1680026856
 21
20.5057045291
  0
LINE
  5
2A4
100
AcDbEntity
  8
RUNDUNGEN
100
AcDbLine
 62
7
  6
CONTINUOUS
 10
150.7402812086
 20
19.50055877
 11
150.7403144723
 21
19.5005505786
  0
LINE
  5
2A5
100
AcDbEntity
  8
RUNDUNGEN
100
AcDbLine
 62
7
  6
CONTINUOUS
 10
37.5306792352
 20
49.8349872821
 11
37.530643544
 21
49.8349972924
  0
LINE
  5
2A6
100
AcDbEntity
  8
RUNDUNGEN
100
AcDbLine
 62
7
  6
CONTINUOUS
 10
41.9930968797
 20
48.4192864111
 11
37.5311192781
 21
49.8348463652
  0
LINE
  5
2A7
100
AcDbEntity
  8
RUNDUNGEN
100
AcDbLine
 62
7
  6
CONTINUOUS
 10
128.6549098457
 20
15.7924126894
 11
129.0241324481
 21
15.662331188
  0
LINE
  5
2A8
100
AcDbEntity
  8
RUNDUNGEN
100
AcDbLine
 62
7
  6
CONTINUOUS
 10
41.9923149772
 20
48.4228808755
 11
42.3523623496
 21
48.2686455221
  0
LINE
  5
2A9
100
AcDbEntity
  8
RUNDUNGEN
100
AcDbLine
 62
7
  6
CONTINUOUS
 10
129.0241349166
 20
15.6623302183
 11
133.9490669637
 21
13.3623775213
  0
LINE
  5
2AA
100
AcDbEntity
  8
RUNDUNGEN
100
AcDbLine
 62
7
  6
CONTINUOUS
 10
22.9757782526
 20
77.4328356315
 11
27.4300618462
 21
74.3176956405
  0
LINE
  5
2AB
100
AcDbEntity
  8
RUNDUNGEN
100
AcDbLine
 62
7
  6
CONTINUOUS
 10
99.3174374767
 20
15.3262003773
 11
99.0038428271
 21
15.5608945519
  0
LINE
  5
2AC
100
AcDbEntity
  8
RUNDUNGEN
100
AcDbLine
 62
7
  6
CONTINUOUS
 10
27.7273301813
 20
74.0629809631
 11
27.430065264
 21
74.3176961368
  0
LINE
  5
2AD
100
AcDbEntity
  8
RUNDUNGEN
100
AcDbLine
 62
7
  6
CONTINUOUS
 10
102.7707952499
 20
12.1687157811
 11
99.3139369754
 21
15.3250839503
  0
LINE
  5
2AE
100
AcDbEntity
  8
RUNDUNGEN
100
AcDbLine
 62
7
  6
CONTINUOUS
 10
102.7710734499
 20
12.168462927
 11
102.7710981614
 21
12.1684392011
  0
LINE
  5
2AF
100
AcDbEntity
  8
RUNDUNGEN
100
AcDbLine
 62
7
  6
CONTINUOUS
 10
19.8958964447
 20
95.0436496144
 11
19.8958705403
 21
95.0436761292
  0
LINE
  5
2B0
100
AcDbEntity
  8
RUNDUNGEN
100
AcDbLine
 62
7
  6
CONTINUOUS
 10
23.0526130516
 20
91.5864078738
 11
19.8962070746
 21
95.0433075554
  0
LINE
  5
2B1
100
AcDbEntity
  8
RUNDUNGEN
100
AcDbLine
 62
7
  6
CONTINUOUS
 10
81.7905077573
 20
19.9997999017
 11
82.0452231599
 21
19.7025347157
  0
LINE
  5
2B2
100
AcDbEntity
  8
RUNDUNGEN
100
AcDbLine
 62
7
  6
CONTINUOUS
 10
23.0537331364
 20
91.5899117224
 11
23.2884256307
 21
91.2763163021
  0
LINE
  5
2B3
100
AcDbEntity
  8
RUNDUNGEN
100
AcDbLine
 62
7
  6
CONTINUOUS
 10
82.0452248128
 20
19.7025326417
 11
85.1603647291
 21
15.248249155
  0
LINE
  5
2B4
100
AcDbEntity
  8
RUNDUNGEN
100
AcDbLine
 62
7
  6
CONTINUOUS
 10
21.0899066189
 20
126.2215378661
 11
23.3898593713
 21
121.2966057003
  0
LINE
  5
2B5
100
AcDbEntity
  8
RUNDUNGEN
100
AcDbLine
 62
7
  6
CONTINUOUS
 10
56.1504052469
 20
34.2647843803
 11
55.9961714012
 21
34.6248328224
  0
LINE
  5
2B6
100
AcDbEntity
  8
RUNDUNGEN
100
AcDbLine
 62
7
  6
CONTINUOUS
 10
23.5199439612
 20
120.9273821512
 11
23.389862578
 21
121.2966044211
  0
LINE
  5
2B7
100
AcDbEntity
  8
RUNDUNGEN
100
AcDbLine
 62
7
  6
CONTINUOUS
 10
57.5623584864
 20
29.8036436917
 11
56.1468155103
 21
34.2655677769
  0
LINE
  5
2B8
100
AcDbEntity
  8
RUNDUNGEN
100
AcDbLine
 62
7
  6
CONTINUOUS
 10
57.5624749378
 20
29.8032795566
 11
57.5624846384
 21
29.8032460508
  0
LINE
  5
2B9
100
AcDbEntity
  8
RUNDUNGEN
100
AcDbLine
 62
7
  6
CONTINUOUS
 10
27.2280574923
 20
143.0128921792
 11
27.2280482515
 21
143.012928322
  0
LINE
  5
2BA
100
AcDbEntity
  8
RUNDUNGEN
100
AcDbLine
 62
7
  6
CONTINUOUS
 10
28.2332336278
 20
138.4404735827
 11
27.2281560202
 21
143.0124380929
  0
LINE
  5
2BB
100
AcDbEntity
  8
RUNDUNGEN
100
AcDbLine
 62
7
  6
CONTINUOUS
 10
43.3084386217
 20
47.0757051553
 11
43.3803960381
 21
46.6909082513
  0
LINE
  5
2BC
100
AcDbEntity
  8
RUNDUNGEN
100
AcDbLine
 62
7
  6
CONTINUOUS
 10
28.235955574
 20
138.4429479623
 11
28.2824075261
 21
138.0540201146
  0
LINE
  5
2BD
100
AcDbEntity
  8
0
100
AcDbLine
 62
7
  6
CONTINUOUS
 10
93.9048501363
 20
186.1058868313
 11
93.7880045043
 21
185.9473180407
  0
LINE
  5
2BE
100
AcDbEntity
  8
0
100
AcDbLine
 62
7
  6
CONTINUOUS
 10
89.3796121818
 20
184.4293839979
 11
89.5346677343
 21
184.6089801471
  0
LINE
  5
2BF
100
AcDbEntity
  8
0
100
AcDbLine
 62
7
  6
CONTINUOUS
 10
91.8203301454
 20
183.6007060098
 11
91.8996702493
 21
183.6889067486
  0
LINE
  5
2C0
100
AcDbEntity
  8
0
100
AcDbLine
 62
7
  6
CONTINUOUS
 10
90.5383387999
 20
185.232672688
 11
90.4589984188
 21
185.1444718782
  0
LINE
  5
2C1
100
AcDbEntity
  8
0
100
AcDbLine
 62
7
  6
CONTINUOUS
 10
129.4878247083
 20
187.1890533391
 11
129.3578775576
 21
187.1294469663
  0
LINE
  5
2C2
100
AcDbEntity
  8
0
100
AcDbLine
 62
7
  6
CONTINUOUS
 10
129.5353433213
 20
185.2450401792
 11
129.6652906361
 21
185.30464653
  0
LINE
  5
2C3
100
AcDbEntity
  8
0
100
AcDbLine
 62
7
  6
CONTINUOUS
 10
135.837568918
 20
185.6549890168
 11
135.7033327039
 21
185.6057965699
  0
LINE
  5
2C4
100
AcDbEntity
  8
0
100
AcDbLine
 62
7
  6
CONTINUOUS
 10
138.4968950187
 20
184.85304726
 11
138.361120275
 21
184.8082775793
  0
LINE
  5
2C5
100
AcDbEntity
  8
0
100
AcDbLine
 62
7
  6
CONTINUOUS
 10
138.3277028085
 20
182.9158276666
 11
138.4634775556
 21
182.9605973578
  0
LINE
  5
2C6
100
AcDbEntity
  8
0
100
AcDbLine
 62
7
  6
CONTINUOUS
 10
88.2393692216
 20
183.9466243886
 11
88.3708355957
 21
184.1903142331
  0
LINE
  5
2C7
100
AcDbEntity
  8
0
100
AcDbLine
 62
7
  6
CONTINUOUS
 10
89.3657275607
 20
184.8249594307
 11
89.2585772182
 21
184.6596846075
  0
LINE
  5
2C8
100
AcDbEntity
  8
0
100
AcDbLine
 62
7
  6
CONTINUOUS
 10
93.8463696056
 20
185.6987594617
 11
93.9632152376
 21
185.8573282523
  0
LINE
  5
2C9
100
AcDbEntity
  8
0
100
AcDbLine
 62
7
  6
CONTINUOUS
 10
131.7900349726
 20
185.612789574
 11
131.9315892363
 21
185.7090977693
  0
LINE
  5
2CA
100
AcDbEntity
  8
0
100
AcDbLine
 62
7
  6
CONTINUOUS
 10
129.3642133248
 20
186.870245253
 11
129.4658621837
 21
186.9355932233
  0
LINE
  5
2CB
100
AcDbEntity
  8
0
100
AcDbLine
 62
7
  6
CONTINUOUS
 10
129.6589548777
 20
185.5638482867
 11
129.5573060129
 21
185.4985002875
  0
LINE
  5
2CC
100
AcDbEntity
  8
0
100
AcDbLine
 62
7
  6
CONTINUOUS
 10
132.2536139979
 20
184.9399477182
 11
132.1498793624
 21
184.8779640661
  0
LINE
  5
2CD
100
AcDbEntity
  8
0
100
AcDbLine
 62
7
  6
CONTINUOUS
 10
133.3089363515
 20
186.0251076797
 11
133.4136238863
 21
186.0854675218
  0
LINE
  5
2CE
100
AcDbEntity
  8
0
100
AcDbLine
 62
7
  6
CONTINUOUS
 10
133.435517923
 20
184.6456345956
 11
133.3308300678
 21
184.5852748348
  0
LINE
  5
2CF
100
AcDbEntity
  8
0
100
AcDbLine
 62
7
  6
CONTINUOUS
 10
135.7008461325
 20
185.3873993722
 11
135.8073234976
 21
185.4445432122
  0
LINE
  5
2D0
100
AcDbEntity
  8
0
100
AcDbLine
 62
7
  6
CONTINUOUS
 10
131.952117031
 20
185.9207126338
 11
131.7824673881
 21
185.8310698728
  0
LINE
  5
2D1
100
AcDbEntity
  8
0
100
AcDbLine
 62
7
  6
CONTINUOUS
 10
132.1293515617
 20
184.6663491765
 11
132.2990012071
 21
184.7559919483
  0
LINE
  5
2D2
100
AcDbEntity
  8
0
100
AcDbLine
 62
7
  6
CONTINUOUS
 10
133.4374468375
 20
186.2967367555
 11
133.2664210001
 21
186.2097483143
  0
LINE
  5
2D3
100
AcDbEntity
  8
0
100
AcDbLine
 62
7
  6
CONTINUOUS
 10
133.3070077509
 20
184.3740054135
 11
133.4780332707
 21
184.4609939466
  0
LINE
  5
2D4
100
AcDbEntity
  8
0
100
AcDbLine
 62
7
  6
CONTINUOUS
 10
138.3385610296
 20
184.5499817576
 11
138.4468528745
 21
184.6036075355
  0
LINE
  5
2D5
100
AcDbEntity
  8
0
100
AcDbLine
 62
7
  6
CONTINUOUS
 10
138.4860361855
 20
183.2188934243
 11
138.3777443315
 21
183.1652676184
  0
LINE
  5
2D6
100
AcDbEntity
  8
0
100
AcDbLine
 62
7
  6
CONTINUOUS
 10
139.5834601172
 20
184.1865369052
 11
139.6925835927
 21
184.2384494744
  0
LINE
  5
2D7
100
AcDbEntity
  8
0
100
AcDbLine
 62
7
  6
CONTINUOUS
 10
139.5026276764
 20
183.7690742069
 11
139.2843807255
 21
183.6652490684
  0
LINE
  5
2D8
100
AcDbEntity
  8
0
100
AcDbLine
 62
7
  6
CONTINUOUS
 10
139.3530892511
 20
183.5084299192
 11
139.4622127265
 21
183.5603424884
  0
LINE
  5
2D9
100
AcDbEntity
  8
0
100
AcDbLine
 62
7
  6
CONTINUOUS
 10
139.682838145
 20
182.7735125245
 11
139.5737146696
 21
182.7215999553
  0
LINE
  5
2DA
100
AcDbEntity
  8
0
100
AcDbLine
 62
7
  6
CONTINUOUS
 10
139.7329985425
 20
184.4471811929
 11
139.5556439929
 21
184.3739561739
  0
LINE
  5
2DB
100
AcDbEntity
  8
0
100
AcDbLine
 62
7
  6
CONTINUOUS
 10
139.5332984598
 20
182.5128686375
 11
139.7106542646
 21
182.5860932418
  0
LINE
  5
2DC
100
AcDbEntity
  8
0
100
AcDbLine
 62
7
  6
CONTINUOUS
 10
88.1300071377
 20
184.4479140643
 11
88.0740827546
 21
184.2956989665
  0
LINE
  5
2DD
100
AcDbEntity
  8
0
100
AcDbLine
 62
7
  6
CONTINUOUS
 10
89.2585772182
 20
184.6596846075
 11
89.1993318118
 21
184.5087310284
  0
LINE
  5
2DE
100
AcDbEntity
  8
0
100
AcDbLine
 62
7
  6
CONTINUOUS
 10
96.0087912397
 20
185.7934281741
 11
96.3751930919
 21
186.7190609051
  0
LINE
  5
2DF
100
AcDbEntity
  8
0
100
AcDbLine
 62
7
  6
CONTINUOUS
 10
96.0816859598
 20
186.6569865941
 11
95.64386213
 21
185.585765266
  0
LINE
  5
2E0
100
AcDbEntity
  8
0
100
AcDbLine
 62
7
  6
CONTINUOUS
 10
90.4589984188
 20
185.1444718782
 11
90.3966917319
 21
184.9947560782
  0
LINE
  5
2E1
100
AcDbEntity
  8
0
100
AcDbLine
 62
7
  6
CONTINUOUS
 10
90.6405393112
 20
184.8635822883
 11
90.702845998
 21
185.0132980883
  0
LINE
  5
2E2
100
AcDbEntity
  8
0
100
AcDbLine
 62
7
  6
CONTINUOUS
 10
91.7181296237
 20
183.9697964471
 11
91.6558229368
 21
183.8200806471
  0
LINE
  5
2E3
100
AcDbEntity
  8
0
100
AcDbLine
 62
7
  6
CONTINUOUS
 10
91.8996702493
 20
183.6889067486
 11
91.9619772088
 21
183.8386226357
  0
LINE
  5
2E4
100
AcDbEntity
  8
0
100
AcDbLine
 62
7
  6
CONTINUOUS
 10
93.7880045043
 20
185.9473180407
 11
93.7198347475
 21
185.8001790402
  0
LINE
  5
2E5
100
AcDbEntity
  8
0
100
AcDbLine
 62
7
  6
CONTINUOUS
 10
93.7781998488
 20
185.5516204612
 11
93.8463696056
 21
185.6987594617
  0
LINE
  5
2E6
100
AcDbEntity
  8
0
100
AcDbLine
 62
7
  6
CONTINUOUS
 10
95.723106073
 20
185.2110746401
 11
95.9016593837
 21
185.5750455589
  0
LINE
  5
2E7
100
AcDbEntity
  8
0
100
AcDbLine
 62
7
  6
CONTINUOUS
 10
129.3578775576
 20
187.1294469663
 11
129.2111765854
 21
186.9872677979
  0
LINE
  5
2E8
100
AcDbEntity
  8
0
100
AcDbLine
 62
7
  6
CONTINUOUS
 10
129.6652906361
 20
185.30464653
 11
129.8119916112
 21
185.4468257129
  0
LINE
  5
2E9
100
AcDbEntity
  8
0
100
AcDbLine
 62
7
  6
CONTINUOUS
 10
133.2664210001
 20
186.2097483143
 11
133.151371061
 21
186.1085551543
  0
LINE
  5
2EA
100
AcDbEntity
  8
0
100
AcDbLine
 62
7
  6
CONTINUOUS
 10
133.4780332707
 20
184.4609939466
 11
133.5930832134
 21
184.562187121
  0
LINE
  5
2EB
100
AcDbEntity
  8
0
100
AcDbLine
 62
7
  6
CONTINUOUS
 10
135.7033327039
 20
185.6057965699
 11
135.5458950363
 21
185.4756062856
  0
LINE
  5
2EC
100
AcDbEntity
  8
0
100
AcDbLine
 62
7
  6
CONTINUOUS
 10
138.361120275
 20
184.8082775793
 11
138.1995030116
 21
184.6833136264
  0
LINE
  5
2ED
100
AcDbEntity
  8
0
100
AcDbLine
 62
7
  6
CONTINUOUS
 10
138.4634775556
 20
182.9605973578
 11
138.6250941944
 21
183.0855615274
  0
LINE
  5
2EE
100
AcDbEntity
  8
0
100
AcDbLine
 62
7
  6
CONTINUOUS
 10
139.2713057002
 20
183.447229255
 11
139.3530892511
 21
183.5084299192
  0
LINE
  5
2EF
100
AcDbEntity
  8
0
100
AcDbLine
 62
7
  6
CONTINUOUS
 10
136.1516127256
 20
184.8638822202
 11
135.0843524786
 21
184.0740465369
  0
LINE
  5
2F0
100
AcDbEntity
  8
0
100
AcDbLine
 62
7
  6
CONTINUOUS
 10
135.3064213641
 20
184.0104359379
 11
136.2556035192
 21
184.7026288625
  0
LINE
  5
2F1
100
AcDbEntity
  8
0
100
AcDbLine
 62
7
  6
CONTINUOUS
 10
90.3966917319
 20
184.9947560782
 11
90.3514184637
 21
184.7835252116
  0
LINE
  5
2F2
100
AcDbEntity
  8
0
100
AcDbLine
 62
7
  6
CONTINUOUS
 10
90.5952657671
 20
184.6523513454
 11
90.6405393112
 21
184.8635822883
  0
LINE
  5
2F3
100
AcDbEntity
  8
0
100
AcDbLine
 62
7
  6
CONTINUOUS
 10
91.76340288
 20
184.1810273568
 11
91.7181296237
 21
183.9697964471
  0
LINE
  5
2F4
100
AcDbEntity
  8
0
100
AcDbLine
 62
7
  6
CONTINUOUS
 10
91.9619772088
 20
183.8386226357
 11
92.0072507469
 21
184.0498536002
  0
LINE
  5
2F5
100
AcDbEntity
  8
0
100
AcDbLine
 62
7
  6
CONTINUOUS
 10
88.3708355957
 20
184.1903142331
 11
88.4351043584
 21
184.4793771646
  0
LINE
  5
2F6
100
AcDbEntity
  8
0
100
AcDbLine
 62
7
  6
CONTINUOUS
 10
89.3090268531
 20
184.1417982478
 11
89.3796121818
 21
184.4293839979
  0
LINE
  5
2F7
100
AcDbEntity
  8
0
100
AcDbLine
 62
7
  6
CONTINUOUS
 10
132.2990012071
 20
184.7559919483
 11
132.422184987
 21
184.8999554173
  0
LINE
  5
2F8
100
AcDbEntity
  8
0
100
AcDbLine
 62
7
  6
CONTINUOUS
 10
135.159933987
 20
185.8873378477
 11
134.9148649869
 21
185.6487608741
  0
LINE
  5
2F9
100
AcDbEntity
  8
0
100
AcDbLine
 62
7
  6
CONTINUOUS
 10
134.825736697
 20
185.3237385037
 11
135.0708057283
 21
185.5623155911
  0
LINE
  5
2FA
100
AcDbEntity
  8
0
100
AcDbLine
 62
7
  6
CONTINUOUS
 10
139.5556439929
 20
184.3739561739
 11
139.419418067
 21
184.2422663254
  0
LINE
  5
2FB
100
AcDbEntity
  8
0
100
AcDbLine
 62
7
  6
CONTINUOUS
 10
139.7106542646
 20
182.5860932418
 11
139.8468801952
 21
182.7177831043
  0
LINE
  5
2FC
100
AcDbEntity
  8
0
100
AcDbLine
 62
7
  6
CONTINUOUS
 10
141.1946609708
 20
183.9839079427
 11
140.9322317019
 21
183.7645710649
  0
LINE
  5
2FD
100
AcDbEntity
  8
0
100
AcDbLine
 62
7
  6
CONTINUOUS
 10
140.8187503539
 20
183.4472299598
 11
141.0811796626
 21
183.6665669487
  0
LINE
  5
2FE
100
AcDbEntity
  8
0
100
AcDbLine
 62
7
  6
CONTINUOUS
 10
133.151371061
 20
186.1085551543
 11
133.053946827
 21
185.9594262762
  0
LINE
  5
2FF
100
AcDbEntity
  8
0
100
AcDbLine
 62
7
  6
CONTINUOUS
 10
136.2535326954
 20
185.0099752907
 11
136.1516127256
 21
184.8638822202
  0
LINE
  5
300
100
AcDbEntity
  8
0
100
AcDbLine
 62
7
  6
CONTINUOUS
 10
129.7406821125
 20
185.6762243016
 11
129.6589548777
 21
185.5638482867
  0
LINE
  5
301
100
AcDbEntity
  8
0
100
AcDbLine
 62
7
  6
CONTINUOUS
 10
132.338978153
 20
185.0495866584
 11
132.2536139979
 21
184.9399477182
  0
LINE
  5
302
100
AcDbEntity
  8
0
100
AcDbLine
 62
7
  6
CONTINUOUS
 10
133.1348120222
 20
185.8085166076
 11
133.3089363515
 21
186.0251076797
  0
LINE
  5
303
100
AcDbEntity
  8
0
100
AcDbLine
 62
7
  6
CONTINUOUS
 10
133.6096422305
 20
184.8622255819
 11
133.435517923
 21
184.6456345956
  0
LINE
  5
304
100
AcDbEntity
  8
0
100
AcDbLine
 62
7
  6
CONTINUOUS
 10
135.6105268895
 20
185.2818052203
 11
135.7008461325
 21
185.3873993722
  0
LINE
  5
305
100
AcDbEntity
  8
0
100
AcDbLine
 62
7
  6
CONTINUOUS
 10
136.2556035192
 20
184.7026288625
 11
136.3459227622
 21
184.8082230144
  0
LINE
  5
306
100
AcDbEntity
  8
0
100
AcDbLine
 62
7
  6
CONTINUOUS
 10
138.579766077
 20
183.3214725368
 11
138.4860361855
 21
183.2188934243
  0
LINE
  5
307
100
AcDbEntity
  8
0
100
AcDbLine
 62
7
  6
CONTINUOUS
 10
139.4881253411
 20
184.0854476013
 11
139.5834601172
 21
184.1865369052
  0
LINE
  5
308
100
AcDbEntity
  8
0
100
AcDbLine
 62
7
  6
CONTINUOUS
 10
139.7781729306
 20
182.8746018563
 11
139.682838145
 21
182.7735125245
  0
LINE
  5
309
100
AcDbEntity
  8
0
100
AcDbLine
 62
7
  6
CONTINUOUS
 10
80.2584290631
 20
117.689444207
 11
100.7306440516
 21
138.1616591954
  0
LINE
  5
30A
100
AcDbEntity
  8
0
100
AcDbLine
 62
7
  6
CONTINUOUS
 10
169.3633642148
 20
166.6424202558
 11
169.2063513221
 21
166.5582903225
  0
LINE
  5
30B
100
AcDbEntity
  8
0
100
AcDbLine
 62
7
  6
CONTINUOUS
 10
172.4338117243
 20
163.6733180827
 11
172.2727682794
 21
163.597187192
  0
LINE
  5
30C
100
AcDbEntity
  8
0
100
AcDbLine
 62
7
  6
CONTINUOUS
 10
168.1912014912
 20
166.1143417436
 11
168.0637603601
 21
166.0589660472
  0
LINE
  5
30D
100
AcDbEntity
  8
0
100
AcDbLine
 62
7
  6
CONTINUOUS
 10
169.3045874943
 20
166.4094951787
 11
169.4329232971
 21
166.4627648811
  0
LINE
  5
30E
100
AcDbEntity
  8
0
100
AcDbLine
 62
7
  6
CONTINUOUS
 10
169.1949715325
 20
165.1886565272
 11
169.06663581
 21
165.1353869113
  0
LINE
  5
30F
100
AcDbEntity
  8
0
100
AcDbLine
 62
7
  6
CONTINUOUS
 10
172.2627414691
 20
163.4262709231
 11
172.5244441916
 21
163.5197731133
  0
LINE
  5
310
100
AcDbEntity
  8
0
100
AcDbLine
 62
7
  6
CONTINUOUS
 10
172.1723894075
 20
162.3713934521
 11
171.9106867484
 21
162.2778913237
  0
LINE
  5
311
100
AcDbEntity
  8
0
100
AcDbLine
 62
7
  6
CONTINUOUS
 10
100.7306271419
 20
72.5308999656
 11
80.2584121534
 21
93.003114954
  0
LINE
  5
312
100
AcDbEntity
  8
0
100
AcDbLine
 62
7
  6
CONTINUOUS
 10
88.1187337734
 20
184.6455022051
 11
88.1300071377
 21
184.4479140643
  0
LINE
  5
313
100
AcDbEntity
  8
0
100
AcDbLine
 62
7
  6
CONTINUOUS
 10
88.4351043584
 20
184.4793771646
 11
88.4238309941
 21
184.6769653055
  0
LINE
  5
314
100
AcDbEntity
  8
0
100
AcDbLine
 62
7
  6
CONTINUOUS
 10
90.3514184637
 20
184.7835252116
 11
90.3543318195
 21
184.5856371402
  0
LINE
  5
315
100
AcDbEntity
  8
0
100
AcDbLine
 62
7
  6
CONTINUOUS
 10
91.2242006845
 20
97.7802285669
 11
91.2242006845
 21
98.6287567044
  0
LINE
  5
316
100
AcDbEntity
  8
0
100
AcDbLine
 62
7
  6
CONTINUOUS
 10
91.2242006845
 20
112.0637855469
 11
91.2242006845
 21
112.9123136843
  0
LINE
  5
317
100
AcDbEntity
  8
RUNDUNGEN
100
AcDbLine
 62
7
  6
CONTINUOUS
 10
72.0887095852
 20
29.8580117878
 11
70.3815703153
 21
21.8265529773
  0
LINE
  5
318
100
AcDbEntity
  8
RUNDUNGEN
100
AcDbLine
 62
7
  6
CONTINUOUS
 10
117.8611036529
 20
199.022583713
 11
115.3238002232
 21
191.2135667186
  0
LINE
  5
319
100
AcDbEntity
  8
0
100
AcDbLine
 62
7
  6
CONTINUOUS
 10
129.3107843584
 20
186.7521275249
 11
129.3642133248
 21
186.870245253
  0
LINE
  5
31A
100
AcDbEntity
  8
0
100
AcDbLine
 62
7
  6
CONTINUOUS
 10
132.3962469221
 20
185.1658910042
 11
132.338978153
 21
185.0495866584
  0
LINE
  5
31B
100
AcDbEntity
  8
0
100
AcDbLine
 62
7
  6
CONTINUOUS
 10
133.053946827
 20
185.9594262762
 11
132.9948727571
 21
185.8440282829
  0
LINE
  5
31C
100
AcDbEntity
  8
0
100
AcDbLine
 62
7
  6
CONTINUOUS
 10
133.6905071345
 20
184.711316109
 11
133.7495814956
 21
184.8267139066
  0
LINE
  5
31D
100
AcDbEntity
  8
0
100
AcDbLine
 62
7
  6
CONTINUOUS
 10
132.422184987
 20
184.8999554173
 11
132.5269982831
 21
185.0915741601
  0
LINE
  5
31E
100
AcDbEntity
  8
0
100
AcDbLine
 62
7
  6
CONTINUOUS
 10
129.8119916112
 20
185.4468257129
 11
129.9020956816
 21
185.600488171
  0
LINE
  5
31F
100
AcDbEntity
  8
0
100
AcDbLine
 62
7
  6
CONTINUOUS
 10
138.2723146296
 20
184.4385462329
 11
138.3385610296
 21
184.5499817576
  0
LINE
  5
320
100
AcDbEntity
  8
0
100
AcDbLine
 62
7
  6
CONTINUOUS
 10
139.4201317031
 20
183.9750696656
 11
139.4881253411
 21
184.0854476013
  0
LINE
  5
321
100
AcDbEntity
  8
0
100
AcDbLine
 62
7
  6
CONTINUOUS
 10
139.2033120811
 20
183.3368513751
 11
139.2713057002
 21
183.447229255
  0
LINE
  5
322
100
AcDbEntity
  8
0
100
AcDbLine
 62
7
  6
CONTINUOUS
 10
139.8461665307
 20
182.9849796803
 11
139.7781729306
 21
182.8746018563
  0
LINE
  5
323
100
AcDbEntity
  8
0
100
AcDbLine
 62
7
  6
CONTINUOUS
 10
133.5930832134
 20
184.562187121
 11
133.6905071345
 21
184.711316109
  0
LINE
  5
324
100
AcDbEntity
  8
0
100
AcDbLine
 62
7
  6
CONTINUOUS
 10
139.419418067
 20
184.2422663254
 11
139.2969808026
 21
184.0613996305
  0
LINE
  5
325
100
AcDbEntity
  8
0
100
AcDbLine
 62
7
  6
CONTINUOUS
 10
139.8468801952
 20
182.7177831043
 11
139.9693174312
 21
182.8986497154
  0
LINE
  5
326
100
AcDbEntity
  8
0
100
AcDbLine
 62
7
  6
CONTINUOUS
 10
138.6250941944
 20
183.0855615274
 11
138.7317450403
 21
183.2282379054
  0
LINE
  5
327
100
AcDbEntity
  8
RUNDUNGEN
100
AcDbLine
 62
7
  6
CONTINUOUS
 10
39.8355408854
 20
60.4640661706
 11
34.3413855045
 21
54.3621884462
  0
LINE
  5
328
100
AcDbEntity
  8
0
100
AcDbLine
 62
7
  6
CONTINUOUS
 10
91.2242006845
 20
112.9123136843
 11
105.5077576645
 21
127.1958706643
  0
LINE
  5
329
100
AcDbEntity
  8
0
100
AcDbLine
 62
7
  6
CONTINUOUS
 10
85.4726120896
 20
106.3121969519
 11
91.2242006845
 21
112.0637855469
  0
LINE
  5
32A
100
AcDbEntity
  8
0
100
AcDbLine
 62
7
  6
CONTINUOUS
 10
106.3562858019
 20
127.1958706643
 11
112.1078743969
 21
132.9474592593
  0
LINE
  5
32B
100
AcDbEntity
  8
RUNDUNGEN
100
AcDbLine
 62
7
  6
CONTINUOUS
 10
164.0578829026
 20
184.0786858443
 11
157.9560051782
 21
178.5845304634
  0
LINE
  5
32C
100
AcDbEntity
  8
0
100
AcDbLine
 62
7
  6
CONTINUOUS
 10
168.3665911111
 20
167.2596007541
 11
168.4725593367
 21
167.3342812987
  0
LINE
  5
32D
100
AcDbEntity
  8
0
100
AcDbLine
 62
7
  6
CONTINUOUS
 10
172.2727682794
 20
163.597187192
 11
172.1620542312
 21
163.5297419459
  0
LINE
  5
32E
100
AcDbEntity
  8
0
100
AcDbLine
 62
7
  6
CONTINUOUS
 10
172.1623629123
 20
162.2004770287
 11
172.2730764149
 21
162.2679226662
  0
LINE
  5
32F
100
AcDbEntity
  8
0
100
AcDbLine
 62
7
  6
CONTINUOUS
 10
174.2454838713
 20
162.2046341893
 11
172.6592466019
 21
161.3090397453
  0
LINE
  5
330
100
AcDbEntity
  8
0
100
AcDbLine
 62
7
  6
CONTINUOUS
 10
168.1362683748
 20
165.8804804389
 11
168.2918745695
 21
165.9671845721
  0
LINE
  5
331
100
AcDbEntity
  8
0
100
AcDbLine
 62
7
  6
CONTINUOUS
 10
172.5847801543
 20
161.0806463491
 11
173.9977114302
 21
161.8530852797
  0
LINE
  5
332
100
AcDbEntity
  8
0
100
AcDbLine
 62
7
  6
CONTINUOUS
 10
175.3610022529
 20
160.9803685294
 11
173.7573165475
 21
160.116406585
  0
LINE
  5
333
100
AcDbEntity
  8
0
100
AcDbLine
 62
7
  6
CONTINUOUS
 10
169.1361948723
 20
164.9557315149
 11
169.2932077245
 21
165.0398615261
  0
LINE
  5
334
100
AcDbEntity
  8
0
100
AcDbLine
 62
7
  6
CONTINUOUS
 10
173.6783350733
 20
159.8895353235
 11
175.1063070342
 21
160.6338022818
  0
LINE
  5
335
100
AcDbEntity
  8
0
100
AcDbLine
 62
7
  6
CONTINUOUS
 10
172.0013192158
 20
162.1243463542
 11
172.1623629123
 21
162.2004770287
  0
LINE
  5
336
100
AcDbEntity
  8
RUNDUNGEN
100
AcDbLine
 62
7
  6
CONTINUOUS
 10
27.2065046302
 20
103.0962711256
 11
19.3974876358
 21
100.5589676959
  0
LINE
  5
337
100
AcDbEntity
  8
RUNDUNGEN
100
AcDbLine
 62
7
  6
CONTINUOUS
 10
29.5540820748
 20
62.6540412177
 11
37.5855408854
 21
64.3611804876
  0
LINE
  5
338
100
AcDbEntity
  8
0
100
AcDbLine
 62
7
  6
CONTINUOUS
 10
120.6398427819
 20
83.496671587
 11
119.7913146445
 21
83.496671587
  0
LINE
  5
339
100
AcDbEntity
  8
0
100
AcDbLine
 62
7
  6
CONTINUOUS
 10
106.3562858019
 20
83.496671587
 11
105.5077576645
 21
83.496671587
  0
LINE
  5
33A
100
AcDbEntity
  8
RUNDUNGEN
100
AcDbLine
 62
7
  6
CONTINUOUS
 10
188.562059561
 20
64.3611804876
 11
196.5935183716
 21
62.6540412177
  0
LINE
  5
33B
100
AcDbEntity
  8
RUNDUNGEN
100
AcDbLine
 62
7
  6
CONTINUOUS
 10
19.3974876358
 20
110.1335745553
 11
27.2065046302
 21
107.5962711256
  0
LINE
  5
33C
100
AcDbEntity
  8
RUNDUNGEN
100
AcDbLine
 62
7
  6
CONTINUOUS
 10
157.9560051782
 20
32.1080117878
 11
164.0578829026
 21
26.613856407
  0
LINE
  5
33D
100
AcDbEntity
  8
0
100
AcDbLine
 62
7
  6
CONTINUOUS
 10
105.5077576645
 20
83.496671587
 11
91.2242006845
 21
97.7802285669
  0
LINE
  5
33E
100
AcDbEntity
  8
0
100
AcDbLine
 62
7
  6
CONTINUOUS
 10
112.1078743969
 20
77.745082992
 11
106.3562858019
 21
83.496671587
  0
LINE
  5
33F
100
AcDbEntity
  8
0
100
AcDbLine
 62
7
  6
CONTINUOUS
 10
91.2242006845
 20
98.6287567044
 11
85.4726120896
 21
104.3803452993
  0
LINE
  5
340
100
AcDbEntity
  8
RUNDUNGEN
100
AcDbLine
 62
7
  6
CONTINUOUS
 10
34.3413855045
 20
156.3303538051
 11
39.8355408854
 21
150.2284760807
  0
LINE
  5
341
100
AcDbEntity
  8
RUNDUNGEN
100
AcDbLine
 62
7
  6
CONTINUOUS
 10
115.3238002232
 20
19.4789755326
 11
117.8611036529
 21
11.6699585383
  0
LINE
  5
342
100
AcDbEntity
  8
RUNDUNGEN
100
AcDbLine
 62
7
  6
CONTINUOUS
 10
70.3815703153
 20
188.865989274
 11
72.0887095852
 21
180.8345304634
  0
LINE
  5
343
100
AcDbEntity
  8
0
100
AcDbLine
 62
7
  6
CONTINUOUS
 10
90.3543318195
 20
184.5856371402
 11
90.3742785938
 21
184.3262340022
  0
LINE
  5
344
100
AcDbEntity
  8
0
100
AcDbLine
 62
7
  6
CONTINUOUS
 10
90.6152128172
 20
184.3929482837
 11
90.5952657671
 21
184.6523513454
  0
LINE
  5
345
100
AcDbEntity
  8
0
100
AcDbLine
 62
7
  6
CONTINUOUS
 10
91.7434563814
 20
184.4404305712
 11
91.76340288
 21
184.1810273568
  0
LINE
  5
346
100
AcDbEntity
  8
0
100
AcDbLine
 62
7
  6
CONTINUOUS
 10
92.0072507469
 20
184.0498536002
 11
91.9843900534
 21
184.5071447
  0
LINE
  5
347
100
AcDbEntity
  8
RUNDUNGEN
100
AcDbLine
 62
7
  6
CONTINUOUS
 10
103.0738002232
 20
66.909402819
 11
103.0738002232
 21
48.9393460646
  0
LINE
  5
348
100
AcDbEntity
  8
RUNDUNGEN
100
AcDbLine
 62
7
  6
CONTINUOUS
 10
103.0738002232
 20
143.7831394094
 11
103.0738002232
 21
161.7531961867
  0
LINE
  5
349
100
AcDbEntity
  8
RUNDUNGEN
100
AcDbLine
 62
7
  6
CONTINUOUS
 10
104.0738002232
 20
198.7135667186
 11
104.0738002232
 21
192.4262029134
  0
LINE
  5
34A
100
AcDbEntity
  8
RUNDUNGEN
100
AcDbLine
 62
7
  6
CONTINUOUS
 10
104.0738002232
 20
11.9789755326
 11
104.0738002232
 21
18.2662545876
  0
LWPOLYLINE
  5
34B
100
AcDbEntity
  8
RUNDUNGEN
100
AcDbPolyline
 62
7
  6
CONTINUOUS
 90
9
 70
0
 10
103.07379334
 20
143.8085297514
 10
103.0286218832
 20
142.9695224576
 10
102.8956970055
 20
142.1398567451
 10
102.6764777325
 20
141.3286867491
 10
102.3733753037
 20
140.5449632591
 10
101.9897267403
 20
139.7973354048
 10
101.5297584301
 20
139.0940556191
 10
100.9985395513
 20
138.4428880601
 10
100.7306545857
 20
138.161670068
  0
LINE
  5
34C
100
AcDbEntity
  8
0
100
AcDbLine
 62
7
  6
CONTINUOUS
 10
133.0446517295
 20
185.5706185309
 11
133.1348120222
 21
185.8085166076
  0
LINE
  5
34D
100
AcDbEntity
  8
0
100
AcDbLine
 62
7
  6
CONTINUOUS
 10
133.6998022174
 20
185.1001237971
 11
133.6096422305
 21
184.8622255819
  0
LINE
  5
34E
100
AcDbEntity
  8
0
100
AcDbLine
 62
7
  6
CONTINUOUS
 10
129.2111765854
 20
186.9872677979
 11
129.1493708937
 21
186.8278637548
  0
LINE
  5
34F
100
AcDbEntity
  8
0
100
AcDbLine
 62
7
  6
CONTINUOUS
 10
132.9948727571
 20
185.8440282829
 11
132.915074228
 21
185.6469636867
  0
LINE
  5
350
100
AcDbEntity
  8
0
100
AcDbLine
 62
7
  6
CONTINUOUS
 10
133.7495814956
 20
184.8267139066
 11
133.8293800392
 21
185.02377856
  0
LINE
  5
351
100
AcDbEntity
  8
0
100
AcDbLine
 62
7
  6
CONTINUOUS
 10
139.2969808026
 20
184.0613996305
 11
139.1747823018
 21
183.7914672478
  0
LINE
  5
352
100
AcDbEntity
  8
0
100
AcDbLine
 62
7
  6
CONTINUOUS
 10
139.3114831759
 20
183.7450263478
 11
139.4201317031
 21
183.9750696656
  0
LINE
  5
353
100
AcDbEntity
  8
0
100
AcDbLine
 62
7
  6
CONTINUOUS
 10
135.5458950363
 20
185.4756062856
 11
135.4717339154
 21
185.3215618219
  0
LINE
  5
354
100
AcDbEntity
  8
0
100
AcDbLine
 62
7
  6
CONTINUOUS
 10
136.3459227622
 20
184.8082230144
 11
136.4200845183
 21
184.9622672961
  0
LINE
  5
355
100
AcDbEntity
  8
0
100
AcDbLine
 62
7
  6
CONTINUOUS
 10
138.1995030116
 20
184.6833136264
 11
138.1203357025
 21
184.5317809766
  0
LINE
  5
356
100
AcDbEntity
  8
RUNDUNGEN
100
AcDbLine
 62
7
  6
CONTINUOUS
 10
151.9632193857
 20
190.7047209918
 11
148.8196131597
 21
185.2598352895
  0
LINE
  5
357
100
AcDbEntity
  8
RUNDUNGEN
100
AcDbLine
 62
7
  6
CONTINUOUS
 10
58.5959237927
 20
28.9878212594
 11
61.7395624095
 21
34.4327630645
  0
LINE
  5
358
100
AcDbEntity
  8
0
100
AcDbLine
 62
7
  6
CONTINUOUS
 10
169.2063513221
 20
166.5582903225
 11
169.0418134968
 21
166.4236441205
  0
LINE
  5
359
100
AcDbEntity
  8
0
100
AcDbLine
 62
7
  6
CONTINUOUS
 10
169.2932077245
 20
165.0398615261
 11
169.45774553
 21
165.1745075854
  0
LINE
  5
35A
100
AcDbEntity
  8
0
100
AcDbLine
 62
7
  6
CONTINUOUS
 10
168.4000513099
 20
167.5127668782
 11
168.2659181118
 21
167.4067580133
  0
LINE
  5
35B
100
AcDbEntity
  8
0
100
AcDbLine
 62
7
  6
CONTINUOUS
 10
172.0614511277
 20
163.2706862489
 11
172.2627414691
 21
163.4262709231
  0
LINE
  5
35C
100
AcDbEntity
  8
0
100
AcDbLine
 62
7
  6
CONTINUOUS
 10
172.3736797911
 20
162.5269781675
 11
172.1723894075
 21
162.3713934521
  0
LINE
  5
35D
100
AcDbEntity
  8
0
100
AcDbLine
 62
7
  6
CONTINUOUS
 10
169.1687267984
 20
166.305709493
 11
169.3045874943
 21
166.4094951787
  0
LINE
  5
35E
100
AcDbEntity
  8
0
100
AcDbLine
 62
7
  6
CONTINUOUS
 10
169.3308322283
 20
165.2924422129
 11
169.1949715325
 21
165.1886565272
  0
LINE
  5
35F
100
AcDbEntity
  8
0
100
AcDbLine
 62
7
  6
CONTINUOUS
 10
172.1620542312
 20
163.5297419459
 11
171.9909562462
 21
163.4035368717
  0
LINE
  5
360
100
AcDbEntity
  8
0
100
AcDbLine
 62
7
  6
CONTINUOUS
 10
172.2730764149
 20
162.2679226662
 11
172.4441746727
 21
162.3941275447
  0
LINE
  5
361
100
AcDbEntity
  8
RUNDUNGEN
100
AcDbLine
 62
7
  6
CONTINUOUS
 10
189.4322500894
 20
159.8241475562
 11
183.9873665656
 21
156.680542588
  0
LINE
  5
362
100
AcDbEntity
  8
RUNDUNGEN
100
AcDbLine
 62
7
  6
CONTINUOUS
 10
27.715350357
 20
66.4568519632
 11
33.1602943837
 21
69.6004918627
  0
LINE
  5
363
100
AcDbEntity
  8
RUNDUNGEN
100
AcDbLine
 62
7
  6
CONTINUOUS
 10
74.6369319394
 20
95.3462711256
 11
56.6668751622
 21
95.3462711256
  0
LINE
  5
364
100
AcDbEntity
  8
RUNDUNGEN
100
AcDbLine
 62
7
  6
CONTINUOUS
 10
151.5106685299
 20
95.3462711256
 11
169.4807252843
 21
95.3462711256
  0
LINE
  5
365
100
AcDbEntity
  8
RUNDUNGEN
100
AcDbLine
 62
7
  6
CONTINUOUS
 10
19.7065046302
 20
96.3462711256
 11
25.9937303943
 21
96.3462711256
  0
LINE
  5
366
100
AcDbEntity
  8
RUNDUNGEN
100
AcDbLine
 62
7
  6
CONTINUOUS
 10
200.1538165822
 20
96.3462711256
 11
206.4410958162
 21
96.3462711256
  0
LWPOLYLINE
  5
367
100
AcDbEntity
  8
RUNDUNGEN
100
AcDbPolyline
 62
7
  6
CONTINUOUS
 90
9
 70
0
 10
74.6115415975
 20
95.3462642425
 10
75.4505488913
 20
95.3010927856
 10
76.2802146037
 20
95.1681679079
 10
77.0913845997
 20
94.9489486349
 10
77.8751080897
 20
94.6458462061
 10
78.622735944
 20
94.2621976428
 10
79.3260157297
 20
93.8022293325
 10
79.9771832887
 20
93.2710104537
 10
80.2584012809
 20
93.0031254881
  0
LINE
  5
368
100
AcDbEntity
  8
RUNDUNGEN
100
AcDbLine
 62
7
  6
CONTINUOUS
 10
27.715350357
 20
144.2356902881
 11
33.1602495975
 21
141.0920762459
  0
LINE
  5
369
100
AcDbEntity
  8
RUNDUNGEN
100
AcDbLine
 62
7
  6
CONTINUOUS
 10
183.9873078366
 20
54.0120335705
 11
189.4322500894
 21
50.8683946951
  0
LINE
  5
36A
100
AcDbEntity
  8
RUNDUNGEN
100
AcDbLine
 62
7
  6
CONTINUOUS
 10
58.5959237927
 20
181.7047209918
 11
61.7395358347
 21
176.2598252157
  0
LINE
  5
36B
100
AcDbEntity
  8
RUNDUNGEN
100
AcDbLine
 62
7
  6
CONTINUOUS
 10
148.8195792062
 20
25.4327657709
 11
151.9632193857
 21
19.9878212594
  0
LINE
  5
36C
100
AcDbEntity
  8
RUNDUNGEN
100
AcDbLine
 62
7
  6
CONTINUOUS
 10
110.8238002232
 20
19.4789755326
 11
110.8238002232
 21
20.4789576755
  0
LINE
  5
36D
100
AcDbEntity
  8
RUNDUNGEN
100
AcDbLine
 62
7
  6
CONTINUOUS
 10
110.8238002232
 20
190.213556213
 11
110.8238002232
 21
191.2135667186
  0
LINE
  5
36E
100
AcDbEntity
  8
02___PRT_ALL_AXES
100
AcDbLine
 62
7
  6
CENTER
 10
113.0738002232
 20
105.3462711256
 11
113.0738002232
 21
7.2724709024
  0
LINE
  5
36F
100
AcDbEntity
  8
02___PRT_ALL_AXES
100
AcDbLine
 62
7
  6
CENTER
 10
113.0738002232
 20
105.3462711256
 11
113.0738002232
 21
203.4200713489
  0
LINE
  5
370
100
AcDbEntity
  8
0
100
AcDbLine
 62
7
  6
CONTINUOUS
 10
127.877336453
 20
187.5398608301
 11
127.5142536342
 21
185.5934356796
  0
LINE
  5
371
100
AcDbEntity
  8
0
100
AcDbLine
 62
7
  6
CONTINUOUS
 10
127.7309168329
 20
185.8101457388
 11
128.0476486537
 21
187.5080910835
  0
LINE
  5
372
100
AcDbEntity
  8
0
100
AcDbLine
 62
7
  6
CONTINUOUS
 10
128.5361268383
 20
185.4028171997
 11
128.5824778363
 21
185.6512970056
  0
LINE
  5
373
100
AcDbEntity
  8
0
100
AcDbLine
 62
7
  6
CONTINUOUS
 10
129.1493708937
 20
186.8278637548
 11
129.1158635513
 21
186.6627179821
  0
LINE
  5
374
100
AcDbEntity
  8
0
100
AcDbLine
 62
7
  6
CONTINUOUS
 10
129.2940306989
 20
186.6695546964
 11
129.3107843584
 21
186.7521275249
  0
LINE
  5
375
100
AcDbEntity
  8
0
100
AcDbLine
 62
7
  6
CONTINUOUS
 10
129.7658126017
 20
185.8000835444
 11
129.7406821125
 21
185.6762243016
  0
LINE
  5
376
100
AcDbEntity
  8
0
100
AcDbLine
 62
7
  6
CONTINUOUS
 10
129.9020956816
 20
185.600488171
 11
129.9439798303
 21
185.8069202422
  0
LINE
  5
377
100
AcDbEntity
  8
0
100
AcDbLine
 62
7
  6
CONTINUOUS
 10
131.8462077855
 20
186.725184781
 11
131.5933689258
 21
185.6594472329
  0
LINE
  5
378
100
AcDbEntity
  8
0
100
AcDbLine
 62
7
  6
CONTINUOUS
 10
131.7824673881
 20
185.8310698728
 11
131.938060543
 21
186.4869084081
  0
LINE
  5
379
100
AcDbEntity
  8
0
100
AcDbLine
 62
7
  6
CONTINUOUS
 10
132.4156960631
 20
185.2478708067
 11
132.3962469221
 21
185.1658910042
  0
LINE
  5
37A
100
AcDbEntity
  8
0
100
AcDbLine
 62
7
  6
CONTINUOUS
 10
132.7528204309
 20
186.2936122619
 11
132.8014432833
 21
186.4985617683
  0
LINE
  5
37B
100
AcDbEntity
  8
0
100
AcDbLine
 62
7
  6
CONTINUOUS
 10
132.5269982831
 20
185.0915741601
 11
132.565896565
 21
185.2555337652
  0
LINE
  5
37C
100
AcDbEntity
  8
0
100
AcDbLine
 62
7
  6
CONTINUOUS
 10
132.915074228
 20
185.6469636867
 11
132.8218154724
 21
185.2794630935
  0
LINE
  5
37D
100
AcDbEntity
  8
0
100
AcDbLine
 62
7
  6
CONTINUOUS
 10
132.9721171418
 20
185.2847847362
 11
133.0446517295
 21
185.5706185309
  0
LINE
  5
37E
100
AcDbEntity
  8
0
100
AcDbLine
 62
7
  6
CONTINUOUS
 10
133.7723368051
 20
185.3859575918
 11
133.6998022174
 21
185.1001237971
  0
LINE
  5
37F
100
AcDbEntity
  8
0
100
AcDbLine
 62
7
  6
CONTINUOUS
 10
133.8293800392
 20
185.02377856
 11
133.9226387948
 21
185.3912791532
  0
LINE
  5
380
100
AcDbEntity
  8
0
100
AcDbLine
 62
7
  6
CONTINUOUS
 10
134.0945018537
 20
185.0836175207
 11
134.0402136652
 21
184.8800952875
  0
LINE
  5
381
100
AcDbEntity
  8
0
100
AcDbLine
 62
7
  6
CONTINUOUS
 10
134.4308064753
 20
184.7759072792
 11
134.4850946639
 21
184.9794295124
  0
LINE
  5
382
100
AcDbEntity
  8
0
100
AcDbLine
 62
7
  6
CONTINUOUS
 10
134.9148649869
 20
185.6487608741
 11
134.825736697
 21
185.3237385037
  0
LINE
  5
383
100
AcDbEntity
  8
0
100
AcDbLine
 62
7
  6
CONTINUOUS
 10
135.0708057283
 20
185.5623155911
 11
134.6363054044
 21
183.9778318625
  0
LINE
  5
384
100
AcDbEntity
  8
0
100
AcDbLine
 62
7
  6
CONTINUOUS
 10
134.8033871781
 20
183.9320143615
 11
135.3270157607
 21
185.8415203467
  0
LINE
  5
385
100
AcDbEntity
  8
0
100
AcDbLine
 62
7
  6
CONTINUOUS
 10
135.0843524786
 20
184.0740465369
 11
135.0263488364
 21
183.871551915
  0
LINE
  5
386
100
AcDbEntity
  8
0
100
AcDbLine
 62
7
  6
CONTINUOUS
 10
136.2767341815
 20
185.0909732416
 11
136.2535326954
 21
185.0099752907
  0
LINE
  5
387
100
AcDbEntity
  8
0
100
AcDbLine
 62
7
  6
CONTINUOUS
 10
136.0256597744
 20
183.5853039469
 11
136.0836634166
 21
183.7877985688
  0
LINE
  5
388
100
AcDbEntity
  8
0
100
AcDbLine
 62
7
  6
CONTINUOUS
 10
136.4200845183
 20
184.9622672961
 11
136.4432860045
 21
185.0432652469
  0
LINE
  5
389
100
AcDbEntity
  8
0
100
AcDbLine
 62
7
  6
CONTINUOUS
 10
138.1203357025
 20
184.5317809766
 11
138.068651885
 21
184.3713919145
  0
LINE
  5
38A
100
AcDbEntity
  8
0
100
AcDbLine
 62
7
  6
CONTINUOUS
 10
138.246472739
 20
184.358351758
 11
138.2723146296
 21
184.4385462329
  0
LINE
  5
38B
100
AcDbEntity
  8
0
100
AcDbLine
 62
7
  6
CONTINUOUS
 10
138.618528913
 20
183.4417642492
 11
138.579766077
 21
183.3214725368
  0
LINE
  5
38C
100
AcDbEntity
  8
0
100
AcDbLine
 62
7
  6
CONTINUOUS
 10
138.7317450403
 20
183.2282379054
 11
138.796349767
 21
183.4287240926
  0
LINE
  5
38D
100
AcDbEntity
  8
0
100
AcDbLine
 62
7
  6
CONTINUOUS
 10
139.1747823018
 20
183.7914672478
 11
139.0799237255
 21
183.5122467702
  0
LINE
  5
38E
100
AcDbEntity
  8
0
100
AcDbLine
 62
7
  6
CONTINUOUS
 10
139.2843807255
 20
183.6652490684
 11
139.3114831759
 21
183.7450263478
  0
LINE
  5
38F
100
AcDbEntity
  8
0
100
AcDbLine
 62
7
  6
CONTINUOUS
 10
139.1626584055
 20
183.2171854561
 11
139.2033120811
 21
183.3368513751
  0
LINE
  5
390
100
AcDbEntity
  8
0
100
AcDbLine
 62
7
  6
CONTINUOUS
 10
139.8868202063
 20
183.1046455993
 11
139.8461665307
 21
182.9849796803
  0
LINE
  5
391
100
AcDbEntity
  8
0
100
AcDbLine
 62
7
  6
CONTINUOUS
 10
139.9693174312
 20
182.8986497154
 11
140.0370735761
 21
183.0980929696
  0
LINE
  5
392
100
AcDbEntity
  8
0
100
AcDbLine
 62
7
  6
CONTINUOUS
 10
140.0805277689
 20
182.5013018758
 11
140.0107621144
 21
182.3025526675
  0
LINE
  5
393
100
AcDbEntity
  8
0
100
AcDbLine
 62
7
  6
CONTINUOUS
 10
140.1469885472
 20
182.2547339802
 11
140.2167542017
 21
182.4534831885
  0
LINE
  5
394
100
AcDbEntity
  8
0
100
AcDbLine
 62
7
  6
CONTINUOUS
 10
140.9322317019
 20
183.7645710649
 11
140.8187503539
 21
183.4472299598
  0
LINE
  5
395
100
AcDbEntity
  8
0
100
AcDbLine
 62
7
  6
CONTINUOUS
 10
141.0811796626
 20
183.6665669487
 11
140.5279582055
 21
182.1195293806
  0
LINE
  5
396
100
AcDbEntity
  8
0
100
AcDbLine
 62
7
  6
CONTINUOUS
 10
140.6910913296
 20
182.0611928887
 11
141.357794095
 21
183.9255714507
  0
LINE
  5
397
100
AcDbEntity
  8
RUNDUNGEN
100
AcDbLine
 62
7
  6
CONTINUOUS
 10
68.1915952682
 20
32.1080117878
 11
68.6915896842
 21
32.9740275198
  0
LINE
  5
398
100
AcDbEntity
  8
RUNDUNGEN
100
AcDbLine
 62
7
  6
CONTINUOUS
 10
153.5588929541
 20
179.9685086846
 11
154.0588908612
 21
180.8345304634
  0
LINE
  5
399
100
AcDbEntity
  8
0
100
AcDbLine
 62
7
  6
CONTINUOUS
 10
168.2659181118
 20
167.4067580133
 11
168.1532578577
 21
167.2814442655
  0
LINE
  5
39A
100
AcDbEntity
  8
0
100
AcDbLine
 62
7
  6
CONTINUOUS
 10
168.3102610235
 20
167.1969439241
 11
168.3665911111
 21
167.2596007541
  0
LINE
  5
39B
100
AcDbEntity
  8
0
100
AcDbLine
 62
7
  6
CONTINUOUS
 10
168.2756966226
 20
166.2083269885
 11
168.1912014912
 21
166.1143417436
  0
LINE
  5
39C
100
AcDbEntity
  8
0
100
AcDbLine
 62
7
  6
CONTINUOUS
 10
168.2918745695
 20
165.9671845721
 11
168.4326997884
 21
166.1238266471
  0
LINE
  5
39D
100
AcDbEntity
  8
0
100
AcDbLine
 62
7
  6
CONTINUOUS
 10
169.0418134968
 20
166.4236441205
 11
168.6116568119
 21
165.9607384728
  0
LINE
  5
39E
100
AcDbEntity
  8
0
100
AcDbLine
 62
7
  6
CONTINUOUS
 10
168.7385701136
 20
165.8428038454
 11
169.1687267984
 21
166.305709493
  0
LINE
  5
39F
100
AcDbEntity
  8
0
100
AcDbLine
 62
7
  6
CONTINUOUS
 10
169.7609889132
 20
165.7553478605
 11
169.3308322283
 21
165.2924422129
  0
LINE
  5
3A0
100
AcDbEntity
  8
0
100
AcDbLine
 62
7
  6
CONTINUOUS
 10
169.45774553
 20
165.1745075854
 11
169.8879022149
 21
165.6374132331
  0
LINE
  5
3A1
100
AcDbEntity
  8
0
100
AcDbLine
 62
7
  6
CONTINUOUS
 10
170.7587690832
 20
164.1573750247
 11
170.5805118985
 21
163.9781683843
  0
LINE
  5
3A2
100
AcDbEntity
  8
0
100
AcDbLine
 62
7
  6
CONTINUOUS
 10
171.8145749357
 20
164.2361409447
 11
171.2500938994
 21
163.6686532991
  0
LINE
  5
3A3
100
AcDbEntity
  8
0
100
AcDbLine
 62
7
  6
CONTINUOUS
 10
171.0718367146
 20
163.4894466588
 11
170.6559033391
 21
163.0712978871
  0
LINE
  5
3A4
100
AcDbEntity
  8
0
100
AcDbLine
 62
7
  6
CONTINUOUS
 10
170.7787345432
 20
162.9491174557
 11
171.1946679187
 21
163.3672662274
  0
LINE
  5
3A5
100
AcDbEntity
  8
0
100
AcDbLine
 62
7
  6
CONTINUOUS
 10
171.3729251034
 20
163.5464728677
 11
172.1750823305
 21
164.3529026447
  0
LINE
  5
3A6
100
AcDbEntity
  8
0
100
AcDbLine
 62
7
  6
CONTINUOUS
 10
171.399386514
 20
163.1636322527
 11
171.5776436987
 21
163.3428388931
  0
LINE
  5
3A7
100
AcDbEntity
  8
0
100
AcDbLine
 62
7
  6
CONTINUOUS
 10
171.9909562462
 20
163.4035368717
 11
171.719227113
 21
163.1391183404
  0
LINE
  5
3A8
100
AcDbEntity
  8
0
100
AcDbLine
 62
7
  6
CONTINUOUS
 10
171.8501062463
 20
163.0650273913
 11
172.0614511277
 21
163.2706862489
  0
LINE
  5
3A9
100
AcDbEntity
  8
0
100
AcDbLine
 62
7
  6
CONTINUOUS
 10
172.5850246725
 20
162.7326370251
 11
172.3736797911
 21
162.5269781675
  0
LINE
  5
3AA
100
AcDbEntity
  8
0
100
AcDbLine
 62
7
  6
CONTINUOUS
 10
172.4441746727
 20
162.3941275447
 11
172.7159038059
 21
162.658546076
  0
LINE
  5
3AB
100
AcDbEntity
  8
0
100
AcDbLine
 62
7
  6
CONTINUOUS
 10
173.4745374299
 20
163.0254868558
 11
172.0312799943
 21
161.6699766292
  0
LINE
  5
3AC
100
AcDbEntity
  8
0
100
AcDbLine
 62
7
  6
CONTINUOUS
 10
172.1498871391
 20
161.5436916036
 11
173.2860685612
 21
162.6107954334
  0
LINE
  5
3AD
100
AcDbEntity
  8
0
100
AcDbLine
 62
7
  6
CONTINUOUS
 10
173.9977114302
 20
161.8530852797
 11
172.8615300081
 21
160.7859814499
  0
LINE
  5
3AE
100
AcDbEntity
  8
0
100
AcDbLine
 62
7
  6
CONTINUOUS
 10
172.9801371529
 20
160.6596964243
 11
174.4233945885
 21
162.0152066509
  0
LINE
  5
3AF
100
AcDbEntity
  8
0
100
AcDbLine
 62
7
  6
CONTINUOUS
 10
174.6064855971
 20
161.8163482731
 11
173.1366311028
 21
160.4897255815
  0
LINE
  5
3B0
100
AcDbEntity
  8
0
100
AcDbLine
 62
7
  6
CONTINUOUS
 10
173.2527105883
 20
160.3611133133
 11
174.4098301211
 21
161.4054758913
  0
LINE
  5
3B1
100
AcDbEntity
  8
0
100
AcDbLine
 62
7
  6
CONTINUOUS
 10
175.1063070342
 20
160.6338022818
 11
173.9491875014
 21
159.5894397038
  0
LINE
  5
3B2
100
AcDbEntity
  8
0
100
AcDbLine
 62
7
  6
CONTINUOUS
 10
174.0652669869
 20
159.4608274355
 11
175.5351214812
 21
160.7874501271
  0
LINE
  5
3B3
100
AcDbEntity
  8
RUNDUNGEN
100
AcDbLine
 62
7
  6
CONTINUOUS
 10
37.5855408854
 20
64.3611804876
 11
38.4515508316
 21
64.8611715632
  0
LINE
  5
3B4
100
AcDbEntity
  8
RUNDUNGEN
100
AcDbLine
 62
7
  6
CONTINUOUS
 10
185.4460378182
 20
149.7284781943
 11
186.312059561
 21
150.2284760807
  0
LINE
  5
3B5
100
AcDbEntity
  8
RUNDUNGEN
100
AcDbLine
 62
7
  6
CONTINUOUS
 10
27.2065046302
 20
103.0962711256
 11
28.2065004237
 21
103.0962711256
  0
LINE
  5
3B6
100
AcDbEntity
  8
RUNDUNGEN
100
AcDbLine
 62
7
  6
CONTINUOUS
 10
197.9411136733
 20
103.0962711256
 11
198.9410958162
 21
103.0962711256
  0
LINE
  5
3B7
100
AcDbEntity
  8
02___PRT_ALL_AXES
100
AcDbLine
 62
7
  6
CENTER
 10
113.0738002232
 20
105.3462711256
 11
15.0
 21
105.3462711256
  0
LINE
  5
3B8
100
AcDbEntity
  8
02___PRT_ALL_AXES
100
AcDbLine
 62
7
  6
CENTER
 10
113.0738002232
 20
105.3462711256
 11
211.1476004464
 21
105.3462711256
  0
LINE
  5
3B9
100
AcDbEntity
  8
RUNDUNGEN
100
AcDbLine
 62
7
  6
CONTINUOUS
 10
38.4515626642
 20
145.8313638565
 11
37.5855408854
 21
146.3313617636
  0
LINE
  5
3BA
100
AcDbEntity
  8
RUNDUNGEN
100
AcDbLine
 62
7
  6
CONTINUOUS
 10
185.4460475127
 20
60.9640584599
 11
186.312059561
 21
60.4640661706
  0
LINE
  5
3BB
100
AcDbEntity
  8
RUNDUNGEN
100
AcDbLine
 62
7
  6
CONTINUOUS
 10
153.5588997857
 20
30.724021734
 11
154.0588908612
 21
29.8580117878
  0
LINE
  5
3BC
100
AcDbEntity
  8
RUNDUNGEN
100
AcDbLine
 62
7
  6
CONTINUOUS
 10
68.691605994
 20
177.718486482
 11
68.1915952682
 21
178.5845304634
  0
LINE
  5
3BD
100
AcDbEntity
  8
0
100
AcDbLine
 62
7
  6
CONTINUOUS
 10
86.3691080524
 20
185.0194824161
 11
87.2911421259
 21
182.1646876482
  0
LINE
  5
3BE
100
AcDbEntity
  8
0
100
AcDbLine
 62
7
  6
CONTINUOUS
 10
87.5766216027
 20
182.2568910555
 11
87.1646489257
 21
183.5324376721
  0
LINE
  5
3BF
100
AcDbEntity
  8
0
100
AcDbLine
 62
7
  6
CONTINUOUS
 10
87.0469424623
 20
183.8968795139
 11
86.7526762487
 21
184.8079842886
  0
LINE
  5
3C0
100
AcDbEntity
  8
0
100
AcDbLine
 62
7
  6
CONTINUOUS
 10
88.0598804868
 20
184.8277232961
 11
88.1187337734
 21
184.6455022051
  0
LINE
  5
3C1
100
AcDbEntity
  8
0
100
AcDbLine
 62
7
  6
CONTINUOUS
 10
88.4238309941
 20
184.6769653055
 11
88.3453599635
 21
184.9199267035
  0
LINE
  5
3C2
100
AcDbEntity
  8
0
100
AcDbLine
 62
7
  6
CONTINUOUS
 10
88.8501112681
 20
184.8040573426
 11
89.4351515397
 21
182.8470823411
  0
LINE
  5
3C3
100
AcDbEntity
  8
0
100
AcDbLine
 62
7
  6
CONTINUOUS
 10
89.674677042
 20
182.9186888076
 11
89.3090268531
 21
184.1417982478
  0
LINE
  5
3C4
100
AcDbEntity
  8
0
100
AcDbLine
 62
7
  6
CONTINUOUS
 10
89.1993318118
 20
184.5087310284
 11
89.0896367705
 21
184.8756638091
  0
LINE
  5
3C5
100
AcDbEntity
  8
0
100
AcDbLine
 62
7
  6
CONTINUOUS
 10
89.8038159399
 20
184.7560634032
 11
89.7124034055
 21
185.0618407204
  0
LINE
  5
3C6
100
AcDbEntity
  8
0
100
AcDbLine
 62
7
  6
CONTINUOUS
 10
90.3742785938
 20
184.3262340022
 11
90.4424122918
 21
184.0801736496
  0
LINE
  5
3C7
100
AcDbEntity
  8
0
100
AcDbLine
 62
7
  6
CONTINUOUS
 10
90.6833465153
 20
184.1468879311
 11
90.6152128172
 21
184.3929482837
  0
LINE
  5
3C8
100
AcDbEntity
  8
0
100
AcDbLine
 62
7
  6
CONTINUOUS
 10
91.6753226834
 20
184.6864909238
 11
91.7434563814
 21
184.4404305712
  0
LINE
  5
3C9
100
AcDbEntity
  8
0
100
AcDbLine
 62
7
  6
CONTINUOUS
 10
91.9843900534
 20
184.5071447
 11
91.9162563553
 21
184.7532050525
  0
LINE
  5
3CA
100
AcDbEntity
  8
0
100
AcDbLine
 62
7
  6
CONTINUOUS
 10
91.8574717285
 20
186.6481074306
 11
92.6106573537
 21
183.7441943096
  0
LINE
  5
3CB
100
AcDbEntity
  8
0
100
AcDbLine
 62
7
  6
CONTINUOUS
 10
92.8526502984
 20
183.8069598263
 11
92.0994646732
 21
186.7108729472
  0
LINE
  5
3CC
100
AcDbEntity
  8
0
100
AcDbLine
 62
7
  6
CONTINUOUS
 10
92.5103726394
 20
186.8156925508
 11
92.5880179138
 21
186.5061328142
  0
LINE
  5
3CD
100
AcDbEntity
  8
0
100
AcDbLine
 62
7
  6
CONTINUOUS
 10
92.7433085062
 20
185.8870131675
 11
93.240238306
 21
183.9058306798
  0
LINE
  5
3CE
100
AcDbEntity
  8
0
100
AcDbLine
 62
7
  6
CONTINUOUS
 10
93.4827269803
 20
183.966652865
 11
92.9857971805
 21
185.9478353528
  0
LINE
  5
3CF
100
AcDbEntity
  8
0
100
AcDbLine
 62
7
  6
CONTINUOUS
 10
92.8305065881
 20
186.5669549995
 11
92.7528613137
 21
186.8765147361
  0
LINE
  5
3D0
100
AcDbEntity
  8
0
100
AcDbLine
 62
7
  6
CONTINUOUS
 10
93.403498438
 20
186.0537281828
 11
93.8704192889
 21
184.0652593762
  0
LINE
  5
3D1
100
AcDbEntity
  8
0
100
AcDbLine
 62
7
  6
CONTINUOUS
 10
94.1137992219
 20
184.1224084574
 11
93.7781998488
 21
185.5516204612
  0
LINE
  5
3D2
100
AcDbEntity
  8
0
100
AcDbLine
 62
7
  6
CONTINUOUS
 10
93.7198347475
 20
185.8001790402
 11
93.646878371
 21
186.1108772641
  0
LINE
  5
3D3
100
AcDbEntity
  8
0
100
AcDbLine
 62
7
  6
CONTINUOUS
 10
94.7127340457
 20
185.5087988885
 11
94.9899683175
 21
184.3281454639
  0
LINE
  5
3D4
100
AcDbEntity
  8
0
100
AcDbLine
 62
7
  6
CONTINUOUS
 10
95.2333488075
 20
184.3852946759
 11
94.9561145357
 21
185.5659481006
  0
LINE
  5
3D5
100
AcDbEntity
  8
0
100
AcDbLine
 62
7
  6
CONTINUOUS
 10
95.0030529896
 20
187.4074900455
 11
95.6237972836
 21
184.4724131263
  0
LINE
  5
3D6
100
AcDbEntity
  8
0
100
AcDbLine
 62
7
  6
CONTINUOUS
 10
95.8683866537
 20
184.5241417385
 11
95.723106073
 21
185.2110746401
  0
LINE
  5
3D7
100
AcDbEntity
  8
0
100
AcDbLine
 62
7
  6
CONTINUOUS
 10
95.64386213
 20
185.585765266
 11
95.2476423597
 21
187.4592186577
  0
LINE
  5
3D8
100
AcDbEntity
  8
RUNDUNGEN
100
AcDbLine
 62
7
  6
CONTINUOUS
 10
115.3238002232
 20
19.4789755326
 11
115.3238002232
 21
20.4789713261
  0
LINE
  5
3D9
100
AcDbEntity
  8
RUNDUNGEN
100
AcDbLine
 62
7
  6
CONTINUOUS
 10
115.3238002232
 20
190.2135827087
 11
115.3238002232
 21
191.2135667186
  0
LINE
  5
3DA
100
AcDbEntity
  8
RUNDUNGEN
100
AcDbLine
 62
7
  6
CONTINUOUS
 10
122.0738002232
 20
11.9789755326
 11
122.0738002232
 21
18.2661867056
  0
LINE
  5
3DB
100
AcDbEntity
  8
RUNDUNGEN
100
AcDbLine
 62
7
  6
CONTINUOUS
 10
122.0738002232
 20
192.4263207308
 11
122.0738002232
 21
198.7135667186
  0
LINE
  5
3DC
100
AcDbEntity
  8
RUNDUNGEN
100
AcDbLine
 62
7
  6
CONTINUOUS
 10
123.0738002232
 20
66.9094028419
 11
123.0738002232
 21
48.9393460646
  0
LINE
  5
3DD
100
AcDbEntity
  8
RUNDUNGEN
100
AcDbLine
 62
7
  6
CONTINUOUS
 10
123.0738002232
 20
143.7831394323
 11
123.0738002232
 21
161.7531961867
  0
LINE
  5
3DE
100
AcDbEntity
  8
0
100
AcDbLine
 62
7
  6
CONTINUOUS
 10
132.9379324125
 20
185.0326819647
 11
132.9721171418
 21
185.2847847362
  0
LINE
  5
3DF
100
AcDbEntity
  8
0
100
AcDbLine
 62
7
  6
CONTINUOUS
 10
133.8065218402
 20
185.6380602248
 11
133.7723368051
 21
185.3859575918
  0
LINE
  5
3E0
100
AcDbEntity
  8
0
100
AcDbLine
 62
7
  6
CONTINUOUS
 10
139.0799237255
 20
183.5122467702
 11
139.0124050547
 21
183.2237381417
  0
LINE
  5
3E1
100
AcDbEntity
  8
RUNDUNGEN
100
AcDbLine
 62
7
  6
CONTINUOUS
 10
72.0887095852
 20
29.8580117878
 11
72.5887048078
 21
30.7240289169
  0
LINE
  5
3E2
100
AcDbEntity
  8
RUNDUNGEN
100
AcDbLine
 62
7
  6
CONTINUOUS
 10
157.4560141109
 20
177.7185205315
 11
157.9560051782
 21
178.5845304634
  0
LINE
  5
3E3
100
AcDbEntity
  8
RUNDUNGEN
100
AcDbLine
 62
7
  6
CONTINUOUS
 10
74.1843810608
 20
19.9878212594
 11
77.3279872939
 21
25.4327069743
  0
LINE
  5
3E4
100
AcDbEntity
  8
RUNDUNGEN
100
AcDbLine
 62
7
  6
CONTINUOUS
 10
164.4080376904
 20
176.2597785866
 11
167.5516766538
 21
181.7047209918
  0
LINE
  5
3E5
100
AcDbEntity
  8
0
100
AcDbLine
 62
7
  6
CONTINUOUS
 10
171.6890910344
 20
162.8680539826
 11
171.8501062463
 21
163.0650273913
  0
LINE
  5
3E6
100
AcDbEntity
  8
0
100
AcDbLine
 62
7
  6
CONTINUOUS
 10
172.7460398422
 20
162.9296103926
 11
172.5850246725
 21
162.7326370251
  0
LINE
  5
3E7
100
AcDbEntity
  8
RUNDUNGEN
100
AcDbLine
 62
7
  6
CONTINUOUS
 10
39.8355408854
 20
60.4640661706
 11
40.7015626282
 21
60.964064057
  0
LINE
  5
3E8
100
AcDbEntity
  8
RUNDUNGEN
100
AcDbLine
 62
7
  6
CONTINUOUS
 10
187.6960496148
 20
145.8313706881
 11
188.562059561
 21
146.3313617636
  0
LINE
  5
3E9
100
AcDbEntity
  8
RUNDUNGEN
100
AcDbLine
 62
7
  6
CONTINUOUS
 10
36.715350357
 20
50.8683946951
 11
42.1602458526
 21
54.0120065752
  0
LINE
  5
3EA
100
AcDbEntity
  8
RUNDUNGEN
100
AcDbLine
 62
7
  6
CONTINUOUS
 10
192.98730542
 20
141.0920500175
 11
198.4322500894
 21
144.2356902881
  0
LINE
  5
3EB
100
AcDbEntity
  8
RUNDUNGEN
100
AcDbLine
 62
7
  6
CONTINUOUS
 10
27.2065046302
 20
107.5962711256
 11
28.2064867731
 21
107.5962711256
  0
LINE
  5
3EC
100
AcDbEntity
  8
RUNDUNGEN
100
AcDbLine
 62
7
  6
CONTINUOUS
 10
197.9411000227
 20
107.5962711256
 11
198.9410958162
 21
107.5962711256
  0
LINE
  5
3ED
100
AcDbEntity
  8
RUNDUNGEN
100
AcDbLine
 62
7
  6
CONTINUOUS
 10
206.4410958162
 20
114.3462711256
 11
200.1538846221
 21
114.3462711256
  0
LINE
  5
3EE
100
AcDbEntity
  8
RUNDUNGEN
100
AcDbLine
 62
7
  6
CONTINUOUS
 10
19.7065046302
 20
114.3462711256
 11
25.9937831467
 21
114.3462711256
  0
LINE
  5
3EF
100
AcDbEntity
  8
RUNDUNGEN
100
AcDbLine
 62
7
  6
CONTINUOUS
 10
74.6369319166
 20
115.3462711256
 11
56.6668751622
 21
115.3462711256
  0
LINE
  5
3F0
100
AcDbEntity
  8
RUNDUNGEN
100
AcDbLine
 62
7
  6
CONTINUOUS
 10
151.510668507
 20
115.3462711256
 11
169.4807252843
 21
115.3462711256
  0
LINE
  5
3F1
100
AcDbEntity
  8
RUNDUNGEN
100
AcDbLine
 62
7
  6
CONTINUOUS
 10
40.7015508173
 20
149.7284850133
 11
39.8355408854
 21
150.2284760807
  0
LINE
  5
3F2
100
AcDbEntity
  8
RUNDUNGEN
100
AcDbLine
 62
7
  6
CONTINUOUS
 10
187.6960353303
 20
64.8611798104
 11
188.562059561
 21
64.3611804876
  0
LINE
  5
3F3
100
AcDbEntity
  8
RUNDUNGEN
100
AcDbLine
 62
7
  6
CONTINUOUS
 10
198.4322500894
 20
66.4568519632
 11
192.9873644058
 21
69.6004581783
  0
LINE
  5
3F4
100
AcDbEntity
  8
RUNDUNGEN
100
AcDbLine
 62
7
  6
CONTINUOUS
 10
42.1602921846
 20
156.6805089263
 11
36.715350357
 21
159.8241475562
  0
LINE
  5
3F5
100
AcDbEntity
  8
RUNDUNGEN
100
AcDbLine
 62
7
  6
CONTINUOUS
 10
157.4560072919
 20
32.9740335307
 11
157.9560051782
 21
32.1080117878
  0
LINE
  5
3F6
100
AcDbEntity
  8
RUNDUNGEN
100
AcDbLine
 62
7
  6
CONTINUOUS
 10
72.588698126
 20
179.9685249076
 11
72.0887095852
 21
180.8345304634
  0
LINE
  5
3F7
100
AcDbEntity
  8
RUNDUNGEN
100
AcDbLine
 62
7
  6
CONTINUOUS
 10
167.5516766538
 20
28.9878212594
 11
164.408071696
 21
34.4327047653
  0
LINE
  5
3F8
100
AcDbEntity
  8
RUNDUNGEN
100
AcDbLine
 62
7
  6
CONTINUOUS
 10
77.3279924211
 20
185.2598263964
 11
74.1843810608
 21
190.7047209918
  0
LINE
  5
3F9
100
AcDbEntity
  8
0
100
AcDbLine
 62
7
  6
CONTINUOUS
 10
129.0447668577
 20
185.7314503386
 11
129.0415988931
 21
185.8610512117
  0
LINE
  5
3FA
100
AcDbEntity
  8
0
100
AcDbLine
 62
7
  6
CONTINUOUS
 10
129.2971986635
 20
186.5399538233
 11
129.2940306989
 21
186.6695546964
  0
LINE
  5
3FB
100
AcDbEntity
  8
0
100
AcDbLine
 62
7
  6
CONTINUOUS
 10
130.0266212608
 20
186.6498735589
 11
130.0234532962
 21
186.779474432
  0
LINE
  5
3FC
100
AcDbEntity
  8
0
100
AcDbLine
 62
7
  6
CONTINUOUS
 10
132.4167747305
 20
185.377505926
 11
132.4156960631
 21
185.2478708067
  0
LINE
  5
3FD
100
AcDbEntity
  8
0
100
AcDbLine
 62
7
  6
CONTINUOUS
 10
132.7979931473
 20
185.06819364
 11
132.7948946844
 21
184.9385911234
  0
LINE
  5
3FE
100
AcDbEntity
  8
0
100
AcDbLine
 62
7
  6
CONTINUOUS
 10
133.9464611054
 20
185.6025485495
 11
133.949559277
 21
185.7321512617
  0
LINE
  5
3FF
100
AcDbEntity
  8
0
100
AcDbLine
 62
7
  6
CONTINUOUS
 10
128.8718085752
 20
185.8955009117
 11
128.8665996291
 21
185.7246136408
  0
LINE
  5
400
100
AcDbEntity
  8
0
100
AcDbLine
 62
7
  6
CONTINUOUS
 10
129.1158635513
 20
186.6627179821
 11
129.1106546052
 21
186.4918307112
  0
LWPOLYLINE
  5
401
100
AcDbEntity
  8
RUNDUNGEN
100
AcDbPolyline
 62
7
  6
CONTINUOUS
 90
9
 70
0
 10
123.0738071064
 20
66.8840124999
 10
123.1189785632
 20
67.7230197937
 10
123.2519034409
 20
68.5526855061
 10
123.4711227139
 20
69.3638555021
 10
123.7742251427
 20
70.1475789921
 10
124.1578737061
 20
70.8952068465
 10
124.6178420164
 20
71.5984866321
 10
125.1490608951
 20
72.2496541912
 10
125.4169458607
 20
72.5308721833
  0
LINE
  5
402
100
AcDbEntity
  8
0
100
AcDbLine
 62
7
  6
CONTINUOUS
 10
137.8943245519
 20
183.4538276379
 11
137.9056038601
 21
183.5829756501
  0
LINE
  5
403
100
AcDbEntity
  8
0
100
AcDbLine
 62
7
  6
CONTINUOUS
 10
138.2351934308
 20
184.2292037458
 11
138.246472739
 21
184.358351758
  0
LINE
  5
404
100
AcDbEntity
  8
0
100
AcDbLine
 62
7
  6
CONTINUOUS
 10
138.9723187734
 20
184.2572377068
 11
138.9835987106
 21
184.3863855163
  0
LINE
  5
405
100
AcDbEntity
  8
0
100
AcDbLine
 62
7
  6
CONTINUOUS
 10
139.1493446545
 20
183.0882314422
 11
139.1626584055
 21
183.2171854561
  0
LINE
  5
406
100
AcDbEntity
  8
0
100
AcDbLine
 62
7
  6
CONTINUOUS
 10
139.9001339763
 20
183.2335996691
 11
139.8868202063
 21
183.1046455993
  0
LINE
  5
407
100
AcDbEntity
  8
0
100
AcDbLine
 62
7
  6
CONTINUOUS
 10
140.2263145668
 20
183.8346652103
 11
140.2396283179
 21
183.9636192243
  0
LINE
  5
408
100
AcDbEntity
  8
0
100
AcDbLine
 62
7
  6
CONTINUOUS
 10
136.4432860045
 20
185.0432652469
 11
136.4619300627
 21
185.2132123148
  0
LINE
  5
409
100
AcDbEntity
  8
0
100
AcDbLine
 62
7
  6
CONTINUOUS
 10
132.8218154724
 20
185.2794630935
 11
132.7979931473
 21
185.06819364
  0
LINE
  5
40A
100
AcDbEntity
  8
0
100
AcDbLine
 62
7
  6
CONTINUOUS
 10
133.9226387948
 20
185.3912791532
 11
133.9464611054
 21
185.6025485495
  0
LINE
  5
40B
100
AcDbEntity
  8
0
100
AcDbLine
 62
7
  6
CONTINUOUS
 10
137.7407039515
 20
183.636113044
 11
137.716503698
 21
183.4668677944
  0
LINE
  5
40C
100
AcDbEntity
  8
0
100
AcDbLine
 62
7
  6
CONTINUOUS
 10
138.068651885
 20
184.3713919145
 11
138.0444516315
 21
184.2021466649
  0
LINE
  5
40D
100
AcDbEntity
  8
0
100
AcDbLine
 62
7
  6
CONTINUOUS
 10
167.6195189309
 20
166.5149999255
 11
167.6825410471
 21
166.6282899586
  0
LINE
  5
40E
100
AcDbEntity
  8
0
100
AcDbLine
 62
7
  6
CONTINUOUS
 10
168.2472389074
 20
167.083653891
 11
168.3102610235
 21
167.1969439241
  0
LINE
  5
40F
100
AcDbEntity
  8
0
100
AcDbLine
 62
7
  6
CONTINUOUS
 10
168.9315817218
 20
166.8083094568
 11
168.9946038533
 21
166.9215994761
  0
LINE
  5
410
100
AcDbEntity
  8
0
100
AcDbLine
 62
7
  6
CONTINUOUS
 10
167.5537029251
 20
166.744118715
 11
167.4625157709
 21
166.5995002617
  0
LINE
  5
411
100
AcDbEntity
  8
0
100
AcDbLine
 62
7
  6
CONTINUOUS
 10
168.1532578577
 20
167.2814442655
 11
168.0620707054
 21
167.1368258105
  0
LINE
  5
412
100
AcDbEntity
  8
0
100
AcDbLine
 62
7
  6
CONTINUOUS
 10
171.5884037965
 20
162.9715250054
 11
171.5179650046
 21
162.8626911483
  0
LINE
  5
413
100
AcDbEntity
  8
0
100
AcDbLine
 62
7
  6
CONTINUOUS
 10
172.8467268496
 20
162.8261396067
 11
172.917166187
 21
162.9349730724
  0
LINE
  5
414
100
AcDbEntity
  8
0
100
AcDbLine
 62
7
  6
CONTINUOUS
 10
172.6592466019
 20
161.3090397453
 11
173.6524481471
 21
162.8360593174
  0
LINE
  5
415
100
AcDbEntity
  8
0
100
AcDbLine
 62
7
  6
CONTINUOUS
 10
168.6450139323
 20
165.6997065421
 11
168.7385701136
 21
165.8428038454
  0
LINE
  5
416
100
AcDbEntity
  8
0
100
AcDbLine
 62
7
  6
CONTINUOUS
 10
169.8545450945
 20
165.8984451638
 11
169.7609889132
 21
165.7553478605
  0
LINE
  5
417
100
AcDbEntity
  8
0
100
AcDbLine
 62
7
  6
CONTINUOUS
 10
173.7573165475
 20
160.116406585
 11
174.7806048254
 21
161.6234298707
  0
LINE
  5
418
100
AcDbEntity
  8
0
100
AcDbLine
 62
7
  6
CONTINUOUS
 10
168.6116568119
 20
165.9607384728
 11
168.4894234604
 21
165.7867808522
  0
LINE
  5
419
100
AcDbEntity
  8
0
100
AcDbLine
 62
7
  6
CONTINUOUS
 10
169.8879022149
 20
165.6374132331
 11
170.0101355862
 21
165.8113709964
  0
LINE
  5
41A
100
AcDbEntity
  8
0
100
AcDbLine
 62
7
  6
CONTINUOUS
 10
171.719227113
 20
163.1391183404
 11
171.5884037965
 21
162.9715250054
  0
LINE
  5
41B
100
AcDbEntity
  8
0
100
AcDbLine
 62
7
  6
CONTINUOUS
 10
172.7159038059
 20
162.658546076
 11
172.8467268496
 21
162.8261396067
  0
LWPOLYLINE
  5
41C
100
AcDbEntity
  8
RUNDUNGEN
100
AcDbPolyline
 62
7
  6
CONTINUOUS
 90
9
 70
0
 10
151.536058849
 20
115.3462780088
 10
150.6970515552
 20
115.3914494657
 10
149.8673858427
 20
115.5243743434
 10
149.0562158467
 20
115.7435936164
 10
148.2724923567
 20
116.0466960451
 10
147.5248645024
 20
116.4303446085
 10
146.8215847167
 20
116.8903129188
 10
146.1704171577
 20
117.4215317975
 10
145.8891991656
 20
117.6894167632
  0
LINE
  5
41D
100
AcDbEntity
  8
0
100
AcDbLine
 62
7
  6
CONTINUOUS
 10
90.4424122918
 20
184.0801736496
 11
90.6580200332
 21
183.6762538835
  0
LINE
  5
41E
100
AcDbEntity
  8
0
100
AcDbLine
 62
7
  6
CONTINUOUS
 10
90.7996668135
 20
183.9141704599
 11
90.6833465153
 21
184.1468879311
  0
LINE
  5
41F
100
AcDbEntity
  8
0
100
AcDbLine
 62
7
  6
CONTINUOUS
 10
91.5590018336
 20
184.9192082423
 11
91.6753226834
 21
184.6864909238
  0
LINE
  5
420
100
AcDbEntity
  8
0
100
AcDbLine
 62
7
  6
CONTINUOUS
 10
91.9162563553
 20
184.7532050525
 11
91.799936057
 21
184.9859225238
  0
LINE
  5
421
100
AcDbEntity
  8
0
100
AcDbLine
 62
7
  6
CONTINUOUS
 10
94.5911017939
 20
185.8080673223
 11
94.7127340457
 21
185.5087988885
  0
LINE
  5
422
100
AcDbEntity
  8
0
100
AcDbLine
 62
7
  6
CONTINUOUS
 10
94.9561145357
 20
185.5659481006
 11
94.834482284
 21
185.8652165343
  0
LINE
  5
423
100
AcDbEntity
  8
0
100
AcDbLine
 62
7
  6
CONTINUOUS
 10
131.5058477779
 20
185.2905380639
 11
131.5231396045
 21
185.113247714
  0
LINE
  5
424
100
AcDbEntity
  8
0
100
AcDbLine
 62
7
  6
CONTINUOUS
 10
131.6917105936
 20
185.0732554131
 11
131.674418767
 21
185.2505457631
  0
LINE
  5
425
100
AcDbEntity
  8
0
100
AcDbLine
 62
7
  6
CONTINUOUS
 10
132.7948946844
 20
184.9385911234
 11
132.8094222395
 21
184.7610527789
  0
LINE
  5
426
100
AcDbEntity
  8
0
100
AcDbLine
 62
7
  6
CONTINUOUS
 10
133.949559277
 20
185.7321512617
 11
133.9350320349
 21
185.9096894963
  0
LINE
  5
427
100
AcDbEntity
  8
0
100
AcDbLine
 62
7
  6
CONTINUOUS
 10
132.565896565
 20
185.2555337652
 11
132.5583289941
 21
185.4738141214
  0
LINE
  5
428
100
AcDbEntity
  8
0
100
AcDbLine
 62
7
  6
CONTINUOUS
 10
138.796349767
 20
183.4287240926
 11
138.7930665108
 21
183.6068256983
  0
LINE
  5
429
100
AcDbEntity
  8
0
100
AcDbLine
 62
7
  6
CONTINUOUS
 10
138.8057778567
 20
184.3994256729
 11
138.8074188648
 21
184.3103751008
  0
LINE
  5
42A
100
AcDbEntity
  8
0
100
AcDbLine
 62
7
  6
CONTINUOUS
 10
134.9233997619
 20
112.9123136843
 11
134.9233997619
 21
112.0637855469
  0
LINE
  5
42B
100
AcDbEntity
  8
0
100
AcDbLine
 62
7
  6
CONTINUOUS
 10
134.9233997619
 20
98.6287567044
 11
134.9233997619
 21
97.7802285669
  0
LINE
  5
42C
100
AcDbEntity
  8
0
100
AcDbLine
 62
7
  6
CONTINUOUS
 10
139.0124050547
 20
183.2237381417
 11
138.9993300199
 21
183.0057183003
  0
LINE
  5
42D
100
AcDbEntity
  8
0
100
AcDbLine
 62
7
  6
CONTINUOUS
 10
140.0370735761
 20
183.0980929696
 11
140.0501486014
 21
183.316112783
  0
LINE
  5
42E
100
AcDbEntity
  8
RUNDUNGEN
100
AcDbLine
 62
7
  6
CONTINUOUS
 10
154.0588908612
 20
180.8345304634
 11
155.7660301312
 21
188.865989274
  0
LINE
  5
42F
100
AcDbEntity
  8
RUNDUNGEN
100
AcDbLine
 62
7
  6
CONTINUOUS
 10
108.2864967935
 20
11.6699585383
 11
110.8238002232
 21
19.4789755326
  0
LINE
  5
430
100
AcDbEntity
  8
0
100
AcDbLine
 62
7
  6
CONTINUOUS
 10
168.4326997884
 20
166.1238266471
 11
168.5024140034
 21
166.2877498996
  0
LINE
  5
431
100
AcDbEntity
  8
0
100
AcDbLine
 62
7
  6
CONTINUOUS
 10
168.8376006875
 20
167.0060998176
 11
168.8027435997
 21
166.9241382132
  0
LINE
  5
432
100
AcDbEntity
  8
0
100
AcDbLine
 62
7
  6
CONTINUOUS
 10
168.4894234604
 20
165.7867808522
 11
168.4170194558
 21
165.6240277749
  0
LINE
  5
433
100
AcDbEntity
  8
0
100
AcDbLine
 62
7
  6
CONTINUOUS
 10
170.0101355862
 20
165.8113709964
 11
170.0825396312
 21
165.9741239959
  0
LINE
  5
434
100
AcDbEntity
  8
0
100
AcDbLine
 62
7
  6
CONTINUOUS
 10
171.5179650046
 20
162.8626911483
 11
171.4374714211
 21
162.703783324
  0
LINE
  5
435
100
AcDbEntity
  8
0
100
AcDbLine
 62
7
  6
CONTINUOUS
 10
172.917166187
 20
162.9349730724
 11
172.9976595189
 21
163.0938811129
  0
LINE
  5
436
100
AcDbEntity
  8
0
100
AcDbLine
 62
7
  6
CONTINUOUS
 10
173.2860685612
 20
162.6107954334
 11
172.4266374453
 21
161.2490262226
  0
LINE
  5
437
100
AcDbEntity
  8
0
100
AcDbLine
 62
7
  6
CONTINUOUS
 10
174.4098301211
 20
161.4054758913
 11
173.5235625736
 21
160.0610181842
  0
LINE
  5
438
100
AcDbEntity
  8
RUNDUNGEN
100
AcDbLine
 62
7
  6
CONTINUOUS
 10
186.312059561
 20
150.2284760807
 11
191.8062149419
 21
156.3303538051
  0
LINE
  5
439
100
AcDbEntity
  8
0
100
AcDbLine
 62
7
  6
CONTINUOUS
 10
140.6749883569
 20
104.3803452993
 11
134.9233997619
 21
98.6287567044
  0
LINE
  5
43A
100
AcDbEntity
  8
0
100
AcDbLine
 62
7
  6
CONTINUOUS
 10
119.7913146445
 20
83.496671587
 11
114.0397260495
 21
77.745082992
  0
LINE
  5
43B
100
AcDbEntity
  8
0
100
AcDbLine
 62
7
  6
CONTINUOUS
 10
134.9233997619
 20
97.7802285669
 11
120.6398427819
 21
83.496671587
  0
LINE
  5
43C
100
AcDbEntity
  8
RUNDUNGEN
100
AcDbLine
 62
7
  6
CONTINUOUS
 10
62.0897175438
 20
26.613856407
 11
68.1915952682
 21
32.1080117878
  0
LINE
  5
43D
100
AcDbEntity
  8
RUNDUNGEN
100
AcDbLine
 62
7
  6
CONTINUOUS
 10
198.9410958162
 20
107.5962711256
 11
206.7501128106
 21
110.1335745553
  0
LINE
  5
43E
100
AcDbEntity
  8
RUNDUNGEN
100
AcDbLine
 62
7
  6
CONTINUOUS
 10
196.5935183716
 20
148.0385010336
 11
188.562059561
 21
146.3313617636
  0
LINE
  5
43F
100
AcDbEntity
  8
0
100
AcDbLine
 62
7
  6
CONTINUOUS
 10
105.5077576645
 20
127.1958706643
 11
106.3562858019
 21
127.1958706643
  0
LINE
  5
440
100
AcDbEntity
  8
0
100
AcDbLine
 62
7
  6
CONTINUOUS
 10
119.7913146445
 20
127.1958706643
 11
120.6398427819
 21
127.1958706643
  0
LINE
  5
441
100
AcDbEntity
  8
RUNDUNGEN
100
AcDbLine
 62
7
  6
CONTINUOUS
 10
37.5855408854
 20
146.3313617636
 11
29.5540820748
 21
148.0385010336
  0
LINE
  5
442
100
AcDbEntity
  8
RUNDUNGEN
100
AcDbLine
 62
7
  6
CONTINUOUS
 10
206.7501128106
 20
100.5589676959
 11
198.9410958162
 21
103.0962711256
  0
LINE
  5
443
100
AcDbEntity
  8
RUNDUNGEN
100
AcDbLine
 62
7
  6
CONTINUOUS
 10
68.1915952682
 20
178.5845304634
 11
62.0897175438
 21
184.0786858443
  0
LINE
  5
444
100
AcDbEntity
  8
0
100
AcDbLine
 62
7
  6
CONTINUOUS
 10
114.0397260495
 20
132.9474592593
 11
119.7913146445
 21
127.1958706643
  0
LINE
  5
445
100
AcDbEntity
  8
0
100
AcDbLine
 62
7
  6
CONTINUOUS
 10
134.9233997619
 20
112.0637855469
 11
140.6749883569
 21
106.3121969519
  0
LINE
  5
446
100
AcDbEntity
  8
0
100
AcDbLine
 62
7
  6
CONTINUOUS
 10
120.6398427819
 20
127.1958706643
 11
134.9233997619
 21
112.9123136843
  0
LINE
  5
447
100
AcDbEntity
  8
RUNDUNGEN
100
AcDbLine
 62
7
  6
CONTINUOUS
 10
191.8062149419
 20
54.3621884462
 11
186.312059561
 21
60.4640661706
  0
LINE
  5
448
100
AcDbEntity
  8
0
100
AcDbLine
 62
7
  6
CONTINUOUS
 10
87.9534473876
 20
184.9945769971
 11
88.0598804868
 21
184.8277232961
  0
LINE
  5
449
100
AcDbEntity
  8
0
100
AcDbLine
 62
7
  6
CONTINUOUS
 10
88.3453599635
 20
184.9199267035
 11
88.2389268644
 21
185.0867804045
  0
LINE
  5
44A
100
AcDbEntity
  8
0
100
AcDbLine
 62
7
  6
CONTINUOUS
 10
91.799936057
 20
184.9859225238
 11
91.7006491773
 21
185.1571249284
  0
LINE
  5
44B
100
AcDbEntity
  8
0
100
AcDbLine
 62
7
  6
CONTINUOUS
 10
94.834482284
 20
185.8652165343
 11
94.7420320258
 21
186.0402055477
  0
LINE
  5
44C
100
AcDbEntity
  8
RUNDUNGEN
100
AcDbLine
 62
7
  6
CONTINUOUS
 10
110.8238002232
 20
191.2135667186
 11
108.2864967935
 21
199.022583713
  0
LINE
  5
44D
100
AcDbEntity
  8
RUNDUNGEN
100
AcDbLine
 62
7
  6
CONTINUOUS
 10
155.7660301312
 20
21.8265529773
 11
154.0588908612
 21
29.8580117878
  0
LINE
  5
44E
100
AcDbEntity
  8
0
100
AcDbLine
 62
7
  6
CONTINUOUS
 10
129.9439798303
 20
185.8069202422
 11
129.9208904153
 21
185.9835491849
  0
LINE
  5
44F
100
AcDbEntity
  8
0
100
AcDbLine
 62
7
  6
CONTINUOUS
 10
129.8452860676
 20
186.7726377342
 11
129.8568308619
 21
186.6843232753
  0
LINE
  5
450
100
AcDbEntity
  8
0
100
AcDbLine
 62
7
  6
CONTINUOUS
 10
139.16337207
 20
182.9499888801
 11
139.1493446545
 21
183.0882314422
  0
LINE
  5
451
100
AcDbEntity
  8
0
100
AcDbLine
 62
7
  6
CONTINUOUS
 10
140.0755862677
 20
184.0193486445
 11
140.0896124412
 21
183.8811065356
  0
LINE
  5
452
100
AcDbEntity
  8
0
100
AcDbLine
 62
7
  6
CONTINUOUS
 10
137.716503698
 20
183.4668677944
 11
137.7343489121
 21
183.2398128681
  0
LINE
  5
453
100
AcDbEntity
  8
0
100
AcDbLine
 62
7
  6
CONTINUOUS
 10
168.3172457938
 20
166.3409218261
 11
168.2756966226
 21
166.2083269885
  0
LINE
  5
454
100
AcDbEntity
  8
0
100
AcDbLine
 62
7
  6
CONTINUOUS
 10
168.6012869969
 20
165.5678139162
 11
168.6450139323
 21
165.6997065421
  0
LINE
  5
455
100
AcDbEntity
  8
0
100
AcDbLine
 62
7
  6
CONTINUOUS
 10
169.8982721103
 20
166.0303378761
 11
169.8545450945
 21
165.8984451638
  0
LINE
  5
456
100
AcDbEntity
  8
0
100
AcDbLine
 62
7
  6
CONTINUOUS
 10
167.4625157709
 20
166.5995002617
 11
167.3861095852
 21
166.3849437739
  0
LINE
  5
457
100
AcDbEntity
  8
0
100
AcDbLine
 62
7
  6
CONTINUOUS
 10
171.5884881403
 20
162.6089980282
 11
171.6890910344
 21
162.8680539826
  0
LINE
  5
458
100
AcDbEntity
  8
0
100
AcDbLine
 62
7
  6
CONTINUOUS
 10
172.8466427998
 20
163.1886664088
 11
172.7460398422
 21
162.9296103926
  0
LINE
  5
459
100
AcDbEntity
  8
0
100
AcDbLine
 62
7
  6
CONTINUOUS
 10
145.8891713833
 20
93.0030980443
 11
125.4169563948
 21
72.5308830558
  0
LINE
  5
45A
100
AcDbEntity
  8
0
100
AcDbLine
 62
7
  6
CONTINUOUS
 10
125.4169733045
 20
138.1616422857
 11
145.889188293
 21
117.6894272973
  0
LINE
  5
45B
100
AcDbEntity
  8
0
100
AcDbLine
 62
7
  6
CONTINUOUS
 10
90.6580200332
 20
183.6762538835
 11
90.8054938188
 21
183.5183943289
  0
LINE
  5
45C
100
AcDbEntity
  8
0
100
AcDbLine
 62
7
  6
CONTINUOUS
 10
90.9471408808
 20
183.7563109602
 11
90.7996668135
 21
183.9141704599
  0
LINE
  5
45D
100
AcDbEntity
  8
0
100
AcDbLine
 62
7
  6
CONTINUOUS
 10
131.5231396045
 20
185.113247714
 11
131.5685268138
 21
184.9292919441
  0
LINE
  5
45E
100
AcDbEntity
  8
0
100
AcDbLine
 62
7
  6
CONTINUOUS
 10
129.734346357
 20
185.9354260728
 11
129.7658126017
 21
185.8000835444
  0
LINE
  5
45F
100
AcDbEntity
  8
0
100
AcDbLine
 62
7
  6
CONTINUOUS
 10
132.389758005
 20
185.5138064223
 11
132.4167747305
 21
185.377505926
  0
LINE
  5
460
100
AcDbEntity
  8
0
100
AcDbLine
 62
7
  6
CONTINUOUS
 10
128.8665996291
 20
185.7246136408
 11
128.9096106711
 21
185.500956668
  0
LINE
  5
461
100
AcDbEntity
  8
0
100
AcDbLine
 62
7
  6
CONTINUOUS
 10
132.9877116979
 20
184.7592721028
 11
132.9379324125
 21
185.0326819647
  0
LINE
  5
462
100
AcDbEntity
  8
0
100
AcDbLine
 62
7
  6
CONTINUOUS
 10
133.7567425765
 20
185.9114701725
 11
133.8065218402
 21
185.6380602248
  0
LINE
  5
463
100
AcDbEntity
  8
0
100
AcDbLine
 62
7
  6
CONTINUOUS
 10
136.2560192993
 20
185.2283726019
 11
136.2767341815
 21
185.0909732416
  0
LINE
  5
464
100
AcDbEntity
  8
0
100
AcDbLine
 62
7
  6
CONTINUOUS
 10
138.9993300199
 20
183.0057183003
 11
139.0271461394
 21
182.8182990176
  0
LINE
  5
465
100
AcDbEntity
  8
0
100
AcDbLine
 62
7
  6
CONTINUOUS
 10
138.6023247115
 20
183.5797686174
 11
138.618528913
 21
183.4417642492
  0
LINE
  5
466
100
AcDbEntity
  8
0
100
AcDbLine
 62
7
  6
CONTINUOUS
 10
167.5994428408
 20
166.3631002804
 11
167.6195189309
 21
166.5149999255
  0
LINE
  5
467
100
AcDbEntity
  8
0
100
AcDbLine
 62
7
  6
CONTINUOUS
 10
168.0620707054
 20
167.1368258105
 11
168.0353026141
 21
166.9342929773
  0
LINE
  5
468
100
AcDbEntity
  8
0
100
AcDbLine
 62
7
  6
CONTINUOUS
 10
168.5024140034
 20
166.2877498996
 11
168.5291820563
 21
166.4902827674
  0
LINE
  5
469
100
AcDbEntity
  8
0
100
AcDbLine
 62
7
  6
CONTINUOUS
 10
168.8509847139
 20
167.1073662514
 11
168.8376006875
 21
167.0060998176
  0
LINE
  5
46A
100
AcDbEntity
  8
0
100
AcDbLine
 62
7
  6
CONTINUOUS
 10
168.4170194558
 20
165.6240277749
 11
168.3869199153
 21
165.4219631471
  0
LINE
  5
46B
100
AcDbEntity
  8
0
100
AcDbLine
 62
7
  6
CONTINUOUS
 10
168.9622971864
 20
165.4048699734
 11
168.9246726625
 21
165.1522892649
  0
LINE
  5
46C
100
AcDbEntity
  8
0
100
AcDbLine
 62
7
  6
CONTINUOUS
 10
168.8870481435
 20
164.8997085618
 11
168.8719984338
 21
164.7986761917
  0
LINE
  5
46D
100
AcDbEntity
  8
0
100
AcDbLine
 62
7
  6
CONTINUOUS
 10
169.06663581
 20
165.1353869113
 11
169.0892104881
 21
165.2869353459
  0
LINE
  5
46E
100
AcDbEntity
  8
0
100
AcDbLine
 62
7
  6
CONTINUOUS
 10
168.9989117355
 20
164.6807415642
 11
169.0365361384
 21
164.9333223852
  0
LINE
  5
46F
100
AcDbEntity
  8
0
100
AcDbLine
 62
7
  6
CONTINUOUS
 10
171.4374714211
 20
162.703783324
 11
171.4073073294
 21
162.553561237
  0
LINE
  5
470
100
AcDbEntity
  8
0
100
AcDbLine
 62
7
  6
CONTINUOUS
 10
168.9946038533
 20
166.9215994761
 11
169.0428449675
 21
167.1048275143
  0
LINE
  5
471
100
AcDbEntity
  8
0
100
AcDbLine
 62
7
  6
CONTINUOUS
 10
172.0522511265
 20
164.475083076
 11
170.7587690832
 21
164.1573750247
  0
LINE
  5
472
100
AcDbEntity
  8
0
100
AcDbLine
 62
7
  6
CONTINUOUS
 10
170.9020720765
 20
164.0148312657
 11
171.8145749357
 21
164.2361409447
  0
LINE
  5
473
100
AcDbEntity
  8
0
100
AcDbLine
 62
7
  6
CONTINUOUS
 10
167.9377160675
 20
165.8323859757
 11
168.1362683748
 21
165.8804804389
  0
LINE
  5
474
100
AcDbEntity
  8
0
100
AcDbLine
 62
7
  6
CONTINUOUS
 10
169.0365361384
 20
164.9333223852
 11
169.1361948723
 21
164.9557315149
  0
LINE
  5
475
100
AcDbEntity
  8
0
100
AcDbLine
 62
7
  6
CONTINUOUS
 10
171.8503305308
 20
162.0982893998
 11
172.0013192158
 21
162.1243463542
  0
LINE
  5
476
100
AcDbEntity
  8
0
100
AcDbLine
 62
7
  6
CONTINUOUS
 10
88.2389268644
 20
185.0867804045
 11
88.0177161504
 21
185.2836399287
  0
LINE
  5
477
100
AcDbEntity
  8
0
100
AcDbLine
 62
7
  6
CONTINUOUS
 10
96.9934996593
 20
184.7620937574
 11
96.0087912397
 21
185.7934281741
  0
LINE
  5
478
100
AcDbEntity
  8
0
100
AcDbLine
 62
7
  6
CONTINUOUS
 10
91.4115280541
 20
185.0770677753
 11
91.5590018336
 21
184.9192082423
  0
LINE
  5
479
100
AcDbEntity
  8
0
100
AcDbLine
 62
7
  6
CONTINUOUS
 10
91.7006491773
 20
185.1571249284
 11
91.553175122
 21
185.314984385
  0
LINE
  5
47A
100
AcDbEntity
  8
0
100
AcDbLine
 62
7
  6
CONTINUOUS
 10
95.9016593837
 20
185.5750455589
 11
96.6999919674
 21
184.700019328
  0
LINE
  5
47B
100
AcDbEntity
  8
0
100
AcDbLine
 62
7
  6
CONTINUOUS
 10
129.104531562
 20
185.5903662088
 11
129.0447668577
 21
185.7314503386
  0
LINE
  5
47C
100
AcDbEntity
  8
0
100
AcDbLine
 62
7
  6
CONTINUOUS
 10
129.1106546052
 20
186.4918307112
 11
129.1903409395
 21
186.3037185656
  0
LINE
  5
47D
100
AcDbEntity
  8
0
100
AcDbLine
 62
7
  6
CONTINUOUS
 10
129.9208904153
 20
185.9835491849
 11
129.8412040811
 21
186.1716613305
  0
LINE
  5
47E
100
AcDbEntity
  8
0
100
AcDbLine
 62
7
  6
CONTINUOUS
 10
129.8054429814
 20
186.8666937905
 11
129.8452860676
 21
186.7726377342
  0
LINE
  5
47F
100
AcDbEntity
  8
0
100
AcDbLine
 62
7
  6
CONTINUOUS
 10
132.8094222395
 20
184.7610527789
 11
132.8622996712
 21
184.6172455292
  0
LINE
  5
480
100
AcDbEntity
  8
0
100
AcDbLine
 62
7
  6
CONTINUOUS
 10
137.9380116612
 20
183.3069672005
 11
137.8943245519
 21
183.4538276379
  0
LINE
  5
481
100
AcDbEntity
  8
0
100
AcDbLine
 62
7
  6
CONTINUOUS
 10
138.0444516315
 20
184.2021466649
 11
138.1027013323
 21
184.0063327182
  0
LINE
  5
482
100
AcDbEntity
  8
0
100
AcDbLine
 62
7
  6
CONTINUOUS
 10
138.7930665108
 20
183.6068256983
 11
138.734817439
 21
183.8026394423
  0
LINE
  5
483
100
AcDbEntity
  8
0
100
AcDbLine
 62
7
  6
CONTINUOUS
 10
138.7766526918
 20
184.4973327475
 11
138.8057778567
 21
184.3994256729
  0
LINE
  5
484
100
AcDbEntity
  8
0
100
AcDbLine
 62
7
  6
CONTINUOUS
 10
130.0234532962
 20
186.779474432
 11
129.9720654157
 21
186.9618449472
  0
LINE
  5
485
100
AcDbEntity
  8
0
100
AcDbLine
 62
7
  6
CONTINUOUS
 10
139.8725553261
 20
183.3319535636
 11
139.9001339763
 21
183.2335996691
  0
LINE
  5
486
100
AcDbEntity
  8
0
100
AcDbLine
 62
7
  6
CONTINUOUS
 10
140.0501486014
 20
183.316112783
 11
140.0087812519
 21
183.4636434121
  0
LINE
  5
487
100
AcDbEntity
  8
0
100
AcDbLine
 62
7
  6
CONTINUOUS
 10
132.5583289941
 20
185.4738141214
 11
132.5129417815
 21
185.657769877
  0
LINE
  5
488
100
AcDbEntity
  8
0
100
AcDbLine
 62
7
  6
CONTINUOUS
 10
138.9835987106
 20
184.3863855163
 11
138.9528325376
 21
184.5733431631
  0
LINE
  5
489
100
AcDbEntity
  8
0
100
AcDbLine
 62
7
  6
CONTINUOUS
 10
140.2396283179
 20
183.9636192243
 11
140.2118121935
 21
184.1510384931
  0
LINE
  5
48A
100
AcDbEntity
  8
0
100
AcDbLine
 62
7
  6
CONTINUOUS
 10
169.0428449675
 20
167.1048275143
 11
169.041448038
 21
167.2760319118
  0
LINE
  5
48B
100
AcDbEntity
  8
0
100
AcDbLine
 62
7
  6
CONTINUOUS
 10
170.0825396312
 20
165.9741239959
 11
170.1126391617
 21
166.1761886129
  0
LINE
  5
48C
100
AcDbEntity
  8
0
100
AcDbLine
 62
7
  6
CONTINUOUS
 10
172.9976595189
 20
163.0938811129
 11
173.0278236
 21
163.2441031897
  0
LINE
  5
48D
100
AcDbEntity
  8
0
100
AcDbLine
 62
7
  6
CONTINUOUS
 10
168.598603569
 20
167.5608613649
 11
168.4000513099
 21
167.5127668782
  0
LINE
  5
48E
100
AcDbEntity
  8
0
100
AcDbLine
 62
7
  6
CONTINUOUS
 10
169.5626815615
 20
166.6872386278
 11
169.3633642148
 21
166.6424202558
  0
LINE
  5
48F
100
AcDbEntity
  8
0
100
AcDbLine
 62
7
  6
CONTINUOUS
 10
172.5848003986
 20
163.6993750269
 11
172.4338117243
 21
163.6733180827
  0
LINE
  5
490
100
AcDbEntity
  8
0
100
AcDbLine
 62
7
  6
CONTINUOUS
 10
87.8190520288
 20
185.0853231273
 11
87.9534473876
 21
184.9945769971
  0
LINE
  5
491
100
AcDbEntity
  8
0
100
AcDbLine
 62
7
  6
CONTINUOUS
 10
90.8054938188
 20
183.5183943289
 11
90.9359341828
 21
183.4220498517
  0
LINE
  5
492
100
AcDbEntity
  8
0
100
AcDbLine
 62
7
  6
CONTINUOUS
 10
91.0775812418
 20
183.6599664937
 11
90.9471408808
 21
183.7563109602
  0
LINE
  5
493
100
AcDbEntity
  8
0
100
AcDbLine
 62
7
  6
CONTINUOUS
 10
91.281087693
 20
185.1734122417
 11
91.4115280541
 21
185.0770677753
  0
LINE
  5
494
100
AcDbEntity
  8
0
100
AcDbLine
 62
7
  6
CONTINUOUS
 10
91.553175122
 20
185.314984385
 11
91.4227344853
 21
185.4113287751
  0
LINE
  5
495
100
AcDbEntity
  8
0
100
AcDbLine
 62
7
  6
CONTINUOUS
 10
94.4645669359
 20
185.9094869008
 11
94.5911017939
 21
185.8080673223
  0
LINE
  5
496
100
AcDbEntity
  8
0
100
AcDbLine
 62
7
  6
CONTINUOUS
 10
94.7420320258
 20
186.0402055477
 11
94.6154977248
 21
186.1416252571
  0
LINE
  5
497
100
AcDbEntity
  8
0
100
AcDbLine
 62
7
  6
CONTINUOUS
 10
129.9720654157
 20
186.9618449472
 11
129.8840024136
 21
187.1086706457
  0
LINE
  5
498
100
AcDbEntity
  8
0
100
AcDbLine
 62
7
  6
CONTINUOUS
 10
138.9528325376
 20
184.5733431631
 11
138.8816612624
 21
184.729060075
  0
LINE
  5
499
100
AcDbEntity
  8
0
100
AcDbLine
 62
7
  6
CONTINUOUS
 10
133.9350320349
 20
185.9096894963
 11
133.8821545996
 21
186.0534967318
  0
LINE
  5
49A
100
AcDbEntity
  8
0
100
AcDbLine
 62
7
  6
CONTINUOUS
 10
136.4619300627
 20
185.2132123148
 11
136.3972988449
 21
185.4070131981
  0
LINE
  5
49B
100
AcDbEntity
  8
0
100
AcDbLine
 62
7
  6
CONTINUOUS
 10
168.2553278961
 20
166.963082669
 11
168.2472389074
 21
167.083653891
  0
LINE
  5
49C
100
AcDbEntity
  8
0
100
AcDbLine
 62
7
  6
CONTINUOUS
 10
168.3091568204
 20
166.4614930343
 11
168.3172457938
 21
166.3409218261
  0
LINE
  5
49D
100
AcDbEntity
  8
0
100
AcDbLine
 62
7
  6
CONTINUOUS
 10
171.4073073294
 20
162.553561237
 11
171.4174179512
 21
162.3619509329
  0
LINE
  5
49E
100
AcDbEntity
  8
0
100
AcDbLine
 62
7
  6
CONTINUOUS
 10
173.0278236
 20
163.2441031897
 11
173.0177129704
 21
163.4357134861
  0
LINE
  5
49F
100
AcDbEntity
  8
0
100
AcDbLine
 62
7
  6
CONTINUOUS
 10
168.6073894083
 20
165.4471258336
 11
168.6012869969
 21
165.5678139162
  0
LINE
  5
4A0
100
AcDbEntity
  8
0
100
AcDbLine
 62
7
  6
CONTINUOUS
 10
169.8921696787
 20
166.1510259371
 11
169.8982721103
 21
166.0303378761
  0
LINE
  5
4A1
100
AcDbEntity
  8
0
100
AcDbLine
 62
7
  6
CONTINUOUS
 10
171.5885161851
 20
162.4881557883
 11
171.5884881403
 21
162.6089980282
  0
LINE
  5
4A2
100
AcDbEntity
  8
0
100
AcDbLine
 62
7
  6
CONTINUOUS
 10
172.8466147549
 20
163.3095086487
 11
172.8466427998
 21
163.1886664088
  0
LINE
  5
4A3
100
AcDbEntity
  8
0
100
AcDbLine
 62
7
  6
CONTINUOUS
 10
168.0637603601
 20
166.0589660472
 11
167.9430111918
 21
166.0542235735
  0
LINE
  5
4A4
100
AcDbEntity
  8
0
100
AcDbLine
 62
7
  6
CONTINUOUS
 10
168.4725593367
 20
167.3342812987
 11
168.5933085006
 21
167.3390237367
  0
LINE
  5
4A5
100
AcDbEntity
  8
0
100
AcDbLine
 62
7
  6
CONTINUOUS
 10
169.4329232971
 20
166.4627648811
 11
169.5537341673
 21
166.4655183146
  0
LINE
  5
4A6
100
AcDbEntity
  8
0
100
AcDbLine
 62
7
  6
CONTINUOUS
 10
171.9106867484
 20
162.2778913237
 11
171.7898901999
 21
162.2812142164
  0
LINE
  5
4A7
100
AcDbEntity
  8
0
100
AcDbLine
 62
7
  6
CONTINUOUS
 10
172.5244441916
 20
163.5197731133
 11
172.6452407401
 21
163.5164502206
  0
LINE
  5
4A8
100
AcDbEntity
  8
0
100
AcDbLine
 62
7
  6
CONTINUOUS
 10
171.6590671377
 20
162.1136206677
 11
171.8503305308
 21
162.0982893998
  0
LINE
  5
4A9
100
AcDbEntity
  8
0
100
AcDbLine
 62
7
  6
CONTINUOUS
 10
172.7760637838
 20
163.6840437513
 11
172.5848003986
 21
163.6993750269
  0
LINE
  5
4AA
100
AcDbEntity
  8
0
100
AcDbLine
 62
7
  6
CONTINUOUS
 10
88.0177161504
 20
185.2836399287
 11
87.7685433128
 21
185.404391926
  0
LINE
  5
4AB
100
AcDbEntity
  8
0
100
AcDbLine
 62
7
  6
CONTINUOUS
 10
94.6154977248
 20
186.1416252571
 11
94.4402869916
 21
186.2316150456
  0
LINE
  5
4AC
100
AcDbEntity
  8
0
100
AcDbLine
 62
7
  6
CONTINUOUS
 10
128.9096106711
 20
185.500956668
 11
129.0259721247
 21
185.3483893283
  0
LINE
  5
4AD
100
AcDbEntity
  8
0
100
AcDbLine
 62
7
  6
CONTINUOUS
 10
131.5685268138
 20
184.9292919441
 11
131.6798290312
 21
184.7729952867
  0
LINE
  5
4AE
100
AcDbEntity
  8
0
100
AcDbLine
 62
7
  6
CONTINUOUS
 10
132.5129417815
 20
185.657769877
 11
132.4016395615
 21
185.8140665236
  0
LINE
  5
4AF
100
AcDbEntity
  8
0
100
AcDbLine
 62
7
  6
CONTINUOUS
 10
132.8622996712
 20
184.6172455292
 11
132.9711530021
 21
184.4592335642
  0
LINE
  5
4B0
100
AcDbEntity
  8
0
100
AcDbLine
 62
7
  6
CONTINUOUS
 10
133.8821545996
 20
186.0534967318
 11
133.7733015863
 21
186.2115086048
  0
LINE
  5
4B1
100
AcDbEntity
  8
0
100
AcDbLine
 62
7
  6
CONTINUOUS
 10
129.3653402035
 20
186.4401561366
 11
129.2971986635
 21
186.5399538233
  0
LINE
  5
4B2
100
AcDbEntity
  8
0
100
AcDbLine
 62
7
  6
CONTINUOUS
 10
129.6662048171
 20
186.0352237595
 11
129.734346357
 21
185.9354260728
  0
LINE
  5
4B3
100
AcDbEntity
  8
0
100
AcDbLine
 62
7
  6
CONTINUOUS
 10
131.7565469473
 20
184.9712794601
 11
131.6917105936
 21
185.0732554131
  0
LINE
  5
4B4
100
AcDbEntity
  8
0
100
AcDbLine
 62
7
  6
CONTINUOUS
 10
132.3249216514
 20
185.6157823753
 11
132.389758005
 21
185.5138064223
  0
LINE
  5
4B5
100
AcDbEntity
  8
0
100
AcDbLine
 62
7
  6
CONTINUOUS
 10
133.0509508969
 20
184.6562983479
 11
132.9877116979
 21
184.7592721028
  0
LINE
  5
4B6
100
AcDbEntity
  8
0
100
AcDbLine
 62
7
  6
CONTINUOUS
 10
133.6935030572
 20
186.0144440086
 11
133.7567425765
 21
185.9114701725
  0
LINE
  5
4B7
100
AcDbEntity
  8
0
100
AcDbLine
 62
7
  6
CONTINUOUS
 10
137.7343489121
 20
183.2398128681
 11
137.8330024536
 21
183.0752400512
  0
LINE
  5
4B8
100
AcDbEntity
  8
0
100
AcDbLine
 62
7
  6
CONTINUOUS
 10
139.0271461394
 20
182.8182990176
 11
139.1231933344
 21
182.6521921881
  0
LINE
  5
4B9
100
AcDbEntity
  8
0
100
AcDbLine
 62
7
  6
CONTINUOUS
 10
140.0087812519
 20
183.4636434121
 11
139.9127328018
 21
183.6297506563
  0
LINE
  5
4BA
100
AcDbEntity
  8
0
100
AcDbLine
 62
7
  6
CONTINUOUS
 10
140.2118121935
 20
184.1510384931
 11
140.1157637434
 21
184.3171457373
  0
LINE
  5
4BB
100
AcDbEntity
  8
0
100
AcDbLine
 62
7
  6
CONTINUOUS
 10
136.1959448415
 20
185.3332244366
 11
136.2560192993
 21
185.2283726019
  0
LINE
  5
4BC
100
AcDbEntity
  8
0
100
AcDbLine
 62
7
  6
CONTINUOUS
 10
138.2918014945
 20
184.1224405739
 11
138.2351934308
 21
184.2292037458
  0
LINE
  5
4BD
100
AcDbEntity
  8
0
100
AcDbLine
 62
7
  6
CONTINUOUS
 10
138.5457166478
 20
183.6865317893
 11
138.6023247115
 21
183.5797686174
  0
LINE
  5
4BE
100
AcDbEntity
  8
0
100
AcDbLine
 62
7
  6
CONTINUOUS
 10
139.2182906447
 20
182.8423468907
 11
139.16337207
 21
182.9499888801
  0
LINE
  5
4BF
100
AcDbEntity
  8
0
100
AcDbLine
 62
7
  6
CONTINUOUS
 10
139.8176367514
 20
183.439595553
 11
139.8725553261
 21
183.3319535636
  0
LINE
  5
4C0
100
AcDbEntity
  8
0
100
AcDbLine
 62
7
  6
CONTINUOUS
 10
140.020667693
 20
184.126990634
 11
140.0755862677
 21
184.0193486445
  0
LINE
  5
4C1
100
AcDbEntity
  8
0
100
AcDbLine
 62
7
  6
CONTINUOUS
 10
167.3861095852
 20
166.3849437739
 11
167.4089795456
 21
166.1944345593
  0
LINE
  5
4C2
100
AcDbEntity
  8
RUNDUNGEN
100
AcDbLine
 62
7
  6
CONTINUOUS
 10
182.767204243
 20
164.0016339857
 11
182.2965554533
 21
169.4167292359
  0
LINE
  5
4C3
100
AcDbEntity
  8
RUNDUNGEN
100
AcDbLine
 62
7
  6
CONTINUOUS
 10
182.2965554533
 20
41.2758130154
 11
182.7672040251
 21
46.6909057586
  0
LINE
  5
4C4
100
AcDbEntity
  8
RUNDUNGEN
100
AcDbLine
 62
7
  6
CONTINUOUS
 10
198.9195122095
 20
143.0127504119
 11
198.9195203806
 21
143.0127836023
  0
LINE
  5
4C5
100
AcDbEntity
  8
RUNDUNGEN
100
AcDbLine
 62
7
  6
CONTINUOUS
 10
202.7577411306
 20
121.296605819
 11
205.0576938276
 21
126.2215378661
  0
LINE
  5
4C6
100
AcDbEntity
  8
RUNDUNGEN
100
AcDbLine
 62
7
  6
CONTINUOUS
 10
140.9872357173
 20
15.248249155
 11
144.1023757084
 21
19.7025327486
  0
LINE
  5
4C7
100
AcDbEntity
  8
RUNDUNGEN
100
AcDbLine
 62
7
  6
CONTINUOUS
 10
206.2516072524
 20
95.0435430656
 11
206.251630924
 21
95.0435677237
  0
LINE
  5
4C8
100
AcDbEntity
  8
RUNDUNGEN
100
AcDbLine
 62
7
  6
CONTINUOUS
 10
198.7175387072
 20
74.3176957153
 11
203.1718221938
 21
77.4328356315
  0
LINE
  5
4C9
100
AcDbEntity
  8
RUNDUNGEN
100
AcDbLine
 62
7
  6
CONTINUOUS
 10
92.1985334827
 20
13.3623775213
 11
97.1234679281
 21
15.6623313383
  0
LINE
  5
4CA
100
AcDbEntity
  8
RUNDUNGEN
100
AcDbLine
 62
7
  6
CONTINUOUS
 10
188.6167858055
 20
49.8349439123
 11
188.6168187085
 21
49.8349534503
  0
LINE
  5
4CB
100
AcDbEntity
  8
0
100
AcDbLine
 62
7
  6
CONTINUOUS
 10
129.4658621837
 20
186.9355932233
 11
129.5591342129
 21
186.9596547793
  0
LINE
  5
4CC
100
AcDbEntity
  8
0
100
AcDbLine
 62
7
  6
CONTINUOUS
 10
138.4468528745
 20
184.6036075355
 11
138.5422237742
 21
184.6171360759
  0
LINE
  5
4CD
100
AcDbEntity
  8
0
100
AcDbLine
 62
7
  6
CONTINUOUS
 10
139.5737146696
 20
182.7215999553
 11
139.4781424193
 21
182.7095760257
  0
LINE
  5
4CE
100
AcDbEntity
  8
0
100
AcDbLine
 62
7
  6
CONTINUOUS
 10
139.4622127265
 20
183.5603424884
 11
139.5577849768
 21
183.572366418
  0
LINE
  5
4CF
100
AcDbEntity
  8
RUNDUNGEN
100
AcDbLine
 62
7
  6
CONTINUOUS
 10
54.4184347257
 20
175.0396749162
 11
49.003342113
 21
174.5690263558
  0
LINE
  5
4D0
100
AcDbEntity
  8
RUNDUNGEN
100
AcDbLine
 62
7
  6
CONTINUOUS
 10
177.1442583334
 20
174.5690263558
 11
171.7291655902
 21
175.0396749275
  0
LINE
  5
4D1
100
AcDbEntity
  8
0
100
AcDbLine
 62
7
  6
CONTINUOUS
 10
167.7954939116
 20
165.84694829
 11
167.9377160675
 21
165.8323859757
  0
LINE
  5
4D2
100
AcDbEntity
  8
0
100
AcDbLine
 62
7
  6
CONTINUOUS
 10
168.7408257328
 20
167.5462990286
 11
168.598603569
 21
167.5608613649
  0
LINE
  5
4D3
100
AcDbEntity
  8
0
100
AcDbLine
 62
7
  6
CONTINUOUS
 10
169.7046445679
 20
166.6703363651
 11
169.5626815615
 21
166.6872386278
  0
LINE
  5
4D4
100
AcDbEntity
  8
RUNDUNGEN
100
AcDbLine
 62
7
  6
CONTINUOUS
 10
75.407461732
 20
191.1919520654
 11
75.4074176766
 21
191.1919627197
  0
LINE
  5
4D5
100
AcDbEntity
  8
0
100
AcDbLine
 62
7
  6
CONTINUOUS
 10
168.5933085006
 20
167.3390237367
 11
168.6858926054
 21
167.3124377734
  0
LINE
  5
4D6
100
AcDbEntity
  8
0
100
AcDbLine
 62
7
  6
CONTINUOUS
 10
168.7949143806
 20
164.9278154992
 11
168.8870481435
 21
164.8997085618
  0
LINE
  5
4D7
100
AcDbEntity
  8
0
100
AcDbLine
 62
7
  6
CONTINUOUS
 10
168.9246726625
 20
165.1522892649
 11
168.832538902
 21
165.180396205
  0
LINE
  5
4D8
100
AcDbEntity
  8
0
100
AcDbLine
 62
7
  6
CONTINUOUS
 10
90.9359341828
 20
183.4220498517
 11
91.0493414025
 21
183.3872205228
  0
LINE
  5
4D9
100
AcDbEntity
  8
0
100
AcDbLine
 62
7
  6
CONTINUOUS
 10
91.4227344853
 20
185.4113287751
 11
91.3093275428
 21
185.4461581749
  0
LINE
  5
4DA
100
AcDbEntity
  8
0
100
AcDbLine
 62
7
  6
CONTINUOUS
 10
94.3526239102
 20
185.9487669654
 11
94.4645669359
 21
185.9094869008
  0
LINE
  5
4DB
100
AcDbEntity
  8
RUNDUNGEN
100
AcDbLine
 62
7
  6
CONTINUOUS
 10
97.12346563
 20
195.0302119862
 11
92.1985334827
 21
197.33016473
  0
LINE
  5
4DC
100
AcDbEntity
  8
RUNDUNGEN
100
AcDbLine
 62
7
  6
CONTINUOUS
 10
203.1718221938
 20
133.2597066198
 11
198.7175386002
 21
136.3748466108
  0
LINE
  5
4DD
100
AcDbEntity
  8
0
100
AcDbLine
 62
7
  6
CONTINUOUS
 10
129.4418585731
 20
186.3816448642
 11
129.3653402035
 21
186.4401561366
  0
LINE
  5
4DE
100
AcDbEntity
  8
0
100
AcDbLine
 62
7
  6
CONTINUOUS
 10
129.7289246117
 20
186.925205063
 11
129.8054429814
 21
186.8666937905
  0
LINE
  5
4DF
100
AcDbEntity
  8
RUNDUNGEN
100
AcDbLine
 62
7
  6
CONTINUOUS
 10
123.3765105357
 20
198.5240945531
 11
123.3764882229
 21
198.52411589
  0
LINE
  5
4E0
100
AcDbEntity
  8
0
100
AcDbLine
 62
7
  6
CONTINUOUS
 10
138.3613305034
 20
184.0557746395
 11
138.2918014945
 21
184.1224405739
  0
LINE
  5
4E1
100
AcDbEntity
  8
0
100
AcDbLine
 62
7
  6
CONTINUOUS
 10
138.7071236828
 20
184.563998682
 11
138.7766526918
 21
184.4973327475
  0
LINE
  5
4E2
100
AcDbEntity
  8
0
100
AcDbLine
 62
7
  6
CONTINUOUS
 10
139.2867604446
 20
182.7745935409
 11
139.2182906447
 21
182.8423468907
  0
LINE
  5
4E3
100
AcDbEntity
  8
0
100
AcDbLine
 62
7
  6
CONTINUOUS
 10
139.7491669515
 20
183.5073489028
 11
139.8176367514
 21
183.439595553
  0
LINE
  5
4E4
100
AcDbEntity
  8
0
100
AcDbLine
 62
7
  6
CONTINUOUS
 10
129.1903409395
 20
186.3037185656
 11
129.2867807713
 21
186.1981792814
  0
LINE
  5
4E5
100
AcDbEntity
  8
0
100
AcDbLine
 62
7
  6
CONTINUOUS
 10
129.8412040811
 20
186.1716613305
 11
129.7447640873
 21
186.2772006475
  0
LINE
  5
4E6
100
AcDbEntity
  8
0
100
AcDbLine
 62
7
  6
CONTINUOUS
 10
136.3972988449
 20
185.4070131981
 11
136.309465538
 21
185.5198164259
  0
LINE
  5
4E7
100
AcDbEntity
  8
0
100
AcDbLine
 62
7
  6
CONTINUOUS
 10
138.1027013323
 20
184.0063327182
 11
138.1867922947
 21
183.8907134492
  0
LINE
  5
4E8
100
AcDbEntity
  8
0
100
AcDbLine
 62
7
  6
CONTINUOUS
 10
138.734817439
 20
183.8026394423
 11
138.6507264766
 21
183.9182587113
  0
LINE
  5
4E9
100
AcDbEntity
  8
RUNDUNGEN
100
AcDbLine
 62
7
  6
CONTINUOUS
 10
144.1023756336
 20
190.9900096096
 11
140.9872357173
 21
195.4442930963
  0
LINE
  5
4EA
100
AcDbEntity
  8
RUNDUNGEN
100
AcDbLine
 62
7
  6
CONTINUOUS
 10
205.0576938276
 20
84.4710043851
 11
202.7577410754
 21
89.3959365505
  0
LINE
  5
4EB
100
AcDbEntity
  8
0
100
AcDbLine
 62
7
  6
CONTINUOUS
 10
168.2915819133
 20
166.8738398758
 11
168.2553278961
 21
166.963082669
  0
LINE
  5
4EC
100
AcDbEntity
  8
0
100
AcDbLine
 62
7
  6
CONTINUOUS
 10
168.8147307274
 20
167.196609017
 11
168.8509847139
 21
167.1073662514
  0
LINE
  5
4ED
100
AcDbEntity
  8
RUNDUNGEN
100
AcDbLine
 62
7
  6
CONTINUOUS
 10
168.5851279661
 20
180.8892550518
 11
168.5851184474
 21
180.8892878811
  0
LINE
  5
4EE
100
AcDbEntity
  8
0
100
AcDbLine
 62
7
  6
CONTINUOUS
 10
168.0353026141
 20
166.9342929773
 11
168.0648646028
 21
166.794416981
  0
LINE
  5
4EF
100
AcDbEntity
  8
0
100
AcDbLine
 62
7
  6
CONTINUOUS
 10
168.5291820563
 20
166.4902827674
 11
168.499620083
 21
166.6301587499
  0
LINE
  5
4F0
100
AcDbEntity
  8
0
100
AcDbLine
 62
7
  6
CONTINUOUS
 10
168.3869199153
 20
165.4219631471
 11
168.4141744756
 21
165.2816193817
  0
LINE
  5
4F1
100
AcDbEntity
  8
0
100
AcDbLine
 62
7
  6
CONTINUOUS
 10
170.1126391617
 20
166.1761886129
 11
170.0853844729
 21
166.3165324826
  0
LINE
  5
4F2
100
AcDbEntity
  8
RUNDUNGEN
100
AcDbLine
 62
7
  6
CONTINUOUS
 10
197.911649715
 20
138.4429468977
 11
197.8651959225
 21
138.0540188774
  0
LINE
  5
4F3
100
AcDbEntity
  8
RUNDUNGEN
100
AcDbLine
 62
7
  6
CONTINUOUS
 10
182.8391592389
 20
47.0757050273
 11
182.7672018864
 21
46.6909084704
  0
LINE
  5
4F4
100
AcDbEntity
  8
RUNDUNGEN
100
AcDbLine
 62
7
  6
CONTINUOUS
 10
198.9194325422
 20
143.0123840344
 11
197.9143668198
 21
138.4404735881
  0
LINE
  5
4F5
100
AcDbEntity
  8
RUNDUNGEN
100
AcDbLine
 62
7
  6
CONTINUOUS
 10
170.0007849394
 20
34.2655677874
 11
168.5851985718
 21
29.8035069278
  0
LINE
  5
4F6
100
AcDbEntity
  8
RUNDUNGEN
100
AcDbLine
 62
7
  6
CONTINUOUS
 10
202.6276586595
 20
120.9273807481
 11
202.7577401609
 21
121.2966033505
  0
LINE
  5
4F7
100
AcDbEntity
  8
RUNDUNGEN
100
AcDbLine
 62
7
  6
CONTINUOUS
 10
169.9971904734
 20
34.2647858797
 11
170.1514258268
 21
34.624833252
  0
LINE
  5
4F8
100
AcDbEntity
  8
RUNDUNGEN
100
AcDbLine
 62
7
  6
CONTINUOUS
 10
203.0938709716
 20
91.5899083791
 11
202.859176797
 21
91.2763137296
  0
LINE
  5
4F9
100
AcDbEntity
  8
RUNDUNGEN
100
AcDbLine
 62
7
  6
CONTINUOUS
 10
144.3570903857
 20
19.9998010837
 11
144.1023752121
 21
19.7025361664
  0
LINE
  5
4FA
100
AcDbEntity
  8
RUNDUNGEN
100
AcDbLine
 62
7
  6
CONTINUOUS
 10
206.2513550698
 20
95.0432656069
 11
203.0949873985
 21
91.5864078778
  0
LINE
  5
4FB
100
AcDbEntity
  8
RUNDUNGEN
100
AcDbLine
 62
7
  6
CONTINUOUS
 10
126.8336634792
 20
15.3250839577
 11
123.3766992938
 21
12.168619084
  0
LINE
  5
4FC
100
AcDbEntity
  8
RUNDUNGEN
100
AcDbLine
 62
7
  6
CONTINUOUS
 10
198.4202714472
 20
74.0629786597
 11
198.7175366332
 21
74.3176940624
  0
LINE
  5
4FD
100
AcDbEntity
  8
RUNDUNGEN
100
AcDbLine
 62
7
  6
CONTINUOUS
 10
126.8301596264
 20
15.3262040388
 11
127.1437550468
 21
15.5608965332
  0
LINE
  5
4FE
100
AcDbEntity
  8
RUNDUNGEN
100
AcDbLine
 62
7
  6
CONTINUOUS
 10
184.1552869685
 20
48.4228761493
 11
183.7952385264
 21
48.2686423036
  0
LINE
  5
4FF
100
AcDbEntity
  8
RUNDUNGEN
100
AcDbLine
 62
7
  6
CONTINUOUS
 10
97.492689197
 20
15.7924148647
 11
97.1234669272
 21
15.6623334815
  0
LINE
  5
500
100
AcDbEntity
  8
RUNDUNGEN
100
AcDbLine
 62
7
  6
CONTINUOUS
 10
188.6164277275
 20
49.8348294111
 11
184.1545035719
 21
48.4192864128
  0
LINE
  5
501
100
AcDbEntity
  8
0
100
AcDbLine
 62
7
  6
CONTINUOUS
 10
91.2591218704
 20
183.3790767844
 11
91.6446165175
 21
183.4858196042
  0
LINE
  5
502
100
AcDbEntity
  8
0
100
AcDbLine
 62
7
  6
CONTINUOUS
 10
91.4801090377
 20
183.7051941491
 11
91.2873619899
 21
183.6518228155
  0
LINE
  5
503
100
AcDbEntity
  8
0
100
AcDbLine
 62
7
  6
CONTINUOUS
 10
90.8785599031
 20
185.1281845649
 11
91.0713069509
 21
185.1815558984
  0
LINE
  5
504
100
AcDbEntity
  8
0
100
AcDbLine
 62
7
  6
CONTINUOUS
 10
91.0995470764
 20
185.454301908
 11
90.7140524292
 21
185.3475590881
  0
LINE
  5
505
100
AcDbEntity
  8
0
100
AcDbLine
 62
7
  6
CONTINUOUS
 10
92.6106573537
 20
183.7441943096
 11
92.8526502984
 21
183.8069598263
  0
LINE
  5
506
100
AcDbEntity
  8
0
100
AcDbLine
 62
7
  6
CONTINUOUS
 10
92.0994646732
 20
186.7108729472
 11
91.8574717285
 21
186.6481074306
  0
LINE
  5
507
100
AcDbEntity
  8
0
100
AcDbLine
 62
7
  6
CONTINUOUS
 10
93.240238306
 20
183.9058306798
 11
93.4827269803
 21
183.966652865
  0
LINE
  5
508
100
AcDbEntity
  8
0
100
AcDbLine
 62
7
  6
CONTINUOUS
 10
92.9857971805
 20
185.9478353528
 11
92.7433085062
 21
185.8870131675
  0
LINE
  5
509
100
AcDbEntity
  8
0
100
AcDbLine
 62
7
  6
CONTINUOUS
 10
92.5880179138
 20
186.5061328142
 11
92.8305065881
 21
186.5669549995
  0
LINE
  5
50A
100
AcDbEntity
  8
0
100
AcDbLine
 62
7
  6
CONTINUOUS
 10
92.7528613137
 20
186.8765147361
 11
92.5103726394
 21
186.8156925508
  0
LINE
  5
50B
100
AcDbEntity
  8
0
100
AcDbLine
 62
7
  6
CONTINUOUS
 10
93.8704192889
 20
184.0652593762
 11
94.1137992219
 21
184.1224084574
  0
LINE
  5
50C
100
AcDbEntity
  8
0
100
AcDbLine
 62
7
  6
CONTINUOUS
 10
94.9899683175
 20
184.3281454639
 11
95.2333488075
 21
184.3852946759
  0
LINE
  5
50D
100
AcDbEntity
  8
0
100
AcDbLine
 62
7
  6
CONTINUOUS
 10
94.2796675336
 20
186.2594651892
 11
94.0849629188
 21
186.2137457673
  0
LINE
  5
50E
100
AcDbEntity
  8
0
100
AcDbLine
 62
7
  6
CONTINUOUS
 10
93.646878371
 20
186.1108772641
 11
93.403498438
 21
186.0537281828
  0
LINE
  5
50F
100
AcDbEntity
  8
RUNDUNGEN
100
AcDbLine
 62
7
  6
CONTINUOUS
 10
146.1680026749
 20
190.1868377198
 11
150.7400534297
 21
191.191934287
  0
LINE
  5
510
100
AcDbEntity
  8
0
100
AcDbLine
 62
7
  6
CONTINUOUS
 10
95.6237972836
 20
184.4724131263
 11
95.8683866537
 21
184.5241417385
  0
LINE
  5
511
100
AcDbEntity
  8
0
100
AcDbLine
 62
7
  6
CONTINUOUS
 10
96.6999919674
 20
184.700019328
 11
96.9934996593
 21
184.7620937574
  0
LINE
  5
512
100
AcDbEntity
  8
0
100
AcDbLine
 62
7
  6
CONTINUOUS
 10
96.3751930919
 20
186.7190609051
 11
96.0816859598
 21
186.6569865941
  0
LINE
  5
513
100
AcDbEntity
  8
0
100
AcDbLine
 62
7
  6
CONTINUOUS
 10
95.2476423597
 20
187.4592186577
 11
95.0030529896
 21
187.4074900455
  0
LINE
  5
514
100
AcDbEntity
  8
RUNDUNGEN
100
AcDbLine
 62
7
  6
CONTINUOUS
 10
54.8032342529
 20
175.1116327272
 11
54.4184373488
 21
175.0396753107
  0
LINE
  5
515
100
AcDbEntity
  8
0
100
AcDbLine
 62
7
  6
CONTINUOUS
 10
129.5573060129
 20
185.4985002875
 11
129.43573553
 21
185.4801803618
  0
LINE
  5
516
100
AcDbEntity
  8
0
100
AcDbLine
 62
7
  6
CONTINUOUS
 10
129.6093951913
 20
187.2073732648
 11
129.4878247083
 21
187.1890533391
  0
LINE
  5
517
100
AcDbEntity
  8
0
100
AcDbLine
 62
7
  6
CONTINUOUS
 10
139.6925835927
 20
184.2384494744
 11
139.7881558429
 21
184.2504734039
  0
LINE
  5
518
100
AcDbEntity
  8
RUNDUNGEN
100
AcDbLine
 62
7
  6
CONTINUOUS
 10
146.1704770599
 20
190.1841157748
 11
145.7815492122
 21
190.1376638228
  0
LINE
  5
519
100
AcDbEntity
  8
0
100
AcDbLine
 62
7
  6
CONTINUOUS
 10
132.1498793624
 20
184.8779640661
 11
132.0277742397
 21
184.8636356732
  0
LINE
  5
51A
100
AcDbEntity
  8
0
100
AcDbLine
 62
7
  6
CONTINUOUS
 10
131.9315892363
 20
185.7090977693
 11
132.0536946805
 21
185.7234260859
  0
LINE
  5
51B
100
AcDbEntity
  8
0
100
AcDbLine
 62
7
  6
CONTINUOUS
 10
129.3854745457
 20
185.2324618473
 11
129.5353433213
 21
185.2450401792
  0
LINE
  5
51C
100
AcDbEntity
  8
0
100
AcDbLine
 62
7
  6
CONTINUOUS
 10
87.7685433128
 20
185.404391926
 11
87.5110259595
 21
185.3882960456
  0
LINE
  5
51D
100
AcDbEntity
  8
0
100
AcDbLine
 62
7
  6
CONTINUOUS
 10
131.9791513805
 20
184.6586861381
 11
132.1293515617
 21
184.6663491765
  0
LINE
  5
51E
100
AcDbEntity
  8
0
100
AcDbLine
 62
7
  6
CONTINUOUS
 10
132.1023175329
 20
185.9283755923
 11
131.952117031
 21
185.9207126338
  0
LINE
  5
51F
100
AcDbEntity
  8
0
100
AcDbLine
 62
7
  6
CONTINUOUS
 10
138.3777443315
 20
183.1652676184
 11
138.2548905331
 21
183.1605951751
  0
LINE
  5
520
100
AcDbEntity
  8
0
100
AcDbLine
 62
7
  6
CONTINUOUS
 10
138.6197494461
 20
184.8577195006
 11
138.4968950187
 21
184.85304726
  0
LINE
  5
521
100
AcDbEntity
  8
0
100
AcDbLine
 62
7
  6
CONTINUOUS
 10
133.3308300678
 20
184.5852748348
 11
133.1805287187
 21
184.5799531108
  0
LINE
  5
522
100
AcDbEntity
  8
0
100
AcDbLine
 62
7
  6
CONTINUOUS
 10
133.4136238863
 20
186.0854675218
 11
133.5639258761
 21
186.0907890832
  0
LINE
  5
523
100
AcDbEntity
  8
0
100
AcDbLine
 62
7
  6
CONTINUOUS
 10
135.8073234976
 20
185.4445432122
 11
135.9577178338
 21
185.4452853474
  0
LINE
  5
524
100
AcDbEntity
  8
0
100
AcDbLine
 62
7
  6
CONTINUOUS
 10
133.1287182916
 20
184.375786086
 11
133.3070077509
 21
184.3740054135
  0
LINE
  5
525
100
AcDbEntity
  8
0
100
AcDbLine
 62
7
  6
CONTINUOUS
 10
133.6157362959
 20
186.2949560794
 11
133.4374468375
 21
186.2967367555
  0
LINE
  5
526
100
AcDbEntity
  8
0
100
AcDbLine
 62
7
  6
CONTINUOUS
 10
138.1773648522
 20
182.9200117224
 11
138.3277028085
 21
182.9158276666
  0
LINE
  5
527
100
AcDbEntity
  8
0
100
AcDbLine
 62
7
  6
CONTINUOUS
 10
91.0493414025
 20
183.3872205228
 11
91.2591218704
 21
183.3790767844
  0
LINE
  5
528
100
AcDbEntity
  8
0
100
AcDbLine
 62
7
  6
CONTINUOUS
 10
91.2873619899
 20
183.6518228155
 11
91.0775812418
 21
183.6599664937
  0
LINE
  5
529
100
AcDbEntity
  8
0
100
AcDbLine
 62
7
  6
CONTINUOUS
 10
91.0713069509
 20
185.1815558984
 11
91.281087693
 21
185.1734122417
  0
LINE
  5
52A
100
AcDbEntity
  8
0
100
AcDbLine
 62
7
  6
CONTINUOUS
 10
91.3093275428
 20
185.4461581749
 11
91.0995470764
 21
185.454301908
  0
LINE
  5
52B
100
AcDbEntity
  8
0
100
AcDbLine
 62
7
  6
CONTINUOUS
 10
139.3830463594
 20
182.5194208945
 11
139.5332984598
 21
182.5128686375
  0
LINE
  5
52C
100
AcDbEntity
  8
0
100
AcDbLine
 62
7
  6
CONTINUOUS
 10
139.6528810273
 20
183.7625215213
 11
139.5026276764
 21
183.7690742069
  0
LINE
  5
52D
100
AcDbEntity
  8
0
100
AcDbLine
 62
7
  6
CONTINUOUS
 10
139.8832518934
 20
184.4406285073
 11
139.7329985425
 21
184.4471811929
  0
LINE
  5
52E
100
AcDbEntity
  8
0
100
AcDbLine
 62
7
  6
CONTINUOUS
 10
136.0434796814
 20
185.6398287297
 11
135.837568918
 21
185.6549890168
  0
LINE
  5
52F
100
AcDbEntity
  8
0
100
AcDbLine
 62
7
  6
CONTINUOUS
 10
94.14332802
 20
185.9651871882
 11
94.3526239102
 21
185.9487669654
  0
LINE
  5
530
100
AcDbEntity
  8
0
100
AcDbLine
 62
7
  6
CONTINUOUS
 10
87.6566945465
 20
185.0999617306
 11
87.8190520288
 21
185.0853231273
  0
LINE
  5
531
100
AcDbEntity
  8
RUNDUNGEN
100
AcDbLine
 62
7
  6
CONTINUOUS
 10
79.9771244077
 20
190.1841204199
 11
80.3660524081
 21
190.137666722
  0
LINE
  5
532
100
AcDbEntity
  8
0
100
AcDbLine
 62
7
  6
CONTINUOUS
 10
94.4402869916
 20
186.2316150456
 11
94.2796675336
 21
186.2594651892
  0
LINE
  5
533
100
AcDbEntity
  8
0
100
AcDbLine
 62
7
  6
CONTINUOUS
 10
127.5142536342
 20
185.5934356796
 11
128.5361268383
 21
185.4028171997
  0
LINE
  5
534
100
AcDbEntity
  8
0
100
AcDbLine
 62
7
  6
CONTINUOUS
 10
128.5824778363
 20
185.6512970056
 11
127.7309168329
 21
185.8101457388
  0
LINE
  5
535
100
AcDbEntity
  8
0
100
AcDbLine
 62
7
  6
CONTINUOUS
 10
128.0476486537
 20
187.5080910835
 11
127.877336453
 21
187.5398608301
  0
LINE
  5
536
100
AcDbEntity
  8
RUNDUNGEN
100
AcDbLine
 62
7
  6
CONTINUOUS
 10
171.3443663216
 20
175.1116301413
 11
171.7291628784
 21
175.0396727888
  0
LINE
  5
537
100
AcDbEntity
  8
0
100
AcDbLine
 62
7
  6
CONTINUOUS
 10
129.1590874012
 20
185.2783947916
 11
129.3854745457
 21
185.2324618473
  0
LINE
  5
538
100
AcDbEntity
  8
0
100
AcDbLine
 62
7
  6
CONTINUOUS
 10
129.43573553
 20
185.4801803618
 11
129.2093483855
 21
185.526113306
  0
LINE
  5
539
100
AcDbEntity
  8
0
100
AcDbLine
 62
7
  6
CONTINUOUS
 10
129.0415988931
 20
185.8610512117
 11
128.8718085752
 21
185.8955009117
  0
LINE
  5
53A
100
AcDbEntity
  8
0
100
AcDbLine
 62
7
  6
CONTINUOUS
 10
129.3915975947
 20
186.1339263787
 11
129.5613879936
 21
186.0994766623
  0
LINE
  5
53B
100
AcDbEntity
  8
0
100
AcDbLine
 62
7
  6
CONTINUOUS
 10
129.611648972
 20
186.3471951478
 11
129.4418585731
 21
186.3816448642
  0
LINE
  5
53C
100
AcDbEntity
  8
0
100
AcDbLine
 62
7
  6
CONTINUOUS
 10
129.8568308619
 20
186.6843232753
 11
130.0266212608
 21
186.6498735589
  0
LINE
  5
53D
100
AcDbEntity
  8
0
100
AcDbLine
 62
7
  6
CONTINUOUS
 10
129.5591342129
 20
186.9596547793
 11
129.7289246117
 21
186.925205063
  0
LINE
  5
53E
100
AcDbEntity
  8
0
100
AcDbLine
 62
7
  6
CONTINUOUS
 10
129.7508871363
 20
187.1786651788
 11
129.6093951913
 21
187.2073732648
  0
LINE
  5
53F
100
AcDbEntity
  8
RUNDUNGEN
100
AcDbLine
 62
7
  6
CONTINUOUS
 10
79.9795981424
 20
190.1868376383
 11
75.4078974566
 21
191.1918572481
  0
LINE
  5
540
100
AcDbEntity
  8
0
100
AcDbLine
 62
7
  6
CONTINUOUS
 10
131.8105803913
 20
184.698678439
 11
131.9791513805
 21
184.6586861381
  0
LINE
  5
541
100
AcDbEntity
  8
0
100
AcDbLine
 62
7
  6
CONTINUOUS
 10
132.0277742397
 20
184.8636356732
 11
131.8592032505
 21
184.9036279741
  0
LINE
  5
542
100
AcDbEntity
  8
0
100
AcDbLine
 62
7
  6
CONTINUOUS
 10
131.674418767
 20
185.2505457631
 11
131.5058477779
 21
185.2905380639
  0
LINE
  5
543
100
AcDbEntity
  8
0
100
AcDbLine
 62
7
  6
CONTINUOUS
 10
131.5933689258
 20
185.6594472329
 11
131.7900349726
 21
185.612789574
  0
LINE
  5
544
100
AcDbEntity
  8
0
100
AcDbLine
 62
7
  6
CONTINUOUS
 10
132.0536946805
 20
185.7234260859
 11
132.2222656696
 21
185.683433785
  0
LINE
  5
545
100
AcDbEntity
  8
0
100
AcDbLine
 62
7
  6
CONTINUOUS
 10
132.270888522
 20
185.8883832914
 11
132.1023175329
 21
185.9283755923
  0
LINE
  5
546
100
AcDbEntity
  8
0
100
AcDbLine
 62
7
  6
CONTINUOUS
 10
131.938060543
 20
186.4869084081
 11
132.7528204309
 21
186.2936122619
  0
LINE
  5
547
100
AcDbEntity
  8
0
100
AcDbLine
 62
7
  6
CONTINUOUS
 10
132.8014432833
 20
186.4985617683
 11
131.8462077855
 21
186.725184781
  0
LINE
  5
548
100
AcDbEntity
  8
0
100
AcDbLine
 62
7
  6
CONTINUOUS
 10
134.0402136652
 20
184.8800952875
 11
134.4308064753
 21
184.7759072792
  0
LINE
  5
549
100
AcDbEntity
  8
0
100
AcDbLine
 62
7
  6
CONTINUOUS
 10
134.4850946639
 20
184.9794295124
 11
134.0945018537
 21
185.0836175207
  0
LINE
  5
54A
100
AcDbEntity
  8
0
100
AcDbLine
 62
7
  6
CONTINUOUS
 10
134.6363054044
 20
183.9778318625
 11
134.8033871781
 21
183.9320143615
  0
LINE
  5
54B
100
AcDbEntity
  8
0
100
AcDbLine
 62
7
  6
CONTINUOUS
 10
135.3270157607
 20
185.8415203467
 11
135.159933987
 21
185.8873378477
  0
LINE
  5
54C
100
AcDbEntity
  8
0
100
AcDbLine
 62
7
  6
CONTINUOUS
 10
135.0263488364
 20
183.871551915
 11
136.0256597744
 21
183.5853039469
  0
LINE
  5
54D
100
AcDbEntity
  8
0
100
AcDbLine
 62
7
  6
CONTINUOUS
 10
136.0836634166
 20
183.7877985688
 11
135.3064213641
 21
184.0104359379
  0
LINE
  5
54E
100
AcDbEntity
  8
0
100
AcDbLine
 62
7
  6
CONTINUOUS
 10
135.4717339154
 20
185.3215618219
 11
135.6105268895
 21
185.2818052203
  0
LINE
  5
54F
100
AcDbEntity
  8
0
100
AcDbLine
 62
7
  6
CONTINUOUS
 10
135.9577178338
 20
185.4452853474
 11
136.0687519589
 21
185.4134801389
  0
LINE
  5
550
100
AcDbEntity
  8
0
100
AcDbLine
 62
7
  6
CONTINUOUS
 10
136.1545144419
 20
185.6080233393
 11
136.0434796814
 21
185.6398287297
  0
LINE
  5
551
100
AcDbEntity
  8
RUNDUNGEN
100
AcDbLine
 62
7
  6
CONTINUOUS
 10
184.1545035615
 20
162.2732558418
 11
188.6165639461
 21
160.8576696249
  0
LINE
  5
552
100
AcDbEntity
  8
0
100
AcDbLine
 62
7
  6
CONTINUOUS
 10
137.957498517
 20
182.9908615135
 11
138.1773648522
 21
182.9200117224
  0
LINE
  5
553
100
AcDbEntity
  8
0
100
AcDbLine
 62
7
  6
CONTINUOUS
 10
138.2548905331
 20
183.1605951751
 11
138.035024198
 21
183.2314449662
  0
LINE
  5
554
100
AcDbEntity
  8
0
100
AcDbLine
 62
7
  6
CONTINUOUS
 10
137.9056038601
 20
183.5829756501
 11
137.7407039515
 21
183.636113044
  0
LINE
  5
555
100
AcDbEntity
  8
0
100
AcDbLine
 62
7
  6
CONTINUOUS
 10
138.2838048315
 20
183.8151912149
 11
138.4487047401
 21
183.7620538209
  0
LINE
  5
556
100
AcDbEntity
  8
0
100
AcDbLine
 62
7
  6
CONTINUOUS
 10
138.5262304121
 20
184.0026372455
 11
138.3613305034
 21
184.0557746395
  0
LINE
  5
557
100
AcDbEntity
  8
0
100
AcDbLine
 62
7
  6
CONTINUOUS
 10
138.8074188648
 20
184.3103751008
 11
138.9723187734
 21
184.2572377068
  0
LINE
  5
558
100
AcDbEntity
  8
0
100
AcDbLine
 62
7
  6
CONTINUOUS
 10
138.5422237742
 20
184.6171360759
 11
138.7071236828
 21
184.563998682
  0
LINE
  5
559
100
AcDbEntity
  8
0
100
AcDbLine
 62
7
  6
CONTINUOUS
 10
138.7571658269
 20
184.8134384065
 11
138.6197494461
 21
184.8577195006
  0
LINE
  5
55A
100
AcDbEntity
  8
0
100
AcDbLine
 62
7
  6
CONTINUOUS
 10
139.2463442337
 20
182.5658622197
 11
139.3830463594
 21
182.5194208945
  0
LINE
  5
55B
100
AcDbEntity
  8
0
100
AcDbLine
 62
7
  6
CONTINUOUS
 10
139.4781424193
 20
182.7095760257
 11
139.2867604446
 21
182.7745935409
  0
LINE
  5
55C
100
AcDbEntity
  8
0
100
AcDbLine
 62
7
  6
CONTINUOUS
 10
139.5577849768
 20
183.572366418
 11
139.7491669515
 21
183.5073489028
  0
LINE
  5
55D
100
AcDbEntity
  8
0
100
AcDbLine
 62
7
  6
CONTINUOUS
 10
139.7895831529
 20
183.716080196
 11
139.6528810273
 21
183.7625215213
  0
LINE
  5
55E
100
AcDbEntity
  8
0
100
AcDbLine
 62
7
  6
CONTINUOUS
 10
140.0896124412
 20
183.8811065356
 11
140.2263145668
 21
183.8346652103
  0
LINE
  5
55F
100
AcDbEntity
  8
0
100
AcDbLine
 62
7
  6
CONTINUOUS
 10
139.7881558429
 20
184.2504734039
 11
139.9521978931
 21
184.1947439837
  0
LINE
  5
560
100
AcDbEntity
  8
0
100
AcDbLine
 62
7
  6
CONTINUOUS
 10
139.992612843
 20
184.4034757022
 11
139.8832518934
 21
184.4406285073
  0
LINE
  5
561
100
AcDbEntity
  8
0
100
AcDbLine
 62
7
  6
CONTINUOUS
 10
140.0107621144
 20
182.3025526675
 11
140.1469885472
 21
182.2547339802
  0
LINE
  5
562
100
AcDbEntity
  8
0
100
AcDbLine
 62
7
  6
CONTINUOUS
 10
140.2167542017
 20
182.4534831885
 11
140.0805277689
 21
182.5013018758
  0
LINE
  5
563
100
AcDbEntity
  8
RUNDUNGEN
100
AcDbLine
 62
7
  6
CONTINUOUS
 10
97.4926906003
 20
194.9001295612
 11
97.1234679978
 21
195.0302110622
  0
LINE
  5
564
100
AcDbEntity
  8
0
100
AcDbLine
 62
7
  6
CONTINUOUS
 10
140.5279582055
 20
182.1195293806
 11
140.6910913296
 21
182.0611928887
  0
LINE
  5
565
100
AcDbEntity
  8
0
100
AcDbLine
 62
7
  6
CONTINUOUS
 10
141.357794095
 20
183.9255714507
 11
141.1946609708
 21
183.9839079427
  0
LINE
  5
566
100
AcDbEntity
  8
0
100
AcDbLine
 62
7
  6
CONTINUOUS
 10
167.9430111918
 20
166.0542235735
 11
167.8289540564
 21
166.1001143387
  0
LINE
  5
567
100
AcDbEntity
  8
0
100
AcDbLine
 62
7
  6
CONTINUOUS
 10
168.8548828682
 20
167.5004082634
 11
168.7408257328
 21
167.5462990286
  0
LINE
  5
568
100
AcDbEntity
  8
0
100
AcDbLine
 62
7
  6
CONTINUOUS
 10
169.5537341673
 20
166.4655183146
 11
169.667020185
 21
166.4177555657
  0
LINE
  5
569
100
AcDbEntity
  8
RUNDUNGEN
100
AcDbLine
 62
7
  6
CONTINUOUS
 10
184.1552854692
 20
162.2696613758
 11
183.7952380968
 21
162.4238967292
  0
LINE
  5
56A
100
AcDbEntity
  8
0
100
AcDbLine
 62
7
  6
CONTINUOUS
 10
167.6599637739
 20
165.9121438268
 11
167.7954939116
 21
165.84694829
  0
LINE
  5
56B
100
AcDbEntity
  8
0
100
AcDbLine
 62
7
  6
CONTINUOUS
 10
168.660476224
 20
164.9952339417
 11
168.7949143806
 21
164.9278154992
  0
LINE
  5
56C
100
AcDbEntity
  8
0
100
AcDbLine
 62
7
  6
CONTINUOUS
 10
169.8390828429
 20
166.6029178075
 11
169.7046445679
 21
166.6703363651
  0
LINE
  5
56D
100
AcDbEntity
  8
0
100
AcDbLine
 62
7
  6
CONTINUOUS
 10
129.0259721247
 20
185.3483893283
 11
129.1590874012
 21
185.2783947916
  0
LINE
  5
56E
100
AcDbEntity
  8
0
100
AcDbLine
 62
7
  6
CONTINUOUS
 10
129.7447640873
 20
186.2772006475
 11
129.611648972
 21
186.3471951478
  0
LINE
  5
56F
100
AcDbEntity
  8
0
100
AcDbLine
 62
7
  6
CONTINUOUS
 10
129.8840024136
 20
187.1086706457
 11
129.7508871363
 21
187.1786651788
  0
LINE
  5
570
100
AcDbEntity
  8
0
100
AcDbLine
 62
7
  6
CONTINUOUS
 10
132.9711530021
 20
184.4592335642
 11
133.1287182916
 21
184.375786086
  0
LINE
  5
571
100
AcDbEntity
  8
0
100
AcDbLine
 62
7
  6
CONTINUOUS
 10
133.7733015863
 20
186.2115086048
 11
133.6157362959
 21
186.2949560794
  0
LINE
  5
572
100
AcDbEntity
  8
0
100
AcDbLine
 62
7
  6
CONTINUOUS
 10
171.7898901999
 20
162.2812142164
 11
171.6590110666
 21
162.3553051655
  0
LINE
  5
573
100
AcDbEntity
  8
0
100
AcDbLine
 62
7
  6
CONTINUOUS
 10
172.6452407401
 20
163.5164502206
 11
172.7761198734
 21
163.4423592715
  0
LINE
  5
574
100
AcDbEntity
  8
0
100
AcDbLine
 62
7
  6
CONTINUOUS
 10
131.6798290312
 20
184.7729952867
 11
131.8105803913
 21
184.698678439
  0
LINE
  5
575
100
AcDbEntity
  8
0
100
AcDbLine
 62
7
  6
CONTINUOUS
 10
132.4016395615
 20
185.8140665236
 11
132.270888522
 21
185.8883832914
  0
LINE
  5
576
100
AcDbEntity
  8
0
100
AcDbLine
 62
7
  6
CONTINUOUS
 10
136.309465538
 20
185.5198164259
 11
136.1545144419
 21
185.6080233393
  0
LINE
  5
577
100
AcDbEntity
  8
0
100
AcDbLine
 62
7
  6
CONTINUOUS
 10
133.1805287187
 20
184.5799531108
 11
133.0509508969
 21
184.6562983479
  0
LINE
  5
578
100
AcDbEntity
  8
0
100
AcDbLine
 62
7
  6
CONTINUOUS
 10
133.5639258761
 20
186.0907890832
 11
133.6935030572
 21
186.0144440086
  0
LINE
  5
579
100
AcDbEntity
  8
0
100
AcDbLine
 62
7
  6
CONTINUOUS
 10
129.2093483855
 20
185.526113306
 11
129.104531562
 21
185.5903662088
  0
LINE
  5
57A
100
AcDbEntity
  8
0
100
AcDbLine
 62
7
  6
CONTINUOUS
 10
129.2867807713
 20
186.1981792814
 11
129.3915975947
 21
186.1339263787
  0
LINE
  5
57B
100
AcDbEntity
  8
0
100
AcDbLine
 62
7
  6
CONTINUOUS
 10
129.5613879936
 20
186.0994766623
 11
129.6662048171
 21
186.0352237595
  0
LINE
  5
57C
100
AcDbEntity
  8
0
100
AcDbLine
 62
7
  6
CONTINUOUS
 10
171.5080504159
 20
162.2084059609
 11
171.6590671377
 21
162.1136206677
  0
LINE
  5
57D
100
AcDbEntity
  8
0
100
AcDbLine
 62
7
  6
CONTINUOUS
 10
172.927080503
 20
163.5892584555
 11
172.7760637838
 21
163.6840437513
  0
LINE
  5
57E
100
AcDbEntity
  8
0
100
AcDbLine
 62
7
  6
CONTINUOUS
 10
136.0687519589
 20
185.4134801389
 11
136.1959448415
 21
185.3332244366
  0
LINE
  5
57F
100
AcDbEntity
  8
0
100
AcDbLine
 62
7
  6
CONTINUOUS
 10
131.8592032505
 20
184.9036279741
 11
131.7565469473
 21
184.9712794601
  0
LINE
  5
580
100
AcDbEntity
  8
0
100
AcDbLine
 62
7
  6
CONTINUOUS
 10
132.2222656696
 20
185.683433785
 11
132.3249216514
 21
185.6157823753
  0
LINE
  5
581
100
AcDbEntity
  8
0
100
AcDbLine
 62
7
  6
CONTINUOUS
 10
137.8330024536
 20
183.0752400512
 11
137.957498517
 21
182.9908615135
  0
LINE
  5
582
100
AcDbEntity
  8
0
100
AcDbLine
 62
7
  6
CONTINUOUS
 10
138.6507264766
 20
183.9182587113
 11
138.5262304121
 21
184.0026372455
  0
LINE
  5
583
100
AcDbEntity
  8
0
100
AcDbLine
 62
7
  6
CONTINUOUS
 10
138.8816612624
 20
184.729060075
 11
138.7571658269
 21
184.8134384065
  0
LINE
  5
584
100
AcDbEntity
  8
0
100
AcDbLine
 62
7
  6
CONTINUOUS
 10
139.1231933344
 20
182.6521921881
 11
139.2463442337
 21
182.5658622197
  0
LINE
  5
585
100
AcDbEntity
  8
0
100
AcDbLine
 62
7
  6
CONTINUOUS
 10
139.9127328018
 20
183.6297506563
 11
139.7895831529
 21
183.716080196
  0
LINE
  5
586
100
AcDbEntity
  8
0
100
AcDbLine
 62
7
  6
CONTINUOUS
 10
140.1157637434
 20
184.3171457373
 11
139.992612843
 21
184.4034757022
  0
LINE
  5
587
100
AcDbEntity
  8
RUNDUNGEN
100
AcDbLine
 62
7
  6
CONTINUOUS
 10
126.8301629697
 20
195.366341874
 11
127.1437576193
 21
195.1316476994
  0
LINE
  5
588
100
AcDbEntity
  8
0
100
AcDbLine
 62
7
  6
CONTINUOUS
 10
138.035024198
 20
183.2314449662
 11
137.9380116612
 21
183.3069672005
  0
LINE
  5
589
100
AcDbEntity
  8
0
100
AcDbLine
 62
7
  6
CONTINUOUS
 10
138.1867922947
 20
183.8907134492
 11
138.2838048315
 21
183.8151912149
  0
LINE
  5
58A
100
AcDbEntity
  8
0
100
AcDbLine
 62
7
  6
CONTINUOUS
 10
138.4487047401
 20
183.7620538209
 11
138.5457166478
 21
183.6865317893
  0
LINE
  5
58B
100
AcDbEntity
  8
RUNDUNGEN
100
AcDbLine
 62
7
  6
CONTINUOUS
 10
198.4202702652
 20
136.6295612882
 11
198.7175351824
 21
136.3748461145
  0
LINE
  5
58C
100
AcDbEntity
  8
0
100
AcDbLine
 62
7
  6
CONTINUOUS
 10
167.4881795907
 20
166.0665821871
 11
167.6599637739
 21
165.9121438268
  0
LINE
  5
58D
100
AcDbEntity
  8
0
100
AcDbLine
 62
7
  6
CONTINUOUS
 10
167.8289540564
 20
166.1001143387
 11
167.6571698733
 21
166.254552699
  0
LINE
  5
58E
100
AcDbEntity
  8
0
100
AcDbLine
 62
7
  6
CONTINUOUS
 10
167.6825410471
 20
166.6282899586
 11
167.5537029251
 21
166.744118715
  0
LINE
  5
58F
100
AcDbEntity
  8
0
100
AcDbLine
 62
7
  6
CONTINUOUS
 10
168.1225916506
 20
166.6858693858
 11
168.2514297726
 21
166.5700406294
  0
LINE
  5
590
100
AcDbEntity
  8
0
100
AcDbLine
 62
7
  6
CONTINUOUS
 10
168.4204200354
 20
166.7580111194
 11
168.2915819133
 21
166.8738398758
  0
LINE
  5
591
100
AcDbEntity
  8
0
100
AcDbLine
 62
7
  6
CONTINUOUS
 10
168.8027435997
 20
166.9241382132
 11
168.9315817218
 21
166.8083094568
  0
LINE
  5
592
100
AcDbEntity
  8
0
100
AcDbLine
 62
7
  6
CONTINUOUS
 10
168.6858926054
 20
167.3124377734
 11
168.8147307274
 21
167.196609017
  0
LINE
  5
593
100
AcDbEntity
  8
0
100
AcDbLine
 62
7
  6
CONTINUOUS
 10
168.9622479597
 20
167.4038843089
 11
168.8548828682
 21
167.5004082634
  0
LINE
  5
594
100
AcDbEntity
  8
RUNDUNGEN
100
AcDbLine
 62
7
  6
CONTINUOUS
 10
123.376762873
 20
198.5238651148
 11
126.833663471
 21
195.3674583009
  0
LINE
  5
595
100
AcDbEntity
  8
0
100
AcDbLine
 62
7
  6
CONTINUOUS
 10
168.4912585288
 20
165.1524800742
 11
168.660476224
 21
164.9952339417
  0
LINE
  5
596
100
AcDbEntity
  8
0
100
AcDbLine
 62
7
  6
CONTINUOUS
 10
168.8719984338
 20
164.7986761917
 11
168.9989117355
 21
164.6807415642
  0
LINE
  5
597
100
AcDbEntity
  8
0
100
AcDbLine
 62
7
  6
CONTINUOUS
 10
168.832538902
 20
165.180396205
 11
168.6633212068
 21
165.3376423375
  0
LINE
  5
598
100
AcDbEntity
  8
0
100
AcDbLine
 62
7
  6
CONTINUOUS
 10
169.0892104881
 20
165.2869353459
 11
168.9622971864
 21
165.4048699734
  0
LINE
  5
599
100
AcDbEntity
  8
0
100
AcDbLine
 62
7
  6
CONTINUOUS
 10
169.667020185
 20
166.4177555657
 11
169.8362378803
 21
166.2605094332
  0
LINE
  5
59A
100
AcDbEntity
  8
0
100
AcDbLine
 62
7
  6
CONTINUOUS
 10
170.0083005381
 20
166.445671675
 11
169.8390828429
 21
166.6029178075
  0
LINE
  5
59B
100
AcDbEntity
  8
0
100
AcDbLine
 62
7
  6
CONTINUOUS
 10
139.9521978931
 20
184.1947439837
 11
140.020667693
 21
184.126990634
  0
LINE
  5
59C
100
AcDbEntity
  8
0
100
AcDbLine
 62
7
  6
CONTINUOUS
 10
170.6559033391
 20
163.0712978871
 11
170.7787345432
 21
162.9491174557
  0
LINE
  5
59D
100
AcDbEntity
  8
0
100
AcDbLine
 62
7
  6
CONTINUOUS
 10
170.5805118985
 20
163.9781683843
 11
171.0718367146
 21
163.4894466588
  0
LINE
  5
59E
100
AcDbEntity
  8
0
100
AcDbLine
 62
7
  6
CONTINUOUS
 10
171.1946679187
 20
163.3672662274
 11
171.399386514
 21
163.1636322527
  0
LINE
  5
59F
100
AcDbEntity
  8
0
100
AcDbLine
 62
7
  6
CONTINUOUS
 10
171.5776436987
 20
163.3428388931
 11
171.3729251034
 21
163.5464728677
  0
LINE
  5
5A0
100
AcDbEntity
  8
0
100
AcDbLine
 62
7
  6
CONTINUOUS
 10
171.2500938994
 20
163.6686532991
 11
170.9020720765
 21
164.0148312657
  0
LINE
  5
5A1
100
AcDbEntity
  8
0
100
AcDbLine
 62
7
  6
CONTINUOUS
 10
172.1750823305
 20
164.3529026447
 11
172.0522511265
 21
164.475083076
  0
LINE
  5
5A2
100
AcDbEntity
  8
0
100
AcDbLine
 62
7
  6
CONTINUOUS
 10
172.0312799943
 20
161.6699766292
 11
172.1498871391
 21
161.5436916036
  0
LINE
  5
5A3
100
AcDbEntity
  8
0
100
AcDbLine
 62
7
  6
CONTINUOUS
 10
172.4266374453
 20
161.2490262226
 11
172.5847801543
 21
161.0806463491
  0
LINE
  5
5A4
100
AcDbEntity
  8
0
100
AcDbLine
 62
7
  6
CONTINUOUS
 10
172.8615300081
 20
160.7859814499
 11
172.9801371529
 21
160.6596964243
  0
LINE
  5
5A5
100
AcDbEntity
  8
0
100
AcDbLine
 62
7
  6
CONTINUOUS
 10
174.4233945885
 20
162.0152066509
 11
174.2454838713
 21
162.2046341893
  0
LINE
  5
5A6
100
AcDbEntity
  8
0
100
AcDbLine
 62
7
  6
CONTINUOUS
 10
173.6524481471
 20
162.8360593174
 11
173.4745374299
 21
163.0254868558
  0
LINE
  5
5A7
100
AcDbEntity
  8
RUNDUNGEN
100
AcDbLine
 62
7
  6
CONTINUOUS
 10
203.0949873911
 20
119.1061343816
 11
206.2514519289
 21
115.6491705641
  0
LINE
  5
5A8
100
AcDbEntity
  8
0
100
AcDbLine
 62
7
  6
CONTINUOUS
 10
173.1366311028
 20
160.4897255815
 11
173.2527105883
 21
160.3611133133
  0
LINE
  5
5A9
100
AcDbEntity
  8
0
100
AcDbLine
 62
7
  6
CONTINUOUS
 10
173.5235625736
 20
160.0610181842
 11
173.6783350733
 21
159.8895353235
  0
LINE
  5
5AA
100
AcDbEntity
  8
0
100
AcDbLine
 62
7
  6
CONTINUOUS
 10
173.9491875014
 20
159.5894397038
 11
174.0652669869
 21
159.4608274355
  0
LINE
  5
5AB
100
AcDbEntity
  8
0
100
AcDbLine
 62
7
  6
CONTINUOUS
 10
175.5351214812
 20
160.7874501271
 11
175.3610022529
 21
160.9803685294
  0
LINE
  5
5AC
100
AcDbEntity
  8
0
100
AcDbLine
 62
7
  6
CONTINUOUS
 10
174.7806048254
 20
161.6234298707
 11
174.6064855971
 21
161.8163482731
  0
LINE
  5
5AD
100
AcDbEntity
  8
RUNDUNGEN
100
AcDbLine
 62
7
  6
CONTINUOUS
 10
144.3570926892
 20
190.6927423496
 11
144.1023772865
 21
190.9900075356
  0
LINE
  5
5AE
100
AcDbEntity
  8
RUNDUNGEN
100
AcDbLine
 62
7
  6
CONTINUOUS
 10
203.0938673101
 20
119.1026305288
 11
202.8591748157
 21
119.4162259492
  0
LINE
  5
5AF
100
AcDbEntity
  8
0
100
AcDbLine
 62
7
  6
CONTINUOUS
 10
167.4089795456
 20
166.1944345593
 11
167.4881795907
 21
166.0665821871
  0
LINE
  5
5B0
100
AcDbEntity
  8
0
100
AcDbLine
 62
7
  6
CONTINUOUS
 10
168.499620083
 20
166.6301587499
 11
168.4204200354
 21
166.7580111194
  0
LINE
  5
5B1
100
AcDbEntity
  8
0
100
AcDbLine
 62
7
  6
CONTINUOUS
 10
169.041448038
 20
167.2760319118
 11
168.9622479597
 21
167.4038843089
  0
LINE
  5
5B2
100
AcDbEntity
  8
0
100
AcDbLine
 62
7
  6
CONTINUOUS
 10
168.4141744756
 20
165.2816193817
 11
168.4912585288
 21
165.1524800742
  0
LINE
  5
5B3
100
AcDbEntity
  8
0
100
AcDbLine
 62
7
  6
CONTINUOUS
 10
170.0853844729
 20
166.3165324826
 11
170.0083005381
 21
166.445671675
  0
LINE
  5
5B4
100
AcDbEntity
  8
0
100
AcDbLine
 62
7
  6
CONTINUOUS
 10
171.4174179512
 20
162.3619509329
 11
171.5080504159
 21
162.2084059609
  0
LINE
  5
5B5
100
AcDbEntity
  8
0
100
AcDbLine
 62
7
  6
CONTINUOUS
 10
173.0177129704
 20
163.4357134861
 11
172.927080503
 21
163.5892584555
  0
LINE
  5
5B6
100
AcDbEntity
  8
0
100
AcDbLine
 62
7
  6
CONTINUOUS
 10
167.6571698733
 20
166.254552699
 11
167.5994428408
 21
166.3631002804
  0
LINE
  5
5B7
100
AcDbEntity
  8
0
100
AcDbLine
 62
7
  6
CONTINUOUS
 10
168.0648646028
 20
166.794416981
 11
168.1225916506
 21
166.6858693858
  0
LINE
  5
5B8
100
AcDbEntity
  8
0
100
AcDbLine
 62
7
  6
CONTINUOUS
 10
168.2514297726
 20
166.5700406294
 11
168.3091568204
 21
166.4614930343
  0
LINE
  5
5B9
100
AcDbEntity
  8
0
100
AcDbLine
 62
7
  6
CONTINUOUS
 10
171.6590110666
 20
162.3553051655
 11
171.5885161851
 21
162.4881557883
  0
LINE
  5
5BA
100
AcDbEntity
  8
0
100
AcDbLine
 62
7
  6
CONTINUOUS
 10
172.7761198734
 20
163.4423592715
 11
172.8466147549
 21
163.3095086487
  0
LINE
  5
5BB
100
AcDbEntity
  8
0
100
AcDbLine
 62
7
  6
CONTINUOUS
 10
168.6633212068
 20
165.3376423375
 11
168.6073894083
 21
165.4471258336
  0
LINE
  5
5BC
100
AcDbEntity
  8
0
100
AcDbLine
 62
7
  6
CONTINUOUS
 10
169.8362378803
 20
166.2605094332
 11
169.8921696787
 21
166.1510259371
  0
LINE
  5
5BD
100
AcDbEntity
  8
RUNDUNGEN
100
AcDbLine
 62
7
  6
CONTINUOUS
 10
169.9971951995
 20
176.4277578709
 11
170.1514290453
 21
176.0677094288
  0
LINE
  5
5BE
100
AcDbEntity
  8
RUNDUNGEN
100
AcDbLine
 62
7
  6
CONTINUOUS
 10
202.6276564841
 20
89.7651600994
 11
202.7577378673
 21
89.3959378296
  0
LINE
  5
5BF
100
AcDbEntity
  8
RUNDUNGEN
100
AcDbLine
 62
7
  6
CONTINUOUS
 10
168.5852421611
 20
180.8888979259
 11
170.0007849361
 21
176.4269744744
  0
LINE
  5
5C0
100
AcDbEntity
  8
RUNDUNGEN
100
AcDbLine
 62
7
  6
CONTINUOUS
 10
197.9143668174
 20
72.2520686739
 11
198.9194634916
 21
67.6800174325
  0
LINE
  5
5C1
100
AcDbEntity
  8
RUNDUNGEN
100
AcDbLine
 62
7
  6
CONTINUOUS
 10
182.8391618247
 20
163.616837096
 11
182.7672044083
 21
164.001634
  0
LINE
  5
5C2
100
AcDbEntity
  8
RUNDUNGEN
100
AcDbLine
 62
7
  6
CONTINUOUS
 10
197.9116448724
 20
72.249594289
 11
197.8651929204
 21
72.6385221367
  0
LINE
  5
5C3
100
AcDbEntity
  8
RUNDUNGEN
100
AcDbLine
 62
7
  6
CONTINUOUS
 10
197.8651959225
 20
138.0540188774
 11
197.8954241832
 21
137.6635477314
  0
LINE
  5
5C4
100
AcDbEntity
  8
RUNDUNGEN
100
AcDbLine
 62
7
  6
CONTINUOUS
 10
202.5931868635
 20
120.1488936438
 11
202.5720969546
 21
120.5398545848
  0
LINE
  5
5C5
100
AcDbEntity
  8
RUNDUNGEN
100
AcDbLine
 62
7
  6
CONTINUOUS
 10
202.5931864708
 20
90.5436482999
 11
202.5720952861
 21
90.1526860554
  0
LINE
  5
5C6
100
AcDbEntity
  8
RUNDUNGEN
100
AcDbLine
 62
7
  6
CONTINUOUS
 10
197.8651929204
 20
72.6385221367
 11
197.8954227348
 21
73.0289929449
  0
LINE
  5
5C7
100
AcDbEntity
  8
RUNDUNGEN
100
AcDbLine
 62
7
  6
CONTINUOUS
 10
202.5720969546
 20
120.5398545848
 11
202.6276586595
 21
120.9273807481
  0
LWPOLYLINE
  5
5C8
100
AcDbEntity
  8
RUNDUNGEN
100
AcDbPolyline
 62
7
  6
CONTINUOUS
 90
3
 70
0
 10
198.9410958162
 20
103.0962711256
 10
198.9382180168
 20
103.0766982257
 10
198.8128515154
 20
102.2900930497
  0
LINE
  5
5C9
100
AcDbEntity
  8
RUNDUNGEN
100
AcDbLine
 62
7
  6
CONTINUOUS
 10
198.8128515154
 20
102.2900930497
 11
198.7827113759
 21
102.0962711256
  0
LINE
  5
5CA
100
AcDbEntity
  8
RUNDUNGEN
100
AcDbLine
 62
7
  6
CONTINUOUS
 10
202.6901196657
 20
90.9230416673
 11
202.5931864708
 21
90.5436482999
  0
LINE
  5
5CB
100
AcDbEntity
  8
RUNDUNGEN
100
AcDbLine
 62
7
  6
CONTINUOUS
 10
197.8954227348
 20
73.0289929449
 11
198.001174444
 21
73.4060249489
  0
LWPOLYLINE
  5
5CC
100
AcDbEntity
  8
RUNDUNGEN
100
AcDbPolyline
 62
7
  6
CONTINUOUS
 90
3
 70
0
 10
188.562059561
 20
64.3611804876
 10
188.5689439083
 20
64.3797273446
 10
188.855115263
 20
65.123078149
  0
LINE
  5
5CD
100
AcDbEntity
  8
RUNDUNGEN
100
AcDbLine
 62
7
  6
CONTINUOUS
 10
188.855115263
 20
65.123078149
 11
188.9248946121
 21
65.3063981116
  0
LINE
  5
5CE
100
AcDbEntity
  8
RUNDUNGEN
100
AcDbLine
 62
7
  6
CONTINUOUS
 10
182.984804808
 20
47.4390929488
 11
182.8391592389
 21
47.0757050273
  0
LINE
  5
5CF
100
AcDbEntity
  8
RUNDUNGEN
100
AcDbLine
 62
7
  6
CONTINUOUS
 10
202.859176797
 20
91.2763137296
 11
202.6901196657
 21
90.9230416673
  0
LINE
  5
5D0
100
AcDbEntity
  8
RUNDUNGEN
100
AcDbLine
 62
7
  6
CONTINUOUS
 10
198.001174444
 20
73.4060249489
 11
198.1783905176
 21
73.7551520101
  0
LINE
  5
5D1
100
AcDbEntity
  8
RUNDUNGEN
100
AcDbLine
 62
7
  6
CONTINUOUS
 10
183.1985514319
 20
47.7671305921
 11
182.984804808
 21
47.4390929488
  0
LINE
  5
5D2
100
AcDbEntity
  8
RUNDUNGEN
100
AcDbLine
 62
7
  6
CONTINUOUS
 10
170.1514258268
 20
34.624833252
 11
170.3728410181
 21
34.9478759842
  0
LINE
  5
5D3
100
AcDbEntity
  8
RUNDUNGEN
100
AcDbLine
 62
7
  6
CONTINUOUS
 10
198.1783905176
 20
73.7551520101
 11
198.4202714472
 21
74.0629786597
  0
LWPOLYLINE
  5
5D4
100
AcDbEntity
  8
RUNDUNGEN
100
AcDbPolyline
 62
7
  6
CONTINUOUS
 90
3
 70
0
 10
186.312059561
 20
60.4640661706
 10
186.2997808637
 20
60.4485544417
 10
185.7979077007
 20
59.8300176273
  0
LINE
  5
5D5
100
AcDbEntity
  8
RUNDUNGEN
100
AcDbLine
 62
7
  6
CONTINUOUS
 10
185.7979077007
 20
59.8300176273
 11
185.6748946121
 21
59.677232987
  0
LINE
  5
5D6
100
AcDbEntity
  8
RUNDUNGEN
100
AcDbLine
 62
7
  6
CONTINUOUS
 10
183.4721947249
 20
48.0472282889
 11
183.1985514319
 21
47.7671305921
  0
LINE
  5
5D7
100
AcDbEntity
  8
RUNDUNGEN
100
AcDbLine
 62
7
  6
CONTINUOUS
 10
170.3728410181
 20
34.9478759842
 11
170.6529406868
 21
35.221519423
  0
LWPOLYLINE
  5
5D8
100
AcDbEntity
  8
RUNDUNGEN
100
AcDbPolyline
 62
7
  6
CONTINUOUS
 90
3
 70
0
 10
157.9560051782
 20
32.1080117878
 10
157.9712406264
 20
32.1206316635
 10
158.5907476916
 20
32.6213066666
  0
LINE
  5
5D9
100
AcDbEntity
  8
RUNDUNGEN
100
AcDbLine
 62
7
  6
CONTINUOUS
 10
158.5907476916
 20
32.6213066666
 11
158.7428383619
 21
32.7451767367
  0
LINE
  5
5DA
100
AcDbEntity
  8
RUNDUNGEN
100
AcDbLine
 62
7
  6
CONTINUOUS
 10
144.6649171093
 20
20.2416814706
 11
144.3570903857
 21
19.9998010837
  0
LINE
  5
5DB
100
AcDbEntity
  8
RUNDUNGEN
100
AcDbLine
 62
7
  6
CONTINUOUS
 10
183.7952385264
 20
48.2686423036
 11
183.4721947249
 21
48.0472282889
  0
LINE
  5
5DC
100
AcDbEntity
  8
RUNDUNGEN
100
AcDbLine
 62
7
  6
CONTINUOUS
 10
170.6529406868
 20
35.221519423
 11
170.980977839
 21
35.4352642904
  0
LINE
  5
5DD
100
AcDbEntity
  8
RUNDUNGEN
100
AcDbLine
 62
7
  6
CONTINUOUS
 10
145.0140459372
 20
20.4188970912
 11
144.6649171093
 21
20.2416814706
  0
LINE
  5
5DE
100
AcDbEntity
  8
RUNDUNGEN
100
AcDbLine
 62
7
  6
CONTINUOUS
 10
127.1437550468
 20
15.5608965332
 11
127.4970275933
 21
15.7299521501
  0
LINE
  5
5DF
100
AcDbEntity
  8
RUNDUNGEN
100
AcDbLine
 62
7
  6
CONTINUOUS
 10
170.980977839
 20
35.4352642904
 11
171.3443661935
 21
35.5809095241
  0
LWPOLYLINE
  5
5E0
100
AcDbEntity
  8
RUNDUNGEN
100
AcDbPolyline
 62
7
  6
CONTINUOUS
 90
3
 70
0
 10
154.0588908612
 20
29.8580117878
 10
154.0405013329
 20
29.8507175852
 10
153.296598017
 20
29.5659855722
  0
LINE
  5
5E1
100
AcDbEntity
  8
RUNDUNGEN
100
AcDbLine
 62
7
  6
CONTINUOUS
 10
153.296598017
 20
29.5659855722
 11
153.1136732373
 21
29.4951767367
  0
LINE
  5
5E2
100
AcDbEntity
  8
RUNDUNGEN
100
AcDbLine
 62
7
  6
CONTINUOUS
 10
80.7565235288
 20
190.1678950572
 11
81.1335547433
 21
190.2736452807
  0
LINE
  5
5E3
100
AcDbEntity
  8
RUNDUNGEN
100
AcDbLine
 62
7
  6
CONTINUOUS
 10
98.6505728526
 20
194.9625901014
 11
98.2711777046
 21
194.8656577659
  0
LWPOLYLINE
  5
5E4
100
AcDbEntity
  8
RUNDUNGEN
100
AcDbPolyline
 62
7
  6
CONTINUOUS
 90
3
 70
0
 10
110.8238002232
 20
191.2135667186
 10
110.8042960002
 20
191.2102553098
 10
110.0174496424
 20
191.0864115706
  0
LINE
  5
5E5
100
AcDbEntity
  8
RUNDUNGEN
100
AcDbLine
 62
7
  6
CONTINUOUS
 10
110.0174496424
 20
191.0864115706
 11
109.8238002232
 21
191.0551822783
  0
LINE
  5
5E6
100
AcDbEntity
  8
RUNDUNGEN
100
AcDbLine
 62
7
  6
CONTINUOUS
 10
128.2673852934
 20
194.8445661886
 11
128.6549112495
 21
194.9001273866
  0
LINE
  5
5E7
100
AcDbEntity
  8
RUNDUNGEN
100
AcDbLine
 62
7
  6
CONTINUOUS
 10
80.3660524081
 20
190.137666722
 11
80.7565235288
 21
190.1678950572
  0
LINE
  5
5E8
100
AcDbEntity
  8
RUNDUNGEN
100
AcDbLine
 62
7
  6
CONTINUOUS
 10
98.2711777046
 20
194.8656577659
 11
97.8802167636
 21
194.8445678567
  0
LINE
  5
5E9
100
AcDbEntity
  8
RUNDUNGEN
100
AcDbLine
 62
7
  6
CONTINUOUS
 10
127.876423049
 20
194.8656573732
 11
128.2673852934
 21
194.8445661886
  0
LINE
  5
5EA
100
AcDbEntity
  8
RUNDUNGEN
100
AcDbLine
 62
7
  6
CONTINUOUS
 10
145.7815492122
 20
190.1376638228
 11
145.3910784039
 21
190.1678936372
  0
LINE
  5
5EB
100
AcDbEntity
  8
RUNDUNGEN
100
AcDbLine
 62
7
  6
CONTINUOUS
 10
97.8802167636
 20
194.8445678567
 11
97.4926906003
 21
194.9001295612
  0
LWPOLYLINE
  5
5EC
100
AcDbEntity
  8
RUNDUNGEN
100
AcDbPolyline
 62
7
  6
CONTINUOUS
 90
3
 70
0
 10
115.3238002232
 20
191.2135667186
 10
115.3433731232
 20
191.2106889192
 10
116.1299782992
 20
191.0853224178
  0
LINE
  5
5ED
100
AcDbEntity
  8
RUNDUNGEN
100
AcDbLine
 62
7
  6
CONTINUOUS
 10
116.1299782992
 20
191.0853224178
 11
116.3238002232
 21
191.0551822783
  0
LINE
  5
5EE
100
AcDbEntity
  8
RUNDUNGEN
100
AcDbLine
 62
7
  6
CONTINUOUS
 10
127.4970296815
 20
194.9625905682
 11
127.876423049
 21
194.8656573732
  0
LINE
  5
5EF
100
AcDbEntity
  8
RUNDUNGEN
100
AcDbLine
 62
7
  6
CONTINUOUS
 10
145.3910784039
 20
190.1678936372
 11
145.0140464
 21
190.2736453464
  0
LWPOLYLINE
  5
5F0
100
AcDbEntity
  8
RUNDUNGEN
100
AcDbPolyline
 62
7
  6
CONTINUOUS
 90
3
 70
0
 10
154.0588908612
 20
180.8345304634
 10
154.0403440042
 20
180.8414148108
 10
153.2969931999
 20
181.1275861655
  0
LINE
  5
5F1
100
AcDbEntity
  8
RUNDUNGEN
100
AcDbLine
 62
7
  6
CONTINUOUS
 10
153.2969931999
 20
181.1275861655
 11
153.1136732373
 21
181.1973655146
  0
LINE
  5
5F2
100
AcDbEntity
  8
RUNDUNGEN
100
AcDbLine
 62
7
  6
CONTINUOUS
 10
170.9809784
 20
175.2572757104
 11
171.3443663216
 21
175.1116301413
  0
LINE
  5
5F3
100
AcDbEntity
  8
RUNDUNGEN
100
AcDbLine
 62
7
  6
CONTINUOUS
 10
127.1437576193
 20
195.1316476994
 11
127.4970296815
 21
194.9625905682
  0
LINE
  5
5F4
100
AcDbEntity
  8
RUNDUNGEN
100
AcDbLine
 62
7
  6
CONTINUOUS
 10
145.0140464
 20
190.2736453464
 11
144.6649193388
 21
190.45086142
  0
LINE
  5
5F5
100
AcDbEntity
  8
RUNDUNGEN
100
AcDbLine
 62
7
  6
CONTINUOUS
 10
170.6529407567
 20
175.4710223343
 11
170.9809784
 21
175.2572757104
  0
LINE
  5
5F6
100
AcDbEntity
  8
RUNDUNGEN
100
AcDbLine
 62
7
  6
CONTINUOUS
 10
183.7952380968
 20
162.4238967292
 11
183.4721953647
 21
162.6453119205
  0
LINE
  5
5F7
100
AcDbEntity
  8
RUNDUNGEN
100
AcDbLine
 62
7
  6
CONTINUOUS
 10
144.6649193388
 20
190.45086142
 11
144.3570926892
 21
190.6927423496
  0
LWPOLYLINE
  5
5F8
100
AcDbEntity
  8
RUNDUNGEN
100
AcDbPolyline
 62
7
  6
CONTINUOUS
 90
3
 70
0
 10
157.9560051782
 20
178.5845304634
 10
157.9715169071
 20
178.5722517661
 10
158.5900537216
 20
178.0703786031
  0
LINE
  5
5F9
100
AcDbEntity
  8
RUNDUNGEN
100
AcDbLine
 62
7
  6
CONTINUOUS
 10
158.5900537216
 20
178.0703786031
 11
158.7428383619
 21
177.9473655146
  0
LINE
  5
5FA
100
AcDbEntity
  8
RUNDUNGEN
100
AcDbLine
 62
7
  6
CONTINUOUS
 10
170.37284306
 20
175.7446656274
 11
170.6529407567
 21
175.4710223343
  0
LINE
  5
5FB
100
AcDbEntity
  8
RUNDUNGEN
100
AcDbLine
 62
7
  6
CONTINUOUS
 10
183.4721953647
 20
162.6453119205
 11
183.1985519258
 21
162.9254115892
  0
LWPOLYLINE
  5
5FC
100
AcDbEntity
  8
RUNDUNGEN
100
AcDbPolyline
 62
7
  6
CONTINUOUS
 90
3
 70
0
 10
186.312059561
 20
150.2284760807
 10
186.2994396854
 20
150.2437115288
 10
185.7987646822
 20
150.863218594
  0
LINE
  5
5FD
100
AcDbEntity
  8
RUNDUNGEN
100
AcDbLine
 62
7
  6
CONTINUOUS
 10
185.7987646822
 20
150.863218594
 11
185.6748946121
 21
151.0153092643
  0
LINE
  5
5FE
100
AcDbEntity
  8
RUNDUNGEN
100
AcDbLine
 62
7
  6
CONTINUOUS
 10
198.1783898782
 20
136.9373880117
 11
198.4202702652
 21
136.6295612882
  0
LINE
  5
5FF
100
AcDbEntity
  8
RUNDUNGEN
100
AcDbLine
 62
7
  6
CONTINUOUS
 10
170.1514290453
 20
176.0677094288
 11
170.37284306
 21
175.7446656274
  0
LINE
  5
600
100
AcDbEntity
  8
RUNDUNGEN
100
AcDbLine
 62
7
  6
CONTINUOUS
 10
183.1985519258
 20
162.9254115892
 11
182.9848070585
 21
163.2534487415
  0
LINE
  5
601
100
AcDbEntity
  8
RUNDUNGEN
100
AcDbLine
 62
7
  6
CONTINUOUS
 10
198.0011742577
 20
137.2865168397
 11
198.1783898782
 21
136.9373880117
  0
LINE
  5
602
100
AcDbEntity
  8
RUNDUNGEN
100
AcDbLine
 62
7
  6
CONTINUOUS
 10
202.8591748157
 20
119.4162259492
 11
202.6901191988
 21
119.7694984957
  0
LINE
  5
603
100
AcDbEntity
  8
RUNDUNGEN
100
AcDbLine
 62
7
  6
CONTINUOUS
 10
182.9848070585
 20
163.2534487415
 11
182.8391618247
 21
163.616837096
  0
LWPOLYLINE
  5
604
100
AcDbEntity
  8
RUNDUNGEN
100
AcDbPolyline
 62
7
  6
CONTINUOUS
 90
3
 70
0
 10
188.562059561
 20
146.3313617636
 10
188.5693537636
 20
146.3129722353
 10
188.8540857766
 20
145.5690689195
  0
LINE
  5
605
100
AcDbEntity
  8
RUNDUNGEN
100
AcDbLine
 62
7
  6
CONTINUOUS
 10
188.8540857766
 20
145.5690689195
 11
188.9248946121
 21
145.3861441397
  0
LINE
  5
606
100
AcDbEntity
  8
RUNDUNGEN
100
AcDbLine
 62
7
  6
CONTINUOUS
 10
197.8954241832
 20
137.6635477314
 11
198.0011742577
 21
137.2865168397
  0
LINE
  5
607
100
AcDbEntity
  8
RUNDUNGEN
100
AcDbLine
 62
7
  6
CONTINUOUS
 10
202.6901191988
 20
119.7694984957
 11
202.5931868635
 21
120.1488936438
  0
LWPOLYLINE
  5
608
100
AcDbEntity
  8
RUNDUNGEN
100
AcDbPolyline
 62
7
  6
CONTINUOUS
 90
3
 70
0
 10
198.9410958162
 20
107.5962711256
 10
198.9377844074
 20
107.6157753486
 10
198.8139406682
 20
108.4026217065
  0
LINE
  5
609
100
AcDbEntity
  8
RUNDUNGEN
100
AcDbLine
 62
7
  6
CONTINUOUS
 10
198.8139406682
 20
108.4026217065
 11
198.7827113759
 21
108.5962711256
  0
LINE
  5
60A
100
AcDbEntity
  8
RUNDUNGEN
100
AcDbLine
 62
7
  6
CONTINUOUS
 10
202.5720952861
 20
90.1526860554
 11
202.6276564841
 21
89.7651600994
  0
LINE
  5
60B
100
AcDbEntity
  8
RUNDUNGEN
100
AcDbLine
 62
7
  6
CONTINUOUS
 10
207.4410958162
 20
96.5126659902
 11
207.4410958162
 21
99.6079111797
  0
LINE
  5
60C
100
AcDbEntity
  8
RUNDUNGEN
100
AcDbLine
 62
7
  6
CONTINUOUS
 10
207.4410958162
 20
111.0846310716
 11
207.4410958162
 21
114.1798717871
  0
LINE
  5
60D
100
AcDbEntity
  8
RUNDUNGEN
100
AcDbLine
 62
7
  6
CONTINUOUS
 10
203.5646386809
 20
77.9934954973
 11
205.1175529515
 21
83.789050455
  0
LINE
  5
60E
100
AcDbEntity
  8
RUNDUNGEN
100
AcDbLine
 62
7
  6
CONTINUOUS
 10
190.3814729364
 20
50.5124968938
 11
191.9290955202
 21
53.1930578399
  0
LINE
  5
60F
100
AcDbEntity
  8
RUNDUNGEN
100
AcDbLine
 62
7
  6
CONTINUOUS
 10
197.6674554662
 20
63.1321888184
 11
199.2150757951
 21
65.812745859
  0
LINE
  5
610
100
AcDbEntity
  8
RUNDUNGEN
100
AcDbLine
 62
7
  6
CONTINUOUS
 10
177.7647773231
 20
36.4126533386
 11
182.0074180103
 21
40.6552940257
  0
LINE
  5
611
100
AcDbEntity
  8
RUNDUNGEN
100
AcDbLine
 62
7
  6
CONTINUOUS
 10
152.6073215843
 20
19.2049932989
 11
155.2878825304
 21
20.7526158827
  0
LINE
  5
612
100
AcDbEntity
  8
RUNDUNGEN
100
AcDbLine
 62
7
  6
CONTINUOUS
 10
165.227013509
 20
26.4909758287
 11
167.9075705495
 21
28.0385961576
  0
LINE
  5
613
100
AcDbEntity
  8
RUNDUNGEN
100
AcDbLine
 62
7
  6
CONTINUOUS
 10
91.5165795526
 20
197.390023854
 11
85.7210245948
 21
195.8371095833
  0
LINE
  5
614
100
AcDbEntity
  8
RUNDUNGEN
100
AcDbLine
 62
7
  6
CONTINUOUS
 10
121.9073998348
 20
199.7135667186
 11
118.8121601692
 21
199.7135667186
  0
LINE
  5
615
100
AcDbEntity
  8
RUNDUNGEN
100
AcDbLine
 62
7
  6
CONTINUOUS
 10
107.3354402772
 20
199.7135667186
 11
104.2401879201
 21
199.7135667186
  0
LINE
  5
616
100
AcDbEntity
  8
RUNDUNGEN
100
AcDbLine
 62
7
  6
CONTINUOUS
 10
140.4265758516
 20
195.8371095833
 11
134.6310208939
 21
197.390023854
  0
LINE
  5
617
100
AcDbEntity
  8
RUNDUNGEN
100
AcDbLine
 62
7
  6
CONTINUOUS
 10
167.907574474
 20
182.6539438279
 11
165.227013509
 21
184.2015664226
  0
LINE
  5
618
100
AcDbEntity
  8
RUNDUNGEN
100
AcDbLine
 62
7
  6
CONTINUOUS
 10
155.2878825304
 20
189.9399263686
 11
152.60732544
 21
191.4875467263
  0
LINE
  5
619
100
AcDbEntity
  8
RUNDUNGEN
100
AcDbLine
 62
7
  6
CONTINUOUS
 10
182.0074180103
 20
170.0372482256
 11
177.7647773231
 21
174.2798889127
  0
LINE
  5
61A
100
AcDbEntity
  8
RUNDUNGEN
100
AcDbLine
 62
7
  6
CONTINUOUS
 10
199.2150780609
 20
144.8797924679
 11
197.6674554659
 21
147.5603534333
  0
LINE
  5
61B
100
AcDbEntity
  8
RUNDUNGEN
100
AcDbLine
 62
7
  6
CONTINUOUS
 10
191.9290955202
 20
157.4994844114
 11
190.3814751625
 21
160.1800415018
  0
LINE
  5
61C
100
AcDbEntity
  8
RUNDUNGEN
100
AcDbLine
 62
7
  6
CONTINUOUS
 10
205.1175529515
 20
126.9034917963
 11
203.5646386809
 21
132.699046754
  0
LINE
  5
61D
100
AcDbEntity
  8
RUNDUNGEN
100
AcDbLine
 62
7
  6
CONTINUOUS
 10
231.482551419
 20
10.9789755326
 11
259.482551419
 21
10.9789755326
  0
LINE
  5
61E
100
AcDbEntity
  8
0
100
AcDbLine
 62
7
  6
CONTINUOUS
 10
245.232551419
 20
13.2684442236
 11
245.732551419
 21
13.2684442236
  0
LINE
  5
61F
100
AcDbEntity
  8
RUNDUNGEN
100
AcDbLine
 62
7
  6
CONTINUOUS
 10
245.732551419
 20
13.2684442236
 11
245.9277604915
 21
13.2876825782
  0
LWPOLYLINE
  5
620
100
AcDbEntity
  8
RUNDUNGEN
100
AcDbPolyline
 62
7
  6
CONTINUOUS
 90
6
 70
0
 10
246.1030294068
 20
19.0859028176
 10
247.1691196502
 20
19.1692132576
 10
248.2404197364
 20
19.2878175725
 10
249.3362402967
 20
19.3998826597
 10
250.4688863075
 20
19.4733533693
 10
251.1904968899
 20
19.4878940523
  0
LINE
  5
621
100
AcDbEntity
  8
RUNDUNGEN
100
AcDbLine
 62
7
  6
CONTINUOUS
 10
245.4828956482
 20
19.0710328894
 11
246.1030294068
 21
19.0859028176
  0
LINE
  5
622
100
AcDbEntity
  8
RUNDUNGEN
100
AcDbLine
 62
7
  6
CONTINUOUS
 10
259.482551419
 20
19.4878212594
 11
251.1904963109
 21
19.4878212594
  0
LINE
  5
623
100
AcDbEntity
  8
RUNDUNGEN
100
AcDbLine
 62
7
  6
CONTINUOUS
 10
239.7748880382
 20
19.4878212594
 11
231.482551419
 21
19.4878212594
  0
LWPOLYLINE
  5
624
100
AcDbEntity
  8
RUNDUNGEN
100
AcDbPolyline
 62
7
  6
CONTINUOUS
 90
6
 70
0
 10
239.7748881396
 20
19.4878323766
 10
240.5356719771
 20
19.4717823178
 10
241.6692462215
 20
19.396302413
 10
242.7652918178
 20
19.2832574066
 10
243.8368671484
 20
19.1650669764
 10
244.9033222836
 20
19.0840271737
  0
LINE
  5
625
100
AcDbEntity
  8
RUNDUNGEN
100
AcDbLine
 62
7
  6
CONTINUOUS
 10
244.9033222836
 20
19.0840271737
 11
245.4828956751
 21
19.0710220758
  0
LINE
  5
626
100
AcDbEntity
  8
RUNDUNGEN
100
AcDbLine
 62
7
  6
CONTINUOUS
 10
245.232551419
 20
13.2684442236
 11
245.0373423465
 21
13.2876825782
  0
LINE
  5
627
100
AcDbEntity
  8
RUNDUNGEN
100
AcDbLine
 62
7
  6
CONTINUOUS
 10
231.482551419
 20
19.4878212594
 11
231.2864280235
 21
19.5072421181
  0
LWPOLYLINE
  5
628
100
AcDbEntity
  8
RUNDUNGEN
100
AcDbPolyline
 62
7
  6
CONTINUOUS
 90
3
 70
0
 10
245.0373423465
 20
13.2876825782
 10
244.849767436
 20
13.344606347
 10
244.6769172568
 20
13.4370173319
  0
LWPOLYLINE
  5
629
100
AcDbEntity
  8
RUNDUNGEN
100
AcDbPolyline
 62
7
  6
CONTINUOUS
 90
8
 70
0
 10
231.2864280235
 20
19.5072421181
 10
231.0990176357
 20
19.5642944125
 10
230.926483481
 20
19.6566844269
 10
230.7752183251
 20
19.7809408634
 10
230.6512049023
 20
19.9320668495
 10
230.5588337953
 20
20.1047471783
 10
230.5018078235
 20
20.2925237838
 10
230.482551419
 20
20.4878212594
  0
LINE
  5
62A
100
AcDbEntity
  8
RUNDUNGEN
100
AcDbLine
 62
7
  6
CONTINUOUS
 10
259.482551419
 20
26.3570012324
 11
259.6778113655
 21
26.3762497172
  0
LINE
  5
62B
100
AcDbEntity
  8
0
100
AcDbLine
 62
7
  6
CONTINUOUS
 10
231.482551419
 20
26.3570012324
 11
259.482551419
 21
26.3570012324
  0
LINE
  5
62C
100
AcDbEntity
  8
RUNDUNGEN
100
AcDbLine
 62
7
  6
CONTINUOUS
 10
231.482551419
 20
26.3570012324
 11
231.2872914725
 21
26.3762497172
  0
LWPOLYLINE
  5
62D
100
AcDbEntity
  8
RUNDUNGEN
100
AcDbPolyline
 62
7
  6
CONTINUOUS
 90
8
 70
0
 10
231.2872914725
 20
26.3762497172
 10
231.0997245897
 20
26.4331811099
 10
230.9268904118
 20
26.525592282
 10
230.7753981723
 20
26.6499409199
 10
230.6510959468
 20
26.8014098387
 10
230.5586952343
 20
26.9742614383
 10
230.5017720603
 20
27.1618814959
 10
230.482551419
 20
27.3570012324
  0
LINE
  5
62E
100
AcDbEntity
  8
0
100
AcDbLine
 62
7
  6
CONTINUOUS
 10
251.7490669377
 20
185.590969298
 11
251.7713395792
 21
185.603086098
  0
LINE
  5
62F
100
AcDbEntity
  8
RUNDUNGEN
100
AcDbLine
 62
7
  6
CONTINUOUS
 10
251.7714440155
 20
185.6031419454
 11
251.7713395792
 21
185.603086098
  0
LINE
  5
630
100
AcDbEntity
  8
0
100
AcDbLine
 62
7
  6
CONTINUOUS
 10
251.7714456475
 20
185.6031391504
 11
252.3792791861
 21
185.9246160475
  0
LINE
  5
631
100
AcDbEntity
  8
0
100
AcDbLine
 62
7
  6
CONTINUOUS
 10
252.3792791861
 20
185.9246160475
 11
252.9693628016
 21
186.2311110927
  0
LINE
  5
632
100
AcDbEntity
  8
RUNDUNGEN
100
AcDbLine
 62
7
  6
CONTINUOUS
 10
252.9698189493
 20
186.2313463227
 11
252.9693628016
 21
186.2311110927
  0
LINE
  5
633
100
AcDbEntity
  8
0
100
AcDbLine
 62
7
  6
CONTINUOUS
 10
252.9697916552
 20
186.2313990306
 11
253.9281621348
 21
186.7203137606
  0
LINE
  5
634
100
AcDbEntity
  8
0
100
AcDbLine
 62
7
  6
CONTINUOUS
 10
253.9281621348
 20
186.7203137606
 11
255.4307958846
 21
187.4706608081
  0
LINE
  5
635
100
AcDbEntity
  8
0
100
AcDbLine
 62
7
  6
CONTINUOUS
 10
255.4307958846
 20
187.4706608081
 11
259.9213721265
 21
189.6658189299
  0
LINE
  5
636
100
AcDbEntity
  8
0
100
AcDbLine
 62
7
  6
CONTINUOUS
 10
251.6058091254
 20
185.7000790503
 11
252.3533404529
 21
186.0646744396
  0
LWPOLYLINE
  5
637
100
AcDbEntity
  8
RUNDUNGEN
100
AcDbPolyline
 62
7
  6
CONTINUOUS
 90
6
 70
0
 10
244.6769172568
 20
13.4370173319
 10
244.5254117199
 20
13.5613703619
 10
244.4010914559
 20
13.7128595504
 10
244.308688103
 20
13.8857216436
 10
244.2517702487
 20
14.0733334867
 10
244.232551419
 20
14.2684442236
  0
LINE
  5
638
100
AcDbEntity
  8
0
100
AcDbLine
 62
2
  6
CONTINUOUS
 10
240.7154010792
 20
187.9635667186
 11
238.7493855149
 21
185.9975511543
  0
LINE
  5
639
100
AcDbEntity
  8
RUNDUNGEN
100
AcDbLine
 62
7
  6
CONTINUOUS
 10
251.5055536694
 20
185.4284587467
 11
251.4998180935
 21
185.4239200123
  0
LINE
  5
63A
100
AcDbEntity
  8
0
100
AcDbLine
 62
7
  6
CONTINUOUS
 10
251.4994807374
 20
185.424345898
 11
251.5622006947
 21
185.471809022
  0
LWPOLYLINE
  5
63B
100
AcDbEntity
  8
0
100
AcDbPolyline
 62
7
  6
CONTINUOUS
 90
3
 70
0
 10
251.5622006947
 20
185.471809022
 10
251.6554239684
 20
185.5352657905
 10
251.7490669377
 20
185.590969298
  0
LWPOLYLINE
  5
63C
100
AcDbEntity
  8
0
100
AcDbPolyline
 62
7
  6
CONTINUOUS
 90
9
 70
0
 10
256.9151359641
 20
178.5407263946
 10
257.1193950764
 20
178.6425657304
 10
257.3277988547
 20
178.7447670166
 10
257.5404485468
 20
178.8473272589
 10
257.7574444932
 20
178.950234645
 10
257.978885975
 20
179.0534669347
 10
258.2048610505
 20
179.1569864262
 10
258.4354563372
 20
179.2607461324
 10
258.6707599224
 20
179.3646896206
  0
LINE
  5
63D
100
AcDbEntity
  8
0
100
AcDbLine
 62
7
  6
CONTINUOUS
 10
258.6707599224
 20
179.3646896206
 11
258.9108524677
 21
179.4687444979
  0
LINE
  5
63E
100
AcDbEntity
  8
RUNDUNGEN
100
AcDbLine
 62
7
  6
CONTINUOUS
 10
259.8738514809
 20
179.8764030088
 11
259.8738877863
 21
179.8764184381
  0
LINE
  5
63F
100
AcDbEntity
  8
RUNDUNGEN
100
AcDbLine
 62
7
  6
CONTINUOUS
 10
256.1267108739
 20
174.1547816918
 11
256.1268206564
 21
174.1548281419
  0
LINE
  5
640
100
AcDbEntity
  8
0
100
AcDbLine
 62
7
  6
CONTINUOUS
 10
256.126724983
 20
174.1547482231
 11
259.8720428008
 21
175.7383623776
  0
LINE
  5
641
100
AcDbEntity
  8
0
100
AcDbLine
 62
7
  6
CONTINUOUS
 10
258.9108524677
 20
179.4687444979
 11
259.8718936429
 21
179.8755729751
  0
LINE
  5
642
100
AcDbEntity
  8
RUNDUNGEN
100
AcDbLine
 62
7
  6
CONTINUOUS
 10
259.8720013256
 20
34.9541974101
 11
256.1267245544
 21
36.5377942094
  0
LWPOLYLINE
  5
643
100
AcDbEntity
  8
RUNDUNGEN
100
AcDbPolyline
 62
7
  6
CONTINUOUS
 90
4
 70
0
 10
256.1268202204
 20
36.5377148173
 10
256.0123858661
 20
36.5867326045
 10
255.4447241663
 20
36.8480408013
 10
254.8663889827
 20
37.1455436182
  0
LINE
  5
644
100
AcDbEntity
  8
0
100
AcDbLine
 62
2
  6
CONTINUOUS
 10
246.6163184217
 20
187.9635667186
 11
240.482551419
 21
181.829799716
  0
LINE
  5
645
100
AcDbEntity
  8
0
100
AcDbLine
 62
2
  6
CONTINUOUS
 10
252.3912451632
 20
187.8375761177
 11
240.482551419
 21
175.9288823735
  0
LINE
  5
646
100
AcDbEntity
  8
0
100
AcDbLine
 62
7
  6
CONTINUOUS
 10
251.2785456795
 20
185.2210382263
 11
251.5055536694
 21
185.4284587467
  0
LWPOLYLINE
  5
647
100
AcDbEntity
  8
0
100
AcDbPolyline
 62
7
  6
CONTINUOUS
 90
3
 70
0
 10
259.8738877863
 20
179.8764184381
 10
260.0386812394
 20
179.9655707218
 10
260.1899064417
 20
180.0898076952
  0
LWPOLYLINE
  5
648
100
AcDbEntity
  8
0
100
AcDbPolyline
 62
7
  6
CONTINUOUS
 90
3
 70
0
 10
231.2864280235
 20
159.9387012938
 10
231.0990176357
 20
159.8816489994
 10
230.926483481
 20
159.789258985
  0
LWPOLYLINE
  5
649
100
AcDbEntity
  8
RUNDUNGEN
100
AcDbPolyline
 62
7
  6
CONTINUOUS
 90
6
 70
0
 10
246.8610253299
 20
50.1259589137
 10
247.201854846
 20
50.1818999491
 10
248.2802109903
 20
50.3878685882
 10
249.3662932156
 20
50.5818403506
 10
250.477699218
 20
50.7089525008
 10
251.1904834371
 20
50.7345285001
  0
LINE
  5
64A
100
AcDbEntity
  8
RUNDUNGEN
100
AcDbLine
 62
7
  6
CONTINUOUS
 10
246.8610253644
 20
50.1259582965
 11
246.8452634815
 21
50.1235663972
  0
LINE
  5
64B
100
AcDbEntity
  8
RUNDUNGEN
100
AcDbLine
 62
7
  6
CONTINUOUS
 10
259.6776794163
 20
50.7536423759
 11
259.482551419
 21
50.7344200989
  0
LINE
  5
64C
100
AcDbEntity
  8
RUNDUNGEN
100
AcDbLine
 62
7
  6
CONTINUOUS
 10
259.482551419
 20
50.7344200989
 11
251.1904824984
 21
50.7344200989
  0
LINE
  5
64D
100
AcDbEntity
  8
RUNDUNGEN
100
AcDbLine
 62
7
  6
CONTINUOUS
 10
239.7746471235
 20
50.7344200989
 11
231.482551419
 21
50.7344200989
  0
LWPOLYLINE
  5
64E
100
AcDbEntity
  8
RUNDUNGEN
100
AcDbPolyline
 62
7
  6
CONTINUOUS
 90
6
 70
0
 10
239.7746471101
 20
50.734531354
 10
240.5276628209
 20
50.7060760355
 10
241.6413157208
 20
50.5752556619
 10
242.7272999365
 20
50.3795802282
 10
243.8044865524
 20
50.1747447253
 10
244.1053065874
 20
50.1257710572
  0
LWPOLYLINE
  5
64F
100
AcDbEntity
  8
RUNDUNGEN
100
AcDbPolyline
 62
7
  6
CONTINUOUS
 90
9
 70
0
 10
231.482551419
 20
50.7344200989
 10
231.2864280235
 20
50.7538409575
 10
231.0990176357
 20
50.8108932519
 10
230.926483481
 20
50.9032832663
 10
230.7752183251
 20
51.0275397028
 10
230.6512049023
 20
51.1786656889
 10
230.5588337953
 20
51.3513460177
 10
230.5018078235
 20
51.5391226232
 10
230.482551419
 20
51.7344200989
  0
LINE
  5
650
100
AcDbEntity
  8
RUNDUNGEN
100
AcDbLine
 62
7
  6
CONTINUOUS
 10
244.1198145673
 20
50.1235700898
 11
244.1053067871
 21
50.1257710092
  0
LINE
  5
651
100
AcDbEntity
  8
RUNDUNGEN
100
AcDbLine
 62
7
  6
CONTINUOUS
 10
254.8663957285
 20
37.1455575012
 11
254.2842149271
 21
37.4777489772
  0
LWPOLYLINE
  5
652
100
AcDbEntity
  8
RUNDUNGEN
100
AcDbPolyline
 62
7
  6
CONTINUOUS
 90
3
 70
0
 10
254.2841985298
 20
37.4777421883
 10
253.7058174617
 20
37.8424188179
 10
253.505501798
 20
37.9774031415
  0
LINE
  5
653
100
AcDbEntity
  8
0
100
AcDbLine
 62
2
  6
CONTINUOUS
 10
250.482551419
 20
180.027965031
 11
240.482551419
 21
170.027965031
  0
LWPOLYLINE
  5
654
100
AcDbEntity
  8
0
100
AcDbPolyline
 62
7
  6
CONTINUOUS
 90
6
 70
0
 10
230.926483481
 20
159.789258985
 10
230.7752183251
 20
159.6650025485
 10
230.6512049023
 20
159.5138765624
 10
230.5588337953
 20
159.3411962336
 10
230.5018078235
 20
159.153419628
 10
230.482551419
 20
158.9581221524
  0
LINE
  5
655
100
AcDbEntity
  8
RUNDUNGEN
100
AcDbLine
 62
7
  6
CONTINUOUS
 10
252.5673117091
 20
172.015074672
 11
252.56708263
 21
172.0148885792
  0
LWPOLYLINE
  5
656
100
AcDbEntity
  8
0
100
AcDbPolyline
 62
7
  6
CONTINUOUS
 90
5
 70
0
 10
252.5673008127
 20
172.0150880577
 10
252.7804220225
 20
172.1848036291
 10
253.050482416
 20
172.3904119741
 10
253.3268749246
 20
172.5907177911
 10
253.5053545462
 20
172.7149748806
  0
LINE
  5
657
100
AcDbEntity
  8
RUNDUNGEN
100
AcDbLine
 62
7
  6
CONTINUOUS
 10
253.505528302
 20
172.7150941925
 11
253.5053545462
 21
172.7149748806
  0
LWPOLYLINE
  5
658
100
AcDbEntity
  8
0
100
AcDbPolyline
 62
7
  6
CONTINUOUS
 90
7
 70
0
 10
253.505498726
 20
172.7151369821
 10
253.7058153983
 20
172.850122098
 10
254.2841982194
 20
173.2148000902
 10
254.8663899407
 20
173.5469995462
 10
255.4447258156
 20
173.8445027595
 10
256.0123875942
 20
174.1058109244
 10
256.1268206564
 20
174.1548281419
  0
LINE
  5
659
100
AcDbEntity
  8
RUNDUNGEN
100
AcDbLine
 62
7
  6
CONTINUOUS
 10
253.5055313817
 20
37.9774459449
 11
253.5053576559
 21
37.9775652361
  0
LINE
  5
65A
100
AcDbEntity
  8
RUNDUNGEN
100
AcDbLine
 62
7
  6
CONTINUOUS
 10
253.5053576559
 20
37.9775652361
 11
253.3268789203
 21
38.1018216333
  0
LINE
  5
65B
100
AcDbEntity
  8
RUNDUNGEN
100
AcDbLine
 62
7
  6
CONTINUOUS
 10
253.3267360244
 20
38.1019251921
 11
253.0504861429
 21
38.3021275097
  0
LINE
  5
65C
100
AcDbEntity
  8
RUNDUNGEN
100
AcDbLine
 62
7
  6
CONTINUOUS
 10
253.0503082624
 20
38.3022629375
 11
252.7804249674
 21
38.5077363231
  0
LINE
  5
65D
100
AcDbEntity
  8
RUNDUNGEN
100
AcDbLine
 62
7
  6
CONTINUOUS
 10
252.7802695743
 20
38.5078600679
 11
252.5673003748
 21
38.677453832
  0
LINE
  5
65E
100
AcDbEntity
  8
RUNDUNGEN
100
AcDbLine
 62
7
  6
CONTINUOUS
 10
252.5673117111
 20
38.6774675753
 11
252.5670826225
 21
38.6776536759
  0
LWPOLYLINE
  5
65F
100
AcDbEntity
  8
RUNDUNGEN
100
AcDbPolyline
 62
7
  6
CONTINUOUS
 90
3
 70
0
 10
252.5670826225
 20
38.6776536759
 10
252.5059350054
 20
38.7290091286
 10
252.3698622362
 20
38.8548073615
  0
LINE
  5
660
100
AcDbEntity
  8
0
100
AcDbLine
 62
7
  6
CONTINUOUS
 10
251.0100747082
 20
184.8737909616
 11
251.2785456795
 21
185.2210382263
  0
LWPOLYLINE
  5
661
100
AcDbEntity
  8
0
100
AcDbPolyline
 62
7
  6
CONTINUOUS
 90
5
 70
0
 10
252.1644884935
 20
171.6196956938
 10
252.2296499279
 20
171.6923678728
 10
252.3698622388
 20
171.8377348856
 10
252.5059350229
 20
171.9635331361
 10
252.56708263
 20
172.0148885792
  0
LINE
  5
662
100
AcDbEntity
  8
0
100
AcDbLine
 62
2
  6
CONTINUOUS
 10
250.482551419
 20
174.1270476885
 11
240.482551419
 21
164.1270476885
  0
LINE
  5
663
100
AcDbEntity
  8
0
100
AcDbLine
 62
2
  6
CONTINUOUS
 10
250.482551419
 20
168.2261303461
 11
240.482551419
 21
158.2261303461
  0
LINE
  5
664
100
AcDbEntity
  8
0
100
AcDbLine
 62
7
  6
CONTINUOUS
 10
228.5689187321
 20
144.1932851129
 11
234.7855538233
 21
146.0620079357
  0
LINE
  5
665
100
AcDbEntity
  8
RUNDUNGEN
100
AcDbLine
 62
7
  6
CONTINUOUS
 10
232.2666421202
 20
61.1312473792
 11
232.0218137735
 21
61.0695274886
  0
LINE
  5
666
100
AcDbEntity
  8
RUNDUNGEN
100
AcDbLine
 62
7
  6
CONTINUOUS
 10
232.0218148497
 20
61.0695291559
 11
231.2454657484
 21
60.8800656209
  0
LWPOLYLINE
  5
667
100
AcDbEntity
  8
RUNDUNGEN
100
AcDbPolyline
 62
7
  6
CONTINUOUS
 90
4
 70
0
 10
259.482551419
 20
62.6321888184
 10
259.6801805922
 20
62.6519123209
 10
259.8672427082
 20
62.7091435259
 10
260.0391333279
 20
62.8013960966
  0
LWPOLYLINE
  5
668
100
AcDbEntity
  8
RUNDUNGEN
100
AcDbPolyline
 62
7
  6
CONTINUOUS
 90
3
 70
0
 10
231.482551419
 20
60.4640661706
 10
231.2860112673
 20
60.4485544417
 10
231.0975210429
 20
60.4034044012
  0
LINE
  5
669
100
AcDbEntity
  8
RUNDUNGEN
100
AcDbLine
 62
7
  6
CONTINUOUS
 10
231.482551419
 20
60.4640661706
 11
259.482551419
 21
60.4640661706
  0
LINE
  5
66A
100
AcDbEntity
  8
0
100
AcDbLine
 62
7
  6
CONTINUOUS
 10
231.482551419
 20
62.6321888184
 11
259.482551419
 21
62.6321888184
  0
LWPOLYLINE
  5
66B
100
AcDbEntity
  8
RUNDUNGEN
100
AcDbPolyline
 62
7
  6
CONTINUOUS
 90
3
 70
0
 10
259.482551419
 20
60.4640661706
 10
259.6790915707
 20
60.4488307225
 10
259.8675817951
 20
60.4034044012
  0
LWPOLYLINE
  5
66C
100
AcDbEntity
  8
RUNDUNGEN
100
AcDbPolyline
 62
7
  6
CONTINUOUS
 90
9
 70
0
 10
231.482551419
 20
62.6321888184
 10
231.2849222458
 20
62.6519123209
 10
231.0978601298
 20
62.7091435259
 10
230.9259695101
 20
62.8013960966
 10
230.7751097001
 20
62.9254171337
 10
230.6515358509
 20
63.0759396667
 10
230.5591602268
 20
63.2483285495
 10
230.5018967273
 20
63.4364493614
 10
230.482551419
 20
63.6321888184
  0
LINE
  5
66D
100
AcDbEntity
  8
RUNDUNGEN
100
AcDbLine
 62
7
  6
CONTINUOUS
 10
259.7196371004
 20
60.8800656183
 11
258.9432879883
 21
61.0695291559
  0
LWPOLYLINE
  5
66E
100
AcDbEntity
  8
RUNDUNGEN
100
AcDbPolyline
 62
7
  6
CONTINUOUS
 90
3
 70
0
 10
258.9432912754
 20
61.0695283775
 10
258.6905909198
 20
61.1332936798
 10
258.446114799
 20
61.1989743958
  0
LWPOLYLINE
  5
66F
100
AcDbEntity
  8
RUNDUNGEN
100
AcDbPolyline
 62
7
  6
CONTINUOUS
 90
4
 70
0
 10
258.7578259072
 20
61.1159189355
 10
258.5451203159
 20
61.1719021985
 10
258.3402108865
 20
61.2286470794
 10
258.1427367635
 20
61.2859555838
  0
LINE
  5
670
100
AcDbEntity
  8
RUNDUNGEN
100
AcDbLine
 62
7
  6
CONTINUOUS
 10
228.5689187407
 20
66.4992571357
 11
230.482551419
 21
65.9240184402
  0
LINE
  5
671
100
AcDbEntity
  8
RUNDUNGEN
100
AcDbLine
 62
7
  6
CONTINUOUS
 10
252.3700398902
 20
38.8546504925
 11
252.230275328
 21
38.9995259807
  0
LINE
  5
672
100
AcDbEntity
  8
RUNDUNGEN
100
AcDbLine
 62
7
  6
CONTINUOUS
 10
252.230275328
 20
38.9995259807
 11
252.1644885098
 21
39.0728465358
  0
LWPOLYLINE
  5
673
100
AcDbEntity
  8
0
100
AcDbPolyline
 62
7
  6
CONTINUOUS
 90
3
 70
0
 10
260.1899064417
 20
180.0898076952
 10
260.3138726354
 20
180.2408738936
 10
260.4062413495
 20
180.4135252959
  0
LINE
  5
674
100
AcDbEntity
  8
RUNDUNGEN
100
AcDbLine
 62
7
  6
CONTINUOUS
 10
252.1647286717
 20
171.6197429671
 11
252.1646010172
 21
171.6195970237
  0
LINE
  5
675
100
AcDbEntity
  8
0
100
AcDbLine
 62
2
  6
CONTINUOUS
 10
250.482551419
 20
162.3252130036
 11
240.32298259
 21
152.1656441745
  0
LINE
  5
676
100
AcDbEntity
  8
0
100
AcDbLine
 62
2
  6
CONTINUOUS
 10
233.975991665
 20
145.8186532495
 11
226.432551419
 21
138.2752130036
  0
LINE
  5
677
100
AcDbEntity
  8
0
100
AcDbLine
 62
2
  6
CONTINUOUS
 10
250.482551419
 20
156.4242956611
 11
228.2645340623
 21
134.2062783044
  0
LWPOLYLINE
  5
678
100
AcDbEntity
  8
0
100
AcDbPolyline
 62
7
  6
CONTINUOUS
 90
7
 70
0
 10
259.7213962537
 20
149.8129076861
 10
259.8659720977
 20
149.8603915666
 10
260.0385589633
 20
149.9527881403
 10
260.1898614678
 20
150.0770619218
 10
260.3139199693
 20
150.2282439278
 10
260.4062940299
 20
150.4009515536
 10
260.4633015466
 20
150.5887003731
  0
LWPOLYLINE
  5
679
100
AcDbEntity
  8
RUNDUNGEN
100
AcDbPolyline
 62
7
  6
CONTINUOUS
 90
3
 70
0
 10
232.755606832
 20
61.266296192
 10
232.5157561685
 20
61.1980865657
 10
232.2666421202
 20
61.1312473792
  0
LINE
  5
67A
100
AcDbEntity
  8
RUNDUNGEN
100
AcDbLine
 62
7
  6
CONTINUOUS
 10
258.446114799
 20
61.1989743958
 11
258.2120354985
 21
61.2655510331
  0
LINE
  5
67B
100
AcDbEntity
  8
RUNDUNGEN
100
AcDbLine
 62
7
  6
CONTINUOUS
 10
258.2120354985
 20
61.2655510331
 11
257.952348877
 21
61.343658698
  0
LINE
  5
67C
100
AcDbEntity
  8
RUNDUNGEN
100
AcDbLine
 62
7
  6
CONTINUOUS
 10
257.9878472715
 20
61.3327167211
 11
257.7731823121
 21
61.4001756348
  0
LINE
  5
67D
100
AcDbEntity
  8
RUNDUNGEN
100
AcDbLine
 62
7
  6
CONTINUOUS
 10
259.7213962537
 20
60.8796345652
 11
259.8659720977
 21
60.8321506846
  0
LINE
  5
67E
100
AcDbEntity
  8
RUNDUNGEN
100
AcDbLine
 62
7
  6
CONTINUOUS
 10
257.768616364
 20
61.4016445137
 11
257.5671157287
 21
61.4678724609
  0
LINE
  5
67F
100
AcDbEntity
  8
RUNDUNGEN
100
AcDbLine
 62
7
  6
CONTINUOUS
 10
257.5911754358
 20
61.4598182115
 11
257.3689093797
 21
61.5357563398
  0
LWPOLYLINE
  5
680
100
AcDbEntity
  8
RUNDUNGEN
100
AcDbPolyline
 62
7
  6
CONTINUOUS
 90
3
 70
0
 10
257.4194434125
 20
61.5181876453
 10
257.1775824737
 20
61.6039130572
 10
256.9922052819
 20
61.6724684566
  0
LWPOLYLINE
  5
681
100
AcDbEntity
  8
RUNDUNGEN
100
AcDbPolyline
 62
7
  6
CONTINUOUS
 90
3
 70
0
 10
257.252890277
 20
61.576773709
 10
257.0909728061
 20
61.6356303547
 10
256.9331470277
 20
61.6948397603
  0
LINE
  5
682
100
AcDbEntity
  8
RUNDUNGEN
100
AcDbLine
 62
7
  6
CONTINUOUS
 10
256.9922052819
 20
61.6724684566
 11
256.7788816335
 21
61.7545100854
  0
LINE
  5
683
100
AcDbEntity
  8
RUNDUNGEN
100
AcDbLine
 62
7
  6
CONTINUOUS
 10
256.8118699455
 20
61.7415979876
 11
256.6356449172
 21
61.8115482506
  0
LINE
  5
684
100
AcDbEntity
  8
RUNDUNGEN
100
AcDbLine
 62
7
  6
CONTINUOUS
 10
256.6276456278
 20
61.8147808497
 11
256.462710476
 21
61.8825726584
  0
LWPOLYLINE
  5
685
100
AcDbEntity
  8
RUNDUNGEN
100
AcDbPolyline
 62
7
  6
CONTINUOUS
 90
5
 70
0
 10
259.8675817951
 20
60.4034044012
 10
260.0407767455
 20
60.3300952563
 10
260.1920739959
 20
60.2317007222
 10
260.3157883637
 20
60.1123070156
 10
260.4073957806
 20
59.9765016623
  0
LINE
  5
686
100
AcDbEntity
  8
RUNDUNGEN
100
AcDbLine
 62
7
  6
CONTINUOUS
 10
256.4789173043
 20
61.8758135698
 11
256.2919263136
 21
61.9551100511
  0
LWPOLYLINE
  5
687
100
AcDbEntity
  8
RUNDUNGEN
100
AcDbPolyline
 62
7
  6
CONTINUOUS
 90
3
 70
0
 10
256.3320420956
 20
61.9378523031
 10
256.1233691687
 20
62.0291240324
 10
255.9566571943
 20
62.1047952937
  0
LWPOLYLINE
  5
688
100
AcDbEntity
  8
RUNDUNGEN
100
AcDbPolyline
 62
7
  6
CONTINUOUS
 90
3
 70
0
 10
256.1869114295
 20
62.0009336356
 10
256.043139691
 20
62.0652276658
 10
255.9009310717
 20
62.1306574816
  0
LINE
  5
689
100
AcDbEntity
  8
RUNDUNGEN
100
AcDbLine
 62
7
  6
CONTINUOUS
 10
255.9566571943
 20
62.1047952937
 11
255.7603423275
 21
62.1972131456
  0
LINE
  5
68A
100
AcDbEntity
  8
RUNDUNGEN
100
AcDbLine
 62
7
  6
CONTINUOUS
 10
255.7920875596
 20
62.182018258
 11
255.6297853694
 21
62.2607605872
  0
LINE
  5
68B
100
AcDbEntity
  8
RUNDUNGEN
100
AcDbLine
 62
7
  6
CONTINUOUS
 10
255.6214582533
 20
62.2648711135
 11
255.4699006498
 21
62.3409757014
  0
LINE
  5
68C
100
AcDbEntity
  8
RUNDUNGEN
100
AcDbLine
 62
7
  6
CONTINUOUS
 10
255.48435249
 20
62.3336123653
 11
255.3125746798
 21
62.422619785
  0
LINE
  5
68D
100
AcDbEntity
  8
RUNDUNGEN
100
AcDbLine
 62
7
  6
CONTINUOUS
 10
259.8659720977
 20
60.8321506846
 11
260.0385589633
 21
60.7397541109
  0
LWPOLYLINE
  5
68E
100
AcDbEntity
  8
RUNDUNGEN
100
AcDbPolyline
 62
7
  6
CONTINUOUS
 90
4
 70
0
 10
255.3491148635
 20
62.4034090584
 10
255.1579864445
 20
62.5056360383
 10
255.0063171843
 20
62.5899677192
 10
254.9330265713
 20
62.6321888184
  0
LWPOLYLINE
  5
68F
100
AcDbEntity
  8
RUNDUNGEN
100
AcDbPolyline
 62
7
  6
CONTINUOUS
 90
4
 70
0
 10
255.215837821
 20
62.4742338428
 10
255.0846315191
 20
62.5460545468
 10
254.9555996812
 20
62.6188421021
 10
254.932652867
 20
62.6321888184
  0
LINE
  5
690
100
AcDbEntity
  8
RUNDUNGEN
100
AcDbLine
 62
7
  6
CONTINUOUS
 10
252.1647286961
 20
39.07279927
 11
252.1646010418
 21
39.072945213
  0
LWPOLYLINE
  5
691
100
AcDbEntity
  8
RUNDUNGEN
100
AcDbPolyline
 62
7
  6
CONTINUOUS
 90
10
 70
0
 10
252.1647286961
 20
39.07279927
 10
252.0208458175
 20
39.2465734428
 10
251.7042043242
 20
39.7033740572
 10
251.41690536
 20
40.2260002928
 10
251.1631893223
 20
40.8058851291
 10
250.9450485078
 20
41.4386060049
 10
250.7663762167
 20
42.1152218296
 10
250.6292993976
 20
42.8313251997
 10
250.5362948698
 20
43.577724315
 10
250.4889004486
 20
44.3483275908
  0
LINE
  5
692
100
AcDbEntity
  8
0
100
AcDbLine
 62
7
  6
CONTINUOUS
 10
250.7774703889
 20
184.4247668314
 11
251.0100747082
 21
184.8737909616
  0
LWPOLYLINE
  5
693
100
AcDbEntity
  8
0
100
AcDbPolyline
 62
7
  6
CONTINUOUS
 90
32
 70
0
 10
252.8835037719
 20
175.8486145319
 10
252.8903385332
 20
175.8600677179
 10
252.915617252
 20
175.897704249
 10
252.9565803097
 20
175.9514003019
 10
253.0091040977
 20
176.013212681
 10
253.0734002903
 20
176.0822655775
 10
253.147885816
 20
176.1567265786
 10
253.2315709915
 20
176.2355579599
 10
253.3238961622
 20
176.3179975372
 10
253.4237543339
 20
176.4029598783
 10
253.5298487452
 20
176.489537663
 10
253.6424072702
 20
176.5780285418
 10
253.7615525834
 20
176.6684846954
 10
253.8870157105
 20
176.7606944862
 10
254.0189112325
 20
176.8547907901
 10
254.1566417911
 20
176.9503592276
 10
254.2997866795
 20
177.0470927259
 10
254.4478889549
 20
177.1447081163
 10
254.6005301605
 20
177.2429841409
 10
254.7573033028
 20
177.3416995509
 10
254.9176726275
 20
177.4405459417
 10
255.0815978593
 20
177.539543215
 10
255.2488732884
 20
177.6386125077
 10
255.4195897867
 20
177.7378364494
 10
255.5937699035
 20
177.8372378711
 10
255.7714625933
 20
177.9368531502
 10
255.9527330948
 20
178.0367245833
 10
256.1376454147
 20
178.1368819317
 10
256.3262644055
 20
178.2373434562
 10
256.5186630714
 20
178.3381260632
 10
256.7149213017
 20
178.4392477313
 10
256.9151359641
 20
178.5407263946
  0
LWPOLYLINE
  5
694
100
AcDbEntity
  8
0
100
AcDbPolyline
 62
7
  6
CONTINUOUS
 90
3
 70
0
 10
251.7042043148
 20
170.9891681948
 10
252.0208457697
 20
171.4459687701
 10
252.1647286717
 20
171.6197429671
  0
LINE
  5
695
100
AcDbEntity
  8
0
100
AcDbLine
 62
2
  6
CONTINUOUS
 10
250.9646362723
 20
151.005463172
 11
234.1654514048
 21
134.2062783044
  0
LWPOLYLINE
  5
696
100
AcDbEntity
  8
0
100
AcDbPolyline
 62
7
  6
CONTINUOUS
 90
39
 70
0
 10
253.7685645201
 20
147.2655068788
 10
253.7978259396
 20
147.2900528166
 10
253.8944010518
 20
147.3676952569
 10
253.9931209557
 20
147.4439781475
 10
254.0939470182
 20
147.5190330888
 10
254.1968115174
 20
147.5929324842
 10
254.3016906201
 20
147.6657531237
 10
254.4086119718
 20
147.7375962428
 10
254.5176322484
 20
147.8085672973
 10
254.6288136786
 20
147.8787572935
 10
254.7422604168
 20
147.9482667729
 10
254.8579510215
 20
148.017106041
 10
254.9759975507
 20
148.085354913
 10
255.0962178866
 20
148.1529178348
 10
255.2185042464
 20
148.2197470884
 10
255.3427424547
 20
148.285794345
 10
255.4688176738
 20
148.3510139228
 10
255.5966207184
 20
148.4153634146
 10
255.7260490451
 20
148.4788020235
 10
255.8570140109
 20
148.5412977552
 10
255.989421321
 20
148.602817976
 10
256.1231820002
 20
148.6633346594
 10
256.2581464346
 20
148.7227951327
 10
256.3944075748
 20
148.7812497607
 10
256.531823641
 20
148.8386425279
 10
256.6709763444
 20
148.8952119637
 10
256.8122395575
 20
148.9510884601
 10
256.9561170116
 20
149.0064345221
 10
257.1030853429
 20
149.0613800842
 10
257.2536162522
 20
149.1160276561
 10
257.4081818368
 20
149.1704547171
 10
257.5672690555
 20
149.2247212452
 10
257.7313781215
 20
149.2788677333
 10
257.9009328349
 20
149.3328854556
 10
258.0764548538
 20
149.3867712977
 10
258.2581299796
 20
149.4403875737
 10
258.4462371465
 20
149.4936017084
 10
258.6409854098
 20
149.5462392306
 10
258.8425967391
 20
149.5981072083
  0
LINE
  5
697
100
AcDbEntity
  8
RUNDUNGEN
100
AcDbLine
 62
7
  6
CONTINUOUS
 10
235.5998410894
 20
70.1276002543
 11
231.2454237861
 21
69.0646116101
  0
LINE
  5
698
100
AcDbEntity
  8
RUNDUNGEN
100
AcDbLine
 62
7
  6
CONTINUOUS
 10
259.7196975319
 20
69.064607099
 11
255.3652203909
 21
70.1276103507
  0
LWPOLYLINE
  5
699
100
AcDbEntity
  8
RUNDUNGEN
100
AcDbPolyline
 62
7
  6
CONTINUOUS
 90
7
 70
0
 10
255.3654153237
 20
70.1275213891
 10
255.2889932869
 20
70.1468622236
 10
254.9033009784
 20
70.2651357501
 10
254.491561223
 20
70.4281052853
 10
254.0609753306
 20
70.6382867768
 10
253.6195537823
 20
70.8965789386
 10
253.4665376455
 20
70.9965875473
  0
LINE
  5
69A
100
AcDbEntity
  8
RUNDUNGEN
100
AcDbLine
 62
7
  6
CONTINUOUS
 10
226.432551419
 20
69.3722608474
 11
226.432551419
 21
105.3462711262
  0
LINE
  5
69B
100
AcDbEntity
  8
0
100
AcDbLine
 62
7
  6
CONTINUOUS
 10
226.432551419
 20
105.3462711262
 11
226.432551419
 21
141.3202813917
  0
LINE
  5
69C
100
AcDbEntity
  8
0
100
AcDbLine
 62
7
  6
CONTINUOUS
 10
230.5018078235
 20
190.4000184675
 11
230.482551419
 21
190.2047209918
  0
LINE
  5
69D
100
AcDbEntity
  8
0
100
AcDbLine
 62
2
  6
CONTINUOUS
 10
253.4038759894
 20
147.5437855465
 11
240.0663687472
 21
134.2062783044
  0
LINE
  5
69E
100
AcDbEntity
  8
0
100
AcDbLine
 62
2
  6
CONTINUOUS
 10
257.4431706016
 20
145.6821628163
 11
245.9672860897
 21
134.2062783044
  0
LINE
  5
69F
100
AcDbEntity
  8
RUNDUNGEN
100
AcDbLine
 62
7
  6
CONTINUOUS
 10
253.4665599519
 20
70.9966217342
 11
253.466650667
 21
70.9965608104
  0
LWPOLYLINE
  5
6A0
100
AcDbEntity
  8
RUNDUNGEN
100
AcDbPolyline
 62
7
  6
CONTINUOUS
 90
5
 70
0
 10
253.466650667
 20
70.9965608104
 10
253.3293499737
 20
71.0910773712
 10
253.1075189252
 20
71.2537104557
 10
252.8854361931
 20
71.4293664988
 10
252.7019837366
 20
71.5847012575
  0
LWPOLYLINE
  5
6A1
100
AcDbEntity
  8
RUNDUNGEN
100
AcDbPolyline
 62
7
  6
CONTINUOUS
 90
4
 70
0
 10
260.0385589633
 20
60.7397541109
 10
260.1898614678
 20
60.6154803294
 10
260.3139199693
 20
60.4642983235
 10
260.4062940299
 20
60.2915906977
  0
LINE
  5
6A2
100
AcDbEntity
  8
RUNDUNGEN
100
AcDbLine
 62
7
  6
CONTINUOUS
 10
252.7020180041
 20
71.5847405793
 11
252.7021365668
 21
71.5846368151
  0
LWPOLYLINE
  5
6A3
100
AcDbEntity
  8
RUNDUNGEN
100
AcDbPolyline
 62
7
  6
CONTINUOUS
 90
3
 70
0
 10
252.7021365668
 20
71.5846368151
 10
252.6201564145
 20
71.65860551
 10
252.4547243449
 20
71.8222995897
  0
LINE
  5
6A4
100
AcDbEntity
  8
RUNDUNGEN
100
AcDbLine
 62
7
  6
CONTINUOUS
 10
230.482551419
 20
11.9789755326
 11
230.482551419
 21
20.1282068947
  0
LINE
  5
6A5
100
AcDbEntity
  8
RUNDUNGEN
100
AcDbLine
 62
7
  6
CONTINUOUS
 10
230.482551419
 20
20.4878212594
 11
230.482551419
 21
34.032845421
  0
LINE
  5
6A6
100
AcDbEntity
  8
RUNDUNGEN
100
AcDbLine
 62
7
  6
CONTINUOUS
 10
230.482551419
 20
51.7344200989
 11
230.482551419
 21
59.9085768743
  0
LINE
  5
6A7
100
AcDbEntity
  8
RUNDUNGEN
100
AcDbLine
 62
7
  6
CONTINUOUS
 10
230.482551419
 20
63.6321888184
 11
230.482551419
 21
68.0928613706
  0
LINE
  5
6A8
100
AcDbEntity
  8
RUNDUNGEN
100
AcDbLine
 62
7
  6
CONTINUOUS
 10
230.482551419
 20
97.3462711256
 11
230.482551419
 21
102.0962711256
  0
LINE
  5
6A9
100
AcDbEntity
  8
RUNDUNGEN
100
AcDbLine
 62
7
  6
CONTINUOUS
 10
230.482551419
 20
144.768523811
 11
230.482551419
 21
147.0603534329
  0
LINE
  5
6AA
100
AcDbEntity
  8
0
100
AcDbLine
 62
7
  6
CONTINUOUS
 10
230.482551419
 20
145.3861441397
 11
230.482551419
 21
147.0603534329
  0
LINE
  5
6AB
100
AcDbEntity
  8
RUNDUNGEN
100
AcDbLine
 62
7
  6
CONTINUOUS
 10
230.482551419
 20
150.783965377
 11
230.482551419
 21
158.9581221524
  0
LINE
  5
6AC
100
AcDbEntity
  8
0
100
AcDbLine
 62
7
  6
CONTINUOUS
 10
230.482551419
 20
177.5466661477
 11
230.482551419
 21
177.9473655146
  0
LINE
  5
6AD
100
AcDbEntity
  8
0
100
AcDbLine
 62
7
  6
CONTINUOUS
 10
230.482551419
 20
180.7966661477
 11
230.482551419
 21
181.0696050194
  0
LINE
  5
6AE
100
AcDbEntity
  8
RUNDUNGEN
100
AcDbLine
 62
7
  6
CONTINUOUS
 10
230.482551419
 20
176.6596968303
 11
230.482551419
 21
190.2047209918
  0
LINE
  5
6AF
100
AcDbEntity
  8
0
100
AcDbLine
 62
7
  6
CONTINUOUS
 10
230.482551419
 20
190.5924945037
 11
230.482551419
 21
191.0551822783
  0
LINE
  5
6B0
100
AcDbEntity
  8
RUNDUNGEN
100
AcDbLine
 62
7
  6
CONTINUOUS
 10
230.482551419
 20
190.5924945037
 11
230.482551419
 21
198.7135667186
  0
LINE
  5
6B1
100
AcDbEntity
  8
0
100
AcDbLine
 62
2
  6
CONTINUOUS
 10
261.9802424557
 20
144.3183173279
 11
251.8682034322
 21
134.2062783044
  0
LWPOLYLINE
  5
6B2
100
AcDbEntity
  8
RUNDUNGEN
100
AcDbPolyline
 62
7
  6
CONTINUOUS
 90
3
 70
0
 10
252.4547243449
 20
71.8222995897
 10
252.2897192299
 20
72.0036841285
 10
252.2290375199
 20
72.0745554221
  0
LINE
  5
6B3
100
AcDbEntity
  8
RUNDUNGEN
100
AcDbLine
 62
7
  6
CONTINUOUS
 10
252.2288110358
 20
72.074641652
 11
252.2289482796
 21
72.0744795455
  0
LINE
  5
6B4
100
AcDbEntity
  8
RUNDUNGEN
100
AcDbLine
 62
7
  6
CONTINUOUS
 10
252.2288110358
 20
72.074641652
 11
252.0378652387
 21
72.3165691526
  0
LWPOLYLINE
  5
6B5
100
AcDbEntity
  8
RUNDUNGEN
100
AcDbPolyline
 62
7
  6
CONTINUOUS
 90
5
 70
0
 10
252.0378652387
 20
72.3165691526
 10
251.6846185841
 20
72.8549755296
 10
251.3882596125
 20
73.4217304554
 10
251.1378066962
 20
74.0188207587
 10
250.9253966628
 20
74.6557148704
  0
LINE
  5
6B6
100
AcDbEntity
  8
0
100
AcDbLine
 62
7
  6
CONTINUOUS
 10
230.482551419
 20
150.783965377
 11
230.5016292465
 21
150.5895665492
  0
LINE
  5
6B7
100
AcDbEntity
  8
0
100
AcDbLine
 62
7
  6
CONTINUOUS
 10
230.482551419
 20
180.7966661477
 11
230.5015839576
 21
180.6024967314
  0
LWPOLYLINE
  5
6B8
100
AcDbEntity
  8
RUNDUNGEN
100
AcDbPolyline
 62
7
  6
CONTINUOUS
 90
38
 70
0
 10
238.0471477836
 20
105.3462711262
 10
238.0470586902
 20
105.291268295
 10
238.0249363975
 20
105.1821360324
 10
237.9808252491
 20
105.0683764705
 10
237.9205102537
 20
104.9590558334
 10
237.8478447667
 20
104.8546528588
 10
237.7646670232
 20
104.754204014
 10
237.673573809
 20
104.6585545415
 10
237.5746294709
 20
104.5662557578
 10
237.4693143845
 20
104.4777158719
 10
237.3577636298
 20
104.3923149466
 10
237.2408792033
 20
104.3102052429
 10
237.1190415698
 20
104.2312111371
 10
236.9925822995
 20
104.1552002236
 10
236.8617047221
 20
104.0820261396
 10
236.72634106
 20
104.0114531209
 10
236.5864251695
 20
103.9433193634
 10
236.4415923126
 20
103.8773803758
 10
236.2915280238
 20
103.8134892425
 10
236.1356274595
 20
103.7514407594
 10
235.973353097
 20
103.6911332328
 10
235.8039149199
 20
103.6324400569
 10
235.6259089976
 20
103.575127559
 10
235.4404461268
 20
103.5198127889
 10
235.2479497149
 20
103.4668330342
 10
235.0491776141
 20
103.4165680236
 10
234.8449846032
 20
103.3693680417
 10
234.6355784637
 20
103.3253854618
 10
234.4215596301
 20
103.2848486133
 10
234.2026072311
 20
103.2477976771
 10
233.9786519333
 20
103.2143551365
 10
233.7495074592
 20
103.1846486548
 10
233.5150204852
 20
103.1588395584
 10
233.275019475
 20
103.1371232337
 10
233.0293353009
 20
103.1197215783
 10
232.7778369219
 20
103.1069041083
 10
232.5203984131
 20
103.0989713615
 10
232.2588394555
 20
103.0962691487
  0
LINE
  5
6B9
100
AcDbEntity
  8
RUNDUNGEN
100
AcDbLine
 62
7
  6
CONTINUOUS
 10
230.482551419
 20
59.9085768743
 11
230.5016292465
 21
60.1029757021
  0
LINE
  5
6BA
100
AcDbEntity
  8
RUNDUNGEN
100
AcDbLine
 62
7
  6
CONTINUOUS
 10
230.5014806252
 20
59.8300176273
 11
230.482551419
 21
59.677232987
  0
LWPOLYLINE
  5
6BB
100
AcDbEntity
  8
0
100
AcDbPolyline
 62
7
  6
CONTINUOUS
 90
3
 70
0
 10
250.5043364477
 20
183.2849542659
 10
250.6040326542
 20
183.8884609948
 10
250.7774703889
 20
184.4247668314
  0
LINE
  5
6BC
100
AcDbEntity
  8
0
100
AcDbLine
 62
7
  6
CONTINUOUS
 10
260.4062413495
 20
180.4135252959
 11
260.4632877308
 21
180.6013324616
  0
LINE
  5
6BD
100
AcDbEntity
  8
0
100
AcDbLine
 62
2
  6
CONTINUOUS
 10
264.532551419
 20
140.9697089487
 11
257.7691207747
 21
134.2062783044
  0
LINE
  5
6BE
100
AcDbEntity
  8
0
100
AcDbLine
 62
2
  6
CONTINUOUS
 10
264.532551419
 20
135.0687916063
 11
263.6700381171
 21
134.2062783044
  0
LINE
  5
6BF
100
AcDbEntity
  8
RUNDUNGEN
100
AcDbLine
 62
7
  6
CONTINUOUS
 10
259.482551419
 20
96.3462711256
 11
251.1904625099
 21
96.3462711256
  0
LINE
  5
6C0
100
AcDbEntity
  8
RUNDUNGEN
100
AcDbLine
 62
7
  6
CONTINUOUS
 10
239.7746406813
 20
96.3462711256
 11
231.482551419
 21
96.3462711256
  0
LWPOLYLINE
  5
6C1
100
AcDbEntity
  8
RUNDUNGEN
100
AcDbPolyline
 62
7
  6
CONTINUOUS
 90
3
 70
0
 10
237.7617101795
 20
96.177900173
 10
238.052862343
 20
96.0623800714
 10
238.1299368682
 20
96.0266494759
  0
LINE
  5
6C2
100
AcDbEntity
  8
RUNDUNGEN
100
AcDbLine
 62
7
  6
CONTINUOUS
 10
238.1300050059
 20
96.026617969
 11
238.1298953048
 21
96.0266704304
  0
LWPOLYLINE
  5
6C3
100
AcDbEntity
  8
RUNDUNGEN
100
AcDbPolyline
 62
7
  6
CONTINUOUS
 90
3
 70
0
 10
238.1300050059
 20
96.026617969
 10
238.2456214038
 20
95.9688251835
 10
238.4080962948
 20
95.8789091786
  0
LINE
  5
6C4
100
AcDbEntity
  8
RUNDUNGEN
100
AcDbLine
 62
7
  6
CONTINUOUS
 10
238.4080962948
 20
95.8789091786
 11
238.5684886847
 21
95.7798692236
  0
LINE
  5
6C5
100
AcDbEntity
  8
RUNDUNGEN
100
AcDbLine
 62
7
  6
CONTINUOUS
 10
238.5684886847
 20
95.7798692236
 11
238.6858358939
 21
95.7007010168
  0
LINE
  5
6C6
100
AcDbEntity
  8
RUNDUNGEN
100
AcDbLine
 62
7
  6
CONTINUOUS
 10
238.6857766501
 20
95.7006163827
 11
238.6848914739
 21
95.7012361979
  0
LWPOLYLINE
  5
6C7
100
AcDbEntity
  8
RUNDUNGEN
100
AcDbPolyline
 62
7
  6
CONTINUOUS
 90
4
 70
0
 10
238.6848914739
 20
95.7012361979
 10
238.7491031001
 20
95.6554093632
 10
238.8848350404
 20
95.5523003867
 10
239.0225020517
 20
95.4389537655
  0
LWPOLYLINE
  5
6C8
100
AcDbEntity
  8
RUNDUNGEN
100
AcDbPolyline
 62
7
  6
CONTINUOUS
 90
3
 70
0
 10
239.0225020517
 20
95.4389537655
 10
239.1629362464
 20
95.3152938756
 10
239.1819591636
 20
95.2979790982
  0
LWPOLYLINE
  5
6C9
100
AcDbEntity
  8
RUNDUNGEN
100
AcDbPolyline
 62
7
  6
CONTINUOUS
 90
5
 70
0
 10
244.232551419
 20
36.6843578958
 10
244.2336235788
 20
36.6325577161
 10
244.2368416769
 20
36.5813832195
 10
244.2422046701
 20
36.530933769
 10
244.2497068668
 20
36.4813088436
  0
LINE
  5
6CA
100
AcDbEntity
  8
RUNDUNGEN
100
AcDbLine
 62
7
  6
CONTINUOUS
 10
240.482551419
 20
39.0950443483
 11
240.482551419
 21
50.7077807268
  0
LINE
  5
6CB
100
AcDbEntity
  8
RUNDUNGEN
100
AcDbLine
 62
7
  6
CONTINUOUS
 10
240.482551419
 20
74.6016610111
 11
240.482551419
 21
92.3462711256
  0
LINE
  5
6CC
100
AcDbEntity
  8
0
100
AcDbLine
 62
7
  6
CONTINUOUS
 10
240.482551419
 20
153.7233499767
 11
240.482551419
 21
183.9024909577
  0
LINE
  5
6CD
100
AcDbEntity
  8
RUNDUNGEN
100
AcDbLine
 62
7
  6
CONTINUOUS
 10
244.232551419
 20
14.2684442236
 11
244.232551419
 21
19.1349989743
  0
LINE
  5
6CE
100
AcDbEntity
  8
RUNDUNGEN
100
AcDbLine
 62
7
  6
CONTINUOUS
 10
244.232551419
 20
36.6843578958
 11
244.232551419
 21
46.3719632808
  0
LINE
  5
6CF
100
AcDbEntity
  8
RUNDUNGEN
100
AcDbLine
 62
7
  6
CONTINUOUS
 10
244.232551419
 20
75.3704639185
 11
244.232551419
 21
88.6039789763
  0
LINE
  5
6D0
100
AcDbEntity
  8
0
100
AcDbLine
 62
7
  6
CONTINUOUS
 10
240.4825502077
 20
153.7233499767
 11
240.4821988601
 21
153.6557394167
  0
LWPOLYLINE
  5
6D1
100
AcDbEntity
  8
RUNDUNGEN
100
AcDbPolyline
 62
7
  6
CONTINUOUS
 90
5
 70
0
 10
240.4825513654
 20
77.8670874538
 10
240.47665391
 20
77.4838102106
 10
240.4312625225
 20
76.7412611561
 10
240.3423819052
 20
76.0197675907
 10
240.2112632102
 20
75.3225010001
  0
LINE
  5
6D2
100
AcDbEntity
  8
RUNDUNGEN
100
AcDbLine
 62
7
  6
CONTINUOUS
 10
240.4825513364
 20
44.7510387236
 11
240.476335868
 21
44.3496965691
  0
LWPOLYLINE
  5
6D3
100
AcDbEntity
  8
RUNDUNGEN
100
AcDbPolyline
 62
7
  6
CONTINUOUS
 90
10
 70
0
 10
240.476335868
 20
44.3496965691
 10
240.4290386737
 20
43.5799949962
 10
240.3362214973
 20
42.8339549238
 10
240.1994415967
 20
42.1185981654
 10
240.0211462468
 20
41.4422708653
 10
239.8031757127
 20
40.809219208
 10
239.5491969041
 20
40.2283592458
 10
239.2616121348
 20
39.7045688805
 10
238.9451960395
 20
39.2474705538
 10
238.8005316437
 20
39.0727401915
  0
LINE
  5
6D4
100
AcDbEntity
  8
RUNDUNGEN
100
AcDbLine
 62
7
  6
CONTINUOUS
 10
230.5016292465
 20
60.1029757021
 11
230.5583591705
 21
60.2905044692
  0
LINE
  5
6D5
100
AcDbEntity
  8
RUNDUNGEN
100
AcDbLine
 62
7
  6
CONTINUOUS
 10
231.482551419
 20
103.0962711256
 11
259.482551419
 21
103.0962711256
  0
LINE
  5
6D6
100
AcDbEntity
  8
02___PRT_ALL_AXES
100
AcDbLine
 62
7
  6
CENTER
 10
223.432551419
 20
105.3462711256
 11
267.532551419
 21
105.3462711256
  0
LINE
  5
6D7
100
AcDbEntity
  8
0
100
AcDbLine
 62
2
  6
CONTINUOUS
 10
226.432551419
 20
105.3462711262
 11
264.532551419
 21
105.3462711262
  0
LWPOLYLINE
  5
6D8
100
AcDbEntity
  8
RUNDUNGEN
100
AcDbPolyline
 62
7
  6
CONTINUOUS
 90
37
 70
0
 10
258.7061299831
 20
103.096271198
 10
258.4175465227
 20
103.0995559052
 10
258.1555769914
 20
103.1082343886
 10
257.899996643
 20
103.1219517826
 10
257.6505726163
 20
103.1403750951
 10
257.40707565
 20
103.1632250784
 10
257.1692106721
 20
103.1902934659
 10
256.9366752226
 20
103.2214057991
 10
256.7092339031
 20
103.2564069364
 10
256.4866021269
 20
103.2952014589
 10
256.2686655182
 20
103.3377130689
 10
256.0549373011
 20
103.3839614379
 10
255.8462639279
 20
103.4336828453
 10
255.6430369313
 20
103.4867065734
 10
255.4461758662
 20
103.5426880081
 10
255.2564425323
 20
103.6012380377
 10
255.0745493041
 20
103.6619188668
 10
254.9018749814
 20
103.7240074044
 10
254.7371138545
 20
103.7876891107
 10
254.5797252501
 20
103.8529403893
 10
254.42887667
 20
103.9199508815
 10
254.2838250249
 20
103.9889931927
 10
254.1441828944
 20
104.0602454278
 10
254.0094587321
 20
104.1340129176
 10
253.8796203353
 20
104.2104735898
 10
253.7546669401
 20
104.2898724681
 10
253.634723472
 20
104.3724608329
 10
253.5201697279
 20
104.4584006028
 10
253.4113998318
 20
104.5479540712
 10
253.3094314543
 20
104.6410713268
 10
253.2146148092
 20
104.7385500958
 10
253.1294944276
 20
104.8388174045
 10
253.0536384212
 20
104.9450194655
 10
252.989855131
 20
105.0578081655
 10
252.9429409947
 20
105.1725487303
 10
252.9180892098
 20
105.2895820437
 10
252.9178423786
 20
105.3462711262
  0
LINE
  5
6D9
100
AcDbEntity
  8
RUNDUNGEN
100
AcDbLine
 62
7
  6
CONTINUOUS
 10
260.4073957806
 20
59.9765016623
 11
260.4636222128
 21
59.8293236573
  0
LWPOLYLINE
  5
6DA
100
AcDbEntity
  8
0
100
AcDbPolyline
 62
7
  6
CONTINUOUS
 90
7
 70
0
 10
230.5016292465
 20
150.5895665492
 10
230.5583591705
 20
150.4020377821
 10
230.6507735947
 20
150.2288566979
 10
230.7752350368
 20
150.0770682589
 10
230.92714753
 20
149.9523846516
 10
231.1002087913
 20
149.8599447522
 10
231.2437218419
 20
149.8129039218
  0
LWPOLYLINE
  5
6DB
100
AcDbEntity
  8
RUNDUNGEN
100
AcDbPolyline
 62
7
  6
CONTINUOUS
 90
6
 70
0
 10
250.9253966628
 20
74.6557148704
 10
250.7536234103
 20
75.3232406923
 10
250.6225632414
 20
76.0208071991
 10
250.5337918614
 20
76.7420156714
 10
250.4885215944
 20
77.4843861615
 10
250.4825515032
 20
77.8679210092
  0
LINE
  5
6DC
100
AcDbEntity
  8
RUNDUNGEN
100
AcDbLine
 62
7
  6
CONTINUOUS
 10
250.4889004486
 20
44.3483275908
 11
250.4825558047
 21
44.7464329778
  0
LINE
  5
6DD
100
AcDbEntity
  8
0
100
AcDbLine
 62
7
  6
CONTINUOUS
 10
250.482903981
 20
153.6557393331
 11
250.4825526327
 21
153.7233499741
  0
LINE
  5
6DE
100
AcDbEntity
  8
RUNDUNGEN
100
AcDbLine
 62
7
  6
CONTINUOUS
 10
246.732551419
 20
88.6039789763
 11
246.732551419
 21
75.3704639185
  0
LINE
  5
6DF
100
AcDbEntity
  8
RUNDUNGEN
100
AcDbLine
 62
7
  6
CONTINUOUS
 10
246.732551419
 20
46.3719632808
 11
246.732551419
 21
36.6843578958
  0
LINE
  5
6E0
100
AcDbEntity
  8
RUNDUNGEN
100
AcDbLine
 62
7
  6
CONTINUOUS
 10
246.732551419
 20
14.2684442236
 11
246.732551419
 21
19.1350972982
  0
LINE
  5
6E1
100
AcDbEntity
  8
RUNDUNGEN
100
AcDbLine
 62
7
  6
CONTINUOUS
 10
250.482551419
 20
92.3462711256
 11
250.482551419
 21
74.6016651534
  0
LINE
  5
6E2
100
AcDbEntity
  8
RUNDUNGEN
100
AcDbLine
 62
7
  6
CONTINUOUS
 10
250.482551419
 20
50.7091266067
 11
250.482551419
 21
39.0950515231
  0
LINE
  5
6E3
100
AcDbEntity
  8
0
100
AcDbLine
 62
7
  6
CONTINUOUS
 10
250.482551419
 20
153.7233499741
 11
250.482551419
 21
183.9024909577
  0
LINE
  5
6E4
100
AcDbEntity
  8
0
100
AcDbLine
 62
7
  6
CONTINUOUS
 10
250.982551419
 20
184.8206594419
 11
250.982551419
 21
182.5194208945
  0
LINE
  5
6E5
100
AcDbEntity
  8
0
100
AcDbLine
 62
7
  6
CONTINUOUS
 10
250.982551419
 20
182.5013018758
 11
250.982551419
 21
182.0611928887
  0
LINE
  5
6E6
100
AcDbEntity
  8
0
100
AcDbLine
 62
7
  6
CONTINUOUS
 10
250.982551419
 20
167.5608613649
 11
250.982551419
 21
164.6807415642
  0
LINE
  5
6E7
100
AcDbEntity
  8
0
100
AcDbLine
 62
7
  6
CONTINUOUS
 10
250.982551419
 20
164.475083076
 11
250.982551419
 21
160.6596964243
  0
LINE
  5
6E8
100
AcDbEntity
  8
0
100
AcDbLine
 62
7
  6
CONTINUOUS
 10
250.982551419
 20
160.6338022818
 11
250.982551419
 21
159.4608274355
  0
LWPOLYLINE
  5
6E9
100
AcDbEntity
  8
0
100
AcDbPolyline
 62
7
  6
CONTINUOUS
 90
9
 70
0
 10
250.4825558045
 20
165.9461091407
 10
250.4889004442
 20
166.3442146424
 10
250.5362948622
 20
167.114817927
 10
250.6292993951
 20
167.8612170426
 10
250.7663762109
 20
168.5773203935
 10
250.9450484838
 20
169.2539361916
 10
251.1631893073
 20
169.8866570521
 10
251.4169053646
 20
170.4665419551
 10
251.7042043148
 20
170.9891681948
  0
LINE
  5
6EA
100
AcDbEntity
  8
0
100
AcDbLine
 62
7
  6
CONTINUOUS
 10
260.4632877308
 20
180.6013324616
 11
260.482551419
 21
180.7966661477
  0
LWPOLYLINE
  5
6EB
100
AcDbEntity
  8
RUNDUNGEN
100
AcDbPolyline
 62
7
  6
CONTINUOUS
 90
7
 70
0
 10
240.2112632102
 20
75.3225010001
 10
240.0395049719
 20
74.6551438131
 10
239.827030497
 20
74.0181624118
 10
239.5761814129
 20
73.4207701004
 10
239.2796685582
 20
72.8536433374
 10
238.926993617
 20
72.316352399
 10
238.7362424189
 20
72.0746849642
  0
LINE
  5
6EC
100
AcDbEntity
  8
RUNDUNGEN
100
AcDbLine
 62
7
  6
CONTINUOUS
 10
230.5577070574
 20
59.9765016623
 11
230.5014806252
 21
59.8300176273
  0
LINE
  5
6ED
100
AcDbEntity
  8
0
100
AcDbLine
 62
7
  6
CONTINUOUS
 10
264.532551419
 20
106.3121969519
 11
226.432551419
 21
106.3121969519
  0
LINE
  5
6EE
100
AcDbEntity
  8
0
100
AcDbLine
 62
7
  6
CONTINUOUS
 10
264.532551419
 20
112.0637855469
 11
226.432551419
 21
112.0637855469
  0
LWPOLYLINE
  5
6EF
100
AcDbEntity
  8
RUNDUNGEN
100
AcDbPolyline
 62
7
  6
CONTINUOUS
 90
3
 70
0
 10
260.4062940299
 20
60.2915906977
 10
260.4633015466
 20
60.1038418782
 10
260.482551419
 20
59.9085768743
  0
LINE
  5
6F0
100
AcDbEntity
  8
0
100
AcDbLine
 62
7
  6
CONTINUOUS
 10
230.5015839576
 20
180.6024967314
 11
230.5582574751
 21
180.4149847293
  0
LINE
  5
6F1
100
AcDbEntity
  8
0
100
AcDbLine
 62
7
  6
CONTINUOUS
 10
260.4633015466
 20
150.5887003731
 11
260.482551419
 21
150.783965377
  0
LWPOLYLINE
  5
6F2
100
AcDbEntity
  8
RUNDUNGEN
100
AcDbPolyline
 62
7
  6
CONTINUOUS
 90
5
 70
0
 10
246.7153959712
 20
36.4813088436
 10
246.7229021508
 20
36.5309650072
 10
246.7282647059
 20
36.581425075
 10
246.7314805892
 20
36.6325891998
 10
246.732551419
 20
36.6843578958
  0
LWPOLYLINE
  5
6F3
100
AcDbEntity
  8
RUNDUNGEN
100
AcDbPolyline
 62
7
  6
CONTINUOUS
 90
4
 70
0
 10
230.5583591705
 20
60.2905044692
 10
230.6507735947
 20
60.4636855534
 10
230.7752350368
 20
60.6154739924
 10
230.92714753
 20
60.7401575997
  0
LWPOLYLINE
  5
6F4
100
AcDbEntity
  8
RUNDUNGEN
100
AcDbPolyline
 62
7
  6
CONTINUOUS
 90
5
 70
0
 10
251.7816393839
 20
95.2967075962
 10
251.80137198
 20
95.3145983498
 10
251.9413953059
 20
95.4380532206
 10
252.0787405763
 20
95.5510489466
 10
252.2147005037
 20
95.654551622
  0
LINE
  5
6F5
100
AcDbEntity
  8
RUNDUNGEN
100
AcDbLine
 62
7
  6
CONTINUOUS
 10
252.2147005037
 20
95.654551622
 11
252.2796862286
 21
95.7009987296
  0
LINE
  5
6F6
100
AcDbEntity
  8
RUNDUNGEN
100
AcDbLine
 62
7
  6
CONTINUOUS
 10
252.2796862286
 20
95.7009987296
 11
252.2792875344
 21
95.7007197863
  0
LINE
  5
6F7
100
AcDbEntity
  8
RUNDUNGEN
100
AcDbLine
 62
7
  6
CONTINUOUS
 10
252.2792898377
 20
95.7007165182
 11
252.3974321197
 21
95.7804004058
  0
LWPOLYLINE
  5
6F8
100
AcDbEntity
  8
RUNDUNGEN
100
AcDbPolyline
 62
7
  6
CONTINUOUS
 90
3
 70
0
 10
252.3974321197
 20
95.7804004058
 10
252.5579343875
 20
95.8794524352
 10
252.7203139827
 20
95.9692590785
  0
LINE
  5
6F9
100
AcDbEntity
  8
RUNDUNGEN
100
AcDbLine
 62
7
  6
CONTINUOUS
 10
252.7203139827
 20
95.9692590785
 11
252.8351107148
 21
96.0266240841
  0
LINE
  5
6FA
100
AcDbEntity
  8
RUNDUNGEN
100
AcDbLine
 62
7
  6
CONTINUOUS
 10
252.8351847714
 20
96.0266594978
 11
252.8351107148
 21
96.0266240841
  0
LINE
  5
6FB
100
AcDbEntity
  8
RUNDUNGEN
100
AcDbLine
 62
7
  6
CONTINUOUS
 10
252.8351544943
 20
96.0266105194
 11
252.9117733935
 21
96.0621351316
  0
LINE
  5
6FC
100
AcDbEntity
  8
RUNDUNGEN
100
AcDbLine
 62
7
  6
CONTINUOUS
 10
252.9117733935
 20
96.0621351316
 11
253.2026947753
 21
96.1776450544
  0
LWPOLYLINE
  5
6FD
100
AcDbEntity
  8
RUNDUNGEN
100
AcDbPolyline
 62
7
  6
CONTINUOUS
 90
5
 70
0
 10
253.2026947753
 20
96.1776450544
 10
253.4964512346
 20
96.263724893
 10
253.7927279386
 20
96.319746257
 10
254.0917024985
 20
96.3449890771
 10
254.1798500811
 20
96.3463551796
  0
LINE
  5
6FE
100
AcDbEntity
  8
0
100
AcDbLine
 62
7
  6
CONTINUOUS
 10
264.532551419
 20
112.9123136843
 11
226.432551419
 21
112.9123136843
  0
LINE
  5
6FF
100
AcDbEntity
  8
RUNDUNGEN
100
AcDbLine
 62
7
  6
CONTINUOUS
 10
260.4636222128
 20
59.8293236573
 11
260.482551419
 21
59.677232987
  0
LWPOLYLINE
  5
700
100
AcDbEntity
  8
0
100
AcDbPolyline
 62
7
  6
CONTINUOUS
 90
9
 70
0
 10
260.482551419
 20
158.9581221524
 10
260.4634954798
 20
159.1524101453
 10
260.4067929144
 20
159.3399305576
 10
260.3143750543
 20
159.5131621811
 10
260.189893106
 20
159.6649939497
 10
260.0379173358
 20
159.7897282355
 10
259.8648305745
 20
159.8821690383
 10
259.6776794163
 20
159.9388998754
 10
259.482551419
 20
159.9581221524
  0
LINE
  5
701
100
AcDbEntity
  8
0
100
AcDbLine
 62
7
  6
CONTINUOUS
 10
260.482551419
 20
191.0551822783
 11
260.482551419
 21
190.5924945037
  0
LINE
  5
702
100
AcDbEntity
  8
RUNDUNGEN
100
AcDbLine
 62
7
  6
CONTINUOUS
 10
260.482551419
 20
198.7135667186
 11
260.482551419
 21
190.5924945037
  0
LINE
  5
703
100
AcDbEntity
  8
RUNDUNGEN
100
AcDbLine
 62
7
  6
CONTINUOUS
 10
260.482551419
 20
190.2047209918
 11
260.482551419
 21
176.6597091027
  0
LINE
  5
704
100
AcDbEntity
  8
RUNDUNGEN
100
AcDbLine
 62
7
  6
CONTINUOUS
 10
260.482551419
 20
158.9581221524
 11
260.482551419
 21
150.783965377
  0
LINE
  5
705
100
AcDbEntity
  8
0
100
AcDbLine
 62
7
  6
CONTINUOUS
 10
260.482551419
 20
147.0603534329
 11
260.482551419
 21
145.3861441397
  0
LINE
  5
706
100
AcDbEntity
  8
RUNDUNGEN
100
AcDbLine
 62
7
  6
CONTINUOUS
 10
260.482551419
 20
147.0603534329
 11
260.482551419
 21
144.768523811
  0
LINE
  5
707
100
AcDbEntity
  8
RUNDUNGEN
100
AcDbLine
 62
7
  6
CONTINUOUS
 10
260.482551419
 20
102.0962711256
 11
260.482551419
 21
97.3462711256
  0
LINE
  5
708
100
AcDbEntity
  8
RUNDUNGEN
100
AcDbLine
 62
7
  6
CONTINUOUS
 10
260.482551419
 20
68.0928681277
 11
260.482551419
 21
63.6321888184
  0
LINE
  5
709
100
AcDbEntity
  8
RUNDUNGEN
100
AcDbLine
 62
7
  6
CONTINUOUS
 10
260.482551419
 20
59.9085768743
 11
260.482551419
 21
51.7344200989
  0
LINE
  5
70A
100
AcDbEntity
  8
RUNDUNGEN
100
AcDbLine
 62
7
  6
CONTINUOUS
 10
260.482551419
 20
34.0328331487
 11
260.482551419
 21
20.4878212594
  0
LINE
  5
70B
100
AcDbEntity
  8
RUNDUNGEN
100
AcDbLine
 62
7
  6
CONTINUOUS
 10
260.482551419
 20
20.1281811674
 11
260.482551419
 21
11.9789755326
  0
LINE
  5
70C
100
AcDbEntity
  8
0
100
AcDbLine
 62
7
  6
CONTINUOUS
 10
260.482551419
 20
150.783965377
 11
260.482551419
 21
151.281169165
  0
LINE
  5
70D
100
AcDbEntity
  8
0
100
AcDbLine
 62
7
  6
CONTINUOUS
 10
260.482551419
 20
177.9473655146
 11
260.482551419
 21
181.0696050194
  0
LINE
  5
70E
100
AcDbEntity
  8
RUNDUNGEN
100
AcDbLine
 62
7
  6
CONTINUOUS
 10
264.532551419
 20
105.3462711262
 11
264.532551419
 21
69.3722608458
  0
LINE
  5
70F
100
AcDbEntity
  8
0
100
AcDbLine
 62
7
  6
CONTINUOUS
 10
264.532551419
 20
105.3462711262
 11
264.532551419
 21
141.3202813933
  0
LWPOLYLINE
  5
710
100
AcDbEntity
  8
RUNDUNGEN
100
AcDbPolyline
 62
7
  6
CONTINUOUS
 90
6
 70
0
 10
260.482551419
 20
51.7344200989
 10
260.4634954798
 20
51.540132106
 10
260.4067929144
 20
51.3526116937
 10
260.3143750543
 20
51.1793800702
 10
260.189893106
 20
51.0275483015
 10
260.0379173358
 20
50.9028140158
  0
LINE
  5
711
100
AcDbEntity
  8
RUNDUNGEN
100
AcDbLine
 62
7
  6
CONTINUOUS
 10
238.7361152772
 20
72.0745345375
 11
238.7362424189
 21
72.0746849642
  0
LWPOLYLINE
  5
712
100
AcDbEntity
  8
RUNDUNGEN
100
AcDbPolyline
 62
7
  6
CONTINUOUS
 90
3
 70
0
 10
238.7360806812
 20
72.0745636558
 10
238.6732117017
 20
72.0011212178
 10
238.5080264939
 20
71.8197990072
  0
LWPOLYLINE
  5
713
100
AcDbEntity
  8
RUNDUNGEN
100
AcDbPolyline
 62
7
  6
CONTINUOUS
 90
3
 70
0
 10
238.5080264939
 20
71.8197990072
 10
238.3429480877
 20
71.6567179739
 10
238.2629822663
 20
71.5845790014
  0
LINE
  5
714
100
AcDbEntity
  8
RUNDUNGEN
100
AcDbLine
 62
7
  6
CONTINUOUS
 10
238.2629822663
 20
71.5845790014
 11
238.2631168766
 21
71.5846968224
  0
LWPOLYLINE
  5
715
100
AcDbEntity
  8
0
100
AcDbPolyline
 62
7
  6
CONTINUOUS
 90
3
 70
0
 10
240.1821581174
 20
184.4378354996
 10
240.3567741751
 20
183.9060746637
 10
240.4595777608
 20
183.2978094972
  0
LINE
  5
716
100
AcDbEntity
  8
0
100
AcDbLine
 62
7
  6
CONTINUOUS
 10
260.482551419
 20
190.2047209918
 11
260.4647695041
 21
190.3860194577
  0
LWPOLYLINE
  5
717
100
AcDbEntity
  8
RUNDUNGEN
100
AcDbPolyline
 62
7
  6
CONTINUOUS
 90
6
 70
0
 10
260.482551419
 20
20.4878212594
 10
260.4634954798
 20
20.2935332666
 10
260.4067929144
 20
20.1060128543
 10
260.3143750543
 20
19.9327812307
 10
260.189893106
 20
19.7809494621
 10
260.0379173358
 20
19.6562151764
  0
LWPOLYLINE
  5
718
100
AcDbEntity
  8
RUNDUNGEN
100
AcDbPolyline
 62
7
  6
CONTINUOUS
 90
5
 70
0
 10
238.2631156176
 20
71.5846982533
 10
238.0796214233
 20
71.429329091
 10
237.8575809776
 20
71.2537081621
 10
237.6358004706
 20
71.0911108678
 10
237.4985420962
 20
70.9966211248
  0
LINE
  5
719
100
AcDbEntity
  8
RUNDUNGEN
100
AcDbLine
 62
7
  6
CONTINUOUS
 10
237.4985420962
 20
70.9966211248
 11
237.4986430841
 21
70.9966889432
  0
LWPOLYLINE
  5
71A
100
AcDbEntity
  8
RUNDUNGEN
100
AcDbPolyline
 62
7
  6
CONTINUOUS
 90
7
 70
0
 10
237.4986467795
 20
70.9966820165
 10
237.3451614002
 20
70.8963700982
 10
236.9033945476
 20
70.6379075952
 10
236.4726603983
 20
70.4277009408
 10
236.0609888203
 20
70.2648141749
 10
235.6756135435
 20
70.1466871995
 10
235.5996329293
 20
70.1274634822
  0
LINE
  5
71B
100
AcDbEntity
  8
0
100
AcDbLine
 62
7
  6
CONTINUOUS
 10
264.532551419
 20
127.1958706643
 11
226.432551419
 21
127.1958706643
  0
LWPOLYLINE
  5
71C
100
AcDbEntity
  8
0
100
AcDbPolyline
 62
7
  6
CONTINUOUS
 90
9
 70
0
 10
239.2616121292
 20
170.9879733799
 10
239.5491968998
 20
170.4641830142
 10
239.8031757097
 20
169.883323051
 10
240.0211462448
 20
169.2502713926
 10
240.1994415954
 20
168.5739440913
 10
240.3362214967
 20
167.8585873315
 10
240.4290386734
 20
167.1125472575
 10
240.4763358679
 20
166.3428456833
 10
240.4825513364
 20
165.9415035285
  0
LWPOLYLINE
  5
71D
100
AcDbEntity
  8
0
100
AcDbPolyline
 62
7
  6
CONTINUOUS
 90
3
 70
0
 10
230.5582574751
 20
180.4149847293
 10
230.6506797434
 20
180.2416981234
 10
230.7751849785
 20
180.0898191213
  0
LWPOLYLINE
  5
71E
100
AcDbEntity
  8
RUNDUNGEN
100
AcDbPolyline
 62
7
  6
CONTINUOUS
 90
20
 70
0
 10
236.032393722
 20
62.6321888184
 10
236.0103900282
 20
62.6193530271
 10
235.8584114716
 20
62.5338308213
 10
235.703507998
 20
62.4496828852
 10
235.5457828621
 20
62.3669231242
 10
235.3853494653
 20
62.2855744407
 10
235.2222926899
 20
62.2056521652
 10
235.0566998606
 20
62.1271760996
 10
234.8886363611
 20
62.0501607135
 10
234.7182892025
 20
61.9746798815
 10
234.5453389987
 20
61.9005888619
 10
234.3699116855
 20
61.8279525792
 10
234.190808857
 20
61.7563151199
 10
234.0072048292
 20
61.6854322396
 10
233.8180501361
 20
61.6150319971
 10
233.6223308704
 20
61.5449177503
 10
233.4190867174
 20
61.4749726824
 10
233.2070810183
 20
61.4050587144
 10
232.9861385164
 20
61.3354469753
 10
232.755606832
 20
61.266296192
  0
LWPOLYLINE
  5
71F
100
AcDbEntity
  8
RUNDUNGEN
100
AcDbPolyline
 62
7
  6
CONTINUOUS
 90
3
 70
0
 10
230.92714753
 20
60.7401575997
 10
231.1002087913
 20
60.8325974991
 10
231.2437218419
 20
60.8796383295
  0
LINE
  5
720
100
AcDbEntity
  8
0
100
AcDbLine
 62
7
  6
CONTINUOUS
 10
264.532551419
 20
132.9474592593
 11
226.432551419
 21
132.9474592593
  0
LINE
  5
721
100
AcDbEntity
  8
0
100
AcDbLine
 62
7
  6
CONTINUOUS
 10
264.532551419
 20
134.2062783044
 11
226.432551419
 21
134.2062783044
  0
LINE
  5
722
100
AcDbEntity
  8
0
100
AcDbLine
 62
7
  6
CONTINUOUS
 10
238.945196033
 20
171.4450717059
 11
239.2616121292
 21
170.9879733799
  0
LINE
  5
723
100
AcDbEntity
  8
0
100
AcDbLine
 62
7
  6
CONTINUOUS
 10
239.9509748061
 20
184.8801145225
 11
240.1821581174
 21
184.4378354996
  0
LINE
  5
724
100
AcDbEntity
  8
RUNDUNGEN
100
AcDbLine
 62
7
  6
CONTINUOUS
 10
238.8005287372
 20
39.0727409737
 11
238.8006416396
 21
39.0728698817
  0
LWPOLYLINE
  5
725
100
AcDbEntity
  8
RUNDUNGEN
100
AcDbPolyline
 62
7
  6
CONTINUOUS
 90
3
 70
0
 10
238.8006393499
 20
39.0728712264
 10
238.7356881319
 20
39.0004008702
 10
238.5952574564
 20
38.8548116276
  0
LWPOLYLINE
  5
726
100
AcDbEntity
  8
RUNDUNGEN
100
AcDbPolyline
 62
7
  6
CONTINUOUS
 90
5
 70
0
 10
231.0975210429
 20
60.4034044012
 10
230.9243260925
 20
60.3300079262
 10
230.7730288421
 20
60.2317007222
 10
230.6493144743
 20
60.1122540394
 10
230.5577070574
 20
59.9765016623
  0
LINE
  5
727
100
AcDbEntity
  8
RUNDUNGEN
100
AcDbLine
 62
7
  6
CONTINUOUS
 10
259.7211107228
 20
149.8128375122
 11
259.7213962537
 21
149.8129076861
  0
LINE
  5
728
100
AcDbEntity
  8
0
100
AcDbLine
 62
7
  6
CONTINUOUS
 10
258.8425967391
 20
149.5981072083
 11
259.7196371004
 21
149.812476633
  0
LINE
  5
729
100
AcDbEntity
  8
0
100
AcDbLine
 62
7
  6
CONTINUOUS
 10
231.2454657376
 20
149.812476633
 11
232.0218148614
 21
149.6230130925
  0
LINE
  5
72A
100
AcDbEntity
  8
RUNDUNGEN
100
AcDbLine
 62
7
  6
CONTINUOUS
 10
231.2437218419
 20
149.8129039218
 11
231.2439921152
 21
149.8128375123
  0
LWPOLYLINE
  5
72B
100
AcDbEntity
  8
0
100
AcDbPolyline
 62
7
  6
CONTINUOUS
 90
31
 70
0
 10
232.0218137506
 20
149.6230147683
 10
232.2662113535
 20
149.5614069241
 10
232.5152249736
 20
149.4946025425
 10
232.7549874934
 20
149.4264270821
 10
232.9854376405
 20
149.3573108805
 10
233.2062976506
 20
149.2877361749
 10
233.4182198289
 20
149.2178617396
 10
233.6213741067
 20
149.1479605512
 10
233.8170053753
 20
149.0778918325
 10
234.0060784429
 20
149.0075370473
 10
234.1896129401
 20
148.9366971113
 10
234.3686640255
 20
148.865097416
 10
234.5440617063
 20
148.7924913
 10
234.7170151729
 20
148.7184173934
 10
234.8873842566
 20
148.6429456807
 10
235.0554843163
 20
148.5659325406
 10
235.2211088774
 20
148.4874605496
 10
235.3841775523
 20
148.4075519483
 10
235.5445876731
 20
148.3262354938
 10
235.7022399393
 20
148.2435362151
 10
235.8570065821
 20
148.159487976
 10
236.0087631558
 20
148.0741210303
 10
236.157354
 20
147.9874786405
 10
236.3025361968
 20
147.8996547376
 10
236.444376786
 20
147.810549389
 10
236.5828141271
 20
147.7201192381
 10
236.7178300597
 20
147.628271548
 10
236.8493417302
 20
147.534926852
 10
236.9772213016
 20
147.4400089434
 10
237.1012524886
 20
147.3434700005
 10
237.1964957625
 20
147.2654744059
  0
LINE
  5
72C
100
AcDbEntity
  8
RUNDUNGEN
100
AcDbLine
 62
7
  6
CONTINUOUS
 10
238.8006433699
 20
171.6196744971
 11
238.8005316361
 21
171.6198020681
  0
LINE
  5
72D
100
AcDbEntity
  8
0
100
AcDbLine
 62
7
  6
CONTINUOUS
 10
238.8005316361
 20
171.6198020681
 11
238.945196033
 21
171.4450717059
  0
LWPOLYLINE
  5
72E
100
AcDbEntity
  8
RUNDUNGEN
100
AcDbPolyline
 62
7
  6
CONTINUOUS
 90
3
 70
0
 10
238.5952154884
 20
38.8547820188
 10
238.4590144565
 20
38.7288666273
 10
238.3979953868
 20
38.6776119655
  0
LWPOLYLINE
  5
72F
100
AcDbEntity
  8
RUNDUNGEN
100
AcDbPolyline
 62
7
  6
CONTINUOUS
 90
6
 70
0
 10
260.0391333279
 20
62.8013960966
 10
260.1899931379
 20
62.9254171337
 10
260.3135669871
 20
63.0759396667
 10
260.4059426113
 20
63.2483285495
 10
260.4632061108
 20
63.4364493614
 10
260.482551419
 20
63.6321888184
  0
LINE
  5
730
100
AcDbEntity
  8
RUNDUNGEN
100
AcDbLine
 62
7
  6
CONTINUOUS
 10
238.3979953868
 20
38.6776119655
 11
238.3977964814
 21
38.6774503409
  0
LINE
  5
731
100
AcDbEntity
  8
RUNDUNGEN
100
AcDbLine
 62
7
  6
CONTINUOUS
 10
260.482551419
 20
65.9240184402
 11
262.3961840939
 21
66.4992571347
  0
LWPOLYLINE
  5
732
100
AcDbEntity
  8
0
100
AcDbPolyline
 62
7
  6
CONTINUOUS
 90
9
 70
0
 10
231.482551419
 20
148.0603534329
 10
231.2849222458
 20
148.0406299304
 10
231.0978601298
 20
147.9833987254
 10
230.9259695101
 20
147.8911461547
 10
230.7751097001
 20
147.7671251176
 10
230.6515358509
 20
147.6166025846
 10
230.5591602268
 20
147.4442137018
 10
230.5018967273
 20
147.2560928899
 10
230.482551419
 20
147.0603534329
  0
LWPOLYLINE
  5
733
100
AcDbEntity
  8
RUNDUNGEN
100
AcDbPolyline
 62
7
  6
CONTINUOUS
 90
9
 70
0
 10
231.482551419
 20
146.3313617636
 10
231.2860112673
 20
146.3128149066
 10
231.0975210429
 20
146.2584891716
 10
230.9243260925
 20
146.1703460494
 10
230.7730288421
 20
146.0522226505
 10
230.6493144743
 20
145.9087488579
 10
230.5577070574
 20
145.7456536673
 10
230.5014806252
 20
145.5694641023
 10
230.482551419
 20
145.3861441397
  0
LINE
  5
734
100
AcDbEntity
  8
RUNDUNGEN
100
AcDbLine
 62
7
  6
CONTINUOUS
 10
231.482551419
 20
146.3313617636
 11
235.5296271616
 21
146.3313617636
  0
LINE
  5
735
100
AcDbEntity
  8
RUNDUNGEN
100
AcDbLine
 62
7
  6
CONTINUOUS
 10
255.4354756758
 20
146.3313617636
 11
259.482551419
 21
146.3313617636
  0
LINE
  5
736
100
AcDbEntity
  8
0
100
AcDbLine
 62
7
  6
CONTINUOUS
 10
231.482551419
 20
148.0603534329
 11
236.0323744497
 21
148.0603534329
  0
LINE
  5
737
100
AcDbEntity
  8
0
100
AcDbLine
 62
7
  6
CONTINUOUS
 10
254.9327537891
 20
148.0603534329
 11
259.482551419
 21
148.0603534329
  0
LWPOLYLINE
  5
738
100
AcDbEntity
  8
RUNDUNGEN
100
AcDbPolyline
 62
7
  6
CONTINUOUS
 90
9
 70
0
 10
259.482551419
 20
146.3313617636
 10
259.6790915707
 20
146.3129722353
 10
259.8675817951
 20
146.2584891716
 10
260.0407767455
 20
146.1703957797
 10
260.1920739959
 20
146.0522226505
 10
260.3157883637
 20
145.9087790252
 10
260.4073957806
 20
145.7456536673
 10
260.4636222128
 20
145.5690689195
 10
260.482551419
 20
145.3861441397
  0
LWPOLYLINE
  5
739
100
AcDbEntity
  8
0
100
AcDbPolyline
 62
7
  6
CONTINUOUS
 90
9
 70
0
 10
259.482551419
 20
148.0603534329
 10
259.6801805922
 20
148.0406299304
 10
259.8672427082
 20
147.9833987254
 10
260.0391333279
 20
147.8911461547
 10
260.1899931379
 20
147.7671251176
 10
260.3135669871
 20
147.6166025846
 10
260.4059426113
 20
147.4442137018
 10
260.4632061108
 20
147.2560928899
 10
260.482551419
 20
147.0603534329
  0
LINE
  5
73A
100
AcDbEntity
  8
0
100
AcDbLine
 62
7
  6
CONTINUOUS
 10
256.1795490152
 20
146.0620079356
 11
262.3961841026
 21
144.193285114
  0
LINE
  5
73B
100
AcDbEntity
  8
RUNDUNGEN
100
AcDbLine
 62
7
  6
CONTINUOUS
 10
238.3979953691
 20
172.0149302981
 11
238.397796471
 21
172.0150919167
  0
LWPOLYLINE
  5
73C
100
AcDbEntity
  8
0
100
AcDbPolyline
 62
7
  6
CONTINUOUS
 90
5
 70
0
 10
238.3979953691
 20
172.0149302981
 10
238.4590144446
 20
171.9636756303
 10
238.5952574587
 20
171.8377306171
 10
238.7356881267
 20
171.6921413818
 10
238.8006393379
 20
171.6196710351
  0
LINE
  5
73D
100
AcDbEntity
  8
0
100
AcDbLine
 62
7
  6
CONTINUOUS
 10
239.6850500049
 20
185.2227865694
 11
239.9509748061
 21
184.8801145225
  0
LWPOLYLINE
  5
73E
100
AcDbEntity
  8
RUNDUNGEN
100
AcDbPolyline
 62
7
  6
CONTINUOUS
 90
3
 70
0
 10
238.3977967694
 20
38.677449993
 10
238.184249471
 20
38.5074021235
 10
237.9141331299
 20
38.3017683371
  0
LWPOLYLINE
  5
73F
100
AcDbEntity
  8
RUNDUNGEN
100
AcDbPolyline
 62
7
  6
CONTINUOUS
 90
3
 70
0
 10
237.9138000448
 20
38.3015269644
 10
237.637801425
 20
38.1015224004
 10
237.4598630954
 20
37.977645697
  0
LINE
  5
740
100
AcDbEntity
  8
RUNDUNGEN
100
AcDbLine
 62
7
  6
CONTINUOUS
 10
237.4598630954
 20
37.977645697
 11
237.4596744513
 21
37.9775161295
  0
LINE
  5
741
100
AcDbEntity
  8
RUNDUNGEN
100
AcDbLine
 62
7
  6
CONTINUOUS
 10
237.459710396
 20
37.9774641057
 11
237.2590593765
 21
37.8422526861
  0
LWPOLYLINE
  5
742
100
AcDbEntity
  8
RUNDUNGEN
100
AcDbPolyline
 62
7
  6
CONTINUOUS
 90
6
 70
0
 10
237.2591943311
 20
37.8423879436
 10
236.6808428714
 20
37.4777353533
 10
236.0986904281
 20
37.1455542219
 10
235.5203860933
 20
36.8480674859
 10
234.9527372205
 20
36.5867523396
 10
234.8382833838
 20
36.5377224782
  0
LINE
  5
743
100
AcDbEntity
  8
RUNDUNGEN
100
AcDbLine
 62
7
  6
CONTINUOUS
 10
237.4598645752
 20
172.7148955356
 11
237.4596759085
 21
172.7150251188
  0
LWPOLYLINE
  5
744
100
AcDbEntity
  8
0
100
AcDbPolyline
 62
7
  6
CONTINUOUS
 90
5
 70
0
 10
237.4598645752
 20
172.7148955356
 10
237.6378043799
 20
172.5910177591
 10
237.9141360762
 20
172.3907717263
 10
238.1842518942
 20
172.1851382364
 10
238.3977967589
 20
172.0150922645
  0
LINE
  5
745
100
AcDbEntity
  8
0
100
AcDbLine
 62
7
  6
CONTINUOUS
 10
230.7751849785
 20
180.0898191213
 11
230.9272294152
 21
179.965030743
  0
LWPOLYLINE
  5
746
100
AcDbEntity
  8
RUNDUNGEN
100
AcDbPolyline
 62
7
  6
CONTINUOUS
 90
3
 70
0
 10
260.0379173358
 20
50.9028140158
 10
259.8648305745
 20
50.810373213
 10
259.6776794163
 20
50.7536423759
  0
LINE
  5
747
100
AcDbEntity
  8
RUNDUNGEN
100
AcDbLine
 62
7
  6
CONTINUOUS
 10
234.8383591742
 20
36.5377391658
 11
231.0931015071
 21
34.9541974079
  0
LINE
  5
748
100
AcDbEntity
  8
0
100
AcDbLine
 62
7
  6
CONTINUOUS
 10
231.482551419
 20
159.9581221524
 11
231.2864280235
 21
159.9387012938
  0
LINE
  5
749
100
AcDbEntity
  8
0
100
AcDbLine
 62
7
  6
CONTINUOUS
 10
240.482551419
 20
159.9849375957
 11
239.7748985364
 21
159.9581049237
  0
LINE
  5
74A
100
AcDbEntity
  8
0
100
AcDbLine
 62
7
  6
CONTINUOUS
 10
250.482551419
 20
159.4608274355
 11
250.982551419
 21
159.4608274355
  0
LINE
  5
74B
100
AcDbEntity
  8
0
100
AcDbLine
 62
7
  6
CONTINUOUS
 10
250.482551419
 20
159.5894397038
 11
250.982551419
 21
159.5894397038
  0
LINE
  5
74C
100
AcDbEntity
  8
0
100
AcDbLine
 62
7
  6
CONTINUOUS
 10
250.482551419
 20
159.8895353235
 11
250.982551419
 21
159.8895353235
  0
LINE
  5
74D
100
AcDbEntity
  8
0
100
AcDbLine
 62
7
  6
CONTINUOUS
 10
259.482551419
 20
159.9581221524
 11
251.1905090853
 21
159.9581221524
  0
LINE
  5
74E
100
AcDbEntity
  8
0
100
AcDbLine
 62
7
  6
CONTINUOUS
 10
239.7748985127
 20
159.9581221524
 11
231.482551419
 21
159.9581221524
  0
LINE
  5
74F
100
AcDbEntity
  8
0
100
AcDbLine
 62
7
  6
CONTINUOUS
 10
250.482551419
 20
160.0610181842
 11
250.982551419
 21
160.0610181842
  0
LINE
  5
750
100
AcDbEntity
  8
0
100
AcDbLine
 62
7
  6
CONTINUOUS
 10
250.482551419
 20
160.3611133133
 11
250.982551419
 21
160.3611133133
  0
LINE
  5
751
100
AcDbEntity
  8
0
100
AcDbLine
 62
7
  6
CONTINUOUS
 10
250.482551419
 20
160.4897255815
 11
250.982551419
 21
160.4897255815
  0
LINE
  5
752
100
AcDbEntity
  8
0
100
AcDbLine
 62
7
  6
CONTINUOUS
 10
250.482551419
 20
160.6596964243
 11
250.982551419
 21
160.6596964243
  0
LINE
  5
753
100
AcDbEntity
  8
0
100
AcDbLine
 62
7
  6
CONTINUOUS
 10
250.482551419
 20
160.7859814499
 11
250.982551419
 21
160.7859814499
  0
LINE
  5
754
100
AcDbEntity
  8
0
100
AcDbLine
 62
7
  6
CONTINUOUS
 10
250.482551419
 20
161.0806463491
 11
250.982551419
 21
161.0806463491
  0
LINE
  5
755
100
AcDbEntity
  8
0
100
AcDbLine
 62
7
  6
CONTINUOUS
 10
250.482551419
 20
161.2490262226
 11
250.982551419
 21
161.2490262226
  0
LINE
  5
756
100
AcDbEntity
  8
0
100
AcDbLine
 62
7
  6
CONTINUOUS
 10
250.482551419
 20
161.5436916036
 11
250.982551419
 21
161.5436916036
  0
LINE
  5
757
100
AcDbEntity
  8
0
100
AcDbLine
 62
7
  6
CONTINUOUS
 10
250.482551419
 20
161.6699766292
 11
250.982551419
 21
161.6699766292
  0
LINE
  5
758
100
AcDbEntity
  8
0
100
AcDbLine
 62
7
  6
CONTINUOUS
 10
250.482551419
 20
162.0982893998
 11
250.982551419
 21
162.0982893998
  0
LINE
  5
759
100
AcDbEntity
  8
0
100
AcDbLine
 62
7
  6
CONTINUOUS
 10
250.482551419
 20
162.1136206677
 11
250.982551419
 21
162.1136206677
  0
LINE
  5
75A
100
AcDbEntity
  8
0
100
AcDbLine
 62
7
  6
CONTINUOUS
 10
250.482551419
 20
162.2084059609
 11
250.982551419
 21
162.2084059609
  0
LINE
  5
75B
100
AcDbEntity
  8
0
100
AcDbLine
 62
7
  6
CONTINUOUS
 10
250.482551419
 20
162.3619509329
 11
250.982551419
 21
162.3619509329
  0
LINE
  5
75C
100
AcDbEntity
  8
0
100
AcDbLine
 62
7
  6
CONTINUOUS
 10
250.482551419
 20
162.553561237
 11
250.982551419
 21
162.553561237
  0
LINE
  5
75D
100
AcDbEntity
  8
0
100
AcDbLine
 62
7
  6
CONTINUOUS
 10
250.482551419
 20
162.703783324
 11
250.982551419
 21
162.703783324
  0
LINE
  5
75E
100
AcDbEntity
  8
0
100
AcDbLine
 62
7
  6
CONTINUOUS
 10
250.482551419
 20
162.8626911483
 11
250.982551419
 21
162.8626911483
  0
LINE
  5
75F
100
AcDbEntity
  8
0
100
AcDbLine
 62
7
  6
CONTINUOUS
 10
250.482551419
 20
162.9491174557
 11
250.982551419
 21
162.9491174557
  0
LINE
  5
760
100
AcDbEntity
  8
0
100
AcDbLine
 62
7
  6
CONTINUOUS
 10
250.482551419
 20
163.0712978871
 11
250.982551419
 21
163.0712978871
  0
LINE
  5
761
100
AcDbEntity
  8
0
100
AcDbLine
 62
7
  6
CONTINUOUS
 10
250.482551419
 20
163.4894466588
 11
250.982551419
 21
163.4894466588
  0
LINE
  5
762
100
AcDbEntity
  8
0
100
AcDbLine
 62
7
  6
CONTINUOUS
 10
250.482551419
 20
163.9781683843
 11
250.982551419
 21
163.9781683843
  0
LINE
  5
763
100
AcDbEntity
  8
0
100
AcDbLine
 62
7
  6
CONTINUOUS
 10
250.482551419
 20
164.1573750247
 11
250.982551419
 21
164.1573750247
  0
LINE
  5
764
100
AcDbEntity
  8
0
100
AcDbLine
 62
7
  6
CONTINUOUS
 10
250.4807072833
 20
164.475083076
 11
250.982551419
 21
164.475083076
  0
LINE
  5
765
100
AcDbEntity
  8
0
100
AcDbLine
 62
7
  6
CONTINUOUS
 10
250.482551419
 20
164.6807415642
 11
250.982551419
 21
164.6807415642
  0
LINE
  5
766
100
AcDbEntity
  8
0
100
AcDbLine
 62
7
  6
CONTINUOUS
 10
250.482551419
 20
164.7986761917
 11
250.982551419
 21
164.7986761917
  0
LINE
  5
767
100
AcDbEntity
  8
0
100
AcDbLine
 62
7
  6
CONTINUOUS
 10
250.482551419
 20
164.8997085618
 11
250.982551419
 21
164.8997085618
  0
LINE
  5
768
100
AcDbEntity
  8
0
100
AcDbLine
 62
7
  6
CONTINUOUS
 10
250.482551419
 20
164.9278154992
 11
250.982551419
 21
164.9278154992
  0
LINE
  5
769
100
AcDbEntity
  8
0
100
AcDbLine
 62
7
  6
CONTINUOUS
 10
250.482551419
 20
164.9952339417
 11
250.982551419
 21
164.9952339417
  0
LINE
  5
76A
100
AcDbEntity
  8
0
100
AcDbLine
 62
7
  6
CONTINUOUS
 10
250.482551419
 20
165.1524800742
 11
250.982551419
 21
165.1524800742
  0
LINE
  5
76B
100
AcDbEntity
  8
0
100
AcDbLine
 62
7
  6
CONTINUOUS
 10
250.482551419
 20
165.2816193817
 11
250.982551419
 21
165.2816193817
  0
LINE
  5
76C
100
AcDbEntity
  8
0
100
AcDbLine
 62
7
  6
CONTINUOUS
 10
250.482551419
 20
165.4219631471
 11
250.982551419
 21
165.4219631471
  0
LINE
  5
76D
100
AcDbEntity
  8
0
100
AcDbLine
 62
7
  6
CONTINUOUS
 10
250.482551419
 20
165.6240277749
 11
250.982551419
 21
165.6240277749
  0
LINE
  5
76E
100
AcDbEntity
  8
0
100
AcDbLine
 62
7
  6
CONTINUOUS
 10
250.482551419
 20
165.7867808522
 11
250.982551419
 21
165.7867808522
  0
LINE
  5
76F
100
AcDbEntity
  8
0
100
AcDbLine
 62
7
  6
CONTINUOUS
 10
250.482551419
 20
165.8323859757
 11
250.982551419
 21
165.8323859757
  0
LINE
  5
770
100
AcDbEntity
  8
0
100
AcDbLine
 62
7
  6
CONTINUOUS
 10
250.482551419
 20
165.84694829
 11
250.982551419
 21
165.84694829
  0
LINE
  5
771
100
AcDbEntity
  8
0
100
AcDbLine
 62
7
  6
CONTINUOUS
 10
250.482551419
 20
165.9121438268
 11
250.982551419
 21
165.9121438268
  0
LINE
  5
772
100
AcDbEntity
  8
0
100
AcDbLine
 62
7
  6
CONTINUOUS
 10
251.1905097631
 20
159.9579967784
 11
250.9771224575
 21
159.9656828363
  0
LINE
  5
773
100
AcDbEntity
  8
0
100
AcDbLine
 62
7
  6
CONTINUOUS
 10
231.0931015071
 20
175.7383448434
 11
234.8383417134
 21
174.154763505
  0
LINE
  5
774
100
AcDbEntity
  8
RUNDUNGEN
100
AcDbLine
 62
7
  6
CONTINUOUS
 10
234.8382105393
 20
174.154866447
 11
234.8383586951
 21
174.1548037583
  0
LWPOLYLINE
  5
775
100
AcDbEntity
  8
0
100
AcDbPolyline
 62
7
  6
CONTINUOUS
 90
7
 70
0
 10
234.8382105393
 20
174.154866447
 10
234.9522876029
 20
174.1060159929
 10
235.5197337993
 20
173.8448517148
 10
236.0980629248
 20
173.5473625061
 10
236.6804066108
 20
173.2151026479
 10
237.2590597362
 20
172.8502892861
 10
237.4597118249
 20
172.7150771
  0
LWPOLYLINE
  5
776
100
AcDbEntity
  8
0
100
AcDbPolyline
 62
7
  6
CONTINUOUS
 90
24
 70
0
 10
234.1628754184
 20
178.4837050877
 10
234.4123779629
 20
178.3557971289
 10
234.6555350151
 20
178.2285175875
 10
234.8924927014
 20
178.1018493891
 10
235.1235991852
 20
177.9756492519
 10
235.3491338449
 20
177.8497779279
 10
235.5693706723
 20
177.7240795729
 10
235.7845761254
 20
177.598368684
 10
235.9948658528
 20
177.4725029807
 10
236.2006273612
 20
177.3461594117
 10
236.4009046315
 20
177.2198044996
 10
236.5952183261
 20
177.0935846153
 10
236.7824078707
 20
176.9681428876
 10
236.9613681427
 20
176.8441235276
 10
237.1311529983
 20
176.7220258766
 10
237.2908459947
 20
176.6024661307
 10
237.4388377072
 20
176.4867081385
 10
237.5733478201
 20
176.3761455595
 10
237.6944670613
 20
176.2709207721
 10
237.8009444972
 20
176.1725346412
 10
237.8934018496
 20
176.0804522494
 10
237.9730259734
 20
175.9934908631
 10
238.03302231
 20
175.9204141551
 10
238.0653135053
 20
175.875470319
  0
LINE
  5
777
100
AcDbEntity
  8
0
100
AcDbLine
 62
7
  6
CONTINUOUS
 10
230.9272294152
 20
179.965030743
 11
231.0912150276
 21
179.8764184484
  0
LINE
  5
778
100
AcDbEntity
  8
0
100
AcDbLine
 62
7
  6
CONTINUOUS
 10
239.4029672286
 20
185.471757347
 11
239.4655645046
 21
185.4243907664
  0
LINE
  5
779
100
AcDbEntity
  8
RUNDUNGEN
100
AcDbLine
 62
7
  6
CONTINUOUS
 10
239.4655410538
 20
185.4243619668
 11
239.4618137143
 21
185.4273056842
  0
LINE
  5
77A
100
AcDbEntity
  8
0
100
AcDbLine
 62
7
  6
CONTINUOUS
 10
239.4618137143
 20
185.4273056842
 11
239.6850500049
 21
185.2227865694
  0
LINE
  5
77B
100
AcDbEntity
  8
0
100
AcDbLine
 62
7
  6
CONTINUOUS
 10
250.482551419
 20
166.0665821871
 11
250.982551419
 21
166.0665821871
  0
LINE
  5
77C
100
AcDbEntity
  8
0
100
AcDbLine
 62
7
  6
CONTINUOUS
 10
250.482551419
 20
166.1944345593
 11
250.982551419
 21
166.1944345593
  0
LINE
  5
77D
100
AcDbEntity
  8
0
100
AcDbLine
 62
7
  6
CONTINUOUS
 10
250.482551419
 20
166.3849437739
 11
250.982551419
 21
166.3849437739
  0
LINE
  5
77E
100
AcDbEntity
  8
0
100
AcDbLine
 62
7
  6
CONTINUOUS
 10
250.482551419
 20
166.5995002617
 11
250.982551419
 21
166.5995002617
  0
LINE
  5
77F
100
AcDbEntity
  8
0
100
AcDbLine
 62
7
  6
CONTINUOUS
 10
250.482551419
 20
166.744118715
 11
250.982551419
 21
166.744118715
  0
LINE
  5
780
100
AcDbEntity
  8
0
100
AcDbLine
 62
7
  6
CONTINUOUS
 10
250.5165892411
 20
166.794416981
 11
250.982551419
 21
166.794416981
  0
LINE
  5
781
100
AcDbEntity
  8
0
100
AcDbLine
 62
7
  6
CONTINUOUS
 10
250.5251920353
 20
166.9342929773
 11
250.982551419
 21
166.9342929773
  0
LINE
  5
782
100
AcDbEntity
  8
0
100
AcDbLine
 62
7
  6
CONTINUOUS
 10
250.539037139
 20
167.1368258105
 11
250.982551419
 21
167.1368258105
  0
LINE
  5
783
100
AcDbEntity
  8
0
100
AcDbLine
 62
7
  6
CONTINUOUS
 10
250.5570572191
 20
167.2814442655
 11
250.982551419
 21
167.2814442655
  0
LINE
  5
784
100
AcDbEntity
  8
0
100
AcDbLine
 62
7
  6
CONTINUOUS
 10
250.5726718498
 20
167.4067580133
 11
250.982551419
 21
167.4067580133
  0
LINE
  5
785
100
AcDbEntity
  8
0
100
AcDbLine
 62
7
  6
CONTINUOUS
 10
250.5858810093
 20
167.5127668782
 11
250.982551419
 21
167.5127668782
  0
LINE
  5
786
100
AcDbEntity
  8
0
100
AcDbLine
 62
7
  6
CONTINUOUS
 10
250.5918737887
 20
167.5608613649
 11
250.982551419
 21
167.5608613649
  0
LWPOLYLINE
  5
787
100
AcDbEntity
  8
0
100
AcDbPolyline
 62
7
  6
CONTINUOUS
 90
3
 70
0
 10
231.0932091951
 20
179.8755729751
 10
231.9177148547
 20
179.5270160841
 10
232.2239363531
 20
179.3954129289
  0
LINE
  5
788
100
AcDbEntity
  8
RUNDUNGEN
100
AcDbLine
 62
7
  6
CONTINUOUS
 10
231.0912150276
 20
179.8764184484
 11
231.0912513571
 21
179.8764030088
  0
LWPOLYLINE
  5
789
100
AcDbEntity
  8
0
100
AcDbPolyline
 62
7
  6
CONTINUOUS
 90
8
 70
0
 10
232.2239363531
 20
179.3954129289
 10
232.5225858883
 20
179.2638935515
 10
232.8137837003
 20
179.1326238207
 10
233.0976577274
 20
179.0017387177
 10
233.3743473213
 20
178.8713414184
 10
233.6440066431
 20
178.7415062479
 10
233.9067956846
 20
178.6122844121
 10
234.1628754184
 20
178.4837050877
  0
LWPOLYLINE
  5
78A
100
AcDbEntity
  8
RUNDUNGEN
100
AcDbPolyline
 62
7
  6
CONTINUOUS
 90
6
 70
0
 10
260.0382124262
 20
26.525592282
 10
260.1897046657
 20
26.6499409199
 10
260.3140068912
 20
26.8014098387
 10
260.4064076037
 20
26.9742614383
 10
260.4633307777
 20
27.1618814959
 10
260.482551419
 20
27.3570012324
  0
LWPOLYLINE
  5
78B
100
AcDbEntity
  8
RUNDUNGEN
100
AcDbPolyline
 62
7
  6
CONTINUOUS
 90
6
 70
0
 10
246.2881855812
 20
13.4370173319
 10
246.4396911181
 20
13.5613703619
 10
246.5640113821
 20
13.7128595504
 10
246.6564147351
 20
13.8857216436
 10
246.7133325894
 20
14.0733334867
 10
246.732551419
 20
14.2684442236
  0
LINE
  5
78C
100
AcDbEntity
  8
RUNDUNGEN
100
AcDbLine
 62
7
  6
CONTINUOUS
 10
231.482551419
 20
178.5845304634
 11
233.9620706973
 21
178.5845304634
  0
LINE
  5
78D
100
AcDbEntity
  8
RUNDUNGEN
100
AcDbLine
 62
7
  6
CONTINUOUS
 10
257.0029937663
 20
178.5845304634
 11
259.482551419
 21
178.5845304634
  0
LINE
  5
78E
100
AcDbEntity
  8
0
100
AcDbLine
 62
7
  6
CONTINUOUS
 10
238.6115609772
 20
186.0647726728
 11
239.3592937126
 21
185.7000790503
  0
LINE
  5
78F
100
AcDbEntity
  8
0
100
AcDbLine
 62
7
  6
CONTINUOUS
 10
231.0437153515
 20
189.665826429
 11
235.5363026697
 21
187.4696996195
  0
LWPOLYLINE
  5
790
100
AcDbEntity
  8
0
100
AcDbPolyline
 62
7
  6
CONTINUOUS
 90
3
 70
0
 10
235.5363026697
 20
187.4696996195
 10
237.0390702328
 20
186.7192646255
 10
237.7636437074
 20
186.350615186
  0
LINE
  5
791
100
AcDbEntity
  8
RUNDUNGEN
100
AcDbLine
 62
7
  6
CONTINUOUS
 10
237.9959630086
 20
186.2309967339
 11
237.9954178376
 21
186.2312779251
  0
LINE
  5
792
100
AcDbEntity
  8
0
100
AcDbLine
 62
7
  6
CONTINUOUS
 10
237.7636437074
 20
186.350615186
 11
238.2320760349
 21
186.1089318332
  0
LINE
  5
793
100
AcDbEntity
  8
0
100
AcDbLine
 62
7
  6
CONTINUOUS
 10
238.2320760349
 20
186.1089318332
 11
238.9292397101
 21
185.743802002
  0
LINE
  5
794
100
AcDbEntity
  8
0
100
AcDbLine
 62
7
  6
CONTINUOUS
 10
238.9292397101
 20
185.743802002
 11
239.1936408548
 21
185.6031477842
  0
LINE
  5
795
100
AcDbEntity
  8
RUNDUNGEN
100
AcDbLine
 62
7
  6
CONTINUOUS
 10
239.1938140069
 20
185.6030508552
 11
239.1936390396
 21
185.6031444167
  0
LWPOLYLINE
  5
796
100
AcDbEntity
  8
0
100
AcDbPolyline
 62
7
  6
CONTINUOUS
 90
4
 70
0
 10
239.1938140069
 20
185.6030508552
 10
239.2161149288
 20
185.5909178739
 10
239.3097577431
 20
185.5352189169
 10
239.4029672286
 20
185.471757347
  0
LWPOLYLINE
  5
797
100
AcDbEntity
  8
RUNDUNGEN
100
AcDbPolyline
 62
7
  6
CONTINUOUS
 90
3
 70
0
 10
259.6778113655
 20
26.3762497172
 10
259.8653782483
 20
26.4331811099
 10
260.0382124262
 20
26.525592282
  0
LWPOLYLINE
  5
798
100
AcDbEntity
  8
RUNDUNGEN
100
AcDbPolyline
 62
7
  6
CONTINUOUS
 90
9
 70
0
 10
231.482551419
 20
178.5845304634
 10
231.2860112673
 20
178.5719105878
 10
231.0975210429
 20
178.5354075311
 10
230.9243260925
 20
178.475953675
 10
230.7730288421
 20
178.3963646334
 10
230.6493144743
 20
178.2996273565
 10
230.5577070574
 20
178.1897085095
 10
230.5014806252
 20
178.0712355846
 10
230.482551419
 20
177.9473655146
  0
LINE
  5
799
100
AcDbEntity
  8
0
100
AcDbLine
 62
7
  6
CONTINUOUS
 10
250.482551419
 20
182.0611928887
 11
250.982551419
 21
182.0611928887
  0
LINE
  5
79A
100
AcDbEntity
  8
0
100
AcDbLine
 62
7
  6
CONTINUOUS
 10
250.482551419
 20
182.1195293806
 11
250.982551419
 21
182.1195293806
  0
LINE
  5
79B
100
AcDbEntity
  8
0
100
AcDbLine
 62
7
  6
CONTINUOUS
 10
250.482551419
 20
182.2547339802
 11
250.982551419
 21
182.2547339802
  0
LINE
  5
79C
100
AcDbEntity
  8
0
100
AcDbLine
 62
7
  6
CONTINUOUS
 10
250.482551419
 20
182.3025526675
 11
250.982551419
 21
182.3025526675
  0
LINE
  5
79D
100
AcDbEntity
  8
0
100
AcDbLine
 62
7
  6
CONTINUOUS
 10
250.482551419
 20
182.5013018758
 11
250.982551419
 21
182.5013018758
  0
LINE
  5
79E
100
AcDbEntity
  8
0
100
AcDbLine
 62
7
  6
CONTINUOUS
 10
250.482551419
 20
182.5194208945
 11
250.982551419
 21
182.5194208945
  0
LINE
  5
79F
100
AcDbEntity
  8
0
100
AcDbLine
 62
7
  6
CONTINUOUS
 10
250.482551419
 20
182.5658622197
 11
250.982551419
 21
182.5658622197
  0
LINE
  5
7A0
100
AcDbEntity
  8
0
100
AcDbLine
 62
7
  6
CONTINUOUS
 10
250.482551419
 20
182.6521921881
 11
250.982551419
 21
182.6521921881
  0
LINE
  5
7A1
100
AcDbEntity
  8
0
100
AcDbLine
 62
7
  6
CONTINUOUS
 10
250.482551419
 20
182.8182990176
 11
250.982551419
 21
182.8182990176
  0
LINE
  5
7A2
100
AcDbEntity
  8
0
100
AcDbLine
 62
7
  6
CONTINUOUS
 10
250.482551419
 20
182.9200117224
 11
250.982551419
 21
182.9200117224
  0
LINE
  5
7A3
100
AcDbEntity
  8
0
100
AcDbLine
 62
7
  6
CONTINUOUS
 10
250.482551419
 20
182.9908615135
 11
250.982551419
 21
182.9908615135
  0
LINE
  5
7A4
100
AcDbEntity
  8
0
100
AcDbLine
 62
7
  6
CONTINUOUS
 10
250.482551419
 20
183.0752400512
 11
250.982551419
 21
183.0752400512
  0
LINE
  5
7A5
100
AcDbEntity
  8
0
100
AcDbLine
 62
7
  6
CONTINUOUS
 10
250.482551419
 20
183.2398128681
 11
250.982551419
 21
183.2398128681
  0
LINE
  5
7A6
100
AcDbEntity
  8
0
100
AcDbLine
 62
7
  6
CONTINUOUS
 10
250.5343876266
 20
183.4668677944
 11
250.982551419
 21
183.4668677944
  0
LINE
  5
7A7
100
AcDbEntity
  8
0
100
AcDbLine
 62
7
  6
CONTINUOUS
 10
250.5539526697
 20
183.5853039469
 11
250.982551419
 21
183.5853039469
  0
LINE
  5
7A8
100
AcDbEntity
  8
0
100
AcDbLine
 62
7
  6
CONTINUOUS
 10
250.6012393612
 20
183.871551915
 11
250.982551419
 21
183.871551915
  0
LINE
  5
7A9
100
AcDbEntity
  8
0
100
AcDbLine
 62
7
  6
CONTINUOUS
 10
250.6181175228
 20
183.9320143615
 11
250.982551419
 21
183.9320143615
  0
LINE
  5
7AA
100
AcDbEntity
  8
0
100
AcDbLine
 62
7
  6
CONTINUOUS
 10
250.6329345974
 20
183.9778318625
 11
250.982551419
 21
183.9778318625
  0
LINE
  5
7AB
100
AcDbEntity
  8
0
100
AcDbLine
 62
7
  6
CONTINUOUS
 10
250.7616303422
 20
184.375786086
 11
250.982551419
 21
184.375786086
  0
LINE
  5
7AC
100
AcDbEntity
  8
0
100
AcDbLine
 62
7
  6
CONTINUOUS
 10
250.7953249103
 20
184.4592335642
 11
250.982551419
 21
184.4592335642
  0
LINE
  5
7AD
100
AcDbEntity
  8
0
100
AcDbLine
 62
7
  6
CONTINUOUS
 10
250.8771785637
 20
184.6172455292
 11
250.982551419
 21
184.6172455292
  0
LINE
  5
7AE
100
AcDbEntity
  8
0
100
AcDbLine
 62
7
  6
CONTINUOUS
 10
250.8986457054
 20
184.6586861381
 11
250.982551419
 21
184.6586861381
  0
LINE
  5
7AF
100
AcDbEntity
  8
0
100
AcDbLine
 62
7
  6
CONTINUOUS
 10
250.9193625919
 20
184.698678439
 11
250.982551419
 21
184.698678439
  0
LWPOLYLINE
  5
7B0
100
AcDbEntity
  8
RUNDUNGEN
100
AcDbPolyline
 62
7
  6
CONTINUOUS
 90
9
 70
0
 10
259.482551419
 20
178.5845304634
 10
259.6790915707
 20
178.5722517661
 10
259.8675817951
 20
178.5354075311
 10
260.0407767455
 20
178.4760615187
 10
260.1920739959
 20
178.3963646334
 10
260.3157883637
 20
178.2996927766
 10
260.4073957806
 20
178.1897085095
 10
260.4636222128
 20
178.0703786031
 10
260.482551419
 20
177.9473655146
  0
LWPOLYLINE
  5
7B1
100
AcDbEntity
  8
RUNDUNGEN
100
AcDbPolyline
 62
7
  6
CONTINUOUS
 90
4
 70
0
 10
260.0379173358
 20
19.6562151764
 10
259.8648305745
 20
19.5637743736
 10
259.6776794163
 20
19.5070435364
 10
259.482551419
 20
19.4878212594
  0
LWPOLYLINE
  5
7B2
100
AcDbEntity
  8
RUNDUNGEN
100
AcDbPolyline
 62
7
  6
CONTINUOUS
 90
9
 70
0
 10
231.482551419
 20
191.2135667186
 10
231.2860112673
 20
191.2102553098
 10
231.0975210429
 20
191.2013558961
 10
230.9243260925
 20
191.1865219188
 10
230.7730288421
 20
191.1667930539
 10
230.6493144743
 20
191.1427129679
 10
230.5577070574
 20
191.1154231307
 10
230.5014806252
 20
191.0864115706
 10
230.482551419
 20
191.0551822783
  0
LINE
  5
7B3
100
AcDbEntity
  8
0
100
AcDbLine
 62
7
  6
CONTINUOUS
 10
239.0499321262
 20
187.9635667186
 11
251.9153839996
 21
187.9635667186
  0
LINE
  5
7B4
100
AcDbEntity
  8
RUNDUNGEN
100
AcDbLine
 62
7
  6
CONTINUOUS
 10
231.482551419
 20
191.2135667186
 11
259.482551419
 21
191.2135667186
  0
LWPOLYLINE
  5
7B5
100
AcDbEntity
  8
RUNDUNGEN
100
AcDbPolyline
 62
7
  6
CONTINUOUS
 90
9
 70
0
 10
259.482551419
 20
191.2135667186
 10
259.6790915707
 20
191.2106889192
 10
259.8675817951
 20
191.2013558961
 10
260.0407767455
 20
191.1866589791
 10
260.1920739959
 20
191.1667930539
 10
260.3157883637
 20
191.1427961114
 10
260.4073957806
 20
191.1154231307
 10
260.4636222128
 20
191.0853224178
 10
260.482551419
 20
191.0551822783
  0
LWPOLYLINE
  5
7B6
100
AcDbEntity
  8
RUNDUNGEN
100
AcDbPolyline
 62
7
  6
CONTINUOUS
 90
3
 70
0
 10
245.9277604915
 20
13.2876825782
 10
246.115335402
 20
13.344606347
 10
246.2881855812
 20
13.4370173319
  0
LINE
  5
7B7
100
AcDbEntity
  8
RUNDUNGEN
100
AcDbLine
 62
7
  6
CONTINUOUS
 10
231.482551419
 20
199.7135667186
 11
259.482551419
 21
199.7135667186
  0
ARC
  5
7B8
100
AcDbEntity
  8
RUNDUNGEN
100
AcDbCircle
 62
7
  6
CONTINUOUS
 10
36.3214868521
 20
46.022195341
 40
3.9999744098
100
AcDbArc
 50
72.4035091458
 51
86.437572001
  0
ARC
  5
7B9
100
AcDbEntity
  8
RUNDUNGEN
100
AcDbCircle
 62
7
  6
CONTINUOUS
 10
35.08453033
 20
53.6930578399
 40
1.0
100
AcDbArc
 50
138.0
 51
210.0
  0
ARC
  5
7BA
100
AcDbEntity
  8
RUNDUNGEN
100
AcDbCircle
 62
7
  6
CONTINUOUS
 10
36.632150627
 20
51.0125008547
 40
1.0
100
AcDbArc
 50
209.9999368824
 51
266.4384521942
  0
ARC
  5
7BB
100
AcDbEntity
  8
RUNDUNGEN
100
AcDbCircle
 62
7
  6
CONTINUOUS
 10
36.215350357
 20
51.7344200989
 40
1.0
100
AcDbArc
 50
209.9963849075
 51
300.0
  0
ARC
  5
7BC
100
AcDbEntity
  8
RUNDUNGEN
100
AcDbCircle
 62
7
  6
CONTINUOUS
 10
41.3883265249
 20
46.5129144841
 40
2.000000079
100
AcDbArc
 50
6.2122200649
 51
72.3983983357
  0
ARC
  5
7BD
100
AcDbEntity
  8
RUNDUNGEN
100
AcDbCircle
 62
7
  6
CONTINUOUS
 10
44.8472892174
 20
41.3624008069
 40
1.0
100
AcDbArc
 50
184.9673353002
 51
225.0
  0
ARC
  5
7BE
100
AcDbEntity
  8
RUNDUNGEN
100
AcDbCircle
 62
7
  6
CONTINUOUS
 10
53.7497300629
 20
28.5939674962
 40
3.9999703967
100
AcDbArc
 50
3.5623030114
 51
17.5973106966
  0
ARC
  5
7BF
100
AcDbEntity
  8
RUNDUNGEN
100
AcDbCircle
 62
7
  6
CONTINUOUS
 10
54.2404435879
 20
33.6607974268
 40
2.0000000773
100
AcDbArc
 50
17.6016016643
 51
83.8095711245
  0
ARC
  5
7C0
100
AcDbEntity
  8
RUNDUNGEN
100
AcDbCircle
 62
7
  6
CONTINUOUS
 10
49.0899299045
 20
37.1197601198
 40
1.0
100
AcDbArc
 50
225.0
 51
265.0326646998
  0
ARC
  5
7C1
100
AcDbEntity
  8
RUNDUNGEN
100
AcDbCircle
 62
7
  6
CONTINUOUS
 10
61.4205869374
 20
27.3570012324
 40
1.0
100
AcDbArc
 50
240.0
 51
312.0
  0
ARC
  5
7C2
100
AcDbEntity
  8
RUNDUNGEN
100
AcDbCircle
 62
7
  6
CONTINUOUS
 10
58.7400313211
 20
28.9046207391
 40
1.0
100
AcDbArc
 50
183.5614773117
 51
239.9996534481
  0
ARC
  5
7C3
100
AcDbEntity
  8
RUNDUNGEN
100
AcDbCircle
 62
7
  6
CONTINUOUS
 10
59.4619491964
 20
28.4878212594
 40
1.0
100
AcDbArc
 50
150.0
 51
240.0
  0
ARC
  5
7C4
100
AcDbEntity
  8
RUNDUNGEN
100
AcDbCircle
 62
7
  6
CONTINUOUS
 10
23.3214965937
 20
68.5388614637
 40
3.9999703967
100
AcDbArc
 50
333.5623030114
 51
347.5973106966
  0
ARC
  5
7C5
100
AcDbEntity
  8
RUNDUNGEN
100
AcDbCircle
 62
7
  6
CONTINUOUS
 10
23.5488875918
 20
78.2523145424
 40
1.0
100
AcDbArc
 50
195.0
 51
235.0326646998
  0
ARC
  5
7C6
100
AcDbEntity
  8
RUNDUNGEN
100
AcDbCircle
 62
7
  6
CONTINUOUS
 10
21.9959733212
 20
84.0478695001
 40
1.0
100
AcDbArc
 50
154.9673353002
 51
195.0
  0
ARC
  5
7C7
100
AcDbEntity
  8
RUNDUNGEN
100
AcDbCircle
 62
7
  6
CONTINUOUS
 10
26.2798819377
 20
72.6815081377
 40
2.0000000773
100
AcDbArc
 50
347.6016016643
 51
53.8095711261
  0
ARC
  5
7C8
100
AcDbEntity
  8
RUNDUNGEN
100
AcDbCircle
 62
7
  6
CONTINUOUS
 10
29.346170384
 20
63.6321888184
 40
1.0
100
AcDbArc
 50
210.0
 51
282.0
  0
ARC
  5
7C9
100
AcDbEntity
  8
RUNDUNGEN
100
AcDbCircle
 62
7
  6
CONTINUOUS
 10
27.7985508774
 20
66.3127444347
 40
1.0
100
AcDbArc
 50
153.5614773117
 51
209.9996534481
  0
ARC
  5
7CA
100
AcDbEntity
  8
RUNDUNGEN
100
AcDbCircle
 62
7
  6
CONTINUOUS
 10
28.215350357
 20
65.5908265594
 40
1.0
100
AcDbArc
 50
120.0
 51
210.0
  0
ARC
  5
7CB
100
AcDbEntity
  8
RUNDUNGEN
100
AcDbCircle
 62
7
  6
CONTINUOUS
 10
16.9423091523
 20
92.3462711256
 40
3.9999744098
100
AcDbArc
 50
42.4035091458
 51
56.437572001
  0
ARC
  5
7CC
100
AcDbEntity
  8
RUNDUNGEN
100
AcDbCircle
 62
7
  6
CONTINUOUS
 10
21.5756805974
 20
90.2378265333
 40
2.000000079
100
AcDbArc
 50
336.2122199961
 51
42.3983983357
  0
ARC
  5
7CD
100
AcDbEntity
  8
RUNDUNGEN
100
AcDbCircle
 62
7
  6
CONTINUOUS
 10
19.7065046302
 20
96.5126705858
 40
1.0
100
AcDbArc
 50
179.9999368824
 51
236.4384521942
  0
ARC
  5
7CE
100
AcDbEntity
  8
RUNDUNGEN
100
AcDbCircle
 62
7
  6
CONTINUOUS
 10
19.7065046302
 20
97.3462711256
 40
1.0
100
AcDbArc
 50
179.9963849075
 51
270.0014880476
  0
ARC
  5
7CF
100
AcDbEntity
  8
RUNDUNGEN
100
AcDbCircle
 62
7
  6
CONTINUOUS
 10
19.7065046302
 20
99.6079111797
 40
1.0
100
AcDbArc
 50
108.0
 51
180.0
  0
ARC
  5
7D0
100
AcDbEntity
  8
RUNDUNGEN
100
AcDbCircle
 62
7
  6
CONTINUOUS
 10
28.2065046302
 20
105.3462711256
 40
2.25
100
AcDbArc
 50
270.0002776311
 51
89.9992874217
  0
ARC
  5
7D1
100
AcDbEntity
  8
RUNDUNGEN
100
AcDbCircle
 62
7
  6
CONTINUOUS
 10
39.5765662892
 20
62.9126233291
 40
2.25
100
AcDbArc
 50
299.9998923523
 51
120.0004545191
  0
ARC
  5
7D2
100
AcDbEntity
  8
RUNDUNGEN
100
AcDbCircle
 62
7
  6
CONTINUOUS
 10
56.6668751622
 20
90.3462711256
 40
5.0
100
AcDbArc
 50
90.0
 51
194.8917257366
  0
ARC
  5
7D3
100
AcDbEntity
  8
RUNDUNGEN
100
AcDbCircle
 62
7
  6
CONTINUOUS
 10
76.266425699
 20
15.5940283565
 40
3.9999464954
100
AcDbArc
 50
102.4043461563
 51
116.4383014066
  0
ARC
  5
7D4
100
AcDbEntity
  8
RUNDUNGEN
100
AcDbCircle
 62
7
  6
CONTINUOUS
 10
71.359717916
 20
21.6186412865
 40
1.0
100
AcDbArc
 50
168.0
 51
240.0
  0
ARC
  5
7D5
100
AcDbEntity
  8
RUNDUNGEN
100
AcDbCircle
 62
7
  6
CONTINUOUS
 10
73.318355657
 20
20.4878212594
 40
1.0
100
AcDbArc
 50
240.0
 51
330.0
  0
ARC
  5
7D6
100
AcDbEntity
  8
RUNDUNGEN
100
AcDbCircle
 62
7
  6
CONTINUOUS
 10
74.0402847307
 20
20.0710153144
 40
1.0
100
AcDbArc
 50
239.9993356691
 51
296.4373705498
  0
ARC
  5
7D7
100
AcDbEntity
  8
RUNDUNGEN
100
AcDbCircle
 62
7
  6
CONTINUOUS
 10
80.4090372389
 20
18.552352835
 40
2.000000079
100
AcDbArc
 50
36.2122294398
 51
102.3983983357
  0
ARC
  5
7D8
100
AcDbEntity
  8
RUNDUNGEN
100
AcDbCircle
 62
7
  6
CONTINUOUS
 10
85.9798436399
 20
15.8213584942
 40
1.0
100
AcDbArc
 50
214.9673353002
 51
255.0
  0
ARC
  5
7D9
100
AcDbEntity
  8
RUNDUNGEN
100
AcDbCircle
 62
7
  6
CONTINUOUS
 10
70.6401524267
 20
31.8490371916
 40
2.25
100
AcDbArc
 50
329.9997566879
 51
150.0002843923
  0
ARC
  5
7DA
100
AcDbEntity
  8
RUNDUNGEN
100
AcDbCircle
 62
7
  6
CONTINUOUS
 10
97.9653556366
 20
13.8481515024
 40
2.0000000773
100
AcDbArc
 50
47.6016016643
 51
113.8095711092
  0
ARC
  5
7DB
100
AcDbEntity
  8
RUNDUNGEN
100
AcDbCircle
 62
7
  6
CONTINUOUS
 10
91.7753985977
 20
14.2684442236
 40
1.0
100
AcDbArc
 50
255.0
 51
295.0326646998
  0
ARC
  5
7DC
100
AcDbEntity
  8
RUNDUNGEN
100
AcDbCircle
 62
7
  6
CONTINUOUS
 10
100.0738002232
 20
9.2147912036
 40
3.9999703821
100
AcDbArc
 50
33.562304122
 51
47.5974874937
  0
ARC
  5
7DD
100
AcDbEntity
  8
RUNDUNGEN
100
AcDbCircle
 62
7
  6
CONTINUOUS
 10
107.3354402772
 20
11.9789755326
 40
1.0
100
AcDbArc
 50
270.0
 51
342.0
  0
ARC
  5
7DE
100
AcDbEntity
  8
RUNDUNGEN
100
AcDbCircle
 62
7
  6
CONTINUOUS
 10
104.2402012293
 20
11.9789755326
 40
1.0
100
AcDbArc
 50
213.5614784202
 51
269.9996544393
  0
ARC
  5
7DF
100
AcDbEntity
  8
RUNDUNGEN
100
AcDbCircle
 62
7
  6
CONTINUOUS
 10
105.0738002232
 20
11.9789755326
 40
1.0
100
AcDbArc
 50
180.0
 51
270.0
  0
ARC
  5
7E0
100
AcDbEntity
  8
RUNDUNGEN
100
AcDbCircle
 62
7
  6
CONTINUOUS
 10
98.0738002232
 20
48.9393460646
 40
5.0
100
AcDbArc
 50
255.1082742634
 51
360.0
  0
ARC
  5
7E1
100
AcDbEntity
  8
RUNDUNGEN
100
AcDbCircle
 62
7
  6
CONTINUOUS
 10
95.0738002232
 20
66.874021772
 40
7.9999990424
100
AcDbArc
 50
0.0864239075
 51
44.9999998768
  0
ARC
  5
7E2
100
AcDbEntity
  8
0
100
AcDbCircle
 62
7
  6
CONTINUOUS
 10
85.2137930445
 20
105.3462711256
 40
1.0
100
AcDbArc
 50
75.0
 51
285.0
  0
ARC
  5
7E3
100
AcDbEntity
  8
RUNDUNGEN
100
AcDbCircle
 62
7
  6
CONTINUOUS
 10
16.942320401
 20
118.3462711256
 40
3.9999703967
100
AcDbArc
 50
303.5623043265
 51
317.5973106966
  0
ARC
  5
7E4
100
AcDbEntity
  8
RUNDUNGEN
100
AcDbCircle
 62
7
  6
CONTINUOUS
 10
19.7065046302
 20
111.0846310716
 40
1.0
100
AcDbArc
 50
180.0
 51
252.0
  0
ARC
  5
7E5
100
AcDbEntity
  8
RUNDUNGEN
100
AcDbCircle
 62
7
  6
CONTINUOUS
 10
19.7065046302
 20
114.1798700825
 40
1.0
100
AcDbArc
 50
123.5614678999
 51
179.9996857608
  0
ARC
  5
7E6
100
AcDbEntity
  8
RUNDUNGEN
100
AcDbCircle
 62
7
  6
CONTINUOUS
 10
19.7065046302
 20
113.3462711256
 40
1.0
100
AcDbArc
 50
90.0
 51
180.0
  0
ARC
  5
7E7
100
AcDbEntity
  8
RUNDUNGEN
100
AcDbCircle
 62
7
  6
CONTINUOUS
 10
21.5756806
 20
120.4547157123
 40
2.0000000773
100
AcDbArc
 50
317.6016016643
 51
23.8095616507
  0
ARC
  5
7E8
100
AcDbEntity
  8
RUNDUNGEN
100
AcDbCircle
 62
7
  6
CONTINUOUS
 10
21.9959733212
 20
126.6446727512
 40
1.0
100
AcDbArc
 50
165.0
 51
205.0326646998
  0
ARC
  5
7E9
100
AcDbEntity
  8
RUNDUNGEN
100
AcDbCircle
 62
7
  6
CONTINUOUS
 10
26.2798819326
 20
138.01103411
 40
2.000000079
100
AcDbArc
 50
306.2122200062
 51
12.3983983357
  0
ARC
  5
7EA
100
AcDbEntity
  8
RUNDUNGEN
100
AcDbCircle
 62
7
  6
CONTINUOUS
 10
23.5488875918
 20
132.4402277089
 40
1.0
100
AcDbArc
 50
124.9673353002
 51
165.0
  0
ARC
  5
7EB
100
AcDbEntity
  8
RUNDUNGEN
100
AcDbCircle
 62
7
  6
CONTINUOUS
 10
23.3214865418
 20
142.1536865911
 40
3.9999745381
100
AcDbArc
 50
12.4035256996
 51
26.4375690677
  0
ARC
  5
7EC
100
AcDbEntity
  8
RUNDUNGEN
100
AcDbCircle
 62
7
  6
CONTINUOUS
 10
29.346170384
 20
147.0603534329
 40
1.0
100
AcDbArc
 50
78.0
 51
150.0
  0
ARC
  5
7ED
100
AcDbEntity
  8
RUNDUNGEN
100
AcDbCircle
 62
7
  6
CONTINUOUS
 10
28.2154117416
 20
145.1018220131
 40
1.0
100
AcDbArc
 50
150.0
 51
240.001492191
  0
ARC
  5
7EE
100
AcDbEntity
  8
RUNDUNGEN
100
AcDbCircle
 62
7
  6
CONTINUOUS
 10
27.7985500619
 20
144.3797964041
 40
1.0
100
AcDbArc
 50
149.999936616
 51
206.4384452415
  0
ARC
  5
7EF
100
AcDbEntity
  8
RUNDUNGEN
100
AcDbCircle
 62
7
  6
CONTINUOUS
 10
56.6668751622
 20
120.3462711256
 40
5.0
100
AcDbArc
 50
165.1082742634
 51
270.0
  0
ARC
  5
7F0
100
AcDbEntity
  8
RUNDUNGEN
100
AcDbCircle
 62
7
  6
CONTINUOUS
 10
39.5765662892
 20
147.7799189221
 40
2.25
100
AcDbArc
 50
239.9998934115
 51
60.0004549384
  0
ARC
  5
7F1
100
AcDbEntity
  8
RUNDUNGEN
100
AcDbCircle
 62
7
  6
CONTINUOUS
 10
35.08453033
 20
156.9994844114
 40
1.0
100
AcDbArc
 50
150.0
 51
222.0
  0
ARC
  5
7F2
100
AcDbEntity
  8
RUNDUNGEN
100
AcDbCircle
 62
7
  6
CONTINUOUS
 10
36.6321498539
 20
159.6800400576
 40
1.0
100
AcDbArc
 50
93.5614825264
 51
149.999653601
  0
ARC
  5
7F3
100
AcDbEntity
  8
RUNDUNGEN
100
AcDbCircle
 62
7
  6
CONTINUOUS
 10
36.215350357
 20
158.9581221524
 40
1.0
100
AcDbArc
 50
60.0
 51
150.0
  0
ARC
  5
7F4
100
AcDbEntity
  8
RUNDUNGEN
100
AcDbCircle
 62
7
  6
CONTINUOUS
 10
36.321496366
 20
164.6703414175
 40
3.9999704951
100
AcDbArc
 50
273.5623051629
 51
287.5972910008
  0
ARC
  5
7F5
100
AcDbEntity
  8
RUNDUNGEN
100
AcDbCircle
 62
7
  6
CONTINUOUS
 10
41.3883265243
 20
164.179627761
 40
2.0000000773
100
AcDbArc
 50
287.6016016643
 51
353.8095711324
  0
ARC
  5
7F6
100
AcDbEntity
  8
RUNDUNGEN
100
AcDbCircle
 62
7
  6
CONTINUOUS
 10
44.8472892174
 20
169.3301414444
 40
1.0
100
AcDbArc
 50
135.0
 51
175.0326646998
  0
ARC
  5
7F7
100
AcDbEntity
  8
RUNDUNGEN
100
AcDbCircle
 62
7
  6
CONTINUOUS
 10
54.2404435817
 20
177.031744824
 40
2.000000079
100
AcDbArc
 50
276.2122200729
 51
342.3983983357
  0
ARC
  5
7F8
100
AcDbEntity
  8
RUNDUNGEN
100
AcDbCircle
 62
7
  6
CONTINUOUS
 10
49.0899299045
 20
173.5727821315
 40
1.0
100
AcDbArc
 50
94.9673353002
 51
135.0
  0
ARC
  5
7F9
100
AcDbEntity
  8
RUNDUNGEN
100
AcDbCircle
 62
7
  6
CONTINUOUS
 10
53.7497242594
 20
182.098584807
 40
3.9999745381
100
AcDbArc
 50
342.4035256995
 51
356.4375690677
  0
ARC
  5
7FA
100
AcDbEntity
  8
RUNDUNGEN
100
AcDbCircle
 62
7
  6
CONTINUOUS
 10
61.4205869374
 20
183.3355410188
 40
1.0
100
AcDbArc
 50
48.0
 51
120.0
  0
ARC
  5
7FB
100
AcDbEntity
  8
RUNDUNGEN
100
AcDbCircle
 62
7
  6
CONTINUOUS
 10
58.7400299087
 20
181.7879206967
 40
1.0
100
AcDbArc
 50
119.999936616
 51
176.4384452415
  0
ARC
  5
7FC
100
AcDbEntity
  8
RUNDUNGEN
100
AcDbCircle
 62
7
  6
CONTINUOUS
 10
59.4619491964
 20
182.2047209918
 40
1.0
100
AcDbArc
 50
119.9963840347
 51
210.001492191
  0
ARC
  5
7FD
100
AcDbEntity
  8
RUNDUNGEN
100
AcDbCircle
 62
7
  6
CONTINUOUS
 10
74.6015508696
 20
123.3462711256
 40
7.9999990424
100
AcDbArc
 50
270.0864239075
 51
314.9999998768
  0
ARC
  5
7FE
100
AcDbEntity
  8
RUNDUNGEN
100
AcDbCircle
 62
7
  6
CONTINUOUS
 10
70.6401524267
 20
178.8435050597
 40
2.25
100
AcDbArc
 50
210.0005462618
 51
30.000583614
  0
ARC
  5
7FF
100
AcDbEntity
  8
RUNDUNGEN
100
AcDbCircle
 62
7
  6
CONTINUOUS
 10
76.2663516426
 20
195.0986421643
 40
3.9999959642
100
AcDbArc
 50
243.5629936652
 51
257.6011345045
  0
ARC
  5
800
100
AcDbEntity
  8
RUNDUNGEN
100
AcDbCircle
 62
7
  6
CONTINUOUS
 10
80.4090372345
 20
192.14018941
 40
2.0000000769
100
AcDbArc
 50
257.6016016643
 51
323.8087729786
  0
ARC
  5
801
100
AcDbEntity
  8
RUNDUNGEN
100
AcDbCircle
 62
7
  6
CONTINUOUS
 10
71.359717916
 20
189.0739009648
 40
1.0
100
AcDbArc
 50
120.0
 51
192.0
  0
ARC
  5
802
100
AcDbEntity
  8
RUNDUNGEN
100
AcDbCircle
 62
7
  6
CONTINUOUS
 10
85.9798436399
 20
194.871183757
 40
1.0
100
AcDbArc
 50
105.0
 51
145.0326646998
  0
ARC
  5
803
100
AcDbEntity
  8
RUNDUNGEN
100
AcDbCircle
 62
7
  6
CONTINUOUS
 10
74.0402836195
 20
190.6215262953
 40
1.0
100
AcDbArc
 50
63.5628406396
 51
119.9999868012
  0
ARC
  5
804
100
AcDbEntity
  8
RUNDUNGEN
100
AcDbCircle
 62
7
  6
CONTINUOUS
 10
73.318355657
 20
190.2047209918
 40
1.0
100
AcDbArc
 50
30.0
 51
120.0
  0
ARC
  5
805
100
AcDbEntity
  8
RUNDUNGEN
100
AcDbCircle
 62
7
  6
CONTINUOUS
 10
98.0738002232
 20
161.7531961867
 40
5.0
100
AcDbArc
 50
0.0
 51
104.8917257366
  0
ARC
  5
806
100
AcDbEntity
  8
RUNDUNGEN
100
AcDbCircle
 62
7
  6
CONTINUOUS
 10
97.9653556324
 20
196.8443907508
 40
2.0000000785
100
AcDbArc
 50
246.2135649308
 51
312.3983983357
  0
ARC
  5
807
100
AcDbEntity
  8
RUNDUNGEN
100
AcDbCircle
 62
7
  6
CONTINUOUS
 10
91.7753985977
 20
196.4240980277
 40
1.0
100
AcDbArc
 50
64.9673353002
 51
105.0
  0
ARC
  5
808
100
AcDbEntity
  8
RUNDUNGEN
100
AcDbCircle
 62
7
  6
CONTINUOUS
 10
107.3354402772
 20
198.7135667186
 40
1.0
100
AcDbArc
 50
18.0000000307
 51
89.9999998832
  0
ARC
  5
809
100
AcDbEntity
  8
RUNDUNGEN
100
AcDbCircle
 62
7
  6
CONTINUOUS
 10
105.0738216629
 20
198.7135667186
 40
1.0
100
AcDbArc
 50
90.0
 51
179.9981385891
  0
ARC
  5
80A
100
AcDbEntity
  8
RUNDUNGEN
100
AcDbCircle
 62
7
  6
CONTINUOUS
 10
104.2401878417
 20
198.7135667186
 40
1.0
100
AcDbArc
 50
89.9999951851
 51
146.4370580409
  0
ARC
  5
80B
100
AcDbEntity
  8
RUNDUNGEN
100
AcDbCircle
 62
7
  6
CONTINUOUS
 10
100.0738002232
 20
201.4778332772
 40
3.9999966598
100
AcDbArc
 50
312.3986549948
 51
326.4369701721
  0
ARC
  5
80C
100
AcDbEntity
  8
RUNDUNGEN
100
AcDbCircle
 62
7
  6
CONTINUOUS
 10
118.8121601692
 20
11.9789755326
 40
1.0
100
AcDbArc
 50
198.0
 51
270.0
  0
ARC
  5
80D
100
AcDbEntity
  8
RUNDUNGEN
100
AcDbCircle
 62
7
  6
CONTINUOUS
 10
113.0738002232
 20
20.4789755326
 40
2.25
100
AcDbArc
 50
359.9998928819
 51
180.0004547288
  0
ARC
  5
80E
100
AcDbEntity
  8
RUNDUNGEN
100
AcDbCircle
 62
7
  6
CONTINUOUS
 10
126.0738002232
 20
9.2148591792
 40
3.9999472835
100
AcDbArc
 50
132.4042933772
 51
146.4382810454
  0
ARC
  5
80F
100
AcDbEntity
  8
RUNDUNGEN
100
AcDbCircle
 62
7
  6
CONTINUOUS
 10
128.1822448155
 20
13.8481514998
 40
2.000000079
100
AcDbArc
 50
66.2122294415
 51
132.3983983357
  0
ARC
  5
810
100
AcDbEntity
  8
RUNDUNGEN
100
AcDbCircle
 62
7
  6
CONTINUOUS
 10
121.0736579683
 20
11.9789755326
 40
1.0
100
AcDbArc
 50
270.0040519298
 51
360.0
  0
ARC
  5
811
100
AcDbEntity
  8
RUNDUNGEN
100
AcDbCircle
 62
7
  6
CONTINUOUS
 10
121.9074123537
 20
11.9789755326
 40
1.0
100
AcDbArc
 50
269.9993395002
 51
326.4373390362
  0
ARC
  5
812
100
AcDbEntity
  8
RUNDUNGEN
100
AcDbCircle
 62
7
  6
CONTINUOUS
 10
128.0738002232
 20
48.9393460646
 40
5.0
100
AcDbArc
 50
180.0
 51
284.8917257366
  0
ARC
  5
813
100
AcDbEntity
  8
RUNDUNGEN
100
AcDbCircle
 62
7
  6
CONTINUOUS
 10
140.1677568065
 20
15.8213584942
 40
1.0
100
AcDbArc
 50
285.0
 51
325.0326646998
  0
ARC
  5
814
100
AcDbEntity
  8
RUNDUNGEN
100
AcDbCircle
 62
7
  6
CONTINUOUS
 10
134.3722018488
 20
14.2684442236
 40
1.0
100
AcDbArc
 50
244.9673353002
 51
285.0
  0
ARC
  5
815
100
AcDbEntity
  8
RUNDUNGEN
100
AcDbCircle
 62
7
  6
CONTINUOUS
 10
149.8812099351
 20
15.5939674097
 40
3.9999703821
100
AcDbArc
 50
63.562304122
 51
77.5974874937
  0
ARC
  5
816
100
AcDbEntity
  8
RUNDUNGEN
100
AcDbCircle
 62
7
  6
CONTINUOUS
 10
145.7385632111
 20
18.5523528401
 40
2.0000000773
100
AcDbArc
 50
77.6016016643
 51
143.8095711119
  0
ARC
  5
817
100
AcDbEntity
  8
RUNDUNGEN
100
AcDbCircle
 62
7
  6
CONTINUOUS
 10
154.7878825304
 20
21.6186412865
 40
1.0
100
AcDbArc
 50
300.0
 51
12.0
  0
ARC
  5
818
100
AcDbEntity
  8
RUNDUNGEN
100
AcDbCircle
 62
7
  6
CONTINUOUS
 10
152.1073268841
 20
20.0710217625
 40
1.0
100
AcDbArc
 50
243.5614784202
 51
299.9996544393
  0
ARC
  5
819
100
AcDbEntity
  8
RUNDUNGEN
100
AcDbCircle
 62
7
  6
CONTINUOUS
 10
152.8292447894
 20
20.4878212594
 40
1.0
100
AcDbArc
 50
210.0
 51
300.0
  0
ARC
  5
81A
100
AcDbEntity
  8
RUNDUNGEN
100
AcDbCircle
 62
7
  6
CONTINUOUS
 10
155.5074480197
 20
31.8490371916
 40
2.25
100
AcDbArc
 50
29.9998923523
 51
210.0004545191
  0
ARC
  5
81B
100
AcDbEntity
  8
RUNDUNGEN
100
AcDbCircle
 62
7
  6
CONTINUOUS
 10
113.0738002232
 20
105.3462711256
 40
63.367295593
100
AcDbArc
 50
104.8917257366
 51
165.1082742634
  0
ARC
  5
81C
100
AcDbEntity
  8
RUNDUNGEN
100
AcDbCircle
 62
7
  6
CONTINUOUS
 10
113.0738002232
 20
105.3462711256
 40
63.367295593
100
AcDbArc
 50
194.8917257366
 51
255.1082742634
  0
ARC
  5
81D
100
AcDbEntity
  8
RUNDUNGEN
100
AcDbCircle
 62
7
  6
CONTINUOUS
 10
113.0738002232
 20
105.3462711256
 40
63.367295593
100
AcDbArc
 50
284.8917257366
 51
345.1082742634
  0
ARC
  5
81E
100
AcDbEntity
  8
RUNDUNGEN
100
AcDbCircle
 62
7
  6
CONTINUOUS
 10
113.0738002232
 20
105.3462711256
 40
63.367295593
100
AcDbArc
 50
14.8917257366
 51
75.1082742634
  0
ARC
  5
81F
100
AcDbEntity
  8
RUNDUNGEN
100
AcDbCircle
 62
7
  6
CONTINUOUS
 10
151.5460495768
 20
87.3462711256
 40
7.9999990424
100
AcDbArc
 50
90.0864239076
 51
134.9999998768
  0
ARC
  5
820
100
AcDbEntity
  8
0
100
AcDbCircle
 62
7
  6
CONTINUOUS
 10
113.0738002232
 20
77.4862639469
 40
1.0
100
AcDbArc
 50
165.0
 51
15.0
  0
ARC
  5
821
100
AcDbEntity
  8
0
100
AcDbCircle
 62
7
  6
CONTINUOUS
 10
140.933807402
 20
105.3462711256
 40
1.0
100
AcDbArc
 50
255.0
 51
105.0
  0
ARC
  5
822
100
AcDbEntity
  8
RUNDUNGEN
100
AcDbCircle
 62
7
  6
CONTINUOUS
 10
172.3978364456
 20
28.5940262784
 40
3.9999472835
100
AcDbArc
 50
162.4042933772
 51
176.4382810454
  0
ARC
  5
823
100
AcDbEntity
  8
RUNDUNGEN
100
AcDbCircle
 62
7
  6
CONTINUOUS
 10
171.9071568647
 20
33.6607974273
 40
2.000000079
100
AcDbArc
 50
96.2122295073
 51
162.3983983357
  0
ARC
  5
824
100
AcDbEntity
  8
RUNDUNGEN
100
AcDbCircle
 62
7
  6
CONTINUOUS
 10
164.727013509
 20
27.3570012324
 40
1.0
100
AcDbArc
 50
228.0
 51
300.0
  0
ARC
  5
825
100
AcDbEntity
  8
RUNDUNGEN
100
AcDbCircle
 62
7
  6
CONTINUOUS
 10
177.057670542
 20
37.1197601198
 40
1.0
100
AcDbArc
 50
274.9673353002
 51
315.0
  0
ARC
  5
826
100
AcDbEntity
  8
RUNDUNGEN
100
AcDbCircle
 62
7
  6
CONTINUOUS
 10
167.4075805319
 20
28.9046273247
 40
1.0
100
AcDbArc
 50
299.9993395002
 51
356.4373390362
  0
ARC
  5
827
100
AcDbEntity
  8
RUNDUNGEN
100
AcDbCircle
 62
7
  6
CONTINUOUS
 10
166.68565125
 20
28.4878212594
 40
1.0
100
AcDbArc
 50
299.9994860579
 51
30.0
  0
ARC
  5
828
100
AcDbEntity
  8
RUNDUNGEN
100
AcDbCircle
 62
7
  6
CONTINUOUS
 10
189.8261039391
 20
46.0222009154
 40
3.9999703821
100
AcDbArc
 50
93.562304122
 51
107.5974874937
  0
ARC
  5
829
100
AcDbEntity
  8
RUNDUNGEN
100
AcDbCircle
 62
7
  6
CONTINUOUS
 10
184.7592739221
 20
46.5129144903
 40
2.0000000773
100
AcDbArc
 50
107.6016016643
 51
173.8095711102
  0
ARC
  5
82A
100
AcDbEntity
  8
RUNDUNGEN
100
AcDbCircle
 62
7
  6
CONTINUOUS
 10
191.0630701164
 20
53.6930578399
 40
1.0
100
AcDbArc
 50
330.0
 51
42.0
  0
ARC
  5
82B
100
AcDbEntity
  8
RUNDUNGEN
100
AcDbCircle
 62
7
  6
CONTINUOUS
 10
181.3003112291
 20
41.3624008069
 40
1.0
100
AcDbArc
 50
315.0
 51
355.0326646998
  0
ARC
  5
82C
100
AcDbEntity
  8
RUNDUNGEN
100
AcDbCircle
 62
7
  6
CONTINUOUS
 10
189.5154505924
 20
51.0125021935
 40
1.0
100
AcDbArc
 50
273.5614784202
 51
329.9996544393
  0
ARC
  5
82D
100
AcDbEntity
  8
RUNDUNGEN
100
AcDbCircle
 62
7
  6
CONTINUOUS
 10
189.9322500894
 20
51.7344200989
 40
1.0
100
AcDbArc
 50
240.0
 51
330.0
  0
ARC
  5
82E
100
AcDbEntity
  8
RUNDUNGEN
100
AcDbCircle
 62
7
  6
CONTINUOUS
 10
186.5710341572
 20
62.9126233291
 40
2.25
100
AcDbArc
 50
59.9999655066
 51
240.0003927066
  0
ARC
  5
82F
100
AcDbEntity
  8
RUNDUNGEN
100
AcDbCircle
 62
7
  6
CONTINUOUS
 10
169.4807252843
 20
90.3462711256
 40
5.0
100
AcDbArc
 50
345.1082742634
 51
90.0
  0
ARC
  5
830
100
AcDbEntity
  8
RUNDUNGEN
100
AcDbCircle
 62
7
  6
CONTINUOUS
 10
199.8677185138
 20
72.6815081413
 40
2.000000079
100
AcDbArc
 50
126.2122294414
 51
192.3983983357
  0
ARC
  5
831
100
AcDbEntity
  8
RUNDUNGEN
100
AcDbCircle
 62
7
  6
CONTINUOUS
 10
196.8014300624
 20
63.6321888184
 40
1.0
100
AcDbArc
 50
258.0
 51
330.0
  0
ARC
  5
832
100
AcDbEntity
  8
RUNDUNGEN
100
AcDbCircle
 62
7
  6
CONTINUOUS
 10
197.9322500894
 20
65.5908265594
 40
1.0
100
AcDbArc
 50
330.0
 51
60.0
  0
ARC
  5
833
100
AcDbEntity
  8
RUNDUNGEN
100
AcDbCircle
 62
7
  6
CONTINUOUS
 10
198.3490561546
 20
66.3127558413
 40
1.0
100
AcDbArc
 50
329.9993395002
 51
26.4373390362
  0
ARC
  5
834
100
AcDbEntity
  8
RUNDUNGEN
100
AcDbCircle
 62
7
  6
CONTINUOUS
 10
202.8260450705
 20
68.5388954016
 40
3.9999472835
100
AcDbArc
 50
192.4042933772
 51
206.4382810454
  0
ARC
  5
835
100
AcDbEntity
  8
RUNDUNGEN
100
AcDbCircle
 62
7
  6
CONTINUOUS
 10
204.1516271252
 20
84.0478695001
 40
1.0
100
AcDbArc
 50
345.0
 51
25.0326646998
  0
ARC
  5
836
100
AcDbEntity
  8
RUNDUNGEN
100
AcDbCircle
 62
7
  6
CONTINUOUS
 10
202.5987128546
 20
78.2523145424
 40
1.0
100
AcDbArc
 50
304.9673353002
 51
345.0
  0
ARC
  5
837
100
AcDbEntity
  8
RUNDUNGEN
100
AcDbCircle
 62
7
  6
CONTINUOUS
 10
197.9410958162
 20
105.3462711256
 40
2.25
100
AcDbArc
 50
89.9998928819
 51
270.0004547288
  0
ARC
  5
838
100
AcDbEntity
  8
RUNDUNGEN
100
AcDbCircle
 62
7
  6
CONTINUOUS
 10
209.205280309
 20
92.3462711256
 40
3.9999704278
100
AcDbArc
 50
123.5623055446
 51
137.5975309489
  0
ARC
  5
839
100
AcDbEntity
  8
RUNDUNGEN
100
AcDbCircle
 62
7
  6
CONTINUOUS
 10
204.5719198464
 20
90.237826539
 40
2.0000000773
100
AcDbArc
 50
137.6016016643
 51
203.8095711108
  0
ARC
  5
83A
100
AcDbEntity
  8
RUNDUNGEN
100
AcDbCircle
 62
7
  6
CONTINUOUS
 10
206.4410958162
 20
96.5126721038
 40
1.0
100
AcDbArc
 50
303.561481431
 51
359.9996547445
  0
ARC
  5
83B
100
AcDbEntity
  8
RUNDUNGEN
100
AcDbCircle
 62
7
  6
CONTINUOUS
 10
206.4410958162
 20
97.3462711256
 40
1.0
100
AcDbArc
 50
270.0
 51
360.0
  0
ARC
  5
83C
100
AcDbEntity
  8
RUNDUNGEN
100
AcDbCircle
 62
7
  6
CONTINUOUS
 10
206.4410958162
 20
99.6079111797
 40
1.0
100
AcDbArc
 50
0.0
 51
72.0
  0
ARC
  5
83D
100
AcDbEntity
  8
RUNDUNGEN
100
AcDbCircle
 62
7
  6
CONTINUOUS
 10
131.0738002232
 20
143.8185204793
 40
7.9999990424
100
AcDbArc
 50
180.0864239075
 51
224.9999998768
  0
ARC
  5
83E
100
AcDbEntity
  8
0
100
AcDbCircle
 62
7
  6
CONTINUOUS
 10
113.0738002232
 20
133.2062783044
 40
1.0
100
AcDbArc
 50
345.0
 51
195.0
  0
ARC
  5
83F
100
AcDbEntity
  8
RUNDUNGEN
100
AcDbCircle
 62
7
  6
CONTINUOUS
 10
128.0738002232
 20
161.7531961867
 40
5.0
100
AcDbArc
 50
75.1082742634
 51
180.0
  0
ARC
  5
840
100
AcDbEntity
  8
RUNDUNGEN
100
AcDbCircle
 62
7
  6
CONTINUOUS
 10
113.0738002232
 20
190.2135667186
 40
2.25
100
AcDbArc
 50
180.0002675238
 51
0.0004071844
  0
ARC
  5
841
100
AcDbEntity
  8
RUNDUNGEN
100
AcDbCircle
 62
7
  6
CONTINUOUS
 10
118.8121601692
 20
198.7135667186
 40
1.0
100
AcDbArc
 50
90.0000000307
 51
161.9999998832
  0
ARC
  5
842
100
AcDbEntity
  8
RUNDUNGEN
100
AcDbCircle
 62
7
  6
CONTINUOUS
 10
126.0738002232
 20
201.4776865184
 40
3.9999497664
100
AcDbArc
 50
213.5617419739
 51
227.5942736728
  0
ARC
  5
843
100
AcDbEntity
  8
RUNDUNGEN
100
AcDbCircle
 62
7
  6
CONTINUOUS
 10
128.1822448099
 20
196.8443907488
 40
2.0000000773
100
AcDbArc
 50
227.6016016643
 51
293.8095711119
  0
ARC
  5
844
100
AcDbEntity
  8
RUNDUNGEN
100
AcDbCircle
 62
7
  6
CONTINUOUS
 10
121.9073888361
 20
198.7135667186
 40
1.0
100
AcDbArc
 50
33.5603508006
 51
89.9993765094
  0
ARC
  5
845
100
AcDbEntity
  8
RUNDUNGEN
100
AcDbCircle
 62
7
  6
CONTINUOUS
 10
121.0738002232
 20
198.7135667186
 40
1.0
100
AcDbArc
 50
0.0
 51
90.0
  0
ARC
  5
846
100
AcDbEntity
  8
RUNDUNGEN
100
AcDbCircle
 62
7
  6
CONTINUOUS
 10
155.5074480197
 20
178.8435050597
 40
2.25
100
AcDbArc
 50
149.9998934113
 51
330.0004549376
  0
ARC
  5
847
100
AcDbEntity
  8
RUNDUNGEN
100
AcDbCircle
 62
7
  6
CONTINUOUS
 10
134.3722018488
 20
196.4240980277
 40
1.0
100
AcDbArc
 50
75.0
 51
115.0326646998
  0
ARC
  5
848
100
AcDbEntity
  8
RUNDUNGEN
100
AcDbCircle
 62
7
  6
CONTINUOUS
 10
140.1677568065
 20
194.871183757
 40
1.0
100
AcDbArc
 50
34.9673353002
 51
75.0
  0
ARC
  5
849
100
AcDbEntity
  8
RUNDUNGEN
100
AcDbCircle
 62
7
  6
CONTINUOUS
 10
145.7385632075
 20
192.1401894163
 40
2.000000079
100
AcDbArc
 50
216.2122294499
 51
282.3983983357
  0
ARC
  5
84A
100
AcDbEntity
  8
RUNDUNGEN
100
AcDbCircle
 62
7
  6
CONTINUOUS
 10
154.7878825304
 20
189.0739009648
 40
1.0
100
AcDbArc
 50
348.0
 51
60.0
  0
ARC
  5
84B
100
AcDbEntity
  8
RUNDUNGEN
100
AcDbCircle
 62
7
  6
CONTINUOUS
 10
152.8293680938
 20
190.204649802
 40
1.0
100
AcDbArc
 50
60.0
 51
150.0010846009
  0
ARC
  5
84C
100
AcDbEntity
  8
RUNDUNGEN
100
AcDbCircle
 62
7
  6
CONTINUOUS
 10
152.1073154614
 20
190.6215270837
 40
1.0
100
AcDbArc
 50
59.9993397456
 51
116.4373322657
  0
ARC
  5
84D
100
AcDbEntity
  8
RUNDUNGEN
100
AcDbCircle
 62
7
  6
CONTINUOUS
 10
149.8811761431
 20
195.0985163122
 40
3.9999474123
100
AcDbArc
 50
282.4042861052
 51
296.4382777398
  0
ARC
  5
84E
100
AcDbEntity
  8
RUNDUNGEN
100
AcDbCircle
 62
7
  6
CONTINUOUS
 10
169.4807252843
 20
120.3462711256
 40
5.0
100
AcDbArc
 50
270.0
 51
14.8917257366
  0
ARC
  5
84F
100
AcDbEntity
  8
RUNDUNGEN
100
AcDbCircle
 62
7
  6
CONTINUOUS
 10
186.5710341572
 20
147.7799189221
 40
2.25
100
AcDbArc
 50
119.9998923523
 51
300.0004545191
  0
ARC
  5
850
100
AcDbEntity
  8
RUNDUNGEN
100
AcDbCircle
 62
7
  6
CONTINUOUS
 10
209.2052125614
 20
118.3462711256
 40
3.9999474123
100
AcDbArc
 50
222.4042861052
 51
236.4382777398
  0
ARC
  5
851
100
AcDbEntity
  8
RUNDUNGEN
100
AcDbCircle
 62
7
  6
CONTINUOUS
 10
204.5719198491
 20
120.4547157179
 40
2.000000079
100
AcDbArc
 50
156.212229449
 51
222.3983983357
  0
ARC
  5
852
100
AcDbEntity
  8
RUNDUNGEN
100
AcDbCircle
 62
7
  6
CONTINUOUS
 10
206.4410958162
 20
111.0846310716
 40
1.0
100
AcDbArc
 50
288.0
 51
360.0
  0
ARC
  5
853
100
AcDbEntity
  8
RUNDUNGEN
100
AcDbCircle
 62
7
  6
CONTINUOUS
 10
204.1516271252
 20
126.6446727512
 40
1.0
100
AcDbArc
 50
334.9673353002
 51
15.0
  0
ARC
  5
854
100
AcDbEntity
  8
RUNDUNGEN
100
AcDbCircle
 62
7
  6
CONTINUOUS
 10
206.4410958162
 20
113.3462711256
 40
1.0
100
AcDbArc
 50
0.0
 51
90.0
  0
ARC
  5
855
100
AcDbEntity
  8
RUNDUNGEN
100
AcDbCircle
 62
7
  6
CONTINUOUS
 10
206.4410958162
 20
114.1798833094
 40
1.0
100
AcDbArc
 50
359.9993397455
 51
56.4373322657
  0
ARC
  5
856
100
AcDbEntity
  8
RUNDUNGEN
100
AcDbCircle
 62
7
  6
CONTINUOUS
 10
196.8014300624
 20
147.0603534329
 40
1.0
100
AcDbArc
 50
30.0
 51
102.0
  0
ARC
  5
857
100
AcDbEntity
  8
RUNDUNGEN
100
AcDbCircle
 62
7
  6
CONTINUOUS
 10
198.3490496004
 20
144.3797977623
 40
1.0
100
AcDbArc
 50
333.561481431
 51
29.9996547445
  0
ARC
  5
858
100
AcDbEntity
  8
RUNDUNGEN
100
AcDbCircle
 62
7
  6
CONTINUOUS
 10
197.9322500894
 20
145.1017156919
 40
1.0
100
AcDbArc
 50
300.0
 51
30.0
  0
ARC
  5
859
100
AcDbEntity
  8
RUNDUNGEN
100
AcDbCircle
 62
7
  6
CONTINUOUS
 10
199.8677185088
 20
138.0110341135
 40
2.0000000773
100
AcDbArc
 50
167.6016016643
 51
233.8095711126
  0
ARC
  5
85A
100
AcDbEntity
  8
RUNDUNGEN
100
AcDbCircle
 62
7
  6
CONTINUOUS
 10
202.5987128546
 20
132.4402277089
 40
1.0
100
AcDbArc
 50
15.0
 51
55.0326646998
  0
ARC
  5
85B
100
AcDbEntity
  8
RUNDUNGEN
100
AcDbCircle
 62
7
  6
CONTINUOUS
 10
202.8261040809
 20
142.1536809193
 40
3.9999704278
100
AcDbArc
 50
153.5623055446
 51
167.5975309489
  0
ARC
  5
85C
100
AcDbEntity
  8
RUNDUNGEN
100
AcDbCircle
 62
7
  6
CONTINUOUS
 10
164.727013509
 20
183.3355410188
 40
1.0
100
AcDbArc
 50
60.0
 51
132.0
  0
ARC
  5
85D
100
AcDbEntity
  8
RUNDUNGEN
100
AcDbCircle
 62
7
  6
CONTINUOUS
 10
167.4075691795
 20
181.7879214809
 40
1.0
100
AcDbArc
 50
3.561481431
 51
59.9996547445
  0
ARC
  5
85E
100
AcDbEntity
  8
RUNDUNGEN
100
AcDbCircle
 62
7
  6
CONTINUOUS
 10
166.68565125
 20
182.2047209918
 40
1.0
100
AcDbArc
 50
330.0
 51
60.0
  0
ARC
  5
85F
100
AcDbEntity
  8
RUNDUNGEN
100
AcDbCircle
 62
7
  6
CONTINUOUS
 10
171.9071568585
 20
177.0317448245
 40
2.0000000773
100
AcDbArc
 50
197.6016016643
 51
263.809571109
  0
ARC
  5
860
100
AcDbEntity
  8
RUNDUNGEN
100
AcDbCircle
 62
7
  6
CONTINUOUS
 10
177.057670542
 20
173.5727821315
 40
1.0
100
AcDbArc
 50
45.0
 51
85.0326646998
  0
ARC
  5
861
100
AcDbEntity
  8
RUNDUNGEN
100
AcDbCircle
 62
7
  6
CONTINUOUS
 10
172.3978705153
 20
182.0985749833
 40
3.9999704278
100
AcDbArc
 50
183.5623055446
 51
197.5975309489
  0
ARC
  5
862
100
AcDbEntity
  8
RUNDUNGEN
100
AcDbCircle
 62
7
  6
CONTINUOUS
 10
184.7592739216
 20
164.1796277671
 40
2.000000079
100
AcDbArc
 50
186.2122295168
 51
252.3983983357
  0
ARC
  5
863
100
AcDbEntity
  8
RUNDUNGEN
100
AcDbCircle
 62
7
  6
CONTINUOUS
 10
181.3003112291
 20
169.3301414444
 40
1.0
100
AcDbArc
 50
4.9673353002
 51
45.0
  0
ARC
  5
864
100
AcDbEntity
  8
RUNDUNGEN
100
AcDbCircle
 62
7
  6
CONTINUOUS
 10
191.0630701164
 20
156.9994844114
 40
1.0
100
AcDbArc
 50
318.0
 51
30.0
  0
ARC
  5
865
100
AcDbEntity
  8
RUNDUNGEN
100
AcDbCircle
 62
7
  6
CONTINUOUS
 10
189.9323212793
 20
158.957998848
 40
1.0
100
AcDbArc
 50
30.0
 51
120.0010846009
  0
ARC
  5
866
100
AcDbEntity
  8
RUNDUNGEN
100
AcDbCircle
 62
7
  6
CONTINUOUS
 10
189.5154439975
 20
159.6800514804
 40
1.0
100
AcDbArc
 50
29.9993397455
 51
86.4373322657
  0
ARC
  5
867
100
AcDbEntity
  8
RUNDUNGEN
100
AcDbCircle
 62
7
  6
CONTINUOUS
 10
189.8260454098
 20
164.6703075439
 40
3.9999474123
100
AcDbArc
 50
252.4042861052
 51
266.4382777398
  0
ARC
  5
868
100
AcDbEntity
  8
RUNDUNGEN
100
AcDbCircle
 62
7
  6
CONTINUOUS
 10
236.482551419
 20
92.3462711256
 40
4.0
100
AcDbArc
 50
0.0
 51
47.5280078991
  0
ARC
  5
869
100
AcDbEntity
  8
RUNDUNGEN
100
AcDbCircle
 62
7
  6
CONTINUOUS
 10
229.432551419
 20
69.3722608493
 40
3.0
100
AcDbArc
 50
179.9999993068
 51
253.2690830325
  0
ARC
  5
86A
100
AcDbEntity
  8
RUNDUNGEN
100
AcDbCircle
 62
7
  6
CONTINUOUS
 10
231.482551419
 20
68.0930939288
 40
1.0
100
AcDbArc
 50
103.7193828297
 51
179.9999998226
  0
ARC
  5
86B
100
AcDbEntity
  8
RUNDUNGEN
100
AcDbCircle
 62
7
  6
CONTINUOUS
 10
231.482551419
 20
34.0330723696
 40
1.0
100
AcDbArc
 50
112.9219287136
 51
180.0000009011
  0
ARC
  5
86C
100
AcDbEntity
  8
RUNDUNGEN
100
AcDbCircle
 62
7
  6
CONTINUOUS
 10
231.482551419
 20
20.1279951696
 40
1.0
100
AcDbArc
 50
168.6238865262
 51
179.9999999974
  0
ARC
  5
86D
100
AcDbEntity
  8
RUNDUNGEN
100
AcDbCircle
 62
7
  6
CONTINUOUS
 10
231.482551419
 20
97.3462711256
 40
1.0
100
AcDbArc
 50
180.0
 51
270.0
  0
ARC
  5
86E
100
AcDbEntity
  8
RUNDUNGEN
100
AcDbCircle
 62
7
  6
CONTINUOUS
 10
231.482551419
 20
102.0962711256
 40
1.0
100
AcDbArc
 50
90.0
 51
180.0
  0
ARC
  5
86F
100
AcDbEntity
  8
RUNDUNGEN
100
AcDbCircle
 62
7
  6
CONTINUOUS
 10
231.482551419
 20
11.9789755326
 40
1.0
100
AcDbArc
 50
180.0
 51
270.0
  0
ARC
  5
870
100
AcDbEntity
  8
0
100
AcDbCircle
 62
7
  6
CONTINUOUS
 10
232.482551419
 20
153.7233504245
 40
7.9999995335
100
AcDbArc
 50
286.7307975474
 51
359.515762015
  0
ARC
  5
871
100
AcDbEntity
  8
0
100
AcDbCircle
 62
7
  6
CONTINUOUS
 10
229.432551419
 20
141.3202813914
 40
3.0
100
AcDbArc
 50
106.7309200668
 51
179.9999999936
  0
ARC
  5
872
100
AcDbEntity
  8
0
100
AcDbCircle
 62
7
  6
CONTINUOUS
 10
238.482551419
 20
183.9024909577
 40
2.0
100
AcDbArc
 50
0.0
 51
64.0
  0
ARC
  5
873
100
AcDbEntity
  8
0
100
AcDbCircle
 62
7
  6
CONTINUOUS
 10
231.482551419
 20
176.6594698818
 40
1.0
100
AcDbArc
 50
179.999999387
 51
247.0780715747
  0
ARC
  5
874
100
AcDbEntity
  8
0
100
AcDbCircle
 62
7
  6
CONTINUOUS
 10
231.482551419
 20
190.5645470817
 40
1.0
100
AcDbArc
 50
180.0000000026
 51
243.9742175389
  0
ARC
  5
875
100
AcDbEntity
  8
RUNDUNGEN
100
AcDbCircle
 62
7
  6
CONTINUOUS
 10
231.482551419
 20
198.7135667186
 40
1.0
100
AcDbArc
 50
90.0
 51
180.0
  0
ARC
  5
876
100
AcDbEntity
  8
0
100
AcDbCircle
 62
7
  6
CONTINUOUS
 10
239.0499321262
 20
186.9635667181
 40
1.0000000002
100
AcDbArc
 50
90.0
 51
243.9999998592
  0
ARC
  5
877
100
AcDbEntity
  8
RUNDUNGEN
100
AcDbCircle
 62
7
  6
CONTINUOUS
 10
254.482551419
 20
92.3462711256
 40
4.0
100
AcDbArc
 50
132.4719012942
 51
180.0
  0
ARC
  5
878
100
AcDbEntity
  8
RUNDUNGEN
100
AcDbCircle
 62
7
  6
CONTINUOUS
 10
261.532551419
 20
69.3722608477
 40
3.0
100
AcDbArc
 50
286.7309173978
 51
0.0000011799
  0
ARC
  5
879
100
AcDbEntity
  8
RUNDUNGEN
100
AcDbCircle
 62
7
  6
CONTINUOUS
 10
259.482551419
 20
68.0930855759
 40
1.0
100
AcDbArc
 50
359.9999998878
 51
76.2814455943
  0
ARC
  5
87A
100
AcDbEntity
  8
RUNDUNGEN
100
AcDbCircle
 62
7
  6
CONTINUOUS
 10
259.482551419
 20
34.0330630793
 40
1.0
100
AcDbArc
 50
0.0000000039
 51
67.0796216933
  0
ARC
  5
87B
100
AcDbEntity
  8
RUNDUNGEN
100
AcDbCircle
 62
7
  6
CONTINUOUS
 10
259.482551419
 20
20.128016842
 40
1.0
100
AcDbArc
 50
359.9999980419
 51
10.2951611659
  0
ARC
  5
87C
100
AcDbEntity
  8
RUNDUNGEN
100
AcDbCircle
 62
7
  6
CONTINUOUS
 10
259.482551419
 20
11.9789755326
 40
1.0
100
AcDbArc
 50
270.0
 51
360.0
  0
ARC
  5
87D
100
AcDbEntity
  8
RUNDUNGEN
100
AcDbCircle
 62
7
  6
CONTINUOUS
 10
259.482551419
 20
102.0962711256
 40
1.0
100
AcDbArc
 50
0.0
 51
90.0
  0
ARC
  5
87E
100
AcDbEntity
  8
RUNDUNGEN
100
AcDbCircle
 62
7
  6
CONTINUOUS
 10
259.482551419
 20
97.3462711256
 40
1.0
100
AcDbArc
 50
270.0
 51
360.0
  0
ARC
  5
87F
100
AcDbEntity
  8
0
100
AcDbCircle
 62
7
  6
CONTINUOUS
 10
258.482551419
 20
153.7233504226
 40
7.9999995323
100
AcDbArc
 50
180.4842385709
 51
253.2692024526
  0
ARC
  5
880
100
AcDbEntity
  8
0
100
AcDbCircle
 62
7
  6
CONTINUOUS
 10
261.532551419
 20
141.320281393
 40
3.0
100
AcDbArc
 50
0.0000000064
 51
73.2690799916
  0
ARC
  5
881
100
AcDbEntity
  8
0
100
AcDbCircle
 62
7
  6
CONTINUOUS
 10
252.482551419
 20
183.9024909577
 40
2.0
100
AcDbArc
 50
116.0
 51
180.0
  0
ARC
  5
882
100
AcDbEntity
  8
0
100
AcDbCircle
 62
7
  6
CONTINUOUS
 10
259.482551419
 20
176.6594791719
 40
1.0
100
AcDbArc
 50
292.9203783
 51
359.9999999961
  0
ARC
  5
883
100
AcDbEntity
  8
0
100
AcDbCircle
 62
7
  6
CONTINUOUS
 10
259.482551419
 20
190.5645254131
 40
1.0
100
AcDbArc
 50
296.025336398
 51
0.0000031775
  0
ARC
  5
884
100
AcDbEntity
  8
RUNDUNGEN
100
AcDbCircle
 62
7
  6
CONTINUOUS
 10
259.482551419
 20
198.7135667186
 40
1.0
100
AcDbArc
 50
0.0
 51
90.0
  0
ARC
  5
885
100
AcDbEntity
  8
0
100
AcDbCircle
 62
7
  6
CONTINUOUS
 10
251.9153832209
 20
186.9636658932
 40
0.9999695067
100
AcDbArc
 50
295.9737556255
 51
89.9999286816
  0
ENDSEC
  0
SECTION
  2
OBJECTS
  0
DICTIONARY
  5
C
100
AcDbDictionary
280
0
281
1
  3
ACAD_GROUP
350
D
  3
ACAD_MLINESTYLE
350
17
  3
ACAD_LAYOUT
350
1A
  3
ACAD_PLOTSETTINGS
350
19
  3
ACAD_PLOTSTYLENAME
350
E
  0
DICTIONARY
  5
D
102
{ACAD_REACTORS
330
C
102
}
100
AcDbDictionary
280
0
281
1
  0
ACDBDICTIONARYWDFLT
  5
E
102
{ACAD_REACTORS
330
C
102
}
100
AcDbDictionary
281
1
  3
Normal
350
F
100
AcDbDictionaryWithDefault
340
F
  0
DICTIONARY
  5
17
102
{ACAD_REACTORS
330
C
102
}
100
AcDbDictionary
280
0
281
1
  3
Standard
350
18
  0
DICTIONARY
  5
19
102
{ACAD_REACTORS
330
C
102
}
100
AcDbDictionary
281
1
  0
DICTIONARY
  5
1A
102
{ACAD_REACTORS
330
C
102
}
100
AcDbDictionary
281
1
  3
Model
350
886
  3
Layout1
350
887
  0
ACDBPLACEHOLDER
  5
F
102
{ACAD_REACTORS
330
E
102
}
  0
MLINESTYLE
  5
18
102
{ACAD_REACTORS
330
17
102
}
100
AcDbMlineStyle
  2
STANDARD
 70
0
  3

 62
256
 51
90.0
 52
90.0
 71
2
 49
0.5
 62
256
  6
BYLAYER
 49
-0.5
 62
256
  6
BYLAYER
  0
LAYOUT
  5
886
102
{ACAD_REACTORS
330
1A
102
}
100
AcDbPlotSettings
  1

  2
none_device
  4
ISO_A4_(297.00_x_210.00_MM)
  6

 40
0.0
 41
0.0
 42
0.0
 43
0.0
 44
297.0
 45
210.0
 46
0.0
 47
0.0
 48
0.0
 49
0.0
140
0.0
141
0.0
142
1.0
143
1.0
 70
1024
 72
1
 73
0
 74
0
  7

 75
0
147
1.0
148
0.0
149
0.0
100
AcDbLayout
  1
Model
 70
0
 71
0
 10
0.0
 20
0.0
 11
297.0
 21
210.0
 12
0.0
 22
0.0
 32
0.0
 14
0.0
 24
0.0
 34
0.0
 15
0.0
 25
0.0
 35
0.0
146
0.0
 13
0.0
 23
0.0
 33
0.0
 16
1.0
 26
0.0
 36
0.0
 17
0.0
 27
1.0
 37
0.0
 76
0
330
210
345
0
346
0
  0
LAYOUT
  5
887
102
{ACAD_REACTORS
330
1A
102
}
100
AcDbPlotSettings
  1

  2
none_device
  4
ISO_A4_(297.00_x_210.00_MM)
  6

 40
0.0
 41
0.0
 42
0.0
 43
0.0
 44
297.0
 45
210.0
 46
0.0
 47
0.0
 48
0.0
 49
0.0
140
0.0
141
0.0
142
1.0
143
1.0
 70
0
 72
1
 73
0
 74
0
  7

 75
0
147
1.0
148
0.0
149
0.0
100
AcDbLayout
  1
Layout1
 70
0
 71
1
 10
0.0
 20
0.0
 11
297.0
 21
210.0
 12
0.0
 22
0.0
 32
0.0
 14
0.0
 24
0.0
 34
0.0
 15
0.0
 25
0.0
 35
0.0
146
0.0
 13
0.0
 23
0.0
 33
0.0
 16
1.0
 26
0.0
 36
0.0
 17
0.0
 27
1.0
 37
0.0
 76
0
330
211
345
0
346
0
  0
ENDSEC
  0
EOF
