  0
SECTION
  2
HEADER
  9
$ACADVER
  1
AC1015
  9
$DWGCODEPAGE
  3
ANSI_1252
  9
$EXTMAX
 10
297.0
 20
210.0
 30
0.0
  9
$EXTMIN
 10
0.0
 20
0.0
 30
0.0
  9
$LIMMIN
 10
0.0
 20
0.0
  9
$LIMMAX
 10
297.0
 20
210.0
  9
$VIEWCTR
 10
148.5
 20
105.0
  9
$VIEWSIZE
 40
210.0
  9
$CLAYER
  8
0
  9
$LTSCALE
 40
16.335
  9
$CELTYPE
  6
BYLAYER
  9
$DIMSCALE
 40
1.0
  9
$DIMASZ
 40
3.5
  9
$DIMEXO
 40
1.85625
  9
$DIMDLI
 40
11.286
  9
$DIMEXE
 40
5.346
  9
$DIMCEN
 40
2.673
  9
$DIMLFAC
 40
1.0
  9
$DIMBLK
  1
_FILLED
  9
$DIMTXT
 40
3.5
  9
$DIMTOL
 70
1
  9
$DIMLIM
 70
0
  9
$DIMTFAC
 40
1.0
  9
$DIMTP
 40
0.005
  9
$DIMTM
 40
0.005
  9
$PDMODE
 70
3
  9
$PDSIZE
 40
0.3125
  9
$HANDSEED
  5
79D
  9
$TILEMODE
 70
1
  9
$MEASUREMENT
 70
1
  9
$INSUNITS
 70
4
  0
ENDSEC
  0
SECTION
  2
CLASSES
  0
CLASS
  1
ACDBDICTIONARYWDFLT
  2
AcDbDictionaryWithDefault
  3
AutoCAD 2000
 90
0
280
0
281
0
  0
CLASS
  1
ACDBPLACEHOLDER
  2
AcDbPlaceHolder
  3
AutoCAD 2000
 90
0
280
0
281
0
  0
CLASS
  1
LAYOUT
  2
AcDbLayout
  3
AutoCAD 2000
 90
0
280
0
281
0
  0
ENDSEC
  0
SECTION
  2
TABLES
  0
TABLE
  2
VPORT
  5
8
100
AcDbSymbolTable
 70
2
  0
VPORT
  5
1F4
100
AcDbSymbolTableRecord
100
AcDbViewportTableRecord
  2
*ACTIVE
 70
0
 10
0.0
 20
0.0
 11
1.0
 21
1.0
 12
148.5
 22
105.0
 13
0.0
 23
0.0
 14
1.0
 24
1.0
 15
0.0
 25
0.0
 16
0.0
 26
0.0
 36
1.0
 17
0.0
 27
0.0
 37
0.0
 40
210.0
 41
1.4142857143
 42
50.0
 43
0.0
 44
0.0
 50
0.0
 51
0.0
 71
0
 72
100
 73
1
 74
1
 75
0
 76
0
 77
0
 78
0
  0
ENDTAB
  0
TABLE
  2
LTYPE
  5
5
100
AcDbSymbolTable
 70
6
  0
LTYPE
  5
14
100
AcDbSymbolTableRecord
100
AcDbLinetypeTableRecord
  2
BYBLOCK
 70
0
  3

 72
65
 73
0
 40
0.0
  0
LTYPE
  5
15
100
AcDbSymbolTableRecord
100
AcDbLinetypeTableRecord
  2
BYLAYER
 70
0
  3

 72
65
 73
0
 40
0.0
  0
LTYPE
  5
16
100
AcDbSymbolTableRecord
100
AcDbLinetypeTableRecord
  2
CONTINUOUS
 70
64
  3
Solid line
 72
65
 73
0
 40
0.0
  0
LTYPE
  5
1F5
100
AcDbSymbolTableRecord
100
AcDbLinetypeTableRecord
  2
CENTER
 70
64
  3
____ _ ____ _ ____ _ ____ _ ____ _ ____ _ ____
 72
65
 73
4
 40
0.6
 49
0.375
 74
0
 49
-0.075
 74
0
 49
0.075
 74
0
 49
-0.075
 74
0
  0
LTYPE
  5
1F6
100
AcDbSymbolTableRecord
100
AcDbLinetypeTableRecord
  2
HIDDEN
 70
64
  3
- - - - - - - - - - - - - - - - - - - -
 72
65
 73
2
 40
0.2
 49
0.1
 74
0
 49
-0.1
 74
0
  0
LTYPE
  5
1F7
100
AcDbSymbolTableRecord
100
AcDbLinetypeTableRecord
  2
PHANTOM
 70
64
  3
_____ _ _ _____ _ _ _____ _ _ _____
 72
65
 73
6
 40
0.8
 49
0.45
 74
0
 49
-0.05
 74
0
 49
0.1
 74
0
 49
-0.05
 74
0
 49
0.1
 74
0
 49
-0.05
 74
0
  0
LTYPE
  5
1F8
100
AcDbSymbolTableRecord
100
AcDbLinetypeTableRecord
  2
DOT
 70
64
  3
. . . . . . . . . . . . . . . . . . . .
 72
65
 73
2
 40
0.2
 49
0.1
 74
0
 49
-0.1
 74
0
  0
LTYPE
  5
1F9
100
AcDbSymbolTableRecord
100
AcDbLinetypeTableRecord
  2
DASHED
 70
64
  3
- - - - - - - - - - - - - - - - - - - -
 72
65
 73
2
 40
0.2
 49
0.1
 74
0
 49
-0.1
 74
0
  0
ENDTAB
  0
TABLE
  2
LAYER
  5
2
100
AcDbSymbolTable
 70
36
  0
LAYER
  5
10
100
AcDbSymbolTableRecord
100
AcDbLayerTableRecord
  2
0
 70
0
 62
7
  6
CONTINUOUS
370
-3
390
F
  0
LAYER
  5
1FA
100
AcDbSymbolTableRecord
100
AcDbLayerTableRecord
  2
DEFAULT_1
 70
0
 62
7
  6
CENTER
370
-3
390
F
  0
LAYER
  5
1FB
100
AcDbSymbolTableRecord
100
AcDbLayerTableRecord
  2
DEFAULT_2
 70
0
 62
8
  6
HIDDEN
370
-3
390
F
  0
LAYER
  5
1FC
100
AcDbSymbolTableRecord
100
AcDbLayerTableRecord
  2
DEFAULT_3
 70
0
 62
7
  6
PHANTOM
370
-3
390
F
  0
LAYER
  5
1FD
100
AcDbSymbolTableRecord
100
AcDbLayerTableRecord
  2
01___PRT_ALL_DTM_PLN
 70
0
 62
7
  6
CONTINUOUS
370
-3
390
F
  0
LAYER
  5
1FE
100
AcDbSymbolTableRecord
100
AcDbLayerTableRecord
  2
01___PRT_DEF_DTM_PLN
 70
0
 62
7
  6
CONTINUOUS
370
-3
390
F
  0
LAYER
  5
1FF
100
AcDbSymbolTableRecord
100
AcDbLayerTableRecord
  2
02___PRT_ALL_AXES
 70
0
 62
7
  6
CONTINUOUS
370
-3
390
F
  0
LAYER
  5
200
100
AcDbSymbolTableRecord
100
AcDbLayerTableRecord
  2
03___PRT_ALL_CURVES
 70
0
 62
7
  6
CONTINUOUS
370
-3
390
F
  0
LAYER
  5
201
100
AcDbSymbolTableRecord
100
AcDbLayerTableRecord
  2
04___PRT_ALL_DTM_PNT
 70
0
 62
7
  6
CONTINUOUS
370
-3
390
F
  0
LAYER
  5
202
100
AcDbSymbolTableRecord
100
AcDbLayerTableRecord
  2
05___PRT_ALL_DTM_CSYS
 70
0
 62
7
  6
CONTINUOUS
370
-3
390
F
  0
LAYER
  5
203
100
AcDbSymbolTableRecord
100
AcDbLayerTableRecord
  2
05___PRT_DEF_DTM_CSYS
 70
0
 62
7
  6
CONTINUOUS
370
-3
390
F
  0
LAYER
  5
204
100
AcDbSymbolTableRecord
100
AcDbLayerTableRecord
  2
06___PRT_ALL_SURFS
 70
0
 62
7
  6
CONTINUOUS
370
-3
390
F
  0
LAYER
  5
205
100
AcDbSymbolTableRecord
100
AcDbLayerTableRecord
  2
AUSFORMSCHRAEGEN
 70
0
 62
7
  6
CONTINUOUS
370
-3
390
F
  0
LAYER
  5
206
100
AcDbSymbolTableRecord
100
AcDbLayerTableRecord
  2
BEZUGSACHSEN
 70
0
 62
7
  6
CONTINUOUS
370
-3
390
F
  0
LAYER
  5
207
100
AcDbSymbolTableRecord
100
AcDbLayerTableRecord
  2
BEZUGSEBENEN
 70
0
 62
7
  6
CONTINUOUS
370
-3
390
F
  0
LAYER
  5
208
100
AcDbSymbolTableRecord
100
AcDbLayerTableRecord
  2
BOHRUNGEN
 70
0
 62
7
  6
CONTINUOUS
370
-3
390
F
  0
LAYER
  5
209
100
AcDbSymbolTableRecord
100
AcDbLayerTableRecord
  2
FASEN
 70
0
 62
7
  6
CONTINUOUS
370
-3
390
F
  0
LAYER
  5
20A
100
AcDbSymbolTableRecord
100
AcDbLayerTableRecord
  2
GEWINDE
 70
0
 62
7
  6
CONTINUOUS
370
-3
390
F
  0
LAYER
  5
20B
100
AcDbSymbolTableRecord
100
AcDbLayerTableRecord
  2
KURVEN
 70
0
 62
7
  6
CONTINUOUS
370
-3
390
F
  0
LAYER
  5
20C
100
AcDbSymbolTableRecord
100
AcDbLayerTableRecord
  2
RUNDUNGEN
 70
0
 62
7
  6
CONTINUOUS
370
-3
390
F
  0
LAYER
  5
20D
100
AcDbSymbolTableRecord
100
AcDbLayerTableRecord
  2
ZEICHNUNGSBEMASSUNGEN
 70
0
 62
7
  6
CONTINUOUS
370
-3
390
F
  0
ENDTAB
  0
TABLE
  2
STYLE
  5
3
100
AcDbSymbolTable
 70
1
  0
STYLE
  5
11
100
AcDbSymbolTableRecord
100
AcDbTextStyleTableRecord
  2
STANDARD
 70
0
 40
0.0
 41
0.7
 50
0.0
 71
0
 42
0.2
  3
txt
  4

  0
STYLE
  5
20E
100
AcDbSymbolTableRecord
100
AcDbTextStyleTableRecord
  2
TEXTSTYLE_1
 70
0
 40
0.0
 41
0.8
 50
0.0
 71
0
 42
0.2
  3
gdt
  4

  0
ENDTAB
  0
TABLE
  2
VIEW
  5
6
100
AcDbSymbolTable
 70
0
  0
ENDTAB
  0
TABLE
  2
UCS
  5
7
100
AcDbSymbolTable
 70
0
  0
ENDTAB
  0
TABLE
  2
APPID
  5
9
100
AcDbSymbolTable
 70
1
  0
APPID
  5
20F
100
AcDbSymbolTableRecord
100
AcDbRegAppTableRecord
  2
ACAD
 70
0
  0
ENDTAB
  0
TABLE
  2
BLOCK_RECORD
  5
1
100
AcDbSymbolTable
 70
0
  0
BLOCK_RECORD
  5
210
100
AcDbSymbolTableRecord
100
AcDbBlockTableRecord
  2
*Model_Space
  0
BLOCK_RECORD
  5
211
100
AcDbSymbolTableRecord
100
AcDbBlockTableRecord
  2
*Paper_Space
  0
ENDTAB
  0
TABLE
  2
DIMSTYLE
  5
A
100
AcDbSymbolTable
 70
1
100
AcDbDimStyleTable
 71
0
  0
DIMSTYLE
105
212
100
AcDbSymbolTableRecord
100
AcDbDimStyleTableRecord
  2
STANDARD
 70
0
  3

  4

 40
1.0
 41
3.5
 42
0.0625
 43
0.38
 44
0.18
 45
0.0
 46
0.0
 47
0.005
 48
0.005
140
3.5
141
0.09
142
0.0
143
25.4
144
1.0
145
0.0
146
1.0
147
0.09
 71
1.0
 72
0.0
 73
0
 74
0
 75
0
 76
0
 77
1
 78
8
170
0
171
2
172
0
173
0
174
0
175
0
176
0
177
0
178
5
270
2
271
3
272
3
273
2
274
2
275
0
280
0
281
0
282
0
283
1
284
8
285
0
286
0
287
3
288
0
340
11
  0
ENDTAB
  0
ENDSEC
  0
SECTION
  2
BLOCKS
  0
BLOCK
  5
20
100
AcDbEntity
  8
0
100
AcDbBlockBegin
  2
*Model_Space
 70
0
 10
0.0
 20
0.0
 30
0.0
  3
*Model_Space
  1

  0
ENDBLK
  5
21
100
AcDbEntity
  8
0
100
AcDbBlockEnd
  0
BLOCK
  5
1C
100
AcDbEntity
  8
0
100
AcDbBlockBegin
  2
*Paper_Space
 70
0
 10
0.0
 20
0.0
 30
0.0
  3
*Paper_Space
  1

  0
ENDBLK
  5
1D
100
AcDbEntity
  8
0
100
AcDbBlockEnd
  0
ENDSEC
  0
SECTION
  2
ENTITIES
  0
LINE
  5
213
100
AcDbEntity
  8
0
100
AcDbLine
 62
7
  6
CONTINUOUS
 10
0.0
 20
0.0
 11
0.0
 21
210.0
  0
LINE
  5
214
100
AcDbEntity
  8
0
100
AcDbLine
 62
7
  6
CONTINUOUS
 10
0.0
 20
0.0
 11
297.0
 21
0.0
  0
LINE
  5
215
100
AcDbEntity
  8
0
100
AcDbLine
 62
7
  6
CONTINUOUS
 10
0.0
 20
210.0
 11
297.0
 21
210.0
  0
LINE
  5
216
100
AcDbEntity
  8
0
100
AcDbLine
 62
7
  6
CONTINUOUS
 10
297.0
 20
0.0
 11
297.0
 21
210.0
  0
LINE
  5
217
100
AcDbEntity
  8
RUNDUNGEN
100
AcDbLine
 62
7
  6
CONTINUOUS
 10
34.5127095225
 20
108.3462711256
 11
34.5127095225
 21
102.3462711256
  0
LINE
  5
218
100
AcDbEntity
  8
RUNDUNGEN
100
AcDbLine
 62
7
  6
CONTINUOUS
 10
41.7804779918
 20
137.7459732257
 11
40.8260361607
 21
134.8085033151
  0
LINE
  5
219
100
AcDbEntity
  8
RUNDUNGEN
100
AcDbLine
 62
7
  6
CONTINUOUS
 10
37.2795346744
 20
123.8934940762
 11
36.3250934958
 21
120.9560261734
  0
LINE
  5
21A
100
AcDbEntity
  8
RUNDUNGEN
100
AcDbLine
 62
7
  6
CONTINUOUS
 10
51.2527674706
 20
153.8668718837
 11
47.7260559568
 21
149.0127699174
  0
LINE
  5
21B
100
AcDbEntity
  8
RUNDUNGEN
100
AcDbLine
 62
7
  6
CONTINUOUS
 10
74.4132347112
 20
173.379848999
 11
71.914465836
 21
171.5643871435
  0
LINE
  5
21C
100
AcDbEntity
  8
RUNDUNGEN
100
AcDbLine
 62
7
  6
CONTINUOUS
 10
62.6296044034
 20
164.8185404461
 11
60.1308449573
 21
163.0030854413
  0
LINE
  5
21D
100
AcDbEntity
  8
RUNDUNGEN
100
AcDbLine
 62
7
  6
CONTINUOUS
 10
91.5520966384
 20
180.8542523067
 11
85.8457575407
 21
179.0001503405
  0
LINE
  5
21E
100
AcDbEntity
  8
RUNDUNGEN
100
AcDbLine
 62
7
  6
CONTINUOUS
 10
104.1047415905
 20
27.6653409277
 11
107.1933803282
 21
27.6653409277
  0
LINE
  5
21F
100
AcDbEntity
  8
RUNDUNGEN
100
AcDbLine
 62
7
  6
CONTINUOUS
 10
118.6701002202
 20
27.6653409277
 11
121.7587395201
 21
27.6653409277
  0
LINE
  5
220
100
AcDbEntity
  8
RUNDUNGEN
100
AcDbLine
 62
7
  6
CONTINUOUS
 10
85.8457575407
 20
31.6923919108
 11
91.5520966384
 21
29.8382899445
  0
LINE
  5
221
100
AcDbEntity
  8
RUNDUNGEN
100
AcDbLine
 62
7
  6
CONTINUOUS
 10
60.1308432494
 20
47.6894580509
 11
62.6296044034
 21
45.8740018052
  0
LINE
  5
222
100
AcDbEntity
  8
RUNDUNGEN
100
AcDbLine
 62
7
  6
CONTINUOUS
 10
71.9144658356
 20
39.128155108
 11
74.4132273594
 21
37.3126985937
  0
LINE
  5
223
100
AcDbEntity
  8
RUNDUNGEN
100
AcDbLine
 62
7
  6
CONTINUOUS
 10
47.7260559568
 20
61.6797723338
 11
51.2527674706
 21
56.8256703676
  0
LINE
  5
224
100
AcDbEntity
  8
RUNDUNGEN
100
AcDbLine
 62
7
  6
CONTINUOUS
 10
36.3250931432
 20
89.7365171629
 11
37.2795346744
 21
86.7990481751
  0
LINE
  5
225
100
AcDbEntity
  8
RUNDUNGEN
100
AcDbLine
 62
7
  6
CONTINUOUS
 10
40.8260361607
 20
75.8840389361
 11
41.780478133
 21
72.9465685908
  0
LINE
  5
226
100
AcDbEntity
  8
RUNDUNGEN
100
AcDbLine
 62
7
  6
CONTINUOUS
 10
38.9702958676
 20
96.1307856315
 11
38.9499068741
 21
96.5162658396
  0
LINE
  5
227
100
AcDbEntity
  8
RUNDUNGEN
100
AcDbLine
 62
7
  6
CONTINUOUS
 10
38.970295815
 20
114.5617566005
 11
38.9499068242
 21
114.1762764332
  0
LINE
  5
228
100
AcDbEntity
  8
RUNDUNGEN
100
AcDbLine
 62
7
  6
CONTINUOUS
 10
38.9162076374
 20
95.7485178737
 11
38.9702958676
 21
96.1307856315
  0
LWPOLYLINE
  5
229
100
AcDbEntity
  8
RUNDUNGEN
100
AcDbPolyline
 62
7
  6
CONTINUOUS
 90
3
 70
0
 10
46.4414775688
 20
124.5844770818
 10
46.4385997694
 20
124.5649041819
 10
46.313233268
 20
123.7782990059
  0
LINE
  5
22A
100
AcDbEntity
  8
RUNDUNGEN
100
AcDbLine
 62
7
  6
CONTINUOUS
 10
46.313233268
 20
123.7782990059
 11
46.2830931284
 21
123.5844770818
  0
LINE
  5
22B
100
AcDbEntity
  8
RUNDUNGEN
100
AcDbLine
 62
7
  6
CONTINUOUS
 10
48.0329188923
 20
142.0462221279
 11
48.1052412662
 21
142.4253130374
  0
LINE
  5
22C
100
AcDbEntity
  8
RUNDUNGEN
100
AcDbLine
 62
7
  6
CONTINUOUS
 10
38.9499068242
 20
114.1762764332
 11
38.8558008546
 21
113.8019572024
  0
LINE
  5
22D
100
AcDbEntity
  8
RUNDUNGEN
100
AcDbLine
 62
7
  6
CONTINUOUS
 10
47.8890328938
 20
141.6880773991
 11
48.0329188923
 21
142.0462221279
  0
LINE
  5
22E
100
AcDbEntity
  8
RUNDUNGEN
100
AcDbLine
 62
7
  6
CONTINUOUS
 10
38.8558008546
 20
113.8019572024
 11
38.6914868412
 21
113.4527561947
  0
LWPOLYLINE
  5
22F
100
AcDbEntity
  8
RUNDUNGEN
100
AcDbPolyline
 62
7
  6
CONTINUOUS
 90
3
 70
0
 10
47.8320540434
 20
128.8642314051
 10
47.840839352
 20
128.8819570503
 10
48.2031443474
 20
129.5913226492
  0
LINE
  5
230
100
AcDbEntity
  8
RUNDUNGEN
100
AcDbLine
 62
7
  6
CONTINUOUS
 10
48.2031443474
 20
129.5913226492
 11
48.2917035919
 21
129.7663444377
  0
LINE
  5
231
100
AcDbEntity
  8
RUNDUNGEN
100
AcDbLine
 62
7
  6
CONTINUOUS
 10
58.6933342949
 20
156.616255164
 11
58.512401233
 21
156.2752017776
  0
LINE
  5
232
100
AcDbEntity
  8
RUNDUNGEN
100
AcDbLine
 62
7
  6
CONTINUOUS
 10
47.6789483545
 20
141.3642330101
 11
47.8890328938
 21
141.6880773991
  0
LINE
  5
233
100
AcDbEntity
  8
RUNDUNGEN
100
AcDbLine
 62
7
  6
CONTINUOUS
 10
58.512401233
 20
156.2752017776
 11
58.2693266356
 21
155.9753261194
  0
LINE
  5
234
100
AcDbEntity
  8
RUNDUNGEN
100
AcDbLine
 62
7
  6
CONTINUOUS
 10
47.4104987065
 20
141.0867641618
 11
47.6789483545
 21
141.3642330101
  0
LWPOLYLINE
  5
235
100
AcDbEntity
  8
RUNDUNGEN
100
AcDbPolyline
 62
7
  6
CONTINUOUS
 90
3
 70
0
 10
70.4479215266
 20
159.9923025248
 10
70.4340886761
 20
159.9781592442
 10
69.8703101241
 20
159.4154708696
  0
LINE
  5
236
100
AcDbEntity
  8
RUNDUNGEN
100
AcDbLine
 62
7
  6
CONTINUOUS
 10
69.8703101241
 20
159.4154708696
 11
69.7320005705
 21
159.2763815686
  0
LINE
  5
237
100
AcDbEntity
  8
RUNDUNGEN
100
AcDbLine
 62
7
  6
CONTINUOUS
 10
81.9991808792
 20
173.1837252717
 11
82.2805149627
 21
173.4479062148
  0
LINE
  5
238
100
AcDbEntity
  8
RUNDUNGEN
100
AcDbLine
 62
7
  6
CONTINUOUS
 10
58.2693266356
 20
155.9753261194
 11
57.9731739834
 21
155.7278096014
  0
LINE
  5
239
100
AcDbEntity
  8
RUNDUNGEN
100
AcDbLine
 62
7
  6
CONTINUOUS
 10
81.6722624592
 20
172.9785541969
 11
81.9991808792
 21
173.1837252717
  0
LINE
  5
23A
100
AcDbEntity
  8
RUNDUNGEN
100
AcDbLine
 62
7
  6
CONTINUOUS
 10
57.9731739834
 20
155.7278096014
 11
57.6349859517
 21
155.5418814055
  0
LWPOLYLINE
  5
23B
100
AcDbEntity
  8
RUNDUNGEN
100
AcDbPolyline
 62
7
  6
CONTINUOUS
 90
3
 70
0
 10
74.0884980013
 20
162.6373361601
 10
74.1060243381
 20
162.6465126334
 10
74.816089874
 20
163.0074439251
  0
LINE
  5
23C
100
AcDbEntity
  8
RUNDUNGEN
100
AcDbLine
 62
7
  6
CONTINUOUS
 10
74.816089874
 20
163.0074439251
 11
74.9906110339
 21
163.0969857085
  0
LINE
  5
23D
100
AcDbEntity
  8
RUNDUNGEN
100
AcDbLine
 62
7
  6
CONTINUOUS
 10
99.1876885838
 20
178.7050946632
 11
98.840844539
 21
178.535526467
  0
LINE
  5
23E
100
AcDbEntity
  8
RUNDUNGEN
100
AcDbLine
 62
7
  6
CONTINUOUS
 10
81.311949528
 20
172.8400432158
 11
81.6722624592
 21
172.9785541969
  0
LINE
  5
23F
100
AcDbEntity
  8
RUNDUNGEN
100
AcDbLine
 62
7
  6
CONTINUOUS
 10
127.0226360278
 20
32.1570157946
 11
127.3955499987
 21
32.2567446351
  0
LINE
  5
240
100
AcDbEntity
  8
RUNDUNGEN
100
AcDbLine
 62
7
  6
CONTINUOUS
 10
144.9318034788
 20
37.9191853667
 11
144.5515310543
 21
37.852499097
  0
LWPOLYLINE
  5
241
100
AcDbEntity
  8
RUNDUNGEN
100
AcDbPolyline
 62
7
  6
CONTINUOUS
 90
3
 70
0
 10
115.1817402742
 20
36.1653409277
 10
115.2012444972
 20
36.1686523365
 10
115.988090855
 20
36.2924960757
  0
LINE
  5
242
100
AcDbEntity
  8
RUNDUNGEN
100
AcDbLine
 62
7
  6
CONTINUOUS
 10
115.988090855
 20
36.2924960757
 11
116.1817402742
 21
36.323725368
  0
LINE
  5
243
100
AcDbEntity
  8
RUNDUNGEN
100
AcDbLine
 62
7
  6
CONTINUOUS
 10
98.0828514477
 20
32.282915598
 11
97.6999657254
 21
32.2345527295
  0
LINE
  5
244
100
AcDbEntity
  8
RUNDUNGEN
100
AcDbLine
 62
7
  6
CONTINUOUS
 10
127.3955499987
 20
32.2567446351
 11
127.7806290862
 21
32.2829155431
  0
LINE
  5
245
100
AcDbEntity
  8
RUNDUNGEN
100
AcDbLine
 62
7
  6
CONTINUOUS
 10
98.4679305446
 20
32.2567446892
 11
98.0828514477
 21
32.282915598
  0
LINE
  5
246
100
AcDbEntity
  8
RUNDUNGEN
100
AcDbLine
 62
7
  6
CONTINUOUS
 10
127.7806290862
 20
32.2829155431
 11
128.1635148026
 21
32.2345526758
  0
LWPOLYLINE
  5
247
100
AcDbEntity
  8
RUNDUNGEN
100
AcDbPolyline
 62
7
  6
CONTINUOUS
 90
3
 70
0
 10
110.6817402742
 20
36.1653409277
 10
110.6621673743
 20
36.1682187271
 10
109.8755621983
 20
36.2935852285
  0
LINE
  5
248
100
AcDbEntity
  8
RUNDUNGEN
100
AcDbLine
 62
7
  6
CONTINUOUS
 10
109.8755621983
 20
36.2935852285
 11
109.6817402742
 21
36.323725368
  0
LINE
  5
249
100
AcDbEntity
  8
RUNDUNGEN
100
AcDbLine
 62
7
  6
CONTINUOUS
 10
80.9316770597
 20
37.9191853163
 11
81.3119494949
 21
37.8524990417
  0
LINE
  5
24A
100
AcDbEntity
  8
RUNDUNGEN
100
AcDbLine
 62
7
  6
CONTINUOUS
 10
98.8408445539
 20
32.1570158389
 11
98.4679305446
 21
32.2567446892
  0
LINE
  5
24B
100
AcDbEntity
  8
RUNDUNGEN
100
AcDbLine
 62
7
  6
CONTINUOUS
 10
81.3119494949
 20
37.8524990417
 11
81.6722623765
 21
37.713988036
  0
LINE
  5
24C
100
AcDbEntity
  8
RUNDUNGEN
100
AcDbLine
 62
7
  6
CONTINUOUS
 10
99.1876886136
 20
31.9874476414
 11
98.8408445539
 21
32.1570158389
  0
LWPOLYLINE
  5
24D
100
AcDbEntity
  8
RUNDUNGEN
100
AcDbPolyline
 62
7
  6
CONTINUOUS
 90
3
 70
0
 10
74.0884980013
 20
48.0552060912
 10
74.1062236465
 20
48.0464207826
 10
74.8155892454
 20
47.6841157872
  0
LINE
  5
24E
100
AcDbEntity
  8
RUNDUNGEN
100
AcDbLine
 62
7
  6
CONTINUOUS
 10
74.8155892454
 20
47.6841157872
 11
74.9906110339
 21
47.5955565427
  0
LINE
  5
24F
100
AcDbEntity
  8
RUNDUNGEN
100
AcDbLine
 62
7
  6
CONTINUOUS
 10
57.9731740039
 20
54.9647327029
 11
57.6349859668
 21
55.1506609013
  0
LINE
  5
250
100
AcDbEntity
  8
RUNDUNGEN
100
AcDbLine
 62
7
  6
CONTINUOUS
 10
81.6722623765
 20
37.713988036
 11
81.9991807763
 21
37.5088169367
  0
LINE
  5
251
100
AcDbEntity
  8
RUNDUNGEN
100
AcDbLine
 62
7
  6
CONTINUOUS
 10
58.2693266632
 20
54.7172161788
 11
57.9731740039
 21
54.9647327029
  0
LINE
  5
252
100
AcDbEntity
  8
RUNDUNGEN
100
AcDbLine
 62
7
  6
CONTINUOUS
 10
81.9991807763
 20
37.5088169367
 11
82.2805148476
 21
37.2446359777
  0
LWPOLYLINE
  5
253
100
AcDbEntity
  8
RUNDUNGEN
100
AcDbPolyline
 62
7
  6
CONTINUOUS
 90
3
 70
0
 10
70.4479215266
 20
50.7002397265
 10
70.433778246
 20
50.714072577
 10
69.8710898714
 20
51.277851129
  0
LINE
  5
254
100
AcDbEntity
  8
RUNDUNGEN
100
AcDbLine
 62
7
  6
CONTINUOUS
 10
69.8710898714
 20
51.277851129
 11
69.7320005705
 21
51.4161606826
  0
LINE
  5
255
100
AcDbEntity
  8
RUNDUNGEN
100
AcDbLine
 62
7
  6
CONTINUOUS
 10
47.4104986688
 20
69.6057780547
 11
47.6789483227
 21
69.3283091959
  0
LINE
  5
256
100
AcDbEntity
  8
RUNDUNGEN
100
AcDbLine
 62
7
  6
CONTINUOUS
 10
58.5124012867
 20
54.417340489
 11
58.2693266632
 21
54.7172161788
  0
LINE
  5
257
100
AcDbEntity
  8
RUNDUNGEN
100
AcDbLine
 62
7
  6
CONTINUOUS
 10
47.6789483227
 20
69.3283091959
 11
47.8890328407
 21
69.0044648404
  0
LINE
  5
258
100
AcDbEntity
  8
RUNDUNGEN
100
AcDbLine
 62
7
  6
CONTINUOUS
 10
58.6933343396
 20
54.0762871124
 11
58.5124012867
 21
54.417340489
  0
LWPOLYLINE
  5
259
100
AcDbEntity
  8
RUNDUNGEN
100
AcDbPolyline
 62
7
  6
CONTINUOUS
 90
3
 70
0
 10
47.8320540434
 20
81.8283108461
 10
47.8412305168
 20
81.8107845094
 10
48.2021618084
 20
81.1007189735
  0
LINE
  5
25A
100
AcDbEntity
  8
RUNDUNGEN
100
AcDbLine
 62
7
  6
CONTINUOUS
 10
48.2021618084
 20
81.1007189735
 11
48.2917035919
 21
80.9261978135
  0
LINE
  5
25B
100
AcDbEntity
  8
RUNDUNGEN
100
AcDbLine
 62
7
  6
CONTINUOUS
 10
38.8558009023
 20
96.8905850796
 11
38.6914868859
 21
97.2397860925
  0
LINE
  5
25C
100
AcDbEntity
  8
RUNDUNGEN
100
AcDbLine
 62
7
  6
CONTINUOUS
 10
47.8890328407
 20
69.0044648404
 11
48.0329188355
 21
68.6463201202
  0
LINE
  5
25D
100
AcDbEntity
  8
RUNDUNGEN
100
AcDbLine
 62
7
  6
CONTINUOUS
 10
38.9499068741
 20
96.5162658396
 11
38.8558009023
 21
96.8905850796
  0
LINE
  5
25E
100
AcDbEntity
  8
RUNDUNGEN
100
AcDbLine
 62
7
  6
CONTINUOUS
 10
48.0329188355
 20
68.6463201202
 11
48.1052412087
 21
68.2672292167
  0
LWPOLYLINE
  5
25F
100
AcDbEntity
  8
RUNDUNGEN
100
AcDbPolyline
 62
7
  6
CONTINUOUS
 90
3
 70
0
 10
46.4414775688
 20
86.1080651695
 10
46.4381661599
 20
86.1275693924
 10
46.3143224207
 20
86.9144157503
  0
LINE
  5
260
100
AcDbEntity
  8
RUNDUNGEN
100
AcDbLine
 62
7
  6
CONTINUOUS
 10
46.3143224207
 20
86.9144157503
 11
46.2830931284
 21
87.1080651695
  0
LINE
  5
261
100
AcDbEntity
  8
RUNDUNGEN
100
AcDbLine
 62
7
  6
CONTINUOUS
 10
38.9162075861
 20
114.9440243715
 11
38.970295815
 21
114.5617566005
  0
LINE
  5
262
100
AcDbEntity
  8
RUNDUNGEN
100
AcDbLine
 62
7
  6
CONTINUOUS
 10
47.540249557
 20
148.3233656987
 11
48.1033032596
 21
142.8112156029
  0
LINE
  5
263
100
AcDbEntity
  8
RUNDUNGEN
100
AcDbLine
 62
7
  6
CONTINUOUS
 10
48.1052412662
 20
142.4253130374
 11
48.1033033276
 21
142.8112149471
  0
LINE
  5
264
100
AcDbEntity
  8
RUNDUNGEN
100
AcDbLine
 62
7
  6
CONTINUOUS
 10
48.1052412087
 20
68.2672292167
 11
48.1033032727
 21
67.8813273098
  0
LINE
  5
265
100
AcDbEntity
  8
RUNDUNGEN
100
AcDbLine
 62
7
  6
CONTINUOUS
 10
48.1033032507
 20
67.881326562
 11
47.540249557
 21
62.3691765526
  0
LINE
  5
266
100
AcDbEntity
  8
RUNDUNGEN
100
AcDbLine
 62
7
  6
CONTINUOUS
 10
58.8018731976
 20
156.9845122751
 11
59.6452757491
 21
161.1815497976
  0
LINE
  5
267
100
AcDbEntity
  8
RUNDUNGEN
100
AcDbLine
 62
7
  6
CONTINUOUS
 10
58.8053793089
 20
156.98576934
 11
58.6933342949
 21
156.616255164
  0
LINE
  5
268
100
AcDbEntity
  8
RUNDUNGEN
100
AcDbLine
 62
7
  6
CONTINUOUS
 10
38.7896589739
 20
95.3837162018
 11
38.9162076374
 21
95.7485178737
  0
LINE
  5
269
100
AcDbEntity
  8
RUNDUNGEN
100
AcDbLine
 62
7
  6
CONTINUOUS
 10
37.0029522712
 20
91.4956249866
 11
38.7875613201
 21
95.3867940874
  0
LINE
  5
26A
100
AcDbEntity
  8
RUNDUNGEN
100
AcDbLine
 62
7
  6
CONTINUOUS
 10
85.2902153729
 20
178.5516248731
 11
82.5057748883
 21
173.7612471694
  0
LINE
  5
26B
100
AcDbEntity
  8
RUNDUNGEN
100
AcDbLine
 62
7
  6
CONTINUOUS
 10
82.2805149627
 20
173.4479062148
 11
82.5057745904
 21
173.761246497
  0
LINE
  5
26C
100
AcDbEntity
  8
RUNDUNGEN
100
AcDbLine
 62
7
  6
CONTINUOUS
 10
38.6914868412
 20
113.4527561947
 11
38.4630915683
 21
113.1416940841
  0
LINE
  5
26D
100
AcDbEntity
  8
RUNDUNGEN
100
AcDbLine
 62
7
  6
CONTINUOUS
 10
38.4630911107
 20
113.1416934916
 11
34.76761062
 21
109.0132251162
  0
LINE
  5
26E
100
AcDbEntity
  8
0
100
AcDbLine
 62
7
  6
CONTINUOUS
 10
88.7660262719
 20
167.6312194642
 11
88.6500829953
 21
167.5166271548
  0
LINE
  5
26F
100
AcDbEntity
  8
0
100
AcDbLine
 62
7
  6
CONTINUOUS
 10
90.151179771
 20
168.3532490981
 11
90.0321517822
 21
168.2418642757
  0
LINE
  5
270
100
AcDbEntity
  8
RUNDUNGEN
100
AcDbLine
 62
7
  6
CONTINUOUS
 10
102.6412185815
 20
181.8389403285
 11
99.4919476162
 21
178.9392170057
  0
LINE
  5
271
100
AcDbEntity
  8
RUNDUNGEN
100
AcDbLine
 62
7
  6
CONTINUOUS
 10
99.4955298873
 20
178.9381795069
 11
99.1876885838
 21
178.7050946632
  0
LINE
  5
272
100
AcDbEntity
  8
0
100
AcDbLine
 62
7
  6
CONTINUOUS
 10
91.3577927301
 20
168.8439487609
 11
91.1885870834
 21
168.7196764243
  0
LINE
  5
273
100
AcDbEntity
  8
0
100
AcDbLine
 62
7
  6
CONTINUOUS
 10
91.3647812293
 20
168.5095729828
 11
91.5339871471
 21
168.6338454105
  0
LINE
  5
274
100
AcDbEntity
  8
0
100
AcDbLine
 62
7
  6
CONTINUOUS
 10
92.3812394351
 20
167.3699477708
 11
92.2120335245
 21
167.2456753219
  0
LINE
  5
275
100
AcDbEntity
  8
0
100
AcDbLine
 62
7
  6
CONTINUOUS
 10
92.3882279487
 20
167.0355719504
 11
92.5574335935
 21
167.1598442922
  0
LINE
  5
276
100
AcDbEntity
  8
0
100
AcDbLine
 62
7
  6
CONTINUOUS
 10
88.744662677
 20
167.1421577347
 11
88.953575327
 21
167.2935835226
  0
LINE
  5
277
100
AcDbEntity
  8
RUNDUNGEN
100
AcDbLine
 62
7
  6
CONTINUOUS
 10
47.0936936443
 20
140.8660168479
 11
47.4104987065
 21
141.0867641618
  0
LINE
  5
278
100
AcDbEntity
  8
0
100
AcDbLine
 62
7
  6
CONTINUOUS
 10
90.3641477651
 20
168.4989159322
 11
90.151179771
 21
168.3532490981
  0
LINE
  5
279
100
AcDbEntity
  8
0
100
AcDbLine
 62
7
  6
CONTINUOUS
 10
94.700212258
 20
169.8827853166
 11
94.5250977972
 21
169.7669876909
  0
LINE
  5
27A
100
AcDbEntity
  8
0
100
AcDbLine
 62
7
  6
CONTINUOUS
 10
94.5945087558
 20
169.5212846769
 11
94.7696232165
 21
169.6370823025
  0
LINE
  5
27B
100
AcDbEntity
  8
0
100
AcDbLine
 62
7
  6
CONTINUOUS
 10
90.2136204013
 20
168.0362992654
 11
90.4735585324
 21
168.1991071546
  0
LINE
  5
27C
100
AcDbEntity
  8
RUNDUNGEN
100
AcDbLine
 62
7
  6
CONTINUOUS
 10
43.3628548823
 20
138.7706848287
 11
47.0938056793
 21
140.8697398435
  0
LINE
  5
27D
100
AcDbEntity
  8
RUNDUNGEN
100
AcDbLine
 62
7
  6
CONTINUOUS
 10
133.5983042003
 20
180.8179270745
 11
128.5299310952
 21
178.5790831263
  0
LINE
  5
27E
100
AcDbEntity
  8
0
100
AcDbLine
 62
7
  6
CONTINUOUS
 10
88.1333839696
 20
168.6850529657
 11
87.0177520205
 21
168.2430514337
  0
LINE
  5
27F
100
AcDbEntity
  8
0
100
AcDbLine
 62
7
  6
CONTINUOUS
 10
87.4142135927
 20
168.0568412273
 11
88.2974221747
 21
168.4067590892
  0
LINE
  5
280
100
AcDbEntity
  8
0
100
AcDbLine
 62
7
  6
CONTINUOUS
 10
88.6500829953
 20
167.5166271548
 11
87.7668744133
 21
167.1667092929
  0
LINE
  5
281
100
AcDbEntity
  8
0
100
AcDbLine
 62
7
  6
CONTINUOUS
 10
87.9079387152
 20
166.8106565857
 11
88.744662677
 21
167.1421577347
  0
LINE
  5
282
100
AcDbEntity
  8
0
100
AcDbLine
 62
7
  6
CONTINUOUS
 10
88.1227558504
 20
165.4539715611
 11
88.4016638377
 21
165.5644719441
  0
LINE
  5
283
100
AcDbEntity
  8
0
100
AcDbLine
 62
7
  6
CONTINUOUS
 10
89.7535370589
 20
168.2760826101
 11
89.5186869113
 21
168.1903775315
  0
LINE
  5
284
100
AcDbEntity
  8
0
100
AcDbLine
 62
7
  6
CONTINUOUS
 10
90.2189158837
 20
166.2716011865
 11
90.4537660313
 21
166.3573062651
  0
LINE
  5
285
100
AcDbEntity
  8
0
100
AcDbLine
 62
7
  6
CONTINUOUS
 10
91.7369118201
 20
168.9714982342
 11
91.3577927301
 21
168.8439487609
  0
LINE
  5
286
100
AcDbEntity
  8
0
100
AcDbLine
 62
7
  6
CONTINUOUS
 10
91.5339871471
 20
168.6338454105
 11
91.7235464209
 21
168.697620056
  0
LINE
  5
287
100
AcDbEntity
  8
0
100
AcDbLine
 62
7
  6
CONTINUOUS
 10
92.2120335245
 20
167.2456753219
 11
92.0224742506
 21
167.1819006764
  0
LINE
  5
288
100
AcDbEntity
  8
0
100
AcDbLine
 62
7
  6
CONTINUOUS
 10
92.0091088586
 20
166.908022477
 11
92.3882279487
 21
167.0355719504
  0
LINE
  5
289
100
AcDbEntity
  8
RUNDUNGEN
100
AcDbLine
 62
7
  6
CONTINUOUS
 10
128.163514823
 20
178.4579895219
 11
128.5299304929
 21
178.5790828593
  0
LINE
  5
28A
100
AcDbEntity
  8
RUNDUNGEN
100
AcDbLine
 62
7
  6
CONTINUOUS
 10
57.6349859517
 20
155.5418814055
 11
57.2673725733
 21
155.4244742449
  0
LINE
  5
28B
100
AcDbEntity
  8
0
100
AcDbLine
 62
7
  6
CONTINUOUS
 10
92.6794980855
 20
170.2812112329
 11
92.4409733605
 21
170.2063376665
  0
LINE
  5
28C
100
AcDbEntity
  8
0
100
AcDbLine
 62
7
  6
CONTINUOUS
 10
93.3394554712
 20
167.3440431504
 11
93.5779801962
 21
167.4189167168
  0
LINE
  5
28D
100
AcDbEntity
  8
0
100
AcDbLine
 62
7
  6
CONTINUOUS
 10
93.3296513952
 20
170.4804240101
 11
93.0903900933
 21
170.4079386681
  0
LINE
  5
28E
100
AcDbEntity
  8
0
100
AcDbLine
 62
7
  6
CONTINUOUS
 10
93.1829244909
 20
170.1024989777
 11
93.4221857928
 21
170.1749843198
  0
LINE
  5
28F
100
AcDbEntity
  8
0
100
AcDbLine
 62
7
  6
CONTINUOUS
 10
93.6072546398
 20
169.564104768
 11
93.367993338
 21
169.4916194259
  0
LINE
  5
290
100
AcDbEntity
  8
0
100
AcDbLine
 62
7
  6
CONTINUOUS
 10
93.9602135344
 20
167.5368052366
 11
94.1994748362
 21
167.6092905786
  0
LINE
  5
291
100
AcDbEntity
  8
RUNDUNGEN
100
AcDbLine
 62
7
  6
CONTINUOUS
 10
168.5961086931
 20
55.2680682167
 11
174.0124680385
 21
56.4359203607
  0
LINE
  5
292
100
AcDbEntity
  8
RUNDUNGEN
100
AcDbLine
 62
7
  6
CONTINUOUS
 10
80.5479033924
 20
37.9086142442
 11
76.295707891
 21
37.4137876468
  0
LINE
  5
293
100
AcDbEntity
  8
RUNDUNGEN
100
AcDbLine
 62
7
  6
CONTINUOUS
 10
80.5456243813
 20
37.911560297
 11
80.9316770597
 21
37.9191853163
  0
LINE
  5
294
100
AcDbEntity
  8
RUNDUNGEN
100
AcDbLine
 62
7
  6
CONTINUOUS
 10
145.3178561736
 20
37.9115603516
 11
144.9318034788
 21
37.9191853667
  0
LINE
  5
295
100
AcDbEntity
  8
RUNDUNGEN
100
AcDbLine
 62
7
  6
CONTINUOUS
 10
149.567766698
 20
37.4137883403
 11
145.3155772135
 21
37.9086142375
  0
LINE
  5
296
100
AcDbEntity
  8
RUNDUNGEN
100
AcDbLine
 62
7
  6
CONTINUOUS
 10
51.8510125099
 20
56.4359203607
 11
57.2673719402
 21
55.2680681984
  0
LINE
  5
297
100
AcDbEntity
  8
RUNDUNGEN
100
AcDbLine
 62
7
  6
CONTINUOUS
 10
57.6349859668
 20
55.1506609013
 11
57.267372585
 21
55.2680680604
  0
LINE
  5
298
100
AcDbEntity
  8
RUNDUNGEN
100
AcDbLine
 62
7
  6
CONTINUOUS
 10
128.1635148026
 20
32.2345526758
 11
128.5299304706
 21
32.1134593417
  0
LINE
  5
299
100
AcDbEntity
  8
RUNDUNGEN
100
AcDbLine
 62
7
  6
CONTINUOUS
 10
128.5299311751
 20
32.1134590897
 11
133.5983042003
 21
29.8746151768
  0
LINE
  5
29A
100
AcDbEntity
  8
RUNDUNGEN
100
AcDbLine
 62
7
  6
CONTINUOUS
 10
47.0938057297
 20
69.8228023795
 11
43.3628555293
 21
71.9218570585
  0
LINE
  5
29B
100
AcDbEntity
  8
RUNDUNGEN
100
AcDbLine
 62
7
  6
CONTINUOUS
 10
47.0936936173
 20
69.8265253554
 11
47.4104986688
 21
69.6057780547
  0
LINE
  5
29C
100
AcDbEntity
  8
RUNDUNGEN
100
AcDbLine
 62
7
  6
CONTINUOUS
 10
99.495529933
 20
31.754362794
 11
99.1876886136
 21
31.9874476414
  0
LINE
  5
29D
100
AcDbEntity
  8
RUNDUNGEN
100
AcDbLine
 62
7
  6
CONTINUOUS
 10
102.6411967246
 20
28.8536220478
 11
99.4919545331
 21
31.7533188768
  0
LINE
  5
29E
100
AcDbEntity
  8
RUNDUNGEN
100
AcDbLine
 62
7
  6
CONTINUOUS
 10
34.76761062
 20
101.6793171351
 11
38.4630911692
 21
97.5508486943
  0
LINE
  5
29F
100
AcDbEntity
  8
RUNDUNGEN
100
AcDbLine
 62
7
  6
CONTINUOUS
 10
38.6914868859
 20
97.2397860925
 11
38.4630916093
 21
97.5508482039
  0
LINE
  5
2A0
100
AcDbEntity
  8
RUNDUNGEN
100
AcDbLine
 62
7
  6
CONTINUOUS
 10
82.2805148476
 20
37.2446359777
 11
82.5057744741
 21
36.9312956866
  0
LINE
  5
2A1
100
AcDbEntity
  8
RUNDUNGEN
100
AcDbLine
 62
7
  6
CONTINUOUS
 10
82.5057748959
 20
36.9312950688
 11
85.2902153729
 21
32.1409173781
  0
LINE
  5
2A2
100
AcDbEntity
  8
RUNDUNGEN
100
AcDbLine
 62
7
  6
CONTINUOUS
 10
38.787561304
 20
115.305748199
 11
37.0029315422
 21
119.1969624623
  0
LINE
  5
2A3
100
AcDbEntity
  8
RUNDUNGEN
100
AcDbLine
 62
7
  6
CONTINUOUS
 10
38.7896589235
 20
115.3088260263
 11
38.9162075861
 21
114.9440243715
  0
LINE
  5
2A4
100
AcDbEntity
  8
RUNDUNGEN
100
AcDbLine
 62
7
  6
CONTINUOUS
 10
58.8053793628
 20
53.7067729221
 11
58.6933343396
 21
54.0762871124
  0
LINE
  5
2A5
100
AcDbEntity
  8
RUNDUNGEN
100
AcDbLine
 62
7
  6
CONTINUOUS
 10
59.6452659527
 20
49.5110412035
 11
58.8018732044
 21
53.7080299427
  0
LINE
  5
2A6
100
AcDbEntity
  8
0
100
AcDbLine
 62
7
  6
CONTINUOUS
 10
90.069504429
 20
167.8478116326
 11
90.2136204013
 21
168.0362992654
  0
LINE
  5
2A7
100
AcDbEntity
  8
0
100
AcDbLine
 62
7
  6
CONTINUOUS
 10
91.1885870834
 20
168.7196764243
 11
91.1141608026
 21
168.6272913193
  0
LINE
  5
2A8
100
AcDbEntity
  8
0
100
AcDbLine
 62
7
  6
CONTINUOUS
 10
92.5574335935
 20
167.1598442922
 11
92.6318596014
 21
167.2522293113
  0
LINE
  5
2A9
100
AcDbEntity
  8
0
100
AcDbLine
 62
7
  6
CONTINUOUS
 10
128.6218741081
 20
170.9643536598
 11
128.4897940067
 21
170.9096359436
  0
LINE
  5
2AA
100
AcDbEntity
  8
0
100
AcDbLine
 62
7
  6
CONTINUOUS
 10
88.953575327
 20
167.2935835226
 11
89.0689817899
 21
167.5452767806
  0
LINE
  5
2AB
100
AcDbEntity
  8
0
100
AcDbLine
 62
7
  6
CONTINUOUS
 10
90.0321517822
 20
168.2418642757
 11
89.9350059468
 21
168.0705176979
  0
LINE
  5
2AC
100
AcDbEntity
  8
0
100
AcDbLine
 62
7
  6
CONTINUOUS
 10
94.5250977972
 20
169.7669876909
 11
94.4154527385
 21
169.6033572409
  0
LINE
  5
2AD
100
AcDbEntity
  8
0
100
AcDbLine
 62
7
  6
CONTINUOUS
 10
94.4848636971
 20
169.3576542269
 11
94.5945087558
 21
169.5212846769
  0
LINE
  5
2AE
100
AcDbEntity
  8
0
100
AcDbLine
 62
7
  6
CONTINUOUS
 10
128.4864568493
 20
170.6503782851
 11
128.5904725206
 21
170.7118891611
  0
LINE
  5
2AF
100
AcDbEntity
  8
0
100
AcDbLine
 62
7
  6
CONTINUOUS
 10
128.7322632073
 20
169.3338962871
 11
128.6282475291
 21
169.2723853824
  0
LINE
  5
2B0
100
AcDbEntity
  8
0
100
AcDbLine
 62
7
  6
CONTINUOUS
 10
131.3010471109
 20
168.600372309
 11
131.1946113906
 21
168.543150939
  0
LINE
  5
2B1
100
AcDbEntity
  8
0
100
AcDbLine
 62
7
  6
CONTINUOUS
 10
132.4099851884
 20
169.63331958
 11
132.5175099355
 21
169.6884668307
  0
LINE
  5
2B2
100
AcDbEntity
  8
0
100
AcDbLine
 62
7
  6
CONTINUOUS
 10
132.4686867009
 20
168.2492953691
 11
132.3611616379
 21
168.1941482153
  0
LINE
  5
2B3
100
AcDbEntity
  8
0
100
AcDbLine
 62
7
  6
CONTINUOUS
 10
131.0442833787
 20
169.5937869388
 11
130.8707474821
 21
169.5119204711
  0
LINE
  5
2B4
100
AcDbEntity
  8
0
100
AcDbLine
 62
7
  6
CONTINUOUS
 10
131.164519552
 20
168.3326830475
 11
131.3380554516
 21
168.4145495258
  0
LINE
  5
2B5
100
AcDbEntity
  8
0
100
AcDbLine
 62
7
  6
CONTINUOUS
 10
134.8315766879
 20
168.849214277
 11
134.9411138573
 21
168.9002481508
  0
LINE
  5
2B6
100
AcDbEntity
  8
0
100
AcDbLine
 62
7
  6
CONTINUOUS
 10
134.8378006844
 20
167.4639598454
 11
134.7282635151
 21
167.4129259716
  0
LINE
  5
2B7
100
AcDbEntity
  8
0
100
AcDbLine
 62
7
  6
CONTINUOUS
 10
132.5516767532
 20
169.898311656
 11
132.3765863322
 21
169.8198249029
  0
LINE
  5
2B8
100
AcDbEntity
  8
0
100
AcDbLine
 62
7
  6
CONTINUOUS
 10
132.3269954446
 20
167.9843031715
 11
132.5020855529
 21
168.0627900321
  0
LINE
  5
2B9
100
AcDbEntity
  8
0
100
AcDbLine
 62
7
  6
CONTINUOUS
 10
137.3720902833
 20
167.870225823
 11
137.483616
 21
167.9167539033
  0
LINE
  5
2BA
100
AcDbEntity
  8
0
100
AcDbLine
 62
7
  6
CONTINUOUS
 10
137.4333886526
 20
166.5323963934
 11
137.3218629251
 21
166.4858682857
  0
LINE
  5
2BB
100
AcDbEntity
  8
0
100
AcDbLine
 62
7
  6
CONTINUOUS
 10
128.5968457749
 20
169.0199208975
 11
128.7289260396
 21
169.0746385855
  0
LINE
  5
2BC
100
AcDbEntity
  8
0
100
AcDbLine
 62
7
  6
CONTINUOUS
 10
134.9832056903
 20
169.1086480977
 11
134.8052677394
 21
169.0368510493
  0
LINE
  5
2BD
100
AcDbEntity
  8
0
100
AcDbLine
 62
7
  6
CONTINUOUS
 10
134.6861716736
 20
167.2045260003
 11
134.8641096281
 21
167.2763230592
  0
LINE
  5
2BE
100
AcDbEntity
  8
0
100
AcDbLine
 62
7
  6
CONTINUOUS
 10
138.5962377305
 20
167.4234357538
 11
138.7086542936
 21
167.4677681806
  0
LINE
  5
2BF
100
AcDbEntity
  8
0
100
AcDbLine
 62
7
  6
CONTINUOUS
 10
138.4870601991
 20
167.0124743753
 11
138.2622270728
 21
166.9238095217
  0
LINE
  5
2C0
100
AcDbEntity
  8
0
100
AcDbLine
 62
7
  6
CONTINUOUS
 10
138.3200561126
 20
166.7626608039
 11
138.4324726757
 21
166.8069932308
  0
LINE
  5
2C1
100
AcDbEntity
  8
0
100
AcDbLine
 62
7
  6
CONTINUOUS
 10
138.5988012426
 20
166.0069233743
 11
138.4863846795
 21
165.9625909475
  0
LINE
  5
2C2
100
AcDbEntity
  8
0
100
AcDbLine
 62
7
  6
CONTINUOUS
 10
138.763241817
 20
167.6732493251
 11
138.5812970164
 21
167.6123179767
  0
LINE
  5
2C3
100
AcDbEntity
  8
0
100
AcDbLine
 62
7
  6
CONTINUOUS
 10
138.4317959266
 20
165.7571102889
 11
138.613741951
 21
165.8180411378
  0
LINE
  5
2C4
100
AcDbEntity
  8
0
100
AcDbLine
 62
7
  6
CONTINUOUS
 10
88.8119742114
 20
167.7867371785
 11
88.7660262719
 21
167.6312194642
  0
LINE
  5
2C5
100
AcDbEntity
  8
0
100
AcDbLine
 62
7
  6
CONTINUOUS
 10
89.9350059468
 20
168.0705176979
 11
89.8848299797
 21
167.9163120769
  0
LINE
  5
2C6
100
AcDbEntity
  8
0
100
AcDbLine
 62
7
  6
CONTINUOUS
 10
91.1141608026
 20
168.6272913193
 11
91.0600884201
 21
168.4744086144
  0
LINE
  5
2C7
100
AcDbEntity
  8
0
100
AcDbLine
 62
7
  6
CONTINUOUS
 10
91.3107088469
 20
168.3566902779
 11
91.3647812293
 21
168.5095729828
  0
LINE
  5
2C8
100
AcDbEntity
  8
0
100
AcDbLine
 62
7
  6
CONTINUOUS
 10
92.4353118176
 20
167.5228304757
 11
92.3812394351
 21
167.3699477708
  0
LINE
  5
2C9
100
AcDbEntity
  8
0
100
AcDbLine
 62
7
  6
CONTINUOUS
 10
92.6318596014
 20
167.2522293113
 11
92.6859322515
 21
167.405112118
  0
LINE
  5
2CA
100
AcDbEntity
  8
0
100
AcDbLine
 62
7
  6
CONTINUOUS
 10
96.687491563
 20
170.4117355562
 11
96.2920075837
 21
169.3241707251
  0
LINE
  5
2CB
100
AcDbEntity
  8
0
100
AcDbLine
 62
7
  6
CONTINUOUS
 10
94.4154527385
 20
169.6033572409
 11
94.3539243423
 21
169.45331972
  0
LINE
  5
2CC
100
AcDbEntity
  8
0
100
AcDbLine
 62
7
  6
CONTINUOUS
 10
94.4233353008
 20
169.207616706
 11
94.4848636971
 21
169.3576542269
  0
LINE
  5
2CD
100
AcDbEntity
  8
0
100
AcDbLine
 62
7
  6
CONTINUOUS
 10
96.3858824022
 20
168.9528754437
 11
96.5500269093
 21
169.3235676278
  0
LINE
  5
2CE
100
AcDbEntity
  8
0
100
AcDbLine
 62
7
  6
CONTINUOUS
 10
68.3575855299
 20
120.0569349382
 11
98.2210764616
 21
149.92042587
  0
LINE
  5
2CF
100
AcDbEntity
  8
0
100
AcDbLine
 62
7
  6
CONTINUOUS
 10
128.4897940067
 20
170.9096359436
 11
128.3378916852
 21
170.773027833
  0
LINE
  5
2D0
100
AcDbEntity
  8
0
100
AcDbLine
 62
7
  6
CONTINUOUS
 10
132.3765863322
 20
169.8198249029
 11
132.2567069014
 21
169.7244023363
  0
LINE
  5
2D1
100
AcDbEntity
  8
0
100
AcDbLine
 62
7
  6
CONTINUOUS
 10
134.8052677394
 20
169.0368510493
 11
134.6818591999
 21
168.9460387345
  0
LINE
  5
2D2
100
AcDbEntity
  8
0
100
AcDbLine
 62
7
  6
CONTINUOUS
 10
137.4112654127
 20
168.1265283011
 11
137.24192327
 21
168.012250709
  0
LINE
  5
2D3
100
AcDbEntity
  8
0
100
AcDbLine
 62
7
  6
CONTINUOUS
 10
138.2342806807
 20
166.7071932838
 11
138.3200561126
 21
166.7626608039
  0
LINE
  5
2D4
100
AcDbEntity
  8
0
100
AcDbLine
 62
7
  6
CONTINUOUS
 10
130.868420283
 20
169.2935214296
 11
131.0141915472
 21
169.3833190721
  0
LINE
  5
2D5
100
AcDbEntity
  8
0
100
AcDbLine
 62
7
  6
CONTINUOUS
 10
98.2210764617
 20
60.7721163813
 11
68.3575855299
 21
90.635607313
  0
LINE
  5
2D6
100
AcDbEntity
  8
0
100
AcDbLine
 62
7
  6
CONTINUOUS
 10
80.4755390178
 20
94.244694661
 11
80.4755390178
 21
95.0932227984
  0
LINE
  5
2D7
100
AcDbEntity
  8
0
100
AcDbLine
 62
7
  6
CONTINUOUS
 10
80.4755390178
 20
115.5993194528
 11
80.4755390178
 21
116.4478475903
  0
LINE
  5
2D8
100
AcDbEntity
  8
0
100
AcDbLine
 62
7
  6
CONTINUOUS
 10
89.0689817899
 20
167.5452767806
 11
89.1143929156
 21
167.8378954436
  0
LINE
  5
2D9
100
AcDbEntity
  8
0
100
AcDbLine
 62
7
  6
CONTINUOUS
 10
91.0600884201
 20
168.4744086144
 11
91.0263696649
 21
168.2610282185
  0
LINE
  5
2DA
100
AcDbEntity
  8
0
100
AcDbLine
 62
7
  6
CONTINUOUS
 10
91.2769898205
 20
168.1433097907
 11
91.3107088469
 21
168.3566902779
  0
LINE
  5
2DB
100
AcDbEntity
  8
0
100
AcDbLine
 62
7
  6
CONTINUOUS
 10
92.4690305586
 20
167.736210914
 11
92.4353118176
 21
167.5228304757
  0
LINE
  5
2DC
100
AcDbEntity
  8
0
100
AcDbLine
 62
7
  6
CONTINUOUS
 10
90.0161229005
 20
167.5565415437
 11
90.069504429
 21
167.8478116326
  0
LINE
  5
2DD
100
AcDbEntity
  8
0
100
AcDbLine
 62
7
  6
CONTINUOUS
 10
96.6485134807
 20
169.5459829968
 11
96.9783390134
 21
170.4852706993
  0
LINE
  5
2DE
100
AcDbEntity
  8
0
100
AcDbLine
 62
7
  6
CONTINUOUS
 10
80.4755390178
 20
116.4478475903
 11
101.8301638096
 21
137.8024723821
  0
LINE
  5
2DF
100
AcDbEntity
  8
0
100
AcDbLine
 62
7
  6
CONTINUOUS
 10
71.1884165169
 20
106.3121969519
 11
80.4755390178
 21
115.5993194528
  0
LINE
  5
2E0
100
AcDbEntity
  8
0
100
AcDbLine
 62
7
  6
CONTINUOUS
 10
102.678691947
 20
137.8024723821
 11
111.9658144479
 21
147.089594883
  0
LINE
  5
2E1
100
AcDbEntity
  8
0
100
AcDbLine
 62
7
  6
CONTINUOUS
 10
128.7289260396
 20
169.0746385855
 11
128.8808283646
 21
169.2112467105
  0
LINE
  5
2E2
100
AcDbEntity
  8
0
100
AcDbLine
 62
7
  6
CONTINUOUS
 10
134.2596501781
 20
169.3984714502
 11
134.002109427
 21
169.1734146825
  0
LINE
  5
2E3
100
AcDbEntity
  8
0
100
AcDbLine
 62
7
  6
CONTINUOUS
 10
133.895636468
 20
168.8536539871
 11
134.1531772563
 21
169.0787108667
  0
LINE
  5
2E4
100
AcDbEntity
  8
0
100
AcDbLine
 62
7
  6
CONTINUOUS
 10
138.5812970164
 20
167.6123179767
 11
138.4363885036
 21
167.4902473333
  0
LINE
  5
2E5
100
AcDbEntity
  8
0
100
AcDbLine
 62
7
  6
CONTINUOUS
 10
132.5020855529
 20
168.0627900321
 11
132.6219649879
 21
168.1582126128
  0
LINE
  5
2E6
100
AcDbEntity
  8
0
100
AcDbLine
 62
7
  6
CONTINUOUS
 10
134.8641096281
 20
167.2763230592
 11
134.9875181724
 21
167.3671353879
  0
LINE
  5
2E7
100
AcDbEntity
  8
0
100
AcDbLine
 62
7
  6
CONTINUOUS
 10
140.1958739069
 20
167.1057329476
 11
139.9182866046
 21
166.9059253484
  0
LINE
  5
2E8
100
AcDbEntity
  8
0
100
AcDbLine
 62
7
  6
CONTINUOUS
 10
139.7821788942
 20
166.5976104371
 11
140.0597662442
 21
166.7974181443
  0
LINE
  5
2E9
100
AcDbEntity
  8
0
100
AcDbLine
 62
7
  6
CONTINUOUS
 10
137.3942141216
 20
166.2760936313
 11
137.5635556551
 21
166.3903714799
  0
LINE
  5
2EA
100
AcDbEntity
  8
0
100
AcDbLine
 62
7
  6
CONTINUOUS
 10
124.0333167389
 20
72.8900698692
 11
123.1847886014
 21
72.8900698692
  0
LINE
  5
2EB
100
AcDbEntity
  8
0
100
AcDbLine
 62
7
  6
CONTINUOUS
 10
102.678691947
 20
72.8900698692
 11
101.8301638096
 21
72.8900698692
  0
LINE
  5
2EC
100
AcDbEntity
  8
0
100
AcDbLine
 62
7
  6
CONTINUOUS
 10
101.8301638096
 20
72.8900698692
 11
80.4755390178
 21
94.244694661
  0
LINE
  5
2ED
100
AcDbEntity
  8
0
100
AcDbLine
 62
7
  6
CONTINUOUS
 10
111.9658144479
 20
63.6029473683
 11
102.678691947
 21
72.8900698692
  0
LINE
  5
2EE
100
AcDbEntity
  8
0
100
AcDbLine
 62
7
  6
CONTINUOUS
 10
80.4755390178
 20
95.0932227984
 11
71.1884165169
 21
104.3803452993
  0
LINE
  5
2EF
100
AcDbEntity
  8
0
100
AcDbLine
 62
7
  6
CONTINUOUS
 10
92.6859322515
 20
167.405112118
 11
92.7196512707
 21
167.6184926264
  0
LINE
  5
2F0
100
AcDbEntity
  8
0
100
AcDbLine
 62
7
  6
CONTINUOUS
 10
132.2567069014
 20
169.7244023363
 11
132.15207844
 21
169.5802364987
  0
LINE
  5
2F1
100
AcDbEntity
  8
0
100
AcDbLine
 62
7
  6
CONTINUOUS
 10
134.6818591999
 20
168.9460387345
 11
134.571843684
 21
168.8059404545
  0
LINE
  5
2F2
100
AcDbEntity
  8
0
100
AcDbLine
 62
7
  6
CONTINUOUS
 10
128.8181253175
 20
169.4431455786
 11
128.7322632073
 21
169.3338962871
  0
LINE
  5
2F3
100
AcDbEntity
  8
0
100
AcDbLine
 62
7
  6
CONTINUOUS
 10
131.3912897538
 20
168.706032148
 11
131.3010471109
 21
168.600372309
  0
LINE
  5
2F4
100
AcDbEntity
  8
0
100
AcDbLine
 62
7
  6
CONTINUOUS
 10
132.2254369667
 20
169.4255386174
 11
132.4099851884
 21
169.63331958
  0
LINE
  5
2F5
100
AcDbEntity
  8
0
100
AcDbLine
 62
7
  6
CONTINUOUS
 10
132.6532348967
 20
168.457076247
 11
132.4686867009
 21
168.2492953691
  0
LINE
  5
2F6
100
AcDbEntity
  8
0
100
AcDbLine
 62
7
  6
CONTINUOUS
 10
131.3380554516
 20
168.4145495258
 11
131.4676336344
 21
168.5527856231
  0
LINE
  5
2F7
100
AcDbEntity
  8
0
100
AcDbLine
 62
7
  6
CONTINUOUS
 10
134.6392889814
 20
168.6485742698
 11
134.8315766879
 21
168.849214277
  0
LINE
  5
2F8
100
AcDbEntity
  8
0
100
AcDbLine
 62
7
  6
CONTINUOUS
 10
135.0300883618
 20
167.664599769
 11
134.8378006844
 21
167.4639598454
  0
LINE
  5
2F9
100
AcDbEntity
  8
0
100
AcDbLine
 62
7
  6
CONTINUOUS
 10
137.533540768
 20
166.6287152425
 11
137.4333886526
 21
166.5323963934
  0
LINE
  5
2FA
100
AcDbEntity
  8
0
100
AcDbLine
 62
7
  6
CONTINUOUS
 10
138.4942163238
 20
167.3290991253
 11
138.5962377305
 21
167.4234357538
  0
LINE
  5
2FB
100
AcDbEntity
  8
0
100
AcDbLine
 62
7
  6
CONTINUOUS
 10
138.7008226607
 20
166.10126003
 11
138.5988012426
 21
166.0069233743
  0
LINE
  5
2FC
100
AcDbEntity
  8
0
100
AcDbLine
 62
7
  6
CONTINUOUS
 10
138.613741951
 20
165.8180411378
 11
138.7586504695
 21
165.9401117948
  0
LINE
  5
2FD
100
AcDbEntity
  8
0
100
AcDbLine
 62
7
  6
CONTINUOUS
 10
165.1829162855
 20
147.6297224871
 11
165.0151535424
 21
147.5698346239
  0
LINE
  5
2FE
100
AcDbEntity
  8
0
100
AcDbLine
 62
7
  6
CONTINUOUS
 10
167.7057255308
 20
144.305334929
 11
167.5346333746
 21
144.2557528983
  0
LINE
  5
2FF
100
AcDbEntity
  8
0
100
AcDbLine
 62
7
  6
CONTINUOUS
 10
91.0263696649
 20
168.2610282185
 11
91.0400405926
 21
168.0635914383
  0
LINE
  5
300
100
AcDbEntity
  8
RUNDUNGEN
100
AcDbLine
 62
7
  6
CONTINUOUS
 10
117.7190437039
 20
182.336218318
 11
115.1817402742
 21
174.5272013236
  0
LINE
  5
301
100
AcDbEntity
  8
RUNDUNGEN
100
AcDbLine
 62
7
  6
CONTINUOUS
 10
74.0884980013
 20
48.0552060912
 11
71.5511945716
 21
40.2461890968
  0
LINE
  5
302
100
AcDbEntity
  8
0
100
AcDbLine
 62
7
  6
CONTINUOUS
 10
128.4286591416
 20
170.5343357191
 11
128.4864568493
 21
170.6503782851
  0
LINE
  5
303
100
AcDbEntity
  8
0
100
AcDbLine
 62
7
  6
CONTINUOUS
 10
132.15207844
 20
169.5802364987
 11
132.0874099649
 21
169.4678780058
  0
LINE
  5
304
100
AcDbEntity
  8
0
100
AcDbLine
 62
7
  6
CONTINUOUS
 10
131.4676336344
 20
168.5527856231
 11
131.5810187358
 21
168.7394601751
  0
LINE
  5
305
100
AcDbEntity
  8
0
100
AcDbLine
 62
7
  6
CONTINUOUS
 10
134.571843684
 20
168.8059404545
 11
134.502965141
 21
168.6961125444
  0
LINE
  5
306
100
AcDbEntity
  8
0
100
AcDbLine
 62
7
  6
CONTINUOUS
 10
128.8808283646
 20
169.2112467105
 11
128.9766015114
 21
169.3614412473
  0
LINE
  5
307
100
AcDbEntity
  8
0
100
AcDbLine
 62
7
  6
CONTINUOUS
 10
137.2987930773
 20
167.763296027
 11
137.3720902833
 21
167.870225823
  0
LINE
  5
308
100
AcDbEntity
  8
0
100
AcDbLine
 62
7
  6
CONTINUOUS
 10
138.4188372224
 20
167.2236267849
 11
138.4942163238
 21
167.3290991253
  0
LINE
  5
309
100
AcDbEntity
  8
0
100
AcDbLine
 62
7
  6
CONTINUOUS
 10
138.1589016021
 20
166.6017209978
 11
138.2342806807
 21
166.7071932838
  0
LINE
  5
30A
100
AcDbEntity
  8
0
100
AcDbLine
 62
7
  6
CONTINUOUS
 10
132.6219649879
 20
168.1582126128
 11
132.726593142
 21
168.3023785755
  0
LINE
  5
30B
100
AcDbEntity
  8
0
100
AcDbLine
 62
7
  6
CONTINUOUS
 10
138.4363885036
 20
167.4902473333
 11
138.3018751017
 21
167.3181723794
  0
LINE
  5
30C
100
AcDbEntity
  8
0
100
AcDbLine
 62
7
  6
CONTINUOUS
 10
138.7586504695
 20
165.9401117948
 11
138.8931638373
 21
166.112186667
  0
LINE
  5
30D
100
AcDbEntity
  8
0
100
AcDbLine
 62
7
  6
CONTINUOUS
 10
134.9875181724
 20
167.3671353879
 11
135.0975336981
 21
167.5072336958
  0
LINE
  5
30E
100
AcDbEntity
  8
0
100
AcDbLine
 62
7
  6
CONTINUOUS
 10
137.5635556551
 20
166.3903714799
 11
137.6791885179
 21
166.5258705309
  0
LINE
  5
30F
100
AcDbEntity
  8
RUNDUNGEN
100
AcDbLine
 62
7
  6
CONTINUOUS
 10
162.0583056405
 20
164.8185404461
 11
155.4155590218
 21
159.9923025248
  0
LINE
  5
310
100
AcDbEntity
  8
RUNDUNGEN
100
AcDbLine
 62
7
  6
CONTINUOUS
 10
47.8320540434
 20
81.8283108461
 11
41.1893074247
 21
77.0020729249
  0
LINE
  5
311
100
AcDbEntity
  8
0
100
AcDbLine
 62
7
  6
CONTINUOUS
 10
164.2820919415
 20
148.3901980309
 11
164.3977381203
 21
148.4487848031
  0
LINE
  5
312
100
AcDbEntity
  8
0
100
AcDbLine
 62
7
  6
CONTINUOUS
 10
166.7362333407
 20
145.1391823045
 11
166.8552826863
 21
145.1905018517
  0
LINE
  5
313
100
AcDbEntity
  8
0
100
AcDbLine
 62
7
  6
CONTINUOUS
 10
166.192233784
 20
144.7411900722
 11
166.3112830819
 21
144.7925095845
  0
LINE
  5
314
100
AcDbEntity
  8
0
100
AcDbLine
 62
7
  6
CONTINUOUS
 10
167.5346333746
 20
144.2557528983
 11
167.4146114753
 21
144.2067509977
  0
LINE
  5
315
100
AcDbEntity
  8
0
100
AcDbLine
 62
7
  6
CONTINUOUS
 10
166.8890850298
 20
145.3583418935
 11
166.6849862082
 21
145.2805776478
  0
LINE
  5
316
100
AcDbEntity
  8
0
100
AcDbLine
 62
7
  6
CONTINUOUS
 10
166.3636173776
 20
143.8648033769
 11
166.5677161277
 21
143.9425675703
  0
LINE
  5
317
100
AcDbEntity
  8
0
100
AcDbLine
 62
7
  6
CONTINUOUS
 10
163.854931502
 20
147.0588245425
 11
164.0214319991
 21
147.1221370925
  0
LINE
  5
318
100
AcDbEntity
  8
0
100
AcDbLine
 62
7
  6
CONTINUOUS
 10
169.2617382433
 20
142.5576004939
 11
167.5506566898
 21
141.9327501117
  0
LINE
  5
319
100
AcDbEntity
  8
0
100
AcDbLine
 62
7
  6
CONTINUOUS
 10
164.7078620083
 20
145.9954494828
 11
164.8756247229
 21
146.055337429
  0
LINE
  5
31A
100
AcDbEntity
  8
0
100
AcDbLine
 62
7
  6
CONTINUOUS
 10
167.439931523
 20
141.7195633859
 11
168.9599394527
 21
142.2511770803
  0
LINE
  5
31B
100
AcDbEntity
  8
0
100
AcDbLine
 62
7
  6
CONTINUOUS
 10
170.1627163711
 20
141.1564244281
 11
168.4367385968
 21
140.5739823231
  0
LINE
  5
31C
100
AcDbEntity
  8
0
100
AcDbLine
 62
7
  6
CONTINUOUS
 10
168.3207874695
 20
140.3635918971
 11
169.8534489767
 21
140.8575406761
  0
LINE
  5
31D
100
AcDbEntity
  8
0
100
AcDbLine
 62
7
  6
CONTINUOUS
 10
167.0326668398
 20
142.8447335964
 11
167.2037588302
 21
142.8943159144
  0
LINE
  5
31E
100
AcDbEntity
  8
RUNDUNGEN
100
AcDbLine
 62
7
  6
CONTINUOUS
 10
38.2305911907
 20
86.1080651695
 11
46.4414775688
 21
86.1080651695
  0
LINE
  5
31F
100
AcDbEntity
  8
RUNDUNGEN
100
AcDbLine
 62
7
  6
CONTINUOUS
 10
179.4220029797
 20
86.1080651695
 11
187.6328893577
 21
86.1080651695
  0
LINE
  5
320
100
AcDbEntity
  8
RUNDUNGEN
100
AcDbLine
 62
7
  6
CONTINUOUS
 10
41.1893074247
 20
133.6904693264
 11
47.8320540434
 21
128.8642314051
  0
LINE
  5
321
100
AcDbEntity
  8
RUNDUNGEN
100
AcDbLine
 62
7
  6
CONTINUOUS
 10
155.4155590218
 20
50.7002397265
 11
162.0583056405
 21
45.8740018052
  0
LINE
  5
322
100
AcDbEntity
  8
RUNDUNGEN
100
AcDbLine
 62
7
  6
CONTINUOUS
 10
71.5511945716
 20
170.4463531545
 11
74.0884980013
 21
162.6373361601
  0
LINE
  5
323
100
AcDbEntity
  8
RUNDUNGEN
100
AcDbLine
 62
7
  6
CONTINUOUS
 10
115.1817402742
 20
36.1653409277
 11
117.7190437039
 21
28.3563239333
  0
LINE
  5
324
100
AcDbEntity
  8
0
100
AcDbLine
 62
7
  6
CONTINUOUS
 10
88.7879266807
 20
167.9831802451
 11
88.8119742114
 21
167.7867371785
  0
LINE
  5
325
100
AcDbEntity
  8
0
100
AcDbLine
 62
7
  6
CONTINUOUS
 10
89.1143929156
 20
167.8378954436
 11
89.0903453849
 21
168.0343385102
  0
LINE
  5
326
100
AcDbEntity
  8
0
100
AcDbLine
 62
7
  6
CONTINUOUS
 10
92.7196512707
 20
167.6184926264
 11
92.6719552316
 21
168.0738637377
  0
LINE
  5
327
100
AcDbEntity
  8
RUNDUNGEN
100
AcDbLine
 62
7
  6
CONTINUOUS
 10
103.9317402742
 20
182.0272013236
 11
103.9317402742
 21
175.7162425716
  0
LINE
  5
328
100
AcDbEntity
  8
RUNDUNGEN
100
AcDbLine
 62
7
  6
CONTINUOUS
 10
103.9317402742
 20
28.6653409277
 11
103.9317402742
 21
34.9763261253
  0
LINE
  5
329
100
AcDbEntity
  8
0
100
AcDbLine
 62
7
  6
CONTINUOUS
 10
128.3378916852
 20
170.773027833
 11
128.2701830558
 21
170.6160401456
  0
LINE
  5
32A
100
AcDbEntity
  8
0
100
AcDbLine
 62
7
  6
CONTINUOUS
 10
132.1237054228
 20
169.192353999
 11
132.2254369667
 21
169.4255386174
  0
LINE
  5
32B
100
AcDbEntity
  8
0
100
AcDbLine
 62
7
  6
CONTINUOUS
 10
132.754966142
 20
168.6902610188
 11
132.6532348967
 21
168.457076247
  0
LINE
  5
32C
100
AcDbEntity
  8
0
100
AcDbLine
 62
7
  6
CONTINUOUS
 10
132.0874099649
 20
169.4678780058
 11
131.998032473
 21
169.2749688971
  0
LINE
  5
32D
100
AcDbEntity
  8
0
100
AcDbLine
 62
7
  6
CONTINUOUS
 10
132.7912618985
 20
168.4147368587
 11
132.8806394077
 21
168.6076460238
  0
LINE
  5
32E
100
AcDbEntity
  8
0
100
AcDbLine
 62
7
  6
CONTINUOUS
 10
134.5287957429
 20
168.4194113658
 11
134.6392889814
 21
168.6485742698
  0
LINE
  5
32F
100
AcDbEntity
  8
0
100
AcDbLine
 62
7
  6
CONTINUOUS
 10
135.1405816198
 20
167.8937627288
 11
135.0300883618
 21
167.664599769
  0
LINE
  5
330
100
AcDbEntity
  8
0
100
AcDbLine
 62
7
  6
CONTINUOUS
 10
134.502965141
 20
168.6961125444
 11
134.4063432726
 21
168.5067280813
  0
LINE
  5
331
100
AcDbEntity
  8
0
100
AcDbLine
 62
7
  6
CONTINUOUS
 10
135.1664122022
 20
167.6170614945
 11
135.26303409
 21
167.8064460132
  0
LINE
  5
332
100
AcDbEntity
  8
0
100
AcDbLine
 62
7
  6
CONTINUOUS
 10
138.3018751017
 20
167.3181723794
 11
138.1615121465
 21
167.0572237147
  0
LINE
  5
333
100
AcDbEntity
  8
0
100
AcDbLine
 62
7
  6
CONTINUOUS
 10
131.4537677562
 20
168.8196231335
 11
131.3912897538
 21
168.706032148
  0
LINE
  5
334
100
AcDbEntity
  8
0
100
AcDbLine
 62
7
  6
CONTINUOUS
 10
138.2947190225
 20
167.0015477382
 11
138.4188372224
 21
167.2236267849
  0
LINE
  5
335
100
AcDbEntity
  8
0
100
AcDbLine
 62
7
  6
CONTINUOUS
 10
132.726593142
 20
168.3023785755
 11
132.7912618985
 21
168.4147368587
  0
LINE
  5
336
100
AcDbEntity
  8
0
100
AcDbLine
 62
7
  6
CONTINUOUS
 10
137.24192327
 20
168.012250709
 11
137.1531453707
 21
167.8661408484
  0
LINE
  5
337
100
AcDbEntity
  8
0
100
AcDbLine
 62
7
  6
CONTINUOUS
 10
135.0975336981
 20
167.5072336958
 11
135.1664122022
 21
167.6170614945
  0
LINE
  5
338
100
AcDbEntity
  8
0
100
AcDbLine
 62
7
  6
CONTINUOUS
 10
138.7762017165
 20
166.2067322615
 11
138.7008226607
 21
166.10126003
  0
LINE
  5
339
100
AcDbEntity
  8
RUNDUNGEN
100
AcDbLine
 62
7
  6
CONTINUOUS
 10
150.7225072273
 20
172.6725140709
 11
147.0130618324
 21
167.5669004943
  0
LINE
  5
33A
100
AcDbEntity
  8
RUNDUNGEN
100
AcDbLine
 62
7
  6
CONTINUOUS
 10
60.5786674224
 20
48.6001627216
 11
64.2881699959
 21
53.7058549976
  0
LINE
  5
33B
100
AcDbEntity
  8
0
100
AcDbLine
 62
7
  6
CONTINUOUS
 10
165.0151535424
 20
147.5698346239
 11
164.8324497135
 21
147.4611074119
  0
LINE
  5
33C
100
AcDbEntity
  8
0
100
AcDbLine
 62
7
  6
CONTINUOUS
 10
164.8756247229
 20
146.055337429
 11
165.0583285111
 21
146.1640645028
  0
LINE
  5
33D
100
AcDbEntity
  8
0
100
AcDbLine
 62
7
  6
CONTINUOUS
 10
166.6849862082
 20
145.2805776478
 11
166.4299370806
 21
145.1297601209
  0
LINE
  5
33E
100
AcDbEntity
  8
0
100
AcDbLine
 62
7
  6
CONTINUOUS
 10
164.3517783255
 20
148.6358735876
 11
164.2037363932
 21
148.5503564517
  0
LINE
  5
33F
100
AcDbEntity
  8
0
100
AcDbLine
 62
7
  6
CONTINUOUS
 10
166.5151841825
 20
145.01323929
 11
166.7362333407
 21
145.1391823045
  0
LINE
  5
340
100
AcDbEntity
  8
0
100
AcDbLine
 62
7
  6
CONTINUOUS
 10
164.940448328
 20
147.3256383684
 11
165.0902113192
 21
147.408104384
  0
LINE
  5
341
100
AcDbEntity
  8
0
100
AcDbLine
 62
7
  6
CONTINUOUS
 10
164.9503298965
 20
146.2995335464
 11
164.8005669054
 21
146.2170675307
  0
LINE
  5
342
100
AcDbEntity
  8
0
100
AcDbLine
 62
7
  6
CONTINUOUS
 10
167.2741341226
 20
143.9669657772
 11
167.4975835743
 21
144.0885993865
  0
LINE
  5
343
100
AcDbEntity
  8
0
100
AcDbLine
 62
7
  6
CONTINUOUS
 10
167.464258034
 20
143.1831030017
 11
167.240808534
 21
143.0614693584
  0
LINE
  5
344
100
AcDbEntity
  8
0
100
AcDbLine
 62
7
  6
CONTINUOUS
 10
167.4146114753
 20
144.2067509977
 11
167.2256380332
 21
144.1093278002
  0
LINE
  5
345
100
AcDbEntity
  8
0
100
AcDbLine
 62
7
  6
CONTINUOUS
 10
167.3237808229
 20
142.9433174769
 11
167.5127541234
 21
143.0407409786
  0
LINE
  5
346
100
AcDbEntity
  8
0
100
AcDbLine
 62
7
  6
CONTINUOUS
 10
166.5164689952
 20
144.0839629136
 11
166.3974197449
 21
144.0326434361
  0
LINE
  5
347
100
AcDbEntity
  8
0
100
AcDbLine
 62
7
  6
CONTINUOUS
 10
167.2037588302
 20
142.8943159144
 11
167.3237808229
 21
142.9433174769
  0
LINE
  5
348
100
AcDbEntity
  8
RUNDUNGEN
100
AcDbLine
 62
7
  6
CONTINUOUS
 10
183.0784856652
 20
137.6014903479
 11
177.0764810063
 21
135.6513208174
  0
LINE
  5
349
100
AcDbEntity
  8
RUNDUNGEN
100
AcDbLine
 62
7
  6
CONTINUOUS
 10
37.2226889845
 20
90.2100691966
 11
43.224793596
 21
92.1602712038
  0
LINE
  5
34A
100
AcDbEntity
  8
RUNDUNGEN
100
AcDbLine
 62
7
  6
CONTINUOUS
 10
37.2226889845
 20
120.4824730546
 11
43.22484384
 21
118.5322547222
  0
LINE
  5
34B
100
AcDbEntity
  8
RUNDUNGEN
100
AcDbLine
 62
7
  6
CONTINUOUS
 10
177.076383119
 20
75.0412532394
 11
183.0784856652
 21
73.0910519033
  0
LINE
  5
34C
100
AcDbEntity
  8
RUNDUNGEN
100
AcDbLine
 62
7
  6
CONTINUOUS
 10
60.5786674224
 20
162.0923795296
 11
64.2882006549
 21
156.9866450551
  0
LINE
  5
34D
100
AcDbEntity
  8
RUNDUNGEN
100
AcDbLine
 62
7
  6
CONTINUOUS
 10
147.0130017494
 20
43.125724454
 11
150.7225072273
 21
38.0200281804
  0
LINE
  5
34E
100
AcDbEntity
  8
0
100
AcDbLine
 62
7
  6
CONTINUOUS
 10
91.0400405926
 20
168.0635914383
 11
91.0740651475
 21
167.805656967
  0
LINE
  5
34F
100
AcDbEntity
  8
0
100
AcDbLine
 62
7
  6
CONTINUOUS
 10
91.3110146465
 20
167.8853754107
 11
91.2769898205
 21
168.1433097907
  0
LINE
  5
350
100
AcDbEntity
  8
0
100
AcDbLine
 62
7
  6
CONTINUOUS
 10
92.4350062748
 20
167.9941454765
 11
92.4690305586
 21
167.736210914
  0
LINE
  5
351
100
AcDbEntity
  8
RUNDUNGEN
100
AcDbLine
 62
7
  6
CONTINUOUS
 10
110.6817402742
 20
36.1653409277
 11
110.6817402742
 21
37.1652478585
  0
LINE
  5
352
100
AcDbEntity
  8
RUNDUNGEN
100
AcDbLine
 62
7
  6
CONTINUOUS
 10
110.6817402742
 20
173.5272609465
 11
110.6817402742
 21
174.5272013236
  0
LINE
  5
353
100
AcDbEntity
  8
02___PRT_ALL_AXES
100
AcDbLine
 62
7
  6
CENTER
 10
112.9317402742
 20
105.3462711256
 11
112.9317402742
 21
22.4145308514
  0
LINE
  5
354
100
AcDbEntity
  8
02___PRT_ALL_AXES
100
AcDbLine
 62
7
  6
CENTER
 10
112.9317402742
 20
105.3462711256
 11
112.9317402742
 21
188.2780113999
  0
LINE
  5
355
100
AcDbEntity
  8
0
100
AcDbLine
 62
7
  6
CONTINUOUS
 10
127.0171648748
 20
171.372289188
 11
126.5891685822
 21
169.4391003266
  0
LINE
  5
356
100
AcDbEntity
  8
0
100
AcDbLine
 62
7
  6
CONTINUOUS
 10
126.812960432
 20
169.6484407178
 11
127.1863189002
 21
171.3348395124
  0
LINE
  5
357
100
AcDbEntity
  8
0
100
AcDbLine
 62
7
  6
CONTINUOUS
 10
127.6040927344
 20
169.214402273
 11
127.6587305589
 21
169.4611923398
  0
LINE
  5
358
100
AcDbEntity
  8
0
100
AcDbLine
 62
7
  6
CONTINUOUS
 10
128.2701830558
 20
170.6160401456
 11
128.2305389091
 21
170.4522591642
  0
LINE
  5
359
100
AcDbEntity
  8
0
100
AcDbLine
 62
7
  6
CONTINUOUS
 10
128.4088370822
 20
170.4524452857
 11
128.4286591416
 21
170.5343357191
  0
LINE
  5
35A
100
AcDbEntity
  8
0
100
AcDbLine
 62
7
  6
CONTINUOUS
 10
128.8478584067
 20
169.5659812286
 11
128.8181253175
 21
169.4431455786
  0
LINE
  5
35B
100
AcDbEntity
  8
0
100
AcDbLine
 62
7
  6
CONTINUOUS
 10
128.9766015114
 20
169.3614412473
 11
129.02615666
 21
169.5661673306
  0
LINE
  5
35C
100
AcDbEntity
  8
0
100
AcDbLine
 62
7
  6
CONTINUOUS
 10
130.9749214375
 20
170.4022305825
 11
130.6740694448
 21
169.3490391996
  0
LINE
  5
35D
100
AcDbEntity
  8
0
100
AcDbLine
 62
7
  6
CONTINUOUS
 10
130.8707474821
 20
169.5119204711
 11
131.0558871824
 21
170.1600382888
  0
LINE
  5
35E
100
AcDbEntity
  8
0
100
AcDbLine
 62
7
  6
CONTINUOUS
 10
131.4769102147
 20
168.9006378466
 11
131.4537677562
 21
168.8196231335
  0
LINE
  5
35F
100
AcDbEntity
  8
0
100
AcDbLine
 62
7
  6
CONTINUOUS
 10
131.8610554854
 20
169.9300359432
 11
131.9189116316
 21
170.1325727258
  0
LINE
  5
360
100
AcDbEntity
  8
0
100
AcDbLine
 62
7
  6
CONTINUOUS
 10
131.5810187358
 20
168.7394601751
 11
131.6273036528
 21
168.9014896012
  0
LINE
  5
361
100
AcDbEntity
  8
0
100
AcDbLine
 62
7
  6
CONTINUOUS
 10
131.998032473
 20
169.2749688971
 11
131.8868431629
 21
168.912490182
  0
LINE
  5
362
100
AcDbEntity
  8
0
100
AcDbLine
 62
7
  6
CONTINUOUS
 10
132.0372248484
 20
168.9104261096
 11
132.1237054228
 21
169.192353999
  0
LINE
  5
363
100
AcDbEntity
  8
0
100
AcDbLine
 62
7
  6
CONTINUOUS
 10
132.8414467164
 20
168.9721889083
 11
132.754966142
 21
168.6902610188
  0
LINE
  5
364
100
AcDbEntity
  8
0
100
AcDbLine
 62
7
  6
CONTINUOUS
 10
132.8806394077
 20
168.6076460238
 11
132.9918287178
 21
168.9701247389
  0
LINE
  5
365
100
AcDbEntity
  8
0
100
AcDbLine
 62
7
  6
CONTINUOUS
 10
133.1507728711
 20
168.6528302736
 11
133.0859626408
 21
168.4524103623
  0
LINE
  5
366
100
AcDbEntity
  8
0
100
AcDbLine
 62
7
  6
CONTINUOUS
 10
133.4706015824
 20
168.3280288164
 11
133.5354118127
 21
168.5284487278
  0
LINE
  5
367
100
AcDbEntity
  8
0
100
AcDbLine
 62
7
  6
CONTINUOUS
 10
134.002109427
 20
169.1734146825
 11
133.895636468
 21
168.8536539871
  0
LINE
  5
368
100
AcDbEntity
  8
0
100
AcDbLine
 62
7
  6
CONTINUOUS
 10
134.1531772563
 20
169.0787108667
 11
133.6341216881
 21
167.5198777985
  0
LINE
  5
369
100
AcDbEntity
  8
0
100
AcDbLine
 62
7
  6
CONTINUOUS
 10
133.7984986327
 20
167.4651440556
 11
134.4240271226
 21
169.3437377073
  0
LINE
  5
36A
100
AcDbEntity
  8
0
100
AcDbLine
 62
7
  6
CONTINUOUS
 10
134.4063432726
 20
168.5067280813
 11
134.2815009413
 21
168.1487221123
  0
LINE
  5
36B
100
AcDbEntity
  8
0
100
AcDbLine
 62
7
  6
CONTINUOUS
 10
134.4316961519
 20
168.1409622788
 11
134.5287957429
 21
168.4194113658
  0
LINE
  5
36C
100
AcDbEntity
  8
0
100
AcDbLine
 62
7
  6
CONTINUOUS
 10
135.2376812108
 20
168.1722118158
 11
135.1405816198
 21
167.8937627288
  0
LINE
  5
36D
100
AcDbEntity
  8
0
100
AcDbLine
 62
7
  6
CONTINUOUS
 10
135.26303409
 20
167.8064460132
 11
135.3878764213
 21
168.1644519822
  0
LINE
  5
36E
100
AcDbEntity
  8
0
100
AcDbLine
 62
7
  6
CONTINUOUS
 10
137.1531453707
 20
167.8661408484
 11
137.0912223806
 21
167.7094200408
  0
LINE
  5
36F
100
AcDbEntity
  8
0
100
AcDbLine
 62
7
  6
CONTINUOUS
 10
137.2678316039
 20
167.6849356781
 11
137.2987930773
 21
167.763296027
  0
LINE
  5
370
100
AcDbEntity
  8
0
100
AcDbLine
 62
7
  6
CONTINUOUS
 10
137.579982978
 20
166.7462557658
 11
137.533540768
 21
166.6287152425
  0
LINE
  5
371
100
AcDbEntity
  8
0
100
AcDbLine
 62
7
  6
CONTINUOUS
 10
137.6791885179
 20
166.5258705309
 11
137.7565922013
 21
166.7217714031
  0
LINE
  5
372
100
AcDbEntity
  8
0
100
AcDbLine
 62
7
  6
CONTINUOUS
 10
138.1615121465
 20
167.0572237147
 11
138.0477903225
 21
166.7851399566
  0
LINE
  5
373
100
AcDbEntity
  8
0
100
AcDbLine
 62
7
  6
CONTINUOUS
 10
138.2622270728
 20
166.9238095217
 11
138.2947190225
 21
167.0015477382
  0
LINE
  5
374
100
AcDbEntity
  8
0
100
AcDbLine
 62
7
  6
CONTINUOUS
 10
138.1101636776
 20
166.4851136729
 11
138.1589016021
 21
166.6017209978
  0
LINE
  5
375
100
AcDbEntity
  8
0
100
AcDbLine
 62
7
  6
CONTINUOUS
 10
138.8249396411
 20
166.3233395864
 11
138.7762017165
 21
166.2067322615
  0
LINE
  5
376
100
AcDbEntity
  8
0
100
AcDbLine
 62
7
  6
CONTINUOUS
 10
138.8931638373
 20
166.112186667
 11
138.9743937343
 21
166.3065322629
  0
LINE
  5
377
100
AcDbEntity
  8
0
100
AcDbLine
 62
7
  6
CONTINUOUS
 10
138.9771038866
 20
165.7071915988
 11
138.8934398359
 21
165.513881431
  0
LINE
  5
378
100
AcDbEntity
  8
0
100
AcDbLine
 62
7
  6
CONTINUOUS
 10
139.0259382483
 20
165.4565365224
 11
139.109602299
 21
165.6498466903
  0
LINE
  5
379
100
AcDbEntity
  8
0
100
AcDbLine
 62
7
  6
CONTINUOUS
 10
139.9182866046
 20
166.9059253484
 11
139.7821788942
 21
166.5976104371
  0
LINE
  5
37A
100
AcDbEntity
  8
0
100
AcDbLine
 62
7
  6
CONTINUOUS
 10
140.0597662442
 20
166.7974181443
 11
139.3962412932
 21
165.2943832622
  0
LINE
  5
37B
100
AcDbEntity
  8
0
100
AcDbLine
 62
7
  6
CONTINUOUS
 10
139.5547343906
 20
165.2244154085
 11
140.3543670044
 21
167.0357650939
  0
LINE
  5
37C
100
AcDbEntity
  8
RUNDUNGEN
100
AcDbLine
 62
7
  6
CONTINUOUS
 10
70.4479215266
 20
50.7002397265
 11
71.0356525726
 21
51.5091821123
  0
LINE
  5
37D
100
AcDbEntity
  8
RUNDUNGEN
100
AcDbLine
 62
7
  6
CONTINUOUS
 10
151.187232475
 20
161.8283675871
 11
151.7749825471
 21
162.6373361601
  0
LINE
  5
37E
100
AcDbEntity
  8
0
100
AcDbLine
 62
7
  6
CONTINUOUS
 10
164.2037363932
 20
148.5503564517
 11
164.0741529517
 21
148.442634588
  0
LINE
  5
37F
100
AcDbEntity
  8
0
100
AcDbLine
 62
7
  6
CONTINUOUS
 10
164.2173002661
 20
148.3363371368
 11
164.2820919415
 21
148.3901980309
  0
LINE
  5
380
100
AcDbEntity
  8
0
100
AcDbLine
 62
7
  6
CONTINUOUS
 10
164.0402638731
 20
147.3630867791
 11
163.94307636
 21
147.2822954379
  0
LINE
  5
381
100
AcDbEntity
  8
0
100
AcDbLine
 62
7
  6
CONTINUOUS
 10
164.0214319991
 20
147.1221370925
 11
164.1834111875
 21
147.2567893278
  0
LINE
  5
382
100
AcDbEntity
  8
0
100
AcDbLine
 62
7
  6
CONTINUOUS
 10
164.8324497135
 20
147.4611074119
 11
164.3383377133
 21
147.0671915029
  0
LINE
  5
383
100
AcDbEntity
  8
0
100
AcDbLine
 62
7
  6
CONTINUOUS
 10
164.4463363278
 20
146.9317224594
 11
164.940448328
 21
147.3256383684
  0
LINE
  5
384
100
AcDbEntity
  8
0
100
AcDbLine
 62
7
  6
CONTINUOUS
 10
165.4444418968
 20
146.6934494554
 11
164.9503298965
 21
146.2995335464
  0
LINE
  5
385
100
AcDbEntity
  8
0
100
AcDbLine
 62
7
  6
CONTINUOUS
 10
165.0583285111
 20
146.1640645028
 11
165.5524405113
 21
146.5579804118
  0
LINE
  5
386
100
AcDbEntity
  8
0
100
AcDbLine
 62
7
  6
CONTINUOUS
 10
166.4299370806
 20
145.1297601209
 11
166.1919372954
 21
144.9556385345
  0
LINE
  5
387
100
AcDbEntity
  8
0
100
AcDbLine
 62
7
  6
CONTINUOUS
 10
166.4471842438
 20
144.9634902653
 11
166.5151841825
 21
145.01323929
  0
LINE
  5
388
100
AcDbEntity
  8
0
100
AcDbLine
 62
7
  6
CONTINUOUS
 10
166.090233876
 20
144.6665665351
 11
166.192233784
 21
144.7411900722
  0
LINE
  5
389
100
AcDbEntity
  8
0
100
AcDbLine
 62
7
  6
CONTINUOUS
 10
166.6184689032
 20
144.1585864507
 11
166.5164689952
 21
144.0839629136
  0
LINE
  5
38A
100
AcDbEntity
  8
0
100
AcDbLine
 62
7
  6
CONTINUOUS
 10
166.5677161277
 20
143.9425675703
 11
166.737716022
 21
144.0669401669
  0
LINE
  5
38B
100
AcDbEntity
  8
0
100
AcDbLine
 62
7
  6
CONTINUOUS
 10
167.2256380332
 20
144.1093278002
 11
166.9153556563
 21
143.8914316595
  0
LINE
  5
38C
100
AcDbEntity
  8
0
100
AcDbLine
 62
7
  6
CONTINUOUS
 10
167.0328033851
 20
143.7974910011
 11
167.2741341226
 21
143.9669657772
  0
LINE
  5
38D
100
AcDbEntity
  8
0
100
AcDbLine
 62
7
  6
CONTINUOUS
 10
167.7055887715
 20
143.3525777778
 11
167.464258034
 21
143.1831030017
  0
LINE
  5
38E
100
AcDbEntity
  8
0
100
AcDbLine
 62
7
  6
CONTINUOUS
 10
167.5127541234
 20
143.0407409786
 11
167.8230365003
 21
143.2586371194
  0
LINE
  5
38F
100
AcDbEntity
  8
0
100
AcDbLine
 62
7
  6
CONTINUOUS
 10
168.6350160699
 20
143.4932162446
 11
166.9899773873
 21
142.3912871486
  0
LINE
  5
390
100
AcDbEntity
  8
0
100
AcDbLine
 62
7
  6
CONTINUOUS
 10
167.0863961832
 20
142.2473462638
 11
168.3814266772
 21
143.1148223887
  0
LINE
  5
391
100
AcDbEntity
  8
0
100
AcDbLine
 62
7
  6
CONTINUOUS
 10
168.9599394527
 20
142.2511770803
 11
167.6649089587
 21
141.3837009555
  0
LINE
  5
392
100
AcDbEntity
  8
0
100
AcDbLine
 62
7
  6
CONTINUOUS
 10
167.7613277546
 20
141.2397600707
 11
169.4063664372
 21
142.3416891668
  0
LINE
  5
393
100
AcDbEntity
  8
0
100
AcDbLine
 62
7
  6
CONTINUOUS
 10
169.5592697336
 20
142.1072186599
 11
167.8875436117
 21
141.0462135828
  0
LINE
  5
394
100
AcDbEntity
  8
0
100
AcDbLine
 62
7
  6
CONTINUOUS
 10
167.9803815559
 20
140.8999375472
 11
169.2964213113
 21
141.7351968901
  0
LINE
  5
395
100
AcDbEntity
  8
0
100
AcDbLine
 62
7
  6
CONTINUOUS
 10
169.8534489767
 20
140.8575406761
 11
168.5374092214
 21
140.0222813332
  0
LINE
  5
396
100
AcDbEntity
  8
0
100
AcDbLine
 62
7
  6
CONTINUOUS
 10
168.6302471656
 20
139.8760052975
 11
170.3019732875
 21
140.9370103746
  0
LINE
  5
397
100
AcDbEntity
  8
RUNDUNGEN
100
AcDbLine
 62
7
  6
CONTINUOUS
 10
46.4414775688
 20
86.1080651695
 11
47.3924452104
 21
86.4170532867
  0
LINE
  5
398
100
AcDbEntity
  8
RUNDUNGEN
100
AcDbLine
 62
7
  6
CONTINUOUS
 10
177.080426596
 20
128.5552328036
 11
178.031426505
 21
128.8642314051
  0
LINE
  5
399
100
AcDbEntity
  8
02___PRT_ALL_AXES
100
AcDbLine
 62
7
  6
CENTER
 10
112.9317402742
 20
105.3462711256
 11
30.0
 21
105.3462711256
  0
LINE
  5
39A
100
AcDbEntity
  8
02___PRT_ALL_AXES
100
AcDbLine
 62
7
  6
CENTER
 10
112.9317402742
 20
105.3462711256
 11
195.8634805485
 21
105.3462711256
  0
LINE
  5
39B
100
AcDbEntity
  8
RUNDUNGEN
100
AcDbLine
 62
7
  6
CONTINUOUS
 10
47.3924772828
 20
124.2754785436
 11
46.4414775688
 21
124.5844770818
  0
LINE
  5
39C
100
AcDbEntity
  8
RUNDUNGEN
100
AcDbLine
 62
7
  6
CONTINUOUS
 10
177.0804581421
 20
82.1372991977
 11
178.031426505
 21
81.8283108461
  0
LINE
  5
39D
100
AcDbEntity
  8
RUNDUNGEN
100
AcDbLine
 62
7
  6
CONTINUOUS
 10
151.1872524979
 20
48.864147105
 11
151.7749825471
 21
48.0552060912
  0
LINE
  5
39E
100
AcDbEntity
  8
RUNDUNGEN
100
AcDbLine
 62
7
  6
CONTINUOUS
 10
71.0356718682
 20
159.183333581
 11
70.4479215266
 21
159.9923025248
  0
LINE
  5
39F
100
AcDbEntity
  8
0
100
AcDbLine
 62
7
  6
CONTINUOUS
 10
87.0177520205
 20
168.2430514337
 11
88.1227558504
 21
165.4539715611
  0
LINE
  5
3A0
100
AcDbEntity
  8
0
100
AcDbLine
 62
7
  6
CONTINUOUS
 10
88.4016638377
 20
165.5644719441
 11
87.9079387152
 21
166.8106565857
  0
LINE
  5
3A1
100
AcDbEntity
  8
0
100
AcDbLine
 62
7
  6
CONTINUOUS
 10
87.7668744133
 20
167.1667092929
 11
87.4142135927
 21
168.0568412273
  0
LINE
  5
3A2
100
AcDbEntity
  8
0
100
AcDbLine
 62
7
  6
CONTINUOUS
 10
88.7173944638
 20
168.161206765
 11
88.7879266807
 21
167.9831802451
  0
LINE
  5
3A3
100
AcDbEntity
  8
0
100
AcDbLine
 62
7
  6
CONTINUOUS
 10
89.0903453849
 20
168.0343385102
 11
88.9963024511
 21
168.2717071479
  0
LINE
  5
3A4
100
AcDbEntity
  8
0
100
AcDbLine
 62
7
  6
CONTINUOUS
 10
89.5186869113
 20
168.1903775315
 11
90.2189158837
 21
166.2716011865
  0
LINE
  5
3A5
100
AcDbEntity
  8
0
100
AcDbLine
 62
7
  6
CONTINUOUS
 10
90.4537660313
 20
166.3573062651
 11
90.0161229005
 21
167.5565415437
  0
LINE
  5
3A6
100
AcDbEntity
  8
0
100
AcDbLine
 62
7
  6
CONTINUOUS
 10
89.8848299797
 20
167.9163120769
 11
89.7535370589
 21
168.2760826101
  0
LINE
  5
3A7
100
AcDbEntity
  8
0
100
AcDbLine
 62
7
  6
CONTINUOUS
 10
90.4735585324
 20
168.1991071546
 11
90.3641477651
 21
168.4989159322
  0
LINE
  5
3A8
100
AcDbEntity
  8
0
100
AcDbLine
 62
7
  6
CONTINUOUS
 10
91.0740651475
 20
167.805656967
 11
91.1554796849
 21
167.563666118
  0
LINE
  5
3A9
100
AcDbEntity
  8
0
100
AcDbLine
 62
7
  6
CONTINUOUS
 10
91.392429184
 20
167.6433845616
 11
91.3110146465
 21
167.8853754107
  0
LINE
  5
3AA
100
AcDbEntity
  8
0
100
AcDbLine
 62
7
  6
CONTINUOUS
 10
92.3535917374
 20
168.2361363256
 11
92.4350062748
 21
167.9941454765
  0
LINE
  5
3AB
100
AcDbEntity
  8
0
100
AcDbLine
 62
7
  6
CONTINUOUS
 10
92.6719552316
 20
168.0738637377
 11
92.5905406941
 21
168.3158545868
  0
LINE
  5
3AC
100
AcDbEntity
  8
0
100
AcDbLine
 62
7
  6
CONTINUOUS
 10
92.4409733605
 20
170.2063376665
 11
93.3394554712
 21
167.3440431504
  0
LINE
  5
3AD
100
AcDbEntity
  8
0
100
AcDbLine
 62
7
  6
CONTINUOUS
 10
93.5779801962
 20
167.4189167168
 11
92.6794980855
 21
170.2812112329
  0
LINE
  5
3AE
100
AcDbEntity
  8
0
100
AcDbLine
 62
7
  6
CONTINUOUS
 10
93.0903900933
 20
170.4079386681
 11
93.1829244909
 21
170.1024989777
  0
LINE
  5
3AF
100
AcDbEntity
  8
0
100
AcDbLine
 62
7
  6
CONTINUOUS
 10
93.367993338
 20
169.4916194259
 11
93.9602135344
 21
167.5368052366
  0
LINE
  5
3B0
100
AcDbEntity
  8
0
100
AcDbLine
 62
7
  6
CONTINUOUS
 10
94.1994748362
 20
167.6092905786
 11
93.6072546398
 21
169.564104768
  0
LINE
  5
3B1
100
AcDbEntity
  8
0
100
AcDbLine
 62
7
  6
CONTINUOUS
 10
93.4221857928
 20
170.1749843198
 11
93.3296513952
 21
170.4804240101
  0
LINE
  5
3B2
100
AcDbEntity
  8
0
100
AcDbLine
 62
7
  6
CONTINUOUS
 10
94.0265767813
 20
169.6924836863
 11
94.5818644982
 21
167.7268594019
  0
LINE
  5
3B3
100
AcDbEntity
  8
0
100
AcDbLine
 62
7
  6
CONTINUOUS
 10
94.8224483611
 20
167.7948242032
 11
94.4233353008
 21
169.207616706
  0
LINE
  5
3B4
100
AcDbEntity
  8
0
100
AcDbLine
 62
7
  6
CONTINUOUS
 10
94.3539243423
 20
169.45331972
 11
94.2671606441
 21
169.7604484876
  0
LINE
  5
3B5
100
AcDbEntity
  8
0
100
AcDbLine
 62
7
  6
CONTINUOUS
 10
95.3588494871
 20
169.20658735
 11
95.6885515888
 21
168.0394978612
  0
LINE
  5
3B6
100
AcDbEntity
  8
0
100
AcDbLine
 62
7
  6
CONTINUOUS
 10
95.9291360023
 20
168.1074628181
 11
95.5994339006
 21
169.2745523068
  0
LINE
  5
3B7
100
AcDbEntity
  8
0
100
AcDbLine
 62
7
  6
CONTINUOUS
 10
95.5802604572
 20
171.1193680833
 11
96.3156132904
 21
168.2108880317
  0
LINE
  5
3B8
100
AcDbEntity
  8
0
100
AcDbLine
 62
7
  6
CONTINUOUS
 10
96.5579862582
 20
168.272167341
 11
96.3858824022
 21
168.9528754437
  0
LINE
  5
3B9
100
AcDbEntity
  8
0
100
AcDbLine
 62
7
  6
CONTINUOUS
 10
96.2920075837
 20
169.3241707251
 11
95.822633425
 21
171.1806473926
  0
LINE
  5
3BA
100
AcDbEntity
  8
RUNDUNGEN
100
AcDbLine
 62
7
  6
CONTINUOUS
 10
115.1817402742
 20
36.1653409277
 11
115.1817402742
 21
37.1652813048
  0
LINE
  5
3BB
100
AcDbEntity
  8
RUNDUNGEN
100
AcDbLine
 62
7
  6
CONTINUOUS
 10
115.1817402742
 20
173.5272943928
 11
115.1817402742
 21
174.5272013236
  0
LINE
  5
3BC
100
AcDbEntity
  8
0
100
AcDbLine
 62
7
  6
CONTINUOUS
 10
131.8868431629
 20
168.912490182
 11
131.8526769598
 21
168.7026451065
  0
LINE
  5
3BD
100
AcDbEntity
  8
0
100
AcDbLine
 62
7
  6
CONTINUOUS
 10
131.9907039615
 20
168.6603057182
 11
132.0372248484
 21
168.9104261096
  0
LINE
  5
3BE
100
AcDbEntity
  8
0
100
AcDbLine
 62
7
  6
CONTINUOUS
 10
132.8879679019
 20
169.2223091463
 11
132.8414467164
 21
168.9721889083
  0
LINE
  5
3BF
100
AcDbEntity
  8
0
100
AcDbLine
 62
7
  6
CONTINUOUS
 10
134.2815009413
 20
168.1487221123
 11
134.2394090889
 21
167.9403221096
  0
LINE
  5
3C0
100
AcDbEntity
  8
0
100
AcDbLine
 62
7
  6
CONTINUOUS
 10
134.3757329293
 20
167.8927838351
 11
134.4316961519
 21
168.1409622788
  0
LINE
  5
3C1
100
AcDbEntity
  8
0
100
AcDbLine
 62
7
  6
CONTINUOUS
 10
135.2936444139
 20
168.4203902037
 11
135.2376812108
 21
168.1722118158
  0
LINE
  5
3C2
100
AcDbEntity
  8
0
100
AcDbLine
 62
7
  6
CONTINUOUS
 10
138.0477903225
 20
166.7851399566
 11
137.9607096071
 21
166.5019210508
  0
LINE
  5
3C3
100
AcDbEntity
  8
RUNDUNGEN
100
AcDbLine
 62
7
  6
CONTINUOUS
 10
74.0884980013
 20
48.0552060912
 11
74.6762480735
 21
48.8641746642
  0
LINE
  5
3C4
100
AcDbEntity
  8
RUNDUNGEN
100
AcDbLine
 62
7
  6
CONTINUOUS
 10
154.8278279758
 20
159.183360139
 11
155.4155590218
 21
159.9923025248
  0
LINE
  5
3C5
100
AcDbEntity
  8
0
100
AcDbLine
 62
7
  6
CONTINUOUS
 10
164.3383377133
 20
147.0671915029
 11
164.1916334805
 21
146.9133080598
  0
LINE
  5
3C6
100
AcDbEntity
  8
0
100
AcDbLine
 62
7
  6
CONTINUOUS
 10
166.9153556563
 20
143.8914316595
 11
166.7595708536
 21
143.746748
  0
LINE
  5
3C7
100
AcDbEntity
  8
0
100
AcDbLine
 62
7
  6
CONTINUOUS
 10
166.1919372954
 20
144.9556385345
 11
165.9709868048
 21
144.7582128538
  0
LINE
  5
3C8
100
AcDbEntity
  8
0
100
AcDbLine
 62
7
  6
CONTINUOUS
 10
166.8425429526
 20
143.6285963889
 11
167.0328033851
 21
143.7974910011
  0
LINE
  5
3C9
100
AcDbEntity
  8
0
100
AcDbLine
 62
7
  6
CONTINUOUS
 10
167.8958491557
 20
143.5214723561
 11
167.7055887715
 21
143.3525777778
  0
LINE
  5
3CA
100
AcDbEntity
  8
RUNDUNGEN
100
AcDbLine
 62
7
  6
CONTINUOUS
 10
47.8320540434
 20
81.8283108461
 11
48.7830539524
 21
82.1373094477
  0
LINE
  5
3CB
100
AcDbEntity
  8
RUNDUNGEN
100
AcDbLine
 62
7
  6
CONTINUOUS
 10
178.4710353381
 20
124.2754889646
 11
179.4220029797
 21
124.5844770818
  0
LINE
  5
3CC
100
AcDbEntity
  8
RUNDUNGEN
100
AcDbLine
 62
7
  6
CONTINUOUS
 10
48.7830224063
 20
128.5552430535
 11
47.8320540434
 21
128.8642314051
  0
LINE
  5
3CD
100
AcDbEntity
  8
RUNDUNGEN
100
AcDbLine
 62
7
  6
CONTINUOUS
 10
178.4710032656
 20
86.4170637077
 11
179.4220029797
 21
86.1080651695
  0
LINE
  5
3CE
100
AcDbEntity
  8
RUNDUNGEN
100
AcDbLine
 62
7
  6
CONTINUOUS
 10
154.8278086803
 20
51.5092086703
 11
155.4155590218
 21
50.7002397265
  0
LINE
  5
3CF
100
AcDbEntity
  8
RUNDUNGEN
100
AcDbLine
 62
7
  6
CONTINUOUS
 10
74.6762280505
 20
161.8283951463
 11
74.0884980013
 21
162.6373361601
  0
LINE
  5
3D0
100
AcDbEntity
  8
RUNDUNGEN
100
AcDbLine
 62
7
  6
CONTINUOUS
 10
121.9317402742
 20
28.6653409277
 11
121.9317402742
 21
34.9762234186
  0
LINE
  5
3D1
100
AcDbEntity
  8
RUNDUNGEN
100
AcDbLine
 62
7
  6
CONTINUOUS
 10
121.9317402742
 20
175.716216107
 11
121.9317402742
 21
182.0272013236
  0
LINE
  5
3D2
100
AcDbEntity
  8
0
100
AcDbLine
 62
7
  6
CONTINUOUS
 10
128.1247543636
 20
169.5242916036
 11
128.126422862
 21
169.6539204523
  0
LINE
  5
3D3
100
AcDbEntity
  8
0
100
AcDbLine
 62
7
  6
CONTINUOUS
 10
128.4071685838
 20
170.322816437
 11
128.4088370822
 21
170.4524452857
  0
LINE
  5
3D4
100
AcDbEntity
  8
0
100
AcDbLine
 62
7
  6
CONTINUOUS
 10
129.1401836844
 20
170.4054513933
 11
129.1418521827
 21
170.5350802421
  0
LINE
  5
3D5
100
AcDbEntity
  8
0
100
AcDbLine
 62
7
  6
CONTINUOUS
 10
131.483859604
 20
169.0300910569
 11
131.4769102147
 21
168.9006378466
  0
LINE
  5
3D6
100
AcDbEntity
  8
0
100
AcDbLine
 62
7
  6
CONTINUOUS
 10
127.9580357187
 20
169.6946795475
 11
127.9464561103
 21
169.5241055016
  0
LINE
  5
3D7
100
AcDbEntity
  8
0
100
AcDbLine
 62
7
  6
CONTINUOUS
 10
128.2305389091
 20
170.4522591642
 11
128.2189593007
 21
170.2816851183
  0
LINE
  5
3D8
100
AcDbEntity
  8
0
100
AcDbLine
 62
7
  6
CONTINUOUS
 10
131.8526769598
 20
168.7026451065
 11
131.8432191936
 21
168.5733510099
  0
LINE
  5
3D9
100
AcDbEntity
  8
0
100
AcDbLine
 62
7
  6
CONTINUOUS
 10
133.0259949036
 20
169.179969758
 11
133.0354523885
 21
169.3092640644
  0
LINE
  5
3DA
100
AcDbEntity
  8
0
100
AcDbLine
 62
7
  6
CONTINUOUS
 10
134.2394090889
 20
167.9403221096
 11
134.2250593721
 21
167.8114792623
  0
LINE
  5
3DB
100
AcDbEntity
  8
0
100
AcDbLine
 62
7
  6
CONTINUOUS
 10
135.4299682543
 20
168.3728519292
 11
135.44431801
 21
168.501694888
  0
LINE
  5
3DC
100
AcDbEntity
  8
0
100
AcDbLine
 62
7
  6
CONTINUOUS
 10
136.858065348
 20
166.8050130423
 11
136.8776526054
 21
166.9331644028
  0
LINE
  5
3DD
100
AcDbEntity
  8
0
100
AcDbLine
 62
7
  6
CONTINUOUS
 10
137.2482443466
 20
167.5567843176
 11
137.2678316039
 21
167.6849356781
  0
LINE
  5
3DE
100
AcDbEntity
  8
0
100
AcDbLine
 62
7
  6
CONTINUOUS
 10
137.9856427565
 20
167.5372073254
 11
138.0052306286
 21
167.665358443
  0
LINE
  5
3DF
100
AcDbEntity
  8
0
100
AcDbLine
 62
7
  6
CONTINUOUS
 10
132.9918287178
 20
168.9701247389
 11
133.0259949036
 21
169.179969758
  0
LINE
  5
3E0
100
AcDbEntity
  8
0
100
AcDbLine
 62
7
  6
CONTINUOUS
 10
138.0880668844
 20
166.3573712547
 11
138.1101636776
 21
166.4851136729
  0
LINE
  5
3E1
100
AcDbEntity
  8
0
100
AcDbLine
 62
7
  6
CONTINUOUS
 10
138.847036457
 20
166.451082059
 11
138.8249396411
 21
166.3233395864
  0
LINE
  5
3E2
100
AcDbEntity
  8
0
100
AcDbLine
 62
7
  6
CONTINUOUS
 10
139.2135378449
 20
167.0284470175
 11
139.2356346381
 21
167.1561894357
  0
LINE
  5
3E3
100
AcDbEntity
  8
0
100
AcDbLine
 62
7
  6
CONTINUOUS
 10
135.3878764213
 20
168.1644519822
 11
135.4299682543
 21
168.3728519292
  0
LINE
  5
3E4
100
AcDbEntity
  8
0
100
AcDbLine
 62
7
  6
CONTINUOUS
 10
136.7165241188
 20
166.9968289399
 11
136.6814561247
 21
166.829497405
  0
LINE
  5
3E5
100
AcDbEntity
  8
0
100
AcDbLine
 62
7
  6
CONTINUOUS
 10
137.0912223806
 20
167.7094200408
 11
137.0561543866
 21
167.5420885058
  0
LINE
  5
3E6
100
AcDbEntity
  8
RUNDUNGEN
100
AcDbLine
 62
7
  6
CONTINUOUS
 10
75.1409733212
 20
38.0200281804
 11
78.8504187278
 21
43.125641773
  0
LINE
  5
3E7
100
AcDbEntity
  8
RUNDUNGEN
100
AcDbLine
 62
7
  6
CONTINUOUS
 10
161.5753105509
 20
156.9866872512
 11
165.284813126
 21
162.0923795296
  0
LINE
  5
3E8
100
AcDbEntity
  8
0
100
AcDbLine
 62
7
  6
CONTINUOUS
 10
163.4352787908
 20
147.7613461212
 11
163.5140077288
 21
147.8643421069
  0
LINE
  5
3E9
100
AcDbEntity
  8
0
100
AcDbLine
 62
7
  6
CONTINUOUS
 10
164.1385713282
 20
148.2333411511
 11
164.2173002661
 21
148.3363371368
  0
LINE
  5
3EA
100
AcDbEntity
  8
0
100
AcDbLine
 62
7
  6
CONTINUOUS
 10
164.7759523388
 20
147.8620123315
 11
164.85468129
 21
147.9650083013
  0
LINE
  5
3EB
100
AcDbEntity
  8
0
100
AcDbLine
 62
7
  6
CONTINUOUS
 10
163.403256252
 20
147.9975700052
 11
163.2921314813
 21
147.8676435666
  0
LINE
  5
3EC
100
AcDbEntity
  8
0
100
AcDbLine
 62
7
  6
CONTINUOUS
 10
164.0741529517
 20
148.442634588
 11
163.9630281826
 21
148.3127081474
  0
LINE
  5
3ED
100
AcDbEntity
  8
0
100
AcDbLine
 62
7
  6
CONTINUOUS
 10
166.0052833104
 20
144.5686389386
 11
166.090233876
 21
144.6665665351
  0
LINE
  5
3EE
100
AcDbEntity
  8
0
100
AcDbLine
 62
7
  6
CONTINUOUS
 10
166.7034195164
 20
144.2565140821
 11
166.6184689032
 21
144.1585864507
  0
LINE
  5
3EF
100
AcDbEntity
  8
0
100
AcDbLine
 62
7
  6
CONTINUOUS
 10
167.3156166852
 20
144.5612898445
 11
167.4005672508
 21
144.659217441
  0
LINE
  5
3F0
100
AcDbEntity
  8
0
100
AcDbLine
 62
7
  6
CONTINUOUS
 10
168.3814266772
 20
143.1148223887
 11
167.3113732511
 21
141.9114843825
  0
LINE
  5
3F1
100
AcDbEntity
  8
0
100
AcDbLine
 62
7
  6
CONTINUOUS
 10
164.3325729435
 20
146.8041000098
 11
164.4463363278
 21
146.9317224594
  0
LINE
  5
3F2
100
AcDbEntity
  8
0
100
AcDbLine
 62
7
  6
CONTINUOUS
 10
165.5582052811
 20
146.821071905
 11
165.4444418968
 21
146.6934494554
  0
LINE
  5
3F3
100
AcDbEntity
  8
0
100
AcDbLine
 62
7
  6
CONTINUOUS
 10
166.7595708536
 20
143.746748
 11
166.6727377385
 21
143.6504857391
  0
LINE
  5
3F4
100
AcDbEntity
  8
0
100
AcDbLine
 62
7
  6
CONTINUOUS
 10
167.9788214446
 20
143.4033204745
 11
168.0656544664
 21
143.4995830737
  0
LINE
  5
3F5
100
AcDbEntity
  8
0
100
AcDbLine
 62
7
  6
CONTINUOUS
 10
167.5506566898
 20
141.9327501117
 11
168.7796442638
 21
143.2773049175
  0
LINE
  5
3F6
100
AcDbEntity
  8
0
100
AcDbLine
 62
7
  6
CONTINUOUS
 10
169.2964213113
 20
141.7351968901
 11
168.1970033078
 21
140.5586269833
  0
LINE
  5
3F7
100
AcDbEntity
  8
0
100
AcDbLine
 62
7
  6
CONTINUOUS
 10
165.5524405113
 20
146.5579804118
 11
165.6991447848
 21
146.7118639931
  0
LINE
  5
3F8
100
AcDbEntity
  8
0
100
AcDbLine
 62
7
  6
CONTINUOUS
 10
168.4367385968
 20
140.5739823231
 11
169.6985266499
 21
141.8878046064
  0
LINE
  5
3F9
100
AcDbEntity
  8
0
100
AcDbLine
 62
7
  6
CONTINUOUS
 10
167.8230365003
 20
143.2586371194
 11
167.9788214446
 21
143.4033204745
  0
LINE
  5
3FA
100
AcDbEntity
  8
RUNDUNGEN
100
AcDbLine
 62
7
  6
CONTINUOUS
 10
42.7849948833
 20
73.0910519033
 11
48.7869995639
 21
75.041221441
  0
LINE
  5
3FB
100
AcDbEntity
  8
RUNDUNGEN
100
AcDbLine
 62
7
  6
CONTINUOUS
 10
182.6386869173
 20
118.5322710361
 11
188.640791564
 21
120.4824730546
  0
LINE
  5
3FC
100
AcDbEntity
  8
RUNDUNGEN
100
AcDbLine
 62
7
  6
CONTINUOUS
 10
188.640791564
 20
90.2100691966
 11
182.6387843899
 21
92.1602395444
  0
LINE
  5
3FD
100
AcDbEntity
  8
RUNDUNGEN
100
AcDbLine
 62
7
  6
CONTINUOUS
 10
48.7870974143
 20
135.6512890168
 11
42.7849948833
 21
137.6014903479
  0
LINE
  5
3FE
100
AcDbEntity
  8
RUNDUNGEN
100
AcDbLine
 62
7
  6
CONTINUOUS
 10
165.284813126
 20
48.6001627216
 11
161.575371207
 21
53.7057715141
  0
LINE
  5
3FF
100
AcDbEntity
  8
RUNDUNGEN
100
AcDbLine
 62
7
  6
CONTINUOUS
 10
78.8504175459
 20
167.566902105
 11
75.1409733212
 21
172.6725140709
  0
LINE
  5
400
100
AcDbEntity
  8
0
100
AcDbLine
 62
7
  6
CONTINUOUS
 10
91.1554796849
 20
167.563666118
 11
91.3927349979
 21
167.172069652
  0
LINE
  5
401
100
AcDbEntity
  8
0
100
AcDbLine
 62
7
  6
CONTINUOUS
 10
91.5212333758
 20
167.4173374131
 11
91.392429184
 21
167.6433845616
  0
LINE
  5
402
100
AcDbEntity
  8
0
100
AcDbLine
 62
7
  6
CONTINUOUS
 10
92.2247870032
 20
168.4621832917
 11
92.3535917374
 21
168.2361363256
  0
LINE
  5
403
100
AcDbEntity
  8
0
100
AcDbLine
 62
7
  6
CONTINUOUS
 10
92.5905406941
 20
168.3158545868
 11
92.4617365023
 21
168.5419017353
  0
LINE
  5
404
100
AcDbEntity
  8
0
100
AcDbLine
 62
7
  6
CONTINUOUS
 10
95.2239691265
 20
169.5001231884
 11
95.3588494871
 21
169.20658735
  0
LINE
  5
405
100
AcDbEntity
  8
0
100
AcDbLine
 62
7
  6
CONTINUOUS
 10
95.5994339006
 20
169.2745523068
 11
95.46455354
 21
169.5680881452
  0
LINE
  5
406
100
AcDbEntity
  8
0
100
AcDbLine
 62
7
  6
CONTINUOUS
 10
129.02615666
 20
169.5661673306
 11
129.0096717718
 21
169.7435346132
  0
LINE
  5
407
100
AcDbEntity
  8
0
100
AcDbLine
 62
7
  6
CONTINUOUS
 10
128.9635539294
 20
170.53489414
 11
128.9717964607
 21
170.4462105079
  0
LINE
  5
408
100
AcDbEntity
  8
0
100
AcDbLine
 62
7
  6
CONTINUOUS
 10
130.5699283654
 20
168.9844729342
 11
130.5791720697
 21
168.8065813117
  0
LINE
  5
409
100
AcDbEntity
  8
0
100
AcDbLine
 62
7
  6
CONTINUOUS
 10
130.7457585932
 20
168.7589946257
 11
130.7365148889
 21
168.9368862483
  0
LINE
  5
40A
100
AcDbEntity
  8
0
100
AcDbLine
 62
7
  6
CONTINUOUS
 10
131.8432191936
 20
168.5733510099
 11
131.8490127041
 21
168.395313517
  0
LINE
  5
40B
100
AcDbEntity
  8
0
100
AcDbLine
 62
7
  6
CONTINUOUS
 10
133.0354523885
 20
169.3092640644
 11
133.0296591852
 21
169.4873014321
  0
LINE
  5
40C
100
AcDbEntity
  8
0
100
AcDbLine
 62
7
  6
CONTINUOUS
 10
134.2250593721
 20
167.8114792623
 11
134.2241039172
 21
167.6333499865
  0
LINE
  5
40D
100
AcDbEntity
  8
0
100
AcDbLine
 62
7
  6
CONTINUOUS
 10
135.44431801
 20
168.501694888
 11
135.4452734551
 21
168.6798241359
  0
LINE
  5
40E
100
AcDbEntity
  8
0
100
AcDbLine
 62
7
  6
CONTINUOUS
 10
131.6273036528
 20
168.9014896012
 11
131.6296308681
 21
169.1198886994
  0
LINE
  5
40F
100
AcDbEntity
  8
0
100
AcDbLine
 62
7
  6
CONTINUOUS
 10
137.7565922013
 20
166.7217714031
 11
137.7648052644
 21
166.8997138301
  0
LINE
  5
410
100
AcDbEntity
  8
0
100
AcDbLine
 62
7
  6
CONTINUOUS
 10
137.8286214053
 20
167.6898428057
 11
137.8245142699
 21
167.6008718625
  0
LINE
  5
411
100
AcDbEntity
  8
0
100
AcDbLine
 62
7
  6
CONTINUOUS
 10
137.9607096071
 20
166.5019210508
 11
137.9327632037
 21
166.2853047857
  0
LINE
  5
412
100
AcDbEntity
  8
0
100
AcDbLine
 62
7
  6
CONTINUOUS
 10
138.9743937343
 20
166.3065322629
 11
139.0023401263
 21
166.5231485008
  0
LINE
  5
413
100
AcDbEntity
  8
RUNDUNGEN
100
AcDbLine
 62
7
  6
CONTINUOUS
 10
108.1444368445
 20
28.3563239333
 11
110.6817402742
 21
36.1653409277
  0
LINE
  5
414
100
AcDbEntity
  8
RUNDUNGEN
100
AcDbLine
 62
7
  6
CONTINUOUS
 10
151.7749825471
 20
162.6373361601
 11
154.3122859768
 21
170.4463531545
  0
LINE
  5
415
100
AcDbEntity
  8
0
100
AcDbLine
 62
7
  6
CONTINUOUS
 10
164.1834111875
 20
147.2567893278
 11
164.2760774599
 21
147.4089204109
  0
LINE
  5
416
100
AcDbEntity
  8
0
100
AcDbLine
 62
7
  6
CONTINUOUS
 10
164.7115339756
 20
148.0713057525
 11
164.6652008621
 21
147.9952402298
  0
LINE
  5
417
100
AcDbEntity
  8
0
100
AcDbLine
 62
7
  6
CONTINUOUS
 10
164.1916334805
 20
146.9133080598
 11
164.095869825
 21
146.7631074394
  0
LINE
  5
418
100
AcDbEntity
  8
0
100
AcDbLine
 62
7
  6
CONTINUOUS
 10
165.6991447848
 20
146.7118639931
 11
165.7949084688
 21
146.8620645305
  0
LINE
  5
419
100
AcDbEntity
  8
0
100
AcDbLine
 62
7
  6
CONTINUOUS
 10
166.6727377385
 20
143.6504857391
 11
166.5680233133
 21
143.5063822944
  0
LINE
  5
41A
100
AcDbEntity
  8
0
100
AcDbLine
 62
7
  6
CONTINUOUS
 10
168.0656544664
 20
143.4995830737
 11
168.1703690573
 21
143.643686231
  0
LINE
  5
41B
100
AcDbEntity
  8
0
100
AcDbLine
 62
7
  6
CONTINUOUS
 10
165.9709868048
 20
144.7582128538
 11
165.8350858142
 21
144.5872318889
  0
LINE
  5
41C
100
AcDbEntity
  8
0
100
AcDbLine
 62
7
  6
CONTINUOUS
 10
166.737716022
 20
144.0669401669
 11
166.8736169888
 21
144.2379211143
  0
LINE
  5
41D
100
AcDbEntity
  8
RUNDUNGEN
100
AcDbLine
 62
7
  6
CONTINUOUS
 10
63.805174908
 20
45.8740018052
 11
70.4479215266
 21
50.7002397265
  0
LINE
  5
41E
100
AcDbEntity
  8
RUNDUNGEN
100
AcDbLine
 62
7
  6
CONTINUOUS
 10
178.031426505
 20
128.8642314051
 11
184.6741731237
 21
133.6904693264
  0
LINE
  5
41F
100
AcDbEntity
  8
RUNDUNGEN
100
AcDbLine
 62
7
  6
CONTINUOUS
 10
187.6328893577
 20
124.5844770818
 11
179.4220029797
 21
124.5844770818
  0
LINE
  5
420
100
AcDbEntity
  8
RUNDUNGEN
100
AcDbLine
 62
7
  6
CONTINUOUS
 10
46.4414775688
 20
124.5844770818
 11
38.2305911907
 21
124.5844770818
  0
LINE
  5
421
100
AcDbEntity
  8
RUNDUNGEN
100
AcDbLine
 62
7
  6
CONTINUOUS
 10
184.6741731237
 20
77.0020729249
 11
178.031426505
 21
81.8283108461
  0
LINE
  5
422
100
AcDbEntity
  8
RUNDUNGEN
100
AcDbLine
 62
7
  6
CONTINUOUS
 10
70.4479215266
 20
159.9923025248
 11
63.805174908
 21
164.8185404461
  0
LINE
  5
423
100
AcDbEntity
  8
0
100
AcDbLine
 62
7
  6
CONTINUOUS
 10
88.6003776927
 20
168.3208164056
 11
88.7173944638
 21
168.161206765
  0
LINE
  5
424
100
AcDbEntity
  8
0
100
AcDbLine
 62
7
  6
CONTINUOUS
 10
88.9963024511
 20
168.2717071479
 11
88.87928568
 21
168.4313167886
  0
LINE
  5
425
100
AcDbEntity
  8
0
100
AcDbLine
 62
7
  6
CONTINUOUS
 10
92.4617365023
 20
168.5419017353
 11
92.3532859377
 21
168.7074511928
  0
LINE
  5
426
100
AcDbEntity
  8
0
100
AcDbLine
 62
7
  6
CONTINUOUS
 10
95.46455354
 20
169.5680881452
 11
95.364378108
 21
169.738772321
  0
LINE
  5
427
100
AcDbEntity
  8
RUNDUNGEN
100
AcDbLine
 62
7
  6
CONTINUOUS
 10
154.3122859768
 20
40.2461890968
 11
151.7749825471
 21
48.0552060912
  0
LINE
  5
428
100
AcDbEntity
  8
RUNDUNGEN
100
AcDbLine
 62
7
  6
CONTINUOUS
 10
110.6817402742
 20
174.5272013236
 11
108.1444368445
 21
182.336218318
  0
LINE
  5
429
100
AcDbEntity
  8
0
100
AcDbLine
 62
7
  6
CONTINUOUS
 10
138.0052306286
 20
167.665358443
 11
137.986589332
 21
167.8539114094
  0
LINE
  5
42A
100
AcDbEntity
  8
0
100
AcDbLine
 62
7
  6
CONTINUOUS
 10
134.4015641455
 20
167.616082411
 11
134.3757329293
 21
167.8927838351
  0
LINE
  5
42B
100
AcDbEntity
  8
0
100
AcDbLine
 62
7
  6
CONTINUOUS
 10
135.2678132269
 20
168.6970917114
 11
135.2936444139
 21
168.4203902037
  0
LINE
  5
42C
100
AcDbEntity
  8
0
100
AcDbLine
 62
7
  6
CONTINUOUS
 10
137.9327632037
 20
166.2853047857
 11
137.9477039121
 21
166.0964225492
  0
LINE
  5
42D
100
AcDbEntity
  8
0
100
AcDbLine
 62
7
  6
CONTINUOUS
 10
139.2356346381
 20
167.1561894357
 11
139.220693924
 21
167.3450716586
  0
LINE
  5
42E
100
AcDbEntity
  8
0
100
AcDbLine
 62
7
  6
CONTINUOUS
 10
137.5727153044
 20
166.8850180184
 11
137.579982978
 21
166.7462557658
  0
LINE
  5
42F
100
AcDbEntity
  8
0
100
AcDbLine
 62
7
  6
CONTINUOUS
 10
138.0926124306
 20
166.2184932062
 11
138.0880668844
 21
166.3573712547
  0
LINE
  5
430
100
AcDbEntity
  8
0
100
AcDbLine
 62
7
  6
CONTINUOUS
 10
139.0757854112
 20
167.2230010152
 11
139.0803297493
 21
167.0841235037
  0
LINE
  5
431
100
AcDbEntity
  8
0
100
AcDbLine
 62
7
  6
CONTINUOUS
 10
136.6814561247
 20
166.829497405
 11
136.6846166684
 21
166.601764223
  0
LINE
  5
432
100
AcDbEntity
  8
0
100
AcDbLine
 62
7
  6
CONTINUOUS
 10
164.85468129
 20
147.9650083013
 11
164.9288889023
 21
148.1393440387
  0
LINE
  5
433
100
AcDbEntity
  8
0
100
AcDbLine
 62
7
  6
CONTINUOUS
 10
164.1005343078
 20
147.4882874151
 11
164.0402638731
 21
147.3630867791
  0
LINE
  5
434
100
AcDbEntity
  8
0
100
AcDbLine
 62
7
  6
CONTINUOUS
 10
165.8350858142
 20
144.5872318889
 11
165.7502341471
 21
144.4178213856
  0
LINE
  5
435
100
AcDbEntity
  8
0
100
AcDbLine
 62
7
  6
CONTINUOUS
 10
167.4005672508
 20
144.659217441
 11
167.485418906
 21
144.8286279356
  0
LINE
  5
436
100
AcDbEntity
  8
0
100
AcDbLine
 62
7
  6
CONTINUOUS
 10
164.2697500565
 20
146.6801605305
 11
164.3325729435
 21
146.8041000098
  0
LINE
  5
437
100
AcDbEntity
  8
0
100
AcDbLine
 62
7
  6
CONTINUOUS
 10
165.6210282604
 20
146.9450114578
 11
165.5582052811
 21
146.821071905
  0
LINE
  5
438
100
AcDbEntity
  8
0
100
AcDbLine
 62
7
  6
CONTINUOUS
 10
163.2921314813
 20
147.8676435666
 11
163.1855279989
 21
147.6663773518
  0
LINE
  5
439
100
AcDbEntity
  8
0
100
AcDbLine
 62
7
  6
CONTINUOUS
 10
165.9373822584
 20
144.4474069984
 11
166.0052833104
 21
144.5686389386
  0
LINE
  5
43A
100
AcDbEntity
  8
0
100
AcDbLine
 62
7
  6
CONTINUOUS
 10
167.2982708066
 20
144.7990423315
 11
167.2303697784
 21
144.6778104088
  0
LINE
  5
43B
100
AcDbEntity
  8
0
100
AcDbLine
 62
7
  6
CONTINUOUS
 10
166.7020655758
 20
143.3888111514
 11
166.8425429526
 21
143.6285963889
  0
LINE
  5
43C
100
AcDbEntity
  8
0
100
AcDbLine
 62
7
  6
CONTINUOUS
 10
168.0363267948
 20
143.7612573739
 11
167.8958491557
 21
143.5214723561
  0
LINE
  5
43D
100
AcDbEntity
  8
0
100
AcDbLine
 62
7
  6
CONTINUOUS
 10
154.6750640316
 20
104.3803452993
 11
145.3879415307
 21
95.0932227984
  0
LINE
  5
43E
100
AcDbEntity
  8
0
100
AcDbLine
 62
7
  6
CONTINUOUS
 10
123.1847886014
 20
72.8900698692
 11
113.8976661005
 21
63.6029473683
  0
LINE
  5
43F
100
AcDbEntity
  8
0
100
AcDbLine
 62
7
  6
CONTINUOUS
 10
145.3879415307
 20
94.244694661
 11
124.0333167389
 21
72.8900698692
  0
LINE
  5
440
100
AcDbEntity
  8
0
100
AcDbLine
 62
7
  6
CONTINUOUS
 10
163.94307636
 20
147.2822954379
 11
163.8089717233
 21
147.2459133538
  0
LINE
  5
441
100
AcDbEntity
  8
0
100
AcDbLine
 62
7
  6
CONTINUOUS
 10
164.8005669054
 20
146.2170675307
 11
164.6657450107
 21
146.1834406611
  0
LINE
  5
442
100
AcDbEntity
  8
0
100
AcDbLine
 62
7
  6
CONTINUOUS
 10
165.0902113192
 20
147.408104384
 11
165.2250333062
 21
147.4417313272
  0
LINE
  5
443
100
AcDbEntity
  8
0
100
AcDbLine
 62
7
  6
CONTINUOUS
 10
166.3974197449
 20
144.0326434361
 11
166.2613209334
 21
144.0046282674
  0
LINE
  5
444
100
AcDbEntity
  8
0
100
AcDbLine
 62
7
  6
CONTINUOUS
 10
166.8552826863
 20
145.1905018517
 11
166.991381474
 21
145.218517003
  0
LINE
  5
445
100
AcDbEntity
  8
0
100
AcDbLine
 62
7
  6
CONTINUOUS
 10
167.240808534
 20
143.0614693584
 11
166.9675762166
 21
143.0107261039
  0
LINE
  5
446
100
AcDbEntity
  8
0
100
AcDbLine
 62
7
  6
CONTINUOUS
 10
167.4975835743
 20
144.0885993865
 11
167.770816154
 21
144.1393424215
  0
LINE
  5
447
100
AcDbEntity
  8
0
100
AcDbLine
 62
7
  6
CONTINUOUS
 10
166.1764692663
 20
143.8352177641
 11
166.3636173776
 21
143.8648033769
  0
LINE
  5
448
100
AcDbEntity
  8
0
100
AcDbLine
 62
7
  6
CONTINUOUS
 10
167.0762331292
 20
145.3879274976
 11
166.8890850298
 21
145.3583418935
  0
LINE
  5
449
100
AcDbEntity
  8
0
100
AcDbLine
 62
7
  6
CONTINUOUS
 10
91.3927349979
 20
167.172069652
 11
91.5485755237
 21
167.0224638803
  0
LINE
  5
44A
100
AcDbEntity
  8
0
100
AcDbLine
 62
7
  6
CONTINUOUS
 10
91.6770741799
 20
167.2677317114
 11
91.5212333758
 21
167.4173374131
  0
LINE
  5
44B
100
AcDbEntity
  8
0
100
AcDbLine
 62
7
  6
CONTINUOUS
 10
92.0689464846
 20
168.6117890422
 11
92.2247870032
 21
168.4621832917
  0
LINE
  5
44C
100
AcDbEntity
  8
0
100
AcDbLine
 62
7
  6
CONTINUOUS
 10
92.3532859377
 20
168.7074511928
 11
92.1974451479
 21
168.8570568521
  0
LINE
  5
44D
100
AcDbEntity
  8
0
100
AcDbLine
 62
7
  6
CONTINUOUS
 10
113.8976661005
 20
147.089594883
 11
123.1847886014
 21
137.8024723821
  0
LINE
  5
44E
100
AcDbEntity
  8
0
100
AcDbLine
 62
7
  6
CONTINUOUS
 10
145.3879415307
 20
115.5993194528
 11
154.6750640316
 21
106.3121969519
  0
LINE
  5
44F
100
AcDbEntity
  8
0
100
AcDbLine
 62
7
  6
CONTINUOUS
 10
124.0333167389
 20
137.8024723821
 11
145.3879415307
 21
116.4478475903
  0
LINE
  5
450
100
AcDbEntity
  8
0
100
AcDbLine
 62
7
  6
CONTINUOUS
 10
129.1418521827
 20
170.5350802421
 11
129.0973026898
 21
170.719240666
  0
LINE
  5
451
100
AcDbEntity
  8
0
100
AcDbLine
 62
7
  6
CONTINUOUS
 10
130.5791720697
 20
168.8065813117
 11
130.6161804104
 21
168.6207585285
  0
LINE
  5
452
100
AcDbEntity
  8
0
100
AcDbLine
 62
7
  6
CONTINUOUS
 10
131.6296308681
 20
169.1198886994
 11
131.5926225233
 21
169.3057114684
  0
LINE
  5
453
100
AcDbEntity
  8
0
100
AcDbLine
 62
7
  6
CONTINUOUS
 10
128.8214624887
 20
169.7024032945
 11
128.8478584067
 21
169.5659812286
  0
LINE
  5
454
100
AcDbEntity
  8
0
100
AcDbLine
 62
7
  6
CONTINUOUS
 10
127.9464561103
 20
169.5241055016
 11
127.981094563
 21
169.2989998179
  0
LINE
  5
455
100
AcDbEntity
  8
0
100
AcDbLine
 62
7
  6
CONTINUOUS
 10
131.4630443446
 20
169.1674753854
 11
131.483859604
 21
169.0300910569
  0
LINE
  5
456
100
AcDbEntity
  8
0
100
AcDbLine
 62
7
  6
CONTINUOUS
 10
132.0269997267
 20
168.3847815863
 11
131.9907039615
 21
168.6603057182
  0
LINE
  5
457
100
AcDbEntity
  8
0
100
AcDbLine
 62
7
  6
CONTINUOUS
 10
132.8516721627
 20
169.4978333628
 11
132.8879679019
 21
169.2223091463
  0
LINE
  5
458
100
AcDbEntity
  8
0
100
AcDbLine
 62
7
  6
CONTINUOUS
 10
145.3879415307
 20
116.4478475903
 11
145.3879415307
 21
115.5993194528
  0
LINE
  5
459
100
AcDbEntity
  8
0
100
AcDbLine
 62
7
  6
CONTINUOUS
 10
145.3879415307
 20
95.0932227984
 11
145.3879415307
 21
94.244694661
  0
LINE
  5
45A
100
AcDbEntity
  8
0
100
AcDbLine
 62
7
  6
CONTINUOUS
 10
163.3934669935
 20
147.613940812
 11
163.4352787908
 21
147.7613461212
  0
LINE
  5
45B
100
AcDbEntity
  8
0
100
AcDbLine
 62
7
  6
CONTINUOUS
 10
163.9630281826
 20
148.3127081474
 11
163.907279152
 21
148.1161677576
  0
LINE
  5
45C
100
AcDbEntity
  8
0
100
AcDbLine
 62
7
  6
CONTINUOUS
 10
164.2760774599
 20
147.4089204109
 11
164.3318264575
 21
147.6054608404
  0
LINE
  5
45D
100
AcDbEntity
  8
0
100
AcDbLine
 62
7
  6
CONTINUOUS
 10
164.7394084744
 20
148.1695759673
 11
164.7115339756
 21
148.0713057525
  0
LINE
  5
45E
100
AcDbEntity
  8
0
100
AcDbLine
 62
7
  6
CONTINUOUS
 10
164.095869825
 20
146.7631074394
 11
164.0361057364
 21
146.5677504589
  0
LINE
  5
45F
100
AcDbEntity
  8
0
100
AcDbLine
 62
7
  6
CONTINUOUS
 10
164.6025694798
 20
146.4654274009
 11
164.5278642831
 21
146.2212312652
  0
LINE
  5
460
100
AcDbEntity
  8
0
100
AcDbLine
 62
7
  6
CONTINUOUS
 10
164.4531590922
 20
145.9770351341
 11
164.4232770994
 21
145.8793565792
  0
LINE
  5
461
100
AcDbEntity
  8
0
100
AcDbLine
 62
7
  6
CONTINUOUS
 10
164.6657450107
 20
146.1834406611
 11
164.7105680943
 21
146.3299583573
  0
LINE
  5
462
100
AcDbEntity
  8
0
100
AcDbLine
 62
7
  6
CONTINUOUS
 10
164.5312757139
 20
145.7438875356
 11
164.6059808076
 21
145.9880838005
  0
LINE
  5
463
100
AcDbEntity
  8
0
100
AcDbLine
 62
7
  6
CONTINUOUS
 10
165.7949084688
 20
146.8620645305
 11
165.8546725458
 21
147.0574215019
  0
LINE
  5
464
100
AcDbEntity
  8
0
100
AcDbLine
 62
7
  6
CONTINUOUS
 10
166.7373205753
 20
144.3528714925
 11
166.7034195164
 21
144.2565140821
  0
LINE
  5
465
100
AcDbEntity
  8
0
100
AcDbLine
 62
7
  6
CONTINUOUS
 10
166.8736169888
 20
144.2379211143
 11
166.9244686747
 21
144.3824570966
  0
LINE
  5
466
100
AcDbEntity
  8
0
100
AcDbLine
 62
7
  6
CONTINUOUS
 10
166.5680233133
 20
143.5063822944
 11
166.5143790637
 21
143.3628593264
  0
LINE
  5
467
100
AcDbEntity
  8
0
100
AcDbLine
 62
7
  6
CONTINUOUS
 10
168.1703690573
 20
143.643686231
 11
168.2240132949
 21
143.7872091905
  0
LINE
  5
468
100
AcDbEntity
  8
0
100
AcDbLine
 62
7
  6
CONTINUOUS
 10
163.6515137869
 20
147.039921386
 11
163.854931502
 21
147.0588245425
  0
LINE
  5
469
100
AcDbEntity
  8
0
100
AcDbLine
 62
7
  6
CONTINUOUS
 10
164.5551959963
 20
148.6547767744
 11
164.3517783255
 21
148.6358735876
  0
LINE
  5
46A
100
AcDbEntity
  8
0
100
AcDbLine
 62
7
  6
CONTINUOUS
 10
164.6059808076
 20
145.9880838005
 11
164.7078620083
 21
145.9954494828
  0
LINE
  5
46B
100
AcDbEntity
  8
0
100
AcDbLine
 62
7
  6
CONTINUOUS
 10
165.386678584
 20
147.6444539809
 11
165.1829162855
 21
147.6297224871
  0
LINE
  5
46C
100
AcDbEntity
  8
0
100
AcDbLine
 62
7
  6
CONTINUOUS
 10
166.3112830819
 20
144.7925095845
 11
166.4133819003
 21
144.7956502235
  0
LINE
  5
46D
100
AcDbEntity
  8
0
100
AcDbLine
 62
7
  6
CONTINUOUS
 10
166.8794561474
 20
142.8429924536
 11
167.0326668398
 21
142.8447335964
  0
LINE
  5
46E
100
AcDbEntity
  8
0
100
AcDbLine
 62
7
  6
CONTINUOUS
 10
167.8589362112
 20
144.3070760633
 11
167.7057255308
 21
144.305334929
  0
LINE
  5
46F
100
AcDbEntity
  8
0
100
AcDbLine
 62
7
  6
CONTINUOUS
 10
101.8301638096
 20
137.8024723821
 11
102.678691947
 21
137.8024723821
  0
LINE
  5
470
100
AcDbEntity
  8
0
100
AcDbLine
 62
7
  6
CONTINUOUS
 10
123.1847886014
 20
137.8024723821
 11
124.0333167389
 21
137.8024723821
  0
LINE
  5
471
100
AcDbEntity
  8
0
100
AcDbLine
 62
7
  6
CONTINUOUS
 10
88.87928568
 20
168.4313167886
 11
88.6457888184
 21
168.6134350686
  0
LINE
  5
472
100
AcDbEntity
  8
0
100
AcDbLine
 62
7
  6
CONTINUOUS
 10
97.6729037963
 20
168.5540526405
 11
96.6485134807
 21
169.5459829968
  0
LINE
  5
473
100
AcDbEntity
  8
0
100
AcDbLine
 62
7
  6
CONTINUOUS
 10
96.5500269093
 20
169.3235676278
 11
97.3820557911
 21
168.4805173571
  0
LINE
  5
474
100
AcDbEntity
  8
0
100
AcDbLine
 62
7
  6
CONTINUOUS
 10
128.1792148793
 20
169.3810763676
 11
128.1247543636
 21
169.5242916036
  0
LINE
  5
475
100
AcDbEntity
  8
0
100
AcDbLine
 62
7
  6
CONTINUOUS
 10
128.2189593007
 20
170.2816851183
 11
128.2915733844
 21
170.0907314956
  0
LINE
  5
476
100
AcDbEntity
  8
0
100
AcDbLine
 62
7
  6
CONTINUOUS
 10
129.0096717718
 20
169.7435346132
 11
128.9370576881
 21
169.9344882359
  0
LINE
  5
477
100
AcDbEntity
  8
0
100
AcDbLine
 62
7
  6
CONTINUOUS
 10
128.9272469678
 20
170.6303709319
 11
128.9635539294
 21
170.53489414
  0
LINE
  5
478
100
AcDbEntity
  8
0
100
AcDbLine
 62
7
  6
CONTINUOUS
 10
131.8490127041
 20
168.395313517
 11
131.8947659239
 21
168.2490835928
  0
LINE
  5
479
100
AcDbEntity
  8
0
100
AcDbLine
 62
7
  6
CONTINUOUS
 10
133.0296591852
 20
169.4873014321
 11
132.9839059612
 21
169.6335313422
  0
LINE
  5
47A
100
AcDbEntity
  8
0
100
AcDbLine
 62
7
  6
CONTINUOUS
 10
134.2241039172
 20
167.6333499865
 11
134.264284231
 21
167.4854916413
  0
LINE
  5
47B
100
AcDbEntity
  8
0
100
AcDbLine
 62
7
  6
CONTINUOUS
 10
135.4452734551
 20
168.6798241359
 11
135.4050931365
 21
168.8276824671
  0
LINE
  5
47C
100
AcDbEntity
  8
0
100
AcDbLine
 62
7
  6
CONTINUOUS
 10
136.8921873705
 20
166.6556402229
 11
136.858065348
 21
166.8050130423
  0
LINE
  5
47D
100
AcDbEntity
  8
0
100
AcDbLine
 62
7
  6
CONTINUOUS
 10
137.0561543866
 20
167.5420885058
 11
137.1016506358
 21
167.3429247023
  0
LINE
  5
47E
100
AcDbEntity
  8
0
100
AcDbLine
 62
7
  6
CONTINUOUS
 10
137.7648052644
 20
166.8997138301
 11
137.7193096298
 21
167.0988773908
  0
LINE
  5
47F
100
AcDbEntity
  8
0
100
AcDbLine
 62
7
  6
CONTINUOUS
 10
137.8058729733
 20
167.7894248289
 11
137.8286214053
 21
167.6898428057
  0
LINE
  5
480
100
AcDbEntity
  8
0
100
AcDbLine
 62
7
  6
CONTINUOUS
 10
138.8262449246
 20
166.551090972
 11
138.847036457
 21
166.451082059
  0
LINE
  5
481
100
AcDbEntity
  8
0
100
AcDbLine
 62
7
  6
CONTINUOUS
 10
139.0023401263
 20
166.5231485008
 11
138.9711534374
 21
166.6731616154
  0
LINE
  5
482
100
AcDbEntity
  8
0
100
AcDbLine
 62
7
  6
CONTINUOUS
 10
164.2578677468
 20
146.5599038741
 11
164.2697500565
 21
146.6801605305
  0
LINE
  5
483
100
AcDbEntity
  8
0
100
AcDbLine
 62
7
  6
CONTINUOUS
 10
164.9288889023
 20
148.1393440387
 11
164.9522421151
 21
148.3089539576
  0
LINE
  5
484
100
AcDbEntity
  8
0
100
AcDbLine
 62
7
  6
CONTINUOUS
 10
165.9205305419
 20
144.3277455285
 11
165.9373822584
 21
144.4474069984
  0
LINE
  5
485
100
AcDbEntity
  8
0
100
AcDbLine
 62
7
  6
CONTINUOUS
 10
166.6828971579
 20
143.2694988742
 11
166.7020655758
 21
143.3888111514
  0
LINE
  5
486
100
AcDbEntity
  8
0
100
AcDbLine
 62
7
  6
CONTINUOUS
 10
157.5058950186
 20
90.6356073131
 11
127.6424040869
 21
60.7721163813
  0
LINE
  5
487
100
AcDbEntity
  8
0
100
AcDbLine
 62
7
  6
CONTINUOUS
 10
163.8089717233
 20
147.2459133538
 11
163.6888042868
 21
147.25866639
  0
LINE
  5
488
100
AcDbEntity
  8
0
100
AcDbLine
 62
7
  6
CONTINUOUS
 10
166.2613209334
 20
144.0046282674
 11
166.1421727726
 21
144.024791688
  0
LINE
  5
489
100
AcDbEntity
  8
0
100
AcDbLine
 62
7
  6
CONTINUOUS
 10
166.9675762166
 20
143.0107261039
 11
166.8488413559
 21
143.0331956519
  0
LINE
  5
48A
100
AcDbEntity
  8
0
100
AcDbLine
 62
7
  6
CONTINUOUS
 10
88.4603868853
 20
168.4026671628
 11
88.6003776927
 21
168.3208164056
  0
LINE
  5
48B
100
AcDbEntity
  8
0
100
AcDbLine
 62
7
  6
CONTINUOUS
 10
91.5485755237
 20
167.0224638803
 11
91.6840624186
 21
166.9333558103
  0
LINE
  5
48C
100
AcDbEntity
  8
0
100
AcDbLine
 62
7
  6
CONTINUOUS
 10
91.8125610713
 20
167.178623652
 11
91.6770741799
 21
167.2677317114
  0
LINE
  5
48D
100
AcDbEntity
  8
0
100
AcDbLine
 62
7
  6
CONTINUOUS
 10
91.9334595932
 20
168.7008971016
 11
92.0689464846
 21
168.6117890422
  0
LINE
  5
48E
100
AcDbEntity
  8
0
100
AcDbLine
 62
7
  6
CONTINUOUS
 10
92.1974451479
 20
168.8570568521
 11
92.0619579853
 21
168.9461648203
  0
LINE
  5
48F
100
AcDbEntity
  8
0
100
AcDbLine
 62
7
  6
CONTINUOUS
 10
95.0930297717
 20
169.5957886815
 11
95.2239691265
 21
169.5001231884
  0
LINE
  5
490
100
AcDbEntity
  8
0
100
AcDbLine
 62
7
  6
CONTINUOUS
 10
95.364378108
 20
169.738772321
 11
95.2334393038
 21
169.8344379698
  0
LINE
  5
491
100
AcDbEntity
  8
0
100
AcDbLine
 62
7
  6
CONTINUOUS
 10
127.6424040868
 20
149.92042587
 11
157.5058950186
 21
120.0569349383
  0
LINE
  5
492
100
AcDbEntity
  8
0
100
AcDbLine
 62
7
  6
CONTINUOUS
 10
130.8059093965
 20
168.6541865697
 11
130.7457585932
 21
168.7589946257
  0
LINE
  5
493
100
AcDbEntity
  8
0
100
AcDbLine
 62
7
  6
CONTINUOUS
 10
129.0973026898
 20
170.719240666
 11
129.014777737
 21
170.8692490332
  0
LINE
  5
494
100
AcDbEntity
  8
0
100
AcDbLine
 62
7
  6
CONTINUOUS
 10
132.0851070026
 20
168.2788271858
 11
132.0269997267
 21
168.3847815863
  0
LINE
  5
495
100
AcDbEntity
  8
0
100
AcDbLine
 62
7
  6
CONTINUOUS
 10
134.4556158343
 20
167.5080025207
 11
134.4015641455
 21
167.616082411
  0
LINE
  5
496
100
AcDbEntity
  8
0
100
AcDbLine
 62
7
  6
CONTINUOUS
 10
138.1400450943
 20
166.1073491999
 11
138.0926124306
 21
166.2184932062
  0
LINE
  5
497
100
AcDbEntity
  8
0
100
AcDbLine
 62
7
  6
CONTINUOUS
 10
137.986589332
 20
167.8539114094
 11
137.9256117313
 21
168.0138952814
  0
LINE
  5
498
100
AcDbEntity
  8
0
100
AcDbLine
 62
7
  6
CONTINUOUS
 10
163.907279152
 20
148.1161677576
 11
163.91632179
 21
147.9734882699
  0
LINE
  5
499
100
AcDbEntity
  8
0
100
AcDbLine
 62
7
  6
CONTINUOUS
 10
164.3318264575
 20
147.6054608404
 11
164.3227838327
 21
147.7481403123
  0
LINE
  5
49A
100
AcDbEntity
  8
0
100
AcDbLine
 62
7
  6
CONTINUOUS
 10
164.0361057364
 20
146.5677504589
 11
164.0422231416
 21
146.4249157261
  0
LINE
  5
49B
100
AcDbEntity
  8
0
100
AcDbLine
 62
7
  6
CONTINUOUS
 10
165.8546725458
 20
147.0574215019
 11
165.848555029
 21
147.2002563569
  0
LINE
  5
49C
100
AcDbEntity
  8
0
100
AcDbLine
 62
7
  6
CONTINUOUS
 10
163.1855279989
 20
147.6663773518
 11
163.1806333725
 21
147.4745627575
  0
LINE
  5
49D
100
AcDbEntity
  8
0
100
AcDbLine
 62
7
  6
CONTINUOUS
 10
164.1291554044
 20
148.1128662919
 11
164.1385713282
 21
148.2333411511
  0
LINE
  5
49E
100
AcDbEntity
  8
0
100
AcDbLine
 62
7
  6
CONTINUOUS
 10
164.1099502447
 20
147.6087622584
 11
164.1005343078
 21
147.4882874151
  0
LINE
  5
49F
100
AcDbEntity
  8
0
100
AcDbLine
 62
7
  6
CONTINUOUS
 10
165.7502341471
 20
144.4178213856
 11
165.7334813321
 21
144.226677011
  0
LINE
  5
4A0
100
AcDbEntity
  8
0
100
AcDbLine
 62
7
  6
CONTINUOUS
 10
166.9244686747
 20
144.3824570966
 11
166.9412216759
 21
144.5736011979
  0
LINE
  5
4A1
100
AcDbEntity
  8
0
100
AcDbLine
 62
7
  6
CONTINUOUS
 10
167.485418906
 20
144.8286279356
 11
167.5021717121
 21
145.0197723036
  0
LINE
  5
4A2
100
AcDbEntity
  8
0
100
AcDbLine
 62
7
  6
CONTINUOUS
 10
165.632910547
 20
147.0652680958
 11
165.6210282604
 21
146.9450114578
  0
LINE
  5
4A3
100
AcDbEntity
  8
0
100
AcDbLine
 62
7
  6
CONTINUOUS
 10
166.5143790637
 20
143.3628593264
 11
166.4939235048
 21
143.1720759324
  0
LINE
  5
4A4
100
AcDbEntity
  8
0
100
AcDbLine
 62
7
  6
CONTINUOUS
 10
168.2240132949
 20
143.7872091905
 11
168.2444684649
 21
143.977993119
  0
LINE
  5
4A5
100
AcDbEntity
  8
0
100
AcDbLine
 62
7
  6
CONTINUOUS
 10
166.7541722918
 20
144.4725329624
 11
166.7373205753
 21
144.3528714925
  0
LINE
  5
4A6
100
AcDbEntity
  8
0
100
AcDbLine
 62
7
  6
CONTINUOUS
 10
167.3151225232
 20
144.9187038014
 11
167.2982708066
 21
144.7990423315
  0
LINE
  5
4A7
100
AcDbEntity
  8
0
100
AcDbLine
 62
7
  6
CONTINUOUS
 10
168.0554952127
 20
143.8805696512
 11
168.0363267948
 21
143.7612573739
  0
LINE
  5
4A8
100
AcDbEntity
  8
0
100
AcDbLine
 62
7
  6
CONTINUOUS
 10
137.2558340629
 20
166.2401761349
 11
137.3942141216
 21
166.2760936313
  0
LINE
  5
4A9
100
AcDbEntity
  8
0
100
AcDbLine
 62
7
  6
CONTINUOUS
 10
137.5496454674
 20
168.1624457871
 11
137.4112654127
 21
168.1265283011
  0
LINE
  5
4AA
100
AcDbEntity
  8
0
100
AcDbLine
 62
7
  6
CONTINUOUS
 10
164.3977381203
 20
148.4487848031
 11
164.5179055473
 21
148.4360317322
  0
LINE
  5
4AB
100
AcDbEntity
  8
0
100
AcDbLine
 62
7
  6
CONTINUOUS
 10
165.2250333062
 20
147.4417313272
 11
165.3449142073
 21
147.4265189217
  0
LINE
  5
4AC
100
AcDbEntity
  8
0
100
AcDbLine
 62
7
  6
CONTINUOUS
 10
166.4133819003
 20
144.7956502235
 11
166.5325300611
 21
144.7754868029
  0
LINE
  5
4AD
100
AcDbEntity
  8
0
100
AcDbLine
 62
7
  6
CONTINUOUS
 10
166.6854805653
 20
144.9231634242
 11
166.4471842438
 21
144.9634902653
  0
LINE
  5
4AE
100
AcDbEntity
  8
0
100
AcDbLine
 62
7
  6
CONTINUOUS
 10
166.991381474
 20
145.218517003
 11
167.1105296347
 21
145.1983535824
  0
LINE
  5
4AF
100
AcDbEntity
  8
0
100
AcDbLine
 62
7
  6
CONTINUOUS
 10
167.770816154
 20
144.1393424215
 11
167.8895510147
 21
144.1168728735
  0
LINE
  5
4B0
100
AcDbEntity
  8
0
100
AcDbLine
 62
7
  6
CONTINUOUS
 10
165.9892224426
 20
143.8771147848
 11
166.1764692663
 21
143.8352177641
  0
LINE
  5
4B1
100
AcDbEntity
  8
0
100
AcDbLine
 62
7
  6
CONTINUOUS
 10
167.263480139
 20
145.3460302037
 11
167.0762331292
 21
145.3879274976
  0
LINE
  5
4B2
100
AcDbEntity
  8
0
100
AcDbLine
 62
7
  6
CONTINUOUS
 10
166.6930563905
 20
142.8885122819
 11
166.8794561474
 21
142.8429924536
  0
LINE
  5
4B3
100
AcDbEntity
  8
0
100
AcDbLine
 62
7
  6
CONTINUOUS
 10
168.0453355792
 20
144.2615567695
 11
167.8589362112
 21
144.3070760633
  0
LINE
  5
4B4
100
AcDbEntity
  8
0
100
AcDbLine
 62
7
  6
CONTINUOUS
 10
91.6840624186
 20
166.9333558103
 11
91.7991959557
 21
166.9047455279
  0
LINE
  5
4B5
100
AcDbEntity
  8
0
100
AcDbLine
 62
7
  6
CONTINUOUS
 10
163.5128878028
 20
147.0748790625
 11
163.6515137869
 21
147.039921386
  0
LINE
  5
4B6
100
AcDbEntity
  8
0
100
AcDbLine
 62
7
  6
CONTINUOUS
 10
164.6938219851
 20
148.6198190749
 11
164.5551959963
 21
148.6547767744
  0
LINE
  5
4B7
100
AcDbEntity
  8
0
100
AcDbLine
 62
7
  6
CONTINUOUS
 10
165.5245591855
 20
147.6066634876
 11
165.386678584
 21
147.6444539809
  0
LINE
  5
4B8
100
AcDbEntity
  8
0
100
AcDbLine
 62
7
  6
CONTINUOUS
 10
88.6457888184
 20
168.6134350686
 11
88.3893180536
 21
168.7177945178
  0
LINE
  5
4B9
100
AcDbEntity
  8
0
100
AcDbLine
 62
7
  6
CONTINUOUS
 10
95.2334393038
 20
169.8344379698
 11
95.0543832866
 21
169.9165105338
  0
LINE
  5
4BA
100
AcDbEntity
  8
0
100
AcDbLine
 62
7
  6
CONTINUOUS
 10
128.2915733844
 20
170.0907314956
 11
128.384009367
 21
169.9816683451
  0
LINE
  5
4BB
100
AcDbEntity
  8
0
100
AcDbLine
 62
7
  6
CONTINUOUS
 10
128.9370576881
 20
169.9344882359
 11
128.8446215449
 21
170.0435514253
  0
LINE
  5
4BC
100
AcDbEntity
  8
0
100
AcDbLine
 62
7
  6
CONTINUOUS
 10
127.981094563
 20
169.2989998179
 11
128.0916841041
 21
169.1421982413
  0
LINE
  5
4BD
100
AcDbEntity
  8
0
100
AcDbLine
 62
7
  6
CONTINUOUS
 10
130.6161804104
 20
168.6207585285
 11
130.7202889285
 21
168.4595808464
  0
LINE
  5
4BE
100
AcDbEntity
  8
0
100
AcDbLine
 62
7
  6
CONTINUOUS
 10
131.5926225233
 20
169.3057114684
 11
131.4885140022
 21
169.4668891399
  0
LINE
  5
4BF
100
AcDbEntity
  8
0
100
AcDbLine
 62
7
  6
CONTINUOUS
 10
137.1016506358
 20
167.3429247023
 11
137.1781077438
 21
167.2221214905
  0
LINE
  5
4C0
100
AcDbEntity
  8
0
100
AcDbLine
 62
7
  6
CONTINUOUS
 10
137.7193096298
 20
167.0988773908
 11
137.6428525218
 21
167.2196806026
  0
LINE
  5
4C1
100
AcDbEntity
  8
0
100
AcDbLine
 62
7
  6
CONTINUOUS
 10
128.4715401361
 20
170.2205464464
 11
128.4071685838
 21
170.322816437
  0
LINE
  5
4C2
100
AcDbEntity
  8
0
100
AcDbLine
 62
7
  6
CONTINUOUS
 10
128.7570909364
 20
169.8046732851
 11
128.8214624887
 21
169.7024032945
  0
LINE
  5
4C3
100
AcDbEntity
  8
0
100
AcDbLine
 62
7
  6
CONTINUOUS
 10
131.8947659239
 20
168.2490835928
 11
131.9957301349
 21
168.0859178586
  0
LINE
  5
4C4
100
AcDbEntity
  8
0
100
AcDbLine
 62
7
  6
CONTINUOUS
 10
132.9839059612
 20
169.6335313422
 11
132.8829420628
 21
169.7966969689
  0
LINE
  5
4C5
100
AcDbEntity
  8
0
100
AcDbLine
 62
7
  6
CONTINUOUS
 10
131.4028935413
 20
169.2722834414
 11
131.4630443446
 21
169.1674753854
  0
LINE
  5
4C6
100
AcDbEntity
  8
0
100
AcDbLine
 62
7
  6
CONTINUOUS
 10
134.264284231
 20
167.4854916413
 11
134.3589939573
 21
167.3186180333
  0
LINE
  5
4C7
100
AcDbEntity
  8
0
100
AcDbLine
 62
7
  6
CONTINUOUS
 10
135.4050931365
 20
168.8276824671
 11
135.3103834065
 21
168.9945560647
  0
LINE
  5
4C8
100
AcDbEntity
  8
0
100
AcDbLine
 62
7
  6
CONTINUOUS
 10
132.7935645708
 20
169.6037878602
 11
132.8516721627
 21
169.4978333628
  0
LINE
  5
4C9
100
AcDbEntity
  8
0
100
AcDbLine
 62
7
  6
CONTINUOUS
 10
136.6846166684
 20
166.601764223
 11
136.7724479883
 21
166.4311699893
  0
LINE
  5
4CA
100
AcDbEntity
  8
0
100
AcDbLine
 62
7
  6
CONTINUOUS
 10
135.2137615381
 20
168.8051716017
 11
135.2678132269
 21
168.6970917114
  0
LINE
  5
4CB
100
AcDbEntity
  8
0
100
AcDbLine
 62
7
  6
CONTINUOUS
 10
137.9477039121
 20
166.0964225492
 11
138.0321728593
 21
165.9241392377
  0
LINE
  5
4CC
100
AcDbEntity
  8
0
100
AcDbLine
 62
7
  6
CONTINUOUS
 10
138.9711534374
 20
166.6731616154
 11
138.8866832664
 21
166.8454454265
  0
LINE
  5
4CD
100
AcDbEntity
  8
0
100
AcDbLine
 62
7
  6
CONTINUOUS
 10
139.220693924
 20
167.3450716586
 11
139.136223753
 21
167.5173554697
  0
LINE
  5
4CE
100
AcDbEntity
  8
0
100
AcDbLine
 62
7
  6
CONTINUOUS
 10
137.2978471165
 20
167.4465917001
 11
137.2482443466
 21
167.5567843176
  0
LINE
  5
4CF
100
AcDbEntity
  8
0
100
AcDbLine
 62
7
  6
CONTINUOUS
 10
137.5231125344
 20
166.9952106359
 11
137.5727153044
 21
166.8850180184
  0
LINE
  5
4D0
100
AcDbEntity
  8
0
100
AcDbLine
 62
7
  6
CONTINUOUS
 10
138.7788122608
 20
166.6622349784
 11
138.8262449246
 21
166.551090972
  0
LINE
  5
4D1
100
AcDbEntity
  8
0
100
AcDbLine
 62
7
  6
CONTINUOUS
 10
139.0283527474
 20
167.3341450216
 11
139.0757854112
 21
167.2230010152
  0
LINE
  5
4D2
100
AcDbEntity
  8
RUNDUNGEN
100
AcDbLine
 62
7
  6
CONTINUOUS
 10
178.3232309915
 20
62.3691765526
 11
177.7601772889
 21
67.8813266484
  0
LINE
  5
4D3
100
AcDbEntity
  8
RUNDUNGEN
100
AcDbLine
 62
7
  6
CONTINUOUS
 10
177.7601772977
 20
142.8112156893
 11
178.3232309915
 21
148.3233656987
  0
LINE
  5
4D4
100
AcDbEntity
  8
RUNDUNGEN
100
AcDbLine
 62
7
  6
CONTINUOUS
 10
140.5732651756
 20
32.1409173781
 11
143.3577056962
 21
36.9312951438
  0
LINE
  5
4D5
100
AcDbEntity
  8
RUNDUNGEN
100
AcDbLine
 62
7
  6
CONTINUOUS
 10
187.4003894375
 20
97.5508487593
 11
191.0958699284
 21
101.6793171351
  0
LINE
  5
4D6
100
AcDbEntity
  8
RUNDUNGEN
100
AcDbLine
 62
7
  6
CONTINUOUS
 10
92.2651763482
 20
29.8746151768
 11
97.3335494528
 21
32.1134591248
  0
LINE
  5
4D7
100
AcDbEntity
  8
0
100
AcDbLine
 62
7
  6
CONTINUOUS
 10
128.5904725206
 20
170.7118891611
 11
128.6845771621
 21
170.7324548205
  0
LINE
  5
4D8
100
AcDbEntity
  8
RUNDUNGEN
100
AcDbLine
 62
7
  6
CONTINUOUS
 10
57.2673718549
 20
155.4244740345
 11
51.8510125099
 21
154.2566218906
  0
LINE
  5
4D9
100
AcDbEntity
  8
0
100
AcDbLine
 62
7
  6
CONTINUOUS
 10
128.6282475291
 20
169.2723853824
 11
128.5060782968
 21
169.2586129218
  0
LINE
  5
4DA
100
AcDbEntity
  8
0
100
AcDbLine
 62
7
  6
CONTINUOUS
 10
137.483616
 20
167.9167539033
 11
137.57966098
 21
167.9241018091
  0
LINE
  5
4DB
100
AcDbEntity
  8
0
100
AcDbLine
 62
7
  6
CONTINUOUS
 10
131.1946113906
 20
168.543150939
 11
131.0719825849
 21
168.5343680095
  0
LINE
  5
4DC
100
AcDbEntity
  8
0
100
AcDbLine
 62
7
  6
CONTINUOUS
 10
131.0141915472
 20
169.3833190721
 11
131.1368206706
 21
169.3921019108
  0
LINE
  5
4DD
100
AcDbEntity
  8
0
100
AcDbLine
 62
7
  6
CONTINUOUS
 10
138.4863846795
 20
165.9625909475
 11
138.3902140912
 21
165.9571276289
  0
LINE
  5
4DE
100
AcDbEntity
  8
0
100
AcDbLine
 62
7
  6
CONTINUOUS
 10
138.4324726757
 20
166.8069932308
 11
138.528643264
 21
166.8124565493
  0
LINE
  5
4DF
100
AcDbEntity
  8
0
100
AcDbLine
 62
7
  6
CONTINUOUS
 10
138.7086542936
 20
167.4677681806
 11
138.8048248819
 21
167.4732314991
  0
LINE
  5
4E0
100
AcDbEntity
  8
0
100
AcDbLine
 62
7
  6
CONTINUOUS
 10
91.7991959557
 20
166.9047455279
 11
92.0091088586
 21
166.908022477
  0
LINE
  5
4E1
100
AcDbEntity
  8
0
100
AcDbLine
 62
7
  6
CONTINUOUS
 10
92.0224742506
 20
167.1819006764
 11
91.8125610713
 21
167.178623652
  0
LINE
  5
4E2
100
AcDbEntity
  8
0
100
AcDbLine
 62
7
  6
CONTINUOUS
 10
88.2974221747
 20
168.4067590892
 11
88.4603868853
 21
168.4026671628
  0
LINE
  5
4E3
100
AcDbEntity
  8
0
100
AcDbLine
 62
7
  6
CONTINUOUS
 10
137.3218629251
 20
166.4858682857
 11
137.1989636071
 21
166.4891309741
  0
LINE
  5
4E4
100
AcDbEntity
  8
0
100
AcDbLine
 62
7
  6
CONTINUOUS
 10
95.0543832866
 20
169.9165105338
 11
94.892680009
 21
169.9371573443
  0
LINE
  5
4E5
100
AcDbEntity
  8
RUNDUNGEN
100
AcDbLine
 62
7
  6
CONTINUOUS
 10
174.0124680385
 20
154.2566218906
 11
168.5961086083
 21
155.4244740529
  0
LINE
  5
4E6
100
AcDbEntity
  8
0
100
AcDbLine
 62
7
  6
CONTINUOUS
 10
92.0619579853
 20
168.9461648203
 11
91.9468247212
 21
168.9747751886
  0
LINE
  5
4E7
100
AcDbEntity
  8
0
100
AcDbLine
 62
7
  6
CONTINUOUS
 10
94.9794437072
 20
169.6300285767
 11
95.0930297717
 21
169.5957886815
  0
LINE
  5
4E8
100
AcDbEntity
  8
RUNDUNGEN
100
AcDbLine
 62
7
  6
CONTINUOUS
 10
97.33354945
 20
178.5790831277
 11
92.2651763482
 21
180.8179270745
  0
LINE
  5
4E9
100
AcDbEntity
  8
0
100
AcDbLine
 62
7
  6
CONTINUOUS
 10
164.5179055473
 20
148.4360317322
 11
164.6056771233
 21
148.3963482301
  0
LINE
  5
4EA
100
AcDbEntity
  8
0
100
AcDbLine
 62
7
  6
CONTINUOUS
 10
164.3662189851
 20
146.0185085954
 11
164.4531590922
 21
145.9770351341
  0
LINE
  5
4EB
100
AcDbEntity
  8
0
100
AcDbLine
 62
7
  6
CONTINUOUS
 10
164.5278642831
 20
146.2212312652
 11
164.4409241789
 21
146.2627047288
  0
LINE
  5
4EC
100
AcDbEntity
  8
0
100
AcDbLine
 62
7
  6
CONTINUOUS
 10
166.1421727726
 20
144.024791688
 11
166.0570245812
 21
144.0698296209
  0
LINE
  5
4ED
100
AcDbEntity
  8
0
100
AcDbLine
 62
7
  6
CONTINUOUS
 10
166.5325300611
 20
144.7754868029
 11
166.6176782525
 21
144.73044887
  0
LINE
  5
4EE
100
AcDbEntity
  8
0
100
AcDbLine
 62
7
  6
CONTINUOUS
 10
167.1105296347
 20
145.1983535824
 11
167.1956778262
 21
145.1533156495
  0
LINE
  5
4EF
100
AcDbEntity
  8
0
100
AcDbLine
 62
7
  6
CONTINUOUS
 10
163.6888042868
 20
147.25866639
 11
163.5825741225
 21
147.3205545524
  0
LINE
  5
4F0
100
AcDbEntity
  8
0
100
AcDbLine
 62
7
  6
CONTINUOUS
 10
128.2815620522
 20
169.312958395
 11
128.1792148793
 21
169.3810763676
  0
LINE
  5
4F1
100
AcDbEntity
  8
0
100
AcDbLine
 62
7
  6
CONTINUOUS
 10
128.384009367
 20
169.9816683451
 11
128.4863565399
 21
169.9135503724
  0
LINE
  5
4F2
100
AcDbEntity
  8
0
100
AcDbLine
 62
7
  6
CONTINUOUS
 10
128.6547437635
 20
169.8727912578
 11
128.7570909364
 21
169.8046732851
  0
LINE
  5
4F3
100
AcDbEntity
  8
0
100
AcDbLine
 62
7
  6
CONTINUOUS
 10
130.9053960614
 20
168.5819546954
 11
130.8059093965
 21
168.6541865697
  0
LINE
  5
4F4
100
AcDbEntity
  8
0
100
AcDbLine
 62
7
  6
CONTINUOUS
 10
131.3034071941
 20
169.3445152249
 11
131.4028935413
 21
169.2722834414
  0
LINE
  5
4F5
100
AcDbEntity
  8
0
100
AcDbLine
 62
7
  6
CONTINUOUS
 10
128.5458227182
 20
170.1592216724
 11
128.4715401361
 21
170.2205464464
  0
LINE
  5
4F6
100
AcDbEntity
  8
0
100
AcDbLine
 62
7
  6
CONTINUOUS
 10
128.8529643857
 20
170.6916957059
 11
128.9272469678
 21
170.6303709319
  0
LINE
  5
4F7
100
AcDbEntity
  8
0
100
AcDbLine
 62
7
  6
CONTINUOUS
 10
136.9841258298
 20
166.5740169427
 11
136.8921873705
 21
166.6556402229
  0
LINE
  5
4F8
100
AcDbEntity
  8
0
100
AcDbLine
 62
7
  6
CONTINUOUS
 10
137.1781077438
 20
167.2221214905
 11
137.2700462031
 21
167.1404982103
  0
LINE
  5
4F9
100
AcDbEntity
  8
0
100
AcDbLine
 62
7
  6
CONTINUOUS
 10
137.4311746898
 20
167.0768336732
 11
137.5231125344
 21
166.9952106359
  0
LINE
  5
4FA
100
AcDbEntity
  8
0
100
AcDbLine
 62
7
  6
CONTINUOUS
 10
137.3629306232
 20
167.3755792571
 11
137.2978471165
 21
167.4465917001
  0
LINE
  5
4FB
100
AcDbEntity
  8
0
100
AcDbLine
 62
7
  6
CONTINUOUS
 10
137.7407894666
 20
167.860437272
 11
137.8058729733
 21
167.7894248289
  0
LINE
  5
4FC
100
AcDbEntity
  8
RUNDUNGEN
100
AcDbLine
 62
7
  6
CONTINUOUS
 10
191.0958699284
 20
109.0132251162
 11
187.4003893796
 21
113.1416935566
  0
LINE
  5
4FD
100
AcDbEntity
  8
0
100
AcDbLine
 62
7
  6
CONTINUOUS
 10
138.203723733
 20
166.0350743018
 11
138.1400450943
 21
166.1073491999
  0
LINE
  5
4FE
100
AcDbEntity
  8
0
100
AcDbLine
 62
7
  6
CONTINUOUS
 10
138.7151336222
 20
166.7345098764
 11
138.7788122608
 21
166.6622349784
  0
LINE
  5
4FF
100
AcDbEntity
  8
0
100
AcDbLine
 62
7
  6
CONTINUOUS
 10
138.9646741088
 20
167.4064199196
 11
139.0283527474
 21
167.3341450216
  0
LINE
  5
500
100
AcDbEntity
  8
RUNDUNGEN
100
AcDbLine
 62
7
  6
CONTINUOUS
 10
143.3577056526
 20
173.7612471825
 11
140.5732651756
 21
178.5516248731
  0
LINE
  5
501
100
AcDbEntity
  8
0
100
AcDbLine
 62
7
  6
CONTINUOUS
 10
163.4349054692
 20
147.4981917714
 11
163.3934669935
 21
147.613940812
  0
LINE
  5
502
100
AcDbEntity
  8
0
100
AcDbLine
 62
7
  6
CONTINUOUS
 10
163.91632179
 20
147.9734882699
 11
163.957760279
 21
147.8577392133
  0
LINE
  5
503
100
AcDbEntity
  8
0
100
AcDbLine
 62
7
  6
CONTINUOUS
 10
164.0685117558
 20
147.724511315
 11
164.1099502447
 21
147.6087622584
  0
LINE
  5
504
100
AcDbEntity
  8
0
100
AcDbLine
 62
7
  6
CONTINUOUS
 10
164.2969260605
 20
146.4433300772
 11
164.2578677468
 21
146.5599038741
  0
LINE
  5
505
100
AcDbEntity
  8
0
100
AcDbLine
 62
7
  6
CONTINUOUS
 10
164.1521353051
 20
148.0193218957
 11
164.1291554044
 21
148.1128662919
  0
LINE
  5
506
100
AcDbEntity
  8
0
100
AcDbLine
 62
7
  6
CONTINUOUS
 10
164.7164286001
 20
148.2631203317
 11
164.7394084744
 21
148.1695759673
  0
LINE
  5
507
100
AcDbEntity
  8
0
100
AcDbLine
 62
7
  6
CONTINUOUS
 10
165.9376787946
 20
144.2329585709
 11
165.9205305419
 21
144.3277455285
  0
LINE
  5
508
100
AcDbEntity
  8
0
100
AcDbLine
 62
7
  6
CONTINUOUS
 10
166.737024039
 20
144.56731992
 11
166.7541722918
 21
144.4725329624
  0
LINE
  5
509
100
AcDbEntity
  8
0
100
AcDbLine
 62
7
  6
CONTINUOUS
 10
167.2979742704
 20
145.013490759
 11
167.3151225232
 21
144.9187038014
  0
LINE
  5
50A
100
AcDbEntity
  8
RUNDUNGEN
100
AcDbLine
 62
7
  6
CONTINUOUS
 10
177.7582392823
 20
68.2672292139
 11
177.7601772209
 21
67.8813273042
  0
LINE
  5
50B
100
AcDbEntity
  8
RUNDUNGEN
100
AcDbLine
 62
7
  6
CONTINUOUS
 10
177.7582393397
 20
142.4253130345
 11
177.7601772758
 21
142.8112149415
  0
LWPOLYLINE
  5
50C
100
AcDbEntity
  8
RUNDUNGEN
100
AcDbPolyline
 62
7
  6
CONTINUOUS
 90
3
 70
0
 10
179.4220029797
 20
86.1080651695
 10
179.4248807791
 20
86.1276380694
 10
179.5502472805
 20
86.9142432454
  0
LINE
  5
50D
100
AcDbEntity
  8
RUNDUNGEN
100
AcDbLine
 62
7
  6
CONTINUOUS
 10
179.5502472805
 20
86.9142432454
 11
179.58038742
 21
87.1080651695
  0
LINE
  5
50E
100
AcDbEntity
  8
RUNDUNGEN
100
AcDbLine
 62
7
  6
CONTINUOUS
 10
167.0616073556
 20
53.7080299996
 11
166.2182142468
 21
49.5110394668
  0
LINE
  5
50F
100
AcDbEntity
  8
RUNDUNGEN
100
AcDbLine
 62
7
  6
CONTINUOUS
 10
167.0581012396
 20
53.7067729113
 11
167.1701462536
 21
54.0762870873
  0
LINE
  5
510
100
AcDbEntity
  8
RUNDUNGEN
100
AcDbLine
 62
7
  6
CONTINUOUS
 10
187.073821575
 20
115.3088260493
 11
186.9472729114
 21
114.9440243775
  0
LINE
  5
511
100
AcDbEntity
  8
RUNDUNGEN
100
AcDbLine
 62
7
  6
CONTINUOUS
 10
188.8605254666
 20
119.1969111363
 11
187.0759192587
 21
115.3057482301
  0
LWPOLYLINE
  5
512
100
AcDbEntity
  8
RUNDUNGEN
100
AcDbPolyline
 62
7
  6
CONTINUOUS
 90
3
 70
0
 10
178.031426505
 20
81.8283108461
 10
178.0226411964
 20
81.810585201
 10
177.6603362011
 20
81.1012196021
  0
LINE
  5
513
100
AcDbEntity
  8
RUNDUNGEN
100
AcDbLine
 62
7
  6
CONTINUOUS
 10
177.6603362011
 20
81.1012196021
 11
177.5717769566
 21
80.9261978135
  0
LINE
  5
514
100
AcDbEntity
  8
RUNDUNGEN
100
AcDbLine
 62
7
  6
CONTINUOUS
 10
143.5829656527
 20
37.2446360092
 11
143.3577060266
 21
36.9312957144
  0
LINE
  5
515
100
AcDbEntity
  8
RUNDUNGEN
100
AcDbLine
 62
7
  6
CONTINUOUS
 10
187.1719937072
 20
97.2397860566
 11
187.4003889802
 21
97.5508481672
  0
LWPOLYLINE
  5
516
100
AcDbEntity
  8
RUNDUNGEN
100
AcDbPolyline
 62
7
  6
CONTINUOUS
 90
3
 70
0
 10
155.4155590218
 20
50.7002397265
 10
155.4293918724
 20
50.7143830071
 10
155.9931704244
 20
51.2770713817
  0
LINE
  5
517
100
AcDbEntity
  8
RUNDUNGEN
100
AcDbLine
 62
7
  6
CONTINUOUS
 10
155.9931704244
 20
51.2770713817
 11
156.131479978
 21
51.4161606826
  0
LINE
  5
518
100
AcDbEntity
  8
RUNDUNGEN
100
AcDbLine
 62
7
  6
CONTINUOUS
 10
126.3715260581
 20
31.7533189161
 11
123.2222775609
 21
28.8536162811
  0
LINE
  5
519
100
AcDbEntity
  8
RUNDUNGEN
100
AcDbLine
 62
7
  6
CONTINUOUS
 10
126.3679506527
 20
31.7543627536
 11
126.6757919563
 21
31.9874475948
  0
LINE
  5
51A
100
AcDbEntity
  8
RUNDUNGEN
100
AcDbLine
 62
7
  6
CONTINUOUS
 10
178.7697869042
 20
69.8265254034
 11
178.452981842
 21
69.6057780895
  0
LINE
  5
51B
100
AcDbEntity
  8
RUNDUNGEN
100
AcDbLine
 62
7
  6
CONTINUOUS
 10
182.5006197902
 20
71.9218541167
 11
178.7696748692
 21
69.8228024078
  0
LWPOLYLINE
  5
51C
100
AcDbEntity
  8
RUNDUNGEN
100
AcDbPolyline
 62
7
  6
CONTINUOUS
 90
3
 70
0
 10
151.7749825471
 20
48.0552060912
 10
151.7574562104
 20
48.0460296178
 10
151.0473906745
 20
47.6850983262
  0
LINE
  5
51D
100
AcDbEntity
  8
RUNDUNGEN
100
AcDbLine
 62
7
  6
CONTINUOUS
 10
151.0473906745
 20
47.6850983262
 11
150.8728695145
 21
47.5955565427
  0
LINE
  5
51E
100
AcDbEntity
  8
RUNDUNGEN
100
AcDbLine
 62
7
  6
CONTINUOUS
 10
97.6999657254
 20
32.2345527295
 11
97.3335500555
 21
32.1134593922
  0
LINE
  5
51F
100
AcDbEntity
  8
RUNDUNGEN
100
AcDbLine
 62
7
  6
CONTINUOUS
 10
168.2284945967
 20
55.1506608458
 11
168.5961079752
 21
55.2680680065
  0
LINE
  5
520
100
AcDbEntity
  8
0
100
AcDbLine
 62
7
  6
CONTINUOUS
 10
94.5818644982
 20
167.7268594019
 11
94.8224483611
 21
167.7948242032
  0
LINE
  5
521
100
AcDbEntity
  8
0
100
AcDbLine
 62
7
  6
CONTINUOUS
 10
95.6885515888
 20
168.0394978612
 11
95.9291360023
 21
168.1074628181
  0
LINE
  5
522
100
AcDbEntity
  8
0
100
AcDbLine
 62
7
  6
CONTINUOUS
 10
94.892680009
 20
169.9371573443
 11
94.700212258
 21
169.8827853166
  0
LINE
  5
523
100
AcDbEntity
  8
0
100
AcDbLine
 62
7
  6
CONTINUOUS
 10
94.2671606441
 20
169.7604484876
 11
94.0265767813
 21
169.6924836863
  0
LINE
  5
524
100
AcDbEntity
  8
0
100
AcDbLine
 62
7
  6
CONTINUOUS
 10
96.3156132904
 20
168.2108880317
 11
96.5579862582
 21
168.272167341
  0
LINE
  5
525
100
AcDbEntity
  8
0
100
AcDbLine
 62
7
  6
CONTINUOUS
 10
97.3820557911
 20
168.4805173571
 11
97.6729037963
 21
168.5540526405
  0
LINE
  5
526
100
AcDbEntity
  8
0
100
AcDbLine
 62
7
  6
CONTINUOUS
 10
96.9783390134
 20
170.4852706993
 11
96.687491563
 21
170.4117355562
  0
LINE
  5
527
100
AcDbEntity
  8
0
100
AcDbLine
 62
7
  6
CONTINUOUS
 10
95.822633425
 20
171.1806473926
 11
95.5802604572
 21
171.1193680833
  0
LWPOLYLINE
  5
528
100
AcDbEntity
  8
RUNDUNGEN
100
AcDbPolyline
 62
7
  6
CONTINUOUS
 90
3
 70
0
 10
110.6817402742
 20
174.5272013236
 10
110.6622360513
 20
174.5238899148
 10
109.8753896934
 20
174.4000461756
  0
LINE
  5
529
100
AcDbEntity
  8
RUNDUNGEN
100
AcDbLine
 62
7
  6
CONTINUOUS
 10
109.8753896934
 20
174.4000461756
 11
109.6817402742
 21
174.3688168833
  0
LINE
  5
52A
100
AcDbEntity
  8
0
100
AcDbLine
 62
7
  6
CONTINUOUS
 10
88.3893180536
 20
168.7177945178
 11
88.1333839696
 21
168.6850529657
  0
LINE
  5
52B
100
AcDbEntity
  8
RUNDUNGEN
100
AcDbLine
 62
7
  6
CONTINUOUS
 10
145.3155771558
 20
172.7839280071
 11
149.5677751544
 21
173.278754895
  0
LINE
  5
52C
100
AcDbEntity
  8
0
100
AcDbLine
 62
7
  6
CONTINUOUS
 10
128.7440433405
 20
170.9781261205
 11
128.6218741081
 21
170.9643536598
  0
LINE
  5
52D
100
AcDbEntity
  8
0
100
AcDbLine
 62
7
  6
CONTINUOUS
 10
128.4466121115
 20
169.0129415931
 11
128.5968457749
 21
169.0199208975
  0
LINE
  5
52E
100
AcDbEntity
  8
RUNDUNGEN
100
AcDbLine
 62
7
  6
CONTINUOUS
 10
145.3178561672
 20
172.7809819543
 11
144.9318034888
 21
172.773356935
  0
LINE
  5
52F
100
AcDbEntity
  8
0
100
AcDbLine
 62
7
  6
CONTINUOUS
 10
91.7235464209
 20
168.697620056
 11
91.9334595932
 21
168.7008971016
  0
LINE
  5
530
100
AcDbEntity
  8
0
100
AcDbLine
 62
7
  6
CONTINUOUS
 10
91.9468247212
 20
168.9747751886
 11
91.7369118201
 21
168.9714982342
  0
LINE
  5
531
100
AcDbEntity
  8
0
100
AcDbLine
 62
7
  6
CONTINUOUS
 10
131.0141264306
 20
168.3318311985
 11
131.164519552
 21
168.3326830475
  0
LINE
  5
532
100
AcDbEntity
  8
0
100
AcDbLine
 62
7
  6
CONTINUOUS
 10
131.1946768168
 20
169.5946386934
 11
131.0442833787
 21
169.5937869388
  0
LINE
  5
533
100
AcDbEntity
  8
0
100
AcDbLine
 62
7
  6
CONTINUOUS
 10
132.3611616379
 20
168.1941482153
 11
132.2107802684
 21
168.1962121909
  0
LINE
  5
534
100
AcDbEntity
  8
0
100
AcDbLine
 62
7
  6
CONTINUOUS
 10
132.5175099355
 20
169.6884668307
 11
132.6678919368
 21
169.6864026613
  0
LINE
  5
535
100
AcDbEntity
  8
RUNDUNGEN
100
AcDbLine
 62
7
  6
CONTINUOUS
 10
80.5456243944
 20
172.780982067
 11
80.9316770933
 21
172.7733569948
  0
LINE
  5
536
100
AcDbEntity
  8
0
100
AcDbLine
 62
7
  6
CONTINUOUS
 10
137.6725454001
 20
168.1591828559
 11
137.5496454674
 21
168.1624457871
  0
LINE
  5
537
100
AcDbEntity
  8
0
100
AcDbLine
 62
7
  6
CONTINUOUS
 10
94.7696232165
 20
169.6370823025
 11
94.9794437072
 21
169.6300285767
  0
LINE
  5
538
100
AcDbEntity
  8
0
100
AcDbLine
 62
7
  6
CONTINUOUS
 10
134.7282635151
 20
167.4129259716
 11
134.5780683045
 21
167.4206858052
  0
LINE
  5
539
100
AcDbEntity
  8
0
100
AcDbLine
 62
7
  6
CONTINUOUS
 10
134.9411138573
 20
168.9002481508
 11
135.0913090678
 21
168.8924883172
  0
LINE
  5
53A
100
AcDbEntity
  8
0
100
AcDbLine
 62
7
  6
CONTINUOUS
 10
132.1490084209
 20
167.9948350988
 11
132.3269954446
 21
167.9843031715
  0
LINE
  5
53B
100
AcDbEntity
  8
0
100
AcDbLine
 62
7
  6
CONTINUOUS
 10
132.7296637757
 20
169.8877797252
 11
132.5516767532
 21
169.898311656
  0
LINE
  5
53C
100
AcDbEntity
  8
0
100
AcDbLine
 62
7
  6
CONTINUOUS
 10
137.1060791762
 20
166.2540498999
 11
137.2558340629
 21
166.2401761349
  0
LINE
  5
53D
100
AcDbEntity
  8
0
100
AcDbLine
 62
7
  6
CONTINUOUS
 10
134.5087114441
 20
167.2217935723
 11
134.6861716736
 21
167.2045260003
  0
LINE
  5
53E
100
AcDbEntity
  8
0
100
AcDbLine
 62
7
  6
CONTINUOUS
 10
135.1606659185
 20
169.0913805222
 11
134.9832056903
 21
169.1086480977
  0
LINE
  5
53F
100
AcDbEntity
  8
0
100
AcDbLine
 62
7
  6
CONTINUOUS
 10
138.2823430742
 20
165.7739171536
 11
138.4317959266
 21
165.7571102889
  0
LINE
  5
540
100
AcDbEntity
  8
0
100
AcDbLine
 62
7
  6
CONTINUOUS
 10
138.6365142696
 20
166.9956669974
 11
138.4870601991
 21
167.0124743753
  0
LINE
  5
541
100
AcDbEntity
  8
0
100
AcDbLine
 62
7
  6
CONTINUOUS
 10
138.9126958875
 20
167.6564419473
 11
138.763241817
 21
167.6732493251
  0
LINE
  5
542
100
AcDbEntity
  8
RUNDUNGEN
100
AcDbLine
 62
7
  6
CONTINUOUS
 10
80.5479127143
 20
172.7839269223
 11
76.2956825146
 21
173.2787575575
  0
LWPOLYLINE
  5
543
100
AcDbEntity
  8
RUNDUNGEN
100
AcDbPolyline
 62
7
  6
CONTINUOUS
 90
3
 70
0
 10
115.1817402742
 20
174.5272013236
 10
115.2013131742
 20
174.5243235242
 10
115.9879183502
 20
174.3989570228
  0
LINE
  5
544
100
AcDbEntity
  8
RUNDUNGEN
100
AcDbLine
 62
7
  6
CONTINUOUS
 10
115.9879183502
 20
174.3989570228
 11
116.1817402742
 21
174.3688168833
  0
LINE
  5
545
100
AcDbEntity
  8
0
100
AcDbLine
 62
7
  6
CONTINUOUS
 10
126.5891685822
 20
169.4391003266
 11
127.6040927344
 21
169.214402273
  0
LINE
  5
546
100
AcDbEntity
  8
0
100
AcDbLine
 62
7
  6
CONTINUOUS
 10
127.6587305589
 20
169.4611923398
 11
126.812960432
 21
169.6484407178
  0
LINE
  5
547
100
AcDbEntity
  8
0
100
AcDbLine
 62
7
  6
CONTINUOUS
 10
127.1863189002
 20
171.3348395124
 11
127.0171648748
 21
171.372289188
  0
LINE
  5
548
100
AcDbEntity
  8
0
100
AcDbLine
 62
7
  6
CONTINUOUS
 10
128.2220958669
 20
169.0672870663
 11
128.4466121115
 21
169.0129415931
  0
LINE
  5
549
100
AcDbEntity
  8
0
100
AcDbLine
 62
7
  6
CONTINUOUS
 10
128.5060782968
 20
169.2586129218
 11
128.2815620522
 21
169.312958395
  0
LINE
  5
54A
100
AcDbEntity
  8
0
100
AcDbLine
 62
7
  6
CONTINUOUS
 10
128.126422862
 20
169.6539204523
 11
127.9580357187
 21
169.6946795475
  0
LINE
  5
54B
100
AcDbEntity
  8
0
100
AcDbLine
 62
7
  6
CONTINUOUS
 10
128.4863565399
 20
169.9135503724
 11
128.6547437635
 21
169.8727912578
  0
LINE
  5
54C
100
AcDbEntity
  8
0
100
AcDbLine
 62
7
  6
CONTINUOUS
 10
128.7142099418
 20
170.1184625578
 11
128.5458227182
 21
170.1592216724
  0
LINE
  5
54D
100
AcDbEntity
  8
0
100
AcDbLine
 62
7
  6
CONTINUOUS
 10
128.9717964607
 20
170.4462105079
 11
129.1401836844
 21
170.4054513933
  0
LINE
  5
54E
100
AcDbEntity
  8
0
100
AcDbLine
 62
7
  6
CONTINUOUS
 10
128.6845771621
 20
170.7324548205
 11
128.8529643857
 21
170.6916957059
  0
LINE
  5
54F
100
AcDbEntity
  8
0
100
AcDbLine
 62
7
  6
CONTINUOUS
 10
128.8843659733
 20
170.9441602046
 11
128.7440433405
 21
170.9781261205
  0
LINE
  5
550
100
AcDbEntity
  8
0
100
AcDbLine
 62
7
  6
CONTINUOUS
 10
130.8475399071
 20
168.3794178845
 11
131.0141264306
 21
168.3318311985
  0
LINE
  5
551
100
AcDbEntity
  8
0
100
AcDbLine
 62
7
  6
CONTINUOUS
 10
131.0719825849
 20
168.5343680095
 11
130.9053960614
 21
168.5819546954
  0
LINE
  5
552
100
AcDbEntity
  8
0
100
AcDbLine
 62
7
  6
CONTINUOUS
 10
130.7365148889
 20
168.9368862483
 11
130.5699283654
 21
168.9844729342
  0
LINE
  5
553
100
AcDbEntity
  8
0
100
AcDbLine
 62
7
  6
CONTINUOUS
 10
130.6740694448
 20
169.3490391996
 11
130.868420283
 21
169.2935214296
  0
LINE
  5
554
100
AcDbEntity
  8
0
100
AcDbLine
 62
7
  6
CONTINUOUS
 10
131.1368206706
 20
169.3921019108
 11
131.3034071941
 21
169.3445152249
  0
LINE
  5
555
100
AcDbEntity
  8
0
100
AcDbLine
 62
7
  6
CONTINUOUS
 10
131.3612633403
 20
169.5470520075
 11
131.1946768168
 21
169.5946386934
  0
LINE
  5
556
100
AcDbEntity
  8
0
100
AcDbLine
 62
7
  6
CONTINUOUS
 10
131.0558871824
 20
170.1600382888
 11
131.8610554854
 21
169.9300359432
  0
LINE
  5
557
100
AcDbEntity
  8
0
100
AcDbLine
 62
7
  6
CONTINUOUS
 10
131.9189116316
 20
170.1325727258
 11
130.9749214375
 21
170.4022305825
  0
LINE
  5
558
100
AcDbEntity
  8
RUNDUNGEN
100
AcDbLine
 62
7
  6
CONTINUOUS
 10
168.2284945817
 20
155.54188135
 11
168.5961079635
 21
155.4244741908
  0
LINE
  5
559
100
AcDbEntity
  8
0
100
AcDbLine
 62
7
  6
CONTINUOUS
 10
133.0859626408
 20
168.4524103623
 11
133.4706015824
 21
168.3280288164
  0
LINE
  5
55A
100
AcDbEntity
  8
0
100
AcDbLine
 62
7
  6
CONTINUOUS
 10
133.5354118127
 20
168.5284487278
 11
133.1507728711
 21
168.6528302736
  0
LINE
  5
55B
100
AcDbEntity
  8
RUNDUNGEN
100
AcDbLine
 62
7
  6
CONTINUOUS
 10
97.6999657386
 20
178.4579895635
 11
97.3335500698
 21
178.5790828915
  0
LINE
  5
55C
100
AcDbEntity
  8
0
100
AcDbLine
 62
7
  6
CONTINUOUS
 10
133.6341216881
 20
167.5198777985
 11
133.7984986327
 21
167.4651440556
  0
LINE
  5
55D
100
AcDbEntity
  8
0
100
AcDbLine
 62
7
  6
CONTINUOUS
 10
134.4240271226
 20
169.3437377073
 11
134.2596501781
 21
169.3984714502
  0
LINE
  5
55E
100
AcDbEntity
  8
0
100
AcDbLine
 62
7
  6
CONTINUOUS
 10
136.8912413989
 20
166.3389358685
 11
137.1060791762
 21
166.2540498999
  0
LINE
  5
55F
100
AcDbEntity
  8
0
100
AcDbLine
 62
7
  6
CONTINUOUS
 10
137.1989636071
 20
166.4891309741
 11
136.9841258298
 21
166.5740169427
  0
LINE
  5
560
100
AcDbEntity
  8
0
100
AcDbLine
 62
7
  6
CONTINUOUS
 10
136.8776526054
 20
166.9331644028
 11
136.7165241188
 21
166.9968289399
  0
LINE
  5
561
100
AcDbEntity
  8
0
100
AcDbLine
 62
7
  6
CONTINUOUS
 10
137.2700462031
 20
167.1404982103
 11
137.4311746898
 21
167.0768336732
  0
LINE
  5
562
100
AcDbEntity
  8
0
100
AcDbLine
 62
7
  6
CONTINUOUS
 10
137.5240591098
 20
167.3119147199
 11
137.3629306232
 21
167.3755792571
  0
LINE
  5
563
100
AcDbEntity
  8
0
100
AcDbLine
 62
7
  6
CONTINUOUS
 10
137.8245142699
 20
167.6008718625
 11
137.9856427565
 21
167.5372073254
  0
LINE
  5
564
100
AcDbEntity
  8
0
100
AcDbLine
 62
7
  6
CONTINUOUS
 10
137.57966098
 20
167.9241018091
 11
137.7407894666
 21
167.860437272
  0
LINE
  5
565
100
AcDbEntity
  8
0
100
AcDbLine
 62
7
  6
CONTINUOUS
 10
137.806818934
 20
168.1061291558
 11
137.6725454001
 21
168.1591828559
  0
LINE
  5
566
100
AcDbEntity
  8
0
100
AcDbLine
 62
7
  6
CONTINUOUS
 10
138.1491349786
 20
165.8295936398
 11
138.2823430742
 21
165.7739171536
  0
LINE
  5
567
100
AcDbEntity
  8
0
100
AcDbLine
 62
7
  6
CONTINUOUS
 10
138.3902140912
 20
165.9571276289
 11
138.203723733
 21
166.0350743018
  0
LINE
  5
568
100
AcDbEntity
  8
0
100
AcDbLine
 62
7
  6
CONTINUOUS
 10
138.528643264
 20
166.8124565493
 11
138.7151336222
 21
166.7345098764
  0
LINE
  5
569
100
AcDbEntity
  8
0
100
AcDbLine
 62
7
  6
CONTINUOUS
 10
138.7697223652
 20
166.9399905112
 11
138.6365142696
 21
166.9956669974
  0
LINE
  5
56A
100
AcDbEntity
  8
0
100
AcDbLine
 62
7
  6
CONTINUOUS
 10
139.0803297493
 20
167.0841235037
 11
139.2135378449
 21
167.0284470175
  0
LINE
  5
56B
100
AcDbEntity
  8
0
100
AcDbLine
 62
7
  6
CONTINUOUS
 10
138.8048248819
 20
167.4732314991
 11
138.9646741088
 21
167.4064199196
  0
LINE
  5
56C
100
AcDbEntity
  8
0
100
AcDbLine
 62
7
  6
CONTINUOUS
 10
139.0192616322
 20
167.6119010642
 11
138.9126958875
 21
167.6564419473
  0
LINE
  5
56D
100
AcDbEntity
  8
0
100
AcDbLine
 62
7
  6
CONTINUOUS
 10
138.8934398359
 20
165.513881431
 11
139.0259382483
 21
165.4565365224
  0
LINE
  5
56E
100
AcDbEntity
  8
0
100
AcDbLine
 62
7
  6
CONTINUOUS
 10
139.109602299
 20
165.6498466903
 11
138.9771038866
 21
165.7071915988
  0
LINE
  5
56F
100
AcDbEntity
  8
0
100
AcDbLine
 62
7
  6
CONTINUOUS
 10
139.3962412932
 20
165.2943832622
 11
139.5547343906
 21
165.2244154085
  0
LINE
  5
570
100
AcDbEntity
  8
0
100
AcDbLine
 62
7
  6
CONTINUOUS
 10
140.3543670044
 20
167.0357650939
 11
140.1958739069
 21
167.1057329476
  0
LWPOLYLINE
  5
571
100
AcDbEntity
  8
RUNDUNGEN
100
AcDbPolyline
 62
7
  6
CONTINUOUS
 90
3
 70
0
 10
151.7749825471
 20
162.6373361601
 10
151.757256902
 20
162.6461214687
 10
151.0478913031
 20
163.008426464
  0
LINE
  5
572
100
AcDbEntity
  8
RUNDUNGEN
100
AcDbLine
 62
7
  6
CONTINUOUS
 10
151.0478913031
 20
163.008426464
 11
150.8728695145
 21
163.0969857085
  0
LINE
  5
573
100
AcDbEntity
  8
RUNDUNGEN
100
AcDbLine
 62
7
  6
CONTINUOUS
 10
178.7696748185
 20
140.8697398719
 11
182.50062721
 21
138.7706839602
  0
LINE
  5
574
100
AcDbEntity
  8
0
100
AcDbLine
 62
7
  6
CONTINUOUS
 10
128.0916841041
 20
169.1421982413
 11
128.2220958669
 21
169.0672870663
  0
LINE
  5
575
100
AcDbEntity
  8
0
100
AcDbLine
 62
7
  6
CONTINUOUS
 10
128.8446215449
 20
170.0435514253
 11
128.7142099418
 21
170.1184625578
  0
LINE
  5
576
100
AcDbEntity
  8
0
100
AcDbLine
 62
7
  6
CONTINUOUS
 10
129.014777737
 20
170.8692490332
 11
128.8843659733
 21
170.9441602046
  0
LINE
  5
577
100
AcDbEntity
  8
0
100
AcDbLine
 62
7
  6
CONTINUOUS
 10
164.8000521494
 20
148.5579309125
 11
164.6938219851
 21
148.6198190749
  0
LINE
  5
578
100
AcDbEntity
  8
0
100
AcDbLine
 62
7
  6
CONTINUOUS
 10
131.9957301349
 20
168.0859178586
 11
132.1490084209
 21
167.9948350988
  0
LINE
  5
579
100
AcDbEntity
  8
0
100
AcDbLine
 62
7
  6
CONTINUOUS
 10
132.8829420628
 20
169.7966969689
 11
132.7296637757
 21
169.8877797252
  0
LINE
  5
57A
100
AcDbEntity
  8
0
100
AcDbLine
 62
7
  6
CONTINUOUS
 10
165.3449142073
 20
147.4265189217
 11
165.4498541149
 21
147.3624672411
  0
LINE
  5
57B
100
AcDbEntity
  8
0
100
AcDbLine
 62
7
  6
CONTINUOUS
 10
130.7202889285
 20
168.4595808464
 11
130.8475399071
 21
168.3794178845
  0
LINE
  5
57C
100
AcDbEntity
  8
0
100
AcDbLine
 62
7
  6
CONTINUOUS
 10
131.4885140022
 20
169.4668891399
 11
131.3612633403
 21
169.5470520075
  0
LINE
  5
57D
100
AcDbEntity
  8
0
100
AcDbLine
 62
7
  6
CONTINUOUS
 10
134.3589939573
 20
167.3186180333
 11
134.5087114441
 21
167.2217935723
  0
LINE
  5
57E
100
AcDbEntity
  8
0
100
AcDbLine
 62
7
  6
CONTINUOUS
 10
135.3103834065
 20
168.9945560647
 11
135.1606659185
 21
169.0913805222
  0
LINE
  5
57F
100
AcDbEntity
  8
0
100
AcDbLine
 62
7
  6
CONTINUOUS
 10
132.2107802684
 20
168.1962121909
 11
132.0851070026
 21
168.2788271858
  0
LINE
  5
580
100
AcDbEntity
  8
0
100
AcDbLine
 62
7
  6
CONTINUOUS
 10
132.6678919368
 20
169.6864026613
 11
132.7935645708
 21
169.6037878602
  0
LINE
  5
581
100
AcDbEntity
  8
0
100
AcDbLine
 62
7
  6
CONTINUOUS
 10
163.3881990738
 20
147.1589718511
 11
163.5128878028
 21
147.0748790625
  0
LINE
  5
582
100
AcDbEntity
  8
RUNDUNGEN
100
AcDbLine
 62
7
  6
CONTINUOUS
 10
178.7697869311
 20
140.8660168958
 11
178.4529818797
 21
141.0867641966
  0
LINE
  5
583
100
AcDbEntity
  8
0
100
AcDbLine
 62
7
  6
CONTINUOUS
 10
164.2432793742
 20
146.1051383615
 11
164.3662189851
 21
146.0185085954
  0
LINE
  5
584
100
AcDbEntity
  8
0
100
AcDbLine
 62
7
  6
CONTINUOUS
 10
165.6474988965
 20
147.52003359
 11
165.5245591855
 21
147.6066634876
  0
LINE
  5
585
100
AcDbEntity
  8
0
100
AcDbLine
 62
7
  6
CONTINUOUS
 10
134.5780683045
 20
167.4206858052
 11
134.4556158343
 21
167.5080025207
  0
LINE
  5
586
100
AcDbEntity
  8
0
100
AcDbLine
 62
7
  6
CONTINUOUS
 10
135.0913090678
 20
168.8924883172
 11
135.2137615381
 21
168.8051716017
  0
LINE
  5
587
100
AcDbEntity
  8
RUNDUNGEN
100
AcDbLine
 62
7
  6
CONTINUOUS
 10
126.3679506151
 20
178.9381794569
 11
126.6757919346
 21
178.7050946096
  0
LINE
  5
588
100
AcDbEntity
  8
0
100
AcDbLine
 62
7
  6
CONTINUOUS
 10
165.8699753684
 20
143.9687611012
 11
165.9892224426
 21
143.8771147848
  0
LINE
  5
589
100
AcDbEntity
  8
0
100
AcDbLine
 62
7
  6
CONTINUOUS
 10
166.8047274414
 20
144.8315173722
 11
166.6854805653
 21
144.9231634242
  0
LINE
  5
58A
100
AcDbEntity
  8
0
100
AcDbLine
 62
7
  6
CONTINUOUS
 10
167.3827270151
 20
145.2543841517
 11
167.263480139
 21
145.3460302037
  0
LINE
  5
58B
100
AcDbEntity
  8
0
100
AcDbLine
 62
7
  6
CONTINUOUS
 10
136.7724479883
 20
166.4311699893
 11
136.8912413989
 21
166.3389358685
  0
LINE
  5
58C
100
AcDbEntity
  8
0
100
AcDbLine
 62
7
  6
CONTINUOUS
 10
137.6428525218
 20
167.2196806026
 11
137.5240591098
 21
167.3119147199
  0
LINE
  5
58D
100
AcDbEntity
  8
0
100
AcDbLine
 62
7
  6
CONTINUOUS
 10
137.9256117313
 20
168.0138952814
 11
137.806818934
 21
168.1061291558
  0
LINE
  5
58E
100
AcDbEntity
  8
0
100
AcDbLine
 62
7
  6
CONTINUOUS
 10
166.8488413559
 20
143.0331956519
 11
166.7313932474
 21
143.1271368512
  0
LINE
  5
58F
100
AcDbEntity
  8
0
100
AcDbLine
 62
7
  6
CONTINUOUS
 10
167.8895510147
 20
144.1168728735
 11
168.0069987435
 21
144.022932215
  0
LINE
  5
590
100
AcDbEntity
  8
0
100
AcDbLine
 62
7
  6
CONTINUOUS
 10
138.0321728593
 20
165.9241392377
 11
138.1491349786
 21
165.8295936398
  0
LINE
  5
591
100
AcDbEntity
  8
0
100
AcDbLine
 62
7
  6
CONTINUOUS
 10
138.8866832664
 20
166.8454454265
 11
138.7697223652
 21
166.9399905112
  0
LINE
  5
592
100
AcDbEntity
  8
0
100
AcDbLine
 62
7
  6
CONTINUOUS
 10
139.136223753
 20
167.5173554697
 11
139.0192616322
 21
167.6119010642
  0
LINE
  5
593
100
AcDbEntity
  8
0
100
AcDbLine
 62
7
  6
CONTINUOUS
 10
166.559014125
 20
143.0060834227
 11
166.6930563905
 21
142.8885122819
  0
LINE
  5
594
100
AcDbEntity
  8
0
100
AcDbLine
 62
7
  6
CONTINUOUS
 10
168.1793778417
 20
144.1439856265
 11
168.0453355792
 21
144.2615567695
  0
LINE
  5
595
100
AcDbEntity
  8
RUNDUNGEN
100
AcDbLine
 62
7
  6
CONTINUOUS
 10
123.2222886845
 20
181.8389157281
 11
126.3715260696
 21
178.9392233246
  0
LWPOLYLINE
  5
596
100
AcDbEntity
  8
RUNDUNGEN
100
AcDbPolyline
 62
7
  6
CONTINUOUS
 90
3
 70
0
 10
155.4155590218
 20
159.9923025248
 10
155.4297023025
 20
159.9784696742
 10
155.9923906771
 20
159.4146911223
  0
LINE
  5
597
100
AcDbEntity
  8
RUNDUNGEN
100
AcDbLine
 62
7
  6
CONTINUOUS
 10
155.9923906771
 20
159.4146911223
 11
156.131479978
 21
159.2763815686
  0
LINE
  5
598
100
AcDbEntity
  8
0
100
AcDbLine
 62
7
  6
CONTINUOUS
 10
163.2405304205
 20
147.3366090701
 11
163.3881990738
 21
147.1589718511
  0
LINE
  5
599
100
AcDbEntity
  8
0
100
AcDbLine
 62
7
  6
CONTINUOUS
 10
163.5825741225
 20
147.3205545524
 11
163.4349054692
 21
147.4981917714
  0
LINE
  5
59A
100
AcDbEntity
  8
0
100
AcDbLine
 62
7
  6
CONTINUOUS
 10
163.5140077288
 20
147.8643421069
 11
163.403256252
 21
147.9975700052
  0
LINE
  5
59B
100
AcDbEntity
  8
0
100
AcDbLine
 62
7
  6
CONTINUOUS
 10
163.957760279
 20
147.8577392133
 11
164.0685117558
 21
147.724511315
  0
LINE
  5
59C
100
AcDbEntity
  8
0
100
AcDbLine
 62
7
  6
CONTINUOUS
 10
164.2628867818
 20
147.8860939974
 11
164.1521353051
 21
148.0193218957
  0
LINE
  5
59D
100
AcDbEntity
  8
0
100
AcDbLine
 62
7
  6
CONTINUOUS
 10
164.6652008621
 20
147.9952402298
 11
164.7759523388
 21
147.8620123315
  0
LINE
  5
59E
100
AcDbEntity
  8
0
100
AcDbLine
 62
7
  6
CONTINUOUS
 10
164.6056771233
 20
148.3963482301
 11
164.7164286001
 21
148.2631203317
  0
LINE
  5
59F
100
AcDbEntity
  8
0
100
AcDbLine
 62
7
  6
CONTINUOUS
 10
164.8923450379
 20
148.4469076745
 11
164.8000521494
 21
148.5579309125
  0
LINE
  5
5A0
100
AcDbEntity
  8
0
100
AcDbLine
 62
7
  6
CONTINUOUS
 10
164.0992812558
 20
146.2857637099
 11
164.2432793742
 21
146.1051383615
  0
LINE
  5
5A1
100
AcDbEntity
  8
0
100
AcDbLine
 62
7
  6
CONTINUOUS
 10
164.4232770994
 20
145.8793565792
 11
164.5312757139
 21
145.7438875356
  0
LINE
  5
5A2
100
AcDbEntity
  8
0
100
AcDbLine
 62
7
  6
CONTINUOUS
 10
164.4409241789
 20
146.2627047288
 11
164.2969260605
 21
146.4433300772
  0
LINE
  5
5A3
100
AcDbEntity
  8
0
100
AcDbLine
 62
7
  6
CONTINUOUS
 10
164.7105680943
 20
146.3299583573
 11
164.6025694798
 21
146.4654274009
  0
LINE
  5
5A4
100
AcDbEntity
  8
0
100
AcDbLine
 62
7
  6
CONTINUOUS
 10
165.4498541149
 20
147.3624672411
 11
165.5938522333
 21
147.1818418928
  0
LINE
  5
5A5
100
AcDbEntity
  8
0
100
AcDbLine
 62
7
  6
CONTINUOUS
 10
165.7914970149
 20
147.3394082417
 11
165.6474988965
 21
147.52003359
  0
LINE
  5
5A6
100
AcDbEntity
  8
RUNDUNGEN
100
AcDbLine
 62
7
  6
CONTINUOUS
 10
187.1719936625
 20
113.4527561586
 11
187.400388939
 21
113.1416940472
  0
LINE
  5
5A7
100
AcDbEntity
  8
0
100
AcDbLine
 62
7
  6
CONTINUOUS
 10
165.7847282666
 20
144.0852819322
 11
165.8699753684
 21
143.9687611012
  0
LINE
  5
5A8
100
AcDbEntity
  8
0
100
AcDbLine
 62
7
  6
CONTINUOUS
 10
166.0570245812
 20
144.0698296209
 11
165.9376787946
 21
144.2329585709
  0
LINE
  5
5A9
100
AcDbEntity
  8
0
100
AcDbLine
 62
7
  6
CONTINUOUS
 10
166.6176782525
 20
144.73044887
 11
166.737024039
 21
144.56731992
  0
LINE
  5
5AA
100
AcDbEntity
  8
0
100
AcDbLine
 62
7
  6
CONTINUOUS
 10
166.8899745433
 20
144.7149965412
 11
166.8047274414
 21
144.8315173722
  0
LINE
  5
5AB
100
AcDbEntity
  8
0
100
AcDbLine
 62
7
  6
CONTINUOUS
 10
167.2303697784
 20
144.6778104088
 11
167.3156166852
 21
144.5612898445
  0
LINE
  5
5AC
100
AcDbEntity
  8
0
100
AcDbLine
 62
7
  6
CONTINUOUS
 10
167.1956778262
 20
145.1533156495
 11
167.2979742704
 21
145.013490759
  0
LINE
  5
5AD
100
AcDbEntity
  8
0
100
AcDbLine
 62
7
  6
CONTINUOUS
 10
167.4509247746
 20
145.1611673803
 11
167.3827270151
 21
145.2543841517
  0
LINE
  5
5AE
100
AcDbEntity
  8
RUNDUNGEN
100
AcDbLine
 62
7
  6
CONTINUOUS
 10
143.5829657009
 20
173.4479062735
 11
143.3577060744
 21
173.7612465646
  0
LINE
  5
5AF
100
AcDbEntity
  8
0
100
AcDbLine
 62
7
  6
CONTINUOUS
 10
166.9899773873
 20
142.3912871486
 11
167.0863961832
 21
142.2473462638
  0
LINE
  5
5B0
100
AcDbEntity
  8
0
100
AcDbLine
 62
7
  6
CONTINUOUS
 10
167.3113732511
 20
141.9114843825
 11
167.439931523
 21
141.7195633859
  0
LINE
  5
5B1
100
AcDbEntity
  8
0
100
AcDbLine
 62
7
  6
CONTINUOUS
 10
167.6649089587
 20
141.3837009555
 11
167.7613277546
 21
141.2397600707
  0
LINE
  5
5B2
100
AcDbEntity
  8
0
100
AcDbLine
 62
7
  6
CONTINUOUS
 10
169.4063664372
 20
142.3416891668
 11
169.2617382433
 21
142.5576004939
  0
LINE
  5
5B3
100
AcDbEntity
  8
0
100
AcDbLine
 62
7
  6
CONTINUOUS
 10
168.7796442638
 20
143.2773049175
 11
168.6350160699
 21
143.4932162446
  0
LINE
  5
5B4
100
AcDbEntity
  8
0
100
AcDbLine
 62
7
  6
CONTINUOUS
 10
167.8875436117
 20
141.0462135828
 11
167.9803815559
 21
140.8999375472
  0
LINE
  5
5B5
100
AcDbEntity
  8
0
100
AcDbLine
 62
7
  6
CONTINUOUS
 10
168.1970033078
 20
140.5586269833
 11
168.3207874695
 21
140.3635918971
  0
LINE
  5
5B6
100
AcDbEntity
  8
0
100
AcDbLine
 62
7
  6
CONTINUOUS
 10
168.5374092214
 20
140.0222813332
 11
168.6302471656
 21
139.8760052975
  0
LINE
  5
5B7
100
AcDbEntity
  8
0
100
AcDbLine
 62
7
  6
CONTINUOUS
 10
170.3019732875
 20
140.9370103746
 11
170.1627163711
 21
141.1564244281
  0
LINE
  5
5B8
100
AcDbEntity
  8
0
100
AcDbLine
 62
7
  6
CONTINUOUS
 10
169.6985266499
 20
141.8878046064
 11
169.5592697336
 21
142.1072186599
  0
LWPOLYLINE
  5
5B9
100
AcDbEntity
  8
RUNDUNGEN
100
AcDbPolyline
 62
7
  6
CONTINUOUS
 90
3
 70
0
 10
178.031426505
 20
128.8642314051
 10
178.0222500317
 20
128.8817577419
 10
177.66131874
 20
129.5918232778
  0
LINE
  5
5BA
100
AcDbEntity
  8
RUNDUNGEN
100
AcDbLine
 62
7
  6
CONTINUOUS
 10
177.66131874
 20
129.5918232778
 11
177.5717769566
 21
129.7663444377
  0
LINE
  5
5BB
100
AcDbEntity
  8
RUNDUNGEN
100
AcDbLine
 62
7
  6
CONTINUOUS
 10
187.0759192345
 20
95.386794074
 11
188.8605290157
 21
91.4956233765
  0
LINE
  5
5BC
100
AcDbEntity
  8
0
100
AcDbLine
 62
7
  6
CONTINUOUS
 10
163.1806333725
 20
147.4745627575
 11
163.2405304205
 21
147.3366090701
  0
LINE
  5
5BD
100
AcDbEntity
  8
0
100
AcDbLine
 62
7
  6
CONTINUOUS
 10
164.3227838327
 20
147.7481403123
 11
164.2628867818
 21
147.8860939974
  0
LINE
  5
5BE
100
AcDbEntity
  8
0
100
AcDbLine
 62
7
  6
CONTINUOUS
 10
164.9522421151
 20
148.3089539576
 11
164.8923450379
 21
148.4469076745
  0
LINE
  5
5BF
100
AcDbEntity
  8
0
100
AcDbLine
 62
7
  6
CONTINUOUS
 10
164.0422231416
 20
146.4249157261
 11
164.0992812558
 21
146.2857637099
  0
LINE
  5
5C0
100
AcDbEntity
  8
0
100
AcDbLine
 62
7
  6
CONTINUOUS
 10
165.848555029
 20
147.2002563569
 11
165.7914970149
 21
147.3394082417
  0
LINE
  5
5C1
100
AcDbEntity
  8
0
100
AcDbLine
 62
7
  6
CONTINUOUS
 10
166.4939235048
 20
143.1720759324
 11
166.559014125
 21
143.0060834227
  0
LINE
  5
5C2
100
AcDbEntity
  8
0
100
AcDbLine
 62
7
  6
CONTINUOUS
 10
168.2444684649
 20
143.977993119
 11
168.1793778417
 21
144.1439856265
  0
LINE
  5
5C3
100
AcDbEntity
  8
0
100
AcDbLine
 62
7
  6
CONTINUOUS
 10
165.7334813321
 20
144.226677011
 11
165.7847282666
 21
144.0852819322
  0
LINE
  5
5C4
100
AcDbEntity
  8
0
100
AcDbLine
 62
7
  6
CONTINUOUS
 10
166.9412216759
 20
144.5736011979
 11
166.8899745433
 21
144.7149965412
  0
LINE
  5
5C5
100
AcDbEntity
  8
0
100
AcDbLine
 62
7
  6
CONTINUOUS
 10
167.5021717121
 20
145.0197723036
 11
167.4509247746
 21
145.1611673803
  0
LINE
  5
5C6
100
AcDbEntity
  8
RUNDUNGEN
100
AcDbLine
 62
7
  6
CONTINUOUS
 10
187.073821625
 20
95.3837162249
 11
186.9472729624
 21
95.7485178798
  0
LINE
  5
5C7
100
AcDbEntity
  8
0
100
AcDbLine
 62
7
  6
CONTINUOUS
 10
166.7313932474
 20
143.1271368512
 11
166.6828971579
 21
143.2694988742
  0
LINE
  5
5C8
100
AcDbEntity
  8
0
100
AcDbLine
 62
7
  6
CONTINUOUS
 10
168.0069987435
 20
144.022932215
 11
168.0554952127
 21
143.8805696512
  0
LINE
  5
5C9
100
AcDbEntity
  8
0
100
AcDbLine
 62
7
  6
CONTINUOUS
 10
165.5938522333
 20
147.1818418928
 11
165.632910547
 21
147.0652680958
  0
LINE
  5
5CA
100
AcDbEntity
  8
RUNDUNGEN
100
AcDbLine
 62
7
  6
CONTINUOUS
 10
167.0581011857
 20
156.9857693291
 11
167.1701462088
 21
156.6162551389
  0
LINE
  5
5CB
100
AcDbEntity
  8
RUNDUNGEN
100
AcDbLine
 62
7
  6
CONTINUOUS
 10
166.218215924
 20
161.1814944378
 11
167.0616073441
 21
156.9845123086
  0
LWPOLYLINE
  5
5CC
100
AcDbEntity
  8
RUNDUNGEN
100
AcDbPolyline
 62
7
  6
CONTINUOUS
 90
3
 70
0
 10
179.4220029797
 20
124.5844770818
 10
179.4253143886
 20
124.5649728588
 10
179.5491581277
 20
123.778126501
  0
LINE
  5
5CD
100
AcDbEntity
  8
RUNDUNGEN
100
AcDbLine
 62
7
  6
CONTINUOUS
 10
179.5491581277
 20
123.778126501
 11
179.58038742
 21
123.5844770818
  0
LINE
  5
5CE
100
AcDbEntity
  8
RUNDUNGEN
100
AcDbLine
 62
7
  6
CONTINUOUS
 10
186.893184681
 20
114.5617566196
 11
186.9135736744
 21
114.1762764115
  0
LINE
  5
5CF
100
AcDbEntity
  8
RUNDUNGEN
100
AcDbLine
 62
7
  6
CONTINUOUS
 10
186.8931847334
 20
96.1307856495
 11
186.9135737243
 21
96.5162658181
  0
LINE
  5
5D0
100
AcDbEntity
  8
RUNDUNGEN
100
AcDbLine
 62
7
  6
CONTINUOUS
 10
186.9472729114
 20
114.9440243775
 11
186.893184681
 21
114.5617566196
  0
LINE
  5
5D1
100
AcDbEntity
  8
RUNDUNGEN
100
AcDbLine
 62
7
  6
CONTINUOUS
 10
177.8305616562
 20
68.6463201233
 11
177.7582392823
 21
68.2672292139
  0
LINE
  5
5D2
100
AcDbEntity
  8
RUNDUNGEN
100
AcDbLine
 62
7
  6
CONTINUOUS
 10
186.9135737243
 20
96.5162658181
 11
187.0076796939
 21
96.8905850489
  0
LINE
  5
5D3
100
AcDbEntity
  8
RUNDUNGEN
100
AcDbLine
 62
7
  6
CONTINUOUS
 10
184.0830025283
 20
72.9465689382
 11
185.0374443877
 21
75.8840389361
  0
LINE
  5
5D4
100
AcDbEntity
  8
RUNDUNGEN
100
AcDbLine
 62
7
  6
CONTINUOUS
 10
188.583945874
 20
86.7990481751
 11
189.5383879072
 21
89.7365187077
  0
LINE
  5
5D5
100
AcDbEntity
  8
RUNDUNGEN
100
AcDbLine
 62
7
  6
CONTINUOUS
 10
177.9744476547
 20
69.0044648521
 11
177.8305616562
 21
68.6463201233
  0
LINE
  5
5D6
100
AcDbEntity
  8
RUNDUNGEN
100
AcDbLine
 62
7
  6
CONTINUOUS
 10
187.0076796939
 20
96.8905850489
 11
187.1719937072
 21
97.2397860566
  0
LINE
  5
5D7
100
AcDbEntity
  8
RUNDUNGEN
100
AcDbLine
 62
7
  6
CONTINUOUS
 10
167.1701462536
 20
54.0762870873
 11
167.3510793147
 21
54.4173404727
  0
LINE
  5
5D8
100
AcDbEntity
  8
RUNDUNGEN
100
AcDbLine
 62
7
  6
CONTINUOUS
 10
178.1845321939
 20
69.3283092411
 11
177.9744476547
 21
69.0044648521
  0
LINE
  5
5D9
100
AcDbEntity
  8
RUNDUNGEN
100
AcDbLine
 62
7
  6
CONTINUOUS
 10
167.3510793147
 20
54.4173404727
 11
167.5941539129
 21
54.7172161319
  0
LINE
  5
5DA
100
AcDbEntity
  8
RUNDUNGEN
100
AcDbLine
 62
7
  6
CONTINUOUS
 10
178.452981842
 20
69.6057780895
 11
178.1845321939
 21
69.3283092411
  0
LINE
  5
5DB
100
AcDbEntity
  8
RUNDUNGEN
100
AcDbLine
 62
7
  6
CONTINUOUS
 10
143.8642997281
 20
37.5088169726
 11
143.5829656527
 21
37.2446360092
  0
LINE
  5
5DC
100
AcDbEntity
  8
RUNDUNGEN
100
AcDbLine
 62
7
  6
CONTINUOUS
 10
167.5941539129
 20
54.7172161319
 11
167.8903065651
 21
54.9647326499
  0
LINE
  5
5DD
100
AcDbEntity
  8
RUNDUNGEN
100
AcDbLine
 62
7
  6
CONTINUOUS
 10
151.4502534845
 20
37.3126988083
 11
153.9490147128
 21
39.128155108
  0
LINE
  5
5DE
100
AcDbEntity
  8
RUNDUNGEN
100
AcDbLine
 62
7
  6
CONTINUOUS
 10
163.2338761451
 20
45.8740018052
 11
165.7326378282
 21
47.6894584354
  0
LINE
  5
5DF
100
AcDbEntity
  8
RUNDUNGEN
100
AcDbLine
 62
7
  6
CONTINUOUS
 10
144.1912181359
 20
37.7139880767
 11
143.8642997281
 21
37.5088169726
  0
LINE
  5
5E0
100
AcDbEntity
  8
RUNDUNGEN
100
AcDbLine
 62
7
  6
CONTINUOUS
 10
167.8903065651
 20
54.9647326499
 11
168.2284945967
 21
55.1506608458
  0
LINE
  5
5E1
100
AcDbEntity
  8
RUNDUNGEN
100
AcDbLine
 62
7
  6
CONTINUOUS
 10
126.6757919563
 20
31.9874475948
 11
127.0226360278
 21
32.1570157946
  0
LINE
  5
5E2
100
AcDbEntity
  8
RUNDUNGEN
100
AcDbLine
 62
7
  6
CONTINUOUS
 10
144.5515310543
 20
37.852499097
 11
144.1912181359
 21
37.7139880767
  0
LINE
  5
5E3
100
AcDbEntity
  8
RUNDUNGEN
100
AcDbLine
 62
7
  6
CONTINUOUS
 10
98.840844539
 20
178.535526467
 11
98.4679305424
 21
178.4357976151
  0
LINE
  5
5E4
100
AcDbEntity
  8
RUNDUNGEN
100
AcDbLine
 62
7
  6
CONTINUOUS
 10
80.9316770933
 20
172.7733569948
 11
81.311949528
 21
172.8400432158
  0
LINE
  5
5E5
100
AcDbEntity
  8
RUNDUNGEN
100
AcDbLine
 62
7
  6
CONTINUOUS
 10
127.7806291006
 20
178.4096266533
 11
128.163514823
 21
178.4579895219
  0
LINE
  5
5E6
100
AcDbEntity
  8
RUNDUNGEN
100
AcDbLine
 62
7
  6
CONTINUOUS
 10
98.4679305424
 20
178.4357976151
 11
98.0828514552
 21
178.409626702
  0
LINE
  5
5E7
100
AcDbEntity
  8
RUNDUNGEN
100
AcDbLine
 62
7
  6
CONTINUOUS
 10
121.7587383975
 20
183.0272013236
 11
118.6701002202
 21
183.0272013236
  0
LINE
  5
5E8
100
AcDbEntity
  8
RUNDUNGEN
100
AcDbLine
 62
7
  6
CONTINUOUS
 10
107.1933803282
 20
183.0272013236
 11
104.1047383173
 21
183.0272013236
  0
LINE
  5
5E9
100
AcDbEntity
  8
RUNDUNGEN
100
AcDbLine
 62
7
  6
CONTINUOUS
 10
127.3955500037
 20
178.4357975621
 11
127.7806291006
 21
178.4096266533
  0
LINE
  5
5EA
100
AcDbEntity
  8
RUNDUNGEN
100
AcDbLine
 62
7
  6
CONTINUOUS
 10
98.0828514552
 20
178.409626702
 11
97.6999657386
 21
178.4579895635
  0
LINE
  5
5EB
100
AcDbEntity
  8
RUNDUNGEN
100
AcDbLine
 62
7
  6
CONTINUOUS
 10
144.9318034888
 20
172.773356935
 11
144.5515310535
 21
172.8400432096
  0
LINE
  5
5EC
100
AcDbEntity
  8
RUNDUNGEN
100
AcDbLine
 62
7
  6
CONTINUOUS
 10
127.0226359944
 20
178.5355264123
 11
127.3955500037
 21
178.4357975621
  0
LINE
  5
5ED
100
AcDbEntity
  8
RUNDUNGEN
100
AcDbLine
 62
7
  6
CONTINUOUS
 10
144.5515310535
 20
172.8400432096
 11
144.191218172
 21
172.9785542153
  0
LINE
  5
5EE
100
AcDbEntity
  8
RUNDUNGEN
100
AcDbLine
 62
7
  6
CONTINUOUS
 10
126.6757919346
 20
178.7050946096
 11
127.0226359944
 21
178.5355264123
  0
LINE
  5
5EF
100
AcDbEntity
  8
RUNDUNGEN
100
AcDbLine
 62
7
  6
CONTINUOUS
 10
167.8903065446
 20
155.7278095484
 11
168.2284945817
 21
155.54188135
  0
LINE
  5
5F0
100
AcDbEntity
  8
RUNDUNGEN
100
AcDbLine
 62
7
  6
CONTINUOUS
 10
144.191218172
 20
172.9785542153
 11
143.8642997722
 21
173.1837253146
  0
LINE
  5
5F1
100
AcDbEntity
  8
RUNDUNGEN
100
AcDbLine
 62
7
  6
CONTINUOUS
 10
165.7326373734
 20
163.0030841464
 11
163.2338761451
 21
164.8185404461
  0
LINE
  5
5F2
100
AcDbEntity
  8
RUNDUNGEN
100
AcDbLine
 62
7
  6
CONTINUOUS
 10
153.9490147128
 20
171.5643871432
 11
151.4502530297
 21
173.3798437734
  0
LINE
  5
5F3
100
AcDbEntity
  8
RUNDUNGEN
100
AcDbLine
 62
7
  6
CONTINUOUS
 10
167.5941538853
 20
155.9753260725
 11
167.8903065446
 21
155.7278095484
  0
LINE
  5
5F4
100
AcDbEntity
  8
RUNDUNGEN
100
AcDbLine
 62
7
  6
CONTINUOUS
 10
143.8642997722
 20
173.1837253146
 11
143.5829657009
 21
173.4479062735
  0
LINE
  5
5F5
100
AcDbEntity
  8
RUNDUNGEN
100
AcDbLine
 62
7
  6
CONTINUOUS
 10
178.4529818797
 20
141.0867641966
 11
178.1845322258
 21
141.3642330554
  0
LINE
  5
5F6
100
AcDbEntity
  8
RUNDUNGEN
100
AcDbLine
 62
7
  6
CONTINUOUS
 10
167.3510792618
 20
156.2752017623
 11
167.5941538853
 21
155.9753260725
  0
LINE
  5
5F7
100
AcDbEntity
  8
RUNDUNGEN
100
AcDbLine
 62
7
  6
CONTINUOUS
 10
178.1845322258
 20
141.3642330554
 11
177.9744477078
 21
141.6880774109
  0
LINE
  5
5F8
100
AcDbEntity
  8
RUNDUNGEN
100
AcDbLine
 62
7
  6
CONTINUOUS
 10
167.1701462088
 20
156.6162551389
 11
167.3510792618
 21
156.2752017623
  0
LINE
  5
5F9
100
AcDbEntity
  8
RUNDUNGEN
100
AcDbLine
 62
7
  6
CONTINUOUS
 10
187.0076796461
 20
113.8019571715
 11
187.1719936625
 21
113.4527561586
  0
LINE
  5
5FA
100
AcDbEntity
  8
RUNDUNGEN
100
AcDbLine
 62
7
  6
CONTINUOUS
 10
177.9744477078
 20
141.6880774109
 11
177.8305617129
 21
142.0462221311
  0
LINE
  5
5FB
100
AcDbEntity
  8
RUNDUNGEN
100
AcDbLine
 62
7
  6
CONTINUOUS
 10
189.5383877335
 20
120.9560240782
 11
188.583945874
 21
123.8934940762
  0
LINE
  5
5FC
100
AcDbEntity
  8
RUNDUNGEN
100
AcDbLine
 62
7
  6
CONTINUOUS
 10
185.0374443877
 20
134.8085033151
 11
184.0830023546
 21
137.7459738478
  0
LINE
  5
5FD
100
AcDbEntity
  8
RUNDUNGEN
100
AcDbLine
 62
7
  6
CONTINUOUS
 10
186.9135736744
 20
114.1762764115
 11
187.0076796461
 21
113.8019571715
  0
LINE
  5
5FE
100
AcDbEntity
  8
RUNDUNGEN
100
AcDbLine
 62
7
  6
CONTINUOUS
 10
177.8305617129
 20
142.0462221311
 11
177.7582393397
 21
142.4253130345
  0
LINE
  5
5FF
100
AcDbEntity
  8
RUNDUNGEN
100
AcDbLine
 62
7
  6
CONTINUOUS
 10
186.9472729624
 20
95.7485178798
 11
186.8931847334
 21
96.1307856495
  0
LINE
  5
600
100
AcDbEntity
  8
RUNDUNGEN
100
AcDbLine
 62
7
  6
CONTINUOUS
 10
191.350771026
 20
102.3462711256
 11
191.350771026
 21
108.3462711256
  0
LINE
  5
601
100
AcDbEntity
  8
RUNDUNGEN
100
AcDbLine
 62
7
  6
CONTINUOUS
 10
174.6107130779
 20
56.8256703676
 11
178.1374245917
 21
61.6797723338
  0
LINE
  5
602
100
AcDbEntity
  8
RUNDUNGEN
100
AcDbLine
 62
7
  6
CONTINUOUS
 10
134.31138391
 20
29.8382899445
 11
140.0177230078
 21
31.6923919108
  0
LINE
  5
603
100
AcDbEntity
  8
RUNDUNGEN
100
AcDbLine
 62
7
  6
CONTINUOUS
 10
140.0177230078
 20
179.0001503405
 11
134.31138391
 21
180.8542523067
  0
LINE
  5
604
100
AcDbEntity
  8
RUNDUNGEN
100
AcDbLine
 62
7
  6
CONTINUOUS
 10
178.1374245917
 20
149.0127699174
 11
174.6107130779
 21
153.8668718837
  0
LINE
  5
605
100
AcDbEntity
  8
RUNDUNGEN
100
AcDbLine
 62
7
  6
CONTINUOUS
 10
231.34049147
 20
27.6653409277
 11
259.34049147
 21
27.6653409277
  0
LINE
  5
606
100
AcDbEntity
  8
RUNDUNGEN
100
AcDbLine
 62
7
  6
CONTINUOUS
 10
245.59049147
 20
29.7893464608
 11
245.7856220216
 21
29.8085691856
  0
LINE
  5
607
100
AcDbEntity
  8
0
100
AcDbLine
 62
7
  6
CONTINUOUS
 10
245.09049147
 20
29.7893464608
 11
245.59049147
 21
29.7893464608
  0
LINE
  5
608
100
AcDbEntity
  8
RUNDUNGEN
100
AcDbLine
 62
7
  6
CONTINUOUS
 10
245.09049147
 20
29.7893464608
 11
244.8953609185
 21
29.8085691856
  0
LWPOLYLINE
  5
609
100
AcDbEntity
  8
RUNDUNGEN
100
AcDbPolyline
 62
7
  6
CONTINUOUS
 90
8
 70
0
 10
244.8953609185
 20
29.8085691856
 10
244.7077738889
 20
29.8654810739
 10
244.5348993804
 20
29.9578914534
 10
244.3833733339
 20
30.0822510347
 10
244.2590249961
 20
30.2337715312
 10
244.1666173642
 20
30.4066499275
 10
244.1097075636
 20
30.5942493148
 10
244.09049147
 20
30.7893464608
  0
LINE
  5
60A
100
AcDbEntity
  8
0
100
AcDbLine
 62
7
  6
CONTINUOUS
 10
230.8840673205
 20
172.9692038491
 11
230.7847232787
 21
172.9160661222
  0
LWPOLYLINE
  5
60B
100
AcDbEntity
  8
RUNDUNGEN
100
AcDbPolyline
 62
7
  6
CONTINUOUS
 90
7
 70
0
 10
245.3401031685
 20
37.1217221565
 10
245.9995704998
 20
37.1411194558
 10
247.0392332524
 20
37.2372977233
 10
248.0839261872
 20
37.3725631047
 10
249.1521628696
 20
37.5014132531
 10
250.2567899003
 20
37.5881926284
 10
251.0298836098
 20
37.6078806609
  0
LINE
  5
60C
100
AcDbEntity
  8
RUNDUNGEN
100
AcDbLine
 62
7
  6
CONTINUOUS
 10
259.34049147
 20
37.6078134327
 11
251.0298830701
 21
37.6078134327
  0
LINE
  5
60D
100
AcDbEntity
  8
RUNDUNGEN
100
AcDbLine
 62
7
  6
CONTINUOUS
 10
239.6513226825
 20
37.6078134327
 11
231.34049147
 21
37.6078134327
  0
LWPOLYLINE
  5
60E
100
AcDbEntity
  8
RUNDUNGEN
100
AcDbPolyline
 62
7
  6
CONTINUOUS
 90
7
 70
0
 10
239.6513226738
 20
37.6078275377
 10
240.4566352971
 20
37.5865797325
 10
241.5619881315
 20
37.4979153102
 10
242.6303978674
 20
37.3681760893
 10
243.6753206035
 20
37.233311613
 10
244.7151666791
 20
37.1392242847
 10
245.3401031643
 20
37.1217202082
  0
LWPOLYLINE
  5
60F
100
AcDbEntity
  8
RUNDUNGEN
100
AcDbPolyline
 62
7
  6
CONTINUOUS
 90
9
 70
0
 10
231.34049147
 20
37.6078134327
 10
231.1450219222
 20
37.6271036844
 10
230.9574895558
 20
37.684065884
 10
230.7847232787
 20
37.776476129
 10
230.6332859069
 20
37.9008054472
 10
230.5090567648
 20
38.0521909629
 10
230.4166658491
 20
38.2249998721
 10
230.3597199063
 20
38.4126549678
 10
230.34049147
 20
38.6078134327
  0
LINE
  5
610
100
AcDbEntity
  8
0
100
AcDbLine
 62
7
  6
CONTINUOUS
 10
230.7847232787
 20
172.9160661222
 11
230.6332859069
 21
172.7917368041
  0
LINE
  5
611
100
AcDbEntity
  8
RUNDUNGEN
100
AcDbLine
 62
7
  6
CONTINUOUS
 10
260.34049147
 20
49.1545401334
 11
261.6863418171
 21
49.2876332201
  0
LINE
  5
612
100
AcDbEntity
  8
0
100
AcDbLine
 62
7
  6
CONTINUOUS
 10
231.34049147
 20
45.6830187996
 11
259.34049147
 21
45.6830187996
  0
LINE
  5
613
100
AcDbEntity
  8
RUNDUNGEN
100
AcDbLine
 62
7
  6
CONTINUOUS
 10
228.9946411229
 20
49.2876332201
 11
230.34049147
 21
49.1545401334
  0
LWPOLYLINE
  5
614
100
AcDbEntity
  8
0
100
AcDbPolyline
 62
7
  6
CONTINUOUS
 90
5
 70
0
 10
230.6332859069
 20
172.7917368041
 10
230.5090567648
 20
172.6403512884
 10
230.4166658491
 20
172.4675423792
 10
230.3597199063
 20
172.2798872835
 10
230.34049147
 20
172.0847288186
  0
LINE
  5
615
100
AcDbEntity
  8
0
100
AcDbLine
 62
7
  6
CONTINUOUS
 10
251.6378898002
 20
168.8761341047
 11
251.6698741245
 21
168.8940696889
  0
LINE
  5
616
100
AcDbEntity
  8
RUNDUNGEN
100
AcDbLine
 62
7
  6
CONTINUOUS
 10
251.6701354616
 20
168.8942125819
 11
251.6698741245
 21
168.8940696889
  0
LINE
  5
617
100
AcDbEntity
  8
0
100
AcDbLine
 62
7
  6
CONTINUOUS
 10
251.6701338596
 20
168.8942156878
 11
252.0875978519
 21
169.1202167801
  0
LINE
  5
618
100
AcDbEntity
  8
0
100
AcDbLine
 62
7
  6
CONTINUOUS
 10
252.0875978519
 20
169.1202167801
 11
252.4789309196
 21
169.3286322526
  0
LINE
  5
619
100
AcDbEntity
  8
0
100
AcDbLine
 62
7
  6
CONTINUOUS
 10
252.4789309196
 20
169.3286322526
 11
252.883508492
 21
169.5411487996
  0
LINE
  5
61A
100
AcDbEntity
  8
RUNDUNGEN
100
AcDbLine
 62
7
  6
CONTINUOUS
 10
253.302228906
 20
169.758419578
 11
253.3018435129
 21
169.7582207193
  0
LINE
  5
61B
100
AcDbEntity
  8
0
100
AcDbLine
 62
7
  6
CONTINUOUS
 10
252.883508492
 20
169.5411487996
 11
253.5077005858
 21
169.8642223523
  0
LWPOLYLINE
  5
61C
100
AcDbEntity
  8
0
100
AcDbPolyline
 62
7
  6
CONTINUOUS
 90
3
 70
0
 10
253.5077005858
 20
169.8642223523
 10
254.1332470998
 20
170.183002244
 10
254.7713757877
 20
170.5039920753
  0
LINE
  5
61D
100
AcDbEntity
  8
0
100
AcDbLine
 62
7
  6
CONTINUOUS
 10
254.7713757877
 20
170.5039920753
 11
256.069426109
 21
171.1462447363
  0
LINE
  5
61E
100
AcDbEntity
  8
0
100
AcDbLine
 62
7
  6
CONTINUOUS
 10
256.069426109
 20
171.1462447363
 11
259.7794993208
 21
172.9587130674
  0
LINE
  5
61F
100
AcDbEntity
  8
0
100
AcDbLine
 62
7
  6
CONTINUOUS
 10
251.4637491764
 20
169.0137136552
 11
252.2112220517
 21
169.3782805355
  0
LINE
  5
620
100
AcDbEntity
  8
0
100
AcDbLine
 62
2
  6
CONTINUOUS
 10
243.1638247886
 20
171.2772013236
 11
240.0802568046
 21
168.1936333396
  0
LINE
  5
621
100
AcDbEntity
  8
0
100
AcDbLine
 62
2
  6
CONTINUOUS
 10
233.7630914426
 20
161.8764679776
 11
226.29049147
 21
154.403868005
  0
LINE
  5
622
100
AcDbEntity
  8
0
100
AcDbLine
 62
2
  6
CONTINUOUS
 10
249.0647421311
 20
171.2772013236
 11
226.29049147
 21
148.5029506625
  0
LINE
  5
623
100
AcDbEntity
  8
RUNDUNGEN
100
AcDbLine
 62
7
  6
CONTINUOUS
 10
251.4104902176
 20
168.7206763571
 11
251.4092029855
 21
168.7196491042
  0
LWPOLYLINE
  5
624
100
AcDbEntity
  8
0
100
AcDbPolyline
 62
7
  6
CONTINUOUS
 90
4
 70
0
 10
251.4092068888
 20
168.7196440794
 10
251.472029525
 20
168.7677607226
 10
251.5550512723
 20
168.8252984612
 10
251.6378898002
 20
168.8761341047
  0
LINE
  5
625
100
AcDbEntity
  8
0
100
AcDbLine
 62
7
  6
CONTINUOUS
 10
259.3437765605
 20
161.6365686963
 11
259.7078918564
 21
161.7804050169
  0
LINE
  5
626
100
AcDbEntity
  8
RUNDUNGEN
100
AcDbLine
 62
7
  6
CONTINUOUS
 10
259.7072174853
 20
161.7801389049
 11
259.7072460101
 21
161.7801501519
  0
LINE
  5
627
100
AcDbEntity
  8
0
100
AcDbLine
 62
2
  6
CONTINUOUS
 10
250.34049147
 20
166.6520333201
 11
232.0368720781
 21
148.3484139281
  0
LINE
  5
628
100
AcDbEntity
  8
0
100
AcDbLine
 62
7
  6
CONTINUOUS
 10
251.1869820512
 20
168.5122914498
 11
251.4104902176
 21
168.7206763571
  0
LINE
  5
629
100
AcDbEntity
  8
0
100
AcDbLine
 62
7
  6
CONTINUOUS
 10
259.7072174853
 20
161.7801389049
 11
259.8963191331
 21
161.8791703531
  0
LINE
  5
62A
100
AcDbEntity
  8
RUNDUNGEN
100
AcDbLine
 62
7
  6
CONTINUOUS
 10
259.7081741988
 20
53.900365353
 11
255.8711037901
 21
55.4167924029
  0
LWPOLYLINE
  5
62B
100
AcDbEntity
  8
RUNDUNGEN
100
AcDbPolyline
 62
7
  6
CONTINUOUS
 90
7
 70
0
 10
255.871196129
 20
55.4167006945
 10
255.7794909207
 20
55.4534562024
 10
255.3318022193
 20
55.6472993932
 10
254.8701763126
 20
55.872134672
 10
254.3990891489
 20
56.1279591156
 10
253.9236288149
 20
56.4142283923
 10
253.7520456877
 20
56.5248116283
  0
LINE
  5
62C
100
AcDbEntity
  8
0
100
AcDbLine
 62
2
  6
CONTINUOUS
 10
252.0217975604
 20
162.432422068
 11
237.9377894205
 21
148.3484139281
  0
LWPOLYLINE
  5
62D
100
AcDbEntity
  8
0
100
AcDbPolyline
 62
7
  6
CONTINUOUS
 90
5
 70
0
 10
259.8963191331
 20
161.8791703531
 10
260.047724719
 20
162.0034876036
 10
260.1719125053
 20
162.1548249701
 10
260.2642985408
 20
162.3276095707
 10
260.3212582778
 20
162.5152857961
  0
LWPOLYLINE
  5
62E
100
AcDbEntity
  8
RUNDUNGEN
100
AcDbPolyline
 62
7
  6
CONTINUOUS
 90
9
 70
0
 10
231.34049147
 20
73.0421084196
 10
231.1422341304
 20
73.0619589726
 10
230.9553335398
 20
73.1192577444
 10
230.7837476606
 20
73.2114241877
 10
230.6330613192
 20
73.3353251561
 10
230.5096579533
 20
73.4855873848
 10
230.4172693655
 20
73.6578416559
 10
230.3598855033
 20
73.8461268412
 10
230.34049147
 20
74.0421084196
  0
LWPOLYLINE
  5
62F
100
AcDbEntity
  8
RUNDUNGEN
100
AcDbPolyline
 62
7
  6
CONTINUOUS
 90
6
 70
0
 10
253.7520423371
 20
56.5248571021
 10
253.4972678179
 20
56.6965230325
 10
253.2147103724
 20
56.8979301694
 10
252.9358575896
 20
57.1088270261
 10
252.6618798083
 20
57.3287096664
 10
252.5181513471
 20
57.4494526326
  0
LINE
  5
630
100
AcDbEntity
  8
0
100
AcDbLine
 62
2
  6
CONTINUOUS
 10
257.3263661623
 20
161.8360733274
 11
243.838706763
 21
148.3484139281
  0
LINE
  5
631
100
AcDbEntity
  8
0
100
AcDbLine
 62
2
  6
CONTINUOUS
 10
262.5681359746
 20
161.1769257972
 11
249.7396241055
 21
148.3484139281
  0
LINE
  5
632
100
AcDbEntity
  8
RUNDUNGEN
100
AcDbLine
 62
7
  6
CONTINUOUS
 10
248.4856765658
 20
72.7374747888
 11
248.4762342855
 21
72.7355365752
  0
LWPOLYLINE
  5
633
100
AcDbEntity
  8
RUNDUNGEN
100
AcDbPolyline
 62
7
  6
CONTINUOUS
 90
4
 70
0
 10
248.4762271065
 20
72.7355327766
 10
249.140322012
 20
72.8624245308
 10
250.2407951272
 20
73.0077506451
 10
251.0298933151
 20
73.0422151012
  0
LINE
  5
634
100
AcDbEntity
  8
RUNDUNGEN
100
AcDbLine
 62
7
  6
CONTINUOUS
 10
259.34049147
 20
73.0421084196
 11
251.0298898513
 21
73.0421084196
  0
LINE
  5
635
100
AcDbEntity
  8
RUNDUNGEN
100
AcDbLine
 62
7
  6
CONTINUOUS
 10
239.6513329197
 20
73.0421084196
 11
231.34049147
 21
73.0421084196
  0
LWPOLYLINE
  5
636
100
AcDbEntity
  8
RUNDUNGEN
100
AcDbPolyline
 62
7
  6
CONTINUOUS
 90
4
 70
0
 10
239.6513330228
 20
73.0421292859
 10
240.4732925159
 20
73.0049373583
 10
241.5758523822
 20
72.8562507713
 10
242.2029821742
 20
72.7359063855
  0
LINE
  5
637
100
AcDbEntity
  8
RUNDUNGEN
100
AcDbLine
 62
7
  6
CONTINUOUS
 10
242.2029881833
 20
72.7359052687
 11
242.1949466371
 21
72.7375553133
  0
LINE
  5
638
100
AcDbEntity
  8
RUNDUNGEN
100
AcDbLine
 62
7
  6
CONTINUOUS
 10
252.518159731
 20
57.4494624466
 11
252.5179539773
 21
57.4496379849
  0
LWPOLYLINE
  5
639
100
AcDbEntity
  8
RUNDUNGEN
100
AcDbPolyline
 62
7
  6
CONTINUOUS
 90
5
 70
0
 10
252.5179539773
 20
57.4496379849
 10
252.4393137206
 20
57.5194539993
 10
252.3087484579
 20
57.6467191648
 10
252.1762471882
 20
57.7895546509
 10
252.104623446
 20
57.872129218
  0
LWPOLYLINE
  5
63A
100
AcDbEntity
  8
0
100
AcDbPolyline
 62
7
  6
CONTINUOUS
 90
3
 70
0
 10
250.6693006012
 20
167.6749984968
 10
250.9062540798
 20
168.1412860109
 10
251.1869820512
 20
168.5122914498
  0
LINE
  5
63B
100
AcDbEntity
  8
0
100
AcDbLine
 62
2
  6
CONTINUOUS
 10
264.39049147
 20
157.0983639502
 11
255.640541448
 21
148.3484139281
  0
LWPOLYLINE
  5
63C
100
AcDbEntity
  8
RUNDUNGEN
100
AcDbPolyline
 62
7
  6
CONTINUOUS
 90
5
 70
0
 10
231.34049147
 20
81.8283108461
 10
231.1439513184
 20
81.810585201
 10
230.955461094
 20
81.75876145
 10
230.7822661436
 20
81.6746301343
 10
230.6309688931
 20
81.5619012643
  0
LINE
  5
63D
100
AcDbEntity
  8
RUNDUNGEN
100
AcDbLine
 62
7
  6
CONTINUOUS
 10
231.34049147
 20
81.8283108461
 11
259.34049147
 21
81.8283108461
  0
LWPOLYLINE
  5
63E
100
AcDbEntity
  8
RUNDUNGEN
100
AcDbPolyline
 62
7
  6
CONTINUOUS
 90
5
 70
0
 10
259.34049147
 20
81.8283108461
 10
259.5370316217
 20
81.8107845094
 10
259.7255218461
 20
81.75876145
 10
259.8987167965
 20
81.674693134
 10
260.050014047
 20
81.5619012643
  0
LINE
  5
63F
100
AcDbEntity
  8
RUNDUNGEN
100
AcDbLine
 62
7
  6
CONTINUOUS
 10
252.1046243534
 20
57.8721299587
 11
252.1040933301
 21
57.8727530253
  0
LWPOLYLINE
  5
640
100
AcDbEntity
  8
RUNDUNGEN
100
AcDbPolyline
 62
7
  6
CONTINUOUS
 90
10
 70
0
 10
252.1040933301
 20
57.8727530253
 10
251.8755323642
 20
58.1667188124
 10
251.5327069686
 20
58.7102889219
 10
251.2424495193
 20
59.2923879814
 10
250.9960274389
 20
59.9108523734
 10
250.7864438843
 20
60.575380537
 10
250.6164698917
 20
61.2751658587
 10
250.4859852493
 20
62.0094153691
 10
250.396370894
 20
62.7721583082
 10
250.348577414
 20
63.5603615635
  0
LINE
  5
641
100
AcDbEntity
  8
RUNDUNGEN
100
AcDbLine
 62
7
  6
CONTINUOUS
 10
226.29049147
 20
52.2730715353
 11
226.29049147
 21
105.3462711262
  0
LINE
  5
642
100
AcDbEntity
  8
0
100
AcDbLine
 62
7
  6
CONTINUOUS
 10
226.29049147
 20
105.3462711262
 11
226.29049147
 21
158.4195241468
  0
LINE
  5
643
100
AcDbEntity
  8
0
100
AcDbLine
 62
2
  6
CONTINUOUS
 10
264.39049147
 20
151.1974466077
 11
261.5414587904
 21
148.3484139281
  0
LWPOLYLINE
  5
644
100
AcDbEntity
  8
RUNDUNGEN
100
AcDbPolyline
 62
7
  6
CONTINUOUS
 90
4
 70
0
 10
232.6291824765
 20
82.2971977452
 10
232.456497252
 20
82.2634607202
 10
232.2817809537
 20
82.2315569254
 10
232.1050945039
 20
82.2015681183
  0
LINE
  5
645
100
AcDbEntity
  8
RUNDUNGEN
100
AcDbLine
 62
7
  6
CONTINUOUS
 10
231.1967876683
 20
82.0634547699
 11
231.1425259207
 21
82.0540430046
  0
LINE
  5
646
100
AcDbEntity
  8
RUNDUNGEN
100
AcDbLine
 62
7
  6
CONTINUOUS
 10
232.1050945039
 20
82.2015681183
 11
231.93645725
 21
82.175076228
  0
LINE
  5
647
100
AcDbEntity
  8
RUNDUNGEN
100
AcDbLine
 62
7
  6
CONTINUOUS
 10
231.9364593929
 20
82.1750783294
 11
231.1912930187
 21
82.0626417538
  0
LINE
  5
648
100
AcDbEntity
  8
RUNDUNGEN
100
AcDbLine
 62
7
  6
CONTINUOUS
 10
231.34049147
 20
86.1080651695
 11
259.34049147
 21
86.1080651695
  0
LINE
  5
649
100
AcDbEntity
  8
RUNDUNGEN
100
AcDbLine
 62
7
  6
CONTINUOUS
 10
259.4844188358
 20
82.0634217322
 11
258.7445235286
 21
82.1750783322
  0
LWPOLYLINE
  5
64A
100
AcDbEntity
  8
RUNDUNGEN
100
AcDbPolyline
 62
7
  6
CONTINUOUS
 90
3
 70
0
 10
258.7445241447
 20
82.1750776907
 10
258.5769359828
 20
82.2013963349
 10
258.3873324645
 20
82.23365213
  0
LINE
  5
64B
100
AcDbEntity
  8
RUNDUNGEN
100
AcDbLine
 62
7
  6
CONTINUOUS
 10
259.4841952717
 20
82.0634547699
 11
259.5384570193
 21
82.0540430046
  0
LINE
  5
64C
100
AcDbEntity
  8
RUNDUNGEN
100
AcDbLine
 62
7
  6
CONTINUOUS
 10
258.3873324645
 20
82.23365213
 11
258.1999823891
 21
82.2681138242
  0
LWPOLYLINE
  5
64D
100
AcDbEntity
  8
RUNDUNGEN
100
AcDbPolyline
 62
7
  6
CONTINUOUS
 90
65
 70
0
 10
258.1999823891
 20
82.2681138242
 10
258.014951358
 20
82.3046819808
 10
257.8323073917
 20
82.3432572369
 10
257.6521086442
 20
82.3837430343
 10
257.47443806
 20
82.4260444004
 10
257.299378269
 20
82.470074578
 10
257.1269841411
 20
82.5157527047
 10
256.9573092454
 20
82.5629973506
 10
256.7904273679
 20
82.6117201954
 10
256.6264109154
 20
82.6618364741
 10
256.4653161254
 20
82.7132742139
 10
256.3072097317
 20
82.765956309
 10
256.1521243221
 20
82.8198143607
 10
256.0001599324
 20
82.8747536786
 10
255.8511703804
 20
82.930773054
 10
255.7051066492
 20
82.9878523736
 10
255.5618125186
 20
83.0460200094
 10
255.4211495289
 20
83.1053062384
 10
255.2830227512
 20
83.1657312874
 10
255.1473341137
 20
83.2273290678
 10
255.0140026822
 20
83.2901458073
 10
254.8829520112
 20
83.3542354928
 10
254.7541136666
 20
83.4196573122
 10
254.6273904602
 20
83.4864965054
 10
254.5028372207
 20
83.5547755652
 10
254.3804932081
 20
83.624541883
 10
254.2604519823
 20
83.6958201166
 10
254.1428023723
 20
83.7686445816
 10
254.0276396764
 20
83.843055551
 10
253.9151100022
 20
83.9190770627
 10
253.8054411983
 20
83.9966937418
 10
253.6988692795
 20
84.0758978598
 10
253.5956089583
 20
84.1567149445
 10
253.4960003405
 20
84.2390577596
 10
253.4003614865
 20
84.3228610534
 10
253.309234579
 20
84.4079107922
 10
253.2226121297
 20
84.494585022
 10
253.1409925691
 20
84.5827310464
 10
253.0646586968
 20
84.6725163405
 10
252.9945367392
 20
84.7637627527
 10
252.9313214507
 20
84.8567313501
 10
252.8763822139
 20
84.9499354731
 10
252.8312086904
 20
85.0423205083
 10
252.7977116172
 20
85.1334840089
 10
252.7787421838
 20
85.2142301663
 10
252.7726206325
 20
85.2772982713
 10
252.7763259469
 20
85.3286781679
 10
252.7863450166
 20
85.3741259384
 10
252.8022833028
 20
85.4179595228
 10
252.8248170923
 20
85.4622354183
 10
252.854104887
 20
85.507977713
 10
252.8911927623
 20
85.556621134
 10
252.9352220206
 20
85.6061538463
 10
252.9859223359
 20
85.6558901405
 10
253.0424759303
 20
85.7051924491
 10
253.1042848784
 20
85.7536935943
 10
253.1706362357
 20
85.8009623946
 10
253.2408103743
 20
85.8466580654
 10
253.3149437043
 20
85.8910194574
 10
253.3933388142
 20
85.9342850157
 10
253.4754883412
 20
85.9762166915
 10
253.5611874748
 20
86.0167695743
 10
253.650036013
 20
86.0557963645
 10
253.74157133
 20
86.0931578132
 10
253.7808407973
 20
86.1080651695
  0
LWPOLYLINE
  5
64E
100
AcDbEntity
  8
RUNDUNGEN
100
AcDbPolyline
 62
7
  6
CONTINUOUS
 90
3
 70
0
 10
259.5384570193
 20
82.0540430046
 10
259.7254330864
 20
81.9967754068
 10
259.897162534
 20
81.9045674657
  0
LWPOLYLINE
  5
64F
100
AcDbEntity
  8
RUNDUNGEN
100
AcDbPolyline
 62
7
  6
CONTINUOUS
 90
66
 70
0
 10
236.9003491932
 20
86.1080651695
 10
236.9205463632
 20
86.1005272846
 10
237.018710912
 20
86.0609510669
 10
237.1135138706
 20
86.0196269657
 10
237.2043319951
 20
85.9767883718
 10
237.2904988318
 20
85.9327672193
 10
237.3720457989
 20
85.887557046
 10
237.4485622998
 20
85.8413986425
 10
237.5204334683
 20
85.7940541905
 10
237.5878582066
 20
85.7452870152
 10
237.6502027919
 20
85.6954256678
 10
237.7066454182
 20
85.6450575271
 10
237.7570848301
 20
85.5941048316
 10
237.8010767164
 20
85.542641874
 10
237.837587026
 20
85.4921842689
 10
237.8656568094
 20
85.4449844535
 10
237.8857628409
 20
85.4007499849
 10
237.8988150746
 20
85.3585087008
 10
237.9064439983
 20
85.3148008108
 10
237.9080286689
 20
85.2653455572
 10
237.9002354392
 20
85.2027031815
 10
237.8782860433
 20
85.1177076968
 10
237.8396893372
 20
85.0196773862
 10
237.7879349265
 20
84.9199851589
 10
237.7256108407
 20
84.8199414417
 10
237.6556765229
 20
84.7224685775
 10
237.5795713771
 20
84.6282407631
 10
237.4980343971
 20
84.5365381124
 10
237.4123131246
 20
84.4477158484
 10
237.322862117
 20
84.3615863373
 10
237.230341801
 20
84.2781705922
 10
237.1350155285
 20
84.1971728719
 10
237.0373086269
 20
84.1185618796
 10
236.9374881587
 20
84.0422470109
 10
236.8356863534
 20
83.9680564687
 10
236.7319603506
 20
83.8957998209
 10
236.6263264036
 20
83.825304359
 10
236.5187861365
 20
83.7564258303
 10
236.4092318091
 20
83.6889852239
 10
236.297376442
 20
83.6227320008
 10
236.1834680733
 20
83.5577537708
 10
236.0676248175
 20
83.494057327
 10
235.9499363418
 20
83.4316348917
 10
235.8305376731
 20
83.3705099667
 10
235.7093120398
 20
83.3105868086
 10
235.5861981878
 20
83.2518088112
 10
235.461122226
 20
83.1941212647
 10
235.3340061455
 20
83.1374750855
 10
235.2047732273
 20
83.0818349584
 10
235.0733420952
 20
83.0271772779
 10
234.9395919531
 20
82.9734689129
 10
234.8034057539
 20
82.9206854
 10
234.6646833006
 20
82.8688148642
 10
234.5232653275
 20
82.8178329873
 10
234.3791931613
 20
82.7678014269
 10
234.2324307396
 20
82.7187560713
 10
234.0830476754
 20
82.6707681497
 10
233.931084734
 20
82.6238967312
 10
233.7766031545
 20
82.578205699
 10
233.6196604111
 20
82.5337635757
 10
233.4603043899
 20
82.4906392962
 10
233.2985883722
 20
82.448902219
 10
233.1345617873
 20
82.4086195466
 10
232.9682716234
 20
82.3698569344
 10
232.7997878041
 20
82.3326888205
 10
232.6291824765
 20
82.2971977452
  0
LINE
  5
650
100
AcDbEntity
  8
RUNDUNGEN
100
AcDbLine
 62
7
  6
CONTINUOUS
 10
230.34049147
 20
173.8653249894
 11
230.34049147
 21
173.8571338762
  0
LINE
  5
651
100
AcDbEntity
  8
RUNDUNGEN
100
AcDbLine
 62
7
  6
CONTINUOUS
 10
230.34049147
 20
28.6653409277
 11
230.34049147
 21
36.8354083801
  0
LINE
  5
652
100
AcDbEntity
  8
RUNDUNGEN
100
AcDbLine
 62
7
  6
CONTINUOUS
 10
230.34049147
 20
38.6078134327
 11
230.34049147
 21
52.9705281881
  0
LINE
  5
653
100
AcDbEntity
  8
RUNDUNGEN
100
AcDbLine
 62
7
  6
CONTINUOUS
 10
230.34049147
 20
74.0421084196
 11
230.34049147
 21
81.0738344813
  0
LINE
  5
654
100
AcDbEntity
  8
RUNDUNGEN
100
AcDbLine
 62
7
  6
CONTINUOUS
 10
230.34049147
 20
87.1080651695
 11
230.34049147
 21
90.6485572456
  0
LINE
  5
655
100
AcDbEntity
  8
RUNDUNGEN
100
AcDbLine
 62
7
  6
CONTINUOUS
 10
230.34049147
 20
161.5380021178
 11
230.34049147
 21
162.6801647819
  0
LINE
  5
656
100
AcDbEntity
  8
RUNDUNGEN
100
AcDbLine
 62
7
  6
CONTINUOUS
 10
230.34049147
 20
162.7104678944
 11
230.34049147
 21
172.0847288186
  0
LINE
  5
657
100
AcDbEntity
  8
RUNDUNGEN
100
AcDbLine
 62
7
  6
CONTINUOUS
 10
230.34049147
 20
173.8910545905
 11
230.34049147
 21
182.0272013236
  0
LINE
  5
658
100
AcDbEntity
  8
RUNDUNGEN
100
AcDbLine
 62
7
  6
CONTINUOUS
 10
230.3594206762
 20
81.1012196021
 11
230.34049147
 21
80.9261978135
  0
LINE
  5
659
100
AcDbEntity
  8
0
100
AcDbLine
 62
7
  6
CONTINUOUS
 10
250.4854965571
 20
167.1062293627
 11
250.6693006012
 21
167.6749984968
  0
LINE
  5
65A
100
AcDbEntity
  8
RUNDUNGEN
100
AcDbLine
 62
7
  6
CONTINUOUS
 10
235.9013585562
 20
92.3489226265
 11
231.1912223777
 21
91.6379122483
  0
LINE
  5
65B
100
AcDbEntity
  8
RUNDUNGEN
100
AcDbLine
 62
7
  6
CONTINUOUS
 10
259.489745609
 20
91.6379145055
 11
254.7796371937
 21
92.3489206927
  0
LWPOLYLINE
  5
65C
100
AcDbEntity
  8
RUNDUNGEN
100
AcDbPolyline
 62
7
  6
CONTINUOUS
 90
5
 70
0
 10
254.7795957338
 20
92.3488587926
 10
254.7041854262
 20
92.3611168609
 10
254.417462659
 20
92.4234378853
 10
254.1184589906
 20
92.5138956289
 10
253.811045885
 20
92.6331863902
  0
LWPOLYLINE
  5
65D
100
AcDbEntity
  8
RUNDUNGEN
100
AcDbPolyline
 62
7
  6
CONTINUOUS
 90
3
 70
0
 10
240.199008918
 20
73.0173481107
 10
240.2329771283
 20
72.9220562436
 10
240.2844401139
 20
72.725483353
  0
LWPOLYLINE
  5
65E
100
AcDbEntity
  8
0
100
AcDbPolyline
 62
7
  6
CONTINUOUS
 90
4
 70
0
 10
230.34049147
 20
162.7104678944
 10
230.3596297002
 20
162.5157635936
 10
230.4164361483
 20
162.3282091307
 10
230.5088448046
 20
162.1551627343
  0
LINE
  5
65F
100
AcDbEntity
  8
RUNDUNGEN
100
AcDbLine
 62
7
  6
CONTINUOUS
 10
244.0827652115
 20
37.1964452195
 11
244.0886922184
 21
37.1338458156
  0
LINE
  5
660
100
AcDbEntity
  8
RUNDUNGEN
100
AcDbLine
 62
7
  6
CONTINUOUS
 10
240.34049147
 20
58.5547907542
 11
240.34049147
 21
72.191099649
  0
LINE
  5
661
100
AcDbEntity
  8
0
100
AcDbLine
 62
7
  6
CONTINUOUS
 10
240.34049147
 20
164.7918169009
 11
240.34049147
 21
167.2161255626
  0
LINE
  5
662
100
AcDbEntity
  8
RUNDUNGEN
100
AcDbLine
 62
7
  6
CONTINUOUS
 10
240.34049147
 20
96.9185716727
 11
240.3405342307
 21
102.4824569568
  0
LWPOLYLINE
  5
663
100
AcDbEntity
  8
RUNDUNGEN
100
AcDbPolyline
 62
7
  6
CONTINUOUS
 90
3
 70
0
 10
240.3405342307
 20
102.4824569568
 10
240.3408608069
 20
102.5272613183
 10
240.3411344931
 20
102.5506519202
  0
LWPOLYLINE
  5
664
100
AcDbEntity
  8
RUNDUNGEN
100
AcDbPolyline
 62
7
  6
CONTINUOUS
 90
3
 70
0
 10
230.4171884508
 20
81.4579067854
 10
230.3598619556
 20
81.2696990636
 10
230.34049147
 20
81.0738344813
  0
LWPOLYLINE
  5
665
100
AcDbEntity
  8
RUNDUNGEN
100
AcDbPolyline
 62
7
  6
CONTINUOUS
 90
3
 70
0
 10
253.811045885
 20
92.6331863902
 10
253.4992886248
 20
92.7811364511
 10
253.404029494
 20
92.8318018139
  0
LWPOLYLINE
  5
666
100
AcDbEntity
  8
RUNDUNGEN
100
AcDbPolyline
 62
7
  6
CONTINUOUS
 90
6
 70
0
 10
253.4040297581
 20
92.8318430638
 10
253.1842383548
 20
92.9587365508
 10
252.9585664411
 20
93.1039387724
 10
252.7312307049
 20
93.2660894545
 10
252.5035451895
 20
93.4452622678
 10
252.475645829
 20
93.4684142608
  0
LWPOLYLINE
  5
667
100
AcDbEntity
  8
RUNDUNGEN
100
AcDbPolyline
 62
7
  6
CONTINUOUS
 90
4
 70
0
 10
259.897162534
 20
81.9045674657
 10
260.0479297769
 20
81.7806095813
 10
260.1714120956
 20
81.6302254481
 10
260.2637944892
 20
81.4579067854
  0
LWPOLYLINE
  5
668
100
AcDbEntity
  8
RUNDUNGEN
100
AcDbPolyline
 62
7
  6
CONTINUOUS
 90
4
 70
0
 10
260.050014047
 20
81.5619012643
 10
260.1737284147
 20
81.4250037859
 10
260.2653358316
 20
81.2693126921
 10
260.3215622638
 20
81.1007189735
  0
LWPOLYLINE
  5
669
100
AcDbEntity
  8
RUNDUNGEN
100
AcDbPolyline
 62
7
  6
CONTINUOUS
 90
3
 70
0
 10
240.2844401139
 20
72.725483353
 10
240.3235604316
 20
72.4877479596
 10
240.3404917308
 20
72.1943903373
  0
LINE
  5
66A
100
AcDbEntity
  8
RUNDUNGEN
100
AcDbLine
 62
7
  6
CONTINUOUS
 10
244.0886922184
 20
37.1338458156
 11
244.0904914716
 21
37.0494484429
  0
LWPOLYLINE
  5
66B
100
AcDbEntity
  8
RUNDUNGEN
100
AcDbPolyline
 62
7
  6
CONTINUOUS
 90
5
 70
0
 10
244.09049147
 20
56.3392854537
 10
244.0907777933
 20
56.3088437911
 10
244.0916387934
 20
56.2787363861
 10
244.0930772697
 20
56.2489768186
 10
244.095095689
 20
56.2195788078
  0
LINE
  5
66C
100
AcDbEntity
  8
RUNDUNGEN
100
AcDbLine
 62
7
  6
CONTINUOUS
 10
244.09049147
 20
30.7893464608
 11
244.09049147
 21
37.049554822
  0
LINE
  5
66D
100
AcDbEntity
  8
RUNDUNGEN
100
AcDbLine
 62
7
  6
CONTINUOUS
 10
244.09049147
 20
56.3392854537
 11
244.09049147
 21
67.3375376534
  0
LINE
  5
66E
100
AcDbEntity
  8
RUNDUNGEN
100
AcDbLine
 62
7
  6
CONTINUOUS
 10
244.09049147
 20
98.5489774494
 11
244.09049147
 21
105.3462711262
  0
LINE
  5
66F
100
AcDbEntity
  8
RUNDUNGEN
100
AcDbLine
 62
7
  6
CONTINUOUS
 10
240.3404914485
 20
64.0502787388
 11
240.3301358705
 21
63.4960800681
  0
LWPOLYLINE
  5
670
100
AcDbEntity
  8
RUNDUNGEN
100
AcDbPolyline
 62
7
  6
CONTINUOUS
 90
3
 70
0
 10
240.3404913956
 20
99.0160354694
 10
240.3206855499
 20
98.3874113181
 10
240.2317098395
 20
97.5533963821
  0
LWPOLYLINE
  5
671
100
AcDbEntity
  8
RUNDUNGEN
100
AcDbPolyline
 62
7
  6
CONTINUOUS
 90
10
 70
0
 10
240.3301358705
 20
63.4960800681
 10
240.273984847
 20
62.6578535281
 10
240.1721822435
 20
61.8604121299
 10
240.0277287532
 20
61.1059220606
 10
239.8436087769
 20
60.3982241825
 10
239.6226801584
 20
59.7409401775
 10
239.3703608126
 20
59.1435017135
 10
239.0851806015
 20
58.5998471633
 10
238.7652786684
 20
58.1113980905
 10
238.5767873629
 20
57.8726280677
  0
LWPOLYLINE
  5
672
100
AcDbEntity
  8
RUNDUNGEN
100
AcDbPolyline
 62
7
  6
CONTINUOUS
 90
6
 70
0
 10
240.2317098395
 20
97.5533963821
 10
240.0777433581
 20
96.7699053009
 10
239.8646754398
 20
96.0404234581
 10
239.5997068049
 20
95.3738606185
 10
239.2844221806
 20
94.7670067392
 10
238.9183082665
 20
94.2213406906
  0
LINE
  5
673
100
AcDbEntity
  8
02___PRT_ALL_AXES
100
AcDbLine
 62
7
  6
CENTER
 10
223.29049147
 20
105.3462711256
 11
267.39049147
 21
105.3462711256
  0
LINE
  5
674
100
AcDbEntity
  8
0
100
AcDbLine
 62
2
  6
CONTINUOUS
 10
226.29049147
 20
105.3462711262
 11
264.39049147
 21
105.3462711262
  0
LWPOLYLINE
  5
675
100
AcDbEntity
  8
RUNDUNGEN
100
AcDbPolyline
 62
7
  6
CONTINUOUS
 90
3
 70
0
 10
252.4759823839
 20
93.4681735089
 10
252.3924533814
 20
93.5401282917
 10
252.2479119621
 20
93.6749265655
  0
LWPOLYLINE
  5
676
100
AcDbEntity
  8
RUNDUNGEN
100
AcDbPolyline
 62
7
  6
CONTINUOUS
 90
3
 70
0
 10
252.2479119621
 20
93.6749265655
 10
252.1012238926
 20
93.8245027158
 10
252.0060043944
 20
93.9277861631
  0
LINE
  5
677
100
AcDbEntity
  8
RUNDUNGEN
100
AcDbLine
 62
7
  6
CONTINUOUS
 10
252.0060187983
 20
93.9277991276
 11
252.0069892376
 21
93.9267192258
  0
LINE
  5
678
100
AcDbEntity
  8
RUNDUNGEN
100
AcDbLine
 62
7
  6
CONTINUOUS
 10
252.0069892376
 20
93.9267192258
 11
251.762428488
 21
94.2216582413
  0
LWPOLYLINE
  5
679
100
AcDbEntity
  8
RUNDUNGEN
100
AcDbPolyline
 62
7
  6
CONTINUOUS
 90
5
 70
0
 10
251.762428488
 20
94.2216582413
 10
251.3960216272
 20
94.7679109011
 10
251.080513355
 20
95.3755325188
 10
250.8154986523
 20
96.0427784211
 10
250.6025797941
 20
96.7726163031
  0
LINE
  5
67A
100
AcDbEntity
  8
RUNDUNGEN
100
AcDbLine
 62
7
  6
CONTINUOUS
 10
250.348577414
 20
63.5603615635
 11
250.3404914998
 21
64.0502967737
  0
LINE
  5
67B
100
AcDbEntity
  8
RUNDUNGEN
100
AcDbLine
 62
7
  6
CONTINUOUS
 10
250.339848447
 20
102.5506519202
 11
250.3403239781
 21
102.5045185299
  0
LINE
  5
67C
100
AcDbEntity
  8
RUNDUNGEN
100
AcDbLine
 62
7
  6
CONTINUOUS
 10
250.3403239781
 20
102.5045185299
 11
250.34049147
 21
102.4610452955
  0
LINE
  5
67D
100
AcDbEntity
  8
RUNDUNGEN
100
AcDbLine
 62
7
  6
CONTINUOUS
 10
246.59049147
 20
105.3462711262
 11
246.59049147
 21
98.5489774494
  0
LINE
  5
67E
100
AcDbEntity
  8
RUNDUNGEN
100
AcDbLine
 62
7
  6
CONTINUOUS
 10
246.59049147
 20
30.7893464608
 11
246.59049147
 21
37.049554822
  0
LINE
  5
67F
100
AcDbEntity
  8
RUNDUNGEN
100
AcDbLine
 62
7
  6
CONTINUOUS
 10
246.59049147
 20
56.3392854537
 11
246.59049147
 21
67.3375376534
  0
LINE
  5
680
100
AcDbEntity
  8
RUNDUNGEN
100
AcDbLine
 62
7
  6
CONTINUOUS
 10
250.34049147
 20
102.4610390431
 11
250.34049147
 21
96.9185747914
  0
LINE
  5
681
100
AcDbEntity
  8
RUNDUNGEN
100
AcDbLine
 62
7
  6
CONTINUOUS
 10
250.34049147
 20
72.1911066261
 11
250.34049147
 21
58.554806252
  0
LINE
  5
682
100
AcDbEntity
  8
0
100
AcDbLine
 62
7
  6
CONTINUOUS
 10
250.34049147
 20
164.7918169034
 11
250.34049147
 21
167.2161255626
  0
LINE
  5
683
100
AcDbEntity
  8
0
100
AcDbLine
 62
7
  6
CONTINUOUS
 10
250.84049147
 20
168.0118754447
 11
250.84049147
 21
165.2244154085
  0
LINE
  5
684
100
AcDbEntity
  8
RUNDUNGEN
100
AcDbLine
 62
7
  6
CONTINUOUS
 10
246.5904914721
 20
37.049471739
 11
246.5924014982
 21
37.1363999959
  0
LWPOLYLINE
  5
685
100
AcDbEntity
  8
0
100
AcDbPolyline
 62
7
  6
CONTINUOUS
 90
3
 70
0
 10
250.3404916351
 20
165.8361859137
 10
250.3701933287
 20
166.4300853961
 10
250.4854965571
 20
167.1062293627
  0
LWPOLYLINE
  5
686
100
AcDbEntity
  8
RUNDUNGEN
100
AcDbPolyline
 62
7
  6
CONTINUOUS
 90
5
 70
0
 10
246.585887251
 20
56.2195788078
 10
246.5879056714
 20
56.2489768364
 10
246.5893441476
 20
56.2787364098
 10
246.5902051471
 20
56.3088438089
 10
246.59049147
 20
56.3392854537
  0
LINE
  5
687
100
AcDbEntity
  8
RUNDUNGEN
100
AcDbLine
 62
7
  6
CONTINUOUS
 10
238.9183082665
 20
94.2213406906
 11
238.6740304917
 21
93.9267770665
  0
LINE
  5
688
100
AcDbEntity
  8
RUNDUNGEN
100
AcDbLine
 62
7
  6
CONTINUOUS
 10
238.6740304917
 20
93.9267770665
 11
238.6749492002
 21
93.9277993183
  0
LWPOLYLINE
  5
689
100
AcDbEntity
  8
RUNDUNGEN
100
AcDbPolyline
 62
7
  6
CONTINUOUS
 90
4
 70
0
 10
230.6309688931
 20
81.5619012643
 10
230.5072545253
 20
81.424965569
 10
230.4156471085
 20
81.2693126921
 10
230.3594206762
 20
81.1012196021
  0
LWPOLYLINE
  5
68A
100
AcDbEntity
  8
RUNDUNGEN
100
AcDbPolyline
 62
7
  6
CONTINUOUS
 90
4
 70
0
 10
238.6749750824
 20
93.9277760613
 10
238.5810900639
 20
93.8259268478
 10
238.4348639665
 20
93.6767021121
 10
238.2903978249
 20
93.5417883984
  0
LINE
  5
68B
100
AcDbEntity
  8
RUNDUNGEN
100
AcDbLine
 62
7
  6
CONTINUOUS
 10
238.2903978249
 20
93.5417883984
 11
238.2050268421
 21
93.4682324019
  0
LWPOLYLINE
  5
68C
100
AcDbEntity
  8
RUNDUNGEN
100
AcDbPolyline
 62
7
  6
CONTINUOUS
 90
6
 70
0
 10
238.2052964223
 20
93.4684575172
 10
238.1781019591
 20
93.4458151634
 10
237.95082372
 20
93.266894108
 10
237.7236237954
 20
93.104756967
 10
237.4978080036
 20
92.9593847454
 10
237.2768547421
 20
92.8317889146
  0
LINE
  5
68D
100
AcDbEntity
  8
0
100
AcDbLine
 62
7
  6
CONTINUOUS
 10
264.39049147
 20
106.3121969519
 11
226.29049147
 21
106.3121969519
  0
LWPOLYLINE
  5
68E
100
AcDbEntity
  8
RUNDUNGEN
100
AcDbPolyline
 62
7
  6
CONTINUOUS
 90
4
 70
0
 10
250.6025797941
 20
96.7726163031
 10
250.4488856012
 20
97.5559569685
 10
250.3601950668
 20
98.3890318743
 10
250.3404915498
 20
99.0160423487
  0
LWPOLYLINE
  5
68F
100
AcDbEntity
  8
0
100
AcDbPolyline
 62
7
  6
CONTINUOUS
 90
3
 70
0
 10
240.1954825284
 20
167.1062450568
 10
240.3107913658
 20
166.4300682023
 10
240.3404913555
 20
165.8359748536
  0
LWPOLYLINE
  5
690
100
AcDbEntity
  8
RUNDUNGEN
100
AcDbPolyline
 62
7
  6
CONTINUOUS
 90
3
 70
0
 10
250.3404900478
 20
72.19439856
 10
250.3574207328
 20
72.487729418
 10
250.3965304351
 20
72.7254278529
  0
LINE
  5
691
100
AcDbEntity
  8
RUNDUNGEN
100
AcDbLine
 62
7
  6
CONTINUOUS
 10
246.5924014982
 20
37.1363999959
 11
246.5980857507
 21
37.1964875641
  0
LINE
  5
692
100
AcDbEntity
  8
0
100
AcDbLine
 62
7
  6
CONTINUOUS
 10
260.3212582778
 20
162.5152857961
 11
260.34049147
 21
162.7104678944
  0
LWPOLYLINE
  5
693
100
AcDbEntity
  8
RUNDUNGEN
100
AcDbPolyline
 62
7
  6
CONTINUOUS
 90
4
 70
0
 10
230.7838204061
 20
81.9045674657
 10
230.6330531631
 20
81.7806095813
 10
230.5095708445
 20
81.6302254481
 10
230.4171884508
 20
81.4579067854
  0
LWPOLYLINE
  5
694
100
AcDbEntity
  8
RUNDUNGEN
100
AcDbPolyline
 62
7
  6
CONTINUOUS
 90
3
 70
0
 10
237.27685796
 20
92.8317632776
 10
237.1815943663
 20
92.7811013162
 10
236.8698700001
 20
92.6331877764
  0
LWPOLYLINE
  5
695
100
AcDbEntity
  8
RUNDUNGEN
100
AcDbPolyline
 62
7
  6
CONTINUOUS
 90
5
 70
0
 10
236.8698700001
 20
92.6331877764
 10
236.562482925
 20
92.5139219733
 10
236.2634987062
 20
92.4234787289
 10
235.9767861073
 20
92.3611627879
 10
235.9013895466
 20
92.3489064171
  0
LINE
  5
696
100
AcDbEntity
  8
0
100
AcDbLine
 62
7
  6
CONTINUOUS
 10
264.39049147
 20
115.5993194528
 11
226.29049147
 21
115.5993194528
  0
LINE
  5
697
100
AcDbEntity
  8
0
100
AcDbLine
 62
7
  6
CONTINUOUS
 10
264.39049147
 20
116.4478475903
 11
226.29049147
 21
116.4478475903
  0
LWPOLYLINE
  5
698
100
AcDbEntity
  8
RUNDUNGEN
100
AcDbPolyline
 62
7
  6
CONTINUOUS
 90
3
 70
0
 10
260.2637944892
 20
81.4579067854
 10
260.3211209845
 20
81.2696990636
 10
260.34049147
 20
81.0738344813
  0
LINE
  5
699
100
AcDbEntity
  8
RUNDUNGEN
100
AcDbLine
 62
7
  6
CONTINUOUS
 10
260.3215622638
 20
81.1007189735
 11
260.34049147
 21
80.9261978135
  0
LINE
  5
69A
100
AcDbEntity
  8
0
100
AcDbLine
 62
7
  6
CONTINUOUS
 10
260.34049147
 20
182.0272013236
 11
260.34049147
 21
173.8910545905
  0
LINE
  5
69B
100
AcDbEntity
  8
RUNDUNGEN
100
AcDbLine
 62
7
  6
CONTINUOUS
 10
260.34049147
 20
182.0272013236
 11
260.34049147
 21
173.8910545905
  0
LINE
  5
69C
100
AcDbEntity
  8
RUNDUNGEN
100
AcDbLine
 62
7
  6
CONTINUOUS
 10
260.34049147
 20
173.862716176
 11
260.34049147
 21
173.8571458029
  0
LINE
  5
69D
100
AcDbEntity
  8
RUNDUNGEN
100
AcDbLine
 62
7
  6
CONTINUOUS
 10
260.34049147
 20
162.6801647819
 11
260.34049147
 21
161.5380021178
  0
LINE
  5
69E
100
AcDbEntity
  8
RUNDUNGEN
100
AcDbLine
 62
7
  6
CONTINUOUS
 10
260.34049147
 20
172.0847288186
 11
260.34049147
 21
162.7104678944
  0
LINE
  5
69F
100
AcDbEntity
  8
0
100
AcDbLine
 62
7
  6
CONTINUOUS
 10
260.34049147
 20
162.6801647819
 11
260.34049147
 21
161.5380021178
  0
LINE
  5
6A0
100
AcDbEntity
  8
RUNDUNGEN
100
AcDbLine
 62
7
  6
CONTINUOUS
 10
260.34049147
 20
90.6485611778
 11
260.34049147
 21
87.1080651695
  0
LINE
  5
6A1
100
AcDbEntity
  8
RUNDUNGEN
100
AcDbLine
 62
7
  6
CONTINUOUS
 10
260.34049147
 20
81.0738344813
 11
260.34049147
 21
74.0421084196
  0
LINE
  5
6A2
100
AcDbEntity
  8
RUNDUNGEN
100
AcDbLine
 62
7
  6
CONTINUOUS
 10
260.34049147
 20
52.9705298014
 11
260.34049147
 21
38.6078134327
  0
LINE
  5
6A3
100
AcDbEntity
  8
RUNDUNGEN
100
AcDbLine
 62
7
  6
CONTINUOUS
 10
260.34049147
 20
36.8354083809
 11
260.34049147
 21
28.6653409277
  0
LINE
  5
6A4
100
AcDbEntity
  8
0
100
AcDbLine
 62
7
  6
CONTINUOUS
 10
260.34049147
 20
162.7104678944
 11
260.34049147
 21
163.0113337528
  0
LWPOLYLINE
  5
6A5
100
AcDbEntity
  8
RUNDUNGEN
100
AcDbPolyline
 62
7
  6
CONTINUOUS
 90
3
 70
0
 10
250.3965304351
 20
72.7254278529
 10
250.4479816468
 20
72.9219774705
 10
250.482312851
 20
73.0182991131
  0
LINE
  5
6A6
100
AcDbEntity
  8
0
100
AcDbLine
 62
7
  6
CONTINUOUS
 10
240.0116175473
 20
167.6751558012
 11
240.1954825284
 21
167.1062450568
  0
LWPOLYLINE
  5
6A7
100
AcDbEntity
  8
0
100
AcDbPolyline
 62
7
  6
CONTINUOUS
 90
7
 70
0
 10
260.34049147
 20
172.0847288186
 10
260.3213346376
 20
172.2795270824
 10
260.2645042975
 20
172.4670902897
 10
260.1720962506
 20
172.6400967027
 10
260.0476981332
 20
172.7917357037
 10
259.896006662
 20
172.9162352019
 10
259.7969145309
 20
172.9691877229
  0
LINE
  5
6A8
100
AcDbEntity
  8
RUNDUNGEN
100
AcDbLine
 62
7
  6
CONTINUOUS
 10
264.39049147
 20
105.3462711262
 11
264.39049147
 21
52.2730715353
  0
LINE
  5
6A9
100
AcDbEntity
  8
0
100
AcDbLine
 62
7
  6
CONTINUOUS
 10
264.39049147
 20
105.3462711262
 11
264.39049147
 21
158.4195241468
  0
LWPOLYLINE
  5
6AA
100
AcDbEntity
  8
RUNDUNGEN
100
AcDbPolyline
 62
7
  6
CONTINUOUS
 90
9
 70
0
 10
260.34049147
 20
74.0421084196
 10
260.3217679234
 20
73.8495129386
 10
260.2654658182
 20
73.6620788744
 10
260.1729393066
 20
73.4880050132
 10
260.0480174272
 20
73.3354210631
 10
259.8949543282
 20
73.2099000312
 10
259.7215262033
 20
73.1175476958
 10
259.5355075635
 20
73.0613086445
 10
259.34049147
 20
73.0421084196
  0
LWPOLYLINE
  5
6AB
100
AcDbEntity
  8
RUNDUNGEN
100
AcDbPolyline
 62
7
  6
CONTINUOUS
 90
6
 70
0
 10
260.34049147
 20
38.6078134327
 10
260.3213346376
 20
38.4130151689
 10
260.2645042975
 20
38.2254519615
 10
260.1720962506
 20
38.0524455486
 10
260.0476981332
 20
37.9008065476
 10
259.896006662
 20
37.7763070493
  0
LWPOLYLINE
  5
6AC
100
AcDbEntity
  8
RUNDUNGEN
100
AcDbPolyline
 62
7
  6
CONTINUOUS
 90
3
 70
0
 10
231.1425259207
 20
82.0540430046
 10
230.9555498537
 20
81.9967754068
 10
230.7838204061
 20
81.9045674657
  0
LINE
  5
6AD
100
AcDbEntity
  8
RUNDUNGEN
100
AcDbLine
 62
7
  6
CONTINUOUS
 10
238.5767873629
 20
57.8726280677
 11
238.5763568582
 21
57.8721223384
  0
LWPOLYLINE
  5
6AE
100
AcDbEntity
  8
RUNDUNGEN
100
AcDbPolyline
 62
7
  6
CONTINUOUS
 90
5
 70
0
 10
238.5763423138
 20
57.8721347451
 10
238.504711647
 20
57.7895510865
 10
238.3722077284
 20
57.6466935978
 10
238.2416406117
 20
57.5194296514
 10
238.1630250336
 20
57.4496412873
  0
LWPOLYLINE
  5
6AF
100
AcDbEntity
  8
0
100
AcDbPolyline
 62
7
  6
CONTINUOUS
 90
3
 70
0
 10
230.5088448046
 20
162.1551627343
 10
230.6332562876
 20
162.0034895377
 10
230.7849987843
 20
161.8789464769
  0
LINE
  5
6B0
100
AcDbEntity
  8
RUNDUNGEN
100
AcDbLine
 62
7
  6
CONTINUOUS
 10
238.1630250336
 20
57.4496412873
 11
238.1628181726
 21
57.449464825
  0
LWPOLYLINE
  5
6B1
100
AcDbEntity
  8
RUNDUNGEN
100
AcDbPolyline
 62
7
  6
CONTINUOUS
 90
6
 70
0
 10
238.1628296698
 20
57.4494513874
 10
238.0190316453
 20
57.3286508275
 10
237.745000583
 20
57.108729706
 10
237.4661294856
 20
56.8978245038
 10
237.1836073017
 20
56.6964492692
 10
236.9289984802
 20
56.5248965283
  0
LINE
  5
6B2
100
AcDbEntity
  8
0
100
AcDbLine
 62
7
  6
CONTINUOUS
 10
264.39049147
 20
137.8024723821
 11
226.29049147
 21
137.8024723821
  0
LWPOLYLINE
  5
6B3
100
AcDbEntity
  8
0
100
AcDbPolyline
 62
7
  6
CONTINUOUS
 90
3
 70
0
 10
239.4938668781
 20
168.5124330103
 10
239.7745848813
 20
168.1415216368
 10
240.0116175473
 20
167.6751558012
  0
LWPOLYLINE
  5
6B4
100
AcDbEntity
  8
RUNDUNGEN
100
AcDbPolyline
 62
7
  6
CONTINUOUS
 90
7
 70
0
 10
236.9289944285
 20
56.5248485438
 10
236.7570905866
 20
56.4140598478
 10
236.2813949716
 20
56.1276778169
 10
235.8101940989
 20
55.871817585
 10
235.3486023914
 20
55.6470163584
 10
234.9011202073
 20
55.453291776
 10
234.8097245087
 20
55.416666847
  0
LINE
  5
6B5
100
AcDbEntity
  8
RUNDUNGEN
100
AcDbLine
 62
7
  6
CONTINUOUS
 10
234.8098647213
 20
55.4167222882
 11
230.9728846505
 21
53.9003953515
  0
LINE
  5
6B6
100
AcDbEntity
  8
0
100
AcDbLine
 62
7
  6
CONTINUOUS
 10
264.39049147
 20
147.089594883
 11
226.29049147
 21
147.089594883
  0
LINE
  5
6B7
100
AcDbEntity
  8
0
100
AcDbLine
 62
7
  6
CONTINUOUS
 10
264.39049147
 20
148.3484139281
 11
226.29049147
 21
148.3484139281
  0
LINE
  5
6B8
100
AcDbEntity
  8
0
100
AcDbLine
 62
7
  6
CONTINUOUS
 10
230.7849987843
 20
161.8789464769
 11
230.9737646302
 21
161.7801392299
  0
LINE
  5
6B9
100
AcDbEntity
  8
0
100
AcDbLine
 62
7
  6
CONTINUOUS
 10
239.2704835443
 20
168.720682264
 11
239.4938668781
 21
168.5124330103
  0
LINE
  5
6BA
100
AcDbEntity
  8
RUNDUNGEN
100
AcDbLine
 62
7
  6
CONTINUOUS
 10
230.9737369299
 20
161.7801501519
 11
230.9737646302
 21
161.7801392299
  0
LINE
  5
6BB
100
AcDbEntity
  8
0
100
AcDbLine
 62
7
  6
CONTINUOUS
 10
230.9730910837
 20
161.7804050169
 11
231.3372063795
 21
161.6365686963
  0
LINE
  5
6BC
100
AcDbEntity
  8
0
100
AcDbLine
 62
7
  6
CONTINUOUS
 10
239.1231106915
 20
168.8271351425
 11
239.2065667746
 21
168.7695094426
  0
LINE
  5
6BD
100
AcDbEntity
  8
0
100
AcDbLine
 62
7
  6
CONTINUOUS
 10
239.2065667746
 20
168.7695094426
 11
239.2717928259
 21
168.7196314314
  0
LINE
  5
6BE
100
AcDbEntity
  8
RUNDUNGEN
100
AcDbLine
 62
7
  6
CONTINUOUS
 10
239.2717957169
 20
168.7196351116
 11
239.2704835443
 21
168.720682264
  0
LINE
  5
6BF
100
AcDbEntity
  8
0
100
AcDbLine
 62
7
  6
CONTINUOUS
 10
238.4696336948
 20
169.378342572
 11
239.2172337636
 21
169.0137136552
  0
LWPOLYLINE
  5
6C0
100
AcDbEntity
  8
0
100
AcDbPolyline
 62
7
  6
CONTINUOUS
 90
4
 70
0
 10
230.9014757694
 20
172.9587169018
 10
235.262529612
 20
170.8258490525
 10
235.9089668431
 20
170.5043090869
 10
236.547087874
 20
170.1833283195
  0
LINE
  5
6C1
100
AcDbEntity
  8
0
100
AcDbLine
 62
7
  6
CONTINUOUS
 10
236.547087874
 20
170.1833283195
 11
237.3785683454
 21
169.7585408868
  0
LINE
  5
6C2
100
AcDbEntity
  8
RUNDUNGEN
100
AcDbLine
 62
7
  6
CONTINUOUS
 10
237.3789430153
 20
169.7583234952
 11
237.3785584806
 21
169.7585218974
  0
LINE
  5
6C3
100
AcDbEntity
  8
0
100
AcDbLine
 62
7
  6
CONTINUOUS
 10
237.3789430153
 20
169.7583234952
 11
237.7999676068
 21
169.5398486088
  0
LINE
  5
6C4
100
AcDbEntity
  8
0
100
AcDbLine
 62
7
  6
CONTINUOUS
 10
237.7999676068
 20
169.5398486088
 11
238.2048198948
 21
169.3271698762
  0
LINE
  5
6C5
100
AcDbEntity
  8
0
100
AcDbLine
 62
7
  6
CONTINUOUS
 10
238.2048198948
 20
169.3271698762
 11
238.5957971136
 21
169.1189244135
  0
LINE
  5
6C6
100
AcDbEntity
  8
0
100
AcDbLine
 62
7
  6
CONTINUOUS
 10
238.5957971136
 20
169.1189244135
 11
239.0108663527
 21
168.8942106038
  0
LINE
  5
6C7
100
AcDbEntity
  8
RUNDUNGEN
100
AcDbLine
 62
7
  6
CONTINUOUS
 10
239.0110769086
 20
168.8940961489
 11
239.0108667997
 21
168.8942110343
  0
LWPOLYLINE
  5
6C8
100
AcDbEntity
  8
0
100
AcDbPolyline
 62
7
  6
CONTINUOUS
 90
3
 70
0
 10
239.0110769086
 20
168.8940961489
 10
239.0404555101
 20
168.8776550573
 10
239.1231106915
 20
168.8271351425
  0
LWPOLYLINE
  5
6C9
100
AcDbEntity
  8
RUNDUNGEN
100
AcDbPolyline
 62
7
  6
CONTINUOUS
 90
6
 70
0
 10
246.1460835596
 20
29.9578914534
 10
246.2976096061
 20
30.0822510347
 10
246.421957944
 20
30.2337715312
 10
246.5143655758
 20
30.4066499275
 10
246.5712753765
 20
30.5942493148
 10
246.59049147
 20
30.7893464608
  0
LINE
  5
6CA
100
AcDbEntity
  8
0
100
AcDbLine
 62
7
  6
CONTINUOUS
 10
228.9952507668
 20
161.4049693197
 11
238.0865140652
 21
162.3040174917
  0
LINE
  5
6CB
100
AcDbEntity
  8
0
100
AcDbLine
 62
7
  6
CONTINUOUS
 10
250.34049147
 20
165.2244154085
 11
250.84049147
 21
165.2244154085
  0
LINE
  5
6CC
100
AcDbEntity
  8
0
100
AcDbLine
 62
7
  6
CONTINUOUS
 10
250.34049147
 20
165.2943832622
 11
250.84049147
 21
165.2943832622
  0
LINE
  5
6CD
100
AcDbEntity
  8
0
100
AcDbLine
 62
7
  6
CONTINUOUS
 10
250.34049147
 20
165.4565365224
 11
250.84049147
 21
165.4565365224
  0
LINE
  5
6CE
100
AcDbEntity
  8
0
100
AcDbLine
 62
7
  6
CONTINUOUS
 10
250.34049147
 20
165.513881431
 11
250.84049147
 21
165.513881431
  0
LINE
  5
6CF
100
AcDbEntity
  8
0
100
AcDbLine
 62
7
  6
CONTINUOUS
 10
250.34049147
 20
165.7071915988
 11
250.84049147
 21
165.7071915988
  0
LINE
  5
6D0
100
AcDbEntity
  8
0
100
AcDbLine
 62
7
  6
CONTINUOUS
 10
250.34049147
 20
165.7571102889
 11
250.84049147
 21
165.7571102889
  0
LINE
  5
6D1
100
AcDbEntity
  8
0
100
AcDbLine
 62
7
  6
CONTINUOUS
 10
250.34049147
 20
165.7739171536
 11
250.84049147
 21
165.7739171536
  0
LINE
  5
6D2
100
AcDbEntity
  8
0
100
AcDbLine
 62
7
  6
CONTINUOUS
 10
250.34049147
 20
165.8295936398
 11
250.84049147
 21
165.8295936398
  0
LINE
  5
6D3
100
AcDbEntity
  8
0
100
AcDbLine
 62
7
  6
CONTINUOUS
 10
250.34049147
 20
165.9241392377
 11
250.84049147
 21
165.9241392377
  0
LINE
  5
6D4
100
AcDbEntity
  8
0
100
AcDbLine
 62
7
  6
CONTINUOUS
 10
250.34049147
 20
166.0964225492
 11
250.84049147
 21
166.0964225492
  0
LINE
  5
6D5
100
AcDbEntity
  8
0
100
AcDbLine
 62
7
  6
CONTINUOUS
 10
250.34049147
 20
166.2401761349
 11
250.84049147
 21
166.2401761349
  0
LINE
  5
6D6
100
AcDbEntity
  8
0
100
AcDbLine
 62
7
  6
CONTINUOUS
 10
250.34049147
 20
166.2540498999
 11
250.84049147
 21
166.2540498999
  0
LINE
  5
6D7
100
AcDbEntity
  8
0
100
AcDbLine
 62
7
  6
CONTINUOUS
 10
250.34049147
 20
166.3389358685
 11
250.84049147
 21
166.3389358685
  0
LINE
  5
6D8
100
AcDbEntity
  8
0
100
AcDbLine
 62
7
  6
CONTINUOUS
 10
250.370378285
 20
166.4311699893
 11
250.84049147
 21
166.4311699893
  0
LINE
  5
6D9
100
AcDbEntity
  8
0
100
AcDbLine
 62
7
  6
CONTINUOUS
 10
250.39946982
 20
166.601764223
 11
250.84049147
 21
166.601764223
  0
LINE
  5
6DA
100
AcDbEntity
  8
0
100
AcDbLine
 62
7
  6
CONTINUOUS
 10
250.4383052935
 20
166.829497405
 11
250.84049147
 21
166.829497405
  0
LINE
  5
6DB
100
AcDbEntity
  8
0
100
AcDbLine
 62
7
  6
CONTINUOUS
 10
250.4668404386
 20
166.9968289399
 11
250.84049147
 21
166.9968289399
  0
LINE
  5
6DC
100
AcDbEntity
  8
0
100
AcDbLine
 62
7
  6
CONTINUOUS
 10
250.4804836929
 20
167.0768336732
 11
250.84049147
 21
167.0768336732
  0
LINE
  5
6DD
100
AcDbEntity
  8
0
100
AcDbLine
 62
7
  6
CONTINUOUS
 10
250.4965709147
 20
167.1404982103
 11
250.84049147
 21
167.1404982103
  0
LINE
  5
6DE
100
AcDbEntity
  8
0
100
AcDbLine
 62
7
  6
CONTINUOUS
 10
250.5172622041
 20
167.2045260003
 11
250.84049147
 21
167.2045260003
  0
LINE
  5
6DF
100
AcDbEntity
  8
0
100
AcDbLine
 62
7
  6
CONTINUOUS
 10
250.5228424112
 20
167.2217935723
 11
250.84049147
 21
167.2217935723
  0
LINE
  5
6E0
100
AcDbEntity
  8
0
100
AcDbLine
 62
7
  6
CONTINUOUS
 10
250.554132308
 20
167.3186180333
 11
250.84049147
 21
167.3186180333
  0
LINE
  5
6E1
100
AcDbEntity
  8
0
100
AcDbLine
 62
7
  6
CONTINUOUS
 10
250.6014838147
 20
167.4651440556
 11
250.84049147
 21
167.4651440556
  0
LINE
  5
6E2
100
AcDbEntity
  8
0
100
AcDbLine
 62
7
  6
CONTINUOUS
 10
250.6191716298
 20
167.5198777985
 11
250.84049147
 21
167.5198777985
  0
LINE
  5
6E3
100
AcDbEntity
  8
0
100
AcDbLine
 62
7
  6
CONTINUOUS
 10
252.5944688746
 20
162.3040174917
 11
261.6857321732
 21
161.4049693197
  0
LWPOLYLINE
  5
6E4
100
AcDbEntity
  8
RUNDUNGEN
100
AcDbPolyline
 62
7
  6
CONTINUOUS
 90
4
 70
0
 10
259.896006662
 20
37.7763070493
 10
259.723042736
 20
37.6838791661
 10
259.5356026557
 20
37.6270323235
 10
259.34049147
 20
37.6078134327
  0
LINE
  5
6E5
100
AcDbEntity
  8
0
100
AcDbLine
 62
7
  6
CONTINUOUS
 10
238.9077359574
 20
171.2772013236
 11
251.7733718568
 21
171.2772013236
  0
LWPOLYLINE
  5
6E6
100
AcDbEntity
  8
RUNDUNGEN
100
AcDbPolyline
 62
7
  6
CONTINUOUS
 90
3
 70
0
 10
245.7856220216
 20
29.8085691856
 10
245.9732090511
 20
29.8654810739
 10
246.1460835596
 20
29.9578914534
  0
LWPOLYLINE
  5
6E7
100
AcDbEntity
  8
RUNDUNGEN
100
AcDbPolyline
 62
7
  6
CONTINUOUS
 90
9
 70
0
 10
231.34049147
 20
174.5272013236
 10
231.1439513184
 20
174.5238899148
 10
230.955461094
 20
174.514990501
 10
230.7822661436
 20
174.5001565238
 10
230.6309688931
 20
174.4804276589
 10
230.5072545253
 20
174.4563475729
 10
230.4156471085
 20
174.4290577356
 10
230.3594206762
 20
174.4000461756
 10
230.34049147
 20
174.3688168833
  0
LINE
  5
6E8
100
AcDbEntity
  8
RUNDUNGEN
100
AcDbLine
 62
7
  6
CONTINUOUS
 10
231.34049147
 20
174.5272013236
 11
259.34049147
 21
174.5272013236
  0
LWPOLYLINE
  5
6E9
100
AcDbEntity
  8
RUNDUNGEN
100
AcDbPolyline
 62
7
  6
CONTINUOUS
 90
9
 70
0
 10
259.34049147
 20
174.5272013236
 10
259.5370316217
 20
174.5243235242
 10
259.7255218461
 20
174.514990501
 10
259.8987167965
 20
174.5002935841
 10
260.050014047
 20
174.4804276589
 10
260.1737284147
 20
174.4564307164
 10
260.2653358316
 20
174.4290577356
 10
260.3215622638
 20
174.3989570228
 10
260.34049147
 20
174.3688168833
  0
LINE
  5
6EA
100
AcDbEntity
  8
RUNDUNGEN
100
AcDbLine
 62
7
  6
CONTINUOUS
 10
231.34049147
 20
183.0272013236
 11
259.34049147
 21
183.0272013236
  0
ARC
  5
6EB
100
AcDbEntity
  8
RUNDUNGEN
100
AcDbCircle
 62
7
  6
CONTINUOUS
 10
55.7237423616
 20
48.7231381095
 40
3.9999527772
100
AcDbArc
 50
357.4249264201
 51
11.3553547269
  0
ARC
  5
6EC
100
AcDbEntity
  8
RUNDUNGEN
100
AcDbCircle
 62
7
  6
CONTINUOUS
 10
56.8410672341
 20
53.3140241824
 40
2.0000000423
100
AcDbArc
 50
11.3623635435
 51
76.7675637713
  0
ARC
  5
6ED
100
AcDbEntity
  8
RUNDUNGEN
100
AcDbCircle
 62
7
  6
CONTINUOUS
 10
52.0617844649
 20
57.4134556199
 40
1.0
100
AcDbArc
 50
216.0
 51
257.8324053934
  0
ARC
  5
6EE
100
AcDbEntity
  8
RUNDUNGEN
100
AcDbCircle
 62
7
  6
CONTINUOUS
 10
48.5350729512
 20
62.2675575861
 40
1.0
100
AcDbArc
 50
174.1675946066
 51
216.0
  0
ARC
  5
6EF
100
AcDbEntity
  8
RUNDUNGEN
100
AcDbCircle
 62
7
  6
CONTINUOUS
 10
72.8559950163
 20
50.1867399032
 40
2.25
100
AcDbArc
 50
324.0007968666
 51
144.0017755928
  0
ARC
  5
6F0
100
AcDbEntity
  8
RUNDUNGEN
100
AcDbCircle
 62
7
  6
CONTINUOUS
 10
72.5022510879
 20
39.9371721024
 40
1.0
100
AcDbArc
 50
162.0
 51
234.0
  0
ARC
  5
6F1
100
AcDbEntity
  8
RUNDUNGEN
100
AcDbCircle
 62
7
  6
CONTINUOUS
 10
63.2173896557
 20
46.6830187996
 40
1.0
100
AcDbArc
 50
234.0
 51
306.0
  0
ARC
  5
6F2
100
AcDbEntity
  8
RUNDUNGEN
100
AcDbCircle
 62
7
  6
CONTINUOUS
 10
60.7186310979
 20
48.498473159
 40
1.0
100
AcDbArc
 50
177.4234289457
 51
233.9998194585
  0
ARC
  5
6F3
100
AcDbEntity
  8
RUNDUNGEN
100
AcDbCircle
 62
7
  6
CONTINUOUS
 10
61.3876844168
 20
48.0123774693
 40
1.0
100
AcDbArc
 50
144.0
 51
234.0
  0
ARC
  5
6F4
100
AcDbEntity
  8
RUNDUNGEN
100
AcDbCircle
 62
7
  6
CONTINUOUS
 10
41.4016906429
 20
68.4357402128
 40
3.9999543613
100
AcDbArc
 50
60.6414873248
 51
74.5750100656
  0
ARC
  5
6F5
100
AcDbEntity
  8
RUNDUNGEN
100
AcDbCircle
 62
7
  6
CONTINUOUS
 10
48.0878223224
 20
84.2772050022
 40
2.25
100
AcDbArc
 50
287.9977363539
 51
108.0024370477
  0
ARC
  5
6F6
100
AcDbEntity
  8
RUNDUNGEN
100
AcDbCircle
 62
7
  6
CONTINUOUS
 10
46.1131615657
 20
68.0797195852
 40
2.0000000431
100
AcDbArc
 50
355.0811980437
 51
60.6376364565
  0
ARC
  5
6F7
100
AcDbEntity
  8
RUNDUNGEN
100
AcDbCircle
 62
7
  6
CONTINUOUS
 10
41.777092677
 20
76.1930559305
 40
1.0
100
AcDbArc
 50
126.0
 51
198.0
  0
ARC
  5
6F8
100
AcDbEntity
  8
RUNDUNGEN
100
AcDbCircle
 62
7
  6
CONTINUOUS
 10
42.7315352886
 20
73.2555836178
 40
1.0
100
AcDbArc
 50
197.9998814762
 51
254.5759764827
  0
ARC
  5
6F9
100
AcDbEntity
  8
RUNDUNGEN
100
AcDbCircle
 62
7
  6
CONTINUOUS
 10
42.4759778889
 20
74.0421084196
 40
1.0
100
AcDbArc
 50
197.9993922456
 51
288.0009458389
  0
ARC
  5
6FA
100
AcDbEntity
  8
RUNDUNGEN
100
AcDbCircle
 62
7
  6
CONTINUOUS
 10
33.3672552232
 20
93.163211727
 40
3.9999527772
100
AcDbArc
 50
321.4249281874
 51
335.3553547269
  0
ARC
  5
6FB
100
AcDbEntity
  8
RUNDUNGEN
100
AcDbCircle
 62
7
  6
CONTINUOUS
 10
36.9696451621
 20
96.220569497
 40
2.0000000422
100
AcDbArc
 50
335.3623635435
 51
40.76758833
  0
ARC
  5
6FC
100
AcDbEntity
  8
RUNDUNGEN
100
AcDbCircle
 62
7
  6
CONTINUOUS
 10
38.2305911907
 20
87.1080651695
 40
1.0
100
AcDbArc
 50
198.0
 51
270.0
  0
ARC
  5
6FD
100
AcDbEntity
  8
RUNDUNGEN
100
AcDbCircle
 62
7
  6
CONTINUOUS
 10
35.5127095225
 20
102.3462711256
 40
1.0
100
AcDbArc
 50
180.0
 51
221.8324053934
  0
ARC
  5
6FE
100
AcDbEntity
  8
RUNDUNGEN
100
AcDbCircle
 62
7
  6
CONTINUOUS
 10
37.2761503517
 20
90.0455320271
 40
1.0
100
AcDbArc
 50
141.4234197747
 51
197.9998749719
  0
ARC
  5
6FF
100
AcDbEntity
  8
RUNDUNGEN
100
AcDbCircle
 62
7
  6
CONTINUOUS
 10
37.5317059789
 20
89.2590126803
 40
1.0
100
AcDbArc
 50
108.0
 51
198.0
  0
ARC
  5
700
100
AcDbEntity
  8
RUNDUNGEN
100
AcDbCircle
 62
7
  6
CONTINUOUS
 10
66.595640695
 20
88.8620331702
 40
2.49999818
100
AcDbArc
 50
44.9999999971
 51
199.5842163292
  0
ARC
  5
701
100
AcDbEntity
  8
0
100
AcDbCircle
 62
7
  6
CONTINUOUS
 10
70.9295974718
 20
105.3462711256
 40
1.0
100
AcDbArc
 50
75.0
 51
285.0
  0
ARC
  5
702
100
AcDbEntity
  8
RUNDUNGEN
100
AcDbCircle
 62
7
  6
CONTINUOUS
 10
76.7581802388
 20
33.4407160767
 40
3.9999543613
100
AcDbArc
 50
96.6414873248
 51
110.5750100656
  0
ARC
  5
703
100
AcDbEntity
  8
RUNDUNGEN
100
AcDbCircle
 62
7
  6
CONTINUOUS
 10
80.7791039584
 20
35.9220224636
 40
2.0000000431
100
AcDbArc
 50
31.0811980393
 51
96.6376364565
  0
ARC
  5
704
100
AcDbEntity
  8
RUNDUNGEN
100
AcDbCircle
 62
7
  6
CONTINUOUS
 10
75.0010142852
 20
38.1217143721
 40
1.0
100
AcDbArc
 50
233.9998814762
 51
290.5759764827
  0
ARC
  5
705
100
AcDbEntity
  8
RUNDUNGEN
100
AcDbCircle
 62
7
  6
CONTINUOUS
 10
74.3319563268
 20
38.6078134327
 40
1.0
100
AcDbArc
 50
233.9993922455
 51
324.0009458389
  0
ARC
  5
706
100
AcDbEntity
  8
RUNDUNGEN
100
AcDbCircle
 62
7
  6
CONTINUOUS
 10
91.8611136328
 20
30.7893464608
 40
1.0
100
AcDbArc
 50
252.0
 51
293.8324053934
  0
ARC
  5
707
100
AcDbEntity
  8
RUNDUNGEN
100
AcDbCircle
 62
7
  6
CONTINUOUS
 10
86.154774535
 20
32.6434484271
 40
1.0
100
AcDbArc
 50
210.1675946066
 51
252.0
  0
ARC
  5
708
100
AcDbEntity
  8
RUNDUNGEN
100
AcDbCircle
 62
7
  6
CONTINUOUS
 10
99.9317402742
 20
25.9111764483
 40
3.9999528329
100
AcDbArc
 50
33.424928853
 51
47.3556449014
  0
ARC
  5
709
100
AcDbEntity
  8
RUNDUNGEN
100
AcDbCircle
 62
7
  6
CONTINUOUS
 10
98.1372199557
 20
30.2820286889
 40
2.0000000423
100
AcDbArc
 50
47.3623635435
 51
112.76756377
  0
ARC
  5
70A
100
AcDbEntity
  8
RUNDUNGEN
100
AcDbCircle
 62
7
  6
CONTINUOUS
 10
104.1047448331
 20
28.6653409277
 40
1.0
100
AcDbArc
 50
213.4234355428
 51
269.9998173114
  0
ARC
  5
70B
100
AcDbEntity
  8
RUNDUNGEN
100
AcDbCircle
 62
7
  6
CONTINUOUS
 10
104.9317402742
 20
28.6653409277
 40
1.0
100
AcDbArc
 50
180.0
 51
270.0
  0
ARC
  5
70C
100
AcDbEntity
  8
RUNDUNGEN
100
AcDbCircle
 62
7
  6
CONTINUOUS
 10
107.1933803282
 20
28.6653409277
 40
1.0
100
AcDbArc
 50
270.0
 51
342.0
  0
ARC
  5
70D
100
AcDbEntity
  8
RUNDUNGEN
100
AcDbCircle
 62
7
  6
CONTINUOUS
 10
112.9317402742
 20
37.1653409277
 40
2.25
100
AcDbArc
 50
0.0008088936
 51
180.0017852813
  0
ARC
  5
70E
100
AcDbEntity
  8
RUNDUNGEN
100
AcDbCircle
 62
7
  6
CONTINUOUS
 10
96.4475023186
 20
59.0101715465
 40
2.49999818
100
AcDbArc
 50
250.4157836669
 51
45.000000003
  0
ARC
  5
70F
100
AcDbEntity
  8
0
100
AcDbCircle
 62
7
  6
CONTINUOUS
 10
112.9317402742
 20
63.3441283232
 40
1.0
100
AcDbArc
 50
165.0
 51
15.0
  0
ARC
  5
710
100
AcDbEntity
  8
RUNDUNGEN
100
AcDbCircle
 62
7
  6
CONTINUOUS
 10
112.9317402742
 20
105.3462711256
 40
51.680930198
100
AcDbArc
 50
109.489626066
 51
160.5103703805
  0
ARC
  5
711
100
AcDbEntity
  8
RUNDUNGEN
100
AcDbCircle
 62
7
  6
CONTINUOUS
 10
112.9317402742
 20
105.3462711256
 40
51.680930198
100
AcDbArc
 50
199.489626066
 51
250.5103703805
  0
ARC
  5
712
100
AcDbEntity
  8
RUNDUNGEN
100
AcDbCircle
 62
7
  6
CONTINUOUS
 10
112.9317402742
 20
105.3462711256
 40
51.680930198
100
AcDbArc
 50
289.489626066
 51
340.5103703805
  0
ARC
  5
713
100
AcDbEntity
  8
RUNDUNGEN
100
AcDbCircle
 62
7
  6
CONTINUOUS
 10
112.9317402742
 20
105.3462711256
 40
51.680930198
100
AcDbArc
 50
19.489626066
 51
70.5103703805
  0
ARC
  5
714
100
AcDbEntity
  8
RUNDUNGEN
100
AcDbCircle
 62
7
  6
CONTINUOUS
 10
35.5127095225
 20
108.3462711256
 40
1.0
100
AcDbArc
 50
138.1675946066
 51
180.0
  0
ARC
  5
715
100
AcDbEntity
  8
RUNDUNGEN
100
AcDbCircle
 62
7
  6
CONTINUOUS
 10
33.3672503024
 20
117.5293321231
 40
3.9999540701
100
AcDbArc
 50
24.645786411
 51
38.5750042739
  0
ARC
  5
716
100
AcDbEntity
  8
RUNDUNGEN
100
AcDbCircle
 62
7
  6
CONTINUOUS
 10
36.9696451597
 20
114.4719727516
 40
2.0000000431
100
AcDbArc
 50
319.081207762
 51
24.6376364565
  0
ARC
  5
717
100
AcDbEntity
  8
RUNDUNGEN
100
AcDbCircle
 62
7
  6
CONTINUOUS
 10
38.2305911907
 20
123.5844770818
 40
1.0
100
AcDbArc
 50
90.0
 51
162.0
  0
ARC
  5
718
100
AcDbEntity
  8
RUNDUNGEN
100
AcDbCircle
 62
7
  6
CONTINUOUS
 10
37.531734565
 20
121.4336175501
 40
1.0
100
AcDbArc
 50
162.0
 51
252.0017607086
  0
ARC
  5
719
100
AcDbEntity
  8
RUNDUNGEN
100
AcDbCircle
 62
7
  6
CONTINUOUS
 10
37.2761499953
 20
120.6470091273
 40
1.0
100
AcDbArc
 50
161.9999957078
 51
218.5765549756
  0
ARC
  5
71A
100
AcDbEntity
  8
RUNDUNGEN
100
AcDbCircle
 62
7
  6
CONTINUOUS
 10
41.777092677
 20
134.4994863208
 40
1.0
100
AcDbArc
 50
162.0
 51
234.0
  0
ARC
  5
71B
100
AcDbEntity
  8
RUNDUNGEN
100
AcDbCircle
 62
7
  6
CONTINUOUS
 10
41.401697077
 20
142.2567999479
 40
3.9999527772
100
AcDbArc
 50
285.4249264201
 51
299.3553547269
  0
ARC
  5
71C
100
AcDbEntity
  8
RUNDUNGEN
100
AcDbCircle
 62
7
  6
CONTINUOUS
 10
42.7315335164
 20
137.4369531793
 40
1.0
100
AcDbArc
 50
105.4234289457
 51
161.9998194585
  0
ARC
  5
71D
100
AcDbEntity
  8
RUNDUNGEN
100
AcDbCircle
 62
7
  6
CONTINUOUS
 10
42.4759778889
 20
136.6504338317
 40
1.0
100
AcDbArc
 50
72.0
 51
162.0
  0
ARC
  5
71E
100
AcDbEntity
  8
RUNDUNGEN
100
AcDbCircle
 62
7
  6
CONTINUOUS
 10
48.0878223224
 20
126.4153372491
 40
2.25
100
AcDbArc
 50
252.0008035149
 51
72.0017809484
  0
ARC
  5
71F
100
AcDbEntity
  8
RUNDUNGEN
100
AcDbCircle
 62
7
  6
CONTINUOUS
 10
46.1131615661
 20
142.6128226628
 40
2.0000000423
100
AcDbArc
 50
299.3623635435
 51
4.7675637705
  0
ARC
  5
720
100
AcDbEntity
  8
RUNDUNGEN
100
AcDbCircle
 62
7
  6
CONTINUOUS
 10
66.5956406951
 20
121.8305090813
 40
2.49999818
100
AcDbArc
 50
160.4157836669
 51
315.000000003
  0
ARC
  5
721
100
AcDbEntity
  8
RUNDUNGEN
100
AcDbCircle
 62
7
  6
CONTINUOUS
 10
56.8410672309
 20
157.3785180682
 40
2.0000000431
100
AcDbArc
 50
283.08120776
 51
348.6376364565
  0
ARC
  5
722
100
AcDbEntity
  8
RUNDUNGEN
100
AcDbCircle
 62
7
  6
CONTINUOUS
 10
48.5350729512
 20
148.4249846651
 40
1.0
100
AcDbArc
 50
144.0
 51
185.8324053934
  0
ARC
  5
723
100
AcDbEntity
  8
RUNDUNGEN
100
AcDbCircle
 62
7
  6
CONTINUOUS
 10
52.0617844649
 20
153.2790866314
 40
1.0
100
AcDbArc
 50
102.1675946066
 51
144.0
  0
ARC
  5
724
100
AcDbEntity
  8
RUNDUNGEN
100
AcDbCircle
 62
7
  6
CONTINUOUS
 10
55.7237393203
 20
161.9694083278
 40
3.9999540701
100
AcDbArc
 50
348.645786411
 51
2.5750042739
  0
ARC
  5
725
100
AcDbEntity
  8
RUNDUNGEN
100
AcDbCircle
 62
7
  6
CONTINUOUS
 10
72.8559950163
 20
160.5058023481
 40
2.25
100
AcDbArc
 50
216.000820921
 51
36.0017949707
  0
ARC
  5
726
100
AcDbEntity
  8
RUNDUNGEN
100
AcDbCircle
 62
7
  6
CONTINUOUS
 10
63.2173896557
 20
164.0095234517
 40
1.0
100
AcDbArc
 50
54.0
 51
126.0
  0
ARC
  5
727
100
AcDbEntity
  8
RUNDUNGEN
100
AcDbCircle
 62
7
  6
CONTINUOUS
 10
72.5022510879
 20
170.7553701489
 40
1.0
100
AcDbArc
 50
126.0
 51
198.0
  0
ARC
  5
728
100
AcDbEntity
  8
RUNDUNGEN
100
AcDbCircle
 62
7
  6
CONTINUOUS
 10
60.7186301657
 20
162.1940684149
 40
1.0
100
AcDbArc
 50
125.9999957078
 51
182.5765549756
  0
ARC
  5
729
100
AcDbEntity
  8
RUNDUNGEN
100
AcDbCircle
 62
7
  6
CONTINUOUS
 10
61.3876844168
 20
162.6801647819
 40
1.0
100
AcDbArc
 50
125.9972175594
 51
216.0017607086
  0
ARC
  5
72A
100
AcDbEntity
  8
RUNDUNGEN
100
AcDbCircle
 62
7
  6
CONTINUOUS
 10
80.7791039448
 20
174.7705197644
 40
2.0000000361
100
AcDbArc
 50
263.3623635436
 51
328.7699842218
  0
ARC
  5
72B
100
AcDbEntity
  8
RUNDUNGEN
100
AcDbCircle
 62
7
  6
CONTINUOUS
 10
75.0010253313
 20
172.5708359046
 40
1.0
100
AcDbArc
 50
69.4256509375
 51
126.0003829197
  0
ARC
  5
72C
100
AcDbEntity
  8
RUNDUNGEN
100
AcDbCircle
 62
7
  6
CONTINUOUS
 10
74.3319563268
 20
172.0847288186
 40
1.0
100
AcDbArc
 50
36.0
 51
126.0
  0
ARC
  5
72D
100
AcDbEntity
  8
RUNDUNGEN
100
AcDbCircle
 62
7
  6
CONTINUOUS
 10
76.7581103256
 20
177.2519224019
 40
3.999993832
100
AcDbArc
 50
249.4260220943
 51
263.3620442279
  0
ARC
  5
72E
100
AcDbEntity
  8
RUNDUNGEN
100
AcDbCircle
 62
7
  6
CONTINUOUS
 10
91.8611136328
 20
179.9031957904
 40
1.0
100
AcDbArc
 50
66.1675946066
 51
108.0
  0
ARC
  5
72F
100
AcDbEntity
  8
RUNDUNGEN
100
AcDbCircle
 62
7
  6
CONTINUOUS
 10
86.154774535
 20
178.0490938242
 40
1.0
100
AcDbArc
 50
108.0
 51
149.8324053934
  0
ARC
  5
730
100
AcDbEntity
  8
RUNDUNGEN
100
AcDbCircle
 62
7
  6
CONTINUOUS
 10
96.4475023188
 20
151.6823707049
 40
2.49999818
100
AcDbArc
 50
314.9999999971
 51
109.5842163292
  0
ARC
  5
731
100
AcDbEntity
  8
0
100
AcDbCircle
 62
7
  6
CONTINUOUS
 10
112.9317402742
 20
147.3484139281
 40
1.0
100
AcDbArc
 50
345.0
 51
195.0
  0
ARC
  5
732
100
AcDbEntity
  8
RUNDUNGEN
100
AcDbCircle
 62
7
  6
CONTINUOUS
 10
99.9317402742
 20
184.7814063456
 40
3.9999656073
100
AcDbArc
 50
312.6389199185
 51
326.5747240833
  0
ARC
  5
733
100
AcDbEntity
  8
RUNDUNGEN
100
AcDbCircle
 62
7
  6
CONTINUOUS
 10
112.9317402742
 20
173.5272013236
 40
2.25
100
AcDbArc
 50
180.0008088936
 51
0.0017852813
  0
ARC
  5
734
100
AcDbEntity
  8
RUNDUNGEN
100
AcDbCircle
 62
7
  6
CONTINUOUS
 10
98.1372199754
 20
180.4105135537
 40
2.0000000366
100
AcDbArc
 50
247.0808321905
 51
312.6376364564
  0
ARC
  5
735
100
AcDbEntity
  8
RUNDUNGEN
100
AcDbCircle
 62
7
  6
CONTINUOUS
 10
107.1933803282
 20
182.0272013236
 40
1.0
100
AcDbArc
 50
18.0
 51
90.0
  0
ARC
  5
736
100
AcDbEntity
  8
RUNDUNGEN
100
AcDbCircle
 62
7
  6
CONTINUOUS
 10
104.9317620333
 20
182.0272013236
 40
1.0
100
AcDbArc
 50
90.0005711009
 51
179.9982784399
  0
ARC
  5
737
100
AcDbEntity
  8
RUNDUNGEN
100
AcDbCircle
 62
7
  6
CONTINUOUS
 10
104.1047384629
 20
182.0272013236
 40
1.0
100
AcDbArc
 50
90.0000079531
 51
146.5758309349
  0
ARC
  5
738
100
AcDbEntity
  8
RUNDUNGEN
100
AcDbCircle
 62
7
  6
CONTINUOUS
 10
125.9317402742
 20
25.9111697493
 40
3.9999544395
100
AcDbArc
 50
132.641460991
 51
146.5750090592
  0
ARC
  5
739
100
AcDbEntity
  8
RUNDUNGEN
100
AcDbCircle
 62
7
  6
CONTINUOUS
 10
118.6701002202
 20
28.6653409277
 40
1.0
100
AcDbArc
 50
198.0
 51
270.0
  0
ARC
  5
73A
100
AcDbEntity
  8
RUNDUNGEN
100
AcDbCircle
 62
7
  6
CONTINUOUS
 10
120.9316286913
 20
28.6653409277
 40
1.0
100
AcDbArc
 50
270.0030961258
 51
360.0
  0
ARC
  5
73B
100
AcDbEntity
  8
RUNDUNGEN
100
AcDbCircle
 62
7
  6
CONTINUOUS
 10
121.7587417533
 20
28.6653409277
 40
1.0
100
AcDbArc
 50
269.99987205
 51
326.5759353903
  0
ARC
  5
73C
100
AcDbEntity
  8
RUNDUNGEN
100
AcDbCircle
 62
7
  6
CONTINUOUS
 10
127.7262605957
 20
30.2820286876
 40
2.0000000431
100
AcDbArc
 50
67.0811979136
 51
132.6376364565
  0
ARC
  5
73D
100
AcDbEntity
  8
RUNDUNGEN
100
AcDbCircle
 62
7
  6
CONTINUOUS
 10
134.0023669157
 20
30.7893464608
 40
1.0
100
AcDbArc
 50
246.1675946066
 51
288.0
  0
ARC
  5
73E
100
AcDbEntity
  8
RUNDUNGEN
100
AcDbCircle
 62
7
  6
CONTINUOUS
 10
129.4159782297
 20
59.0101715464
 40
2.49999818
100
AcDbArc
 50
134.9999999971
 51
289.5842163292
  0
ARC
  5
73F
100
AcDbEntity
  8
RUNDUNGEN
100
AcDbCircle
 62
7
  6
CONTINUOUS
 10
145.0843765918
 20
35.9220224665
 40
2.0000000423
100
AcDbArc
 50
83.3623635435
 51
148.7675637703
  0
ARC
  5
740
100
AcDbEntity
  8
RUNDUNGEN
100
AcDbCircle
 62
7
  6
CONTINUOUS
 10
139.7087060134
 20
32.6434484271
 40
1.0
100
AcDbArc
 50
288.0
 51
329.8324053934
  0
ARC
  5
741
100
AcDbEntity
  8
RUNDUNGEN
100
AcDbCircle
 62
7
  6
CONTINUOUS
 10
149.1052965131
 20
33.4407213021
 40
3.9999528329
100
AcDbArc
 50
69.424928853
 51
83.3556449014
  0
ARC
  5
742
100
AcDbEntity
  8
RUNDUNGEN
100
AcDbCircle
 62
7
  6
CONTINUOUS
 10
153.3612294605
 20
39.9371721024
 40
1.0
100
AcDbArc
 50
306.0
 51
18.0
  0
ARC
  5
743
100
AcDbEntity
  8
RUNDUNGEN
100
AcDbCircle
 62
7
  6
CONTINUOUS
 10
150.8624708555
 20
38.1217177086
 40
1.0
100
AcDbArc
 50
249.4234355428
 51
305.9998173114
  0
ARC
  5
744
100
AcDbEntity
  8
RUNDUNGEN
100
AcDbCircle
 62
7
  6
CONTINUOUS
 10
151.5315242217
 20
38.6078134327
 40
1.0
100
AcDbArc
 50
216.0
 51
306.0
  0
ARC
  5
745
100
AcDbEntity
  8
RUNDUNGEN
100
AcDbCircle
 62
7
  6
CONTINUOUS
 10
153.0074855322
 20
50.1867399032
 40
2.25
100
AcDbArc
 50
36.000820921
 51
216.0017949707
  0
ARC
  5
746
100
AcDbEntity
  8
0
100
AcDbCircle
 62
7
  6
CONTINUOUS
 10
154.9338830767
 20
105.3462711256
 40
1.0
100
AcDbArc
 50
255.0
 51
105.0
  0
ARC
  5
747
100
AcDbEntity
  8
RUNDUNGEN
100
AcDbCircle
 62
7
  6
CONTINUOUS
 10
162.6460908928
 20
46.6830187996
 40
1.0
100
AcDbArc
 50
234.0
 51
306.0
  0
ARC
  5
748
100
AcDbEntity
  8
RUNDUNGEN
100
AcDbCircle
 62
7
  6
CONTINUOUS
 10
164.4757058591
 20
48.0123118825
 40
1.0
100
AcDbArc
 50
306.0030961318
 51
36.0009280751
  0
ARC
  5
749
100
AcDbEntity
  8
RUNDUNGEN
100
AcDbCircle
 62
7
  6
CONTINUOUS
 10
165.1448543826
 20
48.4984767423
 40
1.0
100
AcDbArc
 50
305.99987205
 51
2.5759353903
  0
ARC
  5
74A
100
AcDbEntity
  8
RUNDUNGEN
100
AcDbCircle
 62
7
  6
CONTINUOUS
 10
169.0224133176
 20
53.3140241831
 40
2.0000000431
100
AcDbArc
 50
103.0811979166
 51
168.6376364565
  0
ARC
  5
74B
100
AcDbEntity
  8
RUNDUNGEN
100
AcDbCircle
 62
7
  6
CONTINUOUS
 10
170.1397423045
 20
48.7231324421
 40
3.9999544395
100
AcDbArc
 50
168.641460991
 51
182.5750090592
  0
ARC
  5
74C
100
AcDbEntity
  8
RUNDUNGEN
100
AcDbCircle
 62
7
  6
CONTINUOUS
 10
177.3284075973
 20
62.2675575861
 40
1.0
100
AcDbArc
 50
324.0
 51
5.8324053934
  0
ARC
  5
74D
100
AcDbEntity
  8
RUNDUNGEN
100
AcDbCircle
 62
7
  6
CONTINUOUS
 10
173.8016960835
 20
57.4134556199
 40
1.0
100
AcDbArc
 50
282.1675946066
 51
324.0
  0
ARC
  5
74E
100
AcDbEntity
  8
RUNDUNGEN
100
AcDbCircle
 62
7
  6
CONTINUOUS
 10
159.2678398534
 20
88.86203317
 40
2.49999818
100
AcDbArc
 50
340.4157836669
 51
135.000000003
  0
ARC
  5
74F
100
AcDbEntity
  8
RUNDUNGEN
100
AcDbCircle
 62
7
  6
CONTINUOUS
 10
179.7503189824
 20
68.0797195884
 40
2.0000000423
100
AcDbArc
 50
119.3623635435
 51
184.7675637697
  0
ARC
  5
750
100
AcDbEntity
  8
RUNDUNGEN
100
AcDbCircle
 62
7
  6
CONTINUOUS
 10
177.7756582261
 20
84.2772050022
 40
2.25
100
AcDbArc
 50
71.9984791069
 51
252.0024165321
  0
ARC
  5
751
100
AcDbEntity
  8
RUNDUNGEN
100
AcDbCircle
 62
7
  6
CONTINUOUS
 10
184.4617837627
 20
68.4357422087
 40
3.9999528329
100
AcDbArc
 50
105.424928853
 51
119.3556449014
  0
ARC
  5
752
100
AcDbEntity
  8
RUNDUNGEN
100
AcDbCircle
 62
7
  6
CONTINUOUS
 10
183.131947014
 20
73.2555890164
 40
1.0
100
AcDbArc
 50
285.4234355428
 51
341.9998173114
  0
ARC
  5
753
100
AcDbEntity
  8
RUNDUNGEN
100
AcDbCircle
 62
7
  6
CONTINUOUS
 10
183.3875026596
 20
74.0421084196
 40
1.0
100
AcDbArc
 50
252.0
 51
342.0
  0
ARC
  5
754
100
AcDbEntity
  8
RUNDUNGEN
100
AcDbCircle
 62
7
  6
CONTINUOUS
 10
184.0863878714
 20
76.1930559305
 40
1.0
100
AcDbArc
 50
342.0
 51
54.0
  0
ARC
  5
755
100
AcDbEntity
  8
RUNDUNGEN
100
AcDbCircle
 62
7
  6
CONTINUOUS
 10
187.6328893577
 20
87.1080651695
 40
1.0
100
AcDbArc
 50
270.0
 51
342.0
  0
ARC
  5
756
100
AcDbEntity
  8
RUNDUNGEN
100
AcDbCircle
 62
7
  6
CONTINUOUS
 10
188.3317745696
 20
89.2590126803
 40
1.0
100
AcDbArc
 50
342.0
 51
72.0
  0
ARC
  5
757
100
AcDbEntity
  8
RUNDUNGEN
100
AcDbCircle
 62
7
  6
CONTINUOUS
 10
188.587332081
 20
90.045537826
 40
1.0
100
AcDbArc
 50
341.99987205
 51
38.5759353903
  0
ARC
  5
758
100
AcDbEntity
  8
RUNDUNGEN
100
AcDbCircle
 62
7
  6
CONTINUOUS
 10
188.8938353887
 20
96.2205694996
 40
2.0000000431
100
AcDbArc
 50
139.0811979141
 51
204.6376364565
  0
ARC
  5
759
100
AcDbEntity
  8
RUNDUNGEN
100
AcDbCircle
 62
7
  6
CONTINUOUS
 10
192.4962319876
 20
93.1632095623
 40
3.9999544395
100
AcDbArc
 50
204.641460991
 51
218.5750090592
  0
ARC
  5
75A
100
AcDbEntity
  8
RUNDUNGEN
100
AcDbCircle
 62
7
  6
CONTINUOUS
 10
190.350771026
 20
102.3462711256
 40
1.0
100
AcDbArc
 50
318.1675946066
 51
360.0
  0
ARC
  5
75B
100
AcDbEntity
  8
RUNDUNGEN
100
AcDbCircle
 62
7
  6
CONTINUOUS
 10
129.4159782299
 20
151.6823707048
 40
2.49999818
100
AcDbArc
 50
70.4157836669
 51
225.000000003
  0
ARC
  5
75C
100
AcDbEntity
  8
RUNDUNGEN
100
AcDbCircle
 62
7
  6
CONTINUOUS
 10
118.6701002202
 20
182.0272013236
 40
1.0
100
AcDbArc
 50
89.999999978
 51
162.0000000918
  0
ARC
  5
75D
100
AcDbEntity
  8
RUNDUNGEN
100
AcDbCircle
 62
7
  6
CONTINUOUS
 10
121.7587357704
 20
182.0272013236
 40
1.0
100
AcDbArc
 50
33.4234384896
 51
89.9998523378
  0
ARC
  5
75E
100
AcDbEntity
  8
RUNDUNGEN
100
AcDbCircle
 62
7
  6
CONTINUOUS
 10
120.9317402742
 20
182.0272013236
 40
1.0
100
AcDbArc
 50
0.0
 51
90.0
  0
ARC
  5
75F
100
AcDbEntity
  8
RUNDUNGEN
100
AcDbCircle
 62
7
  6
CONTINUOUS
 10
125.9317402742
 20
184.781366102
 40
3.9999528882
100
AcDbArc
 50
213.4249314171
 51
227.3559309773
  0
ARC
  5
760
100
AcDbEntity
  8
RUNDUNGEN
100
AcDbCircle
 62
7
  6
CONTINUOUS
 10
127.7262605926
 20
180.4105135623
 40
2.0000000422
100
AcDbArc
 50
227.3623635435
 51
292.7675886498
  0
ARC
  5
761
100
AcDbEntity
  8
RUNDUNGEN
100
AcDbCircle
 62
7
  6
CONTINUOUS
 10
134.0023669157
 20
179.9031957904
 40
1.0
100
AcDbArc
 50
72.0
 51
113.8324053934
  0
ARC
  5
762
100
AcDbEntity
  8
RUNDUNGEN
100
AcDbCircle
 62
7
  6
CONTINUOUS
 10
153.0074855322
 20
160.5058023481
 40
2.25
100
AcDbArc
 50
144.0007968666
 51
324.0017755928
  0
ARC
  5
763
100
AcDbEntity
  8
RUNDUNGEN
100
AcDbCircle
 62
7
  6
CONTINUOUS
 10
149.1053004507
 20
177.2518263688
 40
3.9999544395
100
AcDbArc
 50
276.641460991
 51
290.5750090592
  0
ARC
  5
764
100
AcDbEntity
  8
RUNDUNGEN
100
AcDbCircle
 62
7
  6
CONTINUOUS
 10
145.0843765901
 20
174.7705197876
 40
2.0000000431
100
AcDbArc
 50
211.0811979165
 51
276.6376364565
  0
ARC
  5
765
100
AcDbEntity
  8
RUNDUNGEN
100
AcDbCircle
 62
7
  6
CONTINUOUS
 10
153.3612294605
 20
170.7553701489
 40
1.0
100
AcDbArc
 50
342.0
 51
54.0
  0
ARC
  5
766
100
AcDbEntity
  8
RUNDUNGEN
100
AcDbCircle
 62
7
  6
CONTINUOUS
 10
139.7087060134
 20
178.0490938242
 40
1.0
100
AcDbArc
 50
30.1675946066
 51
72.0
  0
ARC
  5
767
100
AcDbEntity
  8
RUNDUNGEN
100
AcDbCircle
 62
7
  6
CONTINUOUS
 10
151.531614494
 20
172.0846632319
 40
1.0
100
AcDbArc
 50
54.0
 51
144.0009280751
  0
ARC
  5
768
100
AcDbEntity
  8
RUNDUNGEN
100
AcDbCircle
 62
7
  6
CONTINUOUS
 10
150.8624659708
 20
172.5708280916
 40
1.0
100
AcDbArc
 50
53.99987205
 51
110.5759353903
  0
ARC
  5
769
100
AcDbEntity
  8
RUNDUNGEN
100
AcDbCircle
 62
7
  6
CONTINUOUS
 10
159.2678398535
 20
121.8305090811
 40
2.49999818
100
AcDbArc
 50
224.9999999971
 51
19.5842163292
  0
ARC
  5
76A
100
AcDbEntity
  8
RUNDUNGEN
100
AcDbCircle
 62
7
  6
CONTINUOUS
 10
188.8938353865
 20
114.4719727541
 40
2.0000000423
100
AcDbArc
 50
155.3623635435
 51
220.7675637696
  0
ARC
  5
76B
100
AcDbEntity
  8
RUNDUNGEN
100
AcDbCircle
 62
7
  6
CONTINUOUS
 10
187.6328893577
 20
123.5844770818
 40
1.0
100
AcDbArc
 50
18.0
 51
90.0
  0
ARC
  5
76C
100
AcDbEntity
  8
RUNDUNGEN
100
AcDbCircle
 62
7
  6
CONTINUOUS
 10
188.5873302152
 20
120.6470101677
 40
1.0
100
AcDbArc
 50
321.4234355428
 51
17.9998173114
  0
ARC
  5
76D
100
AcDbEntity
  8
RUNDUNGEN
100
AcDbCircle
 62
7
  6
CONTINUOUS
 10
188.3317745696
 20
121.4335295709
 40
1.0
100
AcDbArc
 50
288.0
 51
18.0
  0
ARC
  5
76E
100
AcDbEntity
  8
RUNDUNGEN
100
AcDbCircle
 62
7
  6
CONTINUOUS
 10
190.350771026
 20
108.3462711256
 40
1.0
100
AcDbArc
 50
0.0
 51
41.8324053934
  0
ARC
  5
76F
100
AcDbEntity
  8
RUNDUNGEN
100
AcDbCircle
 62
7
  6
CONTINUOUS
 10
192.4962256165
 20
117.5293306189
 40
3.9999528329
100
AcDbArc
 50
141.424928853
 51
155.3556449014
  0
ARC
  5
770
100
AcDbEntity
  8
RUNDUNGEN
100
AcDbCircle
 62
7
  6
CONTINUOUS
 10
177.7756582261
 20
126.4153372491
 40
2.25
100
AcDbArc
 50
108.0008142724
 51
288.0017896145
  0
ARC
  5
771
100
AcDbEntity
  8
RUNDUNGEN
100
AcDbCircle
 62
7
  6
CONTINUOUS
 10
179.7503189827
 20
142.6128226661
 40
2.0000000431
100
AcDbArc
 50
175.0811979138
 51
240.6376364565
  0
ARC
  5
772
100
AcDbEntity
  8
RUNDUNGEN
100
AcDbCircle
 62
7
  6
CONTINUOUS
 10
184.0863878714
 20
134.4994863208
 40
1.0
100
AcDbArc
 50
306.0
 51
18.0
  0
ARC
  5
773
100
AcDbEntity
  8
RUNDUNGEN
100
AcDbCircle
 62
7
  6
CONTINUOUS
 10
184.4617901339
 20
142.2568021126
 40
3.9999544395
100
AcDbArc
 50
240.641460991
 51
254.5750090592
  0
ARC
  5
774
100
AcDbEntity
  8
RUNDUNGEN
100
AcDbCircle
 62
7
  6
CONTINUOUS
 10
183.1319451482
 20
137.4369589773
 40
1.0
100
AcDbArc
 50
17.99987205
 51
74.5759353903
  0
ARC
  5
775
100
AcDbEntity
  8
RUNDUNGEN
100
AcDbCircle
 62
7
  6
CONTINUOUS
 10
183.3875026596
 20
136.6504338317
 40
1.0
100
AcDbArc
 50
17.9994118944
 51
108.0009280751
  0
ARC
  5
776
100
AcDbEntity
  8
RUNDUNGEN
100
AcDbCircle
 62
7
  6
CONTINUOUS
 10
162.6460908928
 20
164.0095234517
 40
1.0
100
AcDbArc
 50
54.0
 51
126.0
  0
ARC
  5
777
100
AcDbEntity
  8
RUNDUNGEN
100
AcDbCircle
 62
7
  6
CONTINUOUS
 10
165.1448494978
 20
162.1940690579
 40
1.0
100
AcDbArc
 50
357.4234355428
 51
53.9998173113
  0
ARC
  5
778
100
AcDbEntity
  8
RUNDUNGEN
100
AcDbCircle
 62
7
  6
CONTINUOUS
 10
164.4757961317
 20
162.6801647819
 40
1.0
100
AcDbArc
 50
324.0
 51
54.0
  0
ARC
  5
779
100
AcDbEntity
  8
RUNDUNGEN
100
AcDbCircle
 62
7
  6
CONTINUOUS
 10
169.0224133143
 20
157.3785180689
 40
2.0000000423
100
AcDbArc
 50
191.3623635435
 51
256.7675637705
  0
ARC
  5
77A
100
AcDbEntity
  8
RUNDUNGEN
100
AcDbCircle
 62
7
  6
CONTINUOUS
 10
173.8016960835
 20
153.2790866314
 40
1.0
100
AcDbArc
 50
36.0
 51
77.8324053934
  0
ARC
  5
77B
100
AcDbEntity
  8
RUNDUNGEN
100
AcDbCircle
 62
7
  6
CONTINUOUS
 10
177.3284075973
 20
148.4249846651
 40
1.0
100
AcDbArc
 50
354.1675946066
 51
36.0
  0
ARC
  5
77C
100
AcDbEntity
  8
RUNDUNGEN
100
AcDbCircle
 62
7
  6
CONTINUOUS
 10
170.1397383669
 20
161.9694043895
 40
3.9999528329
100
AcDbArc
 50
177.424928853
 51
191.3556449014
  0
ARC
  5
77D
100
AcDbEntity
  8
RUNDUNGEN
100
AcDbCircle
 62
7
  6
CONTINUOUS
 10
229.29049147
 20
52.2730181035
 40
3.0
100
AcDbArc
 50
179.9999999951
 51
264.352191792
  0
ARC
  5
77E
100
AcDbEntity
  8
RUNDUNGEN
100
AcDbCircle
 62
7
  6
CONTINUOUS
 10
231.34049147
 20
90.6491339019
 40
1.0
100
AcDbArc
 50
98.5821155722
 51
180.0000002436
  0
ARC
  5
77F
100
AcDbEntity
  8
RUNDUNGEN
100
AcDbCircle
 62
7
  6
CONTINUOUS
 10
231.34049147
 20
52.9703790287
 40
1.0
100
AcDbArc
 50
111.5604668072
 51
180.0000013363
  0
ARC
  5
780
100
AcDbEntity
  8
RUNDUNGEN
100
AcDbCircle
 62
7
  6
CONTINUOUS
 10
231.34049147
 20
46.6830187996
 40
1.0
100
AcDbArc
 50
180.0
 51
270.0
  0
ARC
  5
781
100
AcDbEntity
  8
RUNDUNGEN
100
AcDbCircle
 62
7
  6
CONTINUOUS
 10
231.34049147
 20
36.8352006483
 40
1.0
100
AcDbArc
 50
116.0374416662
 51
180.0000000862
  0
ARC
  5
782
100
AcDbEntity
  8
RUNDUNGEN
100
AcDbCircle
 62
7
  6
CONTINUOUS
 10
231.34049147
 20
87.1080651695
 40
1.0
100
AcDbArc
 50
180.0
 51
270.0
  0
ARC
  5
783
100
AcDbEntity
  8
RUNDUNGEN
100
AcDbCircle
 62
7
  6
CONTINUOUS
 10
231.34049147
 20
28.6653409277
 40
1.0
100
AcDbArc
 50
180.0
 51
270.0
  0
ARC
  5
784
100
AcDbEntity
  8
RUNDUNGEN
100
AcDbCircle
 62
7
  6
CONTINUOUS
 10
239.84049147
 20
102.1839939492
 40
0.4999995435
100
AcDbArc
 50
0.1873182042
 51
64.6230629565
  0
ARC
  5
785
100
AcDbEntity
  8
0
100
AcDbCircle
 62
7
  6
CONTINUOUS
 10
229.29049147
 20
158.4195241468
 40
3.0
100
AcDbArc
 50
95.6478082438
 51
179.9999999999
  0
ARC
  5
786
100
AcDbEntity
  8
02___PRT_ALL_AXES
100
AcDbCircle
 62
7
  6
CONTINUOUS
 10
241.34049147
 20
105.3462711256
 40
3.0
100
AcDbArc
 50
179.9999999887
 51
244.623063123
  0
ARC
  5
787
100
AcDbEntity
  8
0
100
AcDbCircle
 62
7
  6
CONTINUOUS
 10
237.84049147
 20
164.7918221054
 40
2.4999768392
100
AcDbArc
 50
275.6476996502
 51
359.9998807188
  0
ARC
  5
788
100
AcDbEntity
  8
0
100
AcDbCircle
 62
7
  6
CONTINUOUS
 10
238.34049147
 20
167.2161255626
 40
2.0
100
AcDbArc
 50
0.0
 51
64.0
  0
ARC
  5
789
100
AcDbEntity
  8
0
100
AcDbCircle
 62
7
  6
CONTINUOUS
 10
231.34049147
 20
173.8573415979
 40
1.0
100
AcDbArc
 50
179.9999999267
 51
243.9625584505
  0
ARC
  5
78A
100
AcDbEntity
  8
RUNDUNGEN
100
AcDbCircle
 62
7
  6
CONTINUOUS
 10
231.34049147
 20
182.0272013236
 40
1.0
100
AcDbArc
 50
90.0
 51
180.0
  0
ARC
  5
78B
100
AcDbEntity
  8
0
100
AcDbCircle
 62
7
  6
CONTINUOUS
 10
238.9077364579
 20
170.2772639647
 40
0.9999807389
100
AcDbArc
 50
90.000037207
 51
244.0169962742
  0
ARC
  5
78C
100
AcDbEntity
  8
RUNDUNGEN
100
AcDbCircle
 62
7
  6
CONTINUOUS
 10
261.39049147
 20
52.2730181035
 40
3.0
100
AcDbArc
 50
275.6478082149
 51
360.0
  0
ARC
  5
78D
100
AcDbEntity
  8
RUNDUNGEN
100
AcDbCircle
 62
7
  6
CONTINUOUS
 10
259.34049147
 20
90.6491351272
 40
1.0
100
AcDbArc
 50
0.0
 51
81.4171432708
  0
ARC
  5
78E
100
AcDbEntity
  8
RUNDUNGEN
100
AcDbCircle
 62
7
  6
CONTINUOUS
 10
259.34049147
 20
52.9704054609
 40
1.0
100
AcDbArc
 50
359.9999986022
 51
68.4395195459
  0
ARC
  5
78F
100
AcDbEntity
  8
RUNDUNGEN
100
AcDbCircle
 62
7
  6
CONTINUOUS
 10
259.34049147
 20
46.6830187996
 40
1.0
100
AcDbArc
 50
270.0
 51
360.0
  0
ARC
  5
790
100
AcDbEntity
  8
RUNDUNGEN
100
AcDbCircle
 62
7
  6
CONTINUOUS
 10
259.34049147
 20
36.8352119255
 40
1.0
100
AcDbArc
 50
359.9999990221
 51
63.9627818162
  0
ARC
  5
791
100
AcDbEntity
  8
RUNDUNGEN
100
AcDbCircle
 62
7
  6
CONTINUOUS
 10
259.34049147
 20
87.1080651695
 40
1.0
100
AcDbArc
 50
270.0
 51
360.0
  0
ARC
  5
792
100
AcDbEntity
  8
RUNDUNGEN
100
AcDbCircle
 62
7
  6
CONTINUOUS
 10
259.34049147
 20
28.6653409277
 40
1.0
100
AcDbArc
 50
270.0
 51
360.0
  0
ARC
  5
793
100
AcDbEntity
  8
RUNDUNGEN
100
AcDbCircle
 62
7
  6
CONTINUOUS
 10
250.84049147
 20
102.1839978513
 40
0.4999958202
100
AcDbArc
 50
115.3769644197
 51
179.9994679995
  0
ARC
  5
794
100
AcDbEntity
  8
0
100
AcDbCircle
 62
7
  6
CONTINUOUS
 10
261.39049147
 20
158.4195241468
 40
3.0
100
AcDbArc
 50
0.0000000001
 51
84.352191756
  0
ARC
  5
795
100
AcDbEntity
  8
02___PRT_ALL_AXES
100
AcDbCircle
 62
7
  6
CONTINUOUS
 10
249.34049147
 20
105.3462711256
 40
3.0
100
AcDbArc
 50
295.3769642542
 51
359.998901059
  0
ARC
  5
796
100
AcDbEntity
  8
0
100
AcDbCircle
 62
7
  6
CONTINUOUS
 10
252.84049147
 20
164.7918221076
 40
2.4999768401
100
AcDbArc
 50
180.0001192754
 51
264.3523003498
  0
ARC
  5
797
100
AcDbEntity
  8
0
100
AcDbCircle
 62
7
  6
CONTINUOUS
 10
252.34049147
 20
167.2161255626
 40
2.0
100
AcDbArc
 50
116.0
 51
180.0
  0
ARC
  5
798
100
AcDbEntity
  8
0
100
AcDbCircle
 62
7
  6
CONTINUOUS
 10
259.34049147
 20
173.8573303254
 40
1.0
100
AcDbArc
 50
296.0372185271
 51
0.000001783
  0
ARC
  5
799
100
AcDbEntity
  8
RUNDUNGEN
100
AcDbCircle
 62
7
  6
CONTINUOUS
 10
259.34049147
 20
182.0272013236
 40
1.0
100
AcDbArc
 50
0.0
 51
90.0
  0
ARC
  5
79A
100
AcDbEntity
  8
0
100
AcDbCircle
 62
7
  6
CONTINUOUS
 10
251.7733718517
 20
170.2773218357
 40
0.9999629196
100
AcDbArc
 50
295.9669569443
 51
89.9999995026
  0
ENDSEC
  0
SECTION
  2
OBJECTS
  0
DICTIONARY
  5
C
100
AcDbDictionary
280
0
281
1
  3
ACAD_GROUP
350
D
  3
ACAD_MLINESTYLE
350
17
  3
ACAD_LAYOUT
350
1A
  3
ACAD_PLOTSETTINGS
350
19
  3
ACAD_PLOTSTYLENAME
350
E
  0
DICTIONARY
  5
D
102
{ACAD_REACTORS
330
C
102
}
100
AcDbDictionary
280
0
281
1
  0
ACDBDICTIONARYWDFLT
  5
E
102
{ACAD_REACTORS
330
C
102
}
100
AcDbDictionary
281
1
  3
Normal
350
F
100
AcDbDictionaryWithDefault
340
F
  0
DICTIONARY
  5
17
102
{ACAD_REACTORS
330
C
102
}
100
AcDbDictionary
280
0
281
1
  3
Standard
350
18
  0
DICTIONARY
  5
19
102
{ACAD_REACTORS
330
C
102
}
100
AcDbDictionary
281
1
  0
DICTIONARY
  5
1A
102
{ACAD_REACTORS
330
C
102
}
100
AcDbDictionary
281
1
  3
Model
350
79B
  3
Layout1
350
79C
  0
ACDBPLACEHOLDER
  5
F
102
{ACAD_REACTORS
330
E
102
}
  0
MLINESTYLE
  5
18
102
{ACAD_REACTORS
330
17
102
}
100
AcDbMlineStyle
  2
STANDARD
 70
0
  3

 62
256
 51
90.0
 52
90.0
 71
2
 49
0.5
 62
256
  6
BYLAYER
 49
-0.5
 62
256
  6
BYLAYER
  0
LAYOUT
  5
79B
102
{ACAD_REACTORS
330
1A
102
}
100
AcDbPlotSettings
  1

  2
none_device
  4
ISO_A4_(297.00_x_210.00_MM)
  6

 40
0.0
 41
0.0
 42
0.0
 43
0.0
 44
297.0
 45
210.0
 46
0.0
 47
0.0
 48
0.0
 49
0.0
140
0.0
141
0.0
142
1.0
143
1.0
 70
1024
 72
1
 73
0
 74
0
  7

 75
0
147
1.0
148
0.0
149
0.0
100
AcDbLayout
  1
Model
 70
0
 71
0
 10
0.0
 20
0.0
 11
297.0
 21
210.0
 12
0.0
 22
0.0
 32
0.0
 14
0.0
 24
0.0
 34
0.0
 15
0.0
 25
0.0
 35
0.0
146
0.0
 13
0.0
 23
0.0
 33
0.0
 16
1.0
 26
0.0
 36
0.0
 17
0.0
 27
1.0
 37
0.0
 76
0
330
210
345
0
346
0
  0
LAYOUT
  5
79C
102
{ACAD_REACTORS
330
1A
102
}
100
AcDbPlotSettings
  1

  2
none_device
  4
ISO_A4_(297.00_x_210.00_MM)
  6

 40
0.0
 41
0.0
 42
0.0
 43
0.0
 44
297.0
 45
210.0
 46
0.0
 47
0.0
 48
0.0
 49
0.0
140
0.0
141
0.0
142
1.0
143
1.0
 70
0
 72
1
 73
0
 74
0
  7

 75
0
147
1.0
148
0.0
149
0.0
100
AcDbLayout
  1
Layout1
 70
0
 71
1
 10
0.0
 20
0.0
 11
297.0
 21
210.0
 12
0.0
 22
0.0
 32
0.0
 14
0.0
 24
0.0
 34
0.0
 15
0.0
 25
0.0
 35
0.0
146
0.0
 13
0.0
 23
0.0
 33
0.0
 16
1.0
 26
0.0
 36
0.0
 17
0.0
 27
1.0
 37
0.0
 76
0
330
211
345
0
346
0
  0
ENDSEC
  0
EOF
