  0
SECTION
  2
HEADER
  9
$ACADVER
  1
AC1015
  9
$DWGCODEPAGE
  3
ANSI_1252
  9
$EXTMAX
 10
297.0
 20
210.0
 30
0.0
  9
$EXTMIN
 10
0.0
 20
0.0
 30
0.0
  9
$LIMMIN
 10
0.0
 20
0.0
  9
$LIMMAX
 10
297.0
 20
210.0
  9
$VIEWCTR
 10
148.5
 20
105.0
  9
$VIEWSIZE
 40
210.0
  9
$CLAYER
  8
0
  9
$LTSCALE
 40
16.335
  9
$CELTYPE
  6
BYLAYER
  9
$DIMSCALE
 40
1.0
  9
$DIMASZ
 40
3.5
  9
$DIMEXO
 40
1.85625
  9
$DIMDLI
 40
11.286
  9
$DIMEXE
 40
5.346
  9
$DIMCEN
 40
2.673
  9
$DIMLFAC
 40
1.0
  9
$DIMBLK
  1
_FILLED
  9
$DIMTXT
 40
3.5
  9
$DIMTOL
 70
1
  9
$DIMLIM
 70
0
  9
$DIMTFAC
 40
1.0
  9
$DIMTP
 40
0.005
  9
$DIMTM
 40
0.005
  9
$PDMODE
 70
3
  9
$PDSIZE
 40
0.3125
  9
$HANDSEED
  5
7A9
  9
$TILEMODE
 70
1
  9
$MEASUREMENT
 70
1
  9
$INSUNITS
 70
4
  0
ENDSEC
  0
SECTION
  2
CLASSES
  0
CLASS
  1
ACDBDICTIONARYWDFLT
  2
AcDbDictionaryWithDefault
  3
AutoCAD 2000
 90
0
280
0
281
0
  0
CLASS
  1
ACDBPLACEHOLDER
  2
AcDbPlaceHolder
  3
AutoCAD 2000
 90
0
280
0
281
0
  0
CLASS
  1
LAYOUT
  2
AcDbLayout
  3
AutoCAD 2000
 90
0
280
0
281
0
  0
ENDSEC
  0
SECTION
  2
TABLES
  0
TABLE
  2
VPORT
  5
8
100
AcDbSymbolTable
 70
2
  0
VPORT
  5
1F4
100
AcDbSymbolTableRecord
100
AcDbViewportTableRecord
  2
*ACTIVE
 70
0
 10
0.0
 20
0.0
 11
1.0
 21
1.0
 12
148.5
 22
105.0
 13
0.0
 23
0.0
 14
1.0
 24
1.0
 15
0.0
 25
0.0
 16
0.0
 26
0.0
 36
1.0
 17
0.0
 27
0.0
 37
0.0
 40
210.0
 41
1.4142857143
 42
50.0
 43
0.0
 44
0.0
 50
0.0
 51
0.0
 71
0
 72
100
 73
1
 74
1
 75
0
 76
0
 77
0
 78
0
  0
ENDTAB
  0
TABLE
  2
LTYPE
  5
5
100
AcDbSymbolTable
 70
6
  0
LTYPE
  5
14
100
AcDbSymbolTableRecord
100
AcDbLinetypeTableRecord
  2
BYBLOCK
 70
0
  3

 72
65
 73
0
 40
0.0
  0
LTYPE
  5
15
100
AcDbSymbolTableRecord
100
AcDbLinetypeTableRecord
  2
BYLAYER
 70
0
  3

 72
65
 73
0
 40
0.0
  0
LTYPE
  5
16
100
AcDbSymbolTableRecord
100
AcDbLinetypeTableRecord
  2
CONTINUOUS
 70
64
  3
Solid line
 72
65
 73
0
 40
0.0
  0
LTYPE
  5
1F5
100
AcDbSymbolTableRecord
100
AcDbLinetypeTableRecord
  2
CENTER
 70
64
  3
____ _ ____ _ ____ _ ____ _ ____ _ ____ _ ____
 72
65
 73
4
 40
0.6
 49
0.375
 74
0
 49
-0.075
 74
0
 49
0.075
 74
0
 49
-0.075
 74
0
  0
LTYPE
  5
1F6
100
AcDbSymbolTableRecord
100
AcDbLinetypeTableRecord
  2
HIDDEN
 70
64
  3
- - - - - - - - - - - - - - - - - - - -
 72
65
 73
2
 40
0.2
 49
0.1
 74
0
 49
-0.1
 74
0
  0
LTYPE
  5
1F7
100
AcDbSymbolTableRecord
100
AcDbLinetypeTableRecord
  2
PHANTOM
 70
64
  3
_____ _ _ _____ _ _ _____ _ _ _____
 72
65
 73
6
 40
0.8
 49
0.45
 74
0
 49
-0.05
 74
0
 49
0.1
 74
0
 49
-0.05
 74
0
 49
0.1
 74
0
 49
-0.05
 74
0
  0
LTYPE
  5
1F8
100
AcDbSymbolTableRecord
100
AcDbLinetypeTableRecord
  2
DOT
 70
64
  3
. . . . . . . . . . . . . . . . . . . .
 72
65
 73
2
 40
0.2
 49
0.1
 74
0
 49
-0.1
 74
0
  0
LTYPE
  5
1F9
100
AcDbSymbolTableRecord
100
AcDbLinetypeTableRecord
  2
DASHED
 70
64
  3
- - - - - - - - - - - - - - - - - - - -
 72
65
 73
2
 40
0.2
 49
0.1
 74
0
 49
-0.1
 74
0
  0
ENDTAB
  0
TABLE
  2
LAYER
  5
2
100
AcDbSymbolTable
 70
36
  0
LAYER
  5
10
100
AcDbSymbolTableRecord
100
AcDbLayerTableRecord
  2
0
 70
0
 62
7
  6
CONTINUOUS
370
-3
390
F
  0
LAYER
  5
1FA
100
AcDbSymbolTableRecord
100
AcDbLayerTableRecord
  2
DEFAULT_1
 70
0
 62
7
  6
CENTER
370
-3
390
F
  0
LAYER
  5
1FB
100
AcDbSymbolTableRecord
100
AcDbLayerTableRecord
  2
DEFAULT_2
 70
0
 62
8
  6
HIDDEN
370
-3
390
F
  0
LAYER
  5
1FC
100
AcDbSymbolTableRecord
100
AcDbLayerTableRecord
  2
DEFAULT_3
 70
0
 62
7
  6
PHANTOM
370
-3
390
F
  0
LAYER
  5
1FD
100
AcDbSymbolTableRecord
100
AcDbLayerTableRecord
  2
01___PRT_ALL_DTM_PLN
 70
0
 62
7
  6
CONTINUOUS
370
-3
390
F
  0
LAYER
  5
1FE
100
AcDbSymbolTableRecord
100
AcDbLayerTableRecord
  2
01___PRT_DEF_DTM_PLN
 70
0
 62
7
  6
CONTINUOUS
370
-3
390
F
  0
LAYER
  5
1FF
100
AcDbSymbolTableRecord
100
AcDbLayerTableRecord
  2
02___PRT_ALL_AXES
 70
0
 62
7
  6
CONTINUOUS
370
-3
390
F
  0
LAYER
  5
200
100
AcDbSymbolTableRecord
100
AcDbLayerTableRecord
  2
03___PRT_ALL_CURVES
 70
0
 62
7
  6
CONTINUOUS
370
-3
390
F
  0
LAYER
  5
201
100
AcDbSymbolTableRecord
100
AcDbLayerTableRecord
  2
04___PRT_ALL_DTM_PNT
 70
0
 62
7
  6
CONTINUOUS
370
-3
390
F
  0
LAYER
  5
202
100
AcDbSymbolTableRecord
100
AcDbLayerTableRecord
  2
05___PRT_ALL_DTM_CSYS
 70
0
 62
7
  6
CONTINUOUS
370
-3
390
F
  0
LAYER
  5
203
100
AcDbSymbolTableRecord
100
AcDbLayerTableRecord
  2
05___PRT_DEF_DTM_CSYS
 70
0
 62
7
  6
CONTINUOUS
370
-3
390
F
  0
LAYER
  5
204
100
AcDbSymbolTableRecord
100
AcDbLayerTableRecord
  2
06___PRT_ALL_SURFS
 70
0
 62
7
  6
CONTINUOUS
370
-3
390
F
  0
LAYER
  5
205
100
AcDbSymbolTableRecord
100
AcDbLayerTableRecord
  2
AUSFORMSCHRAEGEN
 70
0
 62
7
  6
CONTINUOUS
370
-3
390
F
  0
LAYER
  5
206
100
AcDbSymbolTableRecord
100
AcDbLayerTableRecord
  2
BEZUGSACHSEN
 70
0
 62
7
  6
CONTINUOUS
370
-3
390
F
  0
LAYER
  5
207
100
AcDbSymbolTableRecord
100
AcDbLayerTableRecord
  2
BEZUGSEBENEN
 70
0
 62
7
  6
CONTINUOUS
370
-3
390
F
  0
LAYER
  5
208
100
AcDbSymbolTableRecord
100
AcDbLayerTableRecord
  2
BOHRUNGEN
 70
0
 62
7
  6
CONTINUOUS
370
-3
390
F
  0
LAYER
  5
209
100
AcDbSymbolTableRecord
100
AcDbLayerTableRecord
  2
FASEN
 70
0
 62
7
  6
CONTINUOUS
370
-3
390
F
  0
LAYER
  5
20A
100
AcDbSymbolTableRecord
100
AcDbLayerTableRecord
  2
GEWINDE
 70
0
 62
7
  6
CONTINUOUS
370
-3
390
F
  0
LAYER
  5
20B
100
AcDbSymbolTableRecord
100
AcDbLayerTableRecord
  2
KURVEN
 70
0
 62
7
  6
CONTINUOUS
370
-3
390
F
  0
LAYER
  5
20C
100
AcDbSymbolTableRecord
100
AcDbLayerTableRecord
  2
RUNDUNGEN
 70
0
 62
7
  6
CONTINUOUS
370
-3
390
F
  0
LAYER
  5
20D
100
AcDbSymbolTableRecord
100
AcDbLayerTableRecord
  2
ZEICHNUNGSBEMASSUNGEN
 70
0
 62
7
  6
CONTINUOUS
370
-3
390
F
  0
ENDTAB
  0
TABLE
  2
STYLE
  5
3
100
AcDbSymbolTable
 70
1
  0
STYLE
  5
11
100
AcDbSymbolTableRecord
100
AcDbTextStyleTableRecord
  2
STANDARD
 70
0
 40
0.0
 41
0.7
 50
0.0
 71
0
 42
0.2
  3
txt
  4

  0
STYLE
  5
20E
100
AcDbSymbolTableRecord
100
AcDbTextStyleTableRecord
  2
TEXTSTYLE_1
 70
0
 40
0.0
 41
0.8
 50
0.0
 71
0
 42
0.2
  3
gdt
  4

  0
ENDTAB
  0
TABLE
  2
VIEW
  5
6
100
AcDbSymbolTable
 70
0
  0
ENDTAB
  0
TABLE
  2
UCS
  5
7
100
AcDbSymbolTable
 70
0
  0
ENDTAB
  0
TABLE
  2
APPID
  5
9
100
AcDbSymbolTable
 70
1
  0
APPID
  5
20F
100
AcDbSymbolTableRecord
100
AcDbRegAppTableRecord
  2
ACAD
 70
0
  0
ENDTAB
  0
TABLE
  2
BLOCK_RECORD
  5
1
100
AcDbSymbolTable
 70
0
  0
BLOCK_RECORD
  5
210
100
AcDbSymbolTableRecord
100
AcDbBlockTableRecord
  2
*Model_Space
  0
BLOCK_RECORD
  5
211
100
AcDbSymbolTableRecord
100
AcDbBlockTableRecord
  2
*Paper_Space
  0
ENDTAB
  0
TABLE
  2
DIMSTYLE
  5
A
100
AcDbSymbolTable
 70
1
100
AcDbDimStyleTable
 71
0
  0
DIMSTYLE
105
212
100
AcDbSymbolTableRecord
100
AcDbDimStyleTableRecord
  2
STANDARD
 70
0
  3

  4

 40
1.0
 41
3.5
 42
0.0625
 43
0.38
 44
0.18
 45
0.0
 46
0.0
 47
0.005
 48
0.005
140
3.5
141
0.09
142
0.0
143
25.4
144
1.0
145
0.0
146
1.0
147
0.09
 71
1.0
 72
0.0
 73
0
 74
0
 75
0
 76
0
 77
1
 78
8
170
0
171
2
172
0
173
0
174
0
175
0
176
0
177
0
178
5
270
2
271
3
272
3
273
2
274
2
275
0
280
0
281
0
282
0
283
1
284
8
285
0
286
0
287
3
288
0
340
11
  0
ENDTAB
  0
ENDSEC
  0
SECTION
  2
BLOCKS
  0
BLOCK
  5
20
100
AcDbEntity
  8
0
100
AcDbBlockBegin
  2
*Model_Space
 70
0
 10
0.0
 20
0.0
 30
0.0
  3
*Model_Space
  1

  0
ENDBLK
  5
21
100
AcDbEntity
  8
0
100
AcDbBlockEnd
  0
BLOCK
  5
1C
100
AcDbEntity
  8
0
100
AcDbBlockBegin
  2
*Paper_Space
 70
0
 10
0.0
 20
0.0
 30
0.0
  3
*Paper_Space
  1

  0
ENDBLK
  5
1D
100
AcDbEntity
  8
0
100
AcDbBlockEnd
  0
ENDSEC
  0
SECTION
  2
ENTITIES
  0
LINE
  5
213
100
AcDbEntity
  8
0
100
AcDbLine
 62
7
  6
CONTINUOUS
 10
0.0
 20
0.0
 11
0.0
 21
210.0
  0
LINE
  5
214
100
AcDbEntity
  8
0
100
AcDbLine
 62
7
  6
CONTINUOUS
 10
0.0
 20
0.0
 11
297.0
 21
0.0
  0
LINE
  5
215
100
AcDbEntity
  8
0
100
AcDbLine
 62
7
  6
CONTINUOUS
 10
0.0
 20
210.0
 11
297.0
 21
210.0
  0
LINE
  5
216
100
AcDbEntity
  8
0
100
AcDbLine
 62
7
  6
CONTINUOUS
 10
297.0
 20
0.0
 11
297.0
 21
210.0
  0
LINE
  5
217
100
AcDbEntity
  8
RUNDUNGEN
100
AcDbLine
 62
7
  6
CONTINUOUS
 10
34.6547694715
 20
108.7724509726
 11
34.6547694715
 21
102.7724509726
  0
LINE
  5
218
100
AcDbEntity
  8
RUNDUNGEN
100
AcDbLine
 62
7
  6
CONTINUOUS
 10
41.9225379407
 20
138.1721530726
 11
40.9680961097
 21
135.2346831621
  0
LINE
  5
219
100
AcDbEntity
  8
RUNDUNGEN
100
AcDbLine
 62
7
  6
CONTINUOUS
 10
37.4215946234
 20
124.3196739231
 11
36.4671534447
 21
121.3822060203
  0
LINE
  5
21A
100
AcDbEntity
  8
RUNDUNGEN
100
AcDbLine
 62
7
  6
CONTINUOUS
 10
51.3948274195
 20
154.2930517306
 11
47.8681159058
 21
149.4389497644
  0
LINE
  5
21B
100
AcDbEntity
  8
RUNDUNGEN
100
AcDbLine
 62
7
  6
CONTINUOUS
 10
74.5552946602
 20
173.8060288459
 11
72.0565257849
 21
171.9905669904
  0
LINE
  5
21C
100
AcDbEntity
  8
RUNDUNGEN
100
AcDbLine
 62
7
  6
CONTINUOUS
 10
62.7716643523
 20
165.244720293
 11
60.2729049063
 21
163.4292652882
  0
LINE
  5
21D
100
AcDbEntity
  8
RUNDUNGEN
100
AcDbLine
 62
7
  6
CONTINUOUS
 10
91.6941565874
 20
181.2804321537
 11
85.9878174896
 21
179.4263301874
  0
LINE
  5
21E
100
AcDbEntity
  8
RUNDUNGEN
100
AcDbLine
 62
7
  6
CONTINUOUS
 10
104.2468015395
 20
28.0915207746
 11
107.3354402772
 21
28.0915207746
  0
LINE
  5
21F
100
AcDbEntity
  8
RUNDUNGEN
100
AcDbLine
 62
7
  6
CONTINUOUS
 10
118.8121601692
 20
28.0915207746
 11
121.9007994691
 21
28.0915207746
  0
LINE
  5
220
100
AcDbEntity
  8
RUNDUNGEN
100
AcDbLine
 62
7
  6
CONTINUOUS
 10
85.9878174896
 20
32.1185717577
 11
91.6941565874
 21
30.2644697915
  0
LINE
  5
221
100
AcDbEntity
  8
RUNDUNGEN
100
AcDbLine
 62
7
  6
CONTINUOUS
 10
60.2729031984
 20
48.1156378978
 11
62.7716643523
 21
46.3001816522
  0
LINE
  5
222
100
AcDbEntity
  8
RUNDUNGEN
100
AcDbLine
 62
7
  6
CONTINUOUS
 10
72.0565257846
 20
39.554334955
 11
74.5552873084
 21
37.7388784406
  0
LINE
  5
223
100
AcDbEntity
  8
RUNDUNGEN
100
AcDbLine
 62
7
  6
CONTINUOUS
 10
47.8681159058
 20
62.1059521808
 11
51.3948274195
 21
57.2518502145
  0
LINE
  5
224
100
AcDbEntity
  8
RUNDUNGEN
100
AcDbLine
 62
7
  6
CONTINUOUS
 10
36.4671530922
 20
90.1626970099
 11
37.4215946234
 21
87.225228022
  0
LINE
  5
225
100
AcDbEntity
  8
RUNDUNGEN
100
AcDbLine
 62
7
  6
CONTINUOUS
 10
40.9680961097
 20
76.3102187831
 11
41.922538082
 21
73.3727484378
  0
LINE
  5
226
100
AcDbEntity
  8
RUNDUNGEN
100
AcDbLine
 62
7
  6
CONTINUOUS
 10
39.1123558166
 20
96.5569654784
 11
39.0919668231
 21
96.9424456866
  0
LINE
  5
227
100
AcDbEntity
  8
RUNDUNGEN
100
AcDbLine
 62
7
  6
CONTINUOUS
 10
39.112355764
 20
114.9879364474
 11
39.0919667732
 21
114.6024562801
  0
LINE
  5
228
100
AcDbEntity
  8
RUNDUNGEN
100
AcDbLine
 62
7
  6
CONTINUOUS
 10
39.0582675864
 20
96.1746977206
 11
39.1123558166
 21
96.5569654784
  0
LWPOLYLINE
  5
229
100
AcDbEntity
  8
RUNDUNGEN
100
AcDbPolyline
 62
7
  6
CONTINUOUS
 90
3
 70
0
 10
46.5835375177
 20
125.0106569288
 10
46.5806597183
 20
124.9910840288
 10
46.4552932169
 20
124.2044788528
  0
LINE
  5
22A
100
AcDbEntity
  8
RUNDUNGEN
100
AcDbLine
 62
7
  6
CONTINUOUS
 10
46.4552932169
 20
124.2044788528
 11
46.4251530774
 21
124.0106569288
  0
LINE
  5
22B
100
AcDbEntity
  8
RUNDUNGEN
100
AcDbLine
 62
7
  6
CONTINUOUS
 10
48.1749788413
 20
142.4724019749
 11
48.2473012151
 21
142.8514928843
  0
LINE
  5
22C
100
AcDbEntity
  8
RUNDUNGEN
100
AcDbLine
 62
7
  6
CONTINUOUS
 10
39.0919667732
 20
114.6024562801
 11
38.9978608036
 21
114.2281370493
  0
LINE
  5
22D
100
AcDbEntity
  8
RUNDUNGEN
100
AcDbLine
 62
7
  6
CONTINUOUS
 10
48.0310928428
 20
142.1142572461
 11
48.1749788413
 21
142.4724019749
  0
LINE
  5
22E
100
AcDbEntity
  8
RUNDUNGEN
100
AcDbLine
 62
7
  6
CONTINUOUS
 10
38.9978608036
 20
114.2281370493
 11
38.8335467902
 21
113.8789360416
  0
LWPOLYLINE
  5
22F
100
AcDbEntity
  8
RUNDUNGEN
100
AcDbPolyline
 62
7
  6
CONTINUOUS
 90
3
 70
0
 10
47.9741139924
 20
129.2904112521
 10
47.982899301
 20
129.3081368972
 10
48.3452042963
 20
130.0175024961
  0
LINE
  5
230
100
AcDbEntity
  8
RUNDUNGEN
100
AcDbLine
 62
7
  6
CONTINUOUS
 10
48.3452042963
 20
130.0175024961
 11
48.4337635408
 21
130.1925242847
  0
LINE
  5
231
100
AcDbEntity
  8
RUNDUNGEN
100
AcDbLine
 62
7
  6
CONTINUOUS
 10
58.8353942439
 20
157.0424350109
 11
58.654461182
 21
156.7013816245
  0
LINE
  5
232
100
AcDbEntity
  8
RUNDUNGEN
100
AcDbLine
 62
7
  6
CONTINUOUS
 10
47.8210083035
 20
141.7904128571
 11
48.0310928428
 21
142.1142572461
  0
LINE
  5
233
100
AcDbEntity
  8
RUNDUNGEN
100
AcDbLine
 62
7
  6
CONTINUOUS
 10
58.654461182
 20
156.7013816245
 11
58.4113865846
 21
156.4015059663
  0
LINE
  5
234
100
AcDbEntity
  8
RUNDUNGEN
100
AcDbLine
 62
7
  6
CONTINUOUS
 10
47.5525586555
 20
141.5129440087
 11
47.8210083035
 21
141.7904128571
  0
LWPOLYLINE
  5
235
100
AcDbEntity
  8
RUNDUNGEN
100
AcDbPolyline
 62
7
  6
CONTINUOUS
 90
3
 70
0
 10
70.5899814756
 20
160.4184823717
 10
70.5761486251
 20
160.4043390911
 10
70.0123700731
 20
159.8416507165
  0
LINE
  5
236
100
AcDbEntity
  8
RUNDUNGEN
100
AcDbLine
 62
7
  6
CONTINUOUS
 10
70.0123700731
 20
159.8416507165
 11
69.8740605195
 21
159.7025614156
  0
LINE
  5
237
100
AcDbEntity
  8
RUNDUNGEN
100
AcDbLine
 62
7
  6
CONTINUOUS
 10
82.1412408281
 20
173.6099051186
 11
82.4225749116
 21
173.8740860618
  0
LINE
  5
238
100
AcDbEntity
  8
RUNDUNGEN
100
AcDbLine
 62
7
  6
CONTINUOUS
 10
58.4113865846
 20
156.4015059663
 11
58.1152339323
 21
156.1539894483
  0
LINE
  5
239
100
AcDbEntity
  8
RUNDUNGEN
100
AcDbLine
 62
7
  6
CONTINUOUS
 10
81.8143224082
 20
173.4047340439
 11
82.1412408281
 21
173.6099051186
  0
LINE
  5
23A
100
AcDbEntity
  8
RUNDUNGEN
100
AcDbLine
 62
7
  6
CONTINUOUS
 10
58.1152339323
 20
156.1539894483
 11
57.7770459007
 21
155.9680612525
  0
LWPOLYLINE
  5
23B
100
AcDbEntity
  8
RUNDUNGEN
100
AcDbPolyline
 62
7
  6
CONTINUOUS
 90
3
 70
0
 10
74.2305579503
 20
163.0635160071
 10
74.2480842871
 20
163.0726924804
 10
74.958149823
 20
163.433623772
  0
LINE
  5
23C
100
AcDbEntity
  8
RUNDUNGEN
100
AcDbLine
 62
7
  6
CONTINUOUS
 10
74.958149823
 20
163.433623772
 11
75.1326709829
 21
163.5231655555
  0
LINE
  5
23D
100
AcDbEntity
  8
RUNDUNGEN
100
AcDbLine
 62
7
  6
CONTINUOUS
 10
99.3297485328
 20
179.1312745102
 11
98.982904488
 21
178.9617063139
  0
LINE
  5
23E
100
AcDbEntity
  8
RUNDUNGEN
100
AcDbLine
 62
7
  6
CONTINUOUS
 10
81.4540094769
 20
173.2662230627
 11
81.8143224082
 21
173.4047340439
  0
LINE
  5
23F
100
AcDbEntity
  8
RUNDUNGEN
100
AcDbLine
 62
7
  6
CONTINUOUS
 10
127.1646959767
 20
32.5831956415
 11
127.5376099476
 21
32.682924482
  0
LINE
  5
240
100
AcDbEntity
  8
RUNDUNGEN
100
AcDbLine
 62
7
  6
CONTINUOUS
 10
145.0738634277
 20
38.3453652136
 11
144.6935910033
 21
38.2786789439
  0
LWPOLYLINE
  5
241
100
AcDbEntity
  8
RUNDUNGEN
100
AcDbPolyline
 62
7
  6
CONTINUOUS
 90
3
 70
0
 10
115.3238002232
 20
36.5915207746
 10
115.3433044462
 20
36.5948321835
 10
116.130150804
 20
36.7186759226
  0
LINE
  5
242
100
AcDbEntity
  8
RUNDUNGEN
100
AcDbLine
 62
7
  6
CONTINUOUS
 10
116.130150804
 20
36.7186759226
 11
116.3238002232
 21
36.7499052149
  0
LINE
  5
243
100
AcDbEntity
  8
RUNDUNGEN
100
AcDbLine
 62
7
  6
CONTINUOUS
 10
98.2249113967
 20
32.709095445
 11
97.8420256744
 21
32.6607325765
  0
LINE
  5
244
100
AcDbEntity
  8
RUNDUNGEN
100
AcDbLine
 62
7
  6
CONTINUOUS
 10
127.5376099476
 20
32.682924482
 11
127.9226890352
 21
32.70909539
  0
LINE
  5
245
100
AcDbEntity
  8
RUNDUNGEN
100
AcDbLine
 62
7
  6
CONTINUOUS
 10
98.6099904936
 20
32.6829245361
 11
98.2249113967
 21
32.709095445
  0
LINE
  5
246
100
AcDbEntity
  8
RUNDUNGEN
100
AcDbLine
 62
7
  6
CONTINUOUS
 10
127.9226890352
 20
32.70909539
 11
128.3055747516
 21
32.6607325227
  0
LWPOLYLINE
  5
247
100
AcDbEntity
  8
RUNDUNGEN
100
AcDbPolyline
 62
7
  6
CONTINUOUS
 90
3
 70
0
 10
110.8238002232
 20
36.5915207746
 10
110.8042273233
 20
36.594398574
 10
110.0176221473
 20
36.7197650754
  0
LINE
  5
248
100
AcDbEntity
  8
RUNDUNGEN
100
AcDbLine
 62
7
  6
CONTINUOUS
 10
110.0176221473
 20
36.7197650754
 11
109.8238002232
 21
36.7499052149
  0
LINE
  5
249
100
AcDbEntity
  8
RUNDUNGEN
100
AcDbLine
 62
7
  6
CONTINUOUS
 10
81.0737370086
 20
38.3453651633
 11
81.4540094439
 21
38.2786788886
  0
LINE
  5
24A
100
AcDbEntity
  8
RUNDUNGEN
100
AcDbLine
 62
7
  6
CONTINUOUS
 10
98.9829045029
 20
32.5831956858
 11
98.6099904936
 21
32.6829245361
  0
LINE
  5
24B
100
AcDbEntity
  8
RUNDUNGEN
100
AcDbLine
 62
7
  6
CONTINUOUS
 10
81.4540094439
 20
38.2786788886
 11
81.8143223255
 21
38.1401678829
  0
LINE
  5
24C
100
AcDbEntity
  8
RUNDUNGEN
100
AcDbLine
 62
7
  6
CONTINUOUS
 10
99.3297485626
 20
32.4136274883
 11
98.9829045029
 21
32.5831956858
  0
LWPOLYLINE
  5
24D
100
AcDbEntity
  8
RUNDUNGEN
100
AcDbPolyline
 62
7
  6
CONTINUOUS
 90
3
 70
0
 10
74.2305579503
 20
48.4813859381
 10
74.2482835954
 20
48.4726006295
 10
74.9576491944
 20
48.1102956342
  0
LINE
  5
24E
100
AcDbEntity
  8
RUNDUNGEN
100
AcDbLine
 62
7
  6
CONTINUOUS
 10
74.9576491944
 20
48.1102956342
 11
75.1326709829
 21
48.0217363897
  0
LINE
  5
24F
100
AcDbEntity
  8
RUNDUNGEN
100
AcDbLine
 62
7
  6
CONTINUOUS
 10
58.1152339528
 20
55.3909125499
 11
57.7770459157
 21
55.5768407482
  0
LINE
  5
250
100
AcDbEntity
  8
RUNDUNGEN
100
AcDbLine
 62
7
  6
CONTINUOUS
 10
81.8143223255
 20
38.1401678829
 11
82.1412407252
 21
37.9349967836
  0
LINE
  5
251
100
AcDbEntity
  8
RUNDUNGEN
100
AcDbLine
 62
7
  6
CONTINUOUS
 10
58.4113866122
 20
55.1433960257
 11
58.1152339528
 21
55.3909125499
  0
LINE
  5
252
100
AcDbEntity
  8
RUNDUNGEN
100
AcDbLine
 62
7
  6
CONTINUOUS
 10
82.1412407252
 20
37.9349967836
 11
82.4225747966
 21
37.6708158247
  0
LWPOLYLINE
  5
253
100
AcDbEntity
  8
RUNDUNGEN
100
AcDbPolyline
 62
7
  6
CONTINUOUS
 90
3
 70
0
 10
70.5899814756
 20
51.1264195734
 10
70.575838195
 20
51.140252424
 10
70.0131498204
 20
51.704030976
  0
LINE
  5
254
100
AcDbEntity
  8
RUNDUNGEN
100
AcDbLine
 62
7
  6
CONTINUOUS
 10
70.0131498204
 20
51.704030976
 11
69.8740605195
 21
51.8423405296
  0
LINE
  5
255
100
AcDbEntity
  8
RUNDUNGEN
100
AcDbLine
 62
7
  6
CONTINUOUS
 10
47.5525586178
 20
70.0319579016
 11
47.8210082716
 21
69.7544890428
  0
LINE
  5
256
100
AcDbEntity
  8
RUNDUNGEN
100
AcDbLine
 62
7
  6
CONTINUOUS
 10
58.6544612357
 20
54.8435203359
 11
58.4113866122
 21
55.1433960257
  0
LINE
  5
257
100
AcDbEntity
  8
RUNDUNGEN
100
AcDbLine
 62
7
  6
CONTINUOUS
 10
47.8210082716
 20
69.7544890428
 11
48.0310927897
 21
69.4306446873
  0
LINE
  5
258
100
AcDbEntity
  8
RUNDUNGEN
100
AcDbLine
 62
7
  6
CONTINUOUS
 10
58.8353942886
 20
54.5024669594
 11
58.6544612357
 21
54.8435203359
  0
LWPOLYLINE
  5
259
100
AcDbEntity
  8
RUNDUNGEN
100
AcDbPolyline
 62
7
  6
CONTINUOUS
 90
3
 70
0
 10
47.9741139924
 20
82.2544906931
 10
47.9832904657
 20
82.2369643563
 10
48.3442217574
 20
81.5268988204
  0
LINE
  5
25A
100
AcDbEntity
  8
RUNDUNGEN
100
AcDbLine
 62
7
  6
CONTINUOUS
 10
48.3442217574
 20
81.5268988204
 11
48.4337635408
 21
81.3523776605
  0
LINE
  5
25B
100
AcDbEntity
  8
RUNDUNGEN
100
AcDbLine
 62
7
  6
CONTINUOUS
 10
38.9978608513
 20
97.3167649266
 11
38.8335468349
 21
97.6659659395
  0
LINE
  5
25C
100
AcDbEntity
  8
RUNDUNGEN
100
AcDbLine
 62
7
  6
CONTINUOUS
 10
48.0310927897
 20
69.4306446873
 11
48.1749787845
 21
69.0724999672
  0
LINE
  5
25D
100
AcDbEntity
  8
RUNDUNGEN
100
AcDbLine
 62
7
  6
CONTINUOUS
 10
39.0919668231
 20
96.9424456866
 11
38.9978608513
 21
97.3167649266
  0
LINE
  5
25E
100
AcDbEntity
  8
RUNDUNGEN
100
AcDbLine
 62
7
  6
CONTINUOUS
 10
48.1749787845
 20
69.0724999672
 11
48.2473011577
 21
68.6934090637
  0
LWPOLYLINE
  5
25F
100
AcDbEntity
  8
RUNDUNGEN
100
AcDbPolyline
 62
7
  6
CONTINUOUS
 90
3
 70
0
 10
46.5835375177
 20
86.5342450164
 10
46.5802261089
 20
86.5537492394
 10
46.4563823697
 20
87.3405955972
  0
LINE
  5
260
100
AcDbEntity
  8
RUNDUNGEN
100
AcDbLine
 62
7
  6
CONTINUOUS
 10
46.4563823697
 20
87.3405955972
 11
46.4251530774
 21
87.5342450164
  0
LINE
  5
261
100
AcDbEntity
  8
RUNDUNGEN
100
AcDbLine
 62
7
  6
CONTINUOUS
 10
39.0582675351
 20
115.3702042184
 11
39.112355764
 21
114.9879364474
  0
LINE
  5
262
100
AcDbEntity
  8
RUNDUNGEN
100
AcDbLine
 62
7
  6
CONTINUOUS
 10
47.682309506
 20
148.7495455457
 11
48.2453632085
 21
143.2373954499
  0
LINE
  5
263
100
AcDbEntity
  8
RUNDUNGEN
100
AcDbLine
 62
7
  6
CONTINUOUS
 10
48.2473012151
 20
142.8514928843
 11
48.2453632766
 21
143.237394794
  0
LINE
  5
264
100
AcDbEntity
  8
RUNDUNGEN
100
AcDbLine
 62
7
  6
CONTINUOUS
 10
48.2473011577
 20
68.6934090637
 11
48.2453632216
 21
68.3075071568
  0
LINE
  5
265
100
AcDbEntity
  8
RUNDUNGEN
100
AcDbLine
 62
7
  6
CONTINUOUS
 10
48.2453631997
 20
68.307506409
 11
47.682309506
 21
62.7953563995
  0
LINE
  5
266
100
AcDbEntity
  8
RUNDUNGEN
100
AcDbLine
 62
7
  6
CONTINUOUS
 10
58.9439331466
 20
157.410692122
 11
59.7873356981
 21
161.6077296446
  0
LINE
  5
267
100
AcDbEntity
  8
RUNDUNGEN
100
AcDbLine
 62
7
  6
CONTINUOUS
 10
58.9474392579
 20
157.4119491869
 11
58.8353942439
 21
157.0424350109
  0
LINE
  5
268
100
AcDbEntity
  8
RUNDUNGEN
100
AcDbLine
 62
7
  6
CONTINUOUS
 10
38.9317189229
 20
95.8098960487
 11
39.0582675864
 21
96.1746977206
  0
LINE
  5
269
100
AcDbEntity
  8
RUNDUNGEN
100
AcDbLine
 62
7
  6
CONTINUOUS
 10
37.1450122202
 20
91.9218048336
 11
38.9296212691
 21
95.8129739343
  0
LINE
  5
26A
100
AcDbEntity
  8
RUNDUNGEN
100
AcDbLine
 62
7
  6
CONTINUOUS
 10
85.4322753219
 20
178.9778047201
 11
82.6478348373
 21
174.1874270164
  0
LINE
  5
26B
100
AcDbEntity
  8
RUNDUNGEN
100
AcDbLine
 62
7
  6
CONTINUOUS
 10
82.4225749116
 20
173.8740860618
 11
82.6478345394
 21
174.187426344
  0
LINE
  5
26C
100
AcDbEntity
  8
RUNDUNGEN
100
AcDbLine
 62
7
  6
CONTINUOUS
 10
38.8335467902
 20
113.8789360416
 11
38.6051515172
 21
113.567873931
  0
LINE
  5
26D
100
AcDbEntity
  8
RUNDUNGEN
100
AcDbLine
 62
7
  6
CONTINUOUS
 10
38.6051510597
 20
113.5678733386
 11
34.909670569
 21
109.4394049631
  0
LINE
  5
26E
100
AcDbEntity
  8
0
100
AcDbLine
 62
7
  6
CONTINUOUS
 10
88.9080862209
 20
168.0573993111
 11
88.7921429443
 21
167.9428070018
  0
LINE
  5
26F
100
AcDbEntity
  8
0
100
AcDbLine
 62
7
  6
CONTINUOUS
 10
90.29323972
 20
168.779428945
 11
90.1742117311
 21
168.6680441227
  0
LINE
  5
270
100
AcDbEntity
  8
RUNDUNGEN
100
AcDbLine
 62
7
  6
CONTINUOUS
 10
102.7832785305
 20
182.2651201755
 11
99.6340075652
 21
179.3653968526
  0
LINE
  5
271
100
AcDbEntity
  8
RUNDUNGEN
100
AcDbLine
 62
7
  6
CONTINUOUS
 10
99.6375898363
 20
179.3643593538
 11
99.3297485328
 21
179.1312745102
  0
LINE
  5
272
100
AcDbEntity
  8
0
100
AcDbLine
 62
7
  6
CONTINUOUS
 10
91.499852679
 20
169.2701286078
 11
91.3306470324
 21
169.1458562713
  0
LINE
  5
273
100
AcDbEntity
  8
0
100
AcDbLine
 62
7
  6
CONTINUOUS
 10
91.5068411783
 20
168.9357528297
 11
91.6760470961
 21
169.0600252575
  0
LINE
  5
274
100
AcDbEntity
  8
0
100
AcDbLine
 62
7
  6
CONTINUOUS
 10
92.5232993841
 20
167.7961276178
 11
92.3540934735
 21
167.6718551688
  0
LINE
  5
275
100
AcDbEntity
  8
0
100
AcDbLine
 62
7
  6
CONTINUOUS
 10
92.5302878976
 20
167.4617517973
 11
92.6994935425
 21
167.5860241391
  0
LINE
  5
276
100
AcDbEntity
  8
0
100
AcDbLine
 62
7
  6
CONTINUOUS
 10
88.886722626
 20
167.5683375816
 11
89.095635276
 21
167.7197633695
  0
LINE
  5
277
100
AcDbEntity
  8
RUNDUNGEN
100
AcDbLine
 62
7
  6
CONTINUOUS
 10
47.2357535933
 20
141.2921966949
 11
47.5525586555
 21
141.5129440087
  0
LINE
  5
278
100
AcDbEntity
  8
0
100
AcDbLine
 62
7
  6
CONTINUOUS
 10
90.5062077141
 20
168.9250957792
 11
90.29323972
 21
168.779428945
  0
LINE
  5
279
100
AcDbEntity
  8
0
100
AcDbLine
 62
7
  6
CONTINUOUS
 10
94.8422722069
 20
170.3089651635
 11
94.6671577462
 21
170.1931675378
  0
LINE
  5
27A
100
AcDbEntity
  8
0
100
AcDbLine
 62
7
  6
CONTINUOUS
 10
94.7365687047
 20
169.9474645238
 11
94.9116831655
 21
170.0632621495
  0
LINE
  5
27B
100
AcDbEntity
  8
0
100
AcDbLine
 62
7
  6
CONTINUOUS
 10
90.3556803503
 20
168.4624791124
 11
90.6156184814
 21
168.6252870015
  0
LINE
  5
27C
100
AcDbEntity
  8
RUNDUNGEN
100
AcDbLine
 62
7
  6
CONTINUOUS
 10
43.5049148312
 20
139.1968646757
 11
47.2358656283
 21
141.2959196904
  0
LINE
  5
27D
100
AcDbEntity
  8
RUNDUNGEN
100
AcDbLine
 62
7
  6
CONTINUOUS
 10
133.7403641492
 20
181.2441069214
 11
128.6719910442
 21
179.0052629732
  0
LINE
  5
27E
100
AcDbEntity
  8
0
100
AcDbLine
 62
7
  6
CONTINUOUS
 10
88.2754439185
 20
169.1112328126
 11
87.1598119695
 21
168.6692312806
  0
LINE
  5
27F
100
AcDbEntity
  8
0
100
AcDbLine
 62
7
  6
CONTINUOUS
 10
87.5562735417
 20
168.4830210742
 11
88.4394821237
 21
168.8329389362
  0
LINE
  5
280
100
AcDbEntity
  8
0
100
AcDbLine
 62
7
  6
CONTINUOUS
 10
88.7921429443
 20
167.9428070018
 11
87.9089343623
 21
167.5928891399
  0
LINE
  5
281
100
AcDbEntity
  8
0
100
AcDbLine
 62
7
  6
CONTINUOUS
 10
88.0499986642
 20
167.2368364326
 11
88.886722626
 21
167.5683375816
  0
LINE
  5
282
100
AcDbEntity
  8
0
100
AcDbLine
 62
7
  6
CONTINUOUS
 10
88.2648157994
 20
165.880151408
 11
88.5437237867
 21
165.990651791
  0
LINE
  5
283
100
AcDbEntity
  8
0
100
AcDbLine
 62
7
  6
CONTINUOUS
 10
89.8955970079
 20
168.702262457
 11
89.6607468603
 21
168.6165573784
  0
LINE
  5
284
100
AcDbEntity
  8
0
100
AcDbLine
 62
7
  6
CONTINUOUS
 10
90.3609758327
 20
166.6977810334
 11
90.5958259803
 21
166.7834861121
  0
LINE
  5
285
100
AcDbEntity
  8
0
100
AcDbLine
 62
7
  6
CONTINUOUS
 10
91.8789717691
 20
169.3976780812
 11
91.499852679
 21
169.2701286078
  0
LINE
  5
286
100
AcDbEntity
  8
0
100
AcDbLine
 62
7
  6
CONTINUOUS
 10
91.6760470961
 20
169.0600252575
 11
91.8656063699
 21
169.1237999029
  0
LINE
  5
287
100
AcDbEntity
  8
0
100
AcDbLine
 62
7
  6
CONTINUOUS
 10
92.3540934735
 20
167.6718551688
 11
92.1645341996
 21
167.6080805234
  0
LINE
  5
288
100
AcDbEntity
  8
0
100
AcDbLine
 62
7
  6
CONTINUOUS
 10
92.1511688076
 20
167.3342023239
 11
92.5302878976
 21
167.4617517973
  0
LINE
  5
289
100
AcDbEntity
  8
RUNDUNGEN
100
AcDbLine
 62
7
  6
CONTINUOUS
 10
128.3055747719
 20
178.8841693689
 11
128.6719904419
 21
179.0052627062
  0
LINE
  5
28A
100
AcDbEntity
  8
RUNDUNGEN
100
AcDbLine
 62
7
  6
CONTINUOUS
 10
57.7770459007
 20
155.9680612525
 11
57.4094325223
 21
155.8506540918
  0
LINE
  5
28B
100
AcDbEntity
  8
0
100
AcDbLine
 62
7
  6
CONTINUOUS
 10
92.8215580345
 20
170.7073910798
 11
92.5830333095
 21
170.6325175135
  0
LINE
  5
28C
100
AcDbEntity
  8
0
100
AcDbLine
 62
7
  6
CONTINUOUS
 10
93.4815154202
 20
167.7702229974
 11
93.7200401451
 21
167.8450965637
  0
LINE
  5
28D
100
AcDbEntity
  8
0
100
AcDbLine
 62
7
  6
CONTINUOUS
 10
93.4717113441
 20
170.9066038571
 11
93.2324500423
 21
170.834118515
  0
LINE
  5
28E
100
AcDbEntity
  8
0
100
AcDbLine
 62
7
  6
CONTINUOUS
 10
93.3249844399
 20
170.5286788247
 11
93.5642457417
 21
170.6011641667
  0
LINE
  5
28F
100
AcDbEntity
  8
0
100
AcDbLine
 62
7
  6
CONTINUOUS
 10
93.7493145888
 20
169.9902846149
 11
93.5100532869
 21
169.9177992728
  0
LINE
  5
290
100
AcDbEntity
  8
0
100
AcDbLine
 62
7
  6
CONTINUOUS
 10
94.1022734834
 20
167.9629850835
 11
94.3415347852
 21
168.0354704256
  0
LINE
  5
291
100
AcDbEntity
  8
RUNDUNGEN
100
AcDbLine
 62
7
  6
CONTINUOUS
 10
168.7381686421
 20
55.6942480636
 11
174.1545279875
 21
56.8621002076
  0
LINE
  5
292
100
AcDbEntity
  8
RUNDUNGEN
100
AcDbLine
 62
7
  6
CONTINUOUS
 10
80.6899633414
 20
38.3347940911
 11
76.43776784
 21
37.8399674937
  0
LINE
  5
293
100
AcDbEntity
  8
RUNDUNGEN
100
AcDbLine
 62
7
  6
CONTINUOUS
 10
80.6876843302
 20
38.3377401439
 11
81.0737370086
 21
38.3453651633
  0
LINE
  5
294
100
AcDbEntity
  8
RUNDUNGEN
100
AcDbLine
 62
7
  6
CONTINUOUS
 10
145.4599161226
 20
38.3377401985
 11
145.0738634277
 21
38.3453652136
  0
LINE
  5
295
100
AcDbEntity
  8
RUNDUNGEN
100
AcDbLine
 62
7
  6
CONTINUOUS
 10
149.7098266469
 20
37.8399681872
 11
145.4576371625
 21
38.3347940844
  0
LINE
  5
296
100
AcDbEntity
  8
RUNDUNGEN
100
AcDbLine
 62
7
  6
CONTINUOUS
 10
51.9930724589
 20
56.8621002076
 11
57.4094318892
 21
55.6942480453
  0
LINE
  5
297
100
AcDbEntity
  8
RUNDUNGEN
100
AcDbLine
 62
7
  6
CONTINUOUS
 10
57.7770459157
 20
55.5768407482
 11
57.4094325339
 21
55.6942479074
  0
LINE
  5
298
100
AcDbEntity
  8
RUNDUNGEN
100
AcDbLine
 62
7
  6
CONTINUOUS
 10
128.3055747516
 20
32.6607325227
 11
128.6719904196
 21
32.5396391886
  0
LINE
  5
299
100
AcDbEntity
  8
RUNDUNGEN
100
AcDbLine
 62
7
  6
CONTINUOUS
 10
128.6719911241
 20
32.5396389367
 11
133.7403641492
 21
30.3007950237
  0
LINE
  5
29A
100
AcDbEntity
  8
RUNDUNGEN
100
AcDbLine
 62
7
  6
CONTINUOUS
 10
47.2358656787
 20
70.2489822264
 11
43.5049154782
 21
72.3480369055
  0
LINE
  5
29B
100
AcDbEntity
  8
RUNDUNGEN
100
AcDbLine
 62
7
  6
CONTINUOUS
 10
47.2357535663
 20
70.2527052024
 11
47.5525586178
 21
70.0319579016
  0
LINE
  5
29C
100
AcDbEntity
  8
RUNDUNGEN
100
AcDbLine
 62
7
  6
CONTINUOUS
 10
99.637589882
 20
32.180542641
 11
99.3297485626
 21
32.4136274883
  0
LINE
  5
29D
100
AcDbEntity
  8
RUNDUNGEN
100
AcDbLine
 62
7
  6
CONTINUOUS
 10
102.7832566735
 20
29.2798018947
 11
99.6340144821
 21
32.1794987237
  0
LINE
  5
29E
100
AcDbEntity
  8
RUNDUNGEN
100
AcDbLine
 62
7
  6
CONTINUOUS
 10
34.909670569
 20
102.105496982
 11
38.6051511182
 21
97.9770285412
  0
LINE
  5
29F
100
AcDbEntity
  8
RUNDUNGEN
100
AcDbLine
 62
7
  6
CONTINUOUS
 10
38.8335468349
 20
97.6659659395
 11
38.6051515583
 21
97.9770280509
  0
LINE
  5
2A0
100
AcDbEntity
  8
RUNDUNGEN
100
AcDbLine
 62
7
  6
CONTINUOUS
 10
82.4225747966
 20
37.6708158247
 11
82.6478344231
 21
37.3574755336
  0
LINE
  5
2A1
100
AcDbEntity
  8
RUNDUNGEN
100
AcDbLine
 62
7
  6
CONTINUOUS
 10
82.6478348449
 20
37.3574749157
 11
85.4322753219
 21
32.5670972251
  0
LINE
  5
2A2
100
AcDbEntity
  8
RUNDUNGEN
100
AcDbLine
 62
7
  6
CONTINUOUS
 10
38.929621253
 20
115.7319280459
 11
37.1449914912
 21
119.6231423092
  0
LINE
  5
2A3
100
AcDbEntity
  8
RUNDUNGEN
100
AcDbLine
 62
7
  6
CONTINUOUS
 10
38.9317188725
 20
115.7350058733
 11
39.0582675351
 21
115.3702042184
  0
LINE
  5
2A4
100
AcDbEntity
  8
RUNDUNGEN
100
AcDbLine
 62
7
  6
CONTINUOUS
 10
58.9474393118
 20
54.1329527691
 11
58.8353942886
 21
54.5024669594
  0
LINE
  5
2A5
100
AcDbEntity
  8
RUNDUNGEN
100
AcDbLine
 62
7
  6
CONTINUOUS
 10
59.7873259017
 20
49.9372210504
 11
58.9439331533
 21
54.1342097896
  0
LINE
  5
2A6
100
AcDbEntity
  8
0
100
AcDbLine
 62
7
  6
CONTINUOUS
 10
90.2115643779
 20
168.2739914796
 11
90.3556803503
 21
168.4624791124
  0
LINE
  5
2A7
100
AcDbEntity
  8
0
100
AcDbLine
 62
7
  6
CONTINUOUS
 10
91.3306470324
 20
169.1458562713
 11
91.2562207516
 21
169.0534711662
  0
LINE
  5
2A8
100
AcDbEntity
  8
0
100
AcDbLine
 62
7
  6
CONTINUOUS
 10
92.6994935425
 20
167.5860241391
 11
92.7739195504
 21
167.6784091582
  0
LINE
  5
2A9
100
AcDbEntity
  8
0
100
AcDbLine
 62
7
  6
CONTINUOUS
 10
128.7639340571
 20
171.3905335068
 11
128.6318539556
 21
171.3358157906
  0
LINE
  5
2AA
100
AcDbEntity
  8
0
100
AcDbLine
 62
7
  6
CONTINUOUS
 10
89.095635276
 20
167.7197633695
 11
89.2110417389
 21
167.9714566276
  0
LINE
  5
2AB
100
AcDbEntity
  8
0
100
AcDbLine
 62
7
  6
CONTINUOUS
 10
90.1742117311
 20
168.6680441227
 11
90.0770658958
 21
168.4966975448
  0
LINE
  5
2AC
100
AcDbEntity
  8
0
100
AcDbLine
 62
7
  6
CONTINUOUS
 10
94.6671577462
 20
170.1931675378
 11
94.5575126875
 21
170.0295370878
  0
LINE
  5
2AD
100
AcDbEntity
  8
0
100
AcDbLine
 62
7
  6
CONTINUOUS
 10
94.6269236461
 20
169.7838340738
 11
94.7365687047
 21
169.9474645238
  0
LINE
  5
2AE
100
AcDbEntity
  8
0
100
AcDbLine
 62
7
  6
CONTINUOUS
 10
128.6285167983
 20
171.076558132
 11
128.7325324696
 21
171.138069008
  0
LINE
  5
2AF
100
AcDbEntity
  8
0
100
AcDbLine
 62
7
  6
CONTINUOUS
 10
128.8743231563
 20
169.7600761341
 11
128.7703074781
 21
169.6985652294
  0
LINE
  5
2B0
100
AcDbEntity
  8
0
100
AcDbLine
 62
7
  6
CONTINUOUS
 10
131.4431070599
 20
169.026552156
 11
131.3366713396
 21
168.9693307859
  0
LINE
  5
2B1
100
AcDbEntity
  8
0
100
AcDbLine
 62
7
  6
CONTINUOUS
 10
132.5520451374
 20
170.0594994269
 11
132.6595698845
 21
170.1146466776
  0
LINE
  5
2B2
100
AcDbEntity
  8
0
100
AcDbLine
 62
7
  6
CONTINUOUS
 10
132.6107466499
 20
168.675475216
 11
132.5032215869
 21
168.6203280623
  0
LINE
  5
2B3
100
AcDbEntity
  8
0
100
AcDbLine
 62
7
  6
CONTINUOUS
 10
131.1863433277
 20
170.0199667857
 11
131.0128074311
 21
169.938100318
  0
LINE
  5
2B4
100
AcDbEntity
  8
0
100
AcDbLine
 62
7
  6
CONTINUOUS
 10
131.306579501
 20
168.7588628944
 11
131.4801154006
 21
168.8407293727
  0
LINE
  5
2B5
100
AcDbEntity
  8
0
100
AcDbLine
 62
7
  6
CONTINUOUS
 10
134.9736366369
 20
169.275394124
 11
135.0831738062
 21
169.3264279977
  0
LINE
  5
2B6
100
AcDbEntity
  8
0
100
AcDbLine
 62
7
  6
CONTINUOUS
 10
134.9798606334
 20
167.8901396923
 11
134.8703234641
 21
167.8391058186
  0
LINE
  5
2B7
100
AcDbEntity
  8
0
100
AcDbLine
 62
7
  6
CONTINUOUS
 10
132.6937367021
 20
170.3244915029
 11
132.5186462811
 21
170.2460047498
  0
LINE
  5
2B8
100
AcDbEntity
  8
0
100
AcDbLine
 62
7
  6
CONTINUOUS
 10
132.4690553935
 20
168.4104830185
 11
132.6441455018
 21
168.488969879
  0
LINE
  5
2B9
100
AcDbEntity
  8
0
100
AcDbLine
 62
7
  6
CONTINUOUS
 10
137.5141502323
 20
168.2964056699
 11
137.625675949
 21
168.3429337502
  0
LINE
  5
2BA
100
AcDbEntity
  8
0
100
AcDbLine
 62
7
  6
CONTINUOUS
 10
137.5754486016
 20
166.9585762404
 11
137.4639228741
 21
166.9120481326
  0
LINE
  5
2BB
100
AcDbEntity
  8
0
100
AcDbLine
 62
7
  6
CONTINUOUS
 10
128.7389057239
 20
169.4461007444
 11
128.8709859886
 21
169.5008184325
  0
LINE
  5
2BC
100
AcDbEntity
  8
0
100
AcDbLine
 62
7
  6
CONTINUOUS
 10
135.1252656393
 20
169.5348279447
 11
134.9473276884
 21
169.4630308962
  0
LINE
  5
2BD
100
AcDbEntity
  8
0
100
AcDbLine
 62
7
  6
CONTINUOUS
 10
134.8282316226
 20
167.6307058472
 11
135.006169577
 21
167.7025029061
  0
LINE
  5
2BE
100
AcDbEntity
  8
0
100
AcDbLine
 62
7
  6
CONTINUOUS
 10
138.7382976795
 20
167.8496156007
 11
138.8507142426
 21
167.8939480276
  0
LINE
  5
2BF
100
AcDbEntity
  8
0
100
AcDbLine
 62
7
  6
CONTINUOUS
 10
138.6291201481
 20
167.4386542222
 11
138.4042870218
 21
167.3499893686
  0
LINE
  5
2C0
100
AcDbEntity
  8
0
100
AcDbLine
 62
7
  6
CONTINUOUS
 10
138.4621160616
 20
167.1888406509
 11
138.5745326247
 21
167.2331730777
  0
LINE
  5
2C1
100
AcDbEntity
  8
0
100
AcDbLine
 62
7
  6
CONTINUOUS
 10
138.7408611916
 20
166.4331032212
 11
138.6284446284
 21
166.3887707944
  0
LINE
  5
2C2
100
AcDbEntity
  8
0
100
AcDbLine
 62
7
  6
CONTINUOUS
 10
138.905301766
 20
168.0994291721
 11
138.7233569654
 21
168.0384978237
  0
LINE
  5
2C3
100
AcDbEntity
  8
0
100
AcDbLine
 62
7
  6
CONTINUOUS
 10
138.5738558755
 20
166.1832901358
 11
138.7558019
 21
166.2442209847
  0
LINE
  5
2C4
100
AcDbEntity
  8
0
100
AcDbLine
 62
7
  6
CONTINUOUS
 10
88.9540341604
 20
168.2129170255
 11
88.9080862209
 21
168.0573993111
  0
LINE
  5
2C5
100
AcDbEntity
  8
0
100
AcDbLine
 62
7
  6
CONTINUOUS
 10
90.0770658958
 20
168.4966975448
 11
90.0268899287
 21
168.3424919239
  0
LINE
  5
2C6
100
AcDbEntity
  8
0
100
AcDbLine
 62
7
  6
CONTINUOUS
 10
91.2562207516
 20
169.0534711662
 11
91.2021483691
 21
168.9005884614
  0
LINE
  5
2C7
100
AcDbEntity
  8
0
100
AcDbLine
 62
7
  6
CONTINUOUS
 10
91.4527687958
 20
168.7828701248
 11
91.5068411783
 21
168.9357528297
  0
LINE
  5
2C8
100
AcDbEntity
  8
0
100
AcDbLine
 62
7
  6
CONTINUOUS
 10
92.5773717666
 20
167.9490103226
 11
92.5232993841
 21
167.7961276178
  0
LINE
  5
2C9
100
AcDbEntity
  8
0
100
AcDbLine
 62
7
  6
CONTINUOUS
 10
92.7739195504
 20
167.6784091582
 11
92.8279922004
 21
167.8312919649
  0
LINE
  5
2CA
100
AcDbEntity
  8
0
100
AcDbLine
 62
7
  6
CONTINUOUS
 10
96.8295515119
 20
170.8379154032
 11
96.4340675326
 21
169.7503505721
  0
LINE
  5
2CB
100
AcDbEntity
  8
0
100
AcDbLine
 62
7
  6
CONTINUOUS
 10
94.5575126875
 20
170.0295370878
 11
94.4959842913
 21
169.8794995669
  0
LINE
  5
2CC
100
AcDbEntity
  8
0
100
AcDbLine
 62
7
  6
CONTINUOUS
 10
94.5653952498
 20
169.6337965529
 11
94.6269236461
 21
169.7838340738
  0
LINE
  5
2CD
100
AcDbEntity
  8
0
100
AcDbLine
 62
7
  6
CONTINUOUS
 10
96.5279423512
 20
169.3790552906
 11
96.6920868583
 21
169.7497474747
  0
LINE
  5
2CE
100
AcDbEntity
  8
0
100
AcDbLine
 62
7
  6
CONTINUOUS
 10
128.6318539556
 20
171.3358157906
 11
128.4799516341
 21
171.1992076799
  0
LINE
  5
2CF
100
AcDbEntity
  8
0
100
AcDbLine
 62
7
  6
CONTINUOUS
 10
132.5186462811
 20
170.2460047498
 11
132.3987668504
 21
170.1505821833
  0
LINE
  5
2D0
100
AcDbEntity
  8
0
100
AcDbLine
 62
7
  6
CONTINUOUS
 10
134.9473276884
 20
169.4630308962
 11
134.8239191489
 21
169.3722185815
  0
LINE
  5
2D1
100
AcDbEntity
  8
0
100
AcDbLine
 62
7
  6
CONTINUOUS
 10
137.5533253617
 20
168.552708148
 11
137.383983219
 21
168.438430556
  0
LINE
  5
2D2
100
AcDbEntity
  8
0
100
AcDbLine
 62
7
  6
CONTINUOUS
 10
138.3763406297
 20
167.1333731307
 11
138.4621160616
 21
167.1888406509
  0
LINE
  5
2D3
100
AcDbEntity
  8
0
100
AcDbLine
 62
7
  6
CONTINUOUS
 10
131.010480232
 20
169.7197012766
 11
131.1562514962
 21
169.8094989191
  0
LINE
  5
2D4
100
AcDbEntity
  8
0
100
AcDbLine
 62
7
  6
CONTINUOUS
 10
89.2110417389
 20
167.9714566276
 11
89.2564528646
 21
168.2640752906
  0
LINE
  5
2D5
100
AcDbEntity
  8
0
100
AcDbLine
 62
7
  6
CONTINUOUS
 10
91.2021483691
 20
168.9005884614
 11
91.1684296139
 21
168.6872080654
  0
LINE
  5
2D6
100
AcDbEntity
  8
0
100
AcDbLine
 62
7
  6
CONTINUOUS
 10
91.4190497694
 20
168.5694896376
 11
91.4527687958
 21
168.7828701248
  0
LINE
  5
2D7
100
AcDbEntity
  8
0
100
AcDbLine
 62
7
  6
CONTINUOUS
 10
92.6110905075
 20
168.162390761
 11
92.5773717666
 21
167.9490103226
  0
LINE
  5
2D8
100
AcDbEntity
  8
0
100
AcDbLine
 62
7
  6
CONTINUOUS
 10
90.1581828495
 20
167.9827213907
 11
90.2115643779
 21
168.2739914796
  0
LINE
  5
2D9
100
AcDbEntity
  8
0
100
AcDbLine
 62
7
  6
CONTINUOUS
 10
96.7905734297
 20
169.9721628438
 11
97.1203989623
 21
170.9114505462
  0
LINE
  5
2DA
100
AcDbEntity
  8
0
100
AcDbLine
 62
7
  6
CONTINUOUS
 10
82.7511007377
 20
118.1175606862
 11
100.7286905096
 21
136.095150458
  0
LINE
  5
2DB
100
AcDbEntity
  8
0
100
AcDbLine
 62
7
  6
CONTINUOUS
 10
128.8709859886
 20
169.5008184325
 11
129.0228883135
 21
169.6374265575
  0
LINE
  5
2DC
100
AcDbEntity
  8
0
100
AcDbLine
 62
7
  6
CONTINUOUS
 10
134.4017101271
 20
169.8246512971
 11
134.144169376
 21
169.5995945295
  0
LINE
  5
2DD
100
AcDbEntity
  8
0
100
AcDbLine
 62
7
  6
CONTINUOUS
 10
134.037696417
 20
169.279833834
 11
134.2952372053
 21
169.5048907137
  0
LINE
  5
2DE
100
AcDbEntity
  8
0
100
AcDbLine
 62
7
  6
CONTINUOUS
 10
138.7233569654
 20
168.0384978237
 11
138.5784484526
 21
167.9164271803
  0
LINE
  5
2DF
100
AcDbEntity
  8
0
100
AcDbLine
 62
7
  6
CONTINUOUS
 10
132.6441455018
 20
168.488969879
 11
132.7640249369
 21
168.5843924597
  0
LINE
  5
2E0
100
AcDbEntity
  8
0
100
AcDbLine
 62
7
  6
CONTINUOUS
 10
135.006169577
 20
167.7025029061
 11
135.1295781214
 21
167.7933152348
  0
LINE
  5
2E1
100
AcDbEntity
  8
0
100
AcDbLine
 62
7
  6
CONTINUOUS
 10
140.3379338559
 20
167.5319127946
 11
140.0603465535
 21
167.3321051954
  0
LINE
  5
2E2
100
AcDbEntity
  8
0
100
AcDbLine
 62
7
  6
CONTINUOUS
 10
139.9242388432
 20
167.0237902841
 11
140.2018261932
 21
167.2235979912
  0
LINE
  5
2E3
100
AcDbEntity
  8
0
100
AcDbLine
 62
7
  6
CONTINUOUS
 10
137.5362740706
 20
166.7022734782
 11
137.705615604
 21
166.8165513269
  0
LINE
  5
2E4
100
AcDbEntity
  8
0
100
AcDbLine
 62
7
  6
CONTINUOUS
 10
100.7286905096
 20
75.4497514871
 11
82.7511007377
 21
93.427341259
  0
LINE
  5
2E5
100
AcDbEntity
  8
0
100
AcDbLine
 62
7
  6
CONTINUOUS
 10
92.8279922004
 20
167.8312919649
 11
92.8617112197
 21
168.0446724733
  0
LINE
  5
2E6
100
AcDbEntity
  8
0
100
AcDbLine
 62
7
  6
CONTINUOUS
 10
132.3987668504
 20
170.1505821833
 11
132.294138389
 21
170.0064163456
  0
LINE
  5
2E7
100
AcDbEntity
  8
0
100
AcDbLine
 62
7
  6
CONTINUOUS
 10
134.8239191489
 20
169.3722185815
 11
134.713903633
 21
169.2321203014
  0
LINE
  5
2E8
100
AcDbEntity
  8
0
100
AcDbLine
 62
7
  6
CONTINUOUS
 10
128.9601852665
 20
169.8693254255
 11
128.8743231563
 21
169.7600761341
  0
LINE
  5
2E9
100
AcDbEntity
  8
0
100
AcDbLine
 62
7
  6
CONTINUOUS
 10
131.5333497028
 20
169.132211995
 11
131.4431070599
 21
169.026552156
  0
LINE
  5
2EA
100
AcDbEntity
  8
0
100
AcDbLine
 62
7
  6
CONTINUOUS
 10
132.3674969157
 20
169.8517184644
 11
132.5520451374
 21
170.0594994269
  0
LINE
  5
2EB
100
AcDbEntity
  8
0
100
AcDbLine
 62
7
  6
CONTINUOUS
 10
132.7952948457
 20
168.883256094
 11
132.6107466499
 21
168.675475216
  0
LINE
  5
2EC
100
AcDbEntity
  8
0
100
AcDbLine
 62
7
  6
CONTINUOUS
 10
131.4801154006
 20
168.8407293727
 11
131.6096935834
 21
168.97896547
  0
LINE
  5
2ED
100
AcDbEntity
  8
0
100
AcDbLine
 62
7
  6
CONTINUOUS
 10
134.7813489304
 20
169.0747541167
 11
134.9736366369
 21
169.275394124
  0
LINE
  5
2EE
100
AcDbEntity
  8
0
100
AcDbLine
 62
7
  6
CONTINUOUS
 10
135.1721483107
 20
168.090779616
 11
134.9798606334
 21
167.8901396923
  0
LINE
  5
2EF
100
AcDbEntity
  8
0
100
AcDbLine
 62
7
  6
CONTINUOUS
 10
137.6756007169
 20
167.0548950894
 11
137.5754486016
 21
166.9585762404
  0
LINE
  5
2F0
100
AcDbEntity
  8
0
100
AcDbLine
 62
7
  6
CONTINUOUS
 10
138.6362762728
 20
167.7552789723
 11
138.7382976795
 21
167.8496156007
  0
LINE
  5
2F1
100
AcDbEntity
  8
0
100
AcDbLine
 62
7
  6
CONTINUOUS
 10
138.8428826097
 20
166.5274398769
 11
138.7408611916
 21
166.4331032212
  0
LINE
  5
2F2
100
AcDbEntity
  8
0
100
AcDbLine
 62
7
  6
CONTINUOUS
 10
138.7558019
 20
166.2442209847
 11
138.9007104185
 21
166.3662916417
  0
LINE
  5
2F3
100
AcDbEntity
  8
0
100
AcDbLine
 62
7
  6
CONTINUOUS
 10
165.2876922099
 20
148.1019340453
 11
165.1199823101
 21
148.0418983587
  0
LINE
  5
2F4
100
AcDbEntity
  8
0
100
AcDbLine
 62
7
  6
CONTINUOUS
 10
167.8820979603
 20
144.6832285586
 11
167.7109621752
 21
144.6337973265
  0
LINE
  5
2F5
100
AcDbEntity
  8
0
100
AcDbLine
 62
7
  6
CONTINUOUS
 10
91.1684296139
 20
168.6872080654
 11
91.1821005415
 21
168.4897712852
  0
LINE
  5
2F6
100
AcDbEntity
  8
0
100
AcDbLine
 62
7
  6
CONTINUOUS
 10
91.2242006846
 20
98.2064084139
 11
91.2242006846
 21
99.0549365513
  0
LINE
  5
2F7
100
AcDbEntity
  8
0
100
AcDbLine
 62
7
  6
CONTINUOUS
 10
91.2242006846
 20
112.4899653938
 11
91.2242006846
 21
113.3384935313
  0
LINE
  5
2F8
100
AcDbEntity
  8
RUNDUNGEN
100
AcDbLine
 62
7
  6
CONTINUOUS
 10
117.8611036529
 20
182.7623981649
 11
115.3238002232
 21
174.9533811705
  0
LINE
  5
2F9
100
AcDbEntity
  8
RUNDUNGEN
100
AcDbLine
 62
7
  6
CONTINUOUS
 10
74.2305579503
 20
48.4813859381
 11
71.6932545206
 21
40.6723689437
  0
LINE
  5
2FA
100
AcDbEntity
  8
0
100
AcDbLine
 62
7
  6
CONTINUOUS
 10
128.5707190906
 20
170.960515566
 11
128.6285167983
 21
171.076558132
  0
LINE
  5
2FB
100
AcDbEntity
  8
0
100
AcDbLine
 62
7
  6
CONTINUOUS
 10
132.294138389
 20
170.0064163456
 11
132.2294699139
 21
169.8940578527
  0
LINE
  5
2FC
100
AcDbEntity
  8
0
100
AcDbLine
 62
7
  6
CONTINUOUS
 10
131.6096935834
 20
168.97896547
 11
131.7230786848
 21
169.1656400221
  0
LINE
  5
2FD
100
AcDbEntity
  8
0
100
AcDbLine
 62
7
  6
CONTINUOUS
 10
134.713903633
 20
169.2321203014
 11
134.64502509
 21
169.1222923913
  0
LINE
  5
2FE
100
AcDbEntity
  8
0
100
AcDbLine
 62
7
  6
CONTINUOUS
 10
129.0228883135
 20
169.6374265575
 11
129.1186614604
 21
169.7876210942
  0
LINE
  5
2FF
100
AcDbEntity
  8
0
100
AcDbLine
 62
7
  6
CONTINUOUS
 10
137.4408530263
 20
168.1894758739
 11
137.5141502323
 21
168.2964056699
  0
LINE
  5
300
100
AcDbEntity
  8
0
100
AcDbLine
 62
7
  6
CONTINUOUS
 10
138.5608971714
 20
167.6498066319
 11
138.6362762728
 21
167.7552789723
  0
LINE
  5
301
100
AcDbEntity
  8
0
100
AcDbLine
 62
7
  6
CONTINUOUS
 10
138.3009615511
 20
167.0279008447
 11
138.3763406297
 21
167.1333731307
  0
LINE
  5
302
100
AcDbEntity
  8
0
100
AcDbLine
 62
7
  6
CONTINUOUS
 10
132.7640249369
 20
168.5843924597
 11
132.868653091
 21
168.7285584225
  0
LINE
  5
303
100
AcDbEntity
  8
0
100
AcDbLine
 62
7
  6
CONTINUOUS
 10
138.5784484526
 20
167.9164271803
 11
138.4439350507
 21
167.7443522263
  0
LINE
  5
304
100
AcDbEntity
  8
0
100
AcDbLine
 62
7
  6
CONTINUOUS
 10
138.9007104185
 20
166.3662916417
 11
139.0352237862
 21
166.538366514
  0
LINE
  5
305
100
AcDbEntity
  8
0
100
AcDbLine
 62
7
  6
CONTINUOUS
 10
135.1295781214
 20
167.7933152348
 11
135.2395936471
 21
167.9334135427
  0
LINE
  5
306
100
AcDbEntity
  8
0
100
AcDbLine
 62
7
  6
CONTINUOUS
 10
137.705615604
 20
166.8165513269
 11
137.8212484669
 21
166.9520503778
  0
LINE
  5
307
100
AcDbEntity
  8
0
100
AcDbLine
 62
7
  6
CONTINUOUS
 10
91.2242006846
 20
113.3384935313
 11
105.5077576645
 21
127.6220505112
  0
LINE
  5
308
100
AcDbEntity
  8
0
100
AcDbLine
 62
7
  6
CONTINUOUS
 10
85.4726120896
 20
106.7383767989
 11
91.2242006846
 21
112.4899653938
  0
LINE
  5
309
100
AcDbEntity
  8
0
100
AcDbLine
 62
7
  6
CONTINUOUS
 10
106.3562858019
 20
127.6220505112
 11
112.1078743969
 21
133.3736391062
  0
LINE
  5
30A
100
AcDbEntity
  8
RUNDUNGEN
100
AcDbLine
 62
7
  6
CONTINUOUS
 10
162.2003655895
 20
165.244720293
 11
155.5576189708
 21
160.4184823717
  0
LINE
  5
30B
100
AcDbEntity
  8
RUNDUNGEN
100
AcDbLine
 62
7
  6
CONTINUOUS
 10
47.9741139924
 20
82.2544906931
 11
41.3313673737
 21
77.4282527718
  0
LINE
  5
30C
100
AcDbEntity
  8
0
100
AcDbLine
 62
7
  6
CONTINUOUS
 10
164.3861980206
 20
148.8616154116
 11
164.501792523
 21
148.9203040782
  0
LINE
  5
30D
100
AcDbEntity
  8
0
100
AcDbLine
 62
7
  6
CONTINUOUS
 10
167.7109621752
 20
144.6337973265
 11
167.5908969486
 21
144.5849014877
  0
LINE
  5
30E
100
AcDbEntity
  8
0
100
AcDbLine
 62
7
  6
CONTINUOUS
 10
163.9602110653
 20
147.5298659905
 11
164.1266557014
 21
147.5933252502
  0
LINE
  5
30F
100
AcDbEntity
  8
0
100
AcDbLine
 62
7
  6
CONTINUOUS
 10
169.4365694577
 20
142.9341240884
 11
167.7249379082
 21
142.3107818696
  0
LINE
  5
310
100
AcDbEntity
  8
0
100
AcDbLine
 62
7
  6
CONTINUOUS
 10
164.8140783759
 20
146.4672430179
 11
164.9817882471
 21
146.5272787875
  0
LINE
  5
311
100
AcDbEntity
  8
0
100
AcDbLine
 62
7
  6
CONTINUOUS
 10
167.6140252772
 20
142.0976922557
 11
169.1345007432
 21
142.6279667593
  0
LINE
  5
312
100
AcDbEntity
  8
0
100
AcDbLine
 62
7
  6
CONTINUOUS
 10
170.3363127852
 20
141.5321539864
 11
168.6098223879
 21
140.9512331733
  0
LINE
  5
313
100
AcDbEntity
  8
0
100
AcDbLine
 62
7
  6
CONTINUOUS
 10
168.4936855396
 20
140.7409455724
 11
170.0267821113
 21
141.2335429009
  0
LINE
  5
314
100
AcDbEntity
  8
0
100
AcDbLine
 62
7
  6
CONTINUOUS
 10
167.2077519597
 20
143.2232214843
 11
167.3788879587
 21
143.2726524628
  0
LINE
  5
315
100
AcDbEntity
  8
0
100
AcDbLine
 62
7
  6
CONTINUOUS
 10
120.6398427819
 20
83.9228514339
 11
119.7913146445
 21
83.9228514339
  0
LINE
  5
316
100
AcDbEntity
  8
0
100
AcDbLine
 62
7
  6
CONTINUOUS
 10
106.3562858019
 20
83.9228514339
 11
105.5077576645
 21
83.9228514339
  0
LINE
  5
317
100
AcDbEntity
  8
RUNDUNGEN
100
AcDbLine
 62
7
  6
CONTINUOUS
 10
38.3726511397
 20
86.5342450164
 11
46.5835375177
 21
86.5342450164
  0
LINE
  5
318
100
AcDbEntity
  8
RUNDUNGEN
100
AcDbLine
 62
7
  6
CONTINUOUS
 10
179.5640629287
 20
86.5342450164
 11
187.7749493067
 21
86.5342450164
  0
LINE
  5
319
100
AcDbEntity
  8
RUNDUNGEN
100
AcDbLine
 62
7
  6
CONTINUOUS
 10
41.3313673737
 20
134.1166491733
 11
47.9741139924
 21
129.2904112521
  0
LINE
  5
31A
100
AcDbEntity
  8
RUNDUNGEN
100
AcDbLine
 62
7
  6
CONTINUOUS
 10
155.5576189708
 20
51.1264195734
 11
162.2003655895
 21
46.3001816522
  0
LINE
  5
31B
100
AcDbEntity
  8
0
100
AcDbLine
 62
7
  6
CONTINUOUS
 10
105.5077576645
 20
83.9228514339
 11
91.2242006846
 21
98.2064084139
  0
LINE
  5
31C
100
AcDbEntity
  8
0
100
AcDbLine
 62
7
  6
CONTINUOUS
 10
112.1078743969
 20
78.1712628389
 11
106.3562858019
 21
83.9228514339
  0
LINE
  5
31D
100
AcDbEntity
  8
0
100
AcDbLine
 62
7
  6
CONTINUOUS
 10
91.2242006846
 20
99.0549365513
 11
85.4726120896
 21
104.8065251463
  0
LINE
  5
31E
100
AcDbEntity
  8
RUNDUNGEN
100
AcDbLine
 62
7
  6
CONTINUOUS
 10
71.6932545206
 20
170.8725330014
 11
74.2305579503
 21
163.0635160071
  0
LINE
  5
31F
100
AcDbEntity
  8
RUNDUNGEN
100
AcDbLine
 62
7
  6
CONTINUOUS
 10
115.3238002232
 20
36.5915207746
 11
117.8611036529
 21
28.7825037802
  0
LINE
  5
320
100
AcDbEntity
  8
0
100
AcDbLine
 62
7
  6
CONTINUOUS
 10
88.9299866296
 20
168.409360092
 11
88.9540341604
 21
168.2129170255
  0
LINE
  5
321
100
AcDbEntity
  8
0
100
AcDbLine
 62
7
  6
CONTINUOUS
 10
89.2564528646
 20
168.2640752906
 11
89.2324053339
 21
168.4605183571
  0
LINE
  5
322
100
AcDbEntity
  8
0
100
AcDbLine
 62
7
  6
CONTINUOUS
 10
92.8617112197
 20
168.0446724733
 11
92.8140151805
 21
168.5000435847
  0
LINE
  5
323
100
AcDbEntity
  8
RUNDUNGEN
100
AcDbLine
 62
7
  6
CONTINUOUS
 10
103.0738002232
 20
149.9777588456
 11
103.0738002232
 21
141.7185912068
  0
LINE
  5
324
100
AcDbEntity
  8
RUNDUNGEN
100
AcDbLine
 62
7
  6
CONTINUOUS
 10
103.0738002232
 20
69.8263107383
 11
103.0738002232
 21
61.5671430996
  0
LINE
  5
325
100
AcDbEntity
  8
RUNDUNGEN
100
AcDbLine
 62
7
  6
CONTINUOUS
 10
104.0738002232
 20
182.4533811705
 11
104.0738002232
 21
176.1424224185
  0
LINE
  5
326
100
AcDbEntity
  8
RUNDUNGEN
100
AcDbLine
 62
7
  6
CONTINUOUS
 10
104.0738002232
 20
29.0915207746
 11
104.0738002232
 21
35.4025059722
  0
LINE
  5
327
100
AcDbEntity
  8
0
100
AcDbLine
 62
7
  6
CONTINUOUS
 10
128.4799516341
 20
171.1992076799
 11
128.4122430047
 21
171.0422199925
  0
LINE
  5
328
100
AcDbEntity
  8
0
100
AcDbLine
 62
7
  6
CONTINUOUS
 10
132.2657653718
 20
169.618533846
 11
132.3674969157
 21
169.8517184644
  0
LINE
  5
329
100
AcDbEntity
  8
0
100
AcDbLine
 62
7
  6
CONTINUOUS
 10
132.8970260909
 20
169.1164408657
 11
132.7952948457
 21
168.883256094
  0
LINE
  5
32A
100
AcDbEntity
  8
0
100
AcDbLine
 62
7
  6
CONTINUOUS
 10
132.2294699139
 20
169.8940578527
 11
132.1400924219
 21
169.701148744
  0
LINE
  5
32B
100
AcDbEntity
  8
0
100
AcDbLine
 62
7
  6
CONTINUOUS
 10
132.9333218474
 20
168.8409167056
 11
133.0226993567
 21
169.0338258708
  0
LINE
  5
32C
100
AcDbEntity
  8
0
100
AcDbLine
 62
7
  6
CONTINUOUS
 10
134.6708556919
 20
168.8455912127
 11
134.7813489304
 21
169.0747541167
  0
LINE
  5
32D
100
AcDbEntity
  8
0
100
AcDbLine
 62
7
  6
CONTINUOUS
 10
135.2826415687
 20
168.3199425757
 11
135.1721483107
 21
168.090779616
  0
LINE
  5
32E
100
AcDbEntity
  8
0
100
AcDbLine
 62
7
  6
CONTINUOUS
 10
134.64502509
 20
169.1222923913
 11
134.5484032216
 21
168.9329079283
  0
LINE
  5
32F
100
AcDbEntity
  8
0
100
AcDbLine
 62
7
  6
CONTINUOUS
 10
135.3084721512
 20
168.0432413414
 11
135.405094039
 21
168.2326258602
  0
LINE
  5
330
100
AcDbEntity
  8
0
100
AcDbLine
 62
7
  6
CONTINUOUS
 10
138.4439350507
 20
167.7443522263
 11
138.3035720954
 21
167.4834035616
  0
LINE
  5
331
100
AcDbEntity
  8
0
100
AcDbLine
 62
7
  6
CONTINUOUS
 10
131.5958277052
 20
169.2458029805
 11
131.5333497028
 21
169.132211995
  0
LINE
  5
332
100
AcDbEntity
  8
0
100
AcDbLine
 62
7
  6
CONTINUOUS
 10
138.4367789715
 20
167.4277275852
 11
138.5608971714
 21
167.6498066319
  0
LINE
  5
333
100
AcDbEntity
  8
0
100
AcDbLine
 62
7
  6
CONTINUOUS
 10
132.868653091
 20
168.7285584225
 11
132.9333218474
 21
168.8409167056
  0
LINE
  5
334
100
AcDbEntity
  8
0
100
AcDbLine
 62
7
  6
CONTINUOUS
 10
137.383983219
 20
168.438430556
 11
137.2952053197
 21
168.2923206953
  0
LINE
  5
335
100
AcDbEntity
  8
0
100
AcDbLine
 62
7
  6
CONTINUOUS
 10
135.2395936471
 20
167.9334135427
 11
135.3084721512
 21
168.0432413414
  0
LINE
  5
336
100
AcDbEntity
  8
0
100
AcDbLine
 62
7
  6
CONTINUOUS
 10
138.9182616655
 20
166.6329121084
 11
138.8428826097
 21
166.5274398769
  0
LINE
  5
337
100
AcDbEntity
  8
RUNDUNGEN
100
AcDbLine
 62
7
  6
CONTINUOUS
 10
150.8645671763
 20
173.0986939178
 11
147.1551217813
 21
167.9930803413
  0
LINE
  5
338
100
AcDbEntity
  8
RUNDUNGEN
100
AcDbLine
 62
7
  6
CONTINUOUS
 10
60.7207273714
 20
49.0263425686
 11
64.4302299448
 21
54.1320348446
  0
LINE
  5
339
100
AcDbEntity
  8
0
100
AcDbLine
 62
7
  6
CONTINUOUS
 10
165.1199823101
 20
148.0418983587
 11
164.9373743717
 21
147.933010175
  0
LINE
  5
33A
100
AcDbEntity
  8
0
100
AcDbLine
 62
7
  6
CONTINUOUS
 10
164.9817882471
 20
146.5272787875
 11
165.1643961449
 21
146.636166833
  0
LINE
  5
33B
100
AcDbEntity
  8
0
100
AcDbLine
 62
7
  6
CONTINUOUS
 10
164.4556678676
 20
149.1073522865
 11
164.3077013576
 21
149.0217047168
  0
LINE
  5
33C
100
AcDbEntity
  8
0
100
AcDbLine
 62
7
  6
CONTINUOUS
 10
165.045492331
 20
147.7976363616
 11
165.1951825881
 21
147.8802343289
  0
LINE
  5
33D
100
AcDbEntity
  8
0
100
AcDbLine
 62
7
  6
CONTINUOUS
 10
165.0562781856
 20
146.7715406465
 11
164.9065879285
 21
146.6889426791
  0
LINE
  5
33E
100
AcDbEntity
  8
0
100
AcDbLine
 62
7
  6
CONTINUOUS
 10
167.4502083337
 20
144.3452401596
 11
167.6737648913
 21
144.4666768012
  0
LINE
  5
33F
100
AcDbEntity
  8
0
100
AcDbLine
 62
7
  6
CONTINUOUS
 10
167.6396415621
 20
143.5612098664
 11
167.4160849562
 21
143.4397731909
  0
LINE
  5
340
100
AcDbEntity
  8
0
100
AcDbLine
 62
7
  6
CONTINUOUS
 10
167.5908969486
 20
144.5849014877
 11
167.4018377232
 21
144.4876448657
  0
LINE
  5
341
100
AcDbEntity
  8
0
100
AcDbLine
 62
7
  6
CONTINUOUS
 10
167.4989527093
 20
143.3215487749
 11
167.6880121726
 21
143.4188051602
  0
LINE
  5
342
100
AcDbEntity
  8
0
100
AcDbLine
 62
7
  6
CONTINUOUS
 10
167.3788879587
 20
143.2726524628
 11
167.4989527093
 21
143.3215487749
  0
LINE
  5
343
100
AcDbEntity
  8
RUNDUNGEN
100
AcDbLine
 62
7
  6
CONTINUOUS
 10
183.2205456142
 20
138.0276701949
 11
177.2185409553
 21
136.0775006643
  0
LINE
  5
344
100
AcDbEntity
  8
RUNDUNGEN
100
AcDbLine
 62
7
  6
CONTINUOUS
 10
37.3647489335
 20
90.6362490436
 11
43.3668535449
 21
92.5864510507
  0
LINE
  5
345
100
AcDbEntity
  8
RUNDUNGEN
100
AcDbLine
 62
7
  6
CONTINUOUS
 10
68.8684923502
 20
95.7724509726
 11
77.127659989
 21
95.7724509726
  0
LINE
  5
346
100
AcDbEntity
  8
RUNDUNGEN
100
AcDbLine
 62
7
  6
CONTINUOUS
 10
149.0199404574
 20
95.7724509726
 11
157.2791080962
 21
95.7724509726
  0
LINE
  5
347
100
AcDbEntity
  8
RUNDUNGEN
100
AcDbLine
 62
7
  6
CONTINUOUS
 10
37.3647489335
 20
120.9086529016
 11
43.366903789
 21
118.9584345692
  0
LINE
  5
348
100
AcDbEntity
  8
RUNDUNGEN
100
AcDbLine
 62
7
  6
CONTINUOUS
 10
177.218443068
 20
75.4674330864
 11
183.2205456142
 21
73.5172317503
  0
LINE
  5
349
100
AcDbEntity
  8
RUNDUNGEN
100
AcDbLine
 62
7
  6
CONTINUOUS
 10
60.7207273714
 20
162.5185593766
 11
64.4302606039
 21
157.412824902
  0
LINE
  5
34A
100
AcDbEntity
  8
RUNDUNGEN
100
AcDbLine
 62
7
  6
CONTINUOUS
 10
147.1550616984
 20
43.5519043009
 11
150.8645671763
 21
38.4462080273
  0
LINE
  5
34B
100
AcDbEntity
  8
0
100
AcDbLine
 62
7
  6
CONTINUOUS
 10
91.1821005415
 20
168.4897712852
 11
91.2161250964
 21
168.2318368139
  0
LINE
  5
34C
100
AcDbEntity
  8
0
100
AcDbLine
 62
7
  6
CONTINUOUS
 10
91.4530745955
 20
168.3115552576
 11
91.4190497694
 21
168.5694896376
  0
LINE
  5
34D
100
AcDbEntity
  8
0
100
AcDbLine
 62
7
  6
CONTINUOUS
 10
92.5770662238
 20
168.4203253235
 11
92.6110905075
 21
168.162390761
  0
LINE
  5
34E
100
AcDbEntity
  8
RUNDUNGEN
100
AcDbLine
 62
7
  6
CONTINUOUS
 10
110.8238002232
 20
36.5915207746
 11
110.8238002232
 21
37.5914277054
  0
LINE
  5
34F
100
AcDbEntity
  8
RUNDUNGEN
100
AcDbLine
 62
7
  6
CONTINUOUS
 10
110.8238002232
 20
173.9534407935
 11
110.8238002232
 21
174.9533811705
  0
LINE
  5
350
100
AcDbEntity
  8
02___PRT_ALL_AXES
100
AcDbLine
 62
7
  6
CENTER
 10
113.0738002232
 20
105.7724509726
 11
113.0738002232
 21
22.6986507494
  0
LINE
  5
351
100
AcDbEntity
  8
02___PRT_ALL_AXES
100
AcDbLine
 62
7
  6
CENTER
 10
113.0738002232
 20
105.7724509726
 11
113.0738002232
 21
188.8462511958
  0
LINE
  5
352
100
AcDbEntity
  8
0
100
AcDbLine
 62
7
  6
CONTINUOUS
 10
127.1592248238
 20
171.7984690349
 11
126.7312285312
 21
169.8652801736
  0
LINE
  5
353
100
AcDbEntity
  8
0
100
AcDbLine
 62
7
  6
CONTINUOUS
 10
126.955020381
 20
170.0746205648
 11
127.3283788492
 21
171.7610193593
  0
LINE
  5
354
100
AcDbEntity
  8
0
100
AcDbLine
 62
7
  6
CONTINUOUS
 10
127.7461526834
 20
169.64058212
 11
127.8007905079
 21
169.8873721868
  0
LINE
  5
355
100
AcDbEntity
  8
0
100
AcDbLine
 62
7
  6
CONTINUOUS
 10
128.4122430047
 20
171.0422199925
 11
128.3725988581
 21
170.8784390112
  0
LINE
  5
356
100
AcDbEntity
  8
0
100
AcDbLine
 62
7
  6
CONTINUOUS
 10
128.5508970311
 20
170.8786251327
 11
128.5707190906
 21
170.960515566
  0
LINE
  5
357
100
AcDbEntity
  8
0
100
AcDbLine
 62
7
  6
CONTINUOUS
 10
128.9899183557
 20
169.9921610755
 11
128.9601852665
 21
169.8693254255
  0
LINE
  5
358
100
AcDbEntity
  8
0
100
AcDbLine
 62
7
  6
CONTINUOUS
 10
129.1186614604
 20
169.7876210942
 11
129.168216609
 21
169.9923471776
  0
LINE
  5
359
100
AcDbEntity
  8
0
100
AcDbLine
 62
7
  6
CONTINUOUS
 10
131.1169813865
 20
170.8284104294
 11
130.8161293938
 21
169.7752190466
  0
LINE
  5
35A
100
AcDbEntity
  8
0
100
AcDbLine
 62
7
  6
CONTINUOUS
 10
131.0128074311
 20
169.938100318
 11
131.1979471314
 21
170.5862181358
  0
LINE
  5
35B
100
AcDbEntity
  8
0
100
AcDbLine
 62
7
  6
CONTINUOUS
 10
131.6189701637
 20
169.3268176935
 11
131.5958277052
 21
169.2458029805
  0
LINE
  5
35C
100
AcDbEntity
  8
0
100
AcDbLine
 62
7
  6
CONTINUOUS
 10
132.0031154344
 20
170.3562157902
 11
132.0609715806
 21
170.5587525727
  0
LINE
  5
35D
100
AcDbEntity
  8
0
100
AcDbLine
 62
7
  6
CONTINUOUS
 10
131.7230786848
 20
169.1656400221
 11
131.7693636018
 21
169.3276694481
  0
LINE
  5
35E
100
AcDbEntity
  8
0
100
AcDbLine
 62
7
  6
CONTINUOUS
 10
132.1400924219
 20
169.701148744
 11
132.0289031119
 21
169.338670029
  0
LINE
  5
35F
100
AcDbEntity
  8
0
100
AcDbLine
 62
7
  6
CONTINUOUS
 10
132.1792847973
 20
169.3366059565
 11
132.2657653718
 21
169.618533846
  0
LINE
  5
360
100
AcDbEntity
  8
0
100
AcDbLine
 62
7
  6
CONTINUOUS
 10
132.9835066654
 20
169.3983687552
 11
132.8970260909
 21
169.1164408657
  0
LINE
  5
361
100
AcDbEntity
  8
0
100
AcDbLine
 62
7
  6
CONTINUOUS
 10
133.0226993567
 20
169.0338258708
 11
133.1338886667
 21
169.3963045858
  0
LINE
  5
362
100
AcDbEntity
  8
0
100
AcDbLine
 62
7
  6
CONTINUOUS
 10
133.29283282
 20
169.0790101206
 11
133.2280225897
 21
168.8785902092
  0
LINE
  5
363
100
AcDbEntity
  8
0
100
AcDbLine
 62
7
  6
CONTINUOUS
 10
133.6126615314
 20
168.7542086634
 11
133.6774717617
 21
168.9546285747
  0
LINE
  5
364
100
AcDbEntity
  8
0
100
AcDbLine
 62
7
  6
CONTINUOUS
 10
134.144169376
 20
169.5995945295
 11
134.037696417
 21
169.279833834
  0
LINE
  5
365
100
AcDbEntity
  8
0
100
AcDbLine
 62
7
  6
CONTINUOUS
 10
134.2952372053
 20
169.5048907137
 11
133.7761816371
 21
167.9460576454
  0
LINE
  5
366
100
AcDbEntity
  8
0
100
AcDbLine
 62
7
  6
CONTINUOUS
 10
133.9405585816
 20
167.8913239025
 11
134.5660870716
 21
169.7699175542
  0
LINE
  5
367
100
AcDbEntity
  8
0
100
AcDbLine
 62
7
  6
CONTINUOUS
 10
134.5484032216
 20
168.9329079283
 11
134.4235608903
 21
168.5749019592
  0
LINE
  5
368
100
AcDbEntity
  8
0
100
AcDbLine
 62
7
  6
CONTINUOUS
 10
134.5737561009
 20
168.5671421257
 11
134.6708556919
 21
168.8455912127
  0
LINE
  5
369
100
AcDbEntity
  8
0
100
AcDbLine
 62
7
  6
CONTINUOUS
 10
135.3797411597
 20
168.5983916627
 11
135.2826415687
 21
168.3199425757
  0
LINE
  5
36A
100
AcDbEntity
  8
0
100
AcDbLine
 62
7
  6
CONTINUOUS
 10
135.405094039
 20
168.2326258602
 11
135.5299363703
 21
168.5906318292
  0
LINE
  5
36B
100
AcDbEntity
  8
0
100
AcDbLine
 62
7
  6
CONTINUOUS
 10
137.2952053197
 20
168.2923206953
 11
137.2332823296
 21
168.1355998877
  0
LINE
  5
36C
100
AcDbEntity
  8
0
100
AcDbLine
 62
7
  6
CONTINUOUS
 10
137.4098915529
 20
168.111115525
 11
137.4408530263
 21
168.1894758739
  0
LINE
  5
36D
100
AcDbEntity
  8
0
100
AcDbLine
 62
7
  6
CONTINUOUS
 10
137.722042927
 20
167.1724356128
 11
137.6756007169
 21
167.0548950894
  0
LINE
  5
36E
100
AcDbEntity
  8
0
100
AcDbLine
 62
7
  6
CONTINUOUS
 10
137.8212484669
 20
166.9520503778
 11
137.8986521503
 21
167.1479512501
  0
LINE
  5
36F
100
AcDbEntity
  8
0
100
AcDbLine
 62
7
  6
CONTINUOUS
 10
138.3035720954
 20
167.4834035616
 11
138.1898502715
 21
167.2113198036
  0
LINE
  5
370
100
AcDbEntity
  8
0
100
AcDbLine
 62
7
  6
CONTINUOUS
 10
138.4042870218
 20
167.3499893686
 11
138.4367789715
 21
167.4277275852
  0
LINE
  5
371
100
AcDbEntity
  8
0
100
AcDbLine
 62
7
  6
CONTINUOUS
 10
138.2522236266
 20
166.9112935199
 11
138.3009615511
 21
167.0279008447
  0
LINE
  5
372
100
AcDbEntity
  8
0
100
AcDbLine
 62
7
  6
CONTINUOUS
 10
138.96699959
 20
166.7495194333
 11
138.9182616655
 21
166.6329121084
  0
LINE
  5
373
100
AcDbEntity
  8
0
100
AcDbLine
 62
7
  6
CONTINUOUS
 10
139.0352237862
 20
166.538366514
 11
139.1164536832
 21
166.7327121099
  0
LINE
  5
374
100
AcDbEntity
  8
0
100
AcDbLine
 62
7
  6
CONTINUOUS
 10
139.1191638355
 20
166.1333714458
 11
139.0354997848
 21
165.9400612779
  0
LINE
  5
375
100
AcDbEntity
  8
0
100
AcDbLine
 62
7
  6
CONTINUOUS
 10
139.1679981973
 20
165.8827163693
 11
139.251662248
 21
166.0760265372
  0
LINE
  5
376
100
AcDbEntity
  8
0
100
AcDbLine
 62
7
  6
CONTINUOUS
 10
140.0603465535
 20
167.3321051954
 11
139.9242388432
 21
167.0237902841
  0
LINE
  5
377
100
AcDbEntity
  8
0
100
AcDbLine
 62
7
  6
CONTINUOUS
 10
140.2018261932
 20
167.2235979912
 11
139.5383012421
 21
165.7205631091
  0
LINE
  5
378
100
AcDbEntity
  8
0
100
AcDbLine
 62
7
  6
CONTINUOUS
 10
139.6967943396
 20
165.6505952554
 11
140.4964269534
 21
167.4619449409
  0
LINE
  5
379
100
AcDbEntity
  8
RUNDUNGEN
100
AcDbLine
 62
7
  6
CONTINUOUS
 10
70.5899814756
 20
51.1264195734
 11
71.1777125216
 21
51.9353619592
  0
LINE
  5
37A
100
AcDbEntity
  8
RUNDUNGEN
100
AcDbLine
 62
7
  6
CONTINUOUS
 10
151.329292424
 20
162.254547434
 11
151.9170424961
 21
163.0635160071
  0
LINE
  5
37B
100
AcDbEntity
  8
0
100
AcDbLine
 62
7
  6
CONTINUOUS
 10
164.3077013576
 20
149.0217047168
 11
164.1782129001
 21
148.9138686951
  0
LINE
  5
37C
100
AcDbEntity
  8
0
100
AcDbLine
 62
7
  6
CONTINUOUS
 10
164.3214538372
 20
148.8076974385
 11
164.3861980206
 21
148.8616154116
  0
LINE
  5
37D
100
AcDbEntity
  8
0
100
AcDbLine
 62
7
  6
CONTINUOUS
 10
164.1452752229
 20
147.8342914395
 11
164.0481589478
 21
147.7534144798
  0
LINE
  5
37E
100
AcDbEntity
  8
0
100
AcDbLine
 62
7
  6
CONTINUOUS
 10
164.1266557014
 20
147.5933252502
 11
164.28851616
 21
147.7281201829
  0
LINE
  5
37F
100
AcDbEntity
  8
0
100
AcDbLine
 62
7
  6
CONTINUOUS
 10
164.9373743717
 20
147.933010175
 11
164.4436097152
 21
147.5386589659
  0
LINE
  5
380
100
AcDbEntity
  8
0
100
AcDbLine
 62
7
  6
CONTINUOUS
 10
164.5517276745
 20
147.4032851524
 11
165.045492331
 21
147.7976363616
  0
LINE
  5
381
100
AcDbEntity
  8
0
100
AcDbLine
 62
7
  6
CONTINUOUS
 10
165.5500428421
 20
147.1658918556
 11
165.0562781856
 21
146.7715406465
  0
LINE
  5
382
100
AcDbEntity
  8
0
100
AcDbLine
 62
7
  6
CONTINUOUS
 10
165.1643961449
 20
146.636166833
 11
165.6581608014
 21
147.0305180421
  0
LINE
  5
383
100
AcDbEntity
  8
0
100
AcDbLine
 62
7
  6
CONTINUOUS
 10
166.2998982349
 20
145.4284269389
 11
166.0958983722
 21
145.2791798288
  0
LINE
  5
384
100
AcDbEntity
  8
0
100
AcDbLine
 62
7
  6
CONTINUOUS
 10
167.3550835245
 20
145.3417431871
 11
166.7090840149
 21
144.8691273792
  0
LINE
  5
385
100
AcDbEntity
  8
0
100
AcDbLine
 62
7
  6
CONTINUOUS
 10
166.5050841522
 20
144.7198802691
 11
166.0290845361
 21
144.3716370588
  0
LINE
  5
386
100
AcDbEntity
  8
0
100
AcDbLine
 62
7
  6
CONTINUOUS
 10
166.1313809811
 20
144.2318121689
 11
166.6073805972
 21
144.5800553792
  0
LINE
  5
387
100
AcDbEntity
  8
0
100
AcDbLine
 62
7
  6
CONTINUOUS
 10
166.8113804599
 20
144.7293024893
 11
167.729379723
 21
145.4009143975
  0
LINE
  5
388
100
AcDbEntity
  8
0
100
AcDbLine
 62
7
  6
CONTINUOUS
 10
166.7778746072
 20
144.3470139849
 11
166.9818744699
 21
144.496261095
  0
LINE
  5
389
100
AcDbEntity
  8
0
100
AcDbLine
 62
7
  6
CONTINUOUS
 10
167.4018377232
 20
144.4876448657
 11
167.0913634404
 21
144.2700222538
  0
LINE
  5
38A
100
AcDbEntity
  8
0
100
AcDbLine
 62
7
  6
CONTINUOUS
 10
167.208728336
 20
144.1759781281
 11
167.4502083337
 21
144.3452401596
  0
LINE
  5
38B
100
AcDbEntity
  8
0
100
AcDbLine
 62
7
  6
CONTINUOUS
 10
167.8811215599
 20
143.7304718979
 11
167.6396415621
 21
143.5612098664
  0
LINE
  5
38C
100
AcDbEntity
  8
0
100
AcDbLine
 62
7
  6
CONTINUOUS
 10
167.6880121726
 20
143.4188051602
 11
167.9984864554
 21
143.6364277722
  0
LINE
  5
38D
100
AcDbEntity
  8
0
100
AcDbLine
 62
7
  6
CONTINUOUS
 10
168.8106720555
 20
143.8702917858
 11
167.1646629173
 21
142.769812837
  0
LINE
  5
38E
100
AcDbEntity
  8
0
100
AcDbLine
 62
7
  6
CONTINUOUS
 10
167.2609548253
 20
142.6257870374
 11
168.5567492951
 21
143.4921215569
  0
LINE
  5
38F
100
AcDbEntity
  8
0
100
AcDbLine
 62
7
  6
CONTINUOUS
 10
169.1345007432
 20
142.6279667593
 11
167.8387062735
 21
141.7616322398
  0
LINE
  5
390
100
AcDbEntity
  8
0
100
AcDbLine
 62
7
  6
CONTINUOUS
 10
167.9349981815
 20
141.6176064402
 11
169.5810073197
 21
142.718085389
  0
LINE
  5
391
100
AcDbEntity
  8
0
100
AcDbLine
 62
7
  6
CONTINUOUS
 10
169.7337042957
 20
142.483479653
 11
168.0610437829
 21
141.4239482429
  0
LINE
  5
392
100
AcDbEntity
  8
0
100
AcDbLine
 62
7
  6
CONTINUOUS
 10
168.1537527813
 20
141.2775904481
 11
169.470528121
 21
142.1116896701
  0
LINE
  5
393
100
AcDbEntity
  8
0
100
AcDbLine
 62
7
  6
CONTINUOUS
 10
170.0267821113
 20
141.2335429009
 11
168.7100067716
 21
140.3994436789
  0
LINE
  5
394
100
AcDbEntity
  8
0
100
AcDbLine
 62
7
  6
CONTINUOUS
 10
168.80271577
 20
140.253085884
 11
170.4753762828
 21
141.3126172941
  0
LINE
  5
395
100
AcDbEntity
  8
RUNDUNGEN
100
AcDbLine
 62
7
  6
CONTINUOUS
 10
46.5835375177
 20
86.5342450164
 11
47.5345051593
 21
86.8432331336
  0
LINE
  5
396
100
AcDbEntity
  8
RUNDUNGEN
100
AcDbLine
 62
7
  6
CONTINUOUS
 10
177.222486545
 20
128.9814126505
 11
178.173486454
 21
129.2904112521
  0
LINE
  5
397
100
AcDbEntity
  8
02___PRT_ALL_AXES
100
AcDbLine
 62
7
  6
CENTER
 10
113.0738002232
 20
105.7724509726
 11
30.0
 21
105.7724509726
  0
LINE
  5
398
100
AcDbEntity
  8
02___PRT_ALL_AXES
100
AcDbLine
 62
7
  6
CENTER
 10
113.0738002232
 20
105.7724509726
 11
196.1476004464
 21
105.7724509726
  0
LINE
  5
399
100
AcDbEntity
  8
RUNDUNGEN
100
AcDbLine
 62
7
  6
CONTINUOUS
 10
47.5345372318
 20
124.7016583905
 11
46.5835375177
 21
125.0106569288
  0
LINE
  5
39A
100
AcDbEntity
  8
RUNDUNGEN
100
AcDbLine
 62
7
  6
CONTINUOUS
 10
177.2225180911
 20
82.5634790447
 11
178.173486454
 21
82.2544906931
  0
LINE
  5
39B
100
AcDbEntity
  8
RUNDUNGEN
100
AcDbLine
 62
7
  6
CONTINUOUS
 10
151.3293124469
 20
49.2903269519
 11
151.9170424961
 21
48.4813859381
  0
LINE
  5
39C
100
AcDbEntity
  8
RUNDUNGEN
100
AcDbLine
 62
7
  6
CONTINUOUS
 10
71.1777318172
 20
159.6095134279
 11
70.5899814756
 21
160.4184823717
  0
LINE
  5
39D
100
AcDbEntity
  8
0
100
AcDbLine
 62
7
  6
CONTINUOUS
 10
87.1598119695
 20
168.6692312806
 11
88.2648157994
 21
165.880151408
  0
LINE
  5
39E
100
AcDbEntity
  8
0
100
AcDbLine
 62
7
  6
CONTINUOUS
 10
88.5437237867
 20
165.990651791
 11
88.0499986642
 21
167.2368364326
  0
LINE
  5
39F
100
AcDbEntity
  8
0
100
AcDbLine
 62
7
  6
CONTINUOUS
 10
87.9089343623
 20
167.5928891399
 11
87.5562735417
 21
168.4830210742
  0
LINE
  5
3A0
100
AcDbEntity
  8
0
100
AcDbLine
 62
7
  6
CONTINUOUS
 10
88.8594544128
 20
168.5873866119
 11
88.9299866296
 21
168.409360092
  0
LINE
  5
3A1
100
AcDbEntity
  8
0
100
AcDbLine
 62
7
  6
CONTINUOUS
 10
89.2324053339
 20
168.4605183571
 11
89.1383624001
 21
168.6978869949
  0
LINE
  5
3A2
100
AcDbEntity
  8
0
100
AcDbLine
 62
7
  6
CONTINUOUS
 10
89.6607468603
 20
168.6165573784
 11
90.3609758327
 21
166.6977810334
  0
LINE
  5
3A3
100
AcDbEntity
  8
0
100
AcDbLine
 62
7
  6
CONTINUOUS
 10
90.5958259803
 20
166.7834861121
 11
90.1581828495
 21
167.9827213907
  0
LINE
  5
3A4
100
AcDbEntity
  8
0
100
AcDbLine
 62
7
  6
CONTINUOUS
 10
90.0268899287
 20
168.3424919239
 11
89.8955970079
 21
168.702262457
  0
LINE
  5
3A5
100
AcDbEntity
  8
0
100
AcDbLine
 62
7
  6
CONTINUOUS
 10
90.6156184814
 20
168.6252870015
 11
90.5062077141
 21
168.9250957792
  0
LINE
  5
3A6
100
AcDbEntity
  8
0
100
AcDbLine
 62
7
  6
CONTINUOUS
 10
91.2161250964
 20
168.2318368139
 11
91.2975396339
 21
167.9898459649
  0
LINE
  5
3A7
100
AcDbEntity
  8
0
100
AcDbLine
 62
7
  6
CONTINUOUS
 10
91.534489133
 20
168.0695644086
 11
91.4530745955
 21
168.3115552576
  0
LINE
  5
3A8
100
AcDbEntity
  8
0
100
AcDbLine
 62
7
  6
CONTINUOUS
 10
92.4956516864
 20
168.6623161725
 11
92.5770662238
 21
168.4203253235
  0
LINE
  5
3A9
100
AcDbEntity
  8
0
100
AcDbLine
 62
7
  6
CONTINUOUS
 10
92.8140151805
 20
168.5000435847
 11
92.7326006431
 21
168.7420344337
  0
LINE
  5
3AA
100
AcDbEntity
  8
0
100
AcDbLine
 62
7
  6
CONTINUOUS
 10
92.5830333095
 20
170.6325175135
 11
93.4815154202
 21
167.7702229974
  0
LINE
  5
3AB
100
AcDbEntity
  8
0
100
AcDbLine
 62
7
  6
CONTINUOUS
 10
93.7200401451
 20
167.8450965637
 11
92.8215580345
 21
170.7073910798
  0
LINE
  5
3AC
100
AcDbEntity
  8
0
100
AcDbLine
 62
7
  6
CONTINUOUS
 10
93.2324500423
 20
170.834118515
 11
93.3249844399
 21
170.5286788247
  0
LINE
  5
3AD
100
AcDbEntity
  8
0
100
AcDbLine
 62
7
  6
CONTINUOUS
 10
93.5100532869
 20
169.9177992728
 11
94.1022734834
 21
167.9629850835
  0
LINE
  5
3AE
100
AcDbEntity
  8
0
100
AcDbLine
 62
7
  6
CONTINUOUS
 10
94.3415347852
 20
168.0354704256
 11
93.7493145888
 21
169.9902846149
  0
LINE
  5
3AF
100
AcDbEntity
  8
0
100
AcDbLine
 62
7
  6
CONTINUOUS
 10
93.5642457417
 20
170.6011641667
 11
93.4717113441
 21
170.9066038571
  0
LINE
  5
3B0
100
AcDbEntity
  8
0
100
AcDbLine
 62
7
  6
CONTINUOUS
 10
94.1686367303
 20
170.1186635332
 11
94.7239244472
 21
168.1530392488
  0
LINE
  5
3B1
100
AcDbEntity
  8
0
100
AcDbLine
 62
7
  6
CONTINUOUS
 10
94.96450831
 20
168.2210040501
 11
94.5653952498
 21
169.6337965529
  0
LINE
  5
3B2
100
AcDbEntity
  8
0
100
AcDbLine
 62
7
  6
CONTINUOUS
 10
94.4959842913
 20
169.8794995669
 11
94.4092205931
 21
170.1866283345
  0
LINE
  5
3B3
100
AcDbEntity
  8
0
100
AcDbLine
 62
7
  6
CONTINUOUS
 10
95.5009094361
 20
169.6327671969
 11
95.8306115378
 21
168.4656777082
  0
LINE
  5
3B4
100
AcDbEntity
  8
0
100
AcDbLine
 62
7
  6
CONTINUOUS
 10
96.0711959512
 20
168.533642665
 11
95.7414938495
 21
169.7007321538
  0
LINE
  5
3B5
100
AcDbEntity
  8
0
100
AcDbLine
 62
7
  6
CONTINUOUS
 10
95.7223204062
 20
171.5455479302
 11
96.4576732394
 21
168.6370678786
  0
LINE
  5
3B6
100
AcDbEntity
  8
0
100
AcDbLine
 62
7
  6
CONTINUOUS
 10
96.7000462072
 20
168.6983471879
 11
96.5279423512
 21
169.3790552906
  0
LINE
  5
3B7
100
AcDbEntity
  8
0
100
AcDbLine
 62
7
  6
CONTINUOUS
 10
96.4340675326
 20
169.7503505721
 11
95.964693374
 21
171.6068272395
  0
LINE
  5
3B8
100
AcDbEntity
  8
RUNDUNGEN
100
AcDbLine
 62
7
  6
CONTINUOUS
 10
115.3238002232
 20
36.5915207746
 11
115.3238002232
 21
37.5914611517
  0
LINE
  5
3B9
100
AcDbEntity
  8
RUNDUNGEN
100
AcDbLine
 62
7
  6
CONTINUOUS
 10
115.3238002232
 20
173.9534742397
 11
115.3238002232
 21
174.9533811705
  0
LINE
  5
3BA
100
AcDbEntity
  8
0
100
AcDbLine
 62
7
  6
CONTINUOUS
 10
132.0289031119
 20
169.338670029
 11
131.9947369088
 21
169.1288249534
  0
LINE
  5
3BB
100
AcDbEntity
  8
0
100
AcDbLine
 62
7
  6
CONTINUOUS
 10
132.1327639105
 20
169.0864855651
 11
132.1792847973
 21
169.3366059565
  0
LINE
  5
3BC
100
AcDbEntity
  8
0
100
AcDbLine
 62
7
  6
CONTINUOUS
 10
133.0300278508
 20
169.6484889933
 11
132.9835066654
 21
169.3983687552
  0
LINE
  5
3BD
100
AcDbEntity
  8
0
100
AcDbLine
 62
7
  6
CONTINUOUS
 10
134.4235608903
 20
168.5749019592
 11
134.3814690379
 21
168.3665019566
  0
LINE
  5
3BE
100
AcDbEntity
  8
0
100
AcDbLine
 62
7
  6
CONTINUOUS
 10
134.5177928783
 20
168.318963682
 11
134.5737561009
 21
168.5671421257
  0
LINE
  5
3BF
100
AcDbEntity
  8
0
100
AcDbLine
 62
7
  6
CONTINUOUS
 10
135.4357043629
 20
168.8465700507
 11
135.3797411597
 21
168.5983916627
  0
LINE
  5
3C0
100
AcDbEntity
  8
0
100
AcDbLine
 62
7
  6
CONTINUOUS
 10
138.1898502715
 20
167.2113198036
 11
138.1027695561
 21
166.9281008978
  0
LINE
  5
3C1
100
AcDbEntity
  8
RUNDUNGEN
100
AcDbLine
 62
7
  6
CONTINUOUS
 10
74.2305579503
 20
48.4813859381
 11
74.8183080224
 21
49.2903545111
  0
LINE
  5
3C2
100
AcDbEntity
  8
RUNDUNGEN
100
AcDbLine
 62
7
  6
CONTINUOUS
 10
154.9698879248
 20
159.609539986
 11
155.5576189708
 21
160.4184823717
  0
LINE
  5
3C3
100
AcDbEntity
  8
0
100
AcDbLine
 62
7
  6
CONTINUOUS
 10
164.4436097152
 20
147.5386589659
 11
164.2970411545
 21
147.3846462944
  0
LINE
  5
3C4
100
AcDbEntity
  8
0
100
AcDbLine
 62
7
  6
CONTINUOUS
 10
167.0913634404
 20
144.2700222538
 11
166.9354511921
 21
144.1254759398
  0
LINE
  5
3C5
100
AcDbEntity
  8
0
100
AcDbLine
 62
7
  6
CONTINUOUS
 10
167.0183191348
 20
144.0072512532
 11
167.208728336
 21
144.1759781281
  0
LINE
  5
3C6
100
AcDbEntity
  8
0
100
AcDbLine
 62
7
  6
CONTINUOUS
 10
168.0715307128
 20
143.8991987388
 11
167.8811215599
 21
143.7304718979
  0
LINE
  5
3C7
100
AcDbEntity
  8
RUNDUNGEN
100
AcDbLine
 62
7
  6
CONTINUOUS
 10
47.9741139924
 20
82.2544906931
 11
48.9251139014
 21
82.5634892946
  0
LINE
  5
3C8
100
AcDbEntity
  8
RUNDUNGEN
100
AcDbLine
 62
7
  6
CONTINUOUS
 10
178.6130952871
 20
124.7016688115
 11
179.5640629287
 21
125.0106569288
  0
LINE
  5
3C9
100
AcDbEntity
  8
RUNDUNGEN
100
AcDbLine
 62
7
  6
CONTINUOUS
 10
48.9250823553
 20
128.9814229005
 11
47.9741139924
 21
129.2904112521
  0
LINE
  5
3CA
100
AcDbEntity
  8
RUNDUNGEN
100
AcDbLine
 62
7
  6
CONTINUOUS
 10
178.6130632146
 20
86.8432435546
 11
179.5640629287
 21
86.5342450164
  0
LINE
  5
3CB
100
AcDbEntity
  8
RUNDUNGEN
100
AcDbLine
 62
7
  6
CONTINUOUS
 10
154.9698686293
 20
51.9353885172
 11
155.5576189708
 21
51.1264195734
  0
LINE
  5
3CC
100
AcDbEntity
  8
RUNDUNGEN
100
AcDbLine
 62
7
  6
CONTINUOUS
 10
74.8182879995
 20
162.2545749932
 11
74.2305579503
 21
163.0635160071
  0
LINE
  5
3CD
100
AcDbEntity
  8
RUNDUNGEN
100
AcDbLine
 62
7
  6
CONTINUOUS
 10
122.0738002232
 20
29.0915207746
 11
122.0738002232
 21
35.4024032655
  0
LINE
  5
3CE
100
AcDbEntity
  8
RUNDUNGEN
100
AcDbLine
 62
7
  6
CONTINUOUS
 10
122.0738002232
 20
176.142395954
 11
122.0738002232
 21
182.4533811705
  0
LINE
  5
3CF
100
AcDbEntity
  8
RUNDUNGEN
100
AcDbLine
 62
7
  6
CONTINUOUS
 10
123.0738002232
 20
61.5671430996
 11
123.0738002232
 21
69.8263107383
  0
LINE
  5
3D0
100
AcDbEntity
  8
RUNDUNGEN
100
AcDbLine
 62
7
  6
CONTINUOUS
 10
123.0738002232
 20
141.7185912068
 11
123.0738002232
 21
149.9777588456
  0
LINE
  5
3D1
100
AcDbEntity
  8
0
100
AcDbLine
 62
7
  6
CONTINUOUS
 10
128.2668143126
 20
169.9504714506
 11
128.268482811
 21
170.0801002993
  0
LINE
  5
3D2
100
AcDbEntity
  8
0
100
AcDbLine
 62
7
  6
CONTINUOUS
 10
128.5492285328
 20
170.748996284
 11
128.5508970311
 21
170.8786251327
  0
LINE
  5
3D3
100
AcDbEntity
  8
0
100
AcDbLine
 62
7
  6
CONTINUOUS
 10
129.2822436333
 20
170.8316312403
 11
129.2839121317
 21
170.961260089
  0
LINE
  5
3D4
100
AcDbEntity
  8
0
100
AcDbLine
 62
7
  6
CONTINUOUS
 10
131.6259195529
 20
169.4562709038
 11
131.6189701637
 21
169.3268176935
  0
LINE
  5
3D5
100
AcDbEntity
  8
0
100
AcDbLine
 62
7
  6
CONTINUOUS
 10
128.1000956676
 20
170.1208593945
 11
128.0885160592
 21
169.9502853485
  0
LINE
  5
3D6
100
AcDbEntity
  8
0
100
AcDbLine
 62
7
  6
CONTINUOUS
 10
128.3725988581
 20
170.8784390112
 11
128.3610192497
 21
170.7078649652
  0
LINE
  5
3D7
100
AcDbEntity
  8
0
100
AcDbLine
 62
7
  6
CONTINUOUS
 10
131.9947369088
 20
169.1288249534
 11
131.9852791426
 21
168.9995308568
  0
LINE
  5
3D8
100
AcDbEntity
  8
0
100
AcDbLine
 62
7
  6
CONTINUOUS
 10
133.1680548526
 20
169.6061496049
 11
133.1775123374
 21
169.7354439113
  0
LINE
  5
3D9
100
AcDbEntity
  8
0
100
AcDbLine
 62
7
  6
CONTINUOUS
 10
134.3814690379
 20
168.3665019566
 11
134.3671193211
 21
168.2376591092
  0
LINE
  5
3DA
100
AcDbEntity
  8
0
100
AcDbLine
 62
7
  6
CONTINUOUS
 10
135.5720282033
 20
168.7990317761
 11
135.5863779589
 21
168.9278747349
  0
LINE
  5
3DB
100
AcDbEntity
  8
0
100
AcDbLine
 62
7
  6
CONTINUOUS
 10
137.000125297
 20
167.2311928892
 11
137.0197125544
 21
167.3593442497
  0
LINE
  5
3DC
100
AcDbEntity
  8
0
100
AcDbLine
 62
7
  6
CONTINUOUS
 10
137.3903042955
 20
167.9829641645
 11
137.4098915529
 21
168.111115525
  0
LINE
  5
3DD
100
AcDbEntity
  8
0
100
AcDbLine
 62
7
  6
CONTINUOUS
 10
138.1277027055
 20
167.9633871723
 11
138.1472905776
 21
168.09153829
  0
LINE
  5
3DE
100
AcDbEntity
  8
0
100
AcDbLine
 62
7
  6
CONTINUOUS
 10
133.1338886667
 20
169.3963045858
 11
133.1680548526
 21
169.6061496049
  0
LINE
  5
3DF
100
AcDbEntity
  8
0
100
AcDbLine
 62
7
  6
CONTINUOUS
 10
138.2301268333
 20
166.7835511017
 11
138.2522236266
 21
166.9112935199
  0
LINE
  5
3E0
100
AcDbEntity
  8
0
100
AcDbLine
 62
7
  6
CONTINUOUS
 10
138.989096406
 20
166.877261906
 11
138.96699959
 21
166.7495194333
  0
LINE
  5
3E1
100
AcDbEntity
  8
0
100
AcDbLine
 62
7
  6
CONTINUOUS
 10
139.3555977938
 20
167.4546268644
 11
139.3776945871
 21
167.5823692826
  0
LINE
  5
3E2
100
AcDbEntity
  8
0
100
AcDbLine
 62
7
  6
CONTINUOUS
 10
135.5299363703
 20
168.5906318292
 11
135.5720282033
 21
168.7990317761
  0
LINE
  5
3E3
100
AcDbEntity
  8
0
100
AcDbLine
 62
7
  6
CONTINUOUS
 10
136.8585840678
 20
167.4230087869
 11
136.8235160737
 21
167.2556772519
  0
LINE
  5
3E4
100
AcDbEntity
  8
0
100
AcDbLine
 62
7
  6
CONTINUOUS
 10
137.2332823296
 20
168.1355998877
 11
137.1982143355
 21
167.9682683528
  0
LINE
  5
3E5
100
AcDbEntity
  8
RUNDUNGEN
100
AcDbLine
 62
7
  6
CONTINUOUS
 10
75.2830332702
 20
38.4462080273
 11
78.9924786768
 21
43.55182162
  0
LINE
  5
3E6
100
AcDbEntity
  8
RUNDUNGEN
100
AcDbLine
 62
7
  6
CONTINUOUS
 10
161.7173704999
 20
157.4128670982
 11
165.426873075
 21
162.5185593766
  0
LINE
  5
3E7
100
AcDbEntity
  8
0
100
AcDbLine
 62
7
  6
CONTINUOUS
 10
163.539939396
 20
148.2320174632
 11
163.6185775347
 21
148.3350827914
  0
LINE
  5
3E8
100
AcDbEntity
  8
0
100
AcDbLine
 62
7
  6
CONTINUOUS
 10
164.2428156985
 20
148.7046321103
 11
164.3214538372
 21
148.8076974385
  0
LINE
  5
3E9
100
AcDbEntity
  8
0
100
AcDbLine
 62
7
  6
CONTINUOUS
 10
164.8805237078
 20
148.3338651487
 11
164.9591618597
 21
148.436930461
  0
LINE
  5
3EA
100
AcDbEntity
  8
0
100
AcDbLine
 62
7
  6
CONTINUOUS
 10
163.5077086893
 20
148.4682130345
 11
163.3966984638
 21
148.3381887138
  0
LINE
  5
3EB
100
AcDbEntity
  8
0
100
AcDbLine
 62
7
  6
CONTINUOUS
 10
164.1782129001
 20
148.9138686951
 11
164.0672026763
 21
148.7838443724
  0
LINE
  5
3EC
100
AcDbEntity
  8
0
100
AcDbLine
 62
7
  6
CONTINUOUS
 10
164.438076806
 20
147.2755624946
 11
164.5517276745
 21
147.4032851524
  0
LINE
  5
3ED
100
AcDbEntity
  8
0
100
AcDbLine
 62
7
  6
CONTINUOUS
 10
165.6636937106
 20
147.2936145135
 11
165.5500428421
 21
147.1658918556
  0
LINE
  5
3EE
100
AcDbEntity
  8
0
100
AcDbLine
 62
7
  6
CONTINUOUS
 10
168.5567492951
 20
143.4921215569
 11
167.4856361889
 21
142.289726472
  0
LINE
  5
3EF
100
AcDbEntity
  8
0
100
AcDbLine
 62
7
  6
CONTINUOUS
 10
166.9354511921
 20
144.1254759398
 11
166.8485334668
 21
144.0292899695
  0
LINE
  5
3F0
100
AcDbEntity
  8
0
100
AcDbLine
 62
7
  6
CONTINUOUS
 10
168.1543984658
 20
143.7809743229
 11
168.241316667
 21
143.8771598198
  0
LINE
  5
3F1
100
AcDbEntity
  8
0
100
AcDbLine
 62
7
  6
CONTINUOUS
 10
167.7249379082
 20
142.3107818696
 11
168.9551099176
 21
143.6542530864
  0
LINE
  5
3F2
100
AcDbEntity
  8
0
100
AcDbLine
 62
7
  6
CONTINUOUS
 10
169.470528121
 20
142.1116896701
 11
168.3700736597
 21
140.9360891128
  0
LINE
  5
3F3
100
AcDbEntity
  8
0
100
AcDbLine
 62
7
  6
CONTINUOUS
 10
165.6581608014
 20
147.0305180421
 11
165.8047294028
 21
147.1845308518
  0
LINE
  5
3F4
100
AcDbEntity
  8
0
100
AcDbLine
 62
7
  6
CONTINUOUS
 10
168.6098223879
 20
140.9512331733
 11
169.8727677933
 21
142.2639429607
  0
LINE
  5
3F5
100
AcDbEntity
  8
0
100
AcDbLine
 62
7
  6
CONTINUOUS
 10
167.9984864554
 20
143.6364277722
 11
168.1543984658
 21
143.7809743229
  0
LINE
  5
3F6
100
AcDbEntity
  8
RUNDUNGEN
100
AcDbLine
 62
7
  6
CONTINUOUS
 10
42.9270548322
 20
73.5172317503
 11
48.9290595129
 21
75.4674012879
  0
LINE
  5
3F7
100
AcDbEntity
  8
RUNDUNGEN
100
AcDbLine
 62
7
  6
CONTINUOUS
 10
182.7807468663
 20
118.958450883
 11
188.7828515129
 21
120.9086529016
  0
LINE
  5
3F8
100
AcDbEntity
  8
RUNDUNGEN
100
AcDbLine
 62
7
  6
CONTINUOUS
 10
157.2791080962
 20
115.7724509726
 11
149.0199404574
 21
115.7724509726
  0
LINE
  5
3F9
100
AcDbEntity
  8
RUNDUNGEN
100
AcDbLine
 62
7
  6
CONTINUOUS
 10
77.127659989
 20
115.7724509726
 11
68.8684923502
 21
115.7724509726
  0
LINE
  5
3FA
100
AcDbEntity
  8
RUNDUNGEN
100
AcDbLine
 62
7
  6
CONTINUOUS
 10
188.7828515129
 20
90.6362490436
 11
182.7808443389
 21
92.5864193914
  0
LINE
  5
3FB
100
AcDbEntity
  8
RUNDUNGEN
100
AcDbLine
 62
7
  6
CONTINUOUS
 10
48.9291573633
 20
136.0774688637
 11
42.9270548322
 21
138.0276701949
  0
LINE
  5
3FC
100
AcDbEntity
  8
RUNDUNGEN
100
AcDbLine
 62
7
  6
CONTINUOUS
 10
165.426873075
 20
49.0263425686
 11
161.7174311559
 21
54.131951361
  0
LINE
  5
3FD
100
AcDbEntity
  8
RUNDUNGEN
100
AcDbLine
 62
7
  6
CONTINUOUS
 10
78.9924774949
 20
167.993081952
 11
75.2830332702
 21
173.0986939178
  0
LINE
  5
3FE
100
AcDbEntity
  8
0
100
AcDbLine
 62
7
  6
CONTINUOUS
 10
91.2975396339
 20
167.9898459649
 11
91.5347949469
 21
167.598249499
  0
LINE
  5
3FF
100
AcDbEntity
  8
0
100
AcDbLine
 62
7
  6
CONTINUOUS
 10
91.6632933248
 20
167.84351726
 11
91.534489133
 21
168.0695644086
  0
LINE
  5
400
100
AcDbEntity
  8
0
100
AcDbLine
 62
7
  6
CONTINUOUS
 10
92.3668469522
 20
168.8883631386
 11
92.4956516864
 21
168.6623161725
  0
LINE
  5
401
100
AcDbEntity
  8
0
100
AcDbLine
 62
7
  6
CONTINUOUS
 10
92.7326006431
 20
168.7420344337
 11
92.6037964513
 21
168.9680815823
  0
LINE
  5
402
100
AcDbEntity
  8
0
100
AcDbLine
 62
7
  6
CONTINUOUS
 10
95.3660290755
 20
169.9263030353
 11
95.5009094361
 21
169.6327671969
  0
LINE
  5
403
100
AcDbEntity
  8
0
100
AcDbLine
 62
7
  6
CONTINUOUS
 10
95.7414938495
 20
169.7007321538
 11
95.6066134889
 21
169.9942679922
  0
LINE
  5
404
100
AcDbEntity
  8
0
100
AcDbLine
 62
7
  6
CONTINUOUS
 10
129.168216609
 20
169.9923471776
 11
129.1517317208
 21
170.1697144602
  0
LINE
  5
405
100
AcDbEntity
  8
0
100
AcDbLine
 62
7
  6
CONTINUOUS
 10
129.1056138784
 20
170.9610739869
 11
129.1138564097
 21
170.8723903549
  0
LINE
  5
406
100
AcDbEntity
  8
0
100
AcDbLine
 62
7
  6
CONTINUOUS
 10
130.7119883144
 20
169.4106527812
 11
130.7212320187
 21
169.2327611586
  0
LINE
  5
407
100
AcDbEntity
  8
0
100
AcDbLine
 62
7
  6
CONTINUOUS
 10
130.8878185422
 20
169.1851744727
 11
130.8785748379
 21
169.3630660952
  0
LINE
  5
408
100
AcDbEntity
  8
0
100
AcDbLine
 62
7
  6
CONTINUOUS
 10
131.9852791426
 20
168.9995308568
 11
131.9910726531
 21
168.821493364
  0
LINE
  5
409
100
AcDbEntity
  8
0
100
AcDbLine
 62
7
  6
CONTINUOUS
 10
133.1775123374
 20
169.7354439113
 11
133.1717191342
 21
169.913481279
  0
LINE
  5
40A
100
AcDbEntity
  8
0
100
AcDbLine
 62
7
  6
CONTINUOUS
 10
134.9233997619
 20
113.3384935313
 11
134.9233997619
 21
112.4899653938
  0
LINE
  5
40B
100
AcDbEntity
  8
0
100
AcDbLine
 62
7
  6
CONTINUOUS
 10
134.9233997619
 20
99.0549365513
 11
134.9233997619
 21
98.2064084139
  0
LINE
  5
40C
100
AcDbEntity
  8
0
100
AcDbLine
 62
7
  6
CONTINUOUS
 10
134.3671193211
 20
168.2376591092
 11
134.3661638662
 21
168.0595298334
  0
LINE
  5
40D
100
AcDbEntity
  8
0
100
AcDbLine
 62
7
  6
CONTINUOUS
 10
135.5863779589
 20
168.9278747349
 11
135.5873334041
 21
169.1060039828
  0
LINE
  5
40E
100
AcDbEntity
  8
0
100
AcDbLine
 62
7
  6
CONTINUOUS
 10
131.7693636018
 20
169.3276694481
 11
131.7716908171
 21
169.5460685464
  0
LINE
  5
40F
100
AcDbEntity
  8
0
100
AcDbLine
 62
7
  6
CONTINUOUS
 10
137.8986521503
 20
167.1479512501
 11
137.9068652134
 21
167.325893677
  0
LINE
  5
410
100
AcDbEntity
  8
0
100
AcDbLine
 62
7
  6
CONTINUOUS
 10
137.9706813542
 20
168.1160226527
 11
137.9665742189
 21
168.0270517095
  0
LINE
  5
411
100
AcDbEntity
  8
0
100
AcDbLine
 62
7
  6
CONTINUOUS
 10
138.1027695561
 20
166.9281008978
 11
138.0748231527
 21
166.7114846327
  0
LINE
  5
412
100
AcDbEntity
  8
0
100
AcDbLine
 62
7
  6
CONTINUOUS
 10
139.1164536832
 20
166.7327121099
 11
139.1444000753
 21
166.9493283478
  0
LINE
  5
413
100
AcDbEntity
  8
RUNDUNGEN
100
AcDbLine
 62
7
  6
CONTINUOUS
 10
108.2864967935
 20
28.7825037802
 11
110.8238002232
 21
36.5915207746
  0
LINE
  5
414
100
AcDbEntity
  8
RUNDUNGEN
100
AcDbLine
 62
7
  6
CONTINUOUS
 10
151.9170424961
 20
163.0635160071
 11
154.4543459258
 21
170.8725330014
  0
LINE
  5
415
100
AcDbEntity
  8
0
100
AcDbLine
 62
7
  6
CONTINUOUS
 10
164.28851616
 20
147.7281201829
 11
164.3810483257
 21
147.8803328723
  0
LINE
  5
416
100
AcDbEntity
  8
0
100
AcDbLine
 62
7
  6
CONTINUOUS
 10
164.8159209226
 20
148.5431017175
 11
164.7696548625
 21
148.4669953918
  0
LINE
  5
417
100
AcDbEntity
  8
0
100
AcDbLine
 62
7
  6
CONTINUOUS
 10
164.2970411545
 20
147.3846462944
 11
164.2014099056
 21
147.2343613374
  0
LINE
  5
418
100
AcDbEntity
  8
0
100
AcDbLine
 62
7
  6
CONTINUOUS
 10
165.8047294028
 20
147.1845308518
 11
165.9003606802
 21
147.3348157258
  0
LINE
  5
419
100
AcDbEntity
  8
0
100
AcDbLine
 62
7
  6
CONTINUOUS
 10
166.8485334668
 20
144.0292899695
 11
166.7436920875
 21
143.8852788629
  0
LINE
  5
41A
100
AcDbEntity
  8
0
100
AcDbLine
 62
7
  6
CONTINUOUS
 10
168.241316667
 20
143.8771598198
 11
168.3461578325
 21
144.02117118
  0
LINE
  5
41B
100
AcDbEntity
  8
0
100
AcDbLine
 62
7
  6
CONTINUOUS
 10
140.6749883569
 20
104.8065251463
 11
134.9233997619
 21
99.0549365513
  0
LINE
  5
41C
100
AcDbEntity
  8
0
100
AcDbLine
 62
7
  6
CONTINUOUS
 10
119.7913146445
 20
83.9228514339
 11
114.0397260495
 21
78.1712628389
  0
LINE
  5
41D
100
AcDbEntity
  8
0
100
AcDbLine
 62
7
  6
CONTINUOUS
 10
134.9233997619
 20
98.2064084139
 11
120.6398427819
 21
83.9228514339
  0
LINE
  5
41E
100
AcDbEntity
  8
RUNDUNGEN
100
AcDbLine
 62
7
  6
CONTINUOUS
 10
63.9472348569
 20
46.3001816522
 11
70.5899814756
 21
51.1264195734
  0
LINE
  5
41F
100
AcDbEntity
  8
RUNDUNGEN
100
AcDbLine
 62
7
  6
CONTINUOUS
 10
178.173486454
 20
129.2904112521
 11
184.8162330727
 21
134.1166491733
  0
LINE
  5
420
100
AcDbEntity
  8
RUNDUNGEN
100
AcDbLine
 62
7
  6
CONTINUOUS
 10
187.7749493067
 20
125.0106569288
 11
179.5640629287
 21
125.0106569288
  0
LINE
  5
421
100
AcDbEntity
  8
RUNDUNGEN
100
AcDbLine
 62
7
  6
CONTINUOUS
 10
46.5835375177
 20
125.0106569288
 11
38.3726511397
 21
125.0106569288
  0
LINE
  5
422
100
AcDbEntity
  8
0
100
AcDbLine
 62
7
  6
CONTINUOUS
 10
105.5077576645
 20
127.6220505112
 11
106.3562858019
 21
127.6220505112
  0
LINE
  5
423
100
AcDbEntity
  8
0
100
AcDbLine
 62
7
  6
CONTINUOUS
 10
119.7913146445
 20
127.6220505112
 11
120.6398427819
 21
127.6220505112
  0
LINE
  5
424
100
AcDbEntity
  8
RUNDUNGEN
100
AcDbLine
 62
7
  6
CONTINUOUS
 10
184.8162330727
 20
77.4282527718
 11
178.173486454
 21
82.2544906931
  0
LINE
  5
425
100
AcDbEntity
  8
RUNDUNGEN
100
AcDbLine
 62
7
  6
CONTINUOUS
 10
70.5899814756
 20
160.4184823717
 11
63.9472348569
 21
165.244720293
  0
LINE
  5
426
100
AcDbEntity
  8
0
100
AcDbLine
 62
7
  6
CONTINUOUS
 10
114.0397260495
 20
133.3736391062
 11
119.7913146445
 21
127.6220505112
  0
LINE
  5
427
100
AcDbEntity
  8
0
100
AcDbLine
 62
7
  6
CONTINUOUS
 10
134.9233997619
 20
112.4899653938
 11
140.6749883569
 21
106.7383767989
  0
LINE
  5
428
100
AcDbEntity
  8
0
100
AcDbLine
 62
7
  6
CONTINUOUS
 10
120.6398427819
 20
127.6220505112
 11
134.9233997619
 21
113.3384935313
  0
LINE
  5
429
100
AcDbEntity
  8
0
100
AcDbLine
 62
7
  6
CONTINUOUS
 10
88.7424376417
 20
168.7469962526
 11
88.8594544128
 21
168.5873866119
  0
LINE
  5
42A
100
AcDbEntity
  8
0
100
AcDbLine
 62
7
  6
CONTINUOUS
 10
89.1383624001
 20
168.6978869949
 11
89.0213456289
 21
168.8574966356
  0
LINE
  5
42B
100
AcDbEntity
  8
0
100
AcDbLine
 62
7
  6
CONTINUOUS
 10
92.6037964513
 20
168.9680815823
 11
92.4953458867
 21
169.1336310397
  0
LINE
  5
42C
100
AcDbEntity
  8
0
100
AcDbLine
 62
7
  6
CONTINUOUS
 10
95.6066134889
 20
169.9942679922
 11
95.5064380569
 21
170.164952168
  0
LINE
  5
42D
100
AcDbEntity
  8
RUNDUNGEN
100
AcDbLine
 62
7
  6
CONTINUOUS
 10
154.4543459258
 20
40.6723689437
 11
151.9170424961
 21
48.4813859381
  0
LINE
  5
42E
100
AcDbEntity
  8
RUNDUNGEN
100
AcDbLine
 62
7
  6
CONTINUOUS
 10
110.8238002232
 20
174.9533811705
 11
108.2864967935
 21
182.7623981649
  0
LINE
  5
42F
100
AcDbEntity
  8
0
100
AcDbLine
 62
7
  6
CONTINUOUS
 10
138.1472905776
 20
168.09153829
 11
138.1286492809
 21
168.2800912564
  0
LINE
  5
430
100
AcDbEntity
  8
0
100
AcDbLine
 62
7
  6
CONTINUOUS
 10
134.5436240945
 20
168.0422622579
 11
134.5177928783
 21
168.318963682
  0
LINE
  5
431
100
AcDbEntity
  8
0
100
AcDbLine
 62
7
  6
CONTINUOUS
 10
135.4098731759
 20
169.1232715583
 11
135.4357043629
 21
168.8465700507
  0
LINE
  5
432
100
AcDbEntity
  8
0
100
AcDbLine
 62
7
  6
CONTINUOUS
 10
138.0748231527
 20
166.7114846327
 11
138.089763861
 21
166.5226023961
  0
LINE
  5
433
100
AcDbEntity
  8
0
100
AcDbLine
 62
7
  6
CONTINUOUS
 10
139.3776945871
 20
167.5823692826
 11
139.362753873
 21
167.7712515056
  0
LINE
  5
434
100
AcDbEntity
  8
0
100
AcDbLine
 62
7
  6
CONTINUOUS
 10
137.7147752534
 20
167.3111978653
 11
137.722042927
 21
167.1724356128
  0
LINE
  5
435
100
AcDbEntity
  8
0
100
AcDbLine
 62
7
  6
CONTINUOUS
 10
138.2346723796
 20
166.6446730531
 11
138.2301268333
 21
166.7835511017
  0
LINE
  5
436
100
AcDbEntity
  8
0
100
AcDbLine
 62
7
  6
CONTINUOUS
 10
139.2178453602
 20
167.6491808622
 11
139.2223896982
 21
167.5103033506
  0
LINE
  5
437
100
AcDbEntity
  8
0
100
AcDbLine
 62
7
  6
CONTINUOUS
 10
136.8235160737
 20
167.2556772519
 11
136.8266766174
 21
167.0279440699
  0
LINE
  5
438
100
AcDbEntity
  8
0
100
AcDbLine
 62
7
  6
CONTINUOUS
 10
164.9591618597
 20
148.436930461
 11
165.0332158039
 21
148.6113315287
  0
LINE
  5
439
100
AcDbEntity
  8
0
100
AcDbLine
 62
7
  6
CONTINUOUS
 10
164.2054352969
 20
147.9595451423
 11
164.1452752229
 21
147.8342914395
  0
LINE
  5
43A
100
AcDbEntity
  8
0
100
AcDbLine
 62
7
  6
CONTINUOUS
 10
164.3753631693
 20
147.1515676986
 11
164.438076806
 21
147.2755624946
  0
LINE
  5
43B
100
AcDbEntity
  8
0
100
AcDbLine
 62
7
  6
CONTINUOUS
 10
165.7264074395
 20
147.417609383
 11
165.6636937106
 21
147.2936145135
  0
LINE
  5
43C
100
AcDbEntity
  8
0
100
AcDbLine
 62
7
  6
CONTINUOUS
 10
163.3966984638
 20
148.3381887138
 11
163.2902723956
 21
148.1368286292
  0
LINE
  5
43D
100
AcDbEntity
  8
0
100
AcDbLine
 62
7
  6
CONTINUOUS
 10
166.8776306854
 20
143.7675896376
 11
167.0183191348
 21
144.0072512532
  0
LINE
  5
43E
100
AcDbEntity
  8
0
100
AcDbLine
 62
7
  6
CONTINUOUS
 10
168.2122192346
 20
144.1388604053
 11
168.0715307128
 21
143.8991987388
  0
LINE
  5
43F
100
AcDbEntity
  8
0
100
AcDbLine
 62
7
  6
CONTINUOUS
 10
143.3964997087
 20
93.427341259
 11
125.4189099368
 21
75.4497514871
  0
LINE
  5
440
100
AcDbEntity
  8
0
100
AcDbLine
 62
7
  6
CONTINUOUS
 10
164.0481589478
 20
147.7534144798
 11
163.914086426
 21
147.7169142256
  0
LINE
  5
441
100
AcDbEntity
  8
0
100
AcDbLine
 62
7
  6
CONTINUOUS
 10
164.9065879285
 20
146.6889426791
 11
164.7717957211
 21
146.6551970061
  0
LINE
  5
442
100
AcDbEntity
  8
0
100
AcDbLine
 62
7
  6
CONTINUOUS
 10
165.1951825881
 20
147.8802343289
 11
165.3299748878
 21
147.9139800755
  0
LINE
  5
443
100
AcDbEntity
  8
0
100
AcDbLine
 62
7
  6
CONTINUOUS
 10
167.4160849562
 20
143.4397731909
 11
167.1428076468
 21
143.3892712901
  0
LINE
  5
444
100
AcDbEntity
  8
0
100
AcDbLine
 62
7
  6
CONTINUOUS
 10
167.6737648913
 20
144.4666768012
 11
167.9470422732
 21
144.5171787528
  0
LINE
  5
445
100
AcDbEntity
  8
0
100
AcDbLine
 62
7
  6
CONTINUOUS
 10
91.5347949469
 20
167.598249499
 11
91.6906354727
 21
167.4486437273
  0
LINE
  5
446
100
AcDbEntity
  8
0
100
AcDbLine
 62
7
  6
CONTINUOUS
 10
91.8191341288
 20
167.6939115584
 11
91.6632933248
 21
167.84351726
  0
LINE
  5
447
100
AcDbEntity
  8
0
100
AcDbLine
 62
7
  6
CONTINUOUS
 10
92.2110064336
 20
169.0379688891
 11
92.3668469522
 21
168.8883631386
  0
LINE
  5
448
100
AcDbEntity
  8
0
100
AcDbLine
 62
7
  6
CONTINUOUS
 10
92.4953458867
 20
169.1336310397
 11
92.3395050969
 21
169.283236699
  0
LINE
  5
449
100
AcDbEntity
  8
0
100
AcDbLine
 62
7
  6
CONTINUOUS
 10
125.4189099368
 20
136.095150458
 11
143.3964997087
 21
118.1175606862
  0
LINE
  5
44A
100
AcDbEntity
  8
0
100
AcDbLine
 62
7
  6
CONTINUOUS
 10
129.2839121317
 20
170.961260089
 11
129.2393626388
 21
171.145420513
  0
LINE
  5
44B
100
AcDbEntity
  8
0
100
AcDbLine
 62
7
  6
CONTINUOUS
 10
130.7212320187
 20
169.2327611586
 11
130.7582403594
 21
169.0469383754
  0
LINE
  5
44C
100
AcDbEntity
  8
0
100
AcDbLine
 62
7
  6
CONTINUOUS
 10
131.7716908171
 20
169.5460685464
 11
131.7346824723
 21
169.7318913154
  0
LINE
  5
44D
100
AcDbEntity
  8
0
100
AcDbLine
 62
7
  6
CONTINUOUS
 10
128.9635224377
 20
170.1285831414
 11
128.9899183557
 21
169.9921610755
  0
LINE
  5
44E
100
AcDbEntity
  8
0
100
AcDbLine
 62
7
  6
CONTINUOUS
 10
128.0885160592
 20
169.9502853485
 11
128.123154512
 21
169.7251796648
  0
LINE
  5
44F
100
AcDbEntity
  8
0
100
AcDbLine
 62
7
  6
CONTINUOUS
 10
131.6051042936
 20
169.5936552323
 11
131.6259195529
 21
169.4562709038
  0
LINE
  5
450
100
AcDbEntity
  8
0
100
AcDbLine
 62
7
  6
CONTINUOUS
 10
132.1690596757
 20
168.8109614332
 11
132.1327639105
 21
169.0864855651
  0
LINE
  5
451
100
AcDbEntity
  8
0
100
AcDbLine
 62
7
  6
CONTINUOUS
 10
132.9937321116
 20
169.9240132098
 11
133.0300278508
 21
169.6484889933
  0
LINE
  5
452
100
AcDbEntity
  8
0
100
AcDbLine
 62
7
  6
CONTINUOUS
 10
163.4982575208
 20
148.0845753632
 11
163.539939396
 21
148.2320174632
  0
LINE
  5
453
100
AcDbEntity
  8
0
100
AcDbLine
 62
7
  6
CONTINUOUS
 10
164.0672026763
 20
148.7838443724
 11
164.0116268752
 21
148.5872549282
  0
LINE
  5
454
100
AcDbEntity
  8
0
100
AcDbLine
 62
7
  6
CONTINUOUS
 10
164.3810483257
 20
147.8803328723
 11
164.4366240938
 21
148.0769223562
  0
LINE
  5
455
100
AcDbEntity
  8
0
100
AcDbLine
 62
7
  6
CONTINUOUS
 10
164.8437088067
 20
148.6413964595
 11
164.8159209226
 21
148.5431017175
  0
LINE
  5
456
100
AcDbEntity
  8
0
100
AcDbLine
 62
7
  6
CONTINUOUS
 10
164.2014099056
 20
147.2343613374
 11
164.1418180052
 21
147.0389517636
  0
LINE
  5
457
100
AcDbEntity
  8
0
100
AcDbLine
 62
7
  6
CONTINUOUS
 10
164.7083717042
 20
146.9371279608
 11
164.6338817427
 21
146.6928660834
  0
LINE
  5
458
100
AcDbEntity
  8
0
100
AcDbLine
 62
7
  6
CONTINUOUS
 10
164.559391787
 20
146.4486042107
 11
164.5295958884
 21
146.3508993592
  0
LINE
  5
459
100
AcDbEntity
  8
0
100
AcDbLine
 62
7
  6
CONTINUOUS
 10
164.7717957211
 20
146.6551970061
 11
164.8164896635
 21
146.8017541473
  0
LINE
  5
45A
100
AcDbEntity
  8
0
100
AcDbLine
 62
7
  6
CONTINUOUS
 10
164.6377138477
 20
146.2155255457
 11
164.712203706
 21
146.4597875522
  0
LINE
  5
45B
100
AcDbEntity
  8
0
100
AcDbLine
 62
7
  6
CONTINUOUS
 10
165.9003606802
 20
147.3348157258
 11
165.9599525691
 21
147.5302252905
  0
LINE
  5
45C
100
AcDbEntity
  8
0
100
AcDbLine
 62
7
  6
CONTINUOUS
 10
166.7436920875
 20
143.8852788629
 11
166.6899213755
 21
143.741803226
  0
LINE
  5
45D
100
AcDbEntity
  8
0
100
AcDbLine
 62
7
  6
CONTINUOUS
 10
168.3461578325
 20
144.02117118
 11
168.3999285324
 21
144.1646468084
  0
LINE
  5
45E
100
AcDbEntity
  8
0
100
AcDbLine
 62
7
  6
CONTINUOUS
 10
163.7568100882
 20
147.5107835726
 11
163.9602110653
 21
147.5298659905
  0
LINE
  5
45F
100
AcDbEntity
  8
0
100
AcDbLine
 62
7
  6
CONTINUOUS
 10
164.6590688003
 20
149.1264347346
 11
164.4556678676
 21
149.1073522865
  0
LINE
  5
460
100
AcDbEntity
  8
0
100
AcDbLine
 62
7
  6
CONTINUOUS
 10
167.627083278
 20
145.5407392874
 11
166.2998982349
 21
145.4284269389
  0
LINE
  5
461
100
AcDbEntity
  8
0
100
AcDbLine
 62
7
  6
CONTINUOUS
 10
166.4192440224
 20
145.2652979895
 11
167.3550835245
 21
145.3417431871
  0
LINE
  5
462
100
AcDbEntity
  8
0
100
AcDbLine
 62
7
  6
CONTINUOUS
 10
164.712203706
 20
146.4597875522
 11
164.8140783759
 21
146.4672430179
  0
LINE
  5
463
100
AcDbEntity
  8
0
100
AcDbLine
 62
7
  6
CONTINUOUS
 10
165.4914414465
 20
148.1168451059
 11
165.2876922099
 21
148.1019340453
  0
LINE
  5
464
100
AcDbEntity
  8
0
100
AcDbLine
 62
7
  6
CONTINUOUS
 10
167.0545397923
 20
143.221615363
 11
167.2077519597
 21
143.2232214843
  0
LINE
  5
465
100
AcDbEntity
  8
0
100
AcDbLine
 62
7
  6
CONTINUOUS
 10
168.0353101156
 20
144.6848346714
 11
167.8820979603
 21
144.6832285586
  0
LINE
  5
466
100
AcDbEntity
  8
0
100
AcDbLine
 62
7
  6
CONTINUOUS
 10
89.0213456289
 20
168.8574966356
 11
88.7878487674
 21
169.0396149156
  0
LINE
  5
467
100
AcDbEntity
  8
0
100
AcDbLine
 62
7
  6
CONTINUOUS
 10
97.8149637452
 20
168.9802324874
 11
96.7905734297
 21
169.9721628438
  0
LINE
  5
468
100
AcDbEntity
  8
0
100
AcDbLine
 62
7
  6
CONTINUOUS
 10
96.6920868583
 20
169.7497474747
 11
97.5241157401
 21
168.9066972041
  0
LINE
  5
469
100
AcDbEntity
  8
0
100
AcDbLine
 62
7
  6
CONTINUOUS
 10
128.3212748283
 20
169.8072562146
 11
128.2668143126
 21
169.9504714506
  0
LINE
  5
46A
100
AcDbEntity
  8
0
100
AcDbLine
 62
7
  6
CONTINUOUS
 10
128.3610192497
 20
170.7078649652
 11
128.4336333334
 21
170.5169113425
  0
LINE
  5
46B
100
AcDbEntity
  8
0
100
AcDbLine
 62
7
  6
CONTINUOUS
 10
129.1517317208
 20
170.1697144602
 11
129.0791176371
 21
170.3606680829
  0
LINE
  5
46C
100
AcDbEntity
  8
0
100
AcDbLine
 62
7
  6
CONTINUOUS
 10
129.0693069168
 20
171.0565507788
 11
129.1056138784
 21
170.9610739869
  0
LINE
  5
46D
100
AcDbEntity
  8
0
100
AcDbLine
 62
7
  6
CONTINUOUS
 10
131.9910726531
 20
168.821493364
 11
132.0368258728
 21
168.6752634398
  0
LINE
  5
46E
100
AcDbEntity
  8
0
100
AcDbLine
 62
7
  6
CONTINUOUS
 10
133.1717191342
 20
169.913481279
 11
133.1259659102
 21
170.0597111891
  0
LINE
  5
46F
100
AcDbEntity
  8
0
100
AcDbLine
 62
7
  6
CONTINUOUS
 10
134.3661638662
 20
168.0595298334
 11
134.40634418
 21
167.9116714883
  0
LINE
  5
470
100
AcDbEntity
  8
0
100
AcDbLine
 62
7
  6
CONTINUOUS
 10
135.5873334041
 20
169.1060039828
 11
135.5471530855
 21
169.2538623141
  0
LINE
  5
471
100
AcDbEntity
  8
0
100
AcDbLine
 62
7
  6
CONTINUOUS
 10
137.0342473195
 20
167.0818200698
 11
137.000125297
 21
167.2311928892
  0
LINE
  5
472
100
AcDbEntity
  8
0
100
AcDbLine
 62
7
  6
CONTINUOUS
 10
137.1982143355
 20
167.9682683528
 11
137.2437105848
 21
167.7691045492
  0
LINE
  5
473
100
AcDbEntity
  8
0
100
AcDbLine
 62
7
  6
CONTINUOUS
 10
137.9068652134
 20
167.325893677
 11
137.8613695787
 21
167.5250572377
  0
LINE
  5
474
100
AcDbEntity
  8
0
100
AcDbLine
 62
7
  6
CONTINUOUS
 10
137.9479329223
 20
168.2156046759
 11
137.9706813542
 21
168.1160226527
  0
LINE
  5
475
100
AcDbEntity
  8
0
100
AcDbLine
 62
7
  6
CONTINUOUS
 10
138.9683048736
 20
166.977270819
 11
138.989096406
 21
166.877261906
  0
LINE
  5
476
100
AcDbEntity
  8
0
100
AcDbLine
 62
7
  6
CONTINUOUS
 10
139.1444000753
 20
166.9493283478
 11
139.1132133864
 21
167.0993414624
  0
LINE
  5
477
100
AcDbEntity
  8
0
100
AcDbLine
 62
7
  6
CONTINUOUS
 10
164.3635868445
 20
147.0313006172
 11
164.3753631693
 21
147.1515676986
  0
LINE
  5
478
100
AcDbEntity
  8
0
100
AcDbLine
 62
7
  6
CONTINUOUS
 10
165.0332158039
 20
148.6113315287
 11
165.0564195331
 21
148.7809619626
  0
LINE
  5
479
100
AcDbEntity
  8
0
100
AcDbLine
 62
7
  6
CONTINUOUS
 10
166.858357128
 20
143.6482942993
 11
166.8776306854
 21
143.7675896376
  0
LINE
  5
47A
100
AcDbEntity
  8
0
100
AcDbLine
 62
7
  6
CONTINUOUS
 10
163.914086426
 20
147.7169142256
 11
163.7939077972
 21
147.7295613552
  0
LINE
  5
47B
100
AcDbEntity
  8
0
100
AcDbLine
 62
7
  6
CONTINUOUS
 10
167.1428076468
 20
143.3892712901
 11
167.0240926341
 21
143.4118454675
  0
LINE
  5
47C
100
AcDbEntity
  8
0
100
AcDbLine
 62
7
  6
CONTINUOUS
 10
88.6024468343
 20
168.8288470098
 11
88.7424376417
 21
168.7469962526
  0
LINE
  5
47D
100
AcDbEntity
  8
0
100
AcDbLine
 62
7
  6
CONTINUOUS
 10
91.6906354727
 20
167.4486437273
 11
91.8261223676
 21
167.3595356573
  0
LINE
  5
47E
100
AcDbEntity
  8
0
100
AcDbLine
 62
7
  6
CONTINUOUS
 10
91.9546210202
 20
167.604803499
 11
91.8191341288
 21
167.6939115584
  0
LINE
  5
47F
100
AcDbEntity
  8
0
100
AcDbLine
 62
7
  6
CONTINUOUS
 10
92.0755195422
 20
169.1270769485
 11
92.2110064336
 21
169.0379688891
  0
LINE
  5
480
100
AcDbEntity
  8
0
100
AcDbLine
 62
7
  6
CONTINUOUS
 10
92.3395050969
 20
169.283236699
 11
92.2040179343
 21
169.3723446672
  0
LINE
  5
481
100
AcDbEntity
  8
0
100
AcDbLine
 62
7
  6
CONTINUOUS
 10
95.2350897207
 20
170.0219685285
 11
95.3660290755
 21
169.9263030353
  0
LINE
  5
482
100
AcDbEntity
  8
0
100
AcDbLine
 62
7
  6
CONTINUOUS
 10
95.5064380569
 20
170.164952168
 11
95.3754992528
 21
170.2606178167
  0
LINE
  5
483
100
AcDbEntity
  8
0
100
AcDbLine
 62
7
  6
CONTINUOUS
 10
130.9479693455
 20
169.0803664167
 11
130.8878185422
 21
169.1851744727
  0
LINE
  5
484
100
AcDbEntity
  8
0
100
AcDbLine
 62
7
  6
CONTINUOUS
 10
129.2393626388
 20
171.145420513
 11
129.1568376859
 21
171.2954288801
  0
LINE
  5
485
100
AcDbEntity
  8
0
100
AcDbLine
 62
7
  6
CONTINUOUS
 10
132.2271669516
 20
168.7050070328
 11
132.1690596757
 21
168.8109614332
  0
LINE
  5
486
100
AcDbEntity
  8
0
100
AcDbLine
 62
7
  6
CONTINUOUS
 10
134.5976757832
 20
167.9341823677
 11
134.5436240945
 21
168.0422622579
  0
LINE
  5
487
100
AcDbEntity
  8
0
100
AcDbLine
 62
7
  6
CONTINUOUS
 10
138.2821050433
 20
166.5335290468
 11
138.2346723796
 21
166.6446730531
  0
LINE
  5
488
100
AcDbEntity
  8
0
100
AcDbLine
 62
7
  6
CONTINUOUS
 10
138.1286492809
 20
168.2800912564
 11
138.0676716803
 21
168.4400751283
  0
LINE
  5
489
100
AcDbEntity
  8
0
100
AcDbLine
 62
7
  6
CONTINUOUS
 10
164.0116268752
 20
148.5872549282
 11
164.0207952509
 21
148.444583465
  0
LINE
  5
48A
100
AcDbEntity
  8
0
100
AcDbLine
 62
7
  6
CONTINUOUS
 10
164.4366240938
 20
148.0769223562
 11
164.4274557313
 21
148.2195938035
  0
LINE
  5
48B
100
AcDbEntity
  8
0
100
AcDbLine
 62
7
  6
CONTINUOUS
 10
164.1418180052
 20
147.0389517636
 11
164.1480612859
 21
146.8961224774
  0
LINE
  5
48C
100
AcDbEntity
  8
0
100
AcDbLine
 62
7
  6
CONTINUOUS
 10
165.9599525691
 20
147.5302252905
 11
165.9537091766
 21
147.6730546988
  0
LINE
  5
48D
100
AcDbEntity
  8
0
100
AcDbLine
 62
7
  6
CONTINUOUS
 10
163.2902723956
 20
148.1368286292
 11
163.2855468142
 21
147.9450097959
  0
LINE
  5
48E
100
AcDbEntity
  8
0
100
AcDbLine
 62
7
  6
CONTINUOUS
 10
164.233505951
 20
148.5841489998
 11
164.2428156985
 21
148.7046321103
  0
LINE
  5
48F
100
AcDbEntity
  8
0
100
AcDbLine
 62
7
  6
CONTINUOUS
 10
164.2147450576
 20
148.0800282369
 11
164.2054352969
 21
147.9595451423
  0
LINE
  5
490
100
AcDbEntity
  8
0
100
AcDbLine
 62
7
  6
CONTINUOUS
 10
165.7381837413
 20
147.5378764461
 11
165.7264074395
 21
147.417609383
  0
LINE
  5
491
100
AcDbEntity
  8
0
100
AcDbLine
 62
7
  6
CONTINUOUS
 10
166.6899213755
 20
143.741803226
 11
166.6692976919
 21
143.5510379331
  0
LINE
  5
492
100
AcDbEntity
  8
0
100
AcDbLine
 62
7
  6
CONTINUOUS
 10
168.3999285324
 20
144.1646468084
 11
168.420552207
 21
144.355412095
  0
LINE
  5
493
100
AcDbEntity
  8
0
100
AcDbLine
 62
7
  6
CONTINUOUS
 10
168.231492792
 20
144.2581557436
 11
168.2122192346
 21
144.1388604053
  0
LINE
  5
494
100
AcDbEntity
  8
0
100
AcDbLine
 62
7
  6
CONTINUOUS
 10
137.3978940119
 20
166.6663559819
 11
137.5362740706
 21
166.7022734782
  0
LINE
  5
495
100
AcDbEntity
  8
0
100
AcDbLine
 62
7
  6
CONTINUOUS
 10
137.6917054164
 20
168.5886256341
 11
137.5533253617
 21
168.552708148
  0
LINE
  5
496
100
AcDbEntity
  8
0
100
AcDbLine
 62
7
  6
CONTINUOUS
 10
164.501792523
 20
148.9203040782
 11
164.6219711423
 21
148.9076569139
  0
LINE
  5
497
100
AcDbEntity
  8
0
100
AcDbLine
 62
7
  6
CONTINUOUS
 10
165.3299748878
 20
147.9139800755
 11
165.4498691488
 21
147.8988733251
  0
LINE
  5
498
100
AcDbEntity
  8
0
100
AcDbLine
 62
7
  6
CONTINUOUS
 10
167.9470422732
 20
144.5171787528
 11
168.0657572859
 21
144.4946045754
  0
LINE
  5
499
100
AcDbEntity
  8
0
100
AcDbLine
 62
7
  6
CONTINUOUS
 10
166.8681806026
 20
143.2672989019
 11
167.0545397923
 21
143.221615363
  0
LINE
  5
49A
100
AcDbEntity
  8
0
100
AcDbLine
 62
7
  6
CONTINUOUS
 10
168.2216692963
 20
144.6391511262
 11
168.0353101156
 21
144.6848346714
  0
LINE
  5
49B
100
AcDbEntity
  8
0
100
AcDbLine
 62
7
  6
CONTINUOUS
 10
91.8261223676
 20
167.3595356573
 11
91.9412559047
 21
167.3309253749
  0
LINE
  5
49C
100
AcDbEntity
  8
0
100
AcDbLine
 62
7
  6
CONTINUOUS
 10
163.6181533503
 20
147.5456190667
 11
163.7568100882
 21
147.5107835726
  0
LINE
  5
49D
100
AcDbEntity
  8
0
100
AcDbLine
 62
7
  6
CONTINUOUS
 10
164.797725543
 20
149.0915992176
 11
164.6590688003
 21
149.1264347346
  0
LINE
  5
49E
100
AcDbEntity
  8
0
100
AcDbLine
 62
7
  6
CONTINUOUS
 10
165.6293552987
 20
148.0791761393
 11
165.4914414465
 21
148.1168451059
  0
LINE
  5
49F
100
AcDbEntity
  8
0
100
AcDbLine
 62
7
  6
CONTINUOUS
 10
88.7878487674
 20
169.0396149156
 11
88.5313780026
 21
169.1439743648
  0
LINE
  5
4A0
100
AcDbEntity
  8
0
100
AcDbLine
 62
7
  6
CONTINUOUS
 10
95.3754992528
 20
170.2606178167
 11
95.1964432356
 21
170.3426903807
  0
LINE
  5
4A1
100
AcDbEntity
  8
0
100
AcDbLine
 62
7
  6
CONTINUOUS
 10
128.4336333334
 20
170.5169113425
 11
128.526069316
 21
170.407848192
  0
LINE
  5
4A2
100
AcDbEntity
  8
0
100
AcDbLine
 62
7
  6
CONTINUOUS
 10
129.0791176371
 20
170.3606680829
 11
128.9866814939
 21
170.4697312722
  0
LINE
  5
4A3
100
AcDbEntity
  8
0
100
AcDbLine
 62
7
  6
CONTINUOUS
 10
128.123154512
 20
169.7251796648
 11
128.2337440531
 21
169.5683780882
  0
LINE
  5
4A4
100
AcDbEntity
  8
0
100
AcDbLine
 62
7
  6
CONTINUOUS
 10
130.7582403594
 20
169.0469383754
 11
130.8623488775
 21
168.8857606933
  0
LINE
  5
4A5
100
AcDbEntity
  8
0
100
AcDbLine
 62
7
  6
CONTINUOUS
 10
131.7346824723
 20
169.7318913154
 11
131.6305739512
 21
169.8930689868
  0
LINE
  5
4A6
100
AcDbEntity
  8
0
100
AcDbLine
 62
7
  6
CONTINUOUS
 10
137.2437105848
 20
167.7691045492
 11
137.3201676928
 21
167.6483013375
  0
LINE
  5
4A7
100
AcDbEntity
  8
0
100
AcDbLine
 62
7
  6
CONTINUOUS
 10
137.8613695787
 20
167.5250572377
 11
137.7849124708
 21
167.6458604495
  0
LINE
  5
4A8
100
AcDbEntity
  8
0
100
AcDbLine
 62
7
  6
CONTINUOUS
 10
128.6136000851
 20
170.6467262933
 11
128.5492285328
 21
170.748996284
  0
LINE
  5
4A9
100
AcDbEntity
  8
0
100
AcDbLine
 62
7
  6
CONTINUOUS
 10
128.8991508854
 20
170.2308531321
 11
128.9635224377
 21
170.1285831414
  0
LINE
  5
4AA
100
AcDbEntity
  8
0
100
AcDbLine
 62
7
  6
CONTINUOUS
 10
132.0368258728
 20
168.6752634398
 11
132.1377900839
 21
168.5120977056
  0
LINE
  5
4AB
100
AcDbEntity
  8
0
100
AcDbLine
 62
7
  6
CONTINUOUS
 10
133.1259659102
 20
170.0597111891
 11
133.0250020118
 21
170.2228768158
  0
LINE
  5
4AC
100
AcDbEntity
  8
0
100
AcDbLine
 62
7
  6
CONTINUOUS
 10
131.5449534903
 20
169.6984632883
 11
131.6051042936
 21
169.5936552323
  0
LINE
  5
4AD
100
AcDbEntity
  8
0
100
AcDbLine
 62
7
  6
CONTINUOUS
 10
134.40634418
 20
167.9116714883
 11
134.5010539063
 21
167.7447978803
  0
LINE
  5
4AE
100
AcDbEntity
  8
0
100
AcDbLine
 62
7
  6
CONTINUOUS
 10
135.5471530855
 20
169.2538623141
 11
135.4524433555
 21
169.4207359116
  0
LINE
  5
4AF
100
AcDbEntity
  8
0
100
AcDbLine
 62
7
  6
CONTINUOUS
 10
132.9356245198
 20
170.0299677071
 11
132.9937321116
 21
169.9240132098
  0
LINE
  5
4B0
100
AcDbEntity
  8
0
100
AcDbLine
 62
7
  6
CONTINUOUS
 10
136.8266766174
 20
167.0279440699
 11
136.9145079373
 21
166.8573498362
  0
LINE
  5
4B1
100
AcDbEntity
  8
0
100
AcDbLine
 62
7
  6
CONTINUOUS
 10
135.3558214871
 20
169.2313514486
 11
135.4098731759
 21
169.1232715583
  0
LINE
  5
4B2
100
AcDbEntity
  8
0
100
AcDbLine
 62
7
  6
CONTINUOUS
 10
138.089763861
 20
166.5226023961
 11
138.1742328083
 21
166.3503190846
  0
LINE
  5
4B3
100
AcDbEntity
  8
0
100
AcDbLine
 62
7
  6
CONTINUOUS
 10
139.1132133864
 20
167.0993414624
 11
139.0287432153
 21
167.2716252734
  0
LINE
  5
4B4
100
AcDbEntity
  8
0
100
AcDbLine
 62
7
  6
CONTINUOUS
 10
139.362753873
 20
167.7712515056
 11
139.2782837019
 21
167.9435353166
  0
LINE
  5
4B5
100
AcDbEntity
  8
0
100
AcDbLine
 62
7
  6
CONTINUOUS
 10
137.4399070655
 20
167.872771547
 11
137.3903042955
 21
167.9829641645
  0
LINE
  5
4B6
100
AcDbEntity
  8
0
100
AcDbLine
 62
7
  6
CONTINUOUS
 10
137.6651724834
 20
167.4213904828
 11
137.7147752534
 21
167.3111978653
  0
LINE
  5
4B7
100
AcDbEntity
  8
0
100
AcDbLine
 62
7
  6
CONTINUOUS
 10
138.9208722098
 20
167.0884148253
 11
138.9683048736
 21
166.977270819
  0
LINE
  5
4B8
100
AcDbEntity
  8
0
100
AcDbLine
 62
7
  6
CONTINUOUS
 10
139.1704126964
 20
167.7603248685
 11
139.2178453602
 21
167.6491808622
  0
LINE
  5
4B9
100
AcDbEntity
  8
RUNDUNGEN
100
AcDbLine
 62
7
  6
CONTINUOUS
 10
178.4652909405
 20
62.7953563995
 11
177.9022372379
 21
68.3075064953
  0
LINE
  5
4BA
100
AcDbEntity
  8
RUNDUNGEN
100
AcDbLine
 62
7
  6
CONTINUOUS
 10
177.9022372467
 20
143.2373955362
 11
178.4652909405
 21
148.7495455457
  0
LINE
  5
4BB
100
AcDbEntity
  8
RUNDUNGEN
100
AcDbLine
 62
7
  6
CONTINUOUS
 10
140.7153251246
 20
32.5670972251
 11
143.4997656451
 21
37.3574749907
  0
LINE
  5
4BC
100
AcDbEntity
  8
RUNDUNGEN
100
AcDbLine
 62
7
  6
CONTINUOUS
 10
187.5424493864
 20
97.9770286063
 11
191.2379298774
 21
102.105496982
  0
LINE
  5
4BD
100
AcDbEntity
  8
RUNDUNGEN
100
AcDbLine
 62
7
  6
CONTINUOUS
 10
92.4072362972
 20
30.3007950237
 11
97.4756094018
 21
32.5396389717
  0
LINE
  5
4BE
100
AcDbEntity
  8
0
100
AcDbLine
 62
7
  6
CONTINUOUS
 10
128.7325324696
 20
171.138069008
 11
128.8266371111
 21
171.1586346674
  0
LINE
  5
4BF
100
AcDbEntity
  8
RUNDUNGEN
100
AcDbLine
 62
7
  6
CONTINUOUS
 10
57.4094318039
 20
155.8506538814
 11
51.9930724589
 21
154.6828017375
  0
LINE
  5
4C0
100
AcDbEntity
  8
0
100
AcDbLine
 62
7
  6
CONTINUOUS
 10
128.7703074781
 20
169.6985652294
 11
128.6481382458
 21
169.6847927687
  0
LINE
  5
4C1
100
AcDbEntity
  8
0
100
AcDbLine
 62
7
  6
CONTINUOUS
 10
137.625675949
 20
168.3429337502
 11
137.721720929
 21
168.3502816561
  0
LINE
  5
4C2
100
AcDbEntity
  8
0
100
AcDbLine
 62
7
  6
CONTINUOUS
 10
131.3366713396
 20
168.9693307859
 11
131.2140425339
 21
168.9605478564
  0
LINE
  5
4C3
100
AcDbEntity
  8
0
100
AcDbLine
 62
7
  6
CONTINUOUS
 10
131.1562514962
 20
169.8094989191
 11
131.2788806196
 21
169.8182817578
  0
LINE
  5
4C4
100
AcDbEntity
  8
0
100
AcDbLine
 62
7
  6
CONTINUOUS
 10
138.6284446284
 20
166.3887707944
 11
138.5322740401
 21
166.3833074759
  0
LINE
  5
4C5
100
AcDbEntity
  8
0
100
AcDbLine
 62
7
  6
CONTINUOUS
 10
138.5745326247
 20
167.2331730777
 11
138.670703213
 21
167.2386363962
  0
LINE
  5
4C6
100
AcDbEntity
  8
0
100
AcDbLine
 62
7
  6
CONTINUOUS
 10
138.8507142426
 20
167.8939480276
 11
138.9468848309
 21
167.8994113461
  0
LINE
  5
4C7
100
AcDbEntity
  8
0
100
AcDbLine
 62
7
  6
CONTINUOUS
 10
91.9412559047
 20
167.3309253749
 11
92.1511688076
 21
167.3342023239
  0
LINE
  5
4C8
100
AcDbEntity
  8
0
100
AcDbLine
 62
7
  6
CONTINUOUS
 10
92.1645341996
 20
167.6080805234
 11
91.9546210202
 21
167.604803499
  0
LINE
  5
4C9
100
AcDbEntity
  8
0
100
AcDbLine
 62
7
  6
CONTINUOUS
 10
88.4394821237
 20
168.8329389362
 11
88.6024468343
 21
168.8288470098
  0
LINE
  5
4CA
100
AcDbEntity
  8
0
100
AcDbLine
 62
7
  6
CONTINUOUS
 10
137.4639228741
 20
166.9120481326
 11
137.3410235561
 21
166.915310821
  0
LINE
  5
4CB
100
AcDbEntity
  8
0
100
AcDbLine
 62
7
  6
CONTINUOUS
 10
95.1964432356
 20
170.3426903807
 11
95.034739958
 21
170.3633371912
  0
LINE
  5
4CC
100
AcDbEntity
  8
RUNDUNGEN
100
AcDbLine
 62
7
  6
CONTINUOUS
 10
174.1545279875
 20
154.6828017375
 11
168.7381685573
 21
155.8506538998
  0
LINE
  5
4CD
100
AcDbEntity
  8
0
100
AcDbLine
 62
7
  6
CONTINUOUS
 10
92.2040179343
 20
169.3723446672
 11
92.0888846702
 21
169.4009550355
  0
LINE
  5
4CE
100
AcDbEntity
  8
0
100
AcDbLine
 62
7
  6
CONTINUOUS
 10
95.1215036562
 20
170.0562084237
 11
95.2350897207
 21
170.0219685285
  0
LINE
  5
4CF
100
AcDbEntity
  8
RUNDUNGEN
100
AcDbLine
 62
7
  6
CONTINUOUS
 10
97.475609399
 20
179.0052629746
 11
92.4072362972
 21
181.2441069214
  0
LINE
  5
4D0
100
AcDbEntity
  8
0
100
AcDbLine
 62
7
  6
CONTINUOUS
 10
164.6219711423
 20
148.9076569139
 11
164.7097776567
 21
148.8680507789
  0
LINE
  5
4D1
100
AcDbEntity
  8
0
100
AcDbLine
 62
7
  6
CONTINUOUS
 10
164.4724151638
 20
146.490001037
 11
164.559391787
 21
146.4486042107
  0
LINE
  5
4D2
100
AcDbEntity
  8
0
100
AcDbLine
 62
7
  6
CONTINUOUS
 10
164.6338817427
 20
146.6928660834
 11
164.5469051224
 21
146.734262912
  0
LINE
  5
4D3
100
AcDbEntity
  8
0
100
AcDbLine
 62
7
  6
CONTINUOUS
 10
163.7939077972
 20
147.7295613552
 11
163.6876231331
 21
147.7913558746
  0
LINE
  5
4D4
100
AcDbEntity
  8
0
100
AcDbLine
 62
7
  6
CONTINUOUS
 10
128.4236220012
 20
169.7391382419
 11
128.3212748283
 21
169.8072562146
  0
LINE
  5
4D5
100
AcDbEntity
  8
0
100
AcDbLine
 62
7
  6
CONTINUOUS
 10
128.526069316
 20
170.407848192
 11
128.6284164889
 21
170.3397302194
  0
LINE
  5
4D6
100
AcDbEntity
  8
0
100
AcDbLine
 62
7
  6
CONTINUOUS
 10
128.7968037125
 20
170.2989711048
 11
128.8991508854
 21
170.2308531321
  0
LINE
  5
4D7
100
AcDbEntity
  8
0
100
AcDbLine
 62
7
  6
CONTINUOUS
 10
131.0474560104
 20
169.0081345424
 11
130.9479693455
 21
169.0803664167
  0
LINE
  5
4D8
100
AcDbEntity
  8
0
100
AcDbLine
 62
7
  6
CONTINUOUS
 10
131.4454671431
 20
169.7706950718
 11
131.5449534903
 21
169.6984632883
  0
LINE
  5
4D9
100
AcDbEntity
  8
0
100
AcDbLine
 62
7
  6
CONTINUOUS
 10
128.6878826672
 20
170.5854015194
 11
128.6136000851
 21
170.6467262933
  0
LINE
  5
4DA
100
AcDbEntity
  8
0
100
AcDbLine
 62
7
  6
CONTINUOUS
 10
128.9950243347
 20
171.1178755528
 11
129.0693069168
 21
171.0565507788
  0
LINE
  5
4DB
100
AcDbEntity
  8
0
100
AcDbLine
 62
7
  6
CONTINUOUS
 10
137.1261857788
 20
167.0001967896
 11
137.0342473195
 21
167.0818200698
  0
LINE
  5
4DC
100
AcDbEntity
  8
0
100
AcDbLine
 62
7
  6
CONTINUOUS
 10
137.3201676928
 20
167.6483013375
 11
137.4121061521
 21
167.5666780573
  0
LINE
  5
4DD
100
AcDbEntity
  8
0
100
AcDbLine
 62
7
  6
CONTINUOUS
 10
137.5732346387
 20
167.5030135201
 11
137.6651724834
 21
167.4213904828
  0
LINE
  5
4DE
100
AcDbEntity
  8
0
100
AcDbLine
 62
7
  6
CONTINUOUS
 10
137.5049905722
 20
167.801759104
 11
137.4399070655
 21
167.872771547
  0
LINE
  5
4DF
100
AcDbEntity
  8
0
100
AcDbLine
 62
7
  6
CONTINUOUS
 10
137.8828494156
 20
168.2866171189
 11
137.9479329223
 21
168.2156046759
  0
LINE
  5
4E0
100
AcDbEntity
  8
RUNDUNGEN
100
AcDbLine
 62
7
  6
CONTINUOUS
 10
191.2379298774
 20
109.4394049631
 11
187.5424493286
 21
113.5678734035
  0
LINE
  5
4E1
100
AcDbEntity
  8
0
100
AcDbLine
 62
7
  6
CONTINUOUS
 10
138.3457836819
 20
166.4612541487
 11
138.2821050433
 21
166.5335290468
  0
LINE
  5
4E2
100
AcDbEntity
  8
0
100
AcDbLine
 62
7
  6
CONTINUOUS
 10
138.8571935712
 20
167.1606897234
 11
138.9208722098
 21
167.0884148253
  0
LINE
  5
4E3
100
AcDbEntity
  8
0
100
AcDbLine
 62
7
  6
CONTINUOUS
 10
139.1067340578
 20
167.8325997666
 11
139.1704126964
 21
167.7603248685
  0
LINE
  5
4E4
100
AcDbEntity
  8
RUNDUNGEN
100
AcDbLine
 62
7
  6
CONTINUOUS
 10
143.4997656015
 20
174.1874270294
 11
140.7153251246
 21
178.9778047201
  0
LINE
  5
4E5
100
AcDbEntity
  8
0
100
AcDbLine
 62
7
  6
CONTINUOUS
 10
163.5397979883
 20
147.9688628865
 11
163.4982575208
 21
148.0845753632
  0
LINE
  5
4E6
100
AcDbEntity
  8
0
100
AcDbLine
 62
7
  6
CONTINUOUS
 10
164.0207952509
 20
148.444583465
 11
164.0623357316
 21
148.3288709725
  0
LINE
  5
4E7
100
AcDbEntity
  8
0
100
AcDbLine
 62
7
  6
CONTINUOUS
 10
164.173204577
 20
148.1957407294
 11
164.2147450576
 21
148.0800282369
  0
LINE
  5
4E8
100
AcDbEntity
  8
0
100
AcDbLine
 62
7
  6
CONTINUOUS
 10
164.4027478777
 20
146.914761287
 11
164.3635868445
 21
147.0313006172
  0
LINE
  5
4E9
100
AcDbEntity
  8
0
100
AcDbLine
 62
7
  6
CONTINUOUS
 10
164.2565682819
 20
148.4906248918
 11
164.233505951
 21
148.5841489998
  0
LINE
  5
4EA
100
AcDbEntity
  8
0
100
AcDbLine
 62
7
  6
CONTINUOUS
 10
164.8206465021
 20
148.7349205358
 11
164.8437088067
 21
148.6413964595
  0
LINE
  5
4EB
100
AcDbEntity
  8
RUNDUNGEN
100
AcDbLine
 62
7
  6
CONTINUOUS
 10
177.9002992313
 20
68.6934090608
 11
177.9022371698
 21
68.3075071511
  0
LINE
  5
4EC
100
AcDbEntity
  8
RUNDUNGEN
100
AcDbLine
 62
7
  6
CONTINUOUS
 10
177.9002992887
 20
142.8514928815
 11
177.9022372248
 21
143.2373947884
  0
LWPOLYLINE
  5
4ED
100
AcDbEntity
  8
RUNDUNGEN
100
AcDbPolyline
 62
7
  6
CONTINUOUS
 90
3
 70
0
 10
179.5640629287
 20
86.5342450164
 10
179.5669407281
 20
86.5538179164
 10
179.6923072295
 20
87.3404230924
  0
LINE
  5
4EE
100
AcDbEntity
  8
RUNDUNGEN
100
AcDbLine
 62
7
  6
CONTINUOUS
 10
179.6923072295
 20
87.3404230924
 11
179.722447369
 21
87.5342450164
  0
LINE
  5
4EF
100
AcDbEntity
  8
RUNDUNGEN
100
AcDbLine
 62
7
  6
CONTINUOUS
 10
167.2036673045
 20
54.1342098466
 11
166.3602741957
 21
49.9372193138
  0
LINE
  5
4F0
100
AcDbEntity
  8
RUNDUNGEN
100
AcDbLine
 62
7
  6
CONTINUOUS
 10
167.2001611886
 20
54.1329527583
 11
167.3122062026
 21
54.5024669342
  0
LINE
  5
4F1
100
AcDbEntity
  8
RUNDUNGEN
100
AcDbLine
 62
7
  6
CONTINUOUS
 10
187.215881524
 20
115.7350058962
 11
187.0893328604
 21
115.3702042244
  0
LINE
  5
4F2
100
AcDbEntity
  8
RUNDUNGEN
100
AcDbLine
 62
7
  6
CONTINUOUS
 10
189.0025854156
 20
119.6230909833
 11
187.2179792077
 21
115.731928077
  0
LWPOLYLINE
  5
4F3
100
AcDbEntity
  8
RUNDUNGEN
100
AcDbPolyline
 62
7
  6
CONTINUOUS
 90
3
 70
0
 10
178.173486454
 20
82.2544906931
 10
178.1647011454
 20
82.2367650479
 10
177.8023961501
 20
81.527399449
  0
LINE
  5
4F4
100
AcDbEntity
  8
RUNDUNGEN
100
AcDbLine
 62
7
  6
CONTINUOUS
 10
177.8023961501
 20
81.527399449
 11
177.7138369056
 21
81.3523776605
  0
LINE
  5
4F5
100
AcDbEntity
  8
RUNDUNGEN
100
AcDbLine
 62
7
  6
CONTINUOUS
 10
143.7250256017
 20
37.6708158561
 11
143.4997659756
 21
37.3574755613
  0
LINE
  5
4F6
100
AcDbEntity
  8
RUNDUNGEN
100
AcDbLine
 62
7
  6
CONTINUOUS
 10
187.3140536562
 20
97.6659659036
 11
187.5424489292
 21
97.9770280142
  0
LWPOLYLINE
  5
4F7
100
AcDbEntity
  8
RUNDUNGEN
100
AcDbPolyline
 62
7
  6
CONTINUOUS
 90
3
 70
0
 10
155.5576189708
 20
51.1264195734
 10
155.5714518214
 20
51.1405628541
 10
156.1352303733
 20
51.7032512287
  0
LINE
  5
4F8
100
AcDbEntity
  8
RUNDUNGEN
100
AcDbLine
 62
7
  6
CONTINUOUS
 10
156.1352303733
 20
51.7032512287
 11
156.273539927
 21
51.8423405296
  0
LINE
  5
4F9
100
AcDbEntity
  8
RUNDUNGEN
100
AcDbLine
 62
7
  6
CONTINUOUS
 10
126.5135860071
 20
32.179498763
 11
123.3643375099
 21
29.279796128
  0
LINE
  5
4FA
100
AcDbEntity
  8
RUNDUNGEN
100
AcDbLine
 62
7
  6
CONTINUOUS
 10
126.5100106017
 20
32.1805426005
 11
126.8178519053
 21
32.4136274417
  0
LINE
  5
4FB
100
AcDbEntity
  8
RUNDUNGEN
100
AcDbLine
 62
7
  6
CONTINUOUS
 10
178.9118468532
 20
70.2527052503
 11
178.5950417909
 21
70.0319579364
  0
LINE
  5
4FC
100
AcDbEntity
  8
RUNDUNGEN
100
AcDbLine
 62
7
  6
CONTINUOUS
 10
182.6426797392
 20
72.3480339636
 11
178.9117348181
 21
70.2489822548
  0
LWPOLYLINE
  5
4FD
100
AcDbEntity
  8
RUNDUNGEN
100
AcDbPolyline
 62
7
  6
CONTINUOUS
 90
3
 70
0
 10
151.9170424961
 20
48.4813859381
 10
151.8995161594
 20
48.4722094648
 10
151.1894506235
 20
48.1112781731
  0
LINE
  5
4FE
100
AcDbEntity
  8
RUNDUNGEN
100
AcDbLine
 62
7
  6
CONTINUOUS
 10
151.1894506235
 20
48.1112781731
 11
151.0149294635
 21
48.0217363897
  0
LINE
  5
4FF
100
AcDbEntity
  8
RUNDUNGEN
100
AcDbLine
 62
7
  6
CONTINUOUS
 10
97.8420256744
 20
32.6607325765
 11
97.4756100045
 21
32.5396392391
  0
LINE
  5
500
100
AcDbEntity
  8
RUNDUNGEN
100
AcDbLine
 62
7
  6
CONTINUOUS
 10
168.3705545457
 20
55.5768406927
 11
168.7381679241
 21
55.6942478534
  0
LINE
  5
501
100
AcDbEntity
  8
0
100
AcDbLine
 62
7
  6
CONTINUOUS
 10
94.7239244472
 20
168.1530392488
 11
94.96450831
 21
168.2210040501
  0
LINE
  5
502
100
AcDbEntity
  8
0
100
AcDbLine
 62
7
  6
CONTINUOUS
 10
95.8306115378
 20
168.4656777082
 11
96.0711959512
 21
168.533642665
  0
LINE
  5
503
100
AcDbEntity
  8
0
100
AcDbLine
 62
7
  6
CONTINUOUS
 10
95.034739958
 20
170.3633371912
 11
94.8422722069
 21
170.3089651635
  0
LINE
  5
504
100
AcDbEntity
  8
0
100
AcDbLine
 62
7
  6
CONTINUOUS
 10
94.4092205931
 20
170.1866283345
 11
94.1686367303
 21
170.1186635332
  0
LINE
  5
505
100
AcDbEntity
  8
0
100
AcDbLine
 62
7
  6
CONTINUOUS
 10
96.4576732394
 20
168.6370678786
 11
96.7000462072
 21
168.6983471879
  0
LINE
  5
506
100
AcDbEntity
  8
0
100
AcDbLine
 62
7
  6
CONTINUOUS
 10
97.5241157401
 20
168.9066972041
 11
97.8149637452
 21
168.9802324874
  0
LINE
  5
507
100
AcDbEntity
  8
0
100
AcDbLine
 62
7
  6
CONTINUOUS
 10
97.1203989623
 20
170.9114505462
 11
96.8295515119
 21
170.8379154032
  0
LINE
  5
508
100
AcDbEntity
  8
0
100
AcDbLine
 62
7
  6
CONTINUOUS
 10
95.964693374
 20
171.6068272395
 11
95.7223204062
 21
171.5455479302
  0
LWPOLYLINE
  5
509
100
AcDbEntity
  8
RUNDUNGEN
100
AcDbPolyline
 62
7
  6
CONTINUOUS
 90
3
 70
0
 10
110.8238002232
 20
174.9533811705
 10
110.8042960002
 20
174.9500697617
 10
110.0174496424
 20
174.8262260225
  0
LINE
  5
50A
100
AcDbEntity
  8
RUNDUNGEN
100
AcDbLine
 62
7
  6
CONTINUOUS
 10
110.0174496424
 20
174.8262260225
 11
109.8238002232
 21
174.7949967302
  0
LINE
  5
50B
100
AcDbEntity
  8
0
100
AcDbLine
 62
7
  6
CONTINUOUS
 10
88.5313780026
 20
169.1439743648
 11
88.2754439185
 21
169.1112328126
  0
LINE
  5
50C
100
AcDbEntity
  8
RUNDUNGEN
100
AcDbLine
 62
7
  6
CONTINUOUS
 10
145.4576371047
 20
173.210107854
 11
149.7098351034
 21
173.704934742
  0
LINE
  5
50D
100
AcDbEntity
  8
0
100
AcDbLine
 62
7
  6
CONTINUOUS
 10
128.8861032894
 20
171.4043059674
 11
128.7639340571
 21
171.3905335068
  0
LINE
  5
50E
100
AcDbEntity
  8
0
100
AcDbLine
 62
7
  6
CONTINUOUS
 10
128.5886720605
 20
169.43912144
 11
128.7389057239
 21
169.4461007444
  0
LINE
  5
50F
100
AcDbEntity
  8
RUNDUNGEN
100
AcDbLine
 62
7
  6
CONTINUOUS
 10
145.4599161162
 20
173.2071618012
 11
145.0738634378
 21
173.1995367819
  0
LINE
  5
510
100
AcDbEntity
  8
0
100
AcDbLine
 62
7
  6
CONTINUOUS
 10
91.8656063699
 20
169.1237999029
 11
92.0755195422
 21
169.1270769485
  0
LINE
  5
511
100
AcDbEntity
  8
0
100
AcDbLine
 62
7
  6
CONTINUOUS
 10
92.0888846702
 20
169.4009550355
 11
91.8789717691
 21
169.3976780812
  0
LINE
  5
512
100
AcDbEntity
  8
0
100
AcDbLine
 62
7
  6
CONTINUOUS
 10
131.1561863796
 20
168.7580110455
 11
131.306579501
 21
168.7588628944
  0
LINE
  5
513
100
AcDbEntity
  8
0
100
AcDbLine
 62
7
  6
CONTINUOUS
 10
131.3367367658
 20
170.0208185404
 11
131.1863433277
 21
170.0199667857
  0
LINE
  5
514
100
AcDbEntity
  8
0
100
AcDbLine
 62
7
  6
CONTINUOUS
 10
132.5032215869
 20
168.6203280623
 11
132.3528402174
 21
168.6223920378
  0
LINE
  5
515
100
AcDbEntity
  8
0
100
AcDbLine
 62
7
  6
CONTINUOUS
 10
132.6595698845
 20
170.1146466776
 11
132.8099518858
 21
170.1125825082
  0
LINE
  5
516
100
AcDbEntity
  8
RUNDUNGEN
100
AcDbLine
 62
7
  6
CONTINUOUS
 10
80.6876843433
 20
173.2071619139
 11
81.0737370423
 21
173.1995368418
  0
LINE
  5
517
100
AcDbEntity
  8
0
100
AcDbLine
 62
7
  6
CONTINUOUS
 10
137.814605349
 20
168.5853627028
 11
137.6917054164
 21
168.5886256341
  0
LINE
  5
518
100
AcDbEntity
  8
0
100
AcDbLine
 62
7
  6
CONTINUOUS
 10
94.9116831655
 20
170.0632621495
 11
95.1215036562
 21
170.0562084237
  0
LINE
  5
519
100
AcDbEntity
  8
0
100
AcDbLine
 62
7
  6
CONTINUOUS
 10
134.8703234641
 20
167.8391058186
 11
134.7201282535
 21
167.8468656521
  0
LINE
  5
51A
100
AcDbEntity
  8
0
100
AcDbLine
 62
7
  6
CONTINUOUS
 10
135.0831738062
 20
169.3264279977
 11
135.2333690168
 21
169.3186681642
  0
LINE
  5
51B
100
AcDbEntity
  8
0
100
AcDbLine
 62
7
  6
CONTINUOUS
 10
132.2910683699
 20
168.4210149457
 11
132.4690553935
 21
168.4104830185
  0
LINE
  5
51C
100
AcDbEntity
  8
0
100
AcDbLine
 62
7
  6
CONTINUOUS
 10
132.8717237247
 20
170.3139595722
 11
132.6937367021
 21
170.3244915029
  0
LINE
  5
51D
100
AcDbEntity
  8
0
100
AcDbLine
 62
7
  6
CONTINUOUS
 10
137.2481391252
 20
166.6802297469
 11
137.3978940119
 21
166.6663559819
  0
LINE
  5
51E
100
AcDbEntity
  8
0
100
AcDbLine
 62
7
  6
CONTINUOUS
 10
134.6507713931
 20
167.6479734193
 11
134.8282316226
 21
167.6307058472
  0
LINE
  5
51F
100
AcDbEntity
  8
0
100
AcDbLine
 62
7
  6
CONTINUOUS
 10
135.3027258675
 20
169.5175603692
 11
135.1252656393
 21
169.5348279447
  0
LINE
  5
520
100
AcDbEntity
  8
0
100
AcDbLine
 62
7
  6
CONTINUOUS
 10
138.4244030232
 20
166.2000970005
 11
138.5738558755
 21
166.1832901358
  0
LINE
  5
521
100
AcDbEntity
  8
0
100
AcDbLine
 62
7
  6
CONTINUOUS
 10
138.7785742185
 20
167.4218468444
 11
138.6291201481
 21
167.4386542222
  0
LINE
  5
522
100
AcDbEntity
  8
0
100
AcDbLine
 62
7
  6
CONTINUOUS
 10
139.0547558364
 20
168.0826217942
 11
138.905301766
 21
168.0994291721
  0
LINE
  5
523
100
AcDbEntity
  8
RUNDUNGEN
100
AcDbLine
 62
7
  6
CONTINUOUS
 10
80.6899726632
 20
173.2101067693
 11
76.4377424635
 21
173.7049374045
  0
LWPOLYLINE
  5
524
100
AcDbEntity
  8
RUNDUNGEN
100
AcDbPolyline
 62
7
  6
CONTINUOUS
 90
3
 70
0
 10
115.3238002232
 20
174.9533811705
 10
115.3433731232
 20
174.9505033711
 10
116.1299782992
 20
174.8251368697
  0
LINE
  5
525
100
AcDbEntity
  8
RUNDUNGEN
100
AcDbLine
 62
7
  6
CONTINUOUS
 10
116.1299782992
 20
174.8251368697
 11
116.3238002232
 21
174.7949967302
  0
LINE
  5
526
100
AcDbEntity
  8
0
100
AcDbLine
 62
7
  6
CONTINUOUS
 10
126.7312285312
 20
169.8652801736
 11
127.7461526834
 21
169.64058212
  0
LINE
  5
527
100
AcDbEntity
  8
0
100
AcDbLine
 62
7
  6
CONTINUOUS
 10
127.8007905079
 20
169.8873721868
 11
126.955020381
 21
170.0746205648
  0
LINE
  5
528
100
AcDbEntity
  8
0
100
AcDbLine
 62
7
  6
CONTINUOUS
 10
127.3283788492
 20
171.7610193593
 11
127.1592248238
 21
171.7984690349
  0
LINE
  5
529
100
AcDbEntity
  8
0
100
AcDbLine
 62
7
  6
CONTINUOUS
 10
128.3641558159
 20
169.4934669132
 11
128.5886720605
 21
169.43912144
  0
LINE
  5
52A
100
AcDbEntity
  8
0
100
AcDbLine
 62
7
  6
CONTINUOUS
 10
128.6481382458
 20
169.6847927687
 11
128.4236220012
 21
169.7391382419
  0
LINE
  5
52B
100
AcDbEntity
  8
0
100
AcDbLine
 62
7
  6
CONTINUOUS
 10
128.268482811
 20
170.0801002993
 11
128.1000956676
 21
170.1208593945
  0
LINE
  5
52C
100
AcDbEntity
  8
0
100
AcDbLine
 62
7
  6
CONTINUOUS
 10
128.6284164889
 20
170.3397302194
 11
128.7968037125
 21
170.2989711048
  0
LINE
  5
52D
100
AcDbEntity
  8
0
100
AcDbLine
 62
7
  6
CONTINUOUS
 10
128.8562698908
 20
170.5446424048
 11
128.6878826672
 21
170.5854015194
  0
LINE
  5
52E
100
AcDbEntity
  8
0
100
AcDbLine
 62
7
  6
CONTINUOUS
 10
129.1138564097
 20
170.8723903549
 11
129.2822436333
 21
170.8316312403
  0
LINE
  5
52F
100
AcDbEntity
  8
0
100
AcDbLine
 62
7
  6
CONTINUOUS
 10
128.8266371111
 20
171.1586346674
 11
128.9950243347
 21
171.1178755528
  0
LINE
  5
530
100
AcDbEntity
  8
0
100
AcDbLine
 62
7
  6
CONTINUOUS
 10
129.0264259223
 20
171.3703400515
 11
128.8861032894
 21
171.4043059674
  0
LINE
  5
531
100
AcDbEntity
  8
0
100
AcDbLine
 62
7
  6
CONTINUOUS
 10
130.9895998561
 20
168.8055977314
 11
131.1561863796
 21
168.7580110455
  0
LINE
  5
532
100
AcDbEntity
  8
0
100
AcDbLine
 62
7
  6
CONTINUOUS
 10
131.2140425339
 20
168.9605478564
 11
131.0474560104
 21
169.0081345424
  0
LINE
  5
533
100
AcDbEntity
  8
0
100
AcDbLine
 62
7
  6
CONTINUOUS
 10
130.8785748379
 20
169.3630660952
 11
130.7119883144
 21
169.4106527812
  0
LINE
  5
534
100
AcDbEntity
  8
0
100
AcDbLine
 62
7
  6
CONTINUOUS
 10
130.8161293938
 20
169.7752190466
 11
131.010480232
 21
169.7197012766
  0
LINE
  5
535
100
AcDbEntity
  8
0
100
AcDbLine
 62
7
  6
CONTINUOUS
 10
131.2788806196
 20
169.8182817578
 11
131.4454671431
 21
169.7706950718
  0
LINE
  5
536
100
AcDbEntity
  8
0
100
AcDbLine
 62
7
  6
CONTINUOUS
 10
131.5033232893
 20
169.9732318544
 11
131.3367367658
 21
170.0208185404
  0
LINE
  5
537
100
AcDbEntity
  8
0
100
AcDbLine
 62
7
  6
CONTINUOUS
 10
131.1979471314
 20
170.5862181358
 11
132.0031154344
 21
170.3562157902
  0
LINE
  5
538
100
AcDbEntity
  8
0
100
AcDbLine
 62
7
  6
CONTINUOUS
 10
132.0609715806
 20
170.5587525727
 11
131.1169813865
 21
170.8284104294
  0
LINE
  5
539
100
AcDbEntity
  8
RUNDUNGEN
100
AcDbLine
 62
7
  6
CONTINUOUS
 10
168.3705545307
 20
155.9680611969
 11
168.7381679125
 21
155.8506540378
  0
LINE
  5
53A
100
AcDbEntity
  8
0
100
AcDbLine
 62
7
  6
CONTINUOUS
 10
133.2280225897
 20
168.8785902092
 11
133.6126615314
 21
168.7542086634
  0
LINE
  5
53B
100
AcDbEntity
  8
0
100
AcDbLine
 62
7
  6
CONTINUOUS
 10
133.6774717617
 20
168.9546285747
 11
133.29283282
 21
169.0790101206
  0
LINE
  5
53C
100
AcDbEntity
  8
RUNDUNGEN
100
AcDbLine
 62
7
  6
CONTINUOUS
 10
97.8420256876
 20
178.8841694104
 11
97.4756100188
 21
179.0052627384
  0
LINE
  5
53D
100
AcDbEntity
  8
0
100
AcDbLine
 62
7
  6
CONTINUOUS
 10
133.7761816371
 20
167.9460576454
 11
133.9405585816
 21
167.8913239025
  0
LINE
  5
53E
100
AcDbEntity
  8
0
100
AcDbLine
 62
7
  6
CONTINUOUS
 10
134.5660870716
 20
169.7699175542
 11
134.4017101271
 21
169.8246512971
  0
LINE
  5
53F
100
AcDbEntity
  8
0
100
AcDbLine
 62
7
  6
CONTINUOUS
 10
137.0333013479
 20
166.7651157155
 11
137.2481391252
 21
166.6802297469
  0
LINE
  5
540
100
AcDbEntity
  8
0
100
AcDbLine
 62
7
  6
CONTINUOUS
 10
137.3410235561
 20
166.915310821
 11
137.1261857788
 21
167.0001967896
  0
LINE
  5
541
100
AcDbEntity
  8
0
100
AcDbLine
 62
7
  6
CONTINUOUS
 10
137.0197125544
 20
167.3593442497
 11
136.8585840678
 21
167.4230087869
  0
LINE
  5
542
100
AcDbEntity
  8
0
100
AcDbLine
 62
7
  6
CONTINUOUS
 10
137.4121061521
 20
167.5666780573
 11
137.5732346387
 21
167.5030135201
  0
LINE
  5
543
100
AcDbEntity
  8
0
100
AcDbLine
 62
7
  6
CONTINUOUS
 10
137.6661190588
 20
167.7380945668
 11
137.5049905722
 21
167.801759104
  0
LINE
  5
544
100
AcDbEntity
  8
0
100
AcDbLine
 62
7
  6
CONTINUOUS
 10
137.9665742189
 20
168.0270517095
 11
138.1277027055
 21
167.9633871723
  0
LINE
  5
545
100
AcDbEntity
  8
0
100
AcDbLine
 62
7
  6
CONTINUOUS
 10
137.721720929
 20
168.3502816561
 11
137.8828494156
 21
168.2866171189
  0
LINE
  5
546
100
AcDbEntity
  8
0
100
AcDbLine
 62
7
  6
CONTINUOUS
 10
137.948878883
 20
168.5323090028
 11
137.814605349
 21
168.5853627028
  0
LINE
  5
547
100
AcDbEntity
  8
0
100
AcDbLine
 62
7
  6
CONTINUOUS
 10
138.2911949276
 20
166.2557734867
 11
138.4244030232
 21
166.2000970005
  0
LINE
  5
548
100
AcDbEntity
  8
0
100
AcDbLine
 62
7
  6
CONTINUOUS
 10
138.5322740401
 20
166.3833074759
 11
138.3457836819
 21
166.4612541487
  0
LINE
  5
549
100
AcDbEntity
  8
0
100
AcDbLine
 62
7
  6
CONTINUOUS
 10
138.670703213
 20
167.2386363962
 11
138.8571935712
 21
167.1606897234
  0
LINE
  5
54A
100
AcDbEntity
  8
0
100
AcDbLine
 62
7
  6
CONTINUOUS
 10
138.9117823141
 20
167.3661703582
 11
138.7785742185
 21
167.4218468444
  0
LINE
  5
54B
100
AcDbEntity
  8
0
100
AcDbLine
 62
7
  6
CONTINUOUS
 10
139.2223896982
 20
167.5103033506
 11
139.3555977938
 21
167.4546268644
  0
LINE
  5
54C
100
AcDbEntity
  8
0
100
AcDbLine
 62
7
  6
CONTINUOUS
 10
138.9468848309
 20
167.8994113461
 11
139.1067340578
 21
167.8325997666
  0
LINE
  5
54D
100
AcDbEntity
  8
0
100
AcDbLine
 62
7
  6
CONTINUOUS
 10
139.1613215812
 20
168.0380809111
 11
139.0547558364
 21
168.0826217942
  0
LINE
  5
54E
100
AcDbEntity
  8
0
100
AcDbLine
 62
7
  6
CONTINUOUS
 10
139.0354997848
 20
165.9400612779
 11
139.1679981973
 21
165.8827163693
  0
LINE
  5
54F
100
AcDbEntity
  8
0
100
AcDbLine
 62
7
  6
CONTINUOUS
 10
139.251662248
 20
166.0760265372
 11
139.1191638355
 21
166.1333714458
  0
LINE
  5
550
100
AcDbEntity
  8
0
100
AcDbLine
 62
7
  6
CONTINUOUS
 10
139.5383012421
 20
165.7205631091
 11
139.6967943396
 21
165.6505952554
  0
LINE
  5
551
100
AcDbEntity
  8
0
100
AcDbLine
 62
7
  6
CONTINUOUS
 10
140.4964269534
 20
167.4619449409
 11
140.3379338559
 21
167.5319127946
  0
LWPOLYLINE
  5
552
100
AcDbEntity
  8
RUNDUNGEN
100
AcDbPolyline
 62
7
  6
CONTINUOUS
 90
3
 70
0
 10
151.9170424961
 20
163.0635160071
 10
151.899316851
 20
163.0723013156
 10
151.1899512521
 20
163.434606311
  0
LINE
  5
553
100
AcDbEntity
  8
RUNDUNGEN
100
AcDbLine
 62
7
  6
CONTINUOUS
 10
151.1899512521
 20
163.434606311
 11
151.0149294635
 21
163.5231655555
  0
LINE
  5
554
100
AcDbEntity
  8
RUNDUNGEN
100
AcDbLine
 62
7
  6
CONTINUOUS
 10
178.9117347675
 20
141.2959197189
 11
182.642687159
 21
139.1968638071
  0
LINE
  5
555
100
AcDbEntity
  8
0
100
AcDbLine
 62
7
  6
CONTINUOUS
 10
128.2337440531
 20
169.5683780882
 11
128.3641558159
 21
169.4934669132
  0
LINE
  5
556
100
AcDbEntity
  8
0
100
AcDbLine
 62
7
  6
CONTINUOUS
 10
128.9866814939
 20
170.4697312722
 11
128.8562698908
 21
170.5446424048
  0
LINE
  5
557
100
AcDbEntity
  8
0
100
AcDbLine
 62
7
  6
CONTINUOUS
 10
129.1568376859
 20
171.2954288801
 11
129.0264259223
 21
171.3703400515
  0
LINE
  5
558
100
AcDbEntity
  8
0
100
AcDbLine
 62
7
  6
CONTINUOUS
 10
164.9040102071
 20
149.0298046982
 11
164.797725543
 21
149.0915992176
  0
LINE
  5
559
100
AcDbEntity
  8
0
100
AcDbLine
 62
7
  6
CONTINUOUS
 10
132.1377900839
 20
168.5120977056
 11
132.2910683699
 21
168.4210149457
  0
LINE
  5
55A
100
AcDbEntity
  8
0
100
AcDbLine
 62
7
  6
CONTINUOUS
 10
133.0250020118
 20
170.2228768158
 11
132.8717237247
 21
170.3139595722
  0
LINE
  5
55B
100
AcDbEntity
  8
0
100
AcDbLine
 62
7
  6
CONTINUOUS
 10
165.4498691488
 20
147.8988733251
 11
165.5548654634
 21
147.8349141512
  0
LINE
  5
55C
100
AcDbEntity
  8
0
100
AcDbLine
 62
7
  6
CONTINUOUS
 10
130.8623488775
 20
168.8857606933
 11
130.9895998561
 21
168.8055977314
  0
LINE
  5
55D
100
AcDbEntity
  8
0
100
AcDbLine
 62
7
  6
CONTINUOUS
 10
131.6305739512
 20
169.8930689868
 11
131.5033232893
 21
169.9732318544
  0
LINE
  5
55E
100
AcDbEntity
  8
0
100
AcDbLine
 62
7
  6
CONTINUOUS
 10
134.5010539063
 20
167.7447978803
 11
134.6507713931
 21
167.6479734193
  0
LINE
  5
55F
100
AcDbEntity
  8
0
100
AcDbLine
 62
7
  6
CONTINUOUS
 10
135.4524433555
 20
169.4207359116
 11
135.3027258675
 21
169.5175603692
  0
LINE
  5
560
100
AcDbEntity
  8
0
100
AcDbLine
 62
7
  6
CONTINUOUS
 10
132.3528402174
 20
168.6223920378
 11
132.2271669516
 21
168.7050070328
  0
LINE
  5
561
100
AcDbEntity
  8
0
100
AcDbLine
 62
7
  6
CONTINUOUS
 10
132.8099518858
 20
170.1125825082
 11
132.9356245198
 21
170.0299677071
  0
LINE
  5
562
100
AcDbEntity
  8
0
100
AcDbLine
 62
7
  6
CONTINUOUS
 10
163.4933905601
 20
147.6296019364
 11
163.6181533503
 21
147.5456190667
  0
LINE
  5
563
100
AcDbEntity
  8
RUNDUNGEN
100
AcDbLine
 62
7
  6
CONTINUOUS
 10
178.9118468801
 20
141.2921967428
 11
178.5950418287
 21
141.5129440435
  0
LINE
  5
564
100
AcDbEntity
  8
0
100
AcDbLine
 62
7
  6
CONTINUOUS
 10
164.3493992552
 20
146.5765224247
 11
164.4724151638
 21
146.490001037
  0
LINE
  5
565
100
AcDbEntity
  8
0
100
AcDbLine
 62
7
  6
CONTINUOUS
 10
165.7523713075
 20
147.9926546201
 11
165.6293552987
 21
148.0791761393
  0
LINE
  5
566
100
AcDbEntity
  8
0
100
AcDbLine
 62
7
  6
CONTINUOUS
 10
134.7201282535
 20
167.8468656521
 11
134.5976757832
 21
167.9341823677
  0
LINE
  5
567
100
AcDbEntity
  8
0
100
AcDbLine
 62
7
  6
CONTINUOUS
 10
135.2333690168
 20
169.3186681642
 11
135.3558214871
 21
169.2313514486
  0
LINE
  5
568
100
AcDbEntity
  8
RUNDUNGEN
100
AcDbLine
 62
7
  6
CONTINUOUS
 10
126.5100105641
 20
179.3643593038
 11
126.8178518836
 21
179.1312744566
  0
LINE
  5
569
100
AcDbEntity
  8
0
100
AcDbLine
 62
7
  6
CONTINUOUS
 10
136.9145079373
 20
166.8573498362
 11
137.0333013479
 21
166.7651157155
  0
LINE
  5
56A
100
AcDbEntity
  8
0
100
AcDbLine
 62
7
  6
CONTINUOUS
 10
137.7849124708
 20
167.6458604495
 11
137.6661190588
 21
167.7380945668
  0
LINE
  5
56B
100
AcDbEntity
  8
0
100
AcDbLine
 62
7
  6
CONTINUOUS
 10
138.0676716803
 20
168.4400751283
 11
137.948878883
 21
168.5323090028
  0
LINE
  5
56C
100
AcDbEntity
  8
0
100
AcDbLine
 62
7
  6
CONTINUOUS
 10
167.0240926341
 20
143.4118454675
 11
166.9067277385
 21
143.5058895932
  0
LINE
  5
56D
100
AcDbEntity
  8
0
100
AcDbLine
 62
7
  6
CONTINUOUS
 10
168.0657572859
 20
144.4946045754
 11
168.1831221815
 21
144.4005604497
  0
LINE
  5
56E
100
AcDbEntity
  8
0
100
AcDbLine
 62
7
  6
CONTINUOUS
 10
138.1742328083
 20
166.3503190846
 11
138.2911949276
 21
166.2557734867
  0
LINE
  5
56F
100
AcDbEntity
  8
0
100
AcDbLine
 62
7
  6
CONTINUOUS
 10
139.0287432153
 20
167.2716252734
 11
138.9117823141
 21
167.3661703582
  0
LINE
  5
570
100
AcDbEntity
  8
0
100
AcDbLine
 62
7
  6
CONTINUOUS
 10
139.2782837019
 20
167.9435353166
 11
139.1613215812
 21
168.0380809111
  0
LINE
  5
571
100
AcDbEntity
  8
0
100
AcDbLine
 62
7
  6
CONTINUOUS
 10
166.7342420017
 20
143.3849881252
 11
166.8681806026
 21
143.2672989019
  0
LINE
  5
572
100
AcDbEntity
  8
0
100
AcDbLine
 62
7
  6
CONTINUOUS
 10
168.3556078942
 20
144.5214619008
 11
168.2216692963
 21
144.6391511262
  0
LINE
  5
573
100
AcDbEntity
  8
RUNDUNGEN
100
AcDbLine
 62
7
  6
CONTINUOUS
 10
123.3643486335
 20
182.265095575
 11
126.5135860186
 21
179.3654031715
  0
LWPOLYLINE
  5
574
100
AcDbEntity
  8
RUNDUNGEN
100
AcDbPolyline
 62
7
  6
CONTINUOUS
 90
3
 70
0
 10
155.5576189708
 20
160.4184823717
 10
155.5717622514
 20
160.4046495212
 10
156.134450626
 20
159.8408709692
  0
LINE
  5
575
100
AcDbEntity
  8
RUNDUNGEN
100
AcDbLine
 62
7
  6
CONTINUOUS
 10
156.134450626
 20
159.8408709692
 11
156.273539927
 21
159.7025614156
  0
LINE
  5
576
100
AcDbEntity
  8
0
100
AcDbLine
 62
7
  6
CONTINUOUS
 10
163.3455654153
 20
147.8071089484
 11
163.4933905601
 21
147.6296019364
  0
LINE
  5
577
100
AcDbEntity
  8
0
100
AcDbLine
 62
7
  6
CONTINUOUS
 10
163.6876231331
 20
147.7913558746
 11
163.5397979883
 21
147.9688628865
  0
LINE
  5
578
100
AcDbEntity
  8
0
100
AcDbLine
 62
7
  6
CONTINUOUS
 10
163.6185775347
 20
148.3350827914
 11
163.5077086893
 21
148.4682130345
  0
LINE
  5
579
100
AcDbEntity
  8
0
100
AcDbLine
 62
7
  6
CONTINUOUS
 10
164.0623357316
 20
148.3288709725
 11
164.173204577
 21
148.1957407294
  0
LINE
  5
57A
100
AcDbEntity
  8
0
100
AcDbLine
 62
7
  6
CONTINUOUS
 10
164.3674371273
 20
148.3574946487
 11
164.2565682819
 21
148.4906248918
  0
LINE
  5
57B
100
AcDbEntity
  8
0
100
AcDbLine
 62
7
  6
CONTINUOUS
 10
164.7696548625
 20
148.4669953918
 11
164.8805237078
 21
148.3338651487
  0
LINE
  5
57C
100
AcDbEntity
  8
0
100
AcDbLine
 62
7
  6
CONTINUOUS
 10
164.7097776567
 20
148.8680507789
 11
164.8206465021
 21
148.7349205358
  0
LINE
  5
57D
100
AcDbEntity
  8
0
100
AcDbLine
 62
7
  6
CONTINUOUS
 10
164.9964009028
 20
148.9188628395
 11
164.9040102071
 21
149.0298046982
  0
LINE
  5
57E
100
AcDbEntity
  8
0
100
AcDbLine
 62
7
  6
CONTINUOUS
 10
164.2052420105
 20
146.7570207997
 11
164.3493992552
 21
146.5765224247
  0
LINE
  5
57F
100
AcDbEntity
  8
0
100
AcDbLine
 62
7
  6
CONTINUOUS
 10
164.5295958884
 20
146.3508993592
 11
164.6377138477
 21
146.2155255457
  0
LINE
  5
580
100
AcDbEntity
  8
0
100
AcDbLine
 62
7
  6
CONTINUOUS
 10
164.5469051224
 20
146.734262912
 11
164.4027478777
 21
146.914761287
  0
LINE
  5
581
100
AcDbEntity
  8
0
100
AcDbLine
 62
7
  6
CONTINUOUS
 10
164.8164896635
 20
146.8017541473
 11
164.7083717042
 21
146.9371279608
  0
LINE
  5
582
100
AcDbEntity
  8
0
100
AcDbLine
 62
7
  6
CONTINUOUS
 10
165.5548654634
 20
147.8349141512
 11
165.6990227081
 21
147.6544157763
  0
LINE
  5
583
100
AcDbEntity
  8
0
100
AcDbLine
 62
7
  6
CONTINUOUS
 10
165.8965285522
 20
147.8121562452
 11
165.7523713075
 21
147.9926546201
  0
LINE
  5
584
100
AcDbEntity
  8
RUNDUNGEN
100
AcDbLine
 62
7
  6
CONTINUOUS
 10
187.3140536114
 20
113.8789360055
 11
187.542448888
 21
113.5678738941
  0
LINE
  5
585
100
AcDbEntity
  8
0
100
AcDbLine
 62
7
  6
CONTINUOUS
 10
166.0290845361
 20
144.3716370588
 11
166.1313809811
 21
144.2318121689
  0
LINE
  5
586
100
AcDbEntity
  8
0
100
AcDbLine
 62
7
  6
CONTINUOUS
 10
166.0958983722
 20
145.2791798288
 11
166.5050841522
 21
144.7198802691
  0
LINE
  5
587
100
AcDbEntity
  8
0
100
AcDbLine
 62
7
  6
CONTINUOUS
 10
166.6073805972
 20
144.5800553792
 11
166.7778746072
 21
144.3470139849
  0
LINE
  5
588
100
AcDbEntity
  8
0
100
AcDbLine
 62
7
  6
CONTINUOUS
 10
166.9818744699
 20
144.496261095
 11
166.8113804599
 21
144.7293024893
  0
LINE
  5
589
100
AcDbEntity
  8
0
100
AcDbLine
 62
7
  6
CONTINUOUS
 10
166.7090840149
 20
144.8691273792
 11
166.4192440224
 21
145.2652979895
  0
LINE
  5
58A
100
AcDbEntity
  8
0
100
AcDbLine
 62
7
  6
CONTINUOUS
 10
167.729379723
 20
145.4009143975
 11
167.627083278
 21
145.5407392874
  0
LINE
  5
58B
100
AcDbEntity
  8
RUNDUNGEN
100
AcDbLine
 62
7
  6
CONTINUOUS
 10
143.7250256498
 20
173.8740861205
 11
143.4997660233
 21
174.1874264116
  0
LINE
  5
58C
100
AcDbEntity
  8
0
100
AcDbLine
 62
7
  6
CONTINUOUS
 10
167.1646629173
 20
142.769812837
 11
167.2609548253
 21
142.6257870374
  0
LINE
  5
58D
100
AcDbEntity
  8
0
100
AcDbLine
 62
7
  6
CONTINUOUS
 10
167.4856361889
 20
142.289726472
 11
167.6140252772
 21
142.0976922557
  0
LINE
  5
58E
100
AcDbEntity
  8
0
100
AcDbLine
 62
7
  6
CONTINUOUS
 10
167.8387062735
 20
141.7616322398
 11
167.9349981815
 21
141.6176064402
  0
LINE
  5
58F
100
AcDbEntity
  8
0
100
AcDbLine
 62
7
  6
CONTINUOUS
 10
169.5810073197
 20
142.718085389
 11
169.4365694577
 21
142.9341240884
  0
LINE
  5
590
100
AcDbEntity
  8
0
100
AcDbLine
 62
7
  6
CONTINUOUS
 10
168.9551099176
 20
143.6542530864
 11
168.8106720555
 21
143.8702917858
  0
LINE
  5
591
100
AcDbEntity
  8
0
100
AcDbLine
 62
7
  6
CONTINUOUS
 10
168.0610437829
 20
141.4239482429
 11
168.1537527813
 21
141.2775904481
  0
LINE
  5
592
100
AcDbEntity
  8
0
100
AcDbLine
 62
7
  6
CONTINUOUS
 10
168.3700736597
 20
140.9360891128
 11
168.4936855396
 21
140.7409455724
  0
LINE
  5
593
100
AcDbEntity
  8
0
100
AcDbLine
 62
7
  6
CONTINUOUS
 10
168.7100067716
 20
140.3994436789
 11
168.80271577
 21
140.253085884
  0
LINE
  5
594
100
AcDbEntity
  8
0
100
AcDbLine
 62
7
  6
CONTINUOUS
 10
170.4753762828
 20
141.3126172941
 11
170.3363127852
 21
141.5321539864
  0
LINE
  5
595
100
AcDbEntity
  8
0
100
AcDbLine
 62
7
  6
CONTINUOUS
 10
169.8727677933
 20
142.2639429607
 11
169.7337042957
 21
142.483479653
  0
LWPOLYLINE
  5
596
100
AcDbEntity
  8
RUNDUNGEN
100
AcDbPolyline
 62
7
  6
CONTINUOUS
 90
3
 70
0
 10
178.173486454
 20
129.2904112521
 10
178.1643099807
 20
129.3079375888
 10
177.803378689
 20
130.0180031247
  0
LINE
  5
597
100
AcDbEntity
  8
RUNDUNGEN
100
AcDbLine
 62
7
  6
CONTINUOUS
 10
177.803378689
 20
130.0180031247
 11
177.7138369056
 21
130.1925242847
  0
LINE
  5
598
100
AcDbEntity
  8
RUNDUNGEN
100
AcDbLine
 62
7
  6
CONTINUOUS
 10
187.2179791835
 20
95.8129739209
 11
189.0025889647
 21
91.9218032234
  0
LINE
  5
599
100
AcDbEntity
  8
0
100
AcDbLine
 62
7
  6
CONTINUOUS
 10
163.2855468142
 20
147.9450097959
 11
163.3455654153
 21
147.8071089484
  0
LINE
  5
59A
100
AcDbEntity
  8
0
100
AcDbLine
 62
7
  6
CONTINUOUS
 10
164.4274557313
 20
148.2195938035
 11
164.3674371273
 21
148.3574946487
  0
LINE
  5
59B
100
AcDbEntity
  8
0
100
AcDbLine
 62
7
  6
CONTINUOUS
 10
165.0564195331
 20
148.7809619626
 11
164.9964009028
 21
148.9188628395
  0
LINE
  5
59C
100
AcDbEntity
  8
0
100
AcDbLine
 62
7
  6
CONTINUOUS
 10
164.1480612859
 20
146.8961224774
 11
164.2052420105
 21
146.7570207997
  0
LINE
  5
59D
100
AcDbEntity
  8
0
100
AcDbLine
 62
7
  6
CONTINUOUS
 10
165.9537091766
 20
147.6730546988
 11
165.8965285522
 21
147.8121562452
  0
LINE
  5
59E
100
AcDbEntity
  8
0
100
AcDbLine
 62
7
  6
CONTINUOUS
 10
166.6692976919
 20
143.5510379331
 11
166.7342420017
 21
143.3849881252
  0
LINE
  5
59F
100
AcDbEntity
  8
0
100
AcDbLine
 62
7
  6
CONTINUOUS
 10
168.420552207
 20
144.355412095
 11
168.3556078942
 21
144.5214619008
  0
LINE
  5
5A0
100
AcDbEntity
  8
RUNDUNGEN
100
AcDbLine
 62
7
  6
CONTINUOUS
 10
187.215881574
 20
95.8098960719
 11
187.0893329113
 21
96.1746977267
  0
LINE
  5
5A1
100
AcDbEntity
  8
0
100
AcDbLine
 62
7
  6
CONTINUOUS
 10
166.9067277385
 20
143.5058895932
 11
166.858357128
 21
143.6482942993
  0
LINE
  5
5A2
100
AcDbEntity
  8
0
100
AcDbLine
 62
7
  6
CONTINUOUS
 10
168.1831221815
 20
144.4005604497
 11
168.231492792
 21
144.2581557436
  0
LINE
  5
5A3
100
AcDbEntity
  8
0
100
AcDbLine
 62
7
  6
CONTINUOUS
 10
165.6990227081
 20
147.6544157763
 11
165.7381837413
 21
147.5378764461
  0
LINE
  5
5A4
100
AcDbEntity
  8
RUNDUNGEN
100
AcDbLine
 62
7
  6
CONTINUOUS
 10
167.2001611346
 20
157.4119491761
 11
167.3122061578
 21
157.0424349858
  0
LINE
  5
5A5
100
AcDbEntity
  8
RUNDUNGEN
100
AcDbLine
 62
7
  6
CONTINUOUS
 10
166.360275873
 20
161.6076742848
 11
167.2036672931
 21
157.4106921555
  0
LWPOLYLINE
  5
5A6
100
AcDbEntity
  8
RUNDUNGEN
100
AcDbPolyline
 62
7
  6
CONTINUOUS
 90
3
 70
0
 10
179.5640629287
 20
125.0106569288
 10
179.5673743375
 20
124.9911527058
 10
179.6912180767
 20
124.2043063479
  0
LINE
  5
5A7
100
AcDbEntity
  8
RUNDUNGEN
100
AcDbLine
 62
7
  6
CONTINUOUS
 10
179.6912180767
 20
124.2043063479
 11
179.722447369
 21
124.0106569288
  0
LINE
  5
5A8
100
AcDbEntity
  8
RUNDUNGEN
100
AcDbLine
 62
7
  6
CONTINUOUS
 10
187.03524463
 20
114.9879364666
 11
187.0556336234
 21
114.6024562584
  0
LINE
  5
5A9
100
AcDbEntity
  8
RUNDUNGEN
100
AcDbLine
 62
7
  6
CONTINUOUS
 10
187.0352446824
 20
96.5569654965
 11
187.0556336733
 21
96.942445665
  0
LINE
  5
5AA
100
AcDbEntity
  8
RUNDUNGEN
100
AcDbLine
 62
7
  6
CONTINUOUS
 10
187.0893328604
 20
115.3702042244
 11
187.03524463
 21
114.9879364666
  0
LINE
  5
5AB
100
AcDbEntity
  8
RUNDUNGEN
100
AcDbLine
 62
7
  6
CONTINUOUS
 10
177.9726216051
 20
69.0724999703
 11
177.9002992313
 21
68.6934090608
  0
LINE
  5
5AC
100
AcDbEntity
  8
RUNDUNGEN
100
AcDbLine
 62
7
  6
CONTINUOUS
 10
187.0556336733
 20
96.942445665
 11
187.1497396429
 21
97.3167648959
  0
LINE
  5
5AD
100
AcDbEntity
  8
RUNDUNGEN
100
AcDbLine
 62
7
  6
CONTINUOUS
 10
184.2250624773
 20
73.3727487851
 11
185.1795043367
 21
76.3102187831
  0
LINE
  5
5AE
100
AcDbEntity
  8
RUNDUNGEN
100
AcDbLine
 62
7
  6
CONTINUOUS
 10
188.726005823
 20
87.225228022
 11
189.6804478562
 21
90.1626985547
  0
LINE
  5
5AF
100
AcDbEntity
  8
RUNDUNGEN
100
AcDbLine
 62
7
  6
CONTINUOUS
 10
178.1165076037
 20
69.4306446991
 11
177.9726216051
 21
69.0724999703
  0
LINE
  5
5B0
100
AcDbEntity
  8
RUNDUNGEN
100
AcDbLine
 62
7
  6
CONTINUOUS
 10
187.1497396429
 20
97.3167648959
 11
187.3140536562
 21
97.6659659036
  0
LINE
  5
5B1
100
AcDbEntity
  8
RUNDUNGEN
100
AcDbLine
 62
7
  6
CONTINUOUS
 10
167.3122062026
 20
54.5024669342
 11
167.4931392636
 21
54.8435203196
  0
LINE
  5
5B2
100
AcDbEntity
  8
RUNDUNGEN
100
AcDbLine
 62
7
  6
CONTINUOUS
 10
178.3265921429
 20
69.7544890881
 11
178.1165076037
 21
69.4306446991
  0
LINE
  5
5B3
100
AcDbEntity
  8
RUNDUNGEN
100
AcDbLine
 62
7
  6
CONTINUOUS
 10
167.4931392636
 20
54.8435203196
 11
167.7362138619
 21
55.1433959789
  0
LINE
  5
5B4
100
AcDbEntity
  8
RUNDUNGEN
100
AcDbLine
 62
7
  6
CONTINUOUS
 10
178.5950417909
 20
70.0319579364
 11
178.3265921429
 21
69.7544890881
  0
LINE
  5
5B5
100
AcDbEntity
  8
RUNDUNGEN
100
AcDbLine
 62
7
  6
CONTINUOUS
 10
144.0063596771
 20
37.9349968195
 11
143.7250256017
 21
37.6708158561
  0
LINE
  5
5B6
100
AcDbEntity
  8
RUNDUNGEN
100
AcDbLine
 62
7
  6
CONTINUOUS
 10
167.7362138619
 20
55.1433959789
 11
168.0323665141
 21
55.3909124968
  0
LINE
  5
5B7
100
AcDbEntity
  8
RUNDUNGEN
100
AcDbLine
 62
7
  6
CONTINUOUS
 10
151.5923134335
 20
37.7388786553
 11
154.0910746618
 21
39.554334955
  0
LINE
  5
5B8
100
AcDbEntity
  8
RUNDUNGEN
100
AcDbLine
 62
7
  6
CONTINUOUS
 10
163.3759360941
 20
46.3001816522
 11
165.8746977772
 21
48.1156382823
  0
LINE
  5
5B9
100
AcDbEntity
  8
RUNDUNGEN
100
AcDbLine
 62
7
  6
CONTINUOUS
 10
144.3332780849
 20
38.1401679236
 11
144.0063596771
 21
37.9349968195
  0
LINE
  5
5BA
100
AcDbEntity
  8
RUNDUNGEN
100
AcDbLine
 62
7
  6
CONTINUOUS
 10
168.0323665141
 20
55.3909124968
 11
168.3705545457
 21
55.5768406927
  0
LINE
  5
5BB
100
AcDbEntity
  8
RUNDUNGEN
100
AcDbLine
 62
7
  6
CONTINUOUS
 10
126.8178519053
 20
32.4136274417
 11
127.1646959767
 21
32.5831956415
  0
LINE
  5
5BC
100
AcDbEntity
  8
RUNDUNGEN
100
AcDbLine
 62
7
  6
CONTINUOUS
 10
144.6935910033
 20
38.2786789439
 11
144.3332780849
 21
38.1401679236
  0
LINE
  5
5BD
100
AcDbEntity
  8
RUNDUNGEN
100
AcDbLine
 62
7
  6
CONTINUOUS
 10
98.982904488
 20
178.9617063139
 11
98.6099904914
 21
178.8619774621
  0
LINE
  5
5BE
100
AcDbEntity
  8
RUNDUNGEN
100
AcDbLine
 62
7
  6
CONTINUOUS
 10
81.0737370423
 20
173.1995368418
 11
81.4540094769
 21
173.2662230627
  0
LINE
  5
5BF
100
AcDbEntity
  8
RUNDUNGEN
100
AcDbLine
 62
7
  6
CONTINUOUS
 10
127.9226890496
 20
178.8358065003
 11
128.3055747719
 21
178.8841693689
  0
LINE
  5
5C0
100
AcDbEntity
  8
RUNDUNGEN
100
AcDbLine
 62
7
  6
CONTINUOUS
 10
98.6099904914
 20
178.8619774621
 11
98.2249114042
 21
178.8358065489
  0
LINE
  5
5C1
100
AcDbEntity
  8
RUNDUNGEN
100
AcDbLine
 62
7
  6
CONTINUOUS
 10
121.9007983465
 20
183.4533811705
 11
118.8121601692
 21
183.4533811705
  0
LINE
  5
5C2
100
AcDbEntity
  8
RUNDUNGEN
100
AcDbLine
 62
7
  6
CONTINUOUS
 10
107.3354402772
 20
183.4533811705
 11
104.2467982663
 21
183.4533811705
  0
LINE
  5
5C3
100
AcDbEntity
  8
RUNDUNGEN
100
AcDbLine
 62
7
  6
CONTINUOUS
 10
127.5376099527
 20
178.861977409
 11
127.9226890496
 21
178.8358065003
  0
LINE
  5
5C4
100
AcDbEntity
  8
RUNDUNGEN
100
AcDbLine
 62
7
  6
CONTINUOUS
 10
98.2249114042
 20
178.8358065489
 11
97.8420256876
 21
178.8841694104
  0
LINE
  5
5C5
100
AcDbEntity
  8
RUNDUNGEN
100
AcDbLine
 62
7
  6
CONTINUOUS
 10
145.0738634378
 20
173.1995367819
 11
144.6935910025
 21
173.2662230566
  0
LINE
  5
5C6
100
AcDbEntity
  8
RUNDUNGEN
100
AcDbLine
 62
7
  6
CONTINUOUS
 10
127.1646959433
 20
178.9617062592
 11
127.5376099527
 21
178.861977409
  0
LINE
  5
5C7
100
AcDbEntity
  8
RUNDUNGEN
100
AcDbLine
 62
7
  6
CONTINUOUS
 10
144.6935910025
 20
173.2662230566
 11
144.333278121
 21
173.4047340622
  0
LINE
  5
5C8
100
AcDbEntity
  8
RUNDUNGEN
100
AcDbLine
 62
7
  6
CONTINUOUS
 10
126.8178518836
 20
179.1312744566
 11
127.1646959433
 21
178.9617062592
  0
LINE
  5
5C9
100
AcDbEntity
  8
RUNDUNGEN
100
AcDbLine
 62
7
  6
CONTINUOUS
 10
168.0323664936
 20
156.1539893953
 11
168.3705545307
 21
155.9680611969
  0
LINE
  5
5CA
100
AcDbEntity
  8
RUNDUNGEN
100
AcDbLine
 62
7
  6
CONTINUOUS
 10
144.333278121
 20
173.4047340622
 11
144.0063597212
 21
173.6099051615
  0
LINE
  5
5CB
100
AcDbEntity
  8
RUNDUNGEN
100
AcDbLine
 62
7
  6
CONTINUOUS
 10
165.8746973224
 20
163.4292639933
 11
163.3759360941
 21
165.244720293
  0
LINE
  5
5CC
100
AcDbEntity
  8
RUNDUNGEN
100
AcDbLine
 62
7
  6
CONTINUOUS
 10
154.0910746618
 20
171.9905669902
 11
151.5923129787
 21
173.8060236203
  0
LINE
  5
5CD
100
AcDbEntity
  8
RUNDUNGEN
100
AcDbLine
 62
7
  6
CONTINUOUS
 10
167.7362138343
 20
156.4015059194
 11
168.0323664936
 21
156.1539893953
  0
LINE
  5
5CE
100
AcDbEntity
  8
RUNDUNGEN
100
AcDbLine
 62
7
  6
CONTINUOUS
 10
144.0063597212
 20
173.6099051615
 11
143.7250256498
 21
173.8740861205
  0
LINE
  5
5CF
100
AcDbEntity
  8
RUNDUNGEN
100
AcDbLine
 62
7
  6
CONTINUOUS
 10
178.5950418287
 20
141.5129440435
 11
178.3265921748
 21
141.7904129023
  0
LINE
  5
5D0
100
AcDbEntity
  8
RUNDUNGEN
100
AcDbLine
 62
7
  6
CONTINUOUS
 10
167.4931392107
 20
156.7013816092
 11
167.7362138343
 21
156.4015059194
  0
LINE
  5
5D1
100
AcDbEntity
  8
RUNDUNGEN
100
AcDbLine
 62
7
  6
CONTINUOUS
 10
178.3265921748
 20
141.7904129023
 11
178.1165076567
 21
142.1142572578
  0
LINE
  5
5D2
100
AcDbEntity
  8
RUNDUNGEN
100
AcDbLine
 62
7
  6
CONTINUOUS
 10
167.3122061578
 20
157.0424349858
 11
167.4931392107
 21
156.7013816092
  0
LINE
  5
5D3
100
AcDbEntity
  8
RUNDUNGEN
100
AcDbLine
 62
7
  6
CONTINUOUS
 10
187.1497395951
 20
114.2281370184
 11
187.3140536114
 21
113.8789360055
  0
LINE
  5
5D4
100
AcDbEntity
  8
RUNDUNGEN
100
AcDbLine
 62
7
  6
CONTINUOUS
 10
178.1165076567
 20
142.1142572578
 11
177.9726216619
 21
142.472401978
  0
LINE
  5
5D5
100
AcDbEntity
  8
RUNDUNGEN
100
AcDbLine
 62
7
  6
CONTINUOUS
 10
189.6804476824
 20
121.3822039251
 11
188.726005823
 21
124.3196739231
  0
LINE
  5
5D6
100
AcDbEntity
  8
RUNDUNGEN
100
AcDbLine
 62
7
  6
CONTINUOUS
 10
185.1795043367
 20
135.2346831621
 11
184.2250623036
 21
138.1721536947
  0
LINE
  5
5D7
100
AcDbEntity
  8
RUNDUNGEN
100
AcDbLine
 62
7
  6
CONTINUOUS
 10
187.0556336234
 20
114.6024562584
 11
187.1497395951
 21
114.2281370184
  0
LINE
  5
5D8
100
AcDbEntity
  8
RUNDUNGEN
100
AcDbLine
 62
7
  6
CONTINUOUS
 10
177.9726216619
 20
142.472401978
 11
177.9002992887
 21
142.8514928815
  0
LINE
  5
5D9
100
AcDbEntity
  8
RUNDUNGEN
100
AcDbLine
 62
7
  6
CONTINUOUS
 10
187.0893329113
 20
96.1746977267
 11
187.0352446824
 21
96.5569654965
  0
LINE
  5
5DA
100
AcDbEntity
  8
RUNDUNGEN
100
AcDbLine
 62
7
  6
CONTINUOUS
 10
191.4928309749
 20
102.7724509726
 11
191.4928309749
 21
108.7724509726
  0
LINE
  5
5DB
100
AcDbEntity
  8
RUNDUNGEN
100
AcDbLine
 62
7
  6
CONTINUOUS
 10
174.7527730269
 20
57.2518502145
 11
178.2794845406
 21
62.1059521808
  0
LINE
  5
5DC
100
AcDbEntity
  8
RUNDUNGEN
100
AcDbLine
 62
7
  6
CONTINUOUS
 10
134.453443859
 20
30.2644697915
 11
140.1597829568
 21
32.1185717577
  0
LINE
  5
5DD
100
AcDbEntity
  8
RUNDUNGEN
100
AcDbLine
 62
7
  6
CONTINUOUS
 10
140.1597829568
 20
179.4263301874
 11
134.453443859
 21
181.2804321537
  0
LINE
  5
5DE
100
AcDbEntity
  8
RUNDUNGEN
100
AcDbLine
 62
7
  6
CONTINUOUS
 10
178.2794845406
 20
149.4389497644
 11
174.7527730269
 21
154.2930517306
  0
LINE
  5
5DF
100
AcDbEntity
  8
RUNDUNGEN
100
AcDbLine
 62
7
  6
CONTINUOUS
 10
231.624611368
 20
28.0915207746
 11
259.624611368
 21
28.0915207746
  0
LINE
  5
5E0
100
AcDbEntity
  8
RUNDUNGEN
100
AcDbLine
 62
7
  6
CONTINUOUS
 10
245.874611368
 20
30.2155263078
 11
246.0697419195
 21
30.2347490325
  0
LINE
  5
5E1
100
AcDbEntity
  8
0
100
AcDbLine
 62
7
  6
CONTINUOUS
 10
245.374611368
 20
30.2155263078
 11
245.874611368
 21
30.2155263078
  0
LINE
  5
5E2
100
AcDbEntity
  8
RUNDUNGEN
100
AcDbLine
 62
7
  6
CONTINUOUS
 10
245.374611368
 20
30.2155263078
 11
245.1794808165
 21
30.2347490325
  0
LWPOLYLINE
  5
5E3
100
AcDbEntity
  8
RUNDUNGEN
100
AcDbPolyline
 62
7
  6
CONTINUOUS
 90
8
 70
0
 10
245.1794808165
 20
30.2347490325
 10
244.9918937869
 20
30.2916609209
 10
244.8190192784
 20
30.3840713003
 10
244.6674932319
 20
30.5084308817
 10
244.543144894
 20
30.6599513782
 10
244.4507372622
 20
30.8328297745
 10
244.3938274615
 20
31.0204291617
 10
244.374611368
 20
31.2155263078
  0
LINE
  5
5E4
100
AcDbEntity
  8
0
100
AcDbLine
 62
7
  6
CONTINUOUS
 10
231.1681872185
 20
173.3953836961
 11
231.0688431767
 21
173.3422459692
  0
LWPOLYLINE
  5
5E5
100
AcDbEntity
  8
RUNDUNGEN
100
AcDbPolyline
 62
7
  6
CONTINUOUS
 90
7
 70
0
 10
245.6242230664
 20
37.5479020035
 10
246.2836903978
 20
37.5672993028
 10
247.3233531504
 20
37.6634775702
 10
248.3680460851
 20
37.7987429516
 10
249.4362827676
 20
37.9275931
 10
250.5409097983
 20
38.0143724754
 10
251.3140035077
 20
38.0340605079
  0
LINE
  5
5E6
100
AcDbEntity
  8
RUNDUNGEN
100
AcDbLine
 62
7
  6
CONTINUOUS
 10
259.624611368
 20
38.0339932796
 11
251.314002968
 21
38.0339932796
  0
LINE
  5
5E7
100
AcDbEntity
  8
RUNDUNGEN
100
AcDbLine
 62
7
  6
CONTINUOUS
 10
239.9354425804
 20
38.0339932796
 11
231.624611368
 21
38.0339932796
  0
LWPOLYLINE
  5
5E8
100
AcDbEntity
  8
RUNDUNGEN
100
AcDbPolyline
 62
7
  6
CONTINUOUS
 90
7
 70
0
 10
239.9354425717
 20
38.0340073846
 10
240.7407551951
 20
38.0127595795
 10
241.8461080294
 20
37.9240951572
 10
242.9145177654
 20
37.7943559363
 10
243.9594405014
 20
37.6594914599
 10
244.999286577
 20
37.5654041316
 10
245.6242230622
 20
37.5479000551
  0
LWPOLYLINE
  5
5E9
100
AcDbEntity
  8
RUNDUNGEN
100
AcDbPolyline
 62
7
  6
CONTINUOUS
 90
9
 70
0
 10
231.624611368
 20
38.0339932796
 10
231.4291418202
 20
38.0532835313
 10
231.2416094538
 20
38.1102457309
 10
231.0688431767
 20
38.202655976
 10
230.9174058049
 20
38.3269852941
 10
230.7931766628
 20
38.4783708099
 10
230.7007857471
 20
38.651179719
 10
230.6438398043
 20
38.8388348147
 10
230.624611368
 20
39.0339932796
  0
LINE
  5
5EA
100
AcDbEntity
  8
0
100
AcDbLine
 62
7
  6
CONTINUOUS
 10
231.0688431767
 20
173.3422459692
 11
230.9174058049
 21
173.217916651
  0
LINE
  5
5EB
100
AcDbEntity
  8
0
100
AcDbLine
 62
7
  6
CONTINUOUS
 10
231.624611368
 20
46.1091986465
 11
259.624611368
 21
46.1091986465
  0
LWPOLYLINE
  5
5EC
100
AcDbEntity
  8
0
100
AcDbPolyline
 62
7
  6
CONTINUOUS
 90
5
 70
0
 10
230.9174058049
 20
173.217916651
 10
230.7931766628
 20
173.0665311353
 10
230.7007857471
 20
172.8937222261
 10
230.6438398043
 20
172.7060671304
 10
230.624611368
 20
172.5109086656
  0
LINE
  5
5ED
100
AcDbEntity
  8
0
100
AcDbLine
 62
7
  6
CONTINUOUS
 10
251.9220096981
 20
169.3023139517
 11
251.9539940225
 21
169.3202495359
  0
LINE
  5
5EE
100
AcDbEntity
  8
RUNDUNGEN
100
AcDbLine
 62
7
  6
CONTINUOUS
 10
251.9542553595
 20
169.3203924288
 11
251.9539940225
 21
169.3202495359
  0
LINE
  5
5EF
100
AcDbEntity
  8
0
100
AcDbLine
 62
7
  6
CONTINUOUS
 10
251.9542537575
 20
169.3203955348
 11
252.3717177499
 21
169.546396627
  0
LINE
  5
5F0
100
AcDbEntity
  8
0
100
AcDbLine
 62
7
  6
CONTINUOUS
 10
252.3717177499
 20
169.546396627
 11
252.7630508176
 21
169.7548120995
  0
LINE
  5
5F1
100
AcDbEntity
  8
0
100
AcDbLine
 62
7
  6
CONTINUOUS
 10
252.7630508176
 20
169.7548120995
 11
253.1676283899
 21
169.9673286465
  0
LINE
  5
5F2
100
AcDbEntity
  8
RUNDUNGEN
100
AcDbLine
 62
7
  6
CONTINUOUS
 10
253.586348804
 20
170.184599425
 11
253.5859634108
 21
170.1844005662
  0
LINE
  5
5F3
100
AcDbEntity
  8
0
100
AcDbLine
 62
7
  6
CONTINUOUS
 10
253.1676283899
 20
169.9673286465
 11
253.7918204838
 21
170.2904021993
  0
LWPOLYLINE
  5
5F4
100
AcDbEntity
  8
0
100
AcDbPolyline
 62
7
  6
CONTINUOUS
 90
3
 70
0
 10
253.7918204838
 20
170.2904021993
 10
254.4173669978
 20
170.6091820909
 10
255.0554956856
 20
170.9301719223
  0
LINE
  5
5F5
100
AcDbEntity
  8
0
100
AcDbLine
 62
7
  6
CONTINUOUS
 10
255.0554956856
 20
170.9301719223
 11
256.353546007
 21
171.5724245832
  0
LINE
  5
5F6
100
AcDbEntity
  8
0
100
AcDbLine
 62
7
  6
CONTINUOUS
 10
256.353546007
 20
171.5724245832
 11
260.0636192188
 21
173.3848929144
  0
LINE
  5
5F7
100
AcDbEntity
  8
0
100
AcDbLine
 62
7
  6
CONTINUOUS
 10
251.7478690744
 20
169.4398935022
 11
252.4953419496
 21
169.8044603825
  0
LINE
  5
5F8
100
AcDbEntity
  8
0
100
AcDbLine
 62
2
  6
CONTINUOUS
 10
242.8588662886
 20
171.7033811705
 11
240.1205103557
 21
168.9650252377
  0
LINE
  5
5F9
100
AcDbEntity
  8
0
100
AcDbLine
 62
2
  6
CONTINUOUS
 10
248.7597836311
 20
171.7033811705
 11
240.624611368
 21
163.5682089074
  0
LINE
  5
5FA
100
AcDbEntity
  8
RUNDUNGEN
100
AcDbLine
 62
7
  6
CONTINUOUS
 10
251.6946101156
 20
169.146856204
 11
251.6933228835
 21
169.1458289511
  0
LWPOLYLINE
  5
5FB
100
AcDbEntity
  8
0
100
AcDbPolyline
 62
7
  6
CONTINUOUS
 90
4
 70
0
 10
251.6933267867
 20
169.1458239263
 10
251.7561494229
 20
169.1939405695
 10
251.8391711702
 20
169.2514783082
 10
251.9220096981
 20
169.3023139517
  0
LWPOLYLINE
  5
5FC
100
AcDbEntity
  8
0
100
AcDbPolyline
 62
7
  6
CONTINUOUS
 90
3
 70
0
 10
258.7779907971
 20
161.7224448165
 10
258.9893394971
 20
161.809121207
 10
259.2026709256
 20
161.8947311372
  0
LINE
  5
5FD
100
AcDbEntity
  8
0
100
AcDbLine
 62
7
  6
CONTINUOUS
 10
259.2026709256
 20
161.8947311372
 11
259.9920117543
 21
162.2065848639
  0
LINE
  5
5FE
100
AcDbEntity
  8
RUNDUNGEN
100
AcDbLine
 62
7
  6
CONTINUOUS
 10
259.9913373832
 20
162.2063187519
 11
259.9913659081
 21
162.2063299988
  0
LINE
  5
5FF
100
AcDbEntity
  8
0
100
AcDbLine
 62
2
  6
CONTINUOUS
 10
250.626538512
 20
167.669218709
 11
240.624611368
 21
157.667291565
  0
LINE
  5
600
100
AcDbEntity
  8
0
100
AcDbLine
 62
7
  6
CONTINUOUS
 10
251.4711019492
 20
168.9384712968
 11
251.6946101156
 21
169.146856204
  0
LINE
  5
601
100
AcDbEntity
  8
0
100
AcDbLine
 62
7
  6
CONTINUOUS
 10
259.9913373832
 20
162.2063187519
 11
260.180439031
 21
162.3053502
  0
LINE
  5
602
100
AcDbEntity
  8
RUNDUNGEN
100
AcDbLine
 62
7
  6
CONTINUOUS
 10
256.1552050155
 20
155.7019780085
 11
256.1553163369
 21
155.7020220243
  0
LINE
  5
603
100
AcDbEntity
  8
0
100
AcDbLine
 62
7
  6
CONTINUOUS
 10
256.1552240981
 20
155.7019298574
 11
259.9921963984
 21
157.218318136
  0
LINE
  5
604
100
AcDbEntity
  8
RUNDUNGEN
100
AcDbLine
 62
7
  6
CONTINUOUS
 10
259.9922940967
 20
157.2183567453
 11
259.992244686
 21
157.2183373267
  0
LINE
  5
605
100
AcDbEntity
  8
RUNDUNGEN
100
AcDbLine
 62
7
  6
CONTINUOUS
 10
257.8373308573
 20
65.9220911386
 11
261.9704617151
 21
66.330822425
  0
LINE
  5
606
100
AcDbEntity
  8
RUNDUNGEN
100
AcDbLine
 62
7
  6
CONTINUOUS
 10
229.2787610209
 20
66.330822425
 11
233.4118918788
 21
65.9220911386
  0
LINE
  5
607
100
AcDbEntity
  8
RUNDUNGEN
100
AcDbLine
 62
7
  6
CONTINUOUS
 10
259.9923002638
 20
54.3265427626
 11
256.1552236881
 21
55.8429722498
  0
LWPOLYLINE
  5
608
100
AcDbEntity
  8
RUNDUNGEN
100
AcDbPolyline
 62
7
  6
CONTINUOUS
 90
7
 70
0
 10
256.155316027
 20
55.8428805415
 10
256.0636108186
 20
55.8796360493
 10
255.6159221173
 20
56.0734792401
 10
255.1542962106
 20
56.298314519
 10
254.6832090469
 20
56.5541389625
 10
254.2077487128
 20
56.8404082392
 10
254.0361655857
 20
56.9509914752
  0
LINE
  5
609
100
AcDbEntity
  8
0
100
AcDbLine
 62
2
  6
CONTINUOUS
 10
250.624611368
 20
161.7663742225
 11
240.3398220886
 21
151.4815849431
  0
LINE
  5
60A
100
AcDbEntity
  8
0
100
AcDbLine
 62
2
  6
CONTINUOUS
 10
234.7289029101
 20
145.8706657646
 11
226.574611368
 21
137.7163742225
  0
LWPOLYLINE
  5
60B
100
AcDbEntity
  8
0
100
AcDbPolyline
 62
7
  6
CONTINUOUS
 90
5
 70
0
 10
260.180439031
 20
162.3053502
 10
260.3318446169
 20
162.4296674505
 10
260.4560324032
 20
162.581004817
 10
260.5484184387
 20
162.7537894177
 10
260.6053781758
 20
162.941465643
  0
LWPOLYLINE
  5
60C
100
AcDbEntity
  8
0
100
AcDbPolyline
 62
7
  6
CONTINUOUS
 90
7
 70
0
 10
254.0361633366
 20
154.5939091062
 10
254.2077460637
 20
154.7044921702
 10
254.6832065209
 20
154.9907618051
 10
255.1542940024
 20
155.2465866605
 10
255.6159205202
 20
155.4714223725
 10
256.0636102091
 20
155.6652661296
 10
256.1553163369
 20
155.7020220243
  0
LWPOLYLINE
  5
60D
100
AcDbEntity
  8
RUNDUNGEN
100
AcDbPolyline
 62
7
  6
CONTINUOUS
 90
9
 70
0
 10
231.624611368
 20
73.4682882666
 10
231.4263540283
 20
73.4881388195
 10
231.2394534378
 20
73.5454375913
 10
231.0678675586
 20
73.6376040347
 10
230.9171812171
 20
73.761505003
 10
230.7937778512
 20
73.9117672318
 10
230.7013892635
 20
74.0840215028
 10
230.6440054013
 20
74.2723066881
 10
230.624611368
 20
74.4682882666
  0
LINE
  5
60E
100
AcDbEntity
  8
RUNDUNGEN
100
AcDbLine
 62
7
  6
CONTINUOUS
 10
254.0361622351
 20
56.9510369491
 11
253.7813877159
 21
57.1227028795
  0
LINE
  5
60F
100
AcDbEntity
  8
RUNDUNGEN
100
AcDbLine
 62
7
  6
CONTINUOUS
 10
253.7811582276
 20
57.1228664588
 11
253.4988302704
 21
57.3241100164
  0
LWPOLYLINE
  5
610
100
AcDbEntity
  8
RUNDUNGEN
100
AcDbPolyline
 62
7
  6
CONTINUOUS
 90
4
 70
0
 10
253.4986682664
 20
57.3242325402
 10
253.2199774876
 20
57.535006873
 10
252.9459997063
 20
57.7548895133
 10
252.802271245
 20
57.8756324795
  0
LINE
  5
611
100
AcDbEntity
  8
0
100
AcDbLine
 62
2
  6
CONTINUOUS
 10
250.624611368
 20
155.86545688
 11
229.3916126393
 21
134.6324581513
  0
LINE
  5
612
100
AcDbEntity
  8
0
100
AcDbLine
 62
2
  6
CONTINUOUS
 10
251.2231750749
 20
150.5631032445
 11
235.2925299818
 21
134.6324581513
  0
LINE
  5
613
100
AcDbEntity
  8
RUNDUNGEN
100
AcDbLine
 62
7
  6
CONTINUOUS
 10
252.802279352
 20
153.6692595222
 11
252.8020739276
 21
153.6690842649
  0
LWPOLYLINE
  5
614
100
AcDbEntity
  8
0
100
AcDbPolyline
 62
7
  6
CONTINUOUS
 90
6
 70
0
 10
252.8022711168
 20
153.6692691637
 10
252.9458851452
 20
153.7899175096
 10
253.2197988586
 20
154.0097559535
 10
253.4986296391
 20
154.2206453202
 10
253.7811896536
 20
154.4220605949
 10
254.0361605714
 20
154.5938624491
  0
LINE
  5
615
100
AcDbEntity
  8
RUNDUNGEN
100
AcDbLine
 62
7
  6
CONTINUOUS
 10
248.7697964638
 20
73.1636546357
 11
248.7603541834
 21
73.1617164221
  0
LWPOLYLINE
  5
616
100
AcDbEntity
  8
RUNDUNGEN
100
AcDbPolyline
 62
7
  6
CONTINUOUS
 90
4
 70
0
 10
248.7603470045
 20
73.1617126235
 10
249.4244419099
 20
73.2886043777
 10
250.5249150252
 20
73.433930492
 10
251.314013213
 20
73.4683949482
  0
LINE
  5
617
100
AcDbEntity
  8
RUNDUNGEN
100
AcDbLine
 62
7
  6
CONTINUOUS
 10
259.624611368
 20
73.4682882666
 11
251.3140097493
 21
73.4682882666
  0
LINE
  5
618
100
AcDbEntity
  8
RUNDUNGEN
100
AcDbLine
 62
7
  6
CONTINUOUS
 10
239.9354528176
 20
73.4682882666
 11
231.624611368
 21
73.4682882666
  0
LWPOLYLINE
  5
619
100
AcDbEntity
  8
RUNDUNGEN
100
AcDbPolyline
 62
7
  6
CONTINUOUS
 90
4
 70
0
 10
239.9354529208
 20
73.4683091328
 10
240.7574124139
 20
73.4311172052
 10
241.8599722802
 20
73.2824306182
 10
242.4871020721
 20
73.1620862325
  0
LINE
  5
61A
100
AcDbEntity
  8
RUNDUNGEN
100
AcDbLine
 62
7
  6
CONTINUOUS
 10
242.4871080813
 20
73.1620851157
 11
242.4790665351
 21
73.1637351602
  0
LINE
  5
61B
100
AcDbEntity
  8
RUNDUNGEN
100
AcDbLine
 62
7
  6
CONTINUOUS
 10
252.8020744586
 20
57.8758249192
 11
252.8022839279
 21
57.8756462338
  0
LWPOLYLINE
  5
61C
100
AcDbEntity
  8
RUNDUNGEN
100
AcDbPolyline
 62
7
  6
CONTINUOUS
 90
3
 70
0
 10
252.8020744586
 20
57.8758249192
 10
252.7234336186
 20
57.9456338462
 10
252.5928683559
 20
58.0728990117
  0
LINE
  5
61D
100
AcDbEntity
  8
RUNDUNGEN
100
AcDbLine
 62
7
  6
CONTINUOUS
 10
252.5930208849
 20
58.0727593111
 11
252.4604305023
 21
58.2156696103
  0
LWPOLYLINE
  5
61E
100
AcDbEntity
  8
0
100
AcDbPolyline
 62
7
  6
CONTINUOUS
 90
3
 70
0
 10
250.9534204992
 20
168.1011783437
 10
251.1903739777
 20
168.5674658578
 10
251.4711019492
 20
168.9384712968
  0
LINE
  5
61F
100
AcDbEntity
  8
RUNDUNGEN
100
AcDbLine
 62
7
  6
CONTINUOUS
 10
252.3887442495
 20
153.2465921439
 11
252.3882131948
 21
153.2459690407
  0
LWPOLYLINE
  5
620
100
AcDbEntity
  8
0
100
AcDbPolyline
 62
7
  6
CONTINUOUS
 90
5
 70
0
 10
252.3887432988
 20
153.2465929215
 10
252.4603668716
 20
153.3291673472
 10
252.5928679775
 20
153.4720026194
 10
252.7234332362
 20
153.5992677592
 10
252.8020739276
 20
153.6690842649
  0
LINE
  5
621
100
AcDbEntity
  8
0
100
AcDbLine
 62
2
  6
CONTINUOUS
 10
253.7792609415
 20
147.2182717686
 11
241.1934473242
 21
134.6324581513
  0
LWPOLYLINE
  5
622
100
AcDbEntity
  8
RUNDUNGEN
100
AcDbPolyline
 62
7
  6
CONTINUOUS
 90
5
 70
0
 10
231.624611368
 20
82.2544906931
 10
231.4280712163
 20
82.2367650479
 10
231.2395809919
 20
82.1849412969
 10
231.0663860415
 20
82.1008099813
 10
230.9150887911
 20
81.9880811113
  0
LINE
  5
623
100
AcDbEntity
  8
RUNDUNGEN
100
AcDbLine
 62
7
  6
CONTINUOUS
 10
231.624611368
 20
82.2544906931
 11
259.624611368
 21
82.2544906931
  0
LWPOLYLINE
  5
624
100
AcDbEntity
  8
RUNDUNGEN
100
AcDbPolyline
 62
7
  6
CONTINUOUS
 90
5
 70
0
 10
259.624611368
 20
82.2544906931
 10
259.8211515196
 20
82.2369643563
 10
260.0096417441
 20
82.1849412969
 10
260.1828366945
 20
82.100872981
 10
260.3341339449
 20
81.9880811113
  0
LINE
  5
625
100
AcDbEntity
  8
RUNDUNGEN
100
AcDbLine
 62
7
  6
CONTINUOUS
 10
252.4604305023
 20
58.2156696103
 11
252.3887433439
 21
58.2983090649
  0
LINE
  5
626
100
AcDbEntity
  8
RUNDUNGEN
100
AcDbLine
 62
7
  6
CONTINUOUS
 10
252.3887442514
 20
58.2983098057
 11
252.3882132281
 21
58.2989328722
  0
LWPOLYLINE
  5
627
100
AcDbEntity
  8
RUNDUNGEN
100
AcDbPolyline
 62
7
  6
CONTINUOUS
 90
10
 70
0
 10
252.3882132281
 20
58.2989328722
 10
252.1596522622
 20
58.5928986593
 10
251.8168268665
 20
59.1364687688
 10
251.5265694172
 20
59.7185678284
 10
251.2801473368
 20
60.3370322203
 10
251.0705637822
 20
61.001560384
 10
250.9005897896
 20
61.7013457056
 10
250.7701051473
 20
62.435595216
 10
250.680490792
 20
63.1983381551
 10
250.632697312
 20
63.9865414105
  0
LINE
  5
628
100
AcDbEntity
  8
RUNDUNGEN
100
AcDbLine
 62
7
  6
CONTINUOUS
 10
226.574611368
 20
69.3162607401
 11
226.574611368
 21
105.7724509732
  0
LINE
  5
629
100
AcDbEntity
  8
0
100
AcDbLine
 62
7
  6
CONTINUOUS
 10
226.574611368
 20
105.7724509732
 11
226.574611368
 21
142.2286946358
  0
LINE
  5
62A
100
AcDbEntity
  8
0
100
AcDbLine
 62
2
  6
CONTINUOUS
 10
258.0624545176
 20
145.6005480022
 11
247.0943646667
 21
134.6324581513
  0
LWPOLYLINE
  5
62B
100
AcDbEntity
  8
RUNDUNGEN
100
AcDbPolyline
 62
7
  6
CONTINUOUS
 90
4
 70
0
 10
232.9133023745
 20
82.7233775921
 10
232.74061715
 20
82.6896405671
 10
232.5659008516
 20
82.6577367723
 10
232.3892144018
 20
82.6277479653
  0
LINE
  5
62C
100
AcDbEntity
  8
RUNDUNGEN
100
AcDbLine
 62
7
  6
CONTINUOUS
 10
231.4809075663
 20
82.4896346168
 11
231.4266458187
 21
82.4802228516
  0
LINE
  5
62D
100
AcDbEntity
  8
RUNDUNGEN
100
AcDbLine
 62
7
  6
CONTINUOUS
 10
232.3892144018
 20
82.6277479653
 11
232.220577148
 21
82.6012560749
  0
LINE
  5
62E
100
AcDbEntity
  8
RUNDUNGEN
100
AcDbLine
 62
7
  6
CONTINUOUS
 10
232.2205792909
 20
82.6012581764
 11
231.4754129166
 21
82.4888216007
  0
LINE
  5
62F
100
AcDbEntity
  8
RUNDUNGEN
100
AcDbLine
 62
7
  6
CONTINUOUS
 10
231.624611368
 20
86.5342450164
 11
259.624611368
 21
86.5342450164
  0
LINE
  5
630
100
AcDbEntity
  8
RUNDUNGEN
100
AcDbLine
 62
7
  6
CONTINUOUS
 10
259.7685387338
 20
82.4896015792
 11
259.0286434266
 21
82.6012581792
  0
LWPOLYLINE
  5
631
100
AcDbEntity
  8
RUNDUNGEN
100
AcDbPolyline
 62
7
  6
CONTINUOUS
 90
3
 70
0
 10
259.0286440427
 20
82.6012575377
 10
258.8610558808
 20
82.6275761818
 10
258.6714523624
 20
82.6598319769
  0
LINE
  5
632
100
AcDbEntity
  8
RUNDUNGEN
100
AcDbLine
 62
7
  6
CONTINUOUS
 10
259.7683151697
 20
82.4896346168
 11
259.8225769173
 21
82.4802228516
  0
LINE
  5
633
100
AcDbEntity
  8
RUNDUNGEN
100
AcDbLine
 62
7
  6
CONTINUOUS
 10
258.6714523624
 20
82.6598319769
 11
258.4841022871
 21
82.6942936711
  0
LWPOLYLINE
  5
634
100
AcDbEntity
  8
RUNDUNGEN
100
AcDbPolyline
 62
7
  6
CONTINUOUS
 90
65
 70
0
 10
258.4841022871
 20
82.6942936711
 10
258.299071256
 20
82.7308618278
 10
258.1164272897
 20
82.7694370838
 10
257.9362285422
 20
82.8099228813
 10
257.7585579579
 20
82.8522242474
 10
257.583498167
 20
82.896254425
 10
257.4111040391
 20
82.9419325517
 10
257.2414291433
 20
82.9891771975
 10
257.0745472658
 20
83.0379000423
 10
256.9105308134
 20
83.088016321
 10
256.7494360234
 20
83.1394540609
 10
256.5913296297
 20
83.192136156
 10
256.4362442201
 20
83.2459942076
 10
256.2842798304
 20
83.3009335256
 10
256.1352902784
 20
83.3569529009
 10
255.9892265471
 20
83.4140322205
 10
255.8459324166
 20
83.4721998564
 10
255.7052694269
 20
83.5314860854
 10
255.5671426492
 20
83.5919111343
 10
255.4314540117
 20
83.6535089147
 10
255.2981225802
 20
83.7163256542
 10
255.1670719091
 20
83.7804153397
 10
255.0382335646
 20
83.8458371591
 10
254.9115103581
 20
83.9126763523
 10
254.7869571187
 20
83.9809554122
 10
254.664613106
 20
84.05072173
 10
254.5445718803
 20
84.1219999636
 10
254.4269222703
 20
84.1948244286
 10
254.3117595744
 20
84.2692353979
 10
254.1992299001
 20
84.3452569096
 10
254.0895610963
 20
84.4228735887
 10
253.9829891774
 20
84.5020777067
 10
253.8797288562
 20
84.5828947915
 10
253.7801202385
 20
84.6652376065
 10
253.6844813845
 20
84.7490409004
 10
253.593354477
 20
84.8340906391
 10
253.5067320277
 20
84.9207648689
 10
253.4251124671
 20
85.0089108934
 10
253.3487785948
 20
85.0986961875
 10
253.2786566371
 20
85.1899425997
 10
253.2154413486
 20
85.282911197
 10
253.1605021119
 20
85.37611532
 10
253.1153285884
 20
85.4685003552
 10
253.0818315151
 20
85.5596638558
 10
253.0628620817
 20
85.6404100133
 10
253.0567405305
 20
85.7034781182
 10
253.0604458449
 20
85.7548580148
 10
253.0704649145
 20
85.8003057853
 10
253.0864032008
 20
85.8441393698
 10
253.1089369903
 20
85.8884152652
 10
253.1382247849
 20
85.9341575599
 10
253.1753126603
 20
85.9828009809
 10
253.2193419185
 20
86.0323336933
 10
253.2700422338
 20
86.0820699874
 10
253.3265958283
 20
86.131372296
 10
253.3884047763
 20
86.1798734413
 10
253.4547561337
 20
86.2271422415
 10
253.5249302722
 20
86.2728379124
 10
253.5990636023
 20
86.3171993043
 10
253.6774587122
 20
86.3604648627
 10
253.7596082391
 20
86.4023965384
 10
253.8453073728
 20
86.4429494212
 10
253.934155911
 20
86.4819762115
 10
254.025691228
 20
86.5193376601
 10
254.0649606953
 20
86.5342450164
  0
LWPOLYLINE
  5
635
100
AcDbEntity
  8
RUNDUNGEN
100
AcDbPolyline
 62
7
  6
CONTINUOUS
 90
3
 70
0
 10
259.8225769173
 20
82.4802228516
 10
260.0095529843
 20
82.4229552538
 10
260.181282432
 20
82.3307473126
  0
LWPOLYLINE
  5
636
100
AcDbEntity
  8
RUNDUNGEN
100
AcDbPolyline
 62
7
  6
CONTINUOUS
 90
66
 70
0
 10
237.1844690912
 20
86.5342450164
 10
237.2046662611
 20
86.5267071315
 10
237.30283081
 20
86.4871309138
 10
237.3976337685
 20
86.4458068126
 10
237.4884518931
 20
86.4029682187
 10
237.5746187298
 20
86.3589470662
 10
237.6561656968
 20
86.3137368929
 10
237.7326821978
 20
86.2675784895
 10
237.8045533662
 20
86.2202340375
 10
237.8719781046
 20
86.1714668622
 10
237.9343226899
 20
86.1216055148
 10
237.9907653161
 20
86.071237374
 10
238.0412047281
 20
86.0202846785
 10
238.0851966143
 20
85.9688217209
 10
238.121706924
 20
85.9183641158
 10
238.1497767073
 20
85.8711643005
 10
238.1698827389
 20
85.8269298318
 10
238.1829349726
 20
85.7846885477
 10
238.1905638962
 20
85.7409806577
 10
238.1921485668
 20
85.6915254041
 10
238.1843553371
 20
85.6288830284
 10
238.1624059413
 20
85.5438875437
 10
238.1238092352
 20
85.4458572331
 10
238.0720548244
 20
85.3461650058
 10
238.0097307387
 20
85.2461212887
 10
237.9397964208
 20
85.1486484244
 10
237.8636912751
 20
85.05442061
 10
237.7821542951
 20
84.9627179593
 10
237.6964330226
 20
84.8738956953
 10
237.606982015
 20
84.7877661842
 10
237.514461699
 20
84.7043504391
 10
237.4191354265
 20
84.6233527188
 10
237.3214285249
 20
84.5447417265
 10
237.2216080566
 20
84.4684268578
 10
237.1198062514
 20
84.3942363156
 10
237.0160802485
 20
84.3219796679
 10
236.9104463015
 20
84.2514842059
 10
236.8029060345
 20
84.1826056772
 10
236.6933517071
 20
84.1151650709
 10
236.58149634
 20
84.0489118477
 10
236.4675879713
 20
83.9839336177
 10
236.3517447154
 20
83.9202371739
 10
236.2340562397
 20
83.8578147386
 10
236.1146575711
 20
83.7966898136
 10
235.9934319378
 20
83.7367666555
 10
235.8703180857
 20
83.6779886581
 10
235.7452421239
 20
83.6203011116
 10
235.6181260434
 20
83.5636549325
 10
235.4888931253
 20
83.5080148054
 10
235.3574619931
 20
83.4533571248
 10
235.2237118511
 20
83.3996487598
 10
235.0875256519
 20
83.346865247
 10
234.9488031985
 20
83.2949947111
 10
234.8073852254
 20
83.2440128343
 10
234.6633130593
 20
83.1939812739
 10
234.5165506375
 20
83.1449359182
 10
234.3671675734
 20
83.0969479966
 10
234.215204632
 20
83.0500765781
 10
234.0607230524
 20
83.004385546
 10
233.903780309
 20
82.9599434226
 10
233.7444242879
 20
82.9168191431
 10
233.5827082701
 20
82.875082066
 10
233.4186816852
 20
82.8347993935
 10
233.2523915213
 20
82.7960367814
 10
233.0839077021
 20
82.7588686675
 10
232.9133023745
 20
82.7233775921
  0
LINE
  5
637
100
AcDbEntity
  8
RUNDUNGEN
100
AcDbLine
 62
7
  6
CONTINUOUS
 10
230.624611368
 20
174.2915048363
 11
230.624611368
 21
174.2833137231
  0
LINE
  5
638
100
AcDbEntity
  8
RUNDUNGEN
100
AcDbLine
 62
7
  6
CONTINUOUS
 10
230.624611368
 20
29.0915207746
 11
230.624611368
 21
37.261588227
  0
LINE
  5
639
100
AcDbEntity
  8
RUNDUNGEN
100
AcDbLine
 62
7
  6
CONTINUOUS
 10
230.624611368
 20
39.0339932796
 11
230.624611368
 21
53.3967080351
  0
LINE
  5
63A
100
AcDbEntity
  8
RUNDUNGEN
100
AcDbLine
 62
7
  6
CONTINUOUS
 10
230.624611368
 20
74.4682882666
 11
230.624611368
 21
81.5000143282
  0
LINE
  5
63B
100
AcDbEntity
  8
RUNDUNGEN
100
AcDbLine
 62
7
  6
CONTINUOUS
 10
230.624611368
 20
87.5342450164
 11
230.624611368
 21
91.0747370926
  0
LINE
  5
63C
100
AcDbEntity
  8
0
100
AcDbLine
 62
7
  6
CONTINUOUS
 10
230.624611368
 20
159.3160436015
 11
230.624611368
 21
159.7025614156
  0
LINE
  5
63D
100
AcDbEntity
  8
RUNDUNGEN
100
AcDbLine
 62
7
  6
CONTINUOUS
 10
230.624611368
 20
158.1481939101
 11
230.624611368
 21
163.1063446289
  0
LINE
  5
63E
100
AcDbEntity
  8
RUNDUNGEN
100
AcDbLine
 62
7
  6
CONTINUOUS
 10
230.624611368
 20
163.1366477414
 11
230.624611368
 21
172.5109086656
  0
LINE
  5
63F
100
AcDbEntity
  8
RUNDUNGEN
100
AcDbLine
 62
7
  6
CONTINUOUS
 10
230.624611368
 20
174.3172344374
 11
230.624611368
 21
182.4533811705
  0
LINE
  5
640
100
AcDbEntity
  8
RUNDUNGEN
100
AcDbLine
 62
7
  6
CONTINUOUS
 10
230.6435405742
 20
81.527399449
 11
230.624611368
 21
81.3523776605
  0
LINE
  5
641
100
AcDbEntity
  8
0
100
AcDbLine
 62
7
  6
CONTINUOUS
 10
250.769616455
 20
167.5324092096
 11
250.9534204992
 21
168.1011783437
  0
LINE
  5
642
100
AcDbEntity
  8
0
100
AcDbLine
 62
2
  6
CONTINUOUS
 10
263.1832366331
 20
144.8204127752
 11
252.9952820092
 21
134.6324581513
  0
LINE
  5
643
100
AcDbEntity
  8
0
100
AcDbLine
 62
2
  6
CONTINUOUS
 10
264.674611368
 20
140.4108701676
 11
258.8961993517
 21
134.6324581513
  0
LINE
  5
644
100
AcDbEntity
  8
RUNDUNGEN
100
AcDbLine
 62
7
  6
CONTINUOUS
 10
236.1854784542
 20
92.7751024734
 11
231.4753422757
 21
92.0640920953
  0
LINE
  5
645
100
AcDbEntity
  8
RUNDUNGEN
100
AcDbLine
 62
7
  6
CONTINUOUS
 10
259.773865507
 20
92.0640943524
 11
255.0637570917
 21
92.7751005396
  0
LWPOLYLINE
  5
646
100
AcDbEntity
  8
RUNDUNGEN
100
AcDbPolyline
 62
7
  6
CONTINUOUS
 90
5
 70
0
 10
255.0637156318
 20
92.7750386395
 10
254.9883053241
 20
92.7872967078
 10
254.7015825569
 20
92.8496177322
 10
254.4025788885
 20
92.9400754759
 10
254.095165783
 20
93.0593662372
  0
LWPOLYLINE
  5
647
100
AcDbEntity
  8
RUNDUNGEN
100
AcDbPolyline
 62
7
  6
CONTINUOUS
 90
3
 70
0
 10
240.4831288159
 20
73.4435279576
 10
240.5170970263
 20
73.3482360905
 10
240.5685600119
 20
73.1516632
  0
LWPOLYLINE
  5
648
100
AcDbEntity
  8
0
100
AcDbPolyline
 62
7
  6
CONTINUOUS
 90
4
 70
0
 10
230.624611368
 20
163.1366477414
 10
230.6437495982
 20
162.9419434406
 10
230.7005560463
 20
162.7543889777
 10
230.7929647026
 20
162.5813425812
  0
LINE
  5
649
100
AcDbEntity
  8
RUNDUNGEN
100
AcDbLine
 62
7
  6
CONTINUOUS
 10
244.3668851094
 20
37.6226250664
 11
244.3728121164
 21
37.5600256625
  0
LINE
  5
64A
100
AcDbEntity
  8
RUNDUNGEN
100
AcDbLine
 62
7
  6
CONTINUOUS
 10
240.624611368
 20
58.9809706011
 11
240.624611368
 21
72.6172794959
  0
LINE
  5
64B
100
AcDbEntity
  8
0
100
AcDbLine
 62
7
  6
CONTINUOUS
 10
240.624611368
 20
153.5839188353
 11
240.624611368
 21
167.6423054096
  0
LINE
  5
64C
100
AcDbEntity
  8
RUNDUNGEN
100
AcDbLine
 62
7
  6
CONTINUOUS
 10
240.624611368
 20
97.3447515196
 11
240.6246541287
 21
102.9086368037
  0
LWPOLYLINE
  5
64D
100
AcDbEntity
  8
RUNDUNGEN
100
AcDbPolyline
 62
7
  6
CONTINUOUS
 90
3
 70
0
 10
240.6246541287
 20
102.9086368037
 10
240.6249807049
 20
102.9534411652
 10
240.6252543911
 20
102.9768317672
  0
LWPOLYLINE
  5
64E
100
AcDbEntity
  8
RUNDUNGEN
100
AcDbPolyline
 62
7
  6
CONTINUOUS
 90
3
 70
0
 10
230.7013083488
 20
81.8840866323
 10
230.6439818535
 20
81.6958789105
 10
230.624611368
 20
81.5000143282
  0
LWPOLYLINE
  5
64F
100
AcDbEntity
  8
0
100
AcDbPolyline
 62
7
  6
CONTINUOUS
 90
6
 70
0
 10
251.1404907189
 20
150.7650594308
 10
251.2801473587
 20
151.2078697863
 10
251.5265694878
 20
151.8263342676
 10
251.8168269441
 20
152.408433321
 10
252.1596522953
 20
152.9520033302
 10
252.3882131948
 20
153.2459690407
  0
LWPOLYLINE
  5
650
100
AcDbEntity
  8
RUNDUNGEN
100
AcDbPolyline
 62
7
  6
CONTINUOUS
 90
3
 70
0
 10
254.095165783
 20
93.0593662372
 10
253.7834085227
 20
93.2073162981
 10
253.688149392
 20
93.2579816609
  0
LWPOLYLINE
  5
651
100
AcDbEntity
  8
RUNDUNGEN
100
AcDbPolyline
 62
7
  6
CONTINUOUS
 90
6
 70
0
 10
253.688149656
 20
93.2580229107
 10
253.4683582527
 20
93.3849163977
 10
253.2426863391
 20
93.5301186194
 10
253.0153506028
 20
93.6922693014
 10
252.7876650874
 20
93.8714421147
 10
252.7597657269
 20
93.8945941077
  0
LWPOLYLINE
  5
652
100
AcDbEntity
  8
RUNDUNGEN
100
AcDbPolyline
 62
7
  6
CONTINUOUS
 90
4
 70
0
 10
260.181282432
 20
82.3307473126
 10
260.3320496749
 20
82.2067894282
 10
260.4555319935
 20
82.056405295
 10
260.5479143872
 20
81.8840866323
  0
LWPOLYLINE
  5
653
100
AcDbEntity
  8
RUNDUNGEN
100
AcDbPolyline
 62
7
  6
CONTINUOUS
 90
4
 70
0
 10
260.3341339449
 20
81.9880811113
 10
260.4578483127
 20
81.8511836328
 10
260.5494557295
 20
81.695492539
 10
260.6056821618
 20
81.5268988204
  0
LWPOLYLINE
  5
654
100
AcDbEntity
  8
RUNDUNGEN
100
AcDbPolyline
 62
7
  6
CONTINUOUS
 90
3
 70
0
 10
240.5685600119
 20
73.1516632
 10
240.6076803296
 20
72.9139278066
 10
240.6246116288
 20
72.6205701842
  0
LINE
  5
655
100
AcDbEntity
  8
RUNDUNGEN
100
AcDbLine
 62
7
  6
CONTINUOUS
 10
244.3728121164
 20
37.5600256625
 11
244.3746113696
 21
37.4756282898
  0
LWPOLYLINE
  5
656
100
AcDbEntity
  8
RUNDUNGEN
100
AcDbPolyline
 62
7
  6
CONTINUOUS
 90
5
 70
0
 10
244.374611368
 20
56.7654653007
 10
244.3748976913
 20
56.7350236381
 10
244.3757586913
 20
56.7049162331
 10
244.3771971676
 20
56.6751566656
 10
244.379215587
 20
56.6457586548
  0
LINE
  5
657
100
AcDbEntity
  8
RUNDUNGEN
100
AcDbLine
 62
7
  6
CONTINUOUS
 10
244.374611368
 20
31.2155263078
 11
244.374611368
 21
37.4757346689
  0
LINE
  5
658
100
AcDbEntity
  8
RUNDUNGEN
100
AcDbLine
 62
7
  6
CONTINUOUS
 10
244.374611368
 20
56.7654653007
 11
244.374611368
 21
67.7637175004
  0
LINE
  5
659
100
AcDbEntity
  8
RUNDUNGEN
100
AcDbLine
 62
7
  6
CONTINUOUS
 10
244.374611368
 20
98.9751572963
 11
244.374611368
 21
105.7724509732
  0
LINE
  5
65A
100
AcDbEntity
  8
RUNDUNGEN
100
AcDbLine
 62
7
  6
CONTINUOUS
 10
240.6246113465
 20
64.4764585857
 11
240.6142557684
 21
63.922259915
  0
LWPOLYLINE
  5
65B
100
AcDbEntity
  8
RUNDUNGEN
100
AcDbPolyline
 62
7
  6
CONTINUOUS
 90
3
 70
0
 10
240.6246112936
 20
99.4422153163
 10
240.6048054479
 20
98.813591165
 10
240.5158297375
 20
97.979576229
  0
LWPOLYLINE
  5
65C
100
AcDbEntity
  8
RUNDUNGEN
100
AcDbPolyline
 62
7
  6
CONTINUOUS
 90
10
 70
0
 10
240.6142557684
 20
63.922259915
 10
240.558104745
 20
63.084033375
 10
240.4563021414
 20
62.2865919768
 10
240.3118486512
 20
61.5321019075
 10
240.1277286748
 20
60.8244040294
 10
239.9068000563
 20
60.1671200245
 10
239.6544807106
 20
59.5696815605
 10
239.3693004995
 20
59.0260270103
 10
239.0493985664
 20
58.5375779374
 10
238.8609072608
 20
58.2988079146
  0
LWPOLYLINE
  5
65D
100
AcDbEntity
  8
RUNDUNGEN
100
AcDbPolyline
 62
7
  6
CONTINUOUS
 90
6
 70
0
 10
240.5158297375
 20
97.979576229
 10
240.3618632561
 20
97.1960851479
 10
240.1487953377
 20
96.466603305
 10
239.8838267028
 20
95.8000404655
 10
239.5685420786
 20
95.1931865861
 10
239.2024281645
 20
94.6475205375
  0
LWPOLYLINE
  5
65E
100
AcDbEntity
  8
0
100
AcDbPolyline
 62
7
  6
CONTINUOUS
 90
41
 70
0
 10
253.0508219518
 20
158.2292088853
 10
253.045599512
 20
158.2049421525
 10
253.0431553626
 20
158.1969442385
 10
253.0531946758
 20
158.217791665
 10
253.081937626
 20
158.2655438695
 10
253.1296990246
 20
158.3329238867
 10
253.1938525696
 20
158.4130496484
 10
253.2726420319
 20
158.5017205479
 10
253.3630141895
 20
158.5949662896
 10
253.4638686975
 20
158.6920155122
 10
253.5740074077
 20
158.7917357759
 10
253.692326443
 20
158.8932009524
 10
253.8179220594
 20
158.9959348164
 10
253.9500888332
 20
159.0995324567
 10
254.0882589762
 20
159.2036405046
 10
254.2317850951
 20
159.3079664975
 10
254.380134352
 20
159.4122951002
 10
254.5326654355
 20
159.5162947731
 10
254.6887682771
 20
159.6196859769
 10
254.8482150638
 20
159.7224639589
 10
255.0106462051
 20
159.8245114743
 10
255.17595362
 20
159.9258488586
 10
255.3440383992
 20
160.0265025324
 10
255.5148018024
 20
160.1264884226
 10
255.6881566205
 20
160.2258127073
 10
255.8640180996
 20
160.3244706155
 10
256.0423353311
 20
160.4224748879
 10
256.2230616891
 20
160.5198333088
 10
256.4061520442
 20
160.6165455065
 10
256.5915692245
 20
160.7126074115
 10
256.7792891807
 20
160.8080179034
 10
256.9692970306
 20
160.9027754888
 10
257.1615828318
 20
160.9968749434
 10
257.3561157847
 20
161.0902950725
 10
257.5528894758
 20
161.183021529
 10
257.7518411617
 20
161.2750092995
 10
257.9529108352
 20
161.3662114564
 10
258.15608535
 20
161.4565984544
 10
258.3613393268
 20
161.5461304467
 10
258.5686493295
 20
161.6347627411
 10
258.7779907971
 20
161.7224448165
  0
LINE
  5
65F
100
AcDbEntity
  8
02___PRT_ALL_AXES
100
AcDbLine
 62
7
  6
CENTER
 10
223.574611368
 20
105.7724509726
 11
267.674611368
 21
105.7724509726
  0
LINE
  5
660
100
AcDbEntity
  8
0
100
AcDbLine
 62
2
  6
CONTINUOUS
 10
226.574611368
 20
105.7724509732
 11
264.674611368
 21
105.7724509732
  0
LWPOLYLINE
  5
661
100
AcDbEntity
  8
RUNDUNGEN
100
AcDbPolyline
 62
7
  6
CONTINUOUS
 90
3
 70
0
 10
252.7601022819
 20
93.8943533558
 10
252.6765732793
 20
93.9663081387
 10
252.53203186
 20
94.1011064124
  0
LWPOLYLINE
  5
662
100
AcDbEntity
  8
RUNDUNGEN
100
AcDbPolyline
 62
7
  6
CONTINUOUS
 90
3
 70
0
 10
252.53203186
 20
94.1011064124
 10
252.3853437905
 20
94.2506825628
 10
252.2901242923
 20
94.3539660101
  0
LINE
  5
663
100
AcDbEntity
  8
RUNDUNGEN
100
AcDbLine
 62
7
  6
CONTINUOUS
 10
252.2901386963
 20
94.3539789746
 11
252.2911091355
 21
94.3528990727
  0
LINE
  5
664
100
AcDbEntity
  8
RUNDUNGEN
100
AcDbLine
 62
7
  6
CONTINUOUS
 10
252.2911091355
 20
94.3528990727
 11
252.046548386
 21
94.6478380882
  0
LWPOLYLINE
  5
665
100
AcDbEntity
  8
RUNDUNGEN
100
AcDbPolyline
 62
7
  6
CONTINUOUS
 90
5
 70
0
 10
252.046548386
 20
94.6478380882
 10
251.6801415251
 20
95.194090748
 10
251.364633253
 20
95.8017123658
 10
251.0996185503
 20
96.4689582681
 10
250.886699692
 20
97.1987961501
  0
LINE
  5
666
100
AcDbEntity
  8
RUNDUNGEN
100
AcDbLine
 62
7
  6
CONTINUOUS
 10
250.632697312
 20
63.9865414105
 11
250.6246113977
 21
64.4764766207
  0
LINE
  5
667
100
AcDbEntity
  8
RUNDUNGEN
100
AcDbLine
 62
7
  6
CONTINUOUS
 10
250.6239683449
 20
102.9768317672
 11
250.6244438761
 21
102.9306983769
  0
LINE
  5
668
100
AcDbEntity
  8
RUNDUNGEN
100
AcDbLine
 62
7
  6
CONTINUOUS
 10
250.6244438761
 20
102.9306983769
 11
250.624611368
 21
102.8872251424
  0
LINE
  5
669
100
AcDbEntity
  8
RUNDUNGEN
100
AcDbLine
 62
7
  6
CONTINUOUS
 10
246.874611368
 20
105.7724509732
 11
246.874611368
 21
98.9751572963
  0
LINE
  5
66A
100
AcDbEntity
  8
RUNDUNGEN
100
AcDbLine
 62
7
  6
CONTINUOUS
 10
246.874611368
 20
31.2155263078
 11
246.874611368
 21
37.4757346689
  0
LINE
  5
66B
100
AcDbEntity
  8
RUNDUNGEN
100
AcDbLine
 62
7
  6
CONTINUOUS
 10
246.874611368
 20
56.7654653007
 11
246.874611368
 21
67.7637175004
  0
LINE
  5
66C
100
AcDbEntity
  8
RUNDUNGEN
100
AcDbLine
 62
7
  6
CONTINUOUS
 10
250.624611368
 20
102.88721889
 11
250.624611368
 21
97.3447546383
  0
LINE
  5
66D
100
AcDbEntity
  8
RUNDUNGEN
100
AcDbLine
 62
7
  6
CONTINUOUS
 10
250.624611368
 20
72.6172864731
 11
250.624611368
 21
58.9809860989
  0
LINE
  5
66E
100
AcDbEntity
  8
0
100
AcDbLine
 62
7
  6
CONTINUOUS
 10
250.624611368
 20
153.583918834
 11
250.624611368
 21
167.6423054096
  0
LINE
  5
66F
100
AcDbEntity
  8
0
100
AcDbLine
 62
7
  6
CONTINUOUS
 10
251.124611368
 20
168.4380552916
 11
251.124611368
 21
165.6505952554
  0
LINE
  5
670
100
AcDbEntity
  8
RUNDUNGEN
100
AcDbLine
 62
7
  6
CONTINUOUS
 10
246.87461137
 20
37.4756515859
 11
246.8765213962
 21
37.5625798428
  0
LWPOLYLINE
  5
671
100
AcDbEntity
  8
0
100
AcDbPolyline
 62
7
  6
CONTINUOUS
 90
3
 70
0
 10
250.624611533
 20
166.2623657606
 10
250.6543132266
 20
166.8562652431
 10
250.769616455
 20
167.5324092096
  0
LWPOLYLINE
  5
672
100
AcDbEntity
  8
RUNDUNGEN
100
AcDbPolyline
 62
7
  6
CONTINUOUS
 90
5
 70
0
 10
246.870007149
 20
56.6457586548
 10
246.8720255694
 20
56.6751566833
 10
246.8734640455
 20
56.7049162568
 10
246.874325045
 20
56.7350236558
 10
246.874611368
 20
56.7654653007
  0
LINE
  5
673
100
AcDbEntity
  8
RUNDUNGEN
100
AcDbLine
 62
7
  6
CONTINUOUS
 10
239.2024281645
 20
94.6475205375
 11
238.9581503897
 21
94.3529569134
  0
LINE
  5
674
100
AcDbEntity
  8
RUNDUNGEN
100
AcDbLine
 62
7
  6
CONTINUOUS
 10
238.9581503897
 20
94.3529569134
 11
238.9590690982
 21
94.3539791652
  0
LWPOLYLINE
  5
675
100
AcDbEntity
  8
RUNDUNGEN
100
AcDbPolyline
 62
7
  6
CONTINUOUS
 90
4
 70
0
 10
230.9150887911
 20
81.9880811113
 10
230.7913744233
 20
81.851145416
 10
230.6997670064
 20
81.695492539
 10
230.6435405742
 20
81.527399449
  0
LWPOLYLINE
  5
676
100
AcDbEntity
  8
RUNDUNGEN
100
AcDbPolyline
 62
7
  6
CONTINUOUS
 90
4
 70
0
 10
238.9590949804
 20
94.3539559083
 10
238.8652099618
 20
94.2521066948
 10
238.7189838645
 20
94.102881959
 10
238.5745177229
 20
93.9679682453
  0
LINE
  5
677
100
AcDbEntity
  8
RUNDUNGEN
100
AcDbLine
 62
7
  6
CONTINUOUS
 10
238.5745177229
 20
93.9679682453
 11
238.4891467401
 21
93.8944122489
  0
LWPOLYLINE
  5
678
100
AcDbEntity
  8
RUNDUNGEN
100
AcDbPolyline
 62
7
  6
CONTINUOUS
 90
6
 70
0
 10
238.4894163202
 20
93.8946373641
 10
238.462221857
 20
93.8719950104
 10
238.2349436179
 20
93.6930739549
 10
238.0077436933
 20
93.5309368139
 10
237.7819279015
 20
93.3855645923
 10
237.5609746401
 20
93.2579687615
  0
LINE
  5
679
100
AcDbEntity
  8
0
100
AcDbLine
 62
7
  6
CONTINUOUS
 10
264.674611368
 20
106.7383767989
 11
226.574611368
 21
106.7383767989
  0
LWPOLYLINE
  5
67A
100
AcDbEntity
  8
RUNDUNGEN
100
AcDbPolyline
 62
7
  6
CONTINUOUS
 90
4
 70
0
 10
250.886699692
 20
97.1987961501
 10
250.7330054991
 20
97.9821368155
 10
250.6443149647
 20
98.8152117213
 10
250.6246114478
 20
99.4422221956
  0
LWPOLYLINE
  5
67B
100
AcDbEntity
  8
0
100
AcDbPolyline
 62
7
  6
CONTINUOUS
 90
3
 70
0
 10
240.4796024264
 20
167.5324249037
 10
240.5949112638
 20
166.8562480493
 10
240.6246112535
 20
166.2621547005
  0
LWPOLYLINE
  5
67C
100
AcDbEntity
  8
RUNDUNGEN
100
AcDbPolyline
 62
7
  6
CONTINUOUS
 90
3
 70
0
 10
250.6246099458
 20
72.6205784069
 10
250.6415406308
 20
72.9139092649
 10
250.680650333
 20
73.1516076998
  0
LINE
  5
67D
100
AcDbEntity
  8
RUNDUNGEN
100
AcDbLine
 62
7
  6
CONTINUOUS
 10
246.8765213962
 20
37.5625798428
 11
246.8822056487
 21
37.6226674111
  0
LINE
  5
67E
100
AcDbEntity
  8
0
100
AcDbLine
 62
7
  6
CONTINUOUS
 10
260.6053781758
 20
162.941465643
 11
260.624611368
 21
163.1366477414
  0
LWPOLYLINE
  5
67F
100
AcDbEntity
  8
RUNDUNGEN
100
AcDbPolyline
 62
7
  6
CONTINUOUS
 90
6
 70
0
 10
240.1048975211
 20
60.7676831821
 10
239.9690648018
 20
60.3370021598
 10
239.7226368551
 20
59.7185318711
 10
239.4323807051
 20
59.1364417958
 10
239.0895591739
 20
58.5928843995
 10
238.8610133771
 20
58.2989294535
  0
LWPOLYLINE
  5
680
100
AcDbEntity
  8
RUNDUNGEN
100
AcDbPolyline
 62
7
  6
CONTINUOUS
 90
4
 70
0
 10
231.067940304
 20
82.3307473126
 10
230.9171730611
 20
82.2067894282
 10
230.7936907424
 20
82.056405295
 10
230.7013083488
 20
81.8840866323
  0
LWPOLYLINE
  5
681
100
AcDbEntity
  8
RUNDUNGEN
100
AcDbPolyline
 62
7
  6
CONTINUOUS
 90
3
 70
0
 10
237.560977858
 20
93.2579431246
 10
237.4657142643
 20
93.2072811631
 10
237.153989898
 20
93.0593676233
  0
LWPOLYLINE
  5
682
100
AcDbEntity
  8
RUNDUNGEN
100
AcDbPolyline
 62
7
  6
CONTINUOUS
 90
5
 70
0
 10
237.153989898
 20
93.0593676233
 10
236.8466028229
 20
92.9401018202
 10
236.5476186042
 20
92.8496585759
 10
236.2609060053
 20
92.7873426349
 10
236.1855094445
 20
92.7750862641
  0
LINE
  5
683
100
AcDbEntity
  8
0
100
AcDbLine
 62
7
  6
CONTINUOUS
 10
264.674611368
 20
112.4899653938
 11
226.574611368
 21
112.4899653938
  0
LINE
  5
684
100
AcDbEntity
  8
0
100
AcDbLine
 62
7
  6
CONTINUOUS
 10
264.674611368
 20
113.3384935313
 11
226.574611368
 21
113.3384935313
  0
LWPOLYLINE
  5
685
100
AcDbEntity
  8
RUNDUNGEN
100
AcDbPolyline
 62
7
  6
CONTINUOUS
 90
3
 70
0
 10
260.5479143872
 20
81.8840866323
 10
260.6052408825
 20
81.6958789105
 10
260.624611368
 20
81.5000143282
  0
LINE
  5
686
100
AcDbEntity
  8
RUNDUNGEN
100
AcDbLine
 62
7
  6
CONTINUOUS
 10
260.6056821618
 20
81.5268988204
 11
260.624611368
 21
81.3523776605
  0
LINE
  5
687
100
AcDbEntity
  8
0
100
AcDbLine
 62
7
  6
CONTINUOUS
 10
260.624611368
 20
182.4533811705
 11
260.624611368
 21
174.3172344374
  0
LINE
  5
688
100
AcDbEntity
  8
RUNDUNGEN
100
AcDbLine
 62
7
  6
CONTINUOUS
 10
260.624611368
 20
182.4533811705
 11
260.624611368
 21
174.3172344374
  0
LINE
  5
689
100
AcDbEntity
  8
RUNDUNGEN
100
AcDbLine
 62
7
  6
CONTINUOUS
 10
260.624611368
 20
174.2888960229
 11
260.624611368
 21
174.2833256498
  0
LINE
  5
68A
100
AcDbEntity
  8
RUNDUNGEN
100
AcDbLine
 62
7
  6
CONTINUOUS
 10
260.624611368
 20
172.5109086656
 11
260.624611368
 21
163.1366477414
  0
LINE
  5
68B
100
AcDbEntity
  8
0
100
AcDbLine
 62
7
  6
CONTINUOUS
 10
260.624611368
 20
163.1063446289
 11
260.624611368
 21
159.7025614156
  0
LINE
  5
68C
100
AcDbEntity
  8
RUNDUNGEN
100
AcDbLine
 62
7
  6
CONTINUOUS
 10
260.624611368
 20
163.1063446289
 11
260.624611368
 21
158.1481922969
  0
LINE
  5
68D
100
AcDbEntity
  8
RUNDUNGEN
100
AcDbLine
 62
7
  6
CONTINUOUS
 10
260.624611368
 20
91.0747410247
 11
260.624611368
 21
87.5342450164
  0
LINE
  5
68E
100
AcDbEntity
  8
RUNDUNGEN
100
AcDbLine
 62
7
  6
CONTINUOUS
 10
260.624611368
 20
81.5000143282
 11
260.624611368
 21
74.4682882666
  0
LINE
  5
68F
100
AcDbEntity
  8
RUNDUNGEN
100
AcDbLine
 62
7
  6
CONTINUOUS
 10
260.624611368
 20
53.3967096483
 11
260.624611368
 21
39.0339932796
  0
LINE
  5
690
100
AcDbEntity
  8
RUNDUNGEN
100
AcDbLine
 62
7
  6
CONTINUOUS
 10
260.624611368
 20
37.2615882279
 11
260.624611368
 21
29.0915207746
  0
LINE
  5
691
100
AcDbEntity
  8
0
100
AcDbLine
 62
7
  6
CONTINUOUS
 10
260.624611368
 20
158.9693252246
 11
260.624611368
 21
159.3160436015
  0
LINE
  5
692
100
AcDbEntity
  8
0
100
AcDbLine
 62
7
  6
CONTINUOUS
 10
260.624611368
 20
163.1366477414
 11
260.624611368
 21
163.4375135998
  0
LWPOLYLINE
  5
693
100
AcDbEntity
  8
RUNDUNGEN
100
AcDbPolyline
 62
7
  6
CONTINUOUS
 90
3
 70
0
 10
250.680650333
 20
73.1516076998
 10
250.7321015448
 20
73.3481573174
 10
250.766432749
 20
73.4444789601
  0
LINE
  5
694
100
AcDbEntity
  8
0
100
AcDbLine
 62
7
  6
CONTINUOUS
 10
240.2957374452
 20
168.1013356482
 11
240.4796024264
 21
167.5324249037
  0
LWPOLYLINE
  5
695
100
AcDbEntity
  8
0
100
AcDbPolyline
 62
7
  6
CONTINUOUS
 90
7
 70
0
 10
260.624611368
 20
172.5109086656
 10
260.6054545355
 20
172.7057069293
 10
260.5486241955
 20
172.8932701367
 10
260.4562161486
 20
173.0662765496
 10
260.3318180311
 20
173.2179155507
 10
260.18012656
 20
173.3424150489
 10
260.0810344289
 20
173.3953675698
  0
LINE
  5
696
100
AcDbEntity
  8
RUNDUNGEN
100
AcDbLine
 62
7
  6
CONTINUOUS
 10
264.674611368
 20
105.7724509732
 11
264.674611368
 21
69.3162607401
  0
LINE
  5
697
100
AcDbEntity
  8
0
100
AcDbLine
 62
7
  6
CONTINUOUS
 10
264.674611368
 20
105.7724509732
 11
264.674611368
 21
142.2286946358
  0
LWPOLYLINE
  5
698
100
AcDbEntity
  8
RUNDUNGEN
100
AcDbPolyline
 62
7
  6
CONTINUOUS
 90
9
 70
0
 10
260.624611368
 20
74.4682882666
 10
260.6058878213
 20
74.2756927856
 10
260.5495857161
 20
74.0882587213
 10
260.4570592045
 20
73.9141848602
 10
260.3321373252
 20
73.76160091
 10
260.1790742261
 20
73.6360798781
 10
260.0056461013
 20
73.5437275428
 10
259.8196274615
 20
73.4874884914
 10
259.624611368
 20
73.4682882666
  0
LWPOLYLINE
  5
699
100
AcDbEntity
  8
RUNDUNGEN
100
AcDbPolyline
 62
7
  6
CONTINUOUS
 90
6
 70
0
 10
260.624611368
 20
39.0339932796
 10
260.6054545355
 20
38.8391950158
 10
260.5486241955
 20
38.6516318085
 10
260.4562161486
 20
38.4786253956
 10
260.3318180311
 20
38.3269863945
 10
260.18012656
 20
38.2024868963
  0
LWPOLYLINE
  5
69A
100
AcDbEntity
  8
RUNDUNGEN
100
AcDbPolyline
 62
7
  6
CONTINUOUS
 90
3
 70
0
 10
231.4266458187
 20
82.4802228516
 10
231.2396697517
 20
82.4229552538
 10
231.067940304
 20
82.3307473126
  0
LINE
  5
69B
100
AcDbEntity
  8
0
100
AcDbLine
 62
7
  6
CONTINUOUS
 10
264.674611368
 20
127.6220505112
 11
226.574611368
 21
127.6220505112
  0
LINE
  5
69C
100
AcDbEntity
  8
RUNDUNGEN
100
AcDbLine
 62
7
  6
CONTINUOUS
 10
238.8609072608
 20
58.2988079146
 11
238.8604767561
 21
58.2983021854
  0
LWPOLYLINE
  5
69D
100
AcDbEntity
  8
RUNDUNGEN
100
AcDbPolyline
 62
7
  6
CONTINUOUS
 90
5
 70
0
 10
238.8604622118
 20
58.298314592
 10
238.788831545
 20
58.2157309335
 10
238.6563276263
 20
58.0728734447
 10
238.5257605097
 20
57.9456094983
 10
238.4471449315
 20
57.8758211343
  0
LINE
  5
69E
100
AcDbEntity
  8
0
100
AcDbLine
 62
7
  6
CONTINUOUS
 10
264.674611368
 20
133.3736391062
 11
226.574611368
 21
133.3736391062
  0
LINE
  5
69F
100
AcDbEntity
  8
RUNDUNGEN
100
AcDbLine
 62
7
  6
CONTINUOUS
 10
238.8609073053
 20
153.2460939961
 11
238.8604767869
 21
153.2465997413
  0
LWPOLYLINE
  5
6A0
100
AcDbEntity
  8
0
100
AcDbPolyline
 62
7
  6
CONTINUOUS
 90
3
 70
0
 10
230.7929647026
 20
162.5813425812
 10
230.9173761856
 20
162.4296693847
 10
231.0691186823
 20
162.3051263238
  0
LWPOLYLINE
  5
6A1
100
AcDbEntity
  8
0
100
AcDbPolyline
 62
7
  6
CONTINUOUS
 90
6
 70
0
 10
238.8609073053
 20
153.2460939961
 10
239.0493985368
 20
153.0073240341
 10
239.3693004814
 20
152.5188749708
 10
239.6544807015
 20
151.9752204003
 10
239.9068000762
 20
151.377781866
 10
240.1107312242
 20
150.7710669668
  0
LINE
  5
6A2
100
AcDbEntity
  8
RUNDUNGEN
100
AcDbLine
 62
7
  6
CONTINUOUS
 10
238.4471449315
 20
57.8758211343
 11
238.4469380706
 21
57.8756446719
  0
LWPOLYLINE
  5
6A3
100
AcDbEntity
  8
RUNDUNGEN
100
AcDbPolyline
 62
7
  6
CONTINUOUS
 90
3
 70
0
 10
238.4469495678
 20
57.8756312343
 10
238.3031515433
 20
57.7548306745
 10
238.0291204809
 20
57.534909553
  0
LWPOLYLINE
  5
6A4
100
AcDbEntity
  8
RUNDUNGEN
100
AcDbPolyline
 62
7
  6
CONTINUOUS
 90
3
 70
0
 10
238.0289309303
 20
57.5347661992
 10
237.7502493835
 20
57.3240043508
 10
237.4677271996
 20
57.1226291161
  0
LINE
  5
6A5
100
AcDbEntity
  8
0
100
AcDbLine
 62
7
  6
CONTINUOUS
 10
264.674611368
 20
134.6324581513
 11
226.574611368
 21
134.6324581513
  0
LINE
  5
6A6
100
AcDbEntity
  8
RUNDUNGEN
100
AcDbLine
 62
7
  6
CONTINUOUS
 10
238.4471449052
 20
153.6690809411
 11
238.4469381139
 21
153.6692573443
  0
LWPOLYLINE
  5
6A7
100
AcDbEntity
  8
0
100
AcDbPolyline
 62
7
  6
CONTINUOUS
 90
5
 70
0
 10
238.4471449052
 20
153.6690809411
 10
238.5257612123
 20
153.5992918122
 10
238.6563281925
 20
153.472027991
 10
238.788831803
 20
153.3291709202
 10
238.8604623217
 20
153.2465874021
  0
LWPOLYLINE
  5
6A8
100
AcDbEntity
  8
0
100
AcDbPolyline
 62
7
  6
CONTINUOUS
 90
3
 70
0
 10
239.7779867761
 20
168.9386128572
 10
240.0587047793
 20
168.5677014837
 10
240.2957374452
 20
168.1013356482
  0
LINE
  5
6A9
100
AcDbEntity
  8
RUNDUNGEN
100
AcDbLine
 62
7
  6
CONTINUOUS
 10
237.4674877668
 20
57.1224677888
 11
237.2131183781
 21
56.9510763752
  0
LINE
  5
6AA
100
AcDbEntity
  8
RUNDUNGEN
100
AcDbLine
 62
7
  6
CONTINUOUS
 10
237.2131143265
 20
56.9510283907
 11
237.0412104846
 21
56.8402396948
  0
LWPOLYLINE
  5
6AB
100
AcDbEntity
  8
RUNDUNGEN
100
AcDbPolyline
 62
7
  6
CONTINUOUS
 90
6
 70
0
 10
237.0413740015
 20
56.8403705663
 10
236.5659579589
 20
56.5541353314
 10
236.0949133329
 20
56.2983341332
 10
235.6333168362
 20
56.0735134676
 10
235.1856382671
 20
55.8796671629
 10
235.0939121386
 20
55.8429015212
  0
LWPOLYLINE
  5
6AC
100
AcDbEntity
  8
0
100
AcDbPolyline
 62
7
  6
CONTINUOUS
 90
6
 70
0
 10
237.2131195799
 20
154.5938247757
 10
237.4677291315
 20
154.4222714936
 10
237.7502512223
 20
154.2208962442
 10
238.029121934
 20
154.0099912593
 10
238.3031523832
 20
153.7900705769
 10
238.4469495594
 20
153.6692707211
  0
LINE
  5
6AD
100
AcDbEntity
  8
RUNDUNGEN
100
AcDbLine
 62
7
  6
CONTINUOUS
 10
235.0939846192
 20
55.8429021351
 11
231.2570045485
 21
54.3265751985
  0
LINE
  5
6AE
100
AcDbEntity
  8
0
100
AcDbLine
 62
7
  6
CONTINUOUS
 10
229.2793706648
 20
145.2141398088
 11
233.4118975275
 21
145.6228113651
  0
LINE
  5
6AF
100
AcDbEntity
  8
0
100
AcDbLine
 62
7
  6
CONTINUOUS
 10
257.8373252085
 20
145.6228113651
 11
261.9698520712
 21
145.2141398088
  0
LINE
  5
6B0
100
AcDbEntity
  8
RUNDUNGEN
100
AcDbLine
 62
7
  6
CONTINUOUS
 10
231.2569784655
 20
157.2183371948
 11
231.256922473
 21
157.218359182
  0
LINE
  5
6B1
100
AcDbEntity
  8
0
100
AcDbLine
 62
7
  6
CONTINUOUS
 10
231.2570045485
 20
157.2183267467
 11
235.0939621816
 21
155.7019442656
  0
LINE
  5
6B2
100
AcDbEntity
  8
RUNDUNGEN
100
AcDbLine
 62
7
  6
CONTINUOUS
 10
235.0938441253
 20
155.7020557179
 11
235.0939843481
 21
155.7020002727
  0
LWPOLYLINE
  5
6B3
100
AcDbEntity
  8
0
100
AcDbPolyline
 62
7
  6
CONTINUOUS
 90
7
 70
0
 10
235.0938441253
 20
155.7020557179
 10
235.1852409307
 20
155.6654302992
 10
235.6327240355
 20
155.4717051627
 10
236.0943161918
 20
155.2469035994
 10
236.5655171165
 20
154.9910431147
 10
237.0412124791
 20
154.7046609853
 10
237.213115526
 20
154.5938727449
  0
LINE
  5
6B4
100
AcDbEntity
  8
0
100
AcDbLine
 62
7
  6
CONTINUOUS
 10
231.0691186823
 20
162.3051263238
 11
231.2578845281
 21
162.2063190768
  0
LINE
  5
6B5
100
AcDbEntity
  8
0
100
AcDbLine
 62
7
  6
CONTINUOUS
 10
239.5546034422
 20
169.146862111
 11
239.7779867761
 21
168.9386128572
  0
LINE
  5
6B6
100
AcDbEntity
  8
RUNDUNGEN
100
AcDbLine
 62
7
  6
CONTINUOUS
 10
231.2578568279
 20
162.2063299988
 11
231.2578845281
 21
162.2063190768
  0
LINE
  5
6B7
100
AcDbEntity
  8
0
100
AcDbLine
 62
7
  6
CONTINUOUS
 10
231.2572109816
 20
162.2065848639
 11
232.1338809123
 21
161.8599145725
  0
LWPOLYLINE
  5
6B8
100
AcDbEntity
  8
0
100
AcDbPolyline
 62
7
  6
CONTINUOUS
 90
3
 70
0
 10
232.1338809123
 20
161.8599145725
 10
232.2976378271
 20
161.7937731811
 10
232.4602768442
 20
161.7269821466
  0
LWPOLYLINE
  5
6B9
100
AcDbEntity
  8
0
100
AcDbPolyline
 62
7
  6
CONTINUOUS
 90
49
 70
0
 10
232.4602768442
 20
161.7269821466
 10
232.6217787378
 20
161.6595717369
 10
232.7821245574
 20
161.5915699867
 10
232.9412975672
 20
161.5230019731
 10
233.0992811183
 20
161.4538911769
 10
233.2560583378
 20
161.3842596537
 10
233.4116131557
 20
161.3141274935
 10
233.5659283358
 20
161.2435136131
 10
233.7189938503
 20
161.1724321043
 10
233.870772783
 20
161.1009081898
 10
234.0212271144
 20
161.0289667429
 10
234.1703474438
 20
160.9566177859
 10
234.3181130654
 20
160.883875154
 10
234.464517274
 20
160.8107441191
 10
234.6095490575
 20
160.7372304253
 10
234.7531923111
 20
160.6633408505
 10
234.8954313043
 20
160.589079881
 10
235.0362485292
 20
160.5144507652
 10
235.1756234298
 20
160.439456992
 10
235.3135304834
 20
160.3641028179
 10
235.4499438346
 20
160.2883897973
 10
235.584836341
 20
160.2123176665
 10
235.7181714222
 20
160.1358908554
 10
235.8499101648
 20
160.0591119335
 10
235.9800114369
 20
159.9819802762
 10
236.1084343505
 20
159.9044917208
 10
236.2351174947
 20
159.8266552996
 10
236.3600057151
 20
159.7484708794
 10
236.483019135
 20
159.6699459812
 10
236.6041490904
 20
159.591036013
 10
236.7233607469
 20
159.5117150989
 10
236.8405021119
 20
159.4320259447
 10
236.95544915
 20
159.3519780316
 10
237.068035614
 20
159.2715984631
 10
237.178027253
 20
159.1909810043
 10
237.2852572025
 20
159.110162821
 10
237.3894932277
 20
159.0291955186
 10
237.4905520543
 20
158.9480623158
 10
237.5880662512
 20
158.8669431621
 10
237.6818369484
 20
158.785873289
 10
237.771569813
 20
158.7048567296
 10
237.8565010536
 20
158.6242276258
 10
237.9361758358
 20
158.544193243
 10
238.0083997824
 20
158.466871157
 10
238.0712117131
 20
158.3942854493
 10
238.1232285064
 20
158.328137209
 10
238.1641347787
 20
158.270014935
 10
238.1916722704
 20
158.2254172093
 10
238.2011199364
 20
158.2079510292
  0
LINE
  5
6BA
100
AcDbEntity
  8
0
100
AcDbLine
 62
7
  6
CONTINUOUS
 10
239.4072305894
 20
169.2533149894
 11
239.4906866725
 21
169.1956892895
  0
LINE
  5
6BB
100
AcDbEntity
  8
0
100
AcDbLine
 62
7
  6
CONTINUOUS
 10
239.4906866725
 20
169.1956892895
 11
239.5559127239
 21
169.1458112784
  0
LINE
  5
6BC
100
AcDbEntity
  8
RUNDUNGEN
100
AcDbLine
 62
7
  6
CONTINUOUS
 10
239.5559156149
 20
169.1458149586
 11
239.5546034422
 21
169.146862111
  0
LWPOLYLINE
  5
6BD
100
AcDbEntity
  8
RUNDUNGEN
100
AcDbPolyline
 62
7
  6
CONTINUOUS
 90
9
 70
0
 10
231.624611368
 20
160.4184823717
 10
231.4280712163
 20
160.4043390911
 10
231.2395809919
 20
160.3632876584
 10
231.0663860415
 20
160.2964966045
 10
230.9150887911
 20
160.2070585306
 10
230.7913744233
 20
160.0983711499
 10
230.6997670064
 20
159.9748589249
 10
230.6435405742
 20
159.8416507165
 10
230.624611368
 20
159.7025614156
  0
LINE
  5
6BE
100
AcDbEntity
  8
RUNDUNGEN
100
AcDbLine
 62
7
  6
CONTINUOUS
 10
231.624611368
 20
160.4184823717
 11
235.2140094664
 21
160.4184823717
  0
LINE
  5
6BF
100
AcDbEntity
  8
RUNDUNGEN
100
AcDbLine
 62
7
  6
CONTINUOUS
 10
256.0350710108
 20
160.4184823717
 11
259.624611368
 21
160.4184823717
  0
LWPOLYLINE
  5
6C0
100
AcDbEntity
  8
RUNDUNGEN
100
AcDbPolyline
 62
7
  6
CONTINUOUS
 90
9
 70
0
 10
259.624611368
 20
160.4184823717
 10
259.8211515196
 20
160.4046495212
 10
260.0096417441
 20
160.3632876584
 10
260.1828366945
 20
160.2965947289
 10
260.3341339449
 20
160.2070585306
 10
260.4578483127
 20
160.0984306741
 10
260.5494557295
 20
159.9748589249
 10
260.6056821618
 20
159.8408709692
 10
260.624611368
 20
159.7025614156
  0
LINE
  5
6C1
100
AcDbEntity
  8
0
100
AcDbLine
 62
7
  6
CONTINUOUS
 10
238.7537535927
 20
169.8045224189
 11
239.5013536616
 21
169.4398935022
  0
LWPOLYLINE
  5
6C2
100
AcDbEntity
  8
0
100
AcDbPolyline
 62
7
  6
CONTINUOUS
 90
4
 70
0
 10
231.1855956674
 20
173.3848967488
 10
235.54664951
 20
171.2520288994
 10
236.193086741
 20
170.9304889339
 10
236.8312077719
 20
170.6095081664
  0
LINE
  5
6C3
100
AcDbEntity
  8
0
100
AcDbLine
 62
7
  6
CONTINUOUS
 10
236.8312077719
 20
170.6095081664
 11
237.6626882433
 21
170.1847207337
  0
LINE
  5
6C4
100
AcDbEntity
  8
RUNDUNGEN
100
AcDbLine
 62
7
  6
CONTINUOUS
 10
237.6630629132
 20
170.1845033421
 11
237.6626783786
 21
170.1847017444
  0
LINE
  5
6C5
100
AcDbEntity
  8
0
100
AcDbLine
 62
7
  6
CONTINUOUS
 10
237.6630629132
 20
170.1845033421
 11
238.0840875048
 21
169.9660284557
  0
LINE
  5
6C6
100
AcDbEntity
  8
0
100
AcDbLine
 62
7
  6
CONTINUOUS
 10
238.0840875048
 20
169.9660284557
 11
238.4889397928
 21
169.7533497232
  0
LINE
  5
6C7
100
AcDbEntity
  8
0
100
AcDbLine
 62
7
  6
CONTINUOUS
 10
238.4889397928
 20
169.7533497232
 11
238.8799170116
 21
169.5451042604
  0
LINE
  5
6C8
100
AcDbEntity
  8
0
100
AcDbLine
 62
7
  6
CONTINUOUS
 10
238.8799170116
 20
169.5451042604
 11
239.2949862507
 21
169.3203904508
  0
LINE
  5
6C9
100
AcDbEntity
  8
RUNDUNGEN
100
AcDbLine
 62
7
  6
CONTINUOUS
 10
239.2951968065
 20
169.3202759959
 11
239.2949866976
 21
169.3203908813
  0
LWPOLYLINE
  5
6CA
100
AcDbEntity
  8
0
100
AcDbPolyline
 62
7
  6
CONTINUOUS
 90
3
 70
0
 10
239.2951968065
 20
169.3202759959
 10
239.324575408
 20
169.3038349042
 10
239.4072305894
 20
169.2533149894
  0
LWPOLYLINE
  5
6CB
100
AcDbEntity
  8
RUNDUNGEN
100
AcDbPolyline
 62
7
  6
CONTINUOUS
 90
6
 70
0
 10
246.4302034576
 20
30.3840713003
 10
246.5817295041
 20
30.5084308817
 10
246.706077842
 20
30.6599513782
 10
246.7984854738
 20
30.8328297745
 10
246.8553952745
 20
31.0204291617
 10
246.874611368
 20
31.2155263078
  0
LINE
  5
6CC
100
AcDbEntity
  8
0
100
AcDbLine
 62
7
  6
CONTINUOUS
 10
250.624611368
 20
165.6505952554
 11
251.124611368
 21
165.6505952554
  0
LINE
  5
6CD
100
AcDbEntity
  8
0
100
AcDbLine
 62
7
  6
CONTINUOUS
 10
250.624611368
 20
165.7205631091
 11
251.124611368
 21
165.7205631091
  0
LINE
  5
6CE
100
AcDbEntity
  8
0
100
AcDbLine
 62
7
  6
CONTINUOUS
 10
250.624611368
 20
165.8827163693
 11
251.124611368
 21
165.8827163693
  0
LINE
  5
6CF
100
AcDbEntity
  8
0
100
AcDbLine
 62
7
  6
CONTINUOUS
 10
250.624611368
 20
165.9400612779
 11
251.124611368
 21
165.9400612779
  0
LINE
  5
6D0
100
AcDbEntity
  8
0
100
AcDbLine
 62
7
  6
CONTINUOUS
 10
250.624611368
 20
166.1333714458
 11
251.124611368
 21
166.1333714458
  0
LINE
  5
6D1
100
AcDbEntity
  8
0
100
AcDbLine
 62
7
  6
CONTINUOUS
 10
250.624611368
 20
166.1832901358
 11
251.124611368
 21
166.1832901358
  0
LINE
  5
6D2
100
AcDbEntity
  8
0
100
AcDbLine
 62
7
  6
CONTINUOUS
 10
250.624611368
 20
166.2000970005
 11
251.124611368
 21
166.2000970005
  0
LINE
  5
6D3
100
AcDbEntity
  8
0
100
AcDbLine
 62
7
  6
CONTINUOUS
 10
250.624611368
 20
166.2557734867
 11
251.124611368
 21
166.2557734867
  0
LINE
  5
6D4
100
AcDbEntity
  8
0
100
AcDbLine
 62
7
  6
CONTINUOUS
 10
250.624611368
 20
166.3503190846
 11
251.124611368
 21
166.3503190846
  0
LINE
  5
6D5
100
AcDbEntity
  8
0
100
AcDbLine
 62
7
  6
CONTINUOUS
 10
250.624611368
 20
166.5226023961
 11
251.124611368
 21
166.5226023961
  0
LINE
  5
6D6
100
AcDbEntity
  8
0
100
AcDbLine
 62
7
  6
CONTINUOUS
 10
250.624611368
 20
166.6663559819
 11
251.124611368
 21
166.6663559819
  0
LINE
  5
6D7
100
AcDbEntity
  8
0
100
AcDbLine
 62
7
  6
CONTINUOUS
 10
250.624611368
 20
166.6802297469
 11
251.124611368
 21
166.6802297469
  0
LINE
  5
6D8
100
AcDbEntity
  8
0
100
AcDbLine
 62
7
  6
CONTINUOUS
 10
250.624611368
 20
166.7651157155
 11
251.124611368
 21
166.7651157155
  0
LINE
  5
6D9
100
AcDbEntity
  8
0
100
AcDbLine
 62
7
  6
CONTINUOUS
 10
250.654498183
 20
166.8573498362
 11
251.124611368
 21
166.8573498362
  0
LINE
  5
6DA
100
AcDbEntity
  8
0
100
AcDbLine
 62
7
  6
CONTINUOUS
 10
250.683589718
 20
167.0279440699
 11
251.124611368
 21
167.0279440699
  0
LINE
  5
6DB
100
AcDbEntity
  8
0
100
AcDbLine
 62
7
  6
CONTINUOUS
 10
250.7224251915
 20
167.2556772519
 11
251.124611368
 21
167.2556772519
  0
LINE
  5
6DC
100
AcDbEntity
  8
0
100
AcDbLine
 62
7
  6
CONTINUOUS
 10
250.7509603366
 20
167.4230087869
 11
251.124611368
 21
167.4230087869
  0
LINE
  5
6DD
100
AcDbEntity
  8
0
100
AcDbLine
 62
7
  6
CONTINUOUS
 10
250.7646035908
 20
167.5030135201
 11
251.124611368
 21
167.5030135201
  0
LINE
  5
6DE
100
AcDbEntity
  8
0
100
AcDbLine
 62
7
  6
CONTINUOUS
 10
250.7806908127
 20
167.5666780573
 11
251.124611368
 21
167.5666780573
  0
LINE
  5
6DF
100
AcDbEntity
  8
0
100
AcDbLine
 62
7
  6
CONTINUOUS
 10
250.801382102
 20
167.6307058472
 11
251.124611368
 21
167.6307058472
  0
LINE
  5
6E0
100
AcDbEntity
  8
0
100
AcDbLine
 62
7
  6
CONTINUOUS
 10
250.8069623091
 20
167.6479734193
 11
251.124611368
 21
167.6479734193
  0
LINE
  5
6E1
100
AcDbEntity
  8
0
100
AcDbLine
 62
7
  6
CONTINUOUS
 10
250.8382522059
 20
167.7447978803
 11
251.124611368
 21
167.7447978803
  0
LINE
  5
6E2
100
AcDbEntity
  8
0
100
AcDbLine
 62
7
  6
CONTINUOUS
 10
250.8856037126
 20
167.8913239025
 11
251.124611368
 21
167.8913239025
  0
LINE
  5
6E3
100
AcDbEntity
  8
0
100
AcDbLine
 62
7
  6
CONTINUOUS
 10
250.9032915277
 20
167.9460576454
 11
251.124611368
 21
167.9460576454
  0
LWPOLYLINE
  5
6E4
100
AcDbEntity
  8
RUNDUNGEN
100
AcDbPolyline
 62
7
  6
CONTINUOUS
 90
4
 70
0
 10
260.18012656
 20
38.2024868963
 10
260.0071626339
 20
38.110059013
 10
259.8197225537
 20
38.0532121704
 10
259.624611368
 20
38.0339932796
  0
LINE
  5
6E5
100
AcDbEntity
  8
0
100
AcDbLine
 62
7
  6
CONTINUOUS
 10
239.1918558553
 20
171.7033811705
 11
252.0574917548
 21
171.7033811705
  0
LWPOLYLINE
  5
6E6
100
AcDbEntity
  8
RUNDUNGEN
100
AcDbPolyline
 62
7
  6
CONTINUOUS
 90
3
 70
0
 10
246.0697419195
 20
30.2347490325
 10
246.2573289491
 20
30.2916609209
 10
246.4302034576
 20
30.3840713003
  0
LWPOLYLINE
  5
6E7
100
AcDbEntity
  8
RUNDUNGEN
100
AcDbPolyline
 62
7
  6
CONTINUOUS
 90
9
 70
0
 10
231.624611368
 20
174.9533811705
 10
231.4280712163
 20
174.9500697617
 10
231.2395809919
 20
174.941170348
 10
231.0663860415
 20
174.9263363707
 10
230.9150887911
 20
174.9066075058
 10
230.7913744233
 20
174.8825274199
 10
230.6997670064
 20
174.8552375826
 10
230.6435405742
 20
174.8262260225
 10
230.624611368
 20
174.7949967302
  0
LINE
  5
6E8
100
AcDbEntity
  8
RUNDUNGEN
100
AcDbLine
 62
7
  6
CONTINUOUS
 10
231.624611368
 20
174.9533811705
 11
259.624611368
 21
174.9533811705
  0
LWPOLYLINE
  5
6E9
100
AcDbEntity
  8
RUNDUNGEN
100
AcDbPolyline
 62
7
  6
CONTINUOUS
 90
9
 70
0
 10
259.624611368
 20
174.9533811705
 10
259.8211515196
 20
174.9505033711
 10
260.0096417441
 20
174.941170348
 10
260.1828366945
 20
174.926473431
 10
260.3341339449
 20
174.9066075058
 10
260.4578483127
 20
174.8826105633
 10
260.5494557295
 20
174.8552375826
 10
260.6056821618
 20
174.8251368697
 10
260.624611368
 20
174.7949967302
  0
LINE
  5
6EA
100
AcDbEntity
  8
RUNDUNGEN
100
AcDbLine
 62
7
  6
CONTINUOUS
 10
231.624611368
 20
183.4533811705
 11
259.624611368
 21
183.4533811705
  0
ARC
  5
6EB
100
AcDbEntity
  8
RUNDUNGEN
100
AcDbCircle
 62
7
  6
CONTINUOUS
 10
55.8658023106
 20
49.1493179564
 40
3.9999527772
100
AcDbArc
 50
357.4249264201
 51
11.3553547269
  0
ARC
  5
6EC
100
AcDbEntity
  8
RUNDUNGEN
100
AcDbCircle
 62
7
  6
CONTINUOUS
 10
56.9831271831
 20
53.7402040293
 40
2.0000000423
100
AcDbArc
 50
11.3623635435
 51
76.7675637713
  0
ARC
  5
6ED
100
AcDbEntity
  8
RUNDUNGEN
100
AcDbCircle
 62
7
  6
CONTINUOUS
 10
52.2038444139
 20
57.8396354668
 40
1.0
100
AcDbArc
 50
216.0
 51
257.8324053934
  0
ARC
  5
6EE
100
AcDbEntity
  8
RUNDUNGEN
100
AcDbCircle
 62
7
  6
CONTINUOUS
 10
48.6771329002
 20
62.6937374331
 40
1.0
100
AcDbArc
 50
174.1675946066
 51
216.0
  0
ARC
  5
6EF
100
AcDbEntity
  8
RUNDUNGEN
100
AcDbCircle
 62
7
  6
CONTINUOUS
 10
72.9980549653
 20
50.6129197501
 40
2.25
100
AcDbArc
 50
324.0007968666
 51
144.0017755928
  0
ARC
  5
6F0
100
AcDbEntity
  8
RUNDUNGEN
100
AcDbCircle
 62
7
  6
CONTINUOUS
 10
72.6443110369
 20
40.3633519493
 40
1.0
100
AcDbArc
 50
162.0
 51
234.0
  0
ARC
  5
6F1
100
AcDbEntity
  8
RUNDUNGEN
100
AcDbCircle
 62
7
  6
CONTINUOUS
 10
63.3594496046
 20
47.1091986465
 40
1.0
100
AcDbArc
 50
234.0
 51
306.0
  0
ARC
  5
6F2
100
AcDbEntity
  8
RUNDUNGEN
100
AcDbCircle
 62
7
  6
CONTINUOUS
 10
60.8606910469
 20
48.924653006
 40
1.0
100
AcDbArc
 50
177.4234289457
 51
233.9998194585
  0
ARC
  5
6F3
100
AcDbEntity
  8
RUNDUNGEN
100
AcDbCircle
 62
7
  6
CONTINUOUS
 10
61.5297443658
 20
48.4385573163
 40
1.0
100
AcDbArc
 50
144.0
 51
234.0
  0
ARC
  5
6F4
100
AcDbEntity
  8
RUNDUNGEN
100
AcDbCircle
 62
7
  6
CONTINUOUS
 10
41.5437505919
 20
68.8619200597
 40
3.9999543613
100
AcDbArc
 50
60.6414873248
 51
74.5750100656
  0
ARC
  5
6F5
100
AcDbEntity
  8
RUNDUNGEN
100
AcDbCircle
 62
7
  6
CONTINUOUS
 10
48.2298822714
 20
84.7033848491
 40
2.25
100
AcDbArc
 50
287.9977363539
 51
108.0024370477
  0
ARC
  5
6F6
100
AcDbEntity
  8
RUNDUNGEN
100
AcDbCircle
 62
7
  6
CONTINUOUS
 10
46.2552215147
 20
68.5058994321
 40
2.0000000431
100
AcDbArc
 50
355.0811980437
 51
60.6376364565
  0
ARC
  5
6F7
100
AcDbEntity
  8
RUNDUNGEN
100
AcDbCircle
 62
7
  6
CONTINUOUS
 10
41.919152626
 20
76.6192357774
 40
1.0
100
AcDbArc
 50
126.0
 51
198.0
  0
ARC
  5
6F8
100
AcDbEntity
  8
RUNDUNGEN
100
AcDbCircle
 62
7
  6
CONTINUOUS
 10
42.8735952375
 20
73.6817634648
 40
1.0
100
AcDbArc
 50
197.9998814762
 51
254.5759764827
  0
ARC
  5
6F9
100
AcDbEntity
  8
RUNDUNGEN
100
AcDbCircle
 62
7
  6
CONTINUOUS
 10
42.6180378379
 20
74.4682882666
 40
1.0
100
AcDbArc
 50
197.9993922456
 51
288.0009458389
  0
ARC
  5
6FA
100
AcDbEntity
  8
RUNDUNGEN
100
AcDbCircle
 62
7
  6
CONTINUOUS
 10
33.5093151722
 20
93.589391574
 40
3.9999527772
100
AcDbArc
 50
321.4249281874
 51
335.3553547269
  0
ARC
  5
6FB
100
AcDbEntity
  8
RUNDUNGEN
100
AcDbCircle
 62
7
  6
CONTINUOUS
 10
37.1117051111
 20
96.646749344
 40
2.0000000422
100
AcDbArc
 50
335.3623635435
 51
40.76758833
  0
ARC
  5
6FC
100
AcDbEntity
  8
RUNDUNGEN
100
AcDbCircle
 62
7
  6
CONTINUOUS
 10
38.3726511397
 20
87.5342450164
 40
1.0
100
AcDbArc
 50
198.0
 51
270.0
  0
ARC
  5
6FD
100
AcDbEntity
  8
RUNDUNGEN
100
AcDbCircle
 62
7
  6
CONTINUOUS
 10
35.6547694715
 20
102.7724509726
 40
1.0
100
AcDbArc
 50
180.0
 51
221.8324053934
  0
ARC
  5
6FE
100
AcDbEntity
  8
RUNDUNGEN
100
AcDbCircle
 62
7
  6
CONTINUOUS
 10
37.4182103006
 20
90.471711874
 40
1.0
100
AcDbArc
 50
141.4234197747
 51
197.9998749719
  0
ARC
  5
6FF
100
AcDbEntity
  8
RUNDUNGEN
100
AcDbCircle
 62
7
  6
CONTINUOUS
 10
37.6737659279
 20
89.6851925273
 40
1.0
100
AcDbArc
 50
108.0
 51
198.0
  0
ARC
  5
700
100
AcDbEntity
  8
RUNDUNGEN
100
AcDbCircle
 62
7
  6
CONTINUOUS
 10
68.8684923502
 20
90.7724509726
 40
5.0
100
AcDbArc
 50
90.0
 51
198.7433983716
  0
ARC
  5
701
100
AcDbEntity
  8
RUNDUNGEN
100
AcDbCircle
 62
7
  6
CONTINUOUS
 10
76.9002401878
 20
33.8668959236
 40
3.9999543613
100
AcDbArc
 50
96.6414873248
 51
110.5750100656
  0
ARC
  5
702
100
AcDbEntity
  8
RUNDUNGEN
100
AcDbCircle
 62
7
  6
CONTINUOUS
 10
80.9211639073
 20
36.3482023106
 40
2.0000000431
100
AcDbArc
 50
31.0811980393
 51
96.6376364565
  0
ARC
  5
703
100
AcDbEntity
  8
RUNDUNGEN
100
AcDbCircle
 62
7
  6
CONTINUOUS
 10
75.1430742342
 20
38.5478942191
 40
1.0
100
AcDbArc
 50
233.9998814762
 51
290.5759764827
  0
ARC
  5
704
100
AcDbEntity
  8
RUNDUNGEN
100
AcDbCircle
 62
7
  6
CONTINUOUS
 10
74.4740162758
 20
39.0339932796
 40
1.0
100
AcDbArc
 50
233.9993922455
 51
324.0009458389
  0
ARC
  5
705
100
AcDbEntity
  8
RUNDUNGEN
100
AcDbCircle
 62
7
  6
CONTINUOUS
 10
92.0031735818
 20
31.2155263078
 40
1.0
100
AcDbArc
 50
252.0
 51
293.8324053934
  0
ARC
  5
706
100
AcDbEntity
  8
RUNDUNGEN
100
AcDbCircle
 62
7
  6
CONTINUOUS
 10
86.296834484
 20
33.069628274
 40
1.0
100
AcDbArc
 50
210.1675946066
 51
252.0
  0
ARC
  5
707
100
AcDbEntity
  8
RUNDUNGEN
100
AcDbCircle
 62
7
  6
CONTINUOUS
 10
100.0738002232
 20
26.3373562953
 40
3.9999528329
100
AcDbArc
 50
33.424928853
 51
47.3556449014
  0
ARC
  5
708
100
AcDbEntity
  8
RUNDUNGEN
100
AcDbCircle
 62
7
  6
CONTINUOUS
 10
98.2792799047
 20
30.7082085358
 40
2.0000000423
100
AcDbArc
 50
47.3623635435
 51
112.76756377
  0
ARC
  5
709
100
AcDbEntity
  8
RUNDUNGEN
100
AcDbCircle
 62
7
  6
CONTINUOUS
 10
104.2468047821
 20
29.0915207746
 40
1.0
100
AcDbArc
 50
213.4234355428
 51
269.9998173114
  0
ARC
  5
70A
100
AcDbEntity
  8
RUNDUNGEN
100
AcDbCircle
 62
7
  6
CONTINUOUS
 10
105.0738002232
 20
29.0915207746
 40
1.0
100
AcDbArc
 50
180.0
 51
270.0
  0
ARC
  5
70B
100
AcDbEntity
  8
RUNDUNGEN
100
AcDbCircle
 62
7
  6
CONTINUOUS
 10
107.3354402772
 20
29.0915207746
 40
1.0
100
AcDbArc
 50
270.0
 51
342.0
  0
ARC
  5
70C
100
AcDbEntity
  8
RUNDUNGEN
100
AcDbCircle
 62
7
  6
CONTINUOUS
 10
113.0738002232
 20
37.5915207746
 40
2.25
100
AcDbArc
 50
0.0008088936
 51
180.0017852813
  0
ARC
  5
70D
100
AcDbEntity
  8
RUNDUNGEN
100
AcDbCircle
 62
7
  6
CONTINUOUS
 10
98.0738002232
 20
61.5671430996
 40
5.0
100
AcDbArc
 50
251.2566016284
 51
360.0
  0
ARC
  5
70E
100
AcDbEntity
  8
RUNDUNGEN
100
AcDbCircle
 62
7
  6
CONTINUOUS
 10
113.0738002232
 20
105.7724509726
 40
51.680930198
100
AcDbArc
 50
108.7433983716
 51
161.2566016284
  0
ARC
  5
70F
100
AcDbEntity
  8
RUNDUNGEN
100
AcDbCircle
 62
7
  6
CONTINUOUS
 10
113.0738002232
 20
105.7724509726
 40
51.680930198
100
AcDbArc
 50
198.7433983716
 51
251.2566016284
  0
ARC
  5
710
100
AcDbEntity
  8
RUNDUNGEN
100
AcDbCircle
 62
7
  6
CONTINUOUS
 10
113.0738002232
 20
105.7724509726
 40
51.680930198
100
AcDbArc
 50
288.7433983716
 51
341.2566016284
  0
ARC
  5
711
100
AcDbEntity
  8
RUNDUNGEN
100
AcDbCircle
 62
7
  6
CONTINUOUS
 10
113.0738002232
 20
105.7724509726
 40
51.680930198
100
AcDbArc
 50
18.7433983716
 51
71.2566016284
  0
ARC
  5
712
100
AcDbEntity
  8
RUNDUNGEN
100
AcDbCircle
 62
7
  6
CONTINUOUS
 10
77.0922833508
 20
87.7724509726
 40
7.9999997665
100
AcDbArc
 50
45.0
 51
89.7468597998
  0
ARC
  5
713
100
AcDbEntity
  8
RUNDUNGEN
100
AcDbCircle
 62
7
  6
CONTINUOUS
 10
95.0738002232
 20
69.7909341002
 40
7.9999997665
100
AcDbArc
 50
0.253140221
 51
45.0
  0
ARC
  5
714
100
AcDbEntity
  8
0
100
AcDbCircle
 62
7
  6
CONTINUOUS
 10
113.0738002232
 20
77.9124437938
 40
1.0
100
AcDbArc
 50
165.0
 51
15.0
  0
ARC
  5
715
100
AcDbEntity
  8
0
100
AcDbCircle
 62
7
  6
CONTINUOUS
 10
85.2137930445
 20
105.7724509726
 40
1.0
100
AcDbArc
 50
75.0
 51
285.0
  0
ARC
  5
716
100
AcDbEntity
  8
RUNDUNGEN
100
AcDbCircle
 62
7
  6
CONTINUOUS
 10
35.6547694715
 20
108.7724509726
 40
1.0
100
AcDbArc
 50
138.1675946066
 51
180.0
  0
ARC
  5
717
100
AcDbEntity
  8
RUNDUNGEN
100
AcDbCircle
 62
7
  6
CONTINUOUS
 10
33.5093102513
 20
117.9555119701
 40
3.9999540701
100
AcDbArc
 50
24.645786411
 51
38.5750042739
  0
ARC
  5
718
100
AcDbEntity
  8
RUNDUNGEN
100
AcDbCircle
 62
7
  6
CONTINUOUS
 10
37.1117051087
 20
114.8981525985
 40
2.0000000431
100
AcDbArc
 50
319.081207762
 51
24.6376364565
  0
ARC
  5
719
100
AcDbEntity
  8
RUNDUNGEN
100
AcDbCircle
 62
7
  6
CONTINUOUS
 10
38.3726511397
 20
124.0106569288
 40
1.0
100
AcDbArc
 50
90.0
 51
162.0
  0
ARC
  5
71A
100
AcDbEntity
  8
RUNDUNGEN
100
AcDbCircle
 62
7
  6
CONTINUOUS
 10
37.673794514
 20
121.859797397
 40
1.0
100
AcDbArc
 50
162.0
 51
252.0017607086
  0
ARC
  5
71B
100
AcDbEntity
  8
RUNDUNGEN
100
AcDbCircle
 62
7
  6
CONTINUOUS
 10
37.4182099443
 20
121.0731889743
 40
1.0
100
AcDbArc
 50
161.9999957078
 51
218.5765549756
  0
ARC
  5
71C
100
AcDbEntity
  8
RUNDUNGEN
100
AcDbCircle
 62
7
  6
CONTINUOUS
 10
41.919152626
 20
134.9256661677
 40
1.0
100
AcDbArc
 50
162.0
 51
234.0
  0
ARC
  5
71D
100
AcDbEntity
  8
RUNDUNGEN
100
AcDbCircle
 62
7
  6
CONTINUOUS
 10
41.5437570259
 20
142.6829797949
 40
3.9999527772
100
AcDbArc
 50
285.4249264201
 51
299.3553547269
  0
ARC
  5
71E
100
AcDbEntity
  8
RUNDUNGEN
100
AcDbCircle
 62
7
  6
CONTINUOUS
 10
42.8735934654
 20
137.8631330263
 40
1.0
100
AcDbArc
 50
105.4234289457
 51
161.9998194585
  0
ARC
  5
71F
100
AcDbEntity
  8
RUNDUNGEN
100
AcDbCircle
 62
7
  6
CONTINUOUS
 10
42.6180378379
 20
137.0766136786
 40
1.0
100
AcDbArc
 50
72.0
 51
162.0
  0
ARC
  5
720
100
AcDbEntity
  8
RUNDUNGEN
100
AcDbCircle
 62
7
  6
CONTINUOUS
 10
48.2298822714
 20
126.841517096
 40
2.25
100
AcDbArc
 50
252.0008035149
 51
72.0017809484
  0
ARC
  5
721
100
AcDbEntity
  8
RUNDUNGEN
100
AcDbCircle
 62
7
  6
CONTINUOUS
 10
46.255221515
 20
143.0390025098
 40
2.0000000423
100
AcDbArc
 50
299.3623635435
 51
4.7675637705
  0
ARC
  5
722
100
AcDbEntity
  8
RUNDUNGEN
100
AcDbCircle
 62
7
  6
CONTINUOUS
 10
68.8684923502
 20
120.7724509726
 40
5.0
100
AcDbArc
 50
161.2566016284
 51
270.0
  0
ARC
  5
723
100
AcDbEntity
  8
RUNDUNGEN
100
AcDbCircle
 62
7
  6
CONTINUOUS
 10
56.9831271798
 20
157.8046979151
 40
2.0000000431
100
AcDbArc
 50
283.08120776
 51
348.6376364565
  0
ARC
  5
724
100
AcDbEntity
  8
RUNDUNGEN
100
AcDbCircle
 62
7
  6
CONTINUOUS
 10
48.6771329002
 20
148.8511645121
 40
1.0
100
AcDbArc
 50
144.0
 51
185.8324053934
  0
ARC
  5
725
100
AcDbEntity
  8
RUNDUNGEN
100
AcDbCircle
 62
7
  6
CONTINUOUS
 10
52.2038444139
 20
153.7052664783
 40
1.0
100
AcDbArc
 50
102.1675946066
 51
144.0
  0
ARC
  5
726
100
AcDbEntity
  8
RUNDUNGEN
100
AcDbCircle
 62
7
  6
CONTINUOUS
 10
55.8657992693
 20
162.3955881747
 40
3.9999540701
100
AcDbArc
 50
348.645786411
 51
2.5750042739
  0
ARC
  5
727
100
AcDbEntity
  8
RUNDUNGEN
100
AcDbCircle
 62
7
  6
CONTINUOUS
 10
72.9980549653
 20
160.931982195
 40
2.25
100
AcDbArc
 50
216.000820921
 51
36.0017949707
  0
ARC
  5
728
100
AcDbEntity
  8
RUNDUNGEN
100
AcDbCircle
 62
7
  6
CONTINUOUS
 10
63.3594496046
 20
164.4357032986
 40
1.0
100
AcDbArc
 50
54.0
 51
126.0
  0
ARC
  5
729
100
AcDbEntity
  8
RUNDUNGEN
100
AcDbCircle
 62
7
  6
CONTINUOUS
 10
72.6443110369
 20
171.1815499958
 40
1.0
100
AcDbArc
 50
126.0
 51
198.0
  0
ARC
  5
72A
100
AcDbEntity
  8
RUNDUNGEN
100
AcDbCircle
 62
7
  6
CONTINUOUS
 10
61.5298192055
 20
163.1063990031
 40
1.0
100
AcDbArc
 50
126.0
 51
216.0017607086
  0
ARC
  5
72B
100
AcDbEntity
  8
RUNDUNGEN
100
AcDbCircle
 62
7
  6
CONTINUOUS
 10
60.8606901147
 20
162.6202482619
 40
1.0
100
AcDbArc
 50
125.9999957078
 51
182.5765549756
  0
ARC
  5
72C
100
AcDbEntity
  8
RUNDUNGEN
100
AcDbCircle
 62
7
  6
CONTINUOUS
 10
77.0922833508
 20
123.7724509726
 40
7.9999997665
100
AcDbArc
 50
270.253140221
 51
315.0
  0
ARC
  5
72D
100
AcDbEntity
  8
RUNDUNGEN
100
AcDbCircle
 62
7
  6
CONTINUOUS
 10
95.0738002232
 20
141.753967845
 40
7.9999997665
100
AcDbArc
 50
315.0
 51
359.7468597998
  0
ARC
  5
72E
100
AcDbEntity
  8
0
100
AcDbCircle
 62
7
  6
CONTINUOUS
 10
113.0738002232
 20
133.6324581513
 40
1.0
100
AcDbArc
 50
345.0
 51
195.0
  0
ARC
  5
72F
100
AcDbEntity
  8
RUNDUNGEN
100
AcDbCircle
 62
7
  6
CONTINUOUS
 10
80.9211638938
 20
175.1966996113
 40
2.0000000361
100
AcDbArc
 50
263.3623635436
 51
328.7699842218
  0
ARC
  5
730
100
AcDbEntity
  8
RUNDUNGEN
100
AcDbCircle
 62
7
  6
CONTINUOUS
 10
75.1430852803
 20
172.9970157515
 40
1.0
100
AcDbArc
 50
69.4256509375
 51
126.0003829197
  0
ARC
  5
731
100
AcDbEntity
  8
RUNDUNGEN
100
AcDbCircle
 62
7
  6
CONTINUOUS
 10
74.4740162758
 20
172.5109086656
 40
1.0
100
AcDbArc
 50
36.0
 51
126.0
  0
ARC
  5
732
100
AcDbEntity
  8
RUNDUNGEN
100
AcDbCircle
 62
7
  6
CONTINUOUS
 10
76.9001702746
 20
177.6781022489
 40
3.999993832
100
AcDbArc
 50
249.4260220943
 51
263.3620442279
  0
ARC
  5
733
100
AcDbEntity
  8
RUNDUNGEN
100
AcDbCircle
 62
7
  6
CONTINUOUS
 10
92.0031735818
 20
180.3293756374
 40
1.0
100
AcDbArc
 50
66.1675946066
 51
108.0
  0
ARC
  5
734
100
AcDbEntity
  8
RUNDUNGEN
100
AcDbCircle
 62
7
  6
CONTINUOUS
 10
86.296834484
 20
178.4752736711
 40
1.0
100
AcDbArc
 50
108.0
 51
149.8324053934
  0
ARC
  5
735
100
AcDbEntity
  8
RUNDUNGEN
100
AcDbCircle
 62
7
  6
CONTINUOUS
 10
98.0738002232
 20
149.9777588456
 40
5.0
100
AcDbArc
 50
0.0
 51
108.7433983716
  0
ARC
  5
736
100
AcDbEntity
  8
RUNDUNGEN
100
AcDbCircle
 62
7
  6
CONTINUOUS
 10
100.0738002232
 20
185.2075861925
 40
3.9999656073
100
AcDbArc
 50
312.6389199185
 51
326.5747240833
  0
ARC
  5
737
100
AcDbEntity
  8
RUNDUNGEN
100
AcDbCircle
 62
7
  6
CONTINUOUS
 10
113.0738002232
 20
173.9533811705
 40
2.25
100
AcDbArc
 50
180.0008088936
 51
0.0017852813
  0
ARC
  5
738
100
AcDbEntity
  8
RUNDUNGEN
100
AcDbCircle
 62
7
  6
CONTINUOUS
 10
98.2792799244
 20
180.8366934006
 40
2.0000000366
100
AcDbArc
 50
247.0808321905
 51
312.6376364564
  0
ARC
  5
739
100
AcDbEntity
  8
RUNDUNGEN
100
AcDbCircle
 62
7
  6
CONTINUOUS
 10
107.3354402772
 20
182.4533811705
 40
1.0
100
AcDbArc
 50
18.0
 51
90.0
  0
ARC
  5
73A
100
AcDbEntity
  8
RUNDUNGEN
100
AcDbCircle
 62
7
  6
CONTINUOUS
 10
105.0738002232
 20
182.4533811705
 40
1.0
100
AcDbArc
 50
90.0
 51
180.0
  0
ARC
  5
73B
100
AcDbEntity
  8
RUNDUNGEN
100
AcDbCircle
 62
7
  6
CONTINUOUS
 10
104.2467984119
 20
182.4533811705
 40
1.0
100
AcDbArc
 50
90.0000079531
 51
146.5758309349
  0
ARC
  5
73C
100
AcDbEntity
  8
RUNDUNGEN
100
AcDbCircle
 62
7
  6
CONTINUOUS
 10
126.0738002232
 20
26.3373495963
 40
3.9999544395
100
AcDbArc
 50
132.641460991
 51
146.5750090592
  0
ARC
  5
73D
100
AcDbEntity
  8
RUNDUNGEN
100
AcDbCircle
 62
7
  6
CONTINUOUS
 10
118.8121601692
 20
29.0915207746
 40
1.0
100
AcDbArc
 50
198.0
 51
270.0
  0
ARC
  5
73E
100
AcDbEntity
  8
RUNDUNGEN
100
AcDbCircle
 62
7
  6
CONTINUOUS
 10
121.9008017023
 20
29.0915207746
 40
1.0
100
AcDbArc
 50
269.99987205
 51
326.5759353903
  0
ARC
  5
73F
100
AcDbEntity
  8
RUNDUNGEN
100
AcDbCircle
 62
7
  6
CONTINUOUS
 10
121.0738002232
 20
29.0915207746
 40
1.0
100
AcDbArc
 50
269.9994118944
 51
360.0
  0
ARC
  5
740
100
AcDbEntity
  8
RUNDUNGEN
100
AcDbCircle
 62
7
  6
CONTINUOUS
 10
127.8683205447
 20
30.7082085345
 40
2.0000000431
100
AcDbArc
 50
67.0811979136
 51
132.6376364565
  0
ARC
  5
741
100
AcDbEntity
  8
RUNDUNGEN
100
AcDbCircle
 62
7
  6
CONTINUOUS
 10
134.1444268646
 20
31.2155263078
 40
1.0
100
AcDbArc
 50
246.1675946066
 51
288.0
  0
ARC
  5
742
100
AcDbEntity
  8
RUNDUNGEN
100
AcDbCircle
 62
7
  6
CONTINUOUS
 10
128.0738002232
 20
61.5671430996
 40
5.0
100
AcDbArc
 50
180.0
 51
288.7433983716
  0
ARC
  5
743
100
AcDbEntity
  8
RUNDUNGEN
100
AcDbCircle
 62
7
  6
CONTINUOUS
 10
145.2264365407
 20
36.3482023134
 40
2.0000000423
100
AcDbArc
 50
83.3623635435
 51
148.7675637703
  0
ARC
  5
744
100
AcDbEntity
  8
RUNDUNGEN
100
AcDbCircle
 62
7
  6
CONTINUOUS
 10
139.8507659624
 20
33.069628274
 40
1.0
100
AcDbArc
 50
288.0
 51
329.8324053934
  0
ARC
  5
745
100
AcDbEntity
  8
RUNDUNGEN
100
AcDbCircle
 62
7
  6
CONTINUOUS
 10
149.2473564621
 20
33.8669011491
 40
3.9999528329
100
AcDbArc
 50
69.424928853
 51
83.3556449014
  0
ARC
  5
746
100
AcDbEntity
  8
RUNDUNGEN
100
AcDbCircle
 62
7
  6
CONTINUOUS
 10
153.5032894095
 20
40.3633519493
 40
1.0
100
AcDbArc
 50
306.0
 51
18.0
  0
ARC
  5
747
100
AcDbEntity
  8
RUNDUNGEN
100
AcDbCircle
 62
7
  6
CONTINUOUS
 10
151.0045308045
 20
38.5478975556
 40
1.0
100
AcDbArc
 50
249.4234355428
 51
305.9998173114
  0
ARC
  5
748
100
AcDbEntity
  8
RUNDUNGEN
100
AcDbCircle
 62
7
  6
CONTINUOUS
 10
151.6735841706
 20
39.0339932796
 40
1.0
100
AcDbArc
 50
216.0
 51
306.0
  0
ARC
  5
749
100
AcDbEntity
  8
RUNDUNGEN
100
AcDbCircle
 62
7
  6
CONTINUOUS
 10
153.1495454812
 20
50.6129197501
 40
2.25
100
AcDbArc
 50
36.000820921
 51
216.0017949707
  0
ARC
  5
74A
100
AcDbEntity
  8
RUNDUNGEN
100
AcDbCircle
 62
7
  6
CONTINUOUS
 10
149.0553170956
 20
87.7724509726
 40
7.9999997665
100
AcDbArc
 50
90.253140221
 51
135.0
  0
ARC
  5
74B
100
AcDbEntity
  8
RUNDUNGEN
100
AcDbCircle
 62
7
  6
CONTINUOUS
 10
131.0738002232
 20
69.7909341002
 40
7.9999997665
100
AcDbArc
 50
135.0
 51
179.7468597998
  0
ARC
  5
74C
100
AcDbEntity
  8
0
100
AcDbCircle
 62
7
  6
CONTINUOUS
 10
140.933807402
 20
105.7724509726
 40
1.0
100
AcDbArc
 50
255.0
 51
105.0
  0
ARC
  5
74D
100
AcDbEntity
  8
RUNDUNGEN
100
AcDbCircle
 62
7
  6
CONTINUOUS
 10
162.7881508418
 20
47.1091986465
 40
1.0
100
AcDbArc
 50
234.0
 51
306.0
  0
ARC
  5
74E
100
AcDbEntity
  8
RUNDUNGEN
100
AcDbCircle
 62
7
  6
CONTINUOUS
 10
165.2869143316
 20
48.9246565893
 40
1.0
100
AcDbArc
 50
305.99987205
 51
2.5759353903
  0
ARC
  5
74F
100
AcDbEntity
  8
RUNDUNGEN
100
AcDbCircle
 62
7
  6
CONTINUOUS
 10
164.6178560806
 20
48.4385573163
 40
1.0
100
AcDbArc
 50
305.9994118944
 51
36.0009280751
  0
ARC
  5
750
100
AcDbEntity
  8
RUNDUNGEN
100
AcDbCircle
 62
7
  6
CONTINUOUS
 10
169.1644732665
 20
53.74020403
 40
2.0000000431
100
AcDbArc
 50
103.0811979166
 51
168.6376364565
  0
ARC
  5
751
100
AcDbEntity
  8
RUNDUNGEN
100
AcDbCircle
 62
7
  6
CONTINUOUS
 10
170.2818022534
 20
49.1493122891
 40
3.9999544395
100
AcDbArc
 50
168.641460991
 51
182.5750090592
  0
ARC
  5
752
100
AcDbEntity
  8
RUNDUNGEN
100
AcDbCircle
 62
7
  6
CONTINUOUS
 10
173.9437560325
 20
57.8396354668
 40
1.0
100
AcDbArc
 50
282.1675946066
 51
324.0
  0
ARC
  5
753
100
AcDbEntity
  8
RUNDUNGEN
100
AcDbCircle
 62
7
  6
CONTINUOUS
 10
177.4704675463
 20
62.6937374331
 40
1.0
100
AcDbArc
 50
324.0
 51
5.8324053934
  0
ARC
  5
754
100
AcDbEntity
  8
RUNDUNGEN
100
AcDbCircle
 62
7
  6
CONTINUOUS
 10
157.2791080962
 20
90.7724509726
 40
5.0
100
AcDbArc
 50
341.2566016284
 51
90.0
  0
ARC
  5
755
100
AcDbEntity
  8
RUNDUNGEN
100
AcDbCircle
 62
7
  6
CONTINUOUS
 10
179.8923789314
 20
68.5058994354
 40
2.0000000423
100
AcDbArc
 50
119.3623635435
 51
184.7675637697
  0
ARC
  5
756
100
AcDbEntity
  8
RUNDUNGEN
100
AcDbCircle
 62
7
  6
CONTINUOUS
 10
177.9177181751
 20
84.7033848491
 40
2.25
100
AcDbArc
 50
71.9984791069
 51
252.0024165321
  0
ARC
  5
757
100
AcDbEntity
  8
RUNDUNGEN
100
AcDbCircle
 62
7
  6
CONTINUOUS
 10
184.6038437117
 20
68.8619220557
 40
3.9999528329
100
AcDbArc
 50
105.424928853
 51
119.3556449014
  0
ARC
  5
758
100
AcDbEntity
  8
RUNDUNGEN
100
AcDbCircle
 62
7
  6
CONTINUOUS
 10
183.274006963
 20
73.6817688633
 40
1.0
100
AcDbArc
 50
285.4234355428
 51
341.9998173114
  0
ARC
  5
759
100
AcDbEntity
  8
RUNDUNGEN
100
AcDbCircle
 62
7
  6
CONTINUOUS
 10
183.5295626086
 20
74.4682882666
 40
1.0
100
AcDbArc
 50
252.0
 51
342.0
  0
ARC
  5
75A
100
AcDbEntity
  8
RUNDUNGEN
100
AcDbCircle
 62
7
  6
CONTINUOUS
 10
184.2284478204
 20
76.6192357774
 40
1.0
100
AcDbArc
 50
342.0
 51
54.0
  0
ARC
  5
75B
100
AcDbEntity
  8
RUNDUNGEN
100
AcDbCircle
 62
7
  6
CONTINUOUS
 10
187.7749493067
 20
87.5342450164
 40
1.0
100
AcDbArc
 50
270.0
 51
342.0
  0
ARC
  5
75C
100
AcDbEntity
  8
RUNDUNGEN
100
AcDbCircle
 62
7
  6
CONTINUOUS
 10
188.4738345186
 20
89.6851925273
 40
1.0
100
AcDbArc
 50
342.0
 51
72.0
  0
ARC
  5
75D
100
AcDbEntity
  8
RUNDUNGEN
100
AcDbCircle
 62
7
  6
CONTINUOUS
 10
188.72939203
 20
90.4717176729
 40
1.0
100
AcDbArc
 50
341.99987205
 51
38.5759353903
  0
ARC
  5
75E
100
AcDbEntity
  8
RUNDUNGEN
100
AcDbCircle
 62
7
  6
CONTINUOUS
 10
189.0358953377
 20
96.6467493466
 40
2.0000000431
100
AcDbArc
 50
139.0811979141
 51
204.6376364565
  0
ARC
  5
75F
100
AcDbEntity
  8
RUNDUNGEN
100
AcDbCircle
 62
7
  6
CONTINUOUS
 10
192.6382919366
 20
93.5893894092
 40
3.9999544395
100
AcDbArc
 50
204.641460991
 51
218.5750090592
  0
ARC
  5
760
100
AcDbEntity
  8
RUNDUNGEN
100
AcDbCircle
 62
7
  6
CONTINUOUS
 10
190.4928309749
 20
102.7724509726
 40
1.0
100
AcDbArc
 50
318.1675946066
 51
360.0
  0
ARC
  5
761
100
AcDbEntity
  8
RUNDUNGEN
100
AcDbCircle
 62
7
  6
CONTINUOUS
 10
131.0738002232
 20
141.753967845
 40
7.9999997665
100
AcDbArc
 50
180.253140221
 51
225.0
  0
ARC
  5
762
100
AcDbEntity
  8
RUNDUNGEN
100
AcDbCircle
 62
7
  6
CONTINUOUS
 10
149.0553170956
 20
123.7724509726
 40
7.9999997665
100
AcDbArc
 50
225.0
 51
269.7468597998
  0
ARC
  5
763
100
AcDbEntity
  8
RUNDUNGEN
100
AcDbCircle
 62
7
  6
CONTINUOUS
 10
128.0738002232
 20
149.9777588456
 40
5.0
100
AcDbArc
 50
71.2566016284
 51
180.0
  0
ARC
  5
764
100
AcDbEntity
  8
RUNDUNGEN
100
AcDbCircle
 62
7
  6
CONTINUOUS
 10
118.8121601692
 20
182.4533811705
 40
1.0
100
AcDbArc
 50
89.999999978
 51
162.0000000918
  0
ARC
  5
765
100
AcDbEntity
  8
RUNDUNGEN
100
AcDbCircle
 62
7
  6
CONTINUOUS
 10
121.9007957194
 20
182.4533811705
 40
1.0
100
AcDbArc
 50
33.4234384896
 51
89.9998523378
  0
ARC
  5
766
100
AcDbEntity
  8
RUNDUNGEN
100
AcDbCircle
 62
7
  6
CONTINUOUS
 10
121.0738002232
 20
182.4533811705
 40
1.0
100
AcDbArc
 50
0.0
 51
90.0
  0
ARC
  5
767
100
AcDbEntity
  8
RUNDUNGEN
100
AcDbCircle
 62
7
  6
CONTINUOUS
 10
126.0738002232
 20
185.2075459489
 40
3.9999528882
100
AcDbArc
 50
213.4249314171
 51
227.3559309773
  0
ARC
  5
768
100
AcDbEntity
  8
RUNDUNGEN
100
AcDbCircle
 62
7
  6
CONTINUOUS
 10
127.8683205415
 20
180.8366934092
 40
2.0000000422
100
AcDbArc
 50
227.3623635435
 51
292.7675886498
  0
ARC
  5
769
100
AcDbEntity
  8
RUNDUNGEN
100
AcDbCircle
 62
7
  6
CONTINUOUS
 10
134.1444268646
 20
180.3293756374
 40
1.0
100
AcDbArc
 50
72.0
 51
113.8324053934
  0
ARC
  5
76A
100
AcDbEntity
  8
RUNDUNGEN
100
AcDbCircle
 62
7
  6
CONTINUOUS
 10
153.1495454812
 20
160.931982195
 40
2.25
100
AcDbArc
 50
144.0007968666
 51
324.0017755928
  0
ARC
  5
76B
100
AcDbEntity
  8
RUNDUNGEN
100
AcDbCircle
 62
7
  6
CONTINUOUS
 10
149.2473603997
 20
177.6780062157
 40
3.9999544395
100
AcDbArc
 50
276.641460991
 51
290.5750090592
  0
ARC
  5
76C
100
AcDbEntity
  8
RUNDUNGEN
100
AcDbCircle
 62
7
  6
CONTINUOUS
 10
145.2264365391
 20
175.1966996346
 40
2.0000000431
100
AcDbArc
 50
211.0811979165
 51
276.6376364565
  0
ARC
  5
76D
100
AcDbEntity
  8
RUNDUNGEN
100
AcDbCircle
 62
7
  6
CONTINUOUS
 10
153.5032894095
 20
171.1815499958
 40
1.0
100
AcDbArc
 50
342.0
 51
54.0
  0
ARC
  5
76E
100
AcDbEntity
  8
RUNDUNGEN
100
AcDbCircle
 62
7
  6
CONTINUOUS
 10
139.8507659624
 20
178.4752736711
 40
1.0
100
AcDbArc
 50
30.1675946066
 51
72.0
  0
ARC
  5
76F
100
AcDbEntity
  8
RUNDUNGEN
100
AcDbCircle
 62
7
  6
CONTINUOUS
 10
151.673674443
 20
172.5108430788
 40
1.0
100
AcDbArc
 50
54.0
 51
144.0009280751
  0
ARC
  5
770
100
AcDbEntity
  8
RUNDUNGEN
100
AcDbCircle
 62
7
  6
CONTINUOUS
 10
151.0045259197
 20
172.9970079386
 40
1.0
100
AcDbArc
 50
53.99987205
 51
110.5759353903
  0
ARC
  5
771
100
AcDbEntity
  8
RUNDUNGEN
100
AcDbCircle
 62
7
  6
CONTINUOUS
 10
157.2791080962
 20
120.7724509726
 40
5.0
100
AcDbArc
 50
270.0
 51
18.7433983716
  0
ARC
  5
772
100
AcDbEntity
  8
RUNDUNGEN
100
AcDbCircle
 62
7
  6
CONTINUOUS
 10
189.0358953355
 20
114.898152601
 40
2.0000000423
100
AcDbArc
 50
155.3623635435
 51
220.7675637696
  0
ARC
  5
773
100
AcDbEntity
  8
RUNDUNGEN
100
AcDbCircle
 62
7
  6
CONTINUOUS
 10
187.7749493067
 20
124.0106569288
 40
1.0
100
AcDbArc
 50
18.0
 51
90.0
  0
ARC
  5
774
100
AcDbEntity
  8
RUNDUNGEN
100
AcDbCircle
 62
7
  6
CONTINUOUS
 10
188.7293901642
 20
121.0731900146
 40
1.0
100
AcDbArc
 50
321.4234355428
 51
17.9998173114
  0
ARC
  5
775
100
AcDbEntity
  8
RUNDUNGEN
100
AcDbCircle
 62
7
  6
CONTINUOUS
 10
188.4738345186
 20
121.8597094179
 40
1.0
100
AcDbArc
 50
288.0
 51
18.0
  0
ARC
  5
776
100
AcDbEntity
  8
RUNDUNGEN
100
AcDbCircle
 62
7
  6
CONTINUOUS
 10
190.4928309749
 20
108.7724509726
 40
1.0
100
AcDbArc
 50
0.0
 51
41.8324053934
  0
ARC
  5
777
100
AcDbEntity
  8
RUNDUNGEN
100
AcDbCircle
 62
7
  6
CONTINUOUS
 10
192.6382855655
 20
117.9555104658
 40
3.9999528329
100
AcDbArc
 50
141.424928853
 51
155.3556449014
  0
ARC
  5
778
100
AcDbEntity
  8
RUNDUNGEN
100
AcDbCircle
 62
7
  6
CONTINUOUS
 10
177.9177181751
 20
126.841517096
 40
2.25
100
AcDbArc
 50
108.0008142724
 51
288.0017896145
  0
ARC
  5
779
100
AcDbEntity
  8
RUNDUNGEN
100
AcDbCircle
 62
7
  6
CONTINUOUS
 10
179.8923789317
 20
143.039002513
 40
2.0000000431
100
AcDbArc
 50
175.0811979138
 51
240.6376364565
  0
ARC
  5
77A
100
AcDbEntity
  8
RUNDUNGEN
100
AcDbCircle
 62
7
  6
CONTINUOUS
 10
184.2284478204
 20
134.9256661677
 40
1.0
100
AcDbArc
 50
306.0
 51
18.0
  0
ARC
  5
77B
100
AcDbEntity
  8
RUNDUNGEN
100
AcDbCircle
 62
7
  6
CONTINUOUS
 10
184.6038500828
 20
142.6829819596
 40
3.9999544395
100
AcDbArc
 50
240.641460991
 51
254.5750090592
  0
ARC
  5
77C
100
AcDbEntity
  8
RUNDUNGEN
100
AcDbCircle
 62
7
  6
CONTINUOUS
 10
183.2740050972
 20
137.8631388242
 40
1.0
100
AcDbArc
 50
17.99987205
 51
74.5759353903
  0
ARC
  5
77D
100
AcDbEntity
  8
RUNDUNGEN
100
AcDbCircle
 62
7
  6
CONTINUOUS
 10
183.5295626086
 20
137.0766136786
 40
1.0
100
AcDbArc
 50
17.9994118944
 51
108.0009280751
  0
ARC
  5
77E
100
AcDbEntity
  8
RUNDUNGEN
100
AcDbCircle
 62
7
  6
CONTINUOUS
 10
162.7881508418
 20
164.4357032986
 40
1.0
100
AcDbArc
 50
54.0
 51
126.0
  0
ARC
  5
77F
100
AcDbEntity
  8
RUNDUNGEN
100
AcDbCircle
 62
7
  6
CONTINUOUS
 10
165.2869094468
 20
162.6202489048
 40
1.0
100
AcDbArc
 50
357.4234355428
 51
53.9998173113
  0
ARC
  5
780
100
AcDbEntity
  8
RUNDUNGEN
100
AcDbCircle
 62
7
  6
CONTINUOUS
 10
164.6178560806
 20
163.1063446289
 40
1.0
100
AcDbArc
 50
324.0
 51
54.0
  0
ARC
  5
781
100
AcDbEntity
  8
RUNDUNGEN
100
AcDbCircle
 62
7
  6
CONTINUOUS
 10
169.1644732633
 20
157.8046979158
 40
2.0000000423
100
AcDbArc
 50
191.3623635435
 51
256.7675637705
  0
ARC
  5
782
100
AcDbEntity
  8
RUNDUNGEN
100
AcDbCircle
 62
7
  6
CONTINUOUS
 10
173.9437560325
 20
153.7052664783
 40
1.0
100
AcDbArc
 50
36.0
 51
77.8324053934
  0
ARC
  5
783
100
AcDbEntity
  8
RUNDUNGEN
100
AcDbCircle
 62
7
  6
CONTINUOUS
 10
177.4704675463
 20
148.8511645121
 40
1.0
100
AcDbArc
 50
354.1675946066
 51
36.0
  0
ARC
  5
784
100
AcDbEntity
  8
RUNDUNGEN
100
AcDbCircle
 62
7
  6
CONTINUOUS
 10
170.2817983159
 20
162.3955842365
 40
3.9999528329
100
AcDbArc
 50
177.424928853
 51
191.3556449014
  0
ARC
  5
785
100
AcDbEntity
  8
RUNDUNGEN
100
AcDbCircle
 62
7
  6
CONTINUOUS
 10
232.624611368
 20
57.9609757486
 40
7.999965379
100
AcDbArc
 50
20.5280566574
 51
84.3523003167
  0
ARC
  5
786
100
AcDbEntity
  8
RUNDUNGEN
100
AcDbCircle
 62
7
  6
CONTINUOUS
 10
229.574611368
 20
69.3162073083
 40
3.0
100
AcDbArc
 50
179.9999999951
 51
264.352191792
  0
ARC
  5
787
100
AcDbEntity
  8
RUNDUNGEN
100
AcDbCircle
 62
7
  6
CONTINUOUS
 10
231.624611368
 20
91.0753137488
 40
1.0
100
AcDbArc
 50
98.5821155722
 51
180.0000002436
  0
ARC
  5
788
100
AcDbEntity
  8
RUNDUNGEN
100
AcDbCircle
 62
7
  6
CONTINUOUS
 10
231.624611368
 20
53.3965588756
 40
1.0
100
AcDbArc
 50
111.5604668072
 51
180.0000013363
  0
ARC
  5
789
100
AcDbEntity
  8
RUNDUNGEN
100
AcDbCircle
 62
7
  6
CONTINUOUS
 10
231.624611368
 20
47.1091986465
 40
1.0
100
AcDbArc
 50
180.0
 51
270.0
  0
ARC
  5
78A
100
AcDbEntity
  8
RUNDUNGEN
100
AcDbCircle
 62
7
  6
CONTINUOUS
 10
231.624611368
 20
37.2613804952
 40
1.0
100
AcDbArc
 50
116.0374416662
 51
180.0000000862
  0
ARC
  5
78B
100
AcDbEntity
  8
RUNDUNGEN
100
AcDbCircle
 62
7
  6
CONTINUOUS
 10
231.624611368
 20
87.5342450164
 40
1.0
100
AcDbArc
 50
180.0
 51
270.0
  0
ARC
  5
78C
100
AcDbEntity
  8
RUNDUNGEN
100
AcDbCircle
 62
7
  6
CONTINUOUS
 10
231.624611368
 20
29.0915207746
 40
1.0
100
AcDbArc
 50
180.0
 51
270.0
  0
ARC
  5
78D
100
AcDbEntity
  8
RUNDUNGEN
100
AcDbCircle
 62
7
  6
CONTINUOUS
 10
240.124611368
 20
102.6101737962
 40
0.4999995435
100
AcDbArc
 50
0.1873182042
 51
64.6230629565
  0
ARC
  5
78E
100
AcDbEntity
  8
0
100
AcDbCircle
 62
7
  6
CONTINUOUS
 10
232.624611368
 20
153.583926232
 40
7.9999653924
100
AcDbArc
 50
275.6476996502
 51
359.999947024
  0
ARC
  5
78F
100
AcDbEntity
  8
0
100
AcDbCircle
 62
7
  6
CONTINUOUS
 10
229.574611368
 20
142.2286946358
 40
3.0
100
AcDbArc
 50
95.6478082438
 51
179.9999999999
  0
ARC
  5
790
100
AcDbEntity
  8
02___PRT_ALL_AXES
100
AcDbCircle
 62
7
  6
CONTINUOUS
 10
241.624611368
 20
105.7724509726
 40
3.0
100
AcDbArc
 50
179.9999999887
 51
244.623063123
  0
ARC
  5
791
100
AcDbEntity
  8
0
100
AcDbCircle
 62
7
  6
CONTINUOUS
 10
238.624611368
 20
167.6423054096
 40
2.0
100
AcDbArc
 50
0.0
 51
64.0
  0
ARC
  5
792
100
AcDbEntity
  8
0
100
AcDbCircle
 62
7
  6
CONTINUOUS
 10
231.624611368
 20
158.1483430696
 40
1.0
100
AcDbArc
 50
179.9999991873
 51
248.439533719
  0
ARC
  5
793
100
AcDbEntity
  8
0
100
AcDbCircle
 62
7
  6
CONTINUOUS
 10
231.624611368
 20
174.2835214448
 40
1.0
100
AcDbArc
 50
179.9999999267
 51
243.9625584505
  0
ARC
  5
794
100
AcDbEntity
  8
RUNDUNGEN
100
AcDbCircle
 62
7
  6
CONTINUOUS
 10
231.624611368
 20
182.4533811705
 40
1.0
100
AcDbArc
 50
90.0
 51
180.0
  0
ARC
  5
795
100
AcDbEntity
  8
0
100
AcDbCircle
 62
7
  6
CONTINUOUS
 10
239.1918563559
 20
170.7034438116
 40
0.9999807389
100
AcDbArc
 50
90.000037207
 51
244.0169962742
  0
ARC
  5
796
100
AcDbEntity
  8
RUNDUNGEN
100
AcDbCircle
 62
7
  6
CONTINUOUS
 10
258.624611368
 20
57.9609757497
 40
7.9999653783
100
AcDbArc
 50
95.6476997003
 51
159.4323013984
  0
ARC
  5
797
100
AcDbEntity
  8
RUNDUNGEN
100
AcDbCircle
 62
7
  6
CONTINUOUS
 10
261.674611368
 20
69.3162073083
 40
3.0
100
AcDbArc
 50
275.6478082149
 51
360.0
  0
ARC
  5
798
100
AcDbEntity
  8
RUNDUNGEN
100
AcDbCircle
 62
7
  6
CONTINUOUS
 10
259.624611368
 20
91.0753149741
 40
1.0
100
AcDbArc
 50
0.0
 51
81.4171432708
  0
ARC
  5
799
100
AcDbEntity
  8
RUNDUNGEN
100
AcDbCircle
 62
7
  6
CONTINUOUS
 10
259.624611368
 20
53.3965853078
 40
1.0
100
AcDbArc
 50
359.9999986022
 51
68.4395195459
  0
ARC
  5
79A
100
AcDbEntity
  8
RUNDUNGEN
100
AcDbCircle
 62
7
  6
CONTINUOUS
 10
259.624611368
 20
47.1091986465
 40
1.0
100
AcDbArc
 50
270.0
 51
360.0
  0
ARC
  5
79B
100
AcDbEntity
  8
RUNDUNGEN
100
AcDbCircle
 62
7
  6
CONTINUOUS
 10
259.624611368
 20
37.2613917725
 40
1.0
100
AcDbArc
 50
359.9999990221
 51
63.9627818162
  0
ARC
  5
79C
100
AcDbEntity
  8
RUNDUNGEN
100
AcDbCircle
 62
7
  6
CONTINUOUS
 10
259.624611368
 20
87.5342450164
 40
1.0
100
AcDbArc
 50
270.0
 51
360.0
  0
ARC
  5
79D
100
AcDbEntity
  8
RUNDUNGEN
100
AcDbCircle
 62
7
  6
CONTINUOUS
 10
259.624611368
 20
29.0915207746
 40
1.0
100
AcDbArc
 50
270.0
 51
360.0
  0
ARC
  5
79E
100
AcDbEntity
  8
RUNDUNGEN
100
AcDbCircle
 62
7
  6
CONTINUOUS
 10
251.124611368
 20
102.6101776982
 40
0.4999958202
100
AcDbArc
 50
115.3769644197
 51
179.9994679995
  0
ARC
  5
79F
100
AcDbEntity
  8
0
100
AcDbCircle
 62
7
  6
CONTINUOUS
 10
258.624611368
 20
153.583926231
 40
7.9999653917
100
AcDbArc
 50
180.0000529773
 51
264.3523003498
  0
ARC
  5
7A0
100
AcDbEntity
  8
0
100
AcDbCircle
 62
7
  6
CONTINUOUS
 10
261.674611368
 20
142.2286946358
 40
3.0
100
AcDbArc
 50
0.0000000001
 51
84.352191756
  0
ARC
  5
7A1
100
AcDbEntity
  8
02___PRT_ALL_AXES
100
AcDbCircle
 62
7
  6
CONTINUOUS
 10
249.624611368
 20
105.7724509726
 40
3.0
100
AcDbArc
 50
295.3769642542
 51
359.998901059
  0
ARC
  5
7A2
100
AcDbEntity
  8
0
100
AcDbCircle
 62
7
  6
CONTINUOUS
 10
252.624611368
 20
167.6423054096
 40
2.0
100
AcDbArc
 50
116.0
 51
180.0
  0
ARC
  5
7A3
100
AcDbEntity
  8
0
100
AcDbCircle
 62
7
  6
CONTINUOUS
 10
259.624611368
 20
158.1483166374
 40
1.0
100
AcDbArc
 50
291.5604808765
 51
0.0000018189
  0
ARC
  5
7A4
100
AcDbEntity
  8
0
100
AcDbCircle
 62
7
  6
CONTINUOUS
 10
259.624611368
 20
174.2835101724
 40
1.0
100
AcDbArc
 50
296.0372185271
 51
0.000001783
  0
ARC
  5
7A5
100
AcDbEntity
  8
RUNDUNGEN
100
AcDbCircle
 62
7
  6
CONTINUOUS
 10
259.624611368
 20
182.4533811705
 40
1.0
100
AcDbArc
 50
0.0
 51
90.0
  0
ARC
  5
7A6
100
AcDbEntity
  8
0
100
AcDbCircle
 62
7
  6
CONTINUOUS
 10
252.0574917497
 20
170.7035016826
 40
0.9999629196
100
AcDbArc
 50
295.9669569443
 51
89.9999995026
  0
ENDSEC
  0
SECTION
  2
OBJECTS
  0
DICTIONARY
  5
C
100
AcDbDictionary
280
0
281
1
  3
ACAD_GROUP
350
D
  3
ACAD_MLINESTYLE
350
17
  3
ACAD_LAYOUT
350
1A
  3
ACAD_PLOTSETTINGS
350
19
  3
ACAD_PLOTSTYLENAME
350
E
  0
DICTIONARY
  5
D
102
{ACAD_REACTORS
330
C
102
}
100
AcDbDictionary
280
0
281
1
  0
ACDBDICTIONARYWDFLT
  5
E
102
{ACAD_REACTORS
330
C
102
}
100
AcDbDictionary
281
1
  3
Normal
350
F
100
AcDbDictionaryWithDefault
340
F
  0
DICTIONARY
  5
17
102
{ACAD_REACTORS
330
C
102
}
100
AcDbDictionary
280
0
281
1
  3
Standard
350
18
  0
DICTIONARY
  5
19
102
{ACAD_REACTORS
330
C
102
}
100
AcDbDictionary
281
1
  0
DICTIONARY
  5
1A
102
{ACAD_REACTORS
330
C
102
}
100
AcDbDictionary
281
1
  3
Model
350
7A7
  3
Layout1
350
7A8
  0
ACDBPLACEHOLDER
  5
F
102
{ACAD_REACTORS
330
E
102
}
  0
MLINESTYLE
  5
18
102
{ACAD_REACTORS
330
17
102
}
100
AcDbMlineStyle
  2
STANDARD
 70
0
  3

 62
256
 51
90.0
 52
90.0
 71
2
 49
0.5
 62
256
  6
BYLAYER
 49
-0.5
 62
256
  6
BYLAYER
  0
LAYOUT
  5
7A7
102
{ACAD_REACTORS
330
1A
102
}
100
AcDbPlotSettings
  1

  2
none_device
  4
ISO_A4_(297.00_x_210.00_MM)
  6

 40
0.0
 41
0.0
 42
0.0
 43
0.0
 44
297.0
 45
210.0
 46
0.0
 47
0.0
 48
0.0
 49
0.0
140
0.0
141
0.0
142
1.0
143
1.0
 70
1024
 72
1
 73
0
 74
0
  7

 75
0
147
1.0
148
0.0
149
0.0
100
AcDbLayout
  1
Model
 70
0
 71
0
 10
0.0
 20
0.0
 11
297.0
 21
210.0
 12
0.0
 22
0.0
 32
0.0
 14
0.0
 24
0.0
 34
0.0
 15
0.0
 25
0.0
 35
0.0
146
0.0
 13
0.0
 23
0.0
 33
0.0
 16
1.0
 26
0.0
 36
0.0
 17
0.0
 27
1.0
 37
0.0
 76
0
330
210
345
0
346
0
  0
LAYOUT
  5
7A8
102
{ACAD_REACTORS
330
1A
102
}
100
AcDbPlotSettings
  1

  2
none_device
  4
ISO_A4_(297.00_x_210.00_MM)
  6

 40
0.0
 41
0.0
 42
0.0
 43
0.0
 44
297.0
 45
210.0
 46
0.0
 47
0.0
 48
0.0
 49
0.0
140
0.0
141
0.0
142
1.0
143
1.0
 70
0
 72
1
 73
0
 74
0
  7

 75
0
147
1.0
148
0.0
149
0.0
100
AcDbLayout
  1
Layout1
 70
0
 71
1
 10
0.0
 20
0.0
 11
297.0
 21
210.0
 12
0.0
 22
0.0
 32
0.0
 14
0.0
 24
0.0
 34
0.0
 15
0.0
 25
0.0
 35
0.0
146
0.0
 13
0.0
 23
0.0
 33
0.0
 16
1.0
 26
0.0
 36
0.0
 17
0.0
 27
1.0
 37
0.0
 76
0
330
211
345
0
346
0
  0
ENDSEC
  0
EOF
