  0
SECTION
  2
HEADER
  9
$ACADVER
  1
AC1015
  9
$DWGCODEPAGE
  3
ANSI_1252
  9
$EXTMAX
 10
297.0
 20
210.0
 30
0.0
  9
$EXTMIN
 10
0.0
 20
0.0
 30
0.0
  9
$LIMMIN
 10
0.0
 20
0.0
  9
$LIMMAX
 10
297.0
 20
210.0
  9
$VIEWCTR
 10
148.5
 20
105.0
  9
$VIEWSIZE
 40
210.0
  9
$CLAYER
  8
0
  9
$LTSCALE
 40
16.335
  9
$CELTYPE
  6
BYLAYER
  9
$DIMSCALE
 40
1.0
  9
$DIMASZ
 40
3.5
  9
$DIMEXO
 40
1.85625
  9
$DIMDLI
 40
11.286
  9
$DIMEXE
 40
5.346
  9
$DIMCEN
 40
2.673
  9
$DIMLFAC
 40
1.0
  9
$DIMBLK
  1
_FILLED
  9
$DIMTXT
 40
3.5
  9
$DIMTOL
 70
1
  9
$DIMLIM
 70
0
  9
$DIMTFAC
 40
1.0
  9
$DIMTP
 40
0.005
  9
$DIMTM
 40
0.005
  9
$PDMODE
 70
3
  9
$PDSIZE
 40
0.3125
  9
$HANDSEED
  5
766
  9
$TILEMODE
 70
1
  9
$MEASUREMENT
 70
1
  9
$INSUNITS
 70
4
  0
ENDSEC
  0
SECTION
  2
CLASSES
  0
CLASS
  1
ACDBDICTIONARYWDFLT
  2
AcDbDictionaryWithDefault
  3
AutoCAD 2000
 90
0
280
0
281
0
  0
CLASS
  1
ACDBPLACEHOLDER
  2
AcDbPlaceHolder
  3
AutoCAD 2000
 90
0
280
0
281
0
  0
CLASS
  1
LAYOUT
  2
AcDbLayout
  3
AutoCAD 2000
 90
0
280
0
281
0
  0
ENDSEC
  0
SECTION
  2
TABLES
  0
TABLE
  2
VPORT
  5
8
100
AcDbSymbolTable
 70
2
  0
VPORT
  5
1F4
100
AcDbSymbolTableRecord
100
AcDbViewportTableRecord
  2
*ACTIVE
 70
0
 10
0.0
 20
0.0
 11
1.0
 21
1.0
 12
148.5
 22
105.0
 13
0.0
 23
0.0
 14
1.0
 24
1.0
 15
0.0
 25
0.0
 16
0.0
 26
0.0
 36
1.0
 17
0.0
 27
0.0
 37
0.0
 40
210.0
 41
1.4142857143
 42
50.0
 43
0.0
 44
0.0
 50
0.0
 51
0.0
 71
0
 72
100
 73
1
 74
1
 75
0
 76
0
 77
0
 78
0
  0
ENDTAB
  0
TABLE
  2
LTYPE
  5
5
100
AcDbSymbolTable
 70
6
  0
LTYPE
  5
14
100
AcDbSymbolTableRecord
100
AcDbLinetypeTableRecord
  2
BYBLOCK
 70
0
  3

 72
65
 73
0
 40
0.0
  0
LTYPE
  5
15
100
AcDbSymbolTableRecord
100
AcDbLinetypeTableRecord
  2
BYLAYER
 70
0
  3

 72
65
 73
0
 40
0.0
  0
LTYPE
  5
16
100
AcDbSymbolTableRecord
100
AcDbLinetypeTableRecord
  2
CONTINUOUS
 70
64
  3
Solid line
 72
65
 73
0
 40
0.0
  0
LTYPE
  5
1F5
100
AcDbSymbolTableRecord
100
AcDbLinetypeTableRecord
  2
CENTER
 70
64
  3
____ _ ____ _ ____ _ ____ _ ____ _ ____ _ ____
 72
65
 73
4
 40
0.6
 49
0.375
 74
0
 49
-0.075
 74
0
 49
0.075
 74
0
 49
-0.075
 74
0
  0
LTYPE
  5
1F6
100
AcDbSymbolTableRecord
100
AcDbLinetypeTableRecord
  2
HIDDEN
 70
64
  3
- - - - - - - - - - - - - - - - - - - -
 72
65
 73
2
 40
0.2
 49
0.1
 74
0
 49
-0.1
 74
0
  0
LTYPE
  5
1F7
100
AcDbSymbolTableRecord
100
AcDbLinetypeTableRecord
  2
PHANTOM
 70
64
  3
_____ _ _ _____ _ _ _____ _ _ _____
 72
65
 73
6
 40
0.8
 49
0.45
 74
0
 49
-0.05
 74
0
 49
0.1
 74
0
 49
-0.05
 74
0
 49
0.1
 74
0
 49
-0.05
 74
0
  0
LTYPE
  5
1F8
100
AcDbSymbolTableRecord
100
AcDbLinetypeTableRecord
  2
DOT
 70
64
  3
. . . . . . . . . . . . . . . . . . . .
 72
65
 73
2
 40
0.2
 49
0.1
 74
0
 49
-0.1
 74
0
  0
LTYPE
  5
1F9
100
AcDbSymbolTableRecord
100
AcDbLinetypeTableRecord
  2
DASHED
 70
64
  3
- - - - - - - - - - - - - - - - - - - -
 72
65
 73
2
 40
0.2
 49
0.1
 74
0
 49
-0.1
 74
0
  0
ENDTAB
  0
TABLE
  2
LAYER
  5
2
100
AcDbSymbolTable
 70
36
  0
LAYER
  5
10
100
AcDbSymbolTableRecord
100
AcDbLayerTableRecord
  2
0
 70
0
 62
7
  6
CONTINUOUS
370
-3
390
F
  0
LAYER
  5
1FA
100
AcDbSymbolTableRecord
100
AcDbLayerTableRecord
  2
DEFAULT_1
 70
0
 62
7
  6
CENTER
370
-3
390
F
  0
LAYER
  5
1FB
100
AcDbSymbolTableRecord
100
AcDbLayerTableRecord
  2
DEFAULT_2
 70
0
 62
8
  6
HIDDEN
370
-3
390
F
  0
LAYER
  5
1FC
100
AcDbSymbolTableRecord
100
AcDbLayerTableRecord
  2
DEFAULT_3
 70
0
 62
7
  6
PHANTOM
370
-3
390
F
  0
LAYER
  5
1FD
100
AcDbSymbolTableRecord
100
AcDbLayerTableRecord
  2
01___PRT_ALL_DTM_PLN
 70
0
 62
7
  6
CONTINUOUS
370
-3
390
F
  0
LAYER
  5
1FE
100
AcDbSymbolTableRecord
100
AcDbLayerTableRecord
  2
01___PRT_DEF_DTM_PLN
 70
0
 62
7
  6
CONTINUOUS
370
-3
390
F
  0
LAYER
  5
1FF
100
AcDbSymbolTableRecord
100
AcDbLayerTableRecord
  2
02___PRT_ALL_AXES
 70
0
 62
7
  6
CONTINUOUS
370
-3
390
F
  0
LAYER
  5
200
100
AcDbSymbolTableRecord
100
AcDbLayerTableRecord
  2
03___PRT_ALL_CURVES
 70
0
 62
7
  6
CONTINUOUS
370
-3
390
F
  0
LAYER
  5
201
100
AcDbSymbolTableRecord
100
AcDbLayerTableRecord
  2
04___PRT_ALL_DTM_PNT
 70
0
 62
7
  6
CONTINUOUS
370
-3
390
F
  0
LAYER
  5
202
100
AcDbSymbolTableRecord
100
AcDbLayerTableRecord
  2
05___PRT_ALL_DTM_CSYS
 70
0
 62
7
  6
CONTINUOUS
370
-3
390
F
  0
LAYER
  5
203
100
AcDbSymbolTableRecord
100
AcDbLayerTableRecord
  2
05___PRT_DEF_DTM_CSYS
 70
0
 62
7
  6
CONTINUOUS
370
-3
390
F
  0
LAYER
  5
204
100
AcDbSymbolTableRecord
100
AcDbLayerTableRecord
  2
06___PRT_ALL_SURFS
 70
0
 62
7
  6
CONTINUOUS
370
-3
390
F
  0
LAYER
  5
205
100
AcDbSymbolTableRecord
100
AcDbLayerTableRecord
  2
AUSFORMSCHRAEGEN
 70
0
 62
7
  6
CONTINUOUS
370
-3
390
F
  0
LAYER
  5
206
100
AcDbSymbolTableRecord
100
AcDbLayerTableRecord
  2
BEZUGSACHSEN
 70
0
 62
7
  6
CONTINUOUS
370
-3
390
F
  0
LAYER
  5
207
100
AcDbSymbolTableRecord
100
AcDbLayerTableRecord
  2
BEZUGSEBENEN
 70
0
 62
7
  6
CONTINUOUS
370
-3
390
F
  0
LAYER
  5
208
100
AcDbSymbolTableRecord
100
AcDbLayerTableRecord
  2
BOHRUNGEN
 70
0
 62
7
  6
CONTINUOUS
370
-3
390
F
  0
LAYER
  5
209
100
AcDbSymbolTableRecord
100
AcDbLayerTableRecord
  2
FASEN
 70
0
 62
7
  6
CONTINUOUS
370
-3
390
F
  0
LAYER
  5
20A
100
AcDbSymbolTableRecord
100
AcDbLayerTableRecord
  2
GEWINDE
 70
0
 62
7
  6
CONTINUOUS
370
-3
390
F
  0
LAYER
  5
20B
100
AcDbSymbolTableRecord
100
AcDbLayerTableRecord
  2
KURVEN
 70
0
 62
7
  6
CONTINUOUS
370
-3
390
F
  0
LAYER
  5
20C
100
AcDbSymbolTableRecord
100
AcDbLayerTableRecord
  2
RUNDUNGEN
 70
0
 62
7
  6
CONTINUOUS
370
-3
390
F
  0
LAYER
  5
20D
100
AcDbSymbolTableRecord
100
AcDbLayerTableRecord
  2
ZEICHNUNGSBEMASSUNGEN
 70
0
 62
7
  6
CONTINUOUS
370
-3
390
F
  0
ENDTAB
  0
TABLE
  2
STYLE
  5
3
100
AcDbSymbolTable
 70
1
  0
STYLE
  5
11
100
AcDbSymbolTableRecord
100
AcDbTextStyleTableRecord
  2
STANDARD
 70
0
 40
0.0
 41
0.7
 50
0.0
 71
0
 42
0.2
  3
txt
  4

  0
STYLE
  5
20E
100
AcDbSymbolTableRecord
100
AcDbTextStyleTableRecord
  2
TEXTSTYLE_1
 70
0
 40
0.0
 41
0.8
 50
0.0
 71
0
 42
0.2
  3
gdt
  4

  0
ENDTAB
  0
TABLE
  2
VIEW
  5
6
100
AcDbSymbolTable
 70
0
  0
ENDTAB
  0
TABLE
  2
UCS
  5
7
100
AcDbSymbolTable
 70
0
  0
ENDTAB
  0
TABLE
  2
APPID
  5
9
100
AcDbSymbolTable
 70
1
  0
APPID
  5
20F
100
AcDbSymbolTableRecord
100
AcDbRegAppTableRecord
  2
ACAD
 70
0
  0
ENDTAB
  0
TABLE
  2
BLOCK_RECORD
  5
1
100
AcDbSymbolTable
 70
0
  0
BLOCK_RECORD
  5
210
100
AcDbSymbolTableRecord
100
AcDbBlockTableRecord
  2
*Model_Space
  0
BLOCK_RECORD
  5
211
100
AcDbSymbolTableRecord
100
AcDbBlockTableRecord
  2
*Paper_Space
  0
ENDTAB
  0
TABLE
  2
DIMSTYLE
  5
A
100
AcDbSymbolTable
 70
1
100
AcDbDimStyleTable
 71
0
  0
DIMSTYLE
105
212
100
AcDbSymbolTableRecord
100
AcDbDimStyleTableRecord
  2
STANDARD
 70
0
  3

  4

 40
1.0
 41
3.5
 42
0.0625
 43
0.38
 44
0.18
 45
0.0
 46
0.0
 47
0.005
 48
0.005
140
3.5
141
0.09
142
0.0
143
25.4
144
1.0
145
0.0
146
1.0
147
0.09
 71
1.0
 72
0.0
 73
0
 74
0
 75
0
 76
0
 77
1
 78
8
170
0
171
2
172
0
173
0
174
0
175
0
176
0
177
0
178
5
270
2
271
3
272
3
273
2
274
2
275
0
280
0
281
0
282
0
283
1
284
8
285
0
286
0
287
3
288
0
340
11
  0
ENDTAB
  0
ENDSEC
  0
SECTION
  2
BLOCKS
  0
BLOCK
  5
20
100
AcDbEntity
  8
0
100
AcDbBlockBegin
  2
*Model_Space
 70
0
 10
0.0
 20
0.0
 30
0.0
  3
*Model_Space
  1

  0
ENDBLK
  5
21
100
AcDbEntity
  8
0
100
AcDbBlockEnd
  0
BLOCK
  5
1C
100
AcDbEntity
  8
0
100
AcDbBlockBegin
  2
*Paper_Space
 70
0
 10
0.0
 20
0.0
 30
0.0
  3
*Paper_Space
  1

  0
ENDBLK
  5
1D
100
AcDbEntity
  8
0
100
AcDbBlockEnd
  0
ENDSEC
  0
SECTION
  2
ENTITIES
  0
LINE
  5
213
100
AcDbEntity
  8
0
100
AcDbLine
 62
7
  6
CONTINUOUS
 10
0.0
 20
0.0
 11
0.0
 21
210.0
  0
LINE
  5
214
100
AcDbEntity
  8
0
100
AcDbLine
 62
7
  6
CONTINUOUS
 10
0.0
 20
0.0
 11
297.0
 21
0.0
  0
LINE
  5
215
100
AcDbEntity
  8
0
100
AcDbLine
 62
7
  6
CONTINUOUS
 10
0.0
 20
210.0
 11
297.0
 21
210.0
  0
LINE
  5
216
100
AcDbEntity
  8
0
100
AcDbLine
 62
7
  6
CONTINUOUS
 10
297.0
 20
0.0
 11
297.0
 21
210.0
  0
LINE
  5
217
100
AcDbEntity
  8
RUNDUNGEN
100
AcDbLine
 62
7
  6
CONTINUOUS
 10
34.7968294205
 20
108.6303910236
 11
34.7968294205
 21
102.6303910236
  0
LINE
  5
218
100
AcDbEntity
  8
RUNDUNGEN
100
AcDbLine
 62
7
  6
CONTINUOUS
 10
42.0645978897
 20
138.0300931237
 11
41.1101560587
 21
135.0926232131
  0
LINE
  5
219
100
AcDbEntity
  8
RUNDUNGEN
100
AcDbLine
 62
7
  6
CONTINUOUS
 10
37.5636545724
 20
124.1776139741
 11
36.6092133937
 21
121.2401460713
  0
LINE
  5
21A
100
AcDbEntity
  8
RUNDUNGEN
100
AcDbLine
 62
7
  6
CONTINUOUS
 10
51.5368873685
 20
154.1509917817
 11
48.0101758548
 21
149.2968898154
  0
LINE
  5
21B
100
AcDbEntity
  8
RUNDUNGEN
100
AcDbLine
 62
7
  6
CONTINUOUS
 10
74.6973546091
 20
173.6639688969
 11
72.1985857339
 21
171.8485070414
  0
LINE
  5
21C
100
AcDbEntity
  8
RUNDUNGEN
100
AcDbLine
 62
7
  6
CONTINUOUS
 10
62.9137243013
 20
165.102660344
 11
60.4149648553
 21
163.2872053392
  0
LINE
  5
21D
100
AcDbEntity
  8
RUNDUNGEN
100
AcDbLine
 62
7
  6
CONTINUOUS
 10
91.8362165364
 20
181.1383722047
 11
86.1298774386
 21
179.2842702384
  0
LINE
  5
21E
100
AcDbEntity
  8
RUNDUNGEN
100
AcDbLine
 62
7
  6
CONTINUOUS
 10
104.3888614885
 20
27.9494608256
 11
107.4775002262
 21
27.9494608256
  0
LINE
  5
21F
100
AcDbEntity
  8
RUNDUNGEN
100
AcDbLine
 62
7
  6
CONTINUOUS
 10
118.9542201182
 20
27.9494608256
 11
122.0428594181
 21
27.9494608256
  0
LINE
  5
220
100
AcDbEntity
  8
RUNDUNGEN
100
AcDbLine
 62
7
  6
CONTINUOUS
 10
86.1298774386
 20
31.9765118088
 11
91.8362165364
 21
30.1224098425
  0
LINE
  5
221
100
AcDbEntity
  8
RUNDUNGEN
100
AcDbLine
 62
7
  6
CONTINUOUS
 10
60.4149631474
 20
47.9735779488
 11
62.9137243013
 21
46.1581217032
  0
LINE
  5
222
100
AcDbEntity
  8
RUNDUNGEN
100
AcDbLine
 62
7
  6
CONTINUOUS
 10
72.1985857336
 20
39.412275006
 11
74.6973472574
 21
37.5968184916
  0
LINE
  5
223
100
AcDbEntity
  8
RUNDUNGEN
100
AcDbLine
 62
7
  6
CONTINUOUS
 10
48.0101758548
 20
61.9638922318
 11
51.5368873685
 21
57.1097902655
  0
LINE
  5
224
100
AcDbEntity
  8
RUNDUNGEN
100
AcDbLine
 62
7
  6
CONTINUOUS
 10
36.6092130412
 20
90.0206370609
 11
37.5636545724
 21
87.083168073
  0
LINE
  5
225
100
AcDbEntity
  8
RUNDUNGEN
100
AcDbLine
 62
7
  6
CONTINUOUS
 10
41.1101560587
 20
76.1681588341
 11
42.064598031
 21
73.2306884888
  0
LINE
  5
226
100
AcDbEntity
  8
RUNDUNGEN
100
AcDbLine
 62
7
  6
CONTINUOUS
 10
39.2544157655
 20
96.4149055294
 11
39.2340267721
 21
96.8003857376
  0
LINE
  5
227
100
AcDbEntity
  8
RUNDUNGEN
100
AcDbLine
 62
7
  6
CONTINUOUS
 10
39.2544157129
 20
114.8458764984
 11
39.2340267222
 21
114.4603963312
  0
LINE
  5
228
100
AcDbEntity
  8
RUNDUNGEN
100
AcDbLine
 62
7
  6
CONTINUOUS
 10
39.2003275354
 20
96.0326377716
 11
39.2544157655
 21
96.4149055294
  0
LWPOLYLINE
  5
229
100
AcDbEntity
  8
RUNDUNGEN
100
AcDbPolyline
 62
7
  6
CONTINUOUS
 90
3
 70
0
 10
46.7255974667
 20
124.8685969798
 10
46.7227196673
 20
124.8490240798
 10
46.5973531659
 20
124.0624189038
  0
LINE
  5
22A
100
AcDbEntity
  8
RUNDUNGEN
100
AcDbLine
 62
7
  6
CONTINUOUS
 10
46.5973531659
 20
124.0624189038
 11
46.5672130264
 21
123.8685969798
  0
LINE
  5
22B
100
AcDbEntity
  8
RUNDUNGEN
100
AcDbLine
 62
7
  6
CONTINUOUS
 10
48.3170387903
 20
142.3303420259
 11
48.3893611641
 21
142.7094329354
  0
LINE
  5
22C
100
AcDbEntity
  8
RUNDUNGEN
100
AcDbLine
 62
7
  6
CONTINUOUS
 10
39.2340267222
 20
114.4603963312
 11
39.1399207525
 21
114.0860771003
  0
LINE
  5
22D
100
AcDbEntity
  8
RUNDUNGEN
100
AcDbLine
 62
7
  6
CONTINUOUS
 10
48.1731527917
 20
141.9721972971
 11
48.3170387903
 21
142.3303420259
  0
LINE
  5
22E
100
AcDbEntity
  8
RUNDUNGEN
100
AcDbLine
 62
7
  6
CONTINUOUS
 10
39.1399207525
 20
114.0860771003
 11
38.9756067392
 21
113.7368760926
  0
LWPOLYLINE
  5
22F
100
AcDbEntity
  8
RUNDUNGEN
100
AcDbPolyline
 62
7
  6
CONTINUOUS
 90
3
 70
0
 10
48.1161739414
 20
129.1483513031
 10
48.12495925
 20
129.1660769482
 10
48.4872642453
 20
129.8754425472
  0
LINE
  5
230
100
AcDbEntity
  8
RUNDUNGEN
100
AcDbLine
 62
7
  6
CONTINUOUS
 10
48.4872642453
 20
129.8754425472
 11
48.5758234898
 21
130.0504643357
  0
LINE
  5
231
100
AcDbEntity
  8
RUNDUNGEN
100
AcDbLine
 62
7
  6
CONTINUOUS
 10
58.9774541929
 20
156.9003750619
 11
58.796521131
 21
156.5593216755
  0
LINE
  5
232
100
AcDbEntity
  8
RUNDUNGEN
100
AcDbLine
 62
7
  6
CONTINUOUS
 10
47.9630682525
 20
141.6483529081
 11
48.1731527917
 21
141.9721972971
  0
LINE
  5
233
100
AcDbEntity
  8
RUNDUNGEN
100
AcDbLine
 62
7
  6
CONTINUOUS
 10
58.796521131
 20
156.5593216755
 11
58.5534465336
 21
156.2594460173
  0
LINE
  5
234
100
AcDbEntity
  8
RUNDUNGEN
100
AcDbLine
 62
7
  6
CONTINUOUS
 10
47.6946186045
 20
141.3708840597
 11
47.9630682525
 21
141.6483529081
  0
LWPOLYLINE
  5
235
100
AcDbEntity
  8
RUNDUNGEN
100
AcDbPolyline
 62
7
  6
CONTINUOUS
 90
3
 70
0
 10
70.7320414246
 20
160.2764224228
 10
70.7182085741
 20
160.2622791421
 10
70.1544300221
 20
159.6995907675
  0
LINE
  5
236
100
AcDbEntity
  8
RUNDUNGEN
100
AcDbLine
 62
7
  6
CONTINUOUS
 10
70.1544300221
 20
159.6995907675
 11
70.0161204684
 21
159.5605014666
  0
LINE
  5
237
100
AcDbEntity
  8
RUNDUNGEN
100
AcDbLine
 62
7
  6
CONTINUOUS
 10
82.2833007771
 20
173.4678451696
 11
82.5646348606
 21
173.7320261128
  0
LINE
  5
238
100
AcDbEntity
  8
RUNDUNGEN
100
AcDbLine
 62
7
  6
CONTINUOUS
 10
58.5534465336
 20
156.2594460173
 11
58.2572938813
 21
156.0119294994
  0
LINE
  5
239
100
AcDbEntity
  8
RUNDUNGEN
100
AcDbLine
 62
7
  6
CONTINUOUS
 10
81.9563823572
 20
173.2626740949
 11
82.2833007771
 21
173.4678451696
  0
LINE
  5
23A
100
AcDbEntity
  8
RUNDUNGEN
100
AcDbLine
 62
7
  6
CONTINUOUS
 10
58.2572938813
 20
156.0119294994
 11
57.9191058497
 21
155.8260013035
  0
LWPOLYLINE
  5
23B
100
AcDbEntity
  8
RUNDUNGEN
100
AcDbPolyline
 62
7
  6
CONTINUOUS
 90
3
 70
0
 10
74.3726178993
 20
162.9214560581
 10
74.390144236
 20
162.9306325314
 10
75.1002097719
 20
163.2915638231
  0
LINE
  5
23C
100
AcDbEntity
  8
RUNDUNGEN
100
AcDbLine
 62
7
  6
CONTINUOUS
 10
75.1002097719
 20
163.2915638231
 11
75.2747309319
 21
163.3811056065
  0
LINE
  5
23D
100
AcDbEntity
  8
RUNDUNGEN
100
AcDbLine
 62
7
  6
CONTINUOUS
 10
99.4718084818
 20
178.9892145612
 11
99.124964437
 21
178.8196463649
  0
LINE
  5
23E
100
AcDbEntity
  8
RUNDUNGEN
100
AcDbLine
 62
7
  6
CONTINUOUS
 10
81.5960694259
 20
173.1241631137
 11
81.9563823572
 21
173.2626740949
  0
LINE
  5
23F
100
AcDbEntity
  8
RUNDUNGEN
100
AcDbLine
 62
7
  6
CONTINUOUS
 10
127.3067559257
 20
32.4411356925
 11
127.6796698966
 21
32.540864533
  0
LINE
  5
240
100
AcDbEntity
  8
RUNDUNGEN
100
AcDbLine
 62
7
  6
CONTINUOUS
 10
145.2159233767
 20
38.2033052646
 11
144.8356509523
 21
38.136618995
  0
LWPOLYLINE
  5
241
100
AcDbEntity
  8
RUNDUNGEN
100
AcDbPolyline
 62
7
  6
CONTINUOUS
 90
3
 70
0
 10
115.4658601722
 20
36.4494608256
 10
115.4853643952
 20
36.4527722345
 10
116.272210753
 20
36.5766159736
  0
LINE
  5
242
100
AcDbEntity
  8
RUNDUNGEN
100
AcDbLine
 62
7
  6
CONTINUOUS
 10
116.272210753
 20
36.5766159736
 11
116.4658601722
 21
36.607845266
  0
LINE
  5
243
100
AcDbEntity
  8
RUNDUNGEN
100
AcDbLine
 62
7
  6
CONTINUOUS
 10
98.3669713457
 20
32.567035496
 11
97.9840856234
 21
32.5186726275
  0
LINE
  5
244
100
AcDbEntity
  8
RUNDUNGEN
100
AcDbLine
 62
7
  6
CONTINUOUS
 10
127.6796698966
 20
32.540864533
 11
128.0647489841
 21
32.567035441
  0
LINE
  5
245
100
AcDbEntity
  8
RUNDUNGEN
100
AcDbLine
 62
7
  6
CONTINUOUS
 10
98.7520504426
 20
32.5408645872
 11
98.3669713457
 21
32.567035496
  0
LINE
  5
246
100
AcDbEntity
  8
RUNDUNGEN
100
AcDbLine
 62
7
  6
CONTINUOUS
 10
128.0647489841
 20
32.567035441
 11
128.4476347006
 21
32.5186725738
  0
LWPOLYLINE
  5
247
100
AcDbEntity
  8
RUNDUNGEN
100
AcDbPolyline
 62
7
  6
CONTINUOUS
 90
3
 70
0
 10
110.9658601722
 20
36.4494608256
 10
110.9462872722
 20
36.452338625
 10
110.1596820962
 20
36.5777051264
  0
LINE
  5
248
100
AcDbEntity
  8
RUNDUNGEN
100
AcDbLine
 62
7
  6
CONTINUOUS
 10
110.1596820962
 20
36.5777051264
 11
109.9658601722
 21
36.607845266
  0
LINE
  5
249
100
AcDbEntity
  8
RUNDUNGEN
100
AcDbLine
 62
7
  6
CONTINUOUS
 10
81.2157969576
 20
38.2033052143
 11
81.5960693929
 21
38.1366189396
  0
LINE
  5
24A
100
AcDbEntity
  8
RUNDUNGEN
100
AcDbLine
 62
7
  6
CONTINUOUS
 10
99.1249644519
 20
32.4411357368
 11
98.7520504426
 21
32.5408645872
  0
LINE
  5
24B
100
AcDbEntity
  8
RUNDUNGEN
100
AcDbLine
 62
7
  6
CONTINUOUS
 10
81.5960693929
 20
38.1366189396
 11
81.9563822745
 21
37.9981079339
  0
LINE
  5
24C
100
AcDbEntity
  8
RUNDUNGEN
100
AcDbLine
 62
7
  6
CONTINUOUS
 10
99.4718085115
 20
32.2715675394
 11
99.1249644519
 21
32.4411357368
  0
LWPOLYLINE
  5
24D
100
AcDbEntity
  8
RUNDUNGEN
100
AcDbPolyline
 62
7
  6
CONTINUOUS
 90
3
 70
0
 10
74.3726178993
 20
48.3393259891
 10
74.3903435444
 20
48.3305406805
 10
75.0997091434
 20
47.9682356852
  0
LINE
  5
24E
100
AcDbEntity
  8
RUNDUNGEN
100
AcDbLine
 62
7
  6
CONTINUOUS
 10
75.0997091434
 20
47.9682356852
 11
75.2747309319
 21
47.8796764407
  0
LINE
  5
24F
100
AcDbEntity
  8
RUNDUNGEN
100
AcDbLine
 62
7
  6
CONTINUOUS
 10
58.2572939018
 20
55.2488526009
 11
57.9191058647
 21
55.4347807992
  0
LINE
  5
250
100
AcDbEntity
  8
RUNDUNGEN
100
AcDbLine
 62
7
  6
CONTINUOUS
 10
81.9563822745
 20
37.9981079339
 11
82.2833006742
 21
37.7929368347
  0
LINE
  5
251
100
AcDbEntity
  8
RUNDUNGEN
100
AcDbLine
 62
7
  6
CONTINUOUS
 10
58.5534465611
 20
55.0013360767
 11
58.2572939018
 21
55.2488526009
  0
LINE
  5
252
100
AcDbEntity
  8
RUNDUNGEN
100
AcDbLine
 62
7
  6
CONTINUOUS
 10
82.2833006742
 20
37.7929368347
 11
82.5646347456
 21
37.5287558757
  0
LWPOLYLINE
  5
253
100
AcDbEntity
  8
RUNDUNGEN
100
AcDbPolyline
 62
7
  6
CONTINUOUS
 90
3
 70
0
 10
70.7320414246
 20
50.9843596244
 10
70.717898144
 20
50.998192475
 10
70.1552097694
 20
51.561971027
  0
LINE
  5
254
100
AcDbEntity
  8
RUNDUNGEN
100
AcDbLine
 62
7
  6
CONTINUOUS
 10
70.1552097694
 20
51.561971027
 11
70.0161204684
 21
51.7002805806
  0
LINE
  5
255
100
AcDbEntity
  8
RUNDUNGEN
100
AcDbLine
 62
7
  6
CONTINUOUS
 10
47.6946185667
 20
69.8898979526
 11
47.9630682206
 21
69.6124290938
  0
LINE
  5
256
100
AcDbEntity
  8
RUNDUNGEN
100
AcDbLine
 62
7
  6
CONTINUOUS
 10
58.7965211847
 20
54.701460387
 11
58.5534465611
 21
55.0013360767
  0
LINE
  5
257
100
AcDbEntity
  8
RUNDUNGEN
100
AcDbLine
 62
7
  6
CONTINUOUS
 10
47.9630682206
 20
69.6124290938
 11
48.1731527387
 21
69.2885847383
  0
LINE
  5
258
100
AcDbEntity
  8
RUNDUNGEN
100
AcDbLine
 62
7
  6
CONTINUOUS
 10
58.9774542376
 20
54.3604070104
 11
58.7965211847
 21
54.701460387
  0
LWPOLYLINE
  5
259
100
AcDbEntity
  8
RUNDUNGEN
100
AcDbPolyline
 62
7
  6
CONTINUOUS
 90
3
 70
0
 10
48.1161739414
 20
82.1124307441
 10
48.1253504147
 20
82.0949044074
 10
48.4862817064
 20
81.3848388715
  0
LINE
  5
25A
100
AcDbEntity
  8
RUNDUNGEN
100
AcDbLine
 62
7
  6
CONTINUOUS
 10
48.4862817064
 20
81.3848388715
 11
48.5758234898
 21
81.2103177115
  0
LINE
  5
25B
100
AcDbEntity
  8
RUNDUNGEN
100
AcDbLine
 62
7
  6
CONTINUOUS
 10
39.1399208002
 20
97.1747049776
 11
38.9756067838
 21
97.5239059905
  0
LINE
  5
25C
100
AcDbEntity
  8
RUNDUNGEN
100
AcDbLine
 62
7
  6
CONTINUOUS
 10
48.1731527387
 20
69.2885847383
 11
48.3170387335
 21
68.9304400182
  0
LINE
  5
25D
100
AcDbEntity
  8
RUNDUNGEN
100
AcDbLine
 62
7
  6
CONTINUOUS
 10
39.2340267721
 20
96.8003857376
 11
39.1399208002
 21
97.1747049776
  0
LINE
  5
25E
100
AcDbEntity
  8
RUNDUNGEN
100
AcDbLine
 62
7
  6
CONTINUOUS
 10
48.3170387335
 20
68.9304400182
 11
48.3893611067
 21
68.5513491147
  0
LWPOLYLINE
  5
25F
100
AcDbEntity
  8
RUNDUNGEN
100
AcDbPolyline
 62
7
  6
CONTINUOUS
 90
3
 70
0
 10
46.7255974667
 20
86.3921850674
 10
46.7222860579
 20
86.4116892904
 10
46.5984423187
 20
87.1985356482
  0
LINE
  5
260
100
AcDbEntity
  8
RUNDUNGEN
100
AcDbLine
 62
7
  6
CONTINUOUS
 10
46.5984423187
 20
87.1985356482
 11
46.5672130264
 21
87.3921850674
  0
LINE
  5
261
100
AcDbEntity
  8
RUNDUNGEN
100
AcDbLine
 62
7
  6
CONTINUOUS
 10
39.2003274841
 20
115.2281442694
 11
39.2544157129
 21
114.8458764984
  0
LINE
  5
262
100
AcDbEntity
  8
RUNDUNGEN
100
AcDbLine
 62
7
  6
CONTINUOUS
 10
47.8243694549
 20
148.6074855967
 11
48.3874231575
 21
143.0953355009
  0
LINE
  5
263
100
AcDbEntity
  8
RUNDUNGEN
100
AcDbLine
 62
7
  6
CONTINUOUS
 10
48.3893611641
 20
142.7094329354
 11
48.3874232256
 21
143.095334845
  0
LINE
  5
264
100
AcDbEntity
  8
RUNDUNGEN
100
AcDbLine
 62
7
  6
CONTINUOUS
 10
48.3893611067
 20
68.5513491147
 11
48.3874231706
 21
68.1654472078
  0
LINE
  5
265
100
AcDbEntity
  8
RUNDUNGEN
100
AcDbLine
 62
7
  6
CONTINUOUS
 10
48.3874231487
 20
68.16544646
 11
47.8243694549
 21
62.6532964505
  0
LINE
  5
266
100
AcDbEntity
  8
RUNDUNGEN
100
AcDbLine
 62
7
  6
CONTINUOUS
 10
59.0859930956
 20
157.2686321731
 11
59.929395647
 21
161.4656696956
  0
LINE
  5
267
100
AcDbEntity
  8
RUNDUNGEN
100
AcDbLine
 62
7
  6
CONTINUOUS
 10
59.0894992069
 20
157.2698892379
 11
58.9774541929
 21
156.9003750619
  0
LINE
  5
268
100
AcDbEntity
  8
RUNDUNGEN
100
AcDbLine
 62
7
  6
CONTINUOUS
 10
39.0737788718
 20
95.6678360998
 11
39.2003275354
 21
96.0326377716
  0
LINE
  5
269
100
AcDbEntity
  8
RUNDUNGEN
100
AcDbLine
 62
7
  6
CONTINUOUS
 10
37.2870721692
 20
91.7797448846
 11
39.0716812181
 21
95.6709139853
  0
LINE
  5
26A
100
AcDbEntity
  8
RUNDUNGEN
100
AcDbLine
 62
7
  6
CONTINUOUS
 10
85.5743352709
 20
178.8357447711
 11
82.7898947863
 21
174.0453670674
  0
LINE
  5
26B
100
AcDbEntity
  8
RUNDUNGEN
100
AcDbLine
 62
7
  6
CONTINUOUS
 10
82.5646348606
 20
173.7320261128
 11
82.7898944884
 21
174.045366395
  0
LINE
  5
26C
100
AcDbEntity
  8
RUNDUNGEN
100
AcDbLine
 62
7
  6
CONTINUOUS
 10
38.9756067392
 20
113.7368760926
 11
38.7472114662
 21
113.425813982
  0
LINE
  5
26D
100
AcDbEntity
  8
RUNDUNGEN
100
AcDbLine
 62
7
  6
CONTINUOUS
 10
38.7472110087
 20
113.4258133896
 11
35.051730518
 21
109.2973450141
  0
LINE
  5
26E
100
AcDbEntity
  8
0
100
AcDbLine
 62
7
  6
CONTINUOUS
 10
89.0501461699
 20
167.9153393622
 11
88.9342028933
 21
167.8007470528
  0
LINE
  5
26F
100
AcDbEntity
  8
0
100
AcDbLine
 62
7
  6
CONTINUOUS
 10
90.4352996689
 20
168.637368996
 11
90.3162716801
 21
168.5259841737
  0
LINE
  5
270
100
AcDbEntity
  8
RUNDUNGEN
100
AcDbLine
 62
7
  6
CONTINUOUS
 10
102.9253384795
 20
182.1230602265
 11
99.7760675142
 21
179.2233369037
  0
LINE
  5
271
100
AcDbEntity
  8
RUNDUNGEN
100
AcDbLine
 62
7
  6
CONTINUOUS
 10
99.7796497853
 20
179.2222994049
 11
99.4718084818
 21
178.9892145612
  0
LINE
  5
272
100
AcDbEntity
  8
0
100
AcDbLine
 62
7
  6
CONTINUOUS
 10
91.641912628
 20
169.1280686588
 11
91.4727069814
 21
169.0037963223
  0
LINE
  5
273
100
AcDbEntity
  8
0
100
AcDbLine
 62
7
  6
CONTINUOUS
 10
91.6489011273
 20
168.7936928807
 11
91.8181070451
 21
168.9179653085
  0
LINE
  5
274
100
AcDbEntity
  8
0
100
AcDbLine
 62
7
  6
CONTINUOUS
 10
92.6653593331
 20
167.6540676688
 11
92.4961534224
 21
167.5297952199
  0
LINE
  5
275
100
AcDbEntity
  8
0
100
AcDbLine
 62
7
  6
CONTINUOUS
 10
92.6723478466
 20
167.3196918483
 11
92.8415534914
 21
167.4439641901
  0
LINE
  5
276
100
AcDbEntity
  8
0
100
AcDbLine
 62
7
  6
CONTINUOUS
 10
89.0287825749
 20
167.4262776326
 11
89.237695225
 21
167.5777034205
  0
LINE
  5
277
100
AcDbEntity
  8
RUNDUNGEN
100
AcDbLine
 62
7
  6
CONTINUOUS
 10
47.3778135422
 20
141.1501367459
 11
47.6946186045
 21
141.3708840597
  0
LINE
  5
278
100
AcDbEntity
  8
0
100
AcDbLine
 62
7
  6
CONTINUOUS
 10
90.648267663
 20
168.7830358302
 11
90.4352996689
 21
168.637368996
  0
LINE
  5
279
100
AcDbEntity
  8
0
100
AcDbLine
 62
7
  6
CONTINUOUS
 10
94.9843321559
 20
170.1669052145
 11
94.8092176952
 21
170.0511075889
  0
LINE
  5
27A
100
AcDbEntity
  8
0
100
AcDbLine
 62
7
  6
CONTINUOUS
 10
94.8786286537
 20
169.8054045748
 11
95.0537431145
 21
169.9212022005
  0
LINE
  5
27B
100
AcDbEntity
  8
0
100
AcDbLine
 62
7
  6
CONTINUOUS
 10
90.4977402993
 20
168.3204191634
 11
90.7576784304
 21
168.4832270525
  0
LINE
  5
27C
100
AcDbEntity
  8
RUNDUNGEN
100
AcDbLine
 62
7
  6
CONTINUOUS
 10
43.6469747802
 20
139.0548047267
 11
47.3779255773
 21
141.1538597414
  0
LINE
  5
27D
100
AcDbEntity
  8
RUNDUNGEN
100
AcDbLine
 62
7
  6
CONTINUOUS
 10
133.8824240982
 20
181.1020469724
 11
128.8140509932
 21
178.8632030242
  0
LINE
  5
27E
100
AcDbEntity
  8
0
100
AcDbLine
 62
7
  6
CONTINUOUS
 10
88.4175038675
 20
168.9691728636
 11
87.3018719185
 21
168.5271713316
  0
LINE
  5
27F
100
AcDbEntity
  8
0
100
AcDbLine
 62
7
  6
CONTINUOUS
 10
87.6983334906
 20
168.3409611253
 11
88.5815420726
 21
168.6908789872
  0
LINE
  5
280
100
AcDbEntity
  8
0
100
AcDbLine
 62
7
  6
CONTINUOUS
 10
88.9342028933
 20
167.8007470528
 11
88.0509943113
 21
167.4508291909
  0
LINE
  5
281
100
AcDbEntity
  8
0
100
AcDbLine
 62
7
  6
CONTINUOUS
 10
88.1920586131
 20
167.0947764836
 11
89.0287825749
 21
167.4262776326
  0
LINE
  5
282
100
AcDbEntity
  8
0
100
AcDbLine
 62
7
  6
CONTINUOUS
 10
88.4068757484
 20
165.738091459
 11
88.6857837356
 21
165.848591842
  0
LINE
  5
283
100
AcDbEntity
  8
0
100
AcDbLine
 62
7
  6
CONTINUOUS
 10
90.0376569568
 20
168.5602025081
 11
89.8028068093
 21
168.4744974294
  0
LINE
  5
284
100
AcDbEntity
  8
0
100
AcDbLine
 62
7
  6
CONTINUOUS
 10
90.5030357817
 20
166.5557210845
 11
90.7378859292
 21
166.6414261631
  0
LINE
  5
285
100
AcDbEntity
  8
0
100
AcDbLine
 62
7
  6
CONTINUOUS
 10
92.0210317181
 20
169.2556181322
 11
91.641912628
 21
169.1280686588
  0
LINE
  5
286
100
AcDbEntity
  8
0
100
AcDbLine
 62
7
  6
CONTINUOUS
 10
91.8181070451
 20
168.9179653085
 11
92.0076663189
 21
168.9817399539
  0
LINE
  5
287
100
AcDbEntity
  8
0
100
AcDbLine
 62
7
  6
CONTINUOUS
 10
92.4961534224
 20
167.5297952199
 11
92.3065941486
 21
167.4660205744
  0
LINE
  5
288
100
AcDbEntity
  8
0
100
AcDbLine
 62
7
  6
CONTINUOUS
 10
92.2932287566
 20
167.192142375
 11
92.6723478466
 21
167.3196918483
  0
LINE
  5
289
100
AcDbEntity
  8
RUNDUNGEN
100
AcDbLine
 62
7
  6
CONTINUOUS
 10
128.4476347209
 20
178.7421094199
 11
128.8140503908
 21
178.8632027573
  0
LINE
  5
28A
100
AcDbEntity
  8
RUNDUNGEN
100
AcDbLine
 62
7
  6
CONTINUOUS
 10
57.9191058497
 20
155.8260013035
 11
57.5514924713
 21
155.7085941428
  0
LINE
  5
28B
100
AcDbEntity
  8
0
100
AcDbLine
 62
7
  6
CONTINUOUS
 10
92.9636179835
 20
170.5653311308
 11
92.7250932585
 21
170.4904575645
  0
LINE
  5
28C
100
AcDbEntity
  8
0
100
AcDbLine
 62
7
  6
CONTINUOUS
 10
93.6235753691
 20
167.6281630484
 11
93.8621000941
 21
167.7030366147
  0
LINE
  5
28D
100
AcDbEntity
  8
0
100
AcDbLine
 62
7
  6
CONTINUOUS
 10
93.6137712931
 20
170.7645439081
 11
93.3745099913
 21
170.692058566
  0
LINE
  5
28E
100
AcDbEntity
  8
0
100
AcDbLine
 62
7
  6
CONTINUOUS
 10
93.4670443889
 20
170.3866188757
 11
93.7063056907
 21
170.4591042177
  0
LINE
  5
28F
100
AcDbEntity
  8
0
100
AcDbLine
 62
7
  6
CONTINUOUS
 10
93.8913745377
 20
169.8482246659
 11
93.6521132359
 21
169.7757393239
  0
LINE
  5
290
100
AcDbEntity
  8
0
100
AcDbLine
 62
7
  6
CONTINUOUS
 10
94.2443334324
 20
167.8209251345
 11
94.4835947342
 21
167.8934104766
  0
LINE
  5
291
100
AcDbEntity
  8
RUNDUNGEN
100
AcDbLine
 62
7
  6
CONTINUOUS
 10
168.8802285911
 20
55.5521881146
 11
174.2965879365
 21
56.7200402586
  0
LINE
  5
292
100
AcDbEntity
  8
RUNDUNGEN
100
AcDbLine
 62
7
  6
CONTINUOUS
 10
80.8320232904
 20
38.1927341421
 11
76.5798277889
 21
37.6979075448
  0
LINE
  5
293
100
AcDbEntity
  8
RUNDUNGEN
100
AcDbLine
 62
7
  6
CONTINUOUS
 10
80.8297442792
 20
38.195680195
 11
81.2157969576
 21
38.2033052143
  0
LINE
  5
294
100
AcDbEntity
  8
RUNDUNGEN
100
AcDbLine
 62
7
  6
CONTINUOUS
 10
145.6019760715
 20
38.1956802496
 11
145.2159233767
 21
38.2033052646
  0
LINE
  5
295
100
AcDbEntity
  8
RUNDUNGEN
100
AcDbLine
 62
7
  6
CONTINUOUS
 10
149.8518865959
 20
37.6979082383
 11
145.5996971114
 21
38.1927341354
  0
LINE
  5
296
100
AcDbEntity
  8
RUNDUNGEN
100
AcDbLine
 62
7
  6
CONTINUOUS
 10
52.1351324079
 20
56.7200402586
 11
57.5514918381
 21
55.5521880964
  0
LINE
  5
297
100
AcDbEntity
  8
RUNDUNGEN
100
AcDbLine
 62
7
  6
CONTINUOUS
 10
57.9191058647
 20
55.4347807992
 11
57.5514924829
 21
55.5521879584
  0
LINE
  5
298
100
AcDbEntity
  8
RUNDUNGEN
100
AcDbLine
 62
7
  6
CONTINUOUS
 10
128.4476347006
 20
32.5186725738
 11
128.8140503686
 21
32.3975792396
  0
LINE
  5
299
100
AcDbEntity
  8
RUNDUNGEN
100
AcDbLine
 62
7
  6
CONTINUOUS
 10
128.814051073
 20
32.3975789877
 11
133.8824240982
 21
30.1587350748
  0
LINE
  5
29A
100
AcDbEntity
  8
RUNDUNGEN
100
AcDbLine
 62
7
  6
CONTINUOUS
 10
47.3779256276
 20
70.1069222774
 11
43.6469754272
 21
72.2059769565
  0
LINE
  5
29B
100
AcDbEntity
  8
RUNDUNGEN
100
AcDbLine
 62
7
  6
CONTINUOUS
 10
47.3778135153
 20
70.1106452534
 11
47.6946185667
 21
69.8898979526
  0
LINE
  5
29C
100
AcDbEntity
  8
RUNDUNGEN
100
AcDbLine
 62
7
  6
CONTINUOUS
 10
99.779649831
 20
32.038482692
 11
99.4718085115
 21
32.2715675394
  0
LINE
  5
29D
100
AcDbEntity
  8
RUNDUNGEN
100
AcDbLine
 62
7
  6
CONTINUOUS
 10
102.9253166225
 20
29.1377419457
 11
99.7760744311
 21
32.0374387747
  0
LINE
  5
29E
100
AcDbEntity
  8
RUNDUNGEN
100
AcDbLine
 62
7
  6
CONTINUOUS
 10
35.051730518
 20
101.9634370331
 11
38.7472110672
 21
97.8349685923
  0
LINE
  5
29F
100
AcDbEntity
  8
RUNDUNGEN
100
AcDbLine
 62
7
  6
CONTINUOUS
 10
38.9756067838
 20
97.5239059905
 11
38.7472115072
 21
97.8349681019
  0
LINE
  5
2A0
100
AcDbEntity
  8
RUNDUNGEN
100
AcDbLine
 62
7
  6
CONTINUOUS
 10
82.5646347456
 20
37.5287558757
 11
82.7898943721
 21
37.2154155846
  0
LINE
  5
2A1
100
AcDbEntity
  8
RUNDUNGEN
100
AcDbLine
 62
7
  6
CONTINUOUS
 10
82.7898947939
 20
37.2154149667
 11
85.5743352709
 21
32.4250372761
  0
LINE
  5
2A2
100
AcDbEntity
  8
RUNDUNGEN
100
AcDbLine
 62
7
  6
CONTINUOUS
 10
39.071681202
 20
115.589868097
 11
37.2870514402
 21
119.4810823602
  0
LINE
  5
2A3
100
AcDbEntity
  8
RUNDUNGEN
100
AcDbLine
 62
7
  6
CONTINUOUS
 10
39.0737788214
 20
115.5929459243
 11
39.2003274841
 21
115.2281442694
  0
LINE
  5
2A4
100
AcDbEntity
  8
RUNDUNGEN
100
AcDbLine
 62
7
  6
CONTINUOUS
 10
59.0894992608
 20
53.9908928201
 11
58.9774542376
 21
54.3604070104
  0
LINE
  5
2A5
100
AcDbEntity
  8
RUNDUNGEN
100
AcDbLine
 62
7
  6
CONTINUOUS
 10
59.9293858507
 20
49.7951611014
 11
59.0859931023
 21
53.9921498406
  0
LINE
  5
2A6
100
AcDbEntity
  8
0
100
AcDbLine
 62
7
  6
CONTINUOUS
 10
90.3536243269
 20
168.1319315306
 11
90.4977402993
 21
168.3204191634
  0
LINE
  5
2A7
100
AcDbEntity
  8
0
100
AcDbLine
 62
7
  6
CONTINUOUS
 10
91.4727069814
 20
169.0037963223
 11
91.3982807005
 21
168.9114112173
  0
LINE
  5
2A8
100
AcDbEntity
  8
0
100
AcDbLine
 62
7
  6
CONTINUOUS
 10
92.8415534914
 20
167.4439641901
 11
92.9159794994
 21
167.5363492092
  0
LINE
  5
2A9
100
AcDbEntity
  8
0
100
AcDbLine
 62
7
  6
CONTINUOUS
 10
128.9059940061
 20
171.2484735578
 11
128.7739139046
 21
171.1937558416
  0
LINE
  5
2AA
100
AcDbEntity
  8
0
100
AcDbLine
 62
7
  6
CONTINUOUS
 10
89.237695225
 20
167.5777034205
 11
89.3531016879
 21
167.8293966786
  0
LINE
  5
2AB
100
AcDbEntity
  8
0
100
AcDbLine
 62
7
  6
CONTINUOUS
 10
90.3162716801
 20
168.5259841737
 11
90.2191258448
 21
168.3546375958
  0
LINE
  5
2AC
100
AcDbEntity
  8
0
100
AcDbLine
 62
7
  6
CONTINUOUS
 10
94.8092176952
 20
170.0511075889
 11
94.6995726365
 21
169.8874771388
  0
LINE
  5
2AD
100
AcDbEntity
  8
0
100
AcDbLine
 62
7
  6
CONTINUOUS
 10
94.768983595
 20
169.6417741248
 11
94.8786286537
 21
169.8054045748
  0
LINE
  5
2AE
100
AcDbEntity
  8
0
100
AcDbLine
 62
7
  6
CONTINUOUS
 10
128.7705767473
 20
170.934498183
 11
128.8745924186
 21
170.9960090591
  0
LINE
  5
2AF
100
AcDbEntity
  8
0
100
AcDbLine
 62
7
  6
CONTINUOUS
 10
129.0163831053
 20
169.6180161851
 11
128.9123674271
 21
169.5565052804
  0
LINE
  5
2B0
100
AcDbEntity
  8
0
100
AcDbLine
 62
7
  6
CONTINUOUS
 10
131.5851670088
 20
168.884492207
 11
131.4787312886
 21
168.8272708369
  0
LINE
  5
2B1
100
AcDbEntity
  8
0
100
AcDbLine
 62
7
  6
CONTINUOUS
 10
132.6941050864
 20
169.917439478
 11
132.8016298335
 21
169.9725867287
  0
LINE
  5
2B2
100
AcDbEntity
  8
0
100
AcDbLine
 62
7
  6
CONTINUOUS
 10
132.7528065989
 20
168.5334152671
 11
132.6452815359
 21
168.4782681133
  0
LINE
  5
2B3
100
AcDbEntity
  8
0
100
AcDbLine
 62
7
  6
CONTINUOUS
 10
131.3284032767
 20
169.8779068367
 11
131.1548673801
 21
169.7960403691
  0
LINE
  5
2B4
100
AcDbEntity
  8
0
100
AcDbLine
 62
7
  6
CONTINUOUS
 10
131.44863945
 20
168.6168029455
 11
131.6221753496
 21
168.6986694238
  0
LINE
  5
2B5
100
AcDbEntity
  8
0
100
AcDbLine
 62
7
  6
CONTINUOUS
 10
135.1156965859
 20
169.133334175
 11
135.2252337552
 21
169.1843680487
  0
LINE
  5
2B6
100
AcDbEntity
  8
0
100
AcDbLine
 62
7
  6
CONTINUOUS
 10
135.1219205824
 20
167.7480797433
 11
135.012383413
 21
167.6970458696
  0
LINE
  5
2B7
100
AcDbEntity
  8
0
100
AcDbLine
 62
7
  6
CONTINUOUS
 10
132.8357966511
 20
170.182431554
 11
132.6607062301
 21
170.1039448009
  0
LINE
  5
2B8
100
AcDbEntity
  8
0
100
AcDbLine
 62
7
  6
CONTINUOUS
 10
132.6111153425
 20
168.2684230695
 11
132.7862054508
 21
168.3469099301
  0
LINE
  5
2B9
100
AcDbEntity
  8
0
100
AcDbLine
 62
7
  6
CONTINUOUS
 10
137.6562101813
 20
168.1543457209
 11
137.767735898
 21
168.2008738012
  0
LINE
  5
2BA
100
AcDbEntity
  8
0
100
AcDbLine
 62
7
  6
CONTINUOUS
 10
137.7175085506
 20
166.8165162914
 11
137.6059828231
 21
166.7699881836
  0
LINE
  5
2BB
100
AcDbEntity
  8
0
100
AcDbLine
 62
7
  6
CONTINUOUS
 10
128.8809656729
 20
169.3040407954
 11
129.0130459376
 21
169.3587584835
  0
LINE
  5
2BC
100
AcDbEntity
  8
0
100
AcDbLine
 62
7
  6
CONTINUOUS
 10
135.2673255882
 20
169.3927679957
 11
135.0893876374
 21
169.3209709472
  0
LINE
  5
2BD
100
AcDbEntity
  8
0
100
AcDbLine
 62
7
  6
CONTINUOUS
 10
134.9702915715
 20
167.4886458982
 11
135.148229526
 21
167.5604429571
  0
LINE
  5
2BE
100
AcDbEntity
  8
0
100
AcDbLine
 62
7
  6
CONTINUOUS
 10
138.8803576284
 20
167.7075556518
 11
138.9927741916
 21
167.7518880786
  0
LINE
  5
2BF
100
AcDbEntity
  8
0
100
AcDbLine
 62
7
  6
CONTINUOUS
 10
138.7711800971
 20
167.2965942733
 11
138.5463469708
 21
167.2079294196
  0
LINE
  5
2C0
100
AcDbEntity
  8
0
100
AcDbLine
 62
7
  6
CONTINUOUS
 10
138.6041760105
 20
167.0467807019
 11
138.7165925737
 21
167.0911131287
  0
LINE
  5
2C1
100
AcDbEntity
  8
0
100
AcDbLine
 62
7
  6
CONTINUOUS
 10
138.8829211406
 20
166.2910432723
 11
138.7705045774
 21
166.2467108454
  0
LINE
  5
2C2
100
AcDbEntity
  8
0
100
AcDbLine
 62
7
  6
CONTINUOUS
 10
139.047361715
 20
167.9573692231
 11
138.8654169144
 21
167.8964378747
  0
LINE
  5
2C3
100
AcDbEntity
  8
0
100
AcDbLine
 62
7
  6
CONTINUOUS
 10
138.7159158245
 20
166.0412301868
 11
138.8978618489
 21
166.1021610357
  0
LINE
  5
2C4
100
AcDbEntity
  8
0
100
AcDbLine
 62
7
  6
CONTINUOUS
 10
89.0960941094
 20
168.0708570765
 11
89.0501461699
 21
167.9153393622
  0
LINE
  5
2C5
100
AcDbEntity
  8
0
100
AcDbLine
 62
7
  6
CONTINUOUS
 10
90.2191258448
 20
168.3546375958
 11
90.1689498777
 21
168.2004319749
  0
LINE
  5
2C6
100
AcDbEntity
  8
0
100
AcDbLine
 62
7
  6
CONTINUOUS
 10
91.3982807005
 20
168.9114112173
 11
91.3442083181
 21
168.7585285124
  0
LINE
  5
2C7
100
AcDbEntity
  8
0
100
AcDbLine
 62
7
  6
CONTINUOUS
 10
91.5948287448
 20
168.6408101758
 11
91.6489011273
 21
168.7936928807
  0
LINE
  5
2C8
100
AcDbEntity
  8
0
100
AcDbLine
 62
7
  6
CONTINUOUS
 10
92.7194317156
 20
167.8069503737
 11
92.6653593331
 21
167.6540676688
  0
LINE
  5
2C9
100
AcDbEntity
  8
0
100
AcDbLine
 62
7
  6
CONTINUOUS
 10
92.9159794994
 20
167.5363492092
 11
92.9700521494
 21
167.6892320159
  0
LINE
  5
2CA
100
AcDbEntity
  8
0
100
AcDbLine
 62
7
  6
CONTINUOUS
 10
96.9716114609
 20
170.6958554542
 11
96.5761274816
 21
169.6082906231
  0
LINE
  5
2CB
100
AcDbEntity
  8
0
100
AcDbLine
 62
7
  6
CONTINUOUS
 10
94.6995726365
 20
169.8874771388
 11
94.6380442402
 21
169.737439618
  0
LINE
  5
2CC
100
AcDbEntity
  8
0
100
AcDbLine
 62
7
  6
CONTINUOUS
 10
94.7074551988
 20
169.4917366039
 11
94.768983595
 21
169.6417741248
  0
LINE
  5
2CD
100
AcDbEntity
  8
0
100
AcDbLine
 62
7
  6
CONTINUOUS
 10
96.6700023002
 20
169.2369953416
 11
96.8341468073
 21
169.6076875257
  0
LINE
  5
2CE
100
AcDbEntity
  8
0
100
AcDbLine
 62
7
  6
CONTINUOUS
 10
68.6417054278
 20
120.3410548362
 11
98.5051963596
 21
150.2045457679
  0
LINE
  5
2CF
100
AcDbEntity
  8
0
100
AcDbLine
 62
7
  6
CONTINUOUS
 10
128.7739139046
 20
171.1937558416
 11
128.6220115831
 21
171.0571477309
  0
LINE
  5
2D0
100
AcDbEntity
  8
0
100
AcDbLine
 62
7
  6
CONTINUOUS
 10
132.6607062301
 20
170.1039448009
 11
132.5408267994
 21
170.0085222343
  0
LINE
  5
2D1
100
AcDbEntity
  8
0
100
AcDbLine
 62
7
  6
CONTINUOUS
 10
135.0893876374
 20
169.3209709472
 11
134.9659790979
 21
169.2301586325
  0
LINE
  5
2D2
100
AcDbEntity
  8
0
100
AcDbLine
 62
7
  6
CONTINUOUS
 10
137.6953853107
 20
168.4106481991
 11
137.526043168
 21
168.296370607
  0
LINE
  5
2D3
100
AcDbEntity
  8
0
100
AcDbLine
 62
7
  6
CONTINUOUS
 10
138.5184005787
 20
166.9913131817
 11
138.6041760105
 21
167.0467807019
  0
LINE
  5
2D4
100
AcDbEntity
  8
0
100
AcDbLine
 62
7
  6
CONTINUOUS
 10
131.152540181
 20
169.5776413276
 11
131.2983114451
 21
169.6674389701
  0
LINE
  5
2D5
100
AcDbEntity
  8
0
100
AcDbLine
 62
7
  6
CONTINUOUS
 10
98.5051963596
 20
61.0562362792
 11
68.6417054279
 21
90.919727211
  0
LINE
  5
2D6
100
AcDbEntity
  8
0
100
AcDbLine
 62
7
  6
CONTINUOUS
 10
78.9035036151
 20
93.9100961254
 11
78.9035036151
 21
94.7586242629
  0
LINE
  5
2D7
100
AcDbEntity
  8
0
100
AcDbLine
 62
7
  6
CONTINUOUS
 10
78.9035036151
 20
116.5021577843
 11
78.9035036151
 21
117.3506859218
  0
LINE
  5
2D8
100
AcDbEntity
  8
0
100
AcDbLine
 62
7
  6
CONTINUOUS
 10
89.3531016879
 20
167.8293966786
 11
89.3985128136
 21
168.1220153416
  0
LINE
  5
2D9
100
AcDbEntity
  8
0
100
AcDbLine
 62
7
  6
CONTINUOUS
 10
91.3442083181
 20
168.7585285124
 11
91.3104895629
 21
168.5451481164
  0
LINE
  5
2DA
100
AcDbEntity
  8
0
100
AcDbLine
 62
7
  6
CONTINUOUS
 10
91.5611097184
 20
168.4274296887
 11
91.5948287448
 21
168.6408101758
  0
LINE
  5
2DB
100
AcDbEntity
  8
0
100
AcDbLine
 62
7
  6
CONTINUOUS
 10
92.7531504565
 20
168.020330812
 11
92.7194317156
 21
167.8069503737
  0
LINE
  5
2DC
100
AcDbEntity
  8
0
100
AcDbLine
 62
7
  6
CONTINUOUS
 10
90.3002427985
 20
167.8406614417
 11
90.3536243269
 21
168.1319315306
  0
LINE
  5
2DD
100
AcDbEntity
  8
0
100
AcDbLine
 62
7
  6
CONTINUOUS
 10
96.9326333786
 20
169.8301028948
 11
97.2624589113
 21
170.7693905973
  0
LINE
  5
2DE
100
AcDbEntity
  8
0
100
AcDbLine
 62
7
  6
CONTINUOUS
 10
78.9035036151
 20
117.3506859218
 11
101.495565274
 21
139.9427475807
  0
LINE
  5
2DF
100
AcDbEntity
  8
0
100
AcDbLine
 62
7
  6
CONTINUOUS
 10
68.9976626807
 20
106.5963168499
 11
78.9035036151
 21
116.5021577843
  0
LINE
  5
2E0
100
AcDbEntity
  8
0
100
AcDbLine
 62
7
  6
CONTINUOUS
 10
102.3440934115
 20
139.9427475807
 11
112.2499343459
 21
149.8485885151
  0
LINE
  5
2E1
100
AcDbEntity
  8
0
100
AcDbLine
 62
7
  6
CONTINUOUS
 10
129.0130459376
 20
169.3587584835
 11
129.1649482625
 21
169.4953666085
  0
LINE
  5
2E2
100
AcDbEntity
  8
0
100
AcDbLine
 62
7
  6
CONTINUOUS
 10
134.5437700761
 20
169.6825913481
 11
134.286229325
 21
169.4575345805
  0
LINE
  5
2E3
100
AcDbEntity
  8
0
100
AcDbLine
 62
7
  6
CONTINUOUS
 10
134.1797563659
 20
169.1377738851
 11
134.4372971543
 21
169.3628307647
  0
LINE
  5
2E4
100
AcDbEntity
  8
0
100
AcDbLine
 62
7
  6
CONTINUOUS
 10
138.8654169144
 20
167.8964378747
 11
138.7205084015
 21
167.7743672313
  0
LINE
  5
2E5
100
AcDbEntity
  8
0
100
AcDbLine
 62
7
  6
CONTINUOUS
 10
132.7862054508
 20
168.3469099301
 11
132.9060848859
 21
168.4423325107
  0
LINE
  5
2E6
100
AcDbEntity
  8
0
100
AcDbLine
 62
7
  6
CONTINUOUS
 10
135.148229526
 20
167.5604429571
 11
135.2716380704
 21
167.6512552858
  0
LINE
  5
2E7
100
AcDbEntity
  8
0
100
AcDbLine
 62
7
  6
CONTINUOUS
 10
140.4799938049
 20
167.3898528456
 11
140.2024065025
 21
167.1900452464
  0
LINE
  5
2E8
100
AcDbEntity
  8
0
100
AcDbLine
 62
7
  6
CONTINUOUS
 10
140.0662987921
 20
166.8817303351
 11
140.3438861422
 21
167.0815380423
  0
LINE
  5
2E9
100
AcDbEntity
  8
0
100
AcDbLine
 62
7
  6
CONTINUOUS
 10
137.6783340196
 20
166.5602135292
 11
137.847675553
 21
166.6744913779
  0
LINE
  5
2EA
100
AcDbEntity
  8
0
100
AcDbLine
 62
7
  6
CONTINUOUS
 10
124.9361550704
 20
71.3180344665
 11
124.0876269329
 21
71.3180344665
  0
LINE
  5
2EB
100
AcDbEntity
  8
0
100
AcDbLine
 62
7
  6
CONTINUOUS
 10
102.3440934115
 20
71.3180344665
 11
101.495565274
 21
71.3180344665
  0
LINE
  5
2EC
100
AcDbEntity
  8
0
100
AcDbLine
 62
7
  6
CONTINUOUS
 10
101.495565274
 20
71.3180344665
 11
78.9035036151
 21
93.9100961254
  0
LINE
  5
2ED
100
AcDbEntity
  8
0
100
AcDbLine
 62
7
  6
CONTINUOUS
 10
112.2499343459
 20
61.4121935321
 11
102.3440934115
 21
71.3180344665
  0
LINE
  5
2EE
100
AcDbEntity
  8
0
100
AcDbLine
 62
7
  6
CONTINUOUS
 10
78.9035036151
 20
94.7586242629
 11
68.9976626807
 21
104.6644651973
  0
LINE
  5
2EF
100
AcDbEntity
  8
0
100
AcDbLine
 62
7
  6
CONTINUOUS
 10
92.9700521494
 20
167.6892320159
 11
93.0037711687
 21
167.9026125243
  0
LINE
  5
2F0
100
AcDbEntity
  8
0
100
AcDbLine
 62
7
  6
CONTINUOUS
 10
132.5408267994
 20
170.0085222343
 11
132.436198338
 21
169.8643563966
  0
LINE
  5
2F1
100
AcDbEntity
  8
0
100
AcDbLine
 62
7
  6
CONTINUOUS
 10
134.9659790979
 20
169.2301586325
 11
134.8559635819
 21
169.0900603524
  0
LINE
  5
2F2
100
AcDbEntity
  8
0
100
AcDbLine
 62
7
  6
CONTINUOUS
 10
129.1022452155
 20
169.7272654765
 11
129.0163831053
 21
169.6180161851
  0
LINE
  5
2F3
100
AcDbEntity
  8
0
100
AcDbLine
 62
7
  6
CONTINUOUS
 10
131.6754096518
 20
168.990152046
 11
131.5851670088
 21
168.884492207
  0
LINE
  5
2F4
100
AcDbEntity
  8
0
100
AcDbLine
 62
7
  6
CONTINUOUS
 10
132.5095568646
 20
169.7096585154
 11
132.6941050864
 21
169.917439478
  0
LINE
  5
2F5
100
AcDbEntity
  8
0
100
AcDbLine
 62
7
  6
CONTINUOUS
 10
132.9373547947
 20
168.741196145
 11
132.7528065989
 21
168.5334152671
  0
LINE
  5
2F6
100
AcDbEntity
  8
0
100
AcDbLine
 62
7
  6
CONTINUOUS
 10
131.6221753496
 20
168.6986694238
 11
131.7517535324
 21
168.836905521
  0
LINE
  5
2F7
100
AcDbEntity
  8
0
100
AcDbLine
 62
7
  6
CONTINUOUS
 10
134.9234088794
 20
168.9326941678
 11
135.1156965859
 21
169.133334175
  0
LINE
  5
2F8
100
AcDbEntity
  8
0
100
AcDbLine
 62
7
  6
CONTINUOUS
 10
135.3142082597
 20
167.948719667
 11
135.1219205824
 21
167.7480797433
  0
LINE
  5
2F9
100
AcDbEntity
  8
0
100
AcDbLine
 62
7
  6
CONTINUOUS
 10
137.8176606659
 20
166.9128351404
 11
137.7175085506
 21
166.8165162914
  0
LINE
  5
2FA
100
AcDbEntity
  8
0
100
AcDbLine
 62
7
  6
CONTINUOUS
 10
138.7783362217
 20
167.6132190233
 11
138.8803576284
 21
167.7075556518
  0
LINE
  5
2FB
100
AcDbEntity
  8
0
100
AcDbLine
 62
7
  6
CONTINUOUS
 10
138.9849425586
 20
166.3853799279
 11
138.8829211406
 21
166.2910432723
  0
LINE
  5
2FC
100
AcDbEntity
  8
0
100
AcDbLine
 62
7
  6
CONTINUOUS
 10
138.8978618489
 20
166.1021610357
 11
139.0427703675
 21
166.2242316927
  0
LINE
  5
2FD
100
AcDbEntity
  8
0
100
AcDbLine
 62
7
  6
CONTINUOUS
 10
165.3830896726
 20
148.0173680313
 11
165.2154460109
 21
147.9571476293
  0
LINE
  5
2FE
100
AcDbEntity
  8
0
100
AcDbLine
 62
7
  6
CONTINUOUS
 10
91.3104895629
 20
168.5451481164
 11
91.3241604905
 21
168.3477113362
  0
LINE
  5
2FF
100
AcDbEntity
  8
RUNDUNGEN
100
AcDbLine
 62
7
  6
CONTINUOUS
 10
118.0031636019
 20
182.6203382159
 11
115.4658601722
 21
174.8113212216
  0
LINE
  5
300
100
AcDbEntity
  8
RUNDUNGEN
100
AcDbLine
 62
7
  6
CONTINUOUS
 10
74.3726178993
 20
48.3393259891
 11
71.8353144696
 21
40.5303089947
  0
LINE
  5
301
100
AcDbEntity
  8
0
100
AcDbLine
 62
7
  6
CONTINUOUS
 10
128.7127790396
 20
170.818455617
 11
128.7705767473
 21
170.934498183
  0
LINE
  5
302
100
AcDbEntity
  8
0
100
AcDbLine
 62
7
  6
CONTINUOUS
 10
132.436198338
 20
169.8643563966
 11
132.3715298629
 21
169.7519979038
  0
LINE
  5
303
100
AcDbEntity
  8
0
100
AcDbLine
 62
7
  6
CONTINUOUS
 10
131.7517535324
 20
168.836905521
 11
131.8651386338
 21
169.0235800731
  0
LINE
  5
304
100
AcDbEntity
  8
0
100
AcDbLine
 62
7
  6
CONTINUOUS
 10
134.8559635819
 20
169.0900603524
 11
134.787085039
 21
168.9802324423
  0
LINE
  5
305
100
AcDbEntity
  8
0
100
AcDbLine
 62
7
  6
CONTINUOUS
 10
129.1649482625
 20
169.4953666085
 11
129.2607214094
 21
169.6455611453
  0
LINE
  5
306
100
AcDbEntity
  8
0
100
AcDbLine
 62
7
  6
CONTINUOUS
 10
137.5829129752
 20
168.0474159249
 11
137.6562101813
 21
168.1543457209
  0
LINE
  5
307
100
AcDbEntity
  8
0
100
AcDbLine
 62
7
  6
CONTINUOUS
 10
138.7029571204
 20
167.5077466829
 11
138.7783362217
 21
167.6132190233
  0
LINE
  5
308
100
AcDbEntity
  8
0
100
AcDbLine
 62
7
  6
CONTINUOUS
 10
138.4430215001
 20
166.8858408958
 11
138.5184005787
 21
166.9913131817
  0
LINE
  5
309
100
AcDbEntity
  8
0
100
AcDbLine
 62
7
  6
CONTINUOUS
 10
132.9060848859
 20
168.4423325107
 11
133.01071304
 21
168.5864984735
  0
LINE
  5
30A
100
AcDbEntity
  8
0
100
AcDbLine
 62
7
  6
CONTINUOUS
 10
138.7205084015
 20
167.7743672313
 11
138.5859949996
 21
167.6022922773
  0
LINE
  5
30B
100
AcDbEntity
  8
0
100
AcDbLine
 62
7
  6
CONTINUOUS
 10
139.0427703675
 20
166.2242316927
 11
139.1772837352
 21
166.396306565
  0
LINE
  5
30C
100
AcDbEntity
  8
0
100
AcDbLine
 62
7
  6
CONTINUOUS
 10
135.2716380704
 20
167.6512552858
 11
135.3816535961
 21
167.7913535938
  0
LINE
  5
30D
100
AcDbEntity
  8
0
100
AcDbLine
 62
7
  6
CONTINUOUS
 10
137.847675553
 20
166.6744913779
 11
137.9633084159
 21
166.8099904288
  0
LINE
  5
30E
100
AcDbEntity
  8
RUNDUNGEN
100
AcDbLine
 62
7
  6
CONTINUOUS
 10
162.3424255385
 20
165.102660344
 11
155.6996789198
 21
160.2764224228
  0
LINE
  5
30F
100
AcDbEntity
  8
RUNDUNGEN
100
AcDbLine
 62
7
  6
CONTINUOUS
 10
48.1161739414
 20
82.1124307441
 11
41.4734273227
 21
77.2861928228
  0
LINE
  5
310
100
AcDbEntity
  8
0
100
AcDbLine
 62
7
  6
CONTINUOUS
 10
164.4807591538
 20
148.7760558369
 11
164.5962889337
 21
148.8348718085
  0
LINE
  5
311
100
AcDbEntity
  8
0
100
AcDbLine
 62
7
  6
CONTINUOUS
 10
164.0562395324
 20
147.4438379501
 11
164.2226141599
 21
147.5074805293
  0
LINE
  5
312
100
AcDbEntity
  8
0
100
AcDbLine
 62
7
  6
CONTINUOUS
 10
164.9112769266
 20
146.3821562556
 11
165.0789205597
 21
146.4423767404
  0
LINE
  5
313
100
AcDbEntity
  8
0
100
AcDbLine
 62
7
  6
CONTINUOUS
 10
167.3855867477
 20
144.9963676082
 11
167.2155931998
 21
144.94314076
  0
LINE
  5
314
100
AcDbEntity
  8
RUNDUNGEN
100
AcDbLine
 62
7
  6
CONTINUOUS
 10
38.5147110887
 20
86.3921850674
 11
46.7255974667
 21
86.3921850674
  0
LINE
  5
315
100
AcDbEntity
  8
RUNDUNGEN
100
AcDbLine
 62
7
  6
CONTINUOUS
 10
179.7061228777
 20
86.3921850674
 11
187.9170092557
 21
86.3921850674
  0
LINE
  5
316
100
AcDbEntity
  8
RUNDUNGEN
100
AcDbLine
 62
7
  6
CONTINUOUS
 10
41.4734273227
 20
133.9745892243
 11
48.1161739414
 21
129.1483513031
  0
LINE
  5
317
100
AcDbEntity
  8
RUNDUNGEN
100
AcDbLine
 62
7
  6
CONTINUOUS
 10
155.6996789198
 20
50.9843596244
 11
162.3424255385
 21
46.1581217032
  0
LINE
  5
318
100
AcDbEntity
  8
RUNDUNGEN
100
AcDbLine
 62
7
  6
CONTINUOUS
 10
71.8353144696
 20
170.7304730525
 11
74.3726178993
 21
162.9214560581
  0
LINE
  5
319
100
AcDbEntity
  8
RUNDUNGEN
100
AcDbLine
 62
7
  6
CONTINUOUS
 10
115.4658601722
 20
36.4494608256
 11
118.0031636019
 21
28.6404438313
  0
LINE
  5
31A
100
AcDbEntity
  8
0
100
AcDbLine
 62
7
  6
CONTINUOUS
 10
89.0720465786
 20
168.267300143
 11
89.0960941094
 21
168.0708570765
  0
LINE
  5
31B
100
AcDbEntity
  8
0
100
AcDbLine
 62
7
  6
CONTINUOUS
 10
89.3985128136
 20
168.1220153416
 11
89.3744652829
 21
168.3184584082
  0
LINE
  5
31C
100
AcDbEntity
  8
0
100
AcDbLine
 62
7
  6
CONTINUOUS
 10
93.0037711687
 20
167.9026125243
 11
92.9560751295
 21
168.3579836357
  0
LINE
  5
31D
100
AcDbEntity
  8
RUNDUNGEN
100
AcDbLine
 62
7
  6
CONTINUOUS
 10
104.2158601722
 20
182.3113212216
 11
104.2158601722
 21
176.0003624695
  0
LINE
  5
31E
100
AcDbEntity
  8
RUNDUNGEN
100
AcDbLine
 62
7
  6
CONTINUOUS
 10
104.2158601722
 20
28.9494608256
 11
104.2158601722
 21
35.2604460233
  0
LINE
  5
31F
100
AcDbEntity
  8
0
100
AcDbLine
 62
7
  6
CONTINUOUS
 10
128.6220115831
 20
171.0571477309
 11
128.5543029537
 21
170.9001600436
  0
LINE
  5
320
100
AcDbEntity
  8
0
100
AcDbLine
 62
7
  6
CONTINUOUS
 10
132.4078253208
 20
169.476473897
 11
132.5095568646
 21
169.7096585154
  0
LINE
  5
321
100
AcDbEntity
  8
0
100
AcDbLine
 62
7
  6
CONTINUOUS
 10
133.0390860399
 20
168.9743809167
 11
132.9373547947
 21
168.741196145
  0
LINE
  5
322
100
AcDbEntity
  8
0
100
AcDbLine
 62
7
  6
CONTINUOUS
 10
132.3715298629
 20
169.7519979038
 11
132.2821523709
 21
169.559088795
  0
LINE
  5
323
100
AcDbEntity
  8
0
100
AcDbLine
 62
7
  6
CONTINUOUS
 10
133.0753817964
 20
168.6988567566
 11
133.1647593057
 21
168.8917659218
  0
LINE
  5
324
100
AcDbEntity
  8
0
100
AcDbLine
 62
7
  6
CONTINUOUS
 10
134.8129156408
 20
168.7035312637
 11
134.9234088794
 21
168.9326941678
  0
LINE
  5
325
100
AcDbEntity
  8
0
100
AcDbLine
 62
7
  6
CONTINUOUS
 10
135.4247015177
 20
168.1778826267
 11
135.3142082597
 21
167.948719667
  0
LINE
  5
326
100
AcDbEntity
  8
0
100
AcDbLine
 62
7
  6
CONTINUOUS
 10
134.787085039
 20
168.9802324423
 11
134.6904631706
 21
168.7908479793
  0
LINE
  5
327
100
AcDbEntity
  8
0
100
AcDbLine
 62
7
  6
CONTINUOUS
 10
135.4505321001
 20
167.9011813924
 11
135.547153988
 21
168.0905659112
  0
LINE
  5
328
100
AcDbEntity
  8
0
100
AcDbLine
 62
7
  6
CONTINUOUS
 10
138.5859949996
 20
167.6022922773
 11
138.4456320444
 21
167.3413436126
  0
LINE
  5
329
100
AcDbEntity
  8
0
100
AcDbLine
 62
7
  6
CONTINUOUS
 10
131.7378876542
 20
169.1037430315
 11
131.6754096518
 21
168.990152046
  0
LINE
  5
32A
100
AcDbEntity
  8
0
100
AcDbLine
 62
7
  6
CONTINUOUS
 10
138.5788389205
 20
167.2856676362
 11
138.7029571204
 21
167.5077466829
  0
LINE
  5
32B
100
AcDbEntity
  8
0
100
AcDbLine
 62
7
  6
CONTINUOUS
 10
133.01071304
 20
168.5864984735
 11
133.0753817964
 21
168.6988567566
  0
LINE
  5
32C
100
AcDbEntity
  8
0
100
AcDbLine
 62
7
  6
CONTINUOUS
 10
137.526043168
 20
168.296370607
 11
137.4372652686
 21
168.1502607463
  0
LINE
  5
32D
100
AcDbEntity
  8
0
100
AcDbLine
 62
7
  6
CONTINUOUS
 10
135.3816535961
 20
167.7913535938
 11
135.4505321001
 21
167.9011813924
  0
LINE
  5
32E
100
AcDbEntity
  8
0
100
AcDbLine
 62
7
  6
CONTINUOUS
 10
139.0603216145
 20
166.4908521595
 11
138.9849425586
 21
166.3853799279
  0
LINE
  5
32F
100
AcDbEntity
  8
RUNDUNGEN
100
AcDbLine
 62
7
  6
CONTINUOUS
 10
151.0066271253
 20
172.9566339689
 11
147.2971817303
 21
167.8510203923
  0
LINE
  5
330
100
AcDbEntity
  8
RUNDUNGEN
100
AcDbLine
 62
7
  6
CONTINUOUS
 10
60.8627873204
 20
48.8842826196
 11
64.5722898938
 21
53.9899748956
  0
LINE
  5
331
100
AcDbEntity
  8
0
100
AcDbLine
 62
7
  6
CONTINUOUS
 10
165.2154460109
 20
147.9571476293
 11
165.0329581362
 21
147.848058348
  0
LINE
  5
332
100
AcDbEntity
  8
0
100
AcDbLine
 62
7
  6
CONTINUOUS
 10
165.0789205597
 20
146.4423767404
 11
165.2614083939
 21
146.5514658835
  0
LINE
  5
333
100
AcDbEntity
  8
0
100
AcDbLine
 62
7
  6
CONTINUOUS
 10
164.5499582512
 20
149.0218690917
 11
164.4020861816
 21
148.9360585718
  0
LINE
  5
334
100
AcDbEntity
  8
0
100
AcDbLine
 62
7
  6
CONTINUOUS
 10
165.1412251597
 20
147.7128037211
 11
165.2908243347
 21
147.7955665394
  0
LINE
  5
335
100
AcDbEntity
  8
0
100
AcDbLine
 62
7
  6
CONTINUOUS
 10
165.1531413704
 20
146.6867205105
 11
165.0035421954
 21
146.6039576922
  0
LINE
  5
336
100
AcDbEntity
  8
0
100
AcDbLine
 62
7
  6
CONTINUOUS
 10
167.11061404
 20
145.7975871509
 11
166.9577160106
 21
145.7210900961
  0
LINE
  5
337
100
AcDbEntity
  8
0
100
AcDbLine
 62
7
  6
CONTINUOUS
 10
167.3352624155
 20
144.7802485149
 11
167.4881602493
 21
144.856745836
  0
LINE
  5
338
100
AcDbEntity
  8
0
100
AcDbLine
 62
7
  6
CONTINUOUS
 10
169.4195271864
 20
142.4976658573
 11
169.2623221265
 21
142.4304633579
  0
LINE
  5
339
100
AcDbEntity
  8
0
100
AcDbLine
 62
7
  6
CONTINUOUS
 10
169.5828427324
 20
141.4686989845
 11
169.7400477923
 21
141.5359014839
  0
LINE
  5
33A
100
AcDbEntity
  8
RUNDUNGEN
100
AcDbLine
 62
7
  6
CONTINUOUS
 10
183.3626055632
 20
137.8856102459
 11
177.3606009043
 21
135.9354407153
  0
LINE
  5
33B
100
AcDbEntity
  8
RUNDUNGEN
100
AcDbLine
 62
7
  6
CONTINUOUS
 10
37.5068088825
 20
90.4941890946
 11
43.5089134939
 21
92.4443911017
  0
LINE
  5
33C
100
AcDbEntity
  8
RUNDUNGEN
100
AcDbLine
 62
7
  6
CONTINUOUS
 10
37.5068088825
 20
120.7665929526
 11
43.508963738
 21
118.8163746202
  0
LINE
  5
33D
100
AcDbEntity
  8
RUNDUNGEN
100
AcDbLine
 62
7
  6
CONTINUOUS
 10
177.3605030169
 20
75.3253731374
 11
183.3626055632
 21
73.3751718013
  0
LINE
  5
33E
100
AcDbEntity
  8
RUNDUNGEN
100
AcDbLine
 62
7
  6
CONTINUOUS
 10
60.8627873204
 20
162.3764994276
 11
64.5723205528
 21
157.2707649531
  0
LINE
  5
33F
100
AcDbEntity
  8
RUNDUNGEN
100
AcDbLine
 62
7
  6
CONTINUOUS
 10
147.2971216474
 20
43.409844352
 11
151.0066271253
 21
38.3041480783
  0
LINE
  5
340
100
AcDbEntity
  8
0
100
AcDbLine
 62
7
  6
CONTINUOUS
 10
91.3241604905
 20
168.3477113362
 11
91.3581850454
 21
168.089776865
  0
LINE
  5
341
100
AcDbEntity
  8
0
100
AcDbLine
 62
7
  6
CONTINUOUS
 10
91.5951345445
 20
168.1694953086
 11
91.5611097184
 21
168.4274296887
  0
LINE
  5
342
100
AcDbEntity
  8
0
100
AcDbLine
 62
7
  6
CONTINUOUS
 10
92.7191261728
 20
168.2782653745
 11
92.7531504565
 21
168.020330812
  0
LINE
  5
343
100
AcDbEntity
  8
RUNDUNGEN
100
AcDbLine
 62
7
  6
CONTINUOUS
 10
110.9658601722
 20
36.4494608256
 11
110.9658601722
 21
37.4493677565
  0
LINE
  5
344
100
AcDbEntity
  8
RUNDUNGEN
100
AcDbLine
 62
7
  6
CONTINUOUS
 10
110.9658601722
 20
173.8113808445
 11
110.9658601722
 21
174.8113212216
  0
LINE
  5
345
100
AcDbEntity
  8
02___PRT_ALL_AXES
100
AcDbLine
 62
7
  6
CENTER
 10
113.2158601722
 20
105.6303910236
 11
113.2158601722
 21
22.4145308514
  0
LINE
  5
346
100
AcDbEntity
  8
02___PRT_ALL_AXES
100
AcDbLine
 62
7
  6
CENTER
 10
113.2158601722
 20
105.6303910236
 11
113.2158601722
 21
188.8462511958
  0
LINE
  5
347
100
AcDbEntity
  8
0
100
AcDbLine
 62
7
  6
CONTINUOUS
 10
127.3012847728
 20
171.6564090859
 11
126.8732884802
 21
169.7232202246
  0
LINE
  5
348
100
AcDbEntity
  8
0
100
AcDbLine
 62
7
  6
CONTINUOUS
 10
127.09708033
 20
169.9325606158
 11
127.4704387981
 21
171.6189594103
  0
LINE
  5
349
100
AcDbEntity
  8
0
100
AcDbLine
 62
7
  6
CONTINUOUS
 10
127.8882126324
 20
169.498522171
 11
127.9428504568
 21
169.7453122378
  0
LINE
  5
34A
100
AcDbEntity
  8
0
100
AcDbLine
 62
7
  6
CONTINUOUS
 10
128.5543029537
 20
170.9001600436
 11
128.5146588071
 21
170.7363790622
  0
LINE
  5
34B
100
AcDbEntity
  8
0
100
AcDbLine
 62
7
  6
CONTINUOUS
 10
128.6929569801
 20
170.7365651837
 11
128.7127790396
 21
170.818455617
  0
LINE
  5
34C
100
AcDbEntity
  8
0
100
AcDbLine
 62
7
  6
CONTINUOUS
 10
129.1319783047
 20
169.8501011265
 11
129.1022452155
 21
169.7272654765
  0
LINE
  5
34D
100
AcDbEntity
  8
0
100
AcDbLine
 62
7
  6
CONTINUOUS
 10
129.2607214094
 20
169.6455611453
 11
129.310276558
 21
169.8502872286
  0
LINE
  5
34E
100
AcDbEntity
  8
0
100
AcDbLine
 62
7
  6
CONTINUOUS
 10
131.2590413355
 20
170.6863504805
 11
130.9581893428
 21
169.6331590976
  0
LINE
  5
34F
100
AcDbEntity
  8
0
100
AcDbLine
 62
7
  6
CONTINUOUS
 10
131.1548673801
 20
169.7960403691
 11
131.3400070804
 21
170.4441581868
  0
LINE
  5
350
100
AcDbEntity
  8
0
100
AcDbLine
 62
7
  6
CONTINUOUS
 10
131.7610301127
 20
169.1847577445
 11
131.7378876542
 21
169.1037430315
  0
LINE
  5
351
100
AcDbEntity
  8
0
100
AcDbLine
 62
7
  6
CONTINUOUS
 10
132.1451753834
 20
170.2141558412
 11
132.2030315296
 21
170.4166926237
  0
LINE
  5
352
100
AcDbEntity
  8
0
100
AcDbLine
 62
7
  6
CONTINUOUS
 10
131.8651386338
 20
169.0235800731
 11
131.9114235508
 21
169.1856094992
  0
LINE
  5
353
100
AcDbEntity
  8
0
100
AcDbLine
 62
7
  6
CONTINUOUS
 10
132.2821523709
 20
169.559088795
 11
132.1709630609
 21
169.19661008
  0
LINE
  5
354
100
AcDbEntity
  8
0
100
AcDbLine
 62
7
  6
CONTINUOUS
 10
132.3213447463
 20
169.1945460075
 11
132.4078253208
 21
169.476473897
  0
LINE
  5
355
100
AcDbEntity
  8
0
100
AcDbLine
 62
7
  6
CONTINUOUS
 10
133.1255666144
 20
169.2563088062
 11
133.0390860399
 21
168.9743809167
  0
LINE
  5
356
100
AcDbEntity
  8
0
100
AcDbLine
 62
7
  6
CONTINUOUS
 10
133.1647593057
 20
168.8917659218
 11
133.2759486157
 21
169.2542446368
  0
LINE
  5
357
100
AcDbEntity
  8
0
100
AcDbLine
 62
7
  6
CONTINUOUS
 10
133.434892769
 20
168.9369501716
 11
133.3700825387
 21
168.7365302603
  0
LINE
  5
358
100
AcDbEntity
  8
0
100
AcDbLine
 62
7
  6
CONTINUOUS
 10
133.7547214804
 20
168.6121487144
 11
133.8195317107
 21
168.8125686257
  0
LINE
  5
359
100
AcDbEntity
  8
0
100
AcDbLine
 62
7
  6
CONTINUOUS
 10
134.286229325
 20
169.4575345805
 11
134.1797563659
 21
169.1377738851
  0
LINE
  5
35A
100
AcDbEntity
  8
0
100
AcDbLine
 62
7
  6
CONTINUOUS
 10
134.4372971543
 20
169.3628307647
 11
133.9182415861
 21
167.8039976964
  0
LINE
  5
35B
100
AcDbEntity
  8
0
100
AcDbLine
 62
7
  6
CONTINUOUS
 10
134.0826185306
 20
167.7492639536
 11
134.7081470206
 21
169.6278576053
  0
LINE
  5
35C
100
AcDbEntity
  8
0
100
AcDbLine
 62
7
  6
CONTINUOUS
 10
134.6904631706
 20
168.7908479793
 11
134.5656208393
 21
168.4328420103
  0
LINE
  5
35D
100
AcDbEntity
  8
0
100
AcDbLine
 62
7
  6
CONTINUOUS
 10
134.7158160498
 20
168.4250821767
 11
134.8129156408
 21
168.7035312637
  0
LINE
  5
35E
100
AcDbEntity
  8
0
100
AcDbLine
 62
7
  6
CONTINUOUS
 10
135.5218011087
 20
168.4563317137
 11
135.4247015177
 21
168.1778826267
  0
LINE
  5
35F
100
AcDbEntity
  8
0
100
AcDbLine
 62
7
  6
CONTINUOUS
 10
135.547153988
 20
168.0905659112
 11
135.6719963193
 21
168.4485718802
  0
LINE
  5
360
100
AcDbEntity
  8
0
100
AcDbLine
 62
7
  6
CONTINUOUS
 10
137.4372652686
 20
168.1502607463
 11
137.3753422786
 21
167.9935399388
  0
LINE
  5
361
100
AcDbEntity
  8
0
100
AcDbLine
 62
7
  6
CONTINUOUS
 10
137.5519515019
 20
167.969055576
 11
137.5829129752
 21
168.0474159249
  0
LINE
  5
362
100
AcDbEntity
  8
0
100
AcDbLine
 62
7
  6
CONTINUOUS
 10
137.8641028759
 20
167.0303756638
 11
137.8176606659
 21
166.9128351404
  0
LINE
  5
363
100
AcDbEntity
  8
0
100
AcDbLine
 62
7
  6
CONTINUOUS
 10
137.9633084159
 20
166.8099904288
 11
138.0407120993
 21
167.0058913011
  0
LINE
  5
364
100
AcDbEntity
  8
0
100
AcDbLine
 62
7
  6
CONTINUOUS
 10
138.4456320444
 20
167.3413436126
 11
138.3319102205
 21
167.0692598546
  0
LINE
  5
365
100
AcDbEntity
  8
0
100
AcDbLine
 62
7
  6
CONTINUOUS
 10
138.5463469708
 20
167.2079294196
 11
138.5788389205
 21
167.2856676362
  0
LINE
  5
366
100
AcDbEntity
  8
0
100
AcDbLine
 62
7
  6
CONTINUOUS
 10
138.3942835756
 20
166.7692335709
 11
138.4430215001
 21
166.8858408958
  0
LINE
  5
367
100
AcDbEntity
  8
0
100
AcDbLine
 62
7
  6
CONTINUOUS
 10
139.109059539
 20
166.6074594843
 11
139.0603216145
 21
166.4908521595
  0
LINE
  5
368
100
AcDbEntity
  8
0
100
AcDbLine
 62
7
  6
CONTINUOUS
 10
139.1772837352
 20
166.396306565
 11
139.2585136322
 21
166.5906521609
  0
LINE
  5
369
100
AcDbEntity
  8
0
100
AcDbLine
 62
7
  6
CONTINUOUS
 10
139.2612237845
 20
165.9913114968
 11
139.1775597338
 21
165.7980013289
  0
LINE
  5
36A
100
AcDbEntity
  8
0
100
AcDbLine
 62
7
  6
CONTINUOUS
 10
139.3100581463
 20
165.7406564204
 11
139.393722197
 21
165.9339665882
  0
LINE
  5
36B
100
AcDbEntity
  8
0
100
AcDbLine
 62
7
  6
CONTINUOUS
 10
140.2024065025
 20
167.1900452464
 11
140.0662987921
 21
166.8817303351
  0
LINE
  5
36C
100
AcDbEntity
  8
0
100
AcDbLine
 62
7
  6
CONTINUOUS
 10
140.3438861422
 20
167.0815380423
 11
139.6803611911
 21
165.5785031601
  0
LINE
  5
36D
100
AcDbEntity
  8
0
100
AcDbLine
 62
7
  6
CONTINUOUS
 10
139.8388542886
 20
165.5085353064
 11
140.6384869023
 21
167.3198849919
  0
LINE
  5
36E
100
AcDbEntity
  8
RUNDUNGEN
100
AcDbLine
 62
7
  6
CONTINUOUS
 10
70.7320414246
 20
50.9843596244
 11
71.3197724706
 21
51.7933020102
  0
LINE
  5
36F
100
AcDbEntity
  8
RUNDUNGEN
100
AcDbLine
 62
7
  6
CONTINUOUS
 10
151.471352373
 20
162.1124874851
 11
152.0591024451
 21
162.9214560581
  0
LINE
  5
370
100
AcDbEntity
  8
0
100
AcDbLine
 62
7
  6
CONTINUOUS
 10
164.4020861816
 20
148.9360585718
 11
164.2727165964
 21
148.828079969
  0
LINE
  5
371
100
AcDbEntity
  8
0
100
AcDbLine
 62
7
  6
CONTINUOUS
 10
164.4160744065
 20
148.7220665733
 11
164.4807591538
 21
148.7760558369
  0
LINE
  5
372
100
AcDbEntity
  8
0
100
AcDbLine
 62
7
  6
CONTINUOUS
 10
164.2409682181
 20
147.7484670839
 11
164.1439410971
 21
147.6674831885
  0
LINE
  5
373
100
AcDbEntity
  8
0
100
AcDbLine
 62
7
  6
CONTINUOUS
 10
164.2226141599
 20
147.5074805293
 11
164.3843260281
 21
147.6424536882
  0
LINE
  5
374
100
AcDbEntity
  8
0
100
AcDbLine
 62
7
  6
CONTINUOUS
 10
165.0329581362
 20
147.848058348
 11
164.5396282026
 21
147.4531634395
  0
LINE
  5
375
100
AcDbEntity
  8
0
100
AcDbLine
 62
7
  6
CONTINUOUS
 10
164.6478952261
 20
147.3179088126
 11
165.1412251597
 21
147.7128037211
  0
LINE
  5
376
100
AcDbEntity
  8
0
100
AcDbLine
 62
7
  6
CONTINUOUS
 10
165.646471304
 20
147.081615419
 11
165.1531413704
 21
146.6867205105
  0
LINE
  5
377
100
AcDbEntity
  8
0
100
AcDbLine
 62
7
  6
CONTINUOUS
 10
165.2614083939
 20
146.5514658835
 11
165.7547383275
 21
146.946360792
  0
LINE
  5
378
100
AcDbEntity
  8
0
100
AcDbLine
 62
7
  6
CONTINUOUS
 10
165.8881523815
 20
144.9711618407
 11
165.7183994635
 21
144.8464524136
  0
LINE
  5
379
100
AcDbEntity
  8
0
100
AcDbLine
 62
7
  6
CONTINUOUS
 10
167.4534880005
 20
145.0462514419
 11
167.3855867477
 21
144.9963676082
  0
LINE
  5
37A
100
AcDbEntity
  8
0
100
AcDbLine
 62
7
  6
CONTINUOUS
 10
166.3338404734
 20
144.0087217807
 11
166.5035933914
 21
144.1334312078
  0
LINE
  5
37B
100
AcDbEntity
  8
0
100
AcDbLine
 62
7
  6
CONTINUOUS
 10
167.4881602493
 20
144.856745836
 11
167.5560615021
 21
144.9066296698
  0
LINE
  5
37C
100
AcDbEntity
  8
0
100
AcDbLine
 62
7
  6
CONTINUOUS
 10
168.6554271277
 20
143.6345898266
 11
168.3769587485
 21
143.4447510657
  0
LINE
  5
37D
100
AcDbEntity
  8
0
100
AcDbLine
 62
7
  6
CONTINUOUS
 10
168.7182075579
 20
143.4677098717
 11
167.3606744896
 21
142.5422461036
  0
LINE
  5
37E
100
AcDbEntity
  8
0
100
AcDbLine
 62
7
  6
CONTINUOUS
 10
167.4582634551
 20
142.3990959854
 11
169.0942648051
 21
143.5143984479
  0
LINE
  5
37F
100
AcDbEntity
  8
0
100
AcDbLine
 62
7
  6
CONTINUOUS
 10
168.1497645795
 20
141.7459383908
 11
167.9728473932
 21
141.6316195228
  0
LINE
  5
380
100
AcDbEntity
  8
0
100
AcDbLine
 62
7
  6
CONTINUOUS
 10
169.7167874891
 20
141.7271434714
 11
169.6460205254
 21
141.6814158666
  0
LINE
  5
381
100
AcDbEntity
  8
0
100
AcDbLine
 62
7
  6
CONTINUOUS
 10
168.5370109948
 20
140.7585332266
 11
168.7139281811
 21
140.8728520946
  0
LINE
  5
382
100
AcDbEntity
  8
0
100
AcDbLine
 62
7
  6
CONTINUOUS
 10
169.7400477923
 20
141.5359014839
 11
169.8108147561
 21
141.5816290887
  0
LINE
  5
383
100
AcDbEntity
  8
RUNDUNGEN
100
AcDbLine
 62
7
  6
CONTINUOUS
 10
46.7255974667
 20
86.3921850674
 11
47.6765651083
 21
86.7011731847
  0
LINE
  5
384
100
AcDbEntity
  8
RUNDUNGEN
100
AcDbLine
 62
7
  6
CONTINUOUS
 10
177.364546494
 20
128.8393527015
 11
178.315546403
 21
129.1483513031
  0
LINE
  5
385
100
AcDbEntity
  8
02___PRT_ALL_AXES
100
AcDbLine
 62
7
  6
CENTER
 10
113.2158601722
 20
105.6303910236
 11
30.0
 21
105.6303910236
  0
LINE
  5
386
100
AcDbEntity
  8
02___PRT_ALL_AXES
100
AcDbLine
 62
7
  6
CENTER
 10
113.2158601722
 20
105.6303910236
 11
196.4317203444
 21
105.6303910236
  0
LINE
  5
387
100
AcDbEntity
  8
RUNDUNGEN
100
AcDbLine
 62
7
  6
CONTINUOUS
 10
47.6765971808
 20
124.5595984416
 11
46.7255974667
 21
124.8685969798
  0
LINE
  5
388
100
AcDbEntity
  8
RUNDUNGEN
100
AcDbLine
 62
7
  6
CONTINUOUS
 10
177.3645780401
 20
82.4214190957
 11
178.315546403
 21
82.1124307441
  0
LINE
  5
389
100
AcDbEntity
  8
RUNDUNGEN
100
AcDbLine
 62
7
  6
CONTINUOUS
 10
151.4713723959
 20
49.1482670029
 11
152.0591024451
 21
48.3393259891
  0
LINE
  5
38A
100
AcDbEntity
  8
RUNDUNGEN
100
AcDbLine
 62
7
  6
CONTINUOUS
 10
71.3197917661
 20
159.4674534789
 11
70.7320414246
 21
160.2764224228
  0
LINE
  5
38B
100
AcDbEntity
  8
0
100
AcDbLine
 62
7
  6
CONTINUOUS
 10
87.3018719185
 20
168.5271713316
 11
88.4068757484
 21
165.738091459
  0
LINE
  5
38C
100
AcDbEntity
  8
0
100
AcDbLine
 62
7
  6
CONTINUOUS
 10
88.6857837356
 20
165.848591842
 11
88.1920586131
 21
167.0947764836
  0
LINE
  5
38D
100
AcDbEntity
  8
0
100
AcDbLine
 62
7
  6
CONTINUOUS
 10
88.0509943113
 20
167.4508291909
 11
87.6983334906
 21
168.3409611253
  0
LINE
  5
38E
100
AcDbEntity
  8
0
100
AcDbLine
 62
7
  6
CONTINUOUS
 10
89.0015143618
 20
168.4453266629
 11
89.0720465786
 21
168.267300143
  0
LINE
  5
38F
100
AcDbEntity
  8
0
100
AcDbLine
 62
7
  6
CONTINUOUS
 10
89.3744652829
 20
168.3184584082
 11
89.2804223491
 21
168.5558270459
  0
LINE
  5
390
100
AcDbEntity
  8
0
100
AcDbLine
 62
7
  6
CONTINUOUS
 10
89.8028068093
 20
168.4744974294
 11
90.5030357817
 21
166.5557210845
  0
LINE
  5
391
100
AcDbEntity
  8
0
100
AcDbLine
 62
7
  6
CONTINUOUS
 10
90.7378859292
 20
166.6414261631
 11
90.3002427985
 21
167.8406614417
  0
LINE
  5
392
100
AcDbEntity
  8
0
100
AcDbLine
 62
7
  6
CONTINUOUS
 10
90.1689498777
 20
168.2004319749
 11
90.0376569568
 21
168.5602025081
  0
LINE
  5
393
100
AcDbEntity
  8
0
100
AcDbLine
 62
7
  6
CONTINUOUS
 10
90.7576784304
 20
168.4832270525
 11
90.648267663
 21
168.7830358302
  0
LINE
  5
394
100
AcDbEntity
  8
0
100
AcDbLine
 62
7
  6
CONTINUOUS
 10
91.3581850454
 20
168.089776865
 11
91.4395995829
 21
167.8477860159
  0
LINE
  5
395
100
AcDbEntity
  8
0
100
AcDbLine
 62
7
  6
CONTINUOUS
 10
91.6765490819
 20
167.9275044596
 11
91.5951345445
 21
168.1694953086
  0
LINE
  5
396
100
AcDbEntity
  8
0
100
AcDbLine
 62
7
  6
CONTINUOUS
 10
92.6377116353
 20
168.5202562235
 11
92.7191261728
 21
168.2782653745
  0
LINE
  5
397
100
AcDbEntity
  8
0
100
AcDbLine
 62
7
  6
CONTINUOUS
 10
92.9560751295
 20
168.3579836357
 11
92.8746605921
 21
168.5999744847
  0
LINE
  5
398
100
AcDbEntity
  8
0
100
AcDbLine
 62
7
  6
CONTINUOUS
 10
92.7250932585
 20
170.4904575645
 11
93.6235753691
 21
167.6281630484
  0
LINE
  5
399
100
AcDbEntity
  8
0
100
AcDbLine
 62
7
  6
CONTINUOUS
 10
93.8621000941
 20
167.7030366147
 11
92.9636179835
 21
170.5653311308
  0
LINE
  5
39A
100
AcDbEntity
  8
0
100
AcDbLine
 62
7
  6
CONTINUOUS
 10
93.3745099913
 20
170.692058566
 11
93.4670443889
 21
170.3866188757
  0
LINE
  5
39B
100
AcDbEntity
  8
0
100
AcDbLine
 62
7
  6
CONTINUOUS
 10
93.6521132359
 20
169.7757393239
 11
94.2443334324
 21
167.8209251345
  0
LINE
  5
39C
100
AcDbEntity
  8
0
100
AcDbLine
 62
7
  6
CONTINUOUS
 10
94.4835947342
 20
167.8934104766
 11
93.8913745377
 21
169.8482246659
  0
LINE
  5
39D
100
AcDbEntity
  8
0
100
AcDbLine
 62
7
  6
CONTINUOUS
 10
93.7063056907
 20
170.4591042177
 11
93.6137712931
 21
170.7645439081
  0
LINE
  5
39E
100
AcDbEntity
  8
0
100
AcDbLine
 62
7
  6
CONTINUOUS
 10
94.3106966792
 20
169.9766035842
 11
94.8659843962
 21
168.0109792999
  0
LINE
  5
39F
100
AcDbEntity
  8
0
100
AcDbLine
 62
7
  6
CONTINUOUS
 10
95.106568259
 20
168.0789441012
 11
94.7074551988
 21
169.4917366039
  0
LINE
  5
3A0
100
AcDbEntity
  8
0
100
AcDbLine
 62
7
  6
CONTINUOUS
 10
94.6380442402
 20
169.737439618
 11
94.5512805421
 21
170.0445683855
  0
LINE
  5
3A1
100
AcDbEntity
  8
0
100
AcDbLine
 62
7
  6
CONTINUOUS
 10
95.6429693851
 20
169.4907072479
 11
95.9726714867
 21
168.3236177592
  0
LINE
  5
3A2
100
AcDbEntity
  8
0
100
AcDbLine
 62
7
  6
CONTINUOUS
 10
96.2132559002
 20
168.3915827161
 11
95.8835537985
 21
169.5586722048
  0
LINE
  5
3A3
100
AcDbEntity
  8
0
100
AcDbLine
 62
7
  6
CONTINUOUS
 10
95.8643803551
 20
171.4034879813
 11
96.5997331884
 21
168.4950079296
  0
LINE
  5
3A4
100
AcDbEntity
  8
0
100
AcDbLine
 62
7
  6
CONTINUOUS
 10
96.8421061562
 20
168.5562872389
 11
96.6700023002
 21
169.2369953416
  0
LINE
  5
3A5
100
AcDbEntity
  8
0
100
AcDbLine
 62
7
  6
CONTINUOUS
 10
96.5761274816
 20
169.6082906231
 11
96.1067533229
 21
171.4647672905
  0
LINE
  5
3A6
100
AcDbEntity
  8
RUNDUNGEN
100
AcDbLine
 62
7
  6
CONTINUOUS
 10
115.4658601722
 20
36.4494608256
 11
115.4658601722
 21
37.4494012027
  0
LINE
  5
3A7
100
AcDbEntity
  8
RUNDUNGEN
100
AcDbLine
 62
7
  6
CONTINUOUS
 10
115.4658601722
 20
173.8114142907
 11
115.4658601722
 21
174.8113212216
  0
LINE
  5
3A8
100
AcDbEntity
  8
0
100
AcDbLine
 62
7
  6
CONTINUOUS
 10
132.1709630609
 20
169.19661008
 11
132.1367968578
 21
168.9867650045
  0
LINE
  5
3A9
100
AcDbEntity
  8
0
100
AcDbLine
 62
7
  6
CONTINUOUS
 10
132.2748238595
 20
168.9444256161
 11
132.3213447463
 21
169.1945460075
  0
LINE
  5
3AA
100
AcDbEntity
  8
0
100
AcDbLine
 62
7
  6
CONTINUOUS
 10
133.1720877998
 20
169.5064290443
 11
133.1255666144
 21
169.2563088062
  0
LINE
  5
3AB
100
AcDbEntity
  8
0
100
AcDbLine
 62
7
  6
CONTINUOUS
 10
134.5656208393
 20
168.4328420103
 11
134.5235289868
 21
168.2244420076
  0
LINE
  5
3AC
100
AcDbEntity
  8
0
100
AcDbLine
 62
7
  6
CONTINUOUS
 10
134.6598528273
 20
168.176903733
 11
134.7158160498
 21
168.4250821767
  0
LINE
  5
3AD
100
AcDbEntity
  8
0
100
AcDbLine
 62
7
  6
CONTINUOUS
 10
135.5777643119
 20
168.7045101017
 11
135.5218011087
 21
168.4563317137
  0
LINE
  5
3AE
100
AcDbEntity
  8
0
100
AcDbLine
 62
7
  6
CONTINUOUS
 10
138.3319102205
 20
167.0692598546
 11
138.2448295051
 21
166.7860409488
  0
LINE
  5
3AF
100
AcDbEntity
  8
RUNDUNGEN
100
AcDbLine
 62
7
  6
CONTINUOUS
 10
74.3726178993
 20
48.3393259891
 11
74.9603679714
 21
49.1482945621
  0
LINE
  5
3B0
100
AcDbEntity
  8
RUNDUNGEN
100
AcDbLine
 62
7
  6
CONTINUOUS
 10
155.1119478738
 20
159.467480037
 11
155.6996789198
 21
160.2764224228
  0
LINE
  5
3B1
100
AcDbEntity
  8
0
100
AcDbLine
 62
7
  6
CONTINUOUS
 10
164.5396282026
 20
147.4531634395
 11
164.3932293934
 21
147.2989893993
  0
LINE
  5
3B2
100
AcDbEntity
  8
RUNDUNGEN
100
AcDbLine
 62
7
  6
CONTINUOUS
 10
48.1161739414
 20
82.1124307441
 11
49.0671738504
 21
82.4214293456
  0
LINE
  5
3B3
100
AcDbEntity
  8
RUNDUNGEN
100
AcDbLine
 62
7
  6
CONTINUOUS
 10
178.7551552361
 20
124.5596088625
 11
179.7061228777
 21
124.8685969798
  0
LINE
  5
3B4
100
AcDbEntity
  8
RUNDUNGEN
100
AcDbLine
 62
7
  6
CONTINUOUS
 10
49.0671423043
 20
128.8393629515
 11
48.1161739414
 21
129.1483513031
  0
LINE
  5
3B5
100
AcDbEntity
  8
RUNDUNGEN
100
AcDbLine
 62
7
  6
CONTINUOUS
 10
178.7551231636
 20
86.7011836056
 11
179.7061228777
 21
86.3921850674
  0
LINE
  5
3B6
100
AcDbEntity
  8
RUNDUNGEN
100
AcDbLine
 62
7
  6
CONTINUOUS
 10
155.1119285783
 20
51.7933285683
 11
155.6996789198
 21
50.9843596244
  0
LINE
  5
3B7
100
AcDbEntity
  8
RUNDUNGEN
100
AcDbLine
 62
7
  6
CONTINUOUS
 10
74.9603479485
 20
162.1125150443
 11
74.3726178993
 21
162.9214560581
  0
LINE
  5
3B8
100
AcDbEntity
  8
RUNDUNGEN
100
AcDbLine
 62
7
  6
CONTINUOUS
 10
122.2158601722
 20
28.9494608256
 11
122.2158601722
 21
35.2603433165
  0
LINE
  5
3B9
100
AcDbEntity
  8
RUNDUNGEN
100
AcDbLine
 62
7
  6
CONTINUOUS
 10
122.2158601722
 20
176.000336005
 11
122.2158601722
 21
182.3113212216
  0
LINE
  5
3BA
100
AcDbEntity
  8
0
100
AcDbLine
 62
7
  6
CONTINUOUS
 10
128.4088742616
 20
169.8084115016
 11
128.4105427599
 21
169.9380403503
  0
LINE
  5
3BB
100
AcDbEntity
  8
0
100
AcDbLine
 62
7
  6
CONTINUOUS
 10
128.6912884817
 20
170.606936335
 11
128.6929569801
 21
170.7365651837
  0
LINE
  5
3BC
100
AcDbEntity
  8
0
100
AcDbLine
 62
7
  6
CONTINUOUS
 10
129.4243035823
 20
170.6895712913
 11
129.4259720807
 21
170.81920014
  0
LINE
  5
3BD
100
AcDbEntity
  8
0
100
AcDbLine
 62
7
  6
CONTINUOUS
 10
131.7679795019
 20
169.3142109549
 11
131.7610301127
 21
169.1847577445
  0
LINE
  5
3BE
100
AcDbEntity
  8
0
100
AcDbLine
 62
7
  6
CONTINUOUS
 10
128.2421556166
 20
169.9787994455
 11
128.2305760082
 21
169.8082253995
  0
LINE
  5
3BF
100
AcDbEntity
  8
0
100
AcDbLine
 62
7
  6
CONTINUOUS
 10
128.5146588071
 20
170.7363790622
 11
128.5030791987
 21
170.5658050162
  0
LINE
  5
3C0
100
AcDbEntity
  8
0
100
AcDbLine
 62
7
  6
CONTINUOUS
 10
132.1367968578
 20
168.9867650045
 11
132.1273390916
 21
168.8574709078
  0
LINE
  5
3C1
100
AcDbEntity
  8
0
100
AcDbLine
 62
7
  6
CONTINUOUS
 10
133.3101148015
 20
169.4640896559
 11
133.3195722864
 21
169.5933839623
  0
LINE
  5
3C2
100
AcDbEntity
  8
0
100
AcDbLine
 62
7
  6
CONTINUOUS
 10
134.5235289868
 20
168.2244420076
 11
134.5091792701
 21
168.0955991602
  0
LINE
  5
3C3
100
AcDbEntity
  8
0
100
AcDbLine
 62
7
  6
CONTINUOUS
 10
135.7140881523
 20
168.6569718272
 11
135.7284379079
 21
168.7858147859
  0
LINE
  5
3C4
100
AcDbEntity
  8
0
100
AcDbLine
 62
7
  6
CONTINUOUS
 10
137.142185246
 20
167.0891329402
 11
137.1617725034
 21
167.2172843007
  0
LINE
  5
3C5
100
AcDbEntity
  8
0
100
AcDbLine
 62
7
  6
CONTINUOUS
 10
137.5323642445
 20
167.8409042155
 11
137.5519515019
 21
167.969055576
  0
LINE
  5
3C6
100
AcDbEntity
  8
0
100
AcDbLine
 62
7
  6
CONTINUOUS
 10
138.2697626545
 20
167.8213272233
 11
138.2893505265
 21
167.949478341
  0
LINE
  5
3C7
100
AcDbEntity
  8
0
100
AcDbLine
 62
7
  6
CONTINUOUS
 10
133.2759486157
 20
169.2542446368
 11
133.3101148015
 21
169.4640896559
  0
LINE
  5
3C8
100
AcDbEntity
  8
0
100
AcDbLine
 62
7
  6
CONTINUOUS
 10
138.3721867823
 20
166.6414911527
 11
138.3942835756
 21
166.7692335709
  0
LINE
  5
3C9
100
AcDbEntity
  8
0
100
AcDbLine
 62
7
  6
CONTINUOUS
 10
139.131156355
 20
166.735201957
 11
139.109059539
 21
166.6074594843
  0
LINE
  5
3CA
100
AcDbEntity
  8
0
100
AcDbLine
 62
7
  6
CONTINUOUS
 10
139.4976577428
 20
167.3125669154
 11
139.5197545361
 21
167.4403093337
  0
LINE
  5
3CB
100
AcDbEntity
  8
0
100
AcDbLine
 62
7
  6
CONTINUOUS
 10
135.6719963193
 20
168.4485718802
 11
135.7140881523
 21
168.6569718272
  0
LINE
  5
3CC
100
AcDbEntity
  8
0
100
AcDbLine
 62
7
  6
CONTINUOUS
 10
137.0006440167
 20
167.2809488379
 11
136.9655760227
 21
167.1136173029
  0
LINE
  5
3CD
100
AcDbEntity
  8
0
100
AcDbLine
 62
7
  6
CONTINUOUS
 10
137.3753422786
 20
167.9935399388
 11
137.3402742845
 21
167.8262084038
  0
LINE
  5
3CE
100
AcDbEntity
  8
RUNDUNGEN
100
AcDbLine
 62
7
  6
CONTINUOUS
 10
75.4250932191
 20
38.3041480783
 11
79.1345386258
 21
43.409761671
  0
LINE
  5
3CF
100
AcDbEntity
  8
RUNDUNGEN
100
AcDbLine
 62
7
  6
CONTINUOUS
 10
161.8594304488
 20
157.2708071492
 11
165.568933024
 21
162.3764994276
  0
LINE
  5
3D0
100
AcDbEntity
  8
0
100
AcDbLine
 62
7
  6
CONTINUOUS
 10
163.6351946174
 20
148.1455260191
 11
163.71371917
 21
148.2486779137
  0
LINE
  5
3D1
100
AcDbEntity
  8
0
100
AcDbLine
 62
7
  6
CONTINUOUS
 10
164.3375498539
 20
148.6189146787
 11
164.4160744065
 21
148.7220665733
  0
LINE
  5
3D2
100
AcDbEntity
  8
0
100
AcDbLine
 62
7
  6
CONTINUOUS
 10
164.9756659188
 20
148.2488504509
 11
165.0541904847
 21
148.3520023297
  0
LINE
  5
3D3
100
AcDbEntity
  8
0
100
AcDbLine
 62
7
  6
CONTINUOUS
 10
163.6027037336
 20
148.3816859412
 11
163.4918368123
 21
148.2515394089
  0
LINE
  5
3D4
100
AcDbEntity
  8
0
100
AcDbLine
 62
7
  6
CONTINUOUS
 10
164.2727165964
 20
148.828079969
 11
164.1618496768
 21
148.6979334347
  0
LINE
  5
3D5
100
AcDbEntity
  8
0
100
AcDbLine
 62
7
  6
CONTINUOUS
 10
164.5343851278
 20
147.1900610327
 11
164.6478952261
 21
147.3179088126
  0
LINE
  5
3D6
100
AcDbEntity
  8
0
100
AcDbLine
 62
7
  6
CONTINUOUS
 10
165.7599814023
 20
147.2094631989
 11
165.646471304
 21
147.081615419
  0
LINE
  5
3D7
100
AcDbEntity
  8
0
100
AcDbLine
 62
7
  6
CONTINUOUS
 10
165.7547383275
 20
146.946360792
 11
165.9011371772
 21
147.1005349704
  0
LINE
  5
3D8
100
AcDbEntity
  8
0
100
AcDbLine
 62
7
  6
CONTINUOUS
 10
167.5560615021
 20
144.9066296698
 11
167.6747682991
 21
145.0296674041
  0
LINE
  5
3D9
100
AcDbEntity
  8
0
100
AcDbLine
 62
7
  6
CONTINUOUS
 10
169.8108147561
 20
141.5816290887
 11
169.9366771546
 21
141.6973367525
  0
LINE
  5
3DA
100
AcDbEntity
  8
RUNDUNGEN
100
AcDbLine
 62
7
  6
CONTINUOUS
 10
43.0691147812
 20
73.3751718013
 11
49.0711194619
 21
75.3253413389
  0
LINE
  5
3DB
100
AcDbEntity
  8
RUNDUNGEN
100
AcDbLine
 62
7
  6
CONTINUOUS
 10
182.9228068152
 20
118.816390934
 11
188.9249114619
 21
120.7665929526
  0
LINE
  5
3DC
100
AcDbEntity
  8
RUNDUNGEN
100
AcDbLine
 62
7
  6
CONTINUOUS
 10
188.9249114619
 20
90.4941890946
 11
182.9229042879
 21
92.4443594424
  0
LINE
  5
3DD
100
AcDbEntity
  8
RUNDUNGEN
100
AcDbLine
 62
7
  6
CONTINUOUS
 10
49.0712173123
 20
135.9354089148
 11
43.0691147812
 21
137.8856102459
  0
LINE
  5
3DE
100
AcDbEntity
  8
RUNDUNGEN
100
AcDbLine
 62
7
  6
CONTINUOUS
 10
165.568933024
 20
48.8842826196
 11
161.8594911049
 21
53.9898914121
  0
LINE
  5
3DF
100
AcDbEntity
  8
RUNDUNGEN
100
AcDbLine
 62
7
  6
CONTINUOUS
 10
79.1345374438
 20
167.851022003
 11
75.4250932191
 21
172.9566339689
  0
LINE
  5
3E0
100
AcDbEntity
  8
0
100
AcDbLine
 62
7
  6
CONTINUOUS
 10
91.4395995829
 20
167.8477860159
 11
91.6768548959
 21
167.45618955
  0
LINE
  5
3E1
100
AcDbEntity
  8
0
100
AcDbLine
 62
7
  6
CONTINUOUS
 10
91.8053532738
 20
167.701457311
 11
91.6765490819
 21
167.9275044596
  0
LINE
  5
3E2
100
AcDbEntity
  8
0
100
AcDbLine
 62
7
  6
CONTINUOUS
 10
92.5089069012
 20
168.7463031896
 11
92.6377116353
 21
168.5202562235
  0
LINE
  5
3E3
100
AcDbEntity
  8
0
100
AcDbLine
 62
7
  6
CONTINUOUS
 10
92.8746605921
 20
168.5999744847
 11
92.7458564003
 21
168.8260216333
  0
LINE
  5
3E4
100
AcDbEntity
  8
0
100
AcDbLine
 62
7
  6
CONTINUOUS
 10
95.5080890244
 20
169.7842430863
 11
95.6429693851
 21
169.4907072479
  0
LINE
  5
3E5
100
AcDbEntity
  8
0
100
AcDbLine
 62
7
  6
CONTINUOUS
 10
95.8835537985
 20
169.5586722048
 11
95.7486734379
 21
169.8522080432
  0
LINE
  5
3E6
100
AcDbEntity
  8
0
100
AcDbLine
 62
7
  6
CONTINUOUS
 10
129.310276558
 20
169.8502872286
 11
129.2937916698
 21
170.0276545112
  0
LINE
  5
3E7
100
AcDbEntity
  8
0
100
AcDbLine
 62
7
  6
CONTINUOUS
 10
129.2476738273
 20
170.8190140379
 11
129.2559163587
 21
170.7303304059
  0
LINE
  5
3E8
100
AcDbEntity
  8
0
100
AcDbLine
 62
7
  6
CONTINUOUS
 10
130.8540482634
 20
169.2685928322
 11
130.8632919676
 21
169.0907012096
  0
LINE
  5
3E9
100
AcDbEntity
  8
0
100
AcDbLine
 62
7
  6
CONTINUOUS
 10
131.0298784912
 20
169.0431145237
 11
131.0206347869
 21
169.2210061463
  0
LINE
  5
3EA
100
AcDbEntity
  8
0
100
AcDbLine
 62
7
  6
CONTINUOUS
 10
132.1273390916
 20
168.8574709078
 11
132.1331326021
 21
168.679433415
  0
LINE
  5
3EB
100
AcDbEntity
  8
0
100
AcDbLine
 62
7
  6
CONTINUOUS
 10
133.3195722864
 20
169.5933839623
 11
133.3137790832
 21
169.77142133
  0
LINE
  5
3EC
100
AcDbEntity
  8
0
100
AcDbLine
 62
7
  6
CONTINUOUS
 10
134.5091792701
 20
168.0955991602
 11
134.5082238152
 21
167.9174698845
  0
LINE
  5
3ED
100
AcDbEntity
  8
0
100
AcDbLine
 62
7
  6
CONTINUOUS
 10
135.7284379079
 20
168.7858147859
 11
135.7293933531
 21
168.9639440338
  0
LINE
  5
3EE
100
AcDbEntity
  8
0
100
AcDbLine
 62
7
  6
CONTINUOUS
 10
131.9114235508
 20
169.1856094992
 11
131.9137507661
 21
169.4040085974
  0
LINE
  5
3EF
100
AcDbEntity
  8
0
100
AcDbLine
 62
7
  6
CONTINUOUS
 10
138.0407120993
 20
167.0058913011
 11
138.0489251623
 21
167.1838337281
  0
LINE
  5
3F0
100
AcDbEntity
  8
0
100
AcDbLine
 62
7
  6
CONTINUOUS
 10
138.1127413032
 20
167.9739627037
 11
138.1086341679
 21
167.8849917605
  0
LINE
  5
3F1
100
AcDbEntity
  8
0
100
AcDbLine
 62
7
  6
CONTINUOUS
 10
138.2448295051
 20
166.7860409488
 11
138.2168831016
 21
166.5694246837
  0
LINE
  5
3F2
100
AcDbEntity
  8
0
100
AcDbLine
 62
7
  6
CONTINUOUS
 10
139.2585136322
 20
166.5906521609
 11
139.2864600243
 21
166.8072683988
  0
LINE
  5
3F3
100
AcDbEntity
  8
RUNDUNGEN
100
AcDbLine
 62
7
  6
CONTINUOUS
 10
108.4285567425
 20
28.6404438313
 11
110.9658601722
 21
36.4494608256
  0
LINE
  5
3F4
100
AcDbEntity
  8
RUNDUNGEN
100
AcDbLine
 62
7
  6
CONTINUOUS
 10
152.0591024451
 20
162.9214560581
 11
154.5964058748
 21
170.7304730525
  0
LINE
  5
3F5
100
AcDbEntity
  8
0
100
AcDbLine
 62
7
  6
CONTINUOUS
 10
164.3843260281
 20
147.6424536882
 11
164.4766904578
 21
147.79476822
  0
LINE
  5
3F6
100
AcDbEntity
  8
0
100
AcDbLine
 62
7
  6
CONTINUOUS
 10
164.9108326746
 20
148.4580157254
 11
164.8646504824
 21
148.3818584784
  0
LINE
  5
3F7
100
AcDbEntity
  8
0
100
AcDbLine
 62
7
  6
CONTINUOUS
 10
164.3932293934
 20
147.2989893993
 11
164.2977637588
 21
147.1485991846
  0
LINE
  5
3F8
100
AcDbEntity
  8
0
100
AcDbLine
 62
7
  6
CONTINUOUS
 10
165.9011371772
 20
147.1005349704
 11
165.9966028404
 21
147.2509251022
  0
LINE
  5
3F9
100
AcDbEntity
  8
RUNDUNGEN
100
AcDbLine
 62
7
  6
CONTINUOUS
 10
64.0892948059
 20
46.1581217032
 11
70.7320414246
 21
50.9843596244
  0
LINE
  5
3FA
100
AcDbEntity
  8
RUNDUNGEN
100
AcDbLine
 62
7
  6
CONTINUOUS
 10
178.315546403
 20
129.1483513031
 11
184.9582930217
 21
133.9745892243
  0
LINE
  5
3FB
100
AcDbEntity
  8
0
100
AcDbLine
 62
7
  6
CONTINUOUS
 10
167.986221142
 20
142.3695753238
 11
169.070619412
 21
142.6419695694
  0
LINE
  5
3FC
100
AcDbEntity
  8
0
100
AcDbLine
 62
7
  6
CONTINUOUS
 10
169.0926163672
 20
142.7607929745
 11
168.0082179991
 21
142.4883986633
  0
LINE
  5
3FD
100
AcDbEntity
  8
0
100
AcDbLine
 62
7
  6
CONTINUOUS
 10
169.6460205254
 20
141.6814158666
 11
169.4731441347
 21
141.6384659494
  0
LINE
  5
3FE
100
AcDbEntity
  8
RUNDUNGEN
100
AcDbLine
 62
7
  6
CONTINUOUS
 10
187.9170092557
 20
124.8685969798
 11
179.7061228777
 21
124.8685969798
  0
LINE
  5
3FF
100
AcDbEntity
  8
RUNDUNGEN
100
AcDbLine
 62
7
  6
CONTINUOUS
 10
46.7255974667
 20
124.8685969798
 11
38.5147110887
 21
124.8685969798
  0
LINE
  5
400
100
AcDbEntity
  8
RUNDUNGEN
100
AcDbLine
 62
7
  6
CONTINUOUS
 10
184.9582930217
 20
77.2861928228
 11
178.315546403
 21
82.1124307441
  0
LINE
  5
401
100
AcDbEntity
  8
RUNDUNGEN
100
AcDbLine
 62
7
  6
CONTINUOUS
 10
70.7320414246
 20
160.2764224228
 11
64.0892948059
 21
165.102660344
  0
LINE
  5
402
100
AcDbEntity
  8
0
100
AcDbLine
 62
7
  6
CONTINUOUS
 10
88.8844975906
 20
168.6049363036
 11
89.0015143618
 21
168.4453266629
  0
LINE
  5
403
100
AcDbEntity
  8
0
100
AcDbLine
 62
7
  6
CONTINUOUS
 10
89.2804223491
 20
168.5558270459
 11
89.1634055779
 21
168.7154366866
  0
LINE
  5
404
100
AcDbEntity
  8
0
100
AcDbLine
 62
7
  6
CONTINUOUS
 10
92.7458564003
 20
168.8260216333
 11
92.6374058357
 21
168.9915710908
  0
LINE
  5
405
100
AcDbEntity
  8
0
100
AcDbLine
 62
7
  6
CONTINUOUS
 10
95.7486734379
 20
169.8522080432
 11
95.6484980059
 21
170.022892219
  0
LINE
  5
406
100
AcDbEntity
  8
RUNDUNGEN
100
AcDbLine
 62
7
  6
CONTINUOUS
 10
154.5964058748
 20
40.5303089947
 11
152.0591024451
 21
48.3393259891
  0
LINE
  5
407
100
AcDbEntity
  8
RUNDUNGEN
100
AcDbLine
 62
7
  6
CONTINUOUS
 10
110.9658601722
 20
174.8113212216
 11
108.4285567425
 21
182.6203382159
  0
LINE
  5
408
100
AcDbEntity
  8
0
100
AcDbLine
 62
7
  6
CONTINUOUS
 10
138.2893505265
 20
167.949478341
 11
138.2707092299
 21
168.1380313074
  0
LINE
  5
409
100
AcDbEntity
  8
0
100
AcDbLine
 62
7
  6
CONTINUOUS
 10
134.6856840434
 20
167.900202309
 11
134.6598528273
 21
168.176903733
  0
LINE
  5
40A
100
AcDbEntity
  8
0
100
AcDbLine
 62
7
  6
CONTINUOUS
 10
135.5519331248
 20
168.9812116094
 11
135.5777643119
 21
168.7045101017
  0
LINE
  5
40B
100
AcDbEntity
  8
0
100
AcDbLine
 62
7
  6
CONTINUOUS
 10
138.2168831016
 20
166.5694246837
 11
138.23182381
 21
166.3805424471
  0
LINE
  5
40C
100
AcDbEntity
  8
0
100
AcDbLine
 62
7
  6
CONTINUOUS
 10
139.5197545361
 20
167.4403093337
 11
139.504813822
 21
167.6291915566
  0
LINE
  5
40D
100
AcDbEntity
  8
0
100
AcDbLine
 62
7
  6
CONTINUOUS
 10
137.8568352023
 20
167.1691379163
 11
137.8641028759
 21
167.0303756638
  0
LINE
  5
40E
100
AcDbEntity
  8
0
100
AcDbLine
 62
7
  6
CONTINUOUS
 10
138.3767323285
 20
166.5026131042
 11
138.3721867823
 21
166.6414911527
  0
LINE
  5
40F
100
AcDbEntity
  8
0
100
AcDbLine
 62
7
  6
CONTINUOUS
 10
139.3599053092
 20
167.5071209132
 11
139.3644496472
 21
167.3682434016
  0
LINE
  5
410
100
AcDbEntity
  8
0
100
AcDbLine
 62
7
  6
CONTINUOUS
 10
136.9655760227
 20
167.1136173029
 11
136.9687365664
 21
166.8858841209
  0
LINE
  5
411
100
AcDbEntity
  8
0
100
AcDbLine
 62
7
  6
CONTINUOUS
 10
165.0541904847
 20
148.3520023297
 11
165.1280522611
 21
148.5264848705
  0
LINE
  5
412
100
AcDbEntity
  8
0
100
AcDbLine
 62
7
  6
CONTINUOUS
 10
164.3009902741
 20
147.8737869839
 11
164.2409682181
 21
147.7484670839
  0
LINE
  5
413
100
AcDbEntity
  8
0
100
AcDbLine
 62
7
  6
CONTINUOUS
 10
164.4718081237
 20
147.0659972257
 11
164.5343851278
 21
147.1900610327
  0
LINE
  5
414
100
AcDbEntity
  8
0
100
AcDbLine
 62
7
  6
CONTINUOUS
 10
165.8225584985
 20
147.3335270796
 11
165.7599814023
 21
147.2094631989
  0
LINE
  5
415
100
AcDbEntity
  8
0
100
AcDbLine
 62
7
  6
CONTINUOUS
 10
163.4918368123
 20
148.2515394089
 11
163.3856326299
 21
148.0500622059
  0
LINE
  5
416
100
AcDbEntity
  8
0
100
AcDbLine
 62
7
  6
CONTINUOUS
 10
167.5211485046
 20
145.1676177672
 11
167.4534880005
 21
145.0462514419
  0
LINE
  5
417
100
AcDbEntity
  8
0
100
AcDbLine
 62
7
  6
CONTINUOUS
 10
169.7915951246
 20
141.8442399469
 11
169.7167874891
 21
141.7271434714
  0
LINE
  5
418
100
AcDbEntity
  8
0
100
AcDbLine
 62
7
  6
CONTINUOUS
 10
164.1439410971
 20
147.6674831885
 11
164.009908866
 21
147.6308352601
  0
LINE
  5
419
100
AcDbEntity
  8
0
100
AcDbLine
 62
7
  6
CONTINUOUS
 10
165.0035421954
 20
146.6039576922
 11
164.8687872444
 21
146.5700635505
  0
LINE
  5
41A
100
AcDbEntity
  8
0
100
AcDbLine
 62
7
  6
CONTINUOUS
 10
165.2908243347
 20
147.7955665394
 11
165.4255793778
 21
147.8294607548
  0
LINE
  5
41B
100
AcDbEntity
  8
0
100
AcDbLine
 62
7
  6
CONTINUOUS
 10
167.1992194466
 20
144.7519635486
 11
167.3352624155
 21
144.7802485149
  0
LINE
  5
41C
100
AcDbEntity
  8
0
100
AcDbLine
 62
7
  6
CONTINUOUS
 10
167.0431939939
 20
145.6047385305
 11
167.1792369628
 21
145.6330234968
  0
LINE
  5
41D
100
AcDbEntity
  8
0
100
AcDbLine
 62
7
  6
CONTINUOUS
 10
169.992186231
 20
140.8133389636
 11
170.3036023005
 21
140.8709811949
  0
LINE
  5
41E
100
AcDbEntity
  8
0
100
AcDbLine
 62
7
  6
CONTINUOUS
 10
170.2273620744
 20
140.993584233
 11
169.915946005
 21
140.9359420017
  0
LINE
  5
41F
100
AcDbEntity
  8
0
100
AcDbLine
 62
7
  6
CONTINUOUS
 10
169.8092094093
 20
141.107586704
 11
170.1206254787
 21
141.1652289352
  0
LINE
  5
420
100
AcDbEntity
  8
0
100
AcDbLine
 62
7
  6
CONTINUOUS
 10
170.0443852526
 20
141.2878319733
 11
169.7329691832
 21
141.230189742
  0
LINE
  5
421
100
AcDbEntity
  8
0
100
AcDbLine
 62
7
  6
CONTINUOUS
 10
169.4453501327
 20
141.4486122825
 11
169.5828427324
 21
141.4686989845
  0
LINE
  5
422
100
AcDbEntity
  8
0
100
AcDbLine
 62
7
  6
CONTINUOUS
 10
169.3406784214
 20
142.3092010022
 11
169.478171021
 21
142.3292877042
  0
LINE
  5
423
100
AcDbEntity
  8
0
100
AcDbLine
 62
7
  6
CONTINUOUS
 10
91.6768548959
 20
167.45618955
 11
91.8326954216
 21
167.3065837783
  0
LINE
  5
424
100
AcDbEntity
  8
0
100
AcDbLine
 62
7
  6
CONTINUOUS
 10
91.9611940778
 20
167.5518516094
 11
91.8053532738
 21
167.701457311
  0
LINE
  5
425
100
AcDbEntity
  8
0
100
AcDbLine
 62
7
  6
CONTINUOUS
 10
92.3530663826
 20
168.8959089401
 11
92.5089069012
 21
168.7463031896
  0
LINE
  5
426
100
AcDbEntity
  8
0
100
AcDbLine
 62
7
  6
CONTINUOUS
 10
92.6374058357
 20
168.9915710908
 11
92.4815650459
 21
169.14117675
  0
LINE
  5
427
100
AcDbEntity
  8
0
100
AcDbLine
 62
7
  6
CONTINUOUS
 10
129.4259720807
 20
170.81920014
 11
129.3814225878
 21
171.003360564
  0
LINE
  5
428
100
AcDbEntity
  8
0
100
AcDbLine
 62
7
  6
CONTINUOUS
 10
130.8632919676
 20
169.0907012096
 11
130.9003003084
 21
168.9048784264
  0
LINE
  5
429
100
AcDbEntity
  8
0
100
AcDbLine
 62
7
  6
CONTINUOUS
 10
131.9137507661
 20
169.4040085974
 11
131.8767424213
 21
169.5898313664
  0
LINE
  5
42A
100
AcDbEntity
  8
0
100
AcDbLine
 62
7
  6
CONTINUOUS
 10
129.1055823867
 20
169.9865231925
 11
129.1319783047
 21
169.8501011265
  0
LINE
  5
42B
100
AcDbEntity
  8
0
100
AcDbLine
 62
7
  6
CONTINUOUS
 10
128.2305760082
 20
169.8082253995
 11
128.265214461
 21
169.5831197159
  0
LINE
  5
42C
100
AcDbEntity
  8
0
100
AcDbLine
 62
7
  6
CONTINUOUS
 10
131.7471642426
 20
169.4515952833
 11
131.7679795019
 21
169.3142109549
  0
LINE
  5
42D
100
AcDbEntity
  8
0
100
AcDbLine
 62
7
  6
CONTINUOUS
 10
132.3111196247
 20
168.6689014842
 11
132.2748238595
 21
168.9444256161
  0
LINE
  5
42E
100
AcDbEntity
  8
0
100
AcDbLine
 62
7
  6
CONTINUOUS
 10
133.1357920606
 20
169.7819532608
 11
133.1720877998
 21
169.5064290443
  0
LINE
  5
42F
100
AcDbEntity
  8
0
100
AcDbLine
 62
7
  6
CONTINUOUS
 10
147.5282167293
 20
117.3506859218
 11
147.5282167293
 21
116.5021577843
  0
LINE
  5
430
100
AcDbEntity
  8
0
100
AcDbLine
 62
7
  6
CONTINUOUS
 10
147.5282167293
 20
94.7586242629
 11
147.5282167293
 21
93.9100961254
  0
LINE
  5
431
100
AcDbEntity
  8
0
100
AcDbLine
 62
7
  6
CONTINUOUS
 10
163.593675192
 20
147.9980380911
 11
163.6351946174
 21
148.1455260191
  0
LINE
  5
432
100
AcDbEntity
  8
0
100
AcDbLine
 62
7
  6
CONTINUOUS
 10
164.1618496768
 20
148.6979334347
 11
164.1064904753
 21
148.5012828866
  0
LINE
  5
433
100
AcDbEntity
  8
0
100
AcDbLine
 62
7
  6
CONTINUOUS
 10
164.4766904578
 20
147.79476822
 11
164.5320496262
 21
147.9914188077
  0
LINE
  5
434
100
AcDbEntity
  8
0
100
AcDbLine
 62
7
  6
CONTINUOUS
 10
164.9385122588
 20
148.5563410192
 11
164.9108326746
 21
148.4580157254
  0
LINE
  5
435
100
AcDbEntity
  8
0
100
AcDbLine
 62
7
  6
CONTINUOUS
 10
164.2977637588
 20
147.1485991846
 11
164.2383871607
 21
146.953124082
  0
LINE
  5
436
100
AcDbEntity
  8
0
100
AcDbLine
 62
7
  6
CONTINUOUS
 10
164.8050526866
 20
146.8519244653
 11
164.730831853
 21
146.6075806768
  0
LINE
  5
437
100
AcDbEntity
  8
0
100
AcDbLine
 62
7
  6
CONTINUOUS
 10
164.656611025
 20
146.363236893
 11
164.6269227776
 21
146.2654992772
  0
LINE
  5
438
100
AcDbEntity
  8
0
100
AcDbLine
 62
7
  6
CONTINUOUS
 10
164.8687872444
 20
146.5700635505
 11
164.9133197102
 21
146.7166698383
  0
LINE
  5
439
100
AcDbEntity
  8
0
100
AcDbLine
 62
7
  6
CONTINUOUS
 10
164.7351898012
 20
146.1302446502
 11
164.8094105316
 21
146.3745885677
  0
LINE
  5
43A
100
AcDbEntity
  8
0
100
AcDbLine
 62
7
  6
CONTINUOUS
 10
165.9966028404
 20
147.2509251022
 11
166.055979427
 21
147.4464001956
  0
LINE
  5
43B
100
AcDbEntity
  8
0
100
AcDbLine
 62
7
  6
CONTINUOUS
 10
167.6747682991
 20
145.0296674041
 11
167.7421881496
 21
145.2225162907
  0
LINE
  5
43C
100
AcDbEntity
  8
0
100
AcDbLine
 62
7
  6
CONTINUOUS
 10
169.9366771546
 20
141.6973367525
 11
170.0155259196
 21
141.8858016075
  0
LINE
  5
43D
100
AcDbEntity
  8
0
100
AcDbLine
 62
7
  6
CONTINUOUS
 10
157.4340576637
 20
104.6644651973
 11
147.5282167293
 21
94.7586242629
  0
LINE
  5
43E
100
AcDbEntity
  8
0
100
AcDbLine
 62
7
  6
CONTINUOUS
 10
124.0876269329
 20
71.3180344665
 11
114.1817859985
 21
61.4121935321
  0
LINE
  5
43F
100
AcDbEntity
  8
0
100
AcDbLine
 62
7
  6
CONTINUOUS
 10
147.5282167293
 20
93.9100961254
 11
124.9361550704
 21
71.3180344665
  0
LINE
  5
440
100
AcDbEntity
  8
0
100
AcDbLine
 62
7
  6
CONTINUOUS
 10
163.8528597003
 20
147.4245314742
 11
164.0562395324
 21
147.4438379501
  0
LINE
  5
441
100
AcDbEntity
  8
0
100
AcDbLine
 62
7
  6
CONTINUOUS
 10
164.7533380389
 20
149.0411755978
 11
164.5499582512
 21
149.0218690917
  0
LINE
  5
442
100
AcDbEntity
  8
0
100
AcDbLine
 62
7
  6
CONTINUOUS
 10
164.8094105316
 20
146.3745885677
 11
164.9112769266
 21
146.3821562556
  0
LINE
  5
443
100
AcDbEntity
  8
0
100
AcDbLine
 62
7
  6
CONTINUOUS
 10
165.5868223594
 20
148.0325035361
 11
165.3830896726
 21
148.0173680313
  0
LINE
  5
444
100
AcDbEntity
  8
0
100
AcDbLine
 62
7
  6
CONTINUOUS
 10
168.3769587485
 20
143.4447510657
 11
168.7182075579
 21
143.4677098717
  0
LINE
  5
445
100
AcDbEntity
  8
0
100
AcDbLine
 62
7
  6
CONTINUOUS
 10
168.9966758396
 20
143.6575485661
 11
168.6554271277
 21
143.6345898266
  0
LINE
  5
446
100
AcDbEntity
  8
0
100
AcDbLine
 62
7
  6
CONTINUOUS
 10
167.3147986246
 20
145.8042735859
 11
167.11061404
 21
145.7975871509
  0
LINE
  5
447
100
AcDbEntity
  8
0
100
AcDbLine
 62
7
  6
CONTINUOUS
 10
101.495565274
 20
139.9427475807
 11
102.3440934115
 21
139.9427475807
  0
LINE
  5
448
100
AcDbEntity
  8
0
100
AcDbLine
 62
7
  6
CONTINUOUS
 10
124.0876269329
 20
139.9427475807
 11
124.9361550704
 21
139.9427475807
  0
LINE
  5
449
100
AcDbEntity
  8
0
100
AcDbLine
 62
7
  6
CONTINUOUS
 10
169.6237458798
 20
142.4921111654
 11
169.4195271864
 21
142.4976658573
  0
LINE
  5
44A
100
AcDbEntity
  8
0
100
AcDbLine
 62
7
  6
CONTINUOUS
 10
89.1634055779
 20
168.7154366866
 11
88.9299087163
 21
168.8975549666
  0
LINE
  5
44B
100
AcDbEntity
  8
0
100
AcDbLine
 62
7
  6
CONTINUOUS
 10
97.9570236942
 20
168.8381725384
 11
96.9326333786
 21
169.8301028948
  0
LINE
  5
44C
100
AcDbEntity
  8
0
100
AcDbLine
 62
7
  6
CONTINUOUS
 10
114.1817859985
 20
149.8485885151
 11
124.0876269329
 21
139.9427475807
  0
LINE
  5
44D
100
AcDbEntity
  8
0
100
AcDbLine
 62
7
  6
CONTINUOUS
 10
147.5282167293
 20
116.5021577843
 11
157.4340576637
 21
106.5963168499
  0
LINE
  5
44E
100
AcDbEntity
  8
0
100
AcDbLine
 62
7
  6
CONTINUOUS
 10
124.9361550704
 20
139.9427475807
 11
147.5282167293
 21
117.3506859218
  0
LINE
  5
44F
100
AcDbEntity
  8
0
100
AcDbLine
 62
7
  6
CONTINUOUS
 10
96.8341468073
 20
169.6076875257
 11
97.6661756891
 21
168.7646372551
  0
LINE
  5
450
100
AcDbEntity
  8
0
100
AcDbLine
 62
7
  6
CONTINUOUS
 10
128.4633347773
 20
169.6651962656
 11
128.4088742616
 21
169.8084115016
  0
LINE
  5
451
100
AcDbEntity
  8
0
100
AcDbLine
 62
7
  6
CONTINUOUS
 10
128.5030791987
 20
170.5658050162
 11
128.5756932824
 21
170.3748513935
  0
LINE
  5
452
100
AcDbEntity
  8
0
100
AcDbLine
 62
7
  6
CONTINUOUS
 10
129.2937916698
 20
170.0276545112
 11
129.2211775861
 21
170.2186081339
  0
LINE
  5
453
100
AcDbEntity
  8
0
100
AcDbLine
 62
7
  6
CONTINUOUS
 10
129.2113668658
 20
170.9144908299
 11
129.2476738273
 21
170.8190140379
  0
LINE
  5
454
100
AcDbEntity
  8
0
100
AcDbLine
 62
7
  6
CONTINUOUS
 10
132.1331326021
 20
168.679433415
 11
132.1788858218
 21
168.5332034908
  0
LINE
  5
455
100
AcDbEntity
  8
0
100
AcDbLine
 62
7
  6
CONTINUOUS
 10
133.3137790832
 20
169.77142133
 11
133.2680258591
 21
169.9176512401
  0
LINE
  5
456
100
AcDbEntity
  8
0
100
AcDbLine
 62
7
  6
CONTINUOUS
 10
134.5082238152
 20
167.9174698845
 11
134.548404129
 21
167.7696115393
  0
LINE
  5
457
100
AcDbEntity
  8
0
100
AcDbLine
 62
7
  6
CONTINUOUS
 10
135.7293933531
 20
168.9639440338
 11
135.6892130345
 21
169.1118023651
  0
LINE
  5
458
100
AcDbEntity
  8
0
100
AcDbLine
 62
7
  6
CONTINUOUS
 10
137.1763072685
 20
166.9397601208
 11
137.142185246
 21
167.0891329402
  0
LINE
  5
459
100
AcDbEntity
  8
0
100
AcDbLine
 62
7
  6
CONTINUOUS
 10
137.3402742845
 20
167.8262084038
 11
137.3857705338
 21
167.6270446003
  0
LINE
  5
45A
100
AcDbEntity
  8
0
100
AcDbLine
 62
7
  6
CONTINUOUS
 10
138.0489251623
 20
167.1838337281
 11
138.0034295277
 21
167.3829972887
  0
LINE
  5
45B
100
AcDbEntity
  8
0
100
AcDbLine
 62
7
  6
CONTINUOUS
 10
138.0899928712
 20
168.0735447269
 11
138.1127413032
 21
167.9739627037
  0
LINE
  5
45C
100
AcDbEntity
  8
0
100
AcDbLine
 62
7
  6
CONTINUOUS
 10
139.1103648225
 20
166.83521087
 11
139.131156355
 21
166.735201957
  0
LINE
  5
45D
100
AcDbEntity
  8
0
100
AcDbLine
 62
7
  6
CONTINUOUS
 10
139.2864600243
 20
166.8072683988
 11
139.2552733354
 21
166.9572815134
  0
LINE
  5
45E
100
AcDbEntity
  8
0
100
AcDbLine
 62
7
  6
CONTINUOUS
 10
164.4601642941
 20
146.9457172442
 11
164.4718081237
 21
147.0659972257
  0
LINE
  5
45F
100
AcDbEntity
  8
0
100
AcDbLine
 62
7
  6
CONTINUOUS
 10
165.1280522611
 20
148.5264848705
 11
165.1510691087
 21
148.696140763
  0
LINE
  5
460
100
AcDbEntity
  8
0
100
AcDbLine
 62
7
  6
CONTINUOUS
 10
168.0082179991
 20
142.4883986633
 11
167.986221142
 21
142.3695753238
  0
LINE
  5
461
100
AcDbEntity
  8
0
100
AcDbLine
 62
7
  6
CONTINUOUS
 10
157.7900149166
 20
90.919727211
 11
127.9265239848
 21
61.0562362793
  0
LINE
  5
462
100
AcDbEntity
  8
0
100
AcDbLine
 62
7
  6
CONTINUOUS
 10
167.2155931998
 20
144.94314076
 11
165.8881523815
 21
144.9711618407
  0
LINE
  5
463
100
AcDbEntity
  8
0
100
AcDbLine
 62
7
  6
CONTINUOUS
 10
166.0249171156
 20
144.784999389
 11
167.1992194466
 21
144.7519635486
  0
LINE
  5
464
100
AcDbEntity
  8
0
100
AcDbLine
 62
7
  6
CONTINUOUS
 10
169.4731441347
 20
141.6384659494
 11
168.1497645795
 21
141.7459383908
  0
LINE
  5
465
100
AcDbEntity
  8
0
100
AcDbLine
 62
7
  6
CONTINUOUS
 10
168.2751341492
 20
141.5519193989
 11
169.4453501327
 21
141.4486122825
  0
LINE
  5
466
100
AcDbEntity
  8
0
100
AcDbLine
 62
7
  6
CONTINUOUS
 10
164.009908866
 20
147.6308352601
 11
163.8897163778
 21
147.6433499914
  0
LINE
  5
467
100
AcDbEntity
  8
0
100
AcDbLine
 62
7
  6
CONTINUOUS
 10
88.7445067833
 20
168.6867870608
 11
88.8844975906
 21
168.6049363036
  0
LINE
  5
468
100
AcDbEntity
  8
0
100
AcDbLine
 62
7
  6
CONTINUOUS
 10
91.8326954216
 20
167.3065837783
 11
91.9681823166
 21
167.2174757083
  0
LINE
  5
469
100
AcDbEntity
  8
0
100
AcDbLine
 62
7
  6
CONTINUOUS
 10
92.0966809692
 20
167.46274355
 11
91.9611940778
 21
167.5518516094
  0
LINE
  5
46A
100
AcDbEntity
  8
0
100
AcDbLine
 62
7
  6
CONTINUOUS
 10
92.2175794912
 20
168.9850169995
 11
92.3530663826
 21
168.8959089401
  0
LINE
  5
46B
100
AcDbEntity
  8
0
100
AcDbLine
 62
7
  6
CONTINUOUS
 10
92.4815650459
 20
169.14117675
 11
92.3460778833
 21
169.2302847182
  0
LINE
  5
46C
100
AcDbEntity
  8
0
100
AcDbLine
 62
7
  6
CONTINUOUS
 10
95.3771496696
 20
169.8799085795
 11
95.5080890244
 21
169.7842430863
  0
LINE
  5
46D
100
AcDbEntity
  8
0
100
AcDbLine
 62
7
  6
CONTINUOUS
 10
95.6484980059
 20
170.022892219
 11
95.5175592018
 21
170.1185578677
  0
LINE
  5
46E
100
AcDbEntity
  8
0
100
AcDbLine
 62
7
  6
CONTINUOUS
 10
127.9265239848
 20
150.204545768
 11
157.7900149165
 21
120.3410548362
  0
LINE
  5
46F
100
AcDbEntity
  8
0
100
AcDbLine
 62
7
  6
CONTINUOUS
 10
131.0900292944
 20
168.9383064677
 11
131.0298784912
 21
169.0431145237
  0
LINE
  5
470
100
AcDbEntity
  8
0
100
AcDbLine
 62
7
  6
CONTINUOUS
 10
129.3814225878
 20
171.003360564
 11
129.2988976349
 21
171.1533689311
  0
LINE
  5
471
100
AcDbEntity
  8
0
100
AcDbLine
 62
7
  6
CONTINUOUS
 10
132.3692269006
 20
168.5629470838
 11
132.3111196247
 21
168.6689014842
  0
LINE
  5
472
100
AcDbEntity
  8
0
100
AcDbLine
 62
7
  6
CONTINUOUS
 10
134.7397357322
 20
167.7921224187
 11
134.6856840434
 21
167.900202309
  0
LINE
  5
473
100
AcDbEntity
  8
0
100
AcDbLine
 62
7
  6
CONTINUOUS
 10
138.4241649923
 20
166.3914690978
 11
138.3767323285
 21
166.5026131042
  0
LINE
  5
474
100
AcDbEntity
  8
0
100
AcDbLine
 62
7
  6
CONTINUOUS
 10
138.2707092299
 20
168.1380313074
 11
138.2097316293
 21
168.2980151793
  0
LINE
  5
475
100
AcDbEntity
  8
0
100
AcDbLine
 62
7
  6
CONTINUOUS
 10
164.1064904753
 20
148.5012828866
 11
164.1158160146
 21
148.35862161
  0
LINE
  5
476
100
AcDbEntity
  8
0
100
AcDbLine
 62
7
  6
CONTINUOUS
 10
164.5320496262
 20
147.9914188077
 11
164.5227241002
 21
148.1340800684
  0
LINE
  5
477
100
AcDbEntity
  8
0
100
AcDbLine
 62
7
  6
CONTINUOUS
 10
164.2383871607
 20
146.953124082
 11
164.2447877806
 21
146.8103017603
  0
LINE
  5
478
100
AcDbEntity
  8
0
100
AcDbLine
 62
7
  6
CONTINUOUS
 10
166.055979427
 20
147.4464001956
 11
166.0495786952
 21
147.5892226394
  0
LINE
  5
479
100
AcDbEntity
  8
0
100
AcDbLine
 62
7
  6
CONTINUOUS
 10
167.7421881496
 20
145.2225162907
 11
167.7417070381
 21
145.3654811473
  0
LINE
  5
47A
100
AcDbEntity
  8
0
100
AcDbLine
 62
7
  6
CONTINUOUS
 10
163.3856326299
 20
148.0500622059
 11
163.3811183619
 21
147.8582382832
  0
LINE
  5
47B
100
AcDbEntity
  8
0
100
AcDbLine
 62
7
  6
CONTINUOUS
 10
170.0155259196
 20
141.8858016075
 11
170.0236081787
 21
142.0285383667
  0
LINE
  5
47C
100
AcDbEntity
  8
0
100
AcDbLine
 62
7
  6
CONTINUOUS
 10
164.328372838
 20
148.4984213855
 11
164.3375498539
 21
148.6189146787
  0
LINE
  5
47D
100
AcDbEntity
  8
0
100
AcDbLine
 62
7
  6
CONTINUOUS
 10
164.3101673032
 20
147.9942802612
 11
164.3009902741
 21
147.8737869839
  0
LINE
  5
47E
100
AcDbEntity
  8
0
100
AcDbLine
 62
7
  6
CONTINUOUS
 10
165.8342023051
 20
147.4538070426
 11
165.8225584985
 21
147.3335270796
  0
LINE
  5
47F
100
AcDbEntity
  8
0
100
AcDbLine
 62
7
  6
CONTINUOUS
 10
167.5377629114
 20
145.2873124171
 11
167.5211485046
 21
145.1676177672
  0
LINE
  5
480
100
AcDbEntity
  8
0
100
AcDbLine
 62
7
  6
CONTINUOUS
 10
169.070619412
 20
142.6419695694
 11
169.0926163672
 21
142.7607929745
  0
LINE
  5
481
100
AcDbEntity
  8
0
100
AcDbLine
 62
7
  6
CONTINUOUS
 10
169.8153483557
 20
141.962724679
 11
169.7915951246
 21
141.8442399469
  0
LINE
  5
482
100
AcDbEntity
  8
0
100
AcDbLine
 62
7
  6
CONTINUOUS
 10
137.5399539608
 20
166.5242960329
 11
137.6783340196
 21
166.5602135292
  0
LINE
  5
483
100
AcDbEntity
  8
0
100
AcDbLine
 62
7
  6
CONTINUOUS
 10
137.8337653654
 20
168.4465656851
 11
137.6953853107
 21
168.4106481991
  0
LINE
  5
484
100
AcDbEntity
  8
0
100
AcDbLine
 62
7
  6
CONTINUOUS
 10
164.5962889337
 20
148.8348718085
 11
164.7164814124
 21
148.8223570425
  0
LINE
  5
485
100
AcDbEntity
  8
0
100
AcDbLine
 62
7
  6
CONTINUOUS
 10
165.4255793778
 20
147.8294607548
 11
165.5454902079
 21
147.8144860908
  0
LINE
  5
486
100
AcDbEntity
  8
0
100
AcDbLine
 62
7
  6
CONTINUOUS
 10
167.1792369628
 20
145.6330234968
 11
167.2984248714
 21
145.6130963746
  0
LINE
  5
487
100
AcDbEntity
  8
0
100
AcDbLine
 62
7
  6
CONTINUOUS
 10
169.478171021
 20
142.3292877042
 11
169.5959515191
 21
142.3022580536
  0
LINE
  5
488
100
AcDbEntity
  8
0
100
AcDbLine
 62
7
  6
CONTINUOUS
 10
91.9681823166
 20
167.2174757083
 11
92.0833158537
 21
167.1888654259
  0
LINE
  5
489
100
AcDbEntity
  8
0
100
AcDbLine
 62
7
  6
CONTINUOUS
 10
163.7141646712
 20
147.4592142007
 11
163.8528597003
 21
147.4245314742
  0
LINE
  5
48A
100
AcDbEntity
  8
0
100
AcDbLine
 62
7
  6
CONTINUOUS
 10
164.8920330728
 20
149.0064928483
 11
164.7533380389
 21
149.0411755978
  0
LINE
  5
48B
100
AcDbEntity
  8
0
100
AcDbLine
 62
7
  6
CONTINUOUS
 10
165.7247776246
 20
147.9949865203
 11
165.5868223594
 21
148.0325035361
  0
LINE
  5
48C
100
AcDbEntity
  8
0
100
AcDbLine
 62
7
  6
CONTINUOUS
 10
167.4510820516
 20
145.7610762571
 11
167.3147986246
 21
145.8042735859
  0
LINE
  5
48D
100
AcDbEntity
  8
0
100
AcDbLine
 62
7
  6
CONTINUOUS
 10
169.7571973499
 20
142.4408294877
 11
169.6237458798
 21
142.4921111654
  0
LINE
  5
48E
100
AcDbEntity
  8
0
100
AcDbLine
 62
7
  6
CONTINUOUS
 10
88.9299087163
 20
168.8975549666
 11
88.6734379516
 21
169.0019144158
  0
LINE
  5
48F
100
AcDbEntity
  8
0
100
AcDbLine
 62
7
  6
CONTINUOUS
 10
95.5175592018
 20
170.1185578677
 11
95.3385031846
 21
170.2006304317
  0
LINE
  5
490
100
AcDbEntity
  8
0
100
AcDbLine
 62
7
  6
CONTINUOUS
 10
128.5756932824
 20
170.3748513935
 11
128.668129265
 21
170.2657882431
  0
LINE
  5
491
100
AcDbEntity
  8
0
100
AcDbLine
 62
7
  6
CONTINUOUS
 10
129.2211775861
 20
170.2186081339
 11
129.1287414429
 21
170.3276713232
  0
LINE
  5
492
100
AcDbEntity
  8
0
100
AcDbLine
 62
7
  6
CONTINUOUS
 10
128.265214461
 20
169.5831197159
 11
128.375804002
 21
169.4263181392
  0
LINE
  5
493
100
AcDbEntity
  8
0
100
AcDbLine
 62
7
  6
CONTINUOUS
 10
130.9003003084
 20
168.9048784264
 11
131.0044088265
 21
168.7437007444
  0
LINE
  5
494
100
AcDbEntity
  8
0
100
AcDbLine
 62
7
  6
CONTINUOUS
 10
131.8767424213
 20
169.5898313664
 11
131.7726339002
 21
169.7510090378
  0
LINE
  5
495
100
AcDbEntity
  8
0
100
AcDbLine
 62
7
  6
CONTINUOUS
 10
137.3857705338
 20
167.6270446003
 11
137.4622276418
 21
167.5062413885
  0
LINE
  5
496
100
AcDbEntity
  8
0
100
AcDbLine
 62
7
  6
CONTINUOUS
 10
138.0034295277
 20
167.3829972887
 11
137.9269724197
 21
167.5038005005
  0
LINE
  5
497
100
AcDbEntity
  8
0
100
AcDbLine
 62
7
  6
CONTINUOUS
 10
128.7556600341
 20
170.5046663443
 11
128.6912884817
 21
170.606936335
  0
LINE
  5
498
100
AcDbEntity
  8
0
100
AcDbLine
 62
7
  6
CONTINUOUS
 10
129.0412108343
 20
170.0887931831
 11
129.1055823867
 21
169.9865231925
  0
LINE
  5
499
100
AcDbEntity
  8
0
100
AcDbLine
 62
7
  6
CONTINUOUS
 10
132.1788858218
 20
168.5332034908
 11
132.2798500329
 21
168.3700377566
  0
LINE
  5
49A
100
AcDbEntity
  8
0
100
AcDbLine
 62
7
  6
CONTINUOUS
 10
133.2680258591
 20
169.9176512401
 11
133.1670619607
 21
170.0808168669
  0
LINE
  5
49B
100
AcDbEntity
  8
0
100
AcDbLine
 62
7
  6
CONTINUOUS
 10
131.6870134393
 20
169.5564033393
 11
131.7471642426
 21
169.4515952833
  0
LINE
  5
49C
100
AcDbEntity
  8
0
100
AcDbLine
 62
7
  6
CONTINUOUS
 10
134.548404129
 20
167.7696115393
 11
134.6431138553
 21
167.6027379313
  0
LINE
  5
49D
100
AcDbEntity
  8
0
100
AcDbLine
 62
7
  6
CONTINUOUS
 10
135.6892130345
 20
169.1118023651
 11
135.5945033045
 21
169.2786759627
  0
LINE
  5
49E
100
AcDbEntity
  8
0
100
AcDbLine
 62
7
  6
CONTINUOUS
 10
133.0776844688
 20
169.8879077581
 11
133.1357920606
 21
169.7819532608
  0
LINE
  5
49F
100
AcDbEntity
  8
0
100
AcDbLine
 62
7
  6
CONTINUOUS
 10
136.9687365664
 20
166.8858841209
 11
137.0565678863
 21
166.7152898873
  0
LINE
  5
4A0
100
AcDbEntity
  8
0
100
AcDbLine
 62
7
  6
CONTINUOUS
 10
135.4978814361
 20
169.0892914996
 11
135.5519331248
 21
168.9812116094
  0
LINE
  5
4A1
100
AcDbEntity
  8
0
100
AcDbLine
 62
7
  6
CONTINUOUS
 10
138.23182381
 20
166.3805424471
 11
138.3162927573
 21
166.2082591356
  0
LINE
  5
4A2
100
AcDbEntity
  8
0
100
AcDbLine
 62
7
  6
CONTINUOUS
 10
139.2552733354
 20
166.9572815134
 11
139.1708031643
 21
167.1295653245
  0
LINE
  5
4A3
100
AcDbEntity
  8
0
100
AcDbLine
 62
7
  6
CONTINUOUS
 10
139.504813822
 20
167.6291915566
 11
139.4203436509
 21
167.8014753676
  0
LINE
  5
4A4
100
AcDbEntity
  8
0
100
AcDbLine
 62
7
  6
CONTINUOUS
 10
137.5819670145
 20
167.7307115981
 11
137.5323642445
 21
167.8409042155
  0
LINE
  5
4A5
100
AcDbEntity
  8
0
100
AcDbLine
 62
7
  6
CONTINUOUS
 10
137.8072324324
 20
167.2793305338
 11
137.8568352023
 21
167.1691379163
  0
LINE
  5
4A6
100
AcDbEntity
  8
0
100
AcDbLine
 62
7
  6
CONTINUOUS
 10
139.0629321588
 20
166.9463548763
 11
139.1103648225
 21
166.83521087
  0
LINE
  5
4A7
100
AcDbEntity
  8
0
100
AcDbLine
 62
7
  6
CONTINUOUS
 10
139.3124726454
 20
167.6182649195
 11
139.3599053092
 21
167.5071209132
  0
LINE
  5
4A8
100
AcDbEntity
  8
RUNDUNGEN
100
AcDbLine
 62
7
  6
CONTINUOUS
 10
178.6073508895
 20
62.6532964505
 11
178.0442971869
 21
68.1654465463
  0
LINE
  5
4A9
100
AcDbEntity
  8
RUNDUNGEN
100
AcDbLine
 62
7
  6
CONTINUOUS
 10
178.0442971957
 20
143.0953355872
 11
178.6073508895
 21
148.6074855967
  0
LINE
  5
4AA
100
AcDbEntity
  8
RUNDUNGEN
100
AcDbLine
 62
7
  6
CONTINUOUS
 10
140.8573850735
 20
32.4250372761
 11
143.6418255941
 21
37.2154150418
  0
LINE
  5
4AB
100
AcDbEntity
  8
RUNDUNGEN
100
AcDbLine
 62
7
  6
CONTINUOUS
 10
187.6845093354
 20
97.8349686573
 11
191.3799898264
 21
101.9634370331
  0
LINE
  5
4AC
100
AcDbEntity
  8
RUNDUNGEN
100
AcDbLine
 62
7
  6
CONTINUOUS
 10
92.5492962462
 20
30.1587350748
 11
97.6176693507
 21
32.3975790228
  0
LINE
  5
4AD
100
AcDbEntity
  8
0
100
AcDbLine
 62
7
  6
CONTINUOUS
 10
128.8745924186
 20
170.9960090591
 11
128.9686970601
 21
171.0165747184
  0
LINE
  5
4AE
100
AcDbEntity
  8
RUNDUNGEN
100
AcDbLine
 62
7
  6
CONTINUOUS
 10
57.5514917529
 20
155.7085939325
 11
52.1351324079
 21
154.5407417886
  0
LINE
  5
4AF
100
AcDbEntity
  8
0
100
AcDbLine
 62
7
  6
CONTINUOUS
 10
128.9123674271
 20
169.5565052804
 11
128.7901981948
 21
169.5427328197
  0
LINE
  5
4B0
100
AcDbEntity
  8
0
100
AcDbLine
 62
7
  6
CONTINUOUS
 10
137.767735898
 20
168.2008738012
 11
137.863780878
 21
168.2082217071
  0
LINE
  5
4B1
100
AcDbEntity
  8
0
100
AcDbLine
 62
7
  6
CONTINUOUS
 10
131.4787312886
 20
168.8272708369
 11
131.3561024829
 21
168.8184879074
  0
LINE
  5
4B2
100
AcDbEntity
  8
0
100
AcDbLine
 62
7
  6
CONTINUOUS
 10
131.2983114451
 20
169.6674389701
 11
131.4209405686
 21
169.6762218088
  0
LINE
  5
4B3
100
AcDbEntity
  8
0
100
AcDbLine
 62
7
  6
CONTINUOUS
 10
138.7705045774
 20
166.2467108454
 11
138.6743339891
 21
166.2412475269
  0
LINE
  5
4B4
100
AcDbEntity
  8
0
100
AcDbLine
 62
7
  6
CONTINUOUS
 10
138.7165925737
 20
167.0911131287
 11
138.812763162
 21
167.0965764473
  0
LINE
  5
4B5
100
AcDbEntity
  8
0
100
AcDbLine
 62
7
  6
CONTINUOUS
 10
138.9927741916
 20
167.7518880786
 11
139.0889447799
 21
167.7573513971
  0
LINE
  5
4B6
100
AcDbEntity
  8
0
100
AcDbLine
 62
7
  6
CONTINUOUS
 10
92.0833158537
 20
167.1888654259
 11
92.2932287566
 21
167.192142375
  0
LINE
  5
4B7
100
AcDbEntity
  8
0
100
AcDbLine
 62
7
  6
CONTINUOUS
 10
92.3065941486
 20
167.4660205744
 11
92.0966809692
 21
167.46274355
  0
LINE
  5
4B8
100
AcDbEntity
  8
0
100
AcDbLine
 62
7
  6
CONTINUOUS
 10
88.5815420726
 20
168.6908789872
 11
88.7445067833
 21
168.6867870608
  0
LINE
  5
4B9
100
AcDbEntity
  8
0
100
AcDbLine
 62
7
  6
CONTINUOUS
 10
137.6059828231
 20
166.7699881836
 11
137.4830835051
 21
166.773250872
  0
LINE
  5
4BA
100
AcDbEntity
  8
0
100
AcDbLine
 62
7
  6
CONTINUOUS
 10
95.3385031846
 20
170.2006304317
 11
95.176799907
 21
170.2212772422
  0
LINE
  5
4BB
100
AcDbEntity
  8
RUNDUNGEN
100
AcDbLine
 62
7
  6
CONTINUOUS
 10
174.2965879365
 20
154.5407417886
 11
168.8802285063
 21
155.7085939508
  0
LINE
  5
4BC
100
AcDbEntity
  8
0
100
AcDbLine
 62
7
  6
CONTINUOUS
 10
92.3460778833
 20
169.2302847182
 11
92.2309446191
 21
169.2588950866
  0
LINE
  5
4BD
100
AcDbEntity
  8
0
100
AcDbLine
 62
7
  6
CONTINUOUS
 10
95.2635636051
 20
169.9141484747
 11
95.3771496696
 21
169.8799085795
  0
LINE
  5
4BE
100
AcDbEntity
  8
RUNDUNGEN
100
AcDbLine
 62
7
  6
CONTINUOUS
 10
97.6176693479
 20
178.8632030257
 11
92.5492962462
 21
181.1020469724
  0
LINE
  5
4BF
100
AcDbEntity
  8
0
100
AcDbLine
 62
7
  6
CONTINUOUS
 10
164.7164814124
 20
148.8223570425
 11
164.8043315043
 21
148.7828476605
  0
LINE
  5
4C0
100
AcDbEntity
  8
0
100
AcDbLine
 62
7
  6
CONTINUOUS
 10
164.5695888512
 20
146.4045378794
 11
164.656611025
 21
146.363236893
  0
LINE
  5
4C1
100
AcDbEntity
  8
0
100
AcDbLine
 62
7
  6
CONTINUOUS
 10
164.730831853
 20
146.6075806768
 11
164.643809682
 21
146.6488816655
  0
LINE
  5
4C2
100
AcDbEntity
  8
0
100
AcDbLine
 62
7
  6
CONTINUOUS
 10
163.8897163778
 20
147.6433499914
 11
163.7833637044
 21
147.7050273885
  0
LINE
  5
4C3
100
AcDbEntity
  8
0
100
AcDbLine
 62
7
  6
CONTINUOUS
 10
128.5656819501
 20
169.5970782929
 11
128.4633347773
 21
169.6651962656
  0
LINE
  5
4C4
100
AcDbEntity
  8
0
100
AcDbLine
 62
7
  6
CONTINUOUS
 10
128.668129265
 20
170.2657882431
 11
128.7704764378
 21
170.1976702704
  0
LINE
  5
4C5
100
AcDbEntity
  8
0
100
AcDbLine
 62
7
  6
CONTINUOUS
 10
128.9388636615
 20
170.1569111558
 11
129.0412108343
 21
170.0887931831
  0
LINE
  5
4C6
100
AcDbEntity
  8
0
100
AcDbLine
 62
7
  6
CONTINUOUS
 10
131.1895159594
 20
168.8660745934
 11
131.0900292944
 21
168.9383064677
  0
LINE
  5
4C7
100
AcDbEntity
  8
0
100
AcDbLine
 62
7
  6
CONTINUOUS
 10
131.5875270921
 20
169.6286351229
 11
131.6870134393
 21
169.5564033393
  0
LINE
  5
4C8
100
AcDbEntity
  8
0
100
AcDbLine
 62
7
  6
CONTINUOUS
 10
128.8299426162
 20
170.4433415704
 11
128.7556600341
 21
170.5046663443
  0
LINE
  5
4C9
100
AcDbEntity
  8
0
100
AcDbLine
 62
7
  6
CONTINUOUS
 10
129.1370842837
 20
170.9758156038
 11
129.2113668658
 21
170.9144908299
  0
LINE
  5
4CA
100
AcDbEntity
  8
0
100
AcDbLine
 62
7
  6
CONTINUOUS
 10
137.2682457278
 20
166.8581368406
 11
137.1763072685
 21
166.9397601208
  0
LINE
  5
4CB
100
AcDbEntity
  8
0
100
AcDbLine
 62
7
  6
CONTINUOUS
 10
137.4622276418
 20
167.5062413885
 11
137.5541661011
 21
167.4246181083
  0
LINE
  5
4CC
100
AcDbEntity
  8
0
100
AcDbLine
 62
7
  6
CONTINUOUS
 10
137.7152945877
 20
167.3609535711
 11
137.8072324324
 21
167.2793305338
  0
LINE
  5
4CD
100
AcDbEntity
  8
0
100
AcDbLine
 62
7
  6
CONTINUOUS
 10
137.6470505211
 20
167.659699155
 11
137.5819670145
 21
167.7307115981
  0
LINE
  5
4CE
100
AcDbEntity
  8
0
100
AcDbLine
 62
7
  6
CONTINUOUS
 10
138.0249093646
 20
168.1445571699
 11
138.0899928712
 21
168.0735447269
  0
LINE
  5
4CF
100
AcDbEntity
  8
RUNDUNGEN
100
AcDbLine
 62
7
  6
CONTINUOUS
 10
191.3799898264
 20
109.2973450141
 11
187.6845092775
 21
113.4258134546
  0
LINE
  5
4D0
100
AcDbEntity
  8
0
100
AcDbLine
 62
7
  6
CONTINUOUS
 10
138.4878436309
 20
166.3191941998
 11
138.4241649923
 21
166.3914690978
  0
LINE
  5
4D1
100
AcDbEntity
  8
0
100
AcDbLine
 62
7
  6
CONTINUOUS
 10
138.9992535202
 20
167.0186297744
 11
139.0629321588
 21
166.9463548763
  0
LINE
  5
4D2
100
AcDbEntity
  8
0
100
AcDbLine
 62
7
  6
CONTINUOUS
 10
139.2487940068
 20
167.6905398176
 11
139.3124726454
 21
167.6182649195
  0
LINE
  5
4D3
100
AcDbEntity
  8
RUNDUNGEN
100
AcDbLine
 62
7
  6
CONTINUOUS
 10
143.6418255505
 20
174.0453670805
 11
140.8573850735
 21
178.8357447711
  0
LINE
  5
4D4
100
AcDbEntity
  8
0
100
AcDbLine
 62
7
  6
CONTINUOUS
 10
163.6353431049
 20
147.8823714463
 11
163.593675192
 21
147.9980380911
  0
LINE
  5
4D5
100
AcDbEntity
  8
0
100
AcDbLine
 62
7
  6
CONTINUOUS
 10
164.1158160146
 20
148.35862161
 11
164.1574839407
 21
148.2429549494
  0
LINE
  5
4D6
100
AcDbEntity
  8
0
100
AcDbLine
 62
7
  6
CONTINUOUS
 10
164.2684993771
 20
148.1099469219
 11
164.3101673032
 21
147.9942802612
  0
LINE
  5
4D7
100
AcDbEntity
  8
0
100
AcDbLine
 62
7
  6
CONTINUOUS
 10
164.499453685
 20
146.8292211251
 11
164.4601642941
 21
146.9457172442
  0
LINE
  5
4D8
100
AcDbEntity
  8
0
100
AcDbLine
 62
7
  6
CONTINUOUS
 10
164.3515381826
 20
148.40492274
 11
164.328372838
 21
148.4984213855
  0
LINE
  5
4D9
100
AcDbEntity
  8
0
100
AcDbLine
 62
7
  6
CONTINUOUS
 10
164.9153469407
 20
148.649839633
 11
164.9385122588
 21
148.5563410192
  0
LINE
  5
4DA
100
AcDbEntity
  8
RUNDUNGEN
100
AcDbLine
 62
7
  6
CONTINUOUS
 10
178.0423591803
 20
68.5513491118
 11
178.0442971188
 21
68.1654472022
  0
LINE
  5
4DB
100
AcDbEntity
  8
RUNDUNGEN
100
AcDbLine
 62
7
  6
CONTINUOUS
 10
178.0423592377
 20
142.7094329325
 11
178.0442971738
 21
143.0953348394
  0
LWPOLYLINE
  5
4DC
100
AcDbEntity
  8
RUNDUNGEN
100
AcDbPolyline
 62
7
  6
CONTINUOUS
 90
3
 70
0
 10
179.7061228777
 20
86.3921850674
 10
179.7090006771
 20
86.4117579674
 10
179.8343671785
 20
87.1983631434
  0
LINE
  5
4DD
100
AcDbEntity
  8
RUNDUNGEN
100
AcDbLine
 62
7
  6
CONTINUOUS
 10
179.8343671785
 20
87.1983631434
 11
179.864507318
 21
87.3921850674
  0
LINE
  5
4DE
100
AcDbEntity
  8
RUNDUNGEN
100
AcDbLine
 62
7
  6
CONTINUOUS
 10
167.3457272535
 20
53.9921498976
 11
166.5023341447
 21
49.7951593648
  0
LINE
  5
4DF
100
AcDbEntity
  8
RUNDUNGEN
100
AcDbLine
 62
7
  6
CONTINUOUS
 10
167.3422211375
 20
53.9908928093
 11
167.4542661516
 21
54.3604069853
  0
LINE
  5
4E0
100
AcDbEntity
  8
RUNDUNGEN
100
AcDbLine
 62
7
  6
CONTINUOUS
 10
187.357941473
 20
115.5929459472
 11
187.2313928093
 21
115.2281442754
  0
LINE
  5
4E1
100
AcDbEntity
  8
RUNDUNGEN
100
AcDbLine
 62
7
  6
CONTINUOUS
 10
189.1446453646
 20
119.4810310343
 11
187.3600391566
 21
115.589868128
  0
LWPOLYLINE
  5
4E2
100
AcDbEntity
  8
RUNDUNGEN
100
AcDbPolyline
 62
7
  6
CONTINUOUS
 90
3
 70
0
 10
178.315546403
 20
82.1124307441
 10
178.3067610944
 20
82.094705099
 10
177.9444560991
 20
81.3853395
  0
LINE
  5
4E3
100
AcDbEntity
  8
RUNDUNGEN
100
AcDbLine
 62
7
  6
CONTINUOUS
 10
177.9444560991
 20
81.3853395
 11
177.8558968546
 21
81.2103177115
  0
LINE
  5
4E4
100
AcDbEntity
  8
RUNDUNGEN
100
AcDbLine
 62
7
  6
CONTINUOUS
 10
143.8670855507
 20
37.5287559071
 11
143.6418259246
 21
37.2154156124
  0
LINE
  5
4E5
100
AcDbEntity
  8
RUNDUNGEN
100
AcDbLine
 62
7
  6
CONTINUOUS
 10
187.4561136052
 20
97.5239059546
 11
187.6845088781
 21
97.8349680652
  0
LWPOLYLINE
  5
4E6
100
AcDbEntity
  8
RUNDUNGEN
100
AcDbPolyline
 62
7
  6
CONTINUOUS
 90
3
 70
0
 10
155.6996789198
 20
50.9843596244
 10
155.7135117703
 20
50.9985029051
 10
156.2772903223
 20
51.5611912797
  0
LINE
  5
4E7
100
AcDbEntity
  8
RUNDUNGEN
100
AcDbLine
 62
7
  6
CONTINUOUS
 10
156.2772903223
 20
51.5611912797
 11
156.4155998759
 21
51.7002805806
  0
LINE
  5
4E8
100
AcDbEntity
  8
RUNDUNGEN
100
AcDbLine
 62
7
  6
CONTINUOUS
 10
126.655645956
 20
32.0374388141
 11
123.5063974589
 21
29.137736179
  0
LINE
  5
4E9
100
AcDbEntity
  8
RUNDUNGEN
100
AcDbLine
 62
7
  6
CONTINUOUS
 10
126.6520705507
 20
32.0384826515
 11
126.9599118543
 21
32.2715674927
  0
LINE
  5
4EA
100
AcDbEntity
  8
RUNDUNGEN
100
AcDbLine
 62
7
  6
CONTINUOUS
 10
179.0539068021
 20
70.1106453013
 11
178.7371017399
 21
69.8898979875
  0
LINE
  5
4EB
100
AcDbEntity
  8
RUNDUNGEN
100
AcDbLine
 62
7
  6
CONTINUOUS
 10
182.7847396882
 20
72.2059740146
 11
179.0537947671
 21
70.1069223058
  0
LWPOLYLINE
  5
4EC
100
AcDbEntity
  8
RUNDUNGEN
100
AcDbPolyline
 62
7
  6
CONTINUOUS
 90
3
 70
0
 10
152.0591024451
 20
48.3393259891
 10
152.0415761084
 20
48.3301495158
 10
151.3315105724
 20
47.9692182241
  0
LINE
  5
4ED
100
AcDbEntity
  8
RUNDUNGEN
100
AcDbLine
 62
7
  6
CONTINUOUS
 10
151.3315105724
 20
47.9692182241
 11
151.1569894125
 21
47.8796764407
  0
LINE
  5
4EE
100
AcDbEntity
  8
RUNDUNGEN
100
AcDbLine
 62
7
  6
CONTINUOUS
 10
97.9840856234
 20
32.5186726275
 11
97.6176699535
 21
32.3975792902
  0
LINE
  5
4EF
100
AcDbEntity
  8
RUNDUNGEN
100
AcDbLine
 62
7
  6
CONTINUOUS
 10
168.5126144947
 20
55.4347807438
 11
168.8802278731
 21
55.5521879044
  0
LINE
  5
4F0
100
AcDbEntity
  8
0
100
AcDbLine
 62
7
  6
CONTINUOUS
 10
94.8659843962
 20
168.0109792999
 11
95.106568259
 21
168.0789441012
  0
LINE
  5
4F1
100
AcDbEntity
  8
0
100
AcDbLine
 62
7
  6
CONTINUOUS
 10
95.9726714867
 20
168.3236177592
 11
96.2132559002
 21
168.3915827161
  0
LINE
  5
4F2
100
AcDbEntity
  8
0
100
AcDbLine
 62
7
  6
CONTINUOUS
 10
95.176799907
 20
170.2212772422
 11
94.9843321559
 21
170.1669052145
  0
LINE
  5
4F3
100
AcDbEntity
  8
0
100
AcDbLine
 62
7
  6
CONTINUOUS
 10
94.5512805421
 20
170.0445683855
 11
94.3106966792
 21
169.9766035842
  0
LINE
  5
4F4
100
AcDbEntity
  8
0
100
AcDbLine
 62
7
  6
CONTINUOUS
 10
96.5997331884
 20
168.4950079296
 11
96.8421061562
 21
168.5562872389
  0
LINE
  5
4F5
100
AcDbEntity
  8
0
100
AcDbLine
 62
7
  6
CONTINUOUS
 10
97.6661756891
 20
168.7646372551
 11
97.9570236942
 21
168.8381725384
  0
LINE
  5
4F6
100
AcDbEntity
  8
0
100
AcDbLine
 62
7
  6
CONTINUOUS
 10
97.2624589113
 20
170.7693905973
 11
96.9716114609
 21
170.6958554542
  0
LINE
  5
4F7
100
AcDbEntity
  8
0
100
AcDbLine
 62
7
  6
CONTINUOUS
 10
96.1067533229
 20
171.4647672905
 11
95.8643803551
 21
171.4034879813
  0
LWPOLYLINE
  5
4F8
100
AcDbEntity
  8
RUNDUNGEN
100
AcDbPolyline
 62
7
  6
CONTINUOUS
 90
3
 70
0
 10
110.9658601722
 20
174.8113212216
 10
110.9463559492
 20
174.8080098127
 10
110.1595095914
 20
174.6841660736
  0
LINE
  5
4F9
100
AcDbEntity
  8
RUNDUNGEN
100
AcDbLine
 62
7
  6
CONTINUOUS
 10
110.1595095914
 20
174.6841660736
 11
109.9658601722
 21
174.6529367812
  0
LINE
  5
4FA
100
AcDbEntity
  8
0
100
AcDbLine
 62
7
  6
CONTINUOUS
 10
88.6734379516
 20
169.0019144158
 11
88.4175038675
 21
168.9691728636
  0
LINE
  5
4FB
100
AcDbEntity
  8
RUNDUNGEN
100
AcDbLine
 62
7
  6
CONTINUOUS
 10
145.5996970537
 20
173.068047905
 11
149.8518950523
 21
173.562874793
  0
LINE
  5
4FC
100
AcDbEntity
  8
0
100
AcDbLine
 62
7
  6
CONTINUOUS
 10
129.0281632384
 20
171.2622460184
 11
128.9059940061
 21
171.2484735578
  0
LINE
  5
4FD
100
AcDbEntity
  8
0
100
AcDbLine
 62
7
  6
CONTINUOUS
 10
128.7307320095
 20
169.2970614911
 11
128.8809656729
 21
169.3040407954
  0
LINE
  5
4FE
100
AcDbEntity
  8
RUNDUNGEN
100
AcDbLine
 62
7
  6
CONTINUOUS
 10
145.6019760652
 20
173.0651018522
 11
145.2159233868
 21
173.0574768329
  0
LINE
  5
4FF
100
AcDbEntity
  8
0
100
AcDbLine
 62
7
  6
CONTINUOUS
 10
92.0076663189
 20
168.9817399539
 11
92.2175794912
 21
168.9850169995
  0
LINE
  5
500
100
AcDbEntity
  8
0
100
AcDbLine
 62
7
  6
CONTINUOUS
 10
92.2309446191
 20
169.2588950866
 11
92.0210317181
 21
169.2556181322
  0
LINE
  5
501
100
AcDbEntity
  8
0
100
AcDbLine
 62
7
  6
CONTINUOUS
 10
131.2982463286
 20
168.6159510965
 11
131.44863945
 21
168.6168029455
  0
LINE
  5
502
100
AcDbEntity
  8
0
100
AcDbLine
 62
7
  6
CONTINUOUS
 10
131.4787967148
 20
169.8787585914
 11
131.3284032767
 21
169.8779068367
  0
LINE
  5
503
100
AcDbEntity
  8
0
100
AcDbLine
 62
7
  6
CONTINUOUS
 10
132.6452815359
 20
168.4782681133
 11
132.4949001664
 21
168.4803320888
  0
LINE
  5
504
100
AcDbEntity
  8
0
100
AcDbLine
 62
7
  6
CONTINUOUS
 10
132.8016298335
 20
169.9725867287
 11
132.9520118348
 21
169.9705225593
  0
LINE
  5
505
100
AcDbEntity
  8
RUNDUNGEN
100
AcDbLine
 62
7
  6
CONTINUOUS
 10
80.8297442923
 20
173.0651019649
 11
81.2157969913
 21
173.0574768928
  0
LINE
  5
506
100
AcDbEntity
  8
0
100
AcDbLine
 62
7
  6
CONTINUOUS
 10
137.956665298
 20
168.4433027538
 11
137.8337653654
 21
168.4465656851
  0
LINE
  5
507
100
AcDbEntity
  8
0
100
AcDbLine
 62
7
  6
CONTINUOUS
 10
95.0537431145
 20
169.9212022005
 11
95.2635636051
 21
169.9141484747
  0
LINE
  5
508
100
AcDbEntity
  8
0
100
AcDbLine
 62
7
  6
CONTINUOUS
 10
135.012383413
 20
167.6970458696
 11
134.8621882025
 21
167.7048057031
  0
LINE
  5
509
100
AcDbEntity
  8
0
100
AcDbLine
 62
7
  6
CONTINUOUS
 10
135.2252337552
 20
169.1843680487
 11
135.3754289658
 21
169.1766082152
  0
LINE
  5
50A
100
AcDbEntity
  8
0
100
AcDbLine
 62
7
  6
CONTINUOUS
 10
132.4331283188
 20
168.2789549967
 11
132.6111153425
 21
168.2684230695
  0
LINE
  5
50B
100
AcDbEntity
  8
0
100
AcDbLine
 62
7
  6
CONTINUOUS
 10
133.0137836737
 20
170.1718996232
 11
132.8357966511
 21
170.182431554
  0
LINE
  5
50C
100
AcDbEntity
  8
0
100
AcDbLine
 62
7
  6
CONTINUOUS
 10
137.3901990742
 20
166.5381697979
 11
137.5399539608
 21
166.5242960329
  0
LINE
  5
50D
100
AcDbEntity
  8
0
100
AcDbLine
 62
7
  6
CONTINUOUS
 10
134.7928313421
 20
167.5059134703
 11
134.9702915715
 21
167.4886458982
  0
LINE
  5
50E
100
AcDbEntity
  8
0
100
AcDbLine
 62
7
  6
CONTINUOUS
 10
135.4447858165
 20
169.3755004202
 11
135.2673255882
 21
169.3927679957
  0
LINE
  5
50F
100
AcDbEntity
  8
0
100
AcDbLine
 62
7
  6
CONTINUOUS
 10
138.5664629722
 20
166.0580370516
 11
138.7159158245
 21
166.0412301868
  0
LINE
  5
510
100
AcDbEntity
  8
0
100
AcDbLine
 62
7
  6
CONTINUOUS
 10
138.9206341675
 20
167.2797868954
 11
138.7711800971
 21
167.2965942733
  0
LINE
  5
511
100
AcDbEntity
  8
0
100
AcDbLine
 62
7
  6
CONTINUOUS
 10
139.1968157854
 20
167.9405618452
 11
139.047361715
 21
167.9573692231
  0
LINE
  5
512
100
AcDbEntity
  8
RUNDUNGEN
100
AcDbLine
 62
7
  6
CONTINUOUS
 10
80.8320326122
 20
173.0680468203
 11
76.5798024125
 21
173.5628774555
  0
LWPOLYLINE
  5
513
100
AcDbEntity
  8
RUNDUNGEN
100
AcDbPolyline
 62
7
  6
CONTINUOUS
 90
3
 70
0
 10
115.4658601722
 20
174.8113212216
 10
115.4854330721
 20
174.8084434222
 10
116.2720382482
 20
174.6830769208
  0
LINE
  5
514
100
AcDbEntity
  8
RUNDUNGEN
100
AcDbLine
 62
7
  6
CONTINUOUS
 10
116.2720382482
 20
174.6830769208
 11
116.4658601722
 21
174.6529367812
  0
LINE
  5
515
100
AcDbEntity
  8
0
100
AcDbLine
 62
7
  6
CONTINUOUS
 10
126.8732884802
 20
169.7232202246
 11
127.8882126324
 21
169.498522171
  0
LINE
  5
516
100
AcDbEntity
  8
0
100
AcDbLine
 62
7
  6
CONTINUOUS
 10
127.9428504568
 20
169.7453122378
 11
127.09708033
 21
169.9325606158
  0
LINE
  5
517
100
AcDbEntity
  8
0
100
AcDbLine
 62
7
  6
CONTINUOUS
 10
127.4704387981
 20
171.6189594103
 11
127.3012847728
 21
171.6564090859
  0
LINE
  5
518
100
AcDbEntity
  8
0
100
AcDbLine
 62
7
  6
CONTINUOUS
 10
128.5062157649
 20
169.3514069642
 11
128.7307320095
 21
169.2970614911
  0
LINE
  5
519
100
AcDbEntity
  8
0
100
AcDbLine
 62
7
  6
CONTINUOUS
 10
128.7901981948
 20
169.5427328197
 11
128.5656819501
 21
169.5970782929
  0
LINE
  5
51A
100
AcDbEntity
  8
0
100
AcDbLine
 62
7
  6
CONTINUOUS
 10
128.4105427599
 20
169.9380403503
 11
128.2421556166
 21
169.9787994455
  0
LINE
  5
51B
100
AcDbEntity
  8
0
100
AcDbLine
 62
7
  6
CONTINUOUS
 10
128.7704764378
 20
170.1976702704
 11
128.9388636615
 21
170.1569111558
  0
LINE
  5
51C
100
AcDbEntity
  8
0
100
AcDbLine
 62
7
  6
CONTINUOUS
 10
128.9983298398
 20
170.4025824558
 11
128.8299426162
 21
170.4433415704
  0
LINE
  5
51D
100
AcDbEntity
  8
0
100
AcDbLine
 62
7
  6
CONTINUOUS
 10
129.2559163587
 20
170.7303304059
 11
129.4243035823
 21
170.6895712913
  0
LINE
  5
51E
100
AcDbEntity
  8
0
100
AcDbLine
 62
7
  6
CONTINUOUS
 10
128.9686970601
 20
171.0165747184
 11
129.1370842837
 21
170.9758156038
  0
LINE
  5
51F
100
AcDbEntity
  8
0
100
AcDbLine
 62
7
  6
CONTINUOUS
 10
129.1684858712
 20
171.2282801025
 11
129.0281632384
 21
171.2622460184
  0
LINE
  5
520
100
AcDbEntity
  8
0
100
AcDbLine
 62
7
  6
CONTINUOUS
 10
131.1316598051
 20
168.6635377824
 11
131.2982463286
 21
168.6159510965
  0
LINE
  5
521
100
AcDbEntity
  8
0
100
AcDbLine
 62
7
  6
CONTINUOUS
 10
131.3561024829
 20
168.8184879074
 11
131.1895159594
 21
168.8660745934
  0
LINE
  5
522
100
AcDbEntity
  8
0
100
AcDbLine
 62
7
  6
CONTINUOUS
 10
131.0206347869
 20
169.2210061463
 11
130.8540482634
 21
169.2685928322
  0
LINE
  5
523
100
AcDbEntity
  8
0
100
AcDbLine
 62
7
  6
CONTINUOUS
 10
130.9581893428
 20
169.6331590976
 11
131.152540181
 21
169.5776413276
  0
LINE
  5
524
100
AcDbEntity
  8
0
100
AcDbLine
 62
7
  6
CONTINUOUS
 10
131.4209405686
 20
169.6762218088
 11
131.5875270921
 21
169.6286351229
  0
LINE
  5
525
100
AcDbEntity
  8
0
100
AcDbLine
 62
7
  6
CONTINUOUS
 10
131.6453832383
 20
169.8311719054
 11
131.4787967148
 21
169.8787585914
  0
LINE
  5
526
100
AcDbEntity
  8
0
100
AcDbLine
 62
7
  6
CONTINUOUS
 10
131.3400070804
 20
170.4441581868
 11
132.1451753834
 21
170.2141558412
  0
LINE
  5
527
100
AcDbEntity
  8
0
100
AcDbLine
 62
7
  6
CONTINUOUS
 10
132.2030315296
 20
170.4166926237
 11
131.2590413355
 21
170.6863504805
  0
LINE
  5
528
100
AcDbEntity
  8
RUNDUNGEN
100
AcDbLine
 62
7
  6
CONTINUOUS
 10
168.5126144797
 20
155.826001248
 11
168.8802278615
 21
155.7085940888
  0
LINE
  5
529
100
AcDbEntity
  8
0
100
AcDbLine
 62
7
  6
CONTINUOUS
 10
133.3700825387
 20
168.7365302603
 11
133.7547214804
 21
168.6121487144
  0
LINE
  5
52A
100
AcDbEntity
  8
0
100
AcDbLine
 62
7
  6
CONTINUOUS
 10
133.8195317107
 20
168.8125686257
 11
133.434892769
 21
168.9369501716
  0
LINE
  5
52B
100
AcDbEntity
  8
RUNDUNGEN
100
AcDbLine
 62
7
  6
CONTINUOUS
 10
97.9840856366
 20
178.7421094614
 11
97.6176699678
 21
178.8632027894
  0
LINE
  5
52C
100
AcDbEntity
  8
0
100
AcDbLine
 62
7
  6
CONTINUOUS
 10
133.9182415861
 20
167.8039976964
 11
134.0826185306
 21
167.7492639536
  0
LINE
  5
52D
100
AcDbEntity
  8
0
100
AcDbLine
 62
7
  6
CONTINUOUS
 10
134.7081470206
 20
169.6278576053
 11
134.5437700761
 21
169.6825913481
  0
LINE
  5
52E
100
AcDbEntity
  8
0
100
AcDbLine
 62
7
  6
CONTINUOUS
 10
137.1753612969
 20
166.6230557665
 11
137.3901990742
 21
166.5381697979
  0
LINE
  5
52F
100
AcDbEntity
  8
0
100
AcDbLine
 62
7
  6
CONTINUOUS
 10
137.4830835051
 20
166.773250872
 11
137.2682457278
 21
166.8581368406
  0
LINE
  5
530
100
AcDbEntity
  8
0
100
AcDbLine
 62
7
  6
CONTINUOUS
 10
137.1617725034
 20
167.2172843007
 11
137.0006440167
 21
167.2809488379
  0
LINE
  5
531
100
AcDbEntity
  8
0
100
AcDbLine
 62
7
  6
CONTINUOUS
 10
137.5541661011
 20
167.4246181083
 11
137.7152945877
 21
167.3609535711
  0
LINE
  5
532
100
AcDbEntity
  8
0
100
AcDbLine
 62
7
  6
CONTINUOUS
 10
137.8081790078
 20
167.5960346178
 11
137.6470505211
 21
167.659699155
  0
LINE
  5
533
100
AcDbEntity
  8
0
100
AcDbLine
 62
7
  6
CONTINUOUS
 10
138.1086341679
 20
167.8849917605
 11
138.2697626545
 21
167.8213272233
  0
LINE
  5
534
100
AcDbEntity
  8
0
100
AcDbLine
 62
7
  6
CONTINUOUS
 10
137.863780878
 20
168.2082217071
 11
138.0249093646
 21
168.1445571699
  0
LINE
  5
535
100
AcDbEntity
  8
0
100
AcDbLine
 62
7
  6
CONTINUOUS
 10
138.090938832
 20
168.3902490538
 11
137.956665298
 21
168.4433027538
  0
LINE
  5
536
100
AcDbEntity
  8
0
100
AcDbLine
 62
7
  6
CONTINUOUS
 10
138.4332548766
 20
166.1137135377
 11
138.5664629722
 21
166.0580370516
  0
LINE
  5
537
100
AcDbEntity
  8
0
100
AcDbLine
 62
7
  6
CONTINUOUS
 10
138.6743339891
 20
166.2412475269
 11
138.4878436309
 21
166.3191941998
  0
LINE
  5
538
100
AcDbEntity
  8
0
100
AcDbLine
 62
7
  6
CONTINUOUS
 10
138.812763162
 20
167.0965764473
 11
138.9992535202
 21
167.0186297744
  0
LINE
  5
539
100
AcDbEntity
  8
0
100
AcDbLine
 62
7
  6
CONTINUOUS
 10
139.0538422631
 20
167.2241104092
 11
138.9206341675
 21
167.2797868954
  0
LINE
  5
53A
100
AcDbEntity
  8
0
100
AcDbLine
 62
7
  6
CONTINUOUS
 10
139.3644496472
 20
167.3682434016
 11
139.4976577428
 21
167.3125669154
  0
LINE
  5
53B
100
AcDbEntity
  8
0
100
AcDbLine
 62
7
  6
CONTINUOUS
 10
139.0889447799
 20
167.7573513971
 11
139.2487940068
 21
167.6905398176
  0
LINE
  5
53C
100
AcDbEntity
  8
0
100
AcDbLine
 62
7
  6
CONTINUOUS
 10
139.3033815302
 20
167.8960209621
 11
139.1968157854
 21
167.9405618452
  0
LINE
  5
53D
100
AcDbEntity
  8
0
100
AcDbLine
 62
7
  6
CONTINUOUS
 10
139.1775597338
 20
165.7980013289
 11
139.3100581463
 21
165.7406564204
  0
LINE
  5
53E
100
AcDbEntity
  8
0
100
AcDbLine
 62
7
  6
CONTINUOUS
 10
139.393722197
 20
165.9339665882
 11
139.2612237845
 21
165.9913114968
  0
LINE
  5
53F
100
AcDbEntity
  8
0
100
AcDbLine
 62
7
  6
CONTINUOUS
 10
139.6803611911
 20
165.5785031601
 11
139.8388542886
 21
165.5085353064
  0
LINE
  5
540
100
AcDbEntity
  8
0
100
AcDbLine
 62
7
  6
CONTINUOUS
 10
140.6384869023
 20
167.3198849919
 11
140.4799938049
 21
167.3898528456
  0
LWPOLYLINE
  5
541
100
AcDbEntity
  8
RUNDUNGEN
100
AcDbPolyline
 62
7
  6
CONTINUOUS
 90
3
 70
0
 10
152.0591024451
 20
162.9214560581
 10
152.0413768
 20
162.9302413667
 10
151.332011201
 20
163.292546362
  0
LINE
  5
542
100
AcDbEntity
  8
RUNDUNGEN
100
AcDbLine
 62
7
  6
CONTINUOUS
 10
151.332011201
 20
163.292546362
 11
151.1569894125
 21
163.3811056065
  0
LINE
  5
543
100
AcDbEntity
  8
RUNDUNGEN
100
AcDbLine
 62
7
  6
CONTINUOUS
 10
179.0537947165
 20
141.1538597699
 11
182.784747108
 21
139.0548038581
  0
LINE
  5
544
100
AcDbEntity
  8
0
100
AcDbLine
 62
7
  6
CONTINUOUS
 10
128.375804002
 20
169.4263181392
 11
128.5062157649
 21
169.3514069642
  0
LINE
  5
545
100
AcDbEntity
  8
0
100
AcDbLine
 62
7
  6
CONTINUOUS
 10
129.1287414429
 20
170.3276713232
 11
128.9983298398
 21
170.4025824558
  0
LINE
  5
546
100
AcDbEntity
  8
0
100
AcDbLine
 62
7
  6
CONTINUOUS
 10
129.2988976349
 20
171.1533689311
 11
129.1684858712
 21
171.2282801025
  0
LINE
  5
547
100
AcDbEntity
  8
0
100
AcDbLine
 62
7
  6
CONTINUOUS
 10
164.9983857462
 20
148.9448154512
 11
164.8920330728
 21
149.0064928483
  0
LINE
  5
548
100
AcDbEntity
  8
0
100
AcDbLine
 62
7
  6
CONTINUOUS
 10
132.2798500329
 20
168.3700377566
 11
132.4331283188
 21
168.2789549967
  0
LINE
  5
549
100
AcDbEntity
  8
0
100
AcDbLine
 62
7
  6
CONTINUOUS
 10
133.1670619607
 20
170.0808168669
 11
133.0137836737
 21
170.1718996232
  0
LINE
  5
54A
100
AcDbEntity
  8
0
100
AcDbLine
 62
7
  6
CONTINUOUS
 10
165.5454902079
 20
147.8144860908
 11
165.6505569172
 21
147.7506426213
  0
LINE
  5
54B
100
AcDbEntity
  8
0
100
AcDbLine
 62
7
  6
CONTINUOUS
 10
131.0044088265
 20
168.7437007444
 11
131.1316598051
 21
168.6635377824
  0
LINE
  5
54C
100
AcDbEntity
  8
0
100
AcDbLine
 62
7
  6
CONTINUOUS
 10
131.7726339002
 20
169.7510090378
 11
131.6453832383
 21
169.8311719054
  0
LINE
  5
54D
100
AcDbEntity
  8
0
100
AcDbLine
 62
7
  6
CONTINUOUS
 10
134.6431138553
 20
167.6027379313
 11
134.7928313421
 21
167.5059134703
  0
LINE
  5
54E
100
AcDbEntity
  8
0
100
AcDbLine
 62
7
  6
CONTINUOUS
 10
135.5945033045
 20
169.2786759627
 11
135.4447858165
 21
169.3755004202
  0
LINE
  5
54F
100
AcDbEntity
  8
0
100
AcDbLine
 62
7
  6
CONTINUOUS
 10
132.4949001664
 20
168.4803320888
 11
132.3692269006
 21
168.5629470838
  0
LINE
  5
550
100
AcDbEntity
  8
0
100
AcDbLine
 62
7
  6
CONTINUOUS
 10
132.9520118348
 20
169.9705225593
 11
133.0776844688
 21
169.8879077581
  0
LINE
  5
551
100
AcDbEntity
  8
0
100
AcDbLine
 62
7
  6
CONTINUOUS
 10
163.5893094398
 20
147.5430595789
 11
163.7141646712
 21
147.4592142007
  0
LINE
  5
552
100
AcDbEntity
  8
RUNDUNGEN
100
AcDbLine
 62
7
  6
CONTINUOUS
 10
179.0539068291
 20
141.1501367938
 11
178.7371017776
 21
141.3708840946
  0
LINE
  5
553
100
AcDbEntity
  8
0
100
AcDbLine
 62
7
  6
CONTINUOUS
 10
164.446477704
 20
146.4909236984
 11
164.5695888512
 21
146.4045378794
  0
LINE
  5
554
100
AcDbEntity
  8
0
100
AcDbLine
 62
7
  6
CONTINUOUS
 10
165.8478888722
 20
147.90860057
 11
165.7247776246
 21
147.9949865203
  0
LINE
  5
555
100
AcDbEntity
  8
0
100
AcDbLine
 62
7
  6
CONTINUOUS
 10
134.8621882025
 20
167.7048057031
 11
134.7397357322
 21
167.7921224187
  0
LINE
  5
556
100
AcDbEntity
  8
0
100
AcDbLine
 62
7
  6
CONTINUOUS
 10
135.3754289658
 20
169.1766082152
 11
135.4978814361
 21
169.0892914996
  0
LINE
  5
557
100
AcDbEntity
  8
RUNDUNGEN
100
AcDbLine
 62
7
  6
CONTINUOUS
 10
126.6520705131
 20
179.2222993548
 11
126.9599118326
 21
178.9892145076
  0
LINE
  5
558
100
AcDbEntity
  8
0
100
AcDbLine
 62
7
  6
CONTINUOUS
 10
167.2984248714
 20
145.6130963746
 11
167.4178532378
 21
145.5216869573
  0
LINE
  5
559
100
AcDbEntity
  8
0
100
AcDbLine
 62
7
  6
CONTINUOUS
 10
137.0565678863
 20
166.7152898873
 11
137.1753612969
 21
166.6230557665
  0
LINE
  5
55A
100
AcDbEntity
  8
0
100
AcDbLine
 62
7
  6
CONTINUOUS
 10
137.9269724197
 20
167.5038005005
 11
137.8081790078
 21
167.5960346178
  0
LINE
  5
55B
100
AcDbEntity
  8
0
100
AcDbLine
 62
7
  6
CONTINUOUS
 10
138.2097316293
 20
168.2980151793
 11
138.090938832
 21
168.3902490538
  0
LINE
  5
55C
100
AcDbEntity
  8
0
100
AcDbLine
 62
7
  6
CONTINUOUS
 10
138.3162927573
 20
166.2082591356
 11
138.4332548766
 21
166.1137135377
  0
LINE
  5
55D
100
AcDbEntity
  8
0
100
AcDbLine
 62
7
  6
CONTINUOUS
 10
139.1708031643
 20
167.1295653245
 11
139.0538422631
 21
167.2241104092
  0
LINE
  5
55E
100
AcDbEntity
  8
0
100
AcDbLine
 62
7
  6
CONTINUOUS
 10
139.4203436509
 20
167.8014753676
 11
139.3033815302
 21
167.8960209621
  0
LINE
  5
55F
100
AcDbEntity
  8
0
100
AcDbLine
 62
7
  6
CONTINUOUS
 10
169.5959515191
 20
142.3022580536
 11
169.7096908876
 21
142.2038600235
  0
LINE
  5
560
100
AcDbEntity
  8
0
100
AcDbLine
 62
7
  6
CONTINUOUS
 10
167.6047018461
 20
145.623125894
 11
167.4510820516
 21
145.7610762571
  0
LINE
  5
561
100
AcDbEntity
  8
RUNDUNGEN
100
AcDbLine
 62
7
  6
CONTINUOUS
 10
123.5064085825
 20
182.123035626
 11
126.6556459676
 21
179.2233432225
  0
LWPOLYLINE
  5
562
100
AcDbEntity
  8
RUNDUNGEN
100
AcDbPolyline
 62
7
  6
CONTINUOUS
 90
3
 70
0
 10
155.6996789198
 20
160.2764224228
 10
155.7138222004
 20
160.2625895722
 10
156.276510575
 20
159.6988110202
  0
LINE
  5
563
100
AcDbEntity
  8
RUNDUNGEN
100
AcDbLine
 62
7
  6
CONTINUOUS
 10
156.276510575
 20
159.6988110202
 11
156.4155998759
 21
159.5605014666
  0
LINE
  5
564
100
AcDbEntity
  8
0
100
AcDbLine
 62
7
  6
CONTINUOUS
 10
169.9022793799
 20
142.2939262933
 11
169.7571973499
 21
142.4408294877
  0
LINE
  5
565
100
AcDbEntity
  8
0
100
AcDbLine
 62
7
  6
CONTINUOUS
 10
163.4412888403
 20
147.7204036367
 11
163.5893094398
 21
147.5430595789
  0
LINE
  5
566
100
AcDbEntity
  8
0
100
AcDbLine
 62
7
  6
CONTINUOUS
 10
163.7833637044
 20
147.7050273885
 11
163.6353431049
 21
147.8823714463
  0
LINE
  5
567
100
AcDbEntity
  8
0
100
AcDbLine
 62
7
  6
CONTINUOUS
 10
163.71371917
 20
148.2486779137
 11
163.6027037336
 21
148.3816859412
  0
LINE
  5
568
100
AcDbEntity
  8
0
100
AcDbLine
 62
7
  6
CONTINUOUS
 10
164.1574839407
 20
148.2429549494
 11
164.2684993771
 21
148.1099469219
  0
LINE
  5
569
100
AcDbEntity
  8
0
100
AcDbLine
 62
7
  6
CONTINUOUS
 10
164.462553619
 20
148.2719147125
 11
164.3515381826
 21
148.40492274
  0
LINE
  5
56A
100
AcDbEntity
  8
0
100
AcDbLine
 62
7
  6
CONTINUOUS
 10
164.8646504824
 20
148.3818584784
 11
164.9756659188
 21
148.2488504509
  0
LINE
  5
56B
100
AcDbEntity
  8
0
100
AcDbLine
 62
7
  6
CONTINUOUS
 10
164.8043315043
 20
148.7828476605
 11
164.9153469407
 21
148.649839633
  0
LINE
  5
56C
100
AcDbEntity
  8
0
100
AcDbLine
 62
7
  6
CONTINUOUS
 10
165.090898601
 20
148.8339754389
 11
164.9983857462
 21
148.9448154512
  0
LINE
  5
56D
100
AcDbEntity
  8
0
100
AcDbLine
 62
7
  6
CONTINUOUS
 10
164.302121707
 20
146.6712631581
 11
164.446477704
 21
146.4909236984
  0
LINE
  5
56E
100
AcDbEntity
  8
0
100
AcDbLine
 62
7
  6
CONTINUOUS
 10
164.6269227776
 20
146.2654992772
 11
164.7351898012
 21
146.1302446502
  0
LINE
  5
56F
100
AcDbEntity
  8
0
100
AcDbLine
 62
7
  6
CONTINUOUS
 10
164.643809682
 20
146.6488816655
 11
164.499453685
 21
146.8292211251
  0
LINE
  5
570
100
AcDbEntity
  8
0
100
AcDbLine
 62
7
  6
CONTINUOUS
 10
164.9133197102
 20
146.7166698383
 11
164.8050526866
 21
146.8519244653
  0
LINE
  5
571
100
AcDbEntity
  8
0
100
AcDbLine
 62
7
  6
CONTINUOUS
 10
165.6505569172
 20
147.7506426213
 11
165.7949129142
 21
147.5703031617
  0
LINE
  5
572
100
AcDbEntity
  8
0
100
AcDbLine
 62
7
  6
CONTINUOUS
 10
165.9922448692
 20
147.7282611104
 11
165.8478888722
 21
147.90860057
  0
LINE
  5
573
100
AcDbEntity
  8
0
100
AcDbLine
 62
7
  6
CONTINUOUS
 10
165.7183994635
 20
144.8464524136
 11
166.3338404734
 21
144.0087217807
  0
LINE
  5
574
100
AcDbEntity
  8
0
100
AcDbLine
 62
7
  6
CONTINUOUS
 10
166.5035933914
 20
144.1334312078
 11
166.0249171156
 21
144.784999389
  0
LINE
  5
575
100
AcDbEntity
  8
0
100
AcDbLine
 62
7
  6
CONTINUOUS
 10
166.9577160106
 20
145.7210900961
 11
167.0431939939
 21
145.6047385305
  0
LINE
  5
576
100
AcDbEntity
  8
0
100
AcDbLine
 62
7
  6
CONTINUOUS
 10
167.4178532378
 20
145.5216869573
 11
167.4862357027
 21
145.4286055983
  0
LINE
  5
577
100
AcDbEntity
  8
0
100
AcDbLine
 62
7
  6
CONTINUOUS
 10
167.6730841153
 20
145.5300448013
 11
167.6047018461
 21
145.623125894
  0
LINE
  5
578
100
AcDbEntity
  8
RUNDUNGEN
100
AcDbLine
 62
7
  6
CONTINUOUS
 10
187.4561135604
 20
113.7368760566
 11
187.684508837
 21
113.4258139452
  0
LINE
  5
579
100
AcDbEntity
  8
RUNDUNGEN
100
AcDbLine
 62
7
  6
CONTINUOUS
 10
143.8670855988
 20
173.7320261715
 11
143.6418259723
 21
174.0453664626
  0
LINE
  5
57A
100
AcDbEntity
  8
0
100
AcDbLine
 62
7
  6
CONTINUOUS
 10
167.3606744896
 20
142.5422461036
 11
167.4582634551
 21
142.3990959854
  0
LINE
  5
57B
100
AcDbEntity
  8
0
100
AcDbLine
 62
7
  6
CONTINUOUS
 10
169.0942648051
 20
143.5143984479
 11
168.9966758396
 21
143.6575485661
  0
LINE
  5
57C
100
AcDbEntity
  8
0
100
AcDbLine
 62
7
  6
CONTINUOUS
 10
167.9728473932
 20
141.6316195228
 11
168.5370109948
 21
140.7585332266
  0
LINE
  5
57D
100
AcDbEntity
  8
0
100
AcDbLine
 62
7
  6
CONTINUOUS
 10
168.7139281811
 20
140.8728520946
 11
168.2751341492
 21
141.5519193989
  0
LINE
  5
57E
100
AcDbEntity
  8
0
100
AcDbLine
 62
7
  6
CONTINUOUS
 10
169.2623221265
 20
142.4304633579
 11
169.3406784214
 21
142.3092010022
  0
LINE
  5
57F
100
AcDbEntity
  8
0
100
AcDbLine
 62
7
  6
CONTINUOUS
 10
169.7096908876
 20
142.2038600235
 11
169.7723758518
 21
142.10685025
  0
LINE
  5
580
100
AcDbEntity
  8
0
100
AcDbLine
 62
7
  6
CONTINUOUS
 10
169.9649643441
 20
142.1969165198
 11
169.9022793799
 21
142.2939262933
  0
LINE
  5
581
100
AcDbEntity
  8
0
100
AcDbLine
 62
7
  6
CONTINUOUS
 10
169.7329691832
 20
141.230189742
 11
169.8092094093
 21
141.107586704
  0
LINE
  5
582
100
AcDbEntity
  8
0
100
AcDbLine
 62
7
  6
CONTINUOUS
 10
169.915946005
 20
140.9359420017
 11
169.992186231
 21
140.8133389636
  0
LINE
  5
583
100
AcDbEntity
  8
0
100
AcDbLine
 62
7
  6
CONTINUOUS
 10
170.3036023005
 20
140.8709811949
 11
170.2273620744
 21
140.993584233
  0
LINE
  5
584
100
AcDbEntity
  8
0
100
AcDbLine
 62
7
  6
CONTINUOUS
 10
170.1206254787
 20
141.1652289352
 11
170.0443852526
 21
141.2878319733
  0
LWPOLYLINE
  5
585
100
AcDbEntity
  8
RUNDUNGEN
100
AcDbPolyline
 62
7
  6
CONTINUOUS
 90
3
 70
0
 10
178.315546403
 20
129.1483513031
 10
178.3063699297
 20
129.1658776398
 10
177.945438638
 20
129.8759431757
  0
LINE
  5
586
100
AcDbEntity
  8
RUNDUNGEN
100
AcDbLine
 62
7
  6
CONTINUOUS
 10
177.945438638
 20
129.8759431757
 11
177.8558968546
 21
130.0504643357
  0
LINE
  5
587
100
AcDbEntity
  8
RUNDUNGEN
100
AcDbLine
 62
7
  6
CONTINUOUS
 10
187.3600391324
 20
95.670913972
 11
189.1446489137
 21
91.7797432745
  0
LINE
  5
588
100
AcDbEntity
  8
0
100
AcDbLine
 62
7
  6
CONTINUOUS
 10
163.3811183619
 20
147.8582382832
 11
163.4412888403
 21
147.7204036367
  0
LINE
  5
589
100
AcDbEntity
  8
0
100
AcDbLine
 62
7
  6
CONTINUOUS
 10
164.5227241002
 20
148.1340800684
 11
164.462553619
 21
148.2719147125
  0
LINE
  5
58A
100
AcDbEntity
  8
0
100
AcDbLine
 62
7
  6
CONTINUOUS
 10
165.1510691087
 20
148.696140763
 11
165.090898601
 21
148.8339754389
  0
LINE
  5
58B
100
AcDbEntity
  8
0
100
AcDbLine
 62
7
  6
CONTINUOUS
 10
167.7417070381
 20
145.3654811473
 11
167.6730841153
 21
145.5300448013
  0
LINE
  5
58C
100
AcDbEntity
  8
0
100
AcDbLine
 62
7
  6
CONTINUOUS
 10
164.2447877806
 20
146.8103017603
 11
164.302121707
 21
146.6712631581
  0
LINE
  5
58D
100
AcDbEntity
  8
0
100
AcDbLine
 62
7
  6
CONTINUOUS
 10
166.0495786952
 20
147.5892226394
 11
165.9922448692
 21
147.7282611104
  0
LINE
  5
58E
100
AcDbEntity
  8
0
100
AcDbLine
 62
7
  6
CONTINUOUS
 10
167.4862357027
 20
145.4286055983
 11
167.5377629114
 21
145.2873124171
  0
LINE
  5
58F
100
AcDbEntity
  8
0
100
AcDbLine
 62
7
  6
CONTINUOUS
 10
170.0236081787
 20
142.0285383667
 11
169.9649643441
 21
142.1969165198
  0
LINE
  5
590
100
AcDbEntity
  8
RUNDUNGEN
100
AcDbLine
 62
7
  6
CONTINUOUS
 10
187.357941523
 20
95.6678361229
 11
187.2313928603
 21
96.0326377778
  0
LINE
  5
591
100
AcDbEntity
  8
0
100
AcDbLine
 62
7
  6
CONTINUOUS
 10
165.7949129142
 20
147.5703031617
 11
165.8342023051
 21
147.4538070426
  0
LINE
  5
592
100
AcDbEntity
  8
RUNDUNGEN
100
AcDbLine
 62
7
  6
CONTINUOUS
 10
167.3422210836
 20
157.2698892271
 11
167.4542661068
 21
156.9003750368
  0
LINE
  5
593
100
AcDbEntity
  8
0
100
AcDbLine
 62
7
  6
CONTINUOUS
 10
169.7723758518
 20
142.10685025
 11
169.8153483557
 21
141.962724679
  0
LINE
  5
594
100
AcDbEntity
  8
RUNDUNGEN
100
AcDbLine
 62
7
  6
CONTINUOUS
 10
166.502335822
 20
161.4656143358
 11
167.3457272421
 21
157.2686322066
  0
LWPOLYLINE
  5
595
100
AcDbEntity
  8
RUNDUNGEN
100
AcDbPolyline
 62
7
  6
CONTINUOUS
 90
3
 70
0
 10
179.7061228777
 20
124.8685969798
 10
179.7094342865
 20
124.8490927568
 10
179.8332780257
 20
124.062246399
  0
LINE
  5
596
100
AcDbEntity
  8
RUNDUNGEN
100
AcDbLine
 62
7
  6
CONTINUOUS
 10
179.8332780257
 20
124.062246399
 11
179.864507318
 21
123.8685969798
  0
LINE
  5
597
100
AcDbEntity
  8
RUNDUNGEN
100
AcDbLine
 62
7
  6
CONTINUOUS
 10
187.177304579
 20
114.8458765176
 11
187.1976935724
 21
114.4603963095
  0
LINE
  5
598
100
AcDbEntity
  8
RUNDUNGEN
100
AcDbLine
 62
7
  6
CONTINUOUS
 10
187.1773046314
 20
96.4149055475
 11
187.1976936222
 21
96.8003857161
  0
LINE
  5
599
100
AcDbEntity
  8
RUNDUNGEN
100
AcDbLine
 62
7
  6
CONTINUOUS
 10
187.2313928093
 20
115.2281442754
 11
187.177304579
 21
114.8458765176
  0
LINE
  5
59A
100
AcDbEntity
  8
RUNDUNGEN
100
AcDbLine
 62
7
  6
CONTINUOUS
 10
178.1146815541
 20
68.9304400213
 11
178.0423591803
 21
68.5513491118
  0
LINE
  5
59B
100
AcDbEntity
  8
RUNDUNGEN
100
AcDbLine
 62
7
  6
CONTINUOUS
 10
187.1976936222
 20
96.8003857161
 11
187.2917995918
 21
97.1747049469
  0
LINE
  5
59C
100
AcDbEntity
  8
RUNDUNGEN
100
AcDbLine
 62
7
  6
CONTINUOUS
 10
184.3671224263
 20
73.2306888361
 11
185.3215642857
 21
76.1681588341
  0
LINE
  5
59D
100
AcDbEntity
  8
RUNDUNGEN
100
AcDbLine
 62
7
  6
CONTINUOUS
 10
188.868065772
 20
87.083168073
 11
189.8225078052
 21
90.0206386057
  0
LINE
  5
59E
100
AcDbEntity
  8
RUNDUNGEN
100
AcDbLine
 62
7
  6
CONTINUOUS
 10
178.2585675526
 20
69.2885847501
 11
178.1146815541
 21
68.9304400213
  0
LINE
  5
59F
100
AcDbEntity
  8
RUNDUNGEN
100
AcDbLine
 62
7
  6
CONTINUOUS
 10
187.2917995918
 20
97.1747049469
 11
187.4561136052
 21
97.5239059546
  0
LINE
  5
5A0
100
AcDbEntity
  8
RUNDUNGEN
100
AcDbLine
 62
7
  6
CONTINUOUS
 10
167.4542661516
 20
54.3604069853
 11
167.6351992126
 21
54.7014603706
  0
LINE
  5
5A1
100
AcDbEntity
  8
RUNDUNGEN
100
AcDbLine
 62
7
  6
CONTINUOUS
 10
178.4686520919
 20
69.6124291391
 11
178.2585675526
 21
69.2885847501
  0
LINE
  5
5A2
100
AcDbEntity
  8
RUNDUNGEN
100
AcDbLine
 62
7
  6
CONTINUOUS
 10
167.6351992126
 20
54.7014603706
 11
167.8782738109
 21
55.0013360299
  0
LINE
  5
5A3
100
AcDbEntity
  8
RUNDUNGEN
100
AcDbLine
 62
7
  6
CONTINUOUS
 10
178.7371017399
 20
69.8898979875
 11
178.4686520919
 21
69.6124291391
  0
LINE
  5
5A4
100
AcDbEntity
  8
RUNDUNGEN
100
AcDbLine
 62
7
  6
CONTINUOUS
 10
144.1484196261
 20
37.7929368705
 11
143.8670855507
 21
37.5287559071
  0
LINE
  5
5A5
100
AcDbEntity
  8
RUNDUNGEN
100
AcDbLine
 62
7
  6
CONTINUOUS
 10
167.8782738109
 20
55.0013360299
 11
168.1744264631
 21
55.2488525479
  0
LINE
  5
5A6
100
AcDbEntity
  8
RUNDUNGEN
100
AcDbLine
 62
7
  6
CONTINUOUS
 10
151.7343733825
 20
37.5968187063
 11
154.2331346108
 21
39.412275006
  0
LINE
  5
5A7
100
AcDbEntity
  8
RUNDUNGEN
100
AcDbLine
 62
7
  6
CONTINUOUS
 10
163.5179960431
 20
46.1581217032
 11
166.0167577262
 21
47.9735783333
  0
LINE
  5
5A8
100
AcDbEntity
  8
RUNDUNGEN
100
AcDbLine
 62
7
  6
CONTINUOUS
 10
144.4753380339
 20
37.9981079747
 11
144.1484196261
 21
37.7929368705
  0
LINE
  5
5A9
100
AcDbEntity
  8
RUNDUNGEN
100
AcDbLine
 62
7
  6
CONTINUOUS
 10
168.1744264631
 20
55.2488525479
 11
168.5126144947
 21
55.4347807438
  0
LINE
  5
5AA
100
AcDbEntity
  8
RUNDUNGEN
100
AcDbLine
 62
7
  6
CONTINUOUS
 10
126.9599118543
 20
32.2715674927
 11
127.3067559257
 21
32.4411356925
  0
LINE
  5
5AB
100
AcDbEntity
  8
RUNDUNGEN
100
AcDbLine
 62
7
  6
CONTINUOUS
 10
144.8356509523
 20
38.136618995
 11
144.4753380339
 21
37.9981079747
  0
LINE
  5
5AC
100
AcDbEntity
  8
RUNDUNGEN
100
AcDbLine
 62
7
  6
CONTINUOUS
 10
99.124964437
 20
178.8196463649
 11
98.7520504404
 21
178.7199175131
  0
LINE
  5
5AD
100
AcDbEntity
  8
RUNDUNGEN
100
AcDbLine
 62
7
  6
CONTINUOUS
 10
81.2157969913
 20
173.0574768928
 11
81.5960694259
 21
173.1241631137
  0
LINE
  5
5AE
100
AcDbEntity
  8
RUNDUNGEN
100
AcDbLine
 62
7
  6
CONTINUOUS
 10
128.0647489986
 20
178.6937465513
 11
128.4476347209
 21
178.7421094199
  0
LINE
  5
5AF
100
AcDbEntity
  8
RUNDUNGEN
100
AcDbLine
 62
7
  6
CONTINUOUS
 10
98.7520504404
 20
178.7199175131
 11
98.3669713531
 21
178.6937465999
  0
LINE
  5
5B0
100
AcDbEntity
  8
RUNDUNGEN
100
AcDbLine
 62
7
  6
CONTINUOUS
 10
122.0428582954
 20
183.3113212216
 11
118.9542201182
 21
183.3113212216
  0
LINE
  5
5B1
100
AcDbEntity
  8
RUNDUNGEN
100
AcDbLine
 62
7
  6
CONTINUOUS
 10
107.4775002262
 20
183.3113212216
 11
104.3888582153
 21
183.3113212216
  0
LINE
  5
5B2
100
AcDbEntity
  8
RUNDUNGEN
100
AcDbLine
 62
7
  6
CONTINUOUS
 10
127.6796699017
 20
178.7199174601
 11
128.0647489986
 21
178.6937465513
  0
LINE
  5
5B3
100
AcDbEntity
  8
RUNDUNGEN
100
AcDbLine
 62
7
  6
CONTINUOUS
 10
98.3669713531
 20
178.6937465999
 11
97.9840856366
 21
178.7421094614
  0
LINE
  5
5B4
100
AcDbEntity
  8
RUNDUNGEN
100
AcDbLine
 62
7
  6
CONTINUOUS
 10
145.2159233868
 20
173.0574768329
 11
144.8356509515
 21
173.1241631076
  0
LINE
  5
5B5
100
AcDbEntity
  8
RUNDUNGEN
100
AcDbLine
 62
7
  6
CONTINUOUS
 10
127.3067558923
 20
178.8196463102
 11
127.6796699017
 21
178.7199174601
  0
LINE
  5
5B6
100
AcDbEntity
  8
RUNDUNGEN
100
AcDbLine
 62
7
  6
CONTINUOUS
 10
144.8356509515
 20
173.1241631076
 11
144.4753380699
 21
173.2626741133
  0
LINE
  5
5B7
100
AcDbEntity
  8
RUNDUNGEN
100
AcDbLine
 62
7
  6
CONTINUOUS
 10
126.9599118326
 20
178.9892145076
 11
127.3067558923
 21
178.8196463102
  0
LINE
  5
5B8
100
AcDbEntity
  8
RUNDUNGEN
100
AcDbLine
 62
7
  6
CONTINUOUS
 10
168.1744264426
 20
156.0119294463
 11
168.5126144797
 21
155.826001248
  0
LINE
  5
5B9
100
AcDbEntity
  8
RUNDUNGEN
100
AcDbLine
 62
7
  6
CONTINUOUS
 10
144.4753380699
 20
173.2626741133
 11
144.1484196702
 21
173.4678452125
  0
LINE
  5
5BA
100
AcDbEntity
  8
RUNDUNGEN
100
AcDbLine
 62
7
  6
CONTINUOUS
 10
166.0167572714
 20
163.2872040443
 11
163.5179960431
 21
165.102660344
  0
LINE
  5
5BB
100
AcDbEntity
  8
RUNDUNGEN
100
AcDbLine
 62
7
  6
CONTINUOUS
 10
154.2331346108
 20
171.8485070412
 11
151.7343729277
 21
173.6639636713
  0
LINE
  5
5BC
100
AcDbEntity
  8
RUNDUNGEN
100
AcDbLine
 62
7
  6
CONTINUOUS
 10
167.8782737833
 20
156.2594459705
 11
168.1744264426
 21
156.0119294463
  0
LINE
  5
5BD
100
AcDbEntity
  8
RUNDUNGEN
100
AcDbLine
 62
7
  6
CONTINUOUS
 10
144.1484196702
 20
173.4678452125
 11
143.8670855988
 21
173.7320261715
  0
LINE
  5
5BE
100
AcDbEntity
  8
RUNDUNGEN
100
AcDbLine
 62
7
  6
CONTINUOUS
 10
178.7371017776
 20
141.3708840946
 11
178.4686521238
 21
141.6483529534
  0
LINE
  5
5BF
100
AcDbEntity
  8
RUNDUNGEN
100
AcDbLine
 62
7
  6
CONTINUOUS
 10
167.6351991597
 20
156.5593216602
 11
167.8782737833
 21
156.2594459705
  0
LINE
  5
5C0
100
AcDbEntity
  8
RUNDUNGEN
100
AcDbLine
 62
7
  6
CONTINUOUS
 10
178.4686521238
 20
141.6483529534
 11
178.2585676057
 21
141.9721973089
  0
LINE
  5
5C1
100
AcDbEntity
  8
RUNDUNGEN
100
AcDbLine
 62
7
  6
CONTINUOUS
 10
167.4542661068
 20
156.9003750368
 11
167.6351991597
 21
156.5593216602
  0
LINE
  5
5C2
100
AcDbEntity
  8
RUNDUNGEN
100
AcDbLine
 62
7
  6
CONTINUOUS
 10
187.2917995441
 20
114.0860770695
 11
187.4561135604
 21
113.7368760566
  0
LINE
  5
5C3
100
AcDbEntity
  8
RUNDUNGEN
100
AcDbLine
 62
7
  6
CONTINUOUS
 10
178.2585676057
 20
141.9721973089
 11
178.1146816109
 21
142.330342029
  0
LINE
  5
5C4
100
AcDbEntity
  8
RUNDUNGEN
100
AcDbLine
 62
7
  6
CONTINUOUS
 10
189.8225076314
 20
121.2401439762
 11
188.868065772
 21
124.1776139741
  0
LINE
  5
5C5
100
AcDbEntity
  8
RUNDUNGEN
100
AcDbLine
 62
7
  6
CONTINUOUS
 10
185.3215642857
 20
135.0926232131
 11
184.3671222525
 21
138.0300937457
  0
LINE
  5
5C6
100
AcDbEntity
  8
RUNDUNGEN
100
AcDbLine
 62
7
  6
CONTINUOUS
 10
187.1976935724
 20
114.4603963095
 11
187.2917995441
 21
114.0860770695
  0
LINE
  5
5C7
100
AcDbEntity
  8
RUNDUNGEN
100
AcDbLine
 62
7
  6
CONTINUOUS
 10
178.1146816109
 20
142.330342029
 11
178.0423592377
 21
142.7094329325
  0
LINE
  5
5C8
100
AcDbEntity
  8
RUNDUNGEN
100
AcDbLine
 62
7
  6
CONTINUOUS
 10
187.2313928603
 20
96.0326377778
 11
187.1773046314
 21
96.4149055475
  0
LINE
  5
5C9
100
AcDbEntity
  8
RUNDUNGEN
100
AcDbLine
 62
7
  6
CONTINUOUS
 10
191.6348909239
 20
102.6303910236
 11
191.6348909239
 21
108.6303910236
  0
LINE
  5
5CA
100
AcDbEntity
  8
RUNDUNGEN
100
AcDbLine
 62
7
  6
CONTINUOUS
 10
174.8948329759
 20
57.1097902655
 11
178.4215444896
 21
61.9638922318
  0
LINE
  5
5CB
100
AcDbEntity
  8
RUNDUNGEN
100
AcDbLine
 62
7
  6
CONTINUOUS
 10
134.595503808
 20
30.1224098425
 11
140.3018429058
 21
31.9765118088
  0
LINE
  5
5CC
100
AcDbEntity
  8
RUNDUNGEN
100
AcDbLine
 62
7
  6
CONTINUOUS
 10
140.3018429058
 20
179.2842702384
 11
134.595503808
 21
181.1383722047
  0
LINE
  5
5CD
100
AcDbEntity
  8
RUNDUNGEN
100
AcDbLine
 62
7
  6
CONTINUOUS
 10
178.4215444896
 20
149.2968898154
 11
174.8948329759
 21
154.1509917817
  0
LINE
  5
5CE
100
AcDbEntity
  8
RUNDUNGEN
100
AcDbLine
 62
7
  6
CONTINUOUS
 10
231.482551419
 20
27.9494608256
 11
259.482551419
 21
27.9494608256
  0
LINE
  5
5CF
100
AcDbEntity
  8
RUNDUNGEN
100
AcDbLine
 62
7
  6
CONTINUOUS
 10
245.732551419
 20
30.0734663588
 11
245.9276819705
 21
30.0926890835
  0
LINE
  5
5D0
100
AcDbEntity
  8
0
100
AcDbLine
 62
7
  6
CONTINUOUS
 10
245.232551419
 20
30.0734663588
 11
245.732551419
 21
30.0734663588
  0
LINE
  5
5D1
100
AcDbEntity
  8
RUNDUNGEN
100
AcDbLine
 62
7
  6
CONTINUOUS
 10
245.232551419
 20
30.0734663588
 11
245.0374208675
 21
30.0926890835
  0
LWPOLYLINE
  5
5D2
100
AcDbEntity
  8
RUNDUNGEN
100
AcDbPolyline
 62
7
  6
CONTINUOUS
 90
8
 70
0
 10
245.0374208675
 20
30.0926890835
 10
244.8498338379
 20
30.1496009719
 10
244.6769593294
 20
30.2420113513
 10
244.5254332829
 20
30.3663709327
 10
244.401084945
 20
30.5178914292
 10
244.3086773132
 20
30.6907698255
 10
244.2517675125
 20
30.8783692127
 10
244.232551419
 20
31.0734663588
  0
LINE
  5
5D3
100
AcDbEntity
  8
0
100
AcDbLine
 62
7
  6
CONTINUOUS
 10
231.0261272695
 20
173.2533237471
 11
230.9267832277
 21
173.2001860202
  0
LWPOLYLINE
  5
5D4
100
AcDbEntity
  8
RUNDUNGEN
100
AcDbPolyline
 62
7
  6
CONTINUOUS
 90
7
 70
0
 10
245.4821631175
 20
37.4058420545
 10
246.1416304488
 20
37.4252393538
 10
247.1812932014
 20
37.5214176212
 10
248.2259861362
 20
37.6566830027
 10
249.2942228186
 20
37.785533151
 10
250.3988498493
 20
37.8723125264
 10
251.1719435587
 20
37.8920005589
  0
LINE
  5
5D5
100
AcDbEntity
  8
RUNDUNGEN
100
AcDbLine
 62
7
  6
CONTINUOUS
 10
259.482551419
 20
37.8919333306
 11
251.171943019
 21
37.8919333306
  0
LINE
  5
5D6
100
AcDbEntity
  8
RUNDUNGEN
100
AcDbLine
 62
7
  6
CONTINUOUS
 10
239.7933826315
 20
37.8919333306
 11
231.482551419
 21
37.8919333306
  0
LWPOLYLINE
  5
5D7
100
AcDbEntity
  8
RUNDUNGEN
100
AcDbPolyline
 62
7
  6
CONTINUOUS
 90
7
 70
0
 10
239.7933826227
 20
37.8919474356
 10
240.5986952461
 20
37.8706996305
 10
241.7040480804
 20
37.7820352082
 10
242.7724578164
 20
37.6522959873
 10
243.8173805524
 20
37.5174315109
 10
244.857226628
 20
37.4233441826
 10
245.4821631133
 20
37.4058401061
  0
LWPOLYLINE
  5
5D8
100
AcDbEntity
  8
RUNDUNGEN
100
AcDbPolyline
 62
7
  6
CONTINUOUS
 90
9
 70
0
 10
231.482551419
 20
37.8919333306
 10
231.2870818712
 20
37.9112235824
 10
231.0995495048
 20
37.9681857819
 10
230.9267832277
 20
38.060596027
 10
230.7753458559
 20
38.1849253452
 10
230.6511167138
 20
38.3363108609
 10
230.5587257981
 20
38.50911977
 10
230.5017798553
 20
38.6967748658
 10
230.482551419
 20
38.8919333306
  0
LINE
  5
5D9
100
AcDbEntity
  8
0
100
AcDbLine
 62
7
  6
CONTINUOUS
 10
230.9267832277
 20
173.2001860202
 11
230.7753458559
 21
173.075856702
  0
LINE
  5
5DA
100
AcDbEntity
  8
RUNDUNGEN
100
AcDbLine
 62
7
  6
CONTINUOUS
 10
260.482551419
 20
49.4386600314
 11
261.8284017661
 21
49.5717531181
  0
LINE
  5
5DB
100
AcDbEntity
  8
0
100
AcDbLine
 62
7
  6
CONTINUOUS
 10
231.482551419
 20
45.9671386976
 11
259.482551419
 21
45.9671386976
  0
LINE
  5
5DC
100
AcDbEntity
  8
RUNDUNGEN
100
AcDbLine
 62
7
  6
CONTINUOUS
 10
229.1367010719
 20
49.5717531181
 11
230.482551419
 21
49.4386600314
  0
LWPOLYLINE
  5
5DD
100
AcDbEntity
  8
0
100
AcDbPolyline
 62
7
  6
CONTINUOUS
 90
5
 70
0
 10
230.7753458559
 20
173.075856702
 10
230.6511167138
 20
172.9244711863
 10
230.5587257981
 20
172.7516622771
 10
230.5017798553
 20
172.5640071814
 10
230.482551419
 20
172.3688487166
  0
LINE
  5
5DE
100
AcDbEntity
  8
0
100
AcDbLine
 62
7
  6
CONTINUOUS
 10
251.7799497491
 20
169.1602540027
 11
251.8119340735
 21
169.1781895869
  0
LINE
  5
5DF
100
AcDbEntity
  8
RUNDUNGEN
100
AcDbLine
 62
7
  6
CONTINUOUS
 10
251.8121954105
 20
169.1783324798
 11
251.8119340735
 21
169.1781895869
  0
LINE
  5
5E0
100
AcDbEntity
  8
0
100
AcDbLine
 62
7
  6
CONTINUOUS
 10
251.8121938086
 20
169.1783355858
 11
252.2296578009
 21
169.404336678
  0
LINE
  5
5E1
100
AcDbEntity
  8
0
100
AcDbLine
 62
7
  6
CONTINUOUS
 10
252.2296578009
 20
169.404336678
 11
252.6209908686
 21
169.6127521506
  0
LINE
  5
5E2
100
AcDbEntity
  8
0
100
AcDbLine
 62
7
  6
CONTINUOUS
 10
252.6209908686
 20
169.6127521506
 11
253.025568441
 21
169.8252686976
  0
LINE
  5
5E3
100
AcDbEntity
  8
RUNDUNGEN
100
AcDbLine
 62
7
  6
CONTINUOUS
 10
253.444288855
 20
170.042539476
 11
253.4439034618
 21
170.0423406173
  0
LINE
  5
5E4
100
AcDbEntity
  8
0
100
AcDbLine
 62
7
  6
CONTINUOUS
 10
253.025568441
 20
169.8252686976
 11
253.6497605348
 21
170.1483422503
  0
LWPOLYLINE
  5
5E5
100
AcDbEntity
  8
0
100
AcDbPolyline
 62
7
  6
CONTINUOUS
 90
3
 70
0
 10
253.6497605348
 20
170.1483422503
 10
254.2753070488
 20
170.4671221419
 10
254.9134357367
 20
170.7881119733
  0
LINE
  5
5E6
100
AcDbEntity
  8
0
100
AcDbLine
 62
7
  6
CONTINUOUS
 10
254.9134357367
 20
170.7881119733
 11
256.211486058
 21
171.4303646342
  0
LINE
  5
5E7
100
AcDbEntity
  8
0
100
AcDbLine
 62
7
  6
CONTINUOUS
 10
256.211486058
 20
171.4303646342
 11
259.9215592698
 21
173.2428329654
  0
LINE
  5
5E8
100
AcDbEntity
  8
0
100
AcDbLine
 62
7
  6
CONTINUOUS
 10
251.6058091254
 20
169.2978335532
 11
252.3532820006
 21
169.6624004335
  0
LINE
  5
5E9
100
AcDbEntity
  8
0
100
AcDbLine
 62
2
  6
CONTINUOUS
 10
243.3058847376
 20
171.5613212216
 11
240.2223167536
 21
168.4777532376
  0
LINE
  5
5EA
100
AcDbEntity
  8
0
100
AcDbLine
 62
2
  6
CONTINUOUS
 10
233.9051513916
 20
162.1605878756
 11
226.432551419
 21
154.687987903
  0
LINE
  5
5EB
100
AcDbEntity
  8
0
100
AcDbLine
 62
2
  6
CONTINUOUS
 10
249.2068020801
 20
171.5613212216
 11
228.7528884187
 21
151.1074075602
  0
LINE
  5
5EC
100
AcDbEntity
  8
RUNDUNGEN
100
AcDbLine
 62
7
  6
CONTINUOUS
 10
251.5525501666
 20
169.004796255
 11
251.5512629345
 21
169.0037690021
  0
LWPOLYLINE
  5
5ED
100
AcDbEntity
  8
0
100
AcDbPolyline
 62
7
  6
CONTINUOUS
 90
4
 70
0
 10
251.5512668377
 20
169.0037639773
 10
251.6140894739
 20
169.0518806206
 10
251.6971112213
 20
169.1094183592
 10
251.7799497491
 20
169.1602540027
  0
LINE
  5
5EE
100
AcDbEntity
  8
0
100
AcDbLine
 62
7
  6
CONTINUOUS
 10
259.4858365095
 20
161.9206885943
 11
259.8499518054
 21
162.0645249149
  0
LINE
  5
5EF
100
AcDbEntity
  8
RUNDUNGEN
100
AcDbLine
 62
7
  6
CONTINUOUS
 10
259.8492774342
 20
162.0642588029
 11
259.8493059591
 21
162.0642700499
  0
LINE
  5
5F0
100
AcDbEntity
  8
0
100
AcDbLine
 62
2
  6
CONTINUOUS
 10
250.482551419
 20
166.936153218
 11
234.6538057612
 21
151.1074075602
  0
LINE
  5
5F1
100
AcDbEntity
  8
0
100
AcDbLine
 62
7
  6
CONTINUOUS
 10
251.3290420002
 20
168.7964113478
 11
251.5525501666
 21
169.004796255
  0
LINE
  5
5F2
100
AcDbEntity
  8
0
100
AcDbLine
 62
7
  6
CONTINUOUS
 10
259.8492774342
 20
162.0642588029
 11
260.038379082
 21
162.163290251
  0
LINE
  5
5F3
100
AcDbEntity
  8
RUNDUNGEN
100
AcDbLine
 62
7
  6
CONTINUOUS
 10
259.8502341477
 20
54.1844852509
 11
256.0131637391
 21
55.7009123008
  0
LWPOLYLINE
  5
5F4
100
AcDbEntity
  8
RUNDUNGEN
100
AcDbPolyline
 62
7
  6
CONTINUOUS
 90
7
 70
0
 10
256.013256078
 20
55.7008205925
 10
255.9215508696
 20
55.7375761003
 10
255.4738621683
 20
55.9314192911
 10
255.0122362616
 20
56.15625457
 10
254.5411490979
 20
56.4120790135
 10
254.0656887639
 20
56.6983482903
 10
253.8941056367
 20
56.8089315262
  0
LINE
  5
5F5
100
AcDbEntity
  8
0
100
AcDbLine
 62
2
  6
CONTINUOUS
 10
252.1638575094
 20
162.716541966
 11
240.5547231037
 21
151.1074075602
  0
LWPOLYLINE
  5
5F6
100
AcDbEntity
  8
0
100
AcDbPolyline
 62
7
  6
CONTINUOUS
 90
5
 70
0
 10
260.038379082
 20
162.163290251
 10
260.1897846679
 20
162.2876075016
 10
260.3139724543
 20
162.438944868
 10
260.4063584898
 20
162.6117294687
 10
260.4633182268
 20
162.799405694
  0
LWPOLYLINE
  5
5F7
100
AcDbEntity
  8
RUNDUNGEN
100
AcDbPolyline
 62
7
  6
CONTINUOUS
 90
9
 70
0
 10
231.482551419
 20
73.3262283176
 10
231.2842940793
 20
73.3460788705
 10
231.0973934888
 20
73.4033776423
 10
230.9258076096
 20
73.4955440857
 10
230.7751212681
 20
73.619445054
 10
230.6517179022
 20
73.7697072828
 10
230.5593293145
 20
73.9419615538
 10
230.5019454523
 20
74.1302467392
 10
230.482551419
 20
74.3262283176
  0
LWPOLYLINE
  5
5F8
100
AcDbEntity
  8
RUNDUNGEN
100
AcDbPolyline
 62
7
  6
CONTINUOUS
 90
6
 70
0
 10
253.8941022861
 20
56.8089770001
 10
253.6393277669
 20
56.9806429305
 10
253.3567703214
 20
57.1820500674
 10
253.0779175386
 20
57.392946924
 10
252.8039397573
 20
57.6128295643
 10
252.660211296
 20
57.7335725306
  0
LINE
  5
5F9
100
AcDbEntity
  8
0
100
AcDbLine
 62
2
  6
CONTINUOUS
 10
257.4684261113
 20
162.1201932254
 11
246.4556404462
 21
151.1074075602
  0
LINE
  5
5FA
100
AcDbEntity
  8
0
100
AcDbLine
 62
2
  6
CONTINUOUS
 10
262.7101959235
 20
161.4610456951
 11
252.3565577886
 21
151.1074075602
  0
LINE
  5
5FB
100
AcDbEntity
  8
RUNDUNGEN
100
AcDbLine
 62
7
  6
CONTINUOUS
 10
248.6277365148
 20
73.0215946868
 11
248.6182942345
 21
73.0196564731
  0
LWPOLYLINE
  5
5FC
100
AcDbEntity
  8
RUNDUNGEN
100
AcDbPolyline
 62
7
  6
CONTINUOUS
 90
4
 70
0
 10
248.6182870555
 20
73.0196526745
 10
249.2823819609
 20
73.1465444288
 10
250.3828550762
 20
73.2918705431
 10
251.1719532641
 20
73.3263349992
  0
LINE
  5
5FD
100
AcDbEntity
  8
RUNDUNGEN
100
AcDbLine
 62
7
  6
CONTINUOUS
 10
259.482551419
 20
73.3262283176
 11
251.1719498003
 21
73.3262283176
  0
LINE
  5
5FE
100
AcDbEntity
  8
RUNDUNGEN
100
AcDbLine
 62
7
  6
CONTINUOUS
 10
239.7933928686
 20
73.3262283176
 11
231.482551419
 21
73.3262283176
  0
LWPOLYLINE
  5
5FF
100
AcDbEntity
  8
RUNDUNGEN
100
AcDbPolyline
 62
7
  6
CONTINUOUS
 90
4
 70
0
 10
239.7933929718
 20
73.3262491839
 10
240.6153524649
 20
73.2890572563
 10
241.7179123312
 20
73.1403706693
 10
242.3450421231
 20
73.0200262835
  0
LINE
  5
600
100
AcDbEntity
  8
RUNDUNGEN
100
AcDbLine
 62
7
  6
CONTINUOUS
 10
242.3450481323
 20
73.0200251667
 11
242.3370065861
 21
73.0216752112
  0
LINE
  5
601
100
AcDbEntity
  8
RUNDUNGEN
100
AcDbLine
 62
7
  6
CONTINUOUS
 10
252.66021968
 20
57.7335823445
 11
252.6600139263
 21
57.7337578829
  0
LWPOLYLINE
  5
602
100
AcDbEntity
  8
RUNDUNGEN
100
AcDbPolyline
 62
7
  6
CONTINUOUS
 90
5
 70
0
 10
252.6600139263
 20
57.7337578829
 10
252.5813736696
 20
57.8035738973
 10
252.4508084069
 20
57.9308390628
 10
252.3183071372
 20
58.0736745488
 10
252.2466833949
 20
58.1562491159
  0
LWPOLYLINE
  5
603
100
AcDbEntity
  8
0
100
AcDbPolyline
 62
7
  6
CONTINUOUS
 90
3
 70
0
 10
250.8113605502
 20
167.9591183947
 10
251.0483140288
 20
168.4254059088
 10
251.3290420002
 20
168.7964113478
  0
LINE
  5
604
100
AcDbEntity
  8
0
100
AcDbLine
 62
2
  6
CONTINUOUS
 10
264.532551419
 20
157.3824838481
 11
258.2574751311
 21
151.1074075602
  0
LWPOLYLINE
  5
605
100
AcDbEntity
  8
RUNDUNGEN
100
AcDbPolyline
 62
7
  6
CONTINUOUS
 90
5
 70
0
 10
231.482551419
 20
82.1124307441
 10
231.2860112673
 20
82.094705099
 10
231.0975210429
 20
82.0428813479
 10
230.9243260925
 20
81.9587500323
 10
230.7730288421
 20
81.8460211623
  0
LINE
  5
606
100
AcDbEntity
  8
RUNDUNGEN
100
AcDbLine
 62
7
  6
CONTINUOUS
 10
231.482551419
 20
82.1124307441
 11
259.482551419
 21
82.1124307441
  0
LWPOLYLINE
  5
607
100
AcDbEntity
  8
RUNDUNGEN
100
AcDbPolyline
 62
7
  6
CONTINUOUS
 90
5
 70
0
 10
259.482551419
 20
82.1124307441
 10
259.6790915707
 20
82.0949044074
 10
259.8675817951
 20
82.0428813479
 10
260.0407767455
 20
81.958813032
 10
260.1920739959
 20
81.8460211623
  0
LINE
  5
608
100
AcDbEntity
  8
RUNDUNGEN
100
AcDbLine
 62
7
  6
CONTINUOUS
 10
252.2466843024
 20
58.1562498567
 11
252.2461532791
 21
58.1568729233
  0
LWPOLYLINE
  5
609
100
AcDbEntity
  8
RUNDUNGEN
100
AcDbPolyline
 62
7
  6
CONTINUOUS
 90
10
 70
0
 10
252.2461532791
 20
58.1568729233
 10
252.0175923132
 20
58.4508387104
 10
251.6747669175
 20
58.9944088198
 10
251.3845094683
 20
59.5765078794
 10
251.1380873878
 20
60.1949722714
 10
250.9285038332
 20
60.859500435
 10
250.7585298407
 20
61.5592857566
 10
250.6280451983
 20
62.293535267
 10
250.538430843
 20
63.0562782061
 10
250.490637363
 20
63.8444814615
  0
LINE
  5
60A
100
AcDbEntity
  8
RUNDUNGEN
100
AcDbLine
 62
7
  6
CONTINUOUS
 10
226.432551419
 20
52.5571914333
 11
226.432551419
 21
105.6303910242
  0
LINE
  5
60B
100
AcDbEntity
  8
0
100
AcDbLine
 62
7
  6
CONTINUOUS
 10
226.432551419
 20
105.6303910242
 11
226.432551419
 21
158.7036440447
  0
LINE
  5
60C
100
AcDbEntity
  8
0
100
AcDbLine
 62
2
  6
CONTINUOUS
 10
264.532551419
 20
151.4815665057
 11
264.1583924736
 21
151.1074075602
  0
LWPOLYLINE
  5
60D
100
AcDbEntity
  8
RUNDUNGEN
100
AcDbPolyline
 62
7
  6
CONTINUOUS
 90
4
 70
0
 10
232.7712424255
 20
82.5813176432
 10
232.598557201
 20
82.5475806182
 10
232.4238409026
 20
82.5156768233
 10
232.2471544528
 20
82.4856880163
  0
LINE
  5
60E
100
AcDbEntity
  8
RUNDUNGEN
100
AcDbLine
 62
7
  6
CONTINUOUS
 10
231.3388476173
 20
82.3475746678
 11
231.2845858697
 21
82.3381629026
  0
LINE
  5
60F
100
AcDbEntity
  8
RUNDUNGEN
100
AcDbLine
 62
7
  6
CONTINUOUS
 10
232.2471544528
 20
82.4856880163
 11
232.078517199
 21
82.4591961259
  0
LINE
  5
610
100
AcDbEntity
  8
RUNDUNGEN
100
AcDbLine
 62
7
  6
CONTINUOUS
 10
232.0785193419
 20
82.4591982274
 11
231.3333529677
 21
82.3467616517
  0
LINE
  5
611
100
AcDbEntity
  8
RUNDUNGEN
100
AcDbLine
 62
7
  6
CONTINUOUS
 10
231.482551419
 20
86.3921850674
 11
259.482551419
 21
86.3921850674
  0
LINE
  5
612
100
AcDbEntity
  8
RUNDUNGEN
100
AcDbLine
 62
7
  6
CONTINUOUS
 10
259.6264787848
 20
82.3475416302
 11
258.8865834776
 21
82.4591982302
  0
LWPOLYLINE
  5
613
100
AcDbEntity
  8
RUNDUNGEN
100
AcDbPolyline
 62
7
  6
CONTINUOUS
 90
3
 70
0
 10
258.8865840937
 20
82.4591975887
 10
258.7189959318
 20
82.4855162329
 10
258.5293924135
 20
82.5177720279
  0
LINE
  5
614
100
AcDbEntity
  8
RUNDUNGEN
100
AcDbLine
 62
7
  6
CONTINUOUS
 10
259.6262552207
 20
82.3475746678
 11
259.6805169683
 21
82.3381629026
  0
LINE
  5
615
100
AcDbEntity
  8
RUNDUNGEN
100
AcDbLine
 62
7
  6
CONTINUOUS
 10
258.5293924135
 20
82.5177720279
 11
258.3420423381
 21
82.5522337221
  0
LWPOLYLINE
  5
616
100
AcDbEntity
  8
RUNDUNGEN
100
AcDbPolyline
 62
7
  6
CONTINUOUS
 90
65
 70
0
 10
258.3420423381
 20
82.5522337221
 10
258.157011307
 20
82.5888018788
 10
257.9743673407
 20
82.6273771348
 10
257.7941685932
 20
82.6678629323
 10
257.6164980089
 20
82.7101642984
 10
257.441438218
 20
82.754194476
 10
257.2690440901
 20
82.7998726027
 10
257.0993691943
 20
82.8471172485
 10
256.9324873169
 20
82.8958400933
 10
256.7684708644
 20
82.945956372
 10
256.6073760744
 20
82.9973941119
 10
256.4492696807
 20
83.050076207
 10
256.2941842711
 20
83.1039342586
 10
256.1422198814
 20
83.1588735766
 10
255.9932303294
 20
83.214892952
 10
255.8471665981
 20
83.2719722716
 10
255.7038724676
 20
83.3301399074
 10
255.5632094779
 20
83.3894261364
 10
255.4250827002
 20
83.4498511853
 10
255.2893940627
 20
83.5114489658
 10
255.1560626312
 20
83.5742657052
 10
255.0250119602
 20
83.6383553908
 10
254.8961736156
 20
83.7037772101
 10
254.7694504092
 20
83.7706164033
 10
254.6448971697
 20
83.8388954632
 10
254.5225531571
 20
83.908661781
 10
254.4025119313
 20
83.9799400146
 10
254.2848623213
 20
84.0527644796
 10
254.1696996254
 20
84.1271754489
 10
254.0571699511
 20
84.2031969606
 10
253.9475011473
 20
84.2808136398
 10
253.8409292284
 20
84.3600177577
 10
253.7376689073
 20
84.4408348425
 10
253.6380602895
 20
84.5231776575
 10
253.5424214355
 20
84.6069809514
 10
253.451294528
 20
84.6920306902
 10
253.3646720787
 20
84.7787049199
 10
253.2830525181
 20
84.8668509444
 10
253.2067186458
 20
84.9566362385
 10
253.1365966881
 20
85.0478826507
 10
253.0733813997
 20
85.140851248
 10
253.0184421629
 20
85.2340553711
 10
252.9732686394
 20
85.3264404062
 10
252.9397715662
 20
85.4176039068
 10
252.9208021327
 20
85.4983500643
 10
252.9146805815
 20
85.5614181692
 10
252.9183858959
 20
85.6127980658
 10
252.9284049655
 20
85.6582458363
 10
252.9443432518
 20
85.7020794208
 10
252.9668770413
 20
85.7463553163
 10
252.9961648359
 20
85.792097611
 10
253.0332527113
 20
85.840741032
 10
253.0772819696
 20
85.8902737443
 10
253.1279822848
 20
85.9400100385
 10
253.1845358793
 20
85.989312347
 10
253.2463448273
 20
86.0378134923
 10
253.3126961847
 20
86.0850822925
 10
253.3828703232
 20
86.1307779634
 10
253.4570036533
 20
86.1751393553
 10
253.5353987632
 20
86.2184049137
 10
253.6175482902
 20
86.2603365894
 10
253.7032474238
 20
86.3008894722
 10
253.792095962
 20
86.3399162625
 10
253.883631279
 20
86.3772777112
 10
253.9229007463
 20
86.3921850674
  0
LWPOLYLINE
  5
617
100
AcDbEntity
  8
RUNDUNGEN
100
AcDbPolyline
 62
7
  6
CONTINUOUS
 90
3
 70
0
 10
259.6805169683
 20
82.3381629026
 10
259.8674930353
 20
82.2808953048
 10
260.039222483
 20
82.1886873636
  0
LWPOLYLINE
  5
618
100
AcDbEntity
  8
RUNDUNGEN
100
AcDbPolyline
 62
7
  6
CONTINUOUS
 90
66
 70
0
 10
237.0424091422
 20
86.3921850674
 10
237.0626063121
 20
86.3846471826
 10
237.160770861
 20
86.3450709649
 10
237.2555738195
 20
86.3037468636
 10
237.3463919441
 20
86.2609082697
 10
237.4325587808
 20
86.2168871173
 10
237.5141057478
 20
86.171676944
 10
237.5906222488
 20
86.1255185405
 10
237.6624934173
 20
86.0781740885
 10
237.7299181556
 20
86.0294069132
 10
237.7922627409
 20
85.9795455658
 10
237.8487053672
 20
85.9291774251
 10
237.8991447791
 20
85.8782247296
 10
237.9431366653
 20
85.826761772
 10
237.979646975
 20
85.7763041668
 10
238.0077167584
 20
85.7291043515
 10
238.0278227899
 20
85.6848698828
 10
238.0408750236
 20
85.6426285987
 10
238.0485039472
 20
85.5989207087
 10
238.0500886178
 20
85.5494654552
 10
238.0422953881
 20
85.4868230795
 10
238.0203459923
 20
85.4018275947
 10
237.9817492862
 20
85.3037972841
 10
237.9299948755
 20
85.2041050568
 10
237.8676707897
 20
85.1040613397
 10
237.7977364718
 20
85.0065884754
 10
237.7216313261
 20
84.912360661
 10
237.6400943461
 20
84.8206580103
 10
237.5543730736
 20
84.7318357463
 10
237.464922066
 20
84.6457062352
 10
237.37240175
 20
84.5622904902
 10
237.2770754775
 20
84.4812927698
 10
237.1793685759
 20
84.4026817775
 10
237.0795481077
 20
84.3263669088
 10
236.9777463024
 20
84.2521763666
 10
236.8740202996
 20
84.1799197189
 10
236.7683863526
 20
84.1094242569
 10
236.6608460855
 20
84.0405457282
 10
236.5512917581
 20
83.9731051219
 10
236.439436391
 20
83.9068518988
 10
236.3255280223
 20
83.8418736687
 10
236.2096847665
 20
83.778177225
 10
236.0919962907
 20
83.7157547897
 10
235.9725976221
 20
83.6546298646
 10
235.8513719888
 20
83.5947067066
 10
235.7282581368
 20
83.5359287092
 10
235.6031821749
 20
83.4782411626
 10
235.4760660945
 20
83.4215949835
 10
235.3468331763
 20
83.3659548564
 10
235.2154020441
 20
83.3112971759
 10
235.0816519021
 20
83.2575888109
 10
234.9454657029
 20
83.204805298
 10
234.8067432495
 20
83.1529347621
 10
234.6653252765
 20
83.1019528853
 10
234.5212531103
 20
83.0519213249
 10
234.3744906885
 20
83.0028759692
 10
234.2251076244
 20
82.9548880476
 10
234.073144683
 20
82.9080166291
 10
233.9186631034
 20
82.862325597
 10
233.7617203601
 20
82.8178834736
 10
233.6023643389
 20
82.7747591941
 10
233.4406483211
 20
82.733022117
 10
233.2766217362
 20
82.6927394446
 10
233.1103315724
 20
82.6539768324
 10
232.9418477531
 20
82.6168087185
 10
232.7712424255
 20
82.5813176432
  0
LINE
  5
619
100
AcDbEntity
  8
RUNDUNGEN
100
AcDbLine
 62
7
  6
CONTINUOUS
 10
230.482551419
 20
174.1494448874
 11
230.482551419
 21
174.1412537741
  0
LINE
  5
61A
100
AcDbEntity
  8
RUNDUNGEN
100
AcDbLine
 62
7
  6
CONTINUOUS
 10
230.482551419
 20
28.9494608256
 11
230.482551419
 21
37.119528278
  0
LINE
  5
61B
100
AcDbEntity
  8
RUNDUNGEN
100
AcDbLine
 62
7
  6
CONTINUOUS
 10
230.482551419
 20
38.8919333306
 11
230.482551419
 21
53.2546480861
  0
LINE
  5
61C
100
AcDbEntity
  8
RUNDUNGEN
100
AcDbLine
 62
7
  6
CONTINUOUS
 10
230.482551419
 20
74.3262283176
 11
230.482551419
 21
81.3579543792
  0
LINE
  5
61D
100
AcDbEntity
  8
RUNDUNGEN
100
AcDbLine
 62
7
  6
CONTINUOUS
 10
230.482551419
 20
87.3921850674
 11
230.482551419
 21
90.9326771436
  0
LINE
  5
61E
100
AcDbEntity
  8
RUNDUNGEN
100
AcDbLine
 62
7
  6
CONTINUOUS
 10
230.482551419
 20
161.8221220158
 11
230.482551419
 21
162.9642846799
  0
LINE
  5
61F
100
AcDbEntity
  8
RUNDUNGEN
100
AcDbLine
 62
7
  6
CONTINUOUS
 10
230.482551419
 20
162.9945877924
 11
230.482551419
 21
172.3688487166
  0
LINE
  5
620
100
AcDbEntity
  8
RUNDUNGEN
100
AcDbLine
 62
7
  6
CONTINUOUS
 10
230.482551419
 20
174.1751744885
 11
230.482551419
 21
182.3113212216
  0
LINE
  5
621
100
AcDbEntity
  8
RUNDUNGEN
100
AcDbLine
 62
7
  6
CONTINUOUS
 10
230.5014806252
 20
81.3853395
 11
230.482551419
 21
81.2103177115
  0
LINE
  5
622
100
AcDbEntity
  8
0
100
AcDbLine
 62
7
  6
CONTINUOUS
 10
250.6275565061
 20
167.3903492606
 11
250.8113605502
 21
167.9591183947
  0
LINE
  5
623
100
AcDbEntity
  8
RUNDUNGEN
100
AcDbLine
 62
7
  6
CONTINUOUS
 10
236.0434185052
 20
92.6330425244
 11
231.3332823267
 21
91.9220321463
  0
LINE
  5
624
100
AcDbEntity
  8
RUNDUNGEN
100
AcDbLine
 62
7
  6
CONTINUOUS
 10
259.631805558
 20
91.9220344034
 11
254.9216971427
 21
92.6330405906
  0
LWPOLYLINE
  5
625
100
AcDbEntity
  8
RUNDUNGEN
100
AcDbPolyline
 62
7
  6
CONTINUOUS
 90
5
 70
0
 10
254.9216556828
 20
92.6329786905
 10
254.8462453751
 20
92.6452367589
 10
254.559522608
 20
92.7075577833
 10
254.2605189395
 20
92.7980155269
 10
253.953105834
 20
92.9173062882
  0
LWPOLYLINE
  5
626
100
AcDbEntity
  8
RUNDUNGEN
100
AcDbPolyline
 62
7
  6
CONTINUOUS
 90
3
 70
0
 10
240.341068867
 20
73.3014680086
 10
240.3750370773
 20
73.2061761415
 10
240.4265000629
 20
73.009603251
  0
LWPOLYLINE
  5
627
100
AcDbEntity
  8
0
100
AcDbPolyline
 62
7
  6
CONTINUOUS
 90
4
 70
0
 10
230.482551419
 20
162.9945877924
 10
230.5016896492
 20
162.7998834916
 10
230.5584960973
 20
162.6123290287
 10
230.6509047536
 20
162.4392826322
  0
LINE
  5
628
100
AcDbEntity
  8
RUNDUNGEN
100
AcDbLine
 62
7
  6
CONTINUOUS
 10
244.2248251605
 20
37.4805651174
 11
244.2307521674
 21
37.4179657136
  0
LINE
  5
629
100
AcDbEntity
  8
RUNDUNGEN
100
AcDbLine
 62
7
  6
CONTINUOUS
 10
240.482551419
 20
58.8389106522
 11
240.482551419
 21
72.4752195469
  0
LINE
  5
62A
100
AcDbEntity
  8
0
100
AcDbLine
 62
7
  6
CONTINUOUS
 10
240.482551419
 20
165.0759367988
 11
240.482551419
 21
167.5002454606
  0
LINE
  5
62B
100
AcDbEntity
  8
RUNDUNGEN
100
AcDbLine
 62
7
  6
CONTINUOUS
 10
240.482551419
 20
97.2026915706
 11
240.4825941797
 21
102.7665768547
  0
LWPOLYLINE
  5
62C
100
AcDbEntity
  8
RUNDUNGEN
100
AcDbPolyline
 62
7
  6
CONTINUOUS
 90
3
 70
0
 10
240.4825941797
 20
102.7665768547
 10
240.4829207559
 20
102.8113812162
 10
240.4831944421
 20
102.8347718182
  0
LWPOLYLINE
  5
62D
100
AcDbEntity
  8
RUNDUNGEN
100
AcDbPolyline
 62
7
  6
CONTINUOUS
 90
3
 70
0
 10
230.5592483998
 20
81.7420266833
 10
230.5019219045
 20
81.5538189615
 10
230.482551419
 20
81.3579543792
  0
LWPOLYLINE
  5
62E
100
AcDbEntity
  8
RUNDUNGEN
100
AcDbPolyline
 62
7
  6
CONTINUOUS
 90
3
 70
0
 10
253.953105834
 20
92.9173062882
 10
253.6413485738
 20
93.0652563491
 10
253.546089443
 20
93.1159217119
  0
LWPOLYLINE
  5
62F
100
AcDbEntity
  8
RUNDUNGEN
100
AcDbPolyline
 62
7
  6
CONTINUOUS
 90
6
 70
0
 10
253.5460897071
 20
93.1159629617
 10
253.3262983037
 20
93.2428564487
 10
253.1006263901
 20
93.3880586704
 10
252.8732906539
 20
93.5502093524
 10
252.6456051384
 20
93.7293821658
 10
252.617705778
 20
93.7525341587
  0
LWPOLYLINE
  5
630
100
AcDbEntity
  8
RUNDUNGEN
100
AcDbPolyline
 62
7
  6
CONTINUOUS
 90
4
 70
0
 10
260.039222483
 20
82.1886873636
 10
260.1899897259
 20
82.0647294792
 10
260.3134720445
 20
81.9143453461
 10
260.4058544382
 20
81.7420266833
  0
LWPOLYLINE
  5
631
100
AcDbEntity
  8
RUNDUNGEN
100
AcDbPolyline
 62
7
  6
CONTINUOUS
 90
4
 70
0
 10
260.1920739959
 20
81.8460211623
 10
260.3157883637
 20
81.7091236839
 10
260.4073957806
 20
81.55343259
 10
260.4636222128
 20
81.3848388715
  0
LWPOLYLINE
  5
632
100
AcDbEntity
  8
RUNDUNGEN
100
AcDbPolyline
 62
7
  6
CONTINUOUS
 90
3
 70
0
 10
240.4265000629
 20
73.009603251
 10
240.4656203806
 20
72.7718678576
 10
240.4825516798
 20
72.4785102352
  0
LINE
  5
633
100
AcDbEntity
  8
RUNDUNGEN
100
AcDbLine
 62
7
  6
CONTINUOUS
 10
244.2307521674
 20
37.4179657136
 11
244.2325514206
 21
37.3335683409
  0
LWPOLYLINE
  5
634
100
AcDbEntity
  8
RUNDUNGEN
100
AcDbPolyline
 62
7
  6
CONTINUOUS
 90
5
 70
0
 10
244.232551419
 20
56.6234053517
 10
244.2328377423
 20
56.5929636891
 10
244.2336987424
 20
56.5628562841
 10
244.2351372187
 20
56.5330967166
 10
244.237155638
 20
56.5036987058
  0
LINE
  5
635
100
AcDbEntity
  8
RUNDUNGEN
100
AcDbLine
 62
7
  6
CONTINUOUS
 10
244.232551419
 20
31.0734663588
 11
244.232551419
 21
37.33367472
  0
LINE
  5
636
100
AcDbEntity
  8
RUNDUNGEN
100
AcDbLine
 62
7
  6
CONTINUOUS
 10
244.232551419
 20
56.6234053517
 11
244.232551419
 21
67.6216575514
  0
LINE
  5
637
100
AcDbEntity
  8
RUNDUNGEN
100
AcDbLine
 62
7
  6
CONTINUOUS
 10
244.232551419
 20
98.8330973473
 11
244.232551419
 21
105.6303910242
  0
LINE
  5
638
100
AcDbEntity
  8
RUNDUNGEN
100
AcDbLine
 62
7
  6
CONTINUOUS
 10
240.4825513975
 20
64.3343986367
 11
240.4721958194
 21
63.7801999661
  0
LWPOLYLINE
  5
639
100
AcDbEntity
  8
RUNDUNGEN
100
AcDbPolyline
 62
7
  6
CONTINUOUS
 90
3
 70
0
 10
240.4825513446
 20
99.3001553674
 10
240.4627454989
 20
98.671531216
 10
240.3737697885
 20
97.83751628
  0
LWPOLYLINE
  5
63A
100
AcDbEntity
  8
RUNDUNGEN
100
AcDbPolyline
 62
7
  6
CONTINUOUS
 90
10
 70
0
 10
240.4721958194
 20
63.7801999661
 10
240.416044796
 20
62.941973426
 10
240.3142421925
 20
62.1445320278
 10
240.1697887022
 20
61.3900419585
 10
239.9856687258
 20
60.6823440804
 10
239.7647401074
 20
60.0250600755
 10
239.5124207616
 20
59.4276216115
 10
239.2272405505
 20
58.8839670613
 10
238.9073386174
 20
58.3955179884
 10
238.7188473119
 20
58.1567479657
  0
LWPOLYLINE
  5
63B
100
AcDbEntity
  8
RUNDUNGEN
100
AcDbPolyline
 62
7
  6
CONTINUOUS
 90
6
 70
0
 10
240.3737697885
 20
97.83751628
 10
240.2198033071
 20
97.0540251989
 10
240.0067353888
 20
96.3245433561
 10
239.7417667539
 20
95.6579805165
 10
239.4264821296
 20
95.0511266371
 10
239.0603682155
 20
94.5054605885
  0
LINE
  5
63C
100
AcDbEntity
  8
02___PRT_ALL_AXES
100
AcDbLine
 62
7
  6
CENTER
 10
223.432551419
 20
105.6303910236
 11
267.532551419
 21
105.6303910236
  0
LINE
  5
63D
100
AcDbEntity
  8
0
100
AcDbLine
 62
2
  6
CONTINUOUS
 10
226.432551419
 20
105.6303910242
 11
264.532551419
 21
105.6303910242
  0
LWPOLYLINE
  5
63E
100
AcDbEntity
  8
RUNDUNGEN
100
AcDbPolyline
 62
7
  6
CONTINUOUS
 90
3
 70
0
 10
252.6180423329
 20
93.7522934069
 10
252.5345133303
 20
93.8242481897
 10
252.389971911
 20
93.9590464634
  0
LWPOLYLINE
  5
63F
100
AcDbEntity
  8
RUNDUNGEN
100
AcDbPolyline
 62
7
  6
CONTINUOUS
 90
3
 70
0
 10
252.389971911
 20
93.9590464634
 10
252.2432838415
 20
94.1086226138
 10
252.1480643434
 20
94.2119060611
  0
LINE
  5
640
100
AcDbEntity
  8
RUNDUNGEN
100
AcDbLine
 62
7
  6
CONTINUOUS
 10
252.1480787473
 20
94.2119190256
 11
252.1490491866
 21
94.2108391237
  0
LINE
  5
641
100
AcDbEntity
  8
RUNDUNGEN
100
AcDbLine
 62
7
  6
CONTINUOUS
 10
252.1490491866
 20
94.2108391237
 11
251.904488437
 21
94.5057781392
  0
LWPOLYLINE
  5
642
100
AcDbEntity
  8
RUNDUNGEN
100
AcDbPolyline
 62
7
  6
CONTINUOUS
 90
5
 70
0
 10
251.904488437
 20
94.5057781392
 10
251.5380815761
 20
95.052030799
 10
251.222573304
 20
95.6596524168
 10
250.9575586013
 20
96.3268983191
 10
250.7446397431
 20
97.0567362011
  0
LINE
  5
643
100
AcDbEntity
  8
RUNDUNGEN
100
AcDbLine
 62
7
  6
CONTINUOUS
 10
250.490637363
 20
63.8444814615
 11
250.4825514488
 21
64.3344166717
  0
LINE
  5
644
100
AcDbEntity
  8
RUNDUNGEN
100
AcDbLine
 62
7
  6
CONTINUOUS
 10
250.4819083959
 20
102.8347718182
 11
250.4823839271
 21
102.7886384279
  0
LINE
  5
645
100
AcDbEntity
  8
RUNDUNGEN
100
AcDbLine
 62
7
  6
CONTINUOUS
 10
250.4823839271
 20
102.7886384279
 11
250.482551419
 21
102.7451651934
  0
LINE
  5
646
100
AcDbEntity
  8
RUNDUNGEN
100
AcDbLine
 62
7
  6
CONTINUOUS
 10
246.732551419
 20
105.6303910242
 11
246.732551419
 21
98.8330973473
  0
LINE
  5
647
100
AcDbEntity
  8
RUNDUNGEN
100
AcDbLine
 62
7
  6
CONTINUOUS
 10
246.732551419
 20
31.0734663588
 11
246.732551419
 21
37.33367472
  0
LINE
  5
648
100
AcDbEntity
  8
RUNDUNGEN
100
AcDbLine
 62
7
  6
CONTINUOUS
 10
246.732551419
 20
56.6234053517
 11
246.732551419
 21
67.6216575514
  0
LINE
  5
649
100
AcDbEntity
  8
RUNDUNGEN
100
AcDbLine
 62
7
  6
CONTINUOUS
 10
250.482551419
 20
102.745158941
 11
250.482551419
 21
97.2026946893
  0
LINE
  5
64A
100
AcDbEntity
  8
RUNDUNGEN
100
AcDbLine
 62
7
  6
CONTINUOUS
 10
250.482551419
 20
72.4752265241
 11
250.482551419
 21
58.8389261499
  0
LINE
  5
64B
100
AcDbEntity
  8
0
100
AcDbLine
 62
7
  6
CONTINUOUS
 10
250.482551419
 20
165.0759368013
 11
250.482551419
 21
167.5002454606
  0
LINE
  5
64C
100
AcDbEntity
  8
0
100
AcDbLine
 62
7
  6
CONTINUOUS
 10
250.982551419
 20
168.2959953426
 11
250.982551419
 21
165.5085353064
  0
LINE
  5
64D
100
AcDbEntity
  8
RUNDUNGEN
100
AcDbLine
 62
7
  6
CONTINUOUS
 10
246.7325514211
 20
37.333591637
 11
246.7344614472
 21
37.4205198939
  0
LWPOLYLINE
  5
64E
100
AcDbEntity
  8
0
100
AcDbPolyline
 62
7
  6
CONTINUOUS
 90
3
 70
0
 10
250.4825515841
 20
166.1203058116
 10
250.5122532777
 20
166.7142052941
 10
250.6275565061
 20
167.3903492606
  0
LWPOLYLINE
  5
64F
100
AcDbEntity
  8
RUNDUNGEN
100
AcDbPolyline
 62
7
  6
CONTINUOUS
 90
5
 70
0
 10
246.7279472
 20
56.5036987058
 10
246.7299656204
 20
56.5330967343
 10
246.7314040966
 20
56.5628563078
 10
246.7322650961
 20
56.5929637069
 10
246.732551419
 20
56.6234053517
  0
LINE
  5
650
100
AcDbEntity
  8
RUNDUNGEN
100
AcDbLine
 62
7
  6
CONTINUOUS
 10
239.0603682155
 20
94.5054605885
 11
238.8160904407
 21
94.2108969644
  0
LINE
  5
651
100
AcDbEntity
  8
RUNDUNGEN
100
AcDbLine
 62
7
  6
CONTINUOUS
 10
238.8160904407
 20
94.2108969644
 11
238.8170091492
 21
94.2119192162
  0
LWPOLYLINE
  5
652
100
AcDbEntity
  8
RUNDUNGEN
100
AcDbPolyline
 62
7
  6
CONTINUOUS
 90
4
 70
0
 10
230.7730288421
 20
81.8460211623
 10
230.6493144743
 20
81.709085467
 10
230.5577070574
 20
81.55343259
 10
230.5014806252
 20
81.3853395
  0
LWPOLYLINE
  5
653
100
AcDbEntity
  8
RUNDUNGEN
100
AcDbPolyline
 62
7
  6
CONTINUOUS
 90
4
 70
0
 10
238.8170350314
 20
94.2118959593
 10
238.7231500128
 20
94.1100467458
 10
238.5769239155
 20
93.96082201
 10
238.4324577739
 20
93.8259082963
  0
LINE
  5
654
100
AcDbEntity
  8
RUNDUNGEN
100
AcDbLine
 62
7
  6
CONTINUOUS
 10
238.4324577739
 20
93.8259082963
 11
238.3470867911
 21
93.7523522999
  0
LWPOLYLINE
  5
655
100
AcDbEntity
  8
RUNDUNGEN
100
AcDbPolyline
 62
7
  6
CONTINUOUS
 90
6
 70
0
 10
238.3473563712
 20
93.7525774151
 10
238.320161908
 20
93.7299350614
 10
238.0928836689
 20
93.5510140059
 10
237.8656837443
 20
93.388876865
 10
237.6398679526
 20
93.2435046433
 10
237.4189146911
 20
93.1159088125
  0
LINE
  5
656
100
AcDbEntity
  8
0
100
AcDbLine
 62
7
  6
CONTINUOUS
 10
264.532551419
 20
106.5963168499
 11
226.432551419
 21
106.5963168499
  0
LWPOLYLINE
  5
657
100
AcDbEntity
  8
RUNDUNGEN
100
AcDbPolyline
 62
7
  6
CONTINUOUS
 90
4
 70
0
 10
250.7446397431
 20
97.0567362011
 10
250.5909455502
 20
97.8400768665
 10
250.5022550157
 20
98.6731517723
 10
250.4825514988
 20
99.3001622466
  0
LWPOLYLINE
  5
658
100
AcDbEntity
  8
0
100
AcDbPolyline
 62
7
  6
CONTINUOUS
 90
3
 70
0
 10
240.3375424774
 20
167.3903649547
 10
240.4528513148
 20
166.7141881003
 10
240.4825513045
 20
166.1200947515
  0
LWPOLYLINE
  5
659
100
AcDbEntity
  8
RUNDUNGEN
100
AcDbPolyline
 62
7
  6
CONTINUOUS
 90
3
 70
0
 10
250.4825499968
 20
72.4785184579
 10
250.4994806818
 20
72.7718493159
 10
250.538590384
 20
73.0095477508
  0
LINE
  5
65A
100
AcDbEntity
  8
RUNDUNGEN
100
AcDbLine
 62
7
  6
CONTINUOUS
 10
246.7344614472
 20
37.4205198939
 11
246.7401456997
 21
37.4806074621
  0
LINE
  5
65B
100
AcDbEntity
  8
0
100
AcDbLine
 62
7
  6
CONTINUOUS
 10
260.4633182268
 20
162.799405694
 11
260.482551419
 21
162.9945877924
  0
LWPOLYLINE
  5
65C
100
AcDbEntity
  8
RUNDUNGEN
100
AcDbPolyline
 62
7
  6
CONTINUOUS
 90
4
 70
0
 10
230.925880355
 20
82.1886873636
 10
230.7751131121
 20
82.0647294792
 10
230.6516307935
 20
81.9143453461
 10
230.5592483998
 20
81.7420266833
  0
LWPOLYLINE
  5
65D
100
AcDbEntity
  8
RUNDUNGEN
100
AcDbPolyline
 62
7
  6
CONTINUOUS
 90
3
 70
0
 10
237.418917909
 20
93.1158831756
 10
237.3236543153
 20
93.0652212142
 10
237.011929949
 20
92.9173076743
  0
LWPOLYLINE
  5
65E
100
AcDbEntity
  8
RUNDUNGEN
100
AcDbPolyline
 62
7
  6
CONTINUOUS
 90
5
 70
0
 10
237.011929949
 20
92.9173076743
 10
236.7045428739
 20
92.7980418712
 10
236.4055586552
 20
92.7075986269
 10
236.1188460563
 20
92.6452826859
 10
236.0434494955
 20
92.6330263151
  0
LINE
  5
65F
100
AcDbEntity
  8
0
100
AcDbLine
 62
7
  6
CONTINUOUS
 10
264.532551419
 20
116.5021577843
 11
226.432551419
 21
116.5021577843
  0
LINE
  5
660
100
AcDbEntity
  8
0
100
AcDbLine
 62
7
  6
CONTINUOUS
 10
264.532551419
 20
117.3506859218
 11
226.432551419
 21
117.3506859218
  0
LWPOLYLINE
  5
661
100
AcDbEntity
  8
RUNDUNGEN
100
AcDbPolyline
 62
7
  6
CONTINUOUS
 90
3
 70
0
 10
260.4058544382
 20
81.7420266833
 10
260.4631809335
 20
81.5538189615
 10
260.482551419
 20
81.3579543792
  0
LINE
  5
662
100
AcDbEntity
  8
RUNDUNGEN
100
AcDbLine
 62
7
  6
CONTINUOUS
 10
260.4636222128
 20
81.3848388715
 11
260.482551419
 21
81.2103177115
  0
LINE
  5
663
100
AcDbEntity
  8
0
100
AcDbLine
 62
7
  6
CONTINUOUS
 10
260.482551419
 20
182.3113212216
 11
260.482551419
 21
174.1751744885
  0
LINE
  5
664
100
AcDbEntity
  8
RUNDUNGEN
100
AcDbLine
 62
7
  6
CONTINUOUS
 10
260.482551419
 20
182.3113212216
 11
260.482551419
 21
174.1751744885
  0
LINE
  5
665
100
AcDbEntity
  8
RUNDUNGEN
100
AcDbLine
 62
7
  6
CONTINUOUS
 10
260.482551419
 20
174.1468360739
 11
260.482551419
 21
174.1412657009
  0
LINE
  5
666
100
AcDbEntity
  8
RUNDUNGEN
100
AcDbLine
 62
7
  6
CONTINUOUS
 10
260.482551419
 20
162.9642846799
 11
260.482551419
 21
161.8221220158
  0
LINE
  5
667
100
AcDbEntity
  8
RUNDUNGEN
100
AcDbLine
 62
7
  6
CONTINUOUS
 10
260.482551419
 20
172.3688487166
 11
260.482551419
 21
162.9945877924
  0
LINE
  5
668
100
AcDbEntity
  8
0
100
AcDbLine
 62
7
  6
CONTINUOUS
 10
260.482551419
 20
162.9642846799
 11
260.482551419
 21
161.8221220158
  0
LINE
  5
669
100
AcDbEntity
  8
RUNDUNGEN
100
AcDbLine
 62
7
  6
CONTINUOUS
 10
260.482551419
 20
90.9326810757
 11
260.482551419
 21
87.3921850674
  0
LINE
  5
66A
100
AcDbEntity
  8
RUNDUNGEN
100
AcDbLine
 62
7
  6
CONTINUOUS
 10
260.482551419
 20
81.3579543792
 11
260.482551419
 21
74.3262283176
  0
LINE
  5
66B
100
AcDbEntity
  8
RUNDUNGEN
100
AcDbLine
 62
7
  6
CONTINUOUS
 10
260.482551419
 20
53.2546496993
 11
260.482551419
 21
38.8919333306
  0
LINE
  5
66C
100
AcDbEntity
  8
RUNDUNGEN
100
AcDbLine
 62
7
  6
CONTINUOUS
 10
260.482551419
 20
37.1195282789
 11
260.482551419
 21
28.9494608256
  0
LINE
  5
66D
100
AcDbEntity
  8
0
100
AcDbLine
 62
7
  6
CONTINUOUS
 10
260.482551419
 20
162.9945877924
 11
260.482551419
 21
163.2954536508
  0
LWPOLYLINE
  5
66E
100
AcDbEntity
  8
RUNDUNGEN
100
AcDbPolyline
 62
7
  6
CONTINUOUS
 90
3
 70
0
 10
250.538590384
 20
73.0095477508
 10
250.5900415958
 20
73.2060973684
 10
250.6243728
 20
73.3024190111
  0
LINE
  5
66F
100
AcDbEntity
  8
0
100
AcDbLine
 62
7
  6
CONTINUOUS
 10
240.1536774963
 20
167.9592756992
 11
240.3375424774
 21
167.3903649547
  0
LWPOLYLINE
  5
670
100
AcDbEntity
  8
0
100
AcDbPolyline
 62
7
  6
CONTINUOUS
 90
7
 70
0
 10
260.482551419
 20
172.3688487166
 10
260.4633945866
 20
172.5636469803
 10
260.4065642465
 20
172.7512101877
 10
260.3141561996
 20
172.9242166006
 10
260.1897580822
 20
173.0758556017
 10
260.038066611
 20
173.2003550999
 10
259.9389744799
 20
173.2533076209
  0
LINE
  5
671
100
AcDbEntity
  8
RUNDUNGEN
100
AcDbLine
 62
7
  6
CONTINUOUS
 10
264.532551419
 20
105.6303910242
 11
264.532551419
 21
52.5571914332
  0
LINE
  5
672
100
AcDbEntity
  8
0
100
AcDbLine
 62
7
  6
CONTINUOUS
 10
264.532551419
 20
105.6303910242
 11
264.532551419
 21
158.7036440447
  0
LWPOLYLINE
  5
673
100
AcDbEntity
  8
RUNDUNGEN
100
AcDbPolyline
 62
7
  6
CONTINUOUS
 90
9
 70
0
 10
260.482551419
 20
74.3262283176
 10
260.4638278724
 20
74.1336328366
 10
260.4075257672
 20
73.9461987724
 10
260.3149992556
 20
73.7721249112
 10
260.1900773762
 20
73.619540961
 10
260.0370142771
 20
73.4940199292
 10
259.8635861523
 20
73.4016675938
 10
259.6775675125
 20
73.3454285424
 10
259.482551419
 20
73.3262283176
  0
LWPOLYLINE
  5
674
100
AcDbEntity
  8
RUNDUNGEN
100
AcDbPolyline
 62
7
  6
CONTINUOUS
 90
6
 70
0
 10
260.482551419
 20
38.8919333306
 10
260.4633945866
 20
38.6971350669
 10
260.4065642465
 20
38.5095718595
 10
260.3141561996
 20
38.3365654466
 10
260.1897580822
 20
38.1849264455
 10
260.038066611
 20
38.0604269473
  0
LWPOLYLINE
  5
675
100
AcDbEntity
  8
RUNDUNGEN
100
AcDbPolyline
 62
7
  6
CONTINUOUS
 90
3
 70
0
 10
231.2845858697
 20
82.3381629026
 10
231.0976098027
 20
82.2808953048
 10
230.925880355
 20
82.1886873636
  0
LINE
  5
676
100
AcDbEntity
  8
RUNDUNGEN
100
AcDbLine
 62
7
  6
CONTINUOUS
 10
238.7188473119
 20
58.1567479657
 11
238.7184168071
 21
58.1562422364
  0
LWPOLYLINE
  5
677
100
AcDbEntity
  8
RUNDUNGEN
100
AcDbPolyline
 62
7
  6
CONTINUOUS
 90
5
 70
0
 10
238.7184022628
 20
58.1562546431
 10
238.646771596
 20
58.0736709845
 10
238.5142676774
 20
57.9308134958
 10
238.3837005607
 20
57.8035495493
 10
238.3050849825
 20
57.7337611853
  0
LWPOLYLINE
  5
678
100
AcDbEntity
  8
0
100
AcDbPolyline
 62
7
  6
CONTINUOUS
 90
3
 70
0
 10
230.6509047536
 20
162.4392826322
 10
230.7753162366
 20
162.2876094357
 10
230.9270587333
 20
162.1630663748
  0
LINE
  5
679
100
AcDbEntity
  8
RUNDUNGEN
100
AcDbLine
 62
7
  6
CONTINUOUS
 10
238.3050849825
 20
57.7337611853
 11
238.3048781216
 21
57.733584723
  0
LWPOLYLINE
  5
67A
100
AcDbEntity
  8
RUNDUNGEN
100
AcDbPolyline
 62
7
  6
CONTINUOUS
 90
6
 70
0
 10
238.3048896188
 20
57.7335712853
 10
238.1610915943
 20
57.6127707255
 10
237.887060532
 20
57.392849604
 10
237.6081894345
 20
57.1819444018
 10
237.3256672507
 20
56.9805691671
 10
237.0710584292
 20
56.8090164262
  0
LWPOLYLINE
  5
67B
100
AcDbEntity
  8
0
100
AcDbPolyline
 62
7
  6
CONTINUOUS
 90
3
 70
0
 10
239.6359268271
 20
168.7965529083
 10
239.9166448303
 20
168.4256415347
 10
240.1536774963
 20
167.9592756992
  0
LWPOLYLINE
  5
67C
100
AcDbEntity
  8
RUNDUNGEN
100
AcDbPolyline
 62
7
  6
CONTINUOUS
 90
7
 70
0
 10
237.0710543775
 20
56.8089684417
 10
236.8991505356
 20
56.6981797458
 10
236.4234549206
 20
56.4117977148
 10
235.9522540479
 20
56.155937483
 10
235.4906623404
 20
55.9311362564
 10
235.0431801563
 20
55.737411674
 10
234.9517844576
 20
55.7007867449
  0
LINE
  5
67D
100
AcDbEntity
  8
0
100
AcDbLine
 62
7
  6
CONTINUOUS
 10
264.532551419
 20
139.9427475807
 11
226.432551419
 21
139.9427475807
  0
LINE
  5
67E
100
AcDbEntity
  8
RUNDUNGEN
100
AcDbLine
 62
7
  6
CONTINUOUS
 10
234.9519246702
 20
55.7008421862
 11
231.1149445995
 21
54.1845152495
  0
LINE
  5
67F
100
AcDbEntity
  8
0
100
AcDbLine
 62
7
  6
CONTINUOUS
 10
264.532551419
 20
149.8485885151
 11
226.432551419
 21
149.8485885151
  0
LINE
  5
680
100
AcDbEntity
  8
0
100
AcDbLine
 62
7
  6
CONTINUOUS
 10
264.532551419
 20
151.1074075602
 11
226.432551419
 21
151.1074075602
  0
LINE
  5
681
100
AcDbEntity
  8
0
100
AcDbLine
 62
7
  6
CONTINUOUS
 10
230.9270587333
 20
162.1630663748
 11
231.1158245792
 21
162.0642591279
  0
LINE
  5
682
100
AcDbEntity
  8
0
100
AcDbLine
 62
7
  6
CONTINUOUS
 10
239.4125434932
 20
169.004802162
 11
239.6359268271
 21
168.7965529083
  0
LINE
  5
683
100
AcDbEntity
  8
RUNDUNGEN
100
AcDbLine
 62
7
  6
CONTINUOUS
 10
231.1157968789
 20
162.0642700499
 11
231.1158245792
 21
162.0642591279
  0
LINE
  5
684
100
AcDbEntity
  8
0
100
AcDbLine
 62
7
  6
CONTINUOUS
 10
231.1151510327
 20
162.0645249149
 11
231.4792663285
 21
161.9206885943
  0
LINE
  5
685
100
AcDbEntity
  8
0
100
AcDbLine
 62
7
  6
CONTINUOUS
 10
239.2651706405
 20
169.1112550404
 11
239.3486267235
 21
169.0536293405
  0
LINE
  5
686
100
AcDbEntity
  8
0
100
AcDbLine
 62
7
  6
CONTINUOUS
 10
239.3486267235
 20
169.0536293405
 11
239.4138527749
 21
169.0037513294
  0
LINE
  5
687
100
AcDbEntity
  8
RUNDUNGEN
100
AcDbLine
 62
7
  6
CONTINUOUS
 10
239.4138556659
 20
169.0037550096
 11
239.4125434932
 21
169.004802162
  0
LINE
  5
688
100
AcDbEntity
  8
0
100
AcDbLine
 62
7
  6
CONTINUOUS
 10
238.6116936438
 20
169.66246247
 11
239.3592937126
 21
169.2978335532
  0
LWPOLYLINE
  5
689
100
AcDbEntity
  8
0
100
AcDbPolyline
 62
7
  6
CONTINUOUS
 90
4
 70
0
 10
231.0435357184
 20
173.2428367998
 10
235.404589561
 20
171.1099689505
 10
236.051026792
 20
170.7884289849
 10
236.6891478229
 20
170.4674482174
  0
LINE
  5
68A
100
AcDbEntity
  8
0
100
AcDbLine
 62
7
  6
CONTINUOUS
 10
236.6891478229
 20
170.4674482174
 11
237.5206282944
 21
170.0426607847
  0
LINE
  5
68B
100
AcDbEntity
  8
RUNDUNGEN
100
AcDbLine
 62
7
  6
CONTINUOUS
 10
237.5210029642
 20
170.0424433931
 11
237.5206184296
 21
170.0426417954
  0
LINE
  5
68C
100
AcDbEntity
  8
0
100
AcDbLine
 62
7
  6
CONTINUOUS
 10
237.5210029642
 20
170.0424433931
 11
237.9420275558
 21
169.8239685067
  0
LINE
  5
68D
100
AcDbEntity
  8
0
100
AcDbLine
 62
7
  6
CONTINUOUS
 10
237.9420275558
 20
169.8239685067
 11
238.3468798438
 21
169.6112897742
  0
LINE
  5
68E
100
AcDbEntity
  8
0
100
AcDbLine
 62
7
  6
CONTINUOUS
 10
238.3468798438
 20
169.6112897742
 11
238.7378570626
 21
169.4030443114
  0
LINE
  5
68F
100
AcDbEntity
  8
0
100
AcDbLine
 62
7
  6
CONTINUOUS
 10
238.7378570626
 20
169.4030443114
 11
239.1529263017
 21
169.1783305018
  0
LINE
  5
690
100
AcDbEntity
  8
RUNDUNGEN
100
AcDbLine
 62
7
  6
CONTINUOUS
 10
239.1531368575
 20
169.1782160469
 11
239.1529267486
 21
169.1783309323
  0
LWPOLYLINE
  5
691
100
AcDbEntity
  8
0
100
AcDbPolyline
 62
7
  6
CONTINUOUS
 90
3
 70
0
 10
239.1531368575
 20
169.1782160469
 10
239.182515459
 20
169.1617749553
 10
239.2651706405
 20
169.1112550404
  0
LWPOLYLINE
  5
692
100
AcDbEntity
  8
RUNDUNGEN
100
AcDbPolyline
 62
7
  6
CONTINUOUS
 90
6
 70
0
 10
246.2881435086
 20
30.2420113513
 10
246.4396695551
 20
30.3663709327
 10
246.564017893
 20
30.5178914292
 10
246.6564255248
 20
30.6907698255
 10
246.7133353255
 20
30.8783692127
 10
246.732551419
 20
31.0734663588
  0
LINE
  5
693
100
AcDbEntity
  8
0
100
AcDbLine
 62
7
  6
CONTINUOUS
 10
229.1373107158
 20
161.6890892177
 11
238.2285740142
 21
162.5881373896
  0
LINE
  5
694
100
AcDbEntity
  8
0
100
AcDbLine
 62
7
  6
CONTINUOUS
 10
250.482551419
 20
165.5085353064
 11
250.982551419
 21
165.5085353064
  0
LINE
  5
695
100
AcDbEntity
  8
0
100
AcDbLine
 62
7
  6
CONTINUOUS
 10
250.482551419
 20
165.5785031601
 11
250.982551419
 21
165.5785031601
  0
LINE
  5
696
100
AcDbEntity
  8
0
100
AcDbLine
 62
7
  6
CONTINUOUS
 10
250.482551419
 20
165.7406564204
 11
250.982551419
 21
165.7406564204
  0
LINE
  5
697
100
AcDbEntity
  8
0
100
AcDbLine
 62
7
  6
CONTINUOUS
 10
250.482551419
 20
165.7980013289
 11
250.982551419
 21
165.7980013289
  0
LINE
  5
698
100
AcDbEntity
  8
0
100
AcDbLine
 62
7
  6
CONTINUOUS
 10
250.482551419
 20
165.9913114968
 11
250.982551419
 21
165.9913114968
  0
LINE
  5
699
100
AcDbEntity
  8
0
100
AcDbLine
 62
7
  6
CONTINUOUS
 10
250.482551419
 20
166.0412301868
 11
250.982551419
 21
166.0412301868
  0
LINE
  5
69A
100
AcDbEntity
  8
0
100
AcDbLine
 62
7
  6
CONTINUOUS
 10
250.482551419
 20
166.0580370516
 11
250.982551419
 21
166.0580370516
  0
LINE
  5
69B
100
AcDbEntity
  8
0
100
AcDbLine
 62
7
  6
CONTINUOUS
 10
250.482551419
 20
166.1137135377
 11
250.982551419
 21
166.1137135377
  0
LINE
  5
69C
100
AcDbEntity
  8
0
100
AcDbLine
 62
7
  6
CONTINUOUS
 10
250.482551419
 20
166.2082591356
 11
250.982551419
 21
166.2082591356
  0
LINE
  5
69D
100
AcDbEntity
  8
0
100
AcDbLine
 62
7
  6
CONTINUOUS
 10
250.482551419
 20
166.3805424471
 11
250.982551419
 21
166.3805424471
  0
LINE
  5
69E
100
AcDbEntity
  8
0
100
AcDbLine
 62
7
  6
CONTINUOUS
 10
250.482551419
 20
166.5242960329
 11
250.982551419
 21
166.5242960329
  0
LINE
  5
69F
100
AcDbEntity
  8
0
100
AcDbLine
 62
7
  6
CONTINUOUS
 10
250.482551419
 20
166.5381697979
 11
250.982551419
 21
166.5381697979
  0
LINE
  5
6A0
100
AcDbEntity
  8
0
100
AcDbLine
 62
7
  6
CONTINUOUS
 10
250.482551419
 20
166.6230557665
 11
250.982551419
 21
166.6230557665
  0
LINE
  5
6A1
100
AcDbEntity
  8
0
100
AcDbLine
 62
7
  6
CONTINUOUS
 10
250.512438234
 20
166.7152898873
 11
250.982551419
 21
166.7152898873
  0
LINE
  5
6A2
100
AcDbEntity
  8
0
100
AcDbLine
 62
7
  6
CONTINUOUS
 10
250.541529769
 20
166.8858841209
 11
250.982551419
 21
166.8858841209
  0
LINE
  5
6A3
100
AcDbEntity
  8
0
100
AcDbLine
 62
7
  6
CONTINUOUS
 10
250.5803652425
 20
167.1136173029
 11
250.982551419
 21
167.1136173029
  0
LINE
  5
6A4
100
AcDbEntity
  8
0
100
AcDbLine
 62
7
  6
CONTINUOUS
 10
250.6089003876
 20
167.2809488379
 11
250.982551419
 21
167.2809488379
  0
LINE
  5
6A5
100
AcDbEntity
  8
0
100
AcDbLine
 62
7
  6
CONTINUOUS
 10
250.6225436418
 20
167.3609535711
 11
250.982551419
 21
167.3609535711
  0
LINE
  5
6A6
100
AcDbEntity
  8
0
100
AcDbLine
 62
7
  6
CONTINUOUS
 10
250.6386308637
 20
167.4246181083
 11
250.982551419
 21
167.4246181083
  0
LINE
  5
6A7
100
AcDbEntity
  8
0
100
AcDbLine
 62
7
  6
CONTINUOUS
 10
250.659322153
 20
167.4886458982
 11
250.982551419
 21
167.4886458982
  0
LINE
  5
6A8
100
AcDbEntity
  8
0
100
AcDbLine
 62
7
  6
CONTINUOUS
 10
250.6649023601
 20
167.5059134703
 11
250.982551419
 21
167.5059134703
  0
LINE
  5
6A9
100
AcDbEntity
  8
0
100
AcDbLine
 62
7
  6
CONTINUOUS
 10
250.6961922569
 20
167.6027379313
 11
250.982551419
 21
167.6027379313
  0
LINE
  5
6AA
100
AcDbEntity
  8
0
100
AcDbLine
 62
7
  6
CONTINUOUS
 10
250.7435437636
 20
167.7492639536
 11
250.982551419
 21
167.7492639536
  0
LINE
  5
6AB
100
AcDbEntity
  8
0
100
AcDbLine
 62
7
  6
CONTINUOUS
 10
250.7612315788
 20
167.8039976964
 11
250.982551419
 21
167.8039976964
  0
LINE
  5
6AC
100
AcDbEntity
  8
0
100
AcDbLine
 62
7
  6
CONTINUOUS
 10
252.7365288236
 20
162.5881373896
 11
261.8277921222
 21
161.6890892177
  0
LWPOLYLINE
  5
6AD
100
AcDbEntity
  8
RUNDUNGEN
100
AcDbPolyline
 62
7
  6
CONTINUOUS
 90
4
 70
0
 10
260.038066611
 20
38.0604269473
 10
259.865102685
 20
37.9679990641
 10
259.6776626047
 20
37.9111522214
 10
259.482551419
 20
37.8919333306
  0
LINE
  5
6AE
100
AcDbEntity
  8
0
100
AcDbLine
 62
7
  6
CONTINUOUS
 10
239.0497959063
 20
171.5613212216
 11
251.9154318058
 21
171.5613212216
  0
LWPOLYLINE
  5
6AF
100
AcDbEntity
  8
RUNDUNGEN
100
AcDbPolyline
 62
7
  6
CONTINUOUS
 90
3
 70
0
 10
245.9276819705
 20
30.0926890835
 10
246.1152690001
 20
30.1496009719
 10
246.2881435086
 20
30.2420113513
  0
LWPOLYLINE
  5
6B0
100
AcDbEntity
  8
RUNDUNGEN
100
AcDbPolyline
 62
7
  6
CONTINUOUS
 90
9
 70
0
 10
231.482551419
 20
174.8113212216
 10
231.2860112673
 20
174.8080098127
 10
231.0975210429
 20
174.799110399
 10
230.9243260925
 20
174.7842764217
 10
230.7730288421
 20
174.7645475569
 10
230.6493144743
 20
174.7404674709
 10
230.5577070574
 20
174.7131776336
 10
230.5014806252
 20
174.6841660736
 10
230.482551419
 20
174.6529367812
  0
LINE
  5
6B1
100
AcDbEntity
  8
RUNDUNGEN
100
AcDbLine
 62
7
  6
CONTINUOUS
 10
231.482551419
 20
174.8113212216
 11
259.482551419
 21
174.8113212216
  0
LWPOLYLINE
  5
6B2
100
AcDbEntity
  8
RUNDUNGEN
100
AcDbPolyline
 62
7
  6
CONTINUOUS
 90
9
 70
0
 10
259.482551419
 20
174.8113212216
 10
259.6790915707
 20
174.8084434222
 10
259.8675817951
 20
174.799110399
 10
260.0407767455
 20
174.7844134821
 10
260.1920739959
 20
174.7645475569
 10
260.3157883637
 20
174.7405506144
 10
260.4073957806
 20
174.7131776336
 10
260.4636222128
 20
174.6830769208
 10
260.482551419
 20
174.6529367812
  0
LINE
  5
6B3
100
AcDbEntity
  8
RUNDUNGEN
100
AcDbLine
 62
7
  6
CONTINUOUS
 10
231.482551419
 20
183.3113212216
 11
259.482551419
 21
183.3113212216
  0
ARC
  5
6B4
100
AcDbEntity
  8
RUNDUNGEN
100
AcDbCircle
 62
7
  6
CONTINUOUS
 10
56.0078622595
 20
49.0072580074
 40
3.9999527772
100
AcDbArc
 50
357.4249264201
 51
11.3553547269
  0
ARC
  5
6B5
100
AcDbEntity
  8
RUNDUNGEN
100
AcDbCircle
 62
7
  6
CONTINUOUS
 10
57.1251871321
 20
53.5981440804
 40
2.0000000423
100
AcDbArc
 50
11.3623635435
 51
76.7675637713
  0
ARC
  5
6B6
100
AcDbEntity
  8
RUNDUNGEN
100
AcDbCircle
 62
7
  6
CONTINUOUS
 10
52.3459043629
 20
57.6975755178
 40
1.0
100
AcDbArc
 50
216.0
 51
257.8324053934
  0
ARC
  5
6B7
100
AcDbEntity
  8
RUNDUNGEN
100
AcDbCircle
 62
7
  6
CONTINUOUS
 10
48.8191928491
 20
62.5516774841
 40
1.0
100
AcDbArc
 50
174.1675946066
 51
216.0
  0
ARC
  5
6B8
100
AcDbEntity
  8
RUNDUNGEN
100
AcDbCircle
 62
7
  6
CONTINUOUS
 10
73.1401149142
 20
50.4708598011
 40
2.25
100
AcDbArc
 50
324.0007968666
 51
144.0017755928
  0
ARC
  5
6B9
100
AcDbEntity
  8
RUNDUNGEN
100
AcDbCircle
 62
7
  6
CONTINUOUS
 10
72.7863709859
 20
40.2212920004
 40
1.0
100
AcDbArc
 50
162.0
 51
234.0
  0
ARC
  5
6BA
100
AcDbEntity
  8
RUNDUNGEN
100
AcDbCircle
 62
7
  6
CONTINUOUS
 10
63.5015095536
 20
46.9671386976
 40
1.0
100
AcDbArc
 50
234.0
 51
306.0
  0
ARC
  5
6BB
100
AcDbEntity
  8
RUNDUNGEN
100
AcDbCircle
 62
7
  6
CONTINUOUS
 10
61.0027509959
 20
48.782593057
 40
1.0
100
AcDbArc
 50
177.4234289457
 51
233.9998194585
  0
ARC
  5
6BC
100
AcDbEntity
  8
RUNDUNGEN
100
AcDbCircle
 62
7
  6
CONTINUOUS
 10
61.6718043148
 20
48.2964973673
 40
1.0
100
AcDbArc
 50
144.0
 51
234.0
  0
ARC
  5
6BD
100
AcDbEntity
  8
RUNDUNGEN
100
AcDbCircle
 62
7
  6
CONTINUOUS
 10
41.6858105409
 20
68.7198601108
 40
3.9999543613
100
AcDbArc
 50
60.6414873248
 51
74.5750100656
  0
ARC
  5
6BE
100
AcDbEntity
  8
RUNDUNGEN
100
AcDbCircle
 62
7
  6
CONTINUOUS
 10
48.3719422204
 20
84.5613249001
 40
2.25
100
AcDbArc
 50
287.9977363539
 51
108.0024370477
  0
ARC
  5
6BF
100
AcDbEntity
  8
RUNDUNGEN
100
AcDbCircle
 62
7
  6
CONTINUOUS
 10
46.3972814637
 20
68.3638394831
 40
2.0000000431
100
AcDbArc
 50
355.0811980437
 51
60.6376364565
  0
ARC
  5
6C0
100
AcDbEntity
  8
RUNDUNGEN
100
AcDbCircle
 62
7
  6
CONTINUOUS
 10
42.061212575
 20
76.4771758285
 40
1.0
100
AcDbArc
 50
126.0
 51
198.0
  0
ARC
  5
6C1
100
AcDbEntity
  8
RUNDUNGEN
100
AcDbCircle
 62
7
  6
CONTINUOUS
 10
43.0156551865
 20
73.5397035158
 40
1.0
100
AcDbArc
 50
197.9998814762
 51
254.5759764827
  0
ARC
  5
6C2
100
AcDbEntity
  8
RUNDUNGEN
100
AcDbCircle
 62
7
  6
CONTINUOUS
 10
42.7600977868
 20
74.3262283176
 40
1.0
100
AcDbArc
 50
197.9993922456
 51
288.0009458389
  0
ARC
  5
6C3
100
AcDbEntity
  8
RUNDUNGEN
100
AcDbCircle
 62
7
  6
CONTINUOUS
 10
33.6513751212
 20
93.447331625
 40
3.9999527772
100
AcDbArc
 50
321.4249281874
 51
335.3553547269
  0
ARC
  5
6C4
100
AcDbEntity
  8
RUNDUNGEN
100
AcDbCircle
 62
7
  6
CONTINUOUS
 10
37.2537650601
 20
96.504689395
 40
2.0000000422
100
AcDbArc
 50
335.3623635435
 51
40.76758833
  0
ARC
  5
6C5
100
AcDbEntity
  8
RUNDUNGEN
100
AcDbCircle
 62
7
  6
CONTINUOUS
 10
38.5147110887
 20
87.3921850674
 40
1.0
100
AcDbArc
 50
198.0
 51
270.0
  0
ARC
  5
6C6
100
AcDbEntity
  8
RUNDUNGEN
100
AcDbCircle
 62
7
  6
CONTINUOUS
 10
35.7968294205
 20
102.6303910236
 40
1.0
100
AcDbArc
 50
180.0
 51
221.8324053934
  0
ARC
  5
6C7
100
AcDbEntity
  8
RUNDUNGEN
100
AcDbCircle
 62
7
  6
CONTINUOUS
 10
37.5602702496
 20
90.3296519251
 40
1.0
100
AcDbArc
 50
141.4234197747
 51
197.9998749719
  0
ARC
  5
6C8
100
AcDbEntity
  8
RUNDUNGEN
100
AcDbCircle
 62
7
  6
CONTINUOUS
 10
37.8158258768
 20
89.5431325783
 40
1.0
100
AcDbArc
 50
108.0
 51
198.0
  0
ARC
  5
6C9
100
AcDbEntity
  8
RUNDUNGEN
100
AcDbCircle
 62
7
  6
CONTINUOUS
 10
66.879760593
 20
89.1461530682
 40
2.49999818
100
AcDbArc
 50
44.9999999971
 51
199.5842163292
  0
ARC
  5
6CA
100
AcDbEntity
  8
0
100
AcDbCircle
 62
7
  6
CONTINUOUS
 10
68.7388436356
 20
105.6303910236
 40
1.0
100
AcDbArc
 50
75.0
 51
285.0
  0
ARC
  5
6CB
100
AcDbEntity
  8
RUNDUNGEN
100
AcDbCircle
 62
7
  6
CONTINUOUS
 10
77.0423001368
 20
33.7248359747
 40
3.9999543613
100
AcDbArc
 50
96.6414873248
 51
110.5750100656
  0
ARC
  5
6CC
100
AcDbEntity
  8
RUNDUNGEN
100
AcDbCircle
 62
7
  6
CONTINUOUS
 10
81.0632238563
 20
36.2061423616
 40
2.0000000431
100
AcDbArc
 50
31.0811980393
 51
96.6376364565
  0
ARC
  5
6CD
100
AcDbEntity
  8
RUNDUNGEN
100
AcDbCircle
 62
7
  6
CONTINUOUS
 10
75.2851341832
 20
38.4058342701
 40
1.0
100
AcDbArc
 50
233.9998814762
 51
290.5759764827
  0
ARC
  5
6CE
100
AcDbEntity
  8
RUNDUNGEN
100
AcDbCircle
 62
7
  6
CONTINUOUS
 10
74.6160762248
 20
38.8919333306
 40
1.0
100
AcDbArc
 50
233.9993922455
 51
324.0009458389
  0
ARC
  5
6CF
100
AcDbEntity
  8
RUNDUNGEN
100
AcDbCircle
 62
7
  6
CONTINUOUS
 10
92.1452335308
 20
31.0734663588
 40
1.0
100
AcDbArc
 50
252.0
 51
293.8324053934
  0
ARC
  5
6D0
100
AcDbEntity
  8
RUNDUNGEN
100
AcDbCircle
 62
7
  6
CONTINUOUS
 10
86.438894433
 20
32.927568325
 40
1.0
100
AcDbArc
 50
210.1675946066
 51
252.0
  0
ARC
  5
6D1
100
AcDbEntity
  8
RUNDUNGEN
100
AcDbCircle
 62
7
  6
CONTINUOUS
 10
100.2158601722
 20
26.1952963463
 40
3.9999528329
100
AcDbArc
 50
33.424928853
 51
47.3556449014
  0
ARC
  5
6D2
100
AcDbEntity
  8
RUNDUNGEN
100
AcDbCircle
 62
7
  6
CONTINUOUS
 10
98.4213398537
 20
30.5661485869
 40
2.0000000423
100
AcDbArc
 50
47.3623635435
 51
112.76756377
  0
ARC
  5
6D3
100
AcDbEntity
  8
RUNDUNGEN
100
AcDbCircle
 62
7
  6
CONTINUOUS
 10
104.388864731
 20
28.9494608256
 40
1.0
100
AcDbArc
 50
213.4234355428
 51
269.9998173114
  0
ARC
  5
6D4
100
AcDbEntity
  8
RUNDUNGEN
100
AcDbCircle
 62
7
  6
CONTINUOUS
 10
105.2158601722
 20
28.9494608256
 40
1.0
100
AcDbArc
 50
180.0
 51
270.0
  0
ARC
  5
6D5
100
AcDbEntity
  8
RUNDUNGEN
100
AcDbCircle
 62
7
  6
CONTINUOUS
 10
107.4775002262
 20
28.9494608256
 40
1.0
100
AcDbArc
 50
270.0
 51
342.0
  0
ARC
  5
6D6
100
AcDbEntity
  8
RUNDUNGEN
100
AcDbCircle
 62
7
  6
CONTINUOUS
 10
113.2158601722
 20
37.4494608256
 40
2.25
100
AcDbArc
 50
0.0008088936
 51
180.0017852813
  0
ARC
  5
6D7
100
AcDbEntity
  8
RUNDUNGEN
100
AcDbCircle
 62
7
  6
CONTINUOUS
 10
96.7316222166
 20
59.2942914444
 40
2.49999818
100
AcDbArc
 50
250.4157836669
 51
45.000000003
  0
ARC
  5
6D8
100
AcDbEntity
  8
0
100
AcDbCircle
 62
7
  6
CONTINUOUS
 10
113.2158601722
 20
61.153374487
 40
1.0
100
AcDbArc
 50
165.0
 51
15.0
  0
ARC
  5
6D9
100
AcDbEntity
  8
RUNDUNGEN
100
AcDbCircle
 62
7
  6
CONTINUOUS
 10
113.2158601722
 20
105.6303910236
 40
51.680930198
100
AcDbArc
 50
109.489626066
 51
160.5103703805
  0
ARC
  5
6DA
100
AcDbEntity
  8
RUNDUNGEN
100
AcDbCircle
 62
7
  6
CONTINUOUS
 10
113.2158601722
 20
105.6303910236
 40
51.680930198
100
AcDbArc
 50
199.489626066
 51
250.5103703805
  0
ARC
  5
6DB
100
AcDbEntity
  8
RUNDUNGEN
100
AcDbCircle
 62
7
  6
CONTINUOUS
 10
113.2158601722
 20
105.6303910236
 40
51.680930198
100
AcDbArc
 50
289.489626066
 51
340.5103703805
  0
ARC
  5
6DC
100
AcDbEntity
  8
RUNDUNGEN
100
AcDbCircle
 62
7
  6
CONTINUOUS
 10
113.2158601722
 20
105.6303910236
 40
51.680930198
100
AcDbArc
 50
19.489626066
 51
70.5103703805
  0
ARC
  5
6DD
100
AcDbEntity
  8
RUNDUNGEN
100
AcDbCircle
 62
7
  6
CONTINUOUS
 10
35.7968294205
 20
108.6303910236
 40
1.0
100
AcDbArc
 50
138.1675946066
 51
180.0
  0
ARC
  5
6DE
100
AcDbEntity
  8
RUNDUNGEN
100
AcDbCircle
 62
7
  6
CONTINUOUS
 10
33.6513702003
 20
117.8134520211
 40
3.9999540701
100
AcDbArc
 50
24.645786411
 51
38.5750042739
  0
ARC
  5
6DF
100
AcDbEntity
  8
RUNDUNGEN
100
AcDbCircle
 62
7
  6
CONTINUOUS
 10
37.2537650577
 20
114.7560926496
 40
2.0000000431
100
AcDbArc
 50
319.081207762
 51
24.6376364565
  0
ARC
  5
6E0
100
AcDbEntity
  8
RUNDUNGEN
100
AcDbCircle
 62
7
  6
CONTINUOUS
 10
38.5147110887
 20
123.8685969798
 40
1.0
100
AcDbArc
 50
90.0
 51
162.0
  0
ARC
  5
6E1
100
AcDbEntity
  8
RUNDUNGEN
100
AcDbCircle
 62
7
  6
CONTINUOUS
 10
37.815854463
 20
121.7177374481
 40
1.0
100
AcDbArc
 50
162.0
 51
252.0017607086
  0
ARC
  5
6E2
100
AcDbEntity
  8
RUNDUNGEN
100
AcDbCircle
 62
7
  6
CONTINUOUS
 10
37.5602698932
 20
120.9311290253
 40
1.0
100
AcDbArc
 50
161.9999957078
 51
218.5765549756
  0
ARC
  5
6E3
100
AcDbEntity
  8
RUNDUNGEN
100
AcDbCircle
 62
7
  6
CONTINUOUS
 10
42.061212575
 20
134.7836062187
 40
1.0
100
AcDbArc
 50
162.0
 51
234.0
  0
ARC
  5
6E4
100
AcDbEntity
  8
RUNDUNGEN
100
AcDbCircle
 62
7
  6
CONTINUOUS
 10
41.6858169749
 20
142.5409198459
 40
3.9999527772
100
AcDbArc
 50
285.4249264201
 51
299.3553547269
  0
ARC
  5
6E5
100
AcDbEntity
  8
RUNDUNGEN
100
AcDbCircle
 62
7
  6
CONTINUOUS
 10
43.0156534144
 20
137.7210730773
 40
1.0
100
AcDbArc
 50
105.4234289457
 51
161.9998194585
  0
ARC
  5
6E6
100
AcDbEntity
  8
RUNDUNGEN
100
AcDbCircle
 62
7
  6
CONTINUOUS
 10
42.7600977868
 20
136.9345537296
 40
1.0
100
AcDbArc
 50
72.0
 51
162.0
  0
ARC
  5
6E7
100
AcDbEntity
  8
RUNDUNGEN
100
AcDbCircle
 62
7
  6
CONTINUOUS
 10
48.3719422204
 20
126.6994571471
 40
2.25
100
AcDbArc
 50
252.0008035149
 51
72.0017809484
  0
ARC
  5
6E8
100
AcDbEntity
  8
RUNDUNGEN
100
AcDbCircle
 62
7
  6
CONTINUOUS
 10
46.397281464
 20
142.8969425608
 40
2.0000000423
100
AcDbArc
 50
299.3623635435
 51
4.7675637705
  0
ARC
  5
6E9
100
AcDbEntity
  8
RUNDUNGEN
100
AcDbCircle
 62
7
  6
CONTINUOUS
 10
66.879760593
 20
122.1146289792
 40
2.49999818
100
AcDbArc
 50
160.4157836669
 51
315.000000003
  0
ARC
  5
6EA
100
AcDbEntity
  8
RUNDUNGEN
100
AcDbCircle
 62
7
  6
CONTINUOUS
 10
57.1251871288
 20
157.6626379661
 40
2.0000000431
100
AcDbArc
 50
283.08120776
 51
348.6376364565
  0
ARC
  5
6EB
100
AcDbEntity
  8
RUNDUNGEN
100
AcDbCircle
 62
7
  6
CONTINUOUS
 10
48.8191928491
 20
148.7091045631
 40
1.0
100
AcDbArc
 50
144.0
 51
185.8324053934
  0
ARC
  5
6EC
100
AcDbEntity
  8
RUNDUNGEN
100
AcDbCircle
 62
7
  6
CONTINUOUS
 10
52.3459043629
 20
153.5632065294
 40
1.0
100
AcDbArc
 50
102.1675946066
 51
144.0
  0
ARC
  5
6ED
100
AcDbEntity
  8
RUNDUNGEN
100
AcDbCircle
 62
7
  6
CONTINUOUS
 10
56.0078592183
 20
162.2535282257
 40
3.9999540701
100
AcDbArc
 50
348.645786411
 51
2.5750042739
  0
ARC
  5
6EE
100
AcDbEntity
  8
RUNDUNGEN
100
AcDbCircle
 62
7
  6
CONTINUOUS
 10
73.1401149142
 20
160.789922246
 40
2.25
100
AcDbArc
 50
216.000820921
 51
36.0017949707
  0
ARC
  5
6EF
100
AcDbEntity
  8
RUNDUNGEN
100
AcDbCircle
 62
7
  6
CONTINUOUS
 10
63.5015095536
 20
164.2936433496
 40
1.0
100
AcDbArc
 50
54.0
 51
126.0
  0
ARC
  5
6F0
100
AcDbEntity
  8
RUNDUNGEN
100
AcDbCircle
 62
7
  6
CONTINUOUS
 10
72.7863709859
 20
171.0394900468
 40
1.0
100
AcDbArc
 50
126.0
 51
198.0
  0
ARC
  5
6F1
100
AcDbEntity
  8
RUNDUNGEN
100
AcDbCircle
 62
7
  6
CONTINUOUS
 10
61.6718791544
 20
162.9643390541
 40
1.0
100
AcDbArc
 50
126.0
 51
216.0017607086
  0
ARC
  5
6F2
100
AcDbEntity
  8
RUNDUNGEN
100
AcDbCircle
 62
7
  6
CONTINUOUS
 10
61.0027500636
 20
162.4781883129
 40
1.0
100
AcDbArc
 50
125.9999957078
 51
182.5765549756
  0
ARC
  5
6F3
100
AcDbEntity
  8
RUNDUNGEN
100
AcDbCircle
 62
7
  6
CONTINUOUS
 10
81.0632238428
 20
175.0546396623
 40
2.0000000361
100
AcDbArc
 50
263.3623635436
 51
328.7699842218
  0
ARC
  5
6F4
100
AcDbEntity
  8
RUNDUNGEN
100
AcDbCircle
 62
7
  6
CONTINUOUS
 10
75.2851452293
 20
172.8549558025
 40
1.0
100
AcDbArc
 50
69.4256509375
 51
126.0003829197
  0
ARC
  5
6F5
100
AcDbEntity
  8
RUNDUNGEN
100
AcDbCircle
 62
7
  6
CONTINUOUS
 10
74.6160762248
 20
172.3688487166
 40
1.0
100
AcDbArc
 50
36.0
 51
126.0
  0
ARC
  5
6F6
100
AcDbEntity
  8
RUNDUNGEN
100
AcDbCircle
 62
7
  6
CONTINUOUS
 10
77.0422302236
 20
177.5360422999
 40
3.999993832
100
AcDbArc
 50
249.4260220943
 51
263.3620442279
  0
ARC
  5
6F7
100
AcDbEntity
  8
RUNDUNGEN
100
AcDbCircle
 62
7
  6
CONTINUOUS
 10
92.1452335308
 20
180.1873156884
 40
1.0
100
AcDbArc
 50
66.1675946066
 51
108.0
  0
ARC
  5
6F8
100
AcDbEntity
  8
RUNDUNGEN
100
AcDbCircle
 62
7
  6
CONTINUOUS
 10
86.438894433
 20
178.3332137221
 40
1.0
100
AcDbArc
 50
108.0
 51
149.8324053934
  0
ARC
  5
6F9
100
AcDbEntity
  8
RUNDUNGEN
100
AcDbCircle
 62
7
  6
CONTINUOUS
 10
96.7316222168
 20
151.9664906028
 40
2.49999818
100
AcDbArc
 50
314.9999999971
 51
109.5842163292
  0
ARC
  5
6FA
100
AcDbEntity
  8
0
100
AcDbCircle
 62
7
  6
CONTINUOUS
 10
113.2158601722
 20
150.1074075602
 40
1.0
100
AcDbArc
 50
345.0
 51
195.0
  0
ARC
  5
6FB
100
AcDbEntity
  8
RUNDUNGEN
100
AcDbCircle
 62
7
  6
CONTINUOUS
 10
100.2158601722
 20
185.0655262436
 40
3.9999656073
100
AcDbArc
 50
312.6389199185
 51
326.5747240833
  0
ARC
  5
6FC
100
AcDbEntity
  8
RUNDUNGEN
100
AcDbCircle
 62
7
  6
CONTINUOUS
 10
113.2158601722
 20
173.8113212216
 40
2.25
100
AcDbArc
 50
180.0008088936
 51
0.0017852813
  0
ARC
  5
6FD
100
AcDbEntity
  8
RUNDUNGEN
100
AcDbCircle
 62
7
  6
CONTINUOUS
 10
98.4213398734
 20
180.6946334516
 40
2.0000000366
100
AcDbArc
 50
247.0808321905
 51
312.6376364564
  0
ARC
  5
6FE
100
AcDbEntity
  8
RUNDUNGEN
100
AcDbCircle
 62
7
  6
CONTINUOUS
 10
107.4775002262
 20
182.3113212216
 40
1.0
100
AcDbArc
 50
18.0
 51
90.0
  0
ARC
  5
6FF
100
AcDbEntity
  8
RUNDUNGEN
100
AcDbCircle
 62
7
  6
CONTINUOUS
 10
105.2158819312
 20
182.3113212216
 40
1.0
100
AcDbArc
 50
90.0
 51
179.9982784399
  0
ARC
  5
700
100
AcDbEntity
  8
RUNDUNGEN
100
AcDbCircle
 62
7
  6
CONTINUOUS
 10
104.3888583609
 20
182.3113212216
 40
1.0
100
AcDbArc
 50
90.0000079531
 51
146.5758309349
  0
ARC
  5
701
100
AcDbEntity
  8
RUNDUNGEN
100
AcDbCircle
 62
7
  6
CONTINUOUS
 10
126.2158601722
 20
26.1952896473
 40
3.9999544395
100
AcDbArc
 50
132.641460991
 51
146.5750090592
  0
ARC
  5
702
100
AcDbEntity
  8
RUNDUNGEN
100
AcDbCircle
 62
7
  6
CONTINUOUS
 10
118.9542201182
 20
28.9494608256
 40
1.0
100
AcDbArc
 50
198.0
 51
270.0
  0
ARC
  5
703
100
AcDbEntity
  8
RUNDUNGEN
100
AcDbCircle
 62
7
  6
CONTINUOUS
 10
122.0428616512
 20
28.9494608256
 40
1.0
100
AcDbArc
 50
269.99987205
 51
326.5759353903
  0
ARC
  5
704
100
AcDbEntity
  8
RUNDUNGEN
100
AcDbCircle
 62
7
  6
CONTINUOUS
 10
121.2158601722
 20
28.9494608256
 40
1.0
100
AcDbArc
 50
269.9994118944
 51
360.0
  0
ARC
  5
705
100
AcDbEntity
  8
RUNDUNGEN
100
AcDbCircle
 62
7
  6
CONTINUOUS
 10
128.0103804937
 20
30.5661485855
 40
2.0000000431
100
AcDbArc
 50
67.0811979136
 51
132.6376364565
  0
ARC
  5
706
100
AcDbEntity
  8
RUNDUNGEN
100
AcDbCircle
 62
7
  6
CONTINUOUS
 10
134.2864868136
 20
31.0734663588
 40
1.0
100
AcDbArc
 50
246.1675946066
 51
288.0
  0
ARC
  5
707
100
AcDbEntity
  8
RUNDUNGEN
100
AcDbCircle
 62
7
  6
CONTINUOUS
 10
129.7000981276
 20
59.2942914444
 40
2.49999818
100
AcDbArc
 50
134.9999999971
 51
289.5842163292
  0
ARC
  5
708
100
AcDbEntity
  8
RUNDUNGEN
100
AcDbCircle
 62
7
  6
CONTINUOUS
 10
145.3684964897
 20
36.2061423644
 40
2.0000000423
100
AcDbArc
 50
83.3623635435
 51
148.7675637703
  0
ARC
  5
709
100
AcDbEntity
  8
RUNDUNGEN
100
AcDbCircle
 62
7
  6
CONTINUOUS
 10
139.9928259114
 20
32.927568325
 40
1.0
100
AcDbArc
 50
288.0
 51
329.8324053934
  0
ARC
  5
70A
100
AcDbEntity
  8
RUNDUNGEN
100
AcDbCircle
 62
7
  6
CONTINUOUS
 10
149.3894164111
 20
33.7248412001
 40
3.9999528329
100
AcDbArc
 50
69.424928853
 51
83.3556449014
  0
ARC
  5
70B
100
AcDbEntity
  8
RUNDUNGEN
100
AcDbCircle
 62
7
  6
CONTINUOUS
 10
153.6453493585
 20
40.2212920004
 40
1.0
100
AcDbArc
 50
306.0
 51
18.0
  0
ARC
  5
70C
100
AcDbEntity
  8
RUNDUNGEN
100
AcDbCircle
 62
7
  6
CONTINUOUS
 10
151.1465907535
 20
38.4058376066
 40
1.0
100
AcDbArc
 50
249.4234355428
 51
305.9998173114
  0
ARC
  5
70D
100
AcDbEntity
  8
RUNDUNGEN
100
AcDbCircle
 62
7
  6
CONTINUOUS
 10
151.8156441196
 20
38.8919333306
 40
1.0
100
AcDbArc
 50
216.0
 51
306.0
  0
ARC
  5
70E
100
AcDbEntity
  8
RUNDUNGEN
100
AcDbCircle
 62
7
  6
CONTINUOUS
 10
153.2916054301
 20
50.4708598011
 40
2.25
100
AcDbArc
 50
36.000820921
 51
216.0017949707
  0
ARC
  5
70F
100
AcDbEntity
  8
RUNDUNGEN
100
AcDbCircle
 62
7
  6
CONTINUOUS
 10
162.9302107908
 20
46.9671386976
 40
1.0
100
AcDbArc
 50
234.0
 51
306.0
  0
ARC
  5
710
100
AcDbEntity
  8
RUNDUNGEN
100
AcDbCircle
 62
7
  6
CONTINUOUS
 10
165.4289742805
 20
48.7825966403
 40
1.0
100
AcDbArc
 50
305.99987205
 51
2.5759353903
  0
ARC
  5
711
100
AcDbEntity
  8
RUNDUNGEN
100
AcDbCircle
 62
7
  6
CONTINUOUS
 10
164.7599160296
 20
48.2964973673
 40
1.0
100
AcDbArc
 50
305.9994118944
 51
36.0009280751
  0
ARC
  5
712
100
AcDbEntity
  8
RUNDUNGEN
100
AcDbCircle
 62
7
  6
CONTINUOUS
 10
169.3065332155
 20
53.598144081
 40
2.0000000431
100
AcDbArc
 50
103.0811979166
 51
168.6376364565
  0
ARC
  5
713
100
AcDbEntity
  8
RUNDUNGEN
100
AcDbCircle
 62
7
  6
CONTINUOUS
 10
170.4238622024
 20
49.0072523401
 40
3.9999544395
100
AcDbArc
 50
168.641460991
 51
182.5750090592
  0
ARC
  5
714
100
AcDbEntity
  8
RUNDUNGEN
100
AcDbCircle
 62
7
  6
CONTINUOUS
 10
174.0858159815
 20
57.6975755178
 40
1.0
100
AcDbArc
 50
282.1675946066
 51
324.0
  0
ARC
  5
715
100
AcDbEntity
  8
RUNDUNGEN
100
AcDbCircle
 62
7
  6
CONTINUOUS
 10
177.6125274952
 20
62.5516774841
 40
1.0
100
AcDbArc
 50
324.0
 51
5.8324053934
  0
ARC
  5
716
100
AcDbEntity
  8
RUNDUNGEN
100
AcDbCircle
 62
7
  6
CONTINUOUS
 10
159.5519597514
 20
89.146153068
 40
2.49999818
100
AcDbArc
 50
340.4157836669
 51
135.000000003
  0
ARC
  5
717
100
AcDbEntity
  8
0
100
AcDbCircle
 62
7
  6
CONTINUOUS
 10
157.6928767088
 20
105.6303910236
 40
1.0
100
AcDbArc
 50
255.0
 51
105.0
  0
ARC
  5
718
100
AcDbEntity
  8
RUNDUNGEN
100
AcDbCircle
 62
7
  6
CONTINUOUS
 10
180.0344388804
 20
68.3638394864
 40
2.0000000423
100
AcDbArc
 50
119.3623635435
 51
184.7675637697
  0
ARC
  5
719
100
AcDbEntity
  8
RUNDUNGEN
100
AcDbCircle
 62
7
  6
CONTINUOUS
 10
178.059778124
 20
84.5613249001
 40
2.25
100
AcDbArc
 50
71.9984791069
 51
252.0024165321
  0
ARC
  5
71A
100
AcDbEntity
  8
RUNDUNGEN
100
AcDbCircle
 62
7
  6
CONTINUOUS
 10
184.7459036607
 20
68.7198621067
 40
3.9999528329
100
AcDbArc
 50
105.424928853
 51
119.3556449014
  0
ARC
  5
71B
100
AcDbEntity
  8
RUNDUNGEN
100
AcDbCircle
 62
7
  6
CONTINUOUS
 10
183.416066912
 20
73.5397089143
 40
1.0
100
AcDbArc
 50
285.4234355428
 51
341.9998173114
  0
ARC
  5
71C
100
AcDbEntity
  8
RUNDUNGEN
100
AcDbCircle
 62
7
  6
CONTINUOUS
 10
183.6716225575
 20
74.3262283176
 40
1.0
100
AcDbArc
 50
252.0
 51
342.0
  0
ARC
  5
71D
100
AcDbEntity
  8
RUNDUNGEN
100
AcDbCircle
 62
7
  6
CONTINUOUS
 10
184.3705077694
 20
76.4771758285
 40
1.0
100
AcDbArc
 50
342.0
 51
54.0
  0
ARC
  5
71E
100
AcDbEntity
  8
RUNDUNGEN
100
AcDbCircle
 62
7
  6
CONTINUOUS
 10
187.9170092557
 20
87.3921850674
 40
1.0
100
AcDbArc
 50
270.0
 51
342.0
  0
ARC
  5
71F
100
AcDbEntity
  8
RUNDUNGEN
100
AcDbCircle
 62
7
  6
CONTINUOUS
 10
188.6158944675
 20
89.5431325783
 40
1.0
100
AcDbArc
 50
342.0
 51
72.0
  0
ARC
  5
720
100
AcDbEntity
  8
RUNDUNGEN
100
AcDbCircle
 62
7
  6
CONTINUOUS
 10
188.8714519789
 20
90.3296577239
 40
1.0
100
AcDbArc
 50
341.99987205
 51
38.5759353903
  0
ARC
  5
721
100
AcDbEntity
  8
RUNDUNGEN
100
AcDbCircle
 62
7
  6
CONTINUOUS
 10
189.1779552866
 20
96.5046893976
 40
2.0000000431
100
AcDbArc
 50
139.0811979141
 51
204.6376364565
  0
ARC
  5
722
100
AcDbEntity
  8
RUNDUNGEN
100
AcDbCircle
 62
7
  6
CONTINUOUS
 10
192.7803518856
 20
93.4473294603
 40
3.9999544395
100
AcDbArc
 50
204.641460991
 51
218.5750090592
  0
ARC
  5
723
100
AcDbEntity
  8
RUNDUNGEN
100
AcDbCircle
 62
7
  6
CONTINUOUS
 10
190.6348909239
 20
102.6303910236
 40
1.0
100
AcDbArc
 50
318.1675946066
 51
360.0
  0
ARC
  5
724
100
AcDbEntity
  8
RUNDUNGEN
100
AcDbCircle
 62
7
  6
CONTINUOUS
 10
129.7000981278
 20
151.9664906028
 40
2.49999818
100
AcDbArc
 50
70.4157836669
 51
225.000000003
  0
ARC
  5
725
100
AcDbEntity
  8
RUNDUNGEN
100
AcDbCircle
 62
7
  6
CONTINUOUS
 10
118.9542201182
 20
182.3113212216
 40
1.0
100
AcDbArc
 50
89.999999978
 51
162.0000000918
  0
ARC
  5
726
100
AcDbEntity
  8
RUNDUNGEN
100
AcDbCircle
 62
7
  6
CONTINUOUS
 10
122.0428556684
 20
182.3113212216
 40
1.0
100
AcDbArc
 50
33.4234384896
 51
89.9998523379
  0
ARC
  5
727
100
AcDbEntity
  8
RUNDUNGEN
100
AcDbCircle
 62
7
  6
CONTINUOUS
 10
121.2158601722
 20
182.3113212216
 40
1.0
100
AcDbArc
 50
0.0
 51
90.0
  0
ARC
  5
728
100
AcDbEntity
  8
RUNDUNGEN
100
AcDbCircle
 62
7
  6
CONTINUOUS
 10
126.2158601722
 20
185.065486
 40
3.9999528882
100
AcDbArc
 50
213.4249314171
 51
227.3559309773
  0
ARC
  5
729
100
AcDbEntity
  8
RUNDUNGEN
100
AcDbCircle
 62
7
  6
CONTINUOUS
 10
128.0103804905
 20
180.6946334603
 40
2.0000000422
100
AcDbArc
 50
227.3623635435
 51
292.7675886498
  0
ARC
  5
72A
100
AcDbEntity
  8
RUNDUNGEN
100
AcDbCircle
 62
7
  6
CONTINUOUS
 10
134.2864868136
 20
180.1873156884
 40
1.0
100
AcDbArc
 50
72.0
 51
113.8324053934
  0
ARC
  5
72B
100
AcDbEntity
  8
RUNDUNGEN
100
AcDbCircle
 62
7
  6
CONTINUOUS
 10
153.2916054301
 20
160.789922246
 40
2.25
100
AcDbArc
 50
144.0007968666
 51
324.0017755928
  0
ARC
  5
72C
100
AcDbEntity
  8
RUNDUNGEN
100
AcDbCircle
 62
7
  6
CONTINUOUS
 10
149.3894203487
 20
177.5359462667
 40
3.9999544395
100
AcDbArc
 50
276.641460991
 51
290.5750090592
  0
ARC
  5
72D
100
AcDbEntity
  8
RUNDUNGEN
100
AcDbCircle
 62
7
  6
CONTINUOUS
 10
145.3684964881
 20
175.0546396856
 40
2.0000000431
100
AcDbArc
 50
211.0811979165
 51
276.6376364565
  0
ARC
  5
72E
100
AcDbEntity
  8
RUNDUNGEN
100
AcDbCircle
 62
7
  6
CONTINUOUS
 10
153.6453493585
 20
171.0394900468
 40
1.0
100
AcDbArc
 50
342.0
 51
54.0
  0
ARC
  5
72F
100
AcDbEntity
  8
RUNDUNGEN
100
AcDbCircle
 62
7
  6
CONTINUOUS
 10
139.9928259114
 20
178.3332137221
 40
1.0
100
AcDbArc
 50
30.1675946066
 51
72.0
  0
ARC
  5
730
100
AcDbEntity
  8
RUNDUNGEN
100
AcDbCircle
 62
7
  6
CONTINUOUS
 10
151.8156441196
 20
172.3688487166
 40
1.0
100
AcDbArc
 50
54.0
 51
144.0
  0
ARC
  5
731
100
AcDbEntity
  8
RUNDUNGEN
100
AcDbCircle
 62
7
  6
CONTINUOUS
 10
151.1465858687
 20
172.8549479896
 40
1.0
100
AcDbArc
 50
53.99987205
 51
110.5759353903
  0
ARC
  5
732
100
AcDbEntity
  8
RUNDUNGEN
100
AcDbCircle
 62
7
  6
CONTINUOUS
 10
159.5519597514
 20
122.114628979
 40
2.49999818
100
AcDbArc
 50
224.9999999971
 51
19.5842163292
  0
ARC
  5
733
100
AcDbEntity
  8
RUNDUNGEN
100
AcDbCircle
 62
7
  6
CONTINUOUS
 10
189.1779552844
 20
114.7560926521
 40
2.0000000423
100
AcDbArc
 50
155.3623635435
 51
220.7675637696
  0
ARC
  5
734
100
AcDbEntity
  8
RUNDUNGEN
100
AcDbCircle
 62
7
  6
CONTINUOUS
 10
187.9170092557
 20
123.8685969798
 40
1.0
100
AcDbArc
 50
18.0
 51
90.0
  0
ARC
  5
735
100
AcDbEntity
  8
RUNDUNGEN
100
AcDbCircle
 62
7
  6
CONTINUOUS
 10
188.8714501131
 20
120.9311300656
 40
1.0
100
AcDbArc
 50
321.4234355428
 51
17.9998173114
  0
ARC
  5
736
100
AcDbEntity
  8
RUNDUNGEN
100
AcDbCircle
 62
7
  6
CONTINUOUS
 10
188.6158944675
 20
121.7176494689
 40
1.0
100
AcDbArc
 50
288.0
 51
18.0
  0
ARC
  5
737
100
AcDbEntity
  8
RUNDUNGEN
100
AcDbCircle
 62
7
  6
CONTINUOUS
 10
190.6348909239
 20
108.6303910236
 40
1.0
100
AcDbArc
 50
0.0
 51
41.8324053934
  0
ARC
  5
738
100
AcDbEntity
  8
RUNDUNGEN
100
AcDbCircle
 62
7
  6
CONTINUOUS
 10
192.7803455144
 20
117.8134505168
 40
3.9999528329
100
AcDbArc
 50
141.424928853
 51
155.3556449014
  0
ARC
  5
739
100
AcDbEntity
  8
RUNDUNGEN
100
AcDbCircle
 62
7
  6
CONTINUOUS
 10
178.059778124
 20
126.6994571471
 40
2.25
100
AcDbArc
 50
108.0008142724
 51
288.0017896145
  0
ARC
  5
73A
100
AcDbEntity
  8
RUNDUNGEN
100
AcDbCircle
 62
7
  6
CONTINUOUS
 10
180.0344388807
 20
142.8969425641
 40
2.0000000431
100
AcDbArc
 50
175.0811979138
 51
240.6376364565
  0
ARC
  5
73B
100
AcDbEntity
  8
RUNDUNGEN
100
AcDbCircle
 62
7
  6
CONTINUOUS
 10
184.3705077694
 20
134.7836062187
 40
1.0
100
AcDbArc
 50
306.0
 51
18.0
  0
ARC
  5
73C
100
AcDbEntity
  8
RUNDUNGEN
100
AcDbCircle
 62
7
  6
CONTINUOUS
 10
184.7459100318
 20
142.5409220106
 40
3.9999544395
100
AcDbArc
 50
240.641460991
 51
254.5750090592
  0
ARC
  5
73D
100
AcDbEntity
  8
RUNDUNGEN
100
AcDbCircle
 62
7
  6
CONTINUOUS
 10
183.4160650462
 20
137.7210788752
 40
1.0
100
AcDbArc
 50
17.99987205
 51
74.5759353903
  0
ARC
  5
73E
100
AcDbEntity
  8
RUNDUNGEN
100
AcDbCircle
 62
7
  6
CONTINUOUS
 10
183.6716225575
 20
136.9345537296
 40
1.0
100
AcDbArc
 50
17.9994118944
 51
108.0
  0
ARC
  5
73F
100
AcDbEntity
  8
RUNDUNGEN
100
AcDbCircle
 62
7
  6
CONTINUOUS
 10
162.9302107908
 20
164.2936433496
 40
1.0
100
AcDbArc
 50
54.0
 51
126.0
  0
ARC
  5
740
100
AcDbEntity
  8
RUNDUNGEN
100
AcDbCircle
 62
7
  6
CONTINUOUS
 10
165.4289693958
 20
162.4781889559
 40
1.0
100
AcDbArc
 50
357.4234355428
 51
53.9998173113
  0
ARC
  5
741
100
AcDbEntity
  8
RUNDUNGEN
100
AcDbCircle
 62
7
  6
CONTINUOUS
 10
164.7599160296
 20
162.9642846799
 40
1.0
100
AcDbArc
 50
324.0
 51
54.0
  0
ARC
  5
742
100
AcDbEntity
  8
RUNDUNGEN
100
AcDbCircle
 62
7
  6
CONTINUOUS
 10
169.3065332123
 20
157.6626379668
 40
2.0000000423
100
AcDbArc
 50
191.3623635435
 51
256.7675637705
  0
ARC
  5
743
100
AcDbEntity
  8
RUNDUNGEN
100
AcDbCircle
 62
7
  6
CONTINUOUS
 10
174.0858159815
 20
153.5632065294
 40
1.0
100
AcDbArc
 50
36.0
 51
77.8324053934
  0
ARC
  5
744
100
AcDbEntity
  8
RUNDUNGEN
100
AcDbCircle
 62
7
  6
CONTINUOUS
 10
177.6125274952
 20
148.7091045631
 40
1.0
100
AcDbArc
 50
354.1675946066
 51
36.0
  0
ARC
  5
745
100
AcDbEntity
  8
RUNDUNGEN
100
AcDbCircle
 62
7
  6
CONTINUOUS
 10
170.4238582648
 20
162.2535242875
 40
3.9999528329
100
AcDbArc
 50
177.424928853
 51
191.3556449014
  0
ARC
  5
746
100
AcDbEntity
  8
RUNDUNGEN
100
AcDbCircle
 62
7
  6
CONTINUOUS
 10
229.432551419
 20
52.5571380014
 40
3.0
100
AcDbArc
 50
179.9999999951
 51
264.352191792
  0
ARC
  5
747
100
AcDbEntity
  8
RUNDUNGEN
100
AcDbCircle
 62
7
  6
CONTINUOUS
 10
231.482551419
 20
90.9332537998
 40
1.0
100
AcDbArc
 50
98.5821155722
 51
180.0000002436
  0
ARC
  5
748
100
AcDbEntity
  8
RUNDUNGEN
100
AcDbCircle
 62
7
  6
CONTINUOUS
 10
231.482551419
 20
53.2544989267
 40
1.0
100
AcDbArc
 50
111.5604668072
 51
180.0000013363
  0
ARC
  5
749
100
AcDbEntity
  8
RUNDUNGEN
100
AcDbCircle
 62
7
  6
CONTINUOUS
 10
231.482551419
 20
46.9671386976
 40
1.0
100
AcDbArc
 50
180.0
 51
270.0
  0
ARC
  5
74A
100
AcDbEntity
  8
RUNDUNGEN
100
AcDbCircle
 62
7
  6
CONTINUOUS
 10
231.482551419
 20
37.1193205462
 40
1.0
100
AcDbArc
 50
116.0374416662
 51
180.0000000862
  0
ARC
  5
74B
100
AcDbEntity
  8
RUNDUNGEN
100
AcDbCircle
 62
7
  6
CONTINUOUS
 10
231.482551419
 20
87.3921850674
 40
1.0
100
AcDbArc
 50
180.0
 51
270.0
  0
ARC
  5
74C
100
AcDbEntity
  8
RUNDUNGEN
100
AcDbCircle
 62
7
  6
CONTINUOUS
 10
231.482551419
 20
28.9494608256
 40
1.0
100
AcDbArc
 50
180.0
 51
270.0
  0
ARC
  5
74D
100
AcDbEntity
  8
RUNDUNGEN
100
AcDbCircle
 62
7
  6
CONTINUOUS
 10
239.982551419
 20
102.4681138472
 40
0.4999995435
100
AcDbArc
 50
0.1873182042
 51
64.6230629565
  0
ARC
  5
74E
100
AcDbEntity
  8
0
100
AcDbCircle
 62
7
  6
CONTINUOUS
 10
229.432551419
 20
158.7036440447
 40
3.0
100
AcDbArc
 50
95.6478082438
 51
179.9999999999
  0
ARC
  5
74F
100
AcDbEntity
  8
02___PRT_ALL_AXES
100
AcDbCircle
 62
7
  6
CONTINUOUS
 10
241.482551419
 20
105.6303910236
 40
3.0
100
AcDbArc
 50
179.9999999887
 51
244.623063123
  0
ARC
  5
750
100
AcDbEntity
  8
0
100
AcDbCircle
 62
7
  6
CONTINUOUS
 10
237.982551419
 20
165.0759420033
 40
2.4999768392
100
AcDbArc
 50
275.6476996502
 51
359.9998807188
  0
ARC
  5
751
100
AcDbEntity
  8
0
100
AcDbCircle
 62
7
  6
CONTINUOUS
 10
238.482551419
 20
167.5002454606
 40
2.0
100
AcDbArc
 50
0.0
 51
64.0
  0
ARC
  5
752
100
AcDbEntity
  8
0
100
AcDbCircle
 62
7
  6
CONTINUOUS
 10
231.482551419
 20
174.1414614958
 40
1.0
100
AcDbArc
 50
179.9999999267
 51
243.9625584505
  0
ARC
  5
753
100
AcDbEntity
  8
RUNDUNGEN
100
AcDbCircle
 62
7
  6
CONTINUOUS
 10
231.482551419
 20
182.3113212216
 40
1.0
100
AcDbArc
 50
90.0
 51
180.0
  0
ARC
  5
754
100
AcDbEntity
  8
0
100
AcDbCircle
 62
7
  6
CONTINUOUS
 10
239.0497964069
 20
170.5613838626
 40
0.9999807389
100
AcDbArc
 50
90.000037207
 51
244.0169962742
  0
ARC
  5
755
100
AcDbEntity
  8
RUNDUNGEN
100
AcDbCircle
 62
7
  6
CONTINUOUS
 10
261.532551419
 20
52.5571380015
 40
3.0
100
AcDbArc
 50
275.6478082149
 51
360.0
  0
ARC
  5
756
100
AcDbEntity
  8
RUNDUNGEN
100
AcDbCircle
 62
7
  6
CONTINUOUS
 10
259.482551419
 20
90.9332550252
 40
1.0
100
AcDbArc
 50
0.0
 51
81.4171432708
  0
ARC
  5
757
100
AcDbEntity
  8
RUNDUNGEN
100
AcDbCircle
 62
7
  6
CONTINUOUS
 10
259.482551419
 20
53.2545253588
 40
1.0
100
AcDbArc
 50
359.9999986022
 51
68.4395195459
  0
ARC
  5
758
100
AcDbEntity
  8
RUNDUNGEN
100
AcDbCircle
 62
7
  6
CONTINUOUS
 10
259.482551419
 20
46.9671386976
 40
1.0
100
AcDbArc
 50
270.0
 51
360.0
  0
ARC
  5
759
100
AcDbEntity
  8
RUNDUNGEN
100
AcDbCircle
 62
7
  6
CONTINUOUS
 10
259.482551419
 20
37.1193318235
 40
1.0
100
AcDbArc
 50
359.9999990221
 51
63.9627818162
  0
ARC
  5
75A
100
AcDbEntity
  8
RUNDUNGEN
100
AcDbCircle
 62
7
  6
CONTINUOUS
 10
259.482551419
 20
87.3921850674
 40
1.0
100
AcDbArc
 50
270.0
 51
360.0
  0
ARC
  5
75B
100
AcDbEntity
  8
RUNDUNGEN
100
AcDbCircle
 62
7
  6
CONTINUOUS
 10
259.482551419
 20
28.9494608256
 40
1.0
100
AcDbArc
 50
270.0
 51
360.0
  0
ARC
  5
75C
100
AcDbEntity
  8
RUNDUNGEN
100
AcDbCircle
 62
7
  6
CONTINUOUS
 10
250.982551419
 20
102.4681177492
 40
0.4999958202
100
AcDbArc
 50
115.3769644197
 51
179.9994679995
  0
ARC
  5
75D
100
AcDbEntity
  8
0
100
AcDbCircle
 62
7
  6
CONTINUOUS
 10
261.532551419
 20
158.7036440447
 40
3.0
100
AcDbArc
 50
0.0000000001
 51
84.352191756
  0
ARC
  5
75E
100
AcDbEntity
  8
02___PRT_ALL_AXES
100
AcDbCircle
 62
7
  6
CONTINUOUS
 10
249.482551419
 20
105.6303910236
 40
3.0
100
AcDbArc
 50
295.3769642542
 51
359.998901059
  0
ARC
  5
75F
100
AcDbEntity
  8
0
100
AcDbCircle
 62
7
  6
CONTINUOUS
 10
252.982551419
 20
165.0759420056
 40
2.4999768401
100
AcDbArc
 50
180.0001192754
 51
264.3523003498
  0
ARC
  5
760
100
AcDbEntity
  8
0
100
AcDbCircle
 62
7
  6
CONTINUOUS
 10
252.482551419
 20
167.5002454606
 40
2.0
100
AcDbArc
 50
116.0
 51
180.0
  0
ARC
  5
761
100
AcDbEntity
  8
0
100
AcDbCircle
 62
7
  6
CONTINUOUS
 10
259.482551419
 20
174.1414502234
 40
1.0
100
AcDbArc
 50
296.0372185271
 51
0.000001783
  0
ARC
  5
762
100
AcDbEntity
  8
RUNDUNGEN
100
AcDbCircle
 62
7
  6
CONTINUOUS
 10
259.482551419
 20
182.3113212216
 40
1.0
100
AcDbArc
 50
0.0
 51
90.0
  0
ARC
  5
763
100
AcDbEntity
  8
0
100
AcDbCircle
 62
7
  6
CONTINUOUS
 10
251.9154318007
 20
170.5614417337
 40
0.9999629196
100
AcDbArc
 50
295.9669569442
 51
89.9999995026
  0
ENDSEC
  0
SECTION
  2
OBJECTS
  0
DICTIONARY
  5
C
100
AcDbDictionary
280
0
281
1
  3
ACAD_GROUP
350
D
  3
ACAD_MLINESTYLE
350
17
  3
ACAD_LAYOUT
350
1A
  3
ACAD_PLOTSETTINGS
350
19
  3
ACAD_PLOTSTYLENAME
350
E
  0
DICTIONARY
  5
D
102
{ACAD_REACTORS
330
C
102
}
100
AcDbDictionary
280
0
281
1
  0
ACDBDICTIONARYWDFLT
  5
E
102
{ACAD_REACTORS
330
C
102
}
100
AcDbDictionary
281
1
  3
Normal
350
F
100
AcDbDictionaryWithDefault
340
F
  0
DICTIONARY
  5
17
102
{ACAD_REACTORS
330
C
102
}
100
AcDbDictionary
280
0
281
1
  3
Standard
350
18
  0
DICTIONARY
  5
19
102
{ACAD_REACTORS
330
C
102
}
100
AcDbDictionary
281
1
  0
DICTIONARY
  5
1A
102
{ACAD_REACTORS
330
C
102
}
100
AcDbDictionary
281
1
  3
Model
350
764
  3
Layout1
350
765
  0
ACDBPLACEHOLDER
  5
F
102
{ACAD_REACTORS
330
E
102
}
  0
MLINESTYLE
  5
18
102
{ACAD_REACTORS
330
17
102
}
100
AcDbMlineStyle
  2
STANDARD
 70
0
  3

 62
256
 51
90.0
 52
90.0
 71
2
 49
0.5
 62
256
  6
BYLAYER
 49
-0.5
 62
256
  6
BYLAYER
  0
LAYOUT
  5
764
102
{ACAD_REACTORS
330
1A
102
}
100
AcDbPlotSettings
  1

  2
none_device
  4
ISO_A4_(297.00_x_210.00_MM)
  6

 40
0.0
 41
0.0
 42
0.0
 43
0.0
 44
297.0
 45
210.0
 46
0.0
 47
0.0
 48
0.0
 49
0.0
140
0.0
141
0.0
142
1.0
143
1.0
 70
1024
 72
1
 73
0
 74
0
  7

 75
0
147
1.0
148
0.0
149
0.0
100
AcDbLayout
  1
Model
 70
0
 71
0
 10
0.0
 20
0.0
 11
297.0
 21
210.0
 12
0.0
 22
0.0
 32
0.0
 14
0.0
 24
0.0
 34
0.0
 15
0.0
 25
0.0
 35
0.0
146
0.0
 13
0.0
 23
0.0
 33
0.0
 16
1.0
 26
0.0
 36
0.0
 17
0.0
 27
1.0
 37
0.0
 76
0
330
210
345
0
346
0
  0
LAYOUT
  5
765
102
{ACAD_REACTORS
330
1A
102
}
100
AcDbPlotSettings
  1

  2
none_device
  4
ISO_A4_(297.00_x_210.00_MM)
  6

 40
0.0
 41
0.0
 42
0.0
 43
0.0
 44
297.0
 45
210.0
 46
0.0
 47
0.0
 48
0.0
 49
0.0
140
0.0
141
0.0
142
1.0
143
1.0
 70
0
 72
1
 73
0
 74
0
  7

 75
0
147
1.0
148
0.0
149
0.0
100
AcDbLayout
  1
Layout1
 70
0
 71
1
 10
0.0
 20
0.0
 11
297.0
 21
210.0
 12
0.0
 22
0.0
 32
0.0
 14
0.0
 24
0.0
 34
0.0
 15
0.0
 25
0.0
 35
0.0
146
0.0
 13
0.0
 23
0.0
 33
0.0
 16
1.0
 26
0.0
 36
0.0
 17
0.0
 27
1.0
 37
0.0
 76
0
330
211
345
0
346
0
  0
ENDSEC
  0
EOF
