  0
SECTION
  2
HEADER
  9
$ACADVER
  1
AC1015
  9
$DWGCODEPAGE
  3
ANSI_1252
  9
$EXTMAX
 10
297.0
 20
210.0
 30
0.0
  9
$EXTMIN
 10
0.0
 20
0.0
 30
0.0
  9
$LIMMIN
 10
0.0
 20
0.0
  9
$LIMMAX
 10
297.0
 20
210.0
  9
$VIEWCTR
 10
148.5
 20
105.0
  9
$VIEWSIZE
 40
210.0
  9
$CLAYER
  8
0
  9
$LTSCALE
 40
16.335
  9
$CELTYPE
  6
BYLAYER
  9
$DIMSCALE
 40
1.0
  9
$DIMASZ
 40
3.5
  9
$DIMEXO
 40
1.85625
  9
$DIMDLI
 40
11.286
  9
$DIMEXE
 40
5.346
  9
$DIMCEN
 40
2.673
  9
$DIMLFAC
 40
1.0
  9
$DIMBLK
  1
_FILLED
  9
$DIMTXT
 40
3.5
  9
$DIMTOL
 70
1
  9
$DIMLIM
 70
0
  9
$DIMTFAC
 40
1.0
  9
$DIMTP
 40
0.005
  9
$DIMTM
 40
0.005
  9
$PDMODE
 70
3
  9
$PDSIZE
 40
0.3125
  9
$HANDSEED
  5
77C
  9
$TILEMODE
 70
1
  9
$MEASUREMENT
 70
1
  9
$INSUNITS
 70
4
  0
ENDSEC
  0
SECTION
  2
CLASSES
  0
CLASS
  1
ACDBDICTIONARYWDFLT
  2
AcDbDictionaryWithDefault
  3
AutoCAD 2000
 90
0
280
0
281
0
  0
CLASS
  1
ACDBPLACEHOLDER
  2
AcDbPlaceHolder
  3
AutoCAD 2000
 90
0
280
0
281
0
  0
CLASS
  1
LAYOUT
  2
AcDbLayout
  3
AutoCAD 2000
 90
0
280
0
281
0
  0
ENDSEC
  0
SECTION
  2
TABLES
  0
TABLE
  2
VPORT
  5
8
100
AcDbSymbolTable
 70
2
  0
VPORT
  5
1F4
100
AcDbSymbolTableRecord
100
AcDbViewportTableRecord
  2
*ACTIVE
 70
0
 10
0.0
 20
0.0
 11
1.0
 21
1.0
 12
148.5
 22
105.0
 13
0.0
 23
0.0
 14
1.0
 24
1.0
 15
0.0
 25
0.0
 16
0.0
 26
0.0
 36
1.0
 17
0.0
 27
0.0
 37
0.0
 40
210.0
 41
1.4142857143
 42
50.0
 43
0.0
 44
0.0
 50
0.0
 51
0.0
 71
0
 72
100
 73
1
 74
1
 75
0
 76
0
 77
0
 78
0
  0
ENDTAB
  0
TABLE
  2
LTYPE
  5
5
100
AcDbSymbolTable
 70
6
  0
LTYPE
  5
14
100
AcDbSymbolTableRecord
100
AcDbLinetypeTableRecord
  2
BYBLOCK
 70
0
  3

 72
65
 73
0
 40
0.0
  0
LTYPE
  5
15
100
AcDbSymbolTableRecord
100
AcDbLinetypeTableRecord
  2
BYLAYER
 70
0
  3

 72
65
 73
0
 40
0.0
  0
LTYPE
  5
16
100
AcDbSymbolTableRecord
100
AcDbLinetypeTableRecord
  2
CONTINUOUS
 70
64
  3
Solid line
 72
65
 73
0
 40
0.0
  0
LTYPE
  5
1F5
100
AcDbSymbolTableRecord
100
AcDbLinetypeTableRecord
  2
CENTER
 70
64
  3
____ _ ____ _ ____ _ ____ _ ____ _ ____ _ ____
 72
65
 73
4
 40
0.6
 49
0.375
 74
0
 49
-0.075
 74
0
 49
0.075
 74
0
 49
-0.075
 74
0
  0
LTYPE
  5
1F6
100
AcDbSymbolTableRecord
100
AcDbLinetypeTableRecord
  2
HIDDEN
 70
64
  3
- - - - - - - - - - - - - - - - - - - -
 72
65
 73
2
 40
0.2
 49
0.1
 74
0
 49
-0.1
 74
0
  0
LTYPE
  5
1F7
100
AcDbSymbolTableRecord
100
AcDbLinetypeTableRecord
  2
PHANTOM
 70
64
  3
_____ _ _ _____ _ _ _____ _ _ _____
 72
65
 73
6
 40
0.8
 49
0.45
 74
0
 49
-0.05
 74
0
 49
0.1
 74
0
 49
-0.05
 74
0
 49
0.1
 74
0
 49
-0.05
 74
0
  0
LTYPE
  5
1F8
100
AcDbSymbolTableRecord
100
AcDbLinetypeTableRecord
  2
DOT
 70
64
  3
. . . . . . . . . . . . . . . . . . . .
 72
65
 73
2
 40
0.2
 49
0.1
 74
0
 49
-0.1
 74
0
  0
LTYPE
  5
1F9
100
AcDbSymbolTableRecord
100
AcDbLinetypeTableRecord
  2
DASHED
 70
64
  3
- - - - - - - - - - - - - - - - - - - -
 72
65
 73
2
 40
0.2
 49
0.1
 74
0
 49
-0.1
 74
0
  0
ENDTAB
  0
TABLE
  2
LAYER
  5
2
100
AcDbSymbolTable
 70
36
  0
LAYER
  5
10
100
AcDbSymbolTableRecord
100
AcDbLayerTableRecord
  2
0
 70
0
 62
7
  6
CONTINUOUS
370
-3
390
F
  0
LAYER
  5
1FA
100
AcDbSymbolTableRecord
100
AcDbLayerTableRecord
  2
DEFAULT_1
 70
0
 62
7
  6
CENTER
370
-3
390
F
  0
LAYER
  5
1FB
100
AcDbSymbolTableRecord
100
AcDbLayerTableRecord
  2
DEFAULT_2
 70
0
 62
8
  6
HIDDEN
370
-3
390
F
  0
LAYER
  5
1FC
100
AcDbSymbolTableRecord
100
AcDbLayerTableRecord
  2
DEFAULT_3
 70
0
 62
7
  6
PHANTOM
370
-3
390
F
  0
LAYER
  5
1FD
100
AcDbSymbolTableRecord
100
AcDbLayerTableRecord
  2
01___PRT_ALL_DTM_PLN
 70
0
 62
7
  6
CONTINUOUS
370
-3
390
F
  0
LAYER
  5
1FE
100
AcDbSymbolTableRecord
100
AcDbLayerTableRecord
  2
01___PRT_DEF_DTM_PLN
 70
0
 62
7
  6
CONTINUOUS
370
-3
390
F
  0
LAYER
  5
1FF
100
AcDbSymbolTableRecord
100
AcDbLayerTableRecord
  2
02___PRT_ALL_AXES
 70
0
 62
7
  6
CONTINUOUS
370
-3
390
F
  0
LAYER
  5
200
100
AcDbSymbolTableRecord
100
AcDbLayerTableRecord
  2
03___PRT_ALL_CURVES
 70
0
 62
7
  6
CONTINUOUS
370
-3
390
F
  0
LAYER
  5
201
100
AcDbSymbolTableRecord
100
AcDbLayerTableRecord
  2
04___PRT_ALL_DTM_PNT
 70
0
 62
7
  6
CONTINUOUS
370
-3
390
F
  0
LAYER
  5
202
100
AcDbSymbolTableRecord
100
AcDbLayerTableRecord
  2
05___PRT_ALL_DTM_CSYS
 70
0
 62
7
  6
CONTINUOUS
370
-3
390
F
  0
LAYER
  5
203
100
AcDbSymbolTableRecord
100
AcDbLayerTableRecord
  2
05___PRT_DEF_DTM_CSYS
 70
0
 62
7
  6
CONTINUOUS
370
-3
390
F
  0
LAYER
  5
204
100
AcDbSymbolTableRecord
100
AcDbLayerTableRecord
  2
06___PRT_ALL_SURFS
 70
0
 62
7
  6
CONTINUOUS
370
-3
390
F
  0
LAYER
  5
205
100
AcDbSymbolTableRecord
100
AcDbLayerTableRecord
  2
AUSFORMSCHRAEGEN
 70
0
 62
7
  6
CONTINUOUS
370
-3
390
F
  0
LAYER
  5
206
100
AcDbSymbolTableRecord
100
AcDbLayerTableRecord
  2
BEZUGSACHSEN
 70
0
 62
7
  6
CONTINUOUS
370
-3
390
F
  0
LAYER
  5
207
100
AcDbSymbolTableRecord
100
AcDbLayerTableRecord
  2
BEZUGSEBENEN
 70
0
 62
7
  6
CONTINUOUS
370
-3
390
F
  0
LAYER
  5
208
100
AcDbSymbolTableRecord
100
AcDbLayerTableRecord
  2
BOHRUNGEN
 70
0
 62
7
  6
CONTINUOUS
370
-3
390
F
  0
LAYER
  5
209
100
AcDbSymbolTableRecord
100
AcDbLayerTableRecord
  2
FASEN
 70
0
 62
7
  6
CONTINUOUS
370
-3
390
F
  0
LAYER
  5
20A
100
AcDbSymbolTableRecord
100
AcDbLayerTableRecord
  2
GEWINDE
 70
0
 62
7
  6
CONTINUOUS
370
-3
390
F
  0
LAYER
  5
20B
100
AcDbSymbolTableRecord
100
AcDbLayerTableRecord
  2
KURVEN
 70
0
 62
7
  6
CONTINUOUS
370
-3
390
F
  0
LAYER
  5
20C
100
AcDbSymbolTableRecord
100
AcDbLayerTableRecord
  2
RUNDUNGEN
 70
0
 62
7
  6
CONTINUOUS
370
-3
390
F
  0
LAYER
  5
20D
100
AcDbSymbolTableRecord
100
AcDbLayerTableRecord
  2
ZEICHNUNGSBEMASSUNGEN
 70
0
 62
7
  6
CONTINUOUS
370
-3
390
F
  0
ENDTAB
  0
TABLE
  2
STYLE
  5
3
100
AcDbSymbolTable
 70
1
  0
STYLE
  5
11
100
AcDbSymbolTableRecord
100
AcDbTextStyleTableRecord
  2
STANDARD
 70
0
 40
0.0
 41
0.7
 50
0.0
 71
0
 42
0.2
  3
txt
  4

  0
STYLE
  5
20E
100
AcDbSymbolTableRecord
100
AcDbTextStyleTableRecord
  2
TEXTSTYLE_1
 70
0
 40
0.0
 41
0.8
 50
0.0
 71
0
 42
0.2
  3
gdt
  4

  0
ENDTAB
  0
TABLE
  2
VIEW
  5
6
100
AcDbSymbolTable
 70
0
  0
ENDTAB
  0
TABLE
  2
UCS
  5
7
100
AcDbSymbolTable
 70
0
  0
ENDTAB
  0
TABLE
  2
APPID
  5
9
100
AcDbSymbolTable
 70
1
  0
APPID
  5
20F
100
AcDbSymbolTableRecord
100
AcDbRegAppTableRecord
  2
ACAD
 70
0
  0
ENDTAB
  0
TABLE
  2
BLOCK_RECORD
  5
1
100
AcDbSymbolTable
 70
0
  0
BLOCK_RECORD
  5
210
100
AcDbSymbolTableRecord
100
AcDbBlockTableRecord
  2
*Model_Space
  0
BLOCK_RECORD
  5
211
100
AcDbSymbolTableRecord
100
AcDbBlockTableRecord
  2
*Paper_Space
  0
ENDTAB
  0
TABLE
  2
DIMSTYLE
  5
A
100
AcDbSymbolTable
 70
1
100
AcDbDimStyleTable
 71
0
  0
DIMSTYLE
105
212
100
AcDbSymbolTableRecord
100
AcDbDimStyleTableRecord
  2
STANDARD
 70
0
  3

  4

 40
1.0
 41
3.5
 42
0.0625
 43
0.38
 44
0.18
 45
0.0
 46
0.0
 47
0.005
 48
0.005
140
3.5
141
0.09
142
0.0
143
25.4
144
1.0
145
0.0
146
1.0
147
0.09
 71
1.0
 72
0.0
 73
0
 74
0
 75
0
 76
0
 77
1
 78
8
170
0
171
2
172
0
173
0
174
0
175
0
176
0
177
0
178
5
270
2
271
3
272
3
273
2
274
2
275
0
280
0
281
0
282
0
283
1
284
8
285
0
286
0
287
3
288
0
340
11
  0
ENDTAB
  0
ENDSEC
  0
SECTION
  2
BLOCKS
  0
BLOCK
  5
20
100
AcDbEntity
  8
0
100
AcDbBlockBegin
  2
*Model_Space
 70
0
 10
0.0
 20
0.0
 30
0.0
  3
*Model_Space
  1

  0
ENDBLK
  5
21
100
AcDbEntity
  8
0
100
AcDbBlockEnd
  0
BLOCK
  5
1C
100
AcDbEntity
  8
0
100
AcDbBlockBegin
  2
*Paper_Space
 70
0
 10
0.0
 20
0.0
 30
0.0
  3
*Paper_Space
  1

  0
ENDBLK
  5
1D
100
AcDbEntity
  8
0
100
AcDbBlockEnd
  0
ENDSEC
  0
SECTION
  2
ENTITIES
  0
LINE
  5
213
100
AcDbEntity
  8
0
100
AcDbLine
 62
7
  6
CONTINUOUS
 10
0.0
 20
0.0
 11
0.0
 21
210.0
  0
LINE
  5
214
100
AcDbEntity
  8
0
100
AcDbLine
 62
7
  6
CONTINUOUS
 10
0.0
 20
0.0
 11
297.0
 21
0.0
  0
LINE
  5
215
100
AcDbEntity
  8
0
100
AcDbLine
 62
7
  6
CONTINUOUS
 10
0.0
 20
210.0
 11
297.0
 21
210.0
  0
LINE
  5
216
100
AcDbEntity
  8
0
100
AcDbLine
 62
7
  6
CONTINUOUS
 10
297.0
 20
0.0
 11
297.0
 21
210.0
  0
LINE
  5
217
100
AcDbEntity
  8
RUNDUNGEN
100
AcDbLine
 62
7
  6
CONTINUOUS
 10
34.9388893695
 20
108.6303910236
 11
34.9388893695
 21
102.6303910236
  0
LINE
  5
218
100
AcDbEntity
  8
RUNDUNGEN
100
AcDbLine
 62
7
  6
CONTINUOUS
 10
42.2066578387
 20
138.0300931237
 11
41.2522160077
 21
135.0926232131
  0
LINE
  5
219
100
AcDbEntity
  8
RUNDUNGEN
100
AcDbLine
 62
7
  6
CONTINUOUS
 10
37.7057145214
 20
124.1776139741
 11
36.7512733427
 21
121.2401460713
  0
LINE
  5
21A
100
AcDbEntity
  8
RUNDUNGEN
100
AcDbLine
 62
7
  6
CONTINUOUS
 10
51.6789473175
 20
154.1509917817
 11
48.1522358037
 21
149.2968898154
  0
LINE
  5
21B
100
AcDbEntity
  8
RUNDUNGEN
100
AcDbLine
 62
7
  6
CONTINUOUS
 10
74.8394145581
 20
173.6639688969
 11
72.3406456829
 21
171.8485070414
  0
LINE
  5
21C
100
AcDbEntity
  8
RUNDUNGEN
100
AcDbLine
 62
7
  6
CONTINUOUS
 10
63.0557842503
 20
165.102660344
 11
60.5570248043
 21
163.2872053392
  0
LINE
  5
21D
100
AcDbEntity
  8
RUNDUNGEN
100
AcDbLine
 62
7
  6
CONTINUOUS
 10
91.9782764854
 20
181.1383722047
 11
86.2719373876
 21
179.2842702384
  0
LINE
  5
21E
100
AcDbEntity
  8
RUNDUNGEN
100
AcDbLine
 62
7
  6
CONTINUOUS
 10
104.5309214375
 20
27.9494608256
 11
107.6195601752
 21
27.9494608256
  0
LINE
  5
21F
100
AcDbEntity
  8
RUNDUNGEN
100
AcDbLine
 62
7
  6
CONTINUOUS
 10
119.0962800672
 20
27.9494608256
 11
122.1849193671
 21
27.9494608256
  0
LINE
  5
220
100
AcDbEntity
  8
RUNDUNGEN
100
AcDbLine
 62
7
  6
CONTINUOUS
 10
86.2719373876
 20
31.9765118088
 11
91.9782764854
 21
30.1224098425
  0
LINE
  5
221
100
AcDbEntity
  8
RUNDUNGEN
100
AcDbLine
 62
7
  6
CONTINUOUS
 10
60.5570230964
 20
47.9735779488
 11
63.0557842503
 21
46.1581217032
  0
LINE
  5
222
100
AcDbEntity
  8
RUNDUNGEN
100
AcDbLine
 62
7
  6
CONTINUOUS
 10
72.3406456826
 20
39.412275006
 11
74.8394072063
 21
37.5968184916
  0
LINE
  5
223
100
AcDbEntity
  8
RUNDUNGEN
100
AcDbLine
 62
7
  6
CONTINUOUS
 10
48.1522358037
 20
61.9638922318
 11
51.6789473175
 21
57.1097902655
  0
LINE
  5
224
100
AcDbEntity
  8
RUNDUNGEN
100
AcDbLine
 62
7
  6
CONTINUOUS
 10
36.7512729901
 20
90.0206370609
 11
37.7057145214
 21
87.083168073
  0
LINE
  5
225
100
AcDbEntity
  8
RUNDUNGEN
100
AcDbLine
 62
7
  6
CONTINUOUS
 10
41.2522160077
 20
76.1681588341
 11
42.20665798
 21
73.2306884888
  0
LINE
  5
226
100
AcDbEntity
  8
RUNDUNGEN
100
AcDbLine
 62
7
  6
CONTINUOUS
 10
39.3964757145
 20
96.4149055294
 11
39.376086721
 21
96.8003857376
  0
LINE
  5
227
100
AcDbEntity
  8
RUNDUNGEN
100
AcDbLine
 62
7
  6
CONTINUOUS
 10
39.3964756619
 20
114.8458764984
 11
39.3760866711
 21
114.4603963312
  0
LINE
  5
228
100
AcDbEntity
  8
RUNDUNGEN
100
AcDbLine
 62
7
  6
CONTINUOUS
 10
39.3423874843
 20
96.0326377716
 11
39.3964757145
 21
96.4149055294
  0
LWPOLYLINE
  5
229
100
AcDbEntity
  8
RUNDUNGEN
100
AcDbPolyline
 62
7
  6
CONTINUOUS
 90
3
 70
0
 10
46.8676574157
 20
124.8685969798
 10
46.8647796163
 20
124.8490240798
 10
46.7394131149
 20
124.0624189038
  0
LINE
  5
22A
100
AcDbEntity
  8
RUNDUNGEN
100
AcDbLine
 62
7
  6
CONTINUOUS
 10
46.7394131149
 20
124.0624189038
 11
46.7092729754
 21
123.8685969798
  0
LINE
  5
22B
100
AcDbEntity
  8
RUNDUNGEN
100
AcDbLine
 62
7
  6
CONTINUOUS
 10
48.4590987392
 20
142.3303420259
 11
48.5314211131
 21
142.7094329354
  0
LINE
  5
22C
100
AcDbEntity
  8
RUNDUNGEN
100
AcDbLine
 62
7
  6
CONTINUOUS
 10
39.3760866711
 20
114.4603963312
 11
39.2819807015
 21
114.0860771003
  0
LINE
  5
22D
100
AcDbEntity
  8
RUNDUNGEN
100
AcDbLine
 62
7
  6
CONTINUOUS
 10
48.3152127407
 20
141.9721972971
 11
48.4590987392
 21
142.3303420259
  0
LINE
  5
22E
100
AcDbEntity
  8
RUNDUNGEN
100
AcDbLine
 62
7
  6
CONTINUOUS
 10
39.2819807015
 20
114.0860771003
 11
39.1176666882
 21
113.7368760926
  0
LWPOLYLINE
  5
22F
100
AcDbEntity
  8
RUNDUNGEN
100
AcDbPolyline
 62
7
  6
CONTINUOUS
 90
3
 70
0
 10
48.2582338904
 20
129.1483513031
 10
48.267019199
 20
129.1660769482
 10
48.6293241943
 20
129.8754425472
  0
LINE
  5
230
100
AcDbEntity
  8
RUNDUNGEN
100
AcDbLine
 62
7
  6
CONTINUOUS
 10
48.6293241943
 20
129.8754425472
 11
48.7178834388
 21
130.0504643357
  0
LINE
  5
231
100
AcDbEntity
  8
RUNDUNGEN
100
AcDbLine
 62
7
  6
CONTINUOUS
 10
59.1195141418
 20
156.9003750619
 11
58.9385810799
 21
156.5593216755
  0
LINE
  5
232
100
AcDbEntity
  8
RUNDUNGEN
100
AcDbLine
 62
7
  6
CONTINUOUS
 10
48.1051282015
 20
141.6483529081
 11
48.3152127407
 21
141.9721972971
  0
LINE
  5
233
100
AcDbEntity
  8
RUNDUNGEN
100
AcDbLine
 62
7
  6
CONTINUOUS
 10
58.9385810799
 20
156.5593216755
 11
58.6955064825
 21
156.2594460173
  0
LINE
  5
234
100
AcDbEntity
  8
RUNDUNGEN
100
AcDbLine
 62
7
  6
CONTINUOUS
 10
47.8366785535
 20
141.3708840597
 11
48.1051282015
 21
141.6483529081
  0
LWPOLYLINE
  5
235
100
AcDbEntity
  8
RUNDUNGEN
100
AcDbPolyline
 62
7
  6
CONTINUOUS
 90
3
 70
0
 10
70.8741013736
 20
160.2764224228
 10
70.860268523
 20
160.2622791421
 10
70.296489971
 20
159.6995907675
  0
LINE
  5
236
100
AcDbEntity
  8
RUNDUNGEN
100
AcDbLine
 62
7
  6
CONTINUOUS
 10
70.296489971
 20
159.6995907675
 11
70.1581804174
 21
159.5605014666
  0
LINE
  5
237
100
AcDbEntity
  8
RUNDUNGEN
100
AcDbLine
 62
7
  6
CONTINUOUS
 10
82.4253607261
 20
173.4678451696
 11
82.7066948096
 21
173.7320261128
  0
LINE
  5
238
100
AcDbEntity
  8
RUNDUNGEN
100
AcDbLine
 62
7
  6
CONTINUOUS
 10
58.6955064825
 20
156.2594460173
 11
58.3993538303
 21
156.0119294994
  0
LINE
  5
239
100
AcDbEntity
  8
RUNDUNGEN
100
AcDbLine
 62
7
  6
CONTINUOUS
 10
82.0984423062
 20
173.2626740949
 11
82.4253607261
 21
173.4678451696
  0
LINE
  5
23A
100
AcDbEntity
  8
RUNDUNGEN
100
AcDbLine
 62
7
  6
CONTINUOUS
 10
58.3993538303
 20
156.0119294994
 11
58.0611657987
 21
155.8260013035
  0
LWPOLYLINE
  5
23B
100
AcDbEntity
  8
RUNDUNGEN
100
AcDbPolyline
 62
7
  6
CONTINUOUS
 90
3
 70
0
 10
74.5146778483
 20
162.9214560581
 10
74.532204185
 20
162.9306325314
 10
75.2422697209
 20
163.2915638231
  0
LINE
  5
23C
100
AcDbEntity
  8
RUNDUNGEN
100
AcDbLine
 62
7
  6
CONTINUOUS
 10
75.2422697209
 20
163.2915638231
 11
75.4167908809
 21
163.3811056065
  0
LINE
  5
23D
100
AcDbEntity
  8
RUNDUNGEN
100
AcDbLine
 62
7
  6
CONTINUOUS
 10
99.6138684308
 20
178.9892145612
 11
99.2670243859
 21
178.8196463649
  0
LINE
  5
23E
100
AcDbEntity
  8
RUNDUNGEN
100
AcDbLine
 62
7
  6
CONTINUOUS
 10
81.7381293749
 20
173.1241631137
 11
82.0984423062
 21
173.2626740949
  0
LINE
  5
23F
100
AcDbEntity
  8
RUNDUNGEN
100
AcDbLine
 62
7
  6
CONTINUOUS
 10
127.4488158747
 20
32.4411356925
 11
127.8217298456
 21
32.540864533
  0
LINE
  5
240
100
AcDbEntity
  8
RUNDUNGEN
100
AcDbLine
 62
7
  6
CONTINUOUS
 10
145.3579833257
 20
38.2033052646
 11
144.9777109013
 21
38.136618995
  0
LWPOLYLINE
  5
241
100
AcDbEntity
  8
RUNDUNGEN
100
AcDbPolyline
 62
7
  6
CONTINUOUS
 90
3
 70
0
 10
115.6079201212
 20
36.4494608256
 10
115.6274243441
 20
36.4527722345
 10
116.414270702
 20
36.5766159736
  0
LINE
  5
242
100
AcDbEntity
  8
RUNDUNGEN
100
AcDbLine
 62
7
  6
CONTINUOUS
 10
116.414270702
 20
36.5766159736
 11
116.6079201212
 21
36.607845266
  0
LINE
  5
243
100
AcDbEntity
  8
RUNDUNGEN
100
AcDbLine
 62
7
  6
CONTINUOUS
 10
98.5090312946
 20
32.567035496
 11
98.1261455723
 21
32.5186726275
  0
LINE
  5
244
100
AcDbEntity
  8
RUNDUNGEN
100
AcDbLine
 62
7
  6
CONTINUOUS
 10
127.8217298456
 20
32.540864533
 11
128.2068089331
 21
32.567035441
  0
LINE
  5
245
100
AcDbEntity
  8
RUNDUNGEN
100
AcDbLine
 62
7
  6
CONTINUOUS
 10
98.8941103915
 20
32.5408645872
 11
98.5090312946
 21
32.567035496
  0
LINE
  5
246
100
AcDbEntity
  8
RUNDUNGEN
100
AcDbLine
 62
7
  6
CONTINUOUS
 10
128.2068089331
 20
32.567035441
 11
128.5896946495
 21
32.5186725738
  0
LWPOLYLINE
  5
247
100
AcDbEntity
  8
RUNDUNGEN
100
AcDbPolyline
 62
7
  6
CONTINUOUS
 90
3
 70
0
 10
111.1079201212
 20
36.4494608256
 10
111.0883472212
 20
36.452338625
 10
110.3017420452
 20
36.5777051264
  0
LINE
  5
248
100
AcDbEntity
  8
RUNDUNGEN
100
AcDbLine
 62
7
  6
CONTINUOUS
 10
110.3017420452
 20
36.5777051264
 11
110.1079201212
 21
36.607845266
  0
LINE
  5
249
100
AcDbEntity
  8
RUNDUNGEN
100
AcDbLine
 62
7
  6
CONTINUOUS
 10
81.3578569066
 20
38.2033052143
 11
81.7381293419
 21
38.1366189396
  0
LINE
  5
24A
100
AcDbEntity
  8
RUNDUNGEN
100
AcDbLine
 62
7
  6
CONTINUOUS
 10
99.2670244008
 20
32.4411357368
 11
98.8941103915
 21
32.5408645872
  0
LINE
  5
24B
100
AcDbEntity
  8
RUNDUNGEN
100
AcDbLine
 62
7
  6
CONTINUOUS
 10
81.7381293419
 20
38.1366189396
 11
82.0984422234
 21
37.9981079339
  0
LINE
  5
24C
100
AcDbEntity
  8
RUNDUNGEN
100
AcDbLine
 62
7
  6
CONTINUOUS
 10
99.6138684605
 20
32.2715675394
 11
99.2670244008
 21
32.4411357368
  0
LWPOLYLINE
  5
24D
100
AcDbEntity
  8
RUNDUNGEN
100
AcDbPolyline
 62
7
  6
CONTINUOUS
 90
3
 70
0
 10
74.5146778483
 20
48.3393259891
 10
74.5324034934
 20
48.3305406805
 10
75.2417690923
 20
47.9682356852
  0
LINE
  5
24E
100
AcDbEntity
  8
RUNDUNGEN
100
AcDbLine
 62
7
  6
CONTINUOUS
 10
75.2417690923
 20
47.9682356852
 11
75.4167908809
 21
47.8796764407
  0
LINE
  5
24F
100
AcDbEntity
  8
RUNDUNGEN
100
AcDbLine
 62
7
  6
CONTINUOUS
 10
58.3993538508
 20
55.2488526009
 11
58.0611658137
 21
55.4347807992
  0
LINE
  5
250
100
AcDbEntity
  8
RUNDUNGEN
100
AcDbLine
 62
7
  6
CONTINUOUS
 10
82.0984422234
 20
37.9981079339
 11
82.4253606232
 21
37.7929368347
  0
LINE
  5
251
100
AcDbEntity
  8
RUNDUNGEN
100
AcDbLine
 62
7
  6
CONTINUOUS
 10
58.6955065101
 20
55.0013360767
 11
58.3993538508
 21
55.2488526009
  0
LINE
  5
252
100
AcDbEntity
  8
RUNDUNGEN
100
AcDbLine
 62
7
  6
CONTINUOUS
 10
82.4253606232
 20
37.7929368347
 11
82.7066946945
 21
37.5287558757
  0
LWPOLYLINE
  5
253
100
AcDbEntity
  8
RUNDUNGEN
100
AcDbPolyline
 62
7
  6
CONTINUOUS
 90
3
 70
0
 10
70.8741013736
 20
50.9843596244
 10
70.8599580929
 20
50.998192475
 10
70.2972697183
 20
51.561971027
  0
LINE
  5
254
100
AcDbEntity
  8
RUNDUNGEN
100
AcDbLine
 62
7
  6
CONTINUOUS
 10
70.2972697183
 20
51.561971027
 11
70.1581804174
 21
51.7002805806
  0
LINE
  5
255
100
AcDbEntity
  8
RUNDUNGEN
100
AcDbLine
 62
7
  6
CONTINUOUS
 10
47.8366785157
 20
69.8898979526
 11
48.1051281696
 21
69.6124290938
  0
LINE
  5
256
100
AcDbEntity
  8
RUNDUNGEN
100
AcDbLine
 62
7
  6
CONTINUOUS
 10
58.9385811336
 20
54.701460387
 11
58.6955065101
 21
55.0013360767
  0
LINE
  5
257
100
AcDbEntity
  8
RUNDUNGEN
100
AcDbLine
 62
7
  6
CONTINUOUS
 10
48.1051281696
 20
69.6124290938
 11
48.3152126876
 21
69.2885847383
  0
LINE
  5
258
100
AcDbEntity
  8
RUNDUNGEN
100
AcDbLine
 62
7
  6
CONTINUOUS
 10
59.1195141866
 20
54.3604070104
 11
58.9385811336
 21
54.701460387
  0
LWPOLYLINE
  5
259
100
AcDbEntity
  8
RUNDUNGEN
100
AcDbPolyline
 62
7
  6
CONTINUOUS
 90
3
 70
0
 10
48.2582338904
 20
82.1124307441
 10
48.2674103637
 20
82.0949044074
 10
48.6283416554
 20
81.3848388715
  0
LINE
  5
25A
100
AcDbEntity
  8
RUNDUNGEN
100
AcDbLine
 62
7
  6
CONTINUOUS
 10
48.6283416554
 20
81.3848388715
 11
48.7178834388
 21
81.2103177115
  0
LINE
  5
25B
100
AcDbEntity
  8
RUNDUNGEN
100
AcDbLine
 62
7
  6
CONTINUOUS
 10
39.2819807492
 20
97.1747049776
 11
39.1176667328
 21
97.5239059905
  0
LINE
  5
25C
100
AcDbEntity
  8
RUNDUNGEN
100
AcDbLine
 62
7
  6
CONTINUOUS
 10
48.3152126876
 20
69.2885847383
 11
48.4590986825
 21
68.9304400182
  0
LINE
  5
25D
100
AcDbEntity
  8
RUNDUNGEN
100
AcDbLine
 62
7
  6
CONTINUOUS
 10
39.376086721
 20
96.8003857376
 11
39.2819807492
 21
97.1747049776
  0
LINE
  5
25E
100
AcDbEntity
  8
RUNDUNGEN
100
AcDbLine
 62
7
  6
CONTINUOUS
 10
48.4590986825
 20
68.9304400182
 11
48.5314210557
 21
68.5513491147
  0
LWPOLYLINE
  5
25F
100
AcDbEntity
  8
RUNDUNGEN
100
AcDbPolyline
 62
7
  6
CONTINUOUS
 90
3
 70
0
 10
46.8676574157
 20
86.3921850674
 10
46.8643460068
 20
86.4116892904
 10
46.7405022677
 20
87.1985356482
  0
LINE
  5
260
100
AcDbEntity
  8
RUNDUNGEN
100
AcDbLine
 62
7
  6
CONTINUOUS
 10
46.7405022677
 20
87.1985356482
 11
46.7092729754
 21
87.3921850674
  0
LINE
  5
261
100
AcDbEntity
  8
RUNDUNGEN
100
AcDbLine
 62
7
  6
CONTINUOUS
 10
39.3423874331
 20
115.2281442694
 11
39.3964756619
 21
114.8458764984
  0
LINE
  5
262
100
AcDbEntity
  8
RUNDUNGEN
100
AcDbLine
 62
7
  6
CONTINUOUS
 10
47.9664294039
 20
148.6074855967
 11
48.5294831065
 21
143.0953355009
  0
LINE
  5
263
100
AcDbEntity
  8
RUNDUNGEN
100
AcDbLine
 62
7
  6
CONTINUOUS
 10
48.5314211131
 20
142.7094329354
 11
48.5294831745
 21
143.095334845
  0
LINE
  5
264
100
AcDbEntity
  8
RUNDUNGEN
100
AcDbLine
 62
7
  6
CONTINUOUS
 10
48.5314210557
 20
68.5513491147
 11
48.5294831196
 21
68.1654472078
  0
LINE
  5
265
100
AcDbEntity
  8
RUNDUNGEN
100
AcDbLine
 62
7
  6
CONTINUOUS
 10
48.5294830977
 20
68.16544646
 11
47.9664294039
 21
62.6532964505
  0
LINE
  5
266
100
AcDbEntity
  8
RUNDUNGEN
100
AcDbLine
 62
7
  6
CONTINUOUS
 10
59.2280530446
 20
157.2686321731
 11
60.071455596
 21
161.4656696956
  0
LINE
  5
267
100
AcDbEntity
  8
RUNDUNGEN
100
AcDbLine
 62
7
  6
CONTINUOUS
 10
59.2315591559
 20
157.2698892379
 11
59.1195141418
 21
156.9003750619
  0
LINE
  5
268
100
AcDbEntity
  8
RUNDUNGEN
100
AcDbLine
 62
7
  6
CONTINUOUS
 10
39.2158388208
 20
95.6678360998
 11
39.3423874843
 21
96.0326377716
  0
LINE
  5
269
100
AcDbEntity
  8
RUNDUNGEN
100
AcDbLine
 62
7
  6
CONTINUOUS
 10
37.4291321181
 20
91.7797448846
 11
39.2137411671
 21
95.6709139853
  0
LINE
  5
26A
100
AcDbEntity
  8
RUNDUNGEN
100
AcDbLine
 62
7
  6
CONTINUOUS
 10
85.7163952198
 20
178.8357447711
 11
82.9319547353
 21
174.0453670674
  0
LINE
  5
26B
100
AcDbEntity
  8
RUNDUNGEN
100
AcDbLine
 62
7
  6
CONTINUOUS
 10
82.7066948096
 20
173.7320261128
 11
82.9319544373
 21
174.045366395
  0
LINE
  5
26C
100
AcDbEntity
  8
RUNDUNGEN
100
AcDbLine
 62
7
  6
CONTINUOUS
 10
39.1176666882
 20
113.7368760926
 11
38.8892714152
 21
113.425813982
  0
LINE
  5
26D
100
AcDbEntity
  8
RUNDUNGEN
100
AcDbLine
 62
7
  6
CONTINUOUS
 10
38.8892709577
 20
113.4258133896
 11
35.193790467
 21
109.2973450141
  0
LINE
  5
26E
100
AcDbEntity
  8
0
100
AcDbLine
 62
7
  6
CONTINUOUS
 10
89.1922061189
 20
167.9153393622
 11
89.0762628422
 21
167.8007470528
  0
LINE
  5
26F
100
AcDbEntity
  8
0
100
AcDbLine
 62
7
  6
CONTINUOUS
 10
90.5773596179
 20
168.637368996
 11
90.4583316291
 21
168.5259841737
  0
LINE
  5
270
100
AcDbEntity
  8
RUNDUNGEN
100
AcDbLine
 62
7
  6
CONTINUOUS
 10
103.0673984285
 20
182.1230602265
 11
99.9181274631
 21
179.2233369037
  0
LINE
  5
271
100
AcDbEntity
  8
RUNDUNGEN
100
AcDbLine
 62
7
  6
CONTINUOUS
 10
99.9217097342
 20
179.2222994049
 11
99.6138684308
 21
178.9892145612
  0
LINE
  5
272
100
AcDbEntity
  8
0
100
AcDbLine
 62
7
  6
CONTINUOUS
 10
91.783972577
 20
169.1280686588
 11
91.6147669304
 21
169.0037963223
  0
LINE
  5
273
100
AcDbEntity
  8
0
100
AcDbLine
 62
7
  6
CONTINUOUS
 10
91.7909610762
 20
168.7936928807
 11
91.960166994
 21
168.9179653085
  0
LINE
  5
274
100
AcDbEntity
  8
0
100
AcDbLine
 62
7
  6
CONTINUOUS
 10
92.8074192821
 20
167.6540676688
 11
92.6382133714
 21
167.5297952199
  0
LINE
  5
275
100
AcDbEntity
  8
0
100
AcDbLine
 62
7
  6
CONTINUOUS
 10
92.8144077956
 20
167.3196918483
 11
92.9836134404
 21
167.4439641901
  0
LINE
  5
276
100
AcDbEntity
  8
0
100
AcDbLine
 62
7
  6
CONTINUOUS
 10
89.1708425239
 20
167.4262776326
 11
89.379755174
 21
167.5777034205
  0
LINE
  5
277
100
AcDbEntity
  8
RUNDUNGEN
100
AcDbLine
 62
7
  6
CONTINUOUS
 10
47.5198734912
 20
141.1501367459
 11
47.8366785535
 21
141.3708840597
  0
LINE
  5
278
100
AcDbEntity
  8
0
100
AcDbLine
 62
7
  6
CONTINUOUS
 10
90.790327612
 20
168.7830358302
 11
90.5773596179
 21
168.637368996
  0
LINE
  5
279
100
AcDbEntity
  8
0
100
AcDbLine
 62
7
  6
CONTINUOUS
 10
95.1263921049
 20
170.1669052145
 11
94.9512776442
 21
170.0511075889
  0
LINE
  5
27A
100
AcDbEntity
  8
0
100
AcDbLine
 62
7
  6
CONTINUOUS
 10
95.0206886027
 20
169.8054045748
 11
95.1958030634
 21
169.9212022005
  0
LINE
  5
27B
100
AcDbEntity
  8
0
100
AcDbLine
 62
7
  6
CONTINUOUS
 10
90.6398002483
 20
168.3204191634
 11
90.8997383794
 21
168.4832270525
  0
LINE
  5
27C
100
AcDbEntity
  8
RUNDUNGEN
100
AcDbLine
 62
7
  6
CONTINUOUS
 10
43.7890347292
 20
139.0548047267
 11
47.5199855262
 21
141.1538597414
  0
LINE
  5
27D
100
AcDbEntity
  8
RUNDUNGEN
100
AcDbLine
 62
7
  6
CONTINUOUS
 10
134.0244840472
 20
181.1020469724
 11
128.9561109422
 21
178.8632030242
  0
LINE
  5
27E
100
AcDbEntity
  8
0
100
AcDbLine
 62
7
  6
CONTINUOUS
 10
88.5595638165
 20
168.9691728636
 11
87.4439318675
 21
168.5271713316
  0
LINE
  5
27F
100
AcDbEntity
  8
0
100
AcDbLine
 62
7
  6
CONTINUOUS
 10
87.8403934396
 20
168.3409611253
 11
88.7236020216
 21
168.6908789872
  0
LINE
  5
280
100
AcDbEntity
  8
0
100
AcDbLine
 62
7
  6
CONTINUOUS
 10
89.0762628422
 20
167.8007470528
 11
88.1930542602
 21
167.4508291909
  0
LINE
  5
281
100
AcDbEntity
  8
0
100
AcDbLine
 62
7
  6
CONTINUOUS
 10
88.3341185621
 20
167.0947764836
 11
89.1708425239
 21
167.4262776326
  0
LINE
  5
282
100
AcDbEntity
  8
0
100
AcDbLine
 62
7
  6
CONTINUOUS
 10
88.5489356974
 20
165.738091459
 11
88.8278436846
 21
165.848591842
  0
LINE
  5
283
100
AcDbEntity
  8
0
100
AcDbLine
 62
7
  6
CONTINUOUS
 10
90.1797169058
 20
168.5602025081
 11
89.9448667582
 21
168.4744974294
  0
LINE
  5
284
100
AcDbEntity
  8
0
100
AcDbLine
 62
7
  6
CONTINUOUS
 10
90.6450957306
 20
166.5557210845
 11
90.8799458782
 21
166.6414261631
  0
LINE
  5
285
100
AcDbEntity
  8
0
100
AcDbLine
 62
7
  6
CONTINUOUS
 10
92.163091667
 20
169.2556181322
 11
91.783972577
 21
169.1280686588
  0
LINE
  5
286
100
AcDbEntity
  8
0
100
AcDbLine
 62
7
  6
CONTINUOUS
 10
91.960166994
 20
168.9179653085
 11
92.1497262679
 21
168.9817399539
  0
LINE
  5
287
100
AcDbEntity
  8
0
100
AcDbLine
 62
7
  6
CONTINUOUS
 10
92.6382133714
 20
167.5297952199
 11
92.4486540976
 21
167.4660205744
  0
LINE
  5
288
100
AcDbEntity
  8
0
100
AcDbLine
 62
7
  6
CONTINUOUS
 10
92.4352887056
 20
167.192142375
 11
92.8144077956
 21
167.3196918483
  0
LINE
  5
289
100
AcDbEntity
  8
RUNDUNGEN
100
AcDbLine
 62
7
  6
CONTINUOUS
 10
128.5896946699
 20
178.7421094199
 11
128.9561103398
 21
178.8632027573
  0
LINE
  5
28A
100
AcDbEntity
  8
RUNDUNGEN
100
AcDbLine
 62
7
  6
CONTINUOUS
 10
58.0611657987
 20
155.8260013035
 11
57.6935524202
 21
155.7085941428
  0
LINE
  5
28B
100
AcDbEntity
  8
0
100
AcDbLine
 62
7
  6
CONTINUOUS
 10
93.1056779325
 20
170.5653311308
 11
92.8671532075
 21
170.4904575645
  0
LINE
  5
28C
100
AcDbEntity
  8
0
100
AcDbLine
 62
7
  6
CONTINUOUS
 10
93.7656353181
 20
167.6281630484
 11
94.0041600431
 21
167.7030366147
  0
LINE
  5
28D
100
AcDbEntity
  8
0
100
AcDbLine
 62
7
  6
CONTINUOUS
 10
93.7558312421
 20
170.7645439081
 11
93.5165699403
 21
170.692058566
  0
LINE
  5
28E
100
AcDbEntity
  8
0
100
AcDbLine
 62
7
  6
CONTINUOUS
 10
93.6091043379
 20
170.3866188757
 11
93.8483656397
 21
170.4591042177
  0
LINE
  5
28F
100
AcDbEntity
  8
0
100
AcDbLine
 62
7
  6
CONTINUOUS
 10
94.0334344867
 20
169.8482246659
 11
93.7941731849
 21
169.7757393239
  0
LINE
  5
290
100
AcDbEntity
  8
0
100
AcDbLine
 62
7
  6
CONTINUOUS
 10
94.3863933813
 20
167.8209251345
 11
94.6256546832
 21
167.8934104766
  0
LINE
  5
291
100
AcDbEntity
  8
RUNDUNGEN
100
AcDbLine
 62
7
  6
CONTINUOUS
 10
169.0222885401
 20
55.5521881146
 11
174.4386478855
 21
56.7200402586
  0
LINE
  5
292
100
AcDbEntity
  8
RUNDUNGEN
100
AcDbLine
 62
7
  6
CONTINUOUS
 10
80.9740832393
 20
38.1927341421
 11
76.7218877379
 21
37.6979075448
  0
LINE
  5
293
100
AcDbEntity
  8
RUNDUNGEN
100
AcDbLine
 62
7
  6
CONTINUOUS
 10
80.9718042282
 20
38.195680195
 11
81.3578569066
 21
38.2033052143
  0
LINE
  5
294
100
AcDbEntity
  8
RUNDUNGEN
100
AcDbLine
 62
7
  6
CONTINUOUS
 10
145.7440360205
 20
38.1956802496
 11
145.3579833257
 21
38.2033052646
  0
LINE
  5
295
100
AcDbEntity
  8
RUNDUNGEN
100
AcDbLine
 62
7
  6
CONTINUOUS
 10
149.9939465449
 20
37.6979082383
 11
145.7417570604
 21
38.1927341354
  0
LINE
  5
296
100
AcDbEntity
  8
RUNDUNGEN
100
AcDbLine
 62
7
  6
CONTINUOUS
 10
52.2771923569
 20
56.7200402586
 11
57.6935517871
 21
55.5521880964
  0
LINE
  5
297
100
AcDbEntity
  8
RUNDUNGEN
100
AcDbLine
 62
7
  6
CONTINUOUS
 10
58.0611658137
 20
55.4347807992
 11
57.6935524319
 21
55.5521879584
  0
LINE
  5
298
100
AcDbEntity
  8
RUNDUNGEN
100
AcDbLine
 62
7
  6
CONTINUOUS
 10
128.5896946495
 20
32.5186725738
 11
128.9561103176
 21
32.3975792396
  0
LINE
  5
299
100
AcDbEntity
  8
RUNDUNGEN
100
AcDbLine
 62
7
  6
CONTINUOUS
 10
128.956111022
 20
32.3975789877
 11
134.0244840472
 21
30.1587350748
  0
LINE
  5
29A
100
AcDbEntity
  8
RUNDUNGEN
100
AcDbLine
 62
7
  6
CONTINUOUS
 10
47.5199855766
 20
70.1069222774
 11
43.7890353762
 21
72.2059769565
  0
LINE
  5
29B
100
AcDbEntity
  8
RUNDUNGEN
100
AcDbLine
 62
7
  6
CONTINUOUS
 10
47.5198734643
 20
70.1106452534
 11
47.8366785157
 21
69.8898979526
  0
LINE
  5
29C
100
AcDbEntity
  8
RUNDUNGEN
100
AcDbLine
 62
7
  6
CONTINUOUS
 10
99.92170978
 20
32.038482692
 11
99.6138684605
 21
32.2715675394
  0
LINE
  5
29D
100
AcDbEntity
  8
RUNDUNGEN
100
AcDbLine
 62
7
  6
CONTINUOUS
 10
103.0673765715
 20
29.1377419457
 11
99.9181343801
 21
32.0374387747
  0
LINE
  5
29E
100
AcDbEntity
  8
RUNDUNGEN
100
AcDbLine
 62
7
  6
CONTINUOUS
 10
35.193790467
 20
101.9634370331
 11
38.8892710162
 21
97.8349685923
  0
LINE
  5
29F
100
AcDbEntity
  8
RUNDUNGEN
100
AcDbLine
 62
7
  6
CONTINUOUS
 10
39.1176667328
 20
97.5239059905
 11
38.8892714562
 21
97.8349681019
  0
LINE
  5
2A0
100
AcDbEntity
  8
RUNDUNGEN
100
AcDbLine
 62
7
  6
CONTINUOUS
 10
82.7066946945
 20
37.5287558757
 11
82.931954321
 21
37.2154155846
  0
LINE
  5
2A1
100
AcDbEntity
  8
RUNDUNGEN
100
AcDbLine
 62
7
  6
CONTINUOUS
 10
82.9319547429
 20
37.2154149667
 11
85.7163952198
 21
32.4250372761
  0
LINE
  5
2A2
100
AcDbEntity
  8
RUNDUNGEN
100
AcDbLine
 62
7
  6
CONTINUOUS
 10
39.213741151
 20
115.589868097
 11
37.4291113891
 21
119.4810823602
  0
LINE
  5
2A3
100
AcDbEntity
  8
RUNDUNGEN
100
AcDbLine
 62
7
  6
CONTINUOUS
 10
39.2158387704
 20
115.5929459243
 11
39.3423874331
 21
115.2281442694
  0
LINE
  5
2A4
100
AcDbEntity
  8
RUNDUNGEN
100
AcDbLine
 62
7
  6
CONTINUOUS
 10
59.2315592097
 20
53.9908928201
 11
59.1195141866
 21
54.3604070104
  0
LINE
  5
2A5
100
AcDbEntity
  8
RUNDUNGEN
100
AcDbLine
 62
7
  6
CONTINUOUS
 10
60.0714457997
 20
49.7951611014
 11
59.2280530513
 21
53.9921498406
  0
LINE
  5
2A6
100
AcDbEntity
  8
0
100
AcDbLine
 62
7
  6
CONTINUOUS
 10
90.4956842759
 20
168.1319315306
 11
90.6398002483
 21
168.3204191634
  0
LINE
  5
2A7
100
AcDbEntity
  8
0
100
AcDbLine
 62
7
  6
CONTINUOUS
 10
91.6147669304
 20
169.0037963223
 11
91.5403406495
 21
168.9114112173
  0
LINE
  5
2A8
100
AcDbEntity
  8
0
100
AcDbLine
 62
7
  6
CONTINUOUS
 10
92.9836134404
 20
167.4439641901
 11
93.0580394483
 21
167.5363492092
  0
LINE
  5
2A9
100
AcDbEntity
  8
0
100
AcDbLine
 62
7
  6
CONTINUOUS
 10
129.0480539551
 20
171.2484735578
 11
128.9159738536
 21
171.1937558416
  0
LINE
  5
2AA
100
AcDbEntity
  8
0
100
AcDbLine
 62
7
  6
CONTINUOUS
 10
131.6671741552
 20
170.566532011
 11
131.5329741203
 21
170.517241725
  0
LINE
  5
2AB
100
AcDbEntity
  8
0
100
AcDbLine
 62
7
  6
CONTINUOUS
 10
89.379755174
 20
167.5777034205
 11
89.4951616369
 21
167.8293966786
  0
LINE
  5
2AC
100
AcDbEntity
  8
0
100
AcDbLine
 62
7
  6
CONTINUOUS
 10
90.4583316291
 20
168.5259841737
 11
90.3611857937
 21
168.3546375958
  0
LINE
  5
2AD
100
AcDbEntity
  8
0
100
AcDbLine
 62
7
  6
CONTINUOUS
 10
94.9512776442
 20
170.0511075889
 11
94.8416325855
 21
169.8874771388
  0
LINE
  5
2AE
100
AcDbEntity
  8
0
100
AcDbLine
 62
7
  6
CONTINUOUS
 10
94.911043544
 20
169.6417741248
 11
95.0206886027
 21
169.8054045748
  0
LINE
  5
2AF
100
AcDbEntity
  8
0
100
AcDbLine
 62
7
  6
CONTINUOUS
 10
128.9126366963
 20
170.934498183
 11
129.0166523675
 21
170.9960090591
  0
LINE
  5
2B0
100
AcDbEntity
  8
0
100
AcDbLine
 62
7
  6
CONTINUOUS
 10
129.1584430543
 20
169.6180161851
 11
129.0544273761
 21
169.5565052804
  0
LINE
  5
2B1
100
AcDbEntity
  8
0
100
AcDbLine
 62
7
  6
CONTINUOUS
 10
131.5306466034
 20
170.2988427743
 11
131.6370823237
 21
170.3560641443
  0
LINE
  5
2B2
100
AcDbEntity
  8
0
100
AcDbLine
 62
7
  6
CONTINUOUS
 10
132.9500772222
 20
168.5164795505
 11
132.8425521592
 21
168.4613323967
  0
LINE
  5
2B3
100
AcDbEntity
  8
0
100
AcDbLine
 62
7
  6
CONTINUOUS
 10
135.2577565349
 20
169.133334175
 11
135.3672937042
 21
169.1843680487
  0
LINE
  5
2B4
100
AcDbEntity
  8
0
100
AcDbLine
 62
7
  6
CONTINUOUS
 10
135.2639805314
 20
167.7480797433
 11
135.154443362
 21
167.6970458696
  0
LINE
  5
2B5
100
AcDbEntity
  8
0
100
AcDbLine
 62
7
  6
CONTINUOUS
 10
132.712621323
 20
169.5146852373
 11
132.537530902
 21
169.4361984842
  0
LINE
  5
2B6
100
AcDbEntity
  8
0
100
AcDbLine
 62
7
  6
CONTINUOUS
 10
132.8083859658
 20
168.2514873529
 11
132.9834760741
 21
168.3299742135
  0
LINE
  5
2B7
100
AcDbEntity
  8
0
100
AcDbLine
 62
7
  6
CONTINUOUS
 10
137.7982701303
 20
168.1543457209
 11
137.9097958469
 21
168.2008738012
  0
LINE
  5
2B8
100
AcDbEntity
  8
0
100
AcDbLine
 62
7
  6
CONTINUOUS
 10
137.8595684996
 20
166.8165162914
 11
137.748042772
 21
166.7699881836
  0
LINE
  5
2B9
100
AcDbEntity
  8
0
100
AcDbLine
 62
7
  6
CONTINUOUS
 10
129.0230256219
 20
169.3040407954
 11
129.1551058865
 21
169.3587584835
  0
LINE
  5
2BA
100
AcDbEntity
  8
0
100
AcDbLine
 62
7
  6
CONTINUOUS
 10
135.4093855372
 20
169.3927679957
 11
135.2314475864
 21
169.3209709472
  0
LINE
  5
2BB
100
AcDbEntity
  8
0
100
AcDbLine
 62
7
  6
CONTINUOUS
 10
135.1123515205
 20
167.4886458982
 11
135.290289475
 21
167.5604429571
  0
LINE
  5
2BC
100
AcDbEntity
  8
0
100
AcDbLine
 62
7
  6
CONTINUOUS
 10
139.0224175774
 20
167.7075556518
 11
139.1348341406
 21
167.7518880786
  0
LINE
  5
2BD
100
AcDbEntity
  8
0
100
AcDbLine
 62
7
  6
CONTINUOUS
 10
138.913240046
 20
167.2965942733
 11
138.6884069198
 21
167.2079294196
  0
LINE
  5
2BE
100
AcDbEntity
  8
0
100
AcDbLine
 62
7
  6
CONTINUOUS
 10
138.7462359595
 20
167.0467807019
 11
138.8586525227
 21
167.0911131287
  0
LINE
  5
2BF
100
AcDbEntity
  8
0
100
AcDbLine
 62
7
  6
CONTINUOUS
 10
139.0249810895
 20
166.2910432723
 11
138.9125645264
 21
166.2467108454
  0
LINE
  5
2C0
100
AcDbEntity
  8
0
100
AcDbLine
 62
7
  6
CONTINUOUS
 10
139.1894216639
 20
167.9573692231
 11
139.0074768634
 21
167.8964378747
  0
LINE
  5
2C1
100
AcDbEntity
  8
0
100
AcDbLine
 62
7
  6
CONTINUOUS
 10
138.8579757735
 20
166.0412301868
 11
139.0399217979
 21
166.1021610357
  0
LINE
  5
2C2
100
AcDbEntity
  8
0
100
AcDbLine
 62
7
  6
CONTINUOUS
 10
89.2381540583
 20
168.0708570765
 11
89.1922061189
 21
167.9153393622
  0
LINE
  5
2C3
100
AcDbEntity
  8
0
100
AcDbLine
 62
7
  6
CONTINUOUS
 10
90.3611857937
 20
168.3546375958
 11
90.3110098267
 21
168.2004319749
  0
LINE
  5
2C4
100
AcDbEntity
  8
0
100
AcDbLine
 62
7
  6
CONTINUOUS
 10
91.5403406495
 20
168.9114112173
 11
91.4862682671
 21
168.7585285124
  0
LINE
  5
2C5
100
AcDbEntity
  8
0
100
AcDbLine
 62
7
  6
CONTINUOUS
 10
91.7368886938
 20
168.6408101758
 11
91.7909610762
 21
168.7936928807
  0
LINE
  5
2C6
100
AcDbEntity
  8
0
100
AcDbLine
 62
7
  6
CONTINUOUS
 10
92.8614916645
 20
167.8069503737
 11
92.8074192821
 21
167.6540676688
  0
LINE
  5
2C7
100
AcDbEntity
  8
0
100
AcDbLine
 62
7
  6
CONTINUOUS
 10
93.0580394483
 20
167.5363492092
 11
93.1121120984
 21
167.6892320159
  0
LINE
  5
2C8
100
AcDbEntity
  8
0
100
AcDbLine
 62
7
  6
CONTINUOUS
 10
97.1136714099
 20
170.6958554542
 11
96.7181874306
 21
169.6082906231
  0
LINE
  5
2C9
100
AcDbEntity
  8
0
100
AcDbLine
 62
7
  6
CONTINUOUS
 10
94.8416325855
 20
169.8874771388
 11
94.7801041892
 21
169.737439618
  0
LINE
  5
2CA
100
AcDbEntity
  8
0
100
AcDbLine
 62
7
  6
CONTINUOUS
 10
94.8495151478
 20
169.4917366039
 11
94.911043544
 21
169.6417741248
  0
LINE
  5
2CB
100
AcDbEntity
  8
0
100
AcDbLine
 62
7
  6
CONTINUOUS
 10
96.8120622492
 20
169.2369953416
 11
96.9762067562
 21
169.6076875257
  0
LINE
  5
2CC
100
AcDbEntity
  8
0
100
AcDbLine
 62
7
  6
CONTINUOUS
 10
128.9159738536
 20
171.1937558416
 11
128.7640715321
 21
171.0571477309
  0
LINE
  5
2CD
100
AcDbEntity
  8
0
100
AcDbLine
 62
7
  6
CONTINUOUS
 10
131.5329741203
 20
170.517241725
 11
131.3756313091
 21
170.3869368167
  0
LINE
  5
2CE
100
AcDbEntity
  8
0
100
AcDbLine
 62
7
  6
CONTINUOUS
 10
131.9817940255
 20
169.7756541354
 11
130.9151095995
 21
168.9850413082
  0
LINE
  5
2CF
100
AcDbEntity
  8
0
100
AcDbLine
 62
7
  6
CONTINUOUS
 10
135.2314475864
 20
169.3209709472
 11
135.1080390469
 21
169.2301586325
  0
LINE
  5
2D0
100
AcDbEntity
  8
0
100
AcDbLine
 62
7
  6
CONTINUOUS
 10
131.1372247524
 20
168.9215924541
 11
132.0859025466
 21
169.614476464
  0
LINE
  5
2D1
100
AcDbEntity
  8
0
100
AcDbLine
 62
7
  6
CONTINUOUS
 10
137.8374452597
 20
168.4106481991
 11
137.668103117
 21
168.296370607
  0
LINE
  5
2D2
100
AcDbEntity
  8
0
100
AcDbLine
 62
7
  6
CONTINUOUS
 10
138.6604605277
 20
166.9913131817
 11
138.7462359595
 21
167.0467807019
  0
LINE
  5
2D3
100
AcDbEntity
  8
0
100
AcDbLine
 62
7
  6
CONTINUOUS
 10
132.5309700533
 20
169.2178856068
 11
132.6784548212
 21
169.3048403151
  0
LINE
  5
2D4
100
AcDbEntity
  8
0
100
AcDbLine
 62
7
  6
CONTINUOUS
 10
89.4951616369
 20
167.8293966786
 11
89.5405727626
 21
168.1220153416
  0
LINE
  5
2D5
100
AcDbEntity
  8
0
100
AcDbLine
 62
7
  6
CONTINUOUS
 10
91.4862682671
 20
168.7585285124
 11
91.4525495118
 21
168.5451481164
  0
LINE
  5
2D6
100
AcDbEntity
  8
0
100
AcDbLine
 62
7
  6
CONTINUOUS
 10
91.7031696674
 20
168.4274296887
 11
91.7368886938
 21
168.6408101758
  0
LINE
  5
2D7
100
AcDbEntity
  8
0
100
AcDbLine
 62
7
  6
CONTINUOUS
 10
92.8952104055
 20
168.020330812
 11
92.8614916645
 21
167.8069503737
  0
LINE
  5
2D8
100
AcDbEntity
  8
0
100
AcDbLine
 62
7
  6
CONTINUOUS
 10
90.4423027475
 20
167.8406614417
 11
90.4956842759
 21
168.1319315306
  0
LINE
  5
2D9
100
AcDbEntity
  8
0
100
AcDbLine
 62
7
  6
CONTINUOUS
 10
97.0746933276
 20
169.8301028948
 11
97.4045188603
 21
170.7693905973
  0
LINE
  5
2DA
100
AcDbEntity
  8
0
100
AcDbLine
 62
7
  6
CONTINUOUS
 10
83.0352206357
 20
117.9755007372
 11
101.0128104076
 21
135.9530905091
  0
LINE
  5
2DB
100
AcDbEntity
  8
0
100
AcDbLine
 62
7
  6
CONTINUOUS
 10
129.1551058865
 20
169.3587584835
 11
129.3070082115
 21
169.4953666085
  0
LINE
  5
2DC
100
AcDbEntity
  8
0
100
AcDbLine
 62
7
  6
CONTINUOUS
 10
134.6858300251
 20
169.6825913481
 11
134.428289274
 21
169.4575345805
  0
LINE
  5
2DD
100
AcDbEntity
  8
0
100
AcDbLine
 62
7
  6
CONTINUOUS
 10
134.3218163149
 20
169.1377738851
 11
134.5793571033
 21
169.3628307647
  0
LINE
  5
2DE
100
AcDbEntity
  8
0
100
AcDbLine
 62
7
  6
CONTINUOUS
 10
139.0074768634
 20
167.8964378747
 11
138.8625683505
 21
167.7743672313
  0
LINE
  5
2DF
100
AcDbEntity
  8
0
100
AcDbLine
 62
7
  6
CONTINUOUS
 10
135.290289475
 20
167.5604429571
 11
135.4136980193
 21
167.6512552858
  0
LINE
  5
2E0
100
AcDbEntity
  8
0
100
AcDbLine
 62
7
  6
CONTINUOUS
 10
140.6220537538
 20
167.3898528456
 11
140.3444664515
 21
167.1900452464
  0
LINE
  5
2E1
100
AcDbEntity
  8
0
100
AcDbLine
 62
7
  6
CONTINUOUS
 10
140.2083587411
 20
166.8817303351
 11
140.4859460911
 21
167.0815380423
  0
LINE
  5
2E2
100
AcDbEntity
  8
0
100
AcDbLine
 62
7
  6
CONTINUOUS
 10
137.8203939686
 20
166.5602135292
 11
137.989735502
 21
166.6744913779
  0
LINE
  5
2E3
100
AcDbEntity
  8
0
100
AcDbLine
 62
7
  6
CONTINUOUS
 10
101.0128104076
 20
75.3076915381
 11
83.0352206357
 21
93.28528131
  0
LINE
  5
2E4
100
AcDbEntity
  8
0
100
AcDbLine
 62
7
  6
CONTINUOUS
 10
93.1121120984
 20
167.6892320159
 11
93.1458311177
 21
167.9026125243
  0
LINE
  5
2E5
100
AcDbEntity
  8
0
100
AcDbLine
 62
7
  6
CONTINUOUS
 10
135.1080390469
 20
169.2301586325
 11
134.9980235309
 21
169.0900603524
  0
LINE
  5
2E6
100
AcDbEntity
  8
0
100
AcDbLine
 62
7
  6
CONTINUOUS
 10
129.2443051645
 20
169.7272654765
 11
129.1584430543
 21
169.6180161851
  0
LINE
  5
2E7
100
AcDbEntity
  8
0
100
AcDbLine
 62
7
  6
CONTINUOUS
 10
131.4404042863
 20
170.1931828729
 11
131.5306466034
 21
170.2988427743
  0
LINE
  5
2E8
100
AcDbEntity
  8
0
100
AcDbLine
 62
7
  6
CONTINUOUS
 10
132.0859025466
 20
169.614476464
 11
132.1761448637
 21
169.7201363654
  0
LINE
  5
2E9
100
AcDbEntity
  8
0
100
AcDbLine
 62
7
  6
CONTINUOUS
 10
133.0423516403
 20
168.6203699066
 11
132.9500772222
 21
168.5164795505
  0
LINE
  5
2EA
100
AcDbEntity
  8
0
100
AcDbLine
 62
7
  6
CONTINUOUS
 10
135.0654688284
 20
168.9326941678
 11
135.2577565349
 21
169.133334175
  0
LINE
  5
2EB
100
AcDbEntity
  8
0
100
AcDbLine
 62
7
  6
CONTINUOUS
 10
135.4562682087
 20
167.948719667
 11
135.2639805314
 21
167.7480797433
  0
LINE
  5
2EC
100
AcDbEntity
  8
0
100
AcDbLine
 62
7
  6
CONTINUOUS
 10
132.9834760741
 20
168.3299742135
 11
133.115709877
 21
168.4656722069
  0
LINE
  5
2ED
100
AcDbEntity
  8
0
100
AcDbLine
 62
7
  6
CONTINUOUS
 10
137.9597206149
 20
166.9128351404
 11
137.8595684996
 21
166.8165162914
  0
LINE
  5
2EE
100
AcDbEntity
  8
0
100
AcDbLine
 62
7
  6
CONTINUOUS
 10
138.9203961707
 20
167.6132190233
 11
139.0224175774
 21
167.7075556518
  0
LINE
  5
2EF
100
AcDbEntity
  8
0
100
AcDbLine
 62
7
  6
CONTINUOUS
 10
139.1270025076
 20
166.3853799279
 11
139.0249810895
 21
166.2910432723
  0
LINE
  5
2F0
100
AcDbEntity
  8
0
100
AcDbLine
 62
7
  6
CONTINUOUS
 10
139.0399217979
 20
166.1021610357
 11
139.1848303164
 21
166.2242316927
  0
LINE
  5
2F1
100
AcDbEntity
  8
0
100
AcDbLine
 62
7
  6
CONTINUOUS
 10
165.748547415
 20
147.7409339477
 11
165.580587673
 21
147.6816008269
  0
LINE
  5
2F2
100
AcDbEntity
  8
0
100
AcDbLine
 62
7
  6
CONTINUOUS
 10
91.4525495118
 20
168.5451481164
 11
91.4662204395
 21
168.3477113362
  0
LINE
  5
2F3
100
AcDbEntity
  8
0
100
AcDbLine
 62
7
  6
CONTINUOUS
 10
92.5159477457
 20
98.400224186
 11
92.5159477457
 21
99.2487523234
  0
LINE
  5
2F4
100
AcDbEntity
  8
0
100
AcDbLine
 62
7
  6
CONTINUOUS
 10
92.5159477457
 20
112.0120297238
 11
92.5159477457
 21
112.8605578612
  0
LINE
  5
2F5
100
AcDbEntity
  8
RUNDUNGEN
100
AcDbLine
 62
7
  6
CONTINUOUS
 10
118.1452235509
 20
182.6203382159
 11
115.6079201212
 21
174.8113212216
  0
LINE
  5
2F6
100
AcDbEntity
  8
RUNDUNGEN
100
AcDbLine
 62
7
  6
CONTINUOUS
 10
74.5146778483
 20
48.3393259891
 11
71.9773744186
 21
40.5303089947
  0
LINE
  5
2F7
100
AcDbEntity
  8
0
100
AcDbLine
 62
7
  6
CONTINUOUS
 10
128.8548389885
 20
170.818455617
 11
128.9126366963
 21
170.934498183
  0
LINE
  5
2F8
100
AcDbEntity
  8
0
100
AcDbLine
 62
7
  6
CONTINUOUS
 10
134.9980235309
 20
169.0900603524
 11
134.929144988
 21
168.9802324423
  0
LINE
  5
2F9
100
AcDbEntity
  8
0
100
AcDbLine
 62
7
  6
CONTINUOUS
 10
133.115709877
 20
168.4656722069
 11
133.2326930307
 21
168.6501133887
  0
LINE
  5
2FA
100
AcDbEntity
  8
0
100
AcDbLine
 62
7
  6
CONTINUOUS
 10
129.3070082115
 20
169.4953666085
 11
129.4027813584
 21
169.6455611453
  0
LINE
  5
2FB
100
AcDbEntity
  8
0
100
AcDbLine
 62
7
  6
CONTINUOUS
 10
137.7249729242
 20
168.0474159249
 11
137.7982701303
 21
168.1543457209
  0
LINE
  5
2FC
100
AcDbEntity
  8
0
100
AcDbLine
 62
7
  6
CONTINUOUS
 10
132.0836078895
 20
169.9218213026
 11
131.9817940255
 21
169.7756541354
  0
LINE
  5
2FD
100
AcDbEntity
  8
0
100
AcDbLine
 62
7
  6
CONTINUOUS
 10
138.8450170694
 20
167.5077466829
 11
138.9203961707
 21
167.6132190233
  0
LINE
  5
2FE
100
AcDbEntity
  8
0
100
AcDbLine
 62
7
  6
CONTINUOUS
 10
138.5850814491
 20
166.8858408958
 11
138.6604605277
 21
166.9913131817
  0
LINE
  5
2FF
100
AcDbEntity
  8
0
100
AcDbLine
 62
7
  6
CONTINUOUS
 10
138.8625683505
 20
167.7743672313
 11
138.7280549486
 21
167.6022922773
  0
LINE
  5
300
100
AcDbEntity
  8
0
100
AcDbLine
 62
7
  6
CONTINUOUS
 10
139.1848303164
 20
166.2242316927
 11
139.3193436842
 21
166.396306565
  0
LINE
  5
301
100
AcDbEntity
  8
0
100
AcDbLine
 62
7
  6
CONTINUOUS
 10
135.4136980193
 20
167.6512552858
 11
135.523713545
 21
167.7913535938
  0
LINE
  5
302
100
AcDbEntity
  8
0
100
AcDbLine
 62
7
  6
CONTINUOUS
 10
137.989735502
 20
166.6744913779
 11
138.1053683649
 21
166.8099904288
  0
LINE
  5
303
100
AcDbEntity
  8
0
100
AcDbLine
 62
7
  6
CONTINUOUS
 10
92.5159477457
 20
112.8605578612
 11
106.1277532835
 21
126.4723633991
  0
LINE
  5
304
100
AcDbEntity
  8
0
100
AcDbLine
 62
7
  6
CONTINUOUS
 10
87.1002348718
 20
106.5963168499
 11
92.5159477457
 21
112.0120297238
  0
LINE
  5
305
100
AcDbEntity
  8
0
100
AcDbLine
 62
7
  6
CONTINUOUS
 10
106.976281421
 20
126.4723633991
 11
112.3919942949
 21
131.888076273
  0
LINE
  5
306
100
AcDbEntity
  8
RUNDUNGEN
100
AcDbLine
 62
7
  6
CONTINUOUS
 10
162.4844854875
 20
165.102660344
 11
155.8417388688
 21
160.2764224228
  0
LINE
  5
307
100
AcDbEntity
  8
RUNDUNGEN
100
AcDbLine
 62
7
  6
CONTINUOUS
 10
48.2582338904
 20
82.1124307441
 11
41.6154872717
 21
77.2861928228
  0
LINE
  5
308
100
AcDbEntity
  8
0
100
AcDbLine
 62
7
  6
CONTINUOUS
 10
164.8502411784
 20
148.504382346
 11
164.9660803409
 21
148.5625866156
  0
LINE
  5
309
100
AcDbEntity
  8
0
100
AcDbLine
 62
7
  6
CONTINUOUS
 10
164.4186832031
 20
147.1744277901
 11
164.5853920238
 21
147.2371897504
  0
LINE
  5
30A
100
AcDbEntity
  8
0
100
AcDbLine
 62
7
  6
CONTINUOUS
 10
165.2680948536
 20
146.1082398076
 11
165.4360545674
 21
146.1675730115
  0
LINE
  5
30B
100
AcDbEntity
  8
0
100
AcDbLine
 62
7
  6
CONTINUOUS
 10
120.5880869588
 20
84.7884186481
 11
119.7395588214
 21
84.7884186481
  0
LINE
  5
30C
100
AcDbEntity
  8
0
100
AcDbLine
 62
7
  6
CONTINUOUS
 10
106.976281421
 20
84.7884186481
 11
106.1277532835
 21
84.7884186481
  0
LINE
  5
30D
100
AcDbEntity
  8
RUNDUNGEN
100
AcDbLine
 62
7
  6
CONTINUOUS
 10
38.6567710377
 20
86.3921850674
 11
46.8676574157
 21
86.3921850674
  0
LINE
  5
30E
100
AcDbEntity
  8
RUNDUNGEN
100
AcDbLine
 62
7
  6
CONTINUOUS
 10
179.8481828267
 20
86.3921850674
 11
188.0590692047
 21
86.3921850674
  0
LINE
  5
30F
100
AcDbEntity
  8
RUNDUNGEN
100
AcDbLine
 62
7
  6
CONTINUOUS
 10
41.6154872717
 20
133.9745892243
 11
48.2582338904
 21
129.1483513031
  0
LINE
  5
310
100
AcDbEntity
  8
RUNDUNGEN
100
AcDbLine
 62
7
  6
CONTINUOUS
 10
155.8417388688
 20
50.9843596244
 11
162.4844854875
 21
46.1581217032
  0
LINE
  5
311
100
AcDbEntity
  8
0
100
AcDbLine
 62
7
  6
CONTINUOUS
 10
106.1277532835
 20
84.7884186481
 11
92.5159477457
 21
98.400224186
  0
LINE
  5
312
100
AcDbEntity
  8
0
100
AcDbLine
 62
7
  6
CONTINUOUS
 10
112.3919942949
 20
79.3727057742
 11
106.976281421
 21
84.7884186481
  0
LINE
  5
313
100
AcDbEntity
  8
0
100
AcDbLine
 62
7
  6
CONTINUOUS
 10
92.5159477457
 20
99.2487523234
 11
87.1002348718
 21
104.6644651973
  0
LINE
  5
314
100
AcDbEntity
  8
RUNDUNGEN
100
AcDbLine
 62
7
  6
CONTINUOUS
 10
71.9773744186
 20
170.7304730525
 11
74.5146778483
 21
162.9214560581
  0
LINE
  5
315
100
AcDbEntity
  8
RUNDUNGEN
100
AcDbLine
 62
7
  6
CONTINUOUS
 10
115.6079201212
 20
36.4494608256
 11
118.1452235509
 21
28.6404438313
  0
LINE
  5
316
100
AcDbEntity
  8
0
100
AcDbLine
 62
7
  6
CONTINUOUS
 10
89.2141065276
 20
168.267300143
 11
89.2381540583
 21
168.0708570765
  0
LINE
  5
317
100
AcDbEntity
  8
0
100
AcDbLine
 62
7
  6
CONTINUOUS
 10
89.5405727626
 20
168.1220153416
 11
89.5165252318
 21
168.3184584082
  0
LINE
  5
318
100
AcDbEntity
  8
0
100
AcDbLine
 62
7
  6
CONTINUOUS
 10
93.1458311177
 20
167.9026125243
 11
93.0981350785
 21
168.3579836357
  0
LINE
  5
319
100
AcDbEntity
  8
RUNDUNGEN
100
AcDbLine
 62
7
  6
CONTINUOUS
 10
103.3579201212
 20
149.8356988966
 11
103.3579201212
 21
141.5765312578
  0
LINE
  5
31A
100
AcDbEntity
  8
RUNDUNGEN
100
AcDbLine
 62
7
  6
CONTINUOUS
 10
103.3579201212
 20
69.6842507894
 11
103.3579201212
 21
61.4250831506
  0
LINE
  5
31B
100
AcDbEntity
  8
RUNDUNGEN
100
AcDbLine
 62
7
  6
CONTINUOUS
 10
104.3579201212
 20
182.3113212216
 11
104.3579201212
 21
176.0003624695
  0
LINE
  5
31C
100
AcDbEntity
  8
RUNDUNGEN
100
AcDbLine
 62
7
  6
CONTINUOUS
 10
104.3579201212
 20
28.9494608256
 11
104.3579201212
 21
35.2604460233
  0
LINE
  5
31D
100
AcDbEntity
  8
0
100
AcDbLine
 62
7
  6
CONTINUOUS
 10
128.7640715321
 20
171.0571477309
 11
128.6963629027
 21
170.9001600436
  0
LINE
  5
31E
100
AcDbEntity
  8
0
100
AcDbLine
 62
7
  6
CONTINUOUS
 10
131.3756313091
 20
170.3869368167
 11
131.3015820775
 21
170.2328384747
  0
LINE
  5
31F
100
AcDbEntity
  8
0
100
AcDbLine
 62
7
  6
CONTINUOUS
 10
132.1761448637
 20
169.7201363654
 11
132.2501944131
 21
169.8742346167
  0
LINE
  5
320
100
AcDbEntity
  8
0
100
AcDbLine
 62
7
  6
CONTINUOUS
 10
134.9549755898
 20
168.7035312637
 11
135.0654688284
 21
168.9326941678
  0
LINE
  5
321
100
AcDbEntity
  8
0
100
AcDbLine
 62
7
  6
CONTINUOUS
 10
135.5667614667
 20
168.1778826267
 11
135.4562682087
 21
167.948719667
  0
LINE
  5
322
100
AcDbEntity
  8
0
100
AcDbLine
 62
7
  6
CONTINUOUS
 10
134.929144988
 20
168.9802324423
 11
134.8325231196
 21
168.7908479793
  0
LINE
  5
323
100
AcDbEntity
  8
0
100
AcDbLine
 62
7
  6
CONTINUOUS
 10
135.5925920491
 20
167.9011813924
 11
135.689213937
 21
168.0905659112
  0
LINE
  5
324
100
AcDbEntity
  8
0
100
AcDbLine
 62
7
  6
CONTINUOUS
 10
138.7280549486
 20
167.6022922773
 11
138.5876919934
 21
167.3413436126
  0
LINE
  5
325
100
AcDbEntity
  8
0
100
AcDbLine
 62
7
  6
CONTINUOUS
 10
138.7208988694
 20
167.2856676362
 11
138.8450170694
 21
167.5077466829
  0
LINE
  5
326
100
AcDbEntity
  8
0
100
AcDbLine
 62
7
  6
CONTINUOUS
 10
133.1070197649
 20
168.7327283836
 11
133.0423516403
 21
168.6203699066
  0
LINE
  5
327
100
AcDbEntity
  8
0
100
AcDbLine
 62
7
  6
CONTINUOUS
 10
137.668103117
 20
168.296370607
 11
137.5793252176
 21
168.1502607463
  0
LINE
  5
328
100
AcDbEntity
  8
0
100
AcDbLine
 62
7
  6
CONTINUOUS
 10
135.523713545
 20
167.7913535938
 11
135.5925920491
 21
167.9011813924
  0
LINE
  5
329
100
AcDbEntity
  8
0
100
AcDbLine
 62
7
  6
CONTINUOUS
 10
139.2023815635
 20
166.4908521595
 11
139.1270025076
 21
166.3853799279
  0
LINE
  5
32A
100
AcDbEntity
  8
RUNDUNGEN
100
AcDbLine
 62
7
  6
CONTINUOUS
 10
151.1486870742
 20
172.9566339689
 11
147.4392416793
 21
167.8510203923
  0
LINE
  5
32B
100
AcDbEntity
  8
RUNDUNGEN
100
AcDbLine
 62
7
  6
CONTINUOUS
 10
61.0048472694
 20
48.8842826196
 11
64.7143498428
 21
53.9899748956
  0
LINE
  5
32C
100
AcDbEntity
  8
0
100
AcDbLine
 62
7
  6
CONTINUOUS
 10
165.580587673
 20
147.6816008269
 11
165.3975255246
 21
147.5734780008
  0
LINE
  5
32D
100
AcDbEntity
  8
0
100
AcDbLine
 62
7
  6
CONTINUOUS
 10
165.4360545674
 20
146.1675730115
 11
165.6191166746
 21
146.2756956995
  0
LINE
  5
32E
100
AcDbEntity
  8
0
100
AcDbLine
 62
7
  6
CONTINUOUS
 10
164.9207390804
 20
148.7498262645
 11
164.7724153429
 21
148.6647988385
  0
LINE
  5
32F
100
AcDbEntity
  8
0
100
AcDbLine
 62
7
  6
CONTINUOUS
 10
165.5050758568
 20
147.4376527877
 11
165.6551105605
 21
147.5196234224
  0
LINE
  5
330
100
AcDbEntity
  8
0
100
AcDbLine
 62
7
  6
CONTINUOUS
 10
165.5115663423
 20
146.4115209127
 11
165.3615316387
 21
146.329550278
  0
LINE
  5
331
100
AcDbEntity
  8
0
100
AcDbLine
 62
7
  6
CONTINUOUS
 10
169.3658597028
 20
142.7943364993
 11
169.2090121848
 21
142.7263036921
  0
LINE
  5
332
100
AcDbEntity
  8
0
100
AcDbLine
 62
7
  6
CONTINUOUS
 10
169.5346137956
 20
141.7662475688
 11
169.6914613136
 21
141.8342803761
  0
LINE
  5
333
100
AcDbEntity
  8
RUNDUNGEN
100
AcDbLine
 62
7
  6
CONTINUOUS
 10
183.5046655122
 20
137.8856102459
 11
177.5026608533
 21
135.9354407153
  0
LINE
  5
334
100
AcDbEntity
  8
RUNDUNGEN
100
AcDbLine
 62
7
  6
CONTINUOUS
 10
37.6488688314
 20
90.4941890946
 11
43.6509734429
 21
92.4443911017
  0
LINE
  5
335
100
AcDbEntity
  8
RUNDUNGEN
100
AcDbLine
 62
7
  6
CONTINUOUS
 10
69.1526122482
 20
95.6303910236
 11
77.4117798869
 21
95.6303910236
  0
LINE
  5
336
100
AcDbEntity
  8
RUNDUNGEN
100
AcDbLine
 62
7
  6
CONTINUOUS
 10
149.3040603554
 20
95.6303910236
 11
157.5632279942
 21
95.6303910236
  0
LINE
  5
337
100
AcDbEntity
  8
RUNDUNGEN
100
AcDbLine
 62
7
  6
CONTINUOUS
 10
37.6488688314
 20
120.7665929526
 11
43.651023687
 21
118.8163746202
  0
LINE
  5
338
100
AcDbEntity
  8
RUNDUNGEN
100
AcDbLine
 62
7
  6
CONTINUOUS
 10
177.5025629659
 20
75.3253731374
 11
183.5046655122
 21
73.3751718013
  0
LINE
  5
339
100
AcDbEntity
  8
RUNDUNGEN
100
AcDbLine
 62
7
  6
CONTINUOUS
 10
61.0048472694
 20
162.3764994276
 11
64.7143805018
 21
157.2707649531
  0
LINE
  5
33A
100
AcDbEntity
  8
RUNDUNGEN
100
AcDbLine
 62
7
  6
CONTINUOUS
 10
147.4391815964
 20
43.409844352
 11
151.1486870742
 21
38.3041480783
  0
LINE
  5
33B
100
AcDbEntity
  8
0
100
AcDbLine
 62
7
  6
CONTINUOUS
 10
91.4662204395
 20
168.3477113362
 11
91.5002449944
 21
168.089776865
  0
LINE
  5
33C
100
AcDbEntity
  8
0
100
AcDbLine
 62
7
  6
CONTINUOUS
 10
91.7371944935
 20
168.1694953086
 11
91.7031696674
 21
168.4274296887
  0
LINE
  5
33D
100
AcDbEntity
  8
0
100
AcDbLine
 62
7
  6
CONTINUOUS
 10
92.8611861218
 20
168.2782653745
 11
92.8952104055
 21
168.020330812
  0
LINE
  5
33E
100
AcDbEntity
  8
RUNDUNGEN
100
AcDbLine
 62
7
  6
CONTINUOUS
 10
111.1079201212
 20
36.4494608256
 11
111.1079201212
 21
37.4493677565
  0
LINE
  5
33F
100
AcDbEntity
  8
RUNDUNGEN
100
AcDbLine
 62
7
  6
CONTINUOUS
 10
111.1079201212
 20
173.8113808445
 11
111.1079201212
 21
174.8113212216
  0
LINE
  5
340
100
AcDbEntity
  8
02___PRT_ALL_AXES
100
AcDbLine
 62
7
  6
CENTER
 10
113.3579201212
 20
105.6303910236
 11
113.3579201212
 21
22.2724709024
  0
LINE
  5
341
100
AcDbEntity
  8
02___PRT_ALL_AXES
100
AcDbLine
 62
7
  6
CENTER
 10
113.3579201212
 20
105.6303910236
 11
113.3579201212
 21
188.9883111448
  0
LINE
  5
342
100
AcDbEntity
  8
0
100
AcDbLine
 62
7
  6
CONTINUOUS
 10
127.4433447218
 20
171.6564090859
 11
127.0153484292
 21
169.7232202246
  0
LINE
  5
343
100
AcDbEntity
  8
0
100
AcDbLine
 62
7
  6
CONTINUOUS
 10
127.239140279
 20
169.9325606158
 11
127.6124987471
 21
171.6189594103
  0
LINE
  5
344
100
AcDbEntity
  8
0
100
AcDbLine
 62
7
  6
CONTINUOUS
 10
128.0302725814
 20
169.498522171
 11
128.0849104058
 21
169.7453122378
  0
LINE
  5
345
100
AcDbEntity
  8
0
100
AcDbLine
 62
7
  6
CONTINUOUS
 10
128.6963629027
 20
170.9001600436
 11
128.656718756
 21
170.7363790622
  0
LINE
  5
346
100
AcDbEntity
  8
0
100
AcDbLine
 62
7
  6
CONTINUOUS
 10
128.8350169291
 20
170.7365651837
 11
128.8548389885
 21
170.818455617
  0
LINE
  5
347
100
AcDbEntity
  8
0
100
AcDbLine
 62
7
  6
CONTINUOUS
 10
129.2740382536
 20
169.8501011265
 11
129.2443051645
 21
169.7272654765
  0
LINE
  5
348
100
AcDbEntity
  8
0
100
AcDbLine
 62
7
  6
CONTINUOUS
 10
129.4027813584
 20
169.6455611453
 11
129.452336507
 21
169.8502872286
  0
LINE
  5
349
100
AcDbEntity
  8
0
100
AcDbLine
 62
7
  6
CONTINUOUS
 10
130.9151095995
 20
168.9850413082
 11
130.8572534452
 21
168.7825044973
  0
LINE
  5
34A
100
AcDbEntity
  8
0
100
AcDbLine
 62
7
  6
CONTINUOUS
 10
132.1067503804
 20
170.0028361291
 11
132.0836078895
 21
169.9218213026
  0
LINE
  5
34B
100
AcDbEntity
  8
0
100
AcDbLine
 62
7
  6
CONTINUOUS
 10
131.8567725864
 20
168.4969843817
 11
131.9146287407
 21
168.6995211926
  0
LINE
  5
34C
100
AcDbEntity
  8
0
100
AcDbLine
 62
7
  6
CONTINUOUS
 10
132.2501944131
 20
169.8742346167
 11
132.273336904
 21
169.9552494432
  0
LINE
  5
34D
100
AcDbEntity
  8
0
100
AcDbLine
 62
7
  6
CONTINUOUS
 10
132.6589453423
 20
170.3243217507
 11
132.3377317454
 21
169.2771609056
  0
LINE
  5
34E
100
AcDbEntity
  8
0
100
AcDbLine
 62
7
  6
CONTINUOUS
 10
132.537530902
 20
169.4361984842
 11
132.7352008211
 21
170.0806052016
  0
LINE
  5
34F
100
AcDbEntity
  8
0
100
AcDbLine
 62
7
  6
CONTINUOUS
 10
133.1317285005
 20
168.8132792092
 11
133.1070197649
 21
168.7327283836
  0
LINE
  5
350
100
AcDbEntity
  8
0
100
AcDbLine
 62
7
  6
CONTINUOUS
 10
133.5357584421
 20
169.835036439
 11
133.597530281
 21
170.0364135029
  0
LINE
  5
351
100
AcDbEntity
  8
0
100
AcDbLine
 62
7
  6
CONTINUOUS
 10
133.2326930307
 20
168.6501133887
 11
133.2821105018
 21
168.8112150398
  0
LINE
  5
352
100
AcDbEntity
  8
0
100
AcDbLine
 62
7
  6
CONTINUOUS
 10
133.576952718
 20
168.9369501716
 11
133.5121424877
 21
168.7365302603
  0
LINE
  5
353
100
AcDbEntity
  8
0
100
AcDbLine
 62
7
  6
CONTINUOUS
 10
133.8967814294
 20
168.6121487144
 11
133.9615916597
 21
168.8125686257
  0
LINE
  5
354
100
AcDbEntity
  8
0
100
AcDbLine
 62
7
  6
CONTINUOUS
 10
134.428289274
 20
169.4575345805
 11
134.3218163149
 21
169.1377738851
  0
LINE
  5
355
100
AcDbEntity
  8
0
100
AcDbLine
 62
7
  6
CONTINUOUS
 10
134.5793571033
 20
169.3628307647
 11
134.0603015351
 21
167.8039976964
  0
LINE
  5
356
100
AcDbEntity
  8
0
100
AcDbLine
 62
7
  6
CONTINUOUS
 10
134.2246784796
 20
167.7492639536
 11
134.8502069696
 21
169.6278576053
  0
LINE
  5
357
100
AcDbEntity
  8
0
100
AcDbLine
 62
7
  6
CONTINUOUS
 10
134.8325231196
 20
168.7908479793
 11
134.7076807883
 21
168.4328420103
  0
LINE
  5
358
100
AcDbEntity
  8
0
100
AcDbLine
 62
7
  6
CONTINUOUS
 10
134.8578759988
 20
168.4250821767
 11
134.9549755898
 21
168.7035312637
  0
LINE
  5
359
100
AcDbEntity
  8
0
100
AcDbLine
 62
7
  6
CONTINUOUS
 10
135.6638610577
 20
168.4563317137
 11
135.5667614667
 21
168.1778826267
  0
LINE
  5
35A
100
AcDbEntity
  8
0
100
AcDbLine
 62
7
  6
CONTINUOUS
 10
135.689213937
 20
168.0905659112
 11
135.8140562683
 21
168.4485718802
  0
LINE
  5
35B
100
AcDbEntity
  8
0
100
AcDbLine
 62
7
  6
CONTINUOUS
 10
137.5793252176
 20
168.1502607463
 11
137.5174022276
 21
167.9935399388
  0
LINE
  5
35C
100
AcDbEntity
  8
0
100
AcDbLine
 62
7
  6
CONTINUOUS
 10
137.6940114509
 20
167.969055576
 11
137.7249729242
 21
168.0474159249
  0
LINE
  5
35D
100
AcDbEntity
  8
0
100
AcDbLine
 62
7
  6
CONTINUOUS
 10
138.0061628249
 20
167.0303756638
 11
137.9597206149
 21
166.9128351404
  0
LINE
  5
35E
100
AcDbEntity
  8
0
100
AcDbLine
 62
7
  6
CONTINUOUS
 10
138.1053683649
 20
166.8099904288
 11
138.1827720482
 21
167.0058913011
  0
LINE
  5
35F
100
AcDbEntity
  8
0
100
AcDbLine
 62
7
  6
CONTINUOUS
 10
138.5876919934
 20
167.3413436126
 11
138.4739701695
 21
167.0692598546
  0
LINE
  5
360
100
AcDbEntity
  8
0
100
AcDbLine
 62
7
  6
CONTINUOUS
 10
138.6884069198
 20
167.2079294196
 11
138.7208988694
 21
167.2856676362
  0
LINE
  5
361
100
AcDbEntity
  8
0
100
AcDbLine
 62
7
  6
CONTINUOUS
 10
138.5363435245
 20
166.7692335709
 11
138.5850814491
 21
166.8858408958
  0
LINE
  5
362
100
AcDbEntity
  8
0
100
AcDbLine
 62
7
  6
CONTINUOUS
 10
139.251119488
 20
166.6074594843
 11
139.2023815635
 21
166.4908521595
  0
LINE
  5
363
100
AcDbEntity
  8
0
100
AcDbLine
 62
7
  6
CONTINUOUS
 10
139.3193436842
 20
166.396306565
 11
139.4005735812
 21
166.5906521609
  0
LINE
  5
364
100
AcDbEntity
  8
0
100
AcDbLine
 62
7
  6
CONTINUOUS
 10
139.4032837335
 20
165.9913114968
 11
139.3196196828
 21
165.7980013289
  0
LINE
  5
365
100
AcDbEntity
  8
0
100
AcDbLine
 62
7
  6
CONTINUOUS
 10
139.4521180953
 20
165.7406564204
 11
139.535782146
 21
165.9339665882
  0
LINE
  5
366
100
AcDbEntity
  8
0
100
AcDbLine
 62
7
  6
CONTINUOUS
 10
140.3444664515
 20
167.1900452464
 11
140.2083587411
 21
166.8817303351
  0
LINE
  5
367
100
AcDbEntity
  8
0
100
AcDbLine
 62
7
  6
CONTINUOUS
 10
140.4859460911
 20
167.0815380423
 11
139.8224211401
 21
165.5785031601
  0
LINE
  5
368
100
AcDbEntity
  8
0
100
AcDbLine
 62
7
  6
CONTINUOUS
 10
139.9809142376
 20
165.5085353064
 11
140.7805468513
 21
167.3198849919
  0
LINE
  5
369
100
AcDbEntity
  8
RUNDUNGEN
100
AcDbLine
 62
7
  6
CONTINUOUS
 10
70.8741013736
 20
50.9843596244
 11
71.4618324196
 21
51.7933020102
  0
LINE
  5
36A
100
AcDbEntity
  8
RUNDUNGEN
100
AcDbLine
 62
7
  6
CONTINUOUS
 10
151.6134123219
 20
162.1124874851
 11
152.2011623941
 21
162.9214560581
  0
LINE
  5
36B
100
AcDbEntity
  8
0
100
AcDbLine
 62
7
  6
CONTINUOUS
 10
164.7724153429
 20
148.6647988385
 11
164.6424766143
 21
148.557505805
  0
LINE
  5
36C
100
AcDbEntity
  8
0
100
AcDbLine
 62
7
  6
CONTINUOUS
 10
164.7852718596
 20
148.4507358669
 11
164.8502411784
 21
148.504382346
  0
LINE
  5
36D
100
AcDbEntity
  8
0
100
AcDbLine
 62
7
  6
CONTINUOUS
 10
164.6050200755
 20
147.4780758865
 11
164.5075660973
 21
147.3976061678
  0
LINE
  5
36E
100
AcDbEntity
  8
0
100
AcDbLine
 62
7
  6
CONTINUOUS
 10
164.5853920238
 20
147.2371897504
 11
164.7478153208
 21
147.3713059483
  0
LINE
  5
36F
100
AcDbEntity
  8
0
100
AcDbLine
 62
7
  6
CONTINUOUS
 10
165.3975255246
 20
147.5734780008
 11
164.9021144255
 21
147.1811971639
  0
LINE
  5
370
100
AcDbEntity
  8
0
100
AcDbLine
 62
7
  6
CONTINUOUS
 10
165.0096647577
 20
147.0453719507
 11
165.5050758568
 21
147.4376527877
  0
LINE
  5
371
100
AcDbEntity
  8
0
100
AcDbLine
 62
7
  6
CONTINUOUS
 10
166.0069774415
 20
146.8038017496
 11
165.5115663423
 21
146.4115209127
  0
LINE
  5
372
100
AcDbEntity
  8
0
100
AcDbLine
 62
7
  6
CONTINUOUS
 10
165.6191166746
 20
146.2756956995
 11
166.1145277737
 21
146.6679765364
  0
LINE
  5
373
100
AcDbEntity
  8
0
100
AcDbLine
 62
7
  6
CONTINUOUS
 10
167.4236293042
 20
145.564884903
 11
167.1520245806
 21
145.3653497746
  0
LINE
  5
374
100
AcDbEntity
  8
0
100
AcDbLine
 62
7
  6
CONTINUOUS
 10
167.4922522289
 20
145.4003212497
 11
166.1681794748
 21
144.4275876997
  0
LINE
  5
375
100
AcDbEntity
  8
0
100
AcDbLine
 62
7
  6
CONTINUOUS
 10
166.270752978
 20
144.2879659287
 11
167.8664303607
 21
145.4602345372
  0
LINE
  5
376
100
AcDbEntity
  8
0
100
AcDbLine
 62
7
  6
CONTINUOUS
 10
168.5957586555
 20
143.9272042712
 11
168.3182979726
 21
143.7358957174
  0
LINE
  5
377
100
AcDbEntity
  8
0
100
AcDbLine
 62
7
  6
CONTINUOUS
 10
168.659420613
 20
143.760658611
 11
167.3068000631
 21
142.8280296036
  0
LINE
  5
378
100
AcDbEntity
  8
0
100
AcDbLine
 62
7
  6
CONTINUOUS
 10
167.4051445938
 20
142.6853975042
 11
169.0352257295
 21
143.8093349985
  0
LINE
  5
379
100
AcDbEntity
  8
0
100
AcDbLine
 62
7
  6
CONTINUOUS
 10
168.1000897283
 20
142.0359054653
 11
167.9237794949
 21
141.9206527171
  0
LINE
  5
37A
100
AcDbEntity
  8
0
100
AcDbLine
 62
7
  6
CONTINUOUS
 10
169.6671901125
 20
142.0253966975
 11
169.5966659302
 21
141.9792955401
  0
LINE
  5
37B
100
AcDbEntity
  8
0
100
AcDbLine
 62
7
  6
CONTINUOUS
 10
168.4925517956
 20
141.0505617333
 11
168.668862029
 21
141.1658144816
  0
LINE
  5
37C
100
AcDbEntity
  8
0
100
AcDbLine
 62
7
  6
CONTINUOUS
 10
169.6914613136
 20
141.8342803761
 11
169.7619854959
 21
141.8803815335
  0
LINE
  5
37D
100
AcDbEntity
  8
RUNDUNGEN
100
AcDbLine
 62
7
  6
CONTINUOUS
 10
46.8676574157
 20
86.3921850674
 11
47.8186250573
 21
86.7011731847
  0
LINE
  5
37E
100
AcDbEntity
  8
RUNDUNGEN
100
AcDbLine
 62
7
  6
CONTINUOUS
 10
177.506606443
 20
128.8393527015
 11
178.457606352
 21
129.1483513031
  0
LINE
  5
37F
100
AcDbEntity
  8
02___PRT_ALL_AXES
100
AcDbLine
 62
7
  6
CENTER
 10
113.3579201212
 20
105.6303910236
 11
30.0
 21
105.6303910236
  0
LINE
  5
380
100
AcDbEntity
  8
02___PRT_ALL_AXES
100
AcDbLine
 62
7
  6
CENTER
 10
113.3579201212
 20
105.6303910236
 11
196.7158402423
 21
105.6303910236
  0
LINE
  5
381
100
AcDbEntity
  8
RUNDUNGEN
100
AcDbLine
 62
7
  6
CONTINUOUS
 10
46.8676574157
 20
124.8685969798
 11
47.8186571298
 21
124.5595984416
  0
LINE
  5
382
100
AcDbEntity
  8
RUNDUNGEN
100
AcDbLine
 62
7
  6
CONTINUOUS
 10
177.5066379891
 20
82.4214190957
 11
178.457606352
 21
82.1124307441
  0
LINE
  5
383
100
AcDbEntity
  8
RUNDUNGEN
100
AcDbLine
 62
7
  6
CONTINUOUS
 10
151.6134323449
 20
49.1482670029
 11
152.2011623941
 21
48.3393259891
  0
LINE
  5
384
100
AcDbEntity
  8
RUNDUNGEN
100
AcDbLine
 62
7
  6
CONTINUOUS
 10
71.4618517151
 20
159.4674534789
 11
70.8741013736
 21
160.2764224228
  0
LINE
  5
385
100
AcDbEntity
  8
0
100
AcDbLine
 62
7
  6
CONTINUOUS
 10
87.4439318675
 20
168.5271713316
 11
88.5489356974
 21
165.738091459
  0
LINE
  5
386
100
AcDbEntity
  8
0
100
AcDbLine
 62
7
  6
CONTINUOUS
 10
88.8278436846
 20
165.848591842
 11
88.3341185621
 21
167.0947764836
  0
LINE
  5
387
100
AcDbEntity
  8
0
100
AcDbLine
 62
7
  6
CONTINUOUS
 10
88.1930542602
 20
167.4508291909
 11
87.8403934396
 21
168.3409611253
  0
LINE
  5
388
100
AcDbEntity
  8
0
100
AcDbLine
 62
7
  6
CONTINUOUS
 10
89.1435743108
 20
168.4453266629
 11
89.2141065276
 21
168.267300143
  0
LINE
  5
389
100
AcDbEntity
  8
0
100
AcDbLine
 62
7
  6
CONTINUOUS
 10
89.5165252318
 20
168.3184584082
 11
89.422482298
 21
168.5558270459
  0
LINE
  5
38A
100
AcDbEntity
  8
0
100
AcDbLine
 62
7
  6
CONTINUOUS
 10
89.9448667582
 20
168.4744974294
 11
90.6450957306
 21
166.5557210845
  0
LINE
  5
38B
100
AcDbEntity
  8
0
100
AcDbLine
 62
7
  6
CONTINUOUS
 10
90.8799458782
 20
166.6414261631
 11
90.4423027475
 21
167.8406614417
  0
LINE
  5
38C
100
AcDbEntity
  8
0
100
AcDbLine
 62
7
  6
CONTINUOUS
 10
90.3110098267
 20
168.2004319749
 11
90.1797169058
 21
168.5602025081
  0
LINE
  5
38D
100
AcDbEntity
  8
0
100
AcDbLine
 62
7
  6
CONTINUOUS
 10
90.8997383794
 20
168.4832270525
 11
90.790327612
 21
168.7830358302
  0
LINE
  5
38E
100
AcDbEntity
  8
0
100
AcDbLine
 62
7
  6
CONTINUOUS
 10
91.5002449944
 20
168.089776865
 11
91.5816595319
 21
167.8477860159
  0
LINE
  5
38F
100
AcDbEntity
  8
0
100
AcDbLine
 62
7
  6
CONTINUOUS
 10
91.8186090309
 20
167.9275044596
 11
91.7371944935
 21
168.1694953086
  0
LINE
  5
390
100
AcDbEntity
  8
0
100
AcDbLine
 62
7
  6
CONTINUOUS
 10
92.7797715843
 20
168.5202562235
 11
92.8611861218
 21
168.2782653745
  0
LINE
  5
391
100
AcDbEntity
  8
0
100
AcDbLine
 62
7
  6
CONTINUOUS
 10
93.0981350785
 20
168.3579836357
 11
93.0167205411
 21
168.5999744847
  0
LINE
  5
392
100
AcDbEntity
  8
0
100
AcDbLine
 62
7
  6
CONTINUOUS
 10
92.8671532075
 20
170.4904575645
 11
93.7656353181
 21
167.6281630484
  0
LINE
  5
393
100
AcDbEntity
  8
0
100
AcDbLine
 62
7
  6
CONTINUOUS
 10
94.0041600431
 20
167.7030366147
 11
93.1056779325
 21
170.5653311308
  0
LINE
  5
394
100
AcDbEntity
  8
0
100
AcDbLine
 62
7
  6
CONTINUOUS
 10
93.5165699403
 20
170.692058566
 11
93.6091043379
 21
170.3866188757
  0
LINE
  5
395
100
AcDbEntity
  8
0
100
AcDbLine
 62
7
  6
CONTINUOUS
 10
93.7941731849
 20
169.7757393239
 11
94.3863933813
 21
167.8209251345
  0
LINE
  5
396
100
AcDbEntity
  8
0
100
AcDbLine
 62
7
  6
CONTINUOUS
 10
94.6256546832
 20
167.8934104766
 11
94.0334344867
 21
169.8482246659
  0
LINE
  5
397
100
AcDbEntity
  8
0
100
AcDbLine
 62
7
  6
CONTINUOUS
 10
93.8483656397
 20
170.4591042177
 11
93.7558312421
 21
170.7645439081
  0
LINE
  5
398
100
AcDbEntity
  8
0
100
AcDbLine
 62
7
  6
CONTINUOUS
 10
94.4527566282
 20
169.9766035842
 11
95.0080443452
 21
168.0109792999
  0
LINE
  5
399
100
AcDbEntity
  8
0
100
AcDbLine
 62
7
  6
CONTINUOUS
 10
95.248628208
 20
168.0789441012
 11
94.8495151478
 21
169.4917366039
  0
LINE
  5
39A
100
AcDbEntity
  8
0
100
AcDbLine
 62
7
  6
CONTINUOUS
 10
94.7801041892
 20
169.737439618
 11
94.693340491
 21
170.0445683855
  0
LINE
  5
39B
100
AcDbEntity
  8
0
100
AcDbLine
 62
7
  6
CONTINUOUS
 10
95.785029334
 20
169.4907072479
 11
96.1147314357
 21
168.3236177592
  0
LINE
  5
39C
100
AcDbEntity
  8
0
100
AcDbLine
 62
7
  6
CONTINUOUS
 10
96.3553158492
 20
168.3915827161
 11
96.0256137475
 21
169.5586722048
  0
LINE
  5
39D
100
AcDbEntity
  8
0
100
AcDbLine
 62
7
  6
CONTINUOUS
 10
96.0064403041
 20
171.4034879813
 11
96.7417931374
 21
168.4950079296
  0
LINE
  5
39E
100
AcDbEntity
  8
0
100
AcDbLine
 62
7
  6
CONTINUOUS
 10
96.9841661052
 20
168.5562872389
 11
96.8120622492
 21
169.2369953416
  0
LINE
  5
39F
100
AcDbEntity
  8
0
100
AcDbLine
 62
7
  6
CONTINUOUS
 10
96.7181874306
 20
169.6082906231
 11
96.2488132719
 21
171.4647672905
  0
LINE
  5
3A0
100
AcDbEntity
  8
RUNDUNGEN
100
AcDbLine
 62
7
  6
CONTINUOUS
 10
115.6079201212
 20
36.4494608256
 11
115.6079201212
 21
37.4494012027
  0
LINE
  5
3A1
100
AcDbEntity
  8
RUNDUNGEN
100
AcDbLine
 62
7
  6
CONTINUOUS
 10
115.6079201212
 20
173.8114142907
 11
115.6079201212
 21
174.8113212216
  0
LINE
  5
3A2
100
AcDbEntity
  8
0
100
AcDbLine
 62
7
  6
CONTINUOUS
 10
134.7076807883
 20
168.4328420103
 11
134.6655889358
 21
168.2244420076
  0
LINE
  5
3A3
100
AcDbEntity
  8
0
100
AcDbLine
 62
7
  6
CONTINUOUS
 10
134.8019127762
 20
168.176903733
 11
134.8578759988
 21
168.4250821767
  0
LINE
  5
3A4
100
AcDbEntity
  8
0
100
AcDbLine
 62
7
  6
CONTINUOUS
 10
135.7198242609
 20
168.7045101017
 11
135.6638610577
 21
168.4563317137
  0
LINE
  5
3A5
100
AcDbEntity
  8
0
100
AcDbLine
 62
7
  6
CONTINUOUS
 10
138.4739701695
 20
167.0692598546
 11
138.3868894541
 21
166.7860409488
  0
LINE
  5
3A6
100
AcDbEntity
  8
RUNDUNGEN
100
AcDbLine
 62
7
  6
CONTINUOUS
 10
74.5146778483
 20
48.3393259891
 11
75.1024279204
 21
49.1482945621
  0
LINE
  5
3A7
100
AcDbEntity
  8
RUNDUNGEN
100
AcDbLine
 62
7
  6
CONTINUOUS
 10
155.2540078228
 20
159.467480037
 11
155.8417388688
 21
160.2764224228
  0
LINE
  5
3A8
100
AcDbEntity
  8
0
100
AcDbLine
 62
7
  6
CONTINUOUS
 10
164.9021144255
 20
147.1811971639
 11
164.7549024461
 21
147.0277993832
  0
LINE
  5
3A9
100
AcDbEntity
  8
RUNDUNGEN
100
AcDbLine
 62
7
  6
CONTINUOUS
 10
48.2582338904
 20
82.1124307441
 11
49.2092337994
 21
82.4214293456
  0
LINE
  5
3AA
100
AcDbEntity
  8
RUNDUNGEN
100
AcDbLine
 62
7
  6
CONTINUOUS
 10
178.897215185
 20
124.5596088625
 11
179.8481828267
 21
124.8685969798
  0
LINE
  5
3AB
100
AcDbEntity
  8
RUNDUNGEN
100
AcDbLine
 62
7
  6
CONTINUOUS
 10
48.2582338904
 20
129.1483513031
 11
49.2092022533
 21
128.8393629515
  0
LINE
  5
3AC
100
AcDbEntity
  8
RUNDUNGEN
100
AcDbLine
 62
7
  6
CONTINUOUS
 10
178.8971831126
 20
86.7011836056
 11
179.8481828267
 21
86.3921850674
  0
LINE
  5
3AD
100
AcDbEntity
  8
RUNDUNGEN
100
AcDbLine
 62
7
  6
CONTINUOUS
 10
155.2539885272
 20
51.7933285683
 11
155.8417388688
 21
50.9843596244
  0
LINE
  5
3AE
100
AcDbEntity
  8
RUNDUNGEN
100
AcDbLine
 62
7
  6
CONTINUOUS
 10
75.1024078975
 20
162.1125150443
 11
74.5146778483
 21
162.9214560581
  0
LINE
  5
3AF
100
AcDbEntity
  8
RUNDUNGEN
100
AcDbLine
 62
7
  6
CONTINUOUS
 10
122.3579201212
 20
28.9494608256
 11
122.3579201212
 21
35.2603433165
  0
LINE
  5
3B0
100
AcDbEntity
  8
RUNDUNGEN
100
AcDbLine
 62
7
  6
CONTINUOUS
 10
122.3579201212
 20
176.000336005
 11
122.3579201212
 21
182.3113212216
  0
LINE
  5
3B1
100
AcDbEntity
  8
RUNDUNGEN
100
AcDbLine
 62
7
  6
CONTINUOUS
 10
123.3579201212
 20
61.4250831506
 11
123.3579201212
 21
69.6842507894
  0
LINE
  5
3B2
100
AcDbEntity
  8
RUNDUNGEN
100
AcDbLine
 62
7
  6
CONTINUOUS
 10
123.3579201212
 20
141.5765312578
 11
123.3579201212
 21
149.8356988966
  0
LINE
  5
3B3
100
AcDbEntity
  8
0
100
AcDbLine
 62
7
  6
CONTINUOUS
 10
128.5509342105
 20
169.8084115016
 11
128.5526027089
 21
169.9380403503
  0
LINE
  5
3B4
100
AcDbEntity
  8
0
100
AcDbLine
 62
7
  6
CONTINUOUS
 10
128.8333484307
 20
170.606936335
 11
128.8350169291
 21
170.7365651837
  0
LINE
  5
3B5
100
AcDbEntity
  8
0
100
AcDbLine
 62
7
  6
CONTINUOUS
 10
129.5663635313
 20
170.6895712913
 11
129.5680320297
 21
170.81920014
  0
LINE
  5
3B6
100
AcDbEntity
  8
0
100
AcDbLine
 62
7
  6
CONTINUOUS
 10
128.3842155656
 20
169.9787994455
 11
128.3726359572
 21
169.8082253995
  0
LINE
  5
3B7
100
AcDbEntity
  8
0
100
AcDbLine
 62
7
  6
CONTINUOUS
 10
128.656718756
 20
170.7363790622
 11
128.6451391477
 21
170.5658050162
  0
LINE
  5
3B8
100
AcDbEntity
  8
0
100
AcDbLine
 62
7
  6
CONTINUOUS
 10
133.1411865999
 20
168.9425732653
 11
133.1317285005
 21
168.8132792092
  0
LINE
  5
3B9
100
AcDbEntity
  8
0
100
AcDbLine
 62
7
  6
CONTINUOUS
 10
132.273336904
 20
169.9552494432
 11
132.2918571885
 21
170.1252100441
  0
LINE
  5
3BA
100
AcDbEntity
  8
0
100
AcDbLine
 62
7
  6
CONTINUOUS
 10
134.6655889358
 20
168.2244420076
 11
134.651239219
 21
168.0955991602
  0
LINE
  5
3BB
100
AcDbEntity
  8
0
100
AcDbLine
 62
7
  6
CONTINUOUS
 10
135.8561481013
 20
168.6569718272
 11
135.8704978569
 21
168.7858147859
  0
LINE
  5
3BC
100
AcDbEntity
  8
0
100
AcDbLine
 62
7
  6
CONTINUOUS
 10
137.284245195
 20
167.0891329402
 11
137.3038324524
 21
167.2172843007
  0
LINE
  5
3BD
100
AcDbEntity
  8
0
100
AcDbLine
 62
7
  6
CONTINUOUS
 10
137.6744241935
 20
167.8409042155
 11
137.6940114509
 21
167.969055576
  0
LINE
  5
3BE
100
AcDbEntity
  8
0
100
AcDbLine
 62
7
  6
CONTINUOUS
 10
138.4118226035
 20
167.8213272233
 11
138.4314104755
 21
167.949478341
  0
LINE
  5
3BF
100
AcDbEntity
  8
0
100
AcDbLine
 62
7
  6
CONTINUOUS
 10
138.5142467313
 20
166.6414911527
 11
138.5363435245
 21
166.7692335709
  0
LINE
  5
3C0
100
AcDbEntity
  8
0
100
AcDbLine
 62
7
  6
CONTINUOUS
 10
139.273216304
 20
166.735201957
 11
139.251119488
 21
166.6074594843
  0
LINE
  5
3C1
100
AcDbEntity
  8
0
100
AcDbLine
 62
7
  6
CONTINUOUS
 10
139.6397176918
 20
167.3125669154
 11
139.661814485
 21
167.4403093337
  0
LINE
  5
3C2
100
AcDbEntity
  8
0
100
AcDbLine
 62
7
  6
CONTINUOUS
 10
135.8140562683
 20
168.4485718802
 11
135.8561481013
 21
168.6569718272
  0
LINE
  5
3C3
100
AcDbEntity
  8
0
100
AcDbLine
 62
7
  6
CONTINUOUS
 10
137.1427039657
 20
167.2809488379
 11
137.1076359717
 21
167.1136173029
  0
LINE
  5
3C4
100
AcDbEntity
  8
0
100
AcDbLine
 62
7
  6
CONTINUOUS
 10
137.5174022276
 20
167.9935399388
 11
137.4823342335
 21
167.8262084038
  0
LINE
  5
3C5
100
AcDbEntity
  8
RUNDUNGEN
100
AcDbLine
 62
7
  6
CONTINUOUS
 10
75.5671531681
 20
38.3041480783
 11
79.2765985747
 21
43.409761671
  0
LINE
  5
3C6
100
AcDbEntity
  8
RUNDUNGEN
100
AcDbLine
 62
7
  6
CONTINUOUS
 10
162.0014903978
 20
157.2708071492
 11
165.710992973
 21
162.3764994276
  0
LINE
  5
3C7
100
AcDbEntity
  8
0
100
AcDbLine
 62
7
  6
CONTINUOUS
 10
164.001354448
 20
147.8783323836
 11
164.080423333
 21
147.9810676267
  0
LINE
  5
3C8
100
AcDbEntity
  8
0
100
AcDbLine
 62
7
  6
CONTINUOUS
 10
164.7062029746
 20
148.3480006238
 11
164.7852718596
 21
148.4507358669
  0
LINE
  5
3C9
100
AcDbEntity
  8
0
100
AcDbLine
 62
7
  6
CONTINUOUS
 10
165.3423533525
 20
147.9745674414
 11
165.4214222506
 21
148.0773026685
  0
LINE
  5
3CA
100
AcDbEntity
  8
0
100
AcDbLine
 62
7
  6
CONTINUOUS
 10
163.9701127471
 20
148.1146608044
 11
163.8585592076
 21
147.9851023158
  0
LINE
  5
3CB
100
AcDbEntity
  8
0
100
AcDbLine
 62
7
  6
CONTINUOUS
 10
164.6424766143
 20
148.557505805
 11
164.5309230765
 21
148.4279473145
  0
LINE
  5
3CC
100
AcDbEntity
  8
0
100
AcDbLine
 62
7
  6
CONTINUOUS
 10
164.8954802332
 20
146.9181261586
 11
165.0096647577
 21
147.0453719507
  0
LINE
  5
3CD
100
AcDbEntity
  8
0
100
AcDbLine
 62
7
  6
CONTINUOUS
 10
166.121161966
 20
146.9310475417
 11
166.0069774415
 21
146.8038017496
  0
LINE
  5
3CE
100
AcDbEntity
  8
0
100
AcDbLine
 62
7
  6
CONTINUOUS
 10
166.1145277737
 20
146.6679765364
 11
166.2617397943
 21
146.8213744552
  0
LINE
  5
3CF
100
AcDbEntity
  8
0
100
AcDbLine
 62
7
  6
CONTINUOUS
 10
169.7619854959
 20
141.8803815335
 11
169.8872343118
 21
141.9967530976
  0
LINE
  5
3D0
100
AcDbEntity
  8
RUNDUNGEN
100
AcDbLine
 62
7
  6
CONTINUOUS
 10
43.2111747302
 20
73.3751718013
 11
49.2131794109
 21
75.3253413389
  0
LINE
  5
3D1
100
AcDbEntity
  8
RUNDUNGEN
100
AcDbLine
 62
7
  6
CONTINUOUS
 10
183.0648667642
 20
118.816390934
 11
189.0669714109
 21
120.7665929526
  0
LINE
  5
3D2
100
AcDbEntity
  8
RUNDUNGEN
100
AcDbLine
 62
7
  6
CONTINUOUS
 10
157.5632279942
 20
115.6303910236
 11
149.3040603554
 21
115.6303910236
  0
LINE
  5
3D3
100
AcDbEntity
  8
RUNDUNGEN
100
AcDbLine
 62
7
  6
CONTINUOUS
 10
77.4117798869
 20
115.6303910236
 11
69.1526122482
 21
115.6303910236
  0
LINE
  5
3D4
100
AcDbEntity
  8
RUNDUNGEN
100
AcDbLine
 62
7
  6
CONTINUOUS
 10
189.0669714109
 20
90.4941890946
 11
183.0649642368
 21
92.4443594424
  0
LINE
  5
3D5
100
AcDbEntity
  8
RUNDUNGEN
100
AcDbLine
 62
7
  6
CONTINUOUS
 10
49.2132772613
 20
135.9354089148
 11
43.2111747302
 21
137.8856102459
  0
LINE
  5
3D6
100
AcDbEntity
  8
RUNDUNGEN
100
AcDbLine
 62
7
  6
CONTINUOUS
 10
165.710992973
 20
48.8842826196
 11
162.0015510539
 21
53.9898914121
  0
LINE
  5
3D7
100
AcDbEntity
  8
RUNDUNGEN
100
AcDbLine
 62
7
  6
CONTINUOUS
 10
79.2765973928
 20
167.851022003
 11
75.5671531681
 21
172.9566339689
  0
LINE
  5
3D8
100
AcDbEntity
  8
0
100
AcDbLine
 62
7
  6
CONTINUOUS
 10
91.5816595319
 20
167.8477860159
 11
91.8189148449
 21
167.45618955
  0
LINE
  5
3D9
100
AcDbEntity
  8
0
100
AcDbLine
 62
7
  6
CONTINUOUS
 10
91.9474132227
 20
167.701457311
 11
91.8186090309
 21
167.9275044596
  0
LINE
  5
3DA
100
AcDbEntity
  8
0
100
AcDbLine
 62
7
  6
CONTINUOUS
 10
92.6509668502
 20
168.7463031896
 11
92.7797715843
 21
168.5202562235
  0
LINE
  5
3DB
100
AcDbEntity
  8
0
100
AcDbLine
 62
7
  6
CONTINUOUS
 10
93.0167205411
 20
168.5999744847
 11
92.8879163492
 21
168.8260216333
  0
LINE
  5
3DC
100
AcDbEntity
  8
0
100
AcDbLine
 62
7
  6
CONTINUOUS
 10
95.6501489734
 20
169.7842430863
 11
95.785029334
 21
169.4907072479
  0
LINE
  5
3DD
100
AcDbEntity
  8
0
100
AcDbLine
 62
7
  6
CONTINUOUS
 10
96.0256137475
 20
169.5586722048
 11
95.8907333869
 21
169.8522080432
  0
LINE
  5
3DE
100
AcDbEntity
  8
0
100
AcDbLine
 62
7
  6
CONTINUOUS
 10
129.452336507
 20
169.8502872286
 11
129.4358516187
 21
170.0276545112
  0
LINE
  5
3DF
100
AcDbEntity
  8
0
100
AcDbLine
 62
7
  6
CONTINUOUS
 10
129.3897337763
 20
170.8190140379
 11
129.3979763077
 21
170.7303304059
  0
LINE
  5
3E0
100
AcDbEntity
  8
0
100
AcDbLine
 62
7
  6
CONTINUOUS
 10
132.2265424181
 20
168.9146821341
 11
132.2323359286
 21
168.7366446413
  0
LINE
  5
3E1
100
AcDbEntity
  8
0
100
AcDbLine
 62
7
  6
CONTINUOUS
 10
132.3979685834
 20
168.6858372977
 11
132.3921750729
 21
168.8638747905
  0
LINE
  5
3E2
100
AcDbEntity
  8
0
100
AcDbLine
 62
7
  6
CONTINUOUS
 10
134.1998924966
 20
112.8605578612
 11
134.1998924966
 21
112.0120297238
  0
LINE
  5
3E3
100
AcDbEntity
  8
0
100
AcDbLine
 62
7
  6
CONTINUOUS
 10
134.1998924966
 20
99.2487523234
 11
134.1998924966
 21
98.400224186
  0
LINE
  5
3E4
100
AcDbEntity
  8
0
100
AcDbLine
 62
7
  6
CONTINUOUS
 10
134.651239219
 20
168.0955991602
 11
134.6502837642
 21
167.9174698845
  0
LINE
  5
3E5
100
AcDbEntity
  8
0
100
AcDbLine
 62
7
  6
CONTINUOUS
 10
135.8704978569
 20
168.7858147859
 11
135.8714533021
 21
168.9639440338
  0
LINE
  5
3E6
100
AcDbEntity
  8
0
100
AcDbLine
 62
7
  6
CONTINUOUS
 10
133.2821105018
 20
168.8112150398
 11
133.2886710519
 21
169.0295280705
  0
LINE
  5
3E7
100
AcDbEntity
  8
0
100
AcDbLine
 62
7
  6
CONTINUOUS
 10
138.1827720482
 20
167.0058913011
 11
138.1909851113
 21
167.1838337281
  0
LINE
  5
3E8
100
AcDbEntity
  8
0
100
AcDbLine
 62
7
  6
CONTINUOUS
 10
138.2548012522
 20
167.9739627037
 11
138.2506941168
 21
167.8849917605
  0
LINE
  5
3E9
100
AcDbEntity
  8
0
100
AcDbLine
 62
7
  6
CONTINUOUS
 10
138.3868894541
 20
166.7860409488
 11
138.3589430506
 21
166.5694246837
  0
LINE
  5
3EA
100
AcDbEntity
  8
0
100
AcDbLine
 62
7
  6
CONTINUOUS
 10
139.4005735812
 20
166.5906521609
 11
139.4285199733
 21
166.8072683988
  0
LINE
  5
3EB
100
AcDbEntity
  8
RUNDUNGEN
100
AcDbLine
 62
7
  6
CONTINUOUS
 10
108.5706166915
 20
28.6404438313
 11
111.1079201212
 21
36.4494608256
  0
LINE
  5
3EC
100
AcDbEntity
  8
RUNDUNGEN
100
AcDbLine
 62
7
  6
CONTINUOUS
 10
152.2011623941
 20
162.9214560581
 11
154.7384658238
 21
170.7304730525
  0
LINE
  5
3ED
100
AcDbEntity
  8
0
100
AcDbLine
 62
7
  6
CONTINUOUS
 10
164.7478153208
 20
147.3713059483
 11
164.8409838437
 21
147.523129961
  0
LINE
  5
3EE
100
AcDbEntity
  8
0
100
AcDbLine
 62
7
  6
CONTINUOUS
 10
165.2786270053
 20
148.1840726066
 11
165.2320427666
 21
148.1081606191
  0
LINE
  5
3EF
100
AcDbEntity
  8
0
100
AcDbLine
 62
7
  6
CONTINUOUS
 10
164.7549024461
 20
147.0277993832
 11
164.6586429368
 21
146.8779160588
  0
LINE
  5
3F0
100
AcDbEntity
  8
0
100
AcDbLine
 62
7
  6
CONTINUOUS
 10
166.2617397943
 20
146.8213744552
 11
166.3579993318
 21
146.9712576965
  0
LINE
  5
3F1
100
AcDbEntity
  8
0
100
AcDbLine
 62
7
  6
CONTINUOUS
 10
139.6156053706
 20
104.6644651973
 11
134.1998924966
 21
99.2487523234
  0
LINE
  5
3F2
100
AcDbEntity
  8
0
100
AcDbLine
 62
7
  6
CONTINUOUS
 10
119.7395588214
 20
84.7884186481
 11
114.3238459475
 21
79.3727057742
  0
LINE
  5
3F3
100
AcDbEntity
  8
0
100
AcDbLine
 62
7
  6
CONTINUOUS
 10
134.1998924966
 20
98.400224186
 11
120.5880869588
 21
84.7884186481
  0
LINE
  5
3F4
100
AcDbEntity
  8
RUNDUNGEN
100
AcDbLine
 62
7
  6
CONTINUOUS
 10
64.2313547549
 20
46.1581217032
 11
70.8741013736
 21
50.9843596244
  0
LINE
  5
3F5
100
AcDbEntity
  8
RUNDUNGEN
100
AcDbLine
 62
7
  6
CONTINUOUS
 10
178.457606352
 20
129.1483513031
 11
185.1003529707
 21
133.9745892243
  0
LINE
  5
3F6
100
AcDbEntity
  8
0
100
AcDbLine
 62
7
  6
CONTINUOUS
 10
167.9332576305
 20
142.6586641719
 11
169.0162054593
 21
142.9367688879
  0
LINE
  5
3F7
100
AcDbEntity
  8
0
100
AcDbLine
 62
7
  6
CONTINUOUS
 10
169.0375759675
 20
143.0557065565
 11
167.9546280409
 21
142.7776017745
  0
LINE
  5
3F8
100
AcDbEntity
  8
0
100
AcDbLine
 62
7
  6
CONTINUOUS
 10
169.5966659302
 20
141.9792955401
 11
169.424019061
 21
141.9354321112
  0
LINE
  5
3F9
100
AcDbEntity
  8
RUNDUNGEN
100
AcDbLine
 62
7
  6
CONTINUOUS
 10
188.0590692047
 20
124.8685969798
 11
179.8481828267
 21
124.8685969798
  0
LINE
  5
3FA
100
AcDbEntity
  8
RUNDUNGEN
100
AcDbLine
 62
7
  6
CONTINUOUS
 10
46.8676574157
 20
124.8685969798
 11
38.6567710377
 21
124.8685969798
  0
LINE
  5
3FB
100
AcDbEntity
  8
0
100
AcDbLine
 62
7
  6
CONTINUOUS
 10
106.1277532835
 20
126.4723633991
 11
106.976281421
 21
126.4723633991
  0
LINE
  5
3FC
100
AcDbEntity
  8
0
100
AcDbLine
 62
7
  6
CONTINUOUS
 10
119.7395588214
 20
126.4723633991
 11
120.5880869588
 21
126.4723633991
  0
LINE
  5
3FD
100
AcDbEntity
  8
RUNDUNGEN
100
AcDbLine
 62
7
  6
CONTINUOUS
 10
185.1003529707
 20
77.2861928228
 11
178.457606352
 21
82.1124307441
  0
LINE
  5
3FE
100
AcDbEntity
  8
RUNDUNGEN
100
AcDbLine
 62
7
  6
CONTINUOUS
 10
70.8741013736
 20
160.2764224228
 11
64.2313547549
 21
165.102660344
  0
LINE
  5
3FF
100
AcDbEntity
  8
0
100
AcDbLine
 62
7
  6
CONTINUOUS
 10
114.3238459475
 20
131.888076273
 11
119.7395588214
 21
126.4723633991
  0
LINE
  5
400
100
AcDbEntity
  8
0
100
AcDbLine
 62
7
  6
CONTINUOUS
 10
134.1998924966
 20
112.0120297238
 11
139.6156053706
 21
106.5963168499
  0
LINE
  5
401
100
AcDbEntity
  8
0
100
AcDbLine
 62
7
  6
CONTINUOUS
 10
120.5880869588
 20
126.4723633991
 11
134.1998924966
 21
112.8605578612
  0
LINE
  5
402
100
AcDbEntity
  8
0
100
AcDbLine
 62
7
  6
CONTINUOUS
 10
89.0265575396
 20
168.6049363036
 11
89.1435743108
 21
168.4453266629
  0
LINE
  5
403
100
AcDbEntity
  8
0
100
AcDbLine
 62
7
  6
CONTINUOUS
 10
89.422482298
 20
168.5558270459
 11
89.3054655269
 21
168.7154366866
  0
LINE
  5
404
100
AcDbEntity
  8
0
100
AcDbLine
 62
7
  6
CONTINUOUS
 10
92.8879163492
 20
168.8260216333
 11
92.7794657846
 21
168.9915710908
  0
LINE
  5
405
100
AcDbEntity
  8
0
100
AcDbLine
 62
7
  6
CONTINUOUS
 10
95.8907333869
 20
169.8522080432
 11
95.7905579549
 21
170.022892219
  0
LINE
  5
406
100
AcDbEntity
  8
RUNDUNGEN
100
AcDbLine
 62
7
  6
CONTINUOUS
 10
154.7384658238
 20
40.5303089947
 11
152.2011623941
 21
48.3393259891
  0
LINE
  5
407
100
AcDbEntity
  8
RUNDUNGEN
100
AcDbLine
 62
7
  6
CONTINUOUS
 10
111.1079201212
 20
174.8113212216
 11
108.5706166915
 21
182.6203382159
  0
LINE
  5
408
100
AcDbEntity
  8
0
100
AcDbLine
 62
7
  6
CONTINUOUS
 10
138.4314104755
 20
167.949478341
 11
138.4127691789
 21
168.1380313074
  0
LINE
  5
409
100
AcDbEntity
  8
0
100
AcDbLine
 62
7
  6
CONTINUOUS
 10
134.8277439924
 20
167.900202309
 11
134.8019127762
 21
168.176903733
  0
LINE
  5
40A
100
AcDbEntity
  8
0
100
AcDbLine
 62
7
  6
CONTINUOUS
 10
135.6939930738
 20
168.9812116094
 11
135.7198242609
 21
168.7045101017
  0
LINE
  5
40B
100
AcDbEntity
  8
0
100
AcDbLine
 62
7
  6
CONTINUOUS
 10
138.3589430506
 20
166.5694246837
 11
138.373883759
 21
166.3805424471
  0
LINE
  5
40C
100
AcDbEntity
  8
0
100
AcDbLine
 62
7
  6
CONTINUOUS
 10
139.661814485
 20
167.4403093337
 11
139.646873771
 21
167.6291915566
  0
LINE
  5
40D
100
AcDbEntity
  8
0
100
AcDbLine
 62
7
  6
CONTINUOUS
 10
137.9988951513
 20
167.1691379163
 11
138.0061628249
 21
167.0303756638
  0
LINE
  5
40E
100
AcDbEntity
  8
0
100
AcDbLine
 62
7
  6
CONTINUOUS
 10
138.5187922775
 20
166.5026131042
 11
138.5142467313
 21
166.6414911527
  0
LINE
  5
40F
100
AcDbEntity
  8
0
100
AcDbLine
 62
7
  6
CONTINUOUS
 10
139.5019652581
 20
167.5071209132
 11
139.5065095962
 21
167.3682434016
  0
LINE
  5
410
100
AcDbEntity
  8
0
100
AcDbLine
 62
7
  6
CONTINUOUS
 10
137.1076359717
 20
167.1136173029
 11
137.1107965153
 21
166.8858841209
  0
LINE
  5
411
100
AcDbEntity
  8
0
100
AcDbLine
 62
7
  6
CONTINUOUS
 10
165.4214222506
 20
148.0773026685
 11
165.4962055953
 21
148.2513922156
  0
LINE
  5
412
100
AcDbEntity
  8
0
100
AcDbLine
 62
7
  6
CONTINUOUS
 10
164.665703939
 20
147.6030766595
 11
164.6050200755
 21
147.4780758865
  0
LINE
  5
413
100
AcDbEntity
  8
0
100
AcDbLine
 62
7
  6
CONTINUOUS
 10
164.8322480992
 20
146.7943949707
 11
164.8954802332
 21
146.9181261586
  0
LINE
  5
414
100
AcDbEntity
  8
0
100
AcDbLine
 62
7
  6
CONTINUOUS
 10
166.1843941925
 20
147.0547788029
 11
166.121161966
 21
146.9310475417
  0
LINE
  5
415
100
AcDbEntity
  8
0
100
AcDbLine
 62
7
  6
CONTINUOUS
 10
163.8585592076
 20
147.9851023158
 11
163.7512911711
 21
147.7841894989
  0
LINE
  5
416
100
AcDbEntity
  8
0
100
AcDbLine
 62
7
  6
CONTINUOUS
 10
169.7413775355
 20
142.1428870935
 11
169.6671901125
 21
142.0253966975
  0
LINE
  5
417
100
AcDbEntity
  8
0
100
AcDbLine
 62
7
  6
CONTINUOUS
 10
143.6806196066
 20
93.28528131
 11
125.7030298348
 21
75.3076915381
  0
LINE
  5
418
100
AcDbEntity
  8
0
100
AcDbLine
 62
7
  6
CONTINUOUS
 10
164.5075660973
 20
147.3976061678
 11
164.3733419588
 21
147.3616674658
  0
LINE
  5
419
100
AcDbEntity
  8
0
100
AcDbLine
 62
7
  6
CONTINUOUS
 10
165.3615316387
 20
146.329550278
 11
165.2265993516
 21
146.2963691458
  0
LINE
  5
41A
100
AcDbEntity
  8
0
100
AcDbLine
 62
7
  6
CONTINUOUS
 10
165.6551105605
 20
147.5196234224
 11
165.7900429401
 21
147.5528046278
  0
LINE
  5
41B
100
AcDbEntity
  8
0
100
AcDbLine
 62
7
  6
CONTINUOUS
 10
169.9474744328
 20
141.1129510638
 11
170.2585871642
 21
141.1722086663
  0
LINE
  5
41C
100
AcDbEntity
  8
0
100
AcDbLine
 62
7
  6
CONTINUOUS
 10
170.1817116952
 20
141.2944143915
 11
169.8705989638
 21
141.2351567891
  0
LINE
  5
41D
100
AcDbEntity
  8
0
100
AcDbLine
 62
7
  6
CONTINUOUS
 10
169.7629730256
 20
141.4062452519
 11
170.0740857571
 21
141.4655028544
  0
LINE
  5
41E
100
AcDbEntity
  8
0
100
AcDbLine
 62
7
  6
CONTINUOUS
 10
169.9972102881
 20
141.5877085796
 11
169.6860975566
 21
141.5284509771
  0
LINE
  5
41F
100
AcDbEntity
  8
0
100
AcDbLine
 62
7
  6
CONTINUOUS
 10
169.3972293297
 20
141.7454341332
 11
169.5346137956
 21
141.7662475688
  0
LINE
  5
420
100
AcDbEntity
  8
0
100
AcDbLine
 62
7
  6
CONTINUOUS
 10
169.2880085787
 20
142.6054573533
 11
169.4253930445
 21
142.626270789
  0
LINE
  5
421
100
AcDbEntity
  8
0
100
AcDbLine
 62
7
  6
CONTINUOUS
 10
91.8189148449
 20
167.45618955
 11
91.9747553706
 21
167.3065837783
  0
LINE
  5
422
100
AcDbEntity
  8
0
100
AcDbLine
 62
7
  6
CONTINUOUS
 10
92.1032540268
 20
167.5518516094
 11
91.9474132227
 21
167.701457311
  0
LINE
  5
423
100
AcDbEntity
  8
0
100
AcDbLine
 62
7
  6
CONTINUOUS
 10
92.4951263315
 20
168.8959089401
 11
92.6509668502
 21
168.7463031896
  0
LINE
  5
424
100
AcDbEntity
  8
0
100
AcDbLine
 62
7
  6
CONTINUOUS
 10
92.7794657846
 20
168.9915710908
 11
92.6236249949
 21
169.14117675
  0
LINE
  5
425
100
AcDbEntity
  8
0
100
AcDbLine
 62
7
  6
CONTINUOUS
 10
125.7030298348
 20
135.9530905091
 11
143.6806196066
 21
117.9755007372
  0
LINE
  5
426
100
AcDbEntity
  8
0
100
AcDbLine
 62
7
  6
CONTINUOUS
 10
129.5680320297
 20
170.81920014
 11
129.5234825368
 21
171.003360564
  0
LINE
  5
427
100
AcDbEntity
  8
0
100
AcDbLine
 62
7
  6
CONTINUOUS
 10
129.2476423357
 20
169.9865231925
 11
129.2740382536
 21
169.8501011265
  0
LINE
  5
428
100
AcDbEntity
  8
0
100
AcDbLine
 62
7
  6
CONTINUOUS
 10
132.2323359286
 20
168.7366446413
 11
132.2657347805
 21
168.5501393043
  0
LINE
  5
429
100
AcDbEntity
  8
0
100
AcDbLine
 62
7
  6
CONTINUOUS
 10
133.2886710519
 20
169.0295280705
 11
133.2552721956
 21
169.2160333934
  0
LINE
  5
42A
100
AcDbEntity
  8
0
100
AcDbLine
 62
7
  6
CONTINUOUS
 10
128.3726359572
 20
169.8082253995
 11
128.40727441
 21
169.5831197159
  0
LINE
  5
42B
100
AcDbEntity
  8
0
100
AcDbLine
 62
7
  6
CONTINUOUS
 10
132.0859351211
 20
170.1402204576
 11
132.1067503804
 21
170.0028361291
  0
LINE
  5
42C
100
AcDbEntity
  8
0
100
AcDbLine
 62
7
  6
CONTINUOUS
 10
133.123038397
 20
169.0803354141
 11
133.1411865999
 21
168.9425732653
  0
LINE
  5
42D
100
AcDbEntity
  8
0
100
AcDbLine
 62
7
  6
CONTINUOUS
 10
163.95905574
 20
147.7310660573
 11
164.001354448
 21
147.8783323836
  0
LINE
  5
42E
100
AcDbEntity
  8
0
100
AcDbLine
 62
7
  6
CONTINUOUS
 10
164.5309230765
 20
148.4279473145
 11
164.4745248316
 21
148.231592235
  0
LINE
  5
42F
100
AcDbEntity
  8
0
100
AcDbLine
 62
7
  6
CONTINUOUS
 10
164.8409838437
 20
147.523129961
 11
164.8973820557
 21
147.7194850802
  0
LINE
  5
430
100
AcDbEntity
  8
0
100
AcDbLine
 62
7
  6
CONTINUOUS
 10
165.3068261113
 20
148.2822501663
 11
165.2786270053
 21
148.1840726066
  0
LINE
  5
431
100
AcDbEntity
  8
0
100
AcDbLine
 62
7
  6
CONTINUOUS
 10
164.6586429368
 20
146.8779160588
 11
164.5982335668
 21
146.682757651
  0
LINE
  5
432
100
AcDbEntity
  8
0
100
AcDbLine
 62
7
  6
CONTINUOUS
 10
165.1643560638
 20
146.5785631257
 11
165.0888442657
 21
146.3346152061
  0
LINE
  5
433
100
AcDbEntity
  8
0
100
AcDbLine
 62
7
  6
CONTINUOUS
 10
165.0133324734
 20
146.0906672911
 11
164.9831278397
 21
145.9930880224
  0
LINE
  5
434
100
AcDbEntity
  8
0
100
AcDbLine
 62
7
  6
CONTINUOUS
 10
165.2265993516
 20
146.2963691458
 11
165.271906396
 21
146.4427379125
  0
LINE
  5
435
100
AcDbEntity
  8
0
100
AcDbLine
 62
7
  6
CONTINUOUS
 10
165.0906781719
 20
145.8572628092
 11
165.1661898674
 21
146.1012108583
  0
LINE
  5
436
100
AcDbEntity
  8
0
100
AcDbLine
 62
7
  6
CONTINUOUS
 10
166.3579993318
 20
146.9712576965
 11
166.4184086902
 21
147.1664160952
  0
LINE
  5
437
100
AcDbEntity
  8
0
100
AcDbLine
 62
7
  6
CONTINUOUS
 10
169.8872343118
 20
141.9967530976
 11
169.9650854359
 21
142.1856322436
  0
LINE
  5
438
100
AcDbEntity
  8
0
100
AcDbLine
 62
7
  6
CONTINUOUS
 10
167.1520245806
 20
145.3653497746
 11
167.4922522289
 21
145.4003212497
  0
LINE
  5
439
100
AcDbEntity
  8
0
100
AcDbLine
 62
7
  6
CONTINUOUS
 10
167.7638568574
 20
145.5998563082
 11
167.4236293042
 21
145.564884903
  0
LINE
  5
43A
100
AcDbEntity
  8
0
100
AcDbLine
 62
7
  6
CONTINUOUS
 10
164.2152041285
 20
147.1561969834
 11
164.4186832031
 21
147.1744277901
  0
LINE
  5
43B
100
AcDbEntity
  8
0
100
AcDbLine
 62
7
  6
CONTINUOUS
 10
165.1242181108
 20
148.7680571016
 11
164.9207390804
 21
148.7498262645
  0
LINE
  5
43C
100
AcDbEntity
  8
0
100
AcDbLine
 62
7
  6
CONTINUOUS
 10
168.3182979726
 20
143.7358957174
 11
168.659420613
 21
143.760658611
  0
LINE
  5
43D
100
AcDbEntity
  8
0
100
AcDbLine
 62
7
  6
CONTINUOUS
 10
168.9368811988
 20
143.9519670979
 11
168.5957586555
 21
143.9272042712
  0
LINE
  5
43E
100
AcDbEntity
  8
0
100
AcDbLine
 62
7
  6
CONTINUOUS
 10
165.1661898674
 20
146.1012108583
 11
165.2680948536
 21
146.1082398076
  0
LINE
  5
43F
100
AcDbEntity
  8
0
100
AcDbLine
 62
7
  6
CONTINUOUS
 10
165.9523572847
 20
147.7549919758
 11
165.748547415
 21
147.7409339477
  0
LINE
  5
440
100
AcDbEntity
  8
0
100
AcDbLine
 62
7
  6
CONTINUOUS
 10
169.5701049127
 20
142.7898617246
 11
169.3658597028
 21
142.7943364993
  0
LINE
  5
441
100
AcDbEntity
  8
0
100
AcDbLine
 62
7
  6
CONTINUOUS
 10
89.3054655269
 20
168.7154366866
 11
89.0719686653
 21
168.8975549666
  0
LINE
  5
442
100
AcDbEntity
  8
0
100
AcDbLine
 62
7
  6
CONTINUOUS
 10
98.0990836432
 20
168.8381725384
 11
97.0746933276
 21
169.8301028948
  0
LINE
  5
443
100
AcDbEntity
  8
0
100
AcDbLine
 62
7
  6
CONTINUOUS
 10
96.9762067562
 20
169.6076875257
 11
97.808235638
 21
168.7646372551
  0
LINE
  5
444
100
AcDbEntity
  8
0
100
AcDbLine
 62
7
  6
CONTINUOUS
 10
128.6053947262
 20
169.6651962656
 11
128.5509342105
 21
169.8084115016
  0
LINE
  5
445
100
AcDbEntity
  8
0
100
AcDbLine
 62
7
  6
CONTINUOUS
 10
128.6451391477
 20
170.5658050162
 11
128.7177532314
 21
170.3748513935
  0
LINE
  5
446
100
AcDbEntity
  8
0
100
AcDbLine
 62
7
  6
CONTINUOUS
 10
129.4358516187
 20
170.0276545112
 11
129.363237535
 21
170.2186081339
  0
LINE
  5
447
100
AcDbEntity
  8
0
100
AcDbLine
 62
7
  6
CONTINUOUS
 10
129.3534268148
 20
170.9144908299
 11
129.3897337763
 21
170.8190140379
  0
LINE
  5
448
100
AcDbEntity
  8
0
100
AcDbLine
 62
7
  6
CONTINUOUS
 10
132.2918571885
 20
170.1252100441
 11
132.2270845291
 21
170.3189638972
  0
LINE
  5
449
100
AcDbEntity
  8
0
100
AcDbLine
 62
7
  6
CONTINUOUS
 10
134.6502837642
 20
167.9174698845
 11
134.6904640779
 21
167.7696115393
  0
LINE
  5
44A
100
AcDbEntity
  8
0
100
AcDbLine
 62
7
  6
CONTINUOUS
 10
135.8714533021
 20
168.9639440338
 11
135.8312729834
 21
169.1118023651
  0
LINE
  5
44B
100
AcDbEntity
  8
0
100
AcDbLine
 62
7
  6
CONTINUOUS
 10
137.3183672174
 20
166.9397601208
 11
137.284245195
 21
167.0891329402
  0
LINE
  5
44C
100
AcDbEntity
  8
0
100
AcDbLine
 62
7
  6
CONTINUOUS
 10
137.4823342335
 20
167.8262084038
 11
137.5278304828
 21
167.6270446003
  0
LINE
  5
44D
100
AcDbEntity
  8
0
100
AcDbLine
 62
7
  6
CONTINUOUS
 10
138.1909851113
 20
167.1838337281
 11
138.1454894767
 21
167.3829972887
  0
LINE
  5
44E
100
AcDbEntity
  8
0
100
AcDbLine
 62
7
  6
CONTINUOUS
 10
138.2320528202
 20
168.0735447269
 11
138.2548012522
 21
167.9739627037
  0
LINE
  5
44F
100
AcDbEntity
  8
0
100
AcDbLine
 62
7
  6
CONTINUOUS
 10
139.2524247715
 20
166.83521087
 11
139.273216304
 21
166.735201957
  0
LINE
  5
450
100
AcDbEntity
  8
0
100
AcDbLine
 62
7
  6
CONTINUOUS
 10
139.4285199733
 20
166.8072683988
 11
139.3973332844
 21
166.9572815134
  0
LINE
  5
451
100
AcDbEntity
  8
0
100
AcDbLine
 62
7
  6
CONTINUOUS
 10
164.8199684351
 20
146.6741782391
 11
164.8322480992
 21
146.7943949707
  0
LINE
  5
452
100
AcDbEntity
  8
0
100
AcDbLine
 62
7
  6
CONTINUOUS
 10
165.4962055953
 20
148.2513922156
 11
165.5201192005
 21
148.4209240316
  0
LINE
  5
453
100
AcDbEntity
  8
0
100
AcDbLine
 62
7
  6
CONTINUOUS
 10
167.9546280409
 20
142.7776017745
 11
167.9332576305
 21
142.6586641719
  0
LINE
  5
454
100
AcDbEntity
  8
0
100
AcDbLine
 62
7
  6
CONTINUOUS
 10
169.424019061
 20
141.9354321112
 11
168.1000897283
 21
142.0359054653
  0
LINE
  5
455
100
AcDbEntity
  8
0
100
AcDbLine
 62
7
  6
CONTINUOUS
 10
168.2264834524
 20
141.8425520978
 11
169.3972293297
 21
141.7454341332
  0
LINE
  5
456
100
AcDbEntity
  8
0
100
AcDbLine
 62
7
  6
CONTINUOUS
 10
164.3733419588
 20
147.3616674658
 11
164.2532173243
 21
147.3748175567
  0
LINE
  5
457
100
AcDbEntity
  8
0
100
AcDbLine
 62
7
  6
CONTINUOUS
 10
88.8865667322
 20
168.6867870608
 11
89.0265575396
 21
168.6049363036
  0
LINE
  5
458
100
AcDbEntity
  8
0
100
AcDbLine
 62
7
  6
CONTINUOUS
 10
91.9747553706
 20
167.3065837783
 11
92.1102422656
 21
167.2174757083
  0
LINE
  5
459
100
AcDbEntity
  8
0
100
AcDbLine
 62
7
  6
CONTINUOUS
 10
92.2387409182
 20
167.46274355
 11
92.1032540268
 21
167.5518516094
  0
LINE
  5
45A
100
AcDbEntity
  8
0
100
AcDbLine
 62
7
  6
CONTINUOUS
 10
92.3596394401
 20
168.9850169995
 11
92.4951263315
 21
168.8959089401
  0
LINE
  5
45B
100
AcDbEntity
  8
0
100
AcDbLine
 62
7
  6
CONTINUOUS
 10
92.6236249949
 20
169.14117675
 11
92.4881378323
 21
169.2302847182
  0
LINE
  5
45C
100
AcDbEntity
  8
0
100
AcDbLine
 62
7
  6
CONTINUOUS
 10
95.5192096186
 20
169.8799085795
 11
95.6501489734
 21
169.7842430863
  0
LINE
  5
45D
100
AcDbEntity
  8
0
100
AcDbLine
 62
7
  6
CONTINUOUS
 10
95.7905579549
 20
170.022892219
 11
95.6596191508
 21
170.1185578677
  0
LINE
  5
45E
100
AcDbEntity
  8
0
100
AcDbLine
 62
7
  6
CONTINUOUS
 10
129.5234825368
 20
171.003360564
 11
129.4409575839
 21
171.1533689311
  0
LINE
  5
45F
100
AcDbEntity
  8
0
100
AcDbLine
 62
7
  6
CONTINUOUS
 10
132.4560761752
 20
168.5798828004
 11
132.3979685834
 21
168.6858372977
  0
LINE
  5
460
100
AcDbEntity
  8
0
100
AcDbLine
 62
7
  6
CONTINUOUS
 10
134.8817956812
 20
167.7921224187
 11
134.8277439924
 21
167.900202309
  0
LINE
  5
461
100
AcDbEntity
  8
0
100
AcDbLine
 62
7
  6
CONTINUOUS
 10
138.5662249413
 20
166.3914690978
 11
138.5187922775
 21
166.5026131042
  0
LINE
  5
462
100
AcDbEntity
  8
0
100
AcDbLine
 62
7
  6
CONTINUOUS
 10
138.4127691789
 20
168.1380313074
 11
138.3517915783
 21
168.2980151793
  0
LINE
  5
463
100
AcDbEntity
  8
0
100
AcDbLine
 62
7
  6
CONTINUOUS
 10
164.4745248316
 20
148.231592235
 11
164.483095899
 21
148.0888836427
  0
LINE
  5
464
100
AcDbEntity
  8
0
100
AcDbLine
 62
7
  6
CONTINUOUS
 10
164.8973820557
 20
147.7194850802
 11
164.8888110014
 21
147.8621936566
  0
LINE
  5
465
100
AcDbEntity
  8
0
100
AcDbLine
 62
7
  6
CONTINUOUS
 10
164.5982335668
 20
146.682757651
 11
164.6038789042
 21
146.5399034816
  0
LINE
  5
466
100
AcDbEntity
  8
0
100
AcDbLine
 62
7
  6
CONTINUOUS
 10
166.4184086902
 20
147.1664160952
 11
166.4127632416
 21
147.3092703872
  0
LINE
  5
467
100
AcDbEntity
  8
0
100
AcDbLine
 62
7
  6
CONTINUOUS
 10
163.7512911711
 20
147.7841894989
 11
163.7457626704
 21
147.5923921277
  0
LINE
  5
468
100
AcDbEntity
  8
0
100
AcDbLine
 62
7
  6
CONTINUOUS
 10
169.9650854359
 20
142.1856322436
 11
169.9724128382
 21
142.3284097436
  0
LINE
  5
469
100
AcDbEntity
  8
0
100
AcDbLine
 62
7
  6
CONTINUOUS
 10
164.6963889619
 20
148.2275575399
 11
164.7062029746
 21
148.3480006238
  0
LINE
  5
46A
100
AcDbEntity
  8
0
100
AcDbLine
 62
7
  6
CONTINUOUS
 10
164.6755179649
 20
147.7235197276
 11
164.665703939
 21
147.6030766595
  0
LINE
  5
46B
100
AcDbEntity
  8
0
100
AcDbLine
 62
7
  6
CONTINUOUS
 10
166.1966738335
 20
147.1749955162
 11
166.1843941925
 21
147.0547788029
  0
LINE
  5
46C
100
AcDbEntity
  8
0
100
AcDbLine
 62
7
  6
CONTINUOUS
 10
169.0162054593
 20
142.9367688879
 11
169.0375759675
 21
143.0557065565
  0
LINE
  5
46D
100
AcDbEntity
  8
0
100
AcDbLine
 62
7
  6
CONTINUOUS
 10
169.7645039272
 20
142.2614957683
 11
169.7413775355
 21
142.1428870935
  0
LINE
  5
46E
100
AcDbEntity
  8
0
100
AcDbLine
 62
7
  6
CONTINUOUS
 10
137.6820139098
 20
166.5242960329
 11
137.8203939686
 21
166.5602135292
  0
LINE
  5
46F
100
AcDbEntity
  8
0
100
AcDbLine
 62
7
  6
CONTINUOUS
 10
137.9758253143
 20
168.4465656851
 11
137.8374452597
 21
168.4106481991
  0
LINE
  5
470
100
AcDbEntity
  8
0
100
AcDbLine
 62
7
  6
CONTINUOUS
 10
164.9660803409
 20
148.5625866156
 11
165.0862049658
 21
148.5494364899
  0
LINE
  5
471
100
AcDbEntity
  8
0
100
AcDbLine
 62
7
  6
CONTINUOUS
 10
165.7900429401
 20
147.5528046278
 11
165.9098729133
 21
147.5371961279
  0
LINE
  5
472
100
AcDbEntity
  8
0
100
AcDbLine
 62
7
  6
CONTINUOUS
 10
169.4253930445
 20
142.626270789
 11
169.5433148198
 21
142.5998642998
  0
LINE
  5
473
100
AcDbEntity
  8
0
100
AcDbLine
 62
7
  6
CONTINUOUS
 10
92.1102422656
 20
167.2174757083
 11
92.2253758027
 21
167.1888654259
  0
LINE
  5
474
100
AcDbEntity
  8
0
100
AcDbLine
 62
7
  6
CONTINUOUS
 10
164.0766944281
 20
147.1916125945
 11
164.2152041285
 21
147.1561969834
  0
LINE
  5
475
100
AcDbEntity
  8
0
100
AcDbLine
 62
7
  6
CONTINUOUS
 10
165.2627278158
 20
148.7326414676
 11
165.1242181108
 21
148.7680571016
  0
LINE
  5
476
100
AcDbEntity
  8
0
100
AcDbLine
 62
7
  6
CONTINUOUS
 10
166.0901122449
 20
147.7167460267
 11
165.9523572847
 21
147.7549919758
  0
LINE
  5
477
100
AcDbEntity
  8
0
100
AcDbLine
 62
7
  6
CONTINUOUS
 10
169.7038256774
 20
142.7392864103
 11
169.5701049127
 21
142.7898617246
  0
LINE
  5
478
100
AcDbEntity
  8
0
100
AcDbLine
 62
7
  6
CONTINUOUS
 10
89.0719686653
 20
168.8975549666
 11
88.8154979005
 21
169.0019144158
  0
LINE
  5
479
100
AcDbEntity
  8
0
100
AcDbLine
 62
7
  6
CONTINUOUS
 10
95.6596191508
 20
170.1185578677
 11
95.4805631335
 21
170.2006304317
  0
LINE
  5
47A
100
AcDbEntity
  8
0
100
AcDbLine
 62
7
  6
CONTINUOUS
 10
128.7177532314
 20
170.3748513935
 11
128.8101892139
 21
170.2657882431
  0
LINE
  5
47B
100
AcDbEntity
  8
0
100
AcDbLine
 62
7
  6
CONTINUOUS
 10
129.363237535
 20
170.2186081339
 11
129.2708013919
 21
170.3276713232
  0
LINE
  5
47C
100
AcDbEntity
  8
0
100
AcDbLine
 62
7
  6
CONTINUOUS
 10
132.2270845291
 20
170.3189638972
 11
132.1391694111
 21
170.4317030372
  0
LINE
  5
47D
100
AcDbEntity
  8
0
100
AcDbLine
 62
7
  6
CONTINUOUS
 10
128.40727441
 20
169.5831197159
 11
128.517863951
 21
169.4263181392
  0
LINE
  5
47E
100
AcDbEntity
  8
0
100
AcDbLine
 62
7
  6
CONTINUOUS
 10
137.5278304828
 20
167.6270446003
 11
137.6042875908
 21
167.5062413885
  0
LINE
  5
47F
100
AcDbEntity
  8
0
100
AcDbLine
 62
7
  6
CONTINUOUS
 10
138.1454894767
 20
167.3829972887
 11
138.0690323687
 21
167.5038005005
  0
LINE
  5
480
100
AcDbEntity
  8
0
100
AcDbLine
 62
7
  6
CONTINUOUS
 10
128.8977199831
 20
170.5046663443
 11
128.8333484307
 21
170.606936335
  0
LINE
  5
481
100
AcDbEntity
  8
0
100
AcDbLine
 62
7
  6
CONTINUOUS
 10
129.1832707833
 20
170.0887931831
 11
129.2476423357
 21
169.9865231925
  0
LINE
  5
482
100
AcDbEntity
  8
0
100
AcDbLine
 62
7
  6
CONTINUOUS
 10
132.2657347805
 20
168.5501393043
 11
132.3666989916
 21
168.3869735701
  0
LINE
  5
483
100
AcDbEntity
  8
0
100
AcDbLine
 62
7
  6
CONTINUOUS
 10
133.2552721956
 20
169.2160333934
 11
133.1543082972
 21
169.3791990201
  0
LINE
  5
484
100
AcDbEntity
  8
0
100
AcDbLine
 62
7
  6
CONTINUOUS
 10
132.0257843178
 20
170.2450285136
 11
132.0859351211
 21
170.1402204576
  0
LINE
  5
485
100
AcDbEntity
  8
0
100
AcDbLine
 62
7
  6
CONTINUOUS
 10
134.6904640779
 20
167.7696115393
 11
134.7851738043
 21
167.6027379313
  0
LINE
  5
486
100
AcDbEntity
  8
0
100
AcDbLine
 62
7
  6
CONTINUOUS
 10
135.8312729834
 20
169.1118023651
 11
135.7365632535
 21
169.2786759627
  0
LINE
  5
487
100
AcDbEntity
  8
0
100
AcDbLine
 62
7
  6
CONTINUOUS
 10
133.0649308052
 20
169.1862899114
 11
133.123038397
 21
169.0803354141
  0
LINE
  5
488
100
AcDbEntity
  8
0
100
AcDbLine
 62
7
  6
CONTINUOUS
 10
137.1107965153
 20
166.8858841209
 11
137.1986278352
 21
166.7152898873
  0
LINE
  5
489
100
AcDbEntity
  8
0
100
AcDbLine
 62
7
  6
CONTINUOUS
 10
135.639941385
 20
169.0892914996
 11
135.6939930738
 21
168.9812116094
  0
LINE
  5
48A
100
AcDbEntity
  8
0
100
AcDbLine
 62
7
  6
CONTINUOUS
 10
138.373883759
 20
166.3805424471
 11
138.4583527062
 21
166.2082591356
  0
LINE
  5
48B
100
AcDbEntity
  8
0
100
AcDbLine
 62
7
  6
CONTINUOUS
 10
139.3973332844
 20
166.9572815134
 11
139.3128631133
 21
167.1295653245
  0
LINE
  5
48C
100
AcDbEntity
  8
0
100
AcDbLine
 62
7
  6
CONTINUOUS
 10
139.646873771
 20
167.6291915566
 11
139.5624035999
 21
167.8014753676
  0
LINE
  5
48D
100
AcDbEntity
  8
0
100
AcDbLine
 62
7
  6
CONTINUOUS
 10
137.7240269635
 20
167.7307115981
 11
137.6744241935
 21
167.8409042155
  0
LINE
  5
48E
100
AcDbEntity
  8
0
100
AcDbLine
 62
7
  6
CONTINUOUS
 10
137.9492923813
 20
167.2793305338
 11
137.9988951513
 21
167.1691379163
  0
LINE
  5
48F
100
AcDbEntity
  8
0
100
AcDbLine
 62
7
  6
CONTINUOUS
 10
139.2049921078
 20
166.9463548763
 11
139.2524247715
 21
166.83521087
  0
LINE
  5
490
100
AcDbEntity
  8
0
100
AcDbLine
 62
7
  6
CONTINUOUS
 10
139.4545325944
 20
167.6182649195
 11
139.5019652581
 21
167.5071209132
  0
LINE
  5
491
100
AcDbEntity
  8
RUNDUNGEN
100
AcDbLine
 62
7
  6
CONTINUOUS
 10
178.7494108384
 20
62.6532964505
 11
178.1863571358
 21
68.1654465463
  0
LINE
  5
492
100
AcDbEntity
  8
RUNDUNGEN
100
AcDbLine
 62
7
  6
CONTINUOUS
 10
178.1863571447
 20
143.0953355872
 11
178.7494108384
 21
148.6074855967
  0
LINE
  5
493
100
AcDbEntity
  8
RUNDUNGEN
100
AcDbLine
 62
7
  6
CONTINUOUS
 10
140.9994450225
 20
32.4250372761
 11
143.7838855431
 21
37.2154150418
  0
LINE
  5
494
100
AcDbEntity
  8
RUNDUNGEN
100
AcDbLine
 62
7
  6
CONTINUOUS
 10
187.8265692844
 20
97.8349686573
 11
191.5220497754
 21
101.9634370331
  0
LINE
  5
495
100
AcDbEntity
  8
RUNDUNGEN
100
AcDbLine
 62
7
  6
CONTINUOUS
 10
92.6913561952
 20
30.1587350748
 11
97.7597292997
 21
32.3975790228
  0
LINE
  5
496
100
AcDbEntity
  8
0
100
AcDbLine
 62
7
  6
CONTINUOUS
 10
129.0166523675
 20
170.9960090591
 11
129.1107570091
 21
171.0165747184
  0
LINE
  5
497
100
AcDbEntity
  8
RUNDUNGEN
100
AcDbLine
 62
7
  6
CONTINUOUS
 10
57.6935517019
 20
155.7085939325
 11
52.2771923569
 21
154.5407417886
  0
LINE
  5
498
100
AcDbEntity
  8
0
100
AcDbLine
 62
7
  6
CONTINUOUS
 10
129.0544273761
 20
169.5565052804
 11
128.9322581438
 21
169.5427328197
  0
LINE
  5
499
100
AcDbEntity
  8
0
100
AcDbLine
 62
7
  6
CONTINUOUS
 10
137.9097958469
 20
168.2008738012
 11
138.0058408269
 21
168.2082217071
  0
LINE
  5
49A
100
AcDbEntity
  8
0
100
AcDbLine
 62
7
  6
CONTINUOUS
 10
138.9125645264
 20
166.2467108454
 11
138.8163939381
 21
166.2412475269
  0
LINE
  5
49B
100
AcDbEntity
  8
0
100
AcDbLine
 62
7
  6
CONTINUOUS
 10
138.8586525227
 20
167.0911131287
 11
138.954823111
 21
167.0965764473
  0
LINE
  5
49C
100
AcDbEntity
  8
0
100
AcDbLine
 62
7
  6
CONTINUOUS
 10
139.1348341406
 20
167.7518880786
 11
139.2310047289
 21
167.7573513971
  0
LINE
  5
49D
100
AcDbEntity
  8
0
100
AcDbLine
 62
7
  6
CONTINUOUS
 10
132.8425521592
 20
168.4613323967
 11
132.7197764428
 21
168.4549284171
  0
LINE
  5
49E
100
AcDbEntity
  8
0
100
AcDbLine
 62
7
  6
CONTINUOUS
 10
132.6784548212
 20
169.3048403151
 11
132.8012311695
 21
169.3112441009
  0
LINE
  5
49F
100
AcDbEntity
  8
0
100
AcDbLine
 62
7
  6
CONTINUOUS
 10
92.2253758027
 20
167.1888654259
 11
92.4352887056
 21
167.192142375
  0
LINE
  5
4A0
100
AcDbEntity
  8
0
100
AcDbLine
 62
7
  6
CONTINUOUS
 10
92.4486540976
 20
167.4660205744
 11
92.2387409182
 21
167.46274355
  0
LINE
  5
4A1
100
AcDbEntity
  8
0
100
AcDbLine
 62
7
  6
CONTINUOUS
 10
88.7236020216
 20
168.6908789872
 11
88.8865667322
 21
168.6867870608
  0
LINE
  5
4A2
100
AcDbEntity
  8
0
100
AcDbLine
 62
7
  6
CONTINUOUS
 10
137.748042772
 20
166.7699881836
 11
137.625143454
 21
166.773250872
  0
LINE
  5
4A3
100
AcDbEntity
  8
0
100
AcDbLine
 62
7
  6
CONTINUOUS
 10
95.4805631335
 20
170.2006304317
 11
95.3188598559
 21
170.2212772422
  0
LINE
  5
4A4
100
AcDbEntity
  8
RUNDUNGEN
100
AcDbLine
 62
7
  6
CONTINUOUS
 10
174.4386478855
 20
154.5407417886
 11
169.0222884552
 21
155.7085939508
  0
LINE
  5
4A5
100
AcDbEntity
  8
0
100
AcDbLine
 62
7
  6
CONTINUOUS
 10
92.4881378323
 20
169.2302847182
 11
92.3730045681
 21
169.2588950866
  0
LINE
  5
4A6
100
AcDbEntity
  8
0
100
AcDbLine
 62
7
  6
CONTINUOUS
 10
95.4056235541
 20
169.9141484747
 11
95.5192096186
 21
169.8799085795
  0
LINE
  5
4A7
100
AcDbEntity
  8
RUNDUNGEN
100
AcDbLine
 62
7
  6
CONTINUOUS
 10
97.7597292969
 20
178.8632030257
 11
92.6913561952
 21
181.1020469724
  0
LINE
  5
4A8
100
AcDbEntity
  8
0
100
AcDbLine
 62
7
  6
CONTINUOUS
 10
165.0862049658
 20
148.5494364899
 11
165.1738449182
 21
148.5094631406
  0
LINE
  5
4A9
100
AcDbEntity
  8
0
100
AcDbLine
 62
7
  6
CONTINUOUS
 10
164.9265299009
 20
146.1324278421
 11
165.0133324734
 21
146.0906672911
  0
LINE
  5
4AA
100
AcDbEntity
  8
0
100
AcDbLine
 62
7
  6
CONTINUOUS
 10
165.0888442657
 20
146.3346152061
 11
165.0020416961
 21
146.3763757593
  0
LINE
  5
4AB
100
AcDbEntity
  8
0
100
AcDbLine
 62
7
  6
CONTINUOUS
 10
164.2532173243
 20
147.3748175567
 11
164.1471922655
 21
147.4370564463
  0
LINE
  5
4AC
100
AcDbEntity
  8
0
100
AcDbLine
 62
7
  6
CONTINUOUS
 10
128.7077418991
 20
169.5970782929
 11
128.6053947262
 21
169.6651962656
  0
LINE
  5
4AD
100
AcDbEntity
  8
0
100
AcDbLine
 62
7
  6
CONTINUOUS
 10
128.8101892139
 20
170.2657882431
 11
128.9125363868
 21
170.1976702704
  0
LINE
  5
4AE
100
AcDbEntity
  8
0
100
AcDbLine
 62
7
  6
CONTINUOUS
 10
129.0809236104
 20
170.1569111558
 11
129.1832707833
 21
170.0887931831
  0
LINE
  5
4AF
100
AcDbEntity
  8
0
100
AcDbLine
 62
7
  6
CONTINUOUS
 10
132.554143788
 20
168.5057357606
 11
132.4560761752
 21
168.5798828004
  0
LINE
  5
4B0
100
AcDbEntity
  8
0
100
AcDbLine
 62
7
  6
CONTINUOUS
 10
132.9668638243
 20
169.2604367574
 11
133.0649308052
 21
169.1862899114
  0
LINE
  5
4B1
100
AcDbEntity
  8
0
100
AcDbLine
 62
7
  6
CONTINUOUS
 10
128.9720025652
 20
170.4433415704
 11
128.8977199831
 21
170.5046663443
  0
LINE
  5
4B2
100
AcDbEntity
  8
0
100
AcDbLine
 62
7
  6
CONTINUOUS
 10
129.2791442327
 20
170.9758156038
 11
129.3534268148
 21
170.9144908299
  0
LINE
  5
4B3
100
AcDbEntity
  8
0
100
AcDbLine
 62
7
  6
CONTINUOUS
 10
137.4103056767
 20
166.8581368406
 11
137.3183672174
 21
166.9397601208
  0
LINE
  5
4B4
100
AcDbEntity
  8
0
100
AcDbLine
 62
7
  6
CONTINUOUS
 10
137.6042875908
 20
167.5062413885
 11
137.6962260501
 21
167.4246181083
  0
LINE
  5
4B5
100
AcDbEntity
  8
0
100
AcDbLine
 62
7
  6
CONTINUOUS
 10
137.8573545367
 20
167.3609535711
 11
137.9492923813
 21
167.2793305338
  0
LINE
  5
4B6
100
AcDbEntity
  8
0
100
AcDbLine
 62
7
  6
CONTINUOUS
 10
137.7891104701
 20
167.659699155
 11
137.7240269635
 21
167.7307115981
  0
LINE
  5
4B7
100
AcDbEntity
  8
0
100
AcDbLine
 62
7
  6
CONTINUOUS
 10
138.1669693136
 20
168.1445571699
 11
138.2320528202
 21
168.0735447269
  0
LINE
  5
4B8
100
AcDbEntity
  8
RUNDUNGEN
100
AcDbLine
 62
7
  6
CONTINUOUS
 10
191.5220497754
 20
109.2973450141
 11
187.8265692265
 21
113.4258134546
  0
LINE
  5
4B9
100
AcDbEntity
  8
0
100
AcDbLine
 62
7
  6
CONTINUOUS
 10
138.6299035799
 20
166.3191941998
 11
138.5662249413
 21
166.3914690978
  0
LINE
  5
4BA
100
AcDbEntity
  8
0
100
AcDbLine
 62
7
  6
CONTINUOUS
 10
139.1413134692
 20
167.0186297744
 11
139.2049921078
 21
166.9463548763
  0
LINE
  5
4BB
100
AcDbEntity
  8
0
100
AcDbLine
 62
7
  6
CONTINUOUS
 10
139.3908539558
 20
167.6905398176
 11
139.4545325944
 21
167.6182649195
  0
LINE
  5
4BC
100
AcDbEntity
  8
RUNDUNGEN
100
AcDbLine
 62
7
  6
CONTINUOUS
 10
143.7838854995
 20
174.0453670805
 11
140.9994450225
 21
178.8357447711
  0
LINE
  5
4BD
100
AcDbEntity
  8
0
100
AcDbLine
 62
7
  6
CONTINUOUS
 10
164.0001114668
 20
147.6151807045
 11
163.95905574
 21
147.7310660573
  0
LINE
  5
4BE
100
AcDbEntity
  8
0
100
AcDbLine
 62
7
  6
CONTINUOUS
 10
164.483095899
 20
148.0888836427
 11
164.524151639
 21
147.972998274
  0
LINE
  5
4BF
100
AcDbEntity
  8
0
100
AcDbLine
 62
7
  6
CONTINUOUS
 10
164.6344622249
 20
147.8394050962
 11
164.6755179649
 21
147.7235197276
  0
LINE
  5
4C0
100
AcDbEntity
  8
0
100
AcDbLine
 62
7
  6
CONTINUOUS
 10
164.8586412873
 20
146.5574760004
 11
164.8199684351
 21
146.6741782391
  0
LINE
  5
4C1
100
AcDbEntity
  8
0
100
AcDbLine
 62
7
  6
CONTINUOUS
 10
164.7190595954
 20
148.1339377114
 11
164.6963889619
 21
148.2275575399
  0
LINE
  5
4C2
100
AcDbEntity
  8
0
100
AcDbLine
 62
7
  6
CONTINUOUS
 10
165.2841555041
 20
148.3758699629
 11
165.3068261113
 21
148.2822501663
  0
LINE
  5
4C3
100
AcDbEntity
  8
RUNDUNGEN
100
AcDbLine
 62
7
  6
CONTINUOUS
 10
178.1844191293
 20
68.5513491118
 11
178.1863570678
 21
68.1654472022
  0
LINE
  5
4C4
100
AcDbEntity
  8
RUNDUNGEN
100
AcDbLine
 62
7
  6
CONTINUOUS
 10
178.1844191867
 20
142.7094329325
 11
178.1863571227
 21
143.0953348394
  0
LWPOLYLINE
  5
4C5
100
AcDbEntity
  8
RUNDUNGEN
100
AcDbPolyline
 62
7
  6
CONTINUOUS
 90
3
 70
0
 10
179.8481828267
 20
86.3921850674
 10
179.8510606261
 20
86.4117579674
 10
179.9764271275
 20
87.1983631434
  0
LINE
  5
4C6
100
AcDbEntity
  8
RUNDUNGEN
100
AcDbLine
 62
7
  6
CONTINUOUS
 10
179.9764271275
 20
87.1983631434
 11
180.006567267
 21
87.3921850674
  0
LINE
  5
4C7
100
AcDbEntity
  8
RUNDUNGEN
100
AcDbLine
 62
7
  6
CONTINUOUS
 10
167.4877872025
 20
53.9921498976
 11
166.6443940937
 21
49.7951593648
  0
LINE
  5
4C8
100
AcDbEntity
  8
RUNDUNGEN
100
AcDbLine
 62
7
  6
CONTINUOUS
 10
167.4842810865
 20
53.9908928093
 11
167.5963261005
 21
54.3604069853
  0
LINE
  5
4C9
100
AcDbEntity
  8
RUNDUNGEN
100
AcDbLine
 62
7
  6
CONTINUOUS
 10
187.500001422
 20
115.5929459472
 11
187.3734527583
 21
115.2281442754
  0
LINE
  5
4CA
100
AcDbEntity
  8
RUNDUNGEN
100
AcDbLine
 62
7
  6
CONTINUOUS
 10
189.2867053136
 20
119.4810310343
 11
187.5020991056
 21
115.589868128
  0
LWPOLYLINE
  5
4CB
100
AcDbEntity
  8
RUNDUNGEN
100
AcDbPolyline
 62
7
  6
CONTINUOUS
 90
3
 70
0
 10
178.457606352
 20
82.1124307441
 10
178.4488210434
 20
82.094705099
 10
178.0865160481
 20
81.3853395
  0
LINE
  5
4CC
100
AcDbEntity
  8
RUNDUNGEN
100
AcDbLine
 62
7
  6
CONTINUOUS
 10
178.0865160481
 20
81.3853395
 11
177.9979568035
 21
81.2103177115
  0
LINE
  5
4CD
100
AcDbEntity
  8
RUNDUNGEN
100
AcDbLine
 62
7
  6
CONTINUOUS
 10
144.0091454997
 20
37.5287559071
 11
143.7838858736
 21
37.2154156124
  0
LINE
  5
4CE
100
AcDbEntity
  8
RUNDUNGEN
100
AcDbLine
 62
7
  6
CONTINUOUS
 10
187.5981735542
 20
97.5239059546
 11
187.8265688271
 21
97.8349680652
  0
LWPOLYLINE
  5
4CF
100
AcDbEntity
  8
RUNDUNGEN
100
AcDbPolyline
 62
7
  6
CONTINUOUS
 90
3
 70
0
 10
155.8417388688
 20
50.9843596244
 10
155.8555717193
 20
50.9985029051
 10
156.4193502713
 20
51.5611912797
  0
LINE
  5
4D0
100
AcDbEntity
  8
RUNDUNGEN
100
AcDbLine
 62
7
  6
CONTINUOUS
 10
156.4193502713
 20
51.5611912797
 11
156.5576598249
 21
51.7002805806
  0
LINE
  5
4D1
100
AcDbEntity
  8
RUNDUNGEN
100
AcDbLine
 62
7
  6
CONTINUOUS
 10
126.797705905
 20
32.0374388141
 11
123.6484574079
 21
29.137736179
  0
LINE
  5
4D2
100
AcDbEntity
  8
RUNDUNGEN
100
AcDbLine
 62
7
  6
CONTINUOUS
 10
126.7941304996
 20
32.0384826515
 11
127.1019718033
 21
32.2715674927
  0
LINE
  5
4D3
100
AcDbEntity
  8
RUNDUNGEN
100
AcDbLine
 62
7
  6
CONTINUOUS
 10
179.1959667511
 20
70.1106453013
 11
178.8791616889
 21
69.8898979875
  0
LINE
  5
4D4
100
AcDbEntity
  8
RUNDUNGEN
100
AcDbLine
 62
7
  6
CONTINUOUS
 10
182.9267996372
 20
72.2059740146
 11
179.1958547161
 21
70.1069223058
  0
LWPOLYLINE
  5
4D5
100
AcDbEntity
  8
RUNDUNGEN
100
AcDbPolyline
 62
7
  6
CONTINUOUS
 90
3
 70
0
 10
152.2011623941
 20
48.3393259891
 10
152.1836360573
 20
48.3301495158
 10
151.4735705214
 20
47.9692182241
  0
LINE
  5
4D6
100
AcDbEntity
  8
RUNDUNGEN
100
AcDbLine
 62
7
  6
CONTINUOUS
 10
151.4735705214
 20
47.9692182241
 11
151.2990493615
 21
47.8796764407
  0
LINE
  5
4D7
100
AcDbEntity
  8
RUNDUNGEN
100
AcDbLine
 62
7
  6
CONTINUOUS
 10
98.1261455723
 20
32.5186726275
 11
97.7597299024
 21
32.3975792902
  0
LINE
  5
4D8
100
AcDbEntity
  8
RUNDUNGEN
100
AcDbLine
 62
7
  6
CONTINUOUS
 10
168.6546744437
 20
55.4347807438
 11
169.0222878221
 21
55.5521879044
  0
LINE
  5
4D9
100
AcDbEntity
  8
0
100
AcDbLine
 62
7
  6
CONTINUOUS
 10
95.0080443452
 20
168.0109792999
 11
95.248628208
 21
168.0789441012
  0
LINE
  5
4DA
100
AcDbEntity
  8
0
100
AcDbLine
 62
7
  6
CONTINUOUS
 10
96.1147314357
 20
168.3236177592
 11
96.3553158492
 21
168.3915827161
  0
LINE
  5
4DB
100
AcDbEntity
  8
0
100
AcDbLine
 62
7
  6
CONTINUOUS
 10
95.3188598559
 20
170.2212772422
 11
95.1263921049
 21
170.1669052145
  0
LINE
  5
4DC
100
AcDbEntity
  8
0
100
AcDbLine
 62
7
  6
CONTINUOUS
 10
94.693340491
 20
170.0445683855
 11
94.4527566282
 21
169.9766035842
  0
LINE
  5
4DD
100
AcDbEntity
  8
0
100
AcDbLine
 62
7
  6
CONTINUOUS
 10
96.7417931374
 20
168.4950079296
 11
96.9841661052
 21
168.5562872389
  0
LINE
  5
4DE
100
AcDbEntity
  8
0
100
AcDbLine
 62
7
  6
CONTINUOUS
 10
97.808235638
 20
168.7646372551
 11
98.0990836432
 21
168.8381725384
  0
LINE
  5
4DF
100
AcDbEntity
  8
0
100
AcDbLine
 62
7
  6
CONTINUOUS
 10
97.4045188603
 20
170.7693905973
 11
97.1136714099
 21
170.6958554542
  0
LINE
  5
4E0
100
AcDbEntity
  8
0
100
AcDbLine
 62
7
  6
CONTINUOUS
 10
96.2488132719
 20
171.4647672905
 11
96.0064403041
 21
171.4034879813
  0
LWPOLYLINE
  5
4E1
100
AcDbEntity
  8
RUNDUNGEN
100
AcDbPolyline
 62
7
  6
CONTINUOUS
 90
3
 70
0
 10
111.1079201212
 20
174.8113212216
 10
111.0884158982
 20
174.8080098127
 10
110.3015695404
 20
174.6841660736
  0
LINE
  5
4E2
100
AcDbEntity
  8
RUNDUNGEN
100
AcDbLine
 62
7
  6
CONTINUOUS
 10
110.3015695404
 20
174.6841660736
 11
110.1079201212
 21
174.6529367812
  0
LINE
  5
4E3
100
AcDbEntity
  8
0
100
AcDbLine
 62
7
  6
CONTINUOUS
 10
88.8154979005
 20
169.0019144158
 11
88.5595638165
 21
168.9691728636
  0
LINE
  5
4E4
100
AcDbEntity
  8
RUNDUNGEN
100
AcDbLine
 62
7
  6
CONTINUOUS
 10
145.7417570027
 20
173.068047905
 11
149.9939550013
 21
173.562874793
  0
LINE
  5
4E5
100
AcDbEntity
  8
0
100
AcDbLine
 62
7
  6
CONTINUOUS
 10
129.1702231874
 20
171.2622460184
 11
129.0480539551
 21
171.2484735578
  0
LINE
  5
4E6
100
AcDbEntity
  8
0
100
AcDbLine
 62
7
  6
CONTINUOUS
 10
128.8727919585
 20
169.2970614911
 11
129.0230256219
 21
169.3040407954
  0
LINE
  5
4E7
100
AcDbEntity
  8
RUNDUNGEN
100
AcDbLine
 62
7
  6
CONTINUOUS
 10
145.7440360142
 20
173.0651018522
 11
145.3579833358
 21
173.0574768329
  0
LINE
  5
4E8
100
AcDbEntity
  8
0
100
AcDbLine
 62
7
  6
CONTINUOUS
 10
92.1497262679
 20
168.9817399539
 11
92.3596394401
 21
168.9850169995
  0
LINE
  5
4E9
100
AcDbEntity
  8
0
100
AcDbLine
 62
7
  6
CONTINUOUS
 10
92.3730045681
 20
169.2588950866
 11
92.163091667
 21
169.2556181322
  0
LINE
  5
4EA
100
AcDbEntity
  8
0
100
AcDbLine
 62
7
  6
CONTINUOUS
 10
131.6370823237
 20
170.3560641443
 11
131.7874757618
 21
170.356915899
  0
LINE
  5
4EB
100
AcDbEntity
  8
0
100
AcDbLine
 62
7
  6
CONTINUOUS
 10
132.6580045952
 20
168.2535513249
 11
132.8083859658
 21
168.2514873529
  0
LINE
  5
4EC
100
AcDbEntity
  8
0
100
AcDbLine
 62
7
  6
CONTINUOUS
 10
132.8630030084
 20
169.5126211648
 11
132.712621323
 21
169.5146852373
  0
LINE
  5
4ED
100
AcDbEntity
  8
RUNDUNGEN
100
AcDbLine
 62
7
  6
CONTINUOUS
 10
80.9718042413
 20
173.0651019649
 11
81.3578569402
 21
173.0574768928
  0
LINE
  5
4EE
100
AcDbEntity
  8
0
100
AcDbLine
 62
7
  6
CONTINUOUS
 10
138.098725247
 20
168.4433027538
 11
137.9758253143
 21
168.4465656851
  0
LINE
  5
4EF
100
AcDbEntity
  8
0
100
AcDbLine
 62
7
  6
CONTINUOUS
 10
95.1958030634
 20
169.9212022005
 11
95.4056235541
 21
169.9141484747
  0
LINE
  5
4F0
100
AcDbEntity
  8
0
100
AcDbLine
 62
7
  6
CONTINUOUS
 10
135.154443362
 20
167.6970458696
 11
135.0042481515
 21
167.7048057031
  0
LINE
  5
4F1
100
AcDbEntity
  8
0
100
AcDbLine
 62
7
  6
CONTINUOUS
 10
135.3672937042
 20
169.1843680487
 11
135.5174889148
 21
169.1766082152
  0
LINE
  5
4F2
100
AcDbEntity
  8
0
100
AcDbLine
 62
7
  6
CONTINUOUS
 10
131.8730962227
 20
170.5515215975
 11
131.6671741552
 21
170.566532011
  0
LINE
  5
4F3
100
AcDbEntity
  8
0
100
AcDbLine
 62
7
  6
CONTINUOUS
 10
137.5322590231
 20
166.5381697979
 11
137.6820139098
 21
166.5242960329
  0
LINE
  5
4F4
100
AcDbEntity
  8
0
100
AcDbLine
 62
7
  6
CONTINUOUS
 10
134.934891291
 20
167.5059134703
 11
135.1123515205
 21
167.4886458982
  0
LINE
  5
4F5
100
AcDbEntity
  8
0
100
AcDbLine
 62
7
  6
CONTINUOUS
 10
135.5868457655
 20
169.3755004202
 11
135.4093855372
 21
169.3927679957
  0
LINE
  5
4F6
100
AcDbEntity
  8
0
100
AcDbLine
 62
7
  6
CONTINUOUS
 10
138.7085229212
 20
166.0580370516
 11
138.8579757735
 21
166.0412301868
  0
LINE
  5
4F7
100
AcDbEntity
  8
0
100
AcDbLine
 62
7
  6
CONTINUOUS
 10
139.0626941165
 20
167.2797868954
 11
138.913240046
 21
167.2965942733
  0
LINE
  5
4F8
100
AcDbEntity
  8
0
100
AcDbLine
 62
7
  6
CONTINUOUS
 10
139.3388757344
 20
167.9405618452
 11
139.1894216639
 21
167.9573692231
  0
LINE
  5
4F9
100
AcDbEntity
  8
RUNDUNGEN
100
AcDbLine
 62
7
  6
CONTINUOUS
 10
80.9740925612
 20
173.0680468203
 11
76.7218623615
 21
173.5628774555
  0
LWPOLYLINE
  5
4FA
100
AcDbEntity
  8
RUNDUNGEN
100
AcDbPolyline
 62
7
  6
CONTINUOUS
 90
3
 70
0
 10
115.6079201212
 20
174.8113212216
 10
115.6274930211
 20
174.8084434222
 10
116.4140981971
 20
174.6830769208
  0
LINE
  5
4FB
100
AcDbEntity
  8
RUNDUNGEN
100
AcDbLine
 62
7
  6
CONTINUOUS
 10
116.4140981971
 20
174.6830769208
 11
116.6079201212
 21
174.6529367812
  0
LINE
  5
4FC
100
AcDbEntity
  8
0
100
AcDbLine
 62
7
  6
CONTINUOUS
 10
127.0153484292
 20
169.7232202246
 11
128.0302725814
 21
169.498522171
  0
LINE
  5
4FD
100
AcDbEntity
  8
0
100
AcDbLine
 62
7
  6
CONTINUOUS
 10
128.0849104058
 20
169.7453122378
 11
127.239140279
 21
169.9325606158
  0
LINE
  5
4FE
100
AcDbEntity
  8
0
100
AcDbLine
 62
7
  6
CONTINUOUS
 10
127.6124987471
 20
171.6189594103
 11
127.4433447218
 21
171.6564090859
  0
LINE
  5
4FF
100
AcDbEntity
  8
0
100
AcDbLine
 62
7
  6
CONTINUOUS
 10
128.6482757138
 20
169.3514069642
 11
128.8727919585
 21
169.2970614911
  0
LINE
  5
500
100
AcDbEntity
  8
0
100
AcDbLine
 62
7
  6
CONTINUOUS
 10
128.9322581438
 20
169.5427328197
 11
128.7077418991
 21
169.5970782929
  0
LINE
  5
501
100
AcDbEntity
  8
0
100
AcDbLine
 62
7
  6
CONTINUOUS
 10
128.5526027089
 20
169.9380403503
 11
128.3842155656
 21
169.9787994455
  0
LINE
  5
502
100
AcDbEntity
  8
0
100
AcDbLine
 62
7
  6
CONTINUOUS
 10
128.9125363868
 20
170.1976702704
 11
129.0809236104
 21
170.1569111558
  0
LINE
  5
503
100
AcDbEntity
  8
0
100
AcDbLine
 62
7
  6
CONTINUOUS
 10
129.1403897888
 20
170.4025824558
 11
128.9720025652
 21
170.4433415704
  0
LINE
  5
504
100
AcDbEntity
  8
0
100
AcDbLine
 62
7
  6
CONTINUOUS
 10
129.3979763077
 20
170.7303304059
 11
129.5663635313
 21
170.6895712913
  0
LINE
  5
505
100
AcDbEntity
  8
0
100
AcDbLine
 62
7
  6
CONTINUOUS
 10
129.1107570091
 20
171.0165747184
 11
129.2791442327
 21
170.9758156038
  0
LINE
  5
506
100
AcDbEntity
  8
0
100
AcDbLine
 62
7
  6
CONTINUOUS
 10
129.3105458202
 20
171.2282801025
 11
129.1702231874
 21
171.2622460184
  0
LINE
  5
507
100
AcDbEntity
  8
0
100
AcDbLine
 62
7
  6
CONTINUOUS
 10
130.8572534452
 20
168.7825044973
 11
131.8567725864
 21
168.4969843817
  0
LINE
  5
508
100
AcDbEntity
  8
0
100
AcDbLine
 62
7
  6
CONTINUOUS
 10
131.9146287407
 20
168.6995211926
 11
131.1372247524
 21
168.9215924541
  0
LINE
  5
509
100
AcDbEntity
  8
0
100
AcDbLine
 62
7
  6
CONTINUOUS
 10
131.3015820775
 20
170.2328384747
 11
131.4404042863
 21
170.1931828729
  0
LINE
  5
50A
100
AcDbEntity
  8
0
100
AcDbLine
 62
7
  6
CONTINUOUS
 10
131.7874757618
 20
170.356915899
 11
131.8985333382
 21
170.3251914719
  0
LINE
  5
50B
100
AcDbEntity
  8
0
100
AcDbLine
 62
7
  6
CONTINUOUS
 10
131.9841541168
 20
170.5197970797
 11
131.8730962227
 21
170.5515215975
  0
LINE
  5
50C
100
AcDbEntity
  8
0
100
AcDbLine
 62
7
  6
CONTINUOUS
 10
132.4923719404
 20
168.3043586685
 11
132.6580045952
 21
168.2535513249
  0
LINE
  5
50D
100
AcDbEntity
  8
0
100
AcDbLine
 62
7
  6
CONTINUOUS
 10
132.7197764428
 20
168.4549284171
 11
132.554143788
 21
168.5057357606
  0
LINE
  5
50E
100
AcDbEntity
  8
0
100
AcDbLine
 62
7
  6
CONTINUOUS
 10
132.3921750729
 20
168.8638747905
 11
132.2265424181
 21
168.9146821341
  0
LINE
  5
50F
100
AcDbEntity
  8
0
100
AcDbLine
 62
7
  6
CONTINUOUS
 10
132.3377317454
 20
169.2771609056
 11
132.5309700533
 21
169.2178856068
  0
LINE
  5
510
100
AcDbEntity
  8
0
100
AcDbLine
 62
7
  6
CONTINUOUS
 10
132.8012311695
 20
169.3112441009
 11
132.9668638243
 21
169.2604367574
  0
LINE
  5
511
100
AcDbEntity
  8
0
100
AcDbLine
 62
7
  6
CONTINUOUS
 10
133.0286356632
 20
169.4618138213
 11
132.8630030084
 21
169.5126211648
  0
LINE
  5
512
100
AcDbEntity
  8
0
100
AcDbLine
 62
7
  6
CONTINUOUS
 10
132.7352008211
 20
170.0806052016
 11
133.5357584421
 21
169.835036439
  0
LINE
  5
513
100
AcDbEntity
  8
0
100
AcDbLine
 62
7
  6
CONTINUOUS
 10
133.597530281
 20
170.0364135029
 11
132.6589453423
 21
170.3243217507
  0
LINE
  5
514
100
AcDbEntity
  8
RUNDUNGEN
100
AcDbLine
 62
7
  6
CONTINUOUS
 10
168.6546744287
 20
155.826001248
 11
169.0222878104
 21
155.7085940888
  0
LINE
  5
515
100
AcDbEntity
  8
0
100
AcDbLine
 62
7
  6
CONTINUOUS
 10
133.5121424877
 20
168.7365302603
 11
133.8967814294
 21
168.6121487144
  0
LINE
  5
516
100
AcDbEntity
  8
0
100
AcDbLine
 62
7
  6
CONTINUOUS
 10
133.9615916597
 20
168.8125686257
 11
133.576952718
 21
168.9369501716
  0
LINE
  5
517
100
AcDbEntity
  8
RUNDUNGEN
100
AcDbLine
 62
7
  6
CONTINUOUS
 10
98.1261455856
 20
178.7421094614
 11
97.7597299167
 21
178.8632027894
  0
LINE
  5
518
100
AcDbEntity
  8
0
100
AcDbLine
 62
7
  6
CONTINUOUS
 10
134.0603015351
 20
167.8039976964
 11
134.2246784796
 21
167.7492639536
  0
LINE
  5
519
100
AcDbEntity
  8
0
100
AcDbLine
 62
7
  6
CONTINUOUS
 10
134.8502069696
 20
169.6278576053
 11
134.6858300251
 21
169.6825913481
  0
LINE
  5
51A
100
AcDbEntity
  8
0
100
AcDbLine
 62
7
  6
CONTINUOUS
 10
137.3174212458
 20
166.6230557665
 11
137.5322590231
 21
166.5381697979
  0
LINE
  5
51B
100
AcDbEntity
  8
0
100
AcDbLine
 62
7
  6
CONTINUOUS
 10
137.625143454
 20
166.773250872
 11
137.4103056767
 21
166.8581368406
  0
LINE
  5
51C
100
AcDbEntity
  8
0
100
AcDbLine
 62
7
  6
CONTINUOUS
 10
137.3038324524
 20
167.2172843007
 11
137.1427039657
 21
167.2809488379
  0
LINE
  5
51D
100
AcDbEntity
  8
0
100
AcDbLine
 62
7
  6
CONTINUOUS
 10
137.6962260501
 20
167.4246181083
 11
137.8573545367
 21
167.3609535711
  0
LINE
  5
51E
100
AcDbEntity
  8
0
100
AcDbLine
 62
7
  6
CONTINUOUS
 10
137.9502389568
 20
167.5960346178
 11
137.7891104701
 21
167.659699155
  0
LINE
  5
51F
100
AcDbEntity
  8
0
100
AcDbLine
 62
7
  6
CONTINUOUS
 10
138.2506941168
 20
167.8849917605
 11
138.4118226035
 21
167.8213272233
  0
LINE
  5
520
100
AcDbEntity
  8
0
100
AcDbLine
 62
7
  6
CONTINUOUS
 10
138.0058408269
 20
168.2082217071
 11
138.1669693136
 21
168.1445571699
  0
LINE
  5
521
100
AcDbEntity
  8
0
100
AcDbLine
 62
7
  6
CONTINUOUS
 10
138.232998781
 20
168.3902490538
 11
138.098725247
 21
168.4433027538
  0
LINE
  5
522
100
AcDbEntity
  8
0
100
AcDbLine
 62
7
  6
CONTINUOUS
 10
138.5753148256
 20
166.1137135377
 11
138.7085229212
 21
166.0580370516
  0
LINE
  5
523
100
AcDbEntity
  8
0
100
AcDbLine
 62
7
  6
CONTINUOUS
 10
138.8163939381
 20
166.2412475269
 11
138.6299035799
 21
166.3191941998
  0
LINE
  5
524
100
AcDbEntity
  8
0
100
AcDbLine
 62
7
  6
CONTINUOUS
 10
138.954823111
 20
167.0965764473
 11
139.1413134692
 21
167.0186297744
  0
LINE
  5
525
100
AcDbEntity
  8
0
100
AcDbLine
 62
7
  6
CONTINUOUS
 10
139.1959022121
 20
167.2241104092
 11
139.0626941165
 21
167.2797868954
  0
LINE
  5
526
100
AcDbEntity
  8
0
100
AcDbLine
 62
7
  6
CONTINUOUS
 10
139.5065095962
 20
167.3682434016
 11
139.6397176918
 21
167.3125669154
  0
LINE
  5
527
100
AcDbEntity
  8
0
100
AcDbLine
 62
7
  6
CONTINUOUS
 10
139.2310047289
 20
167.7573513971
 11
139.3908539558
 21
167.6905398176
  0
LINE
  5
528
100
AcDbEntity
  8
0
100
AcDbLine
 62
7
  6
CONTINUOUS
 10
139.4454414791
 20
167.8960209621
 11
139.3388757344
 21
167.9405618452
  0
LINE
  5
529
100
AcDbEntity
  8
0
100
AcDbLine
 62
7
  6
CONTINUOUS
 10
139.3196196828
 20
165.7980013289
 11
139.4521180953
 21
165.7406564204
  0
LINE
  5
52A
100
AcDbEntity
  8
0
100
AcDbLine
 62
7
  6
CONTINUOUS
 10
139.535782146
 20
165.9339665882
 11
139.4032837335
 21
165.9913114968
  0
LINE
  5
52B
100
AcDbEntity
  8
0
100
AcDbLine
 62
7
  6
CONTINUOUS
 10
139.8224211401
 20
165.5785031601
 11
139.9809142376
 21
165.5085353064
  0
LINE
  5
52C
100
AcDbEntity
  8
0
100
AcDbLine
 62
7
  6
CONTINUOUS
 10
140.7805468513
 20
167.3198849919
 11
140.6220537538
 21
167.3898528456
  0
LWPOLYLINE
  5
52D
100
AcDbEntity
  8
RUNDUNGEN
100
AcDbPolyline
 62
7
  6
CONTINUOUS
 90
3
 70
0
 10
152.2011623941
 20
162.9214560581
 10
152.1834367489
 20
162.9302413667
 10
151.47407115
 20
163.292546362
  0
LINE
  5
52E
100
AcDbEntity
  8
RUNDUNGEN
100
AcDbLine
 62
7
  6
CONTINUOUS
 10
151.47407115
 20
163.292546362
 11
151.2990493615
 21
163.3811056065
  0
LINE
  5
52F
100
AcDbEntity
  8
RUNDUNGEN
100
AcDbLine
 62
7
  6
CONTINUOUS
 10
179.1958546655
 20
141.1538597699
 11
182.926807057
 21
139.0548038581
  0
LINE
  5
530
100
AcDbEntity
  8
0
100
AcDbLine
 62
7
  6
CONTINUOUS
 10
132.1391694111
 20
170.4317030372
 11
131.9841541168
 21
170.5197970797
  0
LINE
  5
531
100
AcDbEntity
  8
0
100
AcDbLine
 62
7
  6
CONTINUOUS
 10
128.517863951
 20
169.4263181392
 11
128.6482757138
 21
169.3514069642
  0
LINE
  5
532
100
AcDbEntity
  8
0
100
AcDbLine
 62
7
  6
CONTINUOUS
 10
129.2708013919
 20
170.3276713232
 11
129.1403897888
 21
170.4025824558
  0
LINE
  5
533
100
AcDbEntity
  8
0
100
AcDbLine
 62
7
  6
CONTINUOUS
 10
129.4409575839
 20
171.1533689311
 11
129.3105458202
 21
171.2282801025
  0
LINE
  5
534
100
AcDbEntity
  8
0
100
AcDbLine
 62
7
  6
CONTINUOUS
 10
165.3687528746
 20
148.670402578
 11
165.2627278158
 21
148.7326414676
  0
LINE
  5
535
100
AcDbEntity
  8
0
100
AcDbLine
 62
7
  6
CONTINUOUS
 10
165.9098729133
 20
147.5371961279
 11
166.0146005725
 21
147.472797996
  0
LINE
  5
536
100
AcDbEntity
  8
0
100
AcDbLine
 62
7
  6
CONTINUOUS
 10
131.8985333382
 20
170.3251914719
 11
132.0257843178
 21
170.2450285136
  0
LINE
  5
537
100
AcDbEntity
  8
0
100
AcDbLine
 62
7
  6
CONTINUOUS
 10
134.7851738043
 20
167.6027379313
 11
134.934891291
 21
167.5059134703
  0
LINE
  5
538
100
AcDbEntity
  8
0
100
AcDbLine
 62
7
  6
CONTINUOUS
 10
135.7365632535
 20
169.2786759627
 11
135.5868457655
 21
169.3755004202
  0
LINE
  5
539
100
AcDbEntity
  8
0
100
AcDbLine
 62
7
  6
CONTINUOUS
 10
132.3666989916
 20
168.3869735701
 11
132.4923719404
 21
168.3043586685
  0
LINE
  5
53A
100
AcDbEntity
  8
0
100
AcDbLine
 62
7
  6
CONTINUOUS
 10
133.1543082972
 20
169.3791990201
 11
133.0286356632
 21
169.4618138213
  0
LINE
  5
53B
100
AcDbEntity
  8
0
100
AcDbLine
 62
7
  6
CONTINUOUS
 10
163.9522842863
 20
147.2761169901
 11
164.0766944281
 21
147.1916125945
  0
LINE
  5
53C
100
AcDbEntity
  8
RUNDUNGEN
100
AcDbLine
 62
7
  6
CONTINUOUS
 10
179.1959667781
 20
141.1501367938
 11
178.8791617266
 21
141.3708840946
  0
LINE
  5
53D
100
AcDbEntity
  8
0
100
AcDbLine
 62
7
  6
CONTINUOUS
 10
164.8038772518
 20
146.2194634209
 11
164.9265299009
 21
146.1324278421
  0
LINE
  5
53E
100
AcDbEntity
  8
0
100
AcDbLine
 62
7
  6
CONTINUOUS
 10
166.2127649937
 20
147.6297103161
 11
166.0901122449
 21
147.7167460267
  0
LINE
  5
53F
100
AcDbEntity
  8
0
100
AcDbLine
 62
7
  6
CONTINUOUS
 10
135.0042481515
 20
167.7048057031
 11
134.8817956812
 21
167.7921224187
  0
LINE
  5
540
100
AcDbEntity
  8
0
100
AcDbLine
 62
7
  6
CONTINUOUS
 10
135.5174889148
 20
169.1766082152
 11
135.639941385
 21
169.0892914996
  0
LINE
  5
541
100
AcDbEntity
  8
RUNDUNGEN
100
AcDbLine
 62
7
  6
CONTINUOUS
 10
126.7941304621
 20
179.2222993548
 11
127.1019717816
 21
178.9892145076
  0
LINE
  5
542
100
AcDbEntity
  8
0
100
AcDbLine
 62
7
  6
CONTINUOUS
 10
137.1986278352
 20
166.7152898873
 11
137.3174212458
 21
166.6230557665
  0
LINE
  5
543
100
AcDbEntity
  8
0
100
AcDbLine
 62
7
  6
CONTINUOUS
 10
138.0690323687
 20
167.5038005005
 11
137.9502389568
 21
167.5960346178
  0
LINE
  5
544
100
AcDbEntity
  8
0
100
AcDbLine
 62
7
  6
CONTINUOUS
 10
138.3517915783
 20
168.2980151793
 11
138.232998781
 21
168.3902490538
  0
LINE
  5
545
100
AcDbEntity
  8
0
100
AcDbLine
 62
7
  6
CONTINUOUS
 10
138.4583527062
 20
166.2082591356
 11
138.5753148256
 21
166.1137135377
  0
LINE
  5
546
100
AcDbEntity
  8
0
100
AcDbLine
 62
7
  6
CONTINUOUS
 10
139.3128631133
 20
167.1295653245
 11
139.1959022121
 21
167.2241104092
  0
LINE
  5
547
100
AcDbEntity
  8
0
100
AcDbLine
 62
7
  6
CONTINUOUS
 10
139.5624035999
 20
167.8014753676
 11
139.4454414791
 21
167.8960209621
  0
LINE
  5
548
100
AcDbEntity
  8
0
100
AcDbLine
 62
7
  6
CONTINUOUS
 10
169.5433148198
 20
142.5998642998
 11
169.6575728938
 21
142.5020690607
  0
LINE
  5
549
100
AcDbEntity
  8
RUNDUNGEN
100
AcDbLine
 62
7
  6
CONTINUOUS
 10
123.6484685314
 20
182.123035626
 11
126.7977059165
 21
179.2233432225
  0
LWPOLYLINE
  5
54A
100
AcDbEntity
  8
RUNDUNGEN
100
AcDbPolyline
 62
7
  6
CONTINUOUS
 90
3
 70
0
 10
155.8417388688
 20
160.2764224228
 10
155.8558821494
 20
160.2625895722
 10
156.418570524
 20
159.6988110202
  0
LINE
  5
54B
100
AcDbEntity
  8
RUNDUNGEN
100
AcDbLine
 62
7
  6
CONTINUOUS
 10
156.418570524
 20
159.6988110202
 11
156.5576598249
 21
159.5605014666
  0
LINE
  5
54C
100
AcDbEntity
  8
0
100
AcDbLine
 62
7
  6
CONTINUOUS
 10
169.8496824537
 20
142.5931524144
 11
169.7038256774
 21
142.7392864103
  0
LINE
  5
54D
100
AcDbEntity
  8
0
100
AcDbLine
 62
7
  6
CONTINUOUS
 10
163.8052034876
 20
147.4542412483
 11
163.9522842863
 21
147.2761169901
  0
LINE
  5
54E
100
AcDbEntity
  8
0
100
AcDbLine
 62
7
  6
CONTINUOUS
 10
164.1471922655
 20
147.4370564463
 11
164.0001114668
 21
147.6151807045
  0
LINE
  5
54F
100
AcDbEntity
  8
0
100
AcDbLine
 62
7
  6
CONTINUOUS
 10
164.080423333
 20
147.9810676267
 11
163.9701127471
 21
148.1146608044
  0
LINE
  5
550
100
AcDbEntity
  8
0
100
AcDbLine
 62
7
  6
CONTINUOUS
 10
164.524151639
 20
147.972998274
 11
164.6344622249
 21
147.8394050962
  0
LINE
  5
551
100
AcDbEntity
  8
0
100
AcDbLine
 62
7
  6
CONTINUOUS
 10
164.8293701813
 20
148.0003445337
 11
164.7190595954
 21
148.1339377114
  0
LINE
  5
552
100
AcDbEntity
  8
0
100
AcDbLine
 62
7
  6
CONTINUOUS
 10
165.2320427666
 20
148.1081606191
 11
165.3423533525
 21
147.9745674414
  0
LINE
  5
553
100
AcDbEntity
  8
0
100
AcDbLine
 62
7
  6
CONTINUOUS
 10
165.1738449182
 20
148.5094631406
 11
165.2841555041
 21
148.3758699629
  0
LINE
  5
554
100
AcDbEntity
  8
0
100
AcDbLine
 62
7
  6
CONTINUOUS
 10
165.4606783541
 20
148.5590749405
 11
165.3687528746
 21
148.670402578
  0
LINE
  5
555
100
AcDbEntity
  8
0
100
AcDbLine
 62
7
  6
CONTINUOUS
 10
164.660476843
 20
146.400563662
 11
164.8038772518
 21
146.2194634209
  0
LINE
  5
556
100
AcDbEntity
  8
0
100
AcDbLine
 62
7
  6
CONTINUOUS
 10
164.9831278397
 20
145.9930880224
 11
165.0906781719
 21
145.8572628092
  0
LINE
  5
557
100
AcDbEntity
  8
0
100
AcDbLine
 62
7
  6
CONTINUOUS
 10
165.0020416961
 20
146.3763757593
 11
164.8586412873
 21
146.5574760004
  0
LINE
  5
558
100
AcDbEntity
  8
0
100
AcDbLine
 62
7
  6
CONTINUOUS
 10
165.271906396
 20
146.4427379125
 11
165.1643560638
 21
146.5785631257
  0
LINE
  5
559
100
AcDbEntity
  8
0
100
AcDbLine
 62
7
  6
CONTINUOUS
 10
166.0146005725
 20
147.472797996
 11
166.1580009813
 21
147.2916977549
  0
LINE
  5
55A
100
AcDbEntity
  8
0
100
AcDbLine
 62
7
  6
CONTINUOUS
 10
166.3561654024
 20
147.448610075
 11
166.2127649937
 21
147.6297103161
  0
LINE
  5
55B
100
AcDbEntity
  8
0
100
AcDbLine
 62
7
  6
CONTINUOUS
 10
166.1681794748
 20
144.4275876997
 11
166.270752978
 21
144.2879659287
  0
LINE
  5
55C
100
AcDbEntity
  8
0
100
AcDbLine
 62
7
  6
CONTINUOUS
 10
167.8664303607
 20
145.4602345372
 11
167.7638568574
 21
145.5998563082
  0
LINE
  5
55D
100
AcDbEntity
  8
RUNDUNGEN
100
AcDbLine
 62
7
  6
CONTINUOUS
 10
187.5981735094
 20
113.7368760566
 11
187.826568786
 21
113.4258139452
  0
LINE
  5
55E
100
AcDbEntity
  8
RUNDUNGEN
100
AcDbLine
 62
7
  6
CONTINUOUS
 10
144.0091455478
 20
173.7320261715
 11
143.7838859213
 21
174.0453664626
  0
LINE
  5
55F
100
AcDbEntity
  8
0
100
AcDbLine
 62
7
  6
CONTINUOUS
 10
167.3068000631
 20
142.8280296036
 11
167.4051445938
 21
142.6853975042
  0
LINE
  5
560
100
AcDbEntity
  8
0
100
AcDbLine
 62
7
  6
CONTINUOUS
 10
169.0352257295
 20
143.8093349985
 11
168.9368811988
 21
143.9519670979
  0
LINE
  5
561
100
AcDbEntity
  8
0
100
AcDbLine
 62
7
  6
CONTINUOUS
 10
167.9237794949
 20
141.9206527171
 11
168.4925517956
 21
141.0505617333
  0
LINE
  5
562
100
AcDbEntity
  8
0
100
AcDbLine
 62
7
  6
CONTINUOUS
 10
168.668862029
 20
141.1658144816
 11
168.2264834524
 21
141.8425520978
  0
LINE
  5
563
100
AcDbEntity
  8
0
100
AcDbLine
 62
7
  6
CONTINUOUS
 10
169.2090121848
 20
142.7263036921
 11
169.2880085787
 21
142.6054573533
  0
LINE
  5
564
100
AcDbEntity
  8
0
100
AcDbLine
 62
7
  6
CONTINUOUS
 10
169.6575728938
 20
142.5020690607
 11
169.7207699367
 21
142.4053921003
  0
LINE
  5
565
100
AcDbEntity
  8
0
100
AcDbLine
 62
7
  6
CONTINUOUS
 10
169.9128794965
 20
142.496475454
 11
169.8496824537
 21
142.5931524144
  0
LINE
  5
566
100
AcDbEntity
  8
0
100
AcDbLine
 62
7
  6
CONTINUOUS
 10
169.6860975566
 20
141.5284509771
 11
169.7629730256
 21
141.4062452519
  0
LINE
  5
567
100
AcDbEntity
  8
0
100
AcDbLine
 62
7
  6
CONTINUOUS
 10
169.8705989638
 20
141.2351567891
 11
169.9474744328
 21
141.1129510638
  0
LINE
  5
568
100
AcDbEntity
  8
0
100
AcDbLine
 62
7
  6
CONTINUOUS
 10
170.2585871642
 20
141.1722086663
 11
170.1817116952
 21
141.2944143915
  0
LINE
  5
569
100
AcDbEntity
  8
0
100
AcDbLine
 62
7
  6
CONTINUOUS
 10
170.0740857571
 20
141.4655028544
 11
169.9972102881
 21
141.5877085796
  0
LWPOLYLINE
  5
56A
100
AcDbEntity
  8
RUNDUNGEN
100
AcDbPolyline
 62
7
  6
CONTINUOUS
 90
3
 70
0
 10
178.457606352
 20
129.1483513031
 10
178.4484298787
 20
129.1658776398
 10
178.087498587
 20
129.8759431757
  0
LINE
  5
56B
100
AcDbEntity
  8
RUNDUNGEN
100
AcDbLine
 62
7
  6
CONTINUOUS
 10
178.087498587
 20
129.8759431757
 11
177.9979568035
 21
130.0504643357
  0
LINE
  5
56C
100
AcDbEntity
  8
RUNDUNGEN
100
AcDbLine
 62
7
  6
CONTINUOUS
 10
187.5020990814
 20
95.670913972
 11
189.2867088627
 21
91.7797432745
  0
LINE
  5
56D
100
AcDbEntity
  8
0
100
AcDbLine
 62
7
  6
CONTINUOUS
 10
163.7457626704
 20
147.5923921277
 11
163.8052034876
 21
147.4542412483
  0
LINE
  5
56E
100
AcDbEntity
  8
0
100
AcDbLine
 62
7
  6
CONTINUOUS
 10
164.8888110014
 20
147.8621936566
 11
164.8293701813
 21
148.0003445337
  0
LINE
  5
56F
100
AcDbEntity
  8
0
100
AcDbLine
 62
7
  6
CONTINUOUS
 10
165.5201192005
 20
148.4209240316
 11
165.4606783541
 21
148.5590749405
  0
LINE
  5
570
100
AcDbEntity
  8
0
100
AcDbLine
 62
7
  6
CONTINUOUS
 10
164.6038789042
 20
146.5399034816
 11
164.660476843
 21
146.400563662
  0
LINE
  5
571
100
AcDbEntity
  8
0
100
AcDbLine
 62
7
  6
CONTINUOUS
 10
166.4127632416
 20
147.3092703872
 11
166.3561654024
 21
147.448610075
  0
LINE
  5
572
100
AcDbEntity
  8
0
100
AcDbLine
 62
7
  6
CONTINUOUS
 10
169.9724128382
 20
142.3284097436
 11
169.9128794965
 21
142.496475454
  0
LINE
  5
573
100
AcDbEntity
  8
RUNDUNGEN
100
AcDbLine
 62
7
  6
CONTINUOUS
 10
187.500001472
 20
95.6678361229
 11
187.3734528093
 21
96.0326377778
  0
LINE
  5
574
100
AcDbEntity
  8
0
100
AcDbLine
 62
7
  6
CONTINUOUS
 10
166.1580009813
 20
147.2916977549
 11
166.1966738335
 21
147.1749955162
  0
LINE
  5
575
100
AcDbEntity
  8
0
100
AcDbLine
 62
7
  6
CONTINUOUS
 10
169.7207699367
 20
142.4053921003
 11
169.7645039272
 21
142.2614957683
  0
LINE
  5
576
100
AcDbEntity
  8
RUNDUNGEN
100
AcDbLine
 62
7
  6
CONTINUOUS
 10
167.4842810326
 20
157.2698892271
 11
167.5963260558
 21
156.9003750368
  0
LINE
  5
577
100
AcDbEntity
  8
RUNDUNGEN
100
AcDbLine
 62
7
  6
CONTINUOUS
 10
166.644395771
 20
161.4656143358
 11
167.487787191
 21
157.2686322066
  0
LWPOLYLINE
  5
578
100
AcDbEntity
  8
RUNDUNGEN
100
AcDbPolyline
 62
7
  6
CONTINUOUS
 90
3
 70
0
 10
179.8481828267
 20
124.8685969798
 10
179.8514942355
 20
124.8490927568
 10
179.9753379747
 20
124.062246399
  0
LINE
  5
579
100
AcDbEntity
  8
RUNDUNGEN
100
AcDbLine
 62
7
  6
CONTINUOUS
 10
179.9753379747
 20
124.062246399
 11
180.006567267
 21
123.8685969798
  0
LINE
  5
57A
100
AcDbEntity
  8
RUNDUNGEN
100
AcDbLine
 62
7
  6
CONTINUOUS
 10
187.319364528
 20
114.8458765176
 11
187.3397535213
 21
114.4603963095
  0
LINE
  5
57B
100
AcDbEntity
  8
RUNDUNGEN
100
AcDbLine
 62
7
  6
CONTINUOUS
 10
187.3193645804
 20
96.4149055475
 11
187.3397535712
 21
96.8003857161
  0
LINE
  5
57C
100
AcDbEntity
  8
RUNDUNGEN
100
AcDbLine
 62
7
  6
CONTINUOUS
 10
187.3734527583
 20
115.2281442754
 11
187.319364528
 21
114.8458765176
  0
LINE
  5
57D
100
AcDbEntity
  8
RUNDUNGEN
100
AcDbLine
 62
7
  6
CONTINUOUS
 10
178.2567415031
 20
68.9304400213
 11
178.1844191293
 21
68.5513491118
  0
LINE
  5
57E
100
AcDbEntity
  8
RUNDUNGEN
100
AcDbLine
 62
7
  6
CONTINUOUS
 10
187.3397535712
 20
96.8003857161
 11
187.4338595408
 21
97.1747049469
  0
LINE
  5
57F
100
AcDbEntity
  8
RUNDUNGEN
100
AcDbLine
 62
7
  6
CONTINUOUS
 10
184.5091823752
 20
73.2306888361
 11
185.4636242347
 21
76.1681588341
  0
LINE
  5
580
100
AcDbEntity
  8
RUNDUNGEN
100
AcDbLine
 62
7
  6
CONTINUOUS
 10
189.010125721
 20
87.083168073
 11
189.9645677541
 21
90.0206386057
  0
LINE
  5
581
100
AcDbEntity
  8
RUNDUNGEN
100
AcDbLine
 62
7
  6
CONTINUOUS
 10
178.4006275016
 20
69.2885847501
 11
178.2567415031
 21
68.9304400213
  0
LINE
  5
582
100
AcDbEntity
  8
RUNDUNGEN
100
AcDbLine
 62
7
  6
CONTINUOUS
 10
187.4338595408
 20
97.1747049469
 11
187.5981735542
 21
97.5239059546
  0
LINE
  5
583
100
AcDbEntity
  8
RUNDUNGEN
100
AcDbLine
 62
7
  6
CONTINUOUS
 10
167.5963261005
 20
54.3604069853
 11
167.7772591616
 21
54.7014603706
  0
LINE
  5
584
100
AcDbEntity
  8
RUNDUNGEN
100
AcDbLine
 62
7
  6
CONTINUOUS
 10
178.6107120409
 20
69.6124291391
 11
178.4006275016
 21
69.2885847501
  0
LINE
  5
585
100
AcDbEntity
  8
RUNDUNGEN
100
AcDbLine
 62
7
  6
CONTINUOUS
 10
167.7772591616
 20
54.7014603706
 11
168.0203337598
 21
55.0013360299
  0
LINE
  5
586
100
AcDbEntity
  8
RUNDUNGEN
100
AcDbLine
 62
7
  6
CONTINUOUS
 10
178.8791616889
 20
69.8898979875
 11
178.6107120409
 21
69.6124291391
  0
LINE
  5
587
100
AcDbEntity
  8
RUNDUNGEN
100
AcDbLine
 62
7
  6
CONTINUOUS
 10
144.290479575
 20
37.7929368705
 11
144.0091454997
 21
37.5287559071
  0
LINE
  5
588
100
AcDbEntity
  8
RUNDUNGEN
100
AcDbLine
 62
7
  6
CONTINUOUS
 10
168.0203337598
 20
55.0013360299
 11
168.316486412
 21
55.2488525479
  0
LINE
  5
589
100
AcDbEntity
  8
RUNDUNGEN
100
AcDbLine
 62
7
  6
CONTINUOUS
 10
151.8764333315
 20
37.5968187063
 11
154.3751945598
 21
39.412275006
  0
LINE
  5
58A
100
AcDbEntity
  8
RUNDUNGEN
100
AcDbLine
 62
7
  6
CONTINUOUS
 10
163.660055992
 20
46.1581217032
 11
166.1588176752
 21
47.9735783333
  0
LINE
  5
58B
100
AcDbEntity
  8
RUNDUNGEN
100
AcDbLine
 62
7
  6
CONTINUOUS
 10
144.6173979829
 20
37.9981079747
 11
144.290479575
 21
37.7929368705
  0
LINE
  5
58C
100
AcDbEntity
  8
RUNDUNGEN
100
AcDbLine
 62
7
  6
CONTINUOUS
 10
168.316486412
 20
55.2488525479
 11
168.6546744437
 21
55.4347807438
  0
LINE
  5
58D
100
AcDbEntity
  8
RUNDUNGEN
100
AcDbLine
 62
7
  6
CONTINUOUS
 10
127.1019718033
 20
32.2715674927
 11
127.4488158747
 21
32.4411356925
  0
LINE
  5
58E
100
AcDbEntity
  8
RUNDUNGEN
100
AcDbLine
 62
7
  6
CONTINUOUS
 10
144.9777109013
 20
38.136618995
 11
144.6173979829
 21
37.9981079747
  0
LINE
  5
58F
100
AcDbEntity
  8
RUNDUNGEN
100
AcDbLine
 62
7
  6
CONTINUOUS
 10
99.2670243859
 20
178.8196463649
 11
98.8941103894
 21
178.7199175131
  0
LINE
  5
590
100
AcDbEntity
  8
RUNDUNGEN
100
AcDbLine
 62
7
  6
CONTINUOUS
 10
81.3578569402
 20
173.0574768928
 11
81.7381293749
 21
173.1241631137
  0
LINE
  5
591
100
AcDbEntity
  8
RUNDUNGEN
100
AcDbLine
 62
7
  6
CONTINUOUS
 10
128.2068089476
 20
178.6937465513
 11
128.5896946699
 21
178.7421094199
  0
LINE
  5
592
100
AcDbEntity
  8
RUNDUNGEN
100
AcDbLine
 62
7
  6
CONTINUOUS
 10
98.8941103894
 20
178.7199175131
 11
98.5090313021
 21
178.6937465999
  0
LINE
  5
593
100
AcDbEntity
  8
RUNDUNGEN
100
AcDbLine
 62
7
  6
CONTINUOUS
 10
122.1849182444
 20
183.3113212216
 11
119.0962800672
 21
183.3113212216
  0
LINE
  5
594
100
AcDbEntity
  8
RUNDUNGEN
100
AcDbLine
 62
7
  6
CONTINUOUS
 10
107.6195601752
 20
183.3113212216
 11
104.5309181643
 21
183.3113212216
  0
LINE
  5
595
100
AcDbEntity
  8
RUNDUNGEN
100
AcDbLine
 62
7
  6
CONTINUOUS
 10
127.8217298507
 20
178.7199174601
 11
128.2068089476
 21
178.6937465513
  0
LINE
  5
596
100
AcDbEntity
  8
RUNDUNGEN
100
AcDbLine
 62
7
  6
CONTINUOUS
 10
98.5090313021
 20
178.6937465999
 11
98.1261455856
 21
178.7421094614
  0
LINE
  5
597
100
AcDbEntity
  8
RUNDUNGEN
100
AcDbLine
 62
7
  6
CONTINUOUS
 10
145.3579833358
 20
173.0574768329
 11
144.9777109005
 21
173.1241631076
  0
LINE
  5
598
100
AcDbEntity
  8
RUNDUNGEN
100
AcDbLine
 62
7
  6
CONTINUOUS
 10
127.4488158413
 20
178.8196463102
 11
127.8217298507
 21
178.7199174601
  0
LINE
  5
599
100
AcDbEntity
  8
RUNDUNGEN
100
AcDbLine
 62
7
  6
CONTINUOUS
 10
144.9777109005
 20
173.1241631076
 11
144.6173980189
 21
173.2626741133
  0
LINE
  5
59A
100
AcDbEntity
  8
RUNDUNGEN
100
AcDbLine
 62
7
  6
CONTINUOUS
 10
127.1019717816
 20
178.9892145076
 11
127.4488158413
 21
178.8196463102
  0
LINE
  5
59B
100
AcDbEntity
  8
RUNDUNGEN
100
AcDbLine
 62
7
  6
CONTINUOUS
 10
168.3164863916
 20
156.0119294463
 11
168.6546744287
 21
155.826001248
  0
LINE
  5
59C
100
AcDbEntity
  8
RUNDUNGEN
100
AcDbLine
 62
7
  6
CONTINUOUS
 10
144.6173980189
 20
173.2626741133
 11
144.2904796191
 21
173.4678452125
  0
LINE
  5
59D
100
AcDbEntity
  8
RUNDUNGEN
100
AcDbLine
 62
7
  6
CONTINUOUS
 10
166.1588172203
 20
163.2872040443
 11
163.660055992
 21
165.102660344
  0
LINE
  5
59E
100
AcDbEntity
  8
RUNDUNGEN
100
AcDbLine
 62
7
  6
CONTINUOUS
 10
154.3751945598
 20
171.8485070412
 11
151.8764328767
 21
173.6639636713
  0
LINE
  5
59F
100
AcDbEntity
  8
RUNDUNGEN
100
AcDbLine
 62
7
  6
CONTINUOUS
 10
168.0203337322
 20
156.2594459705
 11
168.3164863916
 21
156.0119294463
  0
LINE
  5
5A0
100
AcDbEntity
  8
RUNDUNGEN
100
AcDbLine
 62
7
  6
CONTINUOUS
 10
144.2904796191
 20
173.4678452125
 11
144.0091455478
 21
173.7320261715
  0
LINE
  5
5A1
100
AcDbEntity
  8
RUNDUNGEN
100
AcDbLine
 62
7
  6
CONTINUOUS
 10
178.8791617266
 20
141.3708840946
 11
178.6107120728
 21
141.6483529534
  0
LINE
  5
5A2
100
AcDbEntity
  8
RUNDUNGEN
100
AcDbLine
 62
7
  6
CONTINUOUS
 10
167.7772591087
 20
156.5593216602
 11
168.0203337322
 21
156.2594459705
  0
LINE
  5
5A3
100
AcDbEntity
  8
RUNDUNGEN
100
AcDbLine
 62
7
  6
CONTINUOUS
 10
178.6107120728
 20
141.6483529534
 11
178.4006275547
 21
141.9721973089
  0
LINE
  5
5A4
100
AcDbEntity
  8
RUNDUNGEN
100
AcDbLine
 62
7
  6
CONTINUOUS
 10
167.5963260558
 20
156.9003750368
 11
167.7772591087
 21
156.5593216602
  0
LINE
  5
5A5
100
AcDbEntity
  8
RUNDUNGEN
100
AcDbLine
 62
7
  6
CONTINUOUS
 10
187.4338594931
 20
114.0860770695
 11
187.5981735094
 21
113.7368760566
  0
LINE
  5
5A6
100
AcDbEntity
  8
RUNDUNGEN
100
AcDbLine
 62
7
  6
CONTINUOUS
 10
178.4006275547
 20
141.9721973089
 11
178.2567415599
 21
142.330342029
  0
LINE
  5
5A7
100
AcDbEntity
  8
RUNDUNGEN
100
AcDbLine
 62
7
  6
CONTINUOUS
 10
189.9645675804
 20
121.2401439762
 11
189.010125721
 21
124.1776139741
  0
LINE
  5
5A8
100
AcDbEntity
  8
RUNDUNGEN
100
AcDbLine
 62
7
  6
CONTINUOUS
 10
185.4636242347
 20
135.0926232131
 11
184.5091822015
 21
138.0300937457
  0
LINE
  5
5A9
100
AcDbEntity
  8
RUNDUNGEN
100
AcDbLine
 62
7
  6
CONTINUOUS
 10
187.3397535213
 20
114.4603963095
 11
187.4338594931
 21
114.0860770695
  0
LINE
  5
5AA
100
AcDbEntity
  8
RUNDUNGEN
100
AcDbLine
 62
7
  6
CONTINUOUS
 10
178.2567415599
 20
142.330342029
 11
178.1844191867
 21
142.7094329325
  0
LINE
  5
5AB
100
AcDbEntity
  8
RUNDUNGEN
100
AcDbLine
 62
7
  6
CONTINUOUS
 10
187.3734528093
 20
96.0326377778
 11
187.3193645804
 21
96.4149055475
  0
LINE
  5
5AC
100
AcDbEntity
  8
RUNDUNGEN
100
AcDbLine
 62
7
  6
CONTINUOUS
 10
191.7769508729
 20
102.6303910236
 11
191.7769508729
 21
108.6303910236
  0
LINE
  5
5AD
100
AcDbEntity
  8
RUNDUNGEN
100
AcDbLine
 62
7
  6
CONTINUOUS
 10
175.0368929248
 20
57.1097902655
 11
178.5636044386
 21
61.9638922318
  0
LINE
  5
5AE
100
AcDbEntity
  8
RUNDUNGEN
100
AcDbLine
 62
7
  6
CONTINUOUS
 10
134.737563757
 20
30.1224098425
 11
140.4439028548
 21
31.9765118088
  0
LINE
  5
5AF
100
AcDbEntity
  8
RUNDUNGEN
100
AcDbLine
 62
7
  6
CONTINUOUS
 10
140.4439028548
 20
179.2842702384
 11
134.737563757
 21
181.1383722047
  0
LINE
  5
5B0
100
AcDbEntity
  8
RUNDUNGEN
100
AcDbLine
 62
7
  6
CONTINUOUS
 10
178.5636044386
 20
149.2968898154
 11
175.0368929248
 21
154.1509917817
  0
LINE
  5
5B1
100
AcDbEntity
  8
RUNDUNGEN
100
AcDbLine
 62
7
  6
CONTINUOUS
 10
231.34049147
 20
27.9494608256
 11
259.34049147
 21
27.9494608256
  0
LINE
  5
5B2
100
AcDbEntity
  8
RUNDUNGEN
100
AcDbLine
 62
7
  6
CONTINUOUS
 10
245.59049147
 20
30.0734663588
 11
245.7856220216
 21
30.0926890835
  0
LINE
  5
5B3
100
AcDbEntity
  8
0
100
AcDbLine
 62
7
  6
CONTINUOUS
 10
245.09049147
 20
30.0734663588
 11
245.59049147
 21
30.0734663588
  0
LINE
  5
5B4
100
AcDbEntity
  8
RUNDUNGEN
100
AcDbLine
 62
7
  6
CONTINUOUS
 10
245.09049147
 20
30.0734663588
 11
244.8953609185
 21
30.0926890835
  0
LWPOLYLINE
  5
5B5
100
AcDbEntity
  8
RUNDUNGEN
100
AcDbPolyline
 62
7
  6
CONTINUOUS
 90
8
 70
0
 10
244.8953609185
 20
30.0926890835
 10
244.7077738889
 20
30.1496009719
 10
244.5348993804
 20
30.2420113513
 10
244.3833733339
 20
30.3663709327
 10
244.2590249961
 20
30.5178914292
 10
244.1666173642
 20
30.6907698255
 10
244.1097075636
 20
30.8783692127
 10
244.09049147
 20
31.0734663588
  0
LINE
  5
5B6
100
AcDbEntity
  8
0
100
AcDbLine
 62
7
  6
CONTINUOUS
 10
230.8840673205
 20
173.2533237471
 11
230.7847232787
 21
173.2001860202
  0
LWPOLYLINE
  5
5B7
100
AcDbEntity
  8
RUNDUNGEN
100
AcDbPolyline
 62
7
  6
CONTINUOUS
 90
7
 70
0
 10
245.3401031685
 20
37.4058420545
 10
245.9995704998
 20
37.4252393538
 10
247.0392332524
 20
37.5214176212
 10
248.0839261872
 20
37.6566830027
 10
249.1521628696
 20
37.785533151
 10
250.2567899003
 20
37.8723125264
 10
251.0298836098
 20
37.8920005589
  0
LINE
  5
5B8
100
AcDbEntity
  8
RUNDUNGEN
100
AcDbLine
 62
7
  6
CONTINUOUS
 10
259.34049147
 20
37.8919333306
 11
251.0298830701
 21
37.8919333306
  0
LINE
  5
5B9
100
AcDbEntity
  8
RUNDUNGEN
100
AcDbLine
 62
7
  6
CONTINUOUS
 10
239.6513226825
 20
37.8919333306
 11
231.34049147
 21
37.8919333306
  0
LWPOLYLINE
  5
5BA
100
AcDbEntity
  8
RUNDUNGEN
100
AcDbPolyline
 62
7
  6
CONTINUOUS
 90
7
 70
0
 10
239.6513226738
 20
37.8919474356
 10
240.4566352971
 20
37.8706996305
 10
241.5619881315
 20
37.7820352082
 10
242.6303978674
 20
37.6522959873
 10
243.6753206035
 20
37.5174315109
 10
244.7151666791
 20
37.4233441826
 10
245.3401031643
 20
37.4058401061
  0
LWPOLYLINE
  5
5BB
100
AcDbEntity
  8
RUNDUNGEN
100
AcDbPolyline
 62
7
  6
CONTINUOUS
 90
9
 70
0
 10
231.34049147
 20
37.8919333306
 10
231.1450219222
 20
37.9112235824
 10
230.9574895558
 20
37.9681857819
 10
230.7847232787
 20
38.060596027
 10
230.6332859069
 20
38.1849253452
 10
230.5090567648
 20
38.3363108609
 10
230.4166658491
 20
38.50911977
 10
230.3597199063
 20
38.6967748658
 10
230.34049147
 20
38.8919333306
  0
LINE
  5
5BC
100
AcDbEntity
  8
0
100
AcDbLine
 62
7
  6
CONTINUOUS
 10
230.7847232787
 20
173.2001860202
 11
230.6332859069
 21
173.075856702
  0
LINE
  5
5BD
100
AcDbEntity
  8
0
100
AcDbLine
 62
7
  6
CONTINUOUS
 10
231.34049147
 20
45.9671386976
 11
259.34049147
 21
45.9671386976
  0
LWPOLYLINE
  5
5BE
100
AcDbEntity
  8
0
100
AcDbPolyline
 62
7
  6
CONTINUOUS
 90
5
 70
0
 10
230.6332859069
 20
173.075856702
 10
230.5090567648
 20
172.9244711863
 10
230.4166658491
 20
172.7516622771
 10
230.3597199063
 20
172.5640071814
 10
230.34049147
 20
172.3688487166
  0
LINE
  5
5BF
100
AcDbEntity
  8
0
100
AcDbLine
 62
7
  6
CONTINUOUS
 10
251.6378898002
 20
169.1602540027
 11
251.6698741245
 21
169.1781895869
  0
LINE
  5
5C0
100
AcDbEntity
  8
RUNDUNGEN
100
AcDbLine
 62
7
  6
CONTINUOUS
 10
251.6701354616
 20
169.1783324798
 11
251.6698741245
 21
169.1781895869
  0
LINE
  5
5C1
100
AcDbEntity
  8
0
100
AcDbLine
 62
7
  6
CONTINUOUS
 10
251.6701338596
 20
169.1783355858
 11
252.0875978519
 21
169.404336678
  0
LINE
  5
5C2
100
AcDbEntity
  8
0
100
AcDbLine
 62
7
  6
CONTINUOUS
 10
252.0875978519
 20
169.404336678
 11
252.4789309196
 21
169.6127521506
  0
LINE
  5
5C3
100
AcDbEntity
  8
0
100
AcDbLine
 62
7
  6
CONTINUOUS
 10
252.4789309196
 20
169.6127521506
 11
252.883508492
 21
169.8252686976
  0
LINE
  5
5C4
100
AcDbEntity
  8
RUNDUNGEN
100
AcDbLine
 62
7
  6
CONTINUOUS
 10
253.302228906
 20
170.042539476
 11
253.3018435129
 21
170.0423406173
  0
LINE
  5
5C5
100
AcDbEntity
  8
0
100
AcDbLine
 62
7
  6
CONTINUOUS
 10
252.883508492
 20
169.8252686976
 11
253.5077005858
 21
170.1483422503
  0
LWPOLYLINE
  5
5C6
100
AcDbEntity
  8
0
100
AcDbPolyline
 62
7
  6
CONTINUOUS
 90
3
 70
0
 10
253.5077005858
 20
170.1483422503
 10
254.1332470998
 20
170.4671221419
 10
254.7713757877
 20
170.7881119733
  0
LINE
  5
5C7
100
AcDbEntity
  8
0
100
AcDbLine
 62
7
  6
CONTINUOUS
 10
254.7713757877
 20
170.7881119733
 11
256.069426109
 21
171.4303646342
  0
LINE
  5
5C8
100
AcDbEntity
  8
0
100
AcDbLine
 62
7
  6
CONTINUOUS
 10
256.069426109
 20
171.4303646342
 11
259.7794993208
 21
173.2428329654
  0
LINE
  5
5C9
100
AcDbEntity
  8
0
100
AcDbLine
 62
7
  6
CONTINUOUS
 10
251.4637491764
 20
169.2978335532
 11
252.2112220517
 21
169.6624004335
  0
LINE
  5
5CA
100
AcDbEntity
  8
0
100
AcDbLine
 62
2
  6
CONTINUOUS
 10
242.5747463907
 20
171.5613212216
 11
239.8363904578
 21
168.8229652887
  0
LINE
  5
5CB
100
AcDbEntity
  8
0
100
AcDbLine
 62
2
  6
CONTINUOUS
 10
248.4756637331
 20
171.5613212216
 11
240.34049147
 21
163.4261489585
  0
LINE
  5
5CC
100
AcDbEntity
  8
RUNDUNGEN
100
AcDbLine
 62
7
  6
CONTINUOUS
 10
251.4104902176
 20
169.004796255
 11
251.4092029855
 21
169.0037690021
  0
LWPOLYLINE
  5
5CD
100
AcDbEntity
  8
0
100
AcDbPolyline
 62
7
  6
CONTINUOUS
 90
4
 70
0
 10
251.4092068888
 20
169.0037639773
 10
251.472029525
 20
169.0518806206
 10
251.5550512723
 20
169.1094183592
 10
251.6378898002
 20
169.1602540027
  0
LWPOLYLINE
  5
5CE
100
AcDbEntity
  8
0
100
AcDbPolyline
 62
7
  6
CONTINUOUS
 90
3
 70
0
 10
258.4938708991
 20
161.5803848675
 10
258.7052195991
 20
161.667061258
 10
258.9185510276
 20
161.7526711882
  0
LINE
  5
5CF
100
AcDbEntity
  8
0
100
AcDbLine
 62
7
  6
CONTINUOUS
 10
258.9185510276
 20
161.7526711882
 11
259.7078918564
 21
162.0645249149
  0
LINE
  5
5D0
100
AcDbEntity
  8
RUNDUNGEN
100
AcDbLine
 62
7
  6
CONTINUOUS
 10
259.7072174853
 20
162.0642588029
 11
259.7072460101
 21
162.0642700499
  0
LINE
  5
5D1
100
AcDbEntity
  8
0
100
AcDbLine
 62
2
  6
CONTINUOUS
 10
250.342418614
 20
167.52715876
 11
240.34049147
 21
157.525231616
  0
LINE
  5
5D2
100
AcDbEntity
  8
0
100
AcDbLine
 62
7
  6
CONTINUOUS
 10
251.1869820512
 20
168.7964113478
 11
251.4104902176
 21
169.004796255
  0
LINE
  5
5D3
100
AcDbEntity
  8
0
100
AcDbLine
 62
7
  6
CONTINUOUS
 10
259.7072174853
 20
162.0642588029
 11
259.8963191331
 21
162.163290251
  0
LINE
  5
5D4
100
AcDbEntity
  8
RUNDUNGEN
100
AcDbLine
 62
7
  6
CONTINUOUS
 10
255.8710851176
 20
155.5599180596
 11
255.871196439
 21
155.5599620753
  0
LINE
  5
5D5
100
AcDbEntity
  8
0
100
AcDbLine
 62
7
  6
CONTINUOUS
 10
255.8711042002
 20
155.5598699084
 11
259.7080765004
 21
157.076258187
  0
LINE
  5
5D6
100
AcDbEntity
  8
RUNDUNGEN
100
AcDbLine
 62
7
  6
CONTINUOUS
 10
259.7081741988
 20
157.0762967963
 11
259.7081247881
 21
157.0762773777
  0
LINE
  5
5D7
100
AcDbEntity
  8
RUNDUNGEN
100
AcDbLine
 62
7
  6
CONTINUOUS
 10
257.5532109593
 20
65.7800311897
 11
261.6863418171
 21
66.188762476
  0
LINE
  5
5D8
100
AcDbEntity
  8
RUNDUNGEN
100
AcDbLine
 62
7
  6
CONTINUOUS
 10
228.9946411229
 20
66.188762476
 11
233.1277719808
 21
65.7800311897
  0
LINE
  5
5D9
100
AcDbEntity
  8
RUNDUNGEN
100
AcDbLine
 62
7
  6
CONTINUOUS
 10
259.7081803659
 20
54.1844828136
 11
255.8711037901
 21
55.7009123008
  0
LWPOLYLINE
  5
5DA
100
AcDbEntity
  8
RUNDUNGEN
100
AcDbPolyline
 62
7
  6
CONTINUOUS
 90
7
 70
0
 10
255.871196129
 20
55.7008205925
 10
255.7794909207
 20
55.7375761003
 10
255.3318022193
 20
55.9314192911
 10
254.8701763126
 20
56.15625457
 10
254.3990891489
 20
56.4120790135
 10
253.9236288149
 20
56.6983482903
 10
253.7520456877
 20
56.8089315262
  0
LINE
  5
5DB
100
AcDbEntity
  8
0
100
AcDbLine
 62
2
  6
CONTINUOUS
 10
250.34049147
 20
161.6243142735
 11
240.0557021906
 21
151.3395249941
  0
LINE
  5
5DC
100
AcDbEntity
  8
0
100
AcDbLine
 62
2
  6
CONTINUOUS
 10
234.4447830121
 20
145.7286058156
 11
226.29049147
 21
137.5743142735
  0
LWPOLYLINE
  5
5DD
100
AcDbEntity
  8
0
100
AcDbPolyline
 62
7
  6
CONTINUOUS
 90
5
 70
0
 10
259.8963191331
 20
162.163290251
 10
260.047724719
 20
162.2876075016
 10
260.1719125053
 20
162.438944868
 10
260.2642985408
 20
162.6117294687
 10
260.3212582778
 20
162.799405694
  0
LWPOLYLINE
  5
5DE
100
AcDbEntity
  8
0
100
AcDbPolyline
 62
7
  6
CONTINUOUS
 90
7
 70
0
 10
253.7520434386
 20
154.4518491572
 10
253.9236261657
 20
154.5624322212
 10
254.3990866229
 20
154.8487018561
 10
254.8701741044
 20
155.1045267116
 10
255.3318006222
 20
155.3293624235
 10
255.7794903111
 20
155.5232061806
 10
255.871196439
 20
155.5599620753
  0
LWPOLYLINE
  5
5DF
100
AcDbEntity
  8
RUNDUNGEN
100
AcDbPolyline
 62
7
  6
CONTINUOUS
 90
9
 70
0
 10
231.34049147
 20
73.3262283176
 10
231.1422341304
 20
73.3460788705
 10
230.9553335398
 20
73.4033776423
 10
230.7837476606
 20
73.4955440857
 10
230.6330613192
 20
73.619445054
 10
230.5096579533
 20
73.7697072828
 10
230.4172693655
 20
73.9419615538
 10
230.3598855033
 20
74.1302467392
 10
230.34049147
 20
74.3262283176
  0
LINE
  5
5E0
100
AcDbEntity
  8
RUNDUNGEN
100
AcDbLine
 62
7
  6
CONTINUOUS
 10
253.7520423371
 20
56.8089770001
 11
253.4972678179
 21
56.9806429305
  0
LINE
  5
5E1
100
AcDbEntity
  8
RUNDUNGEN
100
AcDbLine
 62
7
  6
CONTINUOUS
 10
253.4970383297
 20
56.9808065099
 11
253.2147103724
 21
57.1820500674
  0
LWPOLYLINE
  5
5E2
100
AcDbEntity
  8
RUNDUNGEN
100
AcDbPolyline
 62
7
  6
CONTINUOUS
 90
4
 70
0
 10
253.2145483685
 20
57.1821725912
 10
252.9358575896
 20
57.392946924
 10
252.6618798083
 20
57.6128295643
 10
252.5181513471
 20
57.7335725306
  0
LINE
  5
5E3
100
AcDbEntity
  8
0
100
AcDbLine
 62
2
  6
CONTINUOUS
 10
250.34049147
 20
155.723396931
 11
227.7639898571
 21
133.1468953181
  0
LINE
  5
5E4
100
AcDbEntity
  8
0
100
AcDbLine
 62
2
  6
CONTINUOUS
 10
250.9390551769
 20
150.4210432955
 11
233.6649071996
 21
133.1468953181
  0
LINE
  5
5E5
100
AcDbEntity
  8
RUNDUNGEN
100
AcDbLine
 62
7
  6
CONTINUOUS
 10
252.5181594541
 20
153.5271995732
 11
252.5179540297
 21
153.527024316
  0
LWPOLYLINE
  5
5E6
100
AcDbEntity
  8
0
100
AcDbPolyline
 62
7
  6
CONTINUOUS
 90
6
 70
0
 10
252.5181512189
 20
153.5272092147
 10
252.6617652472
 20
153.6478575606
 10
252.9356789606
 20
153.8676960045
 10
253.2145097411
 20
154.0785853712
 10
253.4970697556
 20
154.280000646
 10
253.7520406734
 20
154.4518025001
  0
LINE
  5
5E7
100
AcDbEntity
  8
RUNDUNGEN
100
AcDbLine
 62
7
  6
CONTINUOUS
 10
248.4856765658
 20
73.0215946868
 11
248.4762342855
 21
73.0196564731
  0
LWPOLYLINE
  5
5E8
100
AcDbEntity
  8
RUNDUNGEN
100
AcDbPolyline
 62
7
  6
CONTINUOUS
 90
4
 70
0
 10
248.4762271065
 20
73.0196526745
 10
249.140322012
 20
73.1465444288
 10
250.2407951272
 20
73.2918705431
 10
251.0298933151
 20
73.3263349992
  0
LINE
  5
5E9
100
AcDbEntity
  8
RUNDUNGEN
100
AcDbLine
 62
7
  6
CONTINUOUS
 10
259.34049147
 20
73.3262283176
 11
251.0298898513
 21
73.3262283176
  0
LINE
  5
5EA
100
AcDbEntity
  8
RUNDUNGEN
100
AcDbLine
 62
7
  6
CONTINUOUS
 10
239.6513329197
 20
73.3262283176
 11
231.34049147
 21
73.3262283176
  0
LWPOLYLINE
  5
5EB
100
AcDbEntity
  8
RUNDUNGEN
100
AcDbPolyline
 62
7
  6
CONTINUOUS
 90
4
 70
0
 10
239.6513330228
 20
73.3262491839
 10
240.4732925159
 20
73.2890572563
 10
241.5758523822
 20
73.1403706693
 10
242.2029821742
 20
73.0200262835
  0
LINE
  5
5EC
100
AcDbEntity
  8
RUNDUNGEN
100
AcDbLine
 62
7
  6
CONTINUOUS
 10
242.2029881833
 20
73.0200251667
 11
242.1949466371
 21
73.0216752112
  0
LINE
  5
5ED
100
AcDbEntity
  8
RUNDUNGEN
100
AcDbLine
 62
7
  6
CONTINUOUS
 10
252.5179545607
 20
57.7337649703
 11
252.51816403
 21
57.7335862848
  0
LWPOLYLINE
  5
5EE
100
AcDbEntity
  8
RUNDUNGEN
100
AcDbPolyline
 62
7
  6
CONTINUOUS
 90
3
 70
0
 10
252.5179545607
 20
57.7337649703
 10
252.4393137206
 20
57.8035738973
 10
252.3087484579
 20
57.9308390628
  0
LINE
  5
5EF
100
AcDbEntity
  8
RUNDUNGEN
100
AcDbLine
 62
7
  6
CONTINUOUS
 10
252.308900987
 20
57.9306993621
 11
252.1763106043
 21
58.0736096614
  0
LWPOLYLINE
  5
5F0
100
AcDbEntity
  8
0
100
AcDbPolyline
 62
7
  6
CONTINUOUS
 90
3
 70
0
 10
250.6693006012
 20
167.9591183947
 10
250.9062540798
 20
168.4254059088
 10
251.1869820512
 20
168.7964113478
  0
LINE
  5
5F1
100
AcDbEntity
  8
RUNDUNGEN
100
AcDbLine
 62
7
  6
CONTINUOUS
 10
252.1046243516
 20
153.1045321949
 11
252.1040932968
 21
153.1039090917
  0
LWPOLYLINE
  5
5F2
100
AcDbEntity
  8
0
100
AcDbPolyline
 62
7
  6
CONTINUOUS
 90
5
 70
0
 10
252.1046234008
 20
153.1045329726
 10
252.1762469737
 20
153.1871073982
 10
252.3087480795
 20
153.3299426704
 10
252.4393133383
 20
153.4572078102
 10
252.5179540297
 20
153.527024316
  0
LINE
  5
5F3
100
AcDbEntity
  8
0
100
AcDbLine
 62
2
  6
CONTINUOUS
 10
253.4951410435
 20
147.0762118196
 11
239.565824542
 21
133.1468953181
  0
LWPOLYLINE
  5
5F4
100
AcDbEntity
  8
RUNDUNGEN
100
AcDbPolyline
 62
7
  6
CONTINUOUS
 90
5
 70
0
 10
231.34049147
 20
82.1124307441
 10
231.1439513184
 20
82.094705099
 10
230.955461094
 20
82.0428813479
 10
230.7822661436
 20
81.9587500323
 10
230.6309688931
 20
81.8460211623
  0
LINE
  5
5F5
100
AcDbEntity
  8
RUNDUNGEN
100
AcDbLine
 62
7
  6
CONTINUOUS
 10
231.34049147
 20
82.1124307441
 11
259.34049147
 21
82.1124307441
  0
LWPOLYLINE
  5
5F6
100
AcDbEntity
  8
RUNDUNGEN
100
AcDbPolyline
 62
7
  6
CONTINUOUS
 90
5
 70
0
 10
259.34049147
 20
82.1124307441
 10
259.5370316217
 20
82.0949044074
 10
259.7255218461
 20
82.0428813479
 10
259.8987167965
 20
81.958813032
 10
260.050014047
 20
81.8460211623
  0
LINE
  5
5F7
100
AcDbEntity
  8
RUNDUNGEN
100
AcDbLine
 62
7
  6
CONTINUOUS
 10
252.1763106043
 20
58.0736096614
 11
252.104623446
 21
58.1562491159
  0
LINE
  5
5F8
100
AcDbEntity
  8
RUNDUNGEN
100
AcDbLine
 62
7
  6
CONTINUOUS
 10
252.1046243534
 20
58.1562498567
 11
252.1040933301
 21
58.1568729233
  0
LWPOLYLINE
  5
5F9
100
AcDbEntity
  8
RUNDUNGEN
100
AcDbPolyline
 62
7
  6
CONTINUOUS
 90
10
 70
0
 10
252.1040933301
 20
58.1568729233
 10
251.8755323642
 20
58.4508387104
 10
251.5327069686
 20
58.9944088198
 10
251.2424495193
 20
59.5765078794
 10
250.9960274389
 20
60.1949722714
 10
250.7864438843
 20
60.859500435
 10
250.6164698917
 20
61.5592857566
 10
250.4859852493
 20
62.293535267
 10
250.396370894
 20
63.0562782061
 10
250.348577414
 20
63.8444814615
  0
LINE
  5
5FA
100
AcDbEntity
  8
RUNDUNGEN
100
AcDbLine
 62
7
  6
CONTINUOUS
 10
226.29049147
 20
69.1742007911
 11
226.29049147
 21
105.6303910242
  0
LINE
  5
5FB
100
AcDbEntity
  8
0
100
AcDbLine
 62
7
  6
CONTINUOUS
 10
226.29049147
 20
105.6303910242
 11
226.29049147
 21
142.0866346868
  0
LINE
  5
5FC
100
AcDbEntity
  8
0
100
AcDbLine
 62
2
  6
CONTINUOUS
 10
257.7783346197
 20
145.4584880533
 11
245.4667418845
 21
133.1468953181
  0
LWPOLYLINE
  5
5FD
100
AcDbEntity
  8
RUNDUNGEN
100
AcDbPolyline
 62
7
  6
CONTINUOUS
 90
4
 70
0
 10
232.6291824765
 20
82.5813176432
 10
232.456497252
 20
82.5475806182
 10
232.2817809537
 20
82.5156768233
 10
232.1050945039
 20
82.4856880163
  0
LINE
  5
5FE
100
AcDbEntity
  8
RUNDUNGEN
100
AcDbLine
 62
7
  6
CONTINUOUS
 10
231.1967876683
 20
82.3475746678
 11
231.1425259207
 21
82.3381629026
  0
LINE
  5
5FF
100
AcDbEntity
  8
RUNDUNGEN
100
AcDbLine
 62
7
  6
CONTINUOUS
 10
232.1050945039
 20
82.4856880163
 11
231.93645725
 21
82.4591961259
  0
LINE
  5
600
100
AcDbEntity
  8
RUNDUNGEN
100
AcDbLine
 62
7
  6
CONTINUOUS
 10
231.9364593929
 20
82.4591982274
 11
231.1912930187
 21
82.3467616517
  0
LINE
  5
601
100
AcDbEntity
  8
RUNDUNGEN
100
AcDbLine
 62
7
  6
CONTINUOUS
 10
231.34049147
 20
86.3921850674
 11
259.34049147
 21
86.3921850674
  0
LINE
  5
602
100
AcDbEntity
  8
RUNDUNGEN
100
AcDbLine
 62
7
  6
CONTINUOUS
 10
259.4844188358
 20
82.3475416302
 11
258.7445235286
 21
82.4591982302
  0
LWPOLYLINE
  5
603
100
AcDbEntity
  8
RUNDUNGEN
100
AcDbPolyline
 62
7
  6
CONTINUOUS
 90
3
 70
0
 10
258.7445241447
 20
82.4591975887
 10
258.5769359828
 20
82.4855162329
 10
258.3873324645
 20
82.5177720279
  0
LINE
  5
604
100
AcDbEntity
  8
RUNDUNGEN
100
AcDbLine
 62
7
  6
CONTINUOUS
 10
259.4841952717
 20
82.3475746678
 11
259.5384570193
 21
82.3381629026
  0
LINE
  5
605
100
AcDbEntity
  8
RUNDUNGEN
100
AcDbLine
 62
7
  6
CONTINUOUS
 10
258.3873324645
 20
82.5177720279
 11
258.1999823891
 21
82.5522337221
  0
LWPOLYLINE
  5
606
100
AcDbEntity
  8
RUNDUNGEN
100
AcDbPolyline
 62
7
  6
CONTINUOUS
 90
65
 70
0
 10
258.1999823891
 20
82.5522337221
 10
258.014951358
 20
82.5888018788
 10
257.8323073917
 20
82.6273771348
 10
257.6521086442
 20
82.6678629323
 10
257.47443806
 20
82.7101642984
 10
257.299378269
 20
82.754194476
 10
257.1269841411
 20
82.7998726027
 10
256.9573092454
 20
82.8471172485
 10
256.7904273679
 20
82.8958400933
 10
256.6264109154
 20
82.945956372
 10
256.4653161254
 20
82.9973941119
 10
256.3072097317
 20
83.050076207
 10
256.1521243221
 20
83.1039342586
 10
256.0001599324
 20
83.1588735766
 10
255.8511703804
 20
83.214892952
 10
255.7051066492
 20
83.2719722716
 10
255.5618125186
 20
83.3301399074
 10
255.4211495289
 20
83.3894261364
 10
255.2830227512
 20
83.4498511853
 10
255.1473341137
 20
83.5114489658
 10
255.0140026822
 20
83.5742657052
 10
254.8829520112
 20
83.6383553908
 10
254.7541136666
 20
83.7037772101
 10
254.6273904602
 20
83.7706164033
 10
254.5028372207
 20
83.8388954632
 10
254.3804932081
 20
83.908661781
 10
254.2604519823
 20
83.9799400146
 10
254.1428023723
 20
84.0527644796
 10
254.0276396764
 20
84.1271754489
 10
253.9151100022
 20
84.2031969606
 10
253.8054411983
 20
84.2808136398
 10
253.6988692795
 20
84.3600177577
 10
253.5956089583
 20
84.4408348425
 10
253.4960003405
 20
84.5231776575
 10
253.4003614865
 20
84.6069809514
 10
253.309234579
 20
84.6920306902
 10
253.2226121297
 20
84.7787049199
 10
253.1409925691
 20
84.8668509444
 10
253.0646586968
 20
84.9566362385
 10
252.9945367392
 20
85.0478826507
 10
252.9313214507
 20
85.140851248
 10
252.8763822139
 20
85.2340553711
 10
252.8312086904
 20
85.3264404062
 10
252.7977116172
 20
85.4176039068
 10
252.7787421838
 20
85.4983500643
 10
252.7726206325
 20
85.5614181692
 10
252.7763259469
 20
85.6127980658
 10
252.7863450166
 20
85.6582458363
 10
252.8022833028
 20
85.7020794208
 10
252.8248170923
 20
85.7463553163
 10
252.854104887
 20
85.792097611
 10
252.8911927623
 20
85.840741032
 10
252.9352220206
 20
85.8902737443
 10
252.9859223359
 20
85.9400100385
 10
253.0424759303
 20
85.989312347
 10
253.1042848784
 20
86.0378134923
 10
253.1706362357
 20
86.0850822925
 10
253.2408103743
 20
86.1307779634
 10
253.3149437043
 20
86.1751393553
 10
253.3933388142
 20
86.2184049137
 10
253.4754883412
 20
86.2603365894
 10
253.5611874748
 20
86.3008894722
 10
253.650036013
 20
86.3399162625
 10
253.74157133
 20
86.3772777112
 10
253.7808407973
 20
86.3921850674
  0
LWPOLYLINE
  5
607
100
AcDbEntity
  8
RUNDUNGEN
100
AcDbPolyline
 62
7
  6
CONTINUOUS
 90
3
 70
0
 10
259.5384570193
 20
82.3381629026
 10
259.7254330864
 20
82.2808953048
 10
259.897162534
 20
82.1886873636
  0
LWPOLYLINE
  5
608
100
AcDbEntity
  8
RUNDUNGEN
100
AcDbPolyline
 62
7
  6
CONTINUOUS
 90
66
 70
0
 10
236.9003491932
 20
86.3921850674
 10
236.9205463632
 20
86.3846471826
 10
237.018710912
 20
86.3450709649
 10
237.1135138706
 20
86.3037468636
 10
237.2043319951
 20
86.2609082697
 10
237.2904988318
 20
86.2168871173
 10
237.3720457989
 20
86.171676944
 10
237.4485622998
 20
86.1255185405
 10
237.5204334683
 20
86.0781740885
 10
237.5878582066
 20
86.0294069132
 10
237.6502027919
 20
85.9795455658
 10
237.7066454182
 20
85.9291774251
 10
237.7570848301
 20
85.8782247296
 10
237.8010767164
 20
85.826761772
 10
237.837587026
 20
85.7763041668
 10
237.8656568094
 20
85.7291043515
 10
237.8857628409
 20
85.6848698828
 10
237.8988150746
 20
85.6426285987
 10
237.9064439983
 20
85.5989207087
 10
237.9080286689
 20
85.5494654552
 10
237.9002354392
 20
85.4868230795
 10
237.8782860433
 20
85.4018275947
 10
237.8396893372
 20
85.3037972841
 10
237.7879349265
 20
85.2041050568
 10
237.7256108407
 20
85.1040613397
 10
237.6556765229
 20
85.0065884754
 10
237.5795713771
 20
84.912360661
 10
237.4980343971
 20
84.8206580103
 10
237.4123131246
 20
84.7318357463
 10
237.322862117
 20
84.6457062352
 10
237.230341801
 20
84.5622904902
 10
237.1350155285
 20
84.4812927698
 10
237.0373086269
 20
84.4026817775
 10
236.9374881587
 20
84.3263669088
 10
236.8356863534
 20
84.2521763666
 10
236.7319603506
 20
84.1799197189
 10
236.6263264036
 20
84.1094242569
 10
236.5187861365
 20
84.0405457282
 10
236.4092318091
 20
83.9731051219
 10
236.297376442
 20
83.9068518988
 10
236.1834680733
 20
83.8418736687
 10
236.0676248175
 20
83.778177225
 10
235.9499363418
 20
83.7157547897
 10
235.8305376731
 20
83.6546298646
 10
235.7093120398
 20
83.5947067066
 10
235.5861981878
 20
83.5359287092
 10
235.461122226
 20
83.4782411626
 10
235.3340061455
 20
83.4215949835
 10
235.2047732273
 20
83.3659548564
 10
235.0733420952
 20
83.3112971759
 10
234.9395919531
 20
83.2575888109
 10
234.8034057539
 20
83.204805298
 10
234.6646833006
 20
83.1529347621
 10
234.5232653275
 20
83.1019528853
 10
234.3791931613
 20
83.0519213249
 10
234.2324307396
 20
83.0028759692
 10
234.0830476754
 20
82.9548880476
 10
233.931084734
 20
82.9080166291
 10
233.7766031545
 20
82.862325597
 10
233.6196604111
 20
82.8178834736
 10
233.4603043899
 20
82.7747591941
 10
233.2985883722
 20
82.733022117
 10
233.1345617873
 20
82.6927394446
 10
232.9682716234
 20
82.6539768324
 10
232.7997878041
 20
82.6168087185
 10
232.6291824765
 20
82.5813176432
  0
LINE
  5
609
100
AcDbEntity
  8
RUNDUNGEN
100
AcDbLine
 62
7
  6
CONTINUOUS
 10
230.34049147
 20
174.1494448874
 11
230.34049147
 21
174.1412537741
  0
LINE
  5
60A
100
AcDbEntity
  8
RUNDUNGEN
100
AcDbLine
 62
7
  6
CONTINUOUS
 10
230.34049147
 20
28.9494608256
 11
230.34049147
 21
37.119528278
  0
LINE
  5
60B
100
AcDbEntity
  8
RUNDUNGEN
100
AcDbLine
 62
7
  6
CONTINUOUS
 10
230.34049147
 20
38.8919333306
 11
230.34049147
 21
53.2546480861
  0
LINE
  5
60C
100
AcDbEntity
  8
RUNDUNGEN
100
AcDbLine
 62
7
  6
CONTINUOUS
 10
230.34049147
 20
74.3262283176
 11
230.34049147
 21
81.3579543792
  0
LINE
  5
60D
100
AcDbEntity
  8
RUNDUNGEN
100
AcDbLine
 62
7
  6
CONTINUOUS
 10
230.34049147
 20
87.3921850674
 11
230.34049147
 21
90.9326771436
  0
LINE
  5
60E
100
AcDbEntity
  8
0
100
AcDbLine
 62
7
  6
CONTINUOUS
 10
230.34049147
 20
159.1739836525
 11
230.34049147
 21
159.5605014666
  0
LINE
  5
60F
100
AcDbEntity
  8
RUNDUNGEN
100
AcDbLine
 62
7
  6
CONTINUOUS
 10
230.34049147
 20
158.0061339612
 11
230.34049147
 21
162.9642846799
  0
LINE
  5
610
100
AcDbEntity
  8
RUNDUNGEN
100
AcDbLine
 62
7
  6
CONTINUOUS
 10
230.34049147
 20
162.9945877924
 11
230.34049147
 21
172.3688487166
  0
LINE
  5
611
100
AcDbEntity
  8
RUNDUNGEN
100
AcDbLine
 62
7
  6
CONTINUOUS
 10
230.34049147
 20
174.1751744885
 11
230.34049147
 21
182.3113212216
  0
LINE
  5
612
100
AcDbEntity
  8
RUNDUNGEN
100
AcDbLine
 62
7
  6
CONTINUOUS
 10
230.3594206762
 20
81.3853395
 11
230.34049147
 21
81.2103177115
  0
LINE
  5
613
100
AcDbEntity
  8
0
100
AcDbLine
 62
7
  6
CONTINUOUS
 10
250.4854965571
 20
167.3903492606
 11
250.6693006012
 21
167.9591183947
  0
LINE
  5
614
100
AcDbEntity
  8
0
100
AcDbLine
 62
2
  6
CONTINUOUS
 10
262.8991167351
 20
144.6783528262
 11
251.367659227
 21
133.1468953181
  0
LINE
  5
615
100
AcDbEntity
  8
0
100
AcDbLine
 62
2
  6
CONTINUOUS
 10
264.39049147
 20
140.2688102187
 11
257.2685765695
 21
133.1468953181
  0
LINE
  5
616
100
AcDbEntity
  8
RUNDUNGEN
100
AcDbLine
 62
7
  6
CONTINUOUS
 10
235.9013585562
 20
92.6330425244
 11
231.1912223777
 21
91.9220321463
  0
LINE
  5
617
100
AcDbEntity
  8
RUNDUNGEN
100
AcDbLine
 62
7
  6
CONTINUOUS
 10
259.489745609
 20
91.9220344034
 11
254.7796371937
 21
92.6330405906
  0
LWPOLYLINE
  5
618
100
AcDbEntity
  8
RUNDUNGEN
100
AcDbPolyline
 62
7
  6
CONTINUOUS
 90
5
 70
0
 10
254.7795957338
 20
92.6329786905
 10
254.7041854262
 20
92.6452367589
 10
254.417462659
 20
92.7075577833
 10
254.1184589906
 20
92.7980155269
 10
253.811045885
 20
92.9173062882
  0
LWPOLYLINE
  5
619
100
AcDbEntity
  8
RUNDUNGEN
100
AcDbPolyline
 62
7
  6
CONTINUOUS
 90
3
 70
0
 10
240.199008918
 20
73.3014680086
 10
240.2329771283
 20
73.2061761415
 10
240.2844401139
 20
73.009603251
  0
LWPOLYLINE
  5
61A
100
AcDbEntity
  8
0
100
AcDbPolyline
 62
7
  6
CONTINUOUS
 90
4
 70
0
 10
230.34049147
 20
162.9945877924
 10
230.3596297002
 20
162.7998834916
 10
230.4164361483
 20
162.6123290287
 10
230.5088448046
 20
162.4392826322
  0
LINE
  5
61B
100
AcDbEntity
  8
RUNDUNGEN
100
AcDbLine
 62
7
  6
CONTINUOUS
 10
244.0827652115
 20
37.4805651174
 11
244.0886922184
 21
37.4179657136
  0
LINE
  5
61C
100
AcDbEntity
  8
RUNDUNGEN
100
AcDbLine
 62
7
  6
CONTINUOUS
 10
240.34049147
 20
58.8389106522
 11
240.34049147
 21
72.4752195469
  0
LINE
  5
61D
100
AcDbEntity
  8
0
100
AcDbLine
 62
7
  6
CONTINUOUS
 10
240.34049147
 20
153.4418588863
 11
240.34049147
 21
167.5002454606
  0
LINE
  5
61E
100
AcDbEntity
  8
RUNDUNGEN
100
AcDbLine
 62
7
  6
CONTINUOUS
 10
240.34049147
 20
97.2026915706
 11
240.3405342307
 21
102.7665768547
  0
LWPOLYLINE
  5
61F
100
AcDbEntity
  8
RUNDUNGEN
100
AcDbPolyline
 62
7
  6
CONTINUOUS
 90
3
 70
0
 10
240.3405342307
 20
102.7665768547
 10
240.3408608069
 20
102.8113812162
 10
240.3411344931
 20
102.8347718182
  0
LWPOLYLINE
  5
620
100
AcDbEntity
  8
RUNDUNGEN
100
AcDbPolyline
 62
7
  6
CONTINUOUS
 90
3
 70
0
 10
230.4171884508
 20
81.7420266833
 10
230.3598619556
 20
81.5538189615
 10
230.34049147
 20
81.3579543792
  0
LWPOLYLINE
  5
621
100
AcDbEntity
  8
0
100
AcDbPolyline
 62
7
  6
CONTINUOUS
 90
6
 70
0
 10
250.8563708209
 20
150.6229994818
 10
250.9960274608
 20
151.0658098373
 10
251.2424495899
 20
151.6842743186
 10
251.5327070461
 20
152.266373372
 10
251.8755323973
 20
152.8099433813
 10
252.1040932968
 20
153.1039090917
  0
LINE
  5
622
100
AcDbEntity
  8
0
100
AcDbLine
 62
2
  6
CONTINUOUS
 10
264.39049147
 20
134.3678928762
 11
263.1694939119
 21
133.1468953181
  0
LWPOLYLINE
  5
623
100
AcDbEntity
  8
RUNDUNGEN
100
AcDbPolyline
 62
7
  6
CONTINUOUS
 90
3
 70
0
 10
253.811045885
 20
92.9173062882
 10
253.4992886248
 20
93.0652563491
 10
253.404029494
 20
93.1159217119
  0
LWPOLYLINE
  5
624
100
AcDbEntity
  8
RUNDUNGEN
100
AcDbPolyline
 62
7
  6
CONTINUOUS
 90
6
 70
0
 10
253.4040297581
 20
93.1159629617
 10
253.1842383548
 20
93.2428564487
 10
252.9585664411
 20
93.3880586704
 10
252.7312307049
 20
93.5502093524
 10
252.5035451895
 20
93.7293821658
 10
252.475645829
 20
93.7525341587
  0
LWPOLYLINE
  5
625
100
AcDbEntity
  8
RUNDUNGEN
100
AcDbPolyline
 62
7
  6
CONTINUOUS
 90
4
 70
0
 10
259.897162534
 20
82.1886873636
 10
260.0479297769
 20
82.0647294792
 10
260.1714120956
 20
81.9143453461
 10
260.2637944892
 20
81.7420266833
  0
LWPOLYLINE
  5
626
100
AcDbEntity
  8
RUNDUNGEN
100
AcDbPolyline
 62
7
  6
CONTINUOUS
 90
4
 70
0
 10
260.050014047
 20
81.8460211623
 10
260.1737284147
 20
81.7091236839
 10
260.2653358316
 20
81.55343259
 10
260.3215622638
 20
81.3848388715
  0
LWPOLYLINE
  5
627
100
AcDbEntity
  8
RUNDUNGEN
100
AcDbPolyline
 62
7
  6
CONTINUOUS
 90
3
 70
0
 10
240.2844401139
 20
73.009603251
 10
240.3235604316
 20
72.7718678576
 10
240.3404917308
 20
72.4785102352
  0
LINE
  5
628
100
AcDbEntity
  8
RUNDUNGEN
100
AcDbLine
 62
7
  6
CONTINUOUS
 10
244.0886922184
 20
37.4179657136
 11
244.0904914716
 21
37.3335683409
  0
LWPOLYLINE
  5
629
100
AcDbEntity
  8
RUNDUNGEN
100
AcDbPolyline
 62
7
  6
CONTINUOUS
 90
5
 70
0
 10
244.09049147
 20
56.6234053517
 10
244.0907777933
 20
56.5929636891
 10
244.0916387934
 20
56.5628562841
 10
244.0930772697
 20
56.5330967166
 10
244.095095689
 20
56.5036987058
  0
LINE
  5
62A
100
AcDbEntity
  8
RUNDUNGEN
100
AcDbLine
 62
7
  6
CONTINUOUS
 10
244.09049147
 20
31.0734663588
 11
244.09049147
 21
37.33367472
  0
LINE
  5
62B
100
AcDbEntity
  8
RUNDUNGEN
100
AcDbLine
 62
7
  6
CONTINUOUS
 10
244.09049147
 20
56.6234053517
 11
244.09049147
 21
67.6216575514
  0
LINE
  5
62C
100
AcDbEntity
  8
RUNDUNGEN
100
AcDbLine
 62
7
  6
CONTINUOUS
 10
244.09049147
 20
98.8330973473
 11
244.09049147
 21
105.6303910242
  0
LINE
  5
62D
100
AcDbEntity
  8
RUNDUNGEN
100
AcDbLine
 62
7
  6
CONTINUOUS
 10
240.3404914485
 20
64.3343986367
 11
240.3301358705
 21
63.7801999661
  0
LWPOLYLINE
  5
62E
100
AcDbEntity
  8
RUNDUNGEN
100
AcDbPolyline
 62
7
  6
CONTINUOUS
 90
3
 70
0
 10
240.3404913956
 20
99.3001553674
 10
240.3206855499
 20
98.671531216
 10
240.2317098395
 20
97.83751628
  0
LWPOLYLINE
  5
62F
100
AcDbEntity
  8
RUNDUNGEN
100
AcDbPolyline
 62
7
  6
CONTINUOUS
 90
10
 70
0
 10
240.3301358705
 20
63.7801999661
 10
240.273984847
 20
62.941973426
 10
240.1721822435
 20
62.1445320278
 10
240.0277287532
 20
61.3900419585
 10
239.8436087769
 20
60.6823440804
 10
239.6226801584
 20
60.0250600755
 10
239.3703608126
 20
59.4276216115
 10
239.0851806015
 20
58.8839670613
 10
238.7652786684
 20
58.3955179884
 10
238.5767873629
 20
58.1567479657
  0
LWPOLYLINE
  5
630
100
AcDbEntity
  8
RUNDUNGEN
100
AcDbPolyline
 62
7
  6
CONTINUOUS
 90
6
 70
0
 10
240.2317098395
 20
97.83751628
 10
240.0777433581
 20
97.0540251989
 10
239.8646754398
 20
96.3245433561
 10
239.5997068049
 20
95.6579805165
 10
239.2844221806
 20
95.0511266371
 10
238.9183082665
 20
94.5054605885
  0
LWPOLYLINE
  5
631
100
AcDbEntity
  8
0
100
AcDbPolyline
 62
7
  6
CONTINUOUS
 90
41
 70
0
 10
252.7667020539
 20
158.0871489363
 10
252.761479614
 20
158.0628822035
 10
252.7590354646
 20
158.0548842895
 10
252.7690747778
 20
158.075731716
 10
252.797817728
 20
158.1234839205
 10
252.8455791266
 20
158.1908639377
 10
252.9097326716
 20
158.2709896995
 10
252.988522134
 20
158.3596605989
 10
253.0788942915
 20
158.4529063406
 10
253.1797487996
 20
158.5499555633
 10
253.2898875097
 20
158.6496758269
 10
253.4082065451
 20
158.7511410035
 10
253.5338021614
 20
158.8538748675
 10
253.6659689352
 20
158.9574725077
 10
253.8041390782
 20
159.0615805556
 10
253.9476651971
 20
159.1659065485
 10
254.096014454
 20
159.2702351513
 10
254.2485455376
 20
159.3742348242
 10
254.4046483791
 20
159.4776260279
 10
254.5640951658
 20
159.5804040099
 10
254.7265263071
 20
159.6824515253
 10
254.8918337221
 20
159.7837889097
 10
255.0599185013
 20
159.8844425835
 10
255.2306819045
 20
159.9844284736
 10
255.4040367226
 20
160.0837527583
 10
255.5798982017
 20
160.1824106665
 10
255.7582154331
 20
160.2804149389
 10
255.9389417912
 20
160.3777733599
 10
256.1220321462
 20
160.4744855576
 10
256.3074493265
 20
160.5705474625
 10
256.4951692827
 20
160.6659579544
 10
256.6851771327
 20
160.7607155398
 10
256.8774629339
 20
160.8548149944
 10
257.0719958868
 20
160.9482351235
 10
257.2687695779
 20
161.0409615801
 10
257.4677212637
 20
161.1329493505
 10
257.6687909373
 20
161.2241515074
 10
257.871965452
 20
161.3145385054
 10
258.0772194289
 20
161.4040704978
 10
258.2845294316
 20
161.4927027921
 10
258.4938708991
 20
161.5803848675
  0
LINE
  5
632
100
AcDbEntity
  8
02___PRT_ALL_AXES
100
AcDbLine
 62
7
  6
CENTER
 10
223.29049147
 20
105.6303910236
 11
267.39049147
 21
105.6303910236
  0
LINE
  5
633
100
AcDbEntity
  8
0
100
AcDbLine
 62
2
  6
CONTINUOUS
 10
226.29049147
 20
105.6303910242
 11
264.39049147
 21
105.6303910242
  0
LWPOLYLINE
  5
634
100
AcDbEntity
  8
RUNDUNGEN
100
AcDbPolyline
 62
7
  6
CONTINUOUS
 90
3
 70
0
 10
252.4759823839
 20
93.7522934069
 10
252.3924533814
 20
93.8242481897
 10
252.2479119621
 20
93.9590464634
  0
LWPOLYLINE
  5
635
100
AcDbEntity
  8
RUNDUNGEN
100
AcDbPolyline
 62
7
  6
CONTINUOUS
 90
3
 70
0
 10
252.2479119621
 20
93.9590464634
 10
252.1012238926
 20
94.1086226138
 10
252.0060043944
 20
94.2119060611
  0
LINE
  5
636
100
AcDbEntity
  8
RUNDUNGEN
100
AcDbLine
 62
7
  6
CONTINUOUS
 10
252.0060187983
 20
94.2119190256
 11
252.0069892376
 21
94.2108391237
  0
LINE
  5
637
100
AcDbEntity
  8
RUNDUNGEN
100
AcDbLine
 62
7
  6
CONTINUOUS
 10
252.0069892376
 20
94.2108391237
 11
251.762428488
 21
94.5057781392
  0
LWPOLYLINE
  5
638
100
AcDbEntity
  8
RUNDUNGEN
100
AcDbPolyline
 62
7
  6
CONTINUOUS
 90
5
 70
0
 10
251.762428488
 20
94.5057781392
 10
251.3960216272
 20
95.052030799
 10
251.080513355
 20
95.6596524168
 10
250.8154986523
 20
96.3268983191
 10
250.6025797941
 20
97.0567362011
  0
LINE
  5
639
100
AcDbEntity
  8
RUNDUNGEN
100
AcDbLine
 62
7
  6
CONTINUOUS
 10
250.348577414
 20
63.8444814615
 11
250.3404914998
 21
64.3344166717
  0
LINE
  5
63A
100
AcDbEntity
  8
RUNDUNGEN
100
AcDbLine
 62
7
  6
CONTINUOUS
 10
250.339848447
 20
102.8347718182
 11
250.3403239781
 21
102.7886384279
  0
LINE
  5
63B
100
AcDbEntity
  8
RUNDUNGEN
100
AcDbLine
 62
7
  6
CONTINUOUS
 10
250.3403239781
 20
102.7886384279
 11
250.34049147
 21
102.7451651934
  0
LINE
  5
63C
100
AcDbEntity
  8
RUNDUNGEN
100
AcDbLine
 62
7
  6
CONTINUOUS
 10
246.59049147
 20
105.6303910242
 11
246.59049147
 21
98.8330973473
  0
LINE
  5
63D
100
AcDbEntity
  8
RUNDUNGEN
100
AcDbLine
 62
7
  6
CONTINUOUS
 10
246.59049147
 20
31.0734663588
 11
246.59049147
 21
37.33367472
  0
LINE
  5
63E
100
AcDbEntity
  8
RUNDUNGEN
100
AcDbLine
 62
7
  6
CONTINUOUS
 10
246.59049147
 20
56.6234053517
 11
246.59049147
 21
67.6216575514
  0
LINE
  5
63F
100
AcDbEntity
  8
RUNDUNGEN
100
AcDbLine
 62
7
  6
CONTINUOUS
 10
250.34049147
 20
102.745158941
 11
250.34049147
 21
97.2026946893
  0
LINE
  5
640
100
AcDbEntity
  8
RUNDUNGEN
100
AcDbLine
 62
7
  6
CONTINUOUS
 10
250.34049147
 20
72.4752265241
 11
250.34049147
 21
58.8389261499
  0
LINE
  5
641
100
AcDbEntity
  8
0
100
AcDbLine
 62
7
  6
CONTINUOUS
 10
250.34049147
 20
153.441858885
 11
250.34049147
 21
167.5002454606
  0
LINE
  5
642
100
AcDbEntity
  8
0
100
AcDbLine
 62
7
  6
CONTINUOUS
 10
250.84049147
 20
168.3043586685
 11
250.84049147
 21
165.5085353064
  0
LINE
  5
643
100
AcDbEntity
  8
RUNDUNGEN
100
AcDbLine
 62
7
  6
CONTINUOUS
 10
246.5904914721
 20
37.333591637
 11
246.5924014982
 21
37.4205198939
  0
LWPOLYLINE
  5
644
100
AcDbEntity
  8
0
100
AcDbPolyline
 62
7
  6
CONTINUOUS
 90
3
 70
0
 10
250.3404916351
 20
166.1203058116
 10
250.3701933287
 20
166.7142052941
 10
250.4854965571
 20
167.3903492606
  0
LWPOLYLINE
  5
645
100
AcDbEntity
  8
RUNDUNGEN
100
AcDbPolyline
 62
7
  6
CONTINUOUS
 90
5
 70
0
 10
246.585887251
 20
56.5036987058
 10
246.5879056714
 20
56.5330967343
 10
246.5893441476
 20
56.5628563078
 10
246.5902051471
 20
56.5929637069
 10
246.59049147
 20
56.6234053517
  0
LINE
  5
646
100
AcDbEntity
  8
RUNDUNGEN
100
AcDbLine
 62
7
  6
CONTINUOUS
 10
238.9183082665
 20
94.5054605885
 11
238.6740304917
 21
94.2108969644
  0
LINE
  5
647
100
AcDbEntity
  8
RUNDUNGEN
100
AcDbLine
 62
7
  6
CONTINUOUS
 10
238.6740304917
 20
94.2108969644
 11
238.6749492002
 21
94.2119192162
  0
LWPOLYLINE
  5
648
100
AcDbEntity
  8
RUNDUNGEN
100
AcDbPolyline
 62
7
  6
CONTINUOUS
 90
4
 70
0
 10
230.6309688931
 20
81.8460211623
 10
230.5072545253
 20
81.709085467
 10
230.4156471085
 20
81.55343259
 10
230.3594206762
 20
81.3853395
  0
LWPOLYLINE
  5
649
100
AcDbEntity
  8
RUNDUNGEN
100
AcDbPolyline
 62
7
  6
CONTINUOUS
 90
4
 70
0
 10
238.6749750824
 20
94.2118959593
 10
238.5810900639
 20
94.1100467458
 10
238.4348639665
 20
93.96082201
 10
238.2903978249
 20
93.8259082963
  0
LINE
  5
64A
100
AcDbEntity
  8
RUNDUNGEN
100
AcDbLine
 62
7
  6
CONTINUOUS
 10
238.2903978249
 20
93.8259082963
 11
238.2050268421
 21
93.7523522999
  0
LWPOLYLINE
  5
64B
100
AcDbEntity
  8
RUNDUNGEN
100
AcDbPolyline
 62
7
  6
CONTINUOUS
 90
6
 70
0
 10
238.2052964223
 20
93.7525774151
 10
238.1781019591
 20
93.7299350614
 10
237.95082372
 20
93.5510140059
 10
237.7236237954
 20
93.388876865
 10
237.4978080036
 20
93.2435046433
 10
237.2768547421
 20
93.1159088125
  0
LINE
  5
64C
100
AcDbEntity
  8
0
100
AcDbLine
 62
7
  6
CONTINUOUS
 10
264.39049147
 20
106.5963168499
 11
226.29049147
 21
106.5963168499
  0
LWPOLYLINE
  5
64D
100
AcDbEntity
  8
RUNDUNGEN
100
AcDbPolyline
 62
7
  6
CONTINUOUS
 90
4
 70
0
 10
250.6025797941
 20
97.0567362011
 10
250.4488856012
 20
97.8400768665
 10
250.3601950668
 20
98.6731517723
 10
250.3404915498
 20
99.3001622466
  0
LWPOLYLINE
  5
64E
100
AcDbEntity
  8
0
100
AcDbPolyline
 62
7
  6
CONTINUOUS
 90
3
 70
0
 10
240.1954825284
 20
167.3903649547
 10
240.3107913658
 20
166.7141881003
 10
240.3404913555
 20
166.1200947515
  0
LWPOLYLINE
  5
64F
100
AcDbEntity
  8
RUNDUNGEN
100
AcDbPolyline
 62
7
  6
CONTINUOUS
 90
3
 70
0
 10
250.3404900478
 20
72.4785184579
 10
250.3574207328
 20
72.7718493159
 10
250.3965304351
 20
73.0095477508
  0
LINE
  5
650
100
AcDbEntity
  8
RUNDUNGEN
100
AcDbLine
 62
7
  6
CONTINUOUS
 10
246.5924014982
 20
37.4205198939
 11
246.5980857507
 21
37.4806074621
  0
LINE
  5
651
100
AcDbEntity
  8
0
100
AcDbLine
 62
7
  6
CONTINUOUS
 10
260.3212582778
 20
162.799405694
 11
260.34049147
 21
162.9945877924
  0
LWPOLYLINE
  5
652
100
AcDbEntity
  8
RUNDUNGEN
100
AcDbPolyline
 62
7
  6
CONTINUOUS
 90
6
 70
0
 10
239.8207776231
 20
60.6256232331
 10
239.6849449038
 20
60.1949422109
 10
239.4385169571
 20
59.5764719221
 10
239.1482608071
 20
58.9943818468
 10
238.8054392759
 20
58.4508244505
 10
238.5768934791
 20
58.1568695045
  0
LWPOLYLINE
  5
653
100
AcDbEntity
  8
RUNDUNGEN
100
AcDbPolyline
 62
7
  6
CONTINUOUS
 90
4
 70
0
 10
230.7838204061
 20
82.1886873636
 10
230.6330531631
 20
82.0647294792
 10
230.5095708445
 20
81.9143453461
 10
230.4171884508
 20
81.7420266833
  0
LWPOLYLINE
  5
654
100
AcDbEntity
  8
RUNDUNGEN
100
AcDbPolyline
 62
7
  6
CONTINUOUS
 90
3
 70
0
 10
237.27685796
 20
93.1158831756
 10
237.1815943663
 20
93.0652212142
 10
236.8698700001
 20
92.9173076743
  0
LWPOLYLINE
  5
655
100
AcDbEntity
  8
RUNDUNGEN
100
AcDbPolyline
 62
7
  6
CONTINUOUS
 90
5
 70
0
 10
236.8698700001
 20
92.9173076743
 10
236.562482925
 20
92.7980418712
 10
236.2634987062
 20
92.7075986269
 10
235.9767861073
 20
92.6452826859
 10
235.9013895466
 20
92.6330263151
  0
LINE
  5
656
100
AcDbEntity
  8
0
100
AcDbLine
 62
7
  6
CONTINUOUS
 10
264.39049147
 20
112.0120297238
 11
226.29049147
 21
112.0120297238
  0
LINE
  5
657
100
AcDbEntity
  8
0
100
AcDbLine
 62
7
  6
CONTINUOUS
 10
264.39049147
 20
112.8605578612
 11
226.29049147
 21
112.8605578612
  0
LWPOLYLINE
  5
658
100
AcDbEntity
  8
RUNDUNGEN
100
AcDbPolyline
 62
7
  6
CONTINUOUS
 90
3
 70
0
 10
260.2637944892
 20
81.7420266833
 10
260.3211209845
 20
81.5538189615
 10
260.34049147
 20
81.3579543792
  0
LINE
  5
659
100
AcDbEntity
  8
RUNDUNGEN
100
AcDbLine
 62
7
  6
CONTINUOUS
 10
260.3215622638
 20
81.3848388715
 11
260.34049147
 21
81.2103177115
  0
LINE
  5
65A
100
AcDbEntity
  8
0
100
AcDbLine
 62
7
  6
CONTINUOUS
 10
260.34049147
 20
182.3113212216
 11
260.34049147
 21
174.1751744885
  0
LINE
  5
65B
100
AcDbEntity
  8
RUNDUNGEN
100
AcDbLine
 62
7
  6
CONTINUOUS
 10
260.34049147
 20
182.3113212216
 11
260.34049147
 21
174.1751744885
  0
LINE
  5
65C
100
AcDbEntity
  8
RUNDUNGEN
100
AcDbLine
 62
7
  6
CONTINUOUS
 10
260.34049147
 20
174.1468360739
 11
260.34049147
 21
174.1412657009
  0
LINE
  5
65D
100
AcDbEntity
  8
RUNDUNGEN
100
AcDbLine
 62
7
  6
CONTINUOUS
 10
260.34049147
 20
172.3688487166
 11
260.34049147
 21
162.9945877924
  0
LINE
  5
65E
100
AcDbEntity
  8
0
100
AcDbLine
 62
7
  6
CONTINUOUS
 10
260.34049147
 20
162.9642846799
 11
260.34049147
 21
159.5605014666
  0
LINE
  5
65F
100
AcDbEntity
  8
RUNDUNGEN
100
AcDbLine
 62
7
  6
CONTINUOUS
 10
260.34049147
 20
162.9642846799
 11
260.34049147
 21
158.0061323479
  0
LINE
  5
660
100
AcDbEntity
  8
RUNDUNGEN
100
AcDbLine
 62
7
  6
CONTINUOUS
 10
260.34049147
 20
90.9326810757
 11
260.34049147
 21
87.3921850674
  0
LINE
  5
661
100
AcDbEntity
  8
RUNDUNGEN
100
AcDbLine
 62
7
  6
CONTINUOUS
 10
260.34049147
 20
81.3579543792
 11
260.34049147
 21
74.3262283176
  0
LINE
  5
662
100
AcDbEntity
  8
RUNDUNGEN
100
AcDbLine
 62
7
  6
CONTINUOUS
 10
260.34049147
 20
53.2546496993
 11
260.34049147
 21
38.8919333306
  0
LINE
  5
663
100
AcDbEntity
  8
RUNDUNGEN
100
AcDbLine
 62
7
  6
CONTINUOUS
 10
260.34049147
 20
37.1195282789
 11
260.34049147
 21
28.9494608256
  0
LINE
  5
664
100
AcDbEntity
  8
0
100
AcDbLine
 62
7
  6
CONTINUOUS
 10
260.34049147
 20
158.8272652756
 11
260.34049147
 21
159.1739836525
  0
LINE
  5
665
100
AcDbEntity
  8
0
100
AcDbLine
 62
7
  6
CONTINUOUS
 10
260.34049147
 20
162.9945877924
 11
260.34049147
 21
163.2954536508
  0
LWPOLYLINE
  5
666
100
AcDbEntity
  8
RUNDUNGEN
100
AcDbPolyline
 62
7
  6
CONTINUOUS
 90
3
 70
0
 10
250.3965304351
 20
73.0095477508
 10
250.4479816468
 20
73.2060973684
 10
250.482312851
 20
73.3024190111
  0
LINE
  5
667
100
AcDbEntity
  8
0
100
AcDbLine
 62
7
  6
CONTINUOUS
 10
240.0116175473
 20
167.9592756992
 11
240.1954825284
 21
167.3903649547
  0
LWPOLYLINE
  5
668
100
AcDbEntity
  8
0
100
AcDbPolyline
 62
7
  6
CONTINUOUS
 90
7
 70
0
 10
260.34049147
 20
172.3688487166
 10
260.3213346376
 20
172.5636469803
 10
260.2645042975
 20
172.7512101877
 10
260.1720962506
 20
172.9242166006
 10
260.0476981332
 20
173.0758556017
 10
259.896006662
 20
173.2003550999
 10
259.7969145309
 20
173.2533076209
  0
LINE
  5
669
100
AcDbEntity
  8
RUNDUNGEN
100
AcDbLine
 62
7
  6
CONTINUOUS
 10
264.39049147
 20
105.6303910242
 11
264.39049147
 21
69.1742007911
  0
LINE
  5
66A
100
AcDbEntity
  8
0
100
AcDbLine
 62
7
  6
CONTINUOUS
 10
264.39049147
 20
105.6303910242
 11
264.39049147
 21
142.0866346868
  0
LWPOLYLINE
  5
66B
100
AcDbEntity
  8
RUNDUNGEN
100
AcDbPolyline
 62
7
  6
CONTINUOUS
 90
9
 70
0
 10
260.34049147
 20
74.3262283176
 10
260.3217679234
 20
74.1336328366
 10
260.2654658182
 20
73.9461987724
 10
260.1729393066
 20
73.7721249112
 10
260.0480174272
 20
73.619540961
 10
259.8949543282
 20
73.4940199292
 10
259.7215262033
 20
73.4016675938
 10
259.5355075635
 20
73.3454285424
 10
259.34049147
 20
73.3262283176
  0
LWPOLYLINE
  5
66C
100
AcDbEntity
  8
RUNDUNGEN
100
AcDbPolyline
 62
7
  6
CONTINUOUS
 90
6
 70
0
 10
260.34049147
 20
38.8919333306
 10
260.3213346376
 20
38.6971350669
 10
260.2645042975
 20
38.5095718595
 10
260.1720962506
 20
38.3365654466
 10
260.0476981332
 20
38.1849264455
 10
259.896006662
 20
38.0604269473
  0
LWPOLYLINE
  5
66D
100
AcDbEntity
  8
RUNDUNGEN
100
AcDbPolyline
 62
7
  6
CONTINUOUS
 90
3
 70
0
 10
231.1425259207
 20
82.3381629026
 10
230.9555498537
 20
82.2808953048
 10
230.7838204061
 20
82.1886873636
  0
LINE
  5
66E
100
AcDbEntity
  8
0
100
AcDbLine
 62
7
  6
CONTINUOUS
 10
264.39049147
 20
126.4723633991
 11
226.29049147
 21
126.4723633991
  0
LINE
  5
66F
100
AcDbEntity
  8
RUNDUNGEN
100
AcDbLine
 62
7
  6
CONTINUOUS
 10
238.5767873629
 20
58.1567479657
 11
238.5763568582
 21
58.1562422364
  0
LWPOLYLINE
  5
670
100
AcDbEntity
  8
RUNDUNGEN
100
AcDbPolyline
 62
7
  6
CONTINUOUS
 90
5
 70
0
 10
238.5763423138
 20
58.1562546431
 10
238.504711647
 20
58.0736709845
 10
238.3722077284
 20
57.9308134958
 10
238.2416406117
 20
57.8035495493
 10
238.1630250336
 20
57.7337611853
  0
LINE
  5
671
100
AcDbEntity
  8
0
100
AcDbLine
 62
7
  6
CONTINUOUS
 10
264.39049147
 20
131.888076273
 11
226.29049147
 21
131.888076273
  0
LINE
  5
672
100
AcDbEntity
  8
0
100
AcDbLine
 62
7
  6
CONTINUOUS
 10
264.39049147
 20
133.1468953181
 11
226.29049147
 21
133.1468953181
  0
LINE
  5
673
100
AcDbEntity
  8
RUNDUNGEN
100
AcDbLine
 62
7
  6
CONTINUOUS
 10
238.5767874074
 20
153.1040340471
 11
238.5763568889
 21
153.1045397923
  0
LWPOLYLINE
  5
674
100
AcDbEntity
  8
0
100
AcDbPolyline
 62
7
  6
CONTINUOUS
 90
3
 70
0
 10
230.5088448046
 20
162.4392826322
 10
230.6332562876
 20
162.2876094357
 10
230.7849987843
 20
162.1630663748
  0
LWPOLYLINE
  5
675
100
AcDbEntity
  8
0
100
AcDbPolyline
 62
7
  6
CONTINUOUS
 90
6
 70
0
 10
238.5767874074
 20
153.1040340471
 10
238.7652786388
 20
152.8652640851
 10
239.0851805834
 20
152.3768150218
 10
239.3703608035
 20
151.8331604513
 10
239.6226801782
 20
151.2357219171
 10
239.8266113262
 20
150.6290070178
  0
LINE
  5
676
100
AcDbEntity
  8
RUNDUNGEN
100
AcDbLine
 62
7
  6
CONTINUOUS
 10
238.1630250336
 20
57.7337611853
 11
238.1628181726
 21
57.733584723
  0
LWPOLYLINE
  5
677
100
AcDbEntity
  8
RUNDUNGEN
100
AcDbPolyline
 62
7
  6
CONTINUOUS
 90
3
 70
0
 10
238.1628296698
 20
57.7335712853
 10
238.0190316453
 20
57.6127707255
 10
237.745000583
 20
57.392849604
  0
LWPOLYLINE
  5
678
100
AcDbEntity
  8
RUNDUNGEN
100
AcDbPolyline
 62
7
  6
CONTINUOUS
 90
3
 70
0
 10
237.7448110323
 20
57.3927062502
 10
237.4661294856
 20
57.1819444018
 10
237.1836073017
 20
56.9805691671
  0
LINE
  5
679
100
AcDbEntity
  8
RUNDUNGEN
100
AcDbLine
 62
7
  6
CONTINUOUS
 10
238.1630250072
 20
153.5270209921
 11
238.1628182159
 21
153.5271973953
  0
LWPOLYLINE
  5
67A
100
AcDbEntity
  8
0
100
AcDbPolyline
 62
7
  6
CONTINUOUS
 90
5
 70
0
 10
238.1630250072
 20
153.5270209921
 10
238.2416413143
 20
153.4572318632
 10
238.3722082945
 20
153.329968042
 10
238.504711905
 20
153.1871109712
 10
238.5763424238
 20
153.1045274531
  0
LWPOLYLINE
  5
67B
100
AcDbEntity
  8
0
100
AcDbPolyline
 62
7
  6
CONTINUOUS
 90
3
 70
0
 10
239.4938668781
 20
168.7965529083
 10
239.7745848813
 20
168.4256415347
 10
240.0116175473
 20
167.9592756992
  0
LINE
  5
67C
100
AcDbEntity
  8
RUNDUNGEN
100
AcDbLine
 62
7
  6
CONTINUOUS
 10
237.1833678689
 20
56.9804078398
 11
236.9289984802
 21
56.8090164262
  0
LINE
  5
67D
100
AcDbEntity
  8
RUNDUNGEN
100
AcDbLine
 62
7
  6
CONTINUOUS
 10
236.9289944285
 20
56.8089684417
 11
236.7570905866
 21
56.6981797458
  0
LWPOLYLINE
  5
67E
100
AcDbEntity
  8
RUNDUNGEN
100
AcDbPolyline
 62
7
  6
CONTINUOUS
 90
6
 70
0
 10
236.7572541036
 20
56.6983106173
 10
236.281838061
 20
56.4120753824
 10
235.810793435
 20
56.1562741842
 10
235.3491969382
 20
55.9314535186
 10
234.9015183691
 20
55.7376072139
 10
234.8097922407
 20
55.7008415722
  0
LWPOLYLINE
  5
67F
100
AcDbEntity
  8
0
100
AcDbPolyline
 62
7
  6
CONTINUOUS
 90
6
 70
0
 10
236.928999682
 20
154.4517648267
 10
237.1836092335
 20
154.2802115446
 10
237.4661313243
 20
154.0788362952
 10
237.7450020361
 20
153.8679313103
 10
238.0190324852
 20
153.6480106279
 10
238.1628296614
 20
153.5272107722
  0
LINE
  5
680
100
AcDbEntity
  8
RUNDUNGEN
100
AcDbLine
 62
7
  6
CONTINUOUS
 10
234.8098647213
 20
55.7008421862
 11
230.9728846505
 21
54.1845152495
  0
LINE
  5
681
100
AcDbEntity
  8
0
100
AcDbLine
 62
7
  6
CONTINUOUS
 10
228.9952507668
 20
145.0720798598
 11
233.1277776296
 21
145.4807514162
  0
LINE
  5
682
100
AcDbEntity
  8
0
100
AcDbLine
 62
7
  6
CONTINUOUS
 10
257.5532053106
 20
145.4807514161
 11
261.6857321732
 21
145.0720798598
  0
LINE
  5
683
100
AcDbEntity
  8
RUNDUNGEN
100
AcDbLine
 62
7
  6
CONTINUOUS
 10
230.9728585676
 20
157.0762772458
 11
230.9728025751
 21
157.0762992331
  0
LINE
  5
684
100
AcDbEntity
  8
0
100
AcDbLine
 62
7
  6
CONTINUOUS
 10
230.9728846505
 20
157.0762667978
 11
234.8098422837
 21
155.5598843167
  0
LINE
  5
685
100
AcDbEntity
  8
RUNDUNGEN
100
AcDbLine
 62
7
  6
CONTINUOUS
 10
234.8097242273
 20
155.559995769
 11
234.8098644502
 21
155.5599403237
  0
LWPOLYLINE
  5
686
100
AcDbEntity
  8
0
100
AcDbPolyline
 62
7
  6
CONTINUOUS
 90
7
 70
0
 10
234.8097242273
 20
155.559995769
 10
234.9011210327
 20
155.5233703502
 10
235.3486041375
 20
155.3296452137
 10
235.8101962939
 20
155.1048436505
 10
236.2813972185
 20
154.8489831657
 10
236.7570925811
 20
154.5626010363
 10
236.9289956281
 20
154.4518127959
  0
LINE
  5
687
100
AcDbEntity
  8
0
100
AcDbLine
 62
7
  6
CONTINUOUS
 10
230.7849987843
 20
162.1630663748
 11
230.9737646302
 21
162.0642591279
  0
LINE
  5
688
100
AcDbEntity
  8
0
100
AcDbLine
 62
7
  6
CONTINUOUS
 10
239.2704835443
 20
169.004802162
 11
239.4938668781
 21
168.7965529083
  0
LINE
  5
689
100
AcDbEntity
  8
RUNDUNGEN
100
AcDbLine
 62
7
  6
CONTINUOUS
 10
230.9737369299
 20
162.0642700499
 11
230.9737646302
 21
162.0642591279
  0
LINE
  5
68A
100
AcDbEntity
  8
0
100
AcDbLine
 62
7
  6
CONTINUOUS
 10
230.9730910837
 20
162.0645249149
 11
231.8497610143
 21
161.7178546236
  0
LWPOLYLINE
  5
68B
100
AcDbEntity
  8
0
100
AcDbPolyline
 62
7
  6
CONTINUOUS
 90
3
 70
0
 10
231.8497610143
 20
161.7178546236
 10
232.0135179292
 20
161.6517132321
 10
232.1761569462
 20
161.5849221976
  0
LWPOLYLINE
  5
68C
100
AcDbEntity
  8
0
100
AcDbPolyline
 62
7
  6
CONTINUOUS
 90
49
 70
0
 10
232.1761569462
 20
161.5849221976
 10
232.3376588398
 20
161.517511788
 10
232.4980046594
 20
161.4495100378
 10
232.6571776692
 20
161.3809420241
 10
232.8151612204
 20
161.311831228
 10
232.9719384399
 20
161.2421997048
 10
233.1274932578
 20
161.1720675445
 10
233.2818084379
 20
161.1014536641
 10
233.4348739523
 20
161.0303721553
 10
233.586652885
 20
160.9588482409
 10
233.7371072164
 20
160.886906794
 10
233.8862275458
 20
160.8145578369
 10
234.0339931675
 20
160.741815205
 10
234.1803973761
 20
160.6686841701
 10
234.3254291596
 20
160.5951704763
 10
234.4690724131
 20
160.5212809015
 10
234.6113114063
 20
160.447019932
 10
234.7521286313
 20
160.3723908162
 10
234.8915035318
 20
160.297397043
 10
235.0294105854
 20
160.222042869
 10
235.1658239367
 20
160.1463298483
 10
235.300716443
 20
160.0702577175
 10
235.4340515242
 20
159.9938309064
 10
235.5657902669
 20
159.9170519845
 10
235.6958915389
 20
159.8399203273
 10
235.8243144526
 20
159.7624317718
 10
235.9509975967
 20
159.6845953506
 10
236.0758858171
 20
159.6064109304
 10
236.198899237
 20
159.5278860322
 10
236.3200291925
 20
159.448976064
 10
236.439240849
 20
159.36965515
 10
236.5563822139
 20
159.2899659958
 10
236.6713292521
 20
159.2099180826
 10
236.783915716
 20
159.1295385142
 10
236.8939073551
 20
159.0489210554
 10
237.0011373046
 20
158.968102872
 10
237.1053733298
 20
158.8871355696
 10
237.2064321564
 20
158.8060023668
 10
237.3039463532
 20
158.7248832131
 10
237.3977170505
 20
158.64381334
 10
237.487449915
 20
158.5627967807
 10
237.5723811556
 20
158.4821676768
 10
237.6520559379
 20
158.402133294
 10
237.7242798844
 20
158.324811208
 10
237.7870918152
 20
158.2522255003
 10
237.8391086085
 20
158.18607726
 10
237.8800148807
 20
158.127954986
 10
237.9075523725
 20
158.0833572603
 10
237.9170000385
 20
158.0658910803
  0
LINE
  5
68D
100
AcDbEntity
  8
0
100
AcDbLine
 62
7
  6
CONTINUOUS
 10
239.1231106915
 20
169.1112550404
 11
239.2065667746
 21
169.0536293405
  0
LINE
  5
68E
100
AcDbEntity
  8
0
100
AcDbLine
 62
7
  6
CONTINUOUS
 10
239.2065667746
 20
169.0536293405
 11
239.2717928259
 21
169.0037513294
  0
LINE
  5
68F
100
AcDbEntity
  8
RUNDUNGEN
100
AcDbLine
 62
7
  6
CONTINUOUS
 10
239.2717957169
 20
169.0037550096
 11
239.2704835443
 21
169.004802162
  0
LWPOLYLINE
  5
690
100
AcDbEntity
  8
RUNDUNGEN
100
AcDbPolyline
 62
7
  6
CONTINUOUS
 90
9
 70
0
 10
231.34049147
 20
160.2764224228
 10
231.1439513184
 20
160.2622791421
 10
230.955461094
 20
160.2212277095
 10
230.7822661436
 20
160.1544366556
 10
230.6309688931
 20
160.0649985816
 10
230.5072545253
 20
159.9563112009
 10
230.4156471085
 20
159.8327989759
 10
230.3594206762
 20
159.6995907675
 10
230.34049147
 20
159.5605014666
  0
LINE
  5
691
100
AcDbEntity
  8
RUNDUNGEN
100
AcDbLine
 62
7
  6
CONTINUOUS
 10
231.34049147
 20
160.2764224228
 11
234.9298895684
 21
160.2764224228
  0
LINE
  5
692
100
AcDbEntity
  8
RUNDUNGEN
100
AcDbLine
 62
7
  6
CONTINUOUS
 10
255.7509511128
 20
160.2764224228
 11
259.34049147
 21
160.2764224228
  0
LWPOLYLINE
  5
693
100
AcDbEntity
  8
RUNDUNGEN
100
AcDbPolyline
 62
7
  6
CONTINUOUS
 90
9
 70
0
 10
259.34049147
 20
160.2764224228
 10
259.5370316217
 20
160.2625895722
 10
259.7255218461
 20
160.2212277095
 10
259.8987167965
 20
160.1545347799
 10
260.050014047
 20
160.0649985816
 10
260.1737284147
 20
159.9563707251
 10
260.2653358316
 20
159.8327989759
 10
260.3215622638
 20
159.6988110202
 10
260.34049147
 20
159.5605014666
  0
LINE
  5
694
100
AcDbEntity
  8
0
100
AcDbLine
 62
7
  6
CONTINUOUS
 10
238.4696336948
 20
169.66246247
 11
239.2172337636
 21
169.2978335532
  0
LWPOLYLINE
  5
695
100
AcDbEntity
  8
0
100
AcDbPolyline
 62
7
  6
CONTINUOUS
 90
4
 70
0
 10
230.9014757694
 20
173.2428367998
 10
235.262529612
 20
171.1099689505
 10
235.9089668431
 20
170.7884289849
 10
236.547087874
 20
170.4674482174
  0
LINE
  5
696
100
AcDbEntity
  8
0
100
AcDbLine
 62
7
  6
CONTINUOUS
 10
236.547087874
 20
170.4674482174
 11
237.3785683454
 21
170.0426607847
  0
LINE
  5
697
100
AcDbEntity
  8
RUNDUNGEN
100
AcDbLine
 62
7
  6
CONTINUOUS
 10
237.3789430153
 20
170.0424433931
 11
237.3785584806
 21
170.0426417954
  0
LINE
  5
698
100
AcDbEntity
  8
0
100
AcDbLine
 62
7
  6
CONTINUOUS
 10
237.3789430153
 20
170.0424433931
 11
237.7999676068
 21
169.8239685067
  0
LINE
  5
699
100
AcDbEntity
  8
0
100
AcDbLine
 62
7
  6
CONTINUOUS
 10
237.7999676068
 20
169.8239685067
 11
238.2048198948
 21
169.6112897742
  0
LINE
  5
69A
100
AcDbEntity
  8
0
100
AcDbLine
 62
7
  6
CONTINUOUS
 10
238.2048198948
 20
169.6112897742
 11
238.5957971136
 21
169.4030443114
  0
LINE
  5
69B
100
AcDbEntity
  8
0
100
AcDbLine
 62
7
  6
CONTINUOUS
 10
238.5957971136
 20
169.4030443114
 11
239.0108663527
 21
169.1783305018
  0
LINE
  5
69C
100
AcDbEntity
  8
RUNDUNGEN
100
AcDbLine
 62
7
  6
CONTINUOUS
 10
239.0110769086
 20
169.1782160469
 11
239.0108667997
 21
169.1783309323
  0
LWPOLYLINE
  5
69D
100
AcDbEntity
  8
0
100
AcDbPolyline
 62
7
  6
CONTINUOUS
 90
3
 70
0
 10
239.0110769086
 20
169.1782160469
 10
239.0404555101
 20
169.1617749553
 10
239.1231106915
 20
169.1112550404
  0
LWPOLYLINE
  5
69E
100
AcDbEntity
  8
RUNDUNGEN
100
AcDbPolyline
 62
7
  6
CONTINUOUS
 90
6
 70
0
 10
246.1460835596
 20
30.2420113513
 10
246.2976096061
 20
30.3663709327
 10
246.421957944
 20
30.5178914292
 10
246.5143655758
 20
30.6907698255
 10
246.5712753765
 20
30.8783692127
 10
246.59049147
 20
31.0734663588
  0
LINE
  5
69F
100
AcDbEntity
  8
0
100
AcDbLine
 62
7
  6
CONTINUOUS
 10
250.34049147
 20
165.5085353064
 11
250.84049147
 21
165.5085353064
  0
LINE
  5
6A0
100
AcDbEntity
  8
0
100
AcDbLine
 62
7
  6
CONTINUOUS
 10
250.34049147
 20
165.5785031601
 11
250.84049147
 21
165.5785031601
  0
LINE
  5
6A1
100
AcDbEntity
  8
0
100
AcDbLine
 62
7
  6
CONTINUOUS
 10
250.34049147
 20
165.7406564204
 11
250.84049147
 21
165.7406564204
  0
LINE
  5
6A2
100
AcDbEntity
  8
0
100
AcDbLine
 62
7
  6
CONTINUOUS
 10
250.34049147
 20
165.7980013289
 11
250.84049147
 21
165.7980013289
  0
LINE
  5
6A3
100
AcDbEntity
  8
0
100
AcDbLine
 62
7
  6
CONTINUOUS
 10
250.34049147
 20
165.9913114968
 11
250.84049147
 21
165.9913114968
  0
LINE
  5
6A4
100
AcDbEntity
  8
0
100
AcDbLine
 62
7
  6
CONTINUOUS
 10
250.34049147
 20
166.0412301868
 11
250.84049147
 21
166.0412301868
  0
LINE
  5
6A5
100
AcDbEntity
  8
0
100
AcDbLine
 62
7
  6
CONTINUOUS
 10
250.34049147
 20
166.0580370516
 11
250.84049147
 21
166.0580370516
  0
LINE
  5
6A6
100
AcDbEntity
  8
0
100
AcDbLine
 62
7
  6
CONTINUOUS
 10
250.34049147
 20
166.1137135377
 11
250.84049147
 21
166.1137135377
  0
LINE
  5
6A7
100
AcDbEntity
  8
0
100
AcDbLine
 62
7
  6
CONTINUOUS
 10
250.34049147
 20
166.2082591356
 11
250.84049147
 21
166.2082591356
  0
LINE
  5
6A8
100
AcDbEntity
  8
0
100
AcDbLine
 62
7
  6
CONTINUOUS
 10
250.34049147
 20
166.3805424471
 11
250.84049147
 21
166.3805424471
  0
LINE
  5
6A9
100
AcDbEntity
  8
0
100
AcDbLine
 62
7
  6
CONTINUOUS
 10
250.34049147
 20
166.5242960329
 11
250.84049147
 21
166.5242960329
  0
LINE
  5
6AA
100
AcDbEntity
  8
0
100
AcDbLine
 62
7
  6
CONTINUOUS
 10
250.34049147
 20
166.5381697979
 11
250.84049147
 21
166.5381697979
  0
LINE
  5
6AB
100
AcDbEntity
  8
0
100
AcDbLine
 62
7
  6
CONTINUOUS
 10
250.34049147
 20
166.6230557665
 11
250.84049147
 21
166.6230557665
  0
LINE
  5
6AC
100
AcDbEntity
  8
0
100
AcDbLine
 62
7
  6
CONTINUOUS
 10
250.370378285
 20
166.7152898873
 11
250.84049147
 21
166.7152898873
  0
LINE
  5
6AD
100
AcDbEntity
  8
0
100
AcDbLine
 62
7
  6
CONTINUOUS
 10
250.39946982
 20
166.8858841209
 11
250.84049147
 21
166.8858841209
  0
LINE
  5
6AE
100
AcDbEntity
  8
0
100
AcDbLine
 62
7
  6
CONTINUOUS
 10
250.4383052935
 20
167.1136173029
 11
250.84049147
 21
167.1136173029
  0
LINE
  5
6AF
100
AcDbEntity
  8
0
100
AcDbLine
 62
7
  6
CONTINUOUS
 10
250.4668404386
 20
167.2809488379
 11
250.84049147
 21
167.2809488379
  0
LINE
  5
6B0
100
AcDbEntity
  8
0
100
AcDbLine
 62
7
  6
CONTINUOUS
 10
250.4804836929
 20
167.3609535711
 11
250.84049147
 21
167.3609535711
  0
LINE
  5
6B1
100
AcDbEntity
  8
0
100
AcDbLine
 62
7
  6
CONTINUOUS
 10
250.4965709147
 20
167.4246181083
 11
250.84049147
 21
167.4246181083
  0
LINE
  5
6B2
100
AcDbEntity
  8
0
100
AcDbLine
 62
7
  6
CONTINUOUS
 10
250.5172622041
 20
167.4886458982
 11
250.84049147
 21
167.4886458982
  0
LINE
  5
6B3
100
AcDbEntity
  8
0
100
AcDbLine
 62
7
  6
CONTINUOUS
 10
250.5228424112
 20
167.5059134703
 11
250.84049147
 21
167.5059134703
  0
LINE
  5
6B4
100
AcDbEntity
  8
0
100
AcDbLine
 62
7
  6
CONTINUOUS
 10
250.554132308
 20
167.6027379313
 11
250.84049147
 21
167.6027379313
  0
LINE
  5
6B5
100
AcDbEntity
  8
0
100
AcDbLine
 62
7
  6
CONTINUOUS
 10
250.6014838147
 20
167.7492639536
 11
250.84049147
 21
167.7492639536
  0
LINE
  5
6B6
100
AcDbEntity
  8
0
100
AcDbLine
 62
7
  6
CONTINUOUS
 10
250.6191716298
 20
167.8039976964
 11
250.84049147
 21
167.8039976964
  0
LWPOLYLINE
  5
6B7
100
AcDbEntity
  8
RUNDUNGEN
100
AcDbPolyline
 62
7
  6
CONTINUOUS
 90
4
 70
0
 10
259.896006662
 20
38.0604269473
 10
259.723042736
 20
37.9679990641
 10
259.5356026557
 20
37.9111522214
 10
259.34049147
 20
37.8919333306
  0
LINE
  5
6B8
100
AcDbEntity
  8
0
100
AcDbLine
 62
7
  6
CONTINUOUS
 10
238.9077359574
 20
171.5613212216
 11
251.7733718568
 21
171.5613212216
  0
LWPOLYLINE
  5
6B9
100
AcDbEntity
  8
RUNDUNGEN
100
AcDbPolyline
 62
7
  6
CONTINUOUS
 90
3
 70
0
 10
245.7856220216
 20
30.0926890835
 10
245.9732090511
 20
30.1496009719
 10
246.1460835596
 20
30.2420113513
  0
LWPOLYLINE
  5
6BA
100
AcDbEntity
  8
RUNDUNGEN
100
AcDbPolyline
 62
7
  6
CONTINUOUS
 90
9
 70
0
 10
231.34049147
 20
174.8113212216
 10
231.1439513184
 20
174.8080098127
 10
230.955461094
 20
174.799110399
 10
230.7822661436
 20
174.7842764217
 10
230.6309688931
 20
174.7645475569
 10
230.5072545253
 20
174.7404674709
 10
230.4156471085
 20
174.7131776336
 10
230.3594206762
 20
174.6841660736
 10
230.34049147
 20
174.6529367812
  0
LINE
  5
6BB
100
AcDbEntity
  8
RUNDUNGEN
100
AcDbLine
 62
7
  6
CONTINUOUS
 10
231.34049147
 20
174.8113212216
 11
259.34049147
 21
174.8113212216
  0
LWPOLYLINE
  5
6BC
100
AcDbEntity
  8
RUNDUNGEN
100
AcDbPolyline
 62
7
  6
CONTINUOUS
 90
9
 70
0
 10
259.34049147
 20
174.8113212216
 10
259.5370316217
 20
174.8084434222
 10
259.7255218461
 20
174.799110399
 10
259.8987167965
 20
174.7844134821
 10
260.050014047
 20
174.7645475569
 10
260.1737284147
 20
174.7405506144
 10
260.2653358316
 20
174.7131776336
 10
260.3215622638
 20
174.6830769208
 10
260.34049147
 20
174.6529367812
  0
LINE
  5
6BD
100
AcDbEntity
  8
RUNDUNGEN
100
AcDbLine
 62
7
  6
CONTINUOUS
 10
231.34049147
 20
183.3113212216
 11
259.34049147
 21
183.3113212216
  0
ARC
  5
6BE
100
AcDbEntity
  8
RUNDUNGEN
100
AcDbCircle
 62
7
  6
CONTINUOUS
 10
56.1499222085
 20
49.0072580074
 40
3.9999527772
100
AcDbArc
 50
357.4249264201
 51
11.3553547269
  0
ARC
  5
6BF
100
AcDbEntity
  8
RUNDUNGEN
100
AcDbCircle
 62
7
  6
CONTINUOUS
 10
57.2672470811
 20
53.5981440804
 40
2.0000000423
100
AcDbArc
 50
11.3623635435
 51
76.7675637713
  0
ARC
  5
6C0
100
AcDbEntity
  8
RUNDUNGEN
100
AcDbCircle
 62
7
  6
CONTINUOUS
 10
52.4879643119
 20
57.6975755178
 40
1.0
100
AcDbArc
 50
216.0
 51
257.8324053934
  0
ARC
  5
6C1
100
AcDbEntity
  8
RUNDUNGEN
100
AcDbCircle
 62
7
  6
CONTINUOUS
 10
48.9612527981
 20
62.5516774841
 40
1.0
100
AcDbArc
 50
174.1675946066
 51
216.0
  0
ARC
  5
6C2
100
AcDbEntity
  8
RUNDUNGEN
100
AcDbCircle
 62
7
  6
CONTINUOUS
 10
73.2821748632
 20
50.4708598011
 40
2.25
100
AcDbArc
 50
324.0007968666
 51
144.0017755928
  0
ARC
  5
6C3
100
AcDbEntity
  8
RUNDUNGEN
100
AcDbCircle
 62
7
  6
CONTINUOUS
 10
72.9284309349
 20
40.2212920004
 40
1.0
100
AcDbArc
 50
162.0
 51
234.0
  0
ARC
  5
6C4
100
AcDbEntity
  8
RUNDUNGEN
100
AcDbCircle
 62
7
  6
CONTINUOUS
 10
63.6435695026
 20
46.9671386976
 40
1.0
100
AcDbArc
 50
234.0
 51
306.0
  0
ARC
  5
6C5
100
AcDbEntity
  8
RUNDUNGEN
100
AcDbCircle
 62
7
  6
CONTINUOUS
 10
61.1448109448
 20
48.782593057
 40
1.0
100
AcDbArc
 50
177.4234289457
 51
233.9998194585
  0
ARC
  5
6C6
100
AcDbEntity
  8
RUNDUNGEN
100
AcDbCircle
 62
7
  6
CONTINUOUS
 10
61.8138642637
 20
48.2964973673
 40
1.0
100
AcDbArc
 50
144.0
 51
234.0
  0
ARC
  5
6C7
100
AcDbEntity
  8
RUNDUNGEN
100
AcDbCircle
 62
7
  6
CONTINUOUS
 10
41.8278704898
 20
68.7198601108
 40
3.9999543613
100
AcDbArc
 50
60.6414873248
 51
74.5750100656
  0
ARC
  5
6C8
100
AcDbEntity
  8
RUNDUNGEN
100
AcDbCircle
 62
7
  6
CONTINUOUS
 10
48.5140021693
 20
84.5613249001
 40
2.25
100
AcDbArc
 50
287.9977363539
 51
108.0024370477
  0
ARC
  5
6C9
100
AcDbEntity
  8
RUNDUNGEN
100
AcDbCircle
 62
7
  6
CONTINUOUS
 10
46.5393414127
 20
68.3638394831
 40
2.0000000431
100
AcDbArc
 50
355.0811980437
 51
60.6376364565
  0
ARC
  5
6CA
100
AcDbEntity
  8
RUNDUNGEN
100
AcDbCircle
 62
7
  6
CONTINUOUS
 10
42.203272524
 20
76.4771758285
 40
1.0
100
AcDbArc
 50
126.0
 51
198.0
  0
ARC
  5
6CB
100
AcDbEntity
  8
RUNDUNGEN
100
AcDbCircle
 62
7
  6
CONTINUOUS
 10
43.1577151355
 20
73.5397035158
 40
1.0
100
AcDbArc
 50
197.9998814762
 51
254.5759764827
  0
ARC
  5
6CC
100
AcDbEntity
  8
RUNDUNGEN
100
AcDbCircle
 62
7
  6
CONTINUOUS
 10
42.9021577358
 20
74.3262283176
 40
1.0
100
AcDbArc
 50
197.9993922456
 51
288.0009458389
  0
ARC
  5
6CD
100
AcDbEntity
  8
RUNDUNGEN
100
AcDbCircle
 62
7
  6
CONTINUOUS
 10
33.7934350702
 20
93.447331625
 40
3.9999527772
100
AcDbArc
 50
321.4249281874
 51
335.3553547269
  0
ARC
  5
6CE
100
AcDbEntity
  8
RUNDUNGEN
100
AcDbCircle
 62
7
  6
CONTINUOUS
 10
37.395825009
 20
96.504689395
 40
2.0000000422
100
AcDbArc
 50
335.3623635435
 51
40.76758833
  0
ARC
  5
6CF
100
AcDbEntity
  8
RUNDUNGEN
100
AcDbCircle
 62
7
  6
CONTINUOUS
 10
38.6567710377
 20
87.3921850674
 40
1.0
100
AcDbArc
 50
198.0
 51
270.0
  0
ARC
  5
6D0
100
AcDbEntity
  8
RUNDUNGEN
100
AcDbCircle
 62
7
  6
CONTINUOUS
 10
35.9388893695
 20
102.6303910236
 40
1.0
100
AcDbArc
 50
180.0
 51
221.8324053934
  0
ARC
  5
6D1
100
AcDbEntity
  8
RUNDUNGEN
100
AcDbCircle
 62
7
  6
CONTINUOUS
 10
37.7023301986
 20
90.3296519251
 40
1.0
100
AcDbArc
 50
141.4234197747
 51
197.9998749719
  0
ARC
  5
6D2
100
AcDbEntity
  8
RUNDUNGEN
100
AcDbCircle
 62
7
  6
CONTINUOUS
 10
37.9578858258
 20
89.5431325783
 40
1.0
100
AcDbArc
 50
108.0
 51
198.0
  0
ARC
  5
6D3
100
AcDbEntity
  8
RUNDUNGEN
100
AcDbCircle
 62
7
  6
CONTINUOUS
 10
69.1526122482
 20
90.6303910236
 40
5.0
100
AcDbArc
 50
90.0
 51
198.7433983716
  0
ARC
  5
6D4
100
AcDbEntity
  8
RUNDUNGEN
100
AcDbCircle
 62
7
  6
CONTINUOUS
 10
77.1843600858
 20
33.7248359747
 40
3.9999543613
100
AcDbArc
 50
96.6414873248
 51
110.5750100656
  0
ARC
  5
6D5
100
AcDbEntity
  8
RUNDUNGEN
100
AcDbCircle
 62
7
  6
CONTINUOUS
 10
81.2052838053
 20
36.2061423616
 40
2.0000000431
100
AcDbArc
 50
31.0811980393
 51
96.6376364565
  0
ARC
  5
6D6
100
AcDbEntity
  8
RUNDUNGEN
100
AcDbCircle
 62
7
  6
CONTINUOUS
 10
74.758046222
 20
38.8919986844
 40
1.0
100
AcDbArc
 50
234.0030846275
 51
324.0009458389
  0
ARC
  5
6D7
100
AcDbEntity
  8
RUNDUNGEN
100
AcDbCircle
 62
7
  6
CONTINUOUS
 10
75.4271941322
 20
38.4058342701
 40
1.0
100
AcDbArc
 50
233.9998814762
 51
290.5759764827
  0
ARC
  5
6D8
100
AcDbEntity
  8
RUNDUNGEN
100
AcDbCircle
 62
7
  6
CONTINUOUS
 10
92.2872934797
 20
31.0734663588
 40
1.0
100
AcDbArc
 50
252.0
 51
293.8324053934
  0
ARC
  5
6D9
100
AcDbEntity
  8
RUNDUNGEN
100
AcDbCircle
 62
7
  6
CONTINUOUS
 10
86.580954382
 20
32.927568325
 40
1.0
100
AcDbArc
 50
210.1675946066
 51
252.0
  0
ARC
  5
6DA
100
AcDbEntity
  8
RUNDUNGEN
100
AcDbCircle
 62
7
  6
CONTINUOUS
 10
100.3579201212
 20
26.1952963463
 40
3.9999528329
100
AcDbArc
 50
33.424928853
 51
47.3556449014
  0
ARC
  5
6DB
100
AcDbEntity
  8
RUNDUNGEN
100
AcDbCircle
 62
7
  6
CONTINUOUS
 10
98.5633998027
 20
30.5661485869
 40
2.0000000423
100
AcDbArc
 50
47.3623635435
 51
112.76756377
  0
ARC
  5
6DC
100
AcDbEntity
  8
RUNDUNGEN
100
AcDbCircle
 62
7
  6
CONTINUOUS
 10
104.53092468
 20
28.9494608256
 40
1.0
100
AcDbArc
 50
213.4234355428
 51
269.9998173114
  0
ARC
  5
6DD
100
AcDbEntity
  8
RUNDUNGEN
100
AcDbCircle
 62
7
  6
CONTINUOUS
 10
105.3579201212
 20
28.9494608256
 40
1.0
100
AcDbArc
 50
180.0
 51
270.0
  0
ARC
  5
6DE
100
AcDbEntity
  8
RUNDUNGEN
100
AcDbCircle
 62
7
  6
CONTINUOUS
 10
107.6195601752
 20
28.9494608256
 40
1.0
100
AcDbArc
 50
270.0
 51
342.0
  0
ARC
  5
6DF
100
AcDbEntity
  8
RUNDUNGEN
100
AcDbCircle
 62
7
  6
CONTINUOUS
 10
113.3579201212
 20
37.4494608256
 40
2.25
100
AcDbArc
 50
0.0008088936
 51
180.0017852813
  0
ARC
  5
6E0
100
AcDbEntity
  8
RUNDUNGEN
100
AcDbCircle
 62
7
  6
CONTINUOUS
 10
98.3579201212
 20
61.4250831506
 40
5.0
100
AcDbArc
 50
251.2566016284
 51
360.0
  0
ARC
  5
6E1
100
AcDbEntity
  8
RUNDUNGEN
100
AcDbCircle
 62
7
  6
CONTINUOUS
 10
113.3579201212
 20
105.6303910236
 40
51.680930198
100
AcDbArc
 50
108.7433983716
 51
161.2566016284
  0
ARC
  5
6E2
100
AcDbEntity
  8
RUNDUNGEN
100
AcDbCircle
 62
7
  6
CONTINUOUS
 10
113.3579201212
 20
105.6303910236
 40
51.680930198
100
AcDbArc
 50
198.7433983716
 51
251.2566016284
  0
ARC
  5
6E3
100
AcDbEntity
  8
RUNDUNGEN
100
AcDbCircle
 62
7
  6
CONTINUOUS
 10
113.3579201212
 20
105.6303910236
 40
51.680930198
100
AcDbArc
 50
288.7433983716
 51
341.2566016284
  0
ARC
  5
6E4
100
AcDbEntity
  8
RUNDUNGEN
100
AcDbCircle
 62
7
  6
CONTINUOUS
 10
113.3579201212
 20
105.6303910236
 40
51.680930198
100
AcDbArc
 50
18.7433983716
 51
71.2566016284
  0
ARC
  5
6E5
100
AcDbEntity
  8
RUNDUNGEN
100
AcDbCircle
 62
7
  6
CONTINUOUS
 10
77.3764032488
 20
87.6303910236
 40
7.9999997665
100
AcDbArc
 50
45.0
 51
89.7468597998
  0
ARC
  5
6E6
100
AcDbEntity
  8
RUNDUNGEN
100
AcDbCircle
 62
7
  6
CONTINUOUS
 10
95.3579201212
 20
69.6488741512
 40
7.9999997665
100
AcDbArc
 50
0.253140221
 51
45.0
  0
ARC
  5
6E7
100
AcDbEntity
  8
0
100
AcDbCircle
 62
7
  6
CONTINUOUS
 10
113.3579201212
 20
79.1138867291
 40
1.0
100
AcDbArc
 50
165.0
 51
15.0
  0
ARC
  5
6E8
100
AcDbEntity
  8
0
100
AcDbCircle
 62
7
  6
CONTINUOUS
 10
86.8414158267
 20
105.6303910236
 40
1.0
100
AcDbArc
 50
75.0
 51
285.0
  0
ARC
  5
6E9
100
AcDbEntity
  8
RUNDUNGEN
100
AcDbCircle
 62
7
  6
CONTINUOUS
 10
35.9388893695
 20
108.6303910236
 40
1.0
100
AcDbArc
 50
138.1675946066
 51
180.0
  0
ARC
  5
6EA
100
AcDbEntity
  8
RUNDUNGEN
100
AcDbCircle
 62
7
  6
CONTINUOUS
 10
33.7934301493
 20
117.8134520211
 40
3.9999540701
100
AcDbArc
 50
24.645786411
 51
38.5750042739
  0
ARC
  5
6EB
100
AcDbEntity
  8
RUNDUNGEN
100
AcDbCircle
 62
7
  6
CONTINUOUS
 10
37.3958250067
 20
114.7560926496
 40
2.0000000431
100
AcDbArc
 50
319.081207762
 51
24.6376364565
  0
ARC
  5
6EC
100
AcDbEntity
  8
RUNDUNGEN
100
AcDbCircle
 62
7
  6
CONTINUOUS
 10
38.6567710377
 20
123.8685969798
 40
1.0
100
AcDbArc
 50
90.0
 51
162.0
  0
ARC
  5
6ED
100
AcDbEntity
  8
RUNDUNGEN
100
AcDbCircle
 62
7
  6
CONTINUOUS
 10
37.957914412
 20
121.7177374481
 40
1.0
100
AcDbArc
 50
162.0
 51
252.0017607086
  0
ARC
  5
6EE
100
AcDbEntity
  8
RUNDUNGEN
100
AcDbCircle
 62
7
  6
CONTINUOUS
 10
37.7023298422
 20
120.9311290253
 40
1.0
100
AcDbArc
 50
161.9999957078
 51
218.5765549756
  0
ARC
  5
6EF
100
AcDbEntity
  8
RUNDUNGEN
100
AcDbCircle
 62
7
  6
CONTINUOUS
 10
42.203272524
 20
134.7836062187
 40
1.0
100
AcDbArc
 50
162.0
 51
234.0
  0
ARC
  5
6F0
100
AcDbEntity
  8
RUNDUNGEN
100
AcDbCircle
 62
7
  6
CONTINUOUS
 10
41.8278769239
 20
142.5409198459
 40
3.9999527772
100
AcDbArc
 50
285.4249264201
 51
299.3553547269
  0
ARC
  5
6F1
100
AcDbEntity
  8
RUNDUNGEN
100
AcDbCircle
 62
7
  6
CONTINUOUS
 10
43.1577133634
 20
137.7210730773
 40
1.0
100
AcDbArc
 50
105.4234289457
 51
161.9998194585
  0
ARC
  5
6F2
100
AcDbEntity
  8
RUNDUNGEN
100
AcDbCircle
 62
7
  6
CONTINUOUS
 10
42.9021577358
 20
136.9345537296
 40
1.0
100
AcDbArc
 50
72.0
 51
162.0
  0
ARC
  5
6F3
100
AcDbEntity
  8
RUNDUNGEN
100
AcDbCircle
 62
7
  6
CONTINUOUS
 10
48.5140021693
 20
126.6994571471
 40
2.25
100
AcDbArc
 50
252.0008035149
 51
72.0017809484
  0
ARC
  5
6F4
100
AcDbEntity
  8
RUNDUNGEN
100
AcDbCircle
 62
7
  6
CONTINUOUS
 10
46.539341413
 20
142.8969425608
 40
2.0000000423
100
AcDbArc
 50
299.3623635435
 51
4.7675637705
  0
ARC
  5
6F5
100
AcDbEntity
  8
RUNDUNGEN
100
AcDbCircle
 62
7
  6
CONTINUOUS
 10
69.1526122482
 20
120.6303910236
 40
5.0
100
AcDbArc
 50
161.2566016284
 51
270.0
  0
ARC
  5
6F6
100
AcDbEntity
  8
RUNDUNGEN
100
AcDbCircle
 62
7
  6
CONTINUOUS
 10
57.2672470778
 20
157.6626379661
 40
2.0000000431
100
AcDbArc
 50
283.08120776
 51
348.6376364565
  0
ARC
  5
6F7
100
AcDbEntity
  8
RUNDUNGEN
100
AcDbCircle
 62
7
  6
CONTINUOUS
 10
48.9612527981
 20
148.7091045631
 40
1.0
100
AcDbArc
 50
144.0
 51
185.8324053934
  0
ARC
  5
6F8
100
AcDbEntity
  8
RUNDUNGEN
100
AcDbCircle
 62
7
  6
CONTINUOUS
 10
52.4879643119
 20
153.5632065294
 40
1.0
100
AcDbArc
 50
102.1675946066
 51
144.0
  0
ARC
  5
6F9
100
AcDbEntity
  8
RUNDUNGEN
100
AcDbCircle
 62
7
  6
CONTINUOUS
 10
56.1499191673
 20
162.2535282257
 40
3.9999540701
100
AcDbArc
 50
348.645786411
 51
2.5750042739
  0
ARC
  5
6FA
100
AcDbEntity
  8
RUNDUNGEN
100
AcDbCircle
 62
7
  6
CONTINUOUS
 10
73.2821748632
 20
160.789922246
 40
2.25
100
AcDbArc
 50
216.000820921
 51
36.0017949707
  0
ARC
  5
6FB
100
AcDbEntity
  8
RUNDUNGEN
100
AcDbCircle
 62
7
  6
CONTINUOUS
 10
63.6435695026
 20
164.2936433496
 40
1.0
100
AcDbArc
 50
54.0
 51
126.0
  0
ARC
  5
6FC
100
AcDbEntity
  8
RUNDUNGEN
100
AcDbCircle
 62
7
  6
CONTINUOUS
 10
72.9284309349
 20
171.0394900468
 40
1.0
100
AcDbArc
 50
126.0
 51
198.0
  0
ARC
  5
6FD
100
AcDbEntity
  8
RUNDUNGEN
100
AcDbCircle
 62
7
  6
CONTINUOUS
 10
61.8139391034
 20
162.9643390541
 40
1.0
100
AcDbArc
 50
126.0
 51
216.0017607086
  0
ARC
  5
6FE
100
AcDbEntity
  8
RUNDUNGEN
100
AcDbCircle
 62
7
  6
CONTINUOUS
 10
61.1448100126
 20
162.4781883129
 40
1.0
100
AcDbArc
 50
125.9999957078
 51
182.5765549756
  0
ARC
  5
6FF
100
AcDbEntity
  8
RUNDUNGEN
100
AcDbCircle
 62
7
  6
CONTINUOUS
 10
77.3764032488
 20
123.6303910236
 40
7.9999997665
100
AcDbArc
 50
270.253140221
 51
315.0
  0
ARC
  5
700
100
AcDbEntity
  8
RUNDUNGEN
100
AcDbCircle
 62
7
  6
CONTINUOUS
 10
95.3579201212
 20
141.611907896
 40
7.9999997665
100
AcDbArc
 50
315.0
 51
359.7468597998
  0
ARC
  5
701
100
AcDbEntity
  8
0
100
AcDbCircle
 62
7
  6
CONTINUOUS
 10
113.3579201212
 20
132.1468953181
 40
1.0
100
AcDbArc
 50
345.0
 51
195.0
  0
ARC
  5
702
100
AcDbEntity
  8
RUNDUNGEN
100
AcDbCircle
 62
7
  6
CONTINUOUS
 10
81.2052837918
 20
175.0546396623
 40
2.0000000361
100
AcDbArc
 50
263.3623635436
 51
328.7699842218
  0
ARC
  5
703
100
AcDbEntity
  8
RUNDUNGEN
100
AcDbCircle
 62
7
  6
CONTINUOUS
 10
75.4272051783
 20
172.8549558025
 40
1.0
100
AcDbArc
 50
69.4256509375
 51
126.0003829197
  0
ARC
  5
704
100
AcDbEntity
  8
RUNDUNGEN
100
AcDbCircle
 62
7
  6
CONTINUOUS
 10
74.7581361737
 20
172.3688487166
 40
1.0
100
AcDbArc
 50
36.0
 51
126.0
  0
ARC
  5
705
100
AcDbEntity
  8
RUNDUNGEN
100
AcDbCircle
 62
7
  6
CONTINUOUS
 10
77.1842901725
 20
177.5360422999
 40
3.999993832
100
AcDbArc
 50
249.4260220943
 51
263.3620442279
  0
ARC
  5
706
100
AcDbEntity
  8
RUNDUNGEN
100
AcDbCircle
 62
7
  6
CONTINUOUS
 10
92.2872934797
 20
180.1873156884
 40
1.0
100
AcDbArc
 50
66.1675946066
 51
108.0
  0
ARC
  5
707
100
AcDbEntity
  8
RUNDUNGEN
100
AcDbCircle
 62
7
  6
CONTINUOUS
 10
86.580954382
 20
178.3332137221
 40
1.0
100
AcDbArc
 50
108.0
 51
149.8324053934
  0
ARC
  5
708
100
AcDbEntity
  8
RUNDUNGEN
100
AcDbCircle
 62
7
  6
CONTINUOUS
 10
98.3579201212
 20
149.8356988966
 40
5.0
100
AcDbArc
 50
0.0
 51
108.7433983716
  0
ARC
  5
709
100
AcDbEntity
  8
RUNDUNGEN
100
AcDbCircle
 62
7
  6
CONTINUOUS
 10
100.3579201212
 20
185.0655262436
 40
3.9999656073
100
AcDbArc
 50
312.6389199185
 51
326.5747240833
  0
ARC
  5
70A
100
AcDbEntity
  8
RUNDUNGEN
100
AcDbCircle
 62
7
  6
CONTINUOUS
 10
113.3579201212
 20
173.8113212216
 40
2.25
100
AcDbArc
 50
180.0008088936
 51
0.0017852813
  0
ARC
  5
70B
100
AcDbEntity
  8
RUNDUNGEN
100
AcDbCircle
 62
7
  6
CONTINUOUS
 10
98.5633998224
 20
180.6946334516
 40
2.0000000366
100
AcDbArc
 50
247.0808321905
 51
312.6376364564
  0
ARC
  5
70C
100
AcDbEntity
  8
RUNDUNGEN
100
AcDbCircle
 62
7
  6
CONTINUOUS
 10
107.6195601752
 20
182.3113212216
 40
1.0
100
AcDbArc
 50
18.0
 51
90.0
  0
ARC
  5
70D
100
AcDbEntity
  8
RUNDUNGEN
100
AcDbCircle
 62
7
  6
CONTINUOUS
 10
105.3579418802
 20
182.3113212216
 40
1.0
100
AcDbArc
 50
90.0
 51
179.9982784399
  0
ARC
  5
70E
100
AcDbEntity
  8
RUNDUNGEN
100
AcDbCircle
 62
7
  6
CONTINUOUS
 10
104.5309183098
 20
182.3113212216
 40
1.0
100
AcDbArc
 50
90.0000079531
 51
146.5758309349
  0
ARC
  5
70F
100
AcDbEntity
  8
RUNDUNGEN
100
AcDbCircle
 62
7
  6
CONTINUOUS
 10
126.3579201212
 20
26.1952896473
 40
3.9999544395
100
AcDbArc
 50
132.641460991
 51
146.5750090592
  0
ARC
  5
710
100
AcDbEntity
  8
RUNDUNGEN
100
AcDbCircle
 62
7
  6
CONTINUOUS
 10
119.0962800672
 20
28.9494608256
 40
1.0
100
AcDbArc
 50
198.0
 51
270.0
  0
ARC
  5
711
100
AcDbEntity
  8
RUNDUNGEN
100
AcDbCircle
 62
7
  6
CONTINUOUS
 10
121.3578085383
 20
28.9494608256
 40
1.0
100
AcDbArc
 50
270.0030961258
 51
360.0
  0
ARC
  5
712
100
AcDbEntity
  8
RUNDUNGEN
100
AcDbCircle
 62
7
  6
CONTINUOUS
 10
122.1849216002
 20
28.9494608256
 40
1.0
100
AcDbArc
 50
269.99987205
 51
326.5759353903
  0
ARC
  5
713
100
AcDbEntity
  8
RUNDUNGEN
100
AcDbCircle
 62
7
  6
CONTINUOUS
 10
128.1524404427
 20
30.5661485855
 40
2.0000000431
100
AcDbArc
 50
67.0811979136
 51
132.6376364565
  0
ARC
  5
714
100
AcDbEntity
  8
RUNDUNGEN
100
AcDbCircle
 62
7
  6
CONTINUOUS
 10
134.4285467626
 20
31.0734663588
 40
1.0
100
AcDbArc
 50
246.1675946066
 51
288.0
  0
ARC
  5
715
100
AcDbEntity
  8
RUNDUNGEN
100
AcDbCircle
 62
7
  6
CONTINUOUS
 10
128.3579201212
 20
61.4250831506
 40
5.0
100
AcDbArc
 50
180.0
 51
288.7433983716
  0
ARC
  5
716
100
AcDbEntity
  8
RUNDUNGEN
100
AcDbCircle
 62
7
  6
CONTINUOUS
 10
145.5105564387
 20
36.2061423644
 40
2.0000000423
100
AcDbArc
 50
83.3623635435
 51
148.7675637703
  0
ARC
  5
717
100
AcDbEntity
  8
RUNDUNGEN
100
AcDbCircle
 62
7
  6
CONTINUOUS
 10
140.1348858604
 20
32.927568325
 40
1.0
100
AcDbArc
 50
288.0
 51
329.8324053934
  0
ARC
  5
718
100
AcDbEntity
  8
RUNDUNGEN
100
AcDbCircle
 62
7
  6
CONTINUOUS
 10
149.5314763601
 20
33.7248412001
 40
3.9999528329
100
AcDbArc
 50
69.424928853
 51
83.3556449014
  0
ARC
  5
719
100
AcDbEntity
  8
RUNDUNGEN
100
AcDbCircle
 62
7
  6
CONTINUOUS
 10
153.7874093075
 20
40.2212920004
 40
1.0
100
AcDbArc
 50
306.0
 51
18.0
  0
ARC
  5
71A
100
AcDbEntity
  8
RUNDUNGEN
100
AcDbCircle
 62
7
  6
CONTINUOUS
 10
151.2886507024
 20
38.4058376066
 40
1.0
100
AcDbArc
 50
249.4234355428
 51
305.9998173114
  0
ARC
  5
71B
100
AcDbEntity
  8
RUNDUNGEN
100
AcDbCircle
 62
7
  6
CONTINUOUS
 10
151.9577040686
 20
38.8919333306
 40
1.0
100
AcDbArc
 50
216.0
 51
306.0
  0
ARC
  5
71C
100
AcDbEntity
  8
RUNDUNGEN
100
AcDbCircle
 62
7
  6
CONTINUOUS
 10
153.4336653791
 20
50.4708598011
 40
2.25
100
AcDbArc
 50
36.000820921
 51
216.0017949707
  0
ARC
  5
71D
100
AcDbEntity
  8
RUNDUNGEN
100
AcDbCircle
 62
7
  6
CONTINUOUS
 10
149.3394369936
 20
87.6303910236
 40
7.9999997665
100
AcDbArc
 50
90.253140221
 51
135.0
  0
ARC
  5
71E
100
AcDbEntity
  8
RUNDUNGEN
100
AcDbCircle
 62
7
  6
CONTINUOUS
 10
131.3579201212
 20
69.6488741512
 40
7.9999997665
100
AcDbArc
 50
135.0
 51
179.7468597998
  0
ARC
  5
71F
100
AcDbEntity
  8
0
100
AcDbCircle
 62
7
  6
CONTINUOUS
 10
139.8744244157
 20
105.6303910236
 40
1.0
100
AcDbArc
 50
255.0
 51
105.0
  0
ARC
  5
720
100
AcDbEntity
  8
RUNDUNGEN
100
AcDbCircle
 62
7
  6
CONTINUOUS
 10
163.0722707398
 20
46.9671386976
 40
1.0
100
AcDbArc
 50
234.0
 51
306.0
  0
ARC
  5
721
100
AcDbEntity
  8
RUNDUNGEN
100
AcDbCircle
 62
7
  6
CONTINUOUS
 10
165.5710342295
 20
48.7825966403
 40
1.0
100
AcDbArc
 50
305.99987205
 51
2.5759353903
  0
ARC
  5
722
100
AcDbEntity
  8
RUNDUNGEN
100
AcDbCircle
 62
7
  6
CONTINUOUS
 10
164.9019759786
 20
48.2964973673
 40
1.0
100
AcDbArc
 50
305.9994118944
 51
36.0009280751
  0
ARC
  5
723
100
AcDbEntity
  8
RUNDUNGEN
100
AcDbCircle
 62
7
  6
CONTINUOUS
 10
169.4485931645
 20
53.598144081
 40
2.0000000431
100
AcDbArc
 50
103.0811979166
 51
168.6376364565
  0
ARC
  5
724
100
AcDbEntity
  8
RUNDUNGEN
100
AcDbCircle
 62
7
  6
CONTINUOUS
 10
170.5659221514
 20
49.0072523401
 40
3.9999544395
100
AcDbArc
 50
168.641460991
 51
182.5750090592
  0
ARC
  5
725
100
AcDbEntity
  8
RUNDUNGEN
100
AcDbCircle
 62
7
  6
CONTINUOUS
 10
174.2278759305
 20
57.6975755178
 40
1.0
100
AcDbArc
 50
282.1675946066
 51
324.0
  0
ARC
  5
726
100
AcDbEntity
  8
RUNDUNGEN
100
AcDbCircle
 62
7
  6
CONTINUOUS
 10
177.7545874442
 20
62.5516774841
 40
1.0
100
AcDbArc
 50
324.0
 51
5.8324053934
  0
ARC
  5
727
100
AcDbEntity
  8
RUNDUNGEN
100
AcDbCircle
 62
7
  6
CONTINUOUS
 10
157.5632279942
 20
90.6303910236
 40
5.0
100
AcDbArc
 50
341.2566016284
 51
90.0
  0
ARC
  5
728
100
AcDbEntity
  8
RUNDUNGEN
100
AcDbCircle
 62
7
  6
CONTINUOUS
 10
180.1764988293
 20
68.3638394864
 40
2.0000000423
100
AcDbArc
 50
119.3623635435
 51
184.7675637697
  0
ARC
  5
729
100
AcDbEntity
  8
RUNDUNGEN
100
AcDbCircle
 62
7
  6
CONTINUOUS
 10
178.201838073
 20
84.5613249001
 40
2.25
100
AcDbArc
 50
71.9984791069
 51
252.0024165321
  0
ARC
  5
72A
100
AcDbEntity
  8
RUNDUNGEN
100
AcDbCircle
 62
7
  6
CONTINUOUS
 10
184.8879636097
 20
68.7198621067
 40
3.9999528329
100
AcDbArc
 50
105.424928853
 51
119.3556449014
  0
ARC
  5
72B
100
AcDbEntity
  8
RUNDUNGEN
100
AcDbCircle
 62
7
  6
CONTINUOUS
 10
183.5581268609
 20
73.5397089143
 40
1.0
100
AcDbArc
 50
285.4234355428
 51
341.9998173114
  0
ARC
  5
72C
100
AcDbEntity
  8
RUNDUNGEN
100
AcDbCircle
 62
7
  6
CONTINUOUS
 10
183.8136825065
 20
74.3262283176
 40
1.0
100
AcDbArc
 50
252.0
 51
342.0
  0
ARC
  5
72D
100
AcDbEntity
  8
RUNDUNGEN
100
AcDbCircle
 62
7
  6
CONTINUOUS
 10
184.5125677184
 20
76.4771758285
 40
1.0
100
AcDbArc
 50
342.0
 51
54.0
  0
ARC
  5
72E
100
AcDbEntity
  8
RUNDUNGEN
100
AcDbCircle
 62
7
  6
CONTINUOUS
 10
188.0590692047
 20
87.3921850674
 40
1.0
100
AcDbArc
 50
270.0
 51
342.0
  0
ARC
  5
72F
100
AcDbEntity
  8
RUNDUNGEN
100
AcDbCircle
 62
7
  6
CONTINUOUS
 10
188.7579544165
 20
89.5431325783
 40
1.0
100
AcDbArc
 50
342.0
 51
72.0
  0
ARC
  5
730
100
AcDbEntity
  8
RUNDUNGEN
100
AcDbCircle
 62
7
  6
CONTINUOUS
 10
189.0135119279
 20
90.3296577239
 40
1.0
100
AcDbArc
 50
341.99987205
 51
38.5759353903
  0
ARC
  5
731
100
AcDbEntity
  8
RUNDUNGEN
100
AcDbCircle
 62
7
  6
CONTINUOUS
 10
189.3200152356
 20
96.5046893976
 40
2.0000000431
100
AcDbArc
 50
139.0811979141
 51
204.6376364565
  0
ARC
  5
732
100
AcDbEntity
  8
RUNDUNGEN
100
AcDbCircle
 62
7
  6
CONTINUOUS
 10
192.9224118345
 20
93.4473294603
 40
3.9999544395
100
AcDbArc
 50
204.641460991
 51
218.5750090592
  0
ARC
  5
733
100
AcDbEntity
  8
RUNDUNGEN
100
AcDbCircle
 62
7
  6
CONTINUOUS
 10
190.7769508729
 20
102.6303910236
 40
1.0
100
AcDbArc
 50
318.1675946066
 51
360.0
  0
ARC
  5
734
100
AcDbEntity
  8
RUNDUNGEN
100
AcDbCircle
 62
7
  6
CONTINUOUS
 10
131.3579201212
 20
141.611907896
 40
7.9999997665
100
AcDbArc
 50
180.253140221
 51
225.0
  0
ARC
  5
735
100
AcDbEntity
  8
RUNDUNGEN
100
AcDbCircle
 62
7
  6
CONTINUOUS
 10
149.3394369936
 20
123.6303910236
 40
7.9999997665
100
AcDbArc
 50
225.0
 51
269.7468597998
  0
ARC
  5
736
100
AcDbEntity
  8
RUNDUNGEN
100
AcDbCircle
 62
7
  6
CONTINUOUS
 10
128.3579201212
 20
149.8356988966
 40
5.0
100
AcDbArc
 50
71.2566016284
 51
180.0
  0
ARC
  5
737
100
AcDbEntity
  8
RUNDUNGEN
100
AcDbCircle
 62
7
  6
CONTINUOUS
 10
119.0962800672
 20
182.3113212216
 40
1.0
100
AcDbArc
 50
89.999999978
 51
162.0000000918
  0
ARC
  5
738
100
AcDbEntity
  8
RUNDUNGEN
100
AcDbCircle
 62
7
  6
CONTINUOUS
 10
122.1849156174
 20
182.3113212216
 40
1.0
100
AcDbArc
 50
33.4234384896
 51
89.9998523379
  0
ARC
  5
739
100
AcDbEntity
  8
RUNDUNGEN
100
AcDbCircle
 62
7
  6
CONTINUOUS
 10
121.3579201212
 20
182.3113212216
 40
1.0
100
AcDbArc
 50
0.0
 51
90.0
  0
ARC
  5
73A
100
AcDbEntity
  8
RUNDUNGEN
100
AcDbCircle
 62
7
  6
CONTINUOUS
 10
126.3579201212
 20
185.065486
 40
3.9999528882
100
AcDbArc
 50
213.4249314171
 51
227.3559309773
  0
ARC
  5
73B
100
AcDbEntity
  8
RUNDUNGEN
100
AcDbCircle
 62
7
  6
CONTINUOUS
 10
128.1524404395
 20
180.6946334603
 40
2.0000000422
100
AcDbArc
 50
227.3623635435
 51
292.7675886498
  0
ARC
  5
73C
100
AcDbEntity
  8
RUNDUNGEN
100
AcDbCircle
 62
7
  6
CONTINUOUS
 10
134.4285467626
 20
180.1873156884
 40
1.0
100
AcDbArc
 50
72.0
 51
113.8324053934
  0
ARC
  5
73D
100
AcDbEntity
  8
RUNDUNGEN
100
AcDbCircle
 62
7
  6
CONTINUOUS
 10
153.4336653791
 20
160.789922246
 40
2.25
100
AcDbArc
 50
144.0007968666
 51
324.0017755928
  0
ARC
  5
73E
100
AcDbEntity
  8
RUNDUNGEN
100
AcDbCircle
 62
7
  6
CONTINUOUS
 10
149.5314802976
 20
177.5359462667
 40
3.9999544395
100
AcDbArc
 50
276.641460991
 51
290.5750090592
  0
ARC
  5
73F
100
AcDbEntity
  8
RUNDUNGEN
100
AcDbCircle
 62
7
  6
CONTINUOUS
 10
145.5105564371
 20
175.0546396856
 40
2.0000000431
100
AcDbArc
 50
211.0811979165
 51
276.6376364565
  0
ARC
  5
740
100
AcDbEntity
  8
RUNDUNGEN
100
AcDbCircle
 62
7
  6
CONTINUOUS
 10
153.7874093075
 20
171.0394900468
 40
1.0
100
AcDbArc
 50
342.0
 51
54.0
  0
ARC
  5
741
100
AcDbEntity
  8
RUNDUNGEN
100
AcDbCircle
 62
7
  6
CONTINUOUS
 10
140.1348858604
 20
178.3332137221
 40
1.0
100
AcDbArc
 50
30.1675946066
 51
72.0
  0
ARC
  5
742
100
AcDbEntity
  8
RUNDUNGEN
100
AcDbCircle
 62
7
  6
CONTINUOUS
 10
151.957794341
 20
172.3687831299
 40
1.0
100
AcDbArc
 50
54.0
 51
144.0009280751
  0
ARC
  5
743
100
AcDbEntity
  8
RUNDUNGEN
100
AcDbCircle
 62
7
  6
CONTINUOUS
 10
151.2886458177
 20
172.8549479896
 40
1.0
100
AcDbArc
 50
53.99987205
 51
110.5759353903
  0
ARC
  5
744
100
AcDbEntity
  8
RUNDUNGEN
100
AcDbCircle
 62
7
  6
CONTINUOUS
 10
157.5632279942
 20
120.6303910236
 40
5.0
100
AcDbArc
 50
270.0
 51
18.7433983716
  0
ARC
  5
745
100
AcDbEntity
  8
RUNDUNGEN
100
AcDbCircle
 62
7
  6
CONTINUOUS
 10
189.3200152334
 20
114.7560926521
 40
2.0000000423
100
AcDbArc
 50
155.3623635435
 51
220.7675637696
  0
ARC
  5
746
100
AcDbEntity
  8
RUNDUNGEN
100
AcDbCircle
 62
7
  6
CONTINUOUS
 10
188.0590692047
 20
123.8685969798
 40
1.0
100
AcDbArc
 50
18.0
 51
90.0
  0
ARC
  5
747
100
AcDbEntity
  8
RUNDUNGEN
100
AcDbCircle
 62
7
  6
CONTINUOUS
 10
189.0135100621
 20
120.9311300656
 40
1.0
100
AcDbArc
 50
321.4234355428
 51
17.9998173114
  0
ARC
  5
748
100
AcDbEntity
  8
RUNDUNGEN
100
AcDbCircle
 62
7
  6
CONTINUOUS
 10
188.7579544165
 20
121.7176494689
 40
1.0
100
AcDbArc
 50
288.0
 51
18.0
  0
ARC
  5
749
100
AcDbEntity
  8
RUNDUNGEN
100
AcDbCircle
 62
7
  6
CONTINUOUS
 10
190.7769508729
 20
108.6303910236
 40
1.0
100
AcDbArc
 50
0.0
 51
41.8324053934
  0
ARC
  5
74A
100
AcDbEntity
  8
RUNDUNGEN
100
AcDbCircle
 62
7
  6
CONTINUOUS
 10
192.9224054634
 20
117.8134505168
 40
3.9999528329
100
AcDbArc
 50
141.424928853
 51
155.3556449014
  0
ARC
  5
74B
100
AcDbEntity
  8
RUNDUNGEN
100
AcDbCircle
 62
7
  6
CONTINUOUS
 10
178.201838073
 20
126.6994571471
 40
2.25
100
AcDbArc
 50
108.0008142724
 51
288.0017896145
  0
ARC
  5
74C
100
AcDbEntity
  8
RUNDUNGEN
100
AcDbCircle
 62
7
  6
CONTINUOUS
 10
180.1764988297
 20
142.8969425641
 40
2.0000000431
100
AcDbArc
 50
175.0811979138
 51
240.6376364565
  0
ARC
  5
74D
100
AcDbEntity
  8
RUNDUNGEN
100
AcDbCircle
 62
7
  6
CONTINUOUS
 10
184.5125677184
 20
134.7836062187
 40
1.0
100
AcDbArc
 50
306.0
 51
18.0
  0
ARC
  5
74E
100
AcDbEntity
  8
RUNDUNGEN
100
AcDbCircle
 62
7
  6
CONTINUOUS
 10
184.8879699808
 20
142.5409220106
 40
3.9999544395
100
AcDbArc
 50
240.641460991
 51
254.5750090592
  0
ARC
  5
74F
100
AcDbEntity
  8
RUNDUNGEN
100
AcDbCircle
 62
7
  6
CONTINUOUS
 10
183.8136825065
 20
136.9345537296
 40
1.0
100
AcDbArc
 50
18.0
 51
108.0
  0
ARC
  5
750
100
AcDbEntity
  8
RUNDUNGEN
100
AcDbCircle
 62
7
  6
CONTINUOUS
 10
183.5581249951
 20
137.7210788752
 40
1.0
100
AcDbArc
 50
17.99987205
 51
74.5759353903
  0
ARC
  5
751
100
AcDbEntity
  8
RUNDUNGEN
100
AcDbCircle
 62
7
  6
CONTINUOUS
 10
163.0722707398
 20
164.2936433496
 40
1.0
100
AcDbArc
 50
54.0
 51
126.0
  0
ARC
  5
752
100
AcDbEntity
  8
RUNDUNGEN
100
AcDbCircle
 62
7
  6
CONTINUOUS
 10
165.5710293448
 20
162.4781889559
 40
1.0
100
AcDbArc
 50
357.4234355428
 51
53.9998173113
  0
ARC
  5
753
100
AcDbEntity
  8
RUNDUNGEN
100
AcDbCircle
 62
7
  6
CONTINUOUS
 10
164.9019759786
 20
162.9642846799
 40
1.0
100
AcDbArc
 50
324.0
 51
54.0
  0
ARC
  5
754
100
AcDbEntity
  8
RUNDUNGEN
100
AcDbCircle
 62
7
  6
CONTINUOUS
 10
169.4485931613
 20
157.6626379668
 40
2.0000000423
100
AcDbArc
 50
191.3623635435
 51
256.7675637705
  0
ARC
  5
755
100
AcDbEntity
  8
RUNDUNGEN
100
AcDbCircle
 62
7
  6
CONTINUOUS
 10
174.2278759305
 20
153.5632065294
 40
1.0
100
AcDbArc
 50
36.0
 51
77.8324053934
  0
ARC
  5
756
100
AcDbEntity
  8
RUNDUNGEN
100
AcDbCircle
 62
7
  6
CONTINUOUS
 10
177.7545874442
 20
148.7091045631
 40
1.0
100
AcDbArc
 50
354.1675946066
 51
36.0
  0
ARC
  5
757
100
AcDbEntity
  8
RUNDUNGEN
100
AcDbCircle
 62
7
  6
CONTINUOUS
 10
170.5659182138
 20
162.2535242875
 40
3.9999528329
100
AcDbArc
 50
177.424928853
 51
191.3556449014
  0
ARC
  5
758
100
AcDbEntity
  8
RUNDUNGEN
100
AcDbCircle
 62
7
  6
CONTINUOUS
 10
232.34049147
 20
57.8189157996
 40
7.999965379
100
AcDbArc
 50
20.5280566574
 51
84.3523003167
  0
ARC
  5
759
100
AcDbEntity
  8
RUNDUNGEN
100
AcDbCircle
 62
7
  6
CONTINUOUS
 10
229.29049147
 20
69.1741473593
 40
3.0
100
AcDbArc
 50
179.9999999951
 51
264.352191792
  0
ARC
  5
75A
100
AcDbEntity
  8
RUNDUNGEN
100
AcDbCircle
 62
7
  6
CONTINUOUS
 10
231.34049147
 20
90.9332537998
 40
1.0
100
AcDbArc
 50
98.5821155722
 51
180.0000002436
  0
ARC
  5
75B
100
AcDbEntity
  8
RUNDUNGEN
100
AcDbCircle
 62
7
  6
CONTINUOUS
 10
231.34049147
 20
53.2544989267
 40
1.0
100
AcDbArc
 50
111.5604668072
 51
180.0000013363
  0
ARC
  5
75C
100
AcDbEntity
  8
RUNDUNGEN
100
AcDbCircle
 62
7
  6
CONTINUOUS
 10
231.34049147
 20
46.9671386976
 40
1.0
100
AcDbArc
 50
180.0
 51
270.0
  0
ARC
  5
75D
100
AcDbEntity
  8
RUNDUNGEN
100
AcDbCircle
 62
7
  6
CONTINUOUS
 10
231.34049147
 20
37.1193205462
 40
1.0
100
AcDbArc
 50
116.0374416662
 51
180.0000000862
  0
ARC
  5
75E
100
AcDbEntity
  8
RUNDUNGEN
100
AcDbCircle
 62
7
  6
CONTINUOUS
 10
231.34049147
 20
87.3921850674
 40
1.0
100
AcDbArc
 50
180.0
 51
270.0
  0
ARC
  5
75F
100
AcDbEntity
  8
RUNDUNGEN
100
AcDbCircle
 62
7
  6
CONTINUOUS
 10
231.34049147
 20
28.9494608256
 40
1.0
100
AcDbArc
 50
180.0
 51
270.0
  0
ARC
  5
760
100
AcDbEntity
  8
RUNDUNGEN
100
AcDbCircle
 62
7
  6
CONTINUOUS
 10
239.84049147
 20
102.4681138472
 40
0.4999995435
100
AcDbArc
 50
0.1873182042
 51
64.6230629565
  0
ARC
  5
761
100
AcDbEntity
  8
0
100
AcDbCircle
 62
7
  6
CONTINUOUS
 10
232.34049147
 20
153.4418662831
 40
7.9999653924
100
AcDbArc
 50
275.6476996502
 51
359.999947024
  0
ARC
  5
762
100
AcDbEntity
  8
0
100
AcDbCircle
 62
7
  6
CONTINUOUS
 10
229.29049147
 20
142.0866346868
 40
3.0
100
AcDbArc
 50
95.6478082438
 51
179.9999999999
  0
ARC
  5
763
100
AcDbEntity
  8
02___PRT_ALL_AXES
100
AcDbCircle
 62
7
  6
CONTINUOUS
 10
241.34049147
 20
105.6303910236
 40
3.0
100
AcDbArc
 50
179.9999999887
 51
244.623063123
  0
ARC
  5
764
100
AcDbEntity
  8
0
100
AcDbCircle
 62
7
  6
CONTINUOUS
 10
238.34049147
 20
167.5002454606
 40
2.0
100
AcDbArc
 50
0.0
 51
64.0
  0
ARC
  5
765
100
AcDbEntity
  8
0
100
AcDbCircle
 62
7
  6
CONTINUOUS
 10
231.34049147
 20
158.0062831206
 40
1.0
100
AcDbArc
 50
179.9999991873
 51
248.439533719
  0
ARC
  5
766
100
AcDbEntity
  8
0
100
AcDbCircle
 62
7
  6
CONTINUOUS
 10
231.34049147
 20
174.1414614958
 40
1.0
100
AcDbArc
 50
179.9999999267
 51
243.9625584505
  0
ARC
  5
767
100
AcDbEntity
  8
RUNDUNGEN
100
AcDbCircle
 62
7
  6
CONTINUOUS
 10
231.34049147
 20
182.3113212216
 40
1.0
100
AcDbArc
 50
90.0
 51
180.0
  0
ARC
  5
768
100
AcDbEntity
  8
0
100
AcDbCircle
 62
7
  6
CONTINUOUS
 10
238.9077364579
 20
170.5613838626
 40
0.9999807389
100
AcDbArc
 50
90.000037207
 51
244.0169962742
  0
ARC
  5
769
100
AcDbEntity
  8
RUNDUNGEN
100
AcDbCircle
 62
7
  6
CONTINUOUS
 10
258.34049147
 20
57.8189158007
 40
7.9999653783
100
AcDbArc
 50
95.6476997003
 51
159.4323013984
  0
ARC
  5
76A
100
AcDbEntity
  8
RUNDUNGEN
100
AcDbCircle
 62
7
  6
CONTINUOUS
 10
261.39049147
 20
69.1741473593
 40
3.0
100
AcDbArc
 50
275.6478082149
 51
360.0
  0
ARC
  5
76B
100
AcDbEntity
  8
RUNDUNGEN
100
AcDbCircle
 62
7
  6
CONTINUOUS
 10
259.34049147
 20
90.9332550252
 40
1.0
100
AcDbArc
 50
0.0
 51
81.4171432708
  0
ARC
  5
76C
100
AcDbEntity
  8
RUNDUNGEN
100
AcDbCircle
 62
7
  6
CONTINUOUS
 10
259.34049147
 20
53.2545253588
 40
1.0
100
AcDbArc
 50
359.9999986022
 51
68.4395195459
  0
ARC
  5
76D
100
AcDbEntity
  8
RUNDUNGEN
100
AcDbCircle
 62
7
  6
CONTINUOUS
 10
259.34049147
 20
46.9671386976
 40
1.0
100
AcDbArc
 50
270.0
 51
360.0
  0
ARC
  5
76E
100
AcDbEntity
  8
RUNDUNGEN
100
AcDbCircle
 62
7
  6
CONTINUOUS
 10
259.34049147
 20
37.1193318235
 40
1.0
100
AcDbArc
 50
359.9999990221
 51
63.9627818162
  0
ARC
  5
76F
100
AcDbEntity
  8
RUNDUNGEN
100
AcDbCircle
 62
7
  6
CONTINUOUS
 10
259.34049147
 20
87.3921850674
 40
1.0
100
AcDbArc
 50
270.0
 51
360.0
  0
ARC
  5
770
100
AcDbEntity
  8
RUNDUNGEN
100
AcDbCircle
 62
7
  6
CONTINUOUS
 10
259.34049147
 20
28.9494608256
 40
1.0
100
AcDbArc
 50
270.0
 51
360.0
  0
ARC
  5
771
100
AcDbEntity
  8
RUNDUNGEN
100
AcDbCircle
 62
7
  6
CONTINUOUS
 10
250.84049147
 20
102.4681177492
 40
0.4999958202
100
AcDbArc
 50
115.3769644197
 51
179.9994679995
  0
ARC
  5
772
100
AcDbEntity
  8
0
100
AcDbCircle
 62
7
  6
CONTINUOUS
 10
258.34049147
 20
153.441866282
 40
7.9999653917
100
AcDbArc
 50
180.0000529773
 51
264.3523003498
  0
ARC
  5
773
100
AcDbEntity
  8
0
100
AcDbCircle
 62
7
  6
CONTINUOUS
 10
261.39049147
 20
142.0866346868
 40
3.0
100
AcDbArc
 50
0.0000000001
 51
84.352191756
  0
ARC
  5
774
100
AcDbEntity
  8
02___PRT_ALL_AXES
100
AcDbCircle
 62
7
  6
CONTINUOUS
 10
249.34049147
 20
105.6303910236
 40
3.0
100
AcDbArc
 50
295.3769642542
 51
359.998901059
  0
ARC
  5
775
100
AcDbEntity
  8
0
100
AcDbCircle
 62
7
  6
CONTINUOUS
 10
252.34049147
 20
167.5002454606
 40
2.0
100
AcDbArc
 50
116.0
 51
180.0
  0
ARC
  5
776
100
AcDbEntity
  8
0
100
AcDbCircle
 62
7
  6
CONTINUOUS
 10
259.34049147
 20
158.0062566884
 40
1.0
100
AcDbArc
 50
291.5604808765
 51
0.0000018189
  0
ARC
  5
777
100
AcDbEntity
  8
0
100
AcDbCircle
 62
7
  6
CONTINUOUS
 10
259.34049147
 20
174.1414502234
 40
1.0
100
AcDbArc
 50
296.0372185271
 51
0.000001783
  0
ARC
  5
778
100
AcDbEntity
  8
RUNDUNGEN
100
AcDbCircle
 62
7
  6
CONTINUOUS
 10
259.34049147
 20
182.3113212216
 40
1.0
100
AcDbArc
 50
0.0
 51
90.0
  0
ARC
  5
779
100
AcDbEntity
  8
0
100
AcDbCircle
 62
7
  6
CONTINUOUS
 10
251.7733718517
 20
170.5614417337
 40
0.9999629196
100
AcDbArc
 50
295.9669569442
 51
89.9999995026
  0
ENDSEC
  0
SECTION
  2
OBJECTS
  0
DICTIONARY
  5
C
100
AcDbDictionary
280
0
281
1
  3
ACAD_GROUP
350
D
  3
ACAD_MLINESTYLE
350
17
  3
ACAD_LAYOUT
350
1A
  3
ACAD_PLOTSETTINGS
350
19
  3
ACAD_PLOTSTYLENAME
350
E
  0
DICTIONARY
  5
D
102
{ACAD_REACTORS
330
C
102
}
100
AcDbDictionary
280
0
281
1
  0
ACDBDICTIONARYWDFLT
  5
E
102
{ACAD_REACTORS
330
C
102
}
100
AcDbDictionary
281
1
  3
Normal
350
F
100
AcDbDictionaryWithDefault
340
F
  0
DICTIONARY
  5
17
102
{ACAD_REACTORS
330
C
102
}
100
AcDbDictionary
280
0
281
1
  3
Standard
350
18
  0
DICTIONARY
  5
19
102
{ACAD_REACTORS
330
C
102
}
100
AcDbDictionary
281
1
  0
DICTIONARY
  5
1A
102
{ACAD_REACTORS
330
C
102
}
100
AcDbDictionary
281
1
  3
Model
350
77A
  3
Layout1
350
77B
  0
ACDBPLACEHOLDER
  5
F
102
{ACAD_REACTORS
330
E
102
}
  0
MLINESTYLE
  5
18
102
{ACAD_REACTORS
330
17
102
}
100
AcDbMlineStyle
  2
STANDARD
 70
0
  3

 62
256
 51
90.0
 52
90.0
 71
2
 49
0.5
 62
256
  6
BYLAYER
 49
-0.5
 62
256
  6
BYLAYER
  0
LAYOUT
  5
77A
102
{ACAD_REACTORS
330
1A
102
}
100
AcDbPlotSettings
  1

  2
none_device
  4
ISO_A4_(297.00_x_210.00_MM)
  6

 40
0.0
 41
0.0
 42
0.0
 43
0.0
 44
297.0
 45
210.0
 46
0.0
 47
0.0
 48
0.0
 49
0.0
140
0.0
141
0.0
142
1.0
143
1.0
 70
1024
 72
1
 73
0
 74
0
  7

 75
0
147
1.0
148
0.0
149
0.0
100
AcDbLayout
  1
Model
 70
0
 71
0
 10
0.0
 20
0.0
 11
297.0
 21
210.0
 12
0.0
 22
0.0
 32
0.0
 14
0.0
 24
0.0
 34
0.0
 15
0.0
 25
0.0
 35
0.0
146
0.0
 13
0.0
 23
0.0
 33
0.0
 16
1.0
 26
0.0
 36
0.0
 17
0.0
 27
1.0
 37
0.0
 76
0
330
210
345
0
346
0
  0
LAYOUT
  5
77B
102
{ACAD_REACTORS
330
1A
102
}
100
AcDbPlotSettings
  1

  2
none_device
  4
ISO_A4_(297.00_x_210.00_MM)
  6

 40
0.0
 41
0.0
 42
0.0
 43
0.0
 44
297.0
 45
210.0
 46
0.0
 47
0.0
 48
0.0
 49
0.0
140
0.0
141
0.0
142
1.0
143
1.0
 70
0
 72
1
 73
0
 74
0
  7

 75
0
147
1.0
148
0.0
149
0.0
100
AcDbLayout
  1
Layout1
 70
0
 71
1
 10
0.0
 20
0.0
 11
297.0
 21
210.0
 12
0.0
 22
0.0
 32
0.0
 14
0.0
 24
0.0
 34
0.0
 15
0.0
 25
0.0
 35
0.0
146
0.0
 13
0.0
 23
0.0
 33
0.0
 16
1.0
 26
0.0
 36
0.0
 17
0.0
 27
1.0
 37
0.0
 76
0
330
211
345
0
346
0
  0
ENDSEC
  0
EOF
