  0
SECTION
  2
HEADER
  9
$ACADVER
  1
AC1015
  9
$DWGCODEPAGE
  3
ANSI_1252
  9
$EXTMAX
 10
297.0
 20
210.0
 30
0.0
  9
$EXTMIN
 10
0.0
 20
0.0
 30
0.0
  9
$LIMMIN
 10
0.0
 20
0.0
  9
$LIMMAX
 10
297.0
 20
210.0
  9
$VIEWCTR
 10
148.5
 20
105.0
  9
$VIEWSIZE
 40
210.0
  9
$CLAYER
  8
0
  9
$LTSCALE
 40
16.335
  9
$CELTYPE
  6
BYLAYER
  9
$DIMSCALE
 40
1.0
  9
$DIMASZ
 40
3.5
  9
$DIMEXO
 40
1.85625
  9
$DIMDLI
 40
11.286
  9
$DIMEXE
 40
5.346
  9
$DIMCEN
 40
2.673
  9
$DIMLFAC
 40
1.0
  9
$DIMBLK
  1
_FILLED
  9
$DIMTXT
 40
3.5
  9
$DIMTOL
 70
1
  9
$DIMLIM
 70
0
  9
$DIMTFAC
 40
1.0
  9
$DIMTP
 40
0.005
  9
$DIMTM
 40
0.005
  9
$PDMODE
 70
3
  9
$PDSIZE
 40
0.3125
  9
$HANDSEED
  5
7D2
  9
$TILEMODE
 70
1
  9
$MEASUREMENT
 70
1
  9
$INSUNITS
 70
4
  0
ENDSEC
  0
SECTION
  2
CLASSES
  0
CLASS
  1
ACDBDICTIONARYWDFLT
  2
AcDbDictionaryWithDefault
  3
AutoCAD 2000
 90
0
280
0
281
0
  0
CLASS
  1
ACDBPLACEHOLDER
  2
AcDbPlaceHolder
  3
AutoCAD 2000
 90
0
280
0
281
0
  0
CLASS
  1
LAYOUT
  2
AcDbLayout
  3
AutoCAD 2000
 90
0
280
0
281
0
  0
ENDSEC
  0
SECTION
  2
TABLES
  0
TABLE
  2
VPORT
  5
8
100
AcDbSymbolTable
 70
2
  0
VPORT
  5
1F4
100
AcDbSymbolTableRecord
100
AcDbViewportTableRecord
  2
*ACTIVE
 70
0
 10
0.0
 20
0.0
 11
1.0
 21
1.0
 12
148.5
 22
105.0
 13
0.0
 23
0.0
 14
1.0
 24
1.0
 15
0.0
 25
0.0
 16
0.0
 26
0.0
 36
1.0
 17
0.0
 27
0.0
 37
0.0
 40
210.0
 41
1.4142857143
 42
50.0
 43
0.0
 44
0.0
 50
0.0
 51
0.0
 71
0
 72
100
 73
1
 74
1
 75
0
 76
0
 77
0
 78
0
  0
ENDTAB
  0
TABLE
  2
LTYPE
  5
5
100
AcDbSymbolTable
 70
6
  0
LTYPE
  5
14
100
AcDbSymbolTableRecord
100
AcDbLinetypeTableRecord
  2
BYBLOCK
 70
0
  3

 72
65
 73
0
 40
0.0
  0
LTYPE
  5
15
100
AcDbSymbolTableRecord
100
AcDbLinetypeTableRecord
  2
BYLAYER
 70
0
  3

 72
65
 73
0
 40
0.0
  0
LTYPE
  5
16
100
AcDbSymbolTableRecord
100
AcDbLinetypeTableRecord
  2
CONTINUOUS
 70
64
  3
Solid line
 72
65
 73
0
 40
0.0
  0
LTYPE
  5
1F5
100
AcDbSymbolTableRecord
100
AcDbLinetypeTableRecord
  2
CENTER
 70
64
  3
____ _ ____ _ ____ _ ____ _ ____ _ ____ _ ____
 72
65
 73
4
 40
0.6
 49
0.375
 74
0
 49
-0.075
 74
0
 49
0.075
 74
0
 49
-0.075
 74
0
  0
LTYPE
  5
1F6
100
AcDbSymbolTableRecord
100
AcDbLinetypeTableRecord
  2
HIDDEN
 70
64
  3
- - - - - - - - - - - - - - - - - - - -
 72
65
 73
2
 40
0.2
 49
0.1
 74
0
 49
-0.1
 74
0
  0
LTYPE
  5
1F7
100
AcDbSymbolTableRecord
100
AcDbLinetypeTableRecord
  2
PHANTOM
 70
64
  3
_____ _ _ _____ _ _ _____ _ _ _____
 72
65
 73
6
 40
0.8
 49
0.45
 74
0
 49
-0.05
 74
0
 49
0.1
 74
0
 49
-0.05
 74
0
 49
0.1
 74
0
 49
-0.05
 74
0
  0
LTYPE
  5
1F8
100
AcDbSymbolTableRecord
100
AcDbLinetypeTableRecord
  2
DOT
 70
64
  3
. . . . . . . . . . . . . . . . . . . .
 72
65
 73
2
 40
0.2
 49
0.1
 74
0
 49
-0.1
 74
0
  0
LTYPE
  5
1F9
100
AcDbSymbolTableRecord
100
AcDbLinetypeTableRecord
  2
DASHED
 70
64
  3
- - - - - - - - - - - - - - - - - - - -
 72
65
 73
2
 40
0.2
 49
0.1
 74
0
 49
-0.1
 74
0
  0
ENDTAB
  0
TABLE
  2
LAYER
  5
2
100
AcDbSymbolTable
 70
36
  0
LAYER
  5
10
100
AcDbSymbolTableRecord
100
AcDbLayerTableRecord
  2
0
 70
0
 62
7
  6
CONTINUOUS
370
-3
390
F
  0
LAYER
  5
1FA
100
AcDbSymbolTableRecord
100
AcDbLayerTableRecord
  2
DEFAULT_1
 70
0
 62
7
  6
CENTER
370
-3
390
F
  0
LAYER
  5
1FB
100
AcDbSymbolTableRecord
100
AcDbLayerTableRecord
  2
DEFAULT_2
 70
0
 62
8
  6
HIDDEN
370
-3
390
F
  0
LAYER
  5
1FC
100
AcDbSymbolTableRecord
100
AcDbLayerTableRecord
  2
DEFAULT_3
 70
0
 62
7
  6
PHANTOM
370
-3
390
F
  0
LAYER
  5
1FD
100
AcDbSymbolTableRecord
100
AcDbLayerTableRecord
  2
01___PRT_ALL_DTM_PLN
 70
0
 62
7
  6
CONTINUOUS
370
-3
390
F
  0
LAYER
  5
1FE
100
AcDbSymbolTableRecord
100
AcDbLayerTableRecord
  2
01___PRT_DEF_DTM_PLN
 70
0
 62
7
  6
CONTINUOUS
370
-3
390
F
  0
LAYER
  5
1FF
100
AcDbSymbolTableRecord
100
AcDbLayerTableRecord
  2
02___PRT_ALL_AXES
 70
0
 62
7
  6
CONTINUOUS
370
-3
390
F
  0
LAYER
  5
200
100
AcDbSymbolTableRecord
100
AcDbLayerTableRecord
  2
03___PRT_ALL_CURVES
 70
0
 62
7
  6
CONTINUOUS
370
-3
390
F
  0
LAYER
  5
201
100
AcDbSymbolTableRecord
100
AcDbLayerTableRecord
  2
04___PRT_ALL_DTM_PNT
 70
0
 62
7
  6
CONTINUOUS
370
-3
390
F
  0
LAYER
  5
202
100
AcDbSymbolTableRecord
100
AcDbLayerTableRecord
  2
05___PRT_ALL_DTM_CSYS
 70
0
 62
7
  6
CONTINUOUS
370
-3
390
F
  0
LAYER
  5
203
100
AcDbSymbolTableRecord
100
AcDbLayerTableRecord
  2
05___PRT_DEF_DTM_CSYS
 70
0
 62
7
  6
CONTINUOUS
370
-3
390
F
  0
LAYER
  5
204
100
AcDbSymbolTableRecord
100
AcDbLayerTableRecord
  2
06___PRT_ALL_SURFS
 70
0
 62
7
  6
CONTINUOUS
370
-3
390
F
  0
LAYER
  5
205
100
AcDbSymbolTableRecord
100
AcDbLayerTableRecord
  2
AUSFORMSCHRAEGEN
 70
0
 62
7
  6
CONTINUOUS
370
-3
390
F
  0
LAYER
  5
206
100
AcDbSymbolTableRecord
100
AcDbLayerTableRecord
  2
BEZUGSACHSEN
 70
0
 62
7
  6
CONTINUOUS
370
-3
390
F
  0
LAYER
  5
207
100
AcDbSymbolTableRecord
100
AcDbLayerTableRecord
  2
BEZUGSEBENEN
 70
0
 62
7
  6
CONTINUOUS
370
-3
390
F
  0
LAYER
  5
208
100
AcDbSymbolTableRecord
100
AcDbLayerTableRecord
  2
BOHRUNGEN
 70
0
 62
7
  6
CONTINUOUS
370
-3
390
F
  0
LAYER
  5
209
100
AcDbSymbolTableRecord
100
AcDbLayerTableRecord
  2
FASEN
 70
0
 62
7
  6
CONTINUOUS
370
-3
390
F
  0
LAYER
  5
20A
100
AcDbSymbolTableRecord
100
AcDbLayerTableRecord
  2
GEWINDE
 70
0
 62
7
  6
CONTINUOUS
370
-3
390
F
  0
LAYER
  5
20B
100
AcDbSymbolTableRecord
100
AcDbLayerTableRecord
  2
KURVEN
 70
0
 62
7
  6
CONTINUOUS
370
-3
390
F
  0
LAYER
  5
20C
100
AcDbSymbolTableRecord
100
AcDbLayerTableRecord
  2
RUNDUNGEN
 70
0
 62
7
  6
CONTINUOUS
370
-3
390
F
  0
LAYER
  5
20D
100
AcDbSymbolTableRecord
100
AcDbLayerTableRecord
  2
ZEICHNUNGSBEMASSUNGEN
 70
0
 62
7
  6
CONTINUOUS
370
-3
390
F
  0
ENDTAB
  0
TABLE
  2
STYLE
  5
3
100
AcDbSymbolTable
 70
1
  0
STYLE
  5
11
100
AcDbSymbolTableRecord
100
AcDbTextStyleTableRecord
  2
STANDARD
 70
0
 40
0.0
 41
0.7
 50
0.0
 71
0
 42
0.2
  3
txt
  4

  0
STYLE
  5
20E
100
AcDbSymbolTableRecord
100
AcDbTextStyleTableRecord
  2
TEXTSTYLE_1
 70
0
 40
0.0
 41
0.8
 50
0.0
 71
0
 42
0.2
  3
gdt
  4

  0
ENDTAB
  0
TABLE
  2
VIEW
  5
6
100
AcDbSymbolTable
 70
0
  0
ENDTAB
  0
TABLE
  2
UCS
  5
7
100
AcDbSymbolTable
 70
0
  0
ENDTAB
  0
TABLE
  2
APPID
  5
9
100
AcDbSymbolTable
 70
1
  0
APPID
  5
20F
100
AcDbSymbolTableRecord
100
AcDbRegAppTableRecord
  2
ACAD
 70
0
  0
ENDTAB
  0
TABLE
  2
BLOCK_RECORD
  5
1
100
AcDbSymbolTable
 70
0
  0
BLOCK_RECORD
  5
210
100
AcDbSymbolTableRecord
100
AcDbBlockTableRecord
  2
*Model_Space
  0
BLOCK_RECORD
  5
211
100
AcDbSymbolTableRecord
100
AcDbBlockTableRecord
  2
*Paper_Space
  0
ENDTAB
  0
TABLE
  2
DIMSTYLE
  5
A
100
AcDbSymbolTable
 70
1
100
AcDbDimStyleTable
 71
0
  0
DIMSTYLE
105
212
100
AcDbSymbolTableRecord
100
AcDbDimStyleTableRecord
  2
STANDARD
 70
0
  3

  4

 40
1.0
 41
3.5
 42
0.0625
 43
0.38
 44
0.18
 45
0.0
 46
0.0
 47
0.005
 48
0.005
140
3.5
141
0.09
142
0.0
143
25.4
144
1.0
145
0.0
146
1.0
147
0.09
 71
1.0
 72
0.0
 73
0
 74
0
 75
0
 76
0
 77
1
 78
8
170
0
171
2
172
0
173
0
174
0
175
0
176
0
177
0
178
5
270
2
271
3
272
3
273
2
274
2
275
0
280
0
281
0
282
0
283
1
284
8
285
0
286
0
287
3
288
0
340
11
  0
ENDTAB
  0
ENDSEC
  0
SECTION
  2
BLOCKS
  0
BLOCK
  5
20
100
AcDbEntity
  8
0
100
AcDbBlockBegin
  2
*Model_Space
 70
0
 10
0.0
 20
0.0
 30
0.0
  3
*Model_Space
  1

  0
ENDBLK
  5
21
100
AcDbEntity
  8
0
100
AcDbBlockEnd
  0
BLOCK
  5
1C
100
AcDbEntity
  8
0
100
AcDbBlockBegin
  2
*Paper_Space
 70
0
 10
0.0
 20
0.0
 30
0.0
  3
*Paper_Space
  1

  0
ENDBLK
  5
1D
100
AcDbEntity
  8
0
100
AcDbBlockEnd
  0
ENDSEC
  0
SECTION
  2
ENTITIES
  0
LINE
  5
213
100
AcDbEntity
  8
0
100
AcDbLine
 62
7
  6
CONTINUOUS
 10
0.0
 20
0.0
 11
0.0
 21
210.0
  0
LINE
  5
214
100
AcDbEntity
  8
0
100
AcDbLine
 62
7
  6
CONTINUOUS
 10
0.0
 20
0.0
 11
297.0
 21
0.0
  0
LINE
  5
215
100
AcDbEntity
  8
0
100
AcDbLine
 62
7
  6
CONTINUOUS
 10
0.0
 20
210.0
 11
297.0
 21
210.0
  0
LINE
  5
216
100
AcDbEntity
  8
0
100
AcDbLine
 62
7
  6
CONTINUOUS
 10
297.0
 20
0.0
 11
297.0
 21
210.0
  0
LINE
  5
217
100
AcDbEntity
  8
RUNDUNGEN
100
AcDbLine
 62
7
  6
CONTINUOUS
 10
23.7161534001
 20
108.7724509726
 11
23.7161534001
 21
102.7724509726
  0
LINE
  5
218
100
AcDbEntity
  8
RUNDUNGEN
100
AcDbLine
 62
7
  6
CONTINUOUS
 10
30.9839218693
 20
138.1721530726
 11
30.0294800383
 21
135.2346831621
  0
LINE
  5
219
100
AcDbEntity
  8
RUNDUNGEN
100
AcDbLine
 62
7
  6
CONTINUOUS
 10
26.482978552
 20
124.3196739231
 11
25.5285373733
 21
121.3822060203
  0
LINE
  5
21A
100
AcDbEntity
  8
RUNDUNGEN
100
AcDbLine
 62
7
  6
CONTINUOUS
 10
40.4562113481
 20
154.2930517306
 11
36.9294998344
 21
149.4389497644
  0
LINE
  5
21B
100
AcDbEntity
  8
RUNDUNGEN
100
AcDbLine
 62
7
  6
CONTINUOUS
 10
63.6166785887
 20
173.8060288459
 11
61.1179097132
 21
171.9905669902
  0
LINE
  5
21C
100
AcDbEntity
  8
RUNDUNGEN
100
AcDbLine
 62
7
  6
CONTINUOUS
 10
51.8330482809
 20
165.244720293
 11
49.3342888349
 21
163.4292652882
  0
LINE
  5
21D
100
AcDbEntity
  8
RUNDUNGEN
100
AcDbLine
 62
7
  6
CONTINUOUS
 10
80.755540516
 20
181.2804321537
 11
75.0492014182
 21
179.4263301874
  0
LINE
  5
21E
100
AcDbEntity
  8
RUNDUNGEN
100
AcDbLine
 62
7
  6
CONTINUOUS
 10
93.3081863006
 20
28.0915207746
 11
96.3968242058
 21
28.0915207746
  0
LINE
  5
21F
100
AcDbEntity
  8
RUNDUNGEN
100
AcDbLine
 62
7
  6
CONTINUOUS
 10
107.8735440978
 20
28.0915207746
 11
110.9621833977
 21
28.0915207746
  0
LINE
  5
220
100
AcDbEntity
  8
RUNDUNGEN
100
AcDbLine
 62
7
  6
CONTINUOUS
 10
75.0492014182
 20
32.1185717577
 11
80.755540516
 21
30.2644697915
  0
LINE
  5
221
100
AcDbEntity
  8
RUNDUNGEN
100
AcDbLine
 62
7
  6
CONTINUOUS
 10
49.334287127
 20
48.1156378978
 11
51.8330482809
 21
46.3001816522
  0
LINE
  5
222
100
AcDbEntity
  8
RUNDUNGEN
100
AcDbLine
 62
7
  6
CONTINUOUS
 10
61.1179097132
 20
39.554334955
 11
63.6166712369
 21
37.7388784406
  0
LINE
  5
223
100
AcDbEntity
  8
RUNDUNGEN
100
AcDbLine
 62
7
  6
CONTINUOUS
 10
36.9294998344
 20
62.1059521808
 11
40.4562113481
 21
57.2518502145
  0
LINE
  5
224
100
AcDbEntity
  8
RUNDUNGEN
100
AcDbLine
 62
7
  6
CONTINUOUS
 10
25.528536721
 20
90.1626979326
 11
26.482978552
 21
87.225228022
  0
LINE
  5
225
100
AcDbEntity
  8
RUNDUNGEN
100
AcDbLine
 62
7
  6
CONTINUOUS
 10
30.0294800383
 20
76.3102187831
 11
30.9839220106
 21
73.3727484378
  0
LINE
  5
226
100
AcDbEntity
  8
RUNDUNGEN
100
AcDbLine
 62
7
  6
CONTINUOUS
 10
28.173739745
 20
96.5569654786
 11
28.1533507516
 21
96.9424456867
  0
LINE
  5
227
100
AcDbEntity
  8
RUNDUNGEN
100
AcDbLine
 62
7
  6
CONTINUOUS
 10
28.1737396925
 20
114.9879364474
 11
28.1533507018
 21
114.6024562801
  0
LINE
  5
228
100
AcDbEntity
  8
RUNDUNGEN
100
AcDbLine
 62
7
  6
CONTINUOUS
 10
28.1196515146
 20
96.1746977208
 11
28.173739745
 21
96.5569654786
  0
LWPOLYLINE
  5
229
100
AcDbEntity
  8
RUNDUNGEN
100
AcDbPolyline
 62
7
  6
CONTINUOUS
 90
3
 70
0
 10
35.6449214463
 20
125.0106569288
 10
35.6420436469
 20
124.9910840288
 10
35.5166771455
 20
124.2044788528
  0
LINE
  5
22A
100
AcDbEntity
  8
RUNDUNGEN
100
AcDbLine
 62
7
  6
CONTINUOUS
 10
35.5166771455
 20
124.2044788528
 11
35.486537006
 21
124.0106569288
  0
LINE
  5
22B
100
AcDbEntity
  8
RUNDUNGEN
100
AcDbLine
 62
7
  6
CONTINUOUS
 10
37.2363627699
 20
142.4724019749
 11
37.3086851437
 21
142.8514928843
  0
LINE
  5
22C
100
AcDbEntity
  8
RUNDUNGEN
100
AcDbLine
 62
7
  6
CONTINUOUS
 10
28.1533507018
 20
114.6024562801
 11
28.0592447321
 21
114.2281370493
  0
LINE
  5
22D
100
AcDbEntity
  8
RUNDUNGEN
100
AcDbLine
 62
7
  6
CONTINUOUS
 10
37.0924767713
 20
142.1142572461
 11
37.2363627699
 21
142.4724019749
  0
LINE
  5
22E
100
AcDbEntity
  8
RUNDUNGEN
100
AcDbLine
 62
7
  6
CONTINUOUS
 10
28.0592447321
 20
114.2281370493
 11
27.8949307188
 21
113.8789360416
  0
LWPOLYLINE
  5
22F
100
AcDbEntity
  8
RUNDUNGEN
100
AcDbPolyline
 62
7
  6
CONTINUOUS
 90
3
 70
0
 10
37.035497921
 20
129.2904112521
 10
37.0442832296
 20
129.3081368972
 10
37.4065882249
 20
130.0175024961
  0
LINE
  5
230
100
AcDbEntity
  8
RUNDUNGEN
100
AcDbLine
 62
7
  6
CONTINUOUS
 10
37.4065882249
 20
130.0175024961
 11
37.4951474694
 21
130.1925242847
  0
LINE
  5
231
100
AcDbEntity
  8
RUNDUNGEN
100
AcDbLine
 62
7
  6
CONTINUOUS
 10
47.8967781724
 20
157.0424350109
 11
47.7158451105
 21
156.7013816245
  0
LINE
  5
232
100
AcDbEntity
  8
RUNDUNGEN
100
AcDbLine
 62
7
  6
CONTINUOUS
 10
36.8823922321
 20
141.7904128571
 11
37.0924767713
 21
142.1142572461
  0
LINE
  5
233
100
AcDbEntity
  8
RUNDUNGEN
100
AcDbLine
 62
7
  6
CONTINUOUS
 10
47.7158451105
 20
156.7013816245
 11
47.4727705131
 21
156.4015059663
  0
LINE
  5
234
100
AcDbEntity
  8
RUNDUNGEN
100
AcDbLine
 62
7
  6
CONTINUOUS
 10
36.6139425841
 20
141.5129440087
 11
36.8823922321
 21
141.7904128571
  0
LWPOLYLINE
  5
235
100
AcDbEntity
  8
RUNDUNGEN
100
AcDbPolyline
 62
7
  6
CONTINUOUS
 90
3
 70
0
 10
59.6513654042
 20
160.4184823717
 10
59.6375325536
 20
160.4043390911
 10
59.0737540017
 20
159.8416507165
  0
LINE
  5
236
100
AcDbEntity
  8
RUNDUNGEN
100
AcDbLine
 62
7
  6
CONTINUOUS
 10
59.0737540017
 20
159.8416507165
 11
58.935444448
 21
159.7025614156
  0
LINE
  5
237
100
AcDbEntity
  8
RUNDUNGEN
100
AcDbLine
 62
7
  6
CONTINUOUS
 10
71.2026247567
 20
173.6099051186
 11
71.4839588402
 21
173.8740860618
  0
LINE
  5
238
100
AcDbEntity
  8
RUNDUNGEN
100
AcDbLine
 62
7
  6
CONTINUOUS
 10
47.4727705131
 20
156.4015059663
 11
47.1766178609
 21
156.1539894483
  0
LINE
  5
239
100
AcDbEntity
  8
RUNDUNGEN
100
AcDbLine
 62
7
  6
CONTINUOUS
 10
70.8757063368
 20
173.4047340439
 11
71.2026247567
 21
173.6099051186
  0
LINE
  5
23A
100
AcDbEntity
  8
RUNDUNGEN
100
AcDbLine
 62
7
  6
CONTINUOUS
 10
47.1766178609
 20
156.1539894483
 11
46.8384298293
 21
155.9680612525
  0
LWPOLYLINE
  5
23B
100
AcDbEntity
  8
RUNDUNGEN
100
AcDbPolyline
 62
7
  6
CONTINUOUS
 90
3
 70
0
 10
63.2919418789
 20
163.0635160071
 10
63.3094682156
 20
163.0726924804
 10
64.0195337515
 20
163.433623772
  0
LINE
  5
23C
100
AcDbEntity
  8
RUNDUNGEN
100
AcDbLine
 62
7
  6
CONTINUOUS
 10
64.0195337515
 20
163.433623772
 11
64.1940549115
 21
163.5231655555
  0
LINE
  5
23D
100
AcDbEntity
  8
RUNDUNGEN
100
AcDbLine
 62
7
  6
CONTINUOUS
 10
88.3911324614
 20
179.1312745102
 11
88.0442884166
 21
178.9617063139
  0
LINE
  5
23E
100
AcDbEntity
  8
RUNDUNGEN
100
AcDbLine
 62
7
  6
CONTINUOUS
 10
70.5153934055
 20
173.2662230627
 11
70.8757063368
 21
173.4047340439
  0
LINE
  5
23F
100
AcDbEntity
  8
RUNDUNGEN
100
AcDbLine
 62
7
  6
CONTINUOUS
 10
116.2260799053
 20
32.5831956415
 11
116.5989938762
 21
32.682924482
  0
LINE
  5
240
100
AcDbEntity
  8
RUNDUNGEN
100
AcDbLine
 62
7
  6
CONTINUOUS
 10
134.1352473563
 20
38.3453652136
 11
133.7549749319
 21
38.2786789439
  0
LWPOLYLINE
  5
241
100
AcDbEntity
  8
RUNDUNGEN
100
AcDbPolyline
 62
7
  6
CONTINUOUS
 90
3
 70
0
 10
104.3851841518
 20
36.5915207746
 10
104.4046883748
 20
36.5948321835
 10
105.1915347326
 20
36.7186759226
  0
LINE
  5
242
100
AcDbEntity
  8
RUNDUNGEN
100
AcDbLine
 62
7
  6
CONTINUOUS
 10
105.1915347326
 20
36.7186759226
 11
105.3851841518
 21
36.7499052149
  0
LINE
  5
243
100
AcDbEntity
  8
RUNDUNGEN
100
AcDbLine
 62
7
  6
CONTINUOUS
 10
87.2862953254
 20
32.7090954449
 11
86.9034096031
 21
32.6607325763
  0
LINE
  5
244
100
AcDbEntity
  8
RUNDUNGEN
100
AcDbLine
 62
7
  6
CONTINUOUS
 10
116.5989938762
 20
32.682924482
 11
116.9840729637
 21
32.70909539
  0
LINE
  5
245
100
AcDbEntity
  8
RUNDUNGEN
100
AcDbLine
 62
7
  6
CONTINUOUS
 10
87.6713744223
 20
32.6829245361
 11
87.2862953254
 21
32.7090954449
  0
LINE
  5
246
100
AcDbEntity
  8
RUNDUNGEN
100
AcDbLine
 62
7
  6
CONTINUOUS
 10
116.9840729637
 20
32.70909539
 11
117.3669586802
 21
32.6607325227
  0
LWPOLYLINE
  5
247
100
AcDbEntity
  8
RUNDUNGEN
100
AcDbPolyline
 62
7
  6
CONTINUOUS
 90
3
 70
0
 10
99.8851841518
 20
36.5915207746
 10
99.8656112518
 20
36.594398574
 10
99.0790060758
 20
36.7197650754
  0
LINE
  5
248
100
AcDbEntity
  8
RUNDUNGEN
100
AcDbLine
 62
7
  6
CONTINUOUS
 10
99.0790060758
 20
36.7197650754
 11
98.8851841518
 21
36.7499052149
  0
LINE
  5
249
100
AcDbEntity
  8
RUNDUNGEN
100
AcDbLine
 62
7
  6
CONTINUOUS
 10
70.1351209372
 20
38.3453651633
 11
70.5153933725
 21
38.2786788886
  0
LINE
  5
24A
100
AcDbEntity
  8
RUNDUNGEN
100
AcDbLine
 62
7
  6
CONTINUOUS
 10
88.0442884316
 20
32.5831956859
 11
87.6713744223
 21
32.6829245361
  0
LINE
  5
24B
100
AcDbEntity
  8
RUNDUNGEN
100
AcDbLine
 62
7
  6
CONTINUOUS
 10
70.5153933725
 20
38.2786788886
 11
70.875706254
 21
38.1401678829
  0
LINE
  5
24C
100
AcDbEntity
  8
RUNDUNGEN
100
AcDbLine
 62
7
  6
CONTINUOUS
 10
88.3911324914
 20
32.4136274886
 11
88.0442884316
 21
32.5831956859
  0
LWPOLYLINE
  5
24D
100
AcDbEntity
  8
RUNDUNGEN
100
AcDbPolyline
 62
7
  6
CONTINUOUS
 90
3
 70
0
 10
63.2919418789
 20
48.4813859381
 10
63.309667524
 20
48.4726006295
 10
64.0190331229
 20
48.1102956342
  0
LINE
  5
24E
100
AcDbEntity
  8
RUNDUNGEN
100
AcDbLine
 62
7
  6
CONTINUOUS
 10
64.0190331229
 20
48.1102956342
 11
64.1940549115
 21
48.0217363897
  0
LINE
  5
24F
100
AcDbEntity
  8
RUNDUNGEN
100
AcDbLine
 62
7
  6
CONTINUOUS
 10
47.1766178814
 20
55.3909125499
 11
46.8384298443
 21
55.5768407482
  0
LINE
  5
250
100
AcDbEntity
  8
RUNDUNGEN
100
AcDbLine
 62
7
  6
CONTINUOUS
 10
70.875706254
 20
38.1401678829
 11
71.2026246538
 21
37.9349967836
  0
LINE
  5
251
100
AcDbEntity
  8
RUNDUNGEN
100
AcDbLine
 62
7
  6
CONTINUOUS
 10
47.4727705407
 20
55.1433960257
 11
47.1766178814
 21
55.3909125499
  0
LINE
  5
252
100
AcDbEntity
  8
RUNDUNGEN
100
AcDbLine
 62
7
  6
CONTINUOUS
 10
71.2026246538
 20
37.9349967836
 11
71.4839587252
 21
37.6708158247
  0
LWPOLYLINE
  5
253
100
AcDbEntity
  8
RUNDUNGEN
100
AcDbPolyline
 62
7
  6
CONTINUOUS
 90
3
 70
0
 10
59.6513654042
 20
51.1264195734
 10
59.6372221236
 20
51.140252424
 10
59.074533749
 20
51.704030976
  0
LINE
  5
254
100
AcDbEntity
  8
RUNDUNGEN
100
AcDbLine
 62
7
  6
CONTINUOUS
 10
59.074533749
 20
51.704030976
 11
58.935444448
 21
51.8423405296
  0
LINE
  5
255
100
AcDbEntity
  8
RUNDUNGEN
100
AcDbLine
 62
7
  6
CONTINUOUS
 10
36.6139425463
 20
70.0319579016
 11
36.8823922002
 21
69.7544890428
  0
LINE
  5
256
100
AcDbEntity
  8
RUNDUNGEN
100
AcDbLine
 62
7
  6
CONTINUOUS
 10
47.7158451643
 20
54.8435203359
 11
47.4727705407
 21
55.1433960257
  0
LINE
  5
257
100
AcDbEntity
  8
RUNDUNGEN
100
AcDbLine
 62
7
  6
CONTINUOUS
 10
36.8823922002
 20
69.7544890428
 11
37.0924767183
 21
69.4306446873
  0
LINE
  5
258
100
AcDbEntity
  8
RUNDUNGEN
100
AcDbLine
 62
7
  6
CONTINUOUS
 10
47.8967782172
 20
54.5024669594
 11
47.7158451643
 21
54.8435203359
  0
LWPOLYLINE
  5
259
100
AcDbEntity
  8
RUNDUNGEN
100
AcDbPolyline
 62
7
  6
CONTINUOUS
 90
3
 70
0
 10
37.035497921
 20
82.2544906931
 10
37.0446743943
 20
82.2369643563
 10
37.405605686
 20
81.5268988204
  0
LINE
  5
25A
100
AcDbEntity
  8
RUNDUNGEN
100
AcDbLine
 62
7
  6
CONTINUOUS
 10
37.405605686
 20
81.5268988204
 11
37.4951474694
 21
81.3523776605
  0
LINE
  5
25B
100
AcDbEntity
  8
RUNDUNGEN
100
AcDbLine
 62
7
  6
CONTINUOUS
 10
28.0592447799
 20
97.3167649267
 11
27.8949307636
 21
97.6659659396
  0
LINE
  5
25C
100
AcDbEntity
  8
RUNDUNGEN
100
AcDbLine
 62
7
  6
CONTINUOUS
 10
37.0924767183
 20
69.4306446873
 11
37.2363627131
 21
69.0724999672
  0
LINE
  5
25D
100
AcDbEntity
  8
RUNDUNGEN
100
AcDbLine
 62
7
  6
CONTINUOUS
 10
28.1533507516
 20
96.9424456867
 11
28.0592447799
 21
97.3167649267
  0
LINE
  5
25E
100
AcDbEntity
  8
RUNDUNGEN
100
AcDbLine
 62
7
  6
CONTINUOUS
 10
37.2363627131
 20
69.0724999672
 11
37.3086850863
 21
68.6934090637
  0
LWPOLYLINE
  5
25F
100
AcDbEntity
  8
RUNDUNGEN
100
AcDbPolyline
 62
7
  6
CONTINUOUS
 90
3
 70
0
 10
35.6449214463
 20
86.5342450164
 10
35.6416100375
 20
86.5537492394
 10
35.5177662983
 20
87.3405955972
  0
LINE
  5
260
100
AcDbEntity
  8
RUNDUNGEN
100
AcDbLine
 62
7
  6
CONTINUOUS
 10
35.5177662983
 20
87.3405955972
 11
35.486537006
 21
87.5342450164
  0
LINE
  5
261
100
AcDbEntity
  8
RUNDUNGEN
100
AcDbLine
 62
7
  6
CONTINUOUS
 10
28.1196514637
 20
115.3702042184
 11
28.1737396925
 21
114.9879364474
  0
LINE
  5
262
100
AcDbEntity
  8
RUNDUNGEN
100
AcDbLine
 62
7
  6
CONTINUOUS
 10
36.7436934345
 20
148.7495455457
 11
37.3067471371
 21
143.2373954499
  0
LINE
  5
263
100
AcDbEntity
  8
RUNDUNGEN
100
AcDbLine
 62
7
  6
CONTINUOUS
 10
37.3086851437
 20
142.8514928843
 11
37.3067472052
 21
143.237394794
  0
LINE
  5
264
100
AcDbEntity
  8
RUNDUNGEN
100
AcDbLine
 62
7
  6
CONTINUOUS
 10
37.3086850863
 20
68.6934090637
 11
37.3067471502
 21
68.3075071568
  0
LINE
  5
265
100
AcDbEntity
  8
RUNDUNGEN
100
AcDbLine
 62
7
  6
CONTINUOUS
 10
37.3067471283
 20
68.307506409
 11
36.7436934345
 21
62.7953563995
  0
LINE
  5
266
100
AcDbEntity
  8
RUNDUNGEN
100
AcDbLine
 62
7
  6
CONTINUOUS
 10
48.0053170752
 20
157.410692122
 11
48.8487196266
 21
161.6077296446
  0
LINE
  5
267
100
AcDbEntity
  8
RUNDUNGEN
100
AcDbLine
 62
7
  6
CONTINUOUS
 10
48.0088231865
 20
157.4119491869
 11
47.8967781724
 21
157.0424350109
  0
LINE
  5
268
100
AcDbEntity
  8
RUNDUNGEN
100
AcDbLine
 62
7
  6
CONTINUOUS
 10
27.993102851
 20
95.809896049
 11
28.1196515146
 21
96.1746977208
  0
LINE
  5
269
100
AcDbEntity
  8
RUNDUNGEN
100
AcDbLine
 62
7
  6
CONTINUOUS
 10
26.2063961488
 20
91.9218048336
 11
27.9910051673
 21
95.8129738681
  0
LINE
  5
26A
100
AcDbEntity
  8
RUNDUNGEN
100
AcDbLine
 62
7
  6
CONTINUOUS
 10
74.4936592504
 20
178.9778047201
 11
71.7092187659
 21
174.1874270164
  0
LINE
  5
26B
100
AcDbEntity
  8
RUNDUNGEN
100
AcDbLine
 62
7
  6
CONTINUOUS
 10
71.4839588402
 20
173.8740860618
 11
71.7092184679
 21
174.187426344
  0
LINE
  5
26C
100
AcDbEntity
  8
RUNDUNGEN
100
AcDbLine
 62
7
  6
CONTINUOUS
 10
27.8949307188
 20
113.8789360416
 11
27.6665354458
 21
113.567873931
  0
LINE
  5
26D
100
AcDbEntity
  8
RUNDUNGEN
100
AcDbLine
 62
7
  6
CONTINUOUS
 10
27.6665349883
 20
113.5678733386
 11
23.9710544976
 21
109.4394049631
  0
LINE
  5
26E
100
AcDbEntity
  8
0
100
AcDbLine
 62
7
  6
CONTINUOUS
 10
78.2146448531
 20
168.1312277739
 11
78.105972847
 21
168.0247406316
  0
LINE
  5
26F
100
AcDbEntity
  8
0
100
AcDbLine
 62
7
  6
CONTINUOUS
 10
79.50645383
 20
168.8001682115
 11
79.3951082143
 21
168.6964798792
  0
LINE
  5
270
100
AcDbEntity
  8
RUNDUNGEN
100
AcDbLine
 62
7
  6
CONTINUOUS
 10
91.8446624591
 20
182.2651201755
 11
88.6953914938
 21
179.3653968526
  0
LINE
  5
271
100
AcDbEntity
  8
RUNDUNGEN
100
AcDbLine
 62
7
  6
CONTINUOUS
 10
88.6989737648
 20
179.3643593538
 11
88.3911324614
 21
179.1312745102
  0
LINE
  5
272
100
AcDbEntity
  8
0
100
AcDbLine
 62
7
  6
CONTINUOUS
 10
80.6302833982
 20
169.2553176395
 11
80.4722761666
 21
169.1394418045
  0
LINE
  5
273
100
AcDbEntity
  8
0
100
AcDbLine
 62
7
  6
CONTINUOUS
 10
80.6365853586
 20
168.9432290466
 11
80.7945928433
 21
169.0591049666
  0
LINE
  5
274
100
AcDbEntity
  8
0
100
AcDbLine
 62
7
  6
CONTINUOUS
 10
81.584527467
 20
167.8789084062
 11
81.4265199888
 21
167.7630324664
  0
LINE
  5
275
100
AcDbEntity
  8
0
100
AcDbLine
 62
7
  6
CONTINUOUS
 10
81.5908294406
 20
167.5668197737
 11
81.7488366705
 21
167.6826956137
  0
LINE
  5
276
100
AcDbEntity
  8
0
100
AcDbLine
 62
7
  6
CONTINUOUS
 10
78.192745552
 20
167.6748599923
 11
78.3883357996
 21
167.8153521154
  0
LINE
  5
277
100
AcDbEntity
  8
RUNDUNGEN
100
AcDbLine
 62
7
  6
CONTINUOUS
 10
36.2971375218
 20
141.2921966949
 11
36.6139425841
 21
141.5129440087
  0
LINE
  5
278
100
AcDbEntity
  8
0
100
AcDbLine
 62
7
  6
CONTINUOUS
 10
79.7055544402
 20
168.9356394865
 11
79.50645383
 21
168.8001682115
  0
LINE
  5
279
100
AcDbEntity
  8
0
100
AcDbLine
 62
7
  6
CONTINUOUS
 10
83.7429711893
 20
170.2257423903
 11
83.5798174211
 21
170.1172327487
  0
LINE
  5
27A
100
AcDbEntity
  8
0
100
AcDbLine
 62
7
  6
CONTINUOUS
 10
83.6452072255
 20
169.8880820649
 11
83.8083609936
 21
169.9965917065
  0
LINE
  5
27B
100
AcDbEntity
  8
0
100
AcDbLine
 62
7
  6
CONTINUOUS
 10
79.564011215
 20
168.5042073297
 11
79.806989448
 21
168.6555701214
  0
LINE
  5
27C
100
AcDbEntity
  8
RUNDUNGEN
100
AcDbLine
 62
7
  6
CONTINUOUS
 10
32.5662987598
 20
139.1968646757
 11
36.2972495569
 21
141.2959196904
  0
LINE
  5
27D
100
AcDbEntity
  8
RUNDUNGEN
100
AcDbLine
 62
7
  6
CONTINUOUS
 10
122.8017480778
 20
181.2441069214
 11
117.7333749728
 21
179.0052629732
  0
LINE
  5
27E
100
AcDbEntity
  8
0
100
AcDbLine
 62
7
  6
CONTINUOUS
 10
77.6284078488
 20
169.1173322316
 11
76.5853894484
 21
168.7092726568
  0
LINE
  5
27F
100
AcDbEntity
  8
0
100
AcDbLine
 62
7
  6
CONTINUOUS
 10
76.9546705182
 20
168.5338890728
 11
77.780393377
 21
168.85693622
  0
LINE
  5
280
100
AcDbEntity
  8
0
100
AcDbLine
 62
7
  6
CONTINUOUS
 10
78.105972847
 20
168.0247406316
 11
77.2802499881
 21
167.7016934844
  0
LINE
  5
281
100
AcDbEntity
  8
0
100
AcDbLine
 62
7
  6
CONTINUOUS
 10
77.4104817518
 20
167.3688153112
 11
78.192745552
 21
167.6748599923
  0
LINE
  5
282
100
AcDbEntity
  8
0
100
AcDbLine
 62
7
  6
CONTINUOUS
 10
77.6055383853
 20
166.1017266559
 11
77.8662929854
 21
166.2037415496
  0
LINE
  5
283
100
AcDbEntity
  8
0
100
AcDbLine
 62
7
  6
CONTINUOUS
 10
79.1351463484
 20
168.7290501323
 11
78.9157587367
 21
168.6495927304
  0
LINE
  5
284
100
AcDbEntity
  8
0
100
AcDbLine
 62
7
  6
CONTINUOUS
 10
79.5649428434
 20
166.8571486373
 11
79.7843304551
 21
166.9366060392
  0
LINE
  5
285
100
AcDbEntity
  8
0
100
AcDbLine
 62
7
  6
CONTINUOUS
 10
80.9842119572
 20
169.3741136237
 11
80.6302833982
 21
169.2553176395
  0
LINE
  5
286
100
AcDbEntity
  8
0
100
AcDbLine
 62
7
  6
CONTINUOUS
 10
80.7945928433
 20
169.0591049666
 11
80.9715568697
 21
169.1185028737
  0
LINE
  5
287
100
AcDbEntity
  8
0
100
AcDbLine
 62
7
  6
CONTINUOUS
 10
81.4265199888
 20
167.7630324664
 11
81.2495559625
 21
167.7036345593
  0
LINE
  5
288
100
AcDbEntity
  8
0
100
AcDbLine
 62
7
  6
CONTINUOUS
 10
81.2369008816
 20
167.4480237895
 11
81.5908294406
 21
167.5668197737
  0
LINE
  5
289
100
AcDbEntity
  8
RUNDUNGEN
100
AcDbLine
 62
7
  6
CONTINUOUS
 10
117.3669587005
 20
178.8841693689
 11
117.7333743704
 21
179.0052627062
  0
LINE
  5
28A
100
AcDbEntity
  8
RUNDUNGEN
100
AcDbLine
 62
7
  6
CONTINUOUS
 10
46.8384298293
 20
155.9680612525
 11
46.4708164509
 21
155.8506540918
  0
LINE
  5
28B
100
AcDbEntity
  8
0
100
AcDbLine
 62
7
  6
CONTINUOUS
 10
81.8608048856
 20
170.595697923
 11
81.6382294354
 21
170.5256643846
  0
LINE
  5
28C
100
AcDbEntity
  8
0
100
AcDbLine
 62
7
  6
CONTINUOUS
 10
82.4786312553
 20
167.8547610203
 11
82.7012067055
 21
167.9247945587
  0
LINE
  5
28D
100
AcDbEntity
  8
0
100
AcDbLine
 62
7
  6
CONTINUOUS
 10
82.465580331
 20
170.7817617316
 11
82.2423621047
 21
170.7138047529
  0
LINE
  5
28E
100
AcDbEntity
  8
0
100
AcDbLine
 62
7
  6
CONTINUOUS
 10
82.3291156179
 20
170.4288455664
 11
82.5523338442
 21
170.496802545
  0
LINE
  5
28F
100
AcDbEntity
  8
0
100
AcDbLine
 62
7
  6
CONTINUOUS
 10
82.7258409192
 20
169.9268840123
 11
82.5026226929
 21
169.8589270337
  0
LINE
  5
290
100
AcDbEntity
  8
0
100
AcDbLine
 62
7
  6
CONTINUOUS
 10
83.057845226
 20
168.0351880803
 11
83.2810634524
 21
168.1031450589
  0
LINE
  5
291
100
AcDbEntity
  8
0
100
AcDbLine
 62
7
  6
CONTINUOUS
 10
83.9224729221
 20
170.2769645075
 11
83.7429711893
 21
170.2257423903
  0
LINE
  5
292
100
AcDbEntity
  8
0
100
AcDbLine
 62
7
  6
CONTINUOUS
 10
83.3390930608
 20
170.1104928465
 11
83.1147166652
 21
170.0464654198
  0
LINE
  5
293
100
AcDbEntity
  8
0
100
AcDbLine
 62
7
  6
CONTINUOUS
 10
83.6378351456
 20
168.2132597884
 11
83.8622115413
 21
168.2772872151
  0
LINE
  5
294
100
AcDbEntity
  8
0
100
AcDbLine
 62
7
  6
CONTINUOUS
 10
84.6699677982
 20
168.5077863029
 11
84.8943447074
 21
168.5718138761
  0
LINE
  5
295
100
AcDbEntity
  8
RUNDUNGEN
100
AcDbLine
 62
7
  6
CONTINUOUS
 10
157.7995525707
 20
55.6942480636
 11
163.2159119161
 21
56.8621002076
  0
LINE
  5
296
100
AcDbEntity
  8
RUNDUNGEN
100
AcDbLine
 62
7
  6
CONTINUOUS
 10
69.75134727
 20
38.3347940911
 11
65.4991517685
 21
37.8399674937
  0
LINE
  5
297
100
AcDbEntity
  8
RUNDUNGEN
100
AcDbLine
 62
7
  6
CONTINUOUS
 10
69.7490682588
 20
38.3377401439
 11
70.1351209372
 21
38.3453651633
  0
LINE
  5
298
100
AcDbEntity
  8
RUNDUNGEN
100
AcDbLine
 62
7
  6
CONTINUOUS
 10
134.5213000511
 20
38.3377401985
 11
134.1352473563
 21
38.3453652136
  0
LINE
  5
299
100
AcDbEntity
  8
RUNDUNGEN
100
AcDbLine
 62
7
  6
CONTINUOUS
 10
138.7712105755
 20
37.8399681872
 11
134.519021091
 21
38.3347940844
  0
LINE
  5
29A
100
AcDbEntity
  8
RUNDUNGEN
100
AcDbLine
 62
7
  6
CONTINUOUS
 10
41.0544563875
 20
56.8621002076
 11
46.4708158177
 21
55.6942480453
  0
LINE
  5
29B
100
AcDbEntity
  8
RUNDUNGEN
100
AcDbLine
 62
7
  6
CONTINUOUS
 10
46.8384298443
 20
55.5768407482
 11
46.4708164625
 21
55.6942479074
  0
LINE
  5
29C
100
AcDbEntity
  8
RUNDUNGEN
100
AcDbLine
 62
7
  6
CONTINUOUS
 10
117.3669586802
 20
32.6607325227
 11
117.7333743482
 21
32.5396391886
  0
LINE
  5
29D
100
AcDbEntity
  8
RUNDUNGEN
100
AcDbLine
 62
7
  6
CONTINUOUS
 10
117.7333750526
 20
32.5396389367
 11
122.8017480778
 21
30.3007950237
  0
LINE
  5
29E
100
AcDbEntity
  8
RUNDUNGEN
100
AcDbLine
 62
7
  6
CONTINUOUS
 10
36.2972496072
 20
70.2489822264
 11
32.5662994068
 21
72.3480369055
  0
LINE
  5
29F
100
AcDbEntity
  8
RUNDUNGEN
100
AcDbLine
 62
7
  6
CONTINUOUS
 10
36.2971374949
 20
70.2527052024
 11
36.6139425463
 21
70.0319579016
  0
LINE
  5
2A0
100
AcDbEntity
  8
RUNDUNGEN
100
AcDbLine
 62
7
  6
CONTINUOUS
 10
88.6989738109
 20
32.1805426413
 11
88.3911324914
 21
32.4136274886
  0
LINE
  5
2A1
100
AcDbEntity
  8
RUNDUNGEN
100
AcDbLine
 62
7
  6
CONTINUOUS
 10
91.8446406021
 20
29.2798018947
 11
88.6953983568
 21
32.1794987733
  0
LINE
  5
2A2
100
AcDbEntity
  8
RUNDUNGEN
100
AcDbLine
 62
7
  6
CONTINUOUS
 10
23.9710544976
 20
102.105496982
 11
27.6665350464
 21
97.9770285416
  0
LINE
  5
2A3
100
AcDbEntity
  8
RUNDUNGEN
100
AcDbLine
 62
7
  6
CONTINUOUS
 10
27.8949307636
 20
97.6659659396
 11
27.666535487
 21
97.977028051
  0
LINE
  5
2A4
100
AcDbEntity
  8
RUNDUNGEN
100
AcDbLine
 62
7
  6
CONTINUOUS
 10
71.4839587252
 20
37.6708158247
 11
71.7092183517
 21
37.3574755336
  0
LINE
  5
2A5
100
AcDbEntity
  8
RUNDUNGEN
100
AcDbLine
 62
7
  6
CONTINUOUS
 10
71.7092187735
 20
37.3574749157
 11
74.4936592504
 21
32.5670972251
  0
LINE
  5
2A6
100
AcDbEntity
  8
RUNDUNGEN
100
AcDbLine
 62
7
  6
CONTINUOUS
 10
27.9910051816
 20
115.7319280459
 11
26.2063754197
 21
119.6231423092
  0
LINE
  5
2A7
100
AcDbEntity
  8
RUNDUNGEN
100
AcDbLine
 62
7
  6
CONTINUOUS
 10
27.993102801
 20
115.7350058733
 11
28.1196514637
 21
115.3702042184
  0
LINE
  5
2A8
100
AcDbEntity
  8
RUNDUNGEN
100
AcDbLine
 62
7
  6
CONTINUOUS
 10
48.0088232404
 20
54.1329527691
 11
47.8967782172
 21
54.5024669594
  0
LINE
  5
2A9
100
AcDbEntity
  8
RUNDUNGEN
100
AcDbLine
 62
7
  6
CONTINUOUS
 10
48.8487098303
 20
49.9372210504
 11
48.0053170819
 21
54.1342097896
  0
LINE
  5
2AA
100
AcDbEntity
  8
0
100
AcDbLine
 62
7
  6
CONTINUOUS
 10
79.4290749781
 20
168.3286136076
 11
79.564011215
 21
168.5042073297
  0
LINE
  5
2AB
100
AcDbEntity
  8
0
100
AcDbLine
 62
7
  6
CONTINUOUS
 10
80.4722761666
 20
169.1394418045
 11
80.402750695
 21
169.0532648381
  0
LINE
  5
2AC
100
AcDbEntity
  8
0
100
AcDbLine
 62
7
  6
CONTINUOUS
 10
81.7488366705
 20
167.6826956137
 11
81.8183618873
 21
167.7688725001
  0
LINE
  5
2AD
100
AcDbEntity
  8
0
100
AcDbLine
 62
7
  6
CONTINUOUS
 10
118.1621932709
 20
171.2439770713
 11
118.0386554499
 21
171.1935468716
  0
LINE
  5
2AE
100
AcDbEntity
  8
0
100
AcDbLine
 62
7
  6
CONTINUOUS
 10
118.1294269493
 20
169.4293186228
 11
118.2529649224
 21
169.4797487956
  0
LINE
  5
2AF
100
AcDbEntity
  8
0
100
AcDbLine
 62
7
  6
CONTINUOUS
 10
78.3883357996
 20
167.8153521154
 11
78.4970562764
 21
168.049801115
  0
LINE
  5
2B0
100
AcDbEntity
  8
0
100
AcDbLine
 62
7
  6
CONTINUOUS
 10
79.3951082143
 20
168.6964798792
 11
79.3040496002
 21
168.5367776738
  0
LINE
  5
2B1
100
AcDbEntity
  8
0
100
AcDbLine
 62
7
  6
CONTINUOUS
 10
83.5798174211
 20
170.1172327487
 11
83.4778862805
 21
169.9642408922
  0
LINE
  5
2B2
100
AcDbEntity
  8
0
100
AcDbLine
 62
7
  6
CONTINUOUS
 10
83.5432760848
 20
169.7350902083
 11
83.6452072255
 21
169.8880820649
  0
LINE
  5
2B3
100
AcDbEntity
  8
0
100
AcDbLine
 62
7
  6
CONTINUOUS
 10
118.0342865641
 20
170.9515924522
 11
118.131664133
 21
171.0084986206
  0
LINE
  5
2B4
100
AcDbEntity
  8
0
100
AcDbLine
 62
7
  6
CONTINUOUS
 10
118.2573338182
 20
169.721703255
 11
118.1599562427
 21
169.6647970599
  0
LINE
  5
2B5
100
AcDbEntity
  8
0
100
AcDbLine
 62
7
  6
CONTINUOUS
 10
120.6515712807
 20
169.0289282583
 11
120.5521019037
 21
168.9757629881
  0
LINE
  5
2B6
100
AcDbEntity
  8
0
100
AcDbLine
 62
7
  6
CONTINUOUS
 10
121.6871384521
 20
169.9915634735
 11
121.7875523191
 21
170.0429220985
  0
LINE
  5
2B7
100
AcDbEntity
  8
0
100
AcDbLine
 62
7
  6
CONTINUOUS
 10
121.7404834496
 20
168.6997471444
 11
121.6400692878
 21
168.6483886102
  0
LINE
  5
2B8
100
AcDbEntity
  8
0
100
AcDbLine
 62
7
  6
CONTINUOUS
 10
120.4141769248
 20
169.9566943427
 11
120.2520250551
 21
169.8806790988
  0
LINE
  5
2B9
100
AcDbEntity
  8
0
100
AcDbLine
 62
7
  6
CONTINUOUS
 10
120.523539348
 20
168.7793950568
 11
120.6856912206
 21
168.8554103106
  0
LINE
  5
2BA
100
AcDbEntity
  8
0
100
AcDbLine
 62
7
  6
CONTINUOUS
 10
123.9435228524
 20
169.2607939216
 11
124.0456886189
 21
169.3085731961
  0
LINE
  5
2BB
100
AcDbEntity
  8
0
100
AcDbLine
 62
7
  6
CONTINUOUS
 10
123.9511998973
 20
167.9678995278
 11
123.8490341307
 21
167.9201202533
  0
LINE
  5
2BC
100
AcDbEntity
  8
0
100
AcDbLine
 62
7
  6
CONTINUOUS
 10
121.8196601228
 20
170.2387415226
 11
121.6561606646
 21
170.1656698227
  0
LINE
  5
2BD
100
AcDbEntity
  8
0
100
AcDbLine
 62
7
  6
CONTINUOUS
 10
121.6079620665
 20
168.4525689814
 11
121.771461233
 21
168.525640782
  0
LINE
  5
2BE
100
AcDbEntity
  8
0
100
AcDbLine
 62
7
  6
CONTINUOUS
 10
126.3131338699
 20
168.3546264614
 11
126.4170412156
 21
168.398489503
  0
LINE
  5
2BF
100
AcDbEntity
  8
0
100
AcDbLine
 62
7
  6
CONTINUOUS
 10
126.375589895
 20
167.1062369845
 11
126.2716825393
 21
167.0623739172
  0
LINE
  5
2C0
100
AcDbEntity
  8
0
100
AcDbLine
 62
7
  6
CONTINUOUS
 10
124.0846932656
 20
169.5031363702
 11
123.918714835
 21
169.4358859159
  0
LINE
  5
2C1
100
AcDbEntity
  8
0
100
AcDbLine
 62
7
  6
CONTINUOUS
 10
123.8100294761
 20
167.7255570564
 11
123.9760079101
 21
167.7928075205
  0
LINE
  5
2C2
100
AcDbEntity
  8
0
100
AcDbLine
 62
7
  6
CONTINUOUS
 10
127.4557093806
 20
167.9436394497
 11
127.5604012565
 21
167.9855955464
  0
LINE
  5
2C3
100
AcDbEntity
  8
0
100
AcDbLine
 62
7
  6
CONTINUOUS
 10
127.3559314708
 20
167.5595182617
 11
127.1465477191
 21
167.4756060683
  0
LINE
  5
2C4
100
AcDbEntity
  8
0
100
AcDbLine
 62
7
  6
CONTINUOUS
 10
127.2013518019
 20
167.3255011525
 11
127.3060436777
 21
167.3674572491
  0
LINE
  5
2C5
100
AcDbEntity
  8
0
100
AcDbLine
 62
7
  6
CONTINUOUS
 10
127.4654077225
 20
166.6215946363
 11
127.3607158467
 21
166.5796385396
  0
LINE
  5
2C6
100
AcDbEntity
  8
0
100
AcDbLine
 62
7
  6
CONTINUOUS
 10
127.6102890496
 20
168.177656559
 11
127.4407907531
 21
168.119849775
  0
LINE
  5
2C7
100
AcDbEntity
  8
0
100
AcDbLine
 62
7
  6
CONTINUOUS
 10
127.3108269035
 20
166.3875779742
 11
127.4803263448
 21
166.4453842983
  0
LINE
  5
2C8
100
AcDbEntity
  8
0
100
AcDbLine
 62
7
  6
CONTINUOUS
 10
78.2581525067
 20
168.2761921458
 11
78.2146448531
 21
168.1312277739
  0
LINE
  5
2C9
100
AcDbEntity
  8
0
100
AcDbLine
 62
7
  6
CONTINUOUS
 10
79.3040496002
 20
168.5367776738
 11
79.2568683578
 21
168.3929668943
  0
LINE
  5
2CA
100
AcDbEntity
  8
0
100
AcDbLine
 62
7
  6
CONTINUOUS
 10
80.402750695
 20
169.0532648381
 11
80.3521822712
 21
168.9106100287
  0
LINE
  5
2CB
100
AcDbEntity
  8
0
100
AcDbLine
 62
7
  6
CONTINUOUS
 10
80.5860169348
 20
168.8005742373
 11
80.6365853586
 21
168.9432290466
  0
LINE
  5
2CC
100
AcDbEntity
  8
0
100
AcDbLine
 62
7
  6
CONTINUOUS
 10
81.6350958907
 20
168.0215632155
 11
81.584527467
 21
167.8789084062
  0
LINE
  5
2CD
100
AcDbEntity
  8
0
100
AcDbLine
 62
7
  6
CONTINUOUS
 10
81.8183618873
 20
167.7688725001
 11
81.8689305609
 21
167.9115274042
  0
LINE
  5
2CE
100
AcDbEntity
  8
0
100
AcDbLine
 62
7
  6
CONTINUOUS
 10
85.5924770736
 20
170.7253104881
 11
85.2279605722
 21
169.7085883352
  0
LINE
  5
2CF
100
AcDbEntity
  8
0
100
AcDbLine
 62
7
  6
CONTINUOUS
 10
83.4778862805
 20
169.9642408922
 11
83.4208303163
 21
169.8240544916
  0
LINE
  5
2D0
100
AcDbEntity
  8
0
100
AcDbLine
 62
7
  6
CONTINUOUS
 10
83.4862201206
 20
169.5949038078
 11
83.5432760848
 21
169.7350902083
  0
LINE
  5
2D1
100
AcDbEntity
  8
0
100
AcDbLine
 62
7
  6
CONTINUOUS
 10
85.317145962
 20
169.3624465194
 11
85.4687786885
 21
169.7091163245
  0
LINE
  5
2D2
100
AcDbEntity
  8
0
100
AcDbLine
 62
7
  6
CONTINUOUS
 10
118.0386554499
 20
171.1935468716
 11
117.8962209661
 21
171.0667825605
  0
LINE
  5
2D3
100
AcDbEntity
  8
0
100
AcDbLine
 62
7
  6
CONTINUOUS
 10
121.6561606646
 20
170.1656698227
 11
121.5441737739
 21
170.0767338079
  0
LINE
  5
2D4
100
AcDbEntity
  8
0
100
AcDbLine
 62
7
  6
CONTINUOUS
 10
123.918714835
 20
169.4358859159
 11
123.8036561103
 21
169.35096143
  0
LINE
  5
2D5
100
AcDbEntity
  8
0
100
AcDbLine
 62
7
  6
CONTINUOUS
 10
126.3486922139
 20
168.5939935764
 11
126.1910889463
 21
168.4866715561
  0
LINE
  5
2D6
100
AcDbEntity
  8
0
100
AcDbLine
 62
7
  6
CONTINUOUS
 10
127.1215820323
 20
167.2732898643
 11
127.2013518019
 21
167.3255011525
  0
LINE
  5
2D7
100
AcDbEntity
  8
0
100
AcDbLine
 62
7
  6
CONTINUOUS
 10
120.2493581145
 20
169.6768458677
 11
120.3856143758
 21
169.7603264345
  0
LINE
  5
2D8
100
AcDbEntity
  8
0
100
AcDbLine
 62
7
  6
CONTINUOUS
 10
80.3521822712
 20
168.9106100287
 11
80.3205706422
 21
168.7114772916
  0
LINE
  5
2D9
100
AcDbEntity
  8
0
100
AcDbLine
 62
7
  6
CONTINUOUS
 10
80.5544050526
 20
168.6014414151
 11
80.5860169348
 21
168.8005742373
  0
LINE
  5
2DA
100
AcDbEntity
  8
0
100
AcDbLine
 62
7
  6
CONTINUOUS
 10
81.6667075065
 20
168.2206959922
 11
81.6350958907
 21
168.0215632155
  0
LINE
  5
2DB
100
AcDbEntity
  8
0
100
AcDbLine
 62
7
  6
CONTINUOUS
 10
78.4970562764
 20
168.049801115
 11
78.5406124007
 21
168.3227273439
  0
LINE
  5
2DC
100
AcDbEntity
  8
0
100
AcDbLine
 62
7
  6
CONTINUOUS
 10
79.3785903671
 20
168.0568836562
 11
79.4290749781
 21
168.3286136076
  0
LINE
  5
2DD
100
AcDbEntity
  8
0
100
AcDbLine
 62
7
  6
CONTINUOUS
 10
85.5597582001
 20
169.9171182618
 11
85.8636210111
 21
170.7951722519
  0
LINE
  5
2DE
100
AcDbEntity
  8
0
100
AcDbLine
 62
7
  6
CONTINUOUS
 10
118.2529649224
 20
169.4797487956
 11
118.3953994096
 21
169.60651312
  0
LINE
  5
2DF
100
AcDbEntity
  8
0
100
AcDbLine
 62
7
  6
CONTINUOUS
 10
123.4107878866
 20
169.7724967865
 11
123.1705197948
 21
169.5623256796
  0
LINE
  5
2E0
100
AcDbEntity
  8
0
100
AcDbLine
 62
7
  6
CONTINUOUS
 10
123.0712917381
 20
169.2638335545
 11
123.3115598647
 21
169.474004766
  0
LINE
  5
2E1
100
AcDbEntity
  8
0
100
AcDbLine
 62
7
  6
CONTINUOUS
 10
127.4407907531
 20
168.119849775
 11
127.3061744611
 21
168.0051715377
  0
LINE
  5
2E2
100
AcDbEntity
  8
0
100
AcDbLine
 62
7
  6
CONTINUOUS
 10
121.771461233
 20
168.525640782
 11
121.8834481278
 21
168.61457681
  0
LINE
  5
2E3
100
AcDbEntity
  8
0
100
AcDbLine
 62
7
  6
CONTINUOUS
 10
123.9760079101
 20
167.7928075205
 11
124.0910666394
 21
167.8777320194
  0
LINE
  5
2E4
100
AcDbEntity
  8
0
100
AcDbLine
 62
7
  6
CONTINUOUS
 10
128.9483653583
 20
167.6571057107
 11
128.6905704948
 21
167.4688440351
  0
LINE
  5
2E5
100
AcDbEntity
  8
0
100
AcDbLine
 62
7
  6
CONTINUOUS
 10
128.5655155306
 20
167.1802179588
 11
128.8233104378
 21
167.3684797355
  0
LINE
  5
2E6
100
AcDbEntity
  8
0
100
AcDbLine
 62
7
  6
CONTINUOUS
 10
126.3400321106
 20
166.8668696067
 11
126.4976348086
 21
166.9741918641
  0
LINE
  5
2E7
100
AcDbEntity
  8
0
100
AcDbLine
 62
7
  6
CONTINUOUS
 10
81.8689305609
 20
167.9115274042
 11
81.9005424365
 21
168.1106602462
  0
LINE
  5
2E8
100
AcDbEntity
  8
0
100
AcDbLine
 62
7
  6
CONTINUOUS
 10
121.5441737739
 20
170.0767338079
 11
121.4463702903
 21
169.9422882005
  0
LINE
  5
2E9
100
AcDbEntity
  8
0
100
AcDbLine
 62
7
  6
CONTINUOUS
 10
123.8036561103
 20
169.35096143
 11
123.7011639889
 21
169.220054818
  0
LINE
  5
2EA
100
AcDbEntity
  8
0
100
AcDbLine
 62
7
  6
CONTINUOUS
 10
118.3379992419
 20
169.8232525033
 11
118.2573338182
 21
169.721703255
  0
LINE
  5
2EB
100
AcDbEntity
  8
0
100
AcDbLine
 62
7
  6
CONTINUOUS
 10
120.7360369255
 20
169.1273393267
 11
120.6515712807
 21
169.0289282583
  0
LINE
  5
2EC
100
AcDbEntity
  8
0
100
AcDbLine
 62
7
  6
CONTINUOUS
 10
121.5146769107
 20
169.7978271145
 11
121.6871384521
 21
169.9915634735
  0
LINE
  5
2ED
100
AcDbEntity
  8
0
100
AcDbLine
 62
7
  6
CONTINUOUS
 10
121.9129449667
 20
168.8934834245
 11
121.7404834496
 21
168.6997471444
  0
LINE
  5
2EE
100
AcDbEntity
  8
0
100
AcDbLine
 62
7
  6
CONTINUOUS
 10
120.6856912206
 20
168.8554103106
 11
120.8069437458
 21
168.9841366623
  0
LINE
  5
2EF
100
AcDbEntity
  8
0
100
AcDbLine
 62
7
  6
CONTINUOUS
 10
123.7643250726
 20
169.0732708143
 11
123.9435228524
 21
169.2607939216
  0
LINE
  5
2F0
100
AcDbEntity
  8
0
100
AcDbLine
 62
7
  6
CONTINUOUS
 10
124.1303976499
 20
168.1554225571
 11
123.9511998973
 21
167.9678995278
  0
LINE
  5
2F1
100
AcDbEntity
  8
0
100
AcDbLine
 62
7
  6
CONTINUOUS
 10
126.4686867775
 20
167.1965264122
 11
126.375589895
 21
167.1062369845
  0
LINE
  5
2F2
100
AcDbEntity
  8
0
100
AcDbLine
 62
7
  6
CONTINUOUS
 10
127.360977403
 20
167.8550670912
 11
127.4557093806
 21
167.9436394497
  0
LINE
  5
2F3
100
AcDbEntity
  8
0
100
AcDbLine
 62
7
  6
CONTINUOUS
 10
127.5601397106
 20
166.7101670202
 11
127.4654077225
 21
166.6215946363
  0
LINE
  5
2F4
100
AcDbEntity
  8
0
100
AcDbLine
 62
7
  6
CONTINUOUS
 10
127.4803263448
 20
166.4453842983
 11
127.614942642
 21
166.5600625483
  0
LINE
  5
2F5
100
AcDbEntity
  8
0
100
AcDbLine
 62
7
  6
CONTINUOUS
 10
153.3199205773
 20
149.2687474444
 11
153.1647707904
 21
149.2090006856
  0
LINE
  5
2F6
100
AcDbEntity
  8
0
100
AcDbLine
 62
7
  6
CONTINUOUS
 10
80.3205706422
 20
168.7114772916
 11
80.3331998931
 21
168.5271939887
  0
LINE
  5
2F7
100
AcDbEntity
  8
RUNDUNGEN
100
AcDbLine
 62
7
  6
CONTINUOUS
 10
106.9224875815
 20
182.7623981649
 11
104.3851841518
 21
174.9533811705
  0
LINE
  5
2F8
100
AcDbEntity
  8
RUNDUNGEN
100
AcDbLine
 62
7
  6
CONTINUOUS
 10
63.2919418789
 20
48.4813859381
 11
60.7546384492
 21
40.6723689437
  0
LINE
  5
2F9
100
AcDbEntity
  8
0
100
AcDbLine
 62
7
  6
CONTINUOUS
 10
117.979781366
 20
170.8435671284
 11
118.0342865641
 21
170.9515924522
  0
LINE
  5
2FA
100
AcDbEntity
  8
0
100
AcDbLine
 62
7
  6
CONTINUOUS
 10
120.7946069542
 20
169.2332156915
 11
120.7360369255
 21
169.1273393267
  0
LINE
  5
2FB
100
AcDbEntity
  8
0
100
AcDbLine
 62
7
  6
CONTINUOUS
 10
121.4463702903
 20
169.9422882005
 11
121.3858959345
 21
169.8374877655
  0
LINE
  5
2FC
100
AcDbEntity
  8
0
100
AcDbLine
 62
7
  6
CONTINUOUS
 10
120.8069437458
 20
168.9841366623
 11
120.9131925351
 21
169.1581087989
  0
LINE
  5
2FD
100
AcDbEntity
  8
0
100
AcDbLine
 62
7
  6
CONTINUOUS
 10
123.7011639889
 20
169.220054818
 11
123.6370255166
 21
169.1174559943
  0
LINE
  5
2FE
100
AcDbEntity
  8
0
100
AcDbLine
 62
7
  6
CONTINUOUS
 10
118.3953994096
 20
169.60651312
 11
118.4855130965
 21
169.7462294691
  0
LINE
  5
2FF
100
AcDbEntity
  8
0
100
AcDbLine
 62
7
  6
CONTINUOUS
 10
126.2451429467
 20
168.2545388504
 11
126.3131338699
 21
168.3546264614
  0
LINE
  5
300
100
AcDbEntity
  8
0
100
AcDbLine
 62
7
  6
CONTINUOUS
 10
127.2911686307
 20
167.7562389699
 11
127.360977403
 21
167.8550670912
  0
LINE
  5
301
100
AcDbEntity
  8
0
100
AcDbLine
 62
7
  6
CONTINUOUS
 10
127.0517732809
 20
167.1744617939
 11
127.1215820323
 21
167.2732898643
  0
LINE
  5
302
100
AcDbEntity
  8
0
100
AcDbLine
 62
7
  6
CONTINUOUS
 10
127.6299484411
 20
166.8089950397
 11
127.5601397106
 21
166.7101670202
  0
LINE
  5
303
100
AcDbEntity
  8
0
100
AcDbLine
 62
7
  6
CONTINUOUS
 10
121.8834481278
 20
168.61457681
 11
121.9812513247
 21
168.7490225345
  0
LINE
  5
304
100
AcDbEntity
  8
0
100
AcDbLine
 62
7
  6
CONTINUOUS
 10
127.3061744611
 20
168.0051715377
 11
127.1815180255
 21
167.8438769367
  0
LINE
  5
305
100
AcDbEntity
  8
0
100
AcDbLine
 62
7
  6
CONTINUOUS
 10
127.614942642
 20
166.5600625483
 11
127.7395990462
 21
166.7213570729
  0
LINE
  5
306
100
AcDbEntity
  8
0
100
AcDbLine
 62
7
  6
CONTINUOUS
 10
124.0910666394
 20
167.8777320194
 11
124.1935587698
 21
168.0086386574
  0
LINE
  5
307
100
AcDbEntity
  8
0
100
AcDbLine
 62
7
  6
CONTINUOUS
 10
126.4976348086
 20
166.9741918641
 11
126.6050266624
 21
167.1011098471
  0
LINE
  5
308
100
AcDbEntity
  8
RUNDUNGEN
100
AcDbLine
 62
7
  6
CONTINUOUS
 10
151.2617495181
 20
165.244720293
 11
144.6190028994
 21
160.4184823717
  0
LINE
  5
309
100
AcDbEntity
  8
RUNDUNGEN
100
AcDbLine
 62
7
  6
CONTINUOUS
 10
37.035497921
 20
82.2544906931
 11
30.3927513023
 21
77.4282527718
  0
LINE
  5
30A
100
AcDbEntity
  8
0
100
AcDbLine
 62
7
  6
CONTINUOUS
 10
157.0343416866
 20
144.2012477535
 11
156.9219609604
 21
144.1564050519
  0
LINE
  5
30B
100
AcDbEntity
  8
0
100
AcDbLine
 62
7
  6
CONTINUOUS
 10
158.6334738961
 20
142.6067264847
 11
157.0327292927
 21
142.0338645658
  0
LINE
  5
30C
100
AcDbEntity
  8
0
100
AcDbLine
 62
7
  6
CONTINUOUS
 10
156.9281025643
 20
141.8355617154
 11
158.3499528548
 21
142.3225574292
  0
LINE
  5
30D
100
AcDbEntity
  8
0
100
AcDbLine
 62
7
  6
CONTINUOUS
 10
159.4659140659
 20
141.2972029639
 11
157.8524141105
 21
140.761318688
  0
LINE
  5
30E
100
AcDbEntity
  8
0
100
AcDbLine
 62
7
  6
CONTINUOUS
 10
157.7432530046
 20
140.5654753176
 11
159.1759305936
 21
141.019631678
  0
LINE
  5
30F
100
AcDbEntity
  8
0
100
AcDbLine
 62
7
  6
CONTINUOUS
 10
156.7067208022
 20
144.5283903239
 11
156.5475117464
 21
144.4804989256
  0
LINE
  5
310
100
AcDbEntity
  8
0
100
AcDbLine
 62
7
  6
CONTINUOUS
 10
155.9876511747
 20
143.9793031776
 11
155.9080464669
 21
143.9553577291
  0
LINE
  5
311
100
AcDbEntity
  8
RUNDUNGEN
100
AcDbLine
 62
7
  6
CONTINUOUS
 10
27.4340350683
 20
86.5342450164
 11
35.6449214463
 21
86.5342450164
  0
LINE
  5
312
100
AcDbEntity
  8
RUNDUNGEN
100
AcDbLine
 62
7
  6
CONTINUOUS
 10
168.6254468573
 20
86.5342450164
 11
176.8363332353
 21
86.5342450164
  0
LINE
  5
313
100
AcDbEntity
  8
RUNDUNGEN
100
AcDbLine
 62
7
  6
CONTINUOUS
 10
30.3927513023
 20
134.1166491733
 11
37.035497921
 21
129.2904112521
  0
LINE
  5
314
100
AcDbEntity
  8
RUNDUNGEN
100
AcDbLine
 62
7
  6
CONTINUOUS
 10
144.6190028994
 20
51.1264195734
 11
151.2617495181
 21
46.3001816522
  0
LINE
  5
315
100
AcDbEntity
  8
RUNDUNGEN
100
AcDbLine
 62
7
  6
CONTINUOUS
 10
60.7546384492
 20
170.8725330014
 11
63.2919418789
 21
163.0635160071
  0
LINE
  5
316
100
AcDbEntity
  8
RUNDUNGEN
100
AcDbLine
 62
7
  6
CONTINUOUS
 10
104.3851841518
 20
36.5915207746
 11
106.9224875815
 21
28.7825037802
  0
LINE
  5
317
100
AcDbEntity
  8
0
100
AcDbLine
 62
7
  6
CONTINUOUS
 10
78.2364956834
 20
168.4596336984
 11
78.2581525067
 21
168.2761921458
  0
LINE
  5
318
100
AcDbEntity
  8
0
100
AcDbLine
 62
7
  6
CONTINUOUS
 10
78.5406124007
 20
168.3227273439
 11
78.5189555774
 21
168.5061688966
  0
LINE
  5
319
100
AcDbEntity
  8
0
100
AcDbLine
 62
7
  6
CONTINUOUS
 10
81.9005424365
 20
168.1106602462
 11
81.8563266204
 21
168.5357046494
  0
LINE
  5
31A
100
AcDbEntity
  8
RUNDUNGEN
100
AcDbLine
 62
7
  6
CONTINUOUS
 10
92.1351841518
 20
61.5671430996
 11
92.1351841518
 21
76.2123890727
  0
LINE
  5
31B
100
AcDbEntity
  8
RUNDUNGEN
100
AcDbLine
 62
7
  6
CONTINUOUS
 10
92.1351841518
 20
135.3325145417
 11
92.1351841518
 21
149.9777588456
  0
LINE
  5
31C
100
AcDbEntity
  8
RUNDUNGEN
100
AcDbLine
 62
7
  6
CONTINUOUS
 10
93.1351841518
 20
182.4533811705
 11
93.1351841518
 21
176.1424224185
  0
LINE
  5
31D
100
AcDbEntity
  8
RUNDUNGEN
100
AcDbLine
 62
7
  6
CONTINUOUS
 10
93.1351841518
 20
29.0915207746
 11
93.1351841518
 21
35.4025059722
  0
LINE
  5
31E
100
AcDbEntity
  8
0
100
AcDbLine
 62
7
  6
CONTINUOUS
 10
117.8962209661
 20
171.0667825605
 11
117.8322676127
 21
170.9205902509
  0
LINE
  5
31F
100
AcDbEntity
  8
0
100
AcDbLine
 62
7
  6
CONTINUOUS
 10
121.4194844001
 20
169.580294343
 11
121.5146769107
 21
169.7978271145
  0
LINE
  5
320
100
AcDbEntity
  8
0
100
AcDbLine
 62
7
  6
CONTINUOUS
 10
122.0081371987
 20
169.1110163393
 11
121.9129449667
 21
168.8934834245
  0
LINE
  5
321
100
AcDbEntity
  8
0
100
AcDbLine
 62
7
  6
CONTINUOUS
 10
121.3858959345
 20
169.8374877655
 11
121.3022758582
 21
169.6575325654
  0
LINE
  5
322
100
AcDbEntity
  8
0
100
AcDbLine
 62
7
  6
CONTINUOUS
 10
122.0417259429
 20
168.8538227734
 11
122.1253460354
 21
169.0337780262
  0
LINE
  5
323
100
AcDbEntity
  8
0
100
AcDbLine
 62
7
  6
CONTINUOUS
 10
123.6615071791
 20
168.8592366625
 11
123.7643250726
 21
169.0732708143
  0
LINE
  5
324
100
AcDbEntity
  8
0
100
AcDbLine
 62
7
  6
CONTINUOUS
 10
124.2332155615
 20
168.3694567609
 11
124.1303976499
 21
168.1554225571
  0
LINE
  5
325
100
AcDbEntity
  8
0
100
AcDbLine
 62
7
  6
CONTINUOUS
 10
123.6370255166
 20
169.1174559943
 11
123.5471005814
 21
168.9405670539
  0
LINE
  5
326
100
AcDbEntity
  8
0
100
AcDbLine
 62
7
  6
CONTINUOUS
 10
124.2576972059
 20
168.1112373771
 11
124.3476221593
 21
168.2881263695
  0
LINE
  5
327
100
AcDbEntity
  8
0
100
AcDbLine
 62
7
  6
CONTINUOUS
 10
127.1815180255
 20
167.8438769367
 11
127.0518604628
 21
167.599604636
  0
LINE
  5
328
100
AcDbEntity
  8
0
100
AcDbLine
 62
7
  6
CONTINUOUS
 10
127.1764721352
 20
167.548328209
 11
127.2911686307
 21
167.7562389699
  0
LINE
  5
329
100
AcDbEntity
  8
0
100
AcDbLine
 62
7
  6
CONTINUOUS
 10
121.9812513247
 20
168.7490225345
 11
122.0417259429
 21
168.8538227734
  0
LINE
  5
32A
100
AcDbEntity
  8
0
100
AcDbLine
 62
7
  6
CONTINUOUS
 10
126.1910889463
 20
168.4866715561
 11
126.1088031018
 21
168.3499555181
  0
LINE
  5
32B
100
AcDbEntity
  8
0
100
AcDbLine
 62
7
  6
CONTINUOUS
 10
124.1935587698
 20
168.0086386574
 11
124.2576972059
 21
168.1112373771
  0
LINE
  5
32C
100
AcDbEntity
  8
RUNDUNGEN
100
AcDbLine
 62
7
  6
CONTINUOUS
 10
139.9259511048
 20
173.0986939178
 11
136.2165057099
 21
167.9930803413
  0
LINE
  5
32D
100
AcDbEntity
  8
RUNDUNGEN
100
AcDbLine
 62
7
  6
CONTINUOUS
 10
49.7821113
 20
49.0263425686
 11
53.4916138734
 21
54.1320348446
  0
LINE
  5
32E
100
AcDbEntity
  8
0
100
AcDbLine
 62
7
  6
CONTINUOUS
 10
153.1647707904
 20
149.2090006856
 11
152.996806405
 21
149.103339961
  0
LINE
  5
32F
100
AcDbEntity
  8
0
100
AcDbLine
 62
7
  6
CONTINUOUS
 10
152.9316720968
 20
147.712285785
 11
153.0996364018
 21
147.8179464768
  0
LINE
  5
330
100
AcDbEntity
  8
0
100
AcDbLine
 62
7
  6
CONTINUOUS
 10
153.1006981406
 20
148.9794311346
 11
153.2385326347
 21
149.0598293688
  0
LINE
  5
331
100
AcDbEntity
  8
0
100
AcDbLine
 62
7
  6
CONTINUOUS
 10
156.7890735913
 20
143.9336548438
 11
156.998522487
 21
144.0455176948
  0
LINE
  5
332
100
AcDbEntity
  8
0
100
AcDbLine
 62
7
  6
CONTINUOUS
 10
156.9606995906
 20
143.200662021
 11
156.751251
 21
143.0887986311
  0
LINE
  5
333
100
AcDbEntity
  8
0
100
AcDbLine
 62
7
  6
CONTINUOUS
 10
152.9957446662
 20
147.9418553033
 11
152.8880399867
 21
147.8867194793
  0
LINE
  5
334
100
AcDbEntity
  8
0
100
AcDbLine
 62
7
  6
CONTINUOUS
 10
156.9219609604
 20
144.1564050519
 11
156.7448685019
 21
144.066881764
  0
LINE
  5
335
100
AcDbEntity
  8
0
100
AcDbLine
 62
7
  6
CONTINUOUS
 10
156.8278121761
 20
142.9779117816
 11
157.0049050305
 21
143.0674345932
  0
LINE
  5
336
100
AcDbEntity
  8
0
100
AcDbLine
 62
7
  6
CONTINUOUS
 10
156.4585047317
 20
145.2790338231
 11
156.3150062605
 21
145.2092455189
  0
LINE
  5
337
100
AcDbEntity
  8
0
100
AcDbLine
 62
7
  6
CONTINUOUS
 10
156.6417756141
 20
144.3491169891
 11
156.7852742651
 21
144.4189050427
  0
LINE
  5
338
100
AcDbEntity
  8
0
100
AcDbLine
 62
7
  6
CONTINUOUS
 10
155.9546529358
 20
143.8229511293
 11
156.066204278
 21
143.8698183976
  0
LINE
  5
339
100
AcDbEntity
  8
0
100
AcDbLine
 62
7
  6
CONTINUOUS
 10
156.7154315406
 20
142.9330691426
 11
156.8278121761
 21
142.9779117816
  0
LINE
  5
33A
100
AcDbEntity
  8
RUNDUNGEN
100
AcDbLine
 62
7
  6
CONTINUOUS
 10
172.2819295428
 20
138.0276701949
 11
166.2799248839
 21
136.0775006643
  0
LINE
  5
33B
100
AcDbEntity
  8
RUNDUNGEN
100
AcDbLine
 62
7
  6
CONTINUOUS
 10
26.4261328621
 20
90.6362490436
 11
32.4282374735
 21
92.5864510507
  0
LINE
  5
33C
100
AcDbEntity
  8
RUNDUNGEN
100
AcDbLine
 62
7
  6
CONTINUOUS
 10
72.5751196441
 20
95.7724509726
 11
57.9298762788
 21
95.7724509726
  0
LINE
  5
33D
100
AcDbEntity
  8
RUNDUNGEN
100
AcDbLine
 62
7
  6
CONTINUOUS
 10
131.6952486881
 20
95.7724509726
 11
146.3404920248
 21
95.7724509726
  0
LINE
  5
33E
100
AcDbEntity
  8
RUNDUNGEN
100
AcDbLine
 62
7
  6
CONTINUOUS
 10
26.4261328621
 20
120.9086529016
 11
32.4282877176
 21
118.9584345692
  0
LINE
  5
33F
100
AcDbEntity
  8
RUNDUNGEN
100
AcDbLine
 62
7
  6
CONTINUOUS
 10
166.2798269965
 20
75.4674330864
 11
172.2819295428
 21
73.5172317503
  0
LINE
  5
340
100
AcDbEntity
  8
RUNDUNGEN
100
AcDbLine
 62
7
  6
CONTINUOUS
 10
49.7821113
 20
162.5185593766
 11
53.4916445324
 21
157.412824902
  0
LINE
  5
341
100
AcDbEntity
  8
RUNDUNGEN
100
AcDbLine
 62
7
  6
CONTINUOUS
 10
136.216445627
 20
43.5519043009
 11
139.9259511048
 21
38.4462080273
  0
LINE
  5
342
100
AcDbEntity
  8
0
100
AcDbLine
 62
7
  6
CONTINUOUS
 10
80.3331998931
 20
168.5271939887
 11
80.3647859388
 21
168.2864327579
  0
LINE
  5
343
100
AcDbEntity
  8
0
100
AcDbLine
 62
7
  6
CONTINUOUS
 10
80.5859913514
 20
168.3606802693
 11
80.5544050526
 21
168.6014414151
  0
LINE
  5
344
100
AcDbEntity
  8
0
100
AcDbLine
 62
7
  6
CONTINUOUS
 10
81.635121714
 20
168.461457308
 11
81.6667075065
 21
168.2206959922
  0
LINE
  5
345
100
AcDbEntity
  8
0
100
AcDbLine
 62
7
  6
CONTINUOUS
 10
98.1351841518
 20
120.3806678384
 11
98.1351841518
 21
123.8224509726
  0
LINE
  5
346
100
AcDbEntity
  8
RUNDUNGEN
100
AcDbLine
 62
7
  6
CONTINUOUS
 10
99.8851841518
 20
36.5915207746
 11
99.8851841518
 21
37.5914277054
  0
LINE
  5
347
100
AcDbEntity
  8
RUNDUNGEN
100
AcDbLine
 62
7
  6
CONTINUOUS
 10
99.8851841518
 20
173.9534407935
 11
99.8851841518
 21
174.9533811705
  0
LINE
  5
348
100
AcDbEntity
  8
02___PRT_ALL_AXES
100
AcDbLine
 62
7
  6
CENTER
 10
102.1351841518
 20
105.7724509726
 11
102.1351841518
 21
22.8271982621
  0
LINE
  5
349
100
AcDbEntity
  8
02___PRT_ALL_AXES
100
AcDbLine
 62
7
  6
CENTER
 10
102.1351841518
 20
105.7724509726
 11
102.1351841518
 21
188.717703683
  0
LINE
  5
34A
100
AcDbEntity
  8
0
100
AcDbLine
 62
7
  6
CONTINUOUS
 10
116.6691709631
 20
171.6333325932
 11
116.2579719242
 21
169.8316613273
  0
LINE
  5
34B
100
AcDbEntity
  8
0
100
AcDbLine
 62
7
  6
CONTINUOUS
 10
116.4681116542
 20
170.025681998
 11
116.8268171988
 21
171.5973526773
  0
LINE
  5
34C
100
AcDbEntity
  8
0
100
AcDbLine
 62
7
  6
CONTINUOUS
 10
117.2038493389
 20
169.6157818319
 11
117.256342833
 21
169.8457824185
  0
LINE
  5
34D
100
AcDbEntity
  8
0
100
AcDbLine
 62
7
  6
CONTINUOUS
 10
117.8322676127
 20
170.9205902509
 11
117.7944745597
 21
170.7679218473
  0
LINE
  5
34E
100
AcDbEntity
  8
0
100
AcDbLine
 62
7
  6
CONTINUOUS
 10
117.9608848528
 20
170.76723298
 11
117.979781366
 21
170.8435671284
  0
LINE
  5
34F
100
AcDbEntity
  8
0
100
AcDbLine
 62
7
  6
CONTINUOUS
 10
118.3663440117
 20
169.9377537258
 11
118.3379992419
 21
169.8232525033
  0
LINE
  5
350
100
AcDbEntity
  8
0
100
AcDbLine
 62
7
  6
CONTINUOUS
 10
118.4855130965
 20
169.7462294691
 11
118.5327543796
 21
169.93706484
  0
LINE
  5
351
100
AcDbEntity
  8
0
100
AcDbLine
 62
7
  6
CONTINUOUS
 10
120.3512712454
 20
170.7113966945
 11
120.0680903373
 21
169.7291027013
  0
LINE
  5
352
100
AcDbEntity
  8
0
100
AcDbLine
 62
7
  6
CONTINUOUS
 10
120.2520250551
 20
169.8806790988
 11
120.426290241
 21
170.4851677508
  0
LINE
  5
353
100
AcDbEntity
  8
0
100
AcDbLine
 62
7
  6
CONTINUOUS
 10
120.8163900986
 20
169.3087767598
 11
120.7946069542
 21
169.2332156915
  0
LINE
  5
354
100
AcDbEntity
  8
0
100
AcDbLine
 62
7
  6
CONTINUOUS
 10
121.1772572546
 20
170.2686750079
 11
121.2317151157
 21
170.4575776785
  0
LINE
  5
355
100
AcDbEntity
  8
0
100
AcDbLine
 62
7
  6
CONTINUOUS
 10
120.9131925351
 20
169.1581087989
 11
120.9567588239
 21
169.3092309354
  0
LINE
  5
356
100
AcDbEntity
  8
0
100
AcDbLine
 62
7
  6
CONTINUOUS
 10
121.3022758582
 20
169.6575325654
 11
121.1981212968
 21
169.3193352402
  0
LINE
  5
357
100
AcDbEntity
  8
0
100
AcDbLine
 62
7
  6
CONTINUOUS
 10
121.3384752968
 20
169.3172519789
 11
121.4194844001
 21
169.580294343
  0
LINE
  5
358
100
AcDbEntity
  8
0
100
AcDbLine
 62
7
  6
CONTINUOUS
 10
122.089146302
 20
169.3740587034
 11
122.0081371987
 21
169.1110163393
  0
LINE
  5
359
100
AcDbEntity
  8
0
100
AcDbLine
 62
7
  6
CONTINUOUS
 10
122.1253460354
 20
169.0337780262
 11
122.2295005968
 21
169.3719753514
  0
LINE
  5
35A
100
AcDbEntity
  8
0
100
AcDbLine
 62
7
  6
CONTINUOUS
 10
122.3767490748
 20
169.0761733492
 11
122.3162418169
 21
168.889120493
  0
LINE
  5
35B
100
AcDbEntity
  8
0
100
AcDbLine
 62
7
  6
CONTINUOUS
 10
122.67522717
 20
168.7729970625
 11
122.7357344279
 21
168.9600499187
  0
LINE
  5
35C
100
AcDbEntity
  8
0
100
AcDbLine
 62
7
  6
CONTINUOUS
 10
123.1705197948
 20
169.5623256796
 11
123.0712917381
 21
169.2638335545
  0
LINE
  5
35D
100
AcDbEntity
  8
0
100
AcDbLine
 62
7
  6
CONTINUOUS
 10
123.3115598647
 20
169.474004766
 11
122.8278231884
 21
168.0188559565
  0
LINE
  5
35E
100
AcDbEntity
  8
0
100
AcDbLine
 62
7
  6
CONTINUOUS
 10
122.981266761
 20
167.9678465454
 11
123.5642314592
 21
169.7214873755
  0
LINE
  5
35F
100
AcDbEntity
  8
0
100
AcDbLine
 62
7
  6
CONTINUOUS
 10
123.5471005814
 20
168.9405670539
 11
123.4310639576
 21
168.6062601509
  0
LINE
  5
360
100
AcDbEntity
  8
0
100
AcDbLine
 62
7
  6
CONTINUOUS
 10
123.5712564718
 20
168.5992201824
 11
123.6615071791
 21
168.8592366625
  0
LINE
  5
361
100
AcDbEntity
  8
0
100
AcDbLine
 62
7
  6
CONTINUOUS
 10
124.3234662689
 20
168.629473241
 11
124.2332155615
 21
168.3694567609
  0
LINE
  5
362
100
AcDbEntity
  8
0
100
AcDbLine
 62
7
  6
CONTINUOUS
 10
124.3476221593
 20
168.2881263695
 11
124.463658783
 21
168.6224332725
  0
LINE
  5
363
100
AcDbEntity
  8
0
100
AcDbLine
 62
7
  6
CONTINUOUS
 10
126.1088031018
 20
168.3499555181
 11
126.0516232165
 21
168.2034412968
  0
LINE
  5
364
100
AcDbEntity
  8
0
100
AcDbLine
 62
7
  6
CONTINUOUS
 10
126.2165530241
 20
168.1812817911
 11
126.2451429467
 21
168.2545388504
  0
LINE
  5
365
100
AcDbEntity
  8
0
100
AcDbLine
 62
7
  6
CONTINUOUS
 10
126.5115716614
 20
167.3064120012
 11
126.4686867775
 21
167.1965264122
  0
LINE
  5
366
100
AcDbEntity
  8
0
100
AcDbLine
 62
7
  6
CONTINUOUS
 10
126.6050266624
 20
167.1011098471
 11
126.6765014689
 21
167.2842524955
  0
LINE
  5
367
100
AcDbEntity
  8
0
100
AcDbLine
 62
7
  6
CONTINUOUS
 10
127.0518604628
 20
167.599604636
 11
126.9471250065
 21
167.3450771437
  0
LINE
  5
368
100
AcDbEntity
  8
0
100
AcDbLine
 62
7
  6
CONTINUOUS
 10
127.1465477191
 20
167.4756060683
 11
127.1764721352
 21
167.548328209
  0
LINE
  5
369
100
AcDbEntity
  8
0
100
AcDbLine
 62
7
  6
CONTINUOUS
 10
127.0068866567
 20
167.065378583
 11
127.0517732809
 21
167.1744617939
  0
LINE
  5
36A
100
AcDbEntity
  8
0
100
AcDbLine
 62
7
  6
CONTINUOUS
 10
127.6748350652
 20
166.9180782506
 11
127.6299484411
 21
166.8089950397
  0
LINE
  5
36B
100
AcDbEntity
  8
0
100
AcDbLine
 62
7
  6
CONTINUOUS
 10
127.7395990462
 20
166.7213570729
 11
127.8144101074
 21
166.9031624754
  0
LINE
  5
36C
100
AcDbEntity
  8
0
100
AcDbLine
 62
7
  6
CONTINUOUS
 10
127.8199812156
 20
166.3441136333
 11
127.7430465442
 21
166.1631966778
  0
LINE
  5
36D
100
AcDbEntity
  8
0
100
AcDbLine
 62
7
  6
CONTINUOUS
 10
127.8670504165
 20
166.110464212
 11
127.943985088
 21
166.2913811674
  0
LINE
  5
36E
100
AcDbEntity
  8
0
100
AcDbLine
 62
7
  6
CONTINUOUS
 10
128.6905704948
 20
167.4688440351
 11
128.5655155306
 21
167.1802179588
  0
LINE
  5
36F
100
AcDbEntity
  8
0
100
AcDbLine
 62
7
  6
CONTINUOUS
 10
128.8233104378
 20
167.3684797355
 11
128.2136676132
 21
165.9614279043
  0
LINE
  5
370
100
AcDbEntity
  8
0
100
AcDbLine
 62
7
  6
CONTINUOUS
 10
128.3620394212
 20
165.8971418516
 11
129.0967371663
 21
167.592819658
  0
LINE
  5
371
100
AcDbEntity
  8
RUNDUNGEN
100
AcDbLine
 62
7
  6
CONTINUOUS
 10
59.6513654042
 20
51.1264195734
 11
60.2390964502
 21
51.9353619592
  0
LINE
  5
372
100
AcDbEntity
  8
RUNDUNGEN
100
AcDbLine
 62
7
  6
CONTINUOUS
 10
140.3906763526
 20
162.254547434
 11
140.9784264247
 21
163.0635160071
  0
LINE
  5
373
100
AcDbEntity
  8
0
100
AcDbLine
 62
7
  6
CONTINUOUS
 10
152.996806405
 20
149.103339961
 11
152.5448593293
 21
148.7244035492
  0
LINE
  5
374
100
AcDbEntity
  8
0
100
AcDbLine
 62
7
  6
CONTINUOUS
 10
152.6487510649
 20
148.6004947227
 11
153.1006981406
 21
148.9794311346
  0
LINE
  5
375
100
AcDbEntity
  8
0
100
AcDbLine
 62
7
  6
CONTINUOUS
 10
153.8801827342
 20
147.6048843111
 11
153.1456170212
 21
147.0125106103
  0
LINE
  5
376
100
AcDbEntity
  8
0
100
AcDbLine
 62
7
  6
CONTINUOUS
 10
153.2471227233
 20
146.8866397144
 11
153.9816884363
 21
147.4790134152
  0
LINE
  5
377
100
AcDbEntity
  8
0
100
AcDbLine
 62
7
  6
CONTINUOUS
 10
155.111133731
 20
147.5150103893
 11
153.6514087073
 21
146.3817377588
  0
LINE
  5
378
100
AcDbEntity
  8
0
100
AcDbLine
 62
7
  6
CONTINUOUS
 10
153.9369179374
 20
146.3986849206
 11
155.2102950862
 21
147.3872844497
  0
LINE
  5
379
100
AcDbEntity
  8
0
100
AcDbLine
 62
7
  6
CONTINUOUS
 10
154.2463768383
 20
145.6153821213
 11
154.4327247132
 21
145.7600552227
  0
LINE
  5
37A
100
AcDbEntity
  8
0
100
AcDbLine
 62
7
  6
CONTINUOUS
 10
156.2311961243
 20
144.6515775885
 11
156.1034082378
 21
144.5598923785
  0
LINE
  5
37B
100
AcDbEntity
  8
0
100
AcDbLine
 62
7
  6
CONTINUOUS
 10
156.770614835
 20
144.5742329931
 11
156.7067208022
 21
144.5283903239
  0
LINE
  5
37C
100
AcDbEntity
  8
0
100
AcDbLine
 62
7
  6
CONTINUOUS
 10
156.1154390612
 20
144.0709883877
 11
155.9876511747
 21
143.9793031776
  0
LINE
  5
37D
100
AcDbEntity
  8
0
100
AcDbLine
 62
7
  6
CONTINUOUS
 10
156.7852742651
 20
144.4189050427
 11
156.8491682979
 21
144.4647477119
  0
LINE
  5
37E
100
AcDbEntity
  8
0
100
AcDbLine
 62
7
  6
CONTINUOUS
 10
156.066204278
 20
143.8698183976
 11
156.1939921645
 21
143.9615036077
  0
LINE
  5
37F
100
AcDbEntity
  8
0
100
AcDbLine
 62
7
  6
CONTINUOUS
 10
156.7448685019
 20
144.066881764
 11
156.4536637214
 21
143.8658211281
  0
LINE
  5
380
100
AcDbEntity
  8
0
100
AcDbLine
 62
7
  6
CONTINUOUS
 10
156.5625809842
 20
143.7772743492
 11
156.7890735913
 21
143.9336548438
  0
LINE
  5
381
100
AcDbEntity
  8
0
100
AcDbLine
 62
7
  6
CONTINUOUS
 10
157.1871921976
 20
143.3570425155
 11
156.9606995906
 21
143.200662021
  0
LINE
  5
382
100
AcDbEntity
  8
0
100
AcDbLine
 62
7
  6
CONTINUOUS
 10
157.0049050305
 20
143.0674345932
 11
157.2961098109
 21
143.268495229
  0
LINE
  5
383
100
AcDbEntity
  8
0
100
AcDbLine
 62
7
  6
CONTINUOUS
 10
158.054188146
 20
143.483729405
 11
156.5122049894
 21
142.4652050092
  0
LINE
  5
384
100
AcDbEntity
  8
0
100
AcDbLine
 62
7
  6
CONTINUOUS
 10
156.601325874
 20
142.330281483
 11
157.815227547
 21
143.1320985864
  0
LINE
  5
385
100
AcDbEntity
  8
0
100
AcDbLine
 62
7
  6
CONTINUOUS
 10
158.3499528548
 20
142.3225574292
 11
157.1360511818
 21
141.5207403258
  0
LINE
  5
386
100
AcDbEntity
  8
0
100
AcDbLine
 62
7
  6
CONTINUOUS
 10
157.2251720664
 20
141.3858167996
 11
158.767155223
 21
142.4043411954
  0
LINE
  5
387
100
AcDbEntity
  8
0
100
AcDbLine
 62
7
  6
CONTINUOUS
 10
158.9069575755
 20
142.1873005677
 11
157.3419507996
 21
141.2045199252
  0
LINE
  5
388
100
AcDbEntity
  8
0
100
AcDbLine
 62
7
  6
CONTINUOUS
 10
157.4279441058
 20
141.0675818323
 11
158.6599707563
 21
141.8412602354
  0
LINE
  5
389
100
AcDbEntity
  8
0
100
AcDbLine
 62
7
  6
CONTINUOUS
 10
159.1759305936
 20
141.019631678
 11
157.9439039431
 21
140.2459532749
  0
LINE
  5
38A
100
AcDbEntity
  8
0
100
AcDbLine
 62
7
  6
CONTINUOUS
 10
158.0298972493
 20
140.109015182
 11
159.5949040253
 21
141.0917958245
  0
LINE
  5
38B
100
AcDbEntity
  8
RUNDUNGEN
100
AcDbLine
 62
7
  6
CONTINUOUS
 10
35.6449214463
 20
86.5342450164
 11
36.5958890879
 21
86.8432331336
  0
LINE
  5
38C
100
AcDbEntity
  8
RUNDUNGEN
100
AcDbLine
 62
7
  6
CONTINUOUS
 10
166.2838704736
 20
128.9814126505
 11
167.2348703826
 21
129.2904112521
  0
LINE
  5
38D
100
AcDbEntity
  8
02___PRT_ALL_AXES
100
AcDbLine
 62
7
  6
CENTER
 10
102.1351841518
 20
105.7724509726
 11
19.1899314413
 21
105.7724509726
  0
LINE
  5
38E
100
AcDbEntity
  8
02___PRT_ALL_AXES
100
AcDbLine
 62
7
  6
CENTER
 10
102.1351841518
 20
105.7724509726
 11
185.0804368622
 21
105.7724509726
  0
LINE
  5
38F
100
AcDbEntity
  8
RUNDUNGEN
100
AcDbLine
 62
7
  6
CONTINUOUS
 10
36.5959211604
 20
124.7016583905
 11
35.6449214463
 21
125.0106569288
  0
LINE
  5
390
100
AcDbEntity
  8
RUNDUNGEN
100
AcDbLine
 62
7
  6
CONTINUOUS
 10
166.2839020197
 20
82.5634790447
 11
167.2348703826
 21
82.2544906931
  0
LINE
  5
391
100
AcDbEntity
  8
RUNDUNGEN
100
AcDbLine
 62
7
  6
CONTINUOUS
 10
140.3906963755
 20
49.2903269519
 11
140.9784264247
 21
48.4813859381
  0
LINE
  5
392
100
AcDbEntity
  8
RUNDUNGEN
100
AcDbLine
 62
7
  6
CONTINUOUS
 10
60.2391157457
 20
159.6095134279
 11
59.6513654042
 21
160.4184823717
  0
LINE
  5
393
100
AcDbEntity
  8
0
100
AcDbLine
 62
7
  6
CONTINUOUS
 10
76.5853894484
 20
168.7092726568
 11
77.6055383853
 21
166.1017266559
  0
LINE
  5
394
100
AcDbEntity
  8
0
100
AcDbLine
 62
7
  6
CONTINUOUS
 10
77.8662929854
 20
166.2037415496
 11
77.4104817518
 21
167.3688153112
  0
LINE
  5
395
100
AcDbEntity
  8
0
100
AcDbLine
 62
7
  6
CONTINUOUS
 10
77.2802499881
 20
167.7016934844
 11
76.9546705182
 21
168.5338890728
  0
LINE
  5
396
100
AcDbEntity
  8
0
100
AcDbLine
 62
7
  6
CONTINUOUS
 10
78.1713797408
 20
168.6260729405
 11
78.2364956834
 21
168.4596336984
  0
LINE
  5
397
100
AcDbEntity
  8
0
100
AcDbLine
 62
7
  6
CONTINUOUS
 10
78.5189555774
 20
168.5061688966
 11
78.4321343409
 21
168.7280878341
  0
LINE
  5
398
100
AcDbEntity
  8
0
100
AcDbLine
 62
7
  6
CONTINUOUS
 10
78.9157587367
 20
168.6495927304
 11
79.5649428434
 21
166.8571486373
  0
LINE
  5
399
100
AcDbEntity
  8
0
100
AcDbLine
 62
7
  6
CONTINUOUS
 10
79.7843304551
 20
166.9366060392
 11
79.3785903671
 21
168.0568836562
  0
LINE
  5
39A
100
AcDbEntity
  8
0
100
AcDbLine
 62
7
  6
CONTINUOUS
 10
79.2568683578
 20
168.3929668943
 11
79.1351463484
 21
168.7290501323
  0
LINE
  5
39B
100
AcDbEntity
  8
0
100
AcDbLine
 62
7
  6
CONTINUOUS
 10
79.806989448
 20
168.6555701214
 11
79.7055544402
 21
168.9356394865
  0
LINE
  5
39C
100
AcDbEntity
  8
0
100
AcDbLine
 62
7
  6
CONTINUOUS
 10
80.3647859388
 20
168.2864327579
 11
80.4406131441
 21
168.0605209674
  0
LINE
  5
39D
100
AcDbEntity
  8
0
100
AcDbLine
 62
7
  6
CONTINUOUS
 10
80.6618185567
 20
168.1347684787
 11
80.5859913514
 21
168.3606802693
  0
LINE
  5
39E
100
AcDbEntity
  8
0
100
AcDbLine
 62
7
  6
CONTINUOUS
 10
81.5592945087
 20
168.6873690985
 11
81.635121714
 21
168.461457308
  0
LINE
  5
39F
100
AcDbEntity
  8
0
100
AcDbLine
 62
7
  6
CONTINUOUS
 10
81.8563266204
 20
168.5357046494
 11
81.780499415
 21
168.76161644
  0
LINE
  5
3A0
100
AcDbEntity
  8
0
100
AcDbLine
 62
7
  6
CONTINUOUS
 10
81.6382294354
 20
170.5256643846
 11
82.4786312553
 21
167.8547610203
  0
LINE
  5
3A1
100
AcDbEntity
  8
0
100
AcDbLine
 62
7
  6
CONTINUOUS
 10
82.7012067055
 20
167.9247945587
 11
81.8608048856
 21
170.595697923
  0
LINE
  5
3A2
100
AcDbEntity
  8
0
100
AcDbLine
 62
7
  6
CONTINUOUS
 10
82.2423621047
 20
170.7138047529
 11
82.3291156179
 21
170.4288455664
  0
LINE
  5
3A3
100
AcDbEntity
  8
0
100
AcDbLine
 62
7
  6
CONTINUOUS
 10
82.5026226929
 20
169.8589270337
 11
83.057845226
 21
168.0351880803
  0
LINE
  5
3A4
100
AcDbEntity
  8
0
100
AcDbLine
 62
7
  6
CONTINUOUS
 10
83.2810634524
 20
168.1031450589
 11
82.7258409192
 21
169.9268840123
  0
LINE
  5
3A5
100
AcDbEntity
  8
0
100
AcDbLine
 62
7
  6
CONTINUOUS
 10
82.5523338442
 20
170.496802545
 11
82.465580331
 21
170.7817617316
  0
LINE
  5
3A6
100
AcDbEntity
  8
0
100
AcDbLine
 62
7
  6
CONTINUOUS
 10
83.1147166652
 20
170.0464654198
 11
83.6378351456
 21
168.2132597884
  0
LINE
  5
3A7
100
AcDbEntity
  8
0
100
AcDbLine
 62
7
  6
CONTINUOUS
 10
83.8622115413
 20
168.2772872151
 11
83.4862201206
 21
169.5949038078
  0
LINE
  5
3A8
100
AcDbEntity
  8
0
100
AcDbLine
 62
7
  6
CONTINUOUS
 10
83.4208303163
 20
169.8240544916
 11
83.3390930608
 21
170.1104928465
  0
LINE
  5
3A9
100
AcDbEntity
  8
0
100
AcDbLine
 62
7
  6
CONTINUOUS
 10
84.3593661818
 20
169.5962522117
 11
84.6699677982
 21
168.5077863029
  0
LINE
  5
3AA
100
AcDbEntity
  8
0
100
AcDbLine
 62
7
  6
CONTINUOUS
 10
84.8943447074
 20
168.5718138761
 11
84.583743091
 21
169.6602797849
  0
LINE
  5
3AB
100
AcDbEntity
  8
0
100
AcDbLine
 62
7
  6
CONTINUOUS
 10
84.5560801931
 20
171.3810794983
 11
85.2546991633
 21
168.6696349508
  0
LINE
  5
3AC
100
AcDbEntity
  8
0
100
AcDbLine
 62
7
  6
CONTINUOUS
 10
85.4806525308
 20
168.7278531094
 11
85.317145962
 21
169.3624465194
  0
LINE
  5
3AD
100
AcDbEntity
  8
0
100
AcDbLine
 62
7
  6
CONTINUOUS
 10
85.2279605722
 20
169.7085883352
 11
84.7820335606
 21
171.439297657
  0
LINE
  5
3AE
100
AcDbEntity
  8
RUNDUNGEN
100
AcDbLine
 62
7
  6
CONTINUOUS
 10
104.3851841518
 20
36.5915207746
 11
104.3851841518
 21
37.5914611517
  0
LINE
  5
3AF
100
AcDbEntity
  8
RUNDUNGEN
100
AcDbLine
 62
7
  6
CONTINUOUS
 10
104.3851841518
 20
173.9534742397
 11
104.3851841518
 21
174.9533811705
  0
LINE
  5
3B0
100
AcDbEntity
  8
0
100
AcDbLine
 62
7
  6
CONTINUOUS
 10
106.1351841518
 20
123.8224509726
 11
106.1351841518
 21
120.3806678384
  0
LINE
  5
3B1
100
AcDbEntity
  8
0
100
AcDbLine
 62
7
  6
CONTINUOUS
 10
121.1981212968
 20
169.3193352402
 11
121.1660140664
 21
169.1235155818
  0
LINE
  5
3B2
100
AcDbEntity
  8
0
100
AcDbLine
 62
7
  6
CONTINUOUS
 10
121.2947950426
 20
169.0838549308
 11
121.3384752968
 21
169.3172519789
  0
LINE
  5
3B3
100
AcDbEntity
  8
0
100
AcDbLine
 62
7
  6
CONTINUOUS
 10
122.1328268347
 20
169.6074556082
 11
122.089146302
 21
169.3740587034
  0
LINE
  5
3B4
100
AcDbEntity
  8
0
100
AcDbLine
 62
7
  6
CONTINUOUS
 10
123.4310639576
 20
168.6062601509
 11
123.3920592928
 21
168.4116969248
  0
LINE
  5
3B5
100
AcDbEntity
  8
0
100
AcDbLine
 62
7
  6
CONTINUOUS
 10
123.5193588488
 20
168.3675117448
 11
123.5712564718
 21
168.5992201824
  0
LINE
  5
3B6
100
AcDbEntity
  8
0
100
AcDbLine
 62
7
  6
CONTINUOUS
 10
124.3753638738
 20
168.8611816266
 11
124.3234662689
 21
168.629473241
  0
LINE
  5
3B7
100
AcDbEntity
  8
0
100
AcDbLine
 62
7
  6
CONTINUOUS
 10
126.9471250065
 20
167.3450771437
 11
126.8673116355
 21
167.0802944091
  0
LINE
  5
3B8
100
AcDbEntity
  8
RUNDUNGEN
100
AcDbLine
 62
7
  6
CONTINUOUS
 10
63.2919418789
 20
48.4813859381
 11
63.879691951
 21
49.2903545111
  0
LINE
  5
3B9
100
AcDbEntity
  8
RUNDUNGEN
100
AcDbLine
 62
7
  6
CONTINUOUS
 10
144.0312718534
 20
159.609539986
 11
144.6190028994
 21
160.4184823717
  0
LINE
  5
3BA
100
AcDbEntity
  8
0
100
AcDbLine
 62
7
  6
CONTINUOUS
 10
152.5448593293
 20
148.7244035492
 11
152.4115256079
 21
148.577439952
  0
LINE
  5
3BB
100
AcDbEntity
  8
0
100
AcDbLine
 62
7
  6
CONTINUOUS
 10
156.4536637214
 20
143.8658211281
 11
156.3071952674
 21
143.7319436782
  0
LINE
  5
3BC
100
AcDbEntity
  8
0
100
AcDbLine
 62
7
  6
CONTINUOUS
 10
156.383756794
 20
143.6210563211
 11
156.5625809842
 21
143.7772743492
  0
LINE
  5
3BD
100
AcDbEntity
  8
0
100
AcDbLine
 62
7
  6
CONTINUOUS
 10
157.366016693
 20
143.5132600048
 11
157.1871921976
 21
143.3570425155
  0
LINE
  5
3BE
100
AcDbEntity
  8
RUNDUNGEN
100
AcDbLine
 62
7
  6
CONTINUOUS
 10
37.035497921
 20
82.2544906931
 11
37.98649783
 21
82.5634892946
  0
LINE
  5
3BF
100
AcDbEntity
  8
RUNDUNGEN
100
AcDbLine
 62
7
  6
CONTINUOUS
 10
167.6744792157
 20
124.7016688115
 11
168.6254468573
 21
125.0106569288
  0
LINE
  5
3C0
100
AcDbEntity
  8
RUNDUNGEN
100
AcDbLine
 62
7
  6
CONTINUOUS
 10
37.9864662839
 20
128.9814229005
 11
37.035497921
 21
129.2904112521
  0
LINE
  5
3C1
100
AcDbEntity
  8
RUNDUNGEN
100
AcDbLine
 62
7
  6
CONTINUOUS
 10
167.6744471432
 20
86.8432435546
 11
168.6254468573
 21
86.5342450164
  0
LINE
  5
3C2
100
AcDbEntity
  8
RUNDUNGEN
100
AcDbLine
 62
7
  6
CONTINUOUS
 10
144.0312525578
 20
51.9353885172
 11
144.6190028994
 21
51.1264195734
  0
LINE
  5
3C3
100
AcDbEntity
  8
RUNDUNGEN
100
AcDbLine
 62
7
  6
CONTINUOUS
 10
63.8796719281
 20
162.2545749932
 11
63.2919418789
 21
163.0635160071
  0
LINE
  5
3C4
100
AcDbEntity
  8
RUNDUNGEN
100
AcDbLine
 62
7
  6
CONTINUOUS
 10
111.1351841518
 20
29.0915207746
 11
111.1351841518
 21
35.4024032655
  0
LINE
  5
3C5
100
AcDbEntity
  8
RUNDUNGEN
100
AcDbLine
 62
7
  6
CONTINUOUS
 10
111.1351841518
 20
176.142395954
 11
111.1351841518
 21
182.4533811705
  0
LINE
  5
3C6
100
AcDbEntity
  8
RUNDUNGEN
100
AcDbLine
 62
7
  6
CONTINUOUS
 10
112.1351841518
 20
149.9777588456
 11
112.1351841518
 21
135.3325128725
  0
LINE
  5
3C7
100
AcDbEntity
  8
RUNDUNGEN
100
AcDbLine
 62
7
  6
CONTINUOUS
 10
112.1351841518
 20
76.2123874035
 11
112.1351841518
 21
61.5671430996
  0
LINE
  5
3C8
100
AcDbEntity
  8
0
100
AcDbLine
 62
7
  6
CONTINUOUS
 10
117.6912542835
 20
169.9023421948
 11
117.6934386516
 21
170.023319423
  0
LINE
  5
3C9
100
AcDbEntity
  8
0
100
AcDbLine
 62
7
  6
CONTINUOUS
 10
117.9587004847
 20
170.6462557518
 11
117.9608848528
 21
170.76723298
  0
LINE
  5
3CA
100
AcDbEntity
  8
0
100
AcDbLine
 62
7
  6
CONTINUOUS
 10
118.643238496
 20
170.719834464
 11
118.645422864
 21
170.8408116922
  0
LINE
  5
3CB
100
AcDbEntity
  8
0
100
AcDbLine
 62
7
  6
CONTINUOUS
 10
120.8231695185
 20
169.4295836526
 11
120.8163900986
 21
169.3087767598
  0
LINE
  5
3CC
100
AcDbEntity
  8
0
100
AcDbLine
 62
7
  6
CONTINUOUS
 10
117.5364766152
 20
170.0621753644
 11
117.5248439157
 21
169.9030310805
  0
LINE
  5
3CD
100
AcDbEntity
  8
0
100
AcDbLine
 62
7
  6
CONTINUOUS
 10
117.7944745597
 20
170.7679218473
 11
117.7828418602
 21
170.6087775634
  0
LINE
  5
3CE
100
AcDbEntity
  8
0
100
AcDbLine
 62
7
  6
CONTINUOUS
 10
121.1660140664
 20
169.1235155818
 11
121.1570520155
 21
169.002851028
  0
LINE
  5
3CF
100
AcDbEntity
  8
0
100
AcDbLine
 62
7
  6
CONTINUOUS
 10
122.261607811
 20
169.5677949571
 11
122.2705695995
 21
169.688459707
  0
LINE
  5
3D0
100
AcDbEntity
  8
0
100
AcDbLine
 62
7
  6
CONTINUOUS
 10
123.3920592928
 20
168.4116969248
 11
123.3788399798
 21
168.2914243758
  0
LINE
  5
3D1
100
AcDbEntity
  8
0
100
AcDbLine
 62
7
  6
CONTINUOUS
 10
124.5026634297
 20
168.8169964466
 11
124.5158827789
 21
168.9372690996
  0
LINE
  5
3D2
100
AcDbEntity
  8
0
100
AcDbLine
 62
7
  6
CONTINUOUS
 10
125.83755747
 20
167.3584214945
 11
125.8553363547
 21
167.4781051641
  0
LINE
  5
3D3
100
AcDbEntity
  8
0
100
AcDbLine
 62
7
  6
CONTINUOUS
 10
126.1987741394
 20
168.0615981214
 11
126.2165530241
 21
168.1812817911
  0
LINE
  5
3D4
100
AcDbEntity
  8
0
100
AcDbLine
 62
7
  6
CONTINUOUS
 10
126.8870833321
 20
168.0462172604
 11
126.9048627914
 21
168.1659007058
  0
LINE
  5
3D5
100
AcDbEntity
  8
0
100
AcDbLine
 62
7
  6
CONTINUOUS
 10
122.2295005968
 20
169.3719753514
 11
122.261607811
 21
169.5677949571
  0
LINE
  5
3D6
100
AcDbEntity
  8
0
100
AcDbLine
 62
7
  6
CONTINUOUS
 10
126.9869221389
 20
166.9460401805
 11
127.0068866567
 21
167.065378583
  0
LINE
  5
3D7
100
AcDbEntity
  8
0
100
AcDbLine
 62
7
  6
CONTINUOUS
 10
127.694799604
 20
167.037416704
 11
127.6748350652
 21
166.9180782506
  0
LINE
  5
3D8
100
AcDbEntity
  8
0
100
AcDbLine
 62
7
  6
CONTINUOUS
 10
128.0338845408
 20
167.5781726955
 11
128.0538490587
 21
167.697511098
  0
LINE
  5
3D9
100
AcDbEntity
  8
0
100
AcDbLine
 62
7
  6
CONTINUOUS
 10
124.463658783
 20
168.6224332725
 11
124.5026634297
 21
168.8169964466
  0
LINE
  5
3DA
100
AcDbEntity
  8
0
100
AcDbLine
 62
7
  6
CONTINUOUS
 10
125.7047015085
 20
167.5368931996
 11
125.6726276625
 21
167.3805810002
  0
LINE
  5
3DB
100
AcDbEntity
  8
0
100
AcDbLine
 62
7
  6
CONTINUOUS
 10
126.0516232165
 20
168.2034412968
 11
126.0195493705
 21
168.0471290975
  0
LINE
  5
3DC
100
AcDbEntity
  8
RUNDUNGEN
100
AcDbLine
 62
7
  6
CONTINUOUS
 10
64.3444171987
 20
38.4462080273
 11
68.0538626054
 21
43.55182162
  0
LINE
  5
3DD
100
AcDbEntity
  8
RUNDUNGEN
100
AcDbLine
 62
7
  6
CONTINUOUS
 10
150.7787544284
 20
157.4128670982
 11
154.4882570036
 21
162.5185593766
  0
LINE
  5
3DE
100
AcDbEntity
  8
0
100
AcDbLine
 62
7
  6
CONTINUOUS
 10
153.7618043781
 20
148.6193299133
 11
153.6887301598
 21
148.5228911159
  0
LINE
  5
3DF
100
AcDbEntity
  8
0
100
AcDbLine
 62
7
  6
CONTINUOUS
 10
152.5455471411
 20
148.4787935562
 11
152.6487510649
 21
148.6004947227
  0
LINE
  5
3E0
100
AcDbEntity
  8
0
100
AcDbLine
 62
7
  6
CONTINUOUS
 10
155.500621251
 20
144.6581097658
 11
155.4204908984
 21
144.5674489363
  0
LINE
  5
3E1
100
AcDbEntity
  8
0
100
AcDbLine
 62
7
  6
CONTINUOUS
 10
157.815227547
 20
143.1320985864
 11
156.8092744915
 21
142.0154600934
  0
LINE
  5
3E2
100
AcDbEntity
  8
0
100
AcDbLine
 62
7
  6
CONTINUOUS
 10
153.7926218954
 20
148.3989822894
 11
153.9259557182
 21
148.5459459371
  0
LINE
  5
3E3
100
AcDbEntity
  8
0
100
AcDbLine
 62
7
  6
CONTINUOUS
 10
156.3071952674
 20
143.7319436782
 11
156.2254393827
 21
143.6427458933
  0
LINE
  5
3E4
100
AcDbEntity
  8
0
100
AcDbLine
 62
7
  6
CONTINUOUS
 10
157.4425778691
 20
143.4023731553
 11
157.5243338445
 21
143.4915710027
  0
LINE
  5
3E5
100
AcDbEntity
  8
0
100
AcDbLine
 62
7
  6
CONTINUOUS
 10
157.0327292927
 20
142.0338645658
 11
158.1878694729
 21
143.2813441157
  0
LINE
  5
3E6
100
AcDbEntity
  8
0
100
AcDbLine
 62
7
  6
CONTINUOUS
 10
158.6599707563
 20
141.8412602354
 11
157.6285953723
 21
140.7480592673
  0
LINE
  5
3E7
100
AcDbEntity
  8
0
100
AcDbLine
 62
7
  6
CONTINUOUS
 10
157.8524141105
 20
140.761318688
 11
159.0359475348
 21
141.9818934284
  0
LINE
  5
3E8
100
AcDbEntity
  8
0
100
AcDbLine
 62
7
  6
CONTINUOUS
 10
156.1939921645
 20
143.9615036077
 11
156.3060696908
 21
144.0750855051
  0
LINE
  5
3E9
100
AcDbEntity
  8
0
100
AcDbLine
 62
7
  6
CONTINUOUS
 10
156.8491682979
 20
144.4647477119
 11
156.9612454199
 21
144.5783300784
  0
LINE
  5
3EA
100
AcDbEntity
  8
0
100
AcDbLine
 62
7
  6
CONTINUOUS
 10
157.2961098109
 20
143.268495229
 11
157.4425778691
 21
143.4023731553
  0
LINE
  5
3EB
100
AcDbEntity
  8
RUNDUNGEN
100
AcDbLine
 62
7
  6
CONTINUOUS
 10
31.9884387608
 20
73.5172317503
 11
37.9904434415
 21
75.4674012879
  0
LINE
  5
3EC
100
AcDbEntity
  8
RUNDUNGEN
100
AcDbLine
 62
7
  6
CONTINUOUS
 10
171.8421307948
 20
118.958450883
 11
177.8442354415
 21
120.9086529016
  0
LINE
  5
3ED
100
AcDbEntity
  8
RUNDUNGEN
100
AcDbLine
 62
7
  6
CONTINUOUS
 10
72.5751196155
 20
115.7724509726
 11
57.9298762788
 21
115.7724509726
  0
LINE
  5
3EE
100
AcDbEntity
  8
RUNDUNGEN
100
AcDbLine
 62
7
  6
CONTINUOUS
 10
131.6952486595
 20
115.7724509726
 11
146.3404920248
 21
115.7724509726
  0
LINE
  5
3EF
100
AcDbEntity
  8
RUNDUNGEN
100
AcDbLine
 62
7
  6
CONTINUOUS
 10
177.8442354415
 20
90.6362490436
 11
171.8422282674
 21
92.5864193914
  0
LINE
  5
3F0
100
AcDbEntity
  8
RUNDUNGEN
100
AcDbLine
 62
7
  6
CONTINUOUS
 10
37.9905412919
 20
136.0774688637
 11
31.9884387608
 21
138.0276701949
  0
LINE
  5
3F1
100
AcDbEntity
  8
RUNDUNGEN
100
AcDbLine
 62
7
  6
CONTINUOUS
 10
154.4882570036
 20
49.0263425686
 11
150.7788150845
 21
54.131951361
  0
LINE
  5
3F2
100
AcDbEntity
  8
RUNDUNGEN
100
AcDbLine
 62
7
  6
CONTINUOUS
 10
68.0538614234
 20
167.993081952
 11
64.3444171987
 21
173.0986939178
  0
LINE
  5
3F3
100
AcDbEntity
  8
0
100
AcDbLine
 62
7
  6
CONTINUOUS
 10
80.4406131441
 20
168.0605209674
 11
80.6617929866
 21
167.6948744713
  0
LINE
  5
3F4
100
AcDbEntity
  8
0
100
AcDbLine
 62
7
  6
CONTINUOUS
 10
80.7818866155
 20
167.9237062016
 11
80.6618185567
 21
168.1347684787
  0
LINE
  5
3F5
100
AcDbEntity
  8
0
100
AcDbLine
 62
7
  6
CONTINUOUS
 10
81.4392259436
 20
168.8984312058
 11
81.5592945087
 21
168.6873690985
  0
LINE
  5
3F6
100
AcDbEntity
  8
0
100
AcDbLine
 62
7
  6
CONTINUOUS
 10
81.780499415
 20
168.76161644
 11
81.6604313562
 21
168.9726787172
  0
LINE
  5
3F7
100
AcDbEntity
  8
0
100
AcDbLine
 62
7
  6
CONTINUOUS
 10
84.23275375
 20
169.8698851105
 11
84.3593661818
 21
169.5962522117
  0
LINE
  5
3F8
100
AcDbEntity
  8
0
100
AcDbLine
 62
7
  6
CONTINUOUS
 10
84.583743091
 20
169.6602797849
 11
84.4571306592
 21
169.9339126837
  0
LINE
  5
3F9
100
AcDbEntity
  8
0
100
AcDbLine
 62
7
  6
CONTINUOUS
 10
118.5327543796
 20
169.93706484
 11
118.5182267654
 21
170.1026851645
  0
LINE
  5
3FA
100
AcDbEntity
  8
0
100
AcDbLine
 62
7
  6
CONTINUOUS
 10
118.4790124961
 20
170.841500578
 11
118.4862763847
 21
170.7586904239
  0
LINE
  5
3FB
100
AcDbEntity
  8
0
100
AcDbLine
 62
7
  6
CONTINUOUS
 10
119.9700661721
 20
169.3890778412
 11
119.9782904997
 21
169.2230252032
  0
LINE
  5
3FC
100
AcDbEntity
  8
0
100
AcDbLine
 62
7
  6
CONTINUOUS
 10
120.1336629648
 20
169.1782336071
 11
120.1254386372
 21
169.3442862451
  0
LINE
  5
3FD
100
AcDbEntity
  8
0
100
AcDbLine
 62
7
  6
CONTINUOUS
 10
121.1570520155
 20
169.002851028
 11
121.1622736586
 21
168.8366767645
  0
LINE
  5
3FE
100
AcDbEntity
  8
0
100
AcDbLine
 62
7
  6
CONTINUOUS
 10
122.2705695995
 20
169.688459707
 11
122.2653482431
 21
169.8546338534
  0
LINE
  5
3FF
100
AcDbEntity
  8
0
100
AcDbLine
 62
7
  6
CONTINUOUS
 10
123.3788399798
 20
168.2914243758
 11
123.3781884265
 21
168.1251692702
  0
LINE
  5
400
100
AcDbEntity
  8
0
100
AcDbLine
 62
7
  6
CONTINUOUS
 10
124.5158827789
 20
168.9372690996
 11
124.5165343231
 21
169.1035241792
  0
LINE
  5
401
100
AcDbEntity
  8
0
100
AcDbLine
 62
7
  6
CONTINUOUS
 10
120.9567588239
 20
169.3092309354
 11
120.9594257798
 21
169.5130642195
  0
LINE
  5
402
100
AcDbEntity
  8
0
100
AcDbLine
 62
7
  6
CONTINUOUS
 10
126.6765014689
 20
167.2842524955
 11
126.6834693357
 21
167.4503628267
  0
LINE
  5
403
100
AcDbEntity
  8
0
100
AcDbLine
 62
7
  6
CONTINUOUS
 10
126.7399329839
 20
168.1880602116
 11
126.7364484859
 21
168.1050052958
  0
LINE
  5
404
100
AcDbEntity
  8
0
100
AcDbLine
 62
7
  6
CONTINUOUS
 10
126.8673116355
 20
167.0802944091
 11
126.8423459382
 21
166.8779781795
  0
LINE
  5
405
100
AcDbEntity
  8
0
100
AcDbLine
 62
7
  6
CONTINUOUS
 10
127.8144101074
 20
166.9031624754
 11
127.8393757942
 21
167.1054786795
  0
LINE
  5
406
100
AcDbEntity
  8
RUNDUNGEN
100
AcDbLine
 62
7
  6
CONTINUOUS
 10
97.3478807221
 20
28.7825037802
 11
99.8851841518
 21
36.5915207746
  0
LINE
  5
407
100
AcDbEntity
  8
RUNDUNGEN
100
AcDbLine
 62
7
  6
CONTINUOUS
 10
140.9784264247
 20
163.0635160071
 11
143.5157298544
 21
170.8725330014
  0
LINE
  5
408
100
AcDbEntity
  8
0
100
AcDbLine
 62
7
  6
CONTINUOUS
 10
152.4115256079
 20
148.577439952
 11
152.3256369559
 21
148.4350872924
  0
LINE
  5
409
100
AcDbEntity
  8
0
100
AcDbLine
 62
7
  6
CONTINUOUS
 10
155.5309911755
 20
144.4808852243
 11
155.5791743543
 21
144.5486249858
  0
LINE
  5
40A
100
AcDbEntity
  8
0
100
AcDbLine
 62
7
  6
CONTINUOUS
 10
156.211805823
 20
144.2064674415
 11
156.1154390612
 21
144.0709883877
  0
LINE
  5
40B
100
AcDbEntity
  8
0
100
AcDbLine
 62
7
  6
CONTINUOUS
 10
156.2254393827
 20
143.6427458933
 11
156.1266394135
 21
143.5090309568
  0
LINE
  5
40C
100
AcDbEntity
  8
0
100
AcDbLine
 62
7
  6
CONTINUOUS
 10
157.5243338445
 20
143.4915710027
 11
157.623133791
 21
143.6252859236
  0
LINE
  5
40D
100
AcDbEntity
  8
RUNDUNGEN
100
AcDbLine
 62
7
  6
CONTINUOUS
 10
53.0086187855
 20
46.3001816522
 11
59.6513654042
 21
51.1264195734
  0
LINE
  5
40E
100
AcDbEntity
  8
RUNDUNGEN
100
AcDbLine
 62
7
  6
CONTINUOUS
 10
167.2348703826
 20
129.2904112521
 11
173.8776170013
 21
134.1166491733
  0
LINE
  5
40F
100
AcDbEntity
  8
0
100
AcDbLine
 62
7
  6
CONTINUOUS
 10
156.5553827707
 20
142.8880634826
 11
156.7154315406
 21
142.9330691426
  0
LINE
  5
410
100
AcDbEntity
  8
0
100
AcDbLine
 62
7
  6
CONTINUOUS
 10
157.1943904338
 20
144.2462533978
 11
157.0343416866
 21
144.2012477535
  0
LINE
  5
411
100
AcDbEntity
  8
0
100
AcDbLine
 62
7
  6
CONTINUOUS
 10
98.1351841518
 20
123.8224509726
 11
106.1351841518
 21
123.8224509726
  0
LINE
  5
412
100
AcDbEntity
  8
RUNDUNGEN
100
AcDbLine
 62
7
  6
CONTINUOUS
 10
176.8363332353
 20
125.0106569288
 11
168.6254468573
 21
125.0106569288
  0
LINE
  5
413
100
AcDbEntity
  8
RUNDUNGEN
100
AcDbLine
 62
7
  6
CONTINUOUS
 10
35.6449214463
 20
125.0106569288
 11
27.4340350683
 21
125.0106569288
  0
LINE
  5
414
100
AcDbEntity
  8
RUNDUNGEN
100
AcDbLine
 62
7
  6
CONTINUOUS
 10
173.8776170013
 20
77.4282527718
 11
167.2348703826
 21
82.2544906931
  0
LINE
  5
415
100
AcDbEntity
  8
RUNDUNGEN
100
AcDbLine
 62
7
  6
CONTINUOUS
 10
59.6513654042
 20
160.4184823717
 11
53.0086187855
 21
165.244720293
  0
LINE
  5
416
100
AcDbEntity
  8
0
100
AcDbLine
 62
7
  6
CONTINUOUS
 10
78.0628048004
 20
168.775509561
 11
78.1713797408
 21
168.6260729405
  0
LINE
  5
417
100
AcDbEntity
  8
0
100
AcDbLine
 62
7
  6
CONTINUOUS
 10
78.4321343409
 20
168.7280878341
 11
78.3235594005
 21
168.8775244547
  0
LINE
  5
418
100
AcDbEntity
  8
0
100
AcDbLine
 62
7
  6
CONTINUOUS
 10
81.6604313562
 20
168.9726787172
 11
81.5593200921
 21
169.1272630665
  0
LINE
  5
419
100
AcDbEntity
  8
0
100
AcDbLine
 62
7
  6
CONTINUOUS
 10
84.4571306592
 20
169.9339126837
 11
84.363212616
 21
170.092970094
  0
LINE
  5
41A
100
AcDbEntity
  8
RUNDUNGEN
100
AcDbLine
 62
7
  6
CONTINUOUS
 10
143.5157298544
 20
40.6723689437
 11
140.9784264247
 21
48.4813859381
  0
LINE
  5
41B
100
AcDbEntity
  8
RUNDUNGEN
100
AcDbLine
 62
7
  6
CONTINUOUS
 10
99.8851841518
 20
174.9533811705
 11
97.3478807221
 21
182.7623981649
  0
LINE
  5
41C
100
AcDbEntity
  8
0
100
AcDbLine
 62
7
  6
CONTINUOUS
 10
126.9048627914
 20
168.1659007058
 11
126.8867252136
 21
168.3418088422
  0
LINE
  5
41D
100
AcDbEntity
  8
0
100
AcDbLine
 62
7
  6
CONTINUOUS
 10
123.543841085
 20
168.1092921847
 11
123.5193588488
 21
168.3675117448
  0
LINE
  5
41E
100
AcDbEntity
  8
0
100
AcDbLine
 62
7
  6
CONTINUOUS
 10
124.3508816646
 20
169.1194012647
 11
124.3753638738
 21
168.8611816266
  0
LINE
  5
41F
100
AcDbEntity
  8
0
100
AcDbLine
 62
7
  6
CONTINUOUS
 10
126.8423459382
 20
166.8779781795
 11
126.8572645605
 21
166.7017678416
  0
LINE
  5
420
100
AcDbEntity
  8
0
100
AcDbLine
 62
7
  6
CONTINUOUS
 10
128.0538490587
 20
167.697511098
 11
128.0389304311
 21
167.8737214232
  0
LINE
  5
421
100
AcDbEntity
  8
0
100
AcDbLine
 62
7
  6
CONTINUOUS
 10
126.5042445669
 20
167.4358938028
 11
126.5115716614
 21
167.3064120012
  0
LINE
  5
422
100
AcDbEntity
  8
0
100
AcDbLine
 62
7
  6
CONTINUOUS
 10
126.9918808577
 20
166.8164460916
 11
126.9869221389
 21
166.9460401805
  0
LINE
  5
423
100
AcDbEntity
  8
0
100
AcDbLine
 62
7
  6
CONTINUOUS
 10
127.9043141392
 20
167.7590431859
 11
127.9092717276
 21
167.6294495919
  0
LINE
  5
424
100
AcDbEntity
  8
0
100
AcDbLine
 62
7
  6
CONTINUOUS
 10
125.6726276625
 20
167.3805810002
 11
125.676470264
 21
167.1680442957
  0
LINE
  5
425
100
AcDbEntity
  8
0
100
AcDbLine
 62
7
  6
CONTINUOUS
 10
152.4897883171
 20
148.3617033338
 11
152.5455471411
 21
148.4787935562
  0
LINE
  5
426
100
AcDbEntity
  8
0
100
AcDbLine
 62
7
  6
CONTINUOUS
 10
154.3134596899
 20
148.5082314797
 11
153.8801827342
 21
147.6048843111
  0
LINE
  5
427
100
AcDbEntity
  8
0
100
AcDbLine
 62
7
  6
CONTINUOUS
 10
154.0533631898
 20
147.6406778018
 11
154.4149653436
 21
148.3823606438
  0
LINE
  5
428
100
AcDbEntity
  8
0
100
AcDbLine
 62
7
  6
CONTINUOUS
 10
155.4204908984
 20
144.5674489363
 11
155.3560713328
 21
144.4548909665
  0
LINE
  5
429
100
AcDbEntity
  8
0
100
AcDbLine
 62
7
  6
CONTINUOUS
 10
156.3060696908
 20
144.0750855051
 11
156.3704890767
 21
144.1876437255
  0
LINE
  5
42A
100
AcDbEntity
  8
0
100
AcDbLine
 62
7
  6
CONTINUOUS
 10
156.8350345804
 20
144.6867907124
 11
156.770614835
 21
144.5742329931
  0
LINE
  5
42B
100
AcDbEntity
  8
0
100
AcDbLine
 62
7
  6
CONTINUOUS
 10
156.2508690517
 20
143.3983066049
 11
156.383756794
 21
143.6210563211
  0
LINE
  5
42C
100
AcDbEntity
  8
0
100
AcDbLine
 62
7
  6
CONTINUOUS
 10
157.4989041528
 20
143.7360102755
 11
157.366016693
 21
143.5132600048
  0
LINE
  5
42D
100
AcDbEntity
  8
0
100
AcDbLine
 62
7
  6
CONTINUOUS
 10
153.2385326347
 20
149.0598293688
 11
153.3635527085
 21
149.0943137678
  0
LINE
  5
42E
100
AcDbEntity
  8
0
100
AcDbLine
 62
7
  6
CONTINUOUS
 10
154.8548234506
 20
147.8369200148
 11
154.0533631898
 21
147.6406778018
  0
LINE
  5
42F
100
AcDbEntity
  8
0
100
AcDbLine
 62
7
  6
CONTINUOUS
 10
153.9816884363
 20
147.4790134152
 11
154.9563291527
 21
147.7110491189
  0
LINE
  5
430
100
AcDbEntity
  8
0
100
AcDbLine
 62
7
  6
CONTINUOUS
 10
155.827390492
 20
143.7979815348
 11
155.9546529358
 21
143.8229511293
  0
LINE
  5
431
100
AcDbEntity
  8
0
100
AcDbLine
 62
7
  6
CONTINUOUS
 10
156.5145135299
 20
144.3241468934
 11
156.6417756141
 21
144.3491169891
  0
LINE
  5
432
100
AcDbEntity
  8
0
100
AcDbLine
 62
7
  6
CONTINUOUS
 10
156.3935595436
 20
145.0997604883
 11
156.5208218077
 21
145.1247303335
  0
LINE
  5
433
100
AcDbEntity
  8
0
100
AcDbLine
 62
7
  6
CONTINUOUS
 10
156.751251
 20
143.0887986311
 11
156.4958653059
 21
143.0434679758
  0
LINE
  5
434
100
AcDbEntity
  8
0
100
AcDbLine
 62
7
  6
CONTINUOUS
 10
156.998522487
 20
144.0455176948
 11
157.2539078986
 21
144.0908489047
  0
LINE
  5
435
100
AcDbEntity
  8
0
100
AcDbLine
 62
7
  6
CONTINUOUS
 10
80.6617929866
 20
167.6948744713
 11
80.8071453904
 21
167.5551396215
  0
LINE
  5
436
100
AcDbEntity
  8
0
100
AcDbLine
 62
7
  6
CONTINUOUS
 10
80.9272392792
 20
167.783971417
 11
80.7818866155
 21
167.9237062016
  0
LINE
  5
437
100
AcDbEntity
  8
0
100
AcDbLine
 62
7
  6
CONTINUOUS
 10
81.2938735464
 20
169.0381660358
 11
81.4392259436
 21
168.8984312058
  0
LINE
  5
438
100
AcDbEntity
  8
0
100
AcDbLine
 62
7
  6
CONTINUOUS
 10
81.5593200921
 20
169.1272630665
 11
81.4139674417
 21
169.2669978115
  0
LINE
  5
439
100
AcDbEntity
  8
0
100
AcDbLine
 62
7
  6
CONTINUOUS
 10
118.645422864
 20
170.8408116922
 11
118.6047348349
 21
171.0129079689
  0
LINE
  5
43A
100
AcDbEntity
  8
0
100
AcDbLine
 62
7
  6
CONTINUOUS
 10
119.9782904997
 20
169.2230252032
 11
120.0124104396
 21
169.0495072554
  0
LINE
  5
43B
100
AcDbEntity
  8
0
100
AcDbLine
 62
7
  6
CONTINUOUS
 10
120.9594257798
 20
169.5130642195
 11
120.9253058361
 21
169.686582154
  0
LINE
  5
43C
100
AcDbEntity
  8
0
100
AcDbLine
 62
7
  6
CONTINUOUS
 10
118.3423681409
 20
170.0652069761
 11
118.3663440117
 21
169.9377537258
  0
LINE
  5
43D
100
AcDbEntity
  8
0
100
AcDbLine
 62
7
  6
CONTINUOUS
 10
120.8040533146
 20
169.5578558155
 11
120.8231695185
 21
169.4295836526
  0
LINE
  5
43E
100
AcDbEntity
  8
0
100
AcDbLine
 62
7
  6
CONTINUOUS
 10
117.5248439157
 20
169.9030310805
 11
117.5560836783
 21
169.6927676896
  0
LINE
  5
43F
100
AcDbEntity
  8
0
100
AcDbLine
 62
7
  6
CONTINUOUS
 10
121.328383795
 20
168.8266613912
 11
121.2947950426
 21
169.0838549308
  0
LINE
  5
440
100
AcDbEntity
  8
0
100
AcDbLine
 62
7
  6
CONTINUOUS
 10
122.0992381067
 20
169.8646492267
 11
122.1328268347
 21
169.6074556082
  0
LINE
  5
441
100
AcDbEntity
  8
0
100
AcDbLine
 62
7
  6
CONTINUOUS
 10
152.3256369559
 20
148.4350872924
 11
152.2743788894
 21
148.2514317037
  0
LINE
  5
442
100
AcDbEntity
  8
0
100
AcDbLine
 62
7
  6
CONTINUOUS
 10
153.9259557182
 20
148.5459459371
 11
153.977213737
 21
148.7296015612
  0
LINE
  5
443
100
AcDbEntity
  8
0
100
AcDbLine
 62
7
  6
CONTINUOUS
 10
155.4985185591
 20
144.3912485409
 11
155.5309911755
 21
144.4808852243
  0
LINE
  5
444
100
AcDbEntity
  8
0
100
AcDbLine
 62
7
  6
CONTINUOUS
 10
156.9612454199
 20
144.5783300784
 11
157.026190608
 21
144.7576034131
  0
LINE
  5
445
100
AcDbEntity
  8
0
100
AcDbLine
 62
7
  6
CONTINUOUS
 10
156.1266394135
 20
143.5090309568
 11
156.0755079178
 21
143.3754785258
  0
LINE
  5
446
100
AcDbEntity
  8
0
100
AcDbLine
 62
7
  6
CONTINUOUS
 10
157.623133791
 20
143.6252859236
 11
157.6742652754
 21
143.7588383468
  0
LINE
  5
447
100
AcDbEntity
  8
0
100
AcDbLine
 62
7
  6
CONTINUOUS
 10
152.7418916872
 20
147.6938419995
 11
152.9316720968
 21
147.712285785
  0
LINE
  5
448
100
AcDbEntity
  8
0
100
AcDbLine
 62
7
  6
CONTINUOUS
 10
153.5097009392
 20
149.2871912655
 11
153.3199205773
 21
149.2687474444
  0
LINE
  5
449
100
AcDbEntity
  8
0
100
AcDbLine
 62
7
  6
CONTINUOUS
 10
155.9080464669
 20
143.9553577291
 11
155.8127313319
 21
143.9533089198
  0
LINE
  5
44A
100
AcDbEntity
  8
0
100
AcDbLine
 62
7
  6
CONTINUOUS
 10
156.5475117464
 20
144.4804989256
 11
156.4521966337
 21
144.4784501323
  0
LINE
  5
44B
100
AcDbEntity
  8
0
100
AcDbLine
 62
7
  6
CONTINUOUS
 10
156.6491353166
 20
145.2831309084
 11
156.4585047317
 21
145.2790338231
  0
LINE
  5
44C
100
AcDbEntity
  8
0
100
AcDbLine
 62
7
  6
CONTINUOUS
 10
156.4123777234
 20
142.8875754741
 11
156.5553827707
 21
142.8880634826
  0
LINE
  5
44D
100
AcDbEntity
  8
0
100
AcDbLine
 62
7
  6
CONTINUOUS
 10
157.3373954697
 20
144.2467413985
 11
157.1943904338
 21
144.2462533978
  0
LINE
  5
44E
100
AcDbEntity
  8
0
100
AcDbLine
 62
7
  6
CONTINUOUS
 10
78.3235594005
 20
168.8775244547
 11
78.1063609246
 21
169.04843579
  0
LINE
  5
44F
100
AcDbEntity
  8
0
100
AcDbLine
 62
7
  6
CONTINUOUS
 10
86.5200397798
 20
168.9956570924
 11
85.5597582001
 21
169.9171182618
  0
LINE
  5
450
100
AcDbEntity
  8
0
100
AcDbLine
 62
7
  6
CONTINUOUS
 10
85.4687786885
 20
169.7091163245
 11
86.248895325
 21
168.9257951954
  0
LINE
  5
451
100
AcDbEntity
  8
0
100
AcDbLine
 62
7
  6
CONTINUOUS
 10
117.7413905627
 20
169.7684129655
 11
117.6912542835
 21
169.9023421948
  0
LINE
  5
452
100
AcDbEntity
  8
0
100
AcDbLine
 62
7
  6
CONTINUOUS
 10
117.7828418602
 20
170.6087775634
 11
117.8496902912
 21
170.4302052811
  0
LINE
  5
453
100
AcDbEntity
  8
0
100
AcDbLine
 62
7
  6
CONTINUOUS
 10
118.5182267654
 20
170.1026851645
 11
118.4513783345
 21
170.2812574469
  0
LINE
  5
454
100
AcDbEntity
  8
0
100
AcDbLine
 62
7
  6
CONTINUOUS
 10
118.4455883555
 20
170.9307867006
 11
118.4790124961
 21
170.841500578
  0
LINE
  5
455
100
AcDbEntity
  8
0
100
AcDbLine
 62
7
  6
CONTINUOUS
 10
121.1622736586
 20
168.8366767645
 11
121.2048241711
 21
168.7001478826
  0
LINE
  5
456
100
AcDbEntity
  8
0
100
AcDbLine
 62
7
  6
CONTINUOUS
 10
122.2653482431
 20
169.8546338534
 11
122.2227977266
 21
169.9911627221
  0
LINE
  5
457
100
AcDbEntity
  8
0
100
AcDbLine
 62
7
  6
CONTINUOUS
 10
123.3781884265
 20
168.1251692702
 11
123.4158893976
 21
167.9872224744
  0
LINE
  5
458
100
AcDbEntity
  8
0
100
AcDbLine
 62
7
  6
CONTINUOUS
 10
124.5165343231
 20
169.1035241792
 11
124.4788333476
 21
169.241470962
  0
LINE
  5
459
100
AcDbEntity
  8
0
100
AcDbLine
 62
7
  6
CONTINUOUS
 10
125.8699899991
 20
167.2191418621
 11
125.83755747
 21
167.3584214945
  0
LINE
  5
45A
100
AcDbEntity
  8
0
100
AcDbLine
 62
7
  6
CONTINUOUS
 10
126.0195493705
 20
168.0471290975
 11
126.0627929476
 21
167.8614228805
  0
LINE
  5
45B
100
AcDbEntity
  8
0
100
AcDbLine
 62
7
  6
CONTINUOUS
 10
126.6834693357
 20
167.4503628267
 11
126.6402263332
 21
167.6360688195
  0
LINE
  5
45C
100
AcDbEntity
  8
0
100
AcDbLine
 62
7
  6
CONTINUOUS
 10
126.7183109081
 20
168.2809134322
 11
126.7399329839
 21
168.1880602116
  0
LINE
  5
45D
100
AcDbEntity
  8
0
100
AcDbLine
 62
7
  6
CONTINUOUS
 10
127.6748786667
 20
167.1306496971
 11
127.694799604
 21
167.037416704
  0
LINE
  5
45E
100
AcDbEntity
  8
0
100
AcDbLine
 62
7
  6
CONTINUOUS
 10
127.8393757942
 20
167.1054786795
 11
127.8094949586
 21
167.2453279344
  0
LINE
  5
45F
100
AcDbEntity
  8
0
100
AcDbLine
 62
7
  6
CONTINUOUS
 10
152.4814745593
 20
148.2492240527
 11
152.4897883171
 21
148.3617033338
  0
LINE
  5
460
100
AcDbEntity
  8
0
100
AcDbLine
 62
7
  6
CONTINUOUS
 10
155.3560713328
 20
144.4548909665
 11
155.3393093122
 21
144.3433573852
  0
LINE
  5
461
100
AcDbEntity
  8
0
100
AcDbLine
 62
7
  6
CONTINUOUS
 10
156.232093654
 20
143.2870942524
 11
156.2508690517
 21
143.3983066049
  0
LINE
  5
462
100
AcDbEntity
  8
0
100
AcDbLine
 62
7
  6
CONTINUOUS
 10
152.8880399867
 20
147.8867194793
 11
152.7758344934
 21
147.8981490247
  0
LINE
  5
463
100
AcDbEntity
  8
0
100
AcDbLine
 62
7
  6
CONTINUOUS
 10
156.3558299166
 20
144.3429711106
 11
156.5145135299
 21
144.3241468934
  0
LINE
  5
464
100
AcDbEntity
  8
0
100
AcDbLine
 62
7
  6
CONTINUOUS
 10
155.7163646036
 20
143.81782989
 11
155.827390492
 21
143.7979815348
  0
LINE
  5
465
100
AcDbEntity
  8
0
100
AcDbLine
 62
7
  6
CONTINUOUS
 10
156.4958653059
 20
143.0434679758
 11
156.3852163567
 21
143.0653200457
  0
LINE
  5
466
100
AcDbEntity
  8
0
100
AcDbLine
 62
7
  6
CONTINUOUS
 10
77.932475971
 20
168.8524639713
 11
78.0628048004
 21
168.775509561
  0
LINE
  5
467
100
AcDbEntity
  8
0
100
AcDbLine
 62
7
  6
CONTINUOUS
 10
80.8071453904
 20
167.5551396215
 11
80.9335409963
 21
167.4718827094
  0
LINE
  5
468
100
AcDbEntity
  8
0
100
AcDbLine
 62
7
  6
CONTINUOUS
 10
81.0536348817
 20
167.7007145148
 11
80.9272392792
 21
167.783971417
  0
LINE
  5
469
100
AcDbEntity
  8
0
100
AcDbLine
 62
7
  6
CONTINUOUS
 10
81.1674779438
 20
169.121422938
 11
81.2938735464
 21
169.0381660358
  0
LINE
  5
46A
100
AcDbEntity
  8
0
100
AcDbLine
 62
7
  6
CONTINUOUS
 10
81.4139674417
 20
169.2669978115
 11
81.287571586
 21
169.3502546287
  0
LINE
  5
46B
100
AcDbEntity
  8
0
100
AcDbLine
 62
7
  6
CONTINUOUS
 10
84.1103079814
 20
169.9588493938
 11
84.23275375
 21
169.8698851105
  0
LINE
  5
46C
100
AcDbEntity
  8
0
100
AcDbLine
 62
7
  6
CONTINUOUS
 10
84.363212616
 20
170.092970094
 11
84.240767361
 21
170.1819345239
  0
LINE
  5
46D
100
AcDbEntity
  8
0
100
AcDbLine
 62
7
  6
CONTINUOUS
 10
120.189566053
 20
169.0802767408
 11
120.1336629648
 21
169.1782336071
  0
LINE
  5
46E
100
AcDbEntity
  8
0
100
AcDbLine
 62
7
  6
CONTINUOUS
 10
121.3825067458
 20
168.7277100939
 11
121.328383795
 21
168.8266613912
  0
LINE
  5
46F
100
AcDbEntity
  8
0
100
AcDbLine
 62
7
  6
CONTINUOUS
 10
118.6047348349
 20
171.0129079689
 11
118.528438297
 21
171.15331314
  0
LINE
  5
470
100
AcDbEntity
  8
0
100
AcDbLine
 62
7
  6
CONTINUOUS
 10
123.5944350187
 20
168.0084906134
 11
123.543841085
 21
168.1092921847
  0
LINE
  5
471
100
AcDbEntity
  8
0
100
AcDbLine
 62
7
  6
CONTINUOUS
 10
127.0367239013
 20
166.712957907
 11
126.9918808577
 21
166.8164460916
  0
LINE
  5
472
100
AcDbEntity
  8
0
100
AcDbLine
 62
7
  6
CONTINUOUS
 10
126.8867252136
 20
168.3418088422
 11
126.8291861006
 21
168.4908867538
  0
LINE
  5
473
100
AcDbEntity
  8
0
100
AcDbLine
 62
7
  6
CONTINUOUS
 10
152.2743788894
 20
148.2514317037
 11
152.2833804423
 21
148.1183009528
  0
LINE
  5
474
100
AcDbEntity
  8
0
100
AcDbLine
 62
7
  6
CONTINUOUS
 10
153.977213737
 20
148.7296015612
 11
153.9682122009
 21
148.862732276
  0
LINE
  5
475
100
AcDbEntity
  8
0
100
AcDbLine
 62
7
  6
CONTINUOUS
 10
155.3393093122
 20
144.3433573852
 11
155.3382578792
 21
144.2099269001
  0
LINE
  5
476
100
AcDbEntity
  8
0
100
AcDbLine
 62
7
  6
CONTINUOUS
 10
155.4979927569
 20
144.3245334266
 11
155.4985185591
 21
144.3912485409
  0
LINE
  5
477
100
AcDbEntity
  8
0
100
AcDbLine
 62
7
  6
CONTINUOUS
 10
157.026190608
 20
144.7576034131
 11
157.0272422124
 21
144.8910336417
  0
LINE
  5
478
100
AcDbEntity
  8
0
100
AcDbLine
 62
7
  6
CONTINUOUS
 10
153.7701181148
 20
148.7318091768
 11
153.7618043781
 21
148.6193299133
  0
LINE
  5
479
100
AcDbEntity
  8
0
100
AcDbLine
 62
7
  6
CONTINUOUS
 10
156.0755079178
 20
143.3754785258
 11
156.0550011757
 21
143.1975709508
  0
LINE
  5
47A
100
AcDbEntity
  8
0
100
AcDbLine
 62
7
  6
CONTINUOUS
 10
157.6742652754
 20
143.7588383468
 11
157.6947723595
 21
143.9367454083
  0
LINE
  5
47B
100
AcDbEntity
  8
0
100
AcDbLine
 62
7
  6
CONTINUOUS
 10
156.2285678323
 20
144.3180010148
 11
156.211805823
 21
144.2064674415
  0
LINE
  5
47C
100
AcDbEntity
  8
0
100
AcDbLine
 62
7
  6
CONTINUOUS
 10
156.8517965898
 20
144.7983242856
 11
156.8350345804
 21
144.6867907124
  0
LINE
  5
47D
100
AcDbEntity
  8
0
100
AcDbLine
 62
7
  6
CONTINUOUS
 10
157.5176795505
 20
143.847222628
 11
157.4989041528
 21
143.7360102755
  0
LINE
  5
47E
100
AcDbEntity
  8
0
100
AcDbLine
 62
7
  6
CONTINUOUS
 10
126.2110193365
 20
166.8328044119
 11
126.3400321106
 21
166.8668696067
  0
LINE
  5
47F
100
AcDbEntity
  8
0
100
AcDbLine
 62
7
  6
CONTINUOUS
 10
126.4777049843
 20
168.6280587617
 11
126.3486922139
 21
168.5939935764
  0
LINE
  5
480
100
AcDbEntity
  8
0
100
AcDbLine
 62
7
  6
CONTINUOUS
 10
153.3635527085
 20
149.0943137678
 11
153.4757581807
 21
149.0828842048
  0
LINE
  5
481
100
AcDbEntity
  8
0
100
AcDbLine
 62
7
  6
CONTINUOUS
 10
156.5208218077
 20
145.1247303335
 11
156.6318476848
 21
145.1048819703
  0
LINE
  5
482
100
AcDbEntity
  8
0
100
AcDbLine
 62
7
  6
CONTINUOUS
 10
157.2539078986
 20
144.0908489047
 11
157.3645568478
 21
144.0689968347
  0
LINE
  5
483
100
AcDbEntity
  8
0
100
AcDbLine
 62
7
  6
CONTINUOUS
 10
152.6123709342
 20
147.7259230072
 11
152.7418916872
 21
147.6938419995
  0
LINE
  5
484
100
AcDbEntity
  8
0
100
AcDbLine
 62
7
  6
CONTINUOUS
 10
153.639221709
 20
149.2551102215
 11
153.5097009392
 21
149.2871912655
  0
LINE
  5
485
100
AcDbEntity
  8
0
100
AcDbLine
 62
7
  6
CONTINUOUS
 10
80.9335409963
 20
167.4718827094
 11
81.040980059
 21
167.4451038151
  0
LINE
  5
486
100
AcDbEntity
  8
0
100
AcDbLine
 62
7
  6
CONTINUOUS
 10
156.2387482787
 20
142.9314421058
 11
156.4123777234
 21
142.8875754741
  0
LINE
  5
487
100
AcDbEntity
  8
0
100
AcDbLine
 62
7
  6
CONTINUOUS
 10
157.5110252565
 20
144.2028742533
 11
157.3373954697
 21
144.2467413985
  0
LINE
  5
488
100
AcDbEntity
  8
0
100
AcDbLine
 62
7
  6
CONTINUOUS
 10
155.5896283132
 20
143.8595749024
 11
155.7163646036
 21
143.81782989
  0
LINE
  5
489
100
AcDbEntity
  8
0
100
AcDbLine
 62
7
  6
CONTINUOUS
 10
155.8127313319
 20
143.9533089198
 11
155.7493631909
 21
143.974181429
  0
LINE
  5
48A
100
AcDbEntity
  8
0
100
AcDbLine
 62
7
  6
CONTINUOUS
 10
156.7758717784
 20
145.2413856393
 11
156.6491353166
 21
145.2831309084
  0
LINE
  5
48B
100
AcDbEntity
  8
0
100
AcDbLine
 62
7
  6
CONTINUOUS
 10
78.1063609246
 20
169.04843579
 11
77.8674086842
 21
169.1468649636
  0
LINE
  5
48C
100
AcDbEntity
  8
0
100
AcDbLine
 62
7
  6
CONTINUOUS
 10
84.240767361
 20
170.1819345239
 11
84.073446416
 21
170.2580933512
  0
LINE
  5
48D
100
AcDbEntity
  8
0
100
AcDbLine
 62
7
  6
CONTINUOUS
 10
117.8496902912
 20
170.4302052811
 11
117.9354350857
 21
170.3279671841
  0
LINE
  5
48E
100
AcDbEntity
  8
0
100
AcDbLine
 62
7
  6
CONTINUOUS
 10
118.4513783345
 20
170.2812574469
 11
118.3656333903
 21
170.3834955809
  0
LINE
  5
48F
100
AcDbEntity
  8
0
100
AcDbLine
 62
7
  6
CONTINUOUS
 10
117.5560836783
 20
169.6927676896
 11
117.6585406155
 21
169.5458865027
  0
LINE
  5
490
100
AcDbEntity
  8
0
100
AcDbLine
 62
7
  6
CONTINUOUS
 10
120.0124104396
 20
169.0495072554
 11
120.1092128731
 21
168.8988392845
  0
LINE
  5
491
100
AcDbEntity
  8
0
100
AcDbLine
 62
7
  6
CONTINUOUS
 10
120.9253058361
 20
169.686582154
 11
120.8285033997
 21
169.837250115
  0
LINE
  5
492
100
AcDbEntity
  8
0
100
AcDbLine
 62
7
  6
CONTINUOUS
 10
126.0627929476
 20
167.8614228805
 11
126.1346258727
 21
167.7489739471
  0
LINE
  5
493
100
AcDbEntity
  8
0
100
AcDbLine
 62
7
  6
CONTINUOUS
 10
126.6402263332
 20
167.6360688195
 11
126.5683934081
 21
167.7485177529
  0
LINE
  5
494
100
AcDbEntity
  8
0
100
AcDbLine
 62
7
  6
CONTINUOUS
 10
118.0182850271
 20
170.5504936235
 11
117.9587004847
 21
170.6462557518
  0
LINE
  5
495
100
AcDbEntity
  8
0
100
AcDbLine
 62
7
  6
CONTINUOUS
 10
118.2827835985
 20
170.1609691045
 11
118.3423681409
 21
170.0652069761
  0
LINE
  5
496
100
AcDbEntity
  8
0
100
AcDbLine
 62
7
  6
CONTINUOUS
 10
121.2048241711
 20
168.7001478826
 11
121.2988872519
 21
168.5477546892
  0
LINE
  5
497
100
AcDbEntity
  8
0
100
AcDbLine
 62
7
  6
CONTINUOUS
 10
122.2227977266
 20
169.9911627221
 11
122.1287349374
 21
170.1435558149
  0
LINE
  5
498
100
AcDbEntity
  8
0
100
AcDbLine
 62
7
  6
CONTINUOUS
 10
120.7481502265
 20
169.6558126818
 11
120.8040533146
 21
169.5578558155
  0
LINE
  5
499
100
AcDbEntity
  8
0
100
AcDbLine
 62
7
  6
CONTINUOUS
 10
123.4158893976
 20
167.9872224744
 11
123.5045100756
 21
167.8316016503
  0
LINE
  5
49A
100
AcDbEntity
  8
0
100
AcDbLine
 62
7
  6
CONTINUOUS
 10
124.4788333476
 20
169.241470962
 11
124.3902126662
 21
169.3970917764
  0
LINE
  5
49B
100
AcDbEntity
  8
0
100
AcDbLine
 62
7
  6
CONTINUOUS
 10
122.0451148611
 20
169.9636006148
 11
122.0992381067
 21
169.8646492267
  0
LINE
  5
49C
100
AcDbEntity
  8
0
100
AcDbLine
 62
7
  6
CONTINUOUS
 10
125.676470264
 20
167.1680442957
 11
125.7591142233
 21
167.0091687423
  0
LINE
  5
49D
100
AcDbEntity
  8
0
100
AcDbLine
 62
7
  6
CONTINUOUS
 10
124.3002877309
 20
169.2202028361
 11
124.3508816646
 21
169.1194012647
  0
LINE
  5
49E
100
AcDbEntity
  8
0
100
AcDbLine
 62
7
  6
CONTINUOUS
 10
126.8572645605
 20
166.7017678416
 11
126.9369896048
 21
166.5414081941
  0
LINE
  5
49F
100
AcDbEntity
  8
0
100
AcDbLine
 62
7
  6
CONTINUOUS
 10
127.8094949586
 20
167.2453279344
 11
127.7297687696
 21
167.4056880418
  0
LINE
  5
4A0
100
AcDbEntity
  8
0
100
AcDbLine
 62
7
  6
CONTINUOUS
 10
128.0389304311
 20
167.8737214232
 11
127.9592042421
 21
168.0340815306
  0
LINE
  5
4A1
100
AcDbEntity
  8
0
100
AcDbLine
 62
7
  6
CONTINUOUS
 10
126.2455016398
 20
167.9589470444
 11
126.1987741394
 21
168.0615981214
  0
LINE
  5
4A2
100
AcDbEntity
  8
0
100
AcDbLine
 62
7
  6
CONTINUOUS
 10
126.4575170664
 20
167.5385448799
 11
126.5042445669
 21
167.4358938028
  0
LINE
  5
4A3
100
AcDbEntity
  8
0
100
AcDbLine
 62
7
  6
CONTINUOUS
 10
127.630035623
 20
167.2341378817
 11
127.6748786667
 21
167.1306496971
  0
LINE
  5
4A4
100
AcDbEntity
  8
0
100
AcDbLine
 62
7
  6
CONTINUOUS
 10
127.8594710955
 20
167.8625313705
 11
127.9043141392
 21
167.7590431859
  0
LINE
  5
4A5
100
AcDbEntity
  8
RUNDUNGEN
100
AcDbLine
 62
7
  6
CONTINUOUS
 10
167.526674869
 20
62.7953563995
 11
166.9636211665
 21
68.3075064953
  0
LINE
  5
4A6
100
AcDbEntity
  8
0
100
AcDbLine
 62
7
  6
CONTINUOUS
 10
156.3704890767
 20
144.1876437255
 11
156.3558299166
 21
144.3429711106
  0
LINE
  5
4A7
100
AcDbEntity
  8
RUNDUNGEN
100
AcDbLine
 62
7
  6
CONTINUOUS
 10
166.9636211753
 20
143.2373955362
 11
167.526674869
 21
148.7495455457
  0
LINE
  5
4A8
100
AcDbEntity
  8
RUNDUNGEN
100
AcDbLine
 62
7
  6
CONTINUOUS
 10
129.7767090531
 20
32.5670972251
 11
132.5611495737
 21
37.3574749907
  0
LINE
  5
4A9
100
AcDbEntity
  8
RUNDUNGEN
100
AcDbLine
 62
7
  6
CONTINUOUS
 10
176.603833315
 20
97.9770286063
 11
180.299313806
 21
102.105496982
  0
LINE
  5
4AA
100
AcDbEntity
  8
RUNDUNGEN
100
AcDbLine
 62
7
  6
CONTINUOUS
 10
81.4686202258
 20
30.3007950237
 11
86.5369933308
 21
32.539638972
  0
LINE
  5
4AB
100
AcDbEntity
  8
RUNDUNGEN
100
AcDbLine
 62
7
  6
CONTINUOUS
 10
46.4708157325
 20
155.8506538814
 11
41.0544563875
 21
154.6828017375
  0
LINE
  5
4AC
100
AcDbEntity
  8
0
100
AcDbLine
 62
7
  6
CONTINUOUS
 10
118.131664133
 20
171.0084986206
 11
118.2195934452
 21
171.0272377148
  0
LINE
  5
4AD
100
AcDbEntity
  8
0
100
AcDbLine
 62
7
  6
CONTINUOUS
 10
118.1599562427
 20
169.6647970599
 11
118.0458665287
 21
169.6525339714
  0
LINE
  5
4AE
100
AcDbEntity
  8
0
100
AcDbLine
 62
7
  6
CONTINUOUS
 10
126.4170412156
 20
168.398489503
 11
126.5066536001
 21
168.405724015
  0
LINE
  5
4AF
100
AcDbEntity
  8
0
100
AcDbLine
 62
7
  6
CONTINUOUS
 10
120.5521019037
 20
168.9757629881
 11
120.4376287869
 21
168.9678434896
  0
LINE
  5
4B0
100
AcDbEntity
  8
0
100
AcDbLine
 62
7
  6
CONTINUOUS
 10
120.3856143758
 20
169.7603264345
 11
120.500087789
 21
169.7682458476
  0
LINE
  5
4B1
100
AcDbEntity
  8
0
100
AcDbLine
 62
7
  6
CONTINUOUS
 10
127.3607158467
 20
166.5796385396
 11
127.2709861789
 21
166.5740435132
  0
LINE
  5
4B2
100
AcDbEntity
  8
0
100
AcDbLine
 62
7
  6
CONTINUOUS
 10
127.3060436777
 20
167.3674572491
 11
127.3957733455
 21
167.3730522755
  0
LINE
  5
4B3
100
AcDbEntity
  8
0
100
AcDbLine
 62
7
  6
CONTINUOUS
 10
127.5604012565
 20
167.9855955464
 11
127.6501309243
 21
167.9911905727
  0
LINE
  5
4B4
100
AcDbEntity
  8
0
100
AcDbLine
 62
7
  6
CONTINUOUS
 10
81.040980059
 20
167.4451038151
 11
81.2369008816
 21
167.4480237895
  0
LINE
  5
4B5
100
AcDbEntity
  8
0
100
AcDbLine
 62
7
  6
CONTINUOUS
 10
81.2495559625
 20
167.7036345593
 11
81.0536348817
 21
167.7007145148
  0
LINE
  5
4B6
100
AcDbEntity
  8
0
100
AcDbLine
 62
7
  6
CONTINUOUS
 10
126.2716825393
 20
167.0623739172
 11
126.1569647303
 21
167.0649372617
  0
LINE
  5
4B7
100
AcDbEntity
  8
0
100
AcDbLine
 62
7
  6
CONTINUOUS
 10
77.780393377
 20
168.85693622
 11
77.932475971
 21
168.8524639713
  0
LINE
  5
4B8
100
AcDbEntity
  8
0
100
AcDbLine
 62
7
  6
CONTINUOUS
 10
84.073446416
 20
170.2580933512
 11
83.9224729221
 21
170.2769645075
  0
LINE
  5
4B9
100
AcDbEntity
  8
RUNDUNGEN
100
AcDbLine
 62
7
  6
CONTINUOUS
 10
163.2159119161
 20
154.6828017375
 11
157.7995524858
 21
155.8506538998
  0
LINE
  5
4BA
100
AcDbEntity
  8
0
100
AcDbLine
 62
7
  6
CONTINUOUS
 10
81.287571586
 20
169.3502546287
 11
81.1801327782
 21
169.377033603
  0
LINE
  5
4BB
100
AcDbEntity
  8
0
100
AcDbLine
 62
7
  6
CONTINUOUS
 10
84.0042101775
 20
169.9905261527
 11
84.1103079814
 21
169.9588493938
  0
LINE
  5
4BC
100
AcDbEntity
  8
RUNDUNGEN
100
AcDbLine
 62
7
  6
CONTINUOUS
 10
86.5369933275
 20
179.0052629746
 11
81.4686202258
 21
181.2441069214
  0
LINE
  5
4BD
100
AcDbEntity
  8
0
100
AcDbLine
 62
7
  6
CONTINUOUS
 10
156.4521966337
 20
144.4784501323
 11
156.2940388227
 21
144.5639894638
  0
LINE
  5
4BE
100
AcDbEntity
  8
0
100
AcDbLine
 62
7
  6
CONTINUOUS
 10
152.7758344934
 20
147.8981490247
 11
152.676443501
 21
147.9554925233
  0
LINE
  5
4BF
100
AcDbEntity
  8
0
100
AcDbLine
 62
7
  6
CONTINUOUS
 10
117.8365837635
 20
169.7043419057
 11
117.7413905627
 21
169.7684129655
  0
LINE
  5
4C0
100
AcDbEntity
  8
0
100
AcDbLine
 62
7
  6
CONTINUOUS
 10
117.9354350857
 20
170.3279671841
 11
118.0306282864
 21
170.2638961243
  0
LINE
  5
4C1
100
AcDbEntity
  8
0
100
AcDbLine
 62
7
  6
CONTINUOUS
 10
118.1875903977
 20
170.2250401643
 11
118.2827835985
 21
170.1609691045
  0
LINE
  5
4C2
100
AcDbEntity
  8
0
100
AcDbLine
 62
7
  6
CONTINUOUS
 10
155.4948386404
 20
143.9242417226
 11
155.5896283132
 21
143.8595749024
  0
LINE
  5
4C3
100
AcDbEntity
  8
0
100
AcDbLine
 62
7
  6
CONTINUOUS
 10
120.2822563217
 20
169.0126350857
 11
120.189566053
 21
169.0802767408
  0
LINE
  5
4C4
100
AcDbEntity
  8
0
100
AcDbLine
 62
7
  6
CONTINUOUS
 10
120.6554602541
 20
169.7234542515
 11
120.7481502265
 21
169.6558126818
  0
LINE
  5
4C5
100
AcDbEntity
  8
0
100
AcDbLine
 62
7
  6
CONTINUOUS
 10
118.0873178261
 20
170.4928985693
 11
118.0182850271
 21
170.5504936235
  0
LINE
  5
4C6
100
AcDbEntity
  8
0
100
AcDbLine
 62
7
  6
CONTINUOUS
 10
118.3765555565
 20
170.9883817548
 11
118.4455883555
 21
170.9307867006
  0
LINE
  5
4C7
100
AcDbEntity
  8
0
100
AcDbLine
 62
7
  6
CONTINUOUS
 10
125.9561184602
 20
167.1433212341
 11
125.8699899991
 21
167.2191418621
  0
LINE
  5
4C8
100
AcDbEntity
  8
0
100
AcDbLine
 62
7
  6
CONTINUOUS
 10
126.1346258727
 20
167.7489739471
 11
126.2207543338
 21
167.673153319
  0
LINE
  5
4C9
100
AcDbEntity
  8
0
100
AcDbLine
 62
7
  6
CONTINUOUS
 10
126.37138918
 20
167.6143652836
 11
126.4575170664
 21
167.5385448799
  0
LINE
  5
4CA
100
AcDbEntity
  8
0
100
AcDbLine
 62
7
  6
CONTINUOUS
 10
126.3065241016
 20
167.892924497
 11
126.2455016398
 21
167.9589470444
  0
LINE
  5
4CB
100
AcDbEntity
  8
0
100
AcDbLine
 62
7
  6
CONTINUOUS
 10
126.6572884463
 20
168.3469359796
 11
126.7183109081
 21
168.2809134322
  0
LINE
  5
4CC
100
AcDbEntity
  8
RUNDUNGEN
100
AcDbLine
 62
7
  6
CONTINUOUS
 10
180.299313806
 20
109.4394049631
 11
176.6038332571
 21
113.5678734035
  0
LINE
  5
4CD
100
AcDbEntity
  8
0
100
AcDbLine
 62
7
  6
CONTINUOUS
 10
127.0965291531
 20
166.6458307927
 11
127.0367239013
 21
166.712957907
  0
LINE
  5
4CE
100
AcDbEntity
  8
0
100
AcDbLine
 62
7
  6
CONTINUOUS
 10
127.5702303713
 20
167.301264996
 11
127.630035623
 21
167.2341378817
  0
LINE
  5
4CF
100
AcDbEntity
  8
0
100
AcDbLine
 62
7
  6
CONTINUOUS
 10
127.7996658438
 20
167.9296584848
 11
127.8594710955
 21
167.8625313705
  0
LINE
  5
4D0
100
AcDbEntity
  8
RUNDUNGEN
100
AcDbLine
 62
7
  6
CONTINUOUS
 10
132.5611495301
 20
174.1874270294
 11
129.7767090531
 21
178.9778047201
  0
LINE
  5
4D1
100
AcDbEntity
  8
0
100
AcDbLine
 62
7
  6
CONTINUOUS
 10
152.5206059224
 20
148.1413557334
 11
152.4814745593
 21
148.2492240527
  0
LINE
  5
4D2
100
AcDbEntity
  8
0
100
AcDbLine
 62
7
  6
CONTINUOUS
 10
155.3382578792
 20
144.2099269001
 11
155.3691536032
 21
144.0994174708
  0
LINE
  5
4D3
100
AcDbEntity
  8
RUNDUNGEN
100
AcDbLine
 62
7
  6
CONTINUOUS
 10
166.9616831599
 20
68.6934090608
 11
166.9636210984
 21
68.3075071511
  0
LINE
  5
4D4
100
AcDbEntity
  8
RUNDUNGEN
100
AcDbLine
 62
7
  6
CONTINUOUS
 10
166.9616832173
 20
142.8514928815
 11
166.9636211534
 21
143.2373947884
  0
LWPOLYLINE
  5
4D5
100
AcDbEntity
  8
RUNDUNGEN
100
AcDbPolyline
 62
7
  6
CONTINUOUS
 90
3
 70
0
 10
168.6254468573
 20
86.5342450164
 10
168.6283246567
 20
86.5538179164
 10
168.7536911581
 20
87.3404230924
  0
LINE
  5
4D6
100
AcDbEntity
  8
RUNDUNGEN
100
AcDbLine
 62
7
  6
CONTINUOUS
 10
168.7536911581
 20
87.3404230924
 11
168.7838312976
 21
87.5342450164
  0
LINE
  5
4D7
100
AcDbEntity
  8
RUNDUNGEN
100
AcDbLine
 62
7
  6
CONTINUOUS
 10
156.2650512331
 20
54.1342098466
 11
155.4216581243
 21
49.9372193138
  0
LINE
  5
4D8
100
AcDbEntity
  8
RUNDUNGEN
100
AcDbLine
 62
7
  6
CONTINUOUS
 10
156.2615451171
 20
54.1329527583
 11
156.3735901312
 21
54.5024669342
  0
LINE
  5
4D9
100
AcDbEntity
  8
RUNDUNGEN
100
AcDbLine
 62
7
  6
CONTINUOUS
 10
176.2772654526
 20
115.7350058962
 11
176.1507167889
 21
115.3702042244
  0
LINE
  5
4DA
100
AcDbEntity
  8
RUNDUNGEN
100
AcDbLine
 62
7
  6
CONTINUOUS
 10
178.0639693442
 20
119.6230909833
 11
176.2793631362
 21
115.731928077
  0
LWPOLYLINE
  5
4DB
100
AcDbEntity
  8
RUNDUNGEN
100
AcDbPolyline
 62
7
  6
CONTINUOUS
 90
3
 70
0
 10
167.2348703826
 20
82.2544906931
 10
167.226085074
 20
82.2367650479
 10
166.8637800787
 20
81.527399449
  0
LINE
  5
4DC
100
AcDbEntity
  8
RUNDUNGEN
100
AcDbLine
 62
7
  6
CONTINUOUS
 10
166.8637800787
 20
81.527399449
 11
166.7752208342
 21
81.3523776605
  0
LINE
  5
4DD
100
AcDbEntity
  8
RUNDUNGEN
100
AcDbLine
 62
7
  6
CONTINUOUS
 10
132.7864095303
 20
37.6708158561
 11
132.5611499042
 21
37.3574755613
  0
LINE
  5
4DE
100
AcDbEntity
  8
RUNDUNGEN
100
AcDbLine
 62
7
  6
CONTINUOUS
 10
176.3754375848
 20
97.6659659036
 11
176.6038328577
 21
97.9770280142
  0
LWPOLYLINE
  5
4DF
100
AcDbEntity
  8
RUNDUNGEN
100
AcDbPolyline
 62
7
  6
CONTINUOUS
 90
3
 70
0
 10
144.6190028994
 20
51.1264195734
 10
144.6328357499
 20
51.1405628541
 10
145.1966143019
 20
51.7032512287
  0
LINE
  5
4E0
100
AcDbEntity
  8
RUNDUNGEN
100
AcDbLine
 62
7
  6
CONTINUOUS
 10
145.1966143019
 20
51.7032512287
 11
145.3349238555
 21
51.8423405296
  0
LINE
  5
4E1
100
AcDbEntity
  8
RUNDUNGEN
100
AcDbLine
 62
7
  6
CONTINUOUS
 10
115.5749699356
 20
32.179498763
 11
112.4257214385
 21
29.279796128
  0
LINE
  5
4E2
100
AcDbEntity
  8
RUNDUNGEN
100
AcDbLine
 62
7
  6
CONTINUOUS
 10
115.5713945303
 20
32.1805426005
 11
115.8792358339
 21
32.4136274417
  0
LINE
  5
4E3
100
AcDbEntity
  8
RUNDUNGEN
100
AcDbLine
 62
7
  6
CONTINUOUS
 10
167.9732307817
 20
70.2527052503
 11
167.6564257195
 21
70.0319579364
  0
LINE
  5
4E4
100
AcDbEntity
  8
RUNDUNGEN
100
AcDbLine
 62
7
  6
CONTINUOUS
 10
171.7040636678
 20
72.3480339636
 11
167.9731187467
 21
70.2489822548
  0
LWPOLYLINE
  5
4E5
100
AcDbEntity
  8
RUNDUNGEN
100
AcDbPolyline
 62
7
  6
CONTINUOUS
 90
3
 70
0
 10
140.9784264247
 20
48.4813859381
 10
140.9609000879
 20
48.4722094648
 10
140.250834552
 20
48.1112781731
  0
LINE
  5
4E6
100
AcDbEntity
  8
RUNDUNGEN
100
AcDbLine
 62
7
  6
CONTINUOUS
 10
140.250834552
 20
48.1112781731
 11
140.0763133921
 21
48.0217363897
  0
LINE
  5
4E7
100
AcDbEntity
  8
RUNDUNGEN
100
AcDbLine
 62
7
  6
CONTINUOUS
 10
86.9034096031
 20
32.6607325763
 11
86.5369939331
 21
32.5396392389
  0
LINE
  5
4E8
100
AcDbEntity
  8
RUNDUNGEN
100
AcDbLine
 62
7
  6
CONTINUOUS
 10
157.4319384743
 20
55.5768406927
 11
157.7995518527
 21
55.6942478534
  0
LINE
  5
4E9
100
AcDbEntity
  8
0
100
AcDbLine
 62
7
  6
CONTINUOUS
 10
85.2546991633
 20
168.6696349508
 11
85.4806525308
 21
168.7278531094
  0
LINE
  5
4EA
100
AcDbEntity
  8
0
100
AcDbLine
 62
7
  6
CONTINUOUS
 10
86.248895325
 20
168.9257951954
 11
86.5200397798
 21
168.9956570924
  0
LINE
  5
4EB
100
AcDbEntity
  8
0
100
AcDbLine
 62
7
  6
CONTINUOUS
 10
85.8636210111
 20
170.7951722519
 11
85.5924770736
 21
170.7253104881
  0
LINE
  5
4EC
100
AcDbEntity
  8
0
100
AcDbLine
 62
7
  6
CONTINUOUS
 10
84.7820335606
 20
171.439297657
 11
84.5560801931
 21
171.3810794983
  0
LWPOLYLINE
  5
4ED
100
AcDbEntity
  8
RUNDUNGEN
100
AcDbPolyline
 62
7
  6
CONTINUOUS
 90
3
 70
0
 10
99.8851841518
 20
174.9533811705
 10
99.8656799288
 20
174.9500697617
 10
99.078833571
 20
174.8262260225
  0
LINE
  5
4EE
100
AcDbEntity
  8
RUNDUNGEN
100
AcDbLine
 62
7
  6
CONTINUOUS
 10
99.078833571
 20
174.8262260225
 11
98.8851841518
 21
174.7949967302
  0
LINE
  5
4EF
100
AcDbEntity
  8
0
100
AcDbLine
 62
7
  6
CONTINUOUS
 10
77.8674086842
 20
169.1468649636
 11
77.6284078488
 21
169.1173322316
  0
LINE
  5
4F0
100
AcDbEntity
  8
RUNDUNGEN
100
AcDbLine
 62
7
  6
CONTINUOUS
 10
134.5190210333
 20
173.210107854
 11
138.7712190319
 21
173.704934742
  0
LINE
  5
4F1
100
AcDbEntity
  8
0
100
AcDbLine
 62
7
  6
CONTINUOUS
 10
118.2762829849
 20
171.2562401598
 11
118.1621932709
 21
171.2439770713
  0
LINE
  5
4F2
100
AcDbEntity
  8
0
100
AcDbLine
 62
7
  6
CONTINUOUS
 10
117.9891769823
 20
169.4235314996
 11
118.1294269493
 21
169.4293186228
  0
LINE
  5
4F3
100
AcDbEntity
  8
RUNDUNGEN
100
AcDbLine
 62
7
  6
CONTINUOUS
 10
134.5213000448
 20
173.2071618012
 11
134.1352473664
 21
173.1995367819
  0
LINE
  5
4F4
100
AcDbEntity
  8
0
100
AcDbLine
 62
7
  6
CONTINUOUS
 10
80.9715568697
 20
169.1185028737
 11
81.1674779438
 21
169.121422938
  0
LINE
  5
4F5
100
AcDbEntity
  8
0
100
AcDbLine
 62
7
  6
CONTINUOUS
 10
81.1801327782
 20
169.377033603
 11
80.9842119572
 21
169.3741136237
  0
LINE
  5
4F6
100
AcDbEntity
  8
0
100
AcDbLine
 62
7
  6
CONTINUOUS
 10
120.3831709182
 20
168.7789407925
 11
120.523539348
 21
168.7793950568
  0
LINE
  5
4F7
100
AcDbEntity
  8
0
100
AcDbLine
 62
7
  6
CONTINUOUS
 10
120.55454565
 20
169.9571485183
 11
120.4141769248
 21
169.9566943427
  0
LINE
  5
4F8
100
AcDbEntity
  8
0
100
AcDbLine
 62
7
  6
CONTINUOUS
 10
121.6400692878
 20
168.6483886102
 11
121.4997155825
 21
168.6504717807
  0
LINE
  5
4F9
100
AcDbEntity
  8
0
100
AcDbLine
 62
7
  6
CONTINUOUS
 10
121.7875523191
 20
170.0429220985
 11
121.9279066139
 21
170.0408387464
  0
LINE
  5
4FA
100
AcDbEntity
  8
RUNDUNGEN
100
AcDbLine
 62
7
  6
CONTINUOUS
 10
69.7490682719
 20
173.2071619139
 11
70.1351209709
 21
173.1995368418
  0
LINE
  5
4FB
100
AcDbEntity
  8
0
100
AcDbLine
 62
7
  6
CONTINUOUS
 10
126.5924233679
 20
168.625495193
 11
126.4777049843
 21
168.6280587617
  0
LINE
  5
4FC
100
AcDbEntity
  8
0
100
AcDbLine
 62
7
  6
CONTINUOUS
 10
83.8083609936
 20
169.9965917065
 11
84.0042101775
 21
169.9905261527
  0
LINE
  5
4FD
100
AcDbEntity
  8
0
100
AcDbLine
 62
7
  6
CONTINUOUS
 10
123.8490341307
 20
167.9201202533
 11
123.7088416165
 21
167.9271602219
  0
LINE
  5
4FE
100
AcDbEntity
  8
0
100
AcDbLine
 62
7
  6
CONTINUOUS
 10
124.0456886189
 20
169.3085731961
 11
124.1858811331
 21
169.3015332275
  0
LINE
  5
4FF
100
AcDbEntity
  8
0
100
AcDbLine
 62
7
  6
CONTINUOUS
 10
121.4418519292
 20
168.4625843514
 11
121.6079620665
 21
168.4525689814
  0
LINE
  5
500
100
AcDbEntity
  8
0
100
AcDbLine
 62
7
  6
CONTINUOUS
 10
121.9857702592
 20
170.2287261493
 11
121.8196601228
 21
170.2387415226
  0
LINE
  5
501
100
AcDbEntity
  8
0
100
AcDbLine
 62
7
  6
CONTINUOUS
 10
126.0711949524
 20
166.845166058
 11
126.2110193365
 21
166.8328044119
  0
LINE
  5
502
100
AcDbEntity
  8
0
100
AcDbLine
 62
7
  6
CONTINUOUS
 10
123.6443768165
 20
167.7414341387
 11
123.8100294761
 21
167.7255570564
  0
LINE
  5
503
100
AcDbEntity
  8
0
100
AcDbLine
 62
7
  6
CONTINUOUS
 10
124.2503459241
 20
169.4872592847
 11
124.0846932656
 21
169.5031363702
  0
LINE
  5
504
100
AcDbEntity
  8
0
100
AcDbLine
 62
7
  6
CONTINUOUS
 10
127.1712530218
 20
166.4024933277
 11
127.3108269035
 21
166.3875779742
  0
LINE
  5
505
100
AcDbEntity
  8
0
100
AcDbLine
 62
7
  6
CONTINUOUS
 10
127.4955064921
 20
167.5446024356
 11
127.3559314708
 21
167.5595182617
  0
LINE
  5
506
100
AcDbEntity
  8
0
100
AcDbLine
 62
7
  6
CONTINUOUS
 10
127.7498640709
 20
168.1627407328
 11
127.6102890496
 21
168.177656559
  0
LINE
  5
507
100
AcDbEntity
  8
RUNDUNGEN
100
AcDbLine
 62
7
  6
CONTINUOUS
 10
69.7513565918
 20
173.2101067693
 11
65.4991263921
 21
173.7049374045
  0
LWPOLYLINE
  5
508
100
AcDbEntity
  8
RUNDUNGEN
100
AcDbPolyline
 62
7
  6
CONTINUOUS
 90
3
 70
0
 10
104.3851841518
 20
174.9533811705
 10
104.4047570517
 20
174.9505033711
 10
105.1913622277
 20
174.8251368697
  0
LINE
  5
509
100
AcDbEntity
  8
RUNDUNGEN
100
AcDbLine
 62
7
  6
CONTINUOUS
 10
105.1913622277
 20
174.8251368697
 11
105.3851841518
 21
174.7949967302
  0
LINE
  5
50A
100
AcDbEntity
  8
0
100
AcDbLine
 62
7
  6
CONTINUOUS
 10
116.2579719242
 20
169.8316613273
 11
117.2038493389
 21
169.6157818319
  0
LINE
  5
50B
100
AcDbEntity
  8
0
100
AcDbLine
 62
7
  6
CONTINUOUS
 10
117.256342833
 20
169.8457824185
 11
116.4681116542
 21
170.025681998
  0
LINE
  5
50C
100
AcDbEntity
  8
0
100
AcDbLine
 62
7
  6
CONTINUOUS
 10
116.8268171988
 20
171.5973526773
 11
116.6691709631
 21
171.6333325932
  0
LINE
  5
50D
100
AcDbEntity
  8
0
100
AcDbLine
 62
7
  6
CONTINUOUS
 10
117.7798942172
 20
169.4753394339
 11
117.9891769823
 21
169.4235314996
  0
LINE
  5
50E
100
AcDbEntity
  8
0
100
AcDbLine
 62
7
  6
CONTINUOUS
 10
118.0458665287
 20
169.6525339714
 11
117.8365837635
 21
169.7043419057
  0
LINE
  5
50F
100
AcDbEntity
  8
0
100
AcDbLine
 62
7
  6
CONTINUOUS
 10
117.6934386516
 20
170.023319423
 11
117.5364766152
 21
170.0621753644
  0
LINE
  5
510
100
AcDbEntity
  8
0
100
AcDbLine
 62
7
  6
CONTINUOUS
 10
118.0306282864
 20
170.2638961243
 11
118.1875903977
 21
170.2250401643
  0
LINE
  5
511
100
AcDbEntity
  8
0
100
AcDbLine
 62
7
  6
CONTINUOUS
 10
118.2442799374
 20
170.4540426094
 11
118.0873178261
 21
170.4928985693
  0
LINE
  5
512
100
AcDbEntity
  8
0
100
AcDbLine
 62
7
  6
CONTINUOUS
 10
118.4862763847
 20
170.7586904239
 11
118.643238496
 21
170.719834464
  0
LINE
  5
513
100
AcDbEntity
  8
0
100
AcDbLine
 62
7
  6
CONTINUOUS
 10
118.2195934452
 20
171.0272377148
 11
118.3765555565
 21
170.9883817548
  0
LINE
  5
514
100
AcDbEntity
  8
0
100
AcDbLine
 62
7
  6
CONTINUOUS
 10
118.4070846944
 20
171.2238602056
 11
118.2762829849
 21
171.2562401598
  0
LINE
  5
515
100
AcDbEntity
  8
0
100
AcDbLine
 62
7
  6
CONTINUOUS
 10
120.227798453
 20
168.8237323885
 11
120.3831709182
 21
168.7789407925
  0
LINE
  5
516
100
AcDbEntity
  8
0
100
AcDbLine
 62
7
  6
CONTINUOUS
 10
120.4376287869
 20
168.9678434896
 11
120.2822563217
 21
169.0126350857
  0
LINE
  5
517
100
AcDbEntity
  8
0
100
AcDbLine
 62
7
  6
CONTINUOUS
 10
120.1254386372
 20
169.3442862451
 11
119.9700661721
 21
169.3890778412
  0
LINE
  5
518
100
AcDbEntity
  8
0
100
AcDbLine
 62
7
  6
CONTINUOUS
 10
120.0680903373
 20
169.7291027013
 11
120.2493581145
 21
169.6768458677
  0
LINE
  5
519
100
AcDbEntity
  8
0
100
AcDbLine
 62
7
  6
CONTINUOUS
 10
120.500087789
 20
169.7682458476
 11
120.6554602541
 21
169.7234542515
  0
LINE
  5
51A
100
AcDbEntity
  8
0
100
AcDbLine
 62
7
  6
CONTINUOUS
 10
120.7099181152
 20
169.9123569222
 11
120.55454565
 21
169.9571485183
  0
LINE
  5
51B
100
AcDbEntity
  8
0
100
AcDbLine
 62
7
  6
CONTINUOUS
 10
120.426290241
 20
170.4851677508
 11
121.1772572546
 21
170.2686750079
  0
LINE
  5
51C
100
AcDbEntity
  8
0
100
AcDbLine
 62
7
  6
CONTINUOUS
 10
121.2317151157
 20
170.4575776785
 11
120.3512712454
 21
170.7113966945
  0
LINE
  5
51D
100
AcDbEntity
  8
RUNDUNGEN
100
AcDbLine
 62
7
  6
CONTINUOUS
 10
157.4319384593
 20
155.9680611969
 11
157.7995518411
 21
155.8506540378
  0
LINE
  5
51E
100
AcDbEntity
  8
0
100
AcDbLine
 62
7
  6
CONTINUOUS
 10
122.3162418169
 20
168.889120493
 11
122.67522717
 21
168.7729970625
  0
LINE
  5
51F
100
AcDbEntity
  8
0
100
AcDbLine
 62
7
  6
CONTINUOUS
 10
122.7357344279
 20
168.9600499187
 11
122.3767490748
 21
169.0761733492
  0
LINE
  5
520
100
AcDbEntity
  8
RUNDUNGEN
100
AcDbLine
 62
7
  6
CONTINUOUS
 10
86.9034096162
 20
178.8841694104
 11
86.5369939474
 21
179.0052627384
  0
LINE
  5
521
100
AcDbEntity
  8
0
100
AcDbLine
 62
7
  6
CONTINUOUS
 10
122.8278231884
 20
168.0188559565
 11
122.981266761
 21
167.9678465454
  0
LINE
  5
522
100
AcDbEntity
  8
0
100
AcDbLine
 62
7
  6
CONTINUOUS
 10
123.5642314592
 20
169.7214873755
 11
123.4107878866
 21
169.7724967865
  0
LINE
  5
523
100
AcDbEntity
  8
0
100
AcDbLine
 62
7
  6
CONTINUOUS
 10
125.8703486823
 20
166.9235500305
 11
126.0711949524
 21
166.845166058
  0
LINE
  5
524
100
AcDbEntity
  8
0
100
AcDbLine
 62
7
  6
CONTINUOUS
 10
126.1569647303
 20
167.0649372617
 11
125.9561184602
 21
167.1433212341
  0
LINE
  5
525
100
AcDbEntity
  8
0
100
AcDbLine
 62
7
  6
CONTINUOUS
 10
125.8553363547
 20
167.4781051641
 11
125.7047015085
 21
167.5368931996
  0
LINE
  5
526
100
AcDbEntity
  8
0
100
AcDbLine
 62
7
  6
CONTINUOUS
 10
126.2207543338
 20
167.673153319
 11
126.37138918
 21
167.6143652836
  0
LINE
  5
527
100
AcDbEntity
  8
0
100
AcDbLine
 62
7
  6
CONTINUOUS
 10
126.4571589478
 20
167.8341364616
 11
126.3065241016
 21
167.892924497
  0
LINE
  5
528
100
AcDbEntity
  8
0
100
AcDbLine
 62
7
  6
CONTINUOUS
 10
126.7364484859
 20
168.1050052958
 11
126.8870833321
 21
168.0462172604
  0
LINE
  5
529
100
AcDbEntity
  8
0
100
AcDbLine
 62
7
  6
CONTINUOUS
 10
126.5066536001
 20
168.405724015
 11
126.6572884463
 21
168.3469359796
  0
LINE
  5
52A
100
AcDbEntity
  8
0
100
AcDbLine
 62
7
  6
CONTINUOUS
 10
126.7179522149
 20
168.5765052382
 11
126.5924233679
 21
168.625495193
  0
LINE
  5
52B
100
AcDbEntity
  8
0
100
AcDbLine
 62
7
  6
CONTINUOUS
 10
127.0466402086
 20
166.4537702241
 11
127.1712530218
 21
166.4024933277
  0
LINE
  5
52C
100
AcDbEntity
  8
0
100
AcDbLine
 62
7
  6
CONTINUOUS
 10
127.2709861789
 20
166.5740435132
 11
127.0965291531
 21
166.6458307927
  0
LINE
  5
52D
100
AcDbEntity
  8
0
100
AcDbLine
 62
7
  6
CONTINUOUS
 10
127.3957733455
 20
167.3730522755
 11
127.5702303713
 21
167.301264996
  0
LINE
  5
52E
100
AcDbEntity
  8
0
100
AcDbLine
 62
7
  6
CONTINUOUS
 10
127.6201193053
 20
167.4933255391
 11
127.4955064921
 21
167.5446024356
  0
LINE
  5
52F
100
AcDbEntity
  8
0
100
AcDbLine
 62
7
  6
CONTINUOUS
 10
127.9092717276
 20
167.6294495919
 11
128.0338845408
 21
167.5781726955
  0
LINE
  5
530
100
AcDbEntity
  8
0
100
AcDbLine
 62
7
  6
CONTINUOUS
 10
127.6501309243
 20
167.9911905727
 11
127.7996658438
 21
167.9296584848
  0
LINE
  5
531
100
AcDbEntity
  8
0
100
AcDbLine
 62
7
  6
CONTINUOUS
 10
127.8495536369
 20
168.1217194974
 11
127.7498640709
 21
168.1627407328
  0
LINE
  5
532
100
AcDbEntity
  8
0
100
AcDbLine
 62
7
  6
CONTINUOUS
 10
127.7430465442
 20
166.1631966778
 11
127.8670504165
 21
166.110464212
  0
LINE
  5
533
100
AcDbEntity
  8
0
100
AcDbLine
 62
7
  6
CONTINUOUS
 10
127.943985088
 20
166.2913811674
 11
127.8199812156
 21
166.3441136333
  0
LINE
  5
534
100
AcDbEntity
  8
0
100
AcDbLine
 62
7
  6
CONTINUOUS
 10
128.2136676132
 20
165.9614279043
 11
128.3620394212
 21
165.8971418516
  0
LINE
  5
535
100
AcDbEntity
  8
0
100
AcDbLine
 62
7
  6
CONTINUOUS
 10
129.0967371663
 20
167.592819658
 11
128.9483653583
 21
167.6571057107
  0
LWPOLYLINE
  5
536
100
AcDbEntity
  8
RUNDUNGEN
100
AcDbPolyline
 62
7
  6
CONTINUOUS
 90
3
 70
0
 10
140.9784264247
 20
163.0635160071
 10
140.9607007796
 20
163.0723013156
 10
140.2513351806
 20
163.434606311
  0
LINE
  5
537
100
AcDbEntity
  8
RUNDUNGEN
100
AcDbLine
 62
7
  6
CONTINUOUS
 10
140.2513351806
 20
163.434606311
 11
140.0763133921
 21
163.5231655555
  0
LINE
  5
538
100
AcDbEntity
  8
RUNDUNGEN
100
AcDbLine
 62
7
  6
CONTINUOUS
 10
167.9731186961
 20
141.2959197189
 11
171.7040710876
 21
139.1968638071
  0
LINE
  5
539
100
AcDbEntity
  8
0
100
AcDbLine
 62
7
  6
CONTINUOUS
 10
153.4757581807
 20
149.0828842048
 11
153.5751491483
 21
149.0255407357
  0
LINE
  5
53A
100
AcDbEntity
  8
0
100
AcDbLine
 62
7
  6
CONTINUOUS
 10
117.6585406155
 20
169.5458865027
 11
117.7798942172
 21
169.4753394339
  0
LINE
  5
53B
100
AcDbEntity
  8
0
100
AcDbLine
 62
7
  6
CONTINUOUS
 10
118.3656333903
 20
170.3834955809
 11
118.2442799374
 21
170.4540426094
  0
LINE
  5
53C
100
AcDbEntity
  8
0
100
AcDbLine
 62
7
  6
CONTINUOUS
 10
118.528438297
 20
171.15331314
 11
118.4070846944
 21
171.2238602056
  0
LINE
  5
53D
100
AcDbEntity
  8
0
100
AcDbLine
 62
7
  6
CONTINUOUS
 10
121.2988872519
 20
168.5477546892
 11
121.4418519292
 21
168.4625843514
  0
LINE
  5
53E
100
AcDbEntity
  8
0
100
AcDbLine
 62
7
  6
CONTINUOUS
 10
122.1287349374
 20
170.1435558149
 11
121.9857702592
 21
170.2287261493
  0
LINE
  5
53F
100
AcDbEntity
  8
0
100
AcDbLine
 62
7
  6
CONTINUOUS
 10
120.1092128731
 20
168.8988392845
 11
120.227798453
 21
168.8237323885
  0
LINE
  5
540
100
AcDbEntity
  8
0
100
AcDbLine
 62
7
  6
CONTINUOUS
 10
120.8285033997
 20
169.837250115
 11
120.7099181152
 21
169.9123569222
  0
LINE
  5
541
100
AcDbEntity
  8
0
100
AcDbLine
 62
7
  6
CONTINUOUS
 10
123.5045100756
 20
167.8316016503
 11
123.6443768165
 21
167.7414341387
  0
LINE
  5
542
100
AcDbEntity
  8
0
100
AcDbLine
 62
7
  6
CONTINUOUS
 10
124.3902126662
 20
169.3970917764
 11
124.2503459241
 21
169.4872592847
  0
LINE
  5
543
100
AcDbEntity
  8
0
100
AcDbLine
 62
7
  6
CONTINUOUS
 10
121.4997155825
 20
168.6504717807
 11
121.3825067458
 21
168.7277100939
  0
LINE
  5
544
100
AcDbEntity
  8
0
100
AcDbLine
 62
7
  6
CONTINUOUS
 10
121.9279066139
 20
170.0408387464
 11
122.0451148611
 21
169.9636006148
  0
LINE
  5
545
100
AcDbEntity
  8
0
100
AcDbLine
 62
7
  6
CONTINUOUS
 10
152.4956646665
 20
147.803917955
 11
152.6123709342
 21
147.7259230072
  0
LINE
  5
546
100
AcDbEntity
  8
0
100
AcDbLine
 62
7
  6
CONTINUOUS
 10
153.7559279617
 20
149.1771152863
 11
153.639221709
 21
149.2551102215
  0
LINE
  5
547
100
AcDbEntity
  8
RUNDUNGEN
100
AcDbLine
 62
7
  6
CONTINUOUS
 10
167.9732308087
 20
141.2921967428
 11
167.6564257572
 21
141.5129440435
  0
LINE
  5
548
100
AcDbEntity
  8
0
100
AcDbLine
 62
7
  6
CONTINUOUS
 10
123.7088416165
 20
167.9271602219
 11
123.5944350187
 21
168.0084906134
  0
LINE
  5
549
100
AcDbEntity
  8
0
100
AcDbLine
 62
7
  6
CONTINUOUS
 10
124.1858811331
 20
169.3015332275
 11
124.3002877309
 21
169.2202028361
  0
LINE
  5
54A
100
AcDbEntity
  8
RUNDUNGEN
100
AcDbLine
 62
7
  6
CONTINUOUS
 10
115.5713944927
 20
179.3643593038
 11
115.8792358122
 21
179.1312744566
  0
LINE
  5
54B
100
AcDbEntity
  8
0
100
AcDbLine
 62
7
  6
CONTINUOUS
 10
125.7591142233
 20
167.0091687423
 11
125.8703486823
 21
166.9235500305
  0
LINE
  5
54C
100
AcDbEntity
  8
0
100
AcDbLine
 62
7
  6
CONTINUOUS
 10
126.5683934081
 20
167.7485177529
 11
126.4571589478
 21
167.8341364616
  0
LINE
  5
54D
100
AcDbEntity
  8
0
100
AcDbLine
 62
7
  6
CONTINUOUS
 10
126.8291861006
 20
168.4908867538
 11
126.7179522149
 21
168.5765052382
  0
LINE
  5
54E
100
AcDbEntity
  8
0
100
AcDbLine
 62
7
  6
CONTINUOUS
 10
155.7493631909
 20
143.974181429
 11
155.6388627564
 21
144.0607454077
  0
LINE
  5
54F
100
AcDbEntity
  8
0
100
AcDbLine
 62
7
  6
CONTINUOUS
 10
156.6318476848
 20
145.1048819703
 11
156.7423477597
 21
145.0183184928
  0
LINE
  5
550
100
AcDbEntity
  8
0
100
AcDbLine
 62
7
  6
CONTINUOUS
 10
126.9369896048
 20
166.5414081941
 11
127.0466402086
 21
166.4537702241
  0
LINE
  5
551
100
AcDbEntity
  8
0
100
AcDbLine
 62
7
  6
CONTINUOUS
 10
127.7297687696
 20
167.4056880418
 11
127.6201193053
 21
167.4933255391
  0
LINE
  5
552
100
AcDbEntity
  8
0
100
AcDbLine
 62
7
  6
CONTINUOUS
 10
127.9592042421
 20
168.0340815306
 11
127.8495536369
 21
168.1217194974
  0
LINE
  5
553
100
AcDbEntity
  8
0
100
AcDbLine
 62
7
  6
CONTINUOUS
 10
156.3852163567
 20
143.0653200457
 11
156.2762990939
 21
143.1538668246
  0
LINE
  5
554
100
AcDbEntity
  8
0
100
AcDbLine
 62
7
  6
CONTINUOUS
 10
157.3645568478
 20
144.0689968347
 11
157.4734744611
 21
143.9804495482
  0
LINE
  5
555
100
AcDbEntity
  8
0
100
AcDbLine
 62
7
  6
CONTINUOUS
 10
156.1145186376
 20
143.0421664557
 11
156.2387482787
 21
142.9314421058
  0
LINE
  5
556
100
AcDbEntity
  8
0
100
AcDbLine
 62
7
  6
CONTINUOUS
 10
157.6352548947
 20
144.0921499015
 11
157.5110252565
 21
144.2028742533
  0
LINE
  5
557
100
AcDbEntity
  8
0
100
AcDbLine
 62
7
  6
CONTINUOUS
 10
156.9177933823
 20
145.1110278489
 11
156.7758717784
 21
145.2413856393
  0
LINE
  5
558
100
AcDbEntity
  8
RUNDUNGEN
100
AcDbLine
 62
7
  6
CONTINUOUS
 10
112.4257325621
 20
182.265095575
 11
115.5749699472
 21
179.3654031715
  0
LWPOLYLINE
  5
559
100
AcDbEntity
  8
RUNDUNGEN
100
AcDbPolyline
 62
7
  6
CONTINUOUS
 90
3
 70
0
 10
144.6190028994
 20
160.4184823717
 10
144.63314618
 20
160.4046495212
 10
145.1958345546
 20
159.8408709692
  0
LINE
  5
55A
100
AcDbEntity
  8
RUNDUNGEN
100
AcDbLine
 62
7
  6
CONTINUOUS
 10
145.1958345546
 20
159.8408709692
 11
145.3349238555
 21
159.7025614156
  0
LINE
  5
55B
100
AcDbEntity
  8
0
100
AcDbLine
 62
7
  6
CONTINUOUS
 10
152.3398270879
 20
147.9897811651
 11
152.4956646665
 21
147.803917955
  0
LINE
  5
55C
100
AcDbEntity
  8
0
100
AcDbLine
 62
7
  6
CONTINUOUS
 10
152.676443501
 20
147.9554925233
 11
152.5206059224
 21
148.1413557334
  0
LINE
  5
55D
100
AcDbEntity
  8
0
100
AcDbLine
 62
7
  6
CONTINUOUS
 10
153.0996364018
 20
147.8179464768
 11
152.9957446662
 21
147.9418553033
  0
LINE
  5
55E
100
AcDbEntity
  8
0
100
AcDbLine
 62
7
  6
CONTINUOUS
 10
153.6887301598
 20
148.5228911159
 11
153.7926218954
 21
148.3989822894
  0
LINE
  5
55F
100
AcDbEntity
  8
0
100
AcDbLine
 62
7
  6
CONTINUOUS
 10
153.5751491483
 20
149.0255407357
 11
153.7309867269
 21
148.8396775256
  0
LINE
  5
560
100
AcDbEntity
  8
0
100
AcDbLine
 62
7
  6
CONTINUOUS
 10
153.9117655403
 20
148.9912520762
 11
153.7559279617
 21
149.1771152863
  0
LINE
  5
561
100
AcDbEntity
  8
0
100
AcDbLine
 62
7
  6
CONTINUOUS
 10
153.1456170212
 20
147.0125106103
 11
153.2471227233
 21
146.8866397144
  0
LINE
  5
562
100
AcDbEntity
  8
0
100
AcDbLine
 62
7
  6
CONTINUOUS
 10
154.9563291527
 20
147.7110491189
 11
154.8548234506
 21
147.8369200148
  0
LINE
  5
563
100
AcDbEntity
  8
0
100
AcDbLine
 62
7
  6
CONTINUOUS
 10
154.4149653436
 20
148.3823606438
 11
154.3134596899
 21
148.5082314797
  0
LINE
  5
564
100
AcDbEntity
  8
0
100
AcDbLine
 62
7
  6
CONTINUOUS
 10
153.6514087073
 20
146.3817377588
 11
154.2463768383
 21
145.6153821213
  0
LINE
  5
565
100
AcDbEntity
  8
0
100
AcDbLine
 62
7
  6
CONTINUOUS
 10
154.4327247132
 20
145.7600552227
 11
153.9369179374
 21
146.3986849206
  0
LINE
  5
566
100
AcDbEntity
  8
0
100
AcDbLine
 62
7
  6
CONTINUOUS
 10
155.2102950862
 20
147.3872844497
 11
155.111133731
 21
147.5150103893
  0
LINE
  5
567
100
AcDbEntity
  8
RUNDUNGEN
100
AcDbLine
 62
7
  6
CONTINUOUS
 10
176.37543754
 20
113.8789360055
 11
176.6038328166
 21
113.5678738941
  0
LINE
  5
568
100
AcDbEntity
  8
RUNDUNGEN
100
AcDbLine
 62
7
  6
CONTINUOUS
 10
132.7864095784
 20
173.8740861205
 11
132.5611499519
 21
174.1874264116
  0
LINE
  5
569
100
AcDbEntity
  8
0
100
AcDbLine
 62
7
  6
CONTINUOUS
 10
155.3691536032
 20
144.0994174708
 11
155.4948386404
 21
143.9242417226
  0
LINE
  5
56A
100
AcDbEntity
  8
0
100
AcDbLine
 62
7
  6
CONTINUOUS
 10
155.6388627564
 20
144.0607454077
 11
155.5445988886
 21
144.1921273441
  0
LINE
  5
56B
100
AcDbEntity
  8
0
100
AcDbLine
 62
7
  6
CONTINUOUS
 10
155.5791743543
 20
144.5486249858
 11
155.500621251
 21
144.6581097658
  0
LINE
  5
56C
100
AcDbEntity
  8
0
100
AcDbLine
 62
7
  6
CONTINUOUS
 10
156.1034082378
 20
144.5598923785
 11
156.1662509362
 21
144.4723042538
  0
LINE
  5
56D
100
AcDbEntity
  8
0
100
AcDbLine
 62
7
  6
CONTINUOUS
 10
156.2940388227
 20
144.5639894638
 11
156.2311961243
 21
144.6515775885
  0
LINE
  5
56E
100
AcDbEntity
  8
0
100
AcDbLine
 62
7
  6
CONTINUOUS
 10
156.3150062605
 20
145.2092455189
 11
156.3935595436
 21
145.0997604883
  0
LINE
  5
56F
100
AcDbEntity
  8
0
100
AcDbLine
 62
7
  6
CONTINUOUS
 10
156.7423477597
 20
145.0183184928
 11
156.8051904581
 21
144.9307303681
  0
LINE
  5
570
100
AcDbEntity
  8
0
100
AcDbLine
 62
7
  6
CONTINUOUS
 10
156.9492145517
 20
145.0672340371
 11
156.9177933823
 21
145.1110278489
  0
LINE
  5
571
100
AcDbEntity
  8
0
100
AcDbLine
 62
7
  6
CONTINUOUS
 10
156.5122049894
 20
142.4652050092
 11
156.601325874
 21
142.330281483
  0
LINE
  5
572
100
AcDbEntity
  8
0
100
AcDbLine
 62
7
  6
CONTINUOUS
 10
156.8092744915
 20
142.0154600934
 11
156.9281025643
 21
141.8355617154
  0
LINE
  5
573
100
AcDbEntity
  8
0
100
AcDbLine
 62
7
  6
CONTINUOUS
 10
157.1360511818
 20
141.5207403258
 11
157.2251720664
 21
141.3858167996
  0
LINE
  5
574
100
AcDbEntity
  8
0
100
AcDbLine
 62
7
  6
CONTINUOUS
 10
158.767155223
 20
142.4043411954
 11
158.6334738961
 21
142.6067264847
  0
LINE
  5
575
100
AcDbEntity
  8
0
100
AcDbLine
 62
7
  6
CONTINUOUS
 10
158.1878694729
 20
143.2813441157
 11
158.054188146
 21
143.483729405
  0
LINE
  5
576
100
AcDbEntity
  8
0
100
AcDbLine
 62
7
  6
CONTINUOUS
 10
157.3419507996
 20
141.2045199252
 11
157.4279441058
 21
141.0675818323
  0
LINE
  5
577
100
AcDbEntity
  8
0
100
AcDbLine
 62
7
  6
CONTINUOUS
 10
157.6285953723
 20
140.7480592673
 11
157.7432530046
 21
140.5654753176
  0
LINE
  5
578
100
AcDbEntity
  8
0
100
AcDbLine
 62
7
  6
CONTINUOUS
 10
157.9439039431
 20
140.2459532749
 11
158.0298972493
 21
140.109015182
  0
LINE
  5
579
100
AcDbEntity
  8
0
100
AcDbLine
 62
7
  6
CONTINUOUS
 10
159.5949040253
 20
141.0917958245
 11
159.4659140659
 21
141.2972029639
  0
LINE
  5
57A
100
AcDbEntity
  8
0
100
AcDbLine
 62
7
  6
CONTINUOUS
 10
159.0359475348
 20
141.9818934284
 11
158.9069575755
 21
142.1873005677
  0
LWPOLYLINE
  5
57B
100
AcDbEntity
  8
RUNDUNGEN
100
AcDbPolyline
 62
7
  6
CONTINUOUS
 90
3
 70
0
 10
167.2348703826
 20
129.2904112521
 10
167.2256939093
 20
129.3079375888
 10
166.8647626176
 20
130.0180031247
  0
LINE
  5
57C
100
AcDbEntity
  8
RUNDUNGEN
100
AcDbLine
 62
7
  6
CONTINUOUS
 10
166.8647626176
 20
130.0180031247
 11
166.7752208342
 21
130.1925242847
  0
LINE
  5
57D
100
AcDbEntity
  8
RUNDUNGEN
100
AcDbLine
 62
7
  6
CONTINUOUS
 10
176.279363112
 20
95.8129739209
 11
178.0639728933
 21
91.9218032234
  0
LINE
  5
57E
100
AcDbEntity
  8
0
100
AcDbLine
 62
7
  6
CONTINUOUS
 10
157.0272422124
 20
144.8910336417
 11
156.9492145517
 21
145.0672340371
  0
LINE
  5
57F
100
AcDbEntity
  8
0
100
AcDbLine
 62
7
  6
CONTINUOUS
 10
152.2833804423
 20
148.1183009528
 11
152.3398270879
 21
147.9897811651
  0
LINE
  5
580
100
AcDbEntity
  8
0
100
AcDbLine
 62
7
  6
CONTINUOUS
 10
153.9682122009
 20
148.862732276
 11
153.9117655403
 21
148.9912520762
  0
LINE
  5
581
100
AcDbEntity
  8
0
100
AcDbLine
 62
7
  6
CONTINUOUS
 10
156.1662509362
 20
144.4723042538
 11
156.2285678323
 21
144.3180010148
  0
LINE
  5
582
100
AcDbEntity
  8
0
100
AcDbLine
 62
7
  6
CONTINUOUS
 10
156.0550011757
 20
143.1975709508
 11
156.1145186376
 21
143.0421664557
  0
LINE
  5
583
100
AcDbEntity
  8
0
100
AcDbLine
 62
7
  6
CONTINUOUS
 10
157.6947723595
 20
143.9367454083
 11
157.6352548947
 21
144.0921499015
  0
LINE
  5
584
100
AcDbEntity
  8
0
100
AcDbLine
 62
7
  6
CONTINUOUS
 10
153.7309867269
 20
148.8396775256
 11
153.7701181148
 21
148.7318091768
  0
LINE
  5
585
100
AcDbEntity
  8
0
100
AcDbLine
 62
7
  6
CONTINUOUS
 10
155.5445988886
 20
144.1921273441
 11
155.4979927569
 21
144.3245334266
  0
LINE
  5
586
100
AcDbEntity
  8
0
100
AcDbLine
 62
7
  6
CONTINUOUS
 10
156.8051904581
 20
144.9307303681
 11
156.8517965898
 21
144.7983242856
  0
LINE
  5
587
100
AcDbEntity
  8
RUNDUNGEN
100
AcDbLine
 62
7
  6
CONTINUOUS
 10
176.2772655026
 20
95.8098960719
 11
176.1507168399
 21
96.1746977267
  0
LINE
  5
588
100
AcDbEntity
  8
0
100
AcDbLine
 62
7
  6
CONTINUOUS
 10
156.2762990939
 20
143.1538668246
 11
156.232093654
 21
143.2870942524
  0
LINE
  5
589
100
AcDbEntity
  8
0
100
AcDbLine
 62
7
  6
CONTINUOUS
 10
157.4734744611
 20
143.9804495482
 11
157.5176795505
 21
143.847222628
  0
LINE
  5
58A
100
AcDbEntity
  8
RUNDUNGEN
100
AcDbLine
 62
7
  6
CONTINUOUS
 10
156.2615450632
 20
157.4119491761
 11
156.3735900864
 21
157.0424349858
  0
LINE
  5
58B
100
AcDbEntity
  8
RUNDUNGEN
100
AcDbLine
 62
7
  6
CONTINUOUS
 10
155.4216598016
 20
161.6076742848
 11
156.2650512217
 21
157.4106921555
  0
LWPOLYLINE
  5
58C
100
AcDbEntity
  8
RUNDUNGEN
100
AcDbPolyline
 62
7
  6
CONTINUOUS
 90
3
 70
0
 10
168.6254468573
 20
125.0106569288
 10
168.6287582661
 20
124.9911527058
 10
168.7526020053
 20
124.2043063479
  0
LINE
  5
58D
100
AcDbEntity
  8
RUNDUNGEN
100
AcDbLine
 62
7
  6
CONTINUOUS
 10
168.7526020053
 20
124.2043063479
 11
168.7838312976
 21
124.0106569288
  0
LINE
  5
58E
100
AcDbEntity
  8
RUNDUNGEN
100
AcDbLine
 62
7
  6
CONTINUOUS
 10
176.0966285586
 20
114.9879364666
 11
176.117017552
 21
114.6024562584
  0
LINE
  5
58F
100
AcDbEntity
  8
RUNDUNGEN
100
AcDbLine
 62
7
  6
CONTINUOUS
 10
176.096628611
 20
96.5569654965
 11
176.1170176018
 21
96.942445665
  0
LINE
  5
590
100
AcDbEntity
  8
RUNDUNGEN
100
AcDbLine
 62
7
  6
CONTINUOUS
 10
176.1507167889
 20
115.3702042244
 11
176.0966285586
 21
114.9879364666
  0
LINE
  5
591
100
AcDbEntity
  8
RUNDUNGEN
100
AcDbLine
 62
7
  6
CONTINUOUS
 10
167.0340055337
 20
69.0724999703
 11
166.9616831599
 21
68.6934090608
  0
LINE
  5
592
100
AcDbEntity
  8
RUNDUNGEN
100
AcDbLine
 62
7
  6
CONTINUOUS
 10
176.1170176018
 20
96.942445665
 11
176.2111235714
 21
97.3167648959
  0
LINE
  5
593
100
AcDbEntity
  8
RUNDUNGEN
100
AcDbLine
 62
7
  6
CONTINUOUS
 10
173.2864464058
 20
73.3727487851
 11
174.2408882653
 21
76.3102187831
  0
LINE
  5
594
100
AcDbEntity
  8
RUNDUNGEN
100
AcDbLine
 62
7
  6
CONTINUOUS
 10
177.7873897516
 20
87.225228022
 11
178.7418317847
 21
90.1626985547
  0
LINE
  5
595
100
AcDbEntity
  8
RUNDUNGEN
100
AcDbLine
 62
7
  6
CONTINUOUS
 10
167.1778915322
 20
69.4306446991
 11
167.0340055337
 21
69.0724999703
  0
LINE
  5
596
100
AcDbEntity
  8
RUNDUNGEN
100
AcDbLine
 62
7
  6
CONTINUOUS
 10
176.2111235714
 20
97.3167648959
 11
176.3754375848
 21
97.6659659036
  0
LINE
  5
597
100
AcDbEntity
  8
RUNDUNGEN
100
AcDbLine
 62
7
  6
CONTINUOUS
 10
156.3735901312
 20
54.5024669342
 11
156.5545231922
 21
54.8435203196
  0
LINE
  5
598
100
AcDbEntity
  8
RUNDUNGEN
100
AcDbLine
 62
7
  6
CONTINUOUS
 10
167.3879760715
 20
69.7544890881
 11
167.1778915322
 21
69.4306446991
  0
LINE
  5
599
100
AcDbEntity
  8
RUNDUNGEN
100
AcDbLine
 62
7
  6
CONTINUOUS
 10
156.5545231922
 20
54.8435203196
 11
156.7975977904
 21
55.1433959789
  0
LINE
  5
59A
100
AcDbEntity
  8
RUNDUNGEN
100
AcDbLine
 62
7
  6
CONTINUOUS
 10
167.6564257195
 20
70.0319579364
 11
167.3879760715
 21
69.7544890881
  0
LINE
  5
59B
100
AcDbEntity
  8
RUNDUNGEN
100
AcDbLine
 62
7
  6
CONTINUOUS
 10
133.0677436057
 20
37.9349968195
 11
132.7864095303
 21
37.6708158561
  0
LINE
  5
59C
100
AcDbEntity
  8
RUNDUNGEN
100
AcDbLine
 62
7
  6
CONTINUOUS
 10
156.7975977904
 20
55.1433959789
 11
157.0937504427
 21
55.3909124968
  0
LINE
  5
59D
100
AcDbEntity
  8
RUNDUNGEN
100
AcDbLine
 62
7
  6
CONTINUOUS
 10
140.6536973621
 20
37.7388786553
 11
143.1524585904
 21
39.554334955
  0
LINE
  5
59E
100
AcDbEntity
  8
RUNDUNGEN
100
AcDbLine
 62
7
  6
CONTINUOUS
 10
152.4373200227
 20
46.3001816522
 11
154.9360817058
 21
48.1156382823
  0
LINE
  5
59F
100
AcDbEntity
  8
RUNDUNGEN
100
AcDbLine
 62
7
  6
CONTINUOUS
 10
133.3946620135
 20
38.1401679236
 11
133.0677436057
 21
37.9349968195
  0
LINE
  5
5A0
100
AcDbEntity
  8
RUNDUNGEN
100
AcDbLine
 62
7
  6
CONTINUOUS
 10
157.0937504427
 20
55.3909124968
 11
157.4319384743
 21
55.5768406927
  0
LINE
  5
5A1
100
AcDbEntity
  8
RUNDUNGEN
100
AcDbLine
 62
7
  6
CONTINUOUS
 10
115.8792358339
 20
32.4136274417
 11
116.2260799053
 21
32.5831956415
  0
LINE
  5
5A2
100
AcDbEntity
  8
RUNDUNGEN
100
AcDbLine
 62
7
  6
CONTINUOUS
 10
133.7549749319
 20
38.2786789439
 11
133.3946620135
 21
38.1401679236
  0
LINE
  5
5A3
100
AcDbEntity
  8
RUNDUNGEN
100
AcDbLine
 62
7
  6
CONTINUOUS
 10
88.0442884166
 20
178.9617063139
 11
87.67137442
 21
178.8619774621
  0
LINE
  5
5A4
100
AcDbEntity
  8
RUNDUNGEN
100
AcDbLine
 62
7
  6
CONTINUOUS
 10
70.1351209709
 20
173.1995368418
 11
70.5153934055
 21
173.2662230627
  0
LINE
  5
5A5
100
AcDbEntity
  8
RUNDUNGEN
100
AcDbLine
 62
7
  6
CONTINUOUS
 10
116.9840729782
 20
178.8358065003
 11
117.3669587005
 21
178.8841693689
  0
LINE
  5
5A6
100
AcDbEntity
  8
RUNDUNGEN
100
AcDbLine
 62
7
  6
CONTINUOUS
 10
87.67137442
 20
178.8619774621
 11
87.2862953327
 21
178.8358065489
  0
LINE
  5
5A7
100
AcDbEntity
  8
RUNDUNGEN
100
AcDbLine
 62
7
  6
CONTINUOUS
 10
110.962182275
 20
183.4533811705
 11
107.8735440978
 21
183.4533811705
  0
LINE
  5
5A8
100
AcDbEntity
  8
RUNDUNGEN
100
AcDbLine
 62
7
  6
CONTINUOUS
 10
96.3968242058
 20
183.4533811705
 11
93.3081821949
 21
183.4533811705
  0
LINE
  5
5A9
100
AcDbEntity
  8
RUNDUNGEN
100
AcDbLine
 62
7
  6
CONTINUOUS
 10
116.5989938813
 20
178.861977409
 11
116.9840729782
 21
178.8358065003
  0
LINE
  5
5AA
100
AcDbEntity
  8
RUNDUNGEN
100
AcDbLine
 62
7
  6
CONTINUOUS
 10
87.2862953327
 20
178.8358065489
 11
86.9034096162
 21
178.8841694104
  0
LINE
  5
5AB
100
AcDbEntity
  8
RUNDUNGEN
100
AcDbLine
 62
7
  6
CONTINUOUS
 10
134.1352473664
 20
173.1995367819
 11
133.7549749311
 21
173.2662230566
  0
LINE
  5
5AC
100
AcDbEntity
  8
RUNDUNGEN
100
AcDbLine
 62
7
  6
CONTINUOUS
 10
116.2260798719
 20
178.9617062592
 11
116.5989938813
 21
178.861977409
  0
LINE
  5
5AD
100
AcDbEntity
  8
RUNDUNGEN
100
AcDbLine
 62
7
  6
CONTINUOUS
 10
133.7549749311
 20
173.2662230566
 11
133.3946620495
 21
173.4047340622
  0
LINE
  5
5AE
100
AcDbEntity
  8
RUNDUNGEN
100
AcDbLine
 62
7
  6
CONTINUOUS
 10
115.8792358122
 20
179.1312744566
 11
116.2260798719
 21
178.9617062592
  0
LINE
  5
5AF
100
AcDbEntity
  8
RUNDUNGEN
100
AcDbLine
 62
7
  6
CONTINUOUS
 10
157.0937504222
 20
156.1539893953
 11
157.4319384593
 21
155.9680611969
  0
LINE
  5
5B0
100
AcDbEntity
  8
RUNDUNGEN
100
AcDbLine
 62
7
  6
CONTINUOUS
 10
133.3946620495
 20
173.4047340622
 11
133.0677436498
 21
173.6099051615
  0
LINE
  5
5B1
100
AcDbEntity
  8
RUNDUNGEN
100
AcDbLine
 62
7
  6
CONTINUOUS
 10
154.9360812509
 20
163.4292639933
 11
152.4373200227
 21
165.244720293
  0
LINE
  5
5B2
100
AcDbEntity
  8
RUNDUNGEN
100
AcDbLine
 62
7
  6
CONTINUOUS
 10
143.1524585904
 20
171.9905669902
 11
140.6536969073
 21
173.8060236203
  0
LINE
  5
5B3
100
AcDbEntity
  8
RUNDUNGEN
100
AcDbLine
 62
7
  6
CONTINUOUS
 10
156.7975977628
 20
156.4015059194
 11
157.0937504222
 21
156.1539893953
  0
LINE
  5
5B4
100
AcDbEntity
  8
RUNDUNGEN
100
AcDbLine
 62
7
  6
CONTINUOUS
 10
133.0677436498
 20
173.6099051615
 11
132.7864095784
 21
173.8740861205
  0
LINE
  5
5B5
100
AcDbEntity
  8
RUNDUNGEN
100
AcDbLine
 62
7
  6
CONTINUOUS
 10
167.6564257572
 20
141.5129440435
 11
167.3879761034
 21
141.7904129023
  0
LINE
  5
5B6
100
AcDbEntity
  8
RUNDUNGEN
100
AcDbLine
 62
7
  6
CONTINUOUS
 10
156.5545231393
 20
156.7013816092
 11
156.7975977628
 21
156.4015059194
  0
LINE
  5
5B7
100
AcDbEntity
  8
RUNDUNGEN
100
AcDbLine
 62
7
  6
CONTINUOUS
 10
167.3879761034
 20
141.7904129023
 11
167.1778915853
 21
142.1142572578
  0
LINE
  5
5B8
100
AcDbEntity
  8
RUNDUNGEN
100
AcDbLine
 62
7
  6
CONTINUOUS
 10
156.3735900864
 20
157.0424349858
 11
156.5545231393
 21
156.7013816092
  0
LINE
  5
5B9
100
AcDbEntity
  8
RUNDUNGEN
100
AcDbLine
 62
7
  6
CONTINUOUS
 10
176.2111235237
 20
114.2281370184
 11
176.37543754
 21
113.8789360055
  0
LINE
  5
5BA
100
AcDbEntity
  8
RUNDUNGEN
100
AcDbLine
 62
7
  6
CONTINUOUS
 10
167.1778915853
 20
142.1142572578
 11
167.0340055905
 21
142.472401978
  0
LINE
  5
5BB
100
AcDbEntity
  8
RUNDUNGEN
100
AcDbLine
 62
7
  6
CONTINUOUS
 10
178.741831611
 20
121.3822039251
 11
177.7873897516
 21
124.3196739231
  0
LINE
  5
5BC
100
AcDbEntity
  8
RUNDUNGEN
100
AcDbLine
 62
7
  6
CONTINUOUS
 10
174.2408882653
 20
135.2346831621
 11
173.2864462321
 21
138.1721536947
  0
LINE
  5
5BD
100
AcDbEntity
  8
RUNDUNGEN
100
AcDbLine
 62
7
  6
CONTINUOUS
 10
176.117017552
 20
114.6024562584
 11
176.2111235237
 21
114.2281370184
  0
LINE
  5
5BE
100
AcDbEntity
  8
RUNDUNGEN
100
AcDbLine
 62
7
  6
CONTINUOUS
 10
167.0340055905
 20
142.472401978
 11
166.9616832173
 21
142.8514928815
  0
LINE
  5
5BF
100
AcDbEntity
  8
RUNDUNGEN
100
AcDbLine
 62
7
  6
CONTINUOUS
 10
176.1507168399
 20
96.1746977267
 11
176.096628611
 21
96.5569654965
  0
LINE
  5
5C0
100
AcDbEntity
  8
RUNDUNGEN
100
AcDbLine
 62
7
  6
CONTINUOUS
 10
180.5542149035
 20
102.7724509726
 11
180.5542149035
 21
108.7724509726
  0
LINE
  5
5C1
100
AcDbEntity
  8
RUNDUNGEN
100
AcDbLine
 62
7
  6
CONTINUOUS
 10
163.8141569555
 20
57.2518502145
 11
167.3408684692
 21
62.1059521808
  0
LINE
  5
5C2
100
AcDbEntity
  8
RUNDUNGEN
100
AcDbLine
 62
7
  6
CONTINUOUS
 10
123.5148277876
 20
30.2644697915
 11
129.2211668854
 21
32.1185717577
  0
LINE
  5
5C3
100
AcDbEntity
  8
RUNDUNGEN
100
AcDbLine
 62
7
  6
CONTINUOUS
 10
129.2211668854
 20
179.4263301874
 11
123.5148277876
 21
181.2804321537
  0
LINE
  5
5C4
100
AcDbEntity
  8
RUNDUNGEN
100
AcDbLine
 62
7
  6
CONTINUOUS
 10
167.3408684692
 20
149.4389497644
 11
163.8141569555
 21
154.2930517306
  0
LINE
  5
5C5
100
AcDbEntity
  8
RUNDUNGEN
100
AcDbLine
 62
7
  6
CONTINUOUS
 10
214.8260224011
 20
28.0915207746
 11
242.8260224011
 21
28.0915207746
  0
LINE
  5
5C6
100
AcDbEntity
  8
RUNDUNGEN
100
AcDbLine
 62
7
  6
CONTINUOUS
 10
229.0760224011
 20
30.2155263078
 11
229.2711529527
 21
30.2347490325
  0
LINE
  5
5C7
100
AcDbEntity
  8
0
100
AcDbLine
 62
7
  6
CONTINUOUS
 10
228.5760224011
 20
30.2155263078
 11
229.0760224011
 21
30.2155263078
  0
LINE
  5
5C8
100
AcDbEntity
  8
RUNDUNGEN
100
AcDbLine
 62
7
  6
CONTINUOUS
 10
228.5760224011
 20
30.2155263078
 11
228.3808918496
 21
30.2347490325
  0
LWPOLYLINE
  5
5C9
100
AcDbEntity
  8
RUNDUNGEN
100
AcDbPolyline
 62
7
  6
CONTINUOUS
 90
8
 70
0
 10
228.3808918496
 20
30.2347490325
 10
228.1933048201
 20
30.2916609209
 10
228.0204303116
 20
30.3840713003
 10
227.868904265
 20
30.5084308817
 10
227.7445559272
 20
30.6599513782
 10
227.6521482953
 20
30.8328297745
 10
227.5952384947
 20
31.0204291617
 10
227.5760224011
 20
31.2155263078
  0
LINE
  5
5CA
100
AcDbEntity
  8
0
100
AcDbLine
 62
7
  6
CONTINUOUS
 10
214.3695985416
 20
173.3953838512
 11
214.2702542098
 21
173.3422459692
  0
LWPOLYLINE
  5
5CB
100
AcDbEntity
  8
RUNDUNGEN
100
AcDbPolyline
 62
7
  6
CONTINUOUS
 90
7
 70
0
 10
228.8256340996
 20
37.547902002
 10
229.4851337403
 20
37.567301166
 10
230.5247725634
 20
37.6634785708
 10
231.5694452253
 20
37.7987413848
 10
232.637664052
 20
37.927590001
 10
233.7422752247
 20
38.0143702182
 10
234.5154145409
 20
38.0340605073
  0
LINE
  5
5CC
100
AcDbEntity
  8
RUNDUNGEN
100
AcDbLine
 62
7
  6
CONTINUOUS
 10
242.8260224011
 20
38.0339932796
 11
234.5154140012
 21
38.0339932796
  0
LINE
  5
5CD
100
AcDbEntity
  8
RUNDUNGEN
100
AcDbLine
 62
7
  6
CONTINUOUS
 10
223.1368536136
 20
38.0339932796
 11
214.8260224011
 21
38.0339932796
  0
LWPOLYLINE
  5
5CE
100
AcDbEntity
  8
RUNDUNGEN
100
AcDbPolyline
 62
7
  6
CONTINUOUS
 90
7
 70
0
 10
223.1368536049
 20
38.0340073841
 10
223.9422066299
 20
38.0127575049
 10
225.0475434673
 20
37.9240925826
 10
226.1159353153
 20
37.7943550756
 10
227.1608377148
 20
37.6594930932
 10
228.2006597812
 20
37.56540621
 10
228.8256340954
 20
37.5479000534
  0
LWPOLYLINE
  5
5CF
100
AcDbEntity
  8
RUNDUNGEN
100
AcDbPolyline
 62
7
  6
CONTINUOUS
 90
9
 70
0
 10
214.8260224011
 20
38.0339932796
 10
214.6305528534
 20
38.0532835313
 10
214.4430204869
 20
38.1102457309
 10
214.2702542098
 20
38.202655976
 10
214.118816838
 20
38.3269852941
 10
213.994587696
 20
38.4783708099
 10
213.9021967802
 20
38.651179719
 10
213.8452508374
 20
38.8388348147
 10
213.8260224011
 20
39.0339932796
  0
LINE
  5
5D0
100
AcDbEntity
  8
0
100
AcDbLine
 62
7
  6
CONTINUOUS
 10
214.2702542098
 20
173.3422459692
 11
214.118816838
 21
173.217916651
  0
LINE
  5
5D1
100
AcDbEntity
  8
0
100
AcDbLine
 62
7
  6
CONTINUOUS
 10
214.8260224011
 20
46.1091986465
 11
242.8260224011
 21
46.1091986465
  0
LWPOLYLINE
  5
5D2
100
AcDbEntity
  8
0
100
AcDbPolyline
 62
7
  6
CONTINUOUS
 90
5
 70
0
 10
214.118816838
 20
173.217916651
 10
213.994587696
 20
173.0665311353
 10
213.9021967802
 20
172.8937222261
 10
213.8452508374
 20
172.7060671304
 10
213.8260224011
 20
172.5109086656
  0
LINE
  5
5D3
100
AcDbEntity
  8
0
100
AcDbLine
 62
7
  6
CONTINUOUS
 10
235.1234094791
 20
169.3023074788
 11
235.1554050852
 21
169.320249552
  0
LINE
  5
5D4
100
AcDbEntity
  8
RUNDUNGEN
100
AcDbLine
 62
7
  6
CONTINUOUS
 10
235.1556663484
 20
169.3203924046
 11
235.1554050852
 21
169.320249552
  0
LINE
  5
5D5
100
AcDbEntity
  8
0
100
AcDbLine
 62
7
  6
CONTINUOUS
 10
235.1556647465
 20
169.3203955106
 11
235.573143732
 21
169.5464046477
  0
LINE
  5
5D6
100
AcDbEntity
  8
0
100
AcDbLine
 62
7
  6
CONTINUOUS
 10
235.573143732
 20
169.5464046477
 11
235.9644572514
 21
169.7548096674
  0
LINE
  5
5D7
100
AcDbEntity
  8
0
100
AcDbLine
 62
7
  6
CONTINUOUS
 10
235.9644572514
 20
169.7548096674
 11
236.3690141961
 21
169.9673154787
  0
LINE
  5
5D8
100
AcDbEntity
  8
RUNDUNGEN
100
AcDbLine
 62
7
  6
CONTINUOUS
 10
236.7877598178
 20
170.184599415
 11
236.7873744579
 21
170.1844005734
  0
LINE
  5
5D9
100
AcDbEntity
  8
0
100
AcDbLine
 62
7
  6
CONTINUOUS
 10
236.3690141961
 20
169.9673154787
 11
236.9932730676
 21
170.2904235316
  0
LWPOLYLINE
  5
5DA
100
AcDbEntity
  8
0
100
AcDbPolyline
 62
7
  6
CONTINUOUS
 90
3
 70
0
 10
236.9932730676
 20
170.2904235316
 10
237.6187963487
 20
170.6091913606
 10
238.2569009309
 20
170.9301690273
  0
LINE
  5
5DB
100
AcDbEntity
  8
0
100
AcDbLine
 62
7
  6
CONTINUOUS
 10
238.2569009309
 20
170.9301690273
 11
239.5549022056
 21
171.5723977252
  0
LINE
  5
5DC
100
AcDbEntity
  8
0
100
AcDbLine
 62
7
  6
CONTINUOUS
 10
239.5549022056
 20
171.5723977252
 11
243.2650302519
 21
173.3848929144
  0
LINE
  5
5DD
100
AcDbEntity
  8
0
100
AcDbLine
 62
7
  6
CONTINUOUS
 10
234.9492801076
 20
169.4398935022
 11
235.6967529828
 21
169.8044603825
  0
LINE
  5
5DE
100
AcDbEntity
  8
0
100
AcDbLine
 62
2
  6
CONTINUOUS
 10
226.0602773386
 20
171.7033811705
 11
223.3219213972
 21
168.9650252291
  0
LINE
  5
5DF
100
AcDbEntity
  8
0
100
AcDbLine
 62
2
  6
CONTINUOUS
 10
231.9611946811
 20
171.7033811705
 11
223.8260224011
 21
163.5682088906
  0
LINE
  5
5E0
100
AcDbEntity
  8
RUNDUNGEN
100
AcDbLine
 62
7
  6
CONTINUOUS
 10
234.8960209948
 20
169.146856081
 11
234.8947339913
 21
169.1458290106
  0
LWPOLYLINE
  5
5E1
100
AcDbEntity
  8
0
100
AcDbPolyline
 62
7
  6
CONTINUOUS
 90
4
 70
0
 10
234.8947378945
 20
169.1458239858
 10
234.9575619996
 20
169.1939417026
 10
235.0405770954
 20
169.2514749742
 10
235.1234094791
 20
169.3023074788
  0
LWPOLYLINE
  5
5E2
100
AcDbEntity
  8
0
100
AcDbPolyline
 62
7
  6
CONTINUOUS
 90
3
 70
0
 10
241.9792916658
 20
161.7223991535
 10
242.1906328009
 20
161.8090734407
 10
242.4039564708
 20
161.8946813344
  0
LINE
  5
5E3
100
AcDbEntity
  8
0
100
AcDbLine
 62
7
  6
CONTINUOUS
 10
242.4039564708
 20
161.8946813344
 11
243.1934227875
 21
162.2065848638
  0
LINE
  5
5E4
100
AcDbEntity
  8
RUNDUNGEN
100
AcDbLine
 62
7
  6
CONTINUOUS
 10
243.1927484164
 20
162.2063187519
 11
243.1927769412
 21
162.2063299988
  0
LINE
  5
5E5
100
AcDbEntity
  8
0
100
AcDbLine
 62
2
  6
CONTINUOUS
 10
233.8279495439
 20
167.6692186908
 11
223.8260224011
 21
157.6672915481
  0
LINE
  5
5E6
100
AcDbEntity
  8
0
100
AcDbLine
 62
7
  6
CONTINUOUS
 10
234.6725041762
 20
168.938461775
 11
234.8960209948
 21
169.146856081
  0
LINE
  5
5E7
100
AcDbEntity
  8
0
100
AcDbLine
 62
7
  6
CONTINUOUS
 10
243.1927484164
 20
162.2063187519
 11
243.3818500642
 21
162.3053502
  0
LINE
  5
5E8
100
AcDbEntity
  8
RUNDUNGEN
100
AcDbLine
 62
7
  6
CONTINUOUS
 10
239.3566160487
 20
155.7019780085
 11
239.3567273645
 21
155.7020220221
  0
LINE
  5
5E9
100
AcDbEntity
  8
0
100
AcDbLine
 62
7
  6
CONTINUOUS
 10
239.3566351313
 20
155.7019298574
 11
243.1936074316
 21
157.218318136
  0
LINE
  5
5EA
100
AcDbEntity
  8
RUNDUNGEN
100
AcDbLine
 62
7
  6
CONTINUOUS
 10
243.1937051299
 20
157.2183567453
 11
243.1936557192
 21
157.2183373267
  0
LINE
  5
5EB
100
AcDbEntity
  8
RUNDUNGEN
100
AcDbLine
 62
7
  6
CONTINUOUS
 10
243.193711297
 20
54.3265427626
 11
239.3566347213
 21
55.8429722498
  0
LWPOLYLINE
  5
5EC
100
AcDbEntity
  8
RUNDUNGEN
100
AcDbPolyline
 62
7
  6
CONTINUOUS
 90
7
 70
0
 10
239.3567270546
 20
55.8428805437
 10
239.2649827608
 20
55.8796519324
 10
238.8173099638
 20
56.0734898966
 10
238.3557012269
 20
56.2983176152
 10
237.8846320017
 20
56.5541321448
 10
237.4091897932
 20
56.8403892202
 10
237.2375766164
 20
56.9509914769
  0
LINE
  5
5ED
100
AcDbEntity
  8
0
100
AcDbLine
 62
2
  6
CONTINUOUS
 10
233.8260224011
 20
161.7663742056
 11
223.8260224011
 21
151.7663742056
  0
LWPOLYLINE
  5
5EE
100
AcDbEntity
  8
0
100
AcDbPolyline
 62
7
  6
CONTINUOUS
 90
6
 70
0
 10
214.2692785918
 20
137.9072979105
 10
214.1185922503
 20
137.7833969422
 10
213.9951888844
 20
137.6331347134
 10
213.9028002966
 20
137.4608804423
 10
213.8454164345
 20
137.272595257
 10
213.8260224011
 20
137.0766136786
  0
LWPOLYLINE
  5
5EF
100
AcDbEntity
  8
0
100
AcDbPolyline
 62
7
  6
CONTINUOUS
 90
5
 70
0
 10
243.3818500642
 20
162.3053502
 10
243.5332556501
 20
162.4296674505
 10
243.6574434364
 20
162.581004817
 10
243.7498294719
 20
162.7537894177
 10
243.8067892089
 20
162.941465643
  0
LWPOLYLINE
  5
5F0
100
AcDbEntity
  8
0
100
AcDbPolyline
 62
7
  6
CONTINUOUS
 90
7
 70
0
 10
237.2375743673
 20
154.5939091045
 10
237.4091871442
 20
154.7045111894
 10
237.8846294759
 20
154.9907686229
 10
238.3556990189
 20
155.2465835644
 10
238.8173083669
 20
155.4714117161
 10
239.2649821514
 20
155.6652502465
 10
239.3567273645
 20
155.7020220221
  0
LWPOLYLINE
  5
5F1
100
AcDbEntity
  8
0
100
AcDbPolyline
 62
7
  6
CONTINUOUS
 90
3
 70
0
 10
214.6277650615
 20
138.0567631257
 10
214.4408644709
 20
137.9994643538
 10
214.2692785918
 20
137.9072979105
  0
LWPOLYLINE
  5
5F2
100
AcDbEntity
  8
RUNDUNGEN
100
AcDbPolyline
 62
7
  6
CONTINUOUS
 90
9
 70
0
 10
214.8260224011
 20
73.4682882666
 10
214.6277650615
 20
73.4881388195
 10
214.4408644709
 20
73.5454375913
 10
214.2692785918
 20
73.6376040347
 10
214.1185922503
 20
73.761505003
 10
213.9951888844
 20
73.9117672318
 10
213.9028002966
 20
74.0840215028
 10
213.8454164345
 20
74.2723066881
 10
213.8260224011
 20
74.4682882666
  0
LINE
  5
5F3
100
AcDbEntity
  8
RUNDUNGEN
100
AcDbLine
 62
7
  6
CONTINUOUS
 10
237.2375732686
 20
56.9510369489
 11
236.9827719923
 21
57.1227213929
  0
LINE
  5
5F4
100
AcDbEntity
  8
RUNDUNGEN
100
AcDbLine
 62
7
  6
CONTINUOUS
 10
236.9825425572
 20
57.122884935
 11
236.7002266637
 21
57.3241207644
  0
LWPOLYLINE
  5
5F5
100
AcDbEntity
  8
RUNDUNGEN
100
AcDbPolyline
 62
7
  6
CONTINUOUS
 90
4
 70
0
 10
236.7000647173
 20
57.324243245
 10
236.4213857531
 20
57.535009029
 10
236.1474194554
 20
57.7548823071
 10
236.0036822637
 20
57.8756324919
  0
LINE
  5
5F6
100
AcDbEntity
  8
0
100
AcDbLine
 62
2
  6
CONTINUOUS
 10
233.8260224011
 20
155.8654568632
 11
223.8260224011
 21
145.8654568632
  0
LINE
  5
5F7
100
AcDbEntity
  8
0
100
AcDbLine
 62
2
  6
CONTINUOUS
 10
233.8260224011
 20
149.9645395207
 11
223.8156241928
 21
139.9541413123
  0
LINE
  5
5F8
100
AcDbEntity
  8
0
100
AcDbLine
 62
2
  6
CONTINUOUS
 10
214.6958563918
 20
130.8343735113
 11
209.7760224011
 21
125.9145395207
  0
LINE
  5
5F9
100
AcDbEntity
  8
RUNDUNGEN
100
AcDbLine
 62
7
  6
CONTINUOUS
 10
236.0036903709
 20
153.66925951
 11
236.0034849782
 21
153.6690842798
  0
LWPOLYLINE
  5
5FA
100
AcDbEntity
  8
0
100
AcDbPolyline
 62
7
  6
CONTINUOUS
 90
6
 70
0
 10
236.0036821357
 20
153.6692691515
 10
236.1473049228
 20
153.7899247395
 10
236.42120717
 20
154.0097538331
 10
236.7000260852
 20
154.2206346104
 10
236.9825739801
 20
154.4220421156
 10
237.2375716049
 20
154.5938624493
  0
LINE
  5
5FB
100
AcDbEntity
  8
RUNDUNGEN
100
AcDbLine
 62
7
  6
CONTINUOUS
 10
231.9712076469
 20
73.1636546665
 11
231.9617658395
 21
73.16171655
  0
LWPOLYLINE
  5
5FC
100
AcDbEntity
  8
RUNDUNGEN
100
AcDbPolyline
 62
7
  6
CONTINUOUS
 90
4
 70
0
 10
231.9617586605
 20
73.1617127514
 10
232.625829826
 20
73.2886003709
 10
233.72628579
 20
73.4339270858
 10
234.5154242462
 20
73.468394948
  0
LINE
  5
5FD
100
AcDbEntity
  8
RUNDUNGEN
100
AcDbLine
 62
7
  6
CONTINUOUS
 10
242.8260224011
 20
73.4682882666
 11
234.5154207824
 21
73.4682882666
  0
LINE
  5
5FE
100
AcDbEntity
  8
RUNDUNGEN
100
AcDbLine
 62
7
  6
CONTINUOUS
 10
223.1368638508
 20
73.4682882666
 11
214.8260224011
 21
73.4682882666
  0
LWPOLYLINE
  5
5FF
100
AcDbEntity
  8
RUNDUNGEN
100
AcDbPolyline
 62
7
  6
CONTINUOUS
 90
4
 70
0
 10
223.1368639539
 20
73.4683091326
 10
223.9588584712
 20
73.4311141324
 10
225.0614008718
 20
73.2824275367
 10
225.6885125123
 20
73.1620863542
  0
LINE
  5
600
100
AcDbEntity
  8
RUNDUNGEN
100
AcDbLine
 62
7
  6
CONTINUOUS
 10
225.6885185215
 20
73.1620852374
 11
225.6804774129
 21
73.1637351921
  0
LINE
  5
601
100
AcDbEntity
  8
RUNDUNGEN
100
AcDbLine
 62
7
  6
CONTINUOUS
 10
236.0034855119
 20
57.8758249021
 11
236.003694947
 21
57.8756462459
  0
LWPOLYLINE
  5
602
100
AcDbEntity
  8
RUNDUNGEN
100
AcDbPolyline
 62
7
  6
CONTINUOUS
 90
3
 70
0
 10
236.0034855119
 20
57.8758249021
 10
235.9248385446
 20
57.9456394716
 10
235.7942831753
 20
58.0728951217
  0
LINE
  5
603
100
AcDbEntity
  8
RUNDUNGEN
100
AcDbLine
 62
7
  6
CONTINUOUS
 10
235.7944357015
 20
58.0727554238
 11
235.6618549295
 21
58.2156545155
  0
LWPOLYLINE
  5
604
100
AcDbEntity
  8
0
100
AcDbPolyline
 62
7
  6
CONTINUOUS
 90
3
 70
0
 10
234.1548312055
 20
168.1011775493
 10
234.3917811769
 20
168.5674596993
 10
234.6725041762
 20
168.938461775
  0
LINE
  5
605
100
AcDbEntity
  8
RUNDUNGEN
100
AcDbLine
 62
7
  6
CONTINUOUS
 10
235.5901552835
 20
153.2465921448
 11
235.5896243101
 21
153.2459691366
  0
LWPOLYLINE
  5
606
100
AcDbEntity
  8
0
100
AcDbPolyline
 62
7
  6
CONTINUOUS
 90
5
 70
0
 10
235.5901543327
 20
153.2465929225
 10
235.6617913163
 20
153.3291824646
 10
235.7942827967
 20
153.4720065093
 10
235.924838162
 20
153.5992621335
 10
236.0034849782
 20
153.6690842798
  0
LINE
  5
607
100
AcDbEntity
  8
0
100
AcDbLine
 62
7
  6
CONTINUOUS
 10
223.3736186897
 20
137.5557540286
 11
223.3502322394
 21
137.5317805142
  0
LINE
  5
608
100
AcDbEntity
  8
0
100
AcDbLine
 62
2
  6
CONTINUOUS
 10
233.8260224011
 20
144.0636221782
 11
213.5848511955
 21
123.8224509726
  0
LWPOLYLINE
  5
609
100
AcDbEntity
  8
RUNDUNGEN
100
AcDbPolyline
 62
7
  6
CONTINUOUS
 90
5
 70
0
 10
214.8260224011
 20
82.2544906931
 10
214.6294822495
 20
82.2367650479
 10
214.4409920251
 20
82.1849412969
 10
214.2677970747
 20
82.1008099813
 10
214.1164998242
 20
81.9880811113
  0
LINE
  5
60A
100
AcDbEntity
  8
AUSFORMSCHRAEGEN
100
AcDbLine
 62
7
  6
CONTINUOUS
 10
243.8408799353
 20
80.7723920917
 11
245.0852918224
 21
80.8594098477
  0
LINE
  5
60B
100
AcDbEntity
  8
RUNDUNGEN
100
AcDbLine
 62
7
  6
CONTINUOUS
 10
214.8260224011
 20
82.2544906931
 11
242.8260224011
 21
82.2544906931
  0
LINE
  5
60C
100
AcDbEntity
  8
AUSFORMSCHRAEGEN
100
AcDbLine
 62
7
  6
CONTINUOUS
 10
212.5667529799
 20
80.8594098477
 11
213.811164867
 21
80.7723920917
  0
LWPOLYLINE
  5
60D
100
AcDbEntity
  8
RUNDUNGEN
100
AcDbPolyline
 62
7
  6
CONTINUOUS
 90
5
 70
0
 10
242.8260224011
 20
82.2544906931
 10
243.0225625528
 20
82.2369643563
 10
243.2110527772
 20
82.1849412969
 10
243.3842477276
 20
82.100872981
 10
243.5355449781
 20
81.9880811113
  0
LINE
  5
60E
100
AcDbEntity
  8
RUNDUNGEN
100
AcDbLine
 62
7
  6
CONTINUOUS
 10
235.6618549295
 20
58.2156545155
 11
235.5901543779
 21
58.298309064
  0
LINE
  5
60F
100
AcDbEntity
  8
RUNDUNGEN
100
AcDbLine
 62
7
  6
CONTINUOUS
 10
235.5901552854
 20
58.2983098047
 11
235.5896243435
 21
58.2989327763
  0
LWPOLYLINE
  5
610
100
AcDbEntity
  8
RUNDUNGEN
100
AcDbPolyline
 62
7
  6
CONTINUOUS
 90
8
 70
0
 10
235.5897432411
 20
58.2988013326
 10
235.4012154772
 20
58.5375961224
 10
235.08133588
 20
59.0260250768
 10
234.7961611279
 20
59.5696646037
 10
234.5438486588
 20
60.1670799336
 10
234.3229170411
 20
60.8243622033
 10
234.1387913426
 20
61.5320721773
 10
234.121254416
 20
61.6236681176
  0
LWPOLYLINE
  5
611
100
AcDbEntity
  8
RUNDUNGEN
100
AcDbPolyline
 62
7
  6
CONTINUOUS
 90
10
 70
0
 10
235.5896243435
 20
58.2989327763
 10
235.3610470588
 20
58.5929213487
 10
235.0182284678
 20
59.1364856648
 10
234.7279756656
 20
59.7185785741
 10
234.4815568508
 20
60.3370364955
 10
234.27197582
 20
61.0015567699
 10
234.1020033787
 20
61.7013335108
 10
233.9715193312
 20
62.435573797
 10
233.8819045802
 20
63.1983071214
 10
233.8341096985
 20
63.9865005268
  0
LINE
  5
612
100
AcDbEntity
  8
RUNDUNGEN
100
AcDbLine
 62
7
  6
CONTINUOUS
 10
209.7760224011
 20
105.7724509726
 11
209.7760224011
 21
83.8521019985
  0
LINE
  5
613
100
AcDbEntity
  8
0
100
AcDbLine
 62
7
  6
CONTINUOUS
 10
209.7760224011
 20
105.7724509732
 11
209.7760224011
 21
127.6927999466
  0
LWPOLYLINE
  5
614
100
AcDbEntity
  8
0
100
AcDbPolyline
 62
7
  6
CONTINUOUS
 90
3
 70
0
 10
223.4868505337
 20
137.7076465329
 10
223.458557611
 20
137.6611315077
 10
223.3736186897
 20
137.5557540286
  0
LINE
  5
615
100
AcDbEntity
  8
0
100
AcDbLine
 62
2
  6
CONTINUOUS
 10
234.0098022063
 20
138.3464846409
 11
219.485768538
 21
123.8224509726
  0
LWPOLYLINE
  5
616
100
AcDbEntity
  8
RUNDUNGEN
100
AcDbPolyline
 62
7
  6
CONTINUOUS
 90
4
 70
0
 10
216.1148242248
 20
82.7233999474
 10
215.9421429974
 20
82.6896622693
 10
215.7674307497
 20
82.6577577165
 10
215.5907483858
 20
82.6277680393
  0
LINE
  5
617
100
AcDbEntity
  8
RUNDUNGEN
100
AcDbLine
 62
7
  6
CONTINUOUS
 10
214.6823185994
 20
82.4896346168
 11
214.6280568519
 21
82.4802228516
  0
LINE
  5
618
100
AcDbEntity
  8
RUNDUNGEN
100
AcDbLine
 62
7
  6
CONTINUOUS
 10
215.5907483858
 20
82.6277680393
 11
215.4219881768
 21
82.6012560743
  0
LINE
  5
619
100
AcDbEntity
  8
RUNDUNGEN
100
AcDbLine
 62
7
  6
CONTINUOUS
 10
215.4219903241
 20
82.6012581764
 11
214.6768239499
 21
82.4888216007
  0
LINE
  5
61A
100
AcDbEntity
  8
RUNDUNGEN
100
AcDbLine
 62
7
  6
CONTINUOUS
 10
214.8260224011
 20
86.5342450164
 11
242.8260224011
 21
86.5342450164
  0
LINE
  5
61B
100
AcDbEntity
  8
RUNDUNGEN
100
AcDbLine
 62
7
  6
CONTINUOUS
 10
242.9699497669
 20
82.4896015792
 11
242.2300544597
 21
82.6012581792
  0
LWPOLYLINE
  5
61C
100
AcDbEntity
  8
RUNDUNGEN
100
AcDbPolyline
 62
7
  6
CONTINUOUS
 90
3
 70
0
 10
242.2300550823
 20
82.6012575367
 10
242.0623330877
 20
82.6275980201
 10
241.8727340626
 20
82.6598548784
  0
LINE
  5
61D
100
AcDbEntity
  8
RUNDUNGEN
100
AcDbLine
 62
7
  6
CONTINUOUS
 10
242.9697262029
 20
82.4896346168
 11
243.0239879504
 21
82.4802228516
  0
LINE
  5
61E
100
AcDbEntity
  8
RUNDUNGEN
100
AcDbLine
 62
7
  6
CONTINUOUS
 10
241.8727340626
 20
82.6598548784
 11
241.6853884459
 21
82.6943175005
  0
LWPOLYLINE
  5
61F
100
AcDbEntity
  8
RUNDUNGEN
100
AcDbPolyline
 62
7
  6
CONTINUOUS
 90
65
 70
0
 10
241.6853884459
 20
82.6943175005
 10
241.5003618194
 20
82.7308864586
 10
241.3177222127
 20
82.7694623928
 10
241.1375277872
 20
82.8099487492
 10
240.9598614758
 20
82.8522505692
 10
240.7848059002
 20
82.8962811028
 10
240.6124159244
 20
82.941959492
 10
240.442745109
 20
82.9892043123
 10
240.2758672418
 20
83.0379272466
 10
240.1118547351
 20
83.0880435369
 10
239.950763815
 20
83.1394812186
 10
239.7926612014
 20
83.192163192
 10
239.6375794913
 20
83.2460210578
 10
239.4856187246
 20
83.3009601262
 10
239.3366327248
 20
83.3569791944
 10
239.19057248
 20
83.4140581515
 10
239.0472817695
 20
83.4722253712
 10
238.9066221319
 20
83.5315111327
 10
238.768498645
 20
83.5919356611
 10
238.6328132511
 20
83.6535328672
 10
238.4994850119
 20
83.7163489823
 10
238.3684374752
 20
83.7804379959
 10
238.2396022123
 20
83.8458590927
 10
238.1128820466
 20
83.9126975059
 10
237.9883317907
 20
83.9809757389
 10
237.8659906819
 20
84.0507411952
 10
237.7459522865
 20
84.1220185276
 10
237.6283054398
 20
84.194842046
 10
237.513145419
 20
84.2692520349
 10
237.4006183241
 20
84.3452725377
 10
237.2909519843
 20
84.422888193
 10
237.1843823948
 20
84.5020912877
 10
237.0811242568
 20
84.5829073599
 10
236.9815176623
 20
84.665249182
 10
236.8858807034
 20
84.749051485
 10
236.7947555668
 20
84.8341002371
 10
236.7081347994
 20
84.9207734487
 10
236.6265168544
 20
85.0089183702
 10
236.5501845437
 20
85.0987024584
 10
236.4800641617
 20
85.1899474403
 10
236.4168501726
 20
85.2829146742
 10
236.3619117069
 20
85.3761179738
 10
236.3167388638
 20
85.4685021115
 10
236.2832424031
 20
85.5596643393
 10
236.2642732582
 20
85.6404091524
 10
236.2581515911
 20
85.7034758569
 10
236.2618563445
 20
85.7548545496
 10
236.27187478
 20
85.800301772
 10
236.2878122349
 20
85.8441347946
 10
236.3103445821
 20
85.8884093065
 10
236.3396305808
 20
85.9341500835
 10
236.3767165479
 20
85.9827923127
 10
236.4207436138
 20
86.0323239096
 10
236.471441197
 20
86.0820588494
 10
236.5279918096
 20
86.1313598636
 10
236.5897978301
 20
86.1798600123
 10
236.6561462501
 20
86.2271280088
 10
236.7263174152
 20
86.2728230087
 10
236.8004477408
 20
86.3171838543
 10
236.8788398186
 20
86.3604489851
 10
236.9609862894
 20
86.4023803325
 10
237.046682323
 20
86.4429329734
 10
237.1355276677
 20
86.4819595843
 10
237.2270596573
 20
86.5193208924
 10
237.2663719622
 20
86.5342450164
  0
LWPOLYLINE
  5
620
100
AcDbEntity
  8
RUNDUNGEN
100
AcDbPolyline
 62
7
  6
CONTINUOUS
 90
3
 70
0
 10
243.0239879504
 20
82.4802228516
 10
243.2109640175
 20
82.4229552538
 10
243.3826934651
 20
82.3307473126
  0
LWPOLYLINE
  5
621
100
AcDbEntity
  8
RUNDUNGEN
100
AcDbPolyline
 62
7
  6
CONTINUOUS
 90
66
 70
0
 10
220.3858790381
 20
86.5342450164
 10
220.4061240087
 20
86.526689014
 10
220.504284981
 20
86.4871128331
 10
220.5990844469
 20
86.4457888375
 10
220.6898991813
 20
86.4029504225
 10
220.7760627172
 20
86.3589295335
 10
220.8576064956
 20
86.3137196843
 10
220.93412
 20
86.2675616245
 10
221.0059882695
 20
86.2202175766
 10
221.0734101704
 20
86.1714508819
 10
221.1357518504
 20
86.1215902214
 10
221.1921913202
 20
86.0712231968
 10
221.2426277408
 20
86.0202716989
 10
221.2866172432
 20
85.968809543
 10
221.3231252067
 20
85.9183531107
 10
221.3511923892
 20
85.8711554753
 10
221.3712963146
 20
85.8269231438
 10
221.3843472855
 20
85.7846831998
 10
221.3919754531
 20
85.7409759618
 10
221.3935593676
 20
85.6915203264
 10
221.3857652352
 20
85.6288770129
 10
221.3638147883
 20
85.5438808036
 10
221.3252170126
 20
85.445850156
 10
221.2734618738
 20
85.3461580613
 10
221.2111376239
 20
85.2461151071
 10
221.141204031
 20
85.1486439457
 10
221.0651001897
 20
85.0544181171
 10
220.9835646278
 20
84.9627172044
 10
220.8978449821
 20
84.8738966195
 10
220.808395837
 20
84.7877687794
 10
220.7158775592
 20
84.7043546602
 10
220.6205534746
 20
84.623358515
 10
220.5228488792
 20
84.544749033
 10
220.4230308161
 20
84.4684356062
 10
220.3212314932
 20
84.3942464352
 10
220.2175080266
 20
84.3219910811
 10
220.1118766431
 20
84.2514968259
 10
220.0043389363
 20
84.1826194061
 10
219.8947871691
 20
84.1151798197
 10
219.7829343263
 20
84.0489275126
 10
219.6690285234
 20
83.9839501476
 10
219.5531879737
 20
83.9202545747
 10
219.43550226
 20
83.8578329686
 10
219.3161063541
 20
83.7967088025
 10
219.1948835099
 20
83.7367863484
 10
219.0717724787
 20
83.6780090043
 10
218.946699367
 20
83.6203220608
 10
218.819586165
 20
83.5636764349
 10
218.6903561634
 20
83.5080368119
 10
218.5589279901
 20
83.4533795873
 10
218.4251808539
 20
83.3996716313
 10
218.2889977137
 20
83.3468884821
 10
218.1502783714
 20
83.2950182633
 10
218.0088635597
 20
83.244036651
 10
217.8647946242
 20
83.1940053057
 10
217.7180355217
 20
83.1449601199
 10
217.5686558552
 20
83.0969723175
 10
217.4166963879
 20
83.0501009649
 10
217.2622183537
 20
83.0044099403
 10
217.1052792223
 20
82.9599677574
 10
216.94592688
 20
82.9168433482
 10
216.784214609
 20
82.8751060689
 10
216.620191829
 20
82.8348231166
 10
216.4539055188
 20
82.7960601419
 10
216.2854256029
 20
82.7588915743
 10
216.1148242248
 20
82.7233999474
  0
LINE
  5
622
100
AcDbEntity
  8
RUNDUNGEN
100
AcDbLine
 62
7
  6
CONTINUOUS
 10
213.8260224011
 20
174.2915048363
 11
213.8260224011
 21
174.2833137231
  0
LINE
  5
623
100
AcDbEntity
  8
RUNDUNGEN
100
AcDbLine
 62
7
  6
CONTINUOUS
 10
213.8260224011
 20
29.0915207746
 11
213.8260224011
 21
37.2615882219
  0
LINE
  5
624
100
AcDbEntity
  8
RUNDUNGEN
100
AcDbLine
 62
7
  6
CONTINUOUS
 10
213.8260224011
 20
39.0339932796
 11
213.8260224011
 21
53.3967080351
  0
LINE
  5
625
100
AcDbEntity
  8
RUNDUNGEN
100
AcDbLine
 62
7
  6
CONTINUOUS
 10
213.8260224011
 20
74.4682882666
 11
213.8260224011
 21
81.5000143282
  0
LINE
  5
626
100
AcDbEntity
  8
RUNDUNGEN
100
AcDbLine
 62
7
  6
CONTINUOUS
 10
213.8260224011
 20
87.5342450164
 11
213.8260224011
 21
91.074737091
  0
LINE
  5
627
100
AcDbEntity
  8
RUNDUNGEN
100
AcDbLine
 62
7
  6
CONTINUOUS
 10
213.8260224011
 20
130.7735487934
 11
213.8260224011
 21
137.0766136786
  0
LINE
  5
628
100
AcDbEntity
  8
RUNDUNGEN
100
AcDbLine
 62
7
  6
CONTINUOUS
 10
213.8260224011
 20
158.1481939101
 11
213.8260224011
 21
163.1063446289
  0
LINE
  5
629
100
AcDbEntity
  8
RUNDUNGEN
100
AcDbLine
 62
7
  6
CONTINUOUS
 10
213.8260224011
 20
163.1366477414
 11
213.8260224011
 21
172.5109086656
  0
LINE
  5
62A
100
AcDbEntity
  8
0
100
AcDbLine
 62
7
  6
CONTINUOUS
 10
213.8260224011
 20
174.7949967302
 11
213.8260224011
 21
182.4533811705
  0
LINE
  5
62B
100
AcDbEntity
  8
RUNDUNGEN
100
AcDbLine
 62
7
  6
CONTINUOUS
 10
213.8260224011
 20
174.3172344374
 11
213.8260224011
 21
182.4533811705
  0
LINE
  5
62C
100
AcDbEntity
  8
RUNDUNGEN
100
AcDbLine
 62
7
  6
CONTINUOUS
 10
213.8449516073
 20
81.527399449
 11
213.8260224011
 21
81.3523776605
  0
LINE
  5
62D
100
AcDbEntity
  8
0
100
AcDbLine
 62
7
  6
CONTINUOUS
 10
233.9710291512
 20
167.5324159901
 11
234.1548312055
 21
168.1011775493
  0
LINE
  5
62E
100
AcDbEntity
  8
0
100
AcDbLine
 62
2
  6
CONTINUOUS
 10
235.8882386464
 20
134.3240037385
 11
225.3866858805
 21
123.8224509726
  0
LINE
  5
62F
100
AcDbEntity
  8
0
100
AcDbLine
 62
2
  6
CONTINUOUS
 10
239.1961638797
 20
131.7310116293
 11
231.2876032229
 21
123.8224509726
  0
LINE
  5
630
100
AcDbEntity
  8
RUNDUNGEN
100
AcDbLine
 62
7
  6
CONTINUOUS
 10
219.3868832974
 20
92.7750025913
 11
214.6767533073
 21
92.064092095
  0
LINE
  5
631
100
AcDbEntity
  8
RUNDUNGEN
100
AcDbLine
 62
7
  6
CONTINUOUS
 10
242.9752765401
 20
92.0640943524
 11
238.2651681248
 21
92.7751005396
  0
LWPOLYLINE
  5
632
100
AcDbEntity
  8
RUNDUNGEN
100
AcDbPolyline
 62
7
  6
CONTINUOUS
 90
5
 70
0
 10
238.2651266538
 20
92.7750386412
 10
238.1896945879
 20
92.7873005005
 10
237.9029819847
 20
92.8496207459
 10
237.6039894887
 20
92.9400756252
 10
237.2965881298
 20
93.0593613611
  0
LWPOLYLINE
  5
633
100
AcDbEntity
  8
RUNDUNGEN
100
AcDbPolyline
 62
7
  6
CONTINUOUS
 90
3
 70
0
 10
223.6845400726
 20
73.4435269559
 10
223.718510212
 20
73.3482291564
 10
223.7699705588
 20
73.1516654545
  0
LWPOLYLINE
  5
634
100
AcDbEntity
  8
0
100
AcDbPolyline
 62
7
  6
CONTINUOUS
 90
4
 70
0
 10
213.8260224011
 20
163.1366477414
 10
213.8451606313
 20
162.9419434406
 10
213.9019670794
 20
162.7543889777
 10
213.9943757358
 20
162.5813425812
  0
LINE
  5
635
100
AcDbEntity
  8
RUNDUNGEN
100
AcDbLine
 62
7
  6
CONTINUOUS
 10
227.5682970195
 20
37.6226246931
 11
227.5742216773
 21
37.5600601179
  0
LINE
  5
636
100
AcDbEntity
  8
RUNDUNGEN
100
AcDbLine
 62
7
  6
CONTINUOUS
 10
223.8260224011
 20
58.9809706011
 11
223.8260224011
 21
72.6172794959
  0
LINE
  5
637
100
AcDbEntity
  8
RUNDUNGEN
100
AcDbLine
 62
7
  6
CONTINUOUS
 10
223.8260224011
 20
97.3447487187
 11
223.8260224011
 21
105.7724509732
  0
LINE
  5
638
100
AcDbEntity
  8
0
100
AcDbLine
 62
7
  6
CONTINUOUS
 10
223.8260224011
 20
140.1452072139
 11
223.8260224011
 21
167.6423054096
  0
LWPOLYLINE
  5
639
100
AcDbEntity
  8
0
100
AcDbPolyline
 62
7
  6
CONTINUOUS
 90
7
 70
0
 10
234.1020033871
 20
149.8435684759
 10
234.2719758313
 20
150.5433452184
 10
234.4815568727
 20
151.2078655112
 10
234.7279757361
 20
151.8263235218
 10
235.0182285453
 20
152.408416425
 10
235.3610470919
 20
152.9519806408
 10
235.5896243101
 20
153.2459691366
  0
LWPOLYLINE
  5
63A
100
AcDbEntity
  8
RUNDUNGEN
100
AcDbPolyline
 62
7
  6
CONTINUOUS
 90
3
 70
0
 10
213.902719382
 20
81.8840866323
 10
213.8453928867
 20
81.6958789105
 10
213.8260224011
 20
81.5000143282
  0
LINE
  5
63B
100
AcDbEntity
  8
0
100
AcDbLine
 62
2
  6
CONTINUOUS
 10
244.1191228092
 20
130.7530532163
 11
237.1885205654
 21
123.8224509726
  0
LWPOLYLINE
  5
63C
100
AcDbEntity
  8
RUNDUNGEN
100
AcDbPolyline
 62
7
  6
CONTINUOUS
 90
3
 70
0
 10
237.2965881298
 20
93.0593613611
 10
236.9848427306
 20
93.2073042855
 10
236.8895604012
 20
93.257981674
  0
LWPOLYLINE
  5
63D
100
AcDbEntity
  8
RUNDUNGEN
100
AcDbPolyline
 62
7
  6
CONTINUOUS
 90
6
 70
0
 10
236.8895606776
 20
93.2580229171
 10
236.6697551327
 20
93.384925025
 10
236.4440945125
 20
93.5301205574
 10
236.2167702972
 20
93.6922628103
 10
235.9890963305
 20
93.8714254403
 10
235.9611767738
 20
93.8945940963
  0
LWPOLYLINE
  5
63E
100
AcDbEntity
  8
RUNDUNGEN
100
AcDbPolyline
 62
7
  6
CONTINUOUS
 90
4
 70
0
 10
243.3826934651
 20
82.3307473126
 10
243.533460708
 20
82.2067894282
 10
243.6569430267
 20
82.056405295
 10
243.7493254203
 20
81.8840866323
  0
LWPOLYLINE
  5
63F
100
AcDbEntity
  8
RUNDUNGEN
100
AcDbPolyline
 62
7
  6
CONTINUOUS
 90
4
 70
0
 10
243.5355449781
 20
81.9880811113
 10
243.6592593458
 20
81.8511836328
 10
243.7508667627
 20
81.695492539
 10
243.8070931949
 20
81.5268988204
  0
LWPOLYLINE
  5
640
100
AcDbEntity
  8
RUNDUNGEN
100
AcDbPolyline
 62
7
  6
CONTINUOUS
 90
3
 70
0
 10
223.7699705588
 20
73.1516654545
 10
223.8090896566
 20
72.9139426097
 10
223.8260226624
 20
72.6205696502
  0
LINE
  5
641
100
AcDbEntity
  8
RUNDUNGEN
100
AcDbLine
 62
7
  6
CONTINUOUS
 10
227.5742216773
 20
37.5600601179
 11
227.5760224028
 21
37.4756282552
  0
LWPOLYLINE
  5
642
100
AcDbEntity
  8
RUNDUNGEN
100
AcDbPolyline
 62
7
  6
CONTINUOUS
 90
5
 70
0
 10
227.5760224011
 20
56.7654653007
 10
227.5763087244
 20
56.7350236381
 10
227.5771697245
 20
56.7049162331
 10
227.5786082008
 20
56.6751566656
 10
227.5806266201
 20
56.6457586548
  0
LINE
  5
643
100
AcDbEntity
  8
RUNDUNGEN
100
AcDbLine
 62
7
  6
CONTINUOUS
 10
227.5760224011
 20
31.2155263078
 11
227.5760224011
 21
37.4757346689
  0
LINE
  5
644
100
AcDbEntity
  8
RUNDUNGEN
100
AcDbLine
 62
7
  6
CONTINUOUS
 10
227.5760224011
 20
56.7654653007
 11
227.5760224011
 21
67.7637175004
  0
LINE
  5
645
100
AcDbEntity
  8
RUNDUNGEN
100
AcDbLine
 62
7
  6
CONTINUOUS
 10
227.5760224011
 20
98.9751572963
 11
227.5760224011
 21
105.7724509732
  0
LINE
  5
646
100
AcDbEntity
  8
RUNDUNGEN
100
AcDbLine
 62
7
  6
CONTINUOUS
 10
223.8260223796
 20
64.476458703
 11
223.815665387
 21
63.9222222123
  0
LWPOLYLINE
  5
647
100
AcDbEntity
  8
RUNDUNGEN
100
AcDbPolyline
 62
7
  6
CONTINUOUS
 90
3
 70
0
 10
223.8260223378
 20
99.4421877301
 10
223.8062178023
 20
98.8136211755
 10
223.7172489819
 20
97.9796302482
  0
LWPOLYLINE
  5
648
100
AcDbEntity
  8
RUNDUNGEN
100
AcDbPolyline
 62
7
  6
CONTINUOUS
 90
10
 70
0
 10
223.815665387
 20
63.9222222123
 10
223.759513285
 20
63.0840077234
 10
223.657710795
 20
62.2865770289
 10
223.5132584579
 20
61.5320964615
 10
223.329140581
 20
60.8244069671
 10
223.1082148746
 20
60.1671300402
 10
222.8558988405
 20
59.5696966339
 10
222.570722915
 20
59.026046477
 10
222.2508269713
 20
58.5376015135
 10
222.0623182299
 20
58.2988078397
  0
LWPOLYLINE
  5
649
100
AcDbEntity
  8
RUNDUNGEN
100
AcDbPolyline
 62
7
  6
CONTINUOUS
 90
6
 70
0
 10
223.7172489819
 20
97.9796302482
 10
223.5633012272
 20
97.196195432
 10
223.3502667729
 20
96.4667770865
 10
223.0853594299
 20
95.8003025275
 10
222.7701340719
 20
95.1934798113
 10
222.4039596019
 20
94.6476696343
  0
LWPOLYLINE
  5
64A
100
AcDbEntity
  8
0
100
AcDbPolyline
 62
7
  6
CONTINUOUS
 90
41
 70
0
 10
236.2522271812
 20
158.2291748626
 10
236.2470061581
 20
158.204925979
 10
236.2445687564
 20
158.1969502446
 10
236.2546191169
 20
158.2178167863
 10
236.2833759177
 20
158.2655854071
 10
236.3311500374
 20
158.3329768427
 10
236.3953128274
 20
158.4131079739
 10
236.4741087027
 20
158.5017803203
 10
236.5644842727
 20
158.595025032
 10
236.6653398047
 20
158.6920715473
 10
236.7754781948
 20
158.7917883676
 10
236.8937957286
 20
158.8932496992
 10
237.0193889803
 20
158.9959795459
 10
237.1515525616
 20
159.0995729329
 10
237.2897187652
 20
159.2036765683
 10
237.4332403619
 20
159.3079981118
 10
237.5815845927
 20
159.4123222428
 10
237.7341102892
 20
159.5163174933
 10
237.8902075305
 20
159.6197044112
 10
238.0496485807
 20
159.7224782639
 10
238.2120739672
 20
159.8245218544
 10
238.3773755903
 20
159.9258554841
 10
238.5454545436
 20
160.0265055585
 10
238.7162120918
 20
160.1264879918
 10
238.8895610257
 20
160.2258089499
 10
239.0654165907
 20
160.3244636518
 10
239.2437278728
 20
160.4224648268
 10
239.4244482416
 20
160.5198202506
 10
239.6075325617
 20
160.6165295435
 10
239.792943653
 20
160.7125886284
 10
239.980657456
 20
160.8079963769
 10
240.1706590796
 20
160.9027512899
 10
240.3629385745
 20
160.9968481395
 10
240.5574651246
 20
161.0902657239
 10
240.7542322974
 20
161.1829896886
 10
240.9531773447
 20
161.2749750204
 10
241.1542402528
 20
161.3661747923
 10
241.357407864
 20
161.456559458
 10
241.5626547896
 20
161.5460891719
 10
241.7699575808
 20
161.6347192431
 10
241.9792916658
 20
161.7223991535
  0
LINE
  5
64B
100
AcDbEntity
  8
0
100
AcDbLine
 62
2
  6
CONTINUOUS
 10
247.7614031539
 20
128.4944162186
 11
243.0894379079
 21
123.8224509726
  0
LINE
  5
64C
100
AcDbEntity
  8
02___PRT_ALL_AXES
100
AcDbLine
 62
7
  6
CENTER
 10
206.7760224011
 20
105.7724509726
 11
250.8760224011
 21
105.7724509726
  0
LINE
  5
64D
100
AcDbEntity
  8
0
100
AcDbLine
 62
2
  6
CONTINUOUS
 10
209.7760224011
 20
105.7724509732
 11
247.8760224011
 21
105.7724509732
  0
LWPOLYLINE
  5
64E
100
AcDbEntity
  8
RUNDUNGEN
100
AcDbPolyline
 62
7
  6
CONTINUOUS
 90
3
 70
0
 10
235.9615132777
 20
93.8943533871
 10
235.8779730981
 20
93.9663180934
 10
235.7334431089
 20
94.1011062017
  0
LWPOLYLINE
  5
64F
100
AcDbEntity
  8
RUNDUNGEN
100
AcDbPolyline
 62
7
  6
CONTINUOUS
 90
3
 70
0
 10
235.7334431089
 20
94.1011062017
 10
235.5867666634
 20
94.2506700119
 10
235.4915353218
 20
94.3539660141
  0
LINE
  5
650
100
AcDbEntity
  8
RUNDUNGEN
100
AcDbLine
 62
7
  6
CONTINUOUS
 10
235.4915497258
 20
94.3539789786
 11
235.4925200395
 21
94.3528992169
  0
LINE
  5
651
100
AcDbEntity
  8
RUNDUNGEN
100
AcDbLine
 62
7
  6
CONTINUOUS
 10
235.4925200395
 20
94.3528992169
 11
235.247942198
 21
94.6478606369
  0
LWPOLYLINE
  5
652
100
AcDbEntity
  8
RUNDUNGEN
100
AcDbPolyline
 62
7
  6
CONTINUOUS
 90
5
 70
0
 10
235.247942198
 20
94.6478606369
 10
234.8815427713
 20
95.1941073406
 10
234.5660399056
 20
95.801721982
 10
234.3010289936
 20
96.4689599868
 10
234.0881125531
 20
97.1987886348
  0
LINE
  5
653
100
AcDbEntity
  8
RUNDUNGEN
100
AcDbLine
 62
7
  6
CONTINUOUS
 10
233.8341096985
 20
63.9865005268
 11
233.8260224309
 21
64.4764767121
  0
LINE
  5
654
100
AcDbEntity
  8
RUNDUNGEN
100
AcDbLine
 62
7
  6
CONTINUOUS
 10
230.0760224011
 20
105.7724509732
 11
230.0760224011
 21
98.9751572963
  0
LINE
  5
655
100
AcDbEntity
  8
RUNDUNGEN
100
AcDbLine
 62
7
  6
CONTINUOUS
 10
230.0760224011
 20
31.2155263078
 11
230.0760224011
 21
37.4757346689
  0
LINE
  5
656
100
AcDbEntity
  8
RUNDUNGEN
100
AcDbLine
 62
7
  6
CONTINUOUS
 10
230.0760224011
 20
56.7654653007
 11
230.0760224011
 21
67.7637175004
  0
LINE
  5
657
100
AcDbEntity
  8
RUNDUNGEN
100
AcDbLine
 62
7
  6
CONTINUOUS
 10
233.8260224011
 20
105.7724509732
 11
233.8260224011
 21
97.3447546383
  0
LINE
  5
658
100
AcDbEntity
  8
RUNDUNGEN
100
AcDbLine
 62
7
  6
CONTINUOUS
 10
233.8260224011
 20
72.6172864731
 11
233.8260224011
 21
58.9809860989
  0
LINE
  5
659
100
AcDbEntity
  8
0
100
AcDbLine
 62
7
  6
CONTINUOUS
 10
233.8260224011
 20
140.1452072139
 11
233.8260224011
 21
167.6423054096
  0
LINE
  5
65A
100
AcDbEntity
  8
0
100
AcDbLine
 62
7
  6
CONTINUOUS
 10
234.3260224011
 20
168.4380562511
 11
234.3260224011
 21
165.8971418516
  0
LINE
  5
65B
100
AcDbEntity
  8
0
100
AcDbLine
 62
7
  6
CONTINUOUS
 10
234.3260224011
 20
149.2871912655
 11
234.3260224011
 21
145.6153821213
  0
LINE
  5
65C
100
AcDbEntity
  8
0
100
AcDbLine
 62
7
  6
CONTINUOUS
 10
234.3260224011
 20
145.2831309084
 11
234.3260224011
 21
144.6867907124
  0
LINE
  5
65D
100
AcDbEntity
  8
0
100
AcDbLine
 62
7
  6
CONTINUOUS
 10
234.3260224011
 20
144.6581097658
 11
234.3260224011
 21
140.109015182
  0
LWPOLYLINE
  5
65E
100
AcDbEntity
  8
0
100
AcDbPolyline
 62
7
  6
CONTINUOUS
 90
5
 70
0
 10
233.8260224309
 20
147.0684250961
 10
233.8341096988
 20
147.5584014441
 10
233.8819045859
 20
148.3465948931
 10
233.9715193398
 20
149.1093282095
 10
234.1020033871
 20
149.8435684759
  0
LINE
  5
65F
100
AcDbEntity
  8
RUNDUNGEN
100
AcDbLine
 62
7
  6
CONTINUOUS
 10
230.0760224032
 20
37.4756515522
 11
230.0779340735
 21
37.5626171852
  0
LWPOLYLINE
  5
660
100
AcDbEntity
  8
0
100
AcDbPolyline
 62
7
  6
CONTINUOUS
 90
3
 70
0
 10
233.8260225662
 20
166.262365748
 10
233.855725975
 20
166.8562820058
 10
233.9710291512
 20
167.5324159901
  0
LWPOLYLINE
  5
661
100
AcDbEntity
  8
RUNDUNGEN
100
AcDbPolyline
 62
7
  6
CONTINUOUS
 90
5
 70
0
 10
230.0714181822
 20
56.6457586548
 10
230.0734366025
 20
56.6751566833
 10
230.0748750787
 20
56.7049162568
 10
230.0757360782
 20
56.7350236558
 10
230.0760224011
 20
56.7654653007
  0
LWPOLYLINE
  5
662
100
AcDbEntity
  8
RUNDUNGEN
100
AcDbPolyline
 62
7
  6
CONTINUOUS
 90
7
 70
0
 10
223.5500318892
 20
61.7012874607
 10
223.3800594412
 20
61.0015226382
 10
223.1704773546
 20
60.3370064364
 10
222.9240526716
 20
59.7185426136
 10
222.6338011675
 20
59.1364586866
 10
222.2909864395
 20
58.5929070834
 10
222.062424329
 20
58.2989293587
  0
LINE
  5
663
100
AcDbEntity
  8
RUNDUNGEN
100
AcDbLine
 62
7
  6
CONTINUOUS
 10
222.4039596019
 20
94.6476696343
 11
222.1595568356
 21
94.3529185253
  0
LINE
  5
664
100
AcDbEntity
  8
RUNDUNGEN
100
AcDbLine
 62
7
  6
CONTINUOUS
 10
222.1595568356
 20
94.3529185253
 11
222.1605343009
 21
94.3540060154
  0
LWPOLYLINE
  5
665
100
AcDbEntity
  8
RUNDUNGEN
100
AcDbPolyline
 62
7
  6
CONTINUOUS
 90
4
 70
0
 10
214.1164998242
 20
81.9880811113
 10
213.9927854565
 20
81.851145416
 10
213.9011780396
 20
81.695492539
 10
213.8449516073
 20
81.527399449
  0
LWPOLYLINE
  5
666
100
AcDbEntity
  8
RUNDUNGEN
100
AcDbPolyline
 62
7
  6
CONTINUOUS
 90
4
 70
0
 10
222.160511079
 20
94.3540269686
 10
222.0664936546
 20
94.2520042623
 10
221.9202780186
 20
94.102744589
 10
221.775832365
 20
93.9679111931
  0
LINE
  5
667
100
AcDbEntity
  8
RUNDUNGEN
100
AcDbLine
 62
7
  6
CONTINUOUS
 10
221.775832365
 20
93.9679111931
 11
221.6905547917
 21
93.8944182598
  0
LWPOLYLINE
  5
668
100
AcDbEntity
  8
RUNDUNGEN
100
AcDbPolyline
 62
7
  6
CONTINUOUS
 90
6
 70
0
 10
221.6908317702
 20
93.8946495373
 10
221.6628039575
 20
93.8713069657
 10
221.4350349906
 20
93.692082576
 10
221.2076787164
 20
93.5299365953
 10
220.9820504536
 20
93.384779255
 10
220.7625251586
 20
93.2580450487
  0
LWPOLYLINE
  5
669
100
AcDbEntity
  8
RUNDUNGEN
100
AcDbPolyline
 62
7
  6
CONTINUOUS
 90
4
 70
0
 10
234.0881125531
 20
97.1987886348
 10
233.9344191857
 20
97.9821192602
 10
233.845727776
 20
98.815183494
 10
233.8260224809
 20
99.4422224936
  0
LWPOLYLINE
  5
66A
100
AcDbEntity
  8
0
100
AcDbPolyline
 62
7
  6
CONTINUOUS
 90
5
 70
0
 10
223.5132584702
 20
150.0128054279
 10
223.6577108048
 20
149.258324854
 10
223.7595132915
 20
148.4608941563
 10
223.8156653884
 20
147.6226796933
 10
223.8260223796
 20
147.0684432902
  0
LWPOLYLINE
  5
66B
100
AcDbEntity
  8
0
100
AcDbPolyline
 62
7
  6
CONTINUOUS
 90
3
 70
0
 10
223.6810117999
 20
167.5324316705
 10
223.7963205825
 20
166.8562648064
 10
223.8260222866
 20
166.2621546996
  0
LWPOLYLINE
  5
66C
100
AcDbEntity
  8
RUNDUNGEN
100
AcDbPolyline
 62
7
  6
CONTINUOUS
 90
3
 70
0
 10
233.8260209784
 20
72.620577895
 10
233.842953372
 20
72.9139240849
 10
233.8820618544
 20
73.1516099639
  0
LINE
  5
66D
100
AcDbEntity
  8
RUNDUNGEN
100
AcDbLine
 62
7
  6
CONTINUOUS
 10
230.0779340735
 20
37.5626171852
 11
230.083615794
 21
37.622666981
  0
LINE
  5
66E
100
AcDbEntity
  8
0
100
AcDbLine
 62
7
  6
CONTINUOUS
 10
243.8067892089
 20
162.941465643
 11
243.8260224011
 21
163.1366477414
  0
LWPOLYLINE
  5
66F
100
AcDbEntity
  8
RUNDUNGEN
100
AcDbPolyline
 62
7
  6
CONTINUOUS
 90
4
 70
0
 10
214.2693513372
 20
82.3307473126
 10
214.1185840943
 20
82.2067894282
 10
213.9951017756
 20
82.056405295
 10
213.902719382
 20
81.8840866323
  0
LWPOLYLINE
  5
670
100
AcDbEntity
  8
RUNDUNGEN
100
AcDbPolyline
 62
7
  6
CONTINUOUS
 90
3
 70
0
 10
220.7625222806
 20
93.2580392366
 10
220.6672045372
 20
93.2073421513
 10
220.3553885149
 20
93.0593518353
  0
LWPOLYLINE
  5
671
100
AcDbEntity
  8
RUNDUNGEN
100
AcDbPolyline
 62
7
  6
CONTINUOUS
 90
5
 70
0
 10
220.3553885149
 20
93.0593518353
 10
220.0479496972
 20
92.9400383466
 10
219.7489536831
 20
92.8495776397
 10
219.4622899048
 20
92.7872625143
 10
219.3868832974
 20
92.7750025913
  0
LWPOLYLINE
  5
672
100
AcDbEntity
  8
RUNDUNGEN
100
AcDbPolyline
 62
7
  6
CONTINUOUS
 90
3
 70
0
 10
243.7493254203
 20
81.8840866323
 10
243.8066519156
 20
81.6958789105
 10
243.8260224011
 20
81.5000143282
  0
LINE
  5
673
100
AcDbEntity
  8
RUNDUNGEN
100
AcDbLine
 62
7
  6
CONTINUOUS
 10
243.8070931949
 20
81.5268988204
 11
243.8260224011
 21
81.3523776605
  0
LINE
  5
674
100
AcDbEntity
  8
0
100
AcDbLine
 62
7
  6
CONTINUOUS
 10
243.8260224011
 20
174.7949967302
 11
243.8260224011
 21
174.3172344374
  0
LINE
  5
675
100
AcDbEntity
  8
RUNDUNGEN
100
AcDbLine
 62
7
  6
CONTINUOUS
 10
243.8260224011
 20
182.4533811705
 11
243.8260224011
 21
174.3172344374
  0
LINE
  5
676
100
AcDbEntity
  8
RUNDUNGEN
100
AcDbLine
 62
7
  6
CONTINUOUS
 10
243.8260224011
 20
174.2888960229
 11
243.8260224011
 21
174.2833256498
  0
LINE
  5
677
100
AcDbEntity
  8
RUNDUNGEN
100
AcDbLine
 62
7
  6
CONTINUOUS
 10
243.8260224011
 20
172.5109086656
 11
243.8260224011
 21
163.1366477414
  0
LINE
  5
678
100
AcDbEntity
  8
RUNDUNGEN
100
AcDbLine
 62
7
  6
CONTINUOUS
 10
243.8260224011
 20
163.1063446289
 11
243.8260224011
 21
158.1481922969
  0
LINE
  5
679
100
AcDbEntity
  8
RUNDUNGEN
100
AcDbLine
 62
7
  6
CONTINUOUS
 10
243.8260224011
 20
137.0766136786
 11
243.8260224011
 21
130.7735487934
  0
LINE
  5
67A
100
AcDbEntity
  8
RUNDUNGEN
100
AcDbLine
 62
7
  6
CONTINUOUS
 10
243.8260224011
 20
91.0747410247
 11
243.8260224011
 21
87.5342450164
  0
LINE
  5
67B
100
AcDbEntity
  8
RUNDUNGEN
100
AcDbLine
 62
7
  6
CONTINUOUS
 10
243.8260224011
 20
81.5000143282
 11
243.8260224011
 21
74.4682882666
  0
LINE
  5
67C
100
AcDbEntity
  8
RUNDUNGEN
100
AcDbLine
 62
7
  6
CONTINUOUS
 10
243.8260224011
 20
53.3967096483
 11
243.8260224011
 21
39.0339932796
  0
LINE
  5
67D
100
AcDbEntity
  8
RUNDUNGEN
100
AcDbLine
 62
7
  6
CONTINUOUS
 10
243.8260224011
 20
37.2615882279
 11
243.8260224011
 21
29.0915207746
  0
LINE
  5
67E
100
AcDbEntity
  8
0
100
AcDbLine
 62
7
  6
CONTINUOUS
 10
243.8260224011
 20
158.9693252246
 11
243.8260224011
 21
159.7025614156
  0
LINE
  5
67F
100
AcDbEntity
  8
0
100
AcDbLine
 62
7
  6
CONTINUOUS
 10
243.8260224011
 20
163.1366477414
 11
243.8260224011
 21
163.4375135998
  0
LWPOLYLINE
  5
680
100
AcDbEntity
  8
RUNDUNGEN
100
AcDbPolyline
 62
7
  6
CONTINUOUS
 90
3
 70
0
 10
233.8820618544
 20
73.1516099639
 10
233.9335104276
 20
73.3481503902
 10
233.9678435022
 20
73.4444778046
  0
LINE
  5
681
100
AcDbEntity
  8
0
100
AcDbLine
 62
7
  6
CONTINUOUS
 10
223.4971488196
 20
168.101334819
 11
223.6810117999
 21
167.5324316705
  0
LWPOLYLINE
  5
682
100
AcDbEntity
  8
0
100
AcDbPolyline
 62
7
  6
CONTINUOUS
 90
7
 70
0
 10
243.8260224011
 20
172.5109086656
 10
243.8068655687
 20
172.7057069293
 10
243.7500352287
 20
172.8932701367
 10
243.6576271817
 20
173.0662765496
 10
243.5332290643
 20
173.2179155507
 10
243.3815375931
 20
173.3424150489
 10
243.282445172
 20
173.3953677249
  0
LWPOLYLINE
  5
683
100
AcDbEntity
  8
0
100
AcDbPolyline
 62
7
  6
CONTINUOUS
 90
9
 70
0
 10
243.8260224011
 20
137.0766136786
 10
243.8072988545
 20
137.2692091596
 10
243.7509967493
 20
137.4566432238
 10
243.6584702377
 20
137.630717085
 10
243.5335483583
 20
137.7833010351
 10
243.3804852593
 20
137.908822067
 10
243.2070571345
 20
138.0011744024
 10
243.0210384946
 20
138.0574134537
 10
242.8260224011
 20
138.0766136786
  0
LINE
  5
684
100
AcDbEntity
  8
RUNDUNGEN
100
AcDbLine
 62
7
  6
CONTINUOUS
 10
247.8760224011
 20
105.7724509726
 11
247.8760224011
 21
83.8526749591
  0
LINE
  5
685
100
AcDbEntity
  8
0
100
AcDbLine
 62
7
  6
CONTINUOUS
 10
247.8760224011
 20
105.7724509732
 11
247.8760224011
 21
127.6927999466
  0
LWPOLYLINE
  5
686
100
AcDbEntity
  8
RUNDUNGEN
100
AcDbPolyline
 62
7
  6
CONTINUOUS
 90
9
 70
0
 10
243.8260224011
 20
74.4682882666
 10
243.8072988545
 20
74.2756927856
 10
243.7509967493
 20
74.0882587213
 10
243.6584702377
 20
73.9141848602
 10
243.5335483583
 20
73.76160091
 10
243.3804852593
 20
73.6360798781
 10
243.2070571345
 20
73.5437275428
 10
243.0210384946
 20
73.4874884914
 10
242.8260224011
 20
73.4682882666
  0
LWPOLYLINE
  5
687
100
AcDbEntity
  8
RUNDUNGEN
100
AcDbPolyline
 62
7
  6
CONTINUOUS
 90
6
 70
0
 10
243.8260224011
 20
39.0339932796
 10
243.8068655687
 20
38.8391950158
 10
243.7500352287
 20
38.6516318085
 10
243.6576271817
 20
38.4786253956
 10
243.5332290643
 20
38.3269863945
 10
243.3815375931
 20
38.2024868963
  0
LWPOLYLINE
  5
688
100
AcDbEntity
  8
RUNDUNGEN
100
AcDbPolyline
 62
7
  6
CONTINUOUS
 90
3
 70
0
 10
214.6280568519
 20
82.4802228516
 10
214.4410807848
 20
82.4229552538
 10
214.2693513372
 20
82.3307473126
  0
LINE
  5
689
100
AcDbEntity
  8
0
100
AcDbLine
 62
7
  6
CONTINUOUS
 10
209.7760224011
 20
123.8224509726
 11
247.8760224011
 21
123.8224509726
  0
LINE
  5
68A
100
AcDbEntity
  8
RUNDUNGEN
100
AcDbLine
 62
7
  6
CONTINUOUS
 10
222.0623182299
 20
58.2988078397
 11
222.0618877885
 21
58.2983021844
  0
LWPOLYLINE
  5
68B
100
AcDbEntity
  8
RUNDUNGEN
100
AcDbPolyline
 62
7
  6
CONTINUOUS
 90
5
 70
0
 10
222.0618732442
 20
58.2983145911
 10
221.9902291589
 20
58.2157158059
 10
221.8577348537
 20
58.0728695342
 10
221.7271776226
 20
57.9456150979
 10
221.6485559475
 20
57.8758211197
  0
LINE
  5
68C
100
AcDbEntity
  8
0
100
AcDbLine
 62
7
  6
CONTINUOUS
 10
212.5667529799
 20
130.6854920974
 11
215.174757607
 21
130.8678615465
  0
LINE
  5
68D
100
AcDbEntity
  8
0
100
AcDbLine
 62
7
  6
CONTINUOUS
 10
242.4772871953
 20
130.8678615465
 11
245.0852918224
 21
130.6854920974
  0
LINE
  5
68E
100
AcDbEntity
  8
RUNDUNGEN
100
AcDbLine
 62
7
  6
CONTINUOUS
 10
222.0623182743
 20
153.2460940711
 11
222.0618878193
 21
153.2465997422
  0
LWPOLYLINE
  5
68F
100
AcDbEntity
  8
0
100
AcDbPolyline
 62
7
  6
CONTINUOUS
 90
3
 70
0
 10
213.9943757358
 20
162.5813425812
 10
214.1187872188
 20
162.4296693847
 10
214.2705297154
 20
162.3051263238
  0
LWPOLYLINE
  5
690
100
AcDbEntity
  8
0
100
AcDbPolyline
 62
7
  6
CONTINUOUS
 90
3
 70
0
 10
234.2785350177
 20
137.5556315711
 10
234.1936263813
 20
137.6609408216
 10
234.1647688703
 20
137.7083693219
  0
LWPOLYLINE
  5
691
100
AcDbEntity
  8
0
100
AcDbPolyline
 62
7
  6
CONTINUOUS
 90
7
 70
0
 10
222.0623182743
 20
153.2460940711
 10
222.2508269417
 20
153.0073004579
 10
222.5707228969
 20
152.518855504
 10
222.8558988314
 20
151.9752053268
 10
223.1082148945
 20
151.3777718503
 10
223.3291405993
 20
150.720494914
 10
223.5132584702
 20
150.0128054279
  0
LINE
  5
692
100
AcDbEntity
  8
RUNDUNGEN
100
AcDbLine
 62
7
  6
CONTINUOUS
 10
221.6485559475
 20
57.8758211197
 11
221.6483491181
 21
57.8756446843
  0
LWPOLYLINE
  5
693
100
AcDbEntity
  8
RUNDUNGEN
100
AcDbPolyline
 62
7
  6
CONTINUOUS
 90
3
 70
0
 10
221.6483606154
 20
57.8756312466
 10
221.5045538605
 20
57.7548234683
 10
221.2305342833
 20
57.5349117101
  0
LWPOLYLINE
  5
694
100
AcDbEntity
  8
RUNDUNGEN
100
AcDbPolyline
 62
7
  6
CONTINUOUS
 90
3
 70
0
 10
221.2303447665
 20
57.5347683818
 10
220.9516750591
 20
57.3240151004
 10
220.6691649905
 20
57.1226476296
  0
LINE
  5
695
100
AcDbEntity
  8
0
100
AcDbLine
 62
7
  6
CONTINUOUS
 10
214.8260224011
 20
138.0766136786
 11
214.6277650615
 21
138.0567631257
  0
LINE
  5
696
100
AcDbEntity
  8
0
100
AcDbLine
 62
7
  6
CONTINUOUS
 10
223.5940517613
 20
138.0972764799
 11
223.1368651618
 21
138.0765934598
  0
LINE
  5
697
100
AcDbEntity
  8
0
100
AcDbLine
 62
7
  6
CONTINUOUS
 10
242.8260224011
 20
138.0766136786
 11
234.5154209714
 21
138.0766136786
  0
LINE
  5
698
100
AcDbEntity
  8
0
100
AcDbLine
 62
7
  6
CONTINUOUS
 10
223.1368650592
 20
138.0766136786
 11
214.8260224011
 21
138.0766136786
  0
LINE
  5
699
100
AcDbEntity
  8
0
100
AcDbLine
 62
7
  6
CONTINUOUS
 10
234.5154243698
 20
138.076506627
 11
234.0581783097
 21
138.0964775844
  0
LWPOLYLINE
  5
69A
100
AcDbEntity
  8
0
100
AcDbPolyline
 62
7
  6
CONTINUOUS
 90
4
 70
0
 10
234.2202634109
 20
137.5906490428
 10
234.2608162157
 20
137.5626942465
 10
234.305493973
 20
137.5283347842
 10
234.2785350177
 20
137.5556315711
  0
LINE
  5
69B
100
AcDbEntity
  8
RUNDUNGEN
100
AcDbLine
 62
7
  6
CONTINUOUS
 10
221.6485559212
 20
153.6690809557
 11
221.6483491615
 21
153.6692573319
  0
LWPOLYLINE
  5
69C
100
AcDbEntity
  8
0
100
AcDbPolyline
 62
7
  6
CONTINUOUS
 90
5
 70
0
 10
221.6485559212
 20
153.6690809557
 10
221.7271783254
 20
153.5992862125
 10
221.85773542
 20
153.4720319014
 10
221.9902294169
 20
153.3291860478
 10
222.0618733541
 20
153.246587403
  0
LWPOLYLINE
  5
69D
100
AcDbEntity
  8
0
100
AcDbPolyline
 62
7
  6
CONTINUOUS
 90
3
 70
0
 10
222.9794066232
 20
168.9386033279
 10
223.2601196709
 20
168.5676952874
 10
223.4971488196
 20
168.101334819
  0
LINE
  5
69E
100
AcDbEntity
  8
RUNDUNGEN
100
AcDbLine
 62
7
  6
CONTINUOUS
 10
220.6689256102
 20
57.1224863372
 11
220.414529411
 21
56.951076375
  0
LINE
  5
69F
100
AcDbEntity
  8
RUNDUNGEN
100
AcDbLine
 62
7
  6
CONTINUOUS
 10
220.4145253621
 20
56.9510283924
 11
220.2425915094
 21
56.8402207014
  0
LWPOLYLINE
  5
6A0
100
AcDbEntity
  8
RUNDUNGEN
100
AcDbPolyline
 62
7
  6
CONTINUOUS
 90
6
 70
0
 10
220.2427549852
 20
56.8403515465
 10
219.7673570656
 20
56.554128511
 10
219.2963303756
 20
56.2983372256
 10
218.8347510481
 20
56.0735241206
 10
218.3870883861
 20
55.8796830449
 10
218.2953231776
 20
55.8429015235
  0
LINE
  5
6A1
100
AcDbEntity
  8
0
100
AcDbLine
 62
7
  6
CONTINUOUS
 10
233.8260224011
 20
140.109015182
 11
234.3260224011
 21
140.109015182
  0
LINE
  5
6A2
100
AcDbEntity
  8
0
100
AcDbLine
 62
7
  6
CONTINUOUS
 10
233.8260224011
 20
140.2459532749
 11
234.3260224011
 21
140.2459532749
  0
LINE
  5
6A3
100
AcDbEntity
  8
0
100
AcDbLine
 62
7
  6
CONTINUOUS
 10
233.8260224011
 20
140.5654753176
 11
234.3260224011
 21
140.5654753176
  0
LINE
  5
6A4
100
AcDbEntity
  8
0
100
AcDbLine
 62
7
  6
CONTINUOUS
 10
233.8260224011
 20
140.7480592673
 11
234.3260224011
 21
140.7480592673
  0
LINE
  5
6A5
100
AcDbEntity
  8
0
100
AcDbLine
 62
7
  6
CONTINUOUS
 10
233.8260224011
 20
141.0675818323
 11
234.3260224011
 21
141.0675818323
  0
LINE
  5
6A6
100
AcDbEntity
  8
0
100
AcDbLine
 62
7
  6
CONTINUOUS
 10
233.8260224011
 20
141.2045199252
 11
234.3260224011
 21
141.2045199252
  0
LINE
  5
6A7
100
AcDbEntity
  8
0
100
AcDbLine
 62
7
  6
CONTINUOUS
 10
233.8260224011
 20
141.3858167996
 11
234.3260224011
 21
141.3858167996
  0
LINE
  5
6A8
100
AcDbEntity
  8
0
100
AcDbLine
 62
7
  6
CONTINUOUS
 10
233.8260224011
 20
141.5207403258
 11
234.3260224011
 21
141.5207403258
  0
LINE
  5
6A9
100
AcDbEntity
  8
0
100
AcDbLine
 62
7
  6
CONTINUOUS
 10
233.8260224011
 20
141.8355617154
 11
234.3260224011
 21
141.8355617154
  0
LINE
  5
6AA
100
AcDbEntity
  8
0
100
AcDbLine
 62
7
  6
CONTINUOUS
 10
233.8260224011
 20
142.0154600934
 11
234.3260224011
 21
142.0154600934
  0
LINE
  5
6AB
100
AcDbEntity
  8
0
100
AcDbLine
 62
7
  6
CONTINUOUS
 10
233.8260224011
 20
142.330281483
 11
234.3260224011
 21
142.330281483
  0
LINE
  5
6AC
100
AcDbEntity
  8
0
100
AcDbLine
 62
7
  6
CONTINUOUS
 10
233.8260224011
 20
142.4652050092
 11
234.3260224011
 21
142.4652050092
  0
LINE
  5
6AD
100
AcDbEntity
  8
0
100
AcDbLine
 62
7
  6
CONTINUOUS
 10
233.8260224011
 20
142.8875754741
 11
234.3260224011
 21
142.8875754741
  0
LINE
  5
6AE
100
AcDbEntity
  8
0
100
AcDbLine
 62
7
  6
CONTINUOUS
 10
233.8260224011
 20
142.9314421058
 11
234.3260224011
 21
142.9314421058
  0
LINE
  5
6AF
100
AcDbEntity
  8
0
100
AcDbLine
 62
7
  6
CONTINUOUS
 10
233.8260224011
 20
143.0421664557
 11
234.3260224011
 21
143.0421664557
  0
LINE
  5
6B0
100
AcDbEntity
  8
0
100
AcDbLine
 62
7
  6
CONTINUOUS
 10
233.8260224011
 20
143.1975709508
 11
234.3260224011
 21
143.1975709508
  0
LINE
  5
6B1
100
AcDbEntity
  8
0
100
AcDbLine
 62
7
  6
CONTINUOUS
 10
233.8260224011
 20
143.3754785258
 11
234.3260224011
 21
143.3754785258
  0
LINE
  5
6B2
100
AcDbEntity
  8
0
100
AcDbLine
 62
7
  6
CONTINUOUS
 10
233.8260224011
 20
143.5090309568
 11
234.3260224011
 21
143.5090309568
  0
LINE
  5
6B3
100
AcDbEntity
  8
0
100
AcDbLine
 62
7
  6
CONTINUOUS
 10
233.8260224011
 20
143.6427458933
 11
234.3260224011
 21
143.6427458933
  0
LINE
  5
6B4
100
AcDbEntity
  8
0
100
AcDbLine
 62
7
  6
CONTINUOUS
 10
233.8260224011
 20
143.7319436782
 11
234.3260224011
 21
143.7319436782
  0
LINE
  5
6B5
100
AcDbEntity
  8
0
100
AcDbLine
 62
7
  6
CONTINUOUS
 10
233.8260224011
 20
143.7979815348
 11
234.3260224011
 21
143.7979815348
  0
LINE
  5
6B6
100
AcDbEntity
  8
0
100
AcDbLine
 62
7
  6
CONTINUOUS
 10
233.8260224011
 20
143.81782989
 11
234.3260224011
 21
143.81782989
  0
LINE
  5
6B7
100
AcDbEntity
  8
0
100
AcDbLine
 62
7
  6
CONTINUOUS
 10
233.8260224011
 20
143.8595749024
 11
234.3260224011
 21
143.8595749024
  0
LINE
  5
6B8
100
AcDbEntity
  8
0
100
AcDbLine
 62
7
  6
CONTINUOUS
 10
233.8260224011
 20
143.9242417226
 11
234.3260224011
 21
143.9242417226
  0
LINE
  5
6B9
100
AcDbEntity
  8
0
100
AcDbLine
 62
7
  6
CONTINUOUS
 10
233.8260224011
 20
144.0994174708
 11
234.3260224011
 21
144.0994174708
  0
LINE
  5
6BA
100
AcDbEntity
  8
0
100
AcDbLine
 62
7
  6
CONTINUOUS
 10
233.8260224011
 20
144.2099269001
 11
234.3260224011
 21
144.2099269001
  0
LINE
  5
6BB
100
AcDbEntity
  8
0
100
AcDbLine
 62
7
  6
CONTINUOUS
 10
233.8260224011
 20
144.3433573852
 11
234.3260224011
 21
144.3433573852
  0
LINE
  5
6BC
100
AcDbEntity
  8
0
100
AcDbLine
 62
7
  6
CONTINUOUS
 10
233.8260224011
 20
144.4548909665
 11
234.3260224011
 21
144.4548909665
  0
LINE
  5
6BD
100
AcDbEntity
  8
0
100
AcDbLine
 62
7
  6
CONTINUOUS
 10
233.8260224011
 20
144.5674489363
 11
234.3260224011
 21
144.5674489363
  0
LINE
  5
6BE
100
AcDbEntity
  8
0
100
AcDbLine
 62
7
  6
CONTINUOUS
 10
233.8260224011
 20
144.6581097658
 11
234.3260224011
 21
144.6581097658
  0
LINE
  5
6BF
100
AcDbEntity
  8
0
100
AcDbLine
 62
7
  6
CONTINUOUS
 10
233.8260224011
 20
144.6867907124
 11
234.3260224011
 21
144.6867907124
  0
LINE
  5
6C0
100
AcDbEntity
  8
0
100
AcDbLine
 62
7
  6
CONTINUOUS
 10
233.8260224011
 20
144.7983242856
 11
234.3260224011
 21
144.7983242856
  0
LINE
  5
6C1
100
AcDbEntity
  8
0
100
AcDbLine
 62
7
  6
CONTINUOUS
 10
233.8259215578
 20
144.9307303681
 11
234.3260224011
 21
144.9307303681
  0
LINE
  5
6C2
100
AcDbEntity
  8
0
100
AcDbLine
 62
7
  6
CONTINUOUS
 10
233.8259215578
 20
145.0183184928
 11
234.3260224011
 21
145.0183184928
  0
LINE
  5
6C3
100
AcDbEntity
  8
0
100
AcDbLine
 62
7
  6
CONTINUOUS
 10
233.8260224011
 20
145.0997604883
 11
234.3260224011
 21
145.0997604883
  0
LINE
  5
6C4
100
AcDbEntity
  8
0
100
AcDbLine
 62
7
  6
CONTINUOUS
 10
233.8260224011
 20
145.2092455189
 11
234.3260224011
 21
145.2092455189
  0
LINE
  5
6C5
100
AcDbEntity
  8
0
100
AcDbLine
 62
7
  6
CONTINUOUS
 10
233.8260224011
 20
145.2790338231
 11
234.3260224011
 21
145.2790338231
  0
LINE
  5
6C6
100
AcDbEntity
  8
0
100
AcDbLine
 62
7
  6
CONTINUOUS
 10
233.8260224011
 20
145.6153821213
 11
234.3260224011
 21
145.6153821213
  0
LWPOLYLINE
  5
6C7
100
AcDbEntity
  8
0
100
AcDbPolyline
 62
7
  6
CONTINUOUS
 90
6
 70
0
 10
220.4145306128
 20
154.5938247759
 10
220.6691669221
 20
154.4222529802
 10
220.9516768977
 20
154.2208854947
 10
221.2305357362
 20
154.0099891022
 10
221.5045547003
 20
153.7900777831
 10
221.6483606069
 20
153.6692707088
  0
LINE
  5
6C8
100
AcDbEntity
  8
RUNDUNGEN
100
AcDbLine
 62
7
  6
CONTINUOUS
 10
218.2953956524
 20
55.8429021351
 11
214.4584155816
 21
54.3265751985
  0
LINE
  5
6C9
100
AcDbEntity
  8
0
100
AcDbLine
 62
7
  6
CONTINUOUS
 10
233.8260224011
 20
146.3817377588
 11
234.3260224011
 21
146.3817377588
  0
LINE
  5
6CA
100
AcDbEntity
  8
0
100
AcDbLine
 62
7
  6
CONTINUOUS
 10
233.8260224011
 20
146.8866397144
 11
234.3260224011
 21
146.8866397144
  0
LINE
  5
6CB
100
AcDbEntity
  8
0
100
AcDbLine
 62
7
  6
CONTINUOUS
 10
233.8260224011
 20
147.0125106103
 11
234.3260224011
 21
147.0125106103
  0
LINE
  5
6CC
100
AcDbEntity
  8
0
100
AcDbLine
 62
7
  6
CONTINUOUS
 10
233.8260224011
 20
147.6048843111
 11
234.3260224011
 21
147.6048843111
  0
LINE
  5
6CD
100
AcDbEntity
  8
0
100
AcDbLine
 62
7
  6
CONTINUOUS
 10
233.8260224011
 20
147.6938419995
 11
234.3260224011
 21
147.6938419995
  0
LINE
  5
6CE
100
AcDbEntity
  8
0
100
AcDbLine
 62
7
  6
CONTINUOUS
 10
233.8260224011
 20
147.7259230072
 11
234.3260224011
 21
147.7259230072
  0
LINE
  5
6CF
100
AcDbEntity
  8
0
100
AcDbLine
 62
7
  6
CONTINUOUS
 10
233.8260224011
 20
147.803917955
 11
234.3260224011
 21
147.803917955
  0
LINE
  5
6D0
100
AcDbEntity
  8
0
100
AcDbLine
 62
7
  6
CONTINUOUS
 10
233.8602679282
 20
147.9897811651
 11
234.3260224011
 21
147.9897811651
  0
LINE
  5
6D1
100
AcDbEntity
  8
0
100
AcDbLine
 62
7
  6
CONTINUOUS
 10
233.8680611784
 20
148.1183009528
 11
234.3260224011
 21
148.1183009528
  0
LINE
  5
6D2
100
AcDbEntity
  8
0
100
AcDbLine
 62
7
  6
CONTINUOUS
 10
233.8761340306
 20
148.2514317037
 11
234.3260224011
 21
148.2514317037
  0
LINE
  5
6D3
100
AcDbEntity
  8
0
100
AcDbLine
 62
7
  6
CONTINUOUS
 10
233.892301699
 20
148.4350872924
 11
234.3260224011
 21
148.4350872924
  0
LINE
  5
6D4
100
AcDbEntity
  8
0
100
AcDbLine
 62
7
  6
CONTINUOUS
 10
233.9090269401
 20
148.577439952
 11
234.3260224011
 21
148.577439952
  0
LINE
  5
6D5
100
AcDbEntity
  8
0
100
AcDbLine
 62
7
  6
CONTINUOUS
 10
233.9262939275
 20
148.7244035492
 11
234.3260224011
 21
148.7244035492
  0
LINE
  5
6D6
100
AcDbEntity
  8
0
100
AcDbLine
 62
7
  6
CONTINUOUS
 10
233.970815771
 20
149.103339961
 11
234.3260224011
 21
149.103339961
  0
LINE
  5
6D7
100
AcDbEntity
  8
0
100
AcDbLine
 62
7
  6
CONTINUOUS
 10
233.9892324355
 20
149.2090006856
 11
234.3260224011
 21
149.2090006856
  0
LINE
  5
6D8
100
AcDbEntity
  8
0
100
AcDbLine
 62
7
  6
CONTINUOUS
 10
233.9998502118
 20
149.2687474444
 11
234.3260224011
 21
149.2687474444
  0
LINE
  5
6D9
100
AcDbEntity
  8
0
100
AcDbLine
 62
7
  6
CONTINUOUS
 10
234.0031279188
 20
149.2871912655
 11
234.3260224011
 21
149.2871912655
  0
LINE
  5
6DA
100
AcDbEntity
  8
RUNDUNGEN
100
AcDbLine
 62
7
  6
CONTINUOUS
 10
214.4583894987
 20
157.2183371948
 11
214.4583335062
 21
157.218359182
  0
LINE
  5
6DB
100
AcDbEntity
  8
0
100
AcDbLine
 62
7
  6
CONTINUOUS
 10
214.4584155816
 20
157.2183267467
 11
218.2953732148
 21
155.7019442656
  0
LINE
  5
6DC
100
AcDbEntity
  8
RUNDUNGEN
100
AcDbLine
 62
7
  6
CONTINUOUS
 10
218.2952551645
 20
155.7020557156
 11
218.2953953813
 21
155.7020002727
  0
LWPOLYLINE
  5
6DD
100
AcDbEntity
  8
0
100
AcDbPolyline
 62
7
  6
CONTINUOUS
 90
7
 70
0
 10
218.2952551645
 20
155.7020557156
 10
218.3866911056
 20
155.665414399
 10
218.8341583396
 20
155.4716944685
 10
219.2957333311
 20
155.2469004576
 10
219.7669162995
 20
154.9910498906
 10
220.2425935038
 20
154.7046799787
 10
220.4145265617
 20
154.5938727432
  0
LINE
  5
6DE
100
AcDbEntity
  8
0
100
AcDbLine
 62
7
  6
CONTINUOUS
 10
214.2705297154
 20
162.3051263238
 11
214.4592955613
 21
162.2063190768
  0
LINE
  5
6DF
100
AcDbEntity
  8
0
100
AcDbLine
 62
7
  6
CONTINUOUS
 10
222.756014599
 20
169.1468620122
 11
222.9794066232
 21
168.9386033279
  0
LINE
  5
6E0
100
AcDbEntity
  8
RUNDUNGEN
100
AcDbLine
 62
7
  6
CONTINUOUS
 10
214.4592678611
 20
162.2063299988
 11
214.4592955613
 21
162.2063190768
  0
LINE
  5
6E1
100
AcDbEntity
  8
0
100
AcDbLine
 62
7
  6
CONTINUOUS
 10
214.4586220148
 20
162.2065848638
 11
215.3354002117
 21
161.8598712116
  0
LWPOLYLINE
  5
6E2
100
AcDbEntity
  8
0
100
AcDbPolyline
 62
7
  6
CONTINUOUS
 90
3
 70
0
 10
215.3354002117
 20
161.8598712116
 10
215.4991494881
 20
161.7937321954
 10
215.6617810186
 20
161.7269435818
  0
LWPOLYLINE
  5
6E3
100
AcDbEntity
  8
0
100
AcDbPolyline
 62
7
  6
CONTINUOUS
 90
49
 70
0
 10
215.6617810186
 20
161.7269435818
 10
215.8232755728
 20
161.6595356354
 10
215.9836141948
 20
161.5915363879
 10
216.1427801433
 20
161.5229709148
 10
216.3007567639
 20
161.4538626956
 10
216.4575271777
 20
161.3842337853
 10
216.6130753082
 20
161.314104274
 10
216.7673839155
 20
161.2434930778
 10
216.9204429661
 20
161.172414289
 10
217.0722155431
 20
161.1008931293
 10
217.2226636289
 20
161.0289544697
 10
217.3717778079
 20
160.9566083386
 10
217.5195373616
 20
160.8838685771
 10
217.6659355819
 20
160.8107404586
 10
217.8109614518
 20
160.7372297303
 10
217.9545988616
 20
160.6633431735
 10
218.0968320767
 20
160.5890852781
 10
218.2376435853
 20
160.5144592968
 10
218.3770128281
 20
160.4394687226
 10
218.5149142797
 20
160.3641178167
 10
218.6513220821
 20
160.2884081389
 10
218.7862090916
 20
160.2123394309
 10
218.9195387293
 20
160.1359161266
 10
219.0512720812
 20
160.0591408027
 10
219.1813680154
 20
159.9820128428
 10
219.3097856483
 20
159.9045280891
 10
219.4364635833
 20
159.8266955737
 10
219.5613466566
 20
159.7485151827
 10
219.6843549721
 20
159.6699944655
 10
219.8054799233
 20
159.5910888075
 10
219.924686712
 20
159.5117723214
 10
220.0418234453
 20
159.4320876701
 10
220.1567661935
 20
159.352044288
 10
220.2693487247
 20
159.2716692827
 10
220.3793368868
 20
159.1910563455
 10
220.4865638264
 20
159.1102426764
 10
220.5907973462
 20
159.0292799073
 10
220.6918542245
 20
158.9481512508
 10
220.7893672252
 20
158.8670364426
 10
220.88313752
 20
158.785970792
 10
220.9728706853
 20
158.7049585964
 10
221.057803836
 20
158.6243332583
 10
221.1374830386
 20
158.5443007805
 10
221.2097141128
 20
158.4669784894
 10
221.2725358377
 20
158.3943905571
 10
221.3245666366
 20
158.3282351193
 10
221.3654911948
 20
158.2700977158
 10
221.3930495948
 20
158.2254765495
 10
221.402511328
 20
158.2079896631
  0
LINE
  5
6E4
100
AcDbEntity
  8
0
100
AcDbLine
 62
7
  6
CONTINUOUS
 10
222.608643578
 20
169.2533137184
 11
222.6920934683
 21
169.1956923899
  0
LINE
  5
6E5
100
AcDbEntity
  8
0
100
AcDbLine
 62
7
  6
CONTINUOUS
 10
222.6920934683
 20
169.1956923899
 11
222.7573237175
 21
169.1458113099
  0
LINE
  5
6E6
100
AcDbEntity
  8
RUNDUNGEN
100
AcDbLine
 62
7
  6
CONTINUOUS
 10
222.7573266085
 20
169.1458149901
 11
222.756014599
 21
169.1468620122
  0
LWPOLYLINE
  5
6E7
100
AcDbEntity
  8
RUNDUNGEN
100
AcDbPolyline
 62
7
  6
CONTINUOUS
 90
9
 70
0
 10
214.8260224011
 20
160.4184823717
 10
214.6294822495
 20
160.4043390911
 10
214.4409920251
 20
160.3632876584
 10
214.2677970747
 20
160.2964966045
 10
214.1164998242
 20
160.2070585306
 10
213.9927854565
 20
160.0983711499
 10
213.9011780396
 20
159.9748589249
 10
213.8449516073
 20
159.8416507165
 10
213.8260224011
 20
159.7025614156
  0
LINE
  5
6E8
100
AcDbEntity
  8
RUNDUNGEN
100
AcDbLine
 62
7
  6
CONTINUOUS
 10
214.8260224011
 20
160.4184823717
 11
218.4154204386
 21
160.4184823717
  0
LINE
  5
6E9
100
AcDbEntity
  8
RUNDUNGEN
100
AcDbLine
 62
7
  6
CONTINUOUS
 10
239.2364818712
 20
160.4184823717
 11
242.8260224011
 21
160.4184823717
  0
LWPOLYLINE
  5
6EA
100
AcDbEntity
  8
RUNDUNGEN
100
AcDbPolyline
 62
7
  6
CONTINUOUS
 90
9
 70
0
 10
242.8260224011
 20
160.4184823717
 10
243.0225625528
 20
160.4046495212
 10
243.2110527772
 20
160.3632876584
 10
243.3842477276
 20
160.2965947289
 10
243.5355449781
 20
160.2070585306
 10
243.6592593458
 20
160.0984306741
 10
243.7508667627
 20
159.9748589249
 10
243.8070931949
 20
159.8408709692
 10
243.8260224011
 20
159.7025614156
  0
LINE
  5
6EB
100
AcDbEntity
  8
0
100
AcDbLine
 62
7
  6
CONTINUOUS
 10
221.9551646259
 20
169.8045224189
 11
222.7027646947
 21
169.4398935022
  0
LWPOLYLINE
  5
6EC
100
AcDbEntity
  8
0
100
AcDbPolyline
 62
7
  6
CONTINUOUS
 90
4
 70
0
 10
214.3870067006
 20
173.3848967488
 10
218.7480908899
 20
171.252013887
 10
219.3945036188
 20
170.9304860105
 10
220.0326005394
 20
170.6095174099
  0
LINE
  5
6ED
100
AcDbEntity
  8
0
100
AcDbLine
 62
7
  6
CONTINUOUS
 10
220.0326005394
 20
170.6095174099
 11
220.8640992945
 21
170.1847207244
  0
LINE
  5
6EE
100
AcDbEntity
  8
RUNDUNGEN
100
AcDbLine
 62
7
  6
CONTINUOUS
 10
220.8644739275
 20
170.1845033519
 11
220.8640894297
 21
170.1847017351
  0
LINE
  5
6EF
100
AcDbEntity
  8
0
100
AcDbLine
 62
7
  6
CONTINUOUS
 10
220.8644739275
 20
170.1845033519
 11
221.2855234387
 21
169.9660154579
  0
LINE
  5
6F0
100
AcDbEntity
  8
0
100
AcDbLine
 62
7
  6
CONTINUOUS
 10
221.2855234387
 20
169.9660154579
 11
221.6903550746
 21
169.7533474762
  0
LINE
  5
6F1
100
AcDbEntity
  8
0
100
AcDbLine
 62
7
  6
CONTINUOUS
 10
221.6903550746
 20
169.7533474762
 11
222.0813127977
 21
169.5451124416
  0
LINE
  5
6F2
100
AcDbEntity
  8
0
100
AcDbLine
 62
7
  6
CONTINUOUS
 10
222.0813127977
 20
169.5451124416
 11
222.4963973245
 21
169.3203904285
  0
LINE
  5
6F3
100
AcDbEntity
  8
RUNDUNGEN
100
AcDbLine
 62
7
  6
CONTINUOUS
 10
222.4966078191
 20
169.3202760071
 11
222.4963977715
 21
169.320390859
  0
LWPOLYLINE
  5
6F4
100
AcDbEntity
  8
0
100
AcDbPolyline
 62
7
  6
CONTINUOUS
 90
3
 70
0
 10
222.4966078191
 20
169.3202760071
 10
222.5259947797
 20
169.3038301267
 10
222.608643578
 20
169.2533137184
  0
LWPOLYLINE
  5
6F5
100
AcDbEntity
  8
RUNDUNGEN
100
AcDbPolyline
 62
7
  6
CONTINUOUS
 90
6
 70
0
 10
229.6316144907
 20
30.3840713003
 10
229.7831405372
 20
30.5084308817
 10
229.9074888751
 20
30.6599513782
 10
229.999896507
 20
30.8328297745
 10
230.0568063076
 20
31.0204291617
 10
230.0760224011
 20
31.2155263078
  0
LINE
  5
6F6
100
AcDbEntity
  8
0
100
AcDbLine
 62
7
  6
CONTINUOUS
 10
233.8260224011
 20
165.8971418516
 11
234.3260224011
 21
165.8971418516
  0
LINE
  5
6F7
100
AcDbEntity
  8
0
100
AcDbLine
 62
7
  6
CONTINUOUS
 10
233.8260224011
 20
165.9614279043
 11
234.3260224011
 21
165.9614279043
  0
LINE
  5
6F8
100
AcDbEntity
  8
0
100
AcDbLine
 62
7
  6
CONTINUOUS
 10
233.8260224011
 20
166.110464212
 11
234.3260224011
 21
166.110464212
  0
LINE
  5
6F9
100
AcDbEntity
  8
0
100
AcDbLine
 62
7
  6
CONTINUOUS
 10
233.8260224011
 20
166.1631966778
 11
234.3260224011
 21
166.1631966778
  0
LINE
  5
6FA
100
AcDbEntity
  8
0
100
AcDbLine
 62
7
  6
CONTINUOUS
 10
233.8260224011
 20
166.3441136333
 11
234.3260224011
 21
166.3441136333
  0
LINE
  5
6FB
100
AcDbEntity
  8
0
100
AcDbLine
 62
7
  6
CONTINUOUS
 10
233.8260224011
 20
166.3875779742
 11
234.3260224011
 21
166.3875779742
  0
LINE
  5
6FC
100
AcDbEntity
  8
0
100
AcDbLine
 62
7
  6
CONTINUOUS
 10
233.8260224011
 20
166.4024933277
 11
234.3260224011
 21
166.4024933277
  0
LINE
  5
6FD
100
AcDbEntity
  8
0
100
AcDbLine
 62
7
  6
CONTINUOUS
 10
233.8260224011
 20
166.4537702241
 11
234.3260224011
 21
166.4537702241
  0
LINE
  5
6FE
100
AcDbEntity
  8
0
100
AcDbLine
 62
7
  6
CONTINUOUS
 10
233.8260224011
 20
166.5414081941
 11
234.3260224011
 21
166.5414081941
  0
LINE
  5
6FF
100
AcDbEntity
  8
0
100
AcDbLine
 62
7
  6
CONTINUOUS
 10
233.8260224011
 20
166.7017678416
 11
234.3260224011
 21
166.7017678416
  0
LINE
  5
700
100
AcDbEntity
  8
0
100
AcDbLine
 62
7
  6
CONTINUOUS
 10
233.854551795
 20
166.8328044119
 11
234.3260224011
 21
166.8328044119
  0
LINE
  5
701
100
AcDbEntity
  8
0
100
AcDbLine
 62
7
  6
CONTINUOUS
 10
233.8551700354
 20
166.845166058
 11
234.3260224011
 21
166.845166058
  0
LINE
  5
702
100
AcDbEntity
  8
0
100
AcDbLine
 62
7
  6
CONTINUOUS
 10
233.867197395
 20
166.9235500305
 11
234.3260224011
 21
166.9235500305
  0
LINE
  5
703
100
AcDbEntity
  8
0
100
AcDbLine
 62
7
  6
CONTINUOUS
 10
233.8817982132
 20
167.0091687423
 11
234.3260224011
 21
167.0091687423
  0
LINE
  5
704
100
AcDbEntity
  8
0
100
AcDbLine
 62
7
  6
CONTINUOUS
 10
233.9088917425
 20
167.1680442957
 11
234.3260224011
 21
167.1680442957
  0
LINE
  5
705
100
AcDbEntity
  8
0
100
AcDbLine
 62
7
  6
CONTINUOUS
 10
233.9451362705
 20
167.3805810002
 11
234.3260224011
 21
167.3805810002
  0
LINE
  5
706
100
AcDbEntity
  8
0
100
AcDbLine
 62
7
  6
CONTINUOUS
 10
233.9724760146
 20
167.5368931996
 11
234.3260224011
 21
167.5368931996
  0
LINE
  5
707
100
AcDbEntity
  8
0
100
AcDbLine
 62
7
  6
CONTINUOUS
 10
233.9975120389
 20
167.6143652836
 11
234.3260224011
 21
167.6143652836
  0
LINE
  5
708
100
AcDbEntity
  8
0
100
AcDbLine
 62
7
  6
CONTINUOUS
 10
234.0165100909
 20
167.673153319
 11
234.3260224011
 21
167.673153319
  0
LINE
  5
709
100
AcDbEntity
  8
0
100
AcDbLine
 62
7
  6
CONTINUOUS
 10
234.0334449811
 20
167.7255570564
 11
234.3260224011
 21
167.7255570564
  0
LINE
  5
70A
100
AcDbEntity
  8
0
100
AcDbLine
 62
7
  6
CONTINUOUS
 10
234.0385758489
 20
167.7414341387
 11
234.3260224011
 21
167.7414341387
  0
LINE
  5
70B
100
AcDbEntity
  8
0
100
AcDbLine
 62
7
  6
CONTINUOUS
 10
234.0677145514
 20
167.8316016503
 11
234.3260224011
 21
167.8316016503
  0
LINE
  5
70C
100
AcDbEntity
  8
0
100
AcDbLine
 62
7
  6
CONTINUOUS
 10
234.1117437077
 20
167.9678465454
 11
234.3260224011
 21
167.9678465454
  0
LINE
  5
70D
100
AcDbEntity
  8
0
100
AcDbLine
 62
7
  6
CONTINUOUS
 10
234.1282280049
 20
168.0188559565
 11
234.3260224011
 21
168.0188559565
  0
LWPOLYLINE
  5
70E
100
AcDbEntity
  8
RUNDUNGEN
100
AcDbPolyline
 62
7
  6
CONTINUOUS
 90
4
 70
0
 10
243.3815375931
 20
38.2024868963
 10
243.2085736671
 20
38.110059013
 10
243.0211335868
 20
38.0532121704
 10
242.8260224011
 20
38.0339932796
  0
LINE
  5
70F
100
AcDbEntity
  8
0
100
AcDbLine
 62
7
  6
CONTINUOUS
 10
222.3932668885
 20
171.7033811705
 11
235.2589027879
 21
171.7033811705
  0
LWPOLYLINE
  5
710
100
AcDbEntity
  8
RUNDUNGEN
100
AcDbPolyline
 62
7
  6
CONTINUOUS
 90
3
 70
0
 10
229.2711529527
 20
30.2347490325
 10
229.4587399822
 20
30.2916609209
 10
229.6316144907
 20
30.3840713003
  0
LWPOLYLINE
  5
711
100
AcDbEntity
  8
RUNDUNGEN
100
AcDbPolyline
 62
7
  6
CONTINUOUS
 90
9
 70
0
 10
214.8260224011
 20
174.9533811705
 10
214.6294822495
 20
174.9500697617
 10
214.4409920251
 20
174.941170348
 10
214.2677970747
 20
174.9263363707
 10
214.1164998242
 20
174.9066075058
 10
213.9927854565
 20
174.8825274199
 10
213.9011780396
 20
174.8552375826
 10
213.8449516073
 20
174.8262260225
 10
213.8260224011
 20
174.7949967302
  0
LINE
  5
712
100
AcDbEntity
  8
RUNDUNGEN
100
AcDbLine
 62
7
  6
CONTINUOUS
 10
214.8260224011
 20
174.9533811705
 11
242.8260224011
 21
174.9533811705
  0
LWPOLYLINE
  5
713
100
AcDbEntity
  8
RUNDUNGEN
100
AcDbPolyline
 62
7
  6
CONTINUOUS
 90
9
 70
0
 10
242.8260224011
 20
174.9533811705
 10
243.0225625528
 20
174.9505033711
 10
243.2110527772
 20
174.941170348
 10
243.3842477276
 20
174.926473431
 10
243.5355449781
 20
174.9066075058
 10
243.6592593458
 20
174.8826105633
 10
243.7508667627
 20
174.8552375826
 10
243.8070931949
 20
174.8251368697
 10
243.8260224011
 20
174.7949967302
  0
LINE
  5
714
100
AcDbEntity
  8
RUNDUNGEN
100
AcDbLine
 62
7
  6
CONTINUOUS
 10
214.8260224011
 20
183.4533811705
 11
242.8260224011
 21
183.4533811705
  0
ARC
  5
715
100
AcDbEntity
  8
RUNDUNGEN
100
AcDbCircle
 62
7
  6
CONTINUOUS
 10
44.9271862391
 20
49.1493179564
 40
3.9999527772
100
AcDbArc
 50
357.4249264201
 51
11.3553547269
  0
ARC
  5
716
100
AcDbEntity
  8
RUNDUNGEN
100
AcDbCircle
 62
7
  6
CONTINUOUS
 10
46.0445111117
 20
53.7402040293
 40
2.0000000423
100
AcDbArc
 50
11.3623635435
 51
76.7677249463
  0
ARC
  5
717
100
AcDbEntity
  8
RUNDUNGEN
100
AcDbCircle
 62
7
  6
CONTINUOUS
 10
41.2652283425
 20
57.8396354668
 40
1.0
100
AcDbArc
 50
216.0
 51
257.8324053934
  0
ARC
  5
718
100
AcDbEntity
  8
RUNDUNGEN
100
AcDbCircle
 62
7
  6
CONTINUOUS
 10
37.7385168287
 20
62.6937374331
 40
1.0
100
AcDbArc
 50
174.1675946066
 51
216.0
  0
ARC
  5
719
100
AcDbEntity
  8
RUNDUNGEN
100
AcDbCircle
 62
7
  6
CONTINUOUS
 10
62.0594388938
 20
50.6129197501
 40
2.25
100
AcDbArc
 50
324.0007968666
 51
144.0017755928
  0
ARC
  5
71A
100
AcDbEntity
  8
RUNDUNGEN
100
AcDbCircle
 62
7
  6
CONTINUOUS
 10
61.7056949655
 20
40.3633519493
 40
1.0
100
AcDbArc
 50
162.0
 51
234.0
  0
ARC
  5
71B
100
AcDbEntity
  8
RUNDUNGEN
100
AcDbCircle
 62
7
  6
CONTINUOUS
 10
52.4208335332
 20
47.1091986465
 40
1.0
100
AcDbArc
 50
234.0
 51
306.0
  0
ARC
  5
71C
100
AcDbEntity
  8
RUNDUNGEN
100
AcDbCircle
 62
7
  6
CONTINUOUS
 10
49.9220749754
 20
48.924653006
 40
1.0
100
AcDbArc
 50
177.4234289457
 51
233.9998194585
  0
ARC
  5
71D
100
AcDbEntity
  8
RUNDUNGEN
100
AcDbCircle
 62
7
  6
CONTINUOUS
 10
50.5911282944
 20
48.4385573163
 40
1.0
100
AcDbArc
 50
144.0
 51
234.0
  0
ARC
  5
71E
100
AcDbEntity
  8
RUNDUNGEN
100
AcDbCircle
 62
7
  6
CONTINUOUS
 10
30.6051345204
 20
68.8619200597
 40
3.9999543613
100
AcDbArc
 50
60.6414873248
 51
74.5750100656
  0
ARC
  5
71F
100
AcDbEntity
  8
RUNDUNGEN
100
AcDbCircle
 62
7
  6
CONTINUOUS
 10
31.9349791661
 20
73.6817634648
 40
1.0
100
AcDbArc
 50
197.9998814762
 51
254.5759764827
  0
ARC
  5
720
100
AcDbEntity
  8
RUNDUNGEN
100
AcDbCircle
 62
7
  6
CONTINUOUS
 10
31.6794217664
 20
74.4682882666
 40
1.0
100
AcDbArc
 50
197.9993922456
 51
288.0009458389
  0
ARC
  5
721
100
AcDbEntity
  8
RUNDUNGEN
100
AcDbCircle
 62
7
  6
CONTINUOUS
 10
30.9805365546
 20
76.6192357774
 40
1.0
100
AcDbArc
 50
126.0
 51
198.0
  0
ARC
  5
722
100
AcDbEntity
  8
RUNDUNGEN
100
AcDbCircle
 62
7
  6
CONTINUOUS
 10
35.3166054433
 20
68.5058994321
 40
2.0000000431
100
AcDbArc
 50
355.0810264489
 51
60.6376364565
  0
ARC
  5
723
100
AcDbEntity
  8
RUNDUNGEN
100
AcDbCircle
 62
7
  6
CONTINUOUS
 10
37.2912661999
 20
84.7033848491
 40
2.25
100
AcDbArc
 50
287.9977363539
 51
108.0024370477
  0
ARC
  5
724
100
AcDbEntity
  8
RUNDUNGEN
100
AcDbCircle
 62
7
  6
CONTINUOUS
 10
22.5706991008
 20
93.589391574
 40
3.9999527772
100
AcDbArc
 50
321.4249264201
 51
335.3553547269
  0
ARC
  5
725
100
AcDbEntity
  8
RUNDUNGEN
100
AcDbCircle
 62
7
  6
CONTINUOUS
 10
26.1730890395
 20
96.6467493441
 40
2.0000000423
100
AcDbArc
 50
335.3623635435
 51
40.7677249471
  0
ARC
  5
726
100
AcDbEntity
  8
RUNDUNGEN
100
AcDbCircle
 62
7
  6
CONTINUOUS
 10
27.4340350683
 20
87.5342450164
 40
1.0
100
AcDbArc
 50
198.0
 51
270.0
  0
ARC
  5
727
100
AcDbEntity
  8
RUNDUNGEN
100
AcDbCircle
 62
7
  6
CONTINUOUS
 10
24.7161534001
 20
102.7724509726
 40
1.0
100
AcDbArc
 50
180.0
 51
221.8324053934
  0
ARC
  5
728
100
AcDbEntity
  8
RUNDUNGEN
100
AcDbCircle
 62
7
  6
CONTINUOUS
 10
26.4795942289
 20
90.471711875
 40
1.0
100
AcDbArc
 50
141.4234289457
 51
197.9998194586
  0
ARC
  5
729
100
AcDbEntity
  8
RUNDUNGEN
100
AcDbCircle
 62
7
  6
CONTINUOUS
 10
26.7351498564
 20
89.6851925273
 40
1.0
100
AcDbArc
 50
108.0
 51
198.0
  0
ARC
  5
72A
100
AcDbEntity
  8
RUNDUNGEN
100
AcDbCircle
 62
7
  6
CONTINUOUS
 10
57.9298762788
 20
90.7724509726
 40
5.0
100
AcDbArc
 50
90.0
 51
198.7433983716
  0
ARC
  5
72B
100
AcDbEntity
  8
RUNDUNGEN
100
AcDbCircle
 62
7
  6
CONTINUOUS
 10
65.9616241164
 20
33.8668959236
 40
3.9999543613
100
AcDbArc
 50
96.6414873248
 51
110.5750100656
  0
ARC
  5
72C
100
AcDbEntity
  8
RUNDUNGEN
100
AcDbCircle
 62
7
  6
CONTINUOUS
 10
69.9825478359
 20
36.3482023106
 40
2.0000000431
100
AcDbArc
 50
31.081026434
 51
96.6376364565
  0
ARC
  5
72D
100
AcDbEntity
  8
RUNDUNGEN
100
AcDbCircle
 62
7
  6
CONTINUOUS
 10
63.5353102526
 20
39.0340586334
 40
1.0
100
AcDbArc
 50
234.0030846275
 51
324.0
  0
ARC
  5
72E
100
AcDbEntity
  8
RUNDUNGEN
100
AcDbCircle
 62
7
  6
CONTINUOUS
 10
64.2044581628
 20
38.5478942191
 40
1.0
100
AcDbArc
 50
233.9998814762
 51
290.5759764827
  0
ARC
  5
72F
100
AcDbEntity
  8
RUNDUNGEN
100
AcDbCircle
 62
7
  6
CONTINUOUS
 10
81.0645575104
 20
31.2155263078
 40
1.0
100
AcDbArc
 50
252.0
 51
293.8324053934
  0
ARC
  5
730
100
AcDbEntity
  8
RUNDUNGEN
100
AcDbCircle
 62
7
  6
CONTINUOUS
 10
75.3582184126
 20
33.069628274
 40
1.0
100
AcDbArc
 50
210.1675946066
 51
252.0
  0
ARC
  5
731
100
AcDbEntity
  8
RUNDUNGEN
100
AcDbCircle
 62
7
  6
CONTINUOUS
 10
89.1351841518
 20
26.3373562953
 40
3.9999528329
100
AcDbArc
 50
33.424929965
 51
47.3556449014
  0
ARC
  5
732
100
AcDbEntity
  8
RUNDUNGEN
100
AcDbCircle
 62
7
  6
CONTINUOUS
 10
87.3406638335
 20
30.7082085359
 40
2.0000000422
100
AcDbArc
 50
47.3623635435
 51
112.767749647
  0
ARC
  5
733
100
AcDbEntity
  8
RUNDUNGEN
100
AcDbCircle
 62
7
  6
CONTINUOUS
 10
93.3081887117
 20
29.0915207746
 40
1.0
100
AcDbArc
 50
213.4234287603
 51
269.9998649287
  0
ARC
  5
734
100
AcDbEntity
  8
RUNDUNGEN
100
AcDbCircle
 62
7
  6
CONTINUOUS
 10
94.1351841518
 20
29.0915207746
 40
1.0
100
AcDbArc
 50
180.0
 51
270.0
  0
ARC
  5
735
100
AcDbEntity
  8
RUNDUNGEN
100
AcDbCircle
 62
7
  6
CONTINUOUS
 10
96.3968242058
 20
29.0915207746
 40
1.0
100
AcDbArc
 50
270.0
 51
342.0
  0
ARC
  5
736
100
AcDbEntity
  8
RUNDUNGEN
100
AcDbCircle
 62
7
  6
CONTINUOUS
 10
102.1351841518
 20
37.5915207746
 40
2.25
100
AcDbArc
 50
0.0008088936
 51
180.0017852813
  0
ARC
  5
737
100
AcDbEntity
  8
RUNDUNGEN
100
AcDbCircle
 62
7
  6
CONTINUOUS
 10
87.1351841518
 20
61.5671430996
 40
5.0
100
AcDbArc
 50
251.2566016284
 51
360.0
  0
ARC
  5
738
100
AcDbEntity
  8
RUNDUNGEN
100
AcDbCircle
 62
7
  6
CONTINUOUS
 10
102.1351841518
 20
105.7724509726
 40
51.680930198
100
AcDbArc
 50
108.7433983716
 51
161.2566016284
  0
ARC
  5
739
100
AcDbEntity
  8
RUNDUNGEN
100
AcDbCircle
 62
7
  6
CONTINUOUS
 10
102.1351841518
 20
105.7724509726
 40
51.680930198
100
AcDbArc
 50
198.7433983716
 51
251.2566016284
  0
ARC
  5
73A
100
AcDbEntity
  8
RUNDUNGEN
100
AcDbCircle
 62
7
  6
CONTINUOUS
 10
102.1351841518
 20
105.7724509726
 40
51.680930198
100
AcDbArc
 50
288.7433983716
 51
341.2566016284
  0
ARC
  5
73B
100
AcDbEntity
  8
RUNDUNGEN
100
AcDbCircle
 62
7
  6
CONTINUOUS
 10
102.1351841518
 20
105.7724509726
 40
51.680930198
100
AcDbArc
 50
18.7433983716
 51
71.2566016284
  0
ARC
  5
73C
100
AcDbEntity
  8
RUNDUNGEN
100
AcDbCircle
 62
7
  6
CONTINUOUS
 10
102.1351841518
 20
105.7724509726
 40
26.0402324077
100
AcDbArc
 50
33.1050158059
 51
56.8949841928
  0
ARC
  5
73D
100
AcDbEntity
  8
RUNDUNGEN
100
AcDbCircle
 62
7
  6
CONTINUOUS
 10
102.1351841518
 20
105.7724509726
 40
26.0402324077
100
AcDbArc
 50
303.1050158059
 51
326.8949841928
  0
ARC
  5
73E
100
AcDbEntity
  8
RUNDUNGEN
100
AcDbCircle
 62
7
  6
CONTINUOUS
 10
102.1351841518
 20
105.7724509726
 40
26.0402324077
100
AcDbArc
 50
213.1050158059
 51
236.8949841928
  0
ARC
  5
73F
100
AcDbEntity
  8
RUNDUNGEN
100
AcDbCircle
 62
7
  6
CONTINUOUS
 10
102.1351841518
 20
105.7724509726
 40
26.0402324077
100
AcDbArc
 50
123.1050158059
 51
146.8949841928
  0
ARC
  5
740
100
AcDbEntity
  8
0
100
AcDbCircle
 62
7
  6
CONTINUOUS
 10
102.1351841518
 20
105.7724509726
 40
15.0
100
AcDbArc
 50
106.0404419761
 51
73.9595580239
  0
ARC
  5
741
100
AcDbEntity
  8
RUNDUNGEN
100
AcDbCircle
 62
7
  6
CONTINUOUS
 10
72.5304207305
 20
86.4724509726
 40
9.2999997506
100
AcDbArc
 50
33.1012189801
 51
89.7248568213
  0
ARC
  5
742
100
AcDbEntity
  8
RUNDUNGEN
100
AcDbCircle
 62
7
  6
CONTINUOUS
 10
82.8351841518
 20
76.1676875523
 40
9.29999975
100
AcDbArc
 50
0.275159224
 51
56.8987810191
  0
ARC
  5
743
100
AcDbEntity
  8
RUNDUNGEN
100
AcDbCircle
 62
7
  6
CONTINUOUS
 10
24.7161534001
 20
108.7724509726
 40
1.0
100
AcDbArc
 50
138.1675946066
 51
180.0
  0
ARC
  5
744
100
AcDbEntity
  8
RUNDUNGEN
100
AcDbCircle
 62
7
  6
CONTINUOUS
 10
22.5706941799
 20
117.9555119701
 40
3.9999540701
100
AcDbArc
 50
24.645786411
 51
38.5750042739
  0
ARC
  5
745
100
AcDbEntity
  8
RUNDUNGEN
100
AcDbCircle
 62
7
  6
CONTINUOUS
 10
26.1730890373
 20
114.8981525985
 40
2.0000000431
100
AcDbArc
 50
319.0810361754
 51
24.6376364565
  0
ARC
  5
746
100
AcDbEntity
  8
RUNDUNGEN
100
AcDbCircle
 62
7
  6
CONTINUOUS
 10
27.4340350683
 20
124.0106569288
 40
1.0
100
AcDbArc
 50
90.0
 51
162.0
  0
ARC
  5
747
100
AcDbEntity
  8
RUNDUNGEN
100
AcDbCircle
 62
7
  6
CONTINUOUS
 10
26.7351784426
 20
121.859797397
 40
1.0
100
AcDbArc
 50
162.0
 51
252.0017607086
  0
ARC
  5
748
100
AcDbEntity
  8
RUNDUNGEN
100
AcDbCircle
 62
7
  6
CONTINUOUS
 10
26.4795938728
 20
121.0731889743
 40
1.0
100
AcDbArc
 50
161.9999957078
 51
218.5765549756
  0
ARC
  5
749
100
AcDbEntity
  8
RUNDUNGEN
100
AcDbCircle
 62
7
  6
CONTINUOUS
 10
30.6051409545
 20
142.6829797949
 40
3.9999527772
100
AcDbArc
 50
285.4249264201
 51
299.3553547269
  0
ARC
  5
74A
100
AcDbEntity
  8
RUNDUNGEN
100
AcDbCircle
 62
7
  6
CONTINUOUS
 10
37.2912661999
 20
126.841517096
 40
2.25
100
AcDbArc
 50
252.0008035149
 51
72.0017809484
  0
ARC
  5
74B
100
AcDbEntity
  8
RUNDUNGEN
100
AcDbCircle
 62
7
  6
CONTINUOUS
 10
35.3166054436
 20
143.0390025098
 40
2.0000000423
100
AcDbArc
 50
299.3623635435
 51
4.7677249466
  0
ARC
  5
74C
100
AcDbEntity
  8
RUNDUNGEN
100
AcDbCircle
 62
7
  6
CONTINUOUS
 10
30.9805365546
 20
134.9256661677
 40
1.0
100
AcDbArc
 50
162.0
 51
234.0
  0
ARC
  5
74D
100
AcDbEntity
  8
RUNDUNGEN
100
AcDbCircle
 62
7
  6
CONTINUOUS
 10
31.934977394
 20
137.8631330263
 40
1.0
100
AcDbArc
 50
105.4234289457
 51
161.9998194585
  0
ARC
  5
74E
100
AcDbEntity
  8
RUNDUNGEN
100
AcDbCircle
 62
7
  6
CONTINUOUS
 10
31.6794217664
 20
137.0766136786
 40
1.0
100
AcDbArc
 50
72.0
 51
162.0
  0
ARC
  5
74F
100
AcDbEntity
  8
RUNDUNGEN
100
AcDbCircle
 62
7
  6
CONTINUOUS
 10
57.9298762788
 20
120.7724509726
 40
5.0
100
AcDbArc
 50
161.2566016284
 51
270.0
  0
ARC
  5
750
100
AcDbEntity
  8
RUNDUNGEN
100
AcDbCircle
 62
7
  6
CONTINUOUS
 10
46.0445111084
 20
157.8046979151
 40
2.0000000431
100
AcDbArc
 50
283.0810361767
 51
348.6376364565
  0
ARC
  5
751
100
AcDbEntity
  8
RUNDUNGEN
100
AcDbCircle
 62
7
  6
CONTINUOUS
 10
37.7385168287
 20
148.8511645121
 40
1.0
100
AcDbArc
 50
144.0
 51
185.8324053934
  0
ARC
  5
752
100
AcDbEntity
  8
RUNDUNGEN
100
AcDbCircle
 62
7
  6
CONTINUOUS
 10
41.2652283425
 20
153.7052664783
 40
1.0
100
AcDbArc
 50
102.1675946066
 51
144.0
  0
ARC
  5
753
100
AcDbEntity
  8
RUNDUNGEN
100
AcDbCircle
 62
7
  6
CONTINUOUS
 10
44.9271831979
 20
162.3955881747
 40
3.9999540701
100
AcDbArc
 50
348.645786411
 51
2.5750042739
  0
ARC
  5
754
100
AcDbEntity
  8
RUNDUNGEN
100
AcDbCircle
 62
7
  6
CONTINUOUS
 10
52.4208335332
 20
164.4357032986
 40
1.0
100
AcDbArc
 50
54.0
 51
126.0
  0
ARC
  5
755
100
AcDbEntity
  8
RUNDUNGEN
100
AcDbCircle
 62
7
  6
CONTINUOUS
 10
50.591203134
 20
163.1063990031
 40
1.0
100
AcDbArc
 50
126.0
 51
216.0017607086
  0
ARC
  5
756
100
AcDbEntity
  8
RUNDUNGEN
100
AcDbCircle
 62
7
  6
CONTINUOUS
 10
49.9220740432
 20
162.6202482619
 40
1.0
100
AcDbArc
 50
125.9999957078
 51
182.5765549756
  0
ARC
  5
757
100
AcDbEntity
  8
RUNDUNGEN
100
AcDbCircle
 62
7
  6
CONTINUOUS
 10
62.0594388938
 20
160.931982195
 40
2.25
100
AcDbArc
 50
216.000820921
 51
36.0017949707
  0
ARC
  5
758
100
AcDbEntity
  8
RUNDUNGEN
100
AcDbCircle
 62
7
  6
CONTINUOUS
 10
61.7056949655
 20
171.1815499958
 40
1.0
100
AcDbArc
 50
126.0
 51
198.0
  0
ARC
  5
759
100
AcDbEntity
  8
RUNDUNGEN
100
AcDbCircle
 62
7
  6
CONTINUOUS
 10
82.8351841518
 20
135.3772143938
 40
9.2999997506
100
AcDbArc
 50
303.1012189801
 51
359.7248510441
  0
ARC
  5
75A
100
AcDbEntity
  8
RUNDUNGEN
100
AcDbCircle
 62
7
  6
CONTINUOUS
 10
72.5304207315
 20
125.0724509726
 40
9.29999975
100
AcDbArc
 50
270.275142996
 51
326.8987810191
  0
ARC
  5
75B
100
AcDbEntity
  8
0
100
AcDbCircle
 62
7
  6
CONTINUOUS
 10
97.9351841518
 20
120.3806678384
 40
0.2
100
AcDbArc
 50
286.0404419761
 51
360.0
  0
ARC
  5
75C
100
AcDbEntity
  8
RUNDUNGEN
100
AcDbCircle
 62
7
  6
CONTINUOUS
 10
69.9825478224
 20
175.1966996113
 40
2.0000000361
100
AcDbArc
 50
263.3623635436
 51
328.7701448097
  0
ARC
  5
75D
100
AcDbEntity
  8
RUNDUNGEN
100
AcDbCircle
 62
7
  6
CONTINUOUS
 10
64.2044692089
 20
172.9970157515
 40
1.0
100
AcDbArc
 50
69.4256509375
 51
126.0003829197
  0
ARC
  5
75E
100
AcDbEntity
  8
RUNDUNGEN
100
AcDbCircle
 62
7
  6
CONTINUOUS
 10
63.5354002044
 20
172.5109086656
 40
1.0
100
AcDbArc
 50
36.0
 51
126.0
  0
ARC
  5
75F
100
AcDbEntity
  8
RUNDUNGEN
100
AcDbCircle
 62
7
  6
CONTINUOUS
 10
65.9615542031
 20
177.6781022489
 40
3.999993832
100
AcDbArc
 50
249.4260220943
 51
263.3620442279
  0
ARC
  5
760
100
AcDbEntity
  8
RUNDUNGEN
100
AcDbCircle
 62
7
  6
CONTINUOUS
 10
81.0645575104
 20
180.3293756374
 40
1.0
100
AcDbArc
 50
66.1675946066
 51
108.0
  0
ARC
  5
761
100
AcDbEntity
  8
RUNDUNGEN
100
AcDbCircle
 62
7
  6
CONTINUOUS
 10
75.3582184126
 20
178.4752736711
 40
1.0
100
AcDbArc
 50
108.0
 51
149.8324053934
  0
ARC
  5
762
100
AcDbEntity
  8
RUNDUNGEN
100
AcDbCircle
 62
7
  6
CONTINUOUS
 10
87.1351841518
 20
149.9777588456
 40
5.0
100
AcDbArc
 50
0.0
 51
108.7433983716
  0
ARC
  5
763
100
AcDbEntity
  8
RUNDUNGEN
100
AcDbCircle
 62
7
  6
CONTINUOUS
 10
89.1351841518
 20
185.2075861925
 40
3.9999656073
100
AcDbArc
 50
312.6389199185
 51
326.5747240833
  0
ARC
  5
764
100
AcDbEntity
  8
RUNDUNGEN
100
AcDbCircle
 62
7
  6
CONTINUOUS
 10
102.1351841518
 20
173.9533811705
 40
2.25
100
AcDbArc
 50
180.0008088936
 51
0.0017852813
  0
ARC
  5
765
100
AcDbEntity
  8
RUNDUNGEN
100
AcDbCircle
 62
7
  6
CONTINUOUS
 10
87.340663853
 20
180.8366934006
 40
2.0000000366
100
AcDbArc
 50
247.0806588636
 51
312.6376364564
  0
ARC
  5
766
100
AcDbEntity
  8
RUNDUNGEN
100
AcDbCircle
 62
7
  6
CONTINUOUS
 10
96.3968242058
 20
182.4533811705
 40
1.0
100
AcDbArc
 50
18.0
 51
90.0
  0
ARC
  5
767
100
AcDbEntity
  8
RUNDUNGEN
100
AcDbCircle
 62
7
  6
CONTINUOUS
 10
94.1351841518
 20
182.4533811705
 40
1.0
100
AcDbArc
 50
90.0
 51
180.0
  0
ARC
  5
768
100
AcDbEntity
  8
RUNDUNGEN
100
AcDbCircle
 62
7
  6
CONTINUOUS
 10
93.3081823405
 20
182.4533811705
 40
1.0
100
AcDbArc
 50
90.0000079531
 51
146.5758309349
  0
ARC
  5
769
100
AcDbEntity
  8
RUNDUNGEN
100
AcDbCircle
 62
7
  6
CONTINUOUS
 10
115.1351841518
 20
26.3373495963
 40
3.9999544395
100
AcDbArc
 50
132.641460991
 51
146.5750090592
  0
ARC
  5
76A
100
AcDbEntity
  8
RUNDUNGEN
100
AcDbCircle
 62
7
  6
CONTINUOUS
 10
107.8735440978
 20
29.0915207746
 40
1.0
100
AcDbArc
 50
198.0
 51
270.0
  0
ARC
  5
76B
100
AcDbEntity
  8
RUNDUNGEN
100
AcDbCircle
 62
7
  6
CONTINUOUS
 10
110.1350725689
 20
29.0915207746
 40
1.0
100
AcDbArc
 50
270.0030961258
 51
360.0
  0
ARC
  5
76C
100
AcDbEntity
  8
RUNDUNGEN
100
AcDbCircle
 62
7
  6
CONTINUOUS
 10
110.9621856308
 20
29.0915207746
 40
1.0
100
AcDbArc
 50
269.99987205
 51
326.5759353903
  0
ARC
  5
76D
100
AcDbEntity
  8
RUNDUNGEN
100
AcDbCircle
 62
7
  6
CONTINUOUS
 10
116.9297044733
 20
30.7082085345
 40
2.0000000431
100
AcDbArc
 50
67.0810263258
 51
132.6376364565
  0
ARC
  5
76E
100
AcDbEntity
  8
RUNDUNGEN
100
AcDbCircle
 62
7
  6
CONTINUOUS
 10
123.2058107932
 20
31.2155263078
 40
1.0
100
AcDbArc
 50
246.1675946066
 51
288.0
  0
ARC
  5
76F
100
AcDbEntity
  8
RUNDUNGEN
100
AcDbCircle
 62
7
  6
CONTINUOUS
 10
117.1351841518
 20
61.5671430996
 40
5.0
100
AcDbArc
 50
180.0
 51
288.7433983716
  0
ARC
  5
770
100
AcDbEntity
  8
RUNDUNGEN
100
AcDbCircle
 62
7
  6
CONTINUOUS
 10
138.3087403907
 20
33.8669011491
 40
3.9999528329
100
AcDbArc
 50
69.424928853
 51
83.3556449014
  0
ARC
  5
771
100
AcDbEntity
  8
RUNDUNGEN
100
AcDbCircle
 62
7
  6
CONTINUOUS
 10
134.2878204693
 20
36.3482023134
 40
2.0000000423
100
AcDbArc
 50
83.3623635435
 51
148.7677249455
  0
ARC
  5
772
100
AcDbEntity
  8
RUNDUNGEN
100
AcDbCircle
 62
7
  6
CONTINUOUS
 10
142.5646733381
 20
40.3633519493
 40
1.0
100
AcDbArc
 50
306.0
 51
18.0
  0
ARC
  5
773
100
AcDbEntity
  8
RUNDUNGEN
100
AcDbCircle
 62
7
  6
CONTINUOUS
 10
128.912149891
 20
33.069628274
 40
1.0
100
AcDbArc
 50
288.0
 51
329.8324053934
  0
ARC
  5
774
100
AcDbEntity
  8
RUNDUNGEN
100
AcDbCircle
 62
7
  6
CONTINUOUS
 10
140.0659147331
 20
38.5478975556
 40
1.0
100
AcDbArc
 50
249.4234355428
 51
305.9998173114
  0
ARC
  5
775
100
AcDbEntity
  8
RUNDUNGEN
100
AcDbCircle
 62
7
  6
CONTINUOUS
 10
140.7349680992
 20
39.0339932796
 40
1.0
100
AcDbArc
 50
216.0
 51
306.0
  0
ARC
  5
776
100
AcDbEntity
  8
RUNDUNGEN
100
AcDbCircle
 62
7
  6
CONTINUOUS
 10
142.2109294097
 20
50.6129197501
 40
2.25
100
AcDbArc
 50
36.000820921
 51
216.0017949707
  0
ARC
  5
777
100
AcDbEntity
  8
RUNDUNGEN
100
AcDbCircle
 62
7
  6
CONTINUOUS
 10
121.4351841518
 20
76.1676875513
 40
9.2999997506
100
AcDbArc
 50
123.1012189801
 51
179.7248510441
  0
ARC
  5
778
100
AcDbEntity
  8
RUNDUNGEN
100
AcDbCircle
 62
7
  6
CONTINUOUS
 10
131.7399475721
 20
86.4724509726
 40
9.29999975
100
AcDbArc
 50
90.275142996
 51
146.8987810191
  0
ARC
  5
779
100
AcDbEntity
  8
RUNDUNGEN
100
AcDbCircle
 62
7
  6
CONTINUOUS
 10
151.8495347704
 20
47.1091986465
 40
1.0
100
AcDbArc
 50
234.0
 51
306.0
  0
ARC
  5
77A
100
AcDbEntity
  8
RUNDUNGEN
100
AcDbCircle
 62
7
  6
CONTINUOUS
 10
154.3482982601
 20
48.9246565893
 40
1.0
100
AcDbArc
 50
305.99987205
 51
2.5759353903
  0
ARC
  5
77B
100
AcDbEntity
  8
RUNDUNGEN
100
AcDbCircle
 62
7
  6
CONTINUOUS
 10
153.6792400092
 20
48.4385573163
 40
1.0
100
AcDbArc
 50
305.9994118944
 51
36.0
  0
ARC
  5
77C
100
AcDbEntity
  8
RUNDUNGEN
100
AcDbCircle
 62
7
  6
CONTINUOUS
 10
158.2258571951
 20
53.74020403
 40
2.0000000431
100
AcDbArc
 50
103.0810263212
 51
168.6376364565
  0
ARC
  5
77D
100
AcDbEntity
  8
RUNDUNGEN
100
AcDbCircle
 62
7
  6
CONTINUOUS
 10
159.343186182
 20
49.1493122891
 40
3.9999544395
100
AcDbArc
 50
168.641460991
 51
182.5750090592
  0
ARC
  5
77E
100
AcDbEntity
  8
RUNDUNGEN
100
AcDbCircle
 62
7
  6
CONTINUOUS
 10
163.0051399611
 20
57.8396354668
 40
1.0
100
AcDbArc
 50
282.1675946066
 51
324.0
  0
ARC
  5
77F
100
AcDbEntity
  8
RUNDUNGEN
100
AcDbCircle
 62
7
  6
CONTINUOUS
 10
166.5318514748
 20
62.6937374331
 40
1.0
100
AcDbArc
 50
324.0
 51
5.8324053934
  0
ARC
  5
780
100
AcDbEntity
  8
RUNDUNGEN
100
AcDbCircle
 62
7
  6
CONTINUOUS
 10
146.3404920248
 20
90.7724509726
 40
5.0
100
AcDbArc
 50
341.2566016284
 51
90.0
  0
ARC
  5
781
100
AcDbEntity
  8
RUNDUNGEN
100
AcDbCircle
 62
7
  6
CONTINUOUS
 10
173.6652276403
 20
68.8619220557
 40
3.9999528329
100
AcDbArc
 50
105.424928853
 51
119.3556449014
  0
ARC
  5
782
100
AcDbEntity
  8
RUNDUNGEN
100
AcDbCircle
 62
7
  6
CONTINUOUS
 10
166.9791021036
 20
84.7033848491
 40
2.25
100
AcDbArc
 50
71.9984791069
 51
252.0024165321
  0
ARC
  5
783
100
AcDbEntity
  8
RUNDUNGEN
100
AcDbCircle
 62
7
  6
CONTINUOUS
 10
168.95376286
 20
68.5058994354
 40
2.0000000423
100
AcDbArc
 50
119.3623635435
 51
184.767724946
  0
ARC
  5
784
100
AcDbEntity
  8
RUNDUNGEN
100
AcDbCircle
 62
7
  6
CONTINUOUS
 10
173.289831749
 20
76.6192357774
 40
1.0
100
AcDbArc
 50
342.0
 51
54.0
  0
ARC
  5
785
100
AcDbEntity
  8
RUNDUNGEN
100
AcDbCircle
 62
7
  6
CONTINUOUS
 10
172.3353908915
 20
73.6817688633
 40
1.0
100
AcDbArc
 50
285.4234355428
 51
341.9998173114
  0
ARC
  5
786
100
AcDbEntity
  8
RUNDUNGEN
100
AcDbCircle
 62
7
  6
CONTINUOUS
 10
172.5909465371
 20
74.4682882666
 40
1.0
100
AcDbArc
 50
252.0
 51
342.0
  0
ARC
  5
787
100
AcDbEntity
  8
RUNDUNGEN
100
AcDbCircle
 62
7
  6
CONTINUOUS
 10
176.8363332353
 20
87.5342450164
 40
1.0
100
AcDbArc
 50
270.0
 51
342.0
  0
ARC
  5
788
100
AcDbEntity
  8
RUNDUNGEN
100
AcDbCircle
 62
7
  6
CONTINUOUS
 10
177.5352184471
 20
89.6851925273
 40
1.0
100
AcDbArc
 50
342.0
 51
72.0
  0
ARC
  5
789
100
AcDbEntity
  8
RUNDUNGEN
100
AcDbCircle
 62
7
  6
CONTINUOUS
 10
177.7907759585
 20
90.4717176729
 40
1.0
100
AcDbArc
 50
341.99987205
 51
38.5759353903
  0
ARC
  5
78A
100
AcDbEntity
  8
RUNDUNGEN
100
AcDbCircle
 62
7
  6
CONTINUOUS
 10
178.0972792662
 20
96.6467493466
 40
2.0000000431
100
AcDbArc
 50
139.0810263252
 51
204.6376364565
  0
ARC
  5
78B
100
AcDbEntity
  8
RUNDUNGEN
100
AcDbCircle
 62
7
  6
CONTINUOUS
 10
181.6996758652
 20
93.5893894092
 40
3.9999544395
100
AcDbArc
 50
204.641460991
 51
218.5750090592
  0
ARC
  5
78C
100
AcDbEntity
  8
RUNDUNGEN
100
AcDbCircle
 62
7
  6
CONTINUOUS
 10
179.5542149035
 20
102.7724509726
 40
1.0
100
AcDbArc
 50
318.1675946066
 51
360.0
  0
ARC
  5
78D
100
AcDbEntity
  8
RUNDUNGEN
100
AcDbCircle
 62
7
  6
CONTINUOUS
 10
131.7399475731
 20
125.0724509726
 40
9.2999997506
100
AcDbArc
 50
213.1012189801
 51
269.7248568213
  0
ARC
  5
78E
100
AcDbEntity
  8
RUNDUNGEN
100
AcDbCircle
 62
7
  6
CONTINUOUS
 10
121.4351841518
 20
135.3772143928
 40
9.29999975
100
AcDbArc
 50
180.275159224
 51
236.8987810191
  0
ARC
  5
78F
100
AcDbEntity
  8
0
100
AcDbCircle
 62
7
  6
CONTINUOUS
 10
106.3351841518
 20
120.3806678384
 40
0.2
100
AcDbArc
 50
180.0
 51
253.9595580239
  0
ARC
  5
790
100
AcDbEntity
  8
RUNDUNGEN
100
AcDbCircle
 62
7
  6
CONTINUOUS
 10
117.1351841518
 20
149.9777588456
 40
5.0
100
AcDbArc
 50
71.2566016284
 51
180.0
  0
ARC
  5
791
100
AcDbEntity
  8
RUNDUNGEN
100
AcDbCircle
 62
7
  6
CONTINUOUS
 10
107.8735440978
 20
182.4533811705
 40
1.0
100
AcDbArc
 50
89.999999978
 51
162.0000000918
  0
ARC
  5
792
100
AcDbEntity
  8
RUNDUNGEN
100
AcDbCircle
 62
7
  6
CONTINUOUS
 10
110.962179648
 20
182.4533811705
 40
1.0
100
AcDbArc
 50
33.4234384896
 51
89.9998523379
  0
ARC
  5
793
100
AcDbEntity
  8
RUNDUNGEN
100
AcDbCircle
 62
7
  6
CONTINUOUS
 10
110.1351841518
 20
182.4533811705
 40
1.0
100
AcDbArc
 50
0.0
 51
90.0
  0
ARC
  5
794
100
AcDbEntity
  8
RUNDUNGEN
100
AcDbCircle
 62
7
  6
CONTINUOUS
 10
115.1351841518
 20
185.2075459489
 40
3.9999528882
100
AcDbArc
 50
213.4249314171
 51
227.3559309773
  0
ARC
  5
795
100
AcDbEntity
  8
RUNDUNGEN
100
AcDbCircle
 62
7
  6
CONTINUOUS
 10
116.9297044701
 20
180.8366934092
 40
2.0000000422
100
AcDbArc
 50
227.3623635435
 51
292.767749821
  0
ARC
  5
796
100
AcDbEntity
  8
RUNDUNGEN
100
AcDbCircle
 62
7
  6
CONTINUOUS
 10
123.2058107932
 20
180.3293756374
 40
1.0
100
AcDbArc
 50
72.0
 51
113.8324053934
  0
ARC
  5
797
100
AcDbEntity
  8
RUNDUNGEN
100
AcDbCircle
 62
7
  6
CONTINUOUS
 10
142.2109294097
 20
160.931982195
 40
2.25
100
AcDbArc
 50
144.0007968666
 51
324.0017755928
  0
ARC
  5
798
100
AcDbEntity
  8
RUNDUNGEN
100
AcDbCircle
 62
7
  6
CONTINUOUS
 10
138.3087443283
 20
177.6780062157
 40
3.9999544395
100
AcDbArc
 50
276.641460991
 51
290.5750090592
  0
ARC
  5
799
100
AcDbEntity
  8
RUNDUNGEN
100
AcDbCircle
 62
7
  6
CONTINUOUS
 10
134.2878204677
 20
175.1966996346
 40
2.0000000431
100
AcDbArc
 50
211.0810263191
 51
276.6376364565
  0
ARC
  5
79A
100
AcDbEntity
  8
RUNDUNGEN
100
AcDbCircle
 62
7
  6
CONTINUOUS
 10
142.5646733381
 20
171.1815499958
 40
1.0
100
AcDbArc
 50
342.0
 51
54.0
  0
ARC
  5
79B
100
AcDbEntity
  8
RUNDUNGEN
100
AcDbCircle
 62
7
  6
CONTINUOUS
 10
128.912149891
 20
178.4752736711
 40
1.0
100
AcDbArc
 50
30.1675946066
 51
72.0
  0
ARC
  5
79C
100
AcDbEntity
  8
RUNDUNGEN
100
AcDbCircle
 62
7
  6
CONTINUOUS
 10
140.7350583716
 20
172.5108430788
 40
1.0
100
AcDbArc
 50
54.0
 51
144.0009280751
  0
ARC
  5
79D
100
AcDbEntity
  8
RUNDUNGEN
100
AcDbCircle
 62
7
  6
CONTINUOUS
 10
140.0659098483
 20
172.9970079386
 40
1.0
100
AcDbArc
 50
53.99987205
 51
110.5759353903
  0
ARC
  5
79E
100
AcDbEntity
  8
RUNDUNGEN
100
AcDbCircle
 62
7
  6
CONTINUOUS
 10
146.3404920248
 20
120.7724509726
 40
5.0
100
AcDbArc
 50
270.0
 51
18.7433983716
  0
ARC
  5
79F
100
AcDbEntity
  8
RUNDUNGEN
100
AcDbCircle
 62
7
  6
CONTINUOUS
 10
178.097279264
 20
114.898152601
 40
2.0000000423
100
AcDbArc
 50
155.3623635435
 51
220.7677249462
  0
ARC
  5
7A0
100
AcDbEntity
  8
RUNDUNGEN
100
AcDbCircle
 62
7
  6
CONTINUOUS
 10
176.8363332353
 20
124.0106569288
 40
1.0
100
AcDbArc
 50
18.0
 51
90.0
  0
ARC
  5
7A1
100
AcDbEntity
  8
RUNDUNGEN
100
AcDbCircle
 62
7
  6
CONTINUOUS
 10
177.7907740927
 20
121.0731900146
 40
1.0
100
AcDbArc
 50
321.4234355428
 51
17.9998173114
  0
ARC
  5
7A2
100
AcDbEntity
  8
RUNDUNGEN
100
AcDbCircle
 62
7
  6
CONTINUOUS
 10
177.5352184471
 20
121.8597094179
 40
1.0
100
AcDbArc
 50
288.0
 51
18.0
  0
ARC
  5
7A3
100
AcDbEntity
  8
RUNDUNGEN
100
AcDbCircle
 62
7
  6
CONTINUOUS
 10
179.5542149035
 20
108.7724509726
 40
1.0
100
AcDbArc
 50
0.0
 51
41.8324053934
  0
ARC
  5
7A4
100
AcDbEntity
  8
RUNDUNGEN
100
AcDbCircle
 62
7
  6
CONTINUOUS
 10
181.699669494
 20
117.9555104658
 40
3.9999528329
100
AcDbArc
 50
141.424928853
 51
155.3556449014
  0
ARC
  5
7A5
100
AcDbEntity
  8
RUNDUNGEN
100
AcDbCircle
 62
7
  6
CONTINUOUS
 10
166.9791021036
 20
126.841517096
 40
2.25
100
AcDbArc
 50
108.0008142724
 51
288.0017896145
  0
ARC
  5
7A6
100
AcDbEntity
  8
RUNDUNGEN
100
AcDbCircle
 62
7
  6
CONTINUOUS
 10
168.9537628603
 20
143.039002513
 40
2.0000000431
100
AcDbArc
 50
175.0810263295
 51
240.6376364565
  0
ARC
  5
7A7
100
AcDbEntity
  8
RUNDUNGEN
100
AcDbCircle
 62
7
  6
CONTINUOUS
 10
173.289831749
 20
134.9256661677
 40
1.0
100
AcDbArc
 50
306.0
 51
18.0
  0
ARC
  5
7A8
100
AcDbEntity
  8
RUNDUNGEN
100
AcDbCircle
 62
7
  6
CONTINUOUS
 10
173.6652340114
 20
142.6829819596
 40
3.9999544395
100
AcDbArc
 50
240.641460991
 51
254.5750090592
  0
ARC
  5
7A9
100
AcDbEntity
  8
RUNDUNGEN
100
AcDbCircle
 62
7
  6
CONTINUOUS
 10
172.3353890257
 20
137.8631388242
 40
1.0
100
AcDbArc
 50
17.99987205
 51
74.5759353903
  0
ARC
  5
7AA
100
AcDbEntity
  8
RUNDUNGEN
100
AcDbCircle
 62
7
  6
CONTINUOUS
 10
172.5909465371
 20
137.0766136786
 40
1.0
100
AcDbArc
 50
17.9994118944
 51
108.0009280751
  0
ARC
  5
7AB
100
AcDbEntity
  8
RUNDUNGEN
100
AcDbCircle
 62
7
  6
CONTINUOUS
 10
158.2258571919
 20
157.8046979158
 40
2.0000000423
100
AcDbArc
 50
191.3623635435
 51
256.7677249457
  0
ARC
  5
7AC
100
AcDbEntity
  8
RUNDUNGEN
100
AcDbCircle
 62
7
  6
CONTINUOUS
 10
151.8495347704
 20
164.4357032986
 40
1.0
100
AcDbArc
 50
54.0
 51
126.0
  0
ARC
  5
7AD
100
AcDbEntity
  8
RUNDUNGEN
100
AcDbCircle
 62
7
  6
CONTINUOUS
 10
154.3482933754
 20
162.6202489048
 40
1.0
100
AcDbArc
 50
357.4234355428
 51
53.9998173113
  0
ARC
  5
7AE
100
AcDbEntity
  8
RUNDUNGEN
100
AcDbCircle
 62
7
  6
CONTINUOUS
 10
153.6792400092
 20
163.1063446289
 40
1.0
100
AcDbArc
 50
324.0
 51
54.0
  0
ARC
  5
7AF
100
AcDbEntity
  8
RUNDUNGEN
100
AcDbCircle
 62
7
  6
CONTINUOUS
 10
163.0051399611
 20
153.7052664783
 40
1.0
100
AcDbArc
 50
36.0
 51
77.8324053934
  0
ARC
  5
7B0
100
AcDbEntity
  8
RUNDUNGEN
100
AcDbCircle
 62
7
  6
CONTINUOUS
 10
166.5318514748
 20
148.8511645121
 40
1.0
100
AcDbArc
 50
354.1675946066
 51
36.0
  0
ARC
  5
7B1
100
AcDbEntity
  8
RUNDUNGEN
100
AcDbCircle
 62
7
  6
CONTINUOUS
 10
159.3431822444
 20
162.3955842365
 40
3.9999528329
100
AcDbArc
 50
177.424928853
 51
191.3556449014
  0
ARC
  5
7B2
100
AcDbEntity
  8
RUNDUNGEN
100
AcDbCircle
 62
7
  6
CONTINUOUS
 10
214.5260224011
 20
71.3996947312
 40
9.3
100
AcDbArc
 50
3.2480972258
 51
12.7268164087
  0
ARC
  5
7B3
100
AcDbEntity
  8
RUNDUNGEN
100
AcDbCircle
 62
7
  6
CONTINUOUS
 10
212.7760224011
 20
83.8521019985
 40
3.0
100
AcDbArc
 50
180.0
 51
266.0
  0
ARC
  5
7B4
100
AcDbEntity
  8
RUNDUNGEN
100
AcDbCircle
 62
7
  6
CONTINUOUS
 10
214.8260224011
 20
91.0753137492
 40
1.0
100
AcDbArc
 50
98.5821154728
 51
180.0000002436
  0
ARC
  5
7B5
100
AcDbEntity
  8
RUNDUNGEN
100
AcDbCircle
 62
7
  6
CONTINUOUS
 10
214.8260224011
 20
53.3965588756
 40
1.0
100
AcDbArc
 50
111.5604668071
 51
180.0000013363
  0
ARC
  5
7B6
100
AcDbEntity
  8
RUNDUNGEN
100
AcDbCircle
 62
7
  6
CONTINUOUS
 10
214.8260224011
 20
47.1091986465
 40
1.0
100
AcDbArc
 50
180.0
 51
270.0
  0
ARC
  5
7B7
100
AcDbEntity
  8
RUNDUNGEN
100
AcDbCircle
 62
7
  6
CONTINUOUS
 10
214.8260224011
 20
37.2613805
 40
1.0
100
AcDbArc
 50
116.0374415648
 51
180.0000000864
  0
ARC
  5
7B8
100
AcDbEntity
  8
RUNDUNGEN
100
AcDbCircle
 62
7
  6
CONTINUOUS
 10
214.8260224011
 20
87.5342450164
 40
1.0
100
AcDbArc
 50
180.0
 51
270.0
  0
ARC
  5
7B9
100
AcDbEntity
  8
RUNDUNGEN
100
AcDbCircle
 62
7
  6
CONTINUOUS
 10
214.8260224011
 20
29.0915207746
 40
1.0
100
AcDbArc
 50
180.0
 51
270.0
  0
ARC
  5
7BA
100
AcDbEntity
  8
0
100
AcDbCircle
 62
7
  6
CONTINUOUS
 10
214.5260224011
 20
140.1452072139
 40
9.3
100
AcDbArc
 50
274.0
 51
360.0
  0
ARC
  5
7BB
100
AcDbEntity
  8
0
100
AcDbCircle
 62
7
  6
CONTINUOUS
 10
212.7760224011
 20
127.6927999466
 40
3.0
100
AcDbArc
 50
94.0
 51
180.0
  0
ARC
  5
7BC
100
AcDbEntity
  8
0
100
AcDbCircle
 62
7
  6
CONTINUOUS
 10
221.8260224011
 20
167.6423054096
 40
2.0
100
AcDbArc
 50
0.0
 51
64.0
  0
ARC
  5
7BD
100
AcDbEntity
  8
0
100
AcDbCircle
 62
7
  6
CONTINUOUS
 10
214.8260224011
 20
158.1483430696
 40
1.0
100
AcDbArc
 50
179.9999991873
 51
248.439533719
  0
ARC
  5
7BE
100
AcDbEntity
  8
0
100
AcDbCircle
 62
7
  6
CONTINUOUS
 10
214.8260224011
 20
174.2835214448
 40
1.0
100
AcDbArc
 50
179.9999999267
 51
243.9625584505
  0
ARC
  5
7BF
100
AcDbEntity
  8
RUNDUNGEN
100
AcDbCircle
 62
7
  6
CONTINUOUS
 10
214.8260224011
 20
182.4533811705
 40
1.0
100
AcDbArc
 50
90.0
 51
180.0
  0
ARC
  5
7C0
100
AcDbEntity
  8
0
100
AcDbCircle
 62
7
  6
CONTINUOUS
 10
222.393267389
 20
170.7034438116
 40
0.9999807389
100
AcDbArc
 50
90.000037207
 51
244.0169962743
  0
ARC
  5
7C1
100
AcDbEntity
  8
RUNDUNGEN
100
AcDbCircle
 62
7
  6
CONTINUOUS
 10
243.1260224011
 20
71.3996947312
 40
9.3
100
AcDbArc
 50
167.2680475236
 51
176.7519047221
  0
ARC
  5
7C2
100
AcDbEntity
  8
RUNDUNGEN
100
AcDbCircle
 62
7
  6
CONTINUOUS
 10
244.8760224011
 20
83.8521019985
 40
3.0
100
AcDbArc
 50
274.0
 51
360.0
  0
ARC
  5
7C3
100
AcDbEntity
  8
RUNDUNGEN
100
AcDbCircle
 62
7
  6
CONTINUOUS
 10
242.8260224011
 20
91.0753149741
 40
1.0
100
AcDbArc
 50
0.0
 51
81.4171432708
  0
ARC
  5
7C4
100
AcDbEntity
  8
RUNDUNGEN
100
AcDbCircle
 62
7
  6
CONTINUOUS
 10
242.8260224011
 20
53.3965853078
 40
1.0
100
AcDbArc
 50
359.9999986023
 51
68.4395195459
  0
ARC
  5
7C5
100
AcDbEntity
  8
RUNDUNGEN
100
AcDbCircle
 62
7
  6
CONTINUOUS
 10
242.8260224011
 20
47.1091986465
 40
1.0
100
AcDbArc
 50
270.0
 51
360.0
  0
ARC
  5
7C6
100
AcDbEntity
  8
RUNDUNGEN
100
AcDbCircle
 62
7
  6
CONTINUOUS
 10
242.8260224011
 20
37.2613917725
 40
1.0
100
AcDbArc
 50
359.9999990222
 51
63.9627818163
  0
ARC
  5
7C7
100
AcDbEntity
  8
RUNDUNGEN
100
AcDbCircle
 62
7
  6
CONTINUOUS
 10
242.8260224011
 20
87.5342450164
 40
1.0
100
AcDbArc
 50
270.0
 51
360.0
  0
ARC
  5
7C8
100
AcDbEntity
  8
RUNDUNGEN
100
AcDbCircle
 62
7
  6
CONTINUOUS
 10
242.8260224011
 20
29.0915207746
 40
1.0
100
AcDbArc
 50
270.0
 51
360.0
  0
ARC
  5
7C9
100
AcDbEntity
  8
0
100
AcDbCircle
 62
7
  6
CONTINUOUS
 10
243.1260224011
 20
140.1452072139
 40
9.3
100
AcDbArc
 50
180.0
 51
266.0
  0
ARC
  5
7CA
100
AcDbEntity
  8
0
100
AcDbCircle
 62
7
  6
CONTINUOUS
 10
244.8760224011
 20
127.6927999466
 40
3.0
100
AcDbArc
 50
0.0
 51
86.0
  0
ARC
  5
7CB
100
AcDbEntity
  8
0
100
AcDbCircle
 62
7
  6
CONTINUOUS
 10
235.8260224011
 20
167.6423054096
 40
2.0
100
AcDbArc
 50
116.0
 51
180.0
  0
ARC
  5
7CC
100
AcDbEntity
  8
0
100
AcDbCircle
 62
7
  6
CONTINUOUS
 10
242.8260224011
 20
158.1483166374
 40
1.0
100
AcDbArc
 50
291.5604808765
 51
0.0000018189
  0
ARC
  5
7CD
100
AcDbEntity
  8
0
100
AcDbCircle
 62
7
  6
CONTINUOUS
 10
242.8260224011
 20
174.2835101724
 40
1.0
100
AcDbArc
 50
296.0372185271
 51
0.000001783
  0
ARC
  5
7CE
100
AcDbEntity
  8
RUNDUNGEN
100
AcDbCircle
 62
7
  6
CONTINUOUS
 10
242.8260224011
 20
182.4533811705
 40
1.0
100
AcDbArc
 50
0.0
 51
90.0
  0
ARC
  5
7CF
100
AcDbEntity
  8
0
100
AcDbCircle
 62
7
  6
CONTINUOUS
 10
235.2589027829
 20
170.7035016826
 40
0.9999629196
100
AcDbArc
 50
295.9669569442
 51
89.9999995026
  0
ENDSEC
  0
SECTION
  2
OBJECTS
  0
DICTIONARY
  5
C
100
AcDbDictionary
280
0
281
1
  3
ACAD_GROUP
350
D
  3
ACAD_MLINESTYLE
350
17
  3
ACAD_LAYOUT
350
1A
  3
ACAD_PLOTSETTINGS
350
19
  3
ACAD_PLOTSTYLENAME
350
E
  0
DICTIONARY
  5
D
102
{ACAD_REACTORS
330
C
102
}
100
AcDbDictionary
280
0
281
1
  0
ACDBDICTIONARYWDFLT
  5
E
102
{ACAD_REACTORS
330
C
102
}
100
AcDbDictionary
281
1
  3
Normal
350
F
100
AcDbDictionaryWithDefault
340
F
  0
DICTIONARY
  5
17
102
{ACAD_REACTORS
330
C
102
}
100
AcDbDictionary
280
0
281
1
  3
Standard
350
18
  0
DICTIONARY
  5
19
102
{ACAD_REACTORS
330
C
102
}
100
AcDbDictionary
281
1
  0
DICTIONARY
  5
1A
102
{ACAD_REACTORS
330
C
102
}
100
AcDbDictionary
281
1
  3
Model
350
7D0
  3
Layout1
350
7D1
  0
ACDBPLACEHOLDER
  5
F
102
{ACAD_REACTORS
330
E
102
}
  0
MLINESTYLE
  5
18
102
{ACAD_REACTORS
330
17
102
}
100
AcDbMlineStyle
  2
STANDARD
 70
0
  3

 62
256
 51
90.0
 52
90.0
 71
2
 49
0.5
 62
256
  6
BYLAYER
 49
-0.5
 62
256
  6
BYLAYER
  0
LAYOUT
  5
7D0
102
{ACAD_REACTORS
330
1A
102
}
100
AcDbPlotSettings
  1

  2
none_device
  4
ISO_A4_(297.00_x_210.00_MM)
  6

 40
0.0
 41
0.0
 42
0.0
 43
0.0
 44
297.0
 45
210.0
 46
0.0
 47
0.0
 48
0.0
 49
0.0
140
0.0
141
0.0
142
1.0
143
1.0
 70
1024
 72
1
 73
0
 74
0
  7

 75
0
147
1.0
148
0.0
149
0.0
100
AcDbLayout
  1
Model
 70
0
 71
0
 10
0.0
 20
0.0
 11
297.0
 21
210.0
 12
0.0
 22
0.0
 32
0.0
 14
0.0
 24
0.0
 34
0.0
 15
0.0
 25
0.0
 35
0.0
146
0.0
 13
0.0
 23
0.0
 33
0.0
 16
1.0
 26
0.0
 36
0.0
 17
0.0
 27
1.0
 37
0.0
 76
0
330
210
345
0
346
0
  0
LAYOUT
  5
7D1
102
{ACAD_REACTORS
330
1A
102
}
100
AcDbPlotSettings
  1

  2
none_device
  4
ISO_A4_(297.00_x_210.00_MM)
  6

 40
0.0
 41
0.0
 42
0.0
 43
0.0
 44
297.0
 45
210.0
 46
0.0
 47
0.0
 48
0.0
 49
0.0
140
0.0
141
0.0
142
1.0
143
1.0
 70
0
 72
1
 73
0
 74
0
  7

 75
0
147
1.0
148
0.0
149
0.0
100
AcDbLayout
  1
Layout1
 70
0
 71
1
 10
0.0
 20
0.0
 11
297.0
 21
210.0
 12
0.0
 22
0.0
 32
0.0
 14
0.0
 24
0.0
 34
0.0
 15
0.0
 25
0.0
 35
0.0
146
0.0
 13
0.0
 23
0.0
 33
0.0
 16
1.0
 26
0.0
 36
0.0
 17
0.0
 27
1.0
 37
0.0
 76
0
330
211
345
0
346
0
  0
ENDSEC
  0
EOF
