  0
SECTION
  2
HEADER
  9
$ACADVER
  1
AC1015
  9
$DWGCODEPAGE
  3
ANSI_1252
  9
$EXTMAX
 10
297.0
 20
210.0
 30
0.0
  9
$EXTMIN
 10
0.0
 20
0.0
 30
0.0
  9
$LIMMIN
 10
0.0
 20
0.0
  9
$LIMMAX
 10
297.0
 20
210.0
  9
$VIEWCTR
 10
148.5
 20
105.0
  9
$VIEWSIZE
 40
210.0
  9
$CLAYER
  8
0
  9
$LTSCALE
 40
16.335
  9
$CELTYPE
  6
BYLAYER
  9
$DIMSCALE
 40
1.0
  9
$DIMASZ
 40
3.5
  9
$DIMEXO
 40
1.85625
  9
$DIMDLI
 40
11.286
  9
$DIMEXE
 40
5.346
  9
$DIMCEN
 40
2.673
  9
$DIMLFAC
 40
1.0
  9
$DIMBLK
  1
_FILLED
  9
$DIMTXT
 40
3.5
  9
$DIMTOL
 70
1
  9
$DIMLIM
 70
0
  9
$DIMTFAC
 40
1.0
  9
$DIMTP
 40
0.005
  9
$DIMTM
 40
0.005
  9
$PDMODE
 70
3
  9
$PDSIZE
 40
0.3125
  9
$HANDSEED
  5
742
  9
$TILEMODE
 70
1
  9
$MEASUREMENT
 70
1
  9
$INSUNITS
 70
4
  0
ENDSEC
  0
SECTION
  2
CLASSES
  0
CLASS
  1
ACDBDICTIONARYWDFLT
  2
AcDbDictionaryWithDefault
  3
AutoCAD 2000
 90
0
280
0
281
0
  0
CLASS
  1
ACDBPLACEHOLDER
  2
AcDbPlaceHolder
  3
AutoCAD 2000
 90
0
280
0
281
0
  0
CLASS
  1
LAYOUT
  2
AcDbLayout
  3
AutoCAD 2000
 90
0
280
0
281
0
  0
ENDSEC
  0
SECTION
  2
TABLES
  0
TABLE
  2
VPORT
  5
8
100
AcDbSymbolTable
 70
2
  0
VPORT
  5
1F4
100
AcDbSymbolTableRecord
100
AcDbViewportTableRecord
  2
*ACTIVE
 70
0
 10
0.0
 20
0.0
 11
1.0
 21
1.0
 12
148.5
 22
105.0
 13
0.0
 23
0.0
 14
1.0
 24
1.0
 15
0.0
 25
0.0
 16
0.0
 26
0.0
 36
1.0
 17
0.0
 27
0.0
 37
0.0
 40
210.0
 41
1.4142857143
 42
50.0
 43
0.0
 44
0.0
 50
0.0
 51
0.0
 71
0
 72
100
 73
1
 74
1
 75
0
 76
0
 77
0
 78
0
  0
ENDTAB
  0
TABLE
  2
LTYPE
  5
5
100
AcDbSymbolTable
 70
6
  0
LTYPE
  5
14
100
AcDbSymbolTableRecord
100
AcDbLinetypeTableRecord
  2
BYBLOCK
 70
0
  3

 72
65
 73
0
 40
0.0
  0
LTYPE
  5
15
100
AcDbSymbolTableRecord
100
AcDbLinetypeTableRecord
  2
BYLAYER
 70
0
  3

 72
65
 73
0
 40
0.0
  0
LTYPE
  5
16
100
AcDbSymbolTableRecord
100
AcDbLinetypeTableRecord
  2
CONTINUOUS
 70
64
  3
Solid line
 72
65
 73
0
 40
0.0
  0
LTYPE
  5
1F5
100
AcDbSymbolTableRecord
100
AcDbLinetypeTableRecord
  2
CENTER
 70
64
  3
____ _ ____ _ ____ _ ____ _ ____ _ ____ _ ____
 72
65
 73
4
 40
0.6
 49
0.375
 74
0
 49
-0.075
 74
0
 49
0.075
 74
0
 49
-0.075
 74
0
  0
LTYPE
  5
1F6
100
AcDbSymbolTableRecord
100
AcDbLinetypeTableRecord
  2
HIDDEN
 70
64
  3
- - - - - - - - - - - - - - - - - - - -
 72
65
 73
2
 40
0.2
 49
0.1
 74
0
 49
-0.1
 74
0
  0
LTYPE
  5
1F7
100
AcDbSymbolTableRecord
100
AcDbLinetypeTableRecord
  2
PHANTOM
 70
64
  3
_____ _ _ _____ _ _ _____ _ _ _____
 72
65
 73
6
 40
0.8
 49
0.45
 74
0
 49
-0.05
 74
0
 49
0.1
 74
0
 49
-0.05
 74
0
 49
0.1
 74
0
 49
-0.05
 74
0
  0
LTYPE
  5
1F8
100
AcDbSymbolTableRecord
100
AcDbLinetypeTableRecord
  2
DOT
 70
64
  3
. . . . . . . . . . . . . . . . . . . .
 72
65
 73
2
 40
0.2
 49
0.1
 74
0
 49
-0.1
 74
0
  0
LTYPE
  5
1F9
100
AcDbSymbolTableRecord
100
AcDbLinetypeTableRecord
  2
DASHED
 70
64
  3
- - - - - - - - - - - - - - - - - - - -
 72
65
 73
2
 40
0.2
 49
0.1
 74
0
 49
-0.1
 74
0
  0
ENDTAB
  0
TABLE
  2
LAYER
  5
2
100
AcDbSymbolTable
 70
36
  0
LAYER
  5
10
100
AcDbSymbolTableRecord
100
AcDbLayerTableRecord
  2
0
 70
0
 62
7
  6
CONTINUOUS
370
-3
390
F
  0
LAYER
  5
1FA
100
AcDbSymbolTableRecord
100
AcDbLayerTableRecord
  2
DEFAULT_1
 70
0
 62
7
  6
CENTER
370
-3
390
F
  0
LAYER
  5
1FB
100
AcDbSymbolTableRecord
100
AcDbLayerTableRecord
  2
DEFAULT_2
 70
0
 62
8
  6
HIDDEN
370
-3
390
F
  0
LAYER
  5
1FC
100
AcDbSymbolTableRecord
100
AcDbLayerTableRecord
  2
DEFAULT_3
 70
0
 62
7
  6
PHANTOM
370
-3
390
F
  0
LAYER
  5
1FD
100
AcDbSymbolTableRecord
100
AcDbLayerTableRecord
  2
01___PRT_ALL_DTM_PLN
 70
0
 62
7
  6
CONTINUOUS
370
-3
390
F
  0
LAYER
  5
1FE
100
AcDbSymbolTableRecord
100
AcDbLayerTableRecord
  2
01___PRT_DEF_DTM_PLN
 70
0
 62
7
  6
CONTINUOUS
370
-3
390
F
  0
LAYER
  5
1FF
100
AcDbSymbolTableRecord
100
AcDbLayerTableRecord
  2
02___PRT_ALL_AXES
 70
0
 62
7
  6
CONTINUOUS
370
-3
390
F
  0
LAYER
  5
200
100
AcDbSymbolTableRecord
100
AcDbLayerTableRecord
  2
03___PRT_ALL_CURVES
 70
0
 62
7
  6
CONTINUOUS
370
-3
390
F
  0
LAYER
  5
201
100
AcDbSymbolTableRecord
100
AcDbLayerTableRecord
  2
04___PRT_ALL_DTM_PNT
 70
0
 62
7
  6
CONTINUOUS
370
-3
390
F
  0
LAYER
  5
202
100
AcDbSymbolTableRecord
100
AcDbLayerTableRecord
  2
05___PRT_ALL_DTM_CSYS
 70
0
 62
7
  6
CONTINUOUS
370
-3
390
F
  0
LAYER
  5
203
100
AcDbSymbolTableRecord
100
AcDbLayerTableRecord
  2
05___PRT_DEF_DTM_CSYS
 70
0
 62
7
  6
CONTINUOUS
370
-3
390
F
  0
LAYER
  5
204
100
AcDbSymbolTableRecord
100
AcDbLayerTableRecord
  2
06___PRT_ALL_SURFS
 70
0
 62
7
  6
CONTINUOUS
370
-3
390
F
  0
LAYER
  5
205
100
AcDbSymbolTableRecord
100
AcDbLayerTableRecord
  2
AUSFORMSCHRAEGEN
 70
0
 62
7
  6
CONTINUOUS
370
-3
390
F
  0
LAYER
  5
206
100
AcDbSymbolTableRecord
100
AcDbLayerTableRecord
  2
BEZUGSACHSEN
 70
0
 62
7
  6
CONTINUOUS
370
-3
390
F
  0
LAYER
  5
207
100
AcDbSymbolTableRecord
100
AcDbLayerTableRecord
  2
BEZUGSEBENEN
 70
0
 62
7
  6
CONTINUOUS
370
-3
390
F
  0
LAYER
  5
208
100
AcDbSymbolTableRecord
100
AcDbLayerTableRecord
  2
BOHRUNGEN
 70
0
 62
7
  6
CONTINUOUS
370
-3
390
F
  0
LAYER
  5
209
100
AcDbSymbolTableRecord
100
AcDbLayerTableRecord
  2
FASEN
 70
0
 62
7
  6
CONTINUOUS
370
-3
390
F
  0
LAYER
  5
20A
100
AcDbSymbolTableRecord
100
AcDbLayerTableRecord
  2
GEWINDE
 70
0
 62
7
  6
CONTINUOUS
370
-3
390
F
  0
LAYER
  5
20B
100
AcDbSymbolTableRecord
100
AcDbLayerTableRecord
  2
KURVEN
 70
0
 62
7
  6
CONTINUOUS
370
-3
390
F
  0
LAYER
  5
20C
100
AcDbSymbolTableRecord
100
AcDbLayerTableRecord
  2
RUNDUNGEN
 70
0
 62
7
  6
CONTINUOUS
370
-3
390
F
  0
LAYER
  5
20D
100
AcDbSymbolTableRecord
100
AcDbLayerTableRecord
  2
ZEICHNUNGSBEMASSUNGEN
 70
0
 62
7
  6
CONTINUOUS
370
-3
390
F
  0
ENDTAB
  0
TABLE
  2
STYLE
  5
3
100
AcDbSymbolTable
 70
1
  0
STYLE
  5
11
100
AcDbSymbolTableRecord
100
AcDbTextStyleTableRecord
  2
STANDARD
 70
0
 40
0.0
 41
0.7
 50
0.0
 71
0
 42
0.2
  3
txt
  4

  0
STYLE
  5
20E
100
AcDbSymbolTableRecord
100
AcDbTextStyleTableRecord
  2
TEXTSTYLE_1
 70
0
 40
0.0
 41
0.8
 50
0.0
 71
0
 42
0.2
  3
gdt
  4

  0
ENDTAB
  0
TABLE
  2
VIEW
  5
6
100
AcDbSymbolTable
 70
0
  0
ENDTAB
  0
TABLE
  2
UCS
  5
7
100
AcDbSymbolTable
 70
0
  0
ENDTAB
  0
TABLE
  2
APPID
  5
9
100
AcDbSymbolTable
 70
1
  0
APPID
  5
20F
100
AcDbSymbolTableRecord
100
AcDbRegAppTableRecord
  2
ACAD
 70
0
  0
ENDTAB
  0
TABLE
  2
BLOCK_RECORD
  5
1
100
AcDbSymbolTable
 70
0
  0
BLOCK_RECORD
  5
210
100
AcDbSymbolTableRecord
100
AcDbBlockTableRecord
  2
*Model_Space
  0
BLOCK_RECORD
  5
211
100
AcDbSymbolTableRecord
100
AcDbBlockTableRecord
  2
*Paper_Space
  0
ENDTAB
  0
TABLE
  2
DIMSTYLE
  5
A
100
AcDbSymbolTable
 70
1
100
AcDbDimStyleTable
 71
0
  0
DIMSTYLE
105
212
100
AcDbSymbolTableRecord
100
AcDbDimStyleTableRecord
  2
STANDARD
 70
0
  3

  4

 40
1.0
 41
3.5
 42
0.0625
 43
0.38
 44
0.18
 45
0.0
 46
0.0
 47
0.005
 48
0.005
140
3.5
141
0.09
142
0.0
143
25.4
144
1.0
145
0.0
146
1.0
147
0.09
 71
1.0
 72
0.0
 73
0
 74
0
 75
0
 76
0
 77
1
 78
8
170
0
171
2
172
0
173
0
174
0
175
0
176
0
177
0
178
5
270
2
271
3
272
3
273
2
274
2
275
0
280
0
281
0
282
0
283
1
284
8
285
0
286
0
287
3
288
0
340
11
  0
ENDTAB
  0
ENDSEC
  0
SECTION
  2
BLOCKS
  0
BLOCK
  5
20
100
AcDbEntity
  8
0
100
AcDbBlockBegin
  2
*Model_Space
 70
0
 10
0.0
 20
0.0
 30
0.0
  3
*Model_Space
  1

  0
ENDBLK
  5
21
100
AcDbEntity
  8
0
100
AcDbBlockEnd
  0
BLOCK
  5
1C
100
AcDbEntity
  8
0
100
AcDbBlockBegin
  2
*Paper_Space
 70
0
 10
0.0
 20
0.0
 30
0.0
  3
*Paper_Space
  1

  0
ENDBLK
  5
1D
100
AcDbEntity
  8
0
100
AcDbBlockEnd
  0
ENDSEC
  0
SECTION
  2
ENTITIES
  0
LINE
  5
213
100
AcDbEntity
  8
0
100
AcDbLine
 62
7
  6
CONTINUOUS
 10
0.0
 20
0.0
 11
0.0
 21
210.0
  0
LINE
  5
214
100
AcDbEntity
  8
0
100
AcDbLine
 62
7
  6
CONTINUOUS
 10
0.0
 20
0.0
 11
297.0
 21
0.0
  0
LINE
  5
215
100
AcDbEntity
  8
0
100
AcDbLine
 62
7
  6
CONTINUOUS
 10
0.0
 20
210.0
 11
297.0
 21
210.0
  0
LINE
  5
216
100
AcDbEntity
  8
0
100
AcDbLine
 62
7
  6
CONTINUOUS
 10
297.0
 20
0.0
 11
297.0
 21
210.0
  0
LINE
  5
217
100
AcDbEntity
  8
RUNDUNGEN
100
AcDbLine
 62
7
  6
CONTINUOUS
 10
23.858213349
 20
108.7724509726
 11
23.858213349
 21
102.7724509726
  0
LINE
  5
218
100
AcDbEntity
  8
RUNDUNGEN
100
AcDbLine
 62
7
  6
CONTINUOUS
 10
31.1259818183
 20
138.1721530726
 11
30.1715399873
 21
135.2346831621
  0
LINE
  5
219
100
AcDbEntity
  8
RUNDUNGEN
100
AcDbLine
 62
7
  6
CONTINUOUS
 10
26.625038501
 20
124.3196739231
 11
25.6705973223
 21
121.3822060203
  0
LINE
  5
21A
100
AcDbEntity
  8
RUNDUNGEN
100
AcDbLine
 62
7
  6
CONTINUOUS
 10
40.5982712971
 20
154.2930517306
 11
37.0715597833
 21
149.4389497644
  0
LINE
  5
21B
100
AcDbEntity
  8
RUNDUNGEN
100
AcDbLine
 62
7
  6
CONTINUOUS
 10
63.7587385377
 20
173.8060288459
 11
61.2599696622
 21
171.9905669902
  0
LINE
  5
21C
100
AcDbEntity
  8
RUNDUNGEN
100
AcDbLine
 62
7
  6
CONTINUOUS
 10
51.9751082299
 20
165.244720293
 11
49.4763487839
 21
163.4292652882
  0
LINE
  5
21D
100
AcDbEntity
  8
RUNDUNGEN
100
AcDbLine
 62
7
  6
CONTINUOUS
 10
80.897600465
 20
181.2804321537
 11
75.1912613672
 21
179.4263301874
  0
LINE
  5
21E
100
AcDbEntity
  8
RUNDUNGEN
100
AcDbLine
 62
7
  6
CONTINUOUS
 10
93.4502462495
 20
28.0915207746
 11
96.5388841548
 21
28.0915207746
  0
LINE
  5
21F
100
AcDbEntity
  8
RUNDUNGEN
100
AcDbLine
 62
7
  6
CONTINUOUS
 10
108.0156040468
 20
28.0915207746
 11
111.1042433466
 21
28.0915207746
  0
LINE
  5
220
100
AcDbEntity
  8
RUNDUNGEN
100
AcDbLine
 62
7
  6
CONTINUOUS
 10
75.1912613672
 20
32.1185717577
 11
80.897600465
 21
30.2644697915
  0
LINE
  5
221
100
AcDbEntity
  8
RUNDUNGEN
100
AcDbLine
 62
7
  6
CONTINUOUS
 10
49.476347076
 20
48.1156378978
 11
51.9751082299
 21
46.3001816522
  0
LINE
  5
222
100
AcDbEntity
  8
RUNDUNGEN
100
AcDbLine
 62
7
  6
CONTINUOUS
 10
61.2599696622
 20
39.554334955
 11
63.7587311859
 21
37.7388784406
  0
LINE
  5
223
100
AcDbEntity
  8
RUNDUNGEN
100
AcDbLine
 62
7
  6
CONTINUOUS
 10
37.0715597833
 20
62.1059521808
 11
40.5982712971
 21
57.2518502145
  0
LINE
  5
224
100
AcDbEntity
  8
RUNDUNGEN
100
AcDbLine
 62
7
  6
CONTINUOUS
 10
25.6705966699
 20
90.1626979326
 11
26.625038501
 21
87.225228022
  0
LINE
  5
225
100
AcDbEntity
  8
RUNDUNGEN
100
AcDbLine
 62
7
  6
CONTINUOUS
 10
30.1715399873
 20
76.3102187831
 11
31.1259819596
 21
73.3727484378
  0
LINE
  5
226
100
AcDbEntity
  8
RUNDUNGEN
100
AcDbLine
 62
7
  6
CONTINUOUS
 10
28.315799694
 20
96.5569654786
 11
28.2954107006
 21
96.9424456867
  0
LINE
  5
227
100
AcDbEntity
  8
RUNDUNGEN
100
AcDbLine
 62
7
  6
CONTINUOUS
 10
28.3157996415
 20
114.9879364474
 11
28.2954106507
 21
114.6024562801
  0
LINE
  5
228
100
AcDbEntity
  8
RUNDUNGEN
100
AcDbLine
 62
7
  6
CONTINUOUS
 10
28.2617114636
 20
96.1746977208
 11
28.315799694
 21
96.5569654786
  0
LWPOLYLINE
  5
229
100
AcDbEntity
  8
RUNDUNGEN
100
AcDbPolyline
 62
7
  6
CONTINUOUS
 90
3
 70
0
 10
35.7869813953
 20
125.0106569288
 10
35.7841035959
 20
124.9910840288
 10
35.6587370945
 20
124.2044788528
  0
LINE
  5
22A
100
AcDbEntity
  8
RUNDUNGEN
100
AcDbLine
 62
7
  6
CONTINUOUS
 10
35.6587370945
 20
124.2044788528
 11
35.628596955
 21
124.0106569288
  0
LINE
  5
22B
100
AcDbEntity
  8
RUNDUNGEN
100
AcDbLine
 62
7
  6
CONTINUOUS
 10
37.3784227188
 20
142.4724019749
 11
37.4507450927
 21
142.8514928843
  0
LINE
  5
22C
100
AcDbEntity
  8
RUNDUNGEN
100
AcDbLine
 62
7
  6
CONTINUOUS
 10
28.2954106507
 20
114.6024562801
 11
28.2013046811
 21
114.2281370493
  0
LINE
  5
22D
100
AcDbEntity
  8
RUNDUNGEN
100
AcDbLine
 62
7
  6
CONTINUOUS
 10
37.2345367203
 20
142.1142572461
 11
37.3784227188
 21
142.4724019749
  0
LINE
  5
22E
100
AcDbEntity
  8
RUNDUNGEN
100
AcDbLine
 62
7
  6
CONTINUOUS
 10
28.2013046811
 20
114.2281370493
 11
28.0369906677
 21
113.8789360416
  0
LWPOLYLINE
  5
22F
100
AcDbEntity
  8
RUNDUNGEN
100
AcDbPolyline
 62
7
  6
CONTINUOUS
 90
3
 70
0
 10
37.17755787
 20
129.2904112521
 10
37.1863431786
 20
129.3081368972
 10
37.5486481739
 20
130.0175024961
  0
LINE
  5
230
100
AcDbEntity
  8
RUNDUNGEN
100
AcDbLine
 62
7
  6
CONTINUOUS
 10
37.5486481739
 20
130.0175024961
 11
37.6372074184
 21
130.1925242847
  0
LINE
  5
231
100
AcDbEntity
  8
RUNDUNGEN
100
AcDbLine
 62
7
  6
CONTINUOUS
 10
48.0388381214
 20
157.0424350109
 11
47.8579050595
 21
156.7013816245
  0
LINE
  5
232
100
AcDbEntity
  8
RUNDUNGEN
100
AcDbLine
 62
7
  6
CONTINUOUS
 10
37.0244521811
 20
141.7904128571
 11
37.2345367203
 21
142.1142572461
  0
LINE
  5
233
100
AcDbEntity
  8
RUNDUNGEN
100
AcDbLine
 62
7
  6
CONTINUOUS
 10
47.8579050595
 20
156.7013816245
 11
47.6148304621
 21
156.4015059663
  0
LINE
  5
234
100
AcDbEntity
  8
RUNDUNGEN
100
AcDbLine
 62
7
  6
CONTINUOUS
 10
36.756002533
 20
141.5129440087
 11
37.0244521811
 21
141.7904128571
  0
LWPOLYLINE
  5
235
100
AcDbEntity
  8
RUNDUNGEN
100
AcDbPolyline
 62
7
  6
CONTINUOUS
 90
3
 70
0
 10
59.7934253532
 20
160.4184823717
 10
59.7795925026
 20
160.4043390911
 10
59.2158139506
 20
159.8416507165
  0
LINE
  5
236
100
AcDbEntity
  8
RUNDUNGEN
100
AcDbLine
 62
7
  6
CONTINUOUS
 10
59.2158139506
 20
159.8416507165
 11
59.077504397
 21
159.7025614156
  0
LINE
  5
237
100
AcDbEntity
  8
RUNDUNGEN
100
AcDbLine
 62
7
  6
CONTINUOUS
 10
71.3446847057
 20
173.6099051186
 11
71.6260187892
 21
173.8740860618
  0
LINE
  5
238
100
AcDbEntity
  8
RUNDUNGEN
100
AcDbLine
 62
7
  6
CONTINUOUS
 10
47.6148304621
 20
156.4015059663
 11
47.3186778099
 21
156.1539894483
  0
LINE
  5
239
100
AcDbEntity
  8
RUNDUNGEN
100
AcDbLine
 62
7
  6
CONTINUOUS
 10
71.0177662858
 20
173.4047340439
 11
71.3446847057
 21
173.6099051186
  0
LINE
  5
23A
100
AcDbEntity
  8
RUNDUNGEN
100
AcDbLine
 62
7
  6
CONTINUOUS
 10
47.3186778099
 20
156.1539894483
 11
46.9804897783
 21
155.9680612525
  0
LWPOLYLINE
  5
23B
100
AcDbEntity
  8
RUNDUNGEN
100
AcDbPolyline
 62
7
  6
CONTINUOUS
 90
3
 70
0
 10
63.4340018279
 20
163.0635160071
 10
63.4515281646
 20
163.0726924804
 10
64.1615937005
 20
163.433623772
  0
LINE
  5
23C
100
AcDbEntity
  8
RUNDUNGEN
100
AcDbLine
 62
7
  6
CONTINUOUS
 10
64.1615937005
 20
163.433623772
 11
64.3361148605
 21
163.5231655555
  0
LINE
  5
23D
100
AcDbEntity
  8
RUNDUNGEN
100
AcDbLine
 62
7
  6
CONTINUOUS
 10
88.5331924104
 20
179.1312745102
 11
88.1863483655
 21
178.9617063139
  0
LINE
  5
23E
100
AcDbEntity
  8
RUNDUNGEN
100
AcDbLine
 62
7
  6
CONTINUOUS
 10
70.6574533545
 20
173.2662230627
 11
71.0177662858
 21
173.4047340439
  0
LINE
  5
23F
100
AcDbEntity
  8
RUNDUNGEN
100
AcDbLine
 62
7
  6
CONTINUOUS
 10
116.3681398543
 20
32.5831956415
 11
116.7410538252
 21
32.682924482
  0
LINE
  5
240
100
AcDbEntity
  8
RUNDUNGEN
100
AcDbLine
 62
7
  6
CONTINUOUS
 10
134.2773073053
 20
38.3453652136
 11
133.8970348809
 21
38.2786789439
  0
LWPOLYLINE
  5
241
100
AcDbEntity
  8
RUNDUNGEN
100
AcDbPolyline
 62
7
  6
CONTINUOUS
 90
3
 70
0
 10
104.5272441008
 20
36.5915207746
 10
104.5467483237
 20
36.5948321835
 10
105.3335946816
 20
36.7186759226
  0
LINE
  5
242
100
AcDbEntity
  8
RUNDUNGEN
100
AcDbLine
 62
7
  6
CONTINUOUS
 10
105.3335946816
 20
36.7186759226
 11
105.5272441008
 21
36.7499052149
  0
LINE
  5
243
100
AcDbEntity
  8
RUNDUNGEN
100
AcDbLine
 62
7
  6
CONTINUOUS
 10
87.4283552744
 20
32.7090954449
 11
87.045469552
 21
32.6607325763
  0
LINE
  5
244
100
AcDbEntity
  8
RUNDUNGEN
100
AcDbLine
 62
7
  6
CONTINUOUS
 10
116.7410538252
 20
32.682924482
 11
117.1261329127
 21
32.70909539
  0
LINE
  5
245
100
AcDbEntity
  8
RUNDUNGEN
100
AcDbLine
 62
7
  6
CONTINUOUS
 10
87.8134343713
 20
32.6829245361
 11
87.4283552744
 21
32.7090954449
  0
LINE
  5
246
100
AcDbEntity
  8
RUNDUNGEN
100
AcDbLine
 62
7
  6
CONTINUOUS
 10
117.1261329127
 20
32.70909539
 11
117.5090186291
 21
32.6607325227
  0
LWPOLYLINE
  5
247
100
AcDbEntity
  8
RUNDUNGEN
100
AcDbPolyline
 62
7
  6
CONTINUOUS
 90
3
 70
0
 10
100.0272441008
 20
36.5915207746
 10
100.0076712008
 20
36.594398574
 10
99.2210660248
 20
36.7197650754
  0
LINE
  5
248
100
AcDbEntity
  8
RUNDUNGEN
100
AcDbLine
 62
7
  6
CONTINUOUS
 10
99.2210660248
 20
36.7197650754
 11
99.0272441008
 21
36.7499052149
  0
LINE
  5
249
100
AcDbEntity
  8
RUNDUNGEN
100
AcDbLine
 62
7
  6
CONTINUOUS
 10
70.2771808862
 20
38.3453651633
 11
70.6574533215
 21
38.2786788886
  0
LINE
  5
24A
100
AcDbEntity
  8
RUNDUNGEN
100
AcDbLine
 62
7
  6
CONTINUOUS
 10
88.1863483806
 20
32.5831956859
 11
87.8134343713
 21
32.6829245361
  0
LINE
  5
24B
100
AcDbEntity
  8
RUNDUNGEN
100
AcDbLine
 62
7
  6
CONTINUOUS
 10
70.6574533215
 20
38.2786788886
 11
71.017766203
 21
38.1401678829
  0
LINE
  5
24C
100
AcDbEntity
  8
RUNDUNGEN
100
AcDbLine
 62
7
  6
CONTINUOUS
 10
88.5331924404
 20
32.4136274886
 11
88.1863483806
 21
32.5831956859
  0
LWPOLYLINE
  5
24D
100
AcDbEntity
  8
RUNDUNGEN
100
AcDbPolyline
 62
7
  6
CONTINUOUS
 90
3
 70
0
 10
63.4340018279
 20
48.4813859381
 10
63.451727473
 20
48.4726006295
 10
64.1610930719
 20
48.1102956342
  0
LINE
  5
24E
100
AcDbEntity
  8
RUNDUNGEN
100
AcDbLine
 62
7
  6
CONTINUOUS
 10
64.1610930719
 20
48.1102956342
 11
64.3361148605
 21
48.0217363897
  0
LINE
  5
24F
100
AcDbEntity
  8
RUNDUNGEN
100
AcDbLine
 62
7
  6
CONTINUOUS
 10
47.3186778304
 20
55.3909125499
 11
46.9804897933
 21
55.5768407482
  0
LINE
  5
250
100
AcDbEntity
  8
RUNDUNGEN
100
AcDbLine
 62
7
  6
CONTINUOUS
 10
71.017766203
 20
38.1401678829
 11
71.3446846028
 21
37.9349967836
  0
LINE
  5
251
100
AcDbEntity
  8
RUNDUNGEN
100
AcDbLine
 62
7
  6
CONTINUOUS
 10
47.6148304897
 20
55.1433960257
 11
47.3186778304
 21
55.3909125499
  0
LINE
  5
252
100
AcDbEntity
  8
RUNDUNGEN
100
AcDbLine
 62
7
  6
CONTINUOUS
 10
71.3446846028
 20
37.9349967836
 11
71.6260186741
 21
37.6708158247
  0
LWPOLYLINE
  5
253
100
AcDbEntity
  8
RUNDUNGEN
100
AcDbPolyline
 62
7
  6
CONTINUOUS
 90
3
 70
0
 10
59.7934253532
 20
51.1264195734
 10
59.7792820725
 20
51.140252424
 10
59.2165936979
 20
51.704030976
  0
LINE
  5
254
100
AcDbEntity
  8
RUNDUNGEN
100
AcDbLine
 62
7
  6
CONTINUOUS
 10
59.2165936979
 20
51.704030976
 11
59.077504397
 21
51.8423405296
  0
LINE
  5
255
100
AcDbEntity
  8
RUNDUNGEN
100
AcDbLine
 62
7
  6
CONTINUOUS
 10
36.7560024953
 20
70.0319579016
 11
37.0244521492
 21
69.7544890428
  0
LINE
  5
256
100
AcDbEntity
  8
RUNDUNGEN
100
AcDbLine
 62
7
  6
CONTINUOUS
 10
47.8579051132
 20
54.8435203359
 11
47.6148304897
 21
55.1433960257
  0
LINE
  5
257
100
AcDbEntity
  8
RUNDUNGEN
100
AcDbLine
 62
7
  6
CONTINUOUS
 10
37.0244521492
 20
69.7544890428
 11
37.2345366672
 21
69.4306446873
  0
LINE
  5
258
100
AcDbEntity
  8
RUNDUNGEN
100
AcDbLine
 62
7
  6
CONTINUOUS
 10
48.0388381662
 20
54.5024669594
 11
47.8579051132
 21
54.8435203359
  0
LWPOLYLINE
  5
259
100
AcDbEntity
  8
RUNDUNGEN
100
AcDbPolyline
 62
7
  6
CONTINUOUS
 90
3
 70
0
 10
37.17755787
 20
82.2544906931
 10
37.1867343433
 20
82.2369643563
 10
37.547665635
 20
81.5268988204
  0
LINE
  5
25A
100
AcDbEntity
  8
RUNDUNGEN
100
AcDbLine
 62
7
  6
CONTINUOUS
 10
37.547665635
 20
81.5268988204
 11
37.6372074184
 21
81.3523776605
  0
LINE
  5
25B
100
AcDbEntity
  8
RUNDUNGEN
100
AcDbLine
 62
7
  6
CONTINUOUS
 10
28.2013047289
 20
97.3167649267
 11
28.0369907125
 21
97.6659659396
  0
LINE
  5
25C
100
AcDbEntity
  8
RUNDUNGEN
100
AcDbLine
 62
7
  6
CONTINUOUS
 10
37.2345366672
 20
69.4306446873
 11
37.3784226621
 21
69.0724999672
  0
LINE
  5
25D
100
AcDbEntity
  8
RUNDUNGEN
100
AcDbLine
 62
7
  6
CONTINUOUS
 10
28.2954107006
 20
96.9424456867
 11
28.2013047289
 21
97.3167649267
  0
LINE
  5
25E
100
AcDbEntity
  8
RUNDUNGEN
100
AcDbLine
 62
7
  6
CONTINUOUS
 10
37.3784226621
 20
69.0724999672
 11
37.4507450353
 21
68.6934090637
  0
LWPOLYLINE
  5
25F
100
AcDbEntity
  8
RUNDUNGEN
100
AcDbPolyline
 62
7
  6
CONTINUOUS
 90
3
 70
0
 10
35.7869813953
 20
86.5342450164
 10
35.7836699864
 20
86.5537492394
 10
35.6598262473
 20
87.3405955972
  0
LINE
  5
260
100
AcDbEntity
  8
RUNDUNGEN
100
AcDbLine
 62
7
  6
CONTINUOUS
 10
35.6598262473
 20
87.3405955972
 11
35.628596955
 21
87.5342450164
  0
LINE
  5
261
100
AcDbEntity
  8
RUNDUNGEN
100
AcDbLine
 62
7
  6
CONTINUOUS
 10
28.2617114127
 20
115.3702042184
 11
28.3157996415
 21
114.9879364474
  0
LINE
  5
262
100
AcDbEntity
  8
RUNDUNGEN
100
AcDbLine
 62
7
  6
CONTINUOUS
 10
36.8857533835
 20
148.7495455457
 11
37.4488070861
 21
143.2373954499
  0
LINE
  5
263
100
AcDbEntity
  8
RUNDUNGEN
100
AcDbLine
 62
7
  6
CONTINUOUS
 10
37.4507450927
 20
142.8514928843
 11
37.4488071541
 21
143.237394794
  0
LINE
  5
264
100
AcDbEntity
  8
RUNDUNGEN
100
AcDbLine
 62
7
  6
CONTINUOUS
 10
37.4507450353
 20
68.6934090637
 11
37.4488070992
 21
68.3075071568
  0
LINE
  5
265
100
AcDbEntity
  8
RUNDUNGEN
100
AcDbLine
 62
7
  6
CONTINUOUS
 10
37.4488070773
 20
68.307506409
 11
36.8857533835
 21
62.7953563995
  0
LINE
  5
266
100
AcDbEntity
  8
RUNDUNGEN
100
AcDbLine
 62
7
  6
CONTINUOUS
 10
48.1473770242
 20
157.410692122
 11
48.9907795756
 21
161.6077296446
  0
LINE
  5
267
100
AcDbEntity
  8
RUNDUNGEN
100
AcDbLine
 62
7
  6
CONTINUOUS
 10
48.1508831355
 20
157.4119491869
 11
48.0388381214
 21
157.0424350109
  0
LINE
  5
268
100
AcDbEntity
  8
RUNDUNGEN
100
AcDbLine
 62
7
  6
CONTINUOUS
 10
28.1351628
 20
95.809896049
 11
28.2617114636
 21
96.1746977208
  0
LINE
  5
269
100
AcDbEntity
  8
RUNDUNGEN
100
AcDbLine
 62
7
  6
CONTINUOUS
 10
26.3484560977
 20
91.9218048336
 11
28.1330651163
 21
95.8129738681
  0
LINE
  5
26A
100
AcDbEntity
  8
RUNDUNGEN
100
AcDbLine
 62
7
  6
CONTINUOUS
 10
74.6357191994
 20
178.9778047201
 11
71.8512787149
 21
174.1874270164
  0
LINE
  5
26B
100
AcDbEntity
  8
RUNDUNGEN
100
AcDbLine
 62
7
  6
CONTINUOUS
 10
71.6260187892
 20
173.8740860618
 11
71.8512784169
 21
174.187426344
  0
LINE
  5
26C
100
AcDbEntity
  8
RUNDUNGEN
100
AcDbLine
 62
7
  6
CONTINUOUS
 10
28.0369906677
 20
113.8789360416
 11
27.8085953948
 21
113.567873931
  0
LINE
  5
26D
100
AcDbEntity
  8
RUNDUNGEN
100
AcDbLine
 62
7
  6
CONTINUOUS
 10
27.8085949373
 20
113.5678733386
 11
24.1131144466
 21
109.4394049631
  0
LINE
  5
26E
100
AcDbEntity
  8
0
100
AcDbLine
 62
7
  6
CONTINUOUS
 10
78.356704802
 20
168.1312277739
 11
78.2480327959
 21
168.0247406316
  0
LINE
  5
26F
100
AcDbEntity
  8
0
100
AcDbLine
 62
7
  6
CONTINUOUS
 10
79.648513779
 20
168.8001682115
 11
79.5371681633
 21
168.6964798792
  0
LINE
  5
270
100
AcDbEntity
  8
RUNDUNGEN
100
AcDbLine
 62
7
  6
CONTINUOUS
 10
91.986722408
 20
182.2651201755
 11
88.8374514427
 21
179.3653968526
  0
LINE
  5
271
100
AcDbEntity
  8
RUNDUNGEN
100
AcDbLine
 62
7
  6
CONTINUOUS
 10
88.8410337138
 20
179.3643593538
 11
88.5331924104
 21
179.1312745102
  0
LINE
  5
272
100
AcDbEntity
  8
0
100
AcDbLine
 62
7
  6
CONTINUOUS
 10
80.7723433472
 20
169.2553176395
 11
80.6143361156
 21
169.1394418045
  0
LINE
  5
273
100
AcDbEntity
  8
0
100
AcDbLine
 62
7
  6
CONTINUOUS
 10
80.7786453075
 20
168.9432290466
 11
80.9366527923
 21
169.0591049666
  0
LINE
  5
274
100
AcDbEntity
  8
0
100
AcDbLine
 62
7
  6
CONTINUOUS
 10
81.726587416
 20
167.8789084062
 11
81.5685799378
 21
167.7630324664
  0
LINE
  5
275
100
AcDbEntity
  8
0
100
AcDbLine
 62
7
  6
CONTINUOUS
 10
81.7328893896
 20
167.5668197737
 11
81.8908966195
 21
167.6826956137
  0
LINE
  5
276
100
AcDbEntity
  8
0
100
AcDbLine
 62
7
  6
CONTINUOUS
 10
78.334805501
 20
167.6748599923
 11
78.5303957486
 21
167.8153521154
  0
LINE
  5
277
100
AcDbEntity
  8
RUNDUNGEN
100
AcDbLine
 62
7
  6
CONTINUOUS
 10
36.4391974708
 20
141.2921966949
 11
36.756002533
 21
141.5129440087
  0
LINE
  5
278
100
AcDbEntity
  8
0
100
AcDbLine
 62
7
  6
CONTINUOUS
 10
79.8476143892
 20
168.9356394865
 11
79.648513779
 21
168.8001682115
  0
LINE
  5
279
100
AcDbEntity
  8
0
100
AcDbLine
 62
7
  6
CONTINUOUS
 10
83.8850311383
 20
170.2257423903
 11
83.7218773701
 21
170.1172327487
  0
LINE
  5
27A
100
AcDbEntity
  8
0
100
AcDbLine
 62
7
  6
CONTINUOUS
 10
83.7872671745
 20
169.8880820649
 11
83.9504209426
 21
169.9965917065
  0
LINE
  5
27B
100
AcDbEntity
  8
0
100
AcDbLine
 62
7
  6
CONTINUOUS
 10
79.706071164
 20
168.5042073297
 11
79.949049397
 21
168.6555701214
  0
LINE
  5
27C
100
AcDbEntity
  8
RUNDUNGEN
100
AcDbLine
 62
7
  6
CONTINUOUS
 10
32.7083587088
 20
139.1968646757
 11
36.4393095058
 21
141.2959196904
  0
LINE
  5
27D
100
AcDbEntity
  8
RUNDUNGEN
100
AcDbLine
 62
7
  6
CONTINUOUS
 10
122.9438080268
 20
181.2441069214
 11
117.8754349218
 21
179.0052629732
  0
LINE
  5
27E
100
AcDbEntity
  8
0
100
AcDbLine
 62
7
  6
CONTINUOUS
 10
77.7704677977
 20
169.1173322316
 11
76.7274493974
 21
168.7092726568
  0
LINE
  5
27F
100
AcDbEntity
  8
0
100
AcDbLine
 62
7
  6
CONTINUOUS
 10
77.0967304672
 20
168.5338890728
 11
77.922453326
 21
168.85693622
  0
LINE
  5
280
100
AcDbEntity
  8
0
100
AcDbLine
 62
7
  6
CONTINUOUS
 10
78.2480327959
 20
168.0247406316
 11
77.4223099371
 21
167.7016934844
  0
LINE
  5
281
100
AcDbEntity
  8
0
100
AcDbLine
 62
7
  6
CONTINUOUS
 10
77.5525417008
 20
167.3688153112
 11
78.334805501
 21
167.6748599923
  0
LINE
  5
282
100
AcDbEntity
  8
0
100
AcDbLine
 62
7
  6
CONTINUOUS
 10
77.7475983343
 20
166.1017266559
 11
78.0083529343
 21
166.2037415496
  0
LINE
  5
283
100
AcDbEntity
  8
0
100
AcDbLine
 62
7
  6
CONTINUOUS
 10
79.2772062974
 20
168.7290501323
 11
79.0578186856
 21
168.6495927304
  0
LINE
  5
284
100
AcDbEntity
  8
0
100
AcDbLine
 62
7
  6
CONTINUOUS
 10
79.7070027924
 20
166.8571486373
 11
79.9263904041
 21
166.9366060392
  0
LINE
  5
285
100
AcDbEntity
  8
0
100
AcDbLine
 62
7
  6
CONTINUOUS
 10
81.1262719062
 20
169.3741136237
 11
80.7723433472
 21
169.2553176395
  0
LINE
  5
286
100
AcDbEntity
  8
0
100
AcDbLine
 62
7
  6
CONTINUOUS
 10
80.9366527923
 20
169.0591049666
 11
81.1136168186
 21
169.1185028737
  0
LINE
  5
287
100
AcDbEntity
  8
0
100
AcDbLine
 62
7
  6
CONTINUOUS
 10
81.5685799378
 20
167.7630324664
 11
81.3916159115
 21
167.7036345593
  0
LINE
  5
288
100
AcDbEntity
  8
0
100
AcDbLine
 62
7
  6
CONTINUOUS
 10
81.3789608306
 20
167.4480237895
 11
81.7328893896
 21
167.5668197737
  0
LINE
  5
289
100
AcDbEntity
  8
RUNDUNGEN
100
AcDbLine
 62
7
  6
CONTINUOUS
 10
117.5090186495
 20
178.8841693689
 11
117.8754343194
 21
179.0052627062
  0
LINE
  5
28A
100
AcDbEntity
  8
RUNDUNGEN
100
AcDbLine
 62
7
  6
CONTINUOUS
 10
46.9804897783
 20
155.9680612525
 11
46.6128763998
 21
155.8506540918
  0
LINE
  5
28B
100
AcDbEntity
  8
0
100
AcDbLine
 62
7
  6
CONTINUOUS
 10
82.0028648346
 20
170.595697923
 11
81.7802893844
 21
170.5256643846
  0
LINE
  5
28C
100
AcDbEntity
  8
0
100
AcDbLine
 62
7
  6
CONTINUOUS
 10
82.6206912043
 20
167.8547610203
 11
82.8432666544
 21
167.9247945587
  0
LINE
  5
28D
100
AcDbEntity
  8
0
100
AcDbLine
 62
7
  6
CONTINUOUS
 10
82.60764028
 20
170.7817617316
 11
82.3844220536
 21
170.7138047529
  0
LINE
  5
28E
100
AcDbEntity
  8
0
100
AcDbLine
 62
7
  6
CONTINUOUS
 10
82.4711755669
 20
170.4288455664
 11
82.6943937932
 21
170.496802545
  0
LINE
  5
28F
100
AcDbEntity
  8
0
100
AcDbLine
 62
7
  6
CONTINUOUS
 10
82.8679008682
 20
169.9268840123
 11
82.6446826419
 21
169.8589270337
  0
LINE
  5
290
100
AcDbEntity
  8
0
100
AcDbLine
 62
7
  6
CONTINUOUS
 10
83.199905175
 20
168.0351880803
 11
83.4231234013
 21
168.1031450589
  0
LINE
  5
291
100
AcDbEntity
  8
0
100
AcDbLine
 62
7
  6
CONTINUOUS
 10
84.0645328711
 20
170.2769645075
 11
83.8850311383
 21
170.2257423903
  0
LINE
  5
292
100
AcDbEntity
  8
0
100
AcDbLine
 62
7
  6
CONTINUOUS
 10
83.4811530098
 20
170.1104928465
 11
83.2567766142
 21
170.0464654198
  0
LINE
  5
293
100
AcDbEntity
  8
0
100
AcDbLine
 62
7
  6
CONTINUOUS
 10
83.7798950946
 20
168.2132597884
 11
84.0042714903
 21
168.2772872151
  0
LINE
  5
294
100
AcDbEntity
  8
0
100
AcDbLine
 62
7
  6
CONTINUOUS
 10
84.8120277472
 20
168.5077863029
 11
85.0364046564
 21
168.5718138761
  0
LINE
  5
295
100
AcDbEntity
  8
RUNDUNGEN
100
AcDbLine
 62
7
  6
CONTINUOUS
 10
157.9416125197
 20
55.6942480636
 11
163.3579718651
 21
56.8621002076
  0
LINE
  5
296
100
AcDbEntity
  8
RUNDUNGEN
100
AcDbLine
 62
7
  6
CONTINUOUS
 10
69.8934072189
 20
38.3347940911
 11
65.6412117175
 21
37.8399674937
  0
LINE
  5
297
100
AcDbEntity
  8
RUNDUNGEN
100
AcDbLine
 62
7
  6
CONTINUOUS
 10
69.8911282078
 20
38.3377401439
 11
70.2771808862
 21
38.3453651633
  0
LINE
  5
298
100
AcDbEntity
  8
RUNDUNGEN
100
AcDbLine
 62
7
  6
CONTINUOUS
 10
134.6633600001
 20
38.3377401985
 11
134.2773073053
 21
38.3453652136
  0
LINE
  5
299
100
AcDbEntity
  8
RUNDUNGEN
100
AcDbLine
 62
7
  6
CONTINUOUS
 10
138.9132705245
 20
37.8399681872
 11
134.66108104
 21
38.3347940844
  0
LINE
  5
29A
100
AcDbEntity
  8
RUNDUNGEN
100
AcDbLine
 62
7
  6
CONTINUOUS
 10
41.1965163365
 20
56.8621002076
 11
46.6128757667
 21
55.6942480453
  0
LINE
  5
29B
100
AcDbEntity
  8
RUNDUNGEN
100
AcDbLine
 62
7
  6
CONTINUOUS
 10
46.9804897933
 20
55.5768407482
 11
46.6128764115
 21
55.6942479074
  0
LINE
  5
29C
100
AcDbEntity
  8
RUNDUNGEN
100
AcDbLine
 62
7
  6
CONTINUOUS
 10
117.5090186291
 20
32.6607325227
 11
117.8754342972
 21
32.5396391886
  0
LINE
  5
29D
100
AcDbEntity
  8
RUNDUNGEN
100
AcDbLine
 62
7
  6
CONTINUOUS
 10
117.8754350016
 20
32.5396389367
 11
122.9438080268
 21
30.3007950237
  0
LINE
  5
29E
100
AcDbEntity
  8
RUNDUNGEN
100
AcDbLine
 62
7
  6
CONTINUOUS
 10
36.4393095562
 20
70.2489822264
 11
32.7083593558
 21
72.3480369055
  0
LINE
  5
29F
100
AcDbEntity
  8
RUNDUNGEN
100
AcDbLine
 62
7
  6
CONTINUOUS
 10
36.4391974439
 20
70.2527052024
 11
36.7560024953
 21
70.0319579016
  0
LINE
  5
2A0
100
AcDbEntity
  8
RUNDUNGEN
100
AcDbLine
 62
7
  6
CONTINUOUS
 10
88.8410337599
 20
32.1805426413
 11
88.5331924404
 21
32.4136274886
  0
LINE
  5
2A1
100
AcDbEntity
  8
RUNDUNGEN
100
AcDbLine
 62
7
  6
CONTINUOUS
 10
91.9867005511
 20
29.2798018947
 11
88.8374583058
 21
32.1794987733
  0
LINE
  5
2A2
100
AcDbEntity
  8
RUNDUNGEN
100
AcDbLine
 62
7
  6
CONTINUOUS
 10
24.1131144466
 20
102.105496982
 11
27.8085949954
 21
97.9770285416
  0
LINE
  5
2A3
100
AcDbEntity
  8
RUNDUNGEN
100
AcDbLine
 62
7
  6
CONTINUOUS
 10
28.0369907125
 20
97.6659659396
 11
27.808595436
 21
97.977028051
  0
LINE
  5
2A4
100
AcDbEntity
  8
RUNDUNGEN
100
AcDbLine
 62
7
  6
CONTINUOUS
 10
71.6260186741
 20
37.6708158247
 11
71.8512783006
 21
37.3574755336
  0
LINE
  5
2A5
100
AcDbEntity
  8
RUNDUNGEN
100
AcDbLine
 62
7
  6
CONTINUOUS
 10
71.8512787224
 20
37.3574749157
 11
74.6357191994
 21
32.5670972251
  0
LINE
  5
2A6
100
AcDbEntity
  8
RUNDUNGEN
100
AcDbLine
 62
7
  6
CONTINUOUS
 10
28.1330651306
 20
115.7319280459
 11
26.3484353687
 21
119.6231423092
  0
LINE
  5
2A7
100
AcDbEntity
  8
RUNDUNGEN
100
AcDbLine
 62
7
  6
CONTINUOUS
 10
28.13516275
 20
115.7350058733
 11
28.2617114127
 21
115.3702042184
  0
LINE
  5
2A8
100
AcDbEntity
  8
RUNDUNGEN
100
AcDbLine
 62
7
  6
CONTINUOUS
 10
48.1508831893
 20
54.1329527691
 11
48.0388381662
 21
54.5024669594
  0
LINE
  5
2A9
100
AcDbEntity
  8
RUNDUNGEN
100
AcDbLine
 62
7
  6
CONTINUOUS
 10
48.9907697792
 20
49.9372210504
 11
48.1473770309
 21
54.1342097896
  0
LINE
  5
2AA
100
AcDbEntity
  8
0
100
AcDbLine
 62
7
  6
CONTINUOUS
 10
79.5711349271
 20
168.3286136076
 11
79.706071164
 21
168.5042073297
  0
LINE
  5
2AB
100
AcDbEntity
  8
0
100
AcDbLine
 62
7
  6
CONTINUOUS
 10
80.6143361156
 20
169.1394418045
 11
80.544810644
 21
169.0532648381
  0
LINE
  5
2AC
100
AcDbEntity
  8
0
100
AcDbLine
 62
7
  6
CONTINUOUS
 10
81.8908966195
 20
167.6826956137
 11
81.9604218363
 21
167.7688725001
  0
LINE
  5
2AD
100
AcDbEntity
  8
0
100
AcDbLine
 62
7
  6
CONTINUOUS
 10
118.3042532199
 20
171.2439770713
 11
118.1807153989
 21
171.1935468716
  0
LINE
  5
2AE
100
AcDbEntity
  8
0
100
AcDbLine
 62
7
  6
CONTINUOUS
 10
118.2714868983
 20
169.4293186228
 11
118.3950248714
 21
169.4797487956
  0
LINE
  5
2AF
100
AcDbEntity
  8
0
100
AcDbLine
 62
7
  6
CONTINUOUS
 10
78.5303957486
 20
167.8153521154
 11
78.6391162254
 21
168.049801115
  0
LINE
  5
2B0
100
AcDbEntity
  8
0
100
AcDbLine
 62
7
  6
CONTINUOUS
 10
79.5371681633
 20
168.6964798792
 11
79.4461095492
 21
168.5367776738
  0
LINE
  5
2B1
100
AcDbEntity
  8
0
100
AcDbLine
 62
7
  6
CONTINUOUS
 10
83.7218773701
 20
170.1172327487
 11
83.6199462295
 21
169.9642408922
  0
LINE
  5
2B2
100
AcDbEntity
  8
0
100
AcDbLine
 62
7
  6
CONTINUOUS
 10
83.6853360338
 20
169.7350902083
 11
83.7872671745
 21
169.8880820649
  0
LINE
  5
2B3
100
AcDbEntity
  8
0
100
AcDbLine
 62
7
  6
CONTINUOUS
 10
118.1763465131
 20
170.9515924522
 11
118.2737240819
 21
171.0084986206
  0
LINE
  5
2B4
100
AcDbEntity
  8
0
100
AcDbLine
 62
7
  6
CONTINUOUS
 10
118.3993937671
 20
169.721703255
 11
118.3020161917
 21
169.6647970599
  0
LINE
  5
2B5
100
AcDbEntity
  8
0
100
AcDbLine
 62
7
  6
CONTINUOUS
 10
120.7936312297
 20
169.0289282583
 11
120.6941618527
 21
168.9757629881
  0
LINE
  5
2B6
100
AcDbEntity
  8
0
100
AcDbLine
 62
7
  6
CONTINUOUS
 10
121.8291984011
 20
169.9915634735
 11
121.9296122681
 21
170.0429220985
  0
LINE
  5
2B7
100
AcDbEntity
  8
0
100
AcDbLine
 62
7
  6
CONTINUOUS
 10
121.8825433985
 20
168.6997471444
 11
121.7821292368
 21
168.6483886102
  0
LINE
  5
2B8
100
AcDbEntity
  8
0
100
AcDbLine
 62
7
  6
CONTINUOUS
 10
120.5562368737
 20
169.9566943427
 11
120.394085004
 21
169.8806790988
  0
LINE
  5
2B9
100
AcDbEntity
  8
0
100
AcDbLine
 62
7
  6
CONTINUOUS
 10
120.665599297
 20
168.7793950568
 11
120.8277511696
 21
168.8554103106
  0
LINE
  5
2BA
100
AcDbEntity
  8
0
100
AcDbLine
 62
7
  6
CONTINUOUS
 10
124.0855828013
 20
169.2607939216
 11
124.1877485679
 21
169.3085731961
  0
LINE
  5
2BB
100
AcDbEntity
  8
0
100
AcDbLine
 62
7
  6
CONTINUOUS
 10
124.0932598462
 20
167.9678995278
 11
123.9910940797
 21
167.9201202533
  0
LINE
  5
2BC
100
AcDbEntity
  8
0
100
AcDbLine
 62
7
  6
CONTINUOUS
 10
121.9617200718
 20
170.2387415226
 11
121.7982206136
 21
170.1656698227
  0
LINE
  5
2BD
100
AcDbEntity
  8
0
100
AcDbLine
 62
7
  6
CONTINUOUS
 10
121.7500220155
 20
168.4525689814
 11
121.913521182
 21
168.525640782
  0
LINE
  5
2BE
100
AcDbEntity
  8
0
100
AcDbLine
 62
7
  6
CONTINUOUS
 10
126.4551938189
 20
168.3546264614
 11
126.5591011646
 21
168.398489503
  0
LINE
  5
2BF
100
AcDbEntity
  8
0
100
AcDbLine
 62
7
  6
CONTINUOUS
 10
126.517649844
 20
167.1062369845
 11
126.4137424883
 21
167.0623739172
  0
LINE
  5
2C0
100
AcDbEntity
  8
0
100
AcDbLine
 62
7
  6
CONTINUOUS
 10
124.2267532146
 20
169.5031363702
 11
124.060774784
 21
169.4358859159
  0
LINE
  5
2C1
100
AcDbEntity
  8
0
100
AcDbLine
 62
7
  6
CONTINUOUS
 10
123.9520894251
 20
167.7255570564
 11
124.1180678591
 21
167.7928075205
  0
LINE
  5
2C2
100
AcDbEntity
  8
0
100
AcDbLine
 62
7
  6
CONTINUOUS
 10
127.5977693296
 20
167.9436394497
 11
127.7024612055
 21
167.9855955464
  0
LINE
  5
2C3
100
AcDbEntity
  8
0
100
AcDbLine
 62
7
  6
CONTINUOUS
 10
127.4979914198
 20
167.5595182617
 11
127.2886076681
 21
167.4756060683
  0
LINE
  5
2C4
100
AcDbEntity
  8
0
100
AcDbLine
 62
7
  6
CONTINUOUS
 10
127.3434117508
 20
167.3255011525
 11
127.4481036267
 21
167.3674572491
  0
LINE
  5
2C5
100
AcDbEntity
  8
0
100
AcDbLine
 62
7
  6
CONTINUOUS
 10
127.6074676715
 20
166.6215946363
 11
127.5027757956
 21
166.5796385396
  0
LINE
  5
2C6
100
AcDbEntity
  8
0
100
AcDbLine
 62
7
  6
CONTINUOUS
 10
127.7523489986
 20
168.177656559
 11
127.5828507021
 21
168.119849775
  0
LINE
  5
2C7
100
AcDbEntity
  8
0
100
AcDbLine
 62
7
  6
CONTINUOUS
 10
127.4528868525
 20
166.3875779742
 11
127.6223862938
 21
166.4453842983
  0
LINE
  5
2C8
100
AcDbEntity
  8
0
100
AcDbLine
 62
7
  6
CONTINUOUS
 10
78.4002124556
 20
168.2761921458
 11
78.356704802
 21
168.1312277739
  0
LINE
  5
2C9
100
AcDbEntity
  8
0
100
AcDbLine
 62
7
  6
CONTINUOUS
 10
79.4461095492
 20
168.5367776738
 11
79.3989283067
 21
168.3929668943
  0
LINE
  5
2CA
100
AcDbEntity
  8
0
100
AcDbLine
 62
7
  6
CONTINUOUS
 10
80.544810644
 20
169.0532648381
 11
80.4942422202
 21
168.9106100287
  0
LINE
  5
2CB
100
AcDbEntity
  8
0
100
AcDbLine
 62
7
  6
CONTINUOUS
 10
80.7280768838
 20
168.8005742373
 11
80.7786453075
 21
168.9432290466
  0
LINE
  5
2CC
100
AcDbEntity
  8
0
100
AcDbLine
 62
7
  6
CONTINUOUS
 10
81.7771558397
 20
168.0215632155
 11
81.726587416
 21
167.8789084062
  0
LINE
  5
2CD
100
AcDbEntity
  8
0
100
AcDbLine
 62
7
  6
CONTINUOUS
 10
81.9604218363
 20
167.7688725001
 11
82.0109905099
 21
167.9115274042
  0
LINE
  5
2CE
100
AcDbEntity
  8
0
100
AcDbLine
 62
7
  6
CONTINUOUS
 10
85.7345370225
 20
170.7253104881
 11
85.3700205211
 21
169.7085883352
  0
LINE
  5
2CF
100
AcDbEntity
  8
0
100
AcDbLine
 62
7
  6
CONTINUOUS
 10
83.6199462295
 20
169.9642408922
 11
83.5628902652
 21
169.8240544916
  0
LINE
  5
2D0
100
AcDbEntity
  8
0
100
AcDbLine
 62
7
  6
CONTINUOUS
 10
83.6282800696
 20
169.5949038078
 11
83.6853360338
 21
169.7350902083
  0
LINE
  5
2D1
100
AcDbEntity
  8
0
100
AcDbLine
 62
7
  6
CONTINUOUS
 10
85.459205911
 20
169.3624465194
 11
85.6108386375
 21
169.7091163245
  0
LINE
  5
2D2
100
AcDbEntity
  8
0
100
AcDbLine
 62
7
  6
CONTINUOUS
 10
118.1807153989
 20
171.1935468716
 11
118.038280915
 21
171.0667825605
  0
LINE
  5
2D3
100
AcDbEntity
  8
0
100
AcDbLine
 62
7
  6
CONTINUOUS
 10
121.7982206136
 20
170.1656698227
 11
121.6862337228
 21
170.0767338079
  0
LINE
  5
2D4
100
AcDbEntity
  8
0
100
AcDbLine
 62
7
  6
CONTINUOUS
 10
124.060774784
 20
169.4358859159
 11
123.9457160593
 21
169.35096143
  0
LINE
  5
2D5
100
AcDbEntity
  8
0
100
AcDbLine
 62
7
  6
CONTINUOUS
 10
126.4907521629
 20
168.5939935764
 11
126.3331488953
 21
168.4866715561
  0
LINE
  5
2D6
100
AcDbEntity
  8
0
100
AcDbLine
 62
7
  6
CONTINUOUS
 10
127.2636419813
 20
167.2732898643
 11
127.3434117508
 21
167.3255011525
  0
LINE
  5
2D7
100
AcDbEntity
  8
0
100
AcDbLine
 62
7
  6
CONTINUOUS
 10
120.3914180634
 20
169.6768458677
 11
120.5276743247
 21
169.7603264345
  0
LINE
  5
2D8
100
AcDbEntity
  8
0
100
AcDbLine
 62
7
  6
CONTINUOUS
 10
80.4942422202
 20
168.9106100287
 11
80.4626305912
 21
168.7114772916
  0
LINE
  5
2D9
100
AcDbEntity
  8
0
100
AcDbLine
 62
7
  6
CONTINUOUS
 10
80.6964650016
 20
168.6014414151
 11
80.7280768838
 21
168.8005742373
  0
LINE
  5
2DA
100
AcDbEntity
  8
0
100
AcDbLine
 62
7
  6
CONTINUOUS
 10
81.8087674555
 20
168.2206959922
 11
81.7771558397
 21
168.0215632155
  0
LINE
  5
2DB
100
AcDbEntity
  8
0
100
AcDbLine
 62
7
  6
CONTINUOUS
 10
78.6391162254
 20
168.049801115
 11
78.6826723497
 21
168.3227273439
  0
LINE
  5
2DC
100
AcDbEntity
  8
0
100
AcDbLine
 62
7
  6
CONTINUOUS
 10
79.5206503161
 20
168.0568836562
 11
79.5711349271
 21
168.3286136076
  0
LINE
  5
2DD
100
AcDbEntity
  8
0
100
AcDbLine
 62
7
  6
CONTINUOUS
 10
85.7018181491
 20
169.9171182618
 11
86.0056809601
 21
170.7951722519
  0
LINE
  5
2DE
100
AcDbEntity
  8
0
100
AcDbLine
 62
7
  6
CONTINUOUS
 10
118.3950248714
 20
169.4797487956
 11
118.5374593586
 21
169.60651312
  0
LINE
  5
2DF
100
AcDbEntity
  8
0
100
AcDbLine
 62
7
  6
CONTINUOUS
 10
123.5528478356
 20
169.7724967865
 11
123.3125797438
 21
169.5623256796
  0
LINE
  5
2E0
100
AcDbEntity
  8
0
100
AcDbLine
 62
7
  6
CONTINUOUS
 10
123.2133516871
 20
169.2638335545
 11
123.4536198137
 21
169.474004766
  0
LINE
  5
2E1
100
AcDbEntity
  8
0
100
AcDbLine
 62
7
  6
CONTINUOUS
 10
127.5828507021
 20
168.119849775
 11
127.4482344101
 21
168.0051715377
  0
LINE
  5
2E2
100
AcDbEntity
  8
0
100
AcDbLine
 62
7
  6
CONTINUOUS
 10
121.913521182
 20
168.525640782
 11
122.0255080768
 21
168.61457681
  0
LINE
  5
2E3
100
AcDbEntity
  8
0
100
AcDbLine
 62
7
  6
CONTINUOUS
 10
124.1180678591
 20
167.7928075205
 11
124.2331265883
 21
167.8777320194
  0
LINE
  5
2E4
100
AcDbEntity
  8
0
100
AcDbLine
 62
7
  6
CONTINUOUS
 10
129.0904253072
 20
167.6571057107
 11
128.8326304438
 21
167.4688440351
  0
LINE
  5
2E5
100
AcDbEntity
  8
0
100
AcDbLine
 62
7
  6
CONTINUOUS
 10
128.7075754796
 20
167.1802179588
 11
128.9653703868
 21
167.3684797355
  0
LINE
  5
2E6
100
AcDbEntity
  8
0
100
AcDbLine
 62
7
  6
CONTINUOUS
 10
126.4820920596
 20
166.8668696067
 11
126.6396947576
 21
166.9741918641
  0
LINE
  5
2E7
100
AcDbEntity
  8
0
100
AcDbLine
 62
7
  6
CONTINUOUS
 10
82.0109905099
 20
167.9115274042
 11
82.0426023855
 21
168.1106602462
  0
LINE
  5
2E8
100
AcDbEntity
  8
0
100
AcDbLine
 62
7
  6
CONTINUOUS
 10
121.6862337228
 20
170.0767338079
 11
121.5884302393
 21
169.9422882005
  0
LINE
  5
2E9
100
AcDbEntity
  8
0
100
AcDbLine
 62
7
  6
CONTINUOUS
 10
123.9457160593
 20
169.35096143
 11
123.8432239379
 21
169.220054818
  0
LINE
  5
2EA
100
AcDbEntity
  8
0
100
AcDbLine
 62
7
  6
CONTINUOUS
 10
118.4800591908
 20
169.8232525033
 11
118.3993937671
 21
169.721703255
  0
LINE
  5
2EB
100
AcDbEntity
  8
0
100
AcDbLine
 62
7
  6
CONTINUOUS
 10
120.8780968745
 20
169.1273393267
 11
120.7936312297
 21
169.0289282583
  0
LINE
  5
2EC
100
AcDbEntity
  8
0
100
AcDbLine
 62
7
  6
CONTINUOUS
 10
121.6567368597
 20
169.7978271145
 11
121.8291984011
 21
169.9915634735
  0
LINE
  5
2ED
100
AcDbEntity
  8
0
100
AcDbLine
 62
7
  6
CONTINUOUS
 10
122.0550049156
 20
168.8934834245
 11
121.8825433985
 21
168.6997471444
  0
LINE
  5
2EE
100
AcDbEntity
  8
0
100
AcDbLine
 62
7
  6
CONTINUOUS
 10
120.8277511696
 20
168.8554103106
 11
120.9490036948
 21
168.9841366623
  0
LINE
  5
2EF
100
AcDbEntity
  8
0
100
AcDbLine
 62
7
  6
CONTINUOUS
 10
123.9063850216
 20
169.0732708143
 11
124.0855828013
 21
169.2607939216
  0
LINE
  5
2F0
100
AcDbEntity
  8
0
100
AcDbLine
 62
7
  6
CONTINUOUS
 10
124.2724575989
 20
168.1554225571
 11
124.0932598462
 21
167.9678995278
  0
LINE
  5
2F1
100
AcDbEntity
  8
0
100
AcDbLine
 62
7
  6
CONTINUOUS
 10
126.6107467264
 20
167.1965264122
 11
126.517649844
 21
167.1062369845
  0
LINE
  5
2F2
100
AcDbEntity
  8
0
100
AcDbLine
 62
7
  6
CONTINUOUS
 10
127.503037352
 20
167.8550670912
 11
127.5977693296
 21
167.9436394497
  0
LINE
  5
2F3
100
AcDbEntity
  8
0
100
AcDbLine
 62
7
  6
CONTINUOUS
 10
127.7021996596
 20
166.7101670202
 11
127.6074676715
 21
166.6215946363
  0
LINE
  5
2F4
100
AcDbEntity
  8
0
100
AcDbLine
 62
7
  6
CONTINUOUS
 10
127.6223862938
 20
166.4453842983
 11
127.757002591
 21
166.5600625483
  0
LINE
  5
2F5
100
AcDbEntity
  8
0
100
AcDbLine
 62
7
  6
CONTINUOUS
 10
154.7863602111
 20
147.6603701741
 11
154.6294320625
 21
147.6054640017
  0
LINE
  5
2F6
100
AcDbEntity
  8
0
100
AcDbLine
 62
7
  6
CONTINUOUS
 10
80.4626305912
 20
168.7114772916
 11
80.4752598421
 21
168.5271939887
  0
LINE
  5
2F7
100
AcDbEntity
  8
RUNDUNGEN
100
AcDbLine
 62
7
  6
CONTINUOUS
 10
107.0645475305
 20
182.7623981649
 11
104.5272441008
 21
174.9533811705
  0
LINE
  5
2F8
100
AcDbEntity
  8
RUNDUNGEN
100
AcDbLine
 62
7
  6
CONTINUOUS
 10
63.4340018279
 20
48.4813859381
 11
60.8966983982
 21
40.6723689437
  0
LINE
  5
2F9
100
AcDbEntity
  8
0
100
AcDbLine
 62
7
  6
CONTINUOUS
 10
118.121841315
 20
170.8435671284
 11
118.1763465131
 21
170.9515924522
  0
LINE
  5
2FA
100
AcDbEntity
  8
0
100
AcDbLine
 62
7
  6
CONTINUOUS
 10
120.9366669032
 20
169.2332156915
 11
120.8780968745
 21
169.1273393267
  0
LINE
  5
2FB
100
AcDbEntity
  8
0
100
AcDbLine
 62
7
  6
CONTINUOUS
 10
121.5884302393
 20
169.9422882005
 11
121.5279558834
 21
169.8374877655
  0
LINE
  5
2FC
100
AcDbEntity
  8
0
100
AcDbLine
 62
7
  6
CONTINUOUS
 10
120.9490036948
 20
168.9841366623
 11
121.055252484
 21
169.1581087989
  0
LINE
  5
2FD
100
AcDbEntity
  8
0
100
AcDbLine
 62
7
  6
CONTINUOUS
 10
123.8432239379
 20
169.220054818
 11
123.7790854656
 21
169.1174559943
  0
LINE
  5
2FE
100
AcDbEntity
  8
0
100
AcDbLine
 62
7
  6
CONTINUOUS
 10
118.5374593586
 20
169.60651312
 11
118.6275730455
 21
169.7462294691
  0
LINE
  5
2FF
100
AcDbEntity
  8
0
100
AcDbLine
 62
7
  6
CONTINUOUS
 10
126.3872028957
 20
168.2545388504
 11
126.4551938189
 21
168.3546264614
  0
LINE
  5
300
100
AcDbEntity
  8
0
100
AcDbLine
 62
7
  6
CONTINUOUS
 10
127.4332285796
 20
167.7562389699
 11
127.503037352
 21
167.8550670912
  0
LINE
  5
301
100
AcDbEntity
  8
0
100
AcDbLine
 62
7
  6
CONTINUOUS
 10
127.1938332299
 20
167.1744617939
 11
127.2636419813
 21
167.2732898643
  0
LINE
  5
302
100
AcDbEntity
  8
0
100
AcDbLine
 62
7
  6
CONTINUOUS
 10
127.77200839
 20
166.8089950397
 11
127.7021996596
 21
166.7101670202
  0
LINE
  5
303
100
AcDbEntity
  8
0
100
AcDbLine
 62
7
  6
CONTINUOUS
 10
122.0255080768
 20
168.61457681
 11
122.1233112737
 21
168.7490225345
  0
LINE
  5
304
100
AcDbEntity
  8
0
100
AcDbLine
 62
7
  6
CONTINUOUS
 10
127.4482344101
 20
168.0051715377
 11
127.3235779745
 21
167.8438769367
  0
LINE
  5
305
100
AcDbEntity
  8
0
100
AcDbLine
 62
7
  6
CONTINUOUS
 10
127.757002591
 20
166.5600625483
 11
127.8816589952
 21
166.7213570729
  0
LINE
  5
306
100
AcDbEntity
  8
0
100
AcDbLine
 62
7
  6
CONTINUOUS
 10
124.2331265883
 20
167.8777320194
 11
124.3356187187
 21
168.0086386574
  0
LINE
  5
307
100
AcDbEntity
  8
0
100
AcDbLine
 62
7
  6
CONTINUOUS
 10
126.6396947576
 20
166.9741918641
 11
126.7470866113
 21
167.1011098471
  0
LINE
  5
308
100
AcDbEntity
  8
RUNDUNGEN
100
AcDbLine
 62
7
  6
CONTINUOUS
 10
151.4038094671
 20
165.244720293
 11
144.7610628484
 21
160.4184823717
  0
LINE
  5
309
100
AcDbEntity
  8
RUNDUNGEN
100
AcDbLine
 62
7
  6
CONTINUOUS
 10
37.17755787
 20
82.2544906931
 11
30.5348112513
 21
77.4282527718
  0
LINE
  5
30A
100
AcDbEntity
  8
RUNDUNGEN
100
AcDbLine
 62
7
  6
CONTINUOUS
 10
27.5760950173
 20
86.5342450164
 11
35.7869813953
 21
86.5342450164
  0
LINE
  5
30B
100
AcDbEntity
  8
RUNDUNGEN
100
AcDbLine
 62
7
  6
CONTINUOUS
 10
168.7675068062
 20
86.5342450164
 11
176.9783931843
 21
86.5342450164
  0
LINE
  5
30C
100
AcDbEntity
  8
RUNDUNGEN
100
AcDbLine
 62
7
  6
CONTINUOUS
 10
30.5348112513
 20
134.1166491733
 11
37.17755787
 21
129.2904112521
  0
LINE
  5
30D
100
AcDbEntity
  8
RUNDUNGEN
100
AcDbLine
 62
7
  6
CONTINUOUS
 10
144.7610628484
 20
51.1264195734
 11
151.403809467
 21
46.3001816522
  0
LINE
  5
30E
100
AcDbEntity
  8
RUNDUNGEN
100
AcDbLine
 62
7
  6
CONTINUOUS
 10
60.8966983982
 20
170.8725330014
 11
63.4340018279
 21
163.0635160071
  0
LINE
  5
30F
100
AcDbEntity
  8
RUNDUNGEN
100
AcDbLine
 62
7
  6
CONTINUOUS
 10
104.5272441008
 20
36.5915207746
 11
107.0645475305
 21
28.7825037802
  0
LINE
  5
310
100
AcDbEntity
  8
0
100
AcDbLine
 62
7
  6
CONTINUOUS
 10
78.3785556324
 20
168.4596336984
 11
78.4002124556
 21
168.2761921458
  0
LINE
  5
311
100
AcDbEntity
  8
0
100
AcDbLine
 62
7
  6
CONTINUOUS
 10
78.6826723497
 20
168.3227273439
 11
78.6610155264
 21
168.5061688966
  0
LINE
  5
312
100
AcDbEntity
  8
0
100
AcDbLine
 62
7
  6
CONTINUOUS
 10
82.0426023855
 20
168.1106602462
 11
81.9983865693
 21
168.5357046494
  0
LINE
  5
313
100
AcDbEntity
  8
RUNDUNGEN
100
AcDbLine
 62
7
  6
CONTINUOUS
 10
92.2772441008
 20
61.5671430996
 11
92.2772441008
 21
76.0930334231
  0
LINE
  5
314
100
AcDbEntity
  8
RUNDUNGEN
100
AcDbLine
 62
7
  6
CONTINUOUS
 10
92.2772441008
 20
135.451870267
 11
92.2772441008
 21
149.9777588456
  0
LINE
  5
315
100
AcDbEntity
  8
RUNDUNGEN
100
AcDbLine
 62
7
  6
CONTINUOUS
 10
93.2772441008
 20
182.4533811705
 11
93.2772441008
 21
176.1424224185
  0
LINE
  5
316
100
AcDbEntity
  8
RUNDUNGEN
100
AcDbLine
 62
7
  6
CONTINUOUS
 10
93.2772441008
 20
29.0915207746
 11
93.2772441008
 21
35.4025059722
  0
LINE
  5
317
100
AcDbEntity
  8
0
100
AcDbLine
 62
7
  6
CONTINUOUS
 10
118.038280915
 20
171.0667825605
 11
117.9743275616
 21
170.9205902509
  0
LINE
  5
318
100
AcDbEntity
  8
0
100
AcDbLine
 62
7
  6
CONTINUOUS
 10
121.5615443491
 20
169.580294343
 11
121.6567368597
 21
169.7978271145
  0
LINE
  5
319
100
AcDbEntity
  8
0
100
AcDbLine
 62
7
  6
CONTINUOUS
 10
122.1501971477
 20
169.1110163393
 11
122.0550049156
 21
168.8934834245
  0
LINE
  5
31A
100
AcDbEntity
  8
0
100
AcDbLine
 62
7
  6
CONTINUOUS
 10
121.5279558834
 20
169.8374877655
 11
121.4443358071
 21
169.6575325654
  0
LINE
  5
31B
100
AcDbEntity
  8
0
100
AcDbLine
 62
7
  6
CONTINUOUS
 10
122.1837858919
 20
168.8538227734
 11
122.2674059844
 21
169.0337780262
  0
LINE
  5
31C
100
AcDbEntity
  8
0
100
AcDbLine
 62
7
  6
CONTINUOUS
 10
123.8035671281
 20
168.8592366625
 11
123.9063850216
 21
169.0732708143
  0
LINE
  5
31D
100
AcDbEntity
  8
0
100
AcDbLine
 62
7
  6
CONTINUOUS
 10
124.3752755104
 20
168.3694567609
 11
124.2724575989
 21
168.1554225571
  0
LINE
  5
31E
100
AcDbEntity
  8
0
100
AcDbLine
 62
7
  6
CONTINUOUS
 10
123.7790854656
 20
169.1174559943
 11
123.6891605303
 21
168.9405670539
  0
LINE
  5
31F
100
AcDbEntity
  8
0
100
AcDbLine
 62
7
  6
CONTINUOUS
 10
124.3997571549
 20
168.1112373771
 11
124.4896821082
 21
168.2881263695
  0
LINE
  5
320
100
AcDbEntity
  8
0
100
AcDbLine
 62
7
  6
CONTINUOUS
 10
127.3235779745
 20
167.8438769367
 11
127.1939204118
 21
167.599604636
  0
LINE
  5
321
100
AcDbEntity
  8
0
100
AcDbLine
 62
7
  6
CONTINUOUS
 10
127.3185320842
 20
167.548328209
 11
127.4332285796
 21
167.7562389699
  0
LINE
  5
322
100
AcDbEntity
  8
0
100
AcDbLine
 62
7
  6
CONTINUOUS
 10
122.1233112737
 20
168.7490225345
 11
122.1837858919
 21
168.8538227734
  0
LINE
  5
323
100
AcDbEntity
  8
0
100
AcDbLine
 62
7
  6
CONTINUOUS
 10
126.3331488953
 20
168.4866715561
 11
126.2508630508
 21
168.3499555181
  0
LINE
  5
324
100
AcDbEntity
  8
0
100
AcDbLine
 62
7
  6
CONTINUOUS
 10
124.3356187187
 20
168.0086386574
 11
124.3997571549
 21
168.1112373771
  0
LINE
  5
325
100
AcDbEntity
  8
RUNDUNGEN
100
AcDbLine
 62
7
  6
CONTINUOUS
 10
140.0680110538
 20
173.0986939178
 11
136.3585656589
 21
167.9930803413
  0
LINE
  5
326
100
AcDbEntity
  8
RUNDUNGEN
100
AcDbLine
 62
7
  6
CONTINUOUS
 10
49.924171249
 20
49.0263425686
 11
53.6336738224
 21
54.1320348446
  0
LINE
  5
327
100
AcDbEntity
  8
0
100
AcDbLine
 62
7
  6
CONTINUOUS
 10
154.6294320625
 20
147.6054640017
 11
154.4582714956
 21
147.5050633851
  0
LINE
  5
328
100
AcDbEntity
  8
0
100
AcDbLine
 62
7
  6
CONTINUOUS
 10
154.3500261024
 20
146.1166984715
 11
154.521186588
 21
146.2170990577
  0
LINE
  5
329
100
AcDbEntity
  8
0
100
AcDbLine
 62
7
  6
CONTINUOUS
 10
154.5582703216
 20
147.3779920477
 11
154.6985319957
 21
147.4540767808
  0
LINE
  5
32A
100
AcDbEntity
  8
0
100
AcDbLine
 62
7
  6
CONTINUOUS
 10
154.4211877619
 20
146.3441703952
 11
154.3118249015
 21
146.292401468
  0
LINE
  5
32B
100
AcDbEntity
  8
RUNDUNGEN
100
AcDbLine
 62
7
  6
CONTINUOUS
 10
172.4239894917
 20
138.0276701949
 11
166.4219848328
 21
136.0775006643
  0
LINE
  5
32C
100
AcDbEntity
  8
RUNDUNGEN
100
AcDbLine
 62
7
  6
CONTINUOUS
 10
26.568192811
 20
90.6362490436
 11
32.5702974225
 21
92.5864510507
  0
LINE
  5
32D
100
AcDbEntity
  8
RUNDUNGEN
100
AcDbLine
 62
7
  6
CONTINUOUS
 10
72.5978240851
 20
95.7724509726
 11
58.0719362278
 21
95.7724509726
  0
LINE
  5
32E
100
AcDbEntity
  8
RUNDUNGEN
100
AcDbLine
 62
7
  6
CONTINUOUS
 10
131.9566641458
 20
95.7724509726
 11
146.4825519738
 21
95.7724509726
  0
LINE
  5
32F
100
AcDbEntity
  8
RUNDUNGEN
100
AcDbLine
 62
7
  6
CONTINUOUS
 10
26.568192811
 20
120.9086529016
 11
32.5703476666
 21
118.9584345692
  0
LINE
  5
330
100
AcDbEntity
  8
RUNDUNGEN
100
AcDbLine
 62
7
  6
CONTINUOUS
 10
166.4218869455
 20
75.4674330864
 11
172.4239894917
 21
73.5172317503
  0
LINE
  5
331
100
AcDbEntity
  8
RUNDUNGEN
100
AcDbLine
 62
7
  6
CONTINUOUS
 10
49.924171249
 20
162.5185593766
 11
53.6337044814
 21
157.412824902
  0
LINE
  5
332
100
AcDbEntity
  8
RUNDUNGEN
100
AcDbLine
 62
7
  6
CONTINUOUS
 10
136.358505576
 20
43.5519043009
 11
140.0680110538
 21
38.4462080273
  0
LINE
  5
333
100
AcDbEntity
  8
0
100
AcDbLine
 62
7
  6
CONTINUOUS
 10
80.4752598421
 20
168.5271939887
 11
80.5068458877
 21
168.2864327579
  0
LINE
  5
334
100
AcDbEntity
  8
0
100
AcDbLine
 62
7
  6
CONTINUOUS
 10
80.7280513003
 20
168.3606802693
 11
80.6964650016
 21
168.6014414151
  0
LINE
  5
335
100
AcDbEntity
  8
0
100
AcDbLine
 62
7
  6
CONTINUOUS
 10
81.777181663
 20
168.461457308
 11
81.8087674555
 21
168.2206959922
  0
LINE
  5
336
100
AcDbEntity
  8
0
100
AcDbLine
 62
7
  6
CONTINUOUS
 10
99.1022441008
 20
118.223128665
 11
99.1022441008
 21
121.4974509726
  0
LINE
  5
337
100
AcDbEntity
  8
RUNDUNGEN
100
AcDbLine
 62
7
  6
CONTINUOUS
 10
100.0272441008
 20
36.5915207746
 11
100.0272441008
 21
37.5914277054
  0
LINE
  5
338
100
AcDbEntity
  8
RUNDUNGEN
100
AcDbLine
 62
7
  6
CONTINUOUS
 10
100.0272441008
 20
173.9534407935
 11
100.0272441008
 21
174.9533811705
  0
LINE
  5
339
100
AcDbEntity
  8
02___PRT_ALL_AXES
100
AcDbLine
 62
7
  6
CENTER
 10
102.2772441008
 20
105.7724509726
 11
102.2772441008
 21
22.5874720982
  0
LINE
  5
33A
100
AcDbEntity
  8
02___PRT_ALL_AXES
100
AcDbLine
 62
7
  6
CENTER
 10
102.2772441008
 20
105.7724509726
 11
102.2772441008
 21
188.9574298469
  0
LINE
  5
33B
100
AcDbEntity
  8
0
100
AcDbLine
 62
7
  6
CONTINUOUS
 10
116.811230912
 20
171.6333325932
 11
116.4000318732
 21
169.8316613273
  0
LINE
  5
33C
100
AcDbEntity
  8
0
100
AcDbLine
 62
7
  6
CONTINUOUS
 10
116.6101716032
 20
170.025681998
 11
116.9688771478
 21
171.5973526773
  0
LINE
  5
33D
100
AcDbEntity
  8
0
100
AcDbLine
 62
7
  6
CONTINUOUS
 10
117.3459092878
 20
169.6157818319
 11
117.398402782
 21
169.8457824185
  0
LINE
  5
33E
100
AcDbEntity
  8
0
100
AcDbLine
 62
7
  6
CONTINUOUS
 10
117.9743275616
 20
170.9205902509
 11
117.9365345087
 21
170.7679218473
  0
LINE
  5
33F
100
AcDbEntity
  8
0
100
AcDbLine
 62
7
  6
CONTINUOUS
 10
118.1029448018
 20
170.76723298
 11
118.121841315
 21
170.8435671284
  0
LINE
  5
340
100
AcDbEntity
  8
0
100
AcDbLine
 62
7
  6
CONTINUOUS
 10
118.5084039607
 20
169.9377537258
 11
118.4800591908
 21
169.8232525033
  0
LINE
  5
341
100
AcDbEntity
  8
0
100
AcDbLine
 62
7
  6
CONTINUOUS
 10
118.6275730455
 20
169.7462294691
 11
118.6748143286
 21
169.93706484
  0
LINE
  5
342
100
AcDbEntity
  8
0
100
AcDbLine
 62
7
  6
CONTINUOUS
 10
120.4933311944
 20
170.7113966945
 11
120.2101502862
 21
169.7291027013
  0
LINE
  5
343
100
AcDbEntity
  8
0
100
AcDbLine
 62
7
  6
CONTINUOUS
 10
120.394085004
 20
169.8806790988
 11
120.56835019
 21
170.4851677508
  0
LINE
  5
344
100
AcDbEntity
  8
0
100
AcDbLine
 62
7
  6
CONTINUOUS
 10
120.9584500476
 20
169.3087767598
 11
120.9366669032
 21
169.2332156915
  0
LINE
  5
345
100
AcDbEntity
  8
0
100
AcDbLine
 62
7
  6
CONTINUOUS
 10
121.3193172036
 20
170.2686750079
 11
121.3737750647
 21
170.4575776785
  0
LINE
  5
346
100
AcDbEntity
  8
0
100
AcDbLine
 62
7
  6
CONTINUOUS
 10
121.055252484
 20
169.1581087989
 11
121.0988187729
 21
169.3092309354
  0
LINE
  5
347
100
AcDbEntity
  8
0
100
AcDbLine
 62
7
  6
CONTINUOUS
 10
121.4443358071
 20
169.6575325654
 11
121.3401812457
 21
169.3193352402
  0
LINE
  5
348
100
AcDbEntity
  8
0
100
AcDbLine
 62
7
  6
CONTINUOUS
 10
121.4805352458
 20
169.3172519789
 11
121.5615443491
 21
169.580294343
  0
LINE
  5
349
100
AcDbEntity
  8
0
100
AcDbLine
 62
7
  6
CONTINUOUS
 10
122.231206251
 20
169.3740587034
 11
122.1501971477
 21
169.1110163393
  0
LINE
  5
34A
100
AcDbEntity
  8
0
100
AcDbLine
 62
7
  6
CONTINUOUS
 10
122.2674059844
 20
169.0337780262
 11
122.3715605458
 21
169.3719753514
  0
LINE
  5
34B
100
AcDbEntity
  8
0
100
AcDbLine
 62
7
  6
CONTINUOUS
 10
122.5188090237
 20
169.0761733492
 11
122.4583017658
 21
168.889120493
  0
LINE
  5
34C
100
AcDbEntity
  8
0
100
AcDbLine
 62
7
  6
CONTINUOUS
 10
122.8172871189
 20
168.7729970625
 11
122.8777943768
 21
168.9600499187
  0
LINE
  5
34D
100
AcDbEntity
  8
0
100
AcDbLine
 62
7
  6
CONTINUOUS
 10
123.3125797438
 20
169.5623256796
 11
123.2133516871
 21
169.2638335545
  0
LINE
  5
34E
100
AcDbEntity
  8
0
100
AcDbLine
 62
7
  6
CONTINUOUS
 10
123.4536198137
 20
169.474004766
 11
122.9698831374
 21
168.0188559565
  0
LINE
  5
34F
100
AcDbEntity
  8
0
100
AcDbLine
 62
7
  6
CONTINUOUS
 10
123.12332671
 20
167.9678465454
 11
123.7062914082
 21
169.7214873755
  0
LINE
  5
350
100
AcDbEntity
  8
0
100
AcDbLine
 62
7
  6
CONTINUOUS
 10
123.6891605303
 20
168.9405670539
 11
123.5731239065
 21
168.6062601509
  0
LINE
  5
351
100
AcDbEntity
  8
0
100
AcDbLine
 62
7
  6
CONTINUOUS
 10
123.7133164207
 20
168.5992201824
 11
123.8035671281
 21
168.8592366625
  0
LINE
  5
352
100
AcDbEntity
  8
0
100
AcDbLine
 62
7
  6
CONTINUOUS
 10
124.4655262178
 20
168.629473241
 11
124.3752755104
 21
168.3694567609
  0
LINE
  5
353
100
AcDbEntity
  8
0
100
AcDbLine
 62
7
  6
CONTINUOUS
 10
124.4896821082
 20
168.2881263695
 11
124.605718732
 21
168.6224332725
  0
LINE
  5
354
100
AcDbEntity
  8
0
100
AcDbLine
 62
7
  6
CONTINUOUS
 10
126.2508630508
 20
168.3499555181
 11
126.1936831655
 21
168.2034412968
  0
LINE
  5
355
100
AcDbEntity
  8
0
100
AcDbLine
 62
7
  6
CONTINUOUS
 10
126.358612973
 20
168.1812817911
 11
126.3872028957
 21
168.2545388504
  0
LINE
  5
356
100
AcDbEntity
  8
0
100
AcDbLine
 62
7
  6
CONTINUOUS
 10
126.6536316104
 20
167.3064120012
 11
126.6107467264
 21
167.1965264122
  0
LINE
  5
357
100
AcDbEntity
  8
0
100
AcDbLine
 62
7
  6
CONTINUOUS
 10
126.7470866113
 20
167.1011098471
 11
126.8185614179
 21
167.2842524955
  0
LINE
  5
358
100
AcDbEntity
  8
0
100
AcDbLine
 62
7
  6
CONTINUOUS
 10
127.1939204118
 20
167.599604636
 11
127.0891849555
 21
167.3450771437
  0
LINE
  5
359
100
AcDbEntity
  8
0
100
AcDbLine
 62
7
  6
CONTINUOUS
 10
127.2886076681
 20
167.4756060683
 11
127.3185320842
 21
167.548328209
  0
LINE
  5
35A
100
AcDbEntity
  8
0
100
AcDbLine
 62
7
  6
CONTINUOUS
 10
127.1489466057
 20
167.065378583
 11
127.1938332299
 21
167.1744617939
  0
LINE
  5
35B
100
AcDbEntity
  8
0
100
AcDbLine
 62
7
  6
CONTINUOUS
 10
127.8168950142
 20
166.9180782506
 11
127.77200839
 21
166.8089950397
  0
LINE
  5
35C
100
AcDbEntity
  8
0
100
AcDbLine
 62
7
  6
CONTINUOUS
 10
127.8816589952
 20
166.7213570729
 11
127.9564700564
 21
166.9031624754
  0
LINE
  5
35D
100
AcDbEntity
  8
0
100
AcDbLine
 62
7
  6
CONTINUOUS
 10
127.9620411646
 20
166.3441136333
 11
127.8851064931
 21
166.1631966778
  0
LINE
  5
35E
100
AcDbEntity
  8
0
100
AcDbLine
 62
7
  6
CONTINUOUS
 10
128.0091103655
 20
166.110464212
 11
128.086045037
 21
166.2913811674
  0
LINE
  5
35F
100
AcDbEntity
  8
0
100
AcDbLine
 62
7
  6
CONTINUOUS
 10
128.8326304438
 20
167.4688440351
 11
128.7075754796
 21
167.1802179588
  0
LINE
  5
360
100
AcDbEntity
  8
0
100
AcDbLine
 62
7
  6
CONTINUOUS
 10
128.9653703868
 20
167.3684797355
 11
128.3557275621
 21
165.9614279043
  0
LINE
  5
361
100
AcDbEntity
  8
0
100
AcDbLine
 62
7
  6
CONTINUOUS
 10
128.5040993702
 20
165.8971418516
 11
129.2387971153
 21
167.592819658
  0
LINE
  5
362
100
AcDbEntity
  8
RUNDUNGEN
100
AcDbLine
 62
7
  6
CONTINUOUS
 10
59.7934253532
 20
51.1264195734
 11
60.3811563992
 21
51.9353619592
  0
LINE
  5
363
100
AcDbEntity
  8
RUNDUNGEN
100
AcDbLine
 62
7
  6
CONTINUOUS
 10
140.5327363015
 20
162.254547434
 11
141.1204863737
 21
163.0635160071
  0
LINE
  5
364
100
AcDbEntity
  8
0
100
AcDbLine
 62
7
  6
CONTINUOUS
 10
154.4582714956
 20
147.5050633851
 11
153.9947894258
 21
147.1403260352
  0
LINE
  5
365
100
AcDbEntity
  8
0
100
AcDbLine
 62
7
  6
CONTINUOUS
 10
154.0947882518
 20
147.0132546978
 11
154.5582703216
 21
147.3779920477
  0
LINE
  5
366
100
AcDbEntity
  8
0
100
AcDbLine
 62
7
  6
CONTINUOUS
 10
155.2947494837
 20
145.9799313748
 11
154.5421651474
 21
145.4106245991
  0
LINE
  5
367
100
AcDbEntity
  8
0
100
AcDbLine
 62
7
  6
CONTINUOUS
 10
154.6397182357
 20
145.281666137
 11
155.392302572
 21
145.8509729126
  0
LINE
  5
368
100
AcDbEntity
  8
0
100
AcDbLine
 62
7
  6
CONTINUOUS
 10
156.5223209576
 20
145.8519237395
 11
155.0281506105
 21
144.7644684651
  0
LINE
  5
369
100
AcDbEntity
  8
0
100
AcDbLine
 62
7
  6
CONTINUOUS
 10
155.3140480972
 20
144.772552637
 11
156.6174732941
 21
145.7211838341
  0
LINE
  5
36A
100
AcDbEntity
  8
0
100
AcDbLine
 62
7
  6
CONTINUOUS
 10
155.5990646296
 20
143.9800290329
 11
155.7898097798
 21
144.1188531101
  0
LINE
  5
36B
100
AcDbEntity
  8
0
100
AcDbLine
 62
7
  6
CONTINUOUS
 10
157.7639885756
 20
143.6255175365
 11
157.5037162815
 21
143.4488764062
  0
LINE
  5
36C
100
AcDbEntity
  8
0
100
AcDbLine
 62
7
  6
CONTINUOUS
 10
157.8222591102
 20
143.4696412077
 11
156.5534319385
 21
142.6085158754
  0
LINE
  5
36D
100
AcDbEntity
  8
0
100
AcDbLine
 62
7
  6
CONTINUOUS
 10
156.6442363254
 20
142.4747199353
 11
158.1733357001
 21
143.512486336
  0
LINE
  5
36E
100
AcDbEntity
  8
RUNDUNGEN
100
AcDbLine
 62
7
  6
CONTINUOUS
 10
35.7869813953
 20
86.5342450164
 11
36.7379490369
 21
86.8432331336
  0
LINE
  5
36F
100
AcDbEntity
  8
RUNDUNGEN
100
AcDbLine
 62
7
  6
CONTINUOUS
 10
166.4259304226
 20
128.9814126505
 11
167.3769303316
 21
129.2904112521
  0
LINE
  5
370
100
AcDbEntity
  8
02___PRT_ALL_AXES
100
AcDbLine
 62
7
  6
CENTER
 10
102.2772441008
 20
105.7724509726
 11
19.0922652264
 21
105.7724509726
  0
LINE
  5
371
100
AcDbEntity
  8
02___PRT_ALL_AXES
100
AcDbLine
 62
7
  6
CENTER
 10
102.2772441008
 20
105.7724509726
 11
185.4622229751
 21
105.7724509726
  0
LINE
  5
372
100
AcDbEntity
  8
RUNDUNGEN
100
AcDbLine
 62
7
  6
CONTINUOUS
 10
36.7379811094
 20
124.7016583905
 11
35.7869813953
 21
125.0106569288
  0
LINE
  5
373
100
AcDbEntity
  8
RUNDUNGEN
100
AcDbLine
 62
7
  6
CONTINUOUS
 10
166.4259619687
 20
82.5634790447
 11
167.3769303316
 21
82.2544906931
  0
LINE
  5
374
100
AcDbEntity
  8
RUNDUNGEN
100
AcDbLine
 62
7
  6
CONTINUOUS
 10
140.5327563245
 20
49.2903269519
 11
141.1204863737
 21
48.4813859381
  0
LINE
  5
375
100
AcDbEntity
  8
RUNDUNGEN
100
AcDbLine
 62
7
  6
CONTINUOUS
 10
60.3811756947
 20
159.6095134279
 11
59.7934253532
 21
160.4184823717
  0
LINE
  5
376
100
AcDbEntity
  8
0
100
AcDbLine
 62
7
  6
CONTINUOUS
 10
76.7274493974
 20
168.7092726568
 11
77.7475983343
 21
166.1017266559
  0
LINE
  5
377
100
AcDbEntity
  8
0
100
AcDbLine
 62
7
  6
CONTINUOUS
 10
78.0083529343
 20
166.2037415496
 11
77.5525417008
 21
167.3688153112
  0
LINE
  5
378
100
AcDbEntity
  8
0
100
AcDbLine
 62
7
  6
CONTINUOUS
 10
77.4223099371
 20
167.7016934844
 11
77.0967304672
 21
168.5338890728
  0
LINE
  5
379
100
AcDbEntity
  8
0
100
AcDbLine
 62
7
  6
CONTINUOUS
 10
78.3134396897
 20
168.6260729405
 11
78.3785556324
 21
168.4596336984
  0
LINE
  5
37A
100
AcDbEntity
  8
0
100
AcDbLine
 62
7
  6
CONTINUOUS
 10
78.6610155264
 20
168.5061688966
 11
78.5741942898
 21
168.7280878341
  0
LINE
  5
37B
100
AcDbEntity
  8
0
100
AcDbLine
 62
7
  6
CONTINUOUS
 10
79.0578186856
 20
168.6495927304
 11
79.7070027924
 21
166.8571486373
  0
LINE
  5
37C
100
AcDbEntity
  8
0
100
AcDbLine
 62
7
  6
CONTINUOUS
 10
79.9263904041
 20
166.9366060392
 11
79.5206503161
 21
168.0568836562
  0
LINE
  5
37D
100
AcDbEntity
  8
0
100
AcDbLine
 62
7
  6
CONTINUOUS
 10
79.3989283067
 20
168.3929668943
 11
79.2772062974
 21
168.7290501323
  0
LINE
  5
37E
100
AcDbEntity
  8
0
100
AcDbLine
 62
7
  6
CONTINUOUS
 10
79.949049397
 20
168.6555701214
 11
79.8476143892
 21
168.9356394865
  0
LINE
  5
37F
100
AcDbEntity
  8
0
100
AcDbLine
 62
7
  6
CONTINUOUS
 10
80.5068458877
 20
168.2864327579
 11
80.5826730931
 21
168.0605209674
  0
LINE
  5
380
100
AcDbEntity
  8
0
100
AcDbLine
 62
7
  6
CONTINUOUS
 10
80.8038785057
 20
168.1347684787
 11
80.7280513003
 21
168.3606802693
  0
LINE
  5
381
100
AcDbEntity
  8
0
100
AcDbLine
 62
7
  6
CONTINUOUS
 10
81.7013544577
 20
168.6873690985
 11
81.777181663
 21
168.461457308
  0
LINE
  5
382
100
AcDbEntity
  8
0
100
AcDbLine
 62
7
  6
CONTINUOUS
 10
81.9983865693
 20
168.5357046494
 11
81.922559364
 21
168.76161644
  0
LINE
  5
383
100
AcDbEntity
  8
0
100
AcDbLine
 62
7
  6
CONTINUOUS
 10
81.7802893844
 20
170.5256643846
 11
82.6206912043
 21
167.8547610203
  0
LINE
  5
384
100
AcDbEntity
  8
0
100
AcDbLine
 62
7
  6
CONTINUOUS
 10
82.8432666544
 20
167.9247945587
 11
82.0028648346
 21
170.595697923
  0
LINE
  5
385
100
AcDbEntity
  8
0
100
AcDbLine
 62
7
  6
CONTINUOUS
 10
82.3844220536
 20
170.7138047529
 11
82.4711755669
 21
170.4288455664
  0
LINE
  5
386
100
AcDbEntity
  8
0
100
AcDbLine
 62
7
  6
CONTINUOUS
 10
82.6446826419
 20
169.8589270337
 11
83.199905175
 21
168.0351880803
  0
LINE
  5
387
100
AcDbEntity
  8
0
100
AcDbLine
 62
7
  6
CONTINUOUS
 10
83.4231234013
 20
168.1031450589
 11
82.8679008682
 21
169.9268840123
  0
LINE
  5
388
100
AcDbEntity
  8
0
100
AcDbLine
 62
7
  6
CONTINUOUS
 10
82.6943937932
 20
170.496802545
 11
82.60764028
 21
170.7817617316
  0
LINE
  5
389
100
AcDbEntity
  8
0
100
AcDbLine
 62
7
  6
CONTINUOUS
 10
83.2567766142
 20
170.0464654198
 11
83.7798950946
 21
168.2132597884
  0
LINE
  5
38A
100
AcDbEntity
  8
0
100
AcDbLine
 62
7
  6
CONTINUOUS
 10
84.0042714903
 20
168.2772872151
 11
83.6282800696
 21
169.5949038078
  0
LINE
  5
38B
100
AcDbEntity
  8
0
100
AcDbLine
 62
7
  6
CONTINUOUS
 10
83.5628902652
 20
169.8240544916
 11
83.4811530098
 21
170.1104928465
  0
LINE
  5
38C
100
AcDbEntity
  8
0
100
AcDbLine
 62
7
  6
CONTINUOUS
 10
84.5014261308
 20
169.5962522117
 11
84.8120277472
 21
168.5077863029
  0
LINE
  5
38D
100
AcDbEntity
  8
0
100
AcDbLine
 62
7
  6
CONTINUOUS
 10
85.0364046564
 20
168.5718138761
 11
84.72580304
 21
169.6602797849
  0
LINE
  5
38E
100
AcDbEntity
  8
0
100
AcDbLine
 62
7
  6
CONTINUOUS
 10
84.6981401421
 20
171.3810794983
 11
85.3967591123
 21
168.6696349508
  0
LINE
  5
38F
100
AcDbEntity
  8
0
100
AcDbLine
 62
7
  6
CONTINUOUS
 10
85.6227124798
 20
168.7278531094
 11
85.459205911
 21
169.3624465194
  0
LINE
  5
390
100
AcDbEntity
  8
0
100
AcDbLine
 62
7
  6
CONTINUOUS
 10
85.3700205211
 20
169.7085883352
 11
84.9240935096
 21
171.439297657
  0
LINE
  5
391
100
AcDbEntity
  8
RUNDUNGEN
100
AcDbLine
 62
7
  6
CONTINUOUS
 10
104.5272441008
 20
36.5915207746
 11
104.5272441008
 21
37.5914611517
  0
LINE
  5
392
100
AcDbEntity
  8
RUNDUNGEN
100
AcDbLine
 62
7
  6
CONTINUOUS
 10
104.5272441008
 20
173.9534742397
 11
104.5272441008
 21
174.9533811705
  0
LINE
  5
393
100
AcDbEntity
  8
0
100
AcDbLine
 62
7
  6
CONTINUOUS
 10
105.4522441008
 20
121.4974509726
 11
105.4522441008
 21
118.223128665
  0
LINE
  5
394
100
AcDbEntity
  8
0
100
AcDbLine
 62
7
  6
CONTINUOUS
 10
121.3401812457
 20
169.3193352402
 11
121.3080740154
 21
169.1235155818
  0
LINE
  5
395
100
AcDbEntity
  8
0
100
AcDbLine
 62
7
  6
CONTINUOUS
 10
121.4368549916
 20
169.0838549308
 11
121.4805352458
 21
169.3172519789
  0
LINE
  5
396
100
AcDbEntity
  8
0
100
AcDbLine
 62
7
  6
CONTINUOUS
 10
122.2748867837
 20
169.6074556082
 11
122.231206251
 21
169.3740587034
  0
LINE
  5
397
100
AcDbEntity
  8
0
100
AcDbLine
 62
7
  6
CONTINUOUS
 10
123.5731239065
 20
168.6062601509
 11
123.5341192418
 21
168.4116969248
  0
LINE
  5
398
100
AcDbEntity
  8
0
100
AcDbLine
 62
7
  6
CONTINUOUS
 10
123.6614187978
 20
168.3675117448
 11
123.7133164207
 21
168.5992201824
  0
LINE
  5
399
100
AcDbEntity
  8
0
100
AcDbLine
 62
7
  6
CONTINUOUS
 10
124.5174238227
 20
168.8611816266
 11
124.4655262178
 21
168.629473241
  0
LINE
  5
39A
100
AcDbEntity
  8
0
100
AcDbLine
 62
7
  6
CONTINUOUS
 10
127.0891849555
 20
167.3450771437
 11
127.0093715844
 21
167.0802944091
  0
LINE
  5
39B
100
AcDbEntity
  8
RUNDUNGEN
100
AcDbLine
 62
7
  6
CONTINUOUS
 10
63.4340018279
 20
48.4813859381
 11
64.0217519
 21
49.2903545111
  0
LINE
  5
39C
100
AcDbEntity
  8
RUNDUNGEN
100
AcDbLine
 62
7
  6
CONTINUOUS
 10
144.1733318024
 20
159.609539986
 11
144.7610628484
 21
160.4184823717
  0
LINE
  5
39D
100
AcDbEntity
  8
0
100
AcDbLine
 62
7
  6
CONTINUOUS
 10
153.9947894258
 20
147.1403260352
 11
153.8569618885
 21
146.997568373
  0
LINE
  5
39E
100
AcDbEntity
  8
RUNDUNGEN
100
AcDbLine
 62
7
  6
CONTINUOUS
 10
37.17755787
 20
82.2544906931
 11
38.128557779
 21
82.5634892946
  0
LINE
  5
39F
100
AcDbEntity
  8
RUNDUNGEN
100
AcDbLine
 62
7
  6
CONTINUOUS
 10
167.8165391646
 20
124.7016688115
 11
168.7675068062
 21
125.0106569288
  0
LINE
  5
3A0
100
AcDbEntity
  8
RUNDUNGEN
100
AcDbLine
 62
7
  6
CONTINUOUS
 10
38.1285262329
 20
128.9814229005
 11
37.17755787
 21
129.2904112521
  0
LINE
  5
3A1
100
AcDbEntity
  8
RUNDUNGEN
100
AcDbLine
 62
7
  6
CONTINUOUS
 10
167.8165070922
 20
86.8432435546
 11
168.7675068062
 21
86.5342450164
  0
LINE
  5
3A2
100
AcDbEntity
  8
RUNDUNGEN
100
AcDbLine
 62
7
  6
CONTINUOUS
 10
144.1733125068
 20
51.9353885172
 11
144.7610628484
 21
51.1264195734
  0
LINE
  5
3A3
100
AcDbEntity
  8
RUNDUNGEN
100
AcDbLine
 62
7
  6
CONTINUOUS
 10
64.0217318771
 20
162.2545749932
 11
63.4340018279
 21
163.0635160071
  0
LINE
  5
3A4
100
AcDbEntity
  8
RUNDUNGEN
100
AcDbLine
 62
7
  6
CONTINUOUS
 10
111.2772441008
 20
29.0915207746
 11
111.2772441008
 21
35.4024032655
  0
LINE
  5
3A5
100
AcDbEntity
  8
RUNDUNGEN
100
AcDbLine
 62
7
  6
CONTINUOUS
 10
111.2772441008
 20
176.142395954
 11
111.2772441008
 21
182.4533811705
  0
LINE
  5
3A6
100
AcDbEntity
  8
RUNDUNGEN
100
AcDbLine
 62
7
  6
CONTINUOUS
 10
112.2772441008
 20
149.9777588456
 11
112.2772441008
 21
135.451868522
  0
LINE
  5
3A7
100
AcDbEntity
  8
RUNDUNGEN
100
AcDbLine
 62
7
  6
CONTINUOUS
 10
112.2772441008
 20
76.0930316782
 11
112.2772441008
 21
61.5671430996
  0
LINE
  5
3A8
100
AcDbEntity
  8
0
100
AcDbLine
 62
7
  6
CONTINUOUS
 10
117.8333142325
 20
169.9023421948
 11
117.8354986006
 21
170.023319423
  0
LINE
  5
3A9
100
AcDbEntity
  8
0
100
AcDbLine
 62
7
  6
CONTINUOUS
 10
118.1007604337
 20
170.6462557518
 11
118.1029448018
 21
170.76723298
  0
LINE
  5
3AA
100
AcDbEntity
  8
0
100
AcDbLine
 62
7
  6
CONTINUOUS
 10
118.7852984449
 20
170.719834464
 11
118.787482813
 21
170.8408116922
  0
LINE
  5
3AB
100
AcDbEntity
  8
0
100
AcDbLine
 62
7
  6
CONTINUOUS
 10
120.9652294675
 20
169.4295836526
 11
120.9584500476
 21
169.3087767598
  0
LINE
  5
3AC
100
AcDbEntity
  8
0
100
AcDbLine
 62
7
  6
CONTINUOUS
 10
117.6785365642
 20
170.0621753644
 11
117.6669038646
 21
169.9030310805
  0
LINE
  5
3AD
100
AcDbEntity
  8
0
100
AcDbLine
 62
7
  6
CONTINUOUS
 10
117.9365345087
 20
170.7679218473
 11
117.9249018092
 21
170.6087775634
  0
LINE
  5
3AE
100
AcDbEntity
  8
0
100
AcDbLine
 62
7
  6
CONTINUOUS
 10
121.3080740154
 20
169.1235155818
 11
121.2991119645
 21
169.002851028
  0
LINE
  5
3AF
100
AcDbEntity
  8
0
100
AcDbLine
 62
7
  6
CONTINUOUS
 10
122.40366776
 20
169.5677949571
 11
122.4126295485
 21
169.688459707
  0
LINE
  5
3B0
100
AcDbEntity
  8
0
100
AcDbLine
 62
7
  6
CONTINUOUS
 10
123.5341192418
 20
168.4116969248
 11
123.5208999287
 21
168.2914243758
  0
LINE
  5
3B1
100
AcDbEntity
  8
0
100
AcDbLine
 62
7
  6
CONTINUOUS
 10
124.6447233787
 20
168.8169964466
 11
124.6579427279
 21
168.9372690996
  0
LINE
  5
3B2
100
AcDbEntity
  8
0
100
AcDbLine
 62
7
  6
CONTINUOUS
 10
125.979617419
 20
167.3584214945
 11
125.9973963037
 21
167.4781051641
  0
LINE
  5
3B3
100
AcDbEntity
  8
0
100
AcDbLine
 62
7
  6
CONTINUOUS
 10
126.3408340883
 20
168.0615981214
 11
126.358612973
 21
168.1812817911
  0
LINE
  5
3B4
100
AcDbEntity
  8
0
100
AcDbLine
 62
7
  6
CONTINUOUS
 10
127.0291432811
 20
168.0462172604
 11
127.0469227404
 21
168.1659007058
  0
LINE
  5
3B5
100
AcDbEntity
  8
0
100
AcDbLine
 62
7
  6
CONTINUOUS
 10
122.3715605458
 20
169.3719753514
 11
122.40366776
 21
169.5677949571
  0
LINE
  5
3B6
100
AcDbEntity
  8
0
100
AcDbLine
 62
7
  6
CONTINUOUS
 10
127.1289820879
 20
166.9460401805
 11
127.1489466057
 21
167.065378583
  0
LINE
  5
3B7
100
AcDbEntity
  8
0
100
AcDbLine
 62
7
  6
CONTINUOUS
 10
127.836859553
 20
167.037416704
 11
127.8168950142
 21
166.9180782506
  0
LINE
  5
3B8
100
AcDbEntity
  8
0
100
AcDbLine
 62
7
  6
CONTINUOUS
 10
128.1759444898
 20
167.5781726955
 11
128.1959090077
 21
167.697511098
  0
LINE
  5
3B9
100
AcDbEntity
  8
0
100
AcDbLine
 62
7
  6
CONTINUOUS
 10
124.605718732
 20
168.6224332725
 11
124.6447233787
 21
168.8169964466
  0
LINE
  5
3BA
100
AcDbEntity
  8
0
100
AcDbLine
 62
7
  6
CONTINUOUS
 10
125.8467614574
 20
167.5368931996
 11
125.8146876114
 21
167.3805810002
  0
LINE
  5
3BB
100
AcDbEntity
  8
0
100
AcDbLine
 62
7
  6
CONTINUOUS
 10
126.1936831655
 20
168.2034412968
 11
126.1616093195
 21
168.0471290975
  0
LINE
  5
3BC
100
AcDbEntity
  8
RUNDUNGEN
100
AcDbLine
 62
7
  6
CONTINUOUS
 10
64.4864771477
 20
38.4462080273
 11
68.1959225543
 21
43.55182162
  0
LINE
  5
3BD
100
AcDbEntity
  8
RUNDUNGEN
100
AcDbLine
 62
7
  6
CONTINUOUS
 10
150.9208143774
 20
157.4128670982
 11
154.6303169526
 21
162.5185593766
  0
LINE
  5
3BE
100
AcDbEntity
  8
0
100
AcDbLine
 62
7
  6
CONTINUOUS
 10
155.2078902826
 20
146.9975603809
 11
155.1318602458
 21
146.9034343136
  0
LINE
  5
3BF
100
AcDbEntity
  8
0
100
AcDbLine
 62
7
  6
CONTINUOUS
 10
153.9878595118
 20
146.8948128623
 11
154.0947882518
 21
147.0132546978
  0
LINE
  5
3C0
100
AcDbEntity
  8
0
100
AcDbLine
 62
7
  6
CONTINUOUS
 10
155.2318590719
 20
146.7763629762
 11
155.3696867122
 21
146.9191206857
  0
LINE
  5
3C1
100
AcDbEntity
  8
RUNDUNGEN
100
AcDbLine
 62
7
  6
CONTINUOUS
 10
32.1304987098
 20
73.5172317503
 11
38.1325033905
 21
75.4674012879
  0
LINE
  5
3C2
100
AcDbEntity
  8
RUNDUNGEN
100
AcDbLine
 62
7
  6
CONTINUOUS
 10
171.9841907438
 20
118.958450883
 11
177.9862953905
 21
120.9086529016
  0
LINE
  5
3C3
100
AcDbEntity
  8
RUNDUNGEN
100
AcDbLine
 62
7
  6
CONTINUOUS
 10
72.5978240558
 20
115.7724509726
 11
58.0719362278
 21
115.7724509726
  0
LINE
  5
3C4
100
AcDbEntity
  8
RUNDUNGEN
100
AcDbLine
 62
7
  6
CONTINUOUS
 10
131.9566641164
 20
115.7724509726
 11
146.4825519738
 21
115.7724509726
  0
LINE
  5
3C5
100
AcDbEntity
  8
0
100
AcDbLine
 62
7
  6
CONTINUOUS
 10
99.1022441008
 20
121.4974509726
 11
105.4522441008
 21
121.4974509726
  0
LINE
  5
3C6
100
AcDbEntity
  8
RUNDUNGEN
100
AcDbLine
 62
7
  6
CONTINUOUS
 10
177.9862953905
 20
90.6362490436
 11
171.9842882164
 21
92.5864193914
  0
LINE
  5
3C7
100
AcDbEntity
  8
RUNDUNGEN
100
AcDbLine
 62
7
  6
CONTINUOUS
 10
38.1326012409
 20
136.0774688637
 11
32.1304987098
 21
138.0276701949
  0
LINE
  5
3C8
100
AcDbEntity
  8
RUNDUNGEN
100
AcDbLine
 62
7
  6
CONTINUOUS
 10
154.6303169526
 20
49.0263425686
 11
150.9208750335
 21
54.131951361
  0
LINE
  5
3C9
100
AcDbEntity
  8
RUNDUNGEN
100
AcDbLine
 62
7
  6
CONTINUOUS
 10
68.1959213724
 20
167.993081952
 11
64.4864771477
 21
173.0986939178
  0
LINE
  5
3CA
100
AcDbEntity
  8
0
100
AcDbLine
 62
7
  6
CONTINUOUS
 10
80.5826730931
 20
168.0605209674
 11
80.8038529355
 21
167.6948744713
  0
LINE
  5
3CB
100
AcDbEntity
  8
0
100
AcDbLine
 62
7
  6
CONTINUOUS
 10
80.9239465645
 20
167.9237062016
 11
80.8038785057
 21
168.1347684787
  0
LINE
  5
3CC
100
AcDbEntity
  8
0
100
AcDbLine
 62
7
  6
CONTINUOUS
 10
81.5812858926
 20
168.8984312058
 11
81.7013544577
 21
168.6873690985
  0
LINE
  5
3CD
100
AcDbEntity
  8
0
100
AcDbLine
 62
7
  6
CONTINUOUS
 10
81.922559364
 20
168.76161644
 11
81.8024913052
 21
168.9726787172
  0
LINE
  5
3CE
100
AcDbEntity
  8
0
100
AcDbLine
 62
7
  6
CONTINUOUS
 10
84.374813699
 20
169.8698851105
 11
84.5014261308
 21
169.5962522117
  0
LINE
  5
3CF
100
AcDbEntity
  8
0
100
AcDbLine
 62
7
  6
CONTINUOUS
 10
84.72580304
 20
169.6602797849
 11
84.5991906082
 21
169.9339126837
  0
LINE
  5
3D0
100
AcDbEntity
  8
0
100
AcDbLine
 62
7
  6
CONTINUOUS
 10
118.6748143286
 20
169.93706484
 11
118.6602867144
 21
170.1026851645
  0
LINE
  5
3D1
100
AcDbEntity
  8
0
100
AcDbLine
 62
7
  6
CONTINUOUS
 10
118.6210724451
 20
170.841500578
 11
118.6283363337
 21
170.7586904239
  0
LINE
  5
3D2
100
AcDbEntity
  8
0
100
AcDbLine
 62
7
  6
CONTINUOUS
 10
120.112126121
 20
169.3890778412
 11
120.1203504487
 21
169.2230252032
  0
LINE
  5
3D3
100
AcDbEntity
  8
0
100
AcDbLine
 62
7
  6
CONTINUOUS
 10
120.2757229138
 20
169.1782336071
 11
120.2674985862
 21
169.3442862451
  0
LINE
  5
3D4
100
AcDbEntity
  8
0
100
AcDbLine
 62
7
  6
CONTINUOUS
 10
121.2991119645
 20
169.002851028
 11
121.3043336076
 21
168.8366767645
  0
LINE
  5
3D5
100
AcDbEntity
  8
0
100
AcDbLine
 62
7
  6
CONTINUOUS
 10
122.4126295485
 20
169.688459707
 11
122.4074081921
 21
169.8546338534
  0
LINE
  5
3D6
100
AcDbEntity
  8
0
100
AcDbLine
 62
7
  6
CONTINUOUS
 10
123.5208999287
 20
168.2914243758
 11
123.5202483755
 21
168.1251692702
  0
LINE
  5
3D7
100
AcDbEntity
  8
0
100
AcDbLine
 62
7
  6
CONTINUOUS
 10
124.6579427279
 20
168.9372690996
 11
124.6585942721
 21
169.1035241792
  0
LINE
  5
3D8
100
AcDbEntity
  8
0
100
AcDbLine
 62
7
  6
CONTINUOUS
 10
121.0988187729
 20
169.3092309354
 11
121.1014857287
 21
169.5130642195
  0
LINE
  5
3D9
100
AcDbEntity
  8
0
100
AcDbLine
 62
7
  6
CONTINUOUS
 10
126.8185614179
 20
167.2842524955
 11
126.8255292847
 21
167.4503628267
  0
LINE
  5
3DA
100
AcDbEntity
  8
0
100
AcDbLine
 62
7
  6
CONTINUOUS
 10
126.8819929329
 20
168.1880602116
 11
126.8785084349
 21
168.1050052958
  0
LINE
  5
3DB
100
AcDbEntity
  8
0
100
AcDbLine
 62
7
  6
CONTINUOUS
 10
127.0093715844
 20
167.0802944091
 11
126.9844058872
 21
166.8779781795
  0
LINE
  5
3DC
100
AcDbEntity
  8
0
100
AcDbLine
 62
7
  6
CONTINUOUS
 10
127.9564700564
 20
166.9031624754
 11
127.9814357432
 21
167.1054786795
  0
LINE
  5
3DD
100
AcDbEntity
  8
RUNDUNGEN
100
AcDbLine
 62
7
  6
CONTINUOUS
 10
97.4899406711
 20
28.7825037802
 11
100.0272441008
 21
36.5915207746
  0
LINE
  5
3DE
100
AcDbEntity
  8
RUNDUNGEN
100
AcDbLine
 62
7
  6
CONTINUOUS
 10
141.1204863737
 20
163.0635160071
 11
143.6577898034
 21
170.8725330014
  0
LINE
  5
3DF
100
AcDbEntity
  8
0
100
AcDbLine
 62
7
  6
CONTINUOUS
 10
153.8569618885
 20
146.997568373
 11
153.7666996013
 21
146.8579479599
  0
LINE
  5
3E0
100
AcDbEntity
  8
RUNDUNGEN
100
AcDbLine
 62
7
  6
CONTINUOUS
 10
53.1506787345
 20
46.3001816522
 11
59.7934253532
 21
51.1264195734
  0
LINE
  5
3E1
100
AcDbEntity
  8
RUNDUNGEN
100
AcDbLine
 62
7
  6
CONTINUOUS
 10
167.3769303316
 20
129.2904112521
 11
174.0196769503
 21
134.1166491733
  0
LINE
  5
3E2
100
AcDbEntity
  8
RUNDUNGEN
100
AcDbLine
 62
7
  6
CONTINUOUS
 10
176.9783931843
 20
125.0106569288
 11
168.7675068062
 21
125.0106569288
  0
LINE
  5
3E3
100
AcDbEntity
  8
RUNDUNGEN
100
AcDbLine
 62
7
  6
CONTINUOUS
 10
35.7869813953
 20
125.0106569288
 11
27.5760950173
 21
125.0106569288
  0
LINE
  5
3E4
100
AcDbEntity
  8
RUNDUNGEN
100
AcDbLine
 62
7
  6
CONTINUOUS
 10
174.0196769503
 20
77.4282527718
 11
167.3769303316
 21
82.2544906931
  0
LINE
  5
3E5
100
AcDbEntity
  8
RUNDUNGEN
100
AcDbLine
 62
7
  6
CONTINUOUS
 10
59.7934253532
 20
160.4184823717
 11
53.1506787345
 21
165.244720293
  0
LINE
  5
3E6
100
AcDbEntity
  8
0
100
AcDbLine
 62
7
  6
CONTINUOUS
 10
78.2048647494
 20
168.775509561
 11
78.3134396897
 21
168.6260729405
  0
LINE
  5
3E7
100
AcDbEntity
  8
0
100
AcDbLine
 62
7
  6
CONTINUOUS
 10
78.5741942898
 20
168.7280878341
 11
78.4656193494
 21
168.8775244547
  0
LINE
  5
3E8
100
AcDbEntity
  8
0
100
AcDbLine
 62
7
  6
CONTINUOUS
 10
81.8024913052
 20
168.9726787172
 11
81.7013800411
 21
169.1272630665
  0
LINE
  5
3E9
100
AcDbEntity
  8
0
100
AcDbLine
 62
7
  6
CONTINUOUS
 10
84.5991906082
 20
169.9339126837
 11
84.5052725649
 21
170.092970094
  0
LINE
  5
3EA
100
AcDbEntity
  8
RUNDUNGEN
100
AcDbLine
 62
7
  6
CONTINUOUS
 10
143.6577898034
 20
40.6723689437
 11
141.1204863737
 21
48.4813859381
  0
LINE
  5
3EB
100
AcDbEntity
  8
RUNDUNGEN
100
AcDbLine
 62
7
  6
CONTINUOUS
 10
100.0272441008
 20
174.9533811705
 11
97.4899406711
 21
182.7623981649
  0
LINE
  5
3EC
100
AcDbEntity
  8
0
100
AcDbLine
 62
7
  6
CONTINUOUS
 10
127.0469227404
 20
168.1659007058
 11
127.0287851626
 21
168.3418088422
  0
LINE
  5
3ED
100
AcDbEntity
  8
0
100
AcDbLine
 62
7
  6
CONTINUOUS
 10
123.685901034
 20
168.1092921847
 11
123.6614187978
 21
168.3675117448
  0
LINE
  5
3EE
100
AcDbEntity
  8
0
100
AcDbLine
 62
7
  6
CONTINUOUS
 10
124.4929416136
 20
169.1194012647
 11
124.5174238227
 21
168.8611816266
  0
LINE
  5
3EF
100
AcDbEntity
  8
0
100
AcDbLine
 62
7
  6
CONTINUOUS
 10
126.9844058872
 20
166.8779781795
 11
126.9993245095
 21
166.7017678416
  0
LINE
  5
3F0
100
AcDbEntity
  8
0
100
AcDbLine
 62
7
  6
CONTINUOUS
 10
128.1959090077
 20
167.697511098
 11
128.1809903801
 21
167.8737214232
  0
LINE
  5
3F1
100
AcDbEntity
  8
0
100
AcDbLine
 62
7
  6
CONTINUOUS
 10
126.6463045158
 20
167.4358938028
 11
126.6536316104
 21
167.3064120012
  0
LINE
  5
3F2
100
AcDbEntity
  8
0
100
AcDbLine
 62
7
  6
CONTINUOUS
 10
127.1339408067
 20
166.8164460916
 11
127.1289820879
 21
166.9460401805
  0
LINE
  5
3F3
100
AcDbEntity
  8
0
100
AcDbLine
 62
7
  6
CONTINUOUS
 10
128.0463740881
 20
167.7590431859
 11
128.0513316766
 21
167.6294495919
  0
LINE
  5
3F4
100
AcDbEntity
  8
0
100
AcDbLine
 62
7
  6
CONTINUOUS
 10
125.8146876114
 20
167.3805810002
 11
125.818530213
 21
167.1680442957
  0
LINE
  5
3F5
100
AcDbEntity
  8
0
100
AcDbLine
 62
7
  6
CONTINUOUS
 10
153.9284960525
 20
146.7795082816
 11
153.9878595118
 21
146.8948128623
  0
LINE
  5
3F6
100
AcDbEntity
  8
0
100
AcDbLine
 62
7
  6
CONTINUOUS
 10
155.7558345895
 20
146.8694062493
 11
155.2947494837
 21
145.9799313748
  0
LINE
  5
3F7
100
AcDbEntity
  8
0
100
AcDbLine
 62
7
  6
CONTINUOUS
 10
155.4689567359
 20
146.0103365952
 11
155.8533876314
 21
146.7404478487
  0
LINE
  5
3F8
100
AcDbEntity
  8
0
100
AcDbLine
 62
7
  6
CONTINUOUS
 10
154.6985319957
 20
147.4540767808
 11
154.8245614336
 21
147.4846671946
  0
LINE
  5
3F9
100
AcDbEntity
  8
0
100
AcDbLine
 62
7
  6
CONTINUOUS
 10
158.0020112694
 20
142.5650489718
 11
158.2910417824
 21
142.626984968
  0
LINE
  5
3FA
100
AcDbEntity
  8
0
100
AcDbLine
 62
7
  6
CONTINUOUS
 10
158.216700253
 20
142.7393727357
 11
157.9276700802
 21
142.677436225
  0
LINE
  5
3FB
100
AcDbEntity
  8
0
100
AcDbLine
 62
7
  6
CONTINUOUS
 10
157.8235921432
 20
142.8347787911
 11
158.1126226562
 21
142.8967147873
  0
LINE
  5
3FC
100
AcDbEntity
  8
0
100
AcDbLine
 62
7
  6
CONTINUOUS
 10
158.0382811268
 20
143.009102555
 11
157.7492509541
 21
142.9471660444
  0
LINE
  5
3FD
100
AcDbEntity
  8
0
100
AcDbLine
 62
7
  6
CONTINUOUS
 10
156.276117743
 20
146.1816277642
 11
155.4689567359
 21
146.0103365952
  0
LINE
  5
3FE
100
AcDbEntity
  8
0
100
AcDbLine
 62
7
  6
CONTINUOUS
 10
155.392302572
 20
145.8509729126
 11
156.3736708313
 21
146.0526693021
  0
LINE
  5
3FF
100
AcDbEntity
  8
0
100
AcDbLine
 62
7
  6
CONTINUOUS
 10
80.8038529355
 20
167.6948744713
 11
80.9492053394
 21
167.5551396215
  0
LINE
  5
400
100
AcDbEntity
  8
0
100
AcDbLine
 62
7
  6
CONTINUOUS
 10
81.0692992282
 20
167.783971417
 11
80.9239465645
 21
167.9237062016
  0
LINE
  5
401
100
AcDbEntity
  8
0
100
AcDbLine
 62
7
  6
CONTINUOUS
 10
81.4359334953
 20
169.0381660358
 11
81.5812858926
 21
168.8984312058
  0
LINE
  5
402
100
AcDbEntity
  8
0
100
AcDbLine
 62
7
  6
CONTINUOUS
 10
81.7013800411
 20
169.1272630665
 11
81.5560273907
 21
169.2669978115
  0
LINE
  5
403
100
AcDbEntity
  8
0
100
AcDbLine
 62
7
  6
CONTINUOUS
 10
118.787482813
 20
170.8408116922
 11
118.7467947838
 21
171.0129079689
  0
LINE
  5
404
100
AcDbEntity
  8
0
100
AcDbLine
 62
7
  6
CONTINUOUS
 10
120.1203504487
 20
169.2230252032
 11
120.1544703886
 21
169.0495072554
  0
LINE
  5
405
100
AcDbEntity
  8
0
100
AcDbLine
 62
7
  6
CONTINUOUS
 10
121.1014857287
 20
169.5130642195
 11
121.067365785
 21
169.686582154
  0
LINE
  5
406
100
AcDbEntity
  8
0
100
AcDbLine
 62
7
  6
CONTINUOUS
 10
118.4844280899
 20
170.0652069761
 11
118.5084039607
 21
169.9377537258
  0
LINE
  5
407
100
AcDbEntity
  8
0
100
AcDbLine
 62
7
  6
CONTINUOUS
 10
120.9461132636
 20
169.5578558155
 11
120.9652294675
 21
169.4295836526
  0
LINE
  5
408
100
AcDbEntity
  8
0
100
AcDbLine
 62
7
  6
CONTINUOUS
 10
117.6669038646
 20
169.9030310805
 11
117.6981436273
 21
169.6927676896
  0
LINE
  5
409
100
AcDbEntity
  8
0
100
AcDbLine
 62
7
  6
CONTINUOUS
 10
121.4704437439
 20
168.8266613912
 11
121.4368549916
 21
169.0838549308
  0
LINE
  5
40A
100
AcDbEntity
  8
0
100
AcDbLine
 62
7
  6
CONTINUOUS
 10
122.2412980557
 20
169.8646492267
 11
122.2748867837
 21
169.6074556082
  0
LINE
  5
40B
100
AcDbEntity
  8
0
100
AcDbLine
 62
7
  6
CONTINUOUS
 10
153.7666996013
 20
146.8579479599
 11
153.7097702634
 21
146.6759704473
  0
LINE
  5
40C
100
AcDbEntity
  8
0
100
AcDbLine
 62
7
  6
CONTINUOUS
 10
155.3696867122
 20
146.9191206857
 11
155.4266160034
 21
147.1010982352
  0
LINE
  5
40D
100
AcDbEntity
  8
0
100
AcDbLine
 62
7
  6
CONTINUOUS
 10
154.1597649687
 20
146.104149444
 11
154.3500261024
 21
146.1166984715
  0
LINE
  5
40E
100
AcDbEntity
  8
0
100
AcDbLine
 62
7
  6
CONTINUOUS
 10
154.9766212982
 20
147.6729192384
 11
154.7863602111
 21
147.6603701741
  0
LINE
  5
40F
100
AcDbEntity
  8
0
100
AcDbLine
 62
7
  6
CONTINUOUS
 10
157.5037162815
 20
143.4488764062
 11
157.8222591102
 21
143.4696412077
  0
LINE
  5
410
100
AcDbEntity
  8
0
100
AcDbLine
 62
7
  6
CONTINUOUS
 10
158.0825313132
 20
143.6462822761
 11
157.7639885756
 21
143.6255175365
  0
LINE
  5
411
100
AcDbEntity
  8
0
100
AcDbLine
 62
7
  6
CONTINUOUS
 10
78.4656193494
 20
168.8775244547
 11
78.2484208736
 21
169.04843579
  0
LINE
  5
412
100
AcDbEntity
  8
0
100
AcDbLine
 62
7
  6
CONTINUOUS
 10
86.6620997287
 20
168.9956570924
 11
85.7018181491
 21
169.9171182618
  0
LINE
  5
413
100
AcDbEntity
  8
0
100
AcDbLine
 62
7
  6
CONTINUOUS
 10
85.6108386375
 20
169.7091163245
 11
86.390955274
 21
168.9257951954
  0
LINE
  5
414
100
AcDbEntity
  8
0
100
AcDbLine
 62
7
  6
CONTINUOUS
 10
117.8834505117
 20
169.7684129655
 11
117.8333142325
 21
169.9023421948
  0
LINE
  5
415
100
AcDbEntity
  8
0
100
AcDbLine
 62
7
  6
CONTINUOUS
 10
117.9249018092
 20
170.6087775634
 11
117.9917502401
 21
170.4302052811
  0
LINE
  5
416
100
AcDbEntity
  8
0
100
AcDbLine
 62
7
  6
CONTINUOUS
 10
118.6602867144
 20
170.1026851645
 11
118.5934382835
 21
170.2812574469
  0
LINE
  5
417
100
AcDbEntity
  8
0
100
AcDbLine
 62
7
  6
CONTINUOUS
 10
118.5876483045
 20
170.9307867006
 11
118.6210724451
 21
170.841500578
  0
LINE
  5
418
100
AcDbEntity
  8
0
100
AcDbLine
 62
7
  6
CONTINUOUS
 10
121.3043336076
 20
168.8366767645
 11
121.3468841201
 21
168.7001478826
  0
LINE
  5
419
100
AcDbEntity
  8
0
100
AcDbLine
 62
7
  6
CONTINUOUS
 10
122.4074081921
 20
169.8546338534
 11
122.3648576755
 21
169.9911627221
  0
LINE
  5
41A
100
AcDbEntity
  8
0
100
AcDbLine
 62
7
  6
CONTINUOUS
 10
123.5202483755
 20
168.1251692702
 11
123.5579493465
 21
167.9872224744
  0
LINE
  5
41B
100
AcDbEntity
  8
0
100
AcDbLine
 62
7
  6
CONTINUOUS
 10
124.6585942721
 20
169.1035241792
 11
124.6208932965
 21
169.241470962
  0
LINE
  5
41C
100
AcDbEntity
  8
0
100
AcDbLine
 62
7
  6
CONTINUOUS
 10
126.0120499481
 20
167.2191418621
 11
125.979617419
 21
167.3584214945
  0
LINE
  5
41D
100
AcDbEntity
  8
0
100
AcDbLine
 62
7
  6
CONTINUOUS
 10
126.1616093195
 20
168.0471290975
 11
126.2048528966
 21
167.8614228805
  0
LINE
  5
41E
100
AcDbEntity
  8
0
100
AcDbLine
 62
7
  6
CONTINUOUS
 10
126.8255292847
 20
167.4503628267
 11
126.7822862822
 21
167.6360688195
  0
LINE
  5
41F
100
AcDbEntity
  8
0
100
AcDbLine
 62
7
  6
CONTINUOUS
 10
126.860370857
 20
168.2809134322
 11
126.8819929329
 21
168.1880602116
  0
LINE
  5
420
100
AcDbEntity
  8
0
100
AcDbLine
 62
7
  6
CONTINUOUS
 10
127.8169386157
 20
167.1306496971
 11
127.836859553
 21
167.037416704
  0
LINE
  5
421
100
AcDbEntity
  8
0
100
AcDbLine
 62
7
  6
CONTINUOUS
 10
127.9814357432
 20
167.1054786795
 11
127.9515549076
 21
167.2453279344
  0
LINE
  5
422
100
AcDbEntity
  8
0
100
AcDbLine
 62
7
  6
CONTINUOUS
 10
153.9166978403
 20
146.6673409538
 11
153.9284960525
 21
146.7795082816
  0
LINE
  5
423
100
AcDbEntity
  8
0
100
AcDbLine
 62
7
  6
CONTINUOUS
 10
154.3118249015
 20
146.292401468
 11
154.2000278633
 21
146.3073054776
  0
LINE
  5
424
100
AcDbEntity
  8
0
100
AcDbLine
 62
7
  6
CONTINUOUS
 10
78.07453592
 20
168.8524639713
 11
78.2048647494
 21
168.775509561
  0
LINE
  5
425
100
AcDbEntity
  8
0
100
AcDbLine
 62
7
  6
CONTINUOUS
 10
80.9492053394
 20
167.5551396215
 11
81.0756009453
 21
167.4718827094
  0
LINE
  5
426
100
AcDbEntity
  8
0
100
AcDbLine
 62
7
  6
CONTINUOUS
 10
81.1956948307
 20
167.7007145148
 11
81.0692992282
 21
167.783971417
  0
LINE
  5
427
100
AcDbEntity
  8
0
100
AcDbLine
 62
7
  6
CONTINUOUS
 10
81.3095378928
 20
169.121422938
 11
81.4359334953
 21
169.0381660358
  0
LINE
  5
428
100
AcDbEntity
  8
0
100
AcDbLine
 62
7
  6
CONTINUOUS
 10
81.5560273907
 20
169.2669978115
 11
81.429631535
 21
169.3502546287
  0
LINE
  5
429
100
AcDbEntity
  8
0
100
AcDbLine
 62
7
  6
CONTINUOUS
 10
84.2523679304
 20
169.9588493938
 11
84.374813699
 21
169.8698851105
  0
LINE
  5
42A
100
AcDbEntity
  8
0
100
AcDbLine
 62
7
  6
CONTINUOUS
 10
84.5052725649
 20
170.092970094
 11
84.3828273099
 21
170.1819345239
  0
LINE
  5
42B
100
AcDbEntity
  8
0
100
AcDbLine
 62
7
  6
CONTINUOUS
 10
120.3316260019
 20
169.0802767408
 11
120.2757229138
 21
169.1782336071
  0
LINE
  5
42C
100
AcDbEntity
  8
0
100
AcDbLine
 62
7
  6
CONTINUOUS
 10
121.5245666948
 20
168.7277100939
 11
121.4704437439
 21
168.8266613912
  0
LINE
  5
42D
100
AcDbEntity
  8
0
100
AcDbLine
 62
7
  6
CONTINUOUS
 10
118.7467947838
 20
171.0129079689
 11
118.670498246
 21
171.15331314
  0
LINE
  5
42E
100
AcDbEntity
  8
0
100
AcDbLine
 62
7
  6
CONTINUOUS
 10
123.7364949677
 20
168.0084906134
 11
123.685901034
 21
168.1092921847
  0
LINE
  5
42F
100
AcDbEntity
  8
0
100
AcDbLine
 62
7
  6
CONTINUOUS
 10
127.1787838503
 20
166.712957907
 11
127.1339408067
 21
166.8164460916
  0
LINE
  5
430
100
AcDbEntity
  8
0
100
AcDbLine
 62
7
  6
CONTINUOUS
 10
127.0287851626
 20
168.3418088422
 11
126.9712460495
 21
168.4908867538
  0
LINE
  5
431
100
AcDbEntity
  8
0
100
AcDbLine
 62
7
  6
CONTINUOUS
 10
153.7097702634
 20
146.6759704473
 11
153.7146385438
 21
146.5426245637
  0
LINE
  5
432
100
AcDbEntity
  8
0
100
AcDbLine
 62
7
  6
CONTINUOUS
 10
155.4266160034
 20
147.1010982352
 11
155.4217477388
 21
147.2344440821
  0
LINE
  5
433
100
AcDbEntity
  8
0
100
AcDbLine
 62
7
  6
CONTINUOUS
 10
155.2196884731
 20
147.1097276918
 11
155.2078902826
 21
146.9975603809
  0
LINE
  5
434
100
AcDbEntity
  8
0
100
AcDbLine
 62
7
  6
CONTINUOUS
 10
126.3530792855
 20
166.8328044119
 11
126.4820920596
 21
166.8668696067
  0
LINE
  5
435
100
AcDbEntity
  8
0
100
AcDbLine
 62
7
  6
CONTINUOUS
 10
126.6197649332
 20
168.6280587617
 11
126.4907521629
 21
168.5939935764
  0
LINE
  5
436
100
AcDbEntity
  8
0
100
AcDbLine
 62
7
  6
CONTINUOUS
 10
154.8245614336
 20
147.4846671946
 11
154.9363584501
 21
147.469763168
  0
LINE
  5
437
100
AcDbEntity
  8
0
100
AcDbLine
 62
7
  6
CONTINUOUS
 10
81.0756009453
 20
167.4718827094
 11
81.183040008
 21
167.4451038151
  0
LINE
  5
438
100
AcDbEntity
  8
0
100
AcDbLine
 62
7
  6
CONTINUOUS
 10
154.0313014889
 20
146.1402320003
 11
154.1597649687
 21
146.104149444
  0
LINE
  5
439
100
AcDbEntity
  8
0
100
AcDbLine
 62
7
  6
CONTINUOUS
 10
155.1050847937
 20
147.6368366455
 11
154.9766212982
 21
147.6729192384
  0
LINE
  5
43A
100
AcDbEntity
  8
0
100
AcDbLine
 62
7
  6
CONTINUOUS
 10
78.2484208736
 20
169.04843579
 11
78.0094686332
 21
169.1468649636
  0
LINE
  5
43B
100
AcDbEntity
  8
0
100
AcDbLine
 62
7
  6
CONTINUOUS
 10
84.3828273099
 20
170.1819345239
 11
84.215506365
 21
170.2580933512
  0
LINE
  5
43C
100
AcDbEntity
  8
0
100
AcDbLine
 62
7
  6
CONTINUOUS
 10
117.9917502401
 20
170.4302052811
 11
118.0774950346
 21
170.3279671841
  0
LINE
  5
43D
100
AcDbEntity
  8
0
100
AcDbLine
 62
7
  6
CONTINUOUS
 10
118.5934382835
 20
170.2812574469
 11
118.5076933393
 21
170.3834955809
  0
LINE
  5
43E
100
AcDbEntity
  8
0
100
AcDbLine
 62
7
  6
CONTINUOUS
 10
117.6981436273
 20
169.6927676896
 11
117.8006005644
 21
169.5458865027
  0
LINE
  5
43F
100
AcDbEntity
  8
0
100
AcDbLine
 62
7
  6
CONTINUOUS
 10
120.1544703886
 20
169.0495072554
 11
120.2512728221
 21
168.8988392845
  0
LINE
  5
440
100
AcDbEntity
  8
0
100
AcDbLine
 62
7
  6
CONTINUOUS
 10
121.067365785
 20
169.686582154
 11
120.9705633486
 21
169.837250115
  0
LINE
  5
441
100
AcDbEntity
  8
0
100
AcDbLine
 62
7
  6
CONTINUOUS
 10
126.2048528966
 20
167.8614228805
 11
126.2766858217
 21
167.7489739471
  0
LINE
  5
442
100
AcDbEntity
  8
0
100
AcDbLine
 62
7
  6
CONTINUOUS
 10
126.7822862822
 20
167.6360688195
 11
126.7104533571
 21
167.7485177529
  0
LINE
  5
443
100
AcDbEntity
  8
0
100
AcDbLine
 62
7
  6
CONTINUOUS
 10
118.1603449761
 20
170.5504936235
 11
118.1007604337
 21
170.6462557518
  0
LINE
  5
444
100
AcDbEntity
  8
0
100
AcDbLine
 62
7
  6
CONTINUOUS
 10
118.4248435475
 20
170.1609691045
 11
118.4844280899
 21
170.0652069761
  0
LINE
  5
445
100
AcDbEntity
  8
0
100
AcDbLine
 62
7
  6
CONTINUOUS
 10
121.3468841201
 20
168.7001478826
 11
121.4409472009
 21
168.5477546892
  0
LINE
  5
446
100
AcDbEntity
  8
0
100
AcDbLine
 62
7
  6
CONTINUOUS
 10
122.3648576755
 20
169.9911627221
 11
122.2707948864
 21
170.1435558149
  0
LINE
  5
447
100
AcDbEntity
  8
0
100
AcDbLine
 62
7
  6
CONTINUOUS
 10
120.8902101755
 20
169.6558126818
 11
120.9461132636
 21
169.5578558155
  0
LINE
  5
448
100
AcDbEntity
  8
0
100
AcDbLine
 62
7
  6
CONTINUOUS
 10
123.5579493465
 20
167.9872224744
 11
123.6465700245
 21
167.8316016503
  0
LINE
  5
449
100
AcDbEntity
  8
0
100
AcDbLine
 62
7
  6
CONTINUOUS
 10
124.6208932965
 20
169.241470962
 11
124.5322726151
 21
169.3970917764
  0
LINE
  5
44A
100
AcDbEntity
  8
0
100
AcDbLine
 62
7
  6
CONTINUOUS
 10
122.1871748101
 20
169.9636006148
 11
122.2412980557
 21
169.8646492267
  0
LINE
  5
44B
100
AcDbEntity
  8
0
100
AcDbLine
 62
7
  6
CONTINUOUS
 10
125.818530213
 20
167.1680442957
 11
125.9011741722
 21
167.0091687423
  0
LINE
  5
44C
100
AcDbEntity
  8
0
100
AcDbLine
 62
7
  6
CONTINUOUS
 10
124.4423476799
 20
169.2202028361
 11
124.4929416136
 21
169.1194012647
  0
LINE
  5
44D
100
AcDbEntity
  8
0
100
AcDbLine
 62
7
  6
CONTINUOUS
 10
126.9993245095
 20
166.7017678416
 11
127.0790495537
 21
166.5414081941
  0
LINE
  5
44E
100
AcDbEntity
  8
0
100
AcDbLine
 62
7
  6
CONTINUOUS
 10
127.9515549076
 20
167.2453279344
 11
127.8718287186
 21
167.4056880418
  0
LINE
  5
44F
100
AcDbEntity
  8
0
100
AcDbLine
 62
7
  6
CONTINUOUS
 10
128.1809903801
 20
167.8737214232
 11
128.101264191
 21
168.0340815306
  0
LINE
  5
450
100
AcDbEntity
  8
0
100
AcDbLine
 62
7
  6
CONTINUOUS
 10
126.3875615888
 20
167.9589470444
 11
126.3408340883
 21
168.0615981214
  0
LINE
  5
451
100
AcDbEntity
  8
0
100
AcDbLine
 62
7
  6
CONTINUOUS
 10
126.5995770154
 20
167.5385448799
 11
126.6463045158
 21
167.4358938028
  0
LINE
  5
452
100
AcDbEntity
  8
0
100
AcDbLine
 62
7
  6
CONTINUOUS
 10
127.772095572
 20
167.2341378817
 11
127.8169386157
 21
167.1306496971
  0
LINE
  5
453
100
AcDbEntity
  8
0
100
AcDbLine
 62
7
  6
CONTINUOUS
 10
128.0015310445
 20
167.8625313705
 11
128.0463740881
 21
167.7590431859
  0
LINE
  5
454
100
AcDbEntity
  8
RUNDUNGEN
100
AcDbLine
 62
7
  6
CONTINUOUS
 10
167.668734818
 20
62.7953563995
 11
167.1056811154
 21
68.3075064953
  0
LINE
  5
455
100
AcDbEntity
  8
RUNDUNGEN
100
AcDbLine
 62
7
  6
CONTINUOUS
 10
167.1056811243
 20
143.2373955362
 11
167.668734818
 21
148.7495455457
  0
LINE
  5
456
100
AcDbEntity
  8
RUNDUNGEN
100
AcDbLine
 62
7
  6
CONTINUOUS
 10
129.9187690021
 20
32.5670972251
 11
132.7032095227
 21
37.3574749907
  0
LINE
  5
457
100
AcDbEntity
  8
RUNDUNGEN
100
AcDbLine
 62
7
  6
CONTINUOUS
 10
176.745893264
 20
97.9770286063
 11
180.441373755
 21
102.105496982
  0
LINE
  5
458
100
AcDbEntity
  8
RUNDUNGEN
100
AcDbLine
 62
7
  6
CONTINUOUS
 10
81.6106801747
 20
30.3007950237
 11
86.6790532798
 21
32.539638972
  0
LINE
  5
459
100
AcDbEntity
  8
RUNDUNGEN
100
AcDbLine
 62
7
  6
CONTINUOUS
 10
46.6128756815
 20
155.8506538814
 11
41.1965163365
 21
154.6828017375
  0
LINE
  5
45A
100
AcDbEntity
  8
0
100
AcDbLine
 62
7
  6
CONTINUOUS
 10
118.2737240819
 20
171.0084986206
 11
118.3616533942
 21
171.0272377148
  0
LINE
  5
45B
100
AcDbEntity
  8
0
100
AcDbLine
 62
7
  6
CONTINUOUS
 10
118.3020161917
 20
169.6647970599
 11
118.1879264776
 21
169.6525339714
  0
LINE
  5
45C
100
AcDbEntity
  8
0
100
AcDbLine
 62
7
  6
CONTINUOUS
 10
126.5591011646
 20
168.398489503
 11
126.648713549
 21
168.405724015
  0
LINE
  5
45D
100
AcDbEntity
  8
0
100
AcDbLine
 62
7
  6
CONTINUOUS
 10
120.6941618527
 20
168.9757629881
 11
120.5796887358
 21
168.9678434896
  0
LINE
  5
45E
100
AcDbEntity
  8
0
100
AcDbLine
 62
7
  6
CONTINUOUS
 10
120.5276743247
 20
169.7603264345
 11
120.6421477379
 21
169.7682458476
  0
LINE
  5
45F
100
AcDbEntity
  8
0
100
AcDbLine
 62
7
  6
CONTINUOUS
 10
127.5027757956
 20
166.5796385396
 11
127.4130461278
 21
166.5740435132
  0
LINE
  5
460
100
AcDbEntity
  8
0
100
AcDbLine
 62
7
  6
CONTINUOUS
 10
127.4481036267
 20
167.3674572491
 11
127.5378332945
 21
167.3730522755
  0
LINE
  5
461
100
AcDbEntity
  8
0
100
AcDbLine
 62
7
  6
CONTINUOUS
 10
127.7024612055
 20
167.9855955464
 11
127.7921908733
 21
167.9911905727
  0
LINE
  5
462
100
AcDbEntity
  8
0
100
AcDbLine
 62
7
  6
CONTINUOUS
 10
81.183040008
 20
167.4451038151
 11
81.3789608306
 21
167.4480237895
  0
LINE
  5
463
100
AcDbEntity
  8
0
100
AcDbLine
 62
7
  6
CONTINUOUS
 10
81.3916159115
 20
167.7036345593
 11
81.1956948307
 21
167.7007145148
  0
LINE
  5
464
100
AcDbEntity
  8
0
100
AcDbLine
 62
7
  6
CONTINUOUS
 10
126.4137424883
 20
167.0623739172
 11
126.2990246792
 21
167.0649372617
  0
LINE
  5
465
100
AcDbEntity
  8
0
100
AcDbLine
 62
7
  6
CONTINUOUS
 10
77.922453326
 20
168.85693622
 11
78.07453592
 21
168.8524639713
  0
LINE
  5
466
100
AcDbEntity
  8
0
100
AcDbLine
 62
7
  6
CONTINUOUS
 10
84.215506365
 20
170.2580933512
 11
84.0645328711
 21
170.2769645075
  0
LINE
  5
467
100
AcDbEntity
  8
RUNDUNGEN
100
AcDbLine
 62
7
  6
CONTINUOUS
 10
163.3579718651
 20
154.6828017375
 11
157.9416124348
 21
155.8506538998
  0
LINE
  5
468
100
AcDbEntity
  8
0
100
AcDbLine
 62
7
  6
CONTINUOUS
 10
81.429631535
 20
169.3502546287
 11
81.3221927272
 21
169.377033603
  0
LINE
  5
469
100
AcDbEntity
  8
0
100
AcDbLine
 62
7
  6
CONTINUOUS
 10
84.1462701265
 20
169.9905261527
 11
84.2523679304
 21
169.9588493938
  0
LINE
  5
46A
100
AcDbEntity
  8
RUNDUNGEN
100
AcDbLine
 62
7
  6
CONTINUOUS
 10
86.6790532765
 20
179.0052629746
 11
81.6106801747
 21
181.2441069214
  0
LINE
  5
46B
100
AcDbEntity
  8
0
100
AcDbLine
 62
7
  6
CONTINUOUS
 10
154.2000278633
 20
146.3073054776
 11
154.1024631457
 21
146.3677039219
  0
LINE
  5
46C
100
AcDbEntity
  8
0
100
AcDbLine
 62
7
  6
CONTINUOUS
 10
117.9786437125
 20
169.7043419057
 11
117.8834505117
 21
169.7684129655
  0
LINE
  5
46D
100
AcDbEntity
  8
0
100
AcDbLine
 62
7
  6
CONTINUOUS
 10
118.0774950346
 20
170.3279671841
 11
118.1726882354
 21
170.2638961243
  0
LINE
  5
46E
100
AcDbEntity
  8
0
100
AcDbLine
 62
7
  6
CONTINUOUS
 10
118.3296503467
 20
170.2250401643
 11
118.4248435475
 21
170.1609691045
  0
LINE
  5
46F
100
AcDbEntity
  8
0
100
AcDbLine
 62
7
  6
CONTINUOUS
 10
120.4243162707
 20
169.0126350857
 11
120.3316260019
 21
169.0802767408
  0
LINE
  5
470
100
AcDbEntity
  8
0
100
AcDbLine
 62
7
  6
CONTINUOUS
 10
120.7975202031
 20
169.7234542515
 11
120.8902101755
 21
169.6558126818
  0
LINE
  5
471
100
AcDbEntity
  8
0
100
AcDbLine
 62
7
  6
CONTINUOUS
 10
118.2293777751
 20
170.4928985693
 11
118.1603449761
 21
170.5504936235
  0
LINE
  5
472
100
AcDbEntity
  8
0
100
AcDbLine
 62
7
  6
CONTINUOUS
 10
118.5186155055
 20
170.9883817548
 11
118.5876483045
 21
170.9307867006
  0
LINE
  5
473
100
AcDbEntity
  8
0
100
AcDbLine
 62
7
  6
CONTINUOUS
 10
126.0981784092
 20
167.1433212341
 11
126.0120499481
 21
167.2191418621
  0
LINE
  5
474
100
AcDbEntity
  8
0
100
AcDbLine
 62
7
  6
CONTINUOUS
 10
126.2766858217
 20
167.7489739471
 11
126.3628142827
 21
167.673153319
  0
LINE
  5
475
100
AcDbEntity
  8
0
100
AcDbLine
 62
7
  6
CONTINUOUS
 10
126.513449129
 20
167.6143652836
 11
126.5995770154
 21
167.5385448799
  0
LINE
  5
476
100
AcDbEntity
  8
0
100
AcDbLine
 62
7
  6
CONTINUOUS
 10
126.4485840506
 20
167.892924497
 11
126.3875615888
 21
167.9589470444
  0
LINE
  5
477
100
AcDbEntity
  8
0
100
AcDbLine
 62
7
  6
CONTINUOUS
 10
126.7993483952
 20
168.3469359796
 11
126.860370857
 21
168.2809134322
  0
LINE
  5
478
100
AcDbEntity
  8
RUNDUNGEN
100
AcDbLine
 62
7
  6
CONTINUOUS
 10
180.441373755
 20
109.4394049631
 11
176.7458932061
 21
113.5678734035
  0
LINE
  5
479
100
AcDbEntity
  8
0
100
AcDbLine
 62
7
  6
CONTINUOUS
 10
127.238589102
 20
166.6458307927
 11
127.1787838503
 21
166.712957907
  0
LINE
  5
47A
100
AcDbEntity
  8
0
100
AcDbLine
 62
7
  6
CONTINUOUS
 10
127.7122903203
 20
167.301264996
 11
127.772095572
 21
167.2341378817
  0
LINE
  5
47B
100
AcDbEntity
  8
0
100
AcDbLine
 62
7
  6
CONTINUOUS
 10
127.9417257928
 20
167.9296584848
 11
128.0015310445
 21
167.8625313705
  0
LINE
  5
47C
100
AcDbEntity
  8
RUNDUNGEN
100
AcDbLine
 62
7
  6
CONTINUOUS
 10
132.7032094791
 20
174.1874270294
 11
129.9187690021
 21
178.9778047201
  0
LINE
  5
47D
100
AcDbEntity
  8
0
100
AcDbLine
 62
7
  6
CONTINUOUS
 10
153.9524649305
 20
146.5583108977
 11
153.9166978403
 21
146.6673409538
  0
LINE
  5
47E
100
AcDbEntity
  8
RUNDUNGEN
100
AcDbLine
 62
7
  6
CONTINUOUS
 10
167.1037431088
 20
68.6934090608
 11
167.1056810474
 21
68.3075071511
  0
LINE
  5
47F
100
AcDbEntity
  8
RUNDUNGEN
100
AcDbLine
 62
7
  6
CONTINUOUS
 10
167.1037431663
 20
142.8514928815
 11
167.1056811023
 21
143.2373947884
  0
LWPOLYLINE
  5
480
100
AcDbEntity
  8
RUNDUNGEN
100
AcDbPolyline
 62
7
  6
CONTINUOUS
 90
3
 70
0
 10
168.7675068062
 20
86.5342450164
 10
168.7703846056
 20
86.5538179164
 10
168.895751107
 20
87.3404230924
  0
LINE
  5
481
100
AcDbEntity
  8
RUNDUNGEN
100
AcDbLine
 62
7
  6
CONTINUOUS
 10
168.895751107
 20
87.3404230924
 11
168.9258912466
 21
87.5342450164
  0
LINE
  5
482
100
AcDbEntity
  8
RUNDUNGEN
100
AcDbLine
 62
7
  6
CONTINUOUS
 10
156.4071111821
 20
54.1342098466
 11
155.5637180733
 21
49.9372193138
  0
LINE
  5
483
100
AcDbEntity
  8
RUNDUNGEN
100
AcDbLine
 62
7
  6
CONTINUOUS
 10
156.4036050661
 20
54.1329527583
 11
156.5156500801
 21
54.5024669342
  0
LINE
  5
484
100
AcDbEntity
  8
RUNDUNGEN
100
AcDbLine
 62
7
  6
CONTINUOUS
 10
176.4193254016
 20
115.7350058962
 11
176.2927767379
 21
115.3702042244
  0
LINE
  5
485
100
AcDbEntity
  8
RUNDUNGEN
100
AcDbLine
 62
7
  6
CONTINUOUS
 10
178.2060292932
 20
119.6230909833
 11
176.4214230852
 21
115.731928077
  0
LWPOLYLINE
  5
486
100
AcDbEntity
  8
RUNDUNGEN
100
AcDbPolyline
 62
7
  6
CONTINUOUS
 90
3
 70
0
 10
167.3769303316
 20
82.2544906931
 10
167.368145023
 20
82.2367650479
 10
167.0058400276
 20
81.527399449
  0
LINE
  5
487
100
AcDbEntity
  8
RUNDUNGEN
100
AcDbLine
 62
7
  6
CONTINUOUS
 10
167.0058400276
 20
81.527399449
 11
166.9172807831
 21
81.3523776605
  0
LINE
  5
488
100
AcDbEntity
  8
RUNDUNGEN
100
AcDbLine
 62
7
  6
CONTINUOUS
 10
132.9284694793
 20
37.6708158561
 11
132.7032098532
 21
37.3574755613
  0
LINE
  5
489
100
AcDbEntity
  8
RUNDUNGEN
100
AcDbLine
 62
7
  6
CONTINUOUS
 10
176.5174975338
 20
97.6659659036
 11
176.7458928067
 21
97.9770280142
  0
LWPOLYLINE
  5
48A
100
AcDbEntity
  8
RUNDUNGEN
100
AcDbPolyline
 62
7
  6
CONTINUOUS
 90
3
 70
0
 10
144.7610628484
 20
51.1264195734
 10
144.7748956989
 20
51.1405628541
 10
145.3386742509
 20
51.7032512287
  0
LINE
  5
48B
100
AcDbEntity
  8
RUNDUNGEN
100
AcDbLine
 62
7
  6
CONTINUOUS
 10
145.3386742509
 20
51.7032512287
 11
145.4769838045
 21
51.8423405296
  0
LINE
  5
48C
100
AcDbEntity
  8
RUNDUNGEN
100
AcDbLine
 62
7
  6
CONTINUOUS
 10
115.7170298846
 20
32.179498763
 11
112.5677813875
 21
29.279796128
  0
LINE
  5
48D
100
AcDbEntity
  8
RUNDUNGEN
100
AcDbLine
 62
7
  6
CONTINUOUS
 10
115.7134544792
 20
32.1805426005
 11
116.0212957829
 21
32.4136274417
  0
LINE
  5
48E
100
AcDbEntity
  8
RUNDUNGEN
100
AcDbLine
 62
7
  6
CONTINUOUS
 10
168.1152907307
 20
70.2527052503
 11
167.7984856685
 21
70.0319579364
  0
LINE
  5
48F
100
AcDbEntity
  8
RUNDUNGEN
100
AcDbLine
 62
7
  6
CONTINUOUS
 10
171.8461236168
 20
72.3480339636
 11
168.1151786957
 21
70.2489822548
  0
LWPOLYLINE
  5
490
100
AcDbEntity
  8
RUNDUNGEN
100
AcDbPolyline
 62
7
  6
CONTINUOUS
 90
3
 70
0
 10
141.1204863737
 20
48.4813859381
 10
141.1029600369
 20
48.4722094648
 10
140.392894501
 20
48.1112781731
  0
LINE
  5
491
100
AcDbEntity
  8
RUNDUNGEN
100
AcDbLine
 62
7
  6
CONTINUOUS
 10
140.392894501
 20
48.1112781731
 11
140.2183733411
 21
48.0217363897
  0
LINE
  5
492
100
AcDbEntity
  8
RUNDUNGEN
100
AcDbLine
 62
7
  6
CONTINUOUS
 10
87.045469552
 20
32.6607325763
 11
86.6790538821
 21
32.5396392389
  0
LINE
  5
493
100
AcDbEntity
  8
RUNDUNGEN
100
AcDbLine
 62
7
  6
CONTINUOUS
 10
157.5739984233
 20
55.5768406927
 11
157.9416118017
 21
55.6942478534
  0
LINE
  5
494
100
AcDbEntity
  8
0
100
AcDbLine
 62
7
  6
CONTINUOUS
 10
85.3967591123
 20
168.6696349508
 11
85.6227124798
 21
168.7278531094
  0
LINE
  5
495
100
AcDbEntity
  8
0
100
AcDbLine
 62
7
  6
CONTINUOUS
 10
86.390955274
 20
168.9257951954
 11
86.6620997287
 21
168.9956570924
  0
LINE
  5
496
100
AcDbEntity
  8
0
100
AcDbLine
 62
7
  6
CONTINUOUS
 10
86.0056809601
 20
170.7951722519
 11
85.7345370225
 21
170.7253104881
  0
LINE
  5
497
100
AcDbEntity
  8
0
100
AcDbLine
 62
7
  6
CONTINUOUS
 10
84.9240935096
 20
171.439297657
 11
84.6981401421
 21
171.3810794983
  0
LWPOLYLINE
  5
498
100
AcDbEntity
  8
RUNDUNGEN
100
AcDbPolyline
 62
7
  6
CONTINUOUS
 90
3
 70
0
 10
100.0272441008
 20
174.9533811705
 10
100.0077398778
 20
174.9500697617
 10
99.22089352
 20
174.8262260225
  0
LINE
  5
499
100
AcDbEntity
  8
RUNDUNGEN
100
AcDbLine
 62
7
  6
CONTINUOUS
 10
99.22089352
 20
174.8262260225
 11
99.0272441008
 21
174.7949967302
  0
LINE
  5
49A
100
AcDbEntity
  8
0
100
AcDbLine
 62
7
  6
CONTINUOUS
 10
78.0094686332
 20
169.1468649636
 11
77.7704677977
 21
169.1173322316
  0
LINE
  5
49B
100
AcDbEntity
  8
RUNDUNGEN
100
AcDbLine
 62
7
  6
CONTINUOUS
 10
134.6610809823
 20
173.210107854
 11
138.9132789809
 21
173.704934742
  0
LINE
  5
49C
100
AcDbEntity
  8
0
100
AcDbLine
 62
7
  6
CONTINUOUS
 10
118.4183429339
 20
171.2562401598
 11
118.3042532199
 21
171.2439770713
  0
LINE
  5
49D
100
AcDbEntity
  8
0
100
AcDbLine
 62
7
  6
CONTINUOUS
 10
118.1312369313
 20
169.4235314996
 11
118.2714868983
 21
169.4293186228
  0
LINE
  5
49E
100
AcDbEntity
  8
RUNDUNGEN
100
AcDbLine
 62
7
  6
CONTINUOUS
 10
134.6633599937
 20
173.2071618012
 11
134.2773073153
 21
173.1995367819
  0
LINE
  5
49F
100
AcDbEntity
  8
0
100
AcDbLine
 62
7
  6
CONTINUOUS
 10
81.1136168186
 20
169.1185028737
 11
81.3095378928
 21
169.121422938
  0
LINE
  5
4A0
100
AcDbEntity
  8
0
100
AcDbLine
 62
7
  6
CONTINUOUS
 10
81.3221927272
 20
169.377033603
 11
81.1262719062
 21
169.3741136237
  0
LINE
  5
4A1
100
AcDbEntity
  8
0
100
AcDbLine
 62
7
  6
CONTINUOUS
 10
120.5252308671
 20
168.7789407925
 11
120.665599297
 21
168.7793950568
  0
LINE
  5
4A2
100
AcDbEntity
  8
0
100
AcDbLine
 62
7
  6
CONTINUOUS
 10
120.696605599
 20
169.9571485183
 11
120.5562368737
 21
169.9566943427
  0
LINE
  5
4A3
100
AcDbEntity
  8
0
100
AcDbLine
 62
7
  6
CONTINUOUS
 10
121.7821292368
 20
168.6483886102
 11
121.6417755315
 21
168.6504717807
  0
LINE
  5
4A4
100
AcDbEntity
  8
0
100
AcDbLine
 62
7
  6
CONTINUOUS
 10
121.9296122681
 20
170.0429220985
 11
122.0699665629
 21
170.0408387464
  0
LINE
  5
4A5
100
AcDbEntity
  8
RUNDUNGEN
100
AcDbLine
 62
7
  6
CONTINUOUS
 10
69.8911282209
 20
173.2071619139
 11
70.2771809198
 21
173.1995368418
  0
LINE
  5
4A6
100
AcDbEntity
  8
0
100
AcDbLine
 62
7
  6
CONTINUOUS
 10
126.7344833169
 20
168.625495193
 11
126.6197649332
 21
168.6280587617
  0
LINE
  5
4A7
100
AcDbEntity
  8
0
100
AcDbLine
 62
7
  6
CONTINUOUS
 10
83.9504209426
 20
169.9965917065
 11
84.1462701265
 21
169.9905261527
  0
LINE
  5
4A8
100
AcDbEntity
  8
0
100
AcDbLine
 62
7
  6
CONTINUOUS
 10
123.9910940797
 20
167.9201202533
 11
123.8509015655
 21
167.9271602219
  0
LINE
  5
4A9
100
AcDbEntity
  8
0
100
AcDbLine
 62
7
  6
CONTINUOUS
 10
124.1877485679
 20
169.3085731961
 11
124.3279410821
 21
169.3015332275
  0
LINE
  5
4AA
100
AcDbEntity
  8
0
100
AcDbLine
 62
7
  6
CONTINUOUS
 10
121.5839118781
 20
168.4625843514
 11
121.7500220155
 21
168.4525689814
  0
LINE
  5
4AB
100
AcDbEntity
  8
0
100
AcDbLine
 62
7
  6
CONTINUOUS
 10
122.1278302081
 20
170.2287261493
 11
121.9617200718
 21
170.2387415226
  0
LINE
  5
4AC
100
AcDbEntity
  8
0
100
AcDbLine
 62
7
  6
CONTINUOUS
 10
126.2132549013
 20
166.845166058
 11
126.3530792855
 21
166.8328044119
  0
LINE
  5
4AD
100
AcDbEntity
  8
0
100
AcDbLine
 62
7
  6
CONTINUOUS
 10
123.7864367655
 20
167.7414341387
 11
123.9520894251
 21
167.7255570564
  0
LINE
  5
4AE
100
AcDbEntity
  8
0
100
AcDbLine
 62
7
  6
CONTINUOUS
 10
124.3924058731
 20
169.4872592847
 11
124.2267532146
 21
169.5031363702
  0
LINE
  5
4AF
100
AcDbEntity
  8
0
100
AcDbLine
 62
7
  6
CONTINUOUS
 10
127.3133129708
 20
166.4024933277
 11
127.4528868525
 21
166.3875779742
  0
LINE
  5
4B0
100
AcDbEntity
  8
0
100
AcDbLine
 62
7
  6
CONTINUOUS
 10
127.637566441
 20
167.5446024356
 11
127.4979914198
 21
167.5595182617
  0
LINE
  5
4B1
100
AcDbEntity
  8
0
100
AcDbLine
 62
7
  6
CONTINUOUS
 10
127.8919240198
 20
168.1627407328
 11
127.7523489986
 21
168.177656559
  0
LINE
  5
4B2
100
AcDbEntity
  8
RUNDUNGEN
100
AcDbLine
 62
7
  6
CONTINUOUS
 10
69.8934165408
 20
173.2101067693
 11
65.6411863411
 21
173.7049374045
  0
LWPOLYLINE
  5
4B3
100
AcDbEntity
  8
RUNDUNGEN
100
AcDbPolyline
 62
7
  6
CONTINUOUS
 90
3
 70
0
 10
104.5272441008
 20
174.9533811705
 10
104.5468170007
 20
174.9505033711
 10
105.3334221767
 20
174.8251368697
  0
LINE
  5
4B4
100
AcDbEntity
  8
RUNDUNGEN
100
AcDbLine
 62
7
  6
CONTINUOUS
 10
105.3334221767
 20
174.8251368697
 11
105.5272441008
 21
174.7949967302
  0
LINE
  5
4B5
100
AcDbEntity
  8
0
100
AcDbLine
 62
7
  6
CONTINUOUS
 10
116.4000318732
 20
169.8316613273
 11
117.3459092878
 21
169.6157818319
  0
LINE
  5
4B6
100
AcDbEntity
  8
0
100
AcDbLine
 62
7
  6
CONTINUOUS
 10
117.398402782
 20
169.8457824185
 11
116.6101716032
 21
170.025681998
  0
LINE
  5
4B7
100
AcDbEntity
  8
0
100
AcDbLine
 62
7
  6
CONTINUOUS
 10
116.9688771478
 20
171.5973526773
 11
116.811230912
 21
171.6333325932
  0
LINE
  5
4B8
100
AcDbEntity
  8
0
100
AcDbLine
 62
7
  6
CONTINUOUS
 10
117.9219541662
 20
169.4753394339
 11
118.1312369313
 21
169.4235314996
  0
LINE
  5
4B9
100
AcDbEntity
  8
0
100
AcDbLine
 62
7
  6
CONTINUOUS
 10
118.1879264776
 20
169.6525339714
 11
117.9786437125
 21
169.7043419057
  0
LINE
  5
4BA
100
AcDbEntity
  8
0
100
AcDbLine
 62
7
  6
CONTINUOUS
 10
117.8354986006
 20
170.023319423
 11
117.6785365642
 21
170.0621753644
  0
LINE
  5
4BB
100
AcDbEntity
  8
0
100
AcDbLine
 62
7
  6
CONTINUOUS
 10
118.1726882354
 20
170.2638961243
 11
118.3296503467
 21
170.2250401643
  0
LINE
  5
4BC
100
AcDbEntity
  8
0
100
AcDbLine
 62
7
  6
CONTINUOUS
 10
118.3863398864
 20
170.4540426094
 11
118.2293777751
 21
170.4928985693
  0
LINE
  5
4BD
100
AcDbEntity
  8
0
100
AcDbLine
 62
7
  6
CONTINUOUS
 10
118.6283363337
 20
170.7586904239
 11
118.7852984449
 21
170.719834464
  0
LINE
  5
4BE
100
AcDbEntity
  8
0
100
AcDbLine
 62
7
  6
CONTINUOUS
 10
118.3616533942
 20
171.0272377148
 11
118.5186155055
 21
170.9883817548
  0
LINE
  5
4BF
100
AcDbEntity
  8
0
100
AcDbLine
 62
7
  6
CONTINUOUS
 10
118.5491446434
 20
171.2238602056
 11
118.4183429339
 21
171.2562401598
  0
LINE
  5
4C0
100
AcDbEntity
  8
0
100
AcDbLine
 62
7
  6
CONTINUOUS
 10
120.369858402
 20
168.8237323885
 11
120.5252308671
 21
168.7789407925
  0
LINE
  5
4C1
100
AcDbEntity
  8
0
100
AcDbLine
 62
7
  6
CONTINUOUS
 10
120.5796887358
 20
168.9678434896
 11
120.4243162707
 21
169.0126350857
  0
LINE
  5
4C2
100
AcDbEntity
  8
0
100
AcDbLine
 62
7
  6
CONTINUOUS
 10
120.2674985862
 20
169.3442862451
 11
120.112126121
 21
169.3890778412
  0
LINE
  5
4C3
100
AcDbEntity
  8
0
100
AcDbLine
 62
7
  6
CONTINUOUS
 10
120.2101502862
 20
169.7291027013
 11
120.3914180634
 21
169.6768458677
  0
LINE
  5
4C4
100
AcDbEntity
  8
0
100
AcDbLine
 62
7
  6
CONTINUOUS
 10
120.6421477379
 20
169.7682458476
 11
120.7975202031
 21
169.7234542515
  0
LINE
  5
4C5
100
AcDbEntity
  8
0
100
AcDbLine
 62
7
  6
CONTINUOUS
 10
120.8519780642
 20
169.9123569222
 11
120.696605599
 21
169.9571485183
  0
LINE
  5
4C6
100
AcDbEntity
  8
0
100
AcDbLine
 62
7
  6
CONTINUOUS
 10
120.56835019
 20
170.4851677508
 11
121.3193172036
 21
170.2686750079
  0
LINE
  5
4C7
100
AcDbEntity
  8
0
100
AcDbLine
 62
7
  6
CONTINUOUS
 10
121.3737750647
 20
170.4575776785
 11
120.4933311944
 21
170.7113966945
  0
LINE
  5
4C8
100
AcDbEntity
  8
RUNDUNGEN
100
AcDbLine
 62
7
  6
CONTINUOUS
 10
157.5739984082
 20
155.9680611969
 11
157.94161179
 21
155.8506540378
  0
LINE
  5
4C9
100
AcDbEntity
  8
0
100
AcDbLine
 62
7
  6
CONTINUOUS
 10
122.4583017658
 20
168.889120493
 11
122.8172871189
 21
168.7729970625
  0
LINE
  5
4CA
100
AcDbEntity
  8
0
100
AcDbLine
 62
7
  6
CONTINUOUS
 10
122.8777943768
 20
168.9600499187
 11
122.5188090237
 21
169.0761733492
  0
LINE
  5
4CB
100
AcDbEntity
  8
RUNDUNGEN
100
AcDbLine
 62
7
  6
CONTINUOUS
 10
87.0454695651
 20
178.8841694104
 11
86.6790538963
 21
179.0052627384
  0
LINE
  5
4CC
100
AcDbEntity
  8
0
100
AcDbLine
 62
7
  6
CONTINUOUS
 10
122.9698831374
 20
168.0188559565
 11
123.12332671
 21
167.9678465454
  0
LINE
  5
4CD
100
AcDbEntity
  8
0
100
AcDbLine
 62
7
  6
CONTINUOUS
 10
123.7062914082
 20
169.7214873755
 11
123.5528478356
 21
169.7724967865
  0
LINE
  5
4CE
100
AcDbEntity
  8
0
100
AcDbLine
 62
7
  6
CONTINUOUS
 10
126.0124086313
 20
166.9235500305
 11
126.2132549013
 21
166.845166058
  0
LINE
  5
4CF
100
AcDbEntity
  8
0
100
AcDbLine
 62
7
  6
CONTINUOUS
 10
126.2990246792
 20
167.0649372617
 11
126.0981784092
 21
167.1433212341
  0
LINE
  5
4D0
100
AcDbEntity
  8
0
100
AcDbLine
 62
7
  6
CONTINUOUS
 10
125.9973963037
 20
167.4781051641
 11
125.8467614574
 21
167.5368931996
  0
LINE
  5
4D1
100
AcDbEntity
  8
0
100
AcDbLine
 62
7
  6
CONTINUOUS
 10
126.3628142827
 20
167.673153319
 11
126.513449129
 21
167.6143652836
  0
LINE
  5
4D2
100
AcDbEntity
  8
0
100
AcDbLine
 62
7
  6
CONTINUOUS
 10
126.5992188968
 20
167.8341364616
 11
126.4485840506
 21
167.892924497
  0
LINE
  5
4D3
100
AcDbEntity
  8
0
100
AcDbLine
 62
7
  6
CONTINUOUS
 10
126.8785084349
 20
168.1050052958
 11
127.0291432811
 21
168.0462172604
  0
LINE
  5
4D4
100
AcDbEntity
  8
0
100
AcDbLine
 62
7
  6
CONTINUOUS
 10
126.648713549
 20
168.405724015
 11
126.7993483952
 21
168.3469359796
  0
LINE
  5
4D5
100
AcDbEntity
  8
0
100
AcDbLine
 62
7
  6
CONTINUOUS
 10
126.8600121639
 20
168.5765052382
 11
126.7344833169
 21
168.625495193
  0
LINE
  5
4D6
100
AcDbEntity
  8
0
100
AcDbLine
 62
7
  6
CONTINUOUS
 10
127.1887001576
 20
166.4537702241
 11
127.3133129708
 21
166.4024933277
  0
LINE
  5
4D7
100
AcDbEntity
  8
0
100
AcDbLine
 62
7
  6
CONTINUOUS
 10
127.4130461278
 20
166.5740435132
 11
127.238589102
 21
166.6458307927
  0
LINE
  5
4D8
100
AcDbEntity
  8
0
100
AcDbLine
 62
7
  6
CONTINUOUS
 10
127.5378332945
 20
167.3730522755
 11
127.7122903203
 21
167.301264996
  0
LINE
  5
4D9
100
AcDbEntity
  8
0
100
AcDbLine
 62
7
  6
CONTINUOUS
 10
127.7621792543
 20
167.4933255391
 11
127.637566441
 21
167.5446024356
  0
LINE
  5
4DA
100
AcDbEntity
  8
0
100
AcDbLine
 62
7
  6
CONTINUOUS
 10
128.0513316766
 20
167.6294495919
 11
128.1759444898
 21
167.5781726955
  0
LINE
  5
4DB
100
AcDbEntity
  8
0
100
AcDbLine
 62
7
  6
CONTINUOUS
 10
127.7921908733
 20
167.9911905727
 11
127.9417257928
 21
167.9296584848
  0
LINE
  5
4DC
100
AcDbEntity
  8
0
100
AcDbLine
 62
7
  6
CONTINUOUS
 10
127.9916135859
 20
168.1217194974
 11
127.8919240198
 21
168.1627407328
  0
LINE
  5
4DD
100
AcDbEntity
  8
0
100
AcDbLine
 62
7
  6
CONTINUOUS
 10
127.8851064931
 20
166.1631966778
 11
128.0091103655
 21
166.110464212
  0
LINE
  5
4DE
100
AcDbEntity
  8
0
100
AcDbLine
 62
7
  6
CONTINUOUS
 10
128.086045037
 20
166.2913811674
 11
127.9620411646
 21
166.3441136333
  0
LINE
  5
4DF
100
AcDbEntity
  8
0
100
AcDbLine
 62
7
  6
CONTINUOUS
 10
128.3557275621
 20
165.9614279043
 11
128.5040993702
 21
165.8971418516
  0
LINE
  5
4E0
100
AcDbEntity
  8
0
100
AcDbLine
 62
7
  6
CONTINUOUS
 10
129.2387971153
 20
167.592819658
 11
129.0904253072
 21
167.6571057107
  0
LWPOLYLINE
  5
4E1
100
AcDbEntity
  8
RUNDUNGEN
100
AcDbPolyline
 62
7
  6
CONTINUOUS
 90
3
 70
0
 10
141.1204863737
 20
163.0635160071
 10
141.1027607285
 20
163.0723013156
 10
140.3933951296
 20
163.434606311
  0
LINE
  5
4E2
100
AcDbEntity
  8
RUNDUNGEN
100
AcDbLine
 62
7
  6
CONTINUOUS
 10
140.3933951296
 20
163.434606311
 11
140.2183733411
 21
163.5231655555
  0
LINE
  5
4E3
100
AcDbEntity
  8
RUNDUNGEN
100
AcDbLine
 62
7
  6
CONTINUOUS
 10
168.1151786451
 20
141.2959197189
 11
171.8461310366
 21
139.1968638071
  0
LINE
  5
4E4
100
AcDbEntity
  8
0
100
AcDbLine
 62
7
  6
CONTINUOUS
 10
117.8006005644
 20
169.5458865027
 11
117.9219541662
 21
169.4753394339
  0
LINE
  5
4E5
100
AcDbEntity
  8
0
100
AcDbLine
 62
7
  6
CONTINUOUS
 10
118.5076933393
 20
170.3834955809
 11
118.3863398864
 21
170.4540426094
  0
LINE
  5
4E6
100
AcDbEntity
  8
0
100
AcDbLine
 62
7
  6
CONTINUOUS
 10
118.670498246
 20
171.15331314
 11
118.5491446434
 21
171.2238602056
  0
LINE
  5
4E7
100
AcDbEntity
  8
0
100
AcDbLine
 62
7
  6
CONTINUOUS
 10
121.4409472009
 20
168.5477546892
 11
121.5839118781
 21
168.4625843514
  0
LINE
  5
4E8
100
AcDbEntity
  8
0
100
AcDbLine
 62
7
  6
CONTINUOUS
 10
122.2707948864
 20
170.1435558149
 11
122.1278302081
 21
170.2287261493
  0
LINE
  5
4E9
100
AcDbEntity
  8
0
100
AcDbLine
 62
7
  6
CONTINUOUS
 10
154.9363584501
 20
147.469763168
 11
155.0339231439
 21
147.409364754
  0
LINE
  5
4EA
100
AcDbEntity
  8
0
100
AcDbLine
 62
7
  6
CONTINUOUS
 10
120.2512728221
 20
168.8988392845
 11
120.369858402
 21
168.8237323885
  0
LINE
  5
4EB
100
AcDbEntity
  8
0
100
AcDbLine
 62
7
  6
CONTINUOUS
 10
120.9705633486
 20
169.837250115
 11
120.8519780642
 21
169.9123569222
  0
LINE
  5
4EC
100
AcDbEntity
  8
0
100
AcDbLine
 62
7
  6
CONTINUOUS
 10
123.6465700245
 20
167.8316016503
 11
123.7864367655
 21
167.7414341387
  0
LINE
  5
4ED
100
AcDbEntity
  8
0
100
AcDbLine
 62
7
  6
CONTINUOUS
 10
124.5322726151
 20
169.3970917764
 11
124.3924058731
 21
169.4872592847
  0
LINE
  5
4EE
100
AcDbEntity
  8
0
100
AcDbLine
 62
7
  6
CONTINUOUS
 10
121.6417755315
 20
168.6504717807
 11
121.5245666948
 21
168.7277100939
  0
LINE
  5
4EF
100
AcDbEntity
  8
0
100
AcDbLine
 62
7
  6
CONTINUOUS
 10
122.0699665629
 20
170.0408387464
 11
122.1871748101
 21
169.9636006148
  0
LINE
  5
4F0
100
AcDbEntity
  8
RUNDUNGEN
100
AcDbLine
 62
7
  6
CONTINUOUS
 10
168.1152907577
 20
141.2921967428
 11
167.7984857062
 21
141.5129440435
  0
LINE
  5
4F1
100
AcDbEntity
  8
0
100
AcDbLine
 62
7
  6
CONTINUOUS
 10
123.8509015655
 20
167.9271602219
 11
123.7364949677
 21
168.0084906134
  0
LINE
  5
4F2
100
AcDbEntity
  8
0
100
AcDbLine
 62
7
  6
CONTINUOUS
 10
124.3279410821
 20
169.3015332275
 11
124.4423476799
 21
169.2202028361
  0
LINE
  5
4F3
100
AcDbEntity
  8
0
100
AcDbLine
 62
7
  6
CONTINUOUS
 10
153.9170703135
 20
146.2218089785
 11
154.0313014889
 21
146.1402320003
  0
LINE
  5
4F4
100
AcDbEntity
  8
0
100
AcDbLine
 62
7
  6
CONTINUOUS
 10
155.2193159545
 20
147.5552596804
 11
155.1050847937
 21
147.6368366455
  0
LINE
  5
4F5
100
AcDbEntity
  8
RUNDUNGEN
100
AcDbLine
 62
7
  6
CONTINUOUS
 10
115.7134544416
 20
179.3643593038
 11
116.0212957612
 21
179.1312744566
  0
LINE
  5
4F6
100
AcDbEntity
  8
0
100
AcDbLine
 62
7
  6
CONTINUOUS
 10
125.9011741722
 20
167.0091687423
 11
126.0124086313
 21
166.9235500305
  0
LINE
  5
4F7
100
AcDbEntity
  8
0
100
AcDbLine
 62
7
  6
CONTINUOUS
 10
126.7104533571
 20
167.7485177529
 11
126.5992188968
 21
167.8341364616
  0
LINE
  5
4F8
100
AcDbEntity
  8
0
100
AcDbLine
 62
7
  6
CONTINUOUS
 10
126.9712460495
 20
168.4908867538
 11
126.8600121639
 21
168.5765052382
  0
LINE
  5
4F9
100
AcDbEntity
  8
0
100
AcDbLine
 62
7
  6
CONTINUOUS
 10
127.0790495537
 20
166.5414081941
 11
127.1887001576
 21
166.4537702241
  0
LINE
  5
4FA
100
AcDbEntity
  8
0
100
AcDbLine
 62
7
  6
CONTINUOUS
 10
127.8718287186
 20
167.4056880418
 11
127.7621792543
 21
167.4933255391
  0
LINE
  5
4FB
100
AcDbEntity
  8
0
100
AcDbLine
 62
7
  6
CONTINUOUS
 10
128.101264191
 20
168.0340815306
 11
127.9916135859
 21
168.1217194974
  0
LINE
  5
4FC
100
AcDbEntity
  8
RUNDUNGEN
100
AcDbLine
 62
7
  6
CONTINUOUS
 10
112.567792511
 20
182.265095575
 11
115.7170298961
 21
179.3654031715
  0
LWPOLYLINE
  5
4FD
100
AcDbEntity
  8
RUNDUNGEN
100
AcDbPolyline
 62
7
  6
CONTINUOUS
 90
3
 70
0
 10
144.7610628484
 20
160.4184823717
 10
144.775206129
 20
160.4046495212
 10
145.3378945036
 20
159.8408709692
  0
LINE
  5
4FE
100
AcDbEntity
  8
RUNDUNGEN
100
AcDbLine
 62
7
  6
CONTINUOUS
 10
145.3378945036
 20
159.8408709692
 11
145.4769838045
 21
159.7025614156
  0
LINE
  5
4FF
100
AcDbEntity
  8
0
100
AcDbLine
 62
7
  6
CONTINUOUS
 10
153.7670720983
 20
146.4124159543
 11
153.9170703135
 21
146.2218089785
  0
LINE
  5
500
100
AcDbEntity
  8
0
100
AcDbLine
 62
7
  6
CONTINUOUS
 10
154.1024631457
 20
146.3677039219
 11
153.9524649305
 21
146.5583108977
  0
LINE
  5
501
100
AcDbEntity
  8
0
100
AcDbLine
 62
7
  6
CONTINUOUS
 10
154.521186588
 20
146.2170990577
 11
154.4211877619
 21
146.3441703952
  0
LINE
  5
502
100
AcDbEntity
  8
0
100
AcDbLine
 62
7
  6
CONTINUOUS
 10
155.1318602458
 20
146.9034343136
 11
155.2318590719
 21
146.7763629762
  0
LINE
  5
503
100
AcDbEntity
  8
0
100
AcDbLine
 62
7
  6
CONTINUOUS
 10
155.0339231439
 20
147.409364754
 11
155.1839213591
 21
147.2187577782
  0
LINE
  5
504
100
AcDbEntity
  8
0
100
AcDbLine
 62
7
  6
CONTINUOUS
 10
155.3693141697
 20
147.3646527045
 11
155.2193159545
 21
147.5552596804
  0
LINE
  5
505
100
AcDbEntity
  8
0
100
AcDbLine
 62
7
  6
CONTINUOUS
 10
154.5421651474
 20
145.4106245991
 11
154.6397182357
 21
145.281666137
  0
LINE
  5
506
100
AcDbEntity
  8
0
100
AcDbLine
 62
7
  6
CONTINUOUS
 10
156.3736708313
 20
146.0526693021
 11
156.276117743
 21
146.1816277642
  0
LINE
  5
507
100
AcDbEntity
  8
0
100
AcDbLine
 62
7
  6
CONTINUOUS
 10
155.8533876314
 20
146.7404478487
 11
155.7558345895
 21
146.8694062493
  0
LINE
  5
508
100
AcDbEntity
  8
RUNDUNGEN
100
AcDbLine
 62
7
  6
CONTINUOUS
 10
176.517497489
 20
113.8789360055
 11
176.7458927656
 21
113.5678738941
  0
LINE
  5
509
100
AcDbEntity
  8
0
100
AcDbLine
 62
7
  6
CONTINUOUS
 10
155.0281506105
 20
144.7644684651
 11
155.5990646296
 21
143.9800290329
  0
LINE
  5
50A
100
AcDbEntity
  8
0
100
AcDbLine
 62
7
  6
CONTINUOUS
 10
155.7898097798
 20
144.1188531101
 11
155.3140480972
 21
144.772552637
  0
LINE
  5
50B
100
AcDbEntity
  8
0
100
AcDbLine
 62
7
  6
CONTINUOUS
 10
156.6174732941
 20
145.7211838341
 11
156.5223209576
 21
145.8519237395
  0
LINE
  5
50C
100
AcDbEntity
  8
RUNDUNGEN
100
AcDbLine
 62
7
  6
CONTINUOUS
 10
132.9284695274
 20
173.8740861205
 11
132.7032099009
 21
174.1874264116
  0
LINE
  5
50D
100
AcDbEntity
  8
0
100
AcDbLine
 62
7
  6
CONTINUOUS
 10
156.5534319385
 20
142.6085158754
 11
156.6442363254
 21
142.4747199353
  0
LINE
  5
50E
100
AcDbEntity
  8
0
100
AcDbLine
 62
7
  6
CONTINUOUS
 10
158.1733357001
 20
143.512486336
 11
158.0825313132
 21
143.6462822761
  0
LINE
  5
50F
100
AcDbEntity
  8
0
100
AcDbLine
 62
7
  6
CONTINUOUS
 10
157.7492509541
 20
142.9471660444
 11
157.8235921432
 21
142.8347787911
  0
LINE
  5
510
100
AcDbEntity
  8
0
100
AcDbLine
 62
7
  6
CONTINUOUS
 10
157.9276700802
 20
142.677436225
 11
158.0020112694
 21
142.5650489718
  0
LINE
  5
511
100
AcDbEntity
  8
0
100
AcDbLine
 62
7
  6
CONTINUOUS
 10
158.2910417824
 20
142.626984968
 11
158.216700253
 21
142.7393727357
  0
LINE
  5
512
100
AcDbEntity
  8
0
100
AcDbLine
 62
7
  6
CONTINUOUS
 10
158.1126226562
 20
142.8967147873
 11
158.0382811268
 21
143.009102555
  0
LWPOLYLINE
  5
513
100
AcDbEntity
  8
RUNDUNGEN
100
AcDbPolyline
 62
7
  6
CONTINUOUS
 90
3
 70
0
 10
167.3769303316
 20
129.2904112521
 10
167.3677538582
 20
129.3079375888
 10
167.0068225666
 20
130.0180031247
  0
LINE
  5
514
100
AcDbEntity
  8
RUNDUNGEN
100
AcDbLine
 62
7
  6
CONTINUOUS
 10
167.0068225666
 20
130.0180031247
 11
166.9172807831
 21
130.1925242847
  0
LINE
  5
515
100
AcDbEntity
  8
RUNDUNGEN
100
AcDbLine
 62
7
  6
CONTINUOUS
 10
176.421423061
 20
95.8129739209
 11
178.2060328423
 21
91.9218032234
  0
LINE
  5
516
100
AcDbEntity
  8
0
100
AcDbLine
 62
7
  6
CONTINUOUS
 10
153.7146385438
 20
146.5426245637
 11
153.7670720983
 21
146.4124159543
  0
LINE
  5
517
100
AcDbEntity
  8
0
100
AcDbLine
 62
7
  6
CONTINUOUS
 10
155.4217477388
 20
147.2344440821
 11
155.3693141697
 21
147.3646527045
  0
LINE
  5
518
100
AcDbEntity
  8
RUNDUNGEN
100
AcDbLine
 62
7
  6
CONTINUOUS
 10
176.4193254516
 20
95.8098960719
 11
176.2927767889
 21
96.1746977267
  0
LINE
  5
519
100
AcDbEntity
  8
0
100
AcDbLine
 62
7
  6
CONTINUOUS
 10
155.1839213591
 20
147.2187577782
 11
155.2196884731
 21
147.1097276918
  0
LINE
  5
51A
100
AcDbEntity
  8
RUNDUNGEN
100
AcDbLine
 62
7
  6
CONTINUOUS
 10
156.4036050122
 20
157.4119491761
 11
156.5156500354
 21
157.0424349858
  0
LINE
  5
51B
100
AcDbEntity
  8
RUNDUNGEN
100
AcDbLine
 62
7
  6
CONTINUOUS
 10
155.5637197506
 20
161.6076742848
 11
156.4071111706
 21
157.4106921555
  0
LWPOLYLINE
  5
51C
100
AcDbEntity
  8
RUNDUNGEN
100
AcDbPolyline
 62
7
  6
CONTINUOUS
 90
3
 70
0
 10
168.7675068062
 20
125.0106569288
 10
168.7708182151
 20
124.9911527058
 10
168.8946619543
 20
124.2043063479
  0
LINE
  5
51D
100
AcDbEntity
  8
RUNDUNGEN
100
AcDbLine
 62
7
  6
CONTINUOUS
 10
168.8946619543
 20
124.2043063479
 11
168.9258912466
 21
124.0106569288
  0
LINE
  5
51E
100
AcDbEntity
  8
RUNDUNGEN
100
AcDbLine
 62
7
  6
CONTINUOUS
 10
176.2386885076
 20
114.9879364666
 11
176.2590775009
 21
114.6024562584
  0
LINE
  5
51F
100
AcDbEntity
  8
RUNDUNGEN
100
AcDbLine
 62
7
  6
CONTINUOUS
 10
176.23868856
 20
96.5569654965
 11
176.2590775508
 21
96.942445665
  0
LINE
  5
520
100
AcDbEntity
  8
RUNDUNGEN
100
AcDbLine
 62
7
  6
CONTINUOUS
 10
176.2927767379
 20
115.3702042244
 11
176.2386885076
 21
114.9879364666
  0
LINE
  5
521
100
AcDbEntity
  8
RUNDUNGEN
100
AcDbLine
 62
7
  6
CONTINUOUS
 10
167.1760654827
 20
69.0724999703
 11
167.1037431088
 21
68.6934090608
  0
LINE
  5
522
100
AcDbEntity
  8
RUNDUNGEN
100
AcDbLine
 62
7
  6
CONTINUOUS
 10
176.2590775508
 20
96.942445665
 11
176.3531835204
 21
97.3167648959
  0
LINE
  5
523
100
AcDbEntity
  8
RUNDUNGEN
100
AcDbLine
 62
7
  6
CONTINUOUS
 10
173.4285063548
 20
73.3727487851
 11
174.3829482143
 21
76.3102187831
  0
LINE
  5
524
100
AcDbEntity
  8
RUNDUNGEN
100
AcDbLine
 62
7
  6
CONTINUOUS
 10
177.9294497006
 20
87.225228022
 11
178.8838917337
 21
90.1626985547
  0
LINE
  5
525
100
AcDbEntity
  8
RUNDUNGEN
100
AcDbLine
 62
7
  6
CONTINUOUS
 10
167.3199514812
 20
69.4306446991
 11
167.1760654827
 21
69.0724999703
  0
LINE
  5
526
100
AcDbEntity
  8
RUNDUNGEN
100
AcDbLine
 62
7
  6
CONTINUOUS
 10
176.3531835204
 20
97.3167648959
 11
176.5174975338
 21
97.6659659036
  0
LINE
  5
527
100
AcDbEntity
  8
RUNDUNGEN
100
AcDbLine
 62
7
  6
CONTINUOUS
 10
156.5156500801
 20
54.5024669342
 11
156.6965831412
 21
54.8435203196
  0
LINE
  5
528
100
AcDbEntity
  8
RUNDUNGEN
100
AcDbLine
 62
7
  6
CONTINUOUS
 10
167.5300360205
 20
69.7544890881
 11
167.3199514812
 21
69.4306446991
  0
LINE
  5
529
100
AcDbEntity
  8
RUNDUNGEN
100
AcDbLine
 62
7
  6
CONTINUOUS
 10
156.6965831412
 20
54.8435203196
 11
156.9396577394
 21
55.1433959789
  0
LINE
  5
52A
100
AcDbEntity
  8
RUNDUNGEN
100
AcDbLine
 62
7
  6
CONTINUOUS
 10
167.7984856685
 20
70.0319579364
 11
167.5300360205
 21
69.7544890881
  0
LINE
  5
52B
100
AcDbEntity
  8
RUNDUNGEN
100
AcDbLine
 62
7
  6
CONTINUOUS
 10
133.2098035546
 20
37.9349968195
 11
132.9284694793
 21
37.6708158561
  0
LINE
  5
52C
100
AcDbEntity
  8
RUNDUNGEN
100
AcDbLine
 62
7
  6
CONTINUOUS
 10
156.9396577394
 20
55.1433959789
 11
157.2358103916
 21
55.3909124968
  0
LINE
  5
52D
100
AcDbEntity
  8
RUNDUNGEN
100
AcDbLine
 62
7
  6
CONTINUOUS
 10
140.7957573111
 20
37.7388786553
 11
143.2945185394
 21
39.554334955
  0
LINE
  5
52E
100
AcDbEntity
  8
RUNDUNGEN
100
AcDbLine
 62
7
  6
CONTINUOUS
 10
152.5793799716
 20
46.3001816522
 11
155.0781416547
 21
48.1156382823
  0
LINE
  5
52F
100
AcDbEntity
  8
RUNDUNGEN
100
AcDbLine
 62
7
  6
CONTINUOUS
 10
133.5367219625
 20
38.1401679236
 11
133.2098035546
 21
37.9349968195
  0
LINE
  5
530
100
AcDbEntity
  8
RUNDUNGEN
100
AcDbLine
 62
7
  6
CONTINUOUS
 10
157.2358103916
 20
55.3909124968
 11
157.5739984233
 21
55.5768406927
  0
LINE
  5
531
100
AcDbEntity
  8
RUNDUNGEN
100
AcDbLine
 62
7
  6
CONTINUOUS
 10
116.0212957829
 20
32.4136274417
 11
116.3681398543
 21
32.5831956415
  0
LINE
  5
532
100
AcDbEntity
  8
RUNDUNGEN
100
AcDbLine
 62
7
  6
CONTINUOUS
 10
133.8970348809
 20
38.2786789439
 11
133.5367219625
 21
38.1401679236
  0
LINE
  5
533
100
AcDbEntity
  8
RUNDUNGEN
100
AcDbLine
 62
7
  6
CONTINUOUS
 10
88.1863483655
 20
178.9617063139
 11
87.813434369
 21
178.8619774621
  0
LINE
  5
534
100
AcDbEntity
  8
RUNDUNGEN
100
AcDbLine
 62
7
  6
CONTINUOUS
 10
70.2771809198
 20
173.1995368418
 11
70.6574533545
 21
173.2662230627
  0
LINE
  5
535
100
AcDbEntity
  8
RUNDUNGEN
100
AcDbLine
 62
7
  6
CONTINUOUS
 10
117.1261329272
 20
178.8358065003
 11
117.5090186495
 21
178.8841693689
  0
LINE
  5
536
100
AcDbEntity
  8
RUNDUNGEN
100
AcDbLine
 62
7
  6
CONTINUOUS
 10
87.813434369
 20
178.8619774621
 11
87.4283552817
 21
178.8358065489
  0
LINE
  5
537
100
AcDbEntity
  8
RUNDUNGEN
100
AcDbLine
 62
7
  6
CONTINUOUS
 10
111.104242224
 20
183.4533811705
 11
108.0156040468
 21
183.4533811705
  0
LINE
  5
538
100
AcDbEntity
  8
RUNDUNGEN
100
AcDbLine
 62
7
  6
CONTINUOUS
 10
96.5388841548
 20
183.4533811705
 11
93.4502421439
 21
183.4533811705
  0
LINE
  5
539
100
AcDbEntity
  8
RUNDUNGEN
100
AcDbLine
 62
7
  6
CONTINUOUS
 10
116.7410538302
 20
178.861977409
 11
117.1261329272
 21
178.8358065003
  0
LINE
  5
53A
100
AcDbEntity
  8
RUNDUNGEN
100
AcDbLine
 62
7
  6
CONTINUOUS
 10
87.4283552817
 20
178.8358065489
 11
87.0454695651
 21
178.8841694104
  0
LINE
  5
53B
100
AcDbEntity
  8
RUNDUNGEN
100
AcDbLine
 62
7
  6
CONTINUOUS
 10
134.2773073153
 20
173.1995367819
 11
133.8970348801
 21
173.2662230566
  0
LINE
  5
53C
100
AcDbEntity
  8
RUNDUNGEN
100
AcDbLine
 62
7
  6
CONTINUOUS
 10
116.3681398209
 20
178.9617062592
 11
116.7410538302
 21
178.861977409
  0
LINE
  5
53D
100
AcDbEntity
  8
RUNDUNGEN
100
AcDbLine
 62
7
  6
CONTINUOUS
 10
133.8970348801
 20
173.2662230566
 11
133.5367219985
 21
173.4047340622
  0
LINE
  5
53E
100
AcDbEntity
  8
RUNDUNGEN
100
AcDbLine
 62
7
  6
CONTINUOUS
 10
116.0212957612
 20
179.1312744566
 11
116.3681398209
 21
178.9617062592
  0
LINE
  5
53F
100
AcDbEntity
  8
RUNDUNGEN
100
AcDbLine
 62
7
  6
CONTINUOUS
 10
157.2358103711
 20
156.1539893953
 11
157.5739984082
 21
155.9680611969
  0
LINE
  5
540
100
AcDbEntity
  8
RUNDUNGEN
100
AcDbLine
 62
7
  6
CONTINUOUS
 10
133.5367219985
 20
173.4047340622
 11
133.2098035987
 21
173.6099051615
  0
LINE
  5
541
100
AcDbEntity
  8
RUNDUNGEN
100
AcDbLine
 62
7
  6
CONTINUOUS
 10
155.0781411999
 20
163.4292639933
 11
152.5793799716
 21
165.244720293
  0
LINE
  5
542
100
AcDbEntity
  8
RUNDUNGEN
100
AcDbLine
 62
7
  6
CONTINUOUS
 10
143.2945185394
 20
171.9905669902
 11
140.7957568562
 21
173.8060236203
  0
LINE
  5
543
100
AcDbEntity
  8
RUNDUNGEN
100
AcDbLine
 62
7
  6
CONTINUOUS
 10
156.9396577118
 20
156.4015059194
 11
157.2358103711
 21
156.1539893953
  0
LINE
  5
544
100
AcDbEntity
  8
RUNDUNGEN
100
AcDbLine
 62
7
  6
CONTINUOUS
 10
133.2098035987
 20
173.6099051615
 11
132.9284695274
 21
173.8740861205
  0
LINE
  5
545
100
AcDbEntity
  8
RUNDUNGEN
100
AcDbLine
 62
7
  6
CONTINUOUS
 10
167.7984857062
 20
141.5129440435
 11
167.5300360524
 21
141.7904129023
  0
LINE
  5
546
100
AcDbEntity
  8
RUNDUNGEN
100
AcDbLine
 62
7
  6
CONTINUOUS
 10
156.6965830883
 20
156.7013816092
 11
156.9396577118
 21
156.4015059194
  0
LINE
  5
547
100
AcDbEntity
  8
RUNDUNGEN
100
AcDbLine
 62
7
  6
CONTINUOUS
 10
167.5300360524
 20
141.7904129023
 11
167.3199515343
 21
142.1142572578
  0
LINE
  5
548
100
AcDbEntity
  8
RUNDUNGEN
100
AcDbLine
 62
7
  6
CONTINUOUS
 10
156.5156500354
 20
157.0424349858
 11
156.6965830883
 21
156.7013816092
  0
LINE
  5
549
100
AcDbEntity
  8
RUNDUNGEN
100
AcDbLine
 62
7
  6
CONTINUOUS
 10
176.3531834727
 20
114.2281370184
 11
176.517497489
 21
113.8789360055
  0
LINE
  5
54A
100
AcDbEntity
  8
RUNDUNGEN
100
AcDbLine
 62
7
  6
CONTINUOUS
 10
167.3199515343
 20
142.1142572578
 11
167.1760655395
 21
142.472401978
  0
LINE
  5
54B
100
AcDbEntity
  8
RUNDUNGEN
100
AcDbLine
 62
7
  6
CONTINUOUS
 10
178.88389156
 20
121.3822039251
 11
177.9294497006
 21
124.3196739231
  0
LINE
  5
54C
100
AcDbEntity
  8
RUNDUNGEN
100
AcDbLine
 62
7
  6
CONTINUOUS
 10
174.3829482143
 20
135.2346831621
 11
173.4285061811
 21
138.1721536947
  0
LINE
  5
54D
100
AcDbEntity
  8
RUNDUNGEN
100
AcDbLine
 62
7
  6
CONTINUOUS
 10
176.2590775009
 20
114.6024562584
 11
176.3531834727
 21
114.2281370184
  0
LINE
  5
54E
100
AcDbEntity
  8
RUNDUNGEN
100
AcDbLine
 62
7
  6
CONTINUOUS
 10
167.1760655395
 20
142.472401978
 11
167.1037431663
 21
142.8514928815
  0
LINE
  5
54F
100
AcDbEntity
  8
RUNDUNGEN
100
AcDbLine
 62
7
  6
CONTINUOUS
 10
176.2927767889
 20
96.1746977267
 11
176.23868856
 21
96.5569654965
  0
LINE
  5
550
100
AcDbEntity
  8
RUNDUNGEN
100
AcDbLine
 62
7
  6
CONTINUOUS
 10
180.6962748525
 20
102.7724509726
 11
180.6962748525
 21
108.7724509726
  0
LINE
  5
551
100
AcDbEntity
  8
RUNDUNGEN
100
AcDbLine
 62
7
  6
CONTINUOUS
 10
163.9562169044
 20
57.2518502145
 11
167.4829284182
 21
62.1059521808
  0
LINE
  5
552
100
AcDbEntity
  8
RUNDUNGEN
100
AcDbLine
 62
7
  6
CONTINUOUS
 10
123.6568877366
 20
30.2644697915
 11
129.3632268343
 21
32.1185717577
  0
LINE
  5
553
100
AcDbEntity
  8
RUNDUNGEN
100
AcDbLine
 62
7
  6
CONTINUOUS
 10
129.3632268343
 20
179.4263301874
 11
123.6568877366
 21
181.2804321537
  0
LINE
  5
554
100
AcDbEntity
  8
RUNDUNGEN
100
AcDbLine
 62
7
  6
CONTINUOUS
 10
167.4829284182
 20
149.4389497644
 11
163.9562169044
 21
154.2930517306
  0
LINE
  5
555
100
AcDbEntity
  8
RUNDUNGEN
100
AcDbLine
 62
7
  6
CONTINUOUS
 10
215.4297771843
 20
28.0915207746
 11
243.4297771843
 21
28.0915207746
  0
LINE
  5
556
100
AcDbEntity
  8
RUNDUNGEN
100
AcDbLine
 62
7
  6
CONTINUOUS
 10
229.6797771843
 20
30.2155263078
 11
229.8749077358
 21
30.2347490325
  0
LINE
  5
557
100
AcDbEntity
  8
0
100
AcDbLine
 62
7
  6
CONTINUOUS
 10
229.1797771843
 20
30.2155263078
 11
229.6797771843
 21
30.2155263078
  0
LINE
  5
558
100
AcDbEntity
  8
RUNDUNGEN
100
AcDbLine
 62
7
  6
CONTINUOUS
 10
229.1797771843
 20
30.2155263078
 11
228.9846466328
 21
30.2347490325
  0
LWPOLYLINE
  5
559
100
AcDbEntity
  8
RUNDUNGEN
100
AcDbPolyline
 62
7
  6
CONTINUOUS
 90
8
 70
0
 10
228.9846466328
 20
30.2347490325
 10
228.7970596032
 20
30.2916609209
 10
228.6241850947
 20
30.3840713003
 10
228.4726590482
 20
30.5084308817
 10
228.3483107103
 20
30.6599513782
 10
228.2559030785
 20
30.8328297745
 10
228.1989932778
 20
31.0204291617
 10
228.1797771843
 20
31.2155263078
  0
LINE
  5
55A
100
AcDbEntity
  8
0
100
AcDbLine
 62
7
  6
CONTINUOUS
 10
214.9733533248
 20
173.3953838512
 11
214.874008993
 21
173.3422459692
  0
LWPOLYLINE
  5
55B
100
AcDbEntity
  8
RUNDUNGEN
100
AcDbPolyline
 62
7
  6
CONTINUOUS
 90
7
 70
0
 10
229.4293888828
 20
37.547902002
 10
230.0888885235
 20
37.567301166
 10
231.1285273466
 20
37.6634785708
 10
232.1732000085
 20
37.7987413848
 10
233.2414188352
 20
37.927590001
 10
234.3460300079
 20
38.0143702182
 10
235.119169324
 20
38.0340605073
  0
LINE
  5
55C
100
AcDbEntity
  8
RUNDUNGEN
100
AcDbLine
 62
7
  6
CONTINUOUS
 10
243.4297771843
 20
38.0339932796
 11
235.1191687843
 21
38.0339932796
  0
LINE
  5
55D
100
AcDbEntity
  8
RUNDUNGEN
100
AcDbLine
 62
7
  6
CONTINUOUS
 10
223.7406083968
 20
38.0339932796
 11
215.4297771843
 21
38.0339932796
  0
LWPOLYLINE
  5
55E
100
AcDbEntity
  8
RUNDUNGEN
100
AcDbPolyline
 62
7
  6
CONTINUOUS
 90
7
 70
0
 10
223.740608388
 20
38.0340073841
 10
224.545961413
 20
38.0127575049
 10
225.6512982504
 20
37.9240925826
 10
226.7196900984
 20
37.7943550756
 10
227.764592498
 20
37.6594930932
 10
228.8044145644
 20
37.56540621
 10
229.4293888786
 20
37.5479000534
  0
LWPOLYLINE
  5
55F
100
AcDbEntity
  8
RUNDUNGEN
100
AcDbPolyline
 62
7
  6
CONTINUOUS
 90
9
 70
0
 10
215.4297771843
 20
38.0339932796
 10
215.2343076365
 20
38.0532835313
 10
215.0467752701
 20
38.1102457309
 10
214.874008993
 20
38.202655976
 10
214.7225716212
 20
38.3269852941
 10
214.5983424791
 20
38.4783708099
 10
214.5059515634
 20
38.651179719
 10
214.4490056206
 20
38.8388348147
 10
214.4297771843
 20
39.0339932796
  0
LINE
  5
560
100
AcDbEntity
  8
0
100
AcDbLine
 62
7
  6
CONTINUOUS
 10
214.874008993
 20
173.3422459692
 11
214.7225716212
 21
173.217916651
  0
LINE
  5
561
100
AcDbEntity
  8
0
100
AcDbLine
 62
7
  6
CONTINUOUS
 10
215.4297771843
 20
46.1091986465
 11
243.4297771843
 21
46.1091986465
  0
LWPOLYLINE
  5
562
100
AcDbEntity
  8
0
100
AcDbPolyline
 62
7
  6
CONTINUOUS
 90
5
 70
0
 10
214.7225716212
 20
173.217916651
 10
214.5983424791
 20
173.0665311353
 10
214.5059515634
 20
172.8937222261
 10
214.4490056206
 20
172.7060671304
 10
214.4297771843
 20
172.5109086656
  0
LINE
  5
563
100
AcDbEntity
  8
0
100
AcDbLine
 62
7
  6
CONTINUOUS
 10
235.7271642623
 20
169.3023074788
 11
235.7591598684
 21
169.320249552
  0
LINE
  5
564
100
AcDbEntity
  8
RUNDUNGEN
100
AcDbLine
 62
7
  6
CONTINUOUS
 10
235.7594211316
 20
169.3203924046
 11
235.7591598684
 21
169.320249552
  0
LINE
  5
565
100
AcDbEntity
  8
0
100
AcDbLine
 62
7
  6
CONTINUOUS
 10
235.7594195296
 20
169.3203955106
 11
236.1768985151
 21
169.5464046477
  0
LINE
  5
566
100
AcDbEntity
  8
0
100
AcDbLine
 62
7
  6
CONTINUOUS
 10
236.1768985151
 20
169.5464046477
 11
236.5682120345
 21
169.7548096674
  0
LINE
  5
567
100
AcDbEntity
  8
0
100
AcDbLine
 62
7
  6
CONTINUOUS
 10
236.5682120345
 20
169.7548096674
 11
236.9727689792
 21
169.9673154787
  0
LINE
  5
568
100
AcDbEntity
  8
RUNDUNGEN
100
AcDbLine
 62
7
  6
CONTINUOUS
 10
237.3915146009
 20
170.184599415
 11
237.3911292411
 21
170.1844005734
  0
LINE
  5
569
100
AcDbEntity
  8
0
100
AcDbLine
 62
7
  6
CONTINUOUS
 10
236.9727689792
 20
169.9673154787
 11
237.5970278508
 21
170.2904235316
  0
LWPOLYLINE
  5
56A
100
AcDbEntity
  8
0
100
AcDbPolyline
 62
7
  6
CONTINUOUS
 90
3
 70
0
 10
237.5970278508
 20
170.2904235316
 10
238.2225511319
 20
170.6091913606
 10
238.8606557141
 20
170.9301690273
  0
LINE
  5
56B
100
AcDbEntity
  8
0
100
AcDbLine
 62
7
  6
CONTINUOUS
 10
238.8606557141
 20
170.9301690273
 11
240.1586569887
 21
171.5723977252
  0
LINE
  5
56C
100
AcDbEntity
  8
0
100
AcDbLine
 62
7
  6
CONTINUOUS
 10
240.1586569887
 20
171.5723977252
 11
243.8687850351
 21
173.3848929144
  0
LINE
  5
56D
100
AcDbEntity
  8
0
100
AcDbLine
 62
7
  6
CONTINUOUS
 10
235.5530348907
 20
169.4398935022
 11
236.3005077659
 21
169.8044603825
  0
LINE
  5
56E
100
AcDbEntity
  8
0
100
AcDbLine
 62
2
  6
CONTINUOUS
 10
226.6640321218
 20
171.7033811705
 11
223.9256761803
 21
168.9650252291
  0
LINE
  5
56F
100
AcDbEntity
  8
0
100
AcDbLine
 62
2
  6
CONTINUOUS
 10
232.5649494643
 20
171.7033811705
 11
224.4297771843
 21
163.5682088906
  0
LINE
  5
570
100
AcDbEntity
  8
RUNDUNGEN
100
AcDbLine
 62
7
  6
CONTINUOUS
 10
235.4997757779
 20
169.146856081
 11
235.4984887744
 21
169.1458290106
  0
LWPOLYLINE
  5
571
100
AcDbEntity
  8
0
100
AcDbPolyline
 62
7
  6
CONTINUOUS
 90
4
 70
0
 10
235.4984926777
 20
169.1458239858
 10
235.5613167827
 20
169.1939417026
 10
235.6443318785
 20
169.2514749742
 10
235.7271642623
 20
169.3023074788
  0
LWPOLYLINE
  5
572
100
AcDbEntity
  8
0
100
AcDbPolyline
 62
7
  6
CONTINUOUS
 90
3
 70
0
 10
242.5830464489
 20
161.7223991535
 10
242.794387584
 20
161.8090734407
 10
243.007711254
 20
161.8946813344
  0
LINE
  5
573
100
AcDbEntity
  8
0
100
AcDbLine
 62
7
  6
CONTINUOUS
 10
243.007711254
 20
161.8946813344
 11
243.7971775706
 21
162.2065848638
  0
LINE
  5
574
100
AcDbEntity
  8
RUNDUNGEN
100
AcDbLine
 62
7
  6
CONTINUOUS
 10
243.7965031995
 20
162.2063187519
 11
243.7965317244
 21
162.2063299988
  0
LINE
  5
575
100
AcDbEntity
  8
0
100
AcDbLine
 62
2
  6
CONTINUOUS
 10
234.431704327
 20
167.6692186908
 11
224.4297771843
 21
157.6672915481
  0
LINE
  5
576
100
AcDbEntity
  8
0
100
AcDbLine
 62
7
  6
CONTINUOUS
 10
235.2762589594
 20
168.938461775
 11
235.4997757779
 21
169.146856081
  0
LINE
  5
577
100
AcDbEntity
  8
0
100
AcDbLine
 62
7
  6
CONTINUOUS
 10
243.7965031995
 20
162.2063187519
 11
243.9856048473
 21
162.3053502
  0
LINE
  5
578
100
AcDbEntity
  8
RUNDUNGEN
100
AcDbLine
 62
7
  6
CONTINUOUS
 10
239.9603708318
 20
155.7019780085
 11
239.9604821477
 21
155.7020220221
  0
LINE
  5
579
100
AcDbEntity
  8
0
100
AcDbLine
 62
7
  6
CONTINUOUS
 10
239.9603899145
 20
155.7019298574
 11
243.7973622147
 21
157.218318136
  0
LINE
  5
57A
100
AcDbEntity
  8
RUNDUNGEN
100
AcDbLine
 62
7
  6
CONTINUOUS
 10
243.797459913
 20
157.2183567453
 11
243.7974105024
 21
157.2183373267
  0
LINE
  5
57B
100
AcDbEntity
  8
RUNDUNGEN
100
AcDbLine
 62
7
  6
CONTINUOUS
 10
243.7974660802
 20
54.3265427626
 11
239.9603895044
 21
55.8429722498
  0
LWPOLYLINE
  5
57C
100
AcDbEntity
  8
RUNDUNGEN
100
AcDbPolyline
 62
7
  6
CONTINUOUS
 90
7
 70
0
 10
239.9604818377
 20
55.8428805437
 10
239.868737544
 20
55.8796519324
 10
239.421064747
 20
56.0734898966
 10
238.95945601
 20
56.2983176152
 10
238.4883867849
 20
56.5541321448
 10
238.0129445764
 20
56.8403892202
 10
237.8413313996
 20
56.9509914769
  0
LINE
  5
57D
100
AcDbEntity
  8
0
100
AcDbLine
 62
2
  6
CONTINUOUS
 10
234.4297771843
 20
161.7663742056
 11
224.4297771843
 21
151.7663742056
  0
LWPOLYLINE
  5
57E
100
AcDbEntity
  8
0
100
AcDbPolyline
 62
7
  6
CONTINUOUS
 90
6
 70
0
 10
214.8730333749
 20
137.9072979105
 10
214.7223470335
 20
137.7833969422
 10
214.5989436675
 20
137.6331347134
 10
214.5065550798
 20
137.4608804423
 10
214.4491712176
 20
137.272595257
 10
214.4297771843
 20
137.0766136786
  0
LWPOLYLINE
  5
57F
100
AcDbEntity
  8
0
100
AcDbPolyline
 62
7
  6
CONTINUOUS
 90
5
 70
0
 10
243.9856048473
 20
162.3053502
 10
244.1370104332
 20
162.4296674505
 10
244.2611982196
 20
162.581004817
 10
244.3535842551
 20
162.7537894177
 10
244.4105439921
 20
162.941465643
  0
LWPOLYLINE
  5
580
100
AcDbEntity
  8
0
100
AcDbPolyline
 62
7
  6
CONTINUOUS
 90
7
 70
0
 10
237.8413291504
 20
154.5939091045
 10
238.0129419273
 20
154.7045111894
 10
238.4883842591
 20
154.9907686229
 10
238.9594538021
 20
155.2465835644
 10
239.4210631501
 20
155.4714117161
 10
239.8687369345
 20
155.6652502465
 10
239.9604821477
 20
155.7020220221
  0
LWPOLYLINE
  5
581
100
AcDbEntity
  8
0
100
AcDbPolyline
 62
7
  6
CONTINUOUS
 90
3
 70
0
 10
215.2315198446
 20
138.0567631257
 10
215.0446192541
 20
137.9994643538
 10
214.8730333749
 20
137.9072979105
  0
LWPOLYLINE
  5
582
100
AcDbEntity
  8
RUNDUNGEN
100
AcDbPolyline
 62
7
  6
CONTINUOUS
 90
9
 70
0
 10
215.4297771843
 20
73.4682882666
 10
215.2315198446
 20
73.4881388195
 10
215.0446192541
 20
73.5454375913
 10
214.8730333749
 20
73.6376040347
 10
214.7223470335
 20
73.761505003
 10
214.5989436675
 20
73.9117672318
 10
214.5065550798
 20
74.0840215028
 10
214.4491712176
 20
74.2723066881
 10
214.4297771843
 20
74.4682882666
  0
LINE
  5
583
100
AcDbEntity
  8
RUNDUNGEN
100
AcDbLine
 62
7
  6
CONTINUOUS
 10
237.8413280517
 20
56.9510369489
 11
237.5865267755
 21
57.1227213929
  0
LINE
  5
584
100
AcDbEntity
  8
RUNDUNGEN
100
AcDbLine
 62
7
  6
CONTINUOUS
 10
237.5862973404
 20
57.122884935
 11
237.3039814469
 21
57.3241207644
  0
LWPOLYLINE
  5
585
100
AcDbEntity
  8
RUNDUNGEN
100
AcDbPolyline
 62
7
  6
CONTINUOUS
 90
4
 70
0
 10
237.3038195005
 20
57.324243245
 10
237.0251405363
 20
57.535009029
 10
236.7511742386
 20
57.7548823071
 10
236.6074370469
 20
57.8756324919
  0
LINE
  5
586
100
AcDbEntity
  8
0
100
AcDbLine
 62
2
  6
CONTINUOUS
 10
234.4297771843
 20
155.8654568632
 11
224.4297771843
 21
145.8654568632
  0
LINE
  5
587
100
AcDbEntity
  8
0
100
AcDbLine
 62
2
  6
CONTINUOUS
 10
234.4297771843
 20
149.9645395207
 11
224.4136235428
 21
139.9483858792
  0
LINE
  5
588
100
AcDbEntity
  8
0
100
AcDbLine
 62
2
  6
CONTINUOUS
 10
215.4071295953
 20
130.9418919317
 11
210.3797771843
 21
125.9145395207
  0
LINE
  5
589
100
AcDbEntity
  8
RUNDUNGEN
100
AcDbLine
 62
7
  6
CONTINUOUS
 10
236.6074451541
 20
153.66925951
 11
236.6072397614
 21
153.6690842798
  0
LWPOLYLINE
  5
58A
100
AcDbEntity
  8
0
100
AcDbPolyline
 62
7
  6
CONTINUOUS
 90
6
 70
0
 10
236.6074369189
 20
153.6692691515
 10
236.7510597059
 20
153.7899247395
 10
237.0249619532
 20
154.0097538331
 10
237.3037808684
 20
154.2206346104
 10
237.5863287633
 20
154.4220421156
 10
237.841326388
 20
154.5938624493
  0
LINE
  5
58B
100
AcDbEntity
  8
RUNDUNGEN
100
AcDbLine
 62
7
  6
CONTINUOUS
 10
232.5749624301
 20
73.1636546665
 11
232.5655206227
 21
73.16171655
  0
LWPOLYLINE
  5
58C
100
AcDbEntity
  8
RUNDUNGEN
100
AcDbPolyline
 62
7
  6
CONTINUOUS
 90
4
 70
0
 10
232.5655134437
 20
73.1617127514
 10
233.2295846091
 20
73.2886003709
 10
234.3300405732
 20
73.4339270858
 10
235.1191790294
 20
73.468394948
  0
LINE
  5
58D
100
AcDbEntity
  8
RUNDUNGEN
100
AcDbLine
 62
7
  6
CONTINUOUS
 10
243.4297771843
 20
73.4682882666
 11
235.1191755656
 21
73.4682882666
  0
LINE
  5
58E
100
AcDbEntity
  8
RUNDUNGEN
100
AcDbLine
 62
7
  6
CONTINUOUS
 10
223.7406186339
 20
73.4682882666
 11
215.4297771843
 21
73.4682882666
  0
LWPOLYLINE
  5
58F
100
AcDbEntity
  8
RUNDUNGEN
100
AcDbPolyline
 62
7
  6
CONTINUOUS
 90
4
 70
0
 10
223.7406187371
 20
73.4683091326
 10
224.5626132543
 20
73.4311141324
 10
225.665155655
 20
73.2824275367
 10
226.2922672955
 20
73.1620863542
  0
LINE
  5
590
100
AcDbEntity
  8
RUNDUNGEN
100
AcDbLine
 62
7
  6
CONTINUOUS
 10
226.2922733047
 20
73.1620852374
 11
226.2842321961
 21
73.1637351921
  0
LINE
  5
591
100
AcDbEntity
  8
RUNDUNGEN
100
AcDbLine
 62
7
  6
CONTINUOUS
 10
236.6072402951
 20
57.8758249021
 11
236.6074497301
 21
57.8756462459
  0
LWPOLYLINE
  5
592
100
AcDbEntity
  8
RUNDUNGEN
100
AcDbPolyline
 62
7
  6
CONTINUOUS
 90
3
 70
0
 10
236.6072402951
 20
57.8758249021
 10
236.5285933278
 20
57.9456394716
 10
236.3980379585
 20
58.0728951217
  0
LINE
  5
593
100
AcDbEntity
  8
RUNDUNGEN
100
AcDbLine
 62
7
  6
CONTINUOUS
 10
236.3981904847
 20
58.0727554238
 11
236.2656097127
 21
58.2156545155
  0
LWPOLYLINE
  5
594
100
AcDbEntity
  8
0
100
AcDbPolyline
 62
7
  6
CONTINUOUS
 90
3
 70
0
 10
234.7585859887
 20
168.1011775493
 10
234.9955359601
 20
168.5674596993
 10
235.2762589594
 20
168.938461775
  0
LINE
  5
595
100
AcDbEntity
  8
0
100
AcDbLine
 62
7
  6
CONTINUOUS
 10
224.0440652636
 20
137.6384936334
 11
223.9773734728
 21
137.5557540286
  0
LINE
  5
596
100
AcDbEntity
  8
RUNDUNGEN
100
AcDbLine
 62
7
  6
CONTINUOUS
 10
236.1939100666
 20
153.2465921448
 11
236.1933790933
 21
153.2459691366
  0
LWPOLYLINE
  5
597
100
AcDbEntity
  8
0
100
AcDbPolyline
 62
7
  6
CONTINUOUS
 90
5
 70
0
 10
236.1939091159
 20
153.2465929225
 10
236.2655460994
 20
153.3291824646
 10
236.3980375799
 20
153.4720065093
 10
236.5285929451
 20
153.5992621335
 10
236.6072397614
 20
153.6690842798
  0
LINE
  5
598
100
AcDbEntity
  8
0
100
AcDbLine
 62
7
  6
CONTINUOUS
 10
223.9773734728
 20
137.5557540286
 11
223.9539870226
 21
137.5317805142
  0
LINE
  5
599
100
AcDbEntity
  8
0
100
AcDbLine
 62
2
  6
CONTINUOUS
 10
234.4297771843
 20
144.0636221782
 11
211.8636059787
 21
121.4974509726
  0
LWPOLYLINE
  5
59A
100
AcDbEntity
  8
RUNDUNGEN
100
AcDbPolyline
 62
7
  6
CONTINUOUS
 90
5
 70
0
 10
215.4297771843
 20
82.2544906931
 10
215.2332370326
 20
82.2367650479
 10
215.0447468082
 20
82.1849412969
 10
214.8715518578
 20
82.1008099813
 10
214.7202546074
 20
81.9880811113
  0
LINE
  5
59B
100
AcDbEntity
  8
AUSFORMSCHRAEGEN
100
AcDbLine
 62
7
  6
CONTINUOUS
 10
244.4515933735
 20
80.6728786883
 11
245.6890466055
 21
80.7594098477
  0
LINE
  5
59C
100
AcDbEntity
  8
RUNDUNGEN
100
AcDbLine
 62
7
  6
CONTINUOUS
 10
215.4297771843
 20
82.2544906931
 11
243.4297771843
 21
82.2544906931
  0
LINE
  5
59D
100
AcDbEntity
  8
AUSFORMSCHRAEGEN
100
AcDbLine
 62
7
  6
CONTINUOUS
 10
213.1705077631
 20
80.7594098477
 11
214.4297771843
 21
80.6713531517
  0
LWPOLYLINE
  5
59E
100
AcDbEntity
  8
RUNDUNGEN
100
AcDbPolyline
 62
7
  6
CONTINUOUS
 90
5
 70
0
 10
243.4297771843
 20
82.2544906931
 10
243.626317336
 20
82.2369643563
 10
243.8148075604
 20
82.1849412969
 10
243.9880025108
 20
82.100872981
 10
244.1392997612
 20
81.9880811113
  0
LINE
  5
59F
100
AcDbEntity
  8
RUNDUNGEN
100
AcDbLine
 62
7
  6
CONTINUOUS
 10
236.2656097127
 20
58.2156545155
 11
236.193909161
 21
58.298309064
  0
LINE
  5
5A0
100
AcDbEntity
  8
RUNDUNGEN
100
AcDbLine
 62
7
  6
CONTINUOUS
 10
236.1939100685
 20
58.2983098047
 11
236.1933791266
 21
58.2989327763
  0
LWPOLYLINE
  5
5A1
100
AcDbEntity
  8
RUNDUNGEN
100
AcDbPolyline
 62
7
  6
CONTINUOUS
 90
8
 70
0
 10
236.1934980242
 20
58.2988013326
 10
236.0049702604
 20
58.5375961224
 10
235.6850906632
 20
59.0260250768
 10
235.3999159111
 20
59.5696646037
 10
235.147603442
 20
60.1670799336
 10
234.9266718242
 20
60.8243622033
 10
234.7425461258
 20
61.5320721773
 10
234.7250091991
 20
61.6236681176
  0
LWPOLYLINE
  5
5A2
100
AcDbEntity
  8
RUNDUNGEN
100
AcDbPolyline
 62
7
  6
CONTINUOUS
 90
10
 70
0
 10
236.1933791266
 20
58.2989327763
 10
235.964801842
 20
58.5929213487
 10
235.621983251
 20
59.1364856648
 10
235.3317304487
 20
59.7185785741
 10
235.085311634
 20
60.3370364955
 10
234.8757306031
 20
61.0015567699
 10
234.7057581618
 20
61.7013335108
 10
234.5752741143
 20
62.435573797
 10
234.4856593634
 20
63.1983071214
 10
234.4378644817
 20
63.9865005268
  0
LINE
  5
5A3
100
AcDbEntity
  8
RUNDUNGEN
100
AcDbLine
 62
7
  6
CONTINUOUS
 10
210.3797771843
 20
105.7724509726
 11
210.3797771843
 21
83.7521019985
  0
LINE
  5
5A4
100
AcDbEntity
  8
0
100
AcDbLine
 62
7
  6
CONTINUOUS
 10
210.3797771843
 20
105.7724509732
 11
210.3797771843
 21
127.7927999466
  0
LINE
  5
5A5
100
AcDbEntity
  8
0
100
AcDbLine
 62
2
  6
CONTINUOUS
 10
234.6275030604
 20
138.3604307118
 11
217.7645233212
 21
121.4974509726
  0
LWPOLYLINE
  5
5A6
100
AcDbEntity
  8
RUNDUNGEN
100
AcDbPolyline
 62
7
  6
CONTINUOUS
 90
4
 70
0
 10
216.718579008
 20
82.7233999474
 10
216.5458977806
 20
82.6896622693
 10
216.3711855329
 20
82.6577577165
 10
216.194503169
 20
82.6277680393
  0
LINE
  5
5A7
100
AcDbEntity
  8
RUNDUNGEN
100
AcDbLine
 62
7
  6
CONTINUOUS
 10
215.2860733826
 20
82.4896346168
 11
215.231811635
 21
82.4802228516
  0
LINE
  5
5A8
100
AcDbEntity
  8
RUNDUNGEN
100
AcDbLine
 62
7
  6
CONTINUOUS
 10
216.194503169
 20
82.6277680393
 11
216.0257429599
 21
82.6012560743
  0
LINE
  5
5A9
100
AcDbEntity
  8
RUNDUNGEN
100
AcDbLine
 62
7
  6
CONTINUOUS
 10
216.0257451072
 20
82.6012581764
 11
215.280578733
 21
82.4888216007
  0
LINE
  5
5AA
100
AcDbEntity
  8
RUNDUNGEN
100
AcDbLine
 62
7
  6
CONTINUOUS
 10
215.4297771843
 20
86.5342450164
 11
243.4297771843
 21
86.5342450164
  0
LINE
  5
5AB
100
AcDbEntity
  8
RUNDUNGEN
100
AcDbLine
 62
7
  6
CONTINUOUS
 10
243.5737045501
 20
82.4896015792
 11
242.8338092428
 21
82.6012581792
  0
LWPOLYLINE
  5
5AC
100
AcDbEntity
  8
RUNDUNGEN
100
AcDbPolyline
 62
7
  6
CONTINUOUS
 90
3
 70
0
 10
242.8338098655
 20
82.6012575367
 10
242.6660878709
 20
82.6275980201
 10
242.4764888458
 20
82.6598548784
  0
LINE
  5
5AD
100
AcDbEntity
  8
RUNDUNGEN
100
AcDbLine
 62
7
  6
CONTINUOUS
 10
243.573480986
 20
82.4896346168
 11
243.6277427336
 21
82.4802228516
  0
LINE
  5
5AE
100
AcDbEntity
  8
RUNDUNGEN
100
AcDbLine
 62
7
  6
CONTINUOUS
 10
242.4764888458
 20
82.6598548784
 11
242.289143229
 21
82.6943175005
  0
LWPOLYLINE
  5
5AF
100
AcDbEntity
  8
RUNDUNGEN
100
AcDbPolyline
 62
7
  6
CONTINUOUS
 90
65
 70
0
 10
242.289143229
 20
82.6943175005
 10
242.1041166026
 20
82.7308864586
 10
241.9214769958
 20
82.7694623928
 10
241.7412825704
 20
82.8099487492
 10
241.563616259
 20
82.8522505692
 10
241.3885606833
 20
82.8962811028
 10
241.2161707076
 20
82.941959492
 10
241.0464998921
 20
82.9892043123
 10
240.879622025
 20
83.0379272466
 10
240.7156095183
 20
83.0880435369
 10
240.5545185982
 20
83.1394812186
 10
240.3964159845
 20
83.192163192
 10
240.2413342745
 20
83.2460210578
 10
240.0893735078
 20
83.3009601262
 10
239.940387508
 20
83.3569791944
 10
239.7943272631
 20
83.4140581515
 10
239.6510365526
 20
83.4722253712
 10
239.510376915
 20
83.5315111327
 10
239.3722534282
 20
83.5919356611
 10
239.2365680342
 20
83.6535328672
 10
239.103239795
 20
83.7163489823
 10
238.9721922584
 20
83.7804379959
 10
238.8433569955
 20
83.8458590927
 10
238.7166368298
 20
83.9126975059
 10
238.5920865738
 20
83.9809757389
 10
238.469745465
 20
84.0507411952
 10
238.3497070697
 20
84.1220185276
 10
238.232060223
 20
84.194842046
 10
238.1169002022
 20
84.2692520349
 10
238.0043731073
 20
84.3452725377
 10
237.8947067675
 20
84.422888193
 10
237.788137178
 20
84.5020912877
 10
237.68487904
 20
84.5829073599
 10
237.5852724455
 20
84.665249182
 10
237.4896354866
 20
84.749051485
 10
237.3985103499
 20
84.8341002371
 10
237.3118895826
 20
84.9207734487
 10
237.2302716376
 20
85.0089183702
 10
237.1539393269
 20
85.0987024584
 10
237.0838189448
 20
85.1899474403
 10
237.0206049557
 20
85.2829146742
 10
236.96566649
 20
85.3761179738
 10
236.9204936469
 20
85.4685021115
 10
236.8869971863
 20
85.5596643393
 10
236.8680280414
 20
85.6404091524
 10
236.8619063742
 20
85.7034758569
 10
236.8656111277
 20
85.7548545496
 10
236.8756295632
 20
85.800301772
 10
236.8915670181
 20
85.8441347946
 10
236.9140993653
 20
85.8884093065
 10
236.943385364
 20
85.9341500835
 10
236.980471331
 20
85.9827923127
 10
237.0244983969
 20
86.0323239096
 10
237.0751959802
 20
86.0820588494
 10
237.1317465928
 20
86.1313598636
 10
237.1935526132
 20
86.1798600123
 10
237.2599010332
 20
86.2271280088
 10
237.3300721983
 20
86.2728230087
 10
237.4042025239
 20
86.3171838543
 10
237.4825946018
 20
86.3604489851
 10
237.5647410726
 20
86.4023803325
 10
237.6504371062
 20
86.4429329734
 10
237.7392824509
 20
86.4819595843
 10
237.8308144405
 20
86.5193208924
 10
237.8701267453
 20
86.5342450164
  0
LWPOLYLINE
  5
5B0
100
AcDbEntity
  8
RUNDUNGEN
100
AcDbPolyline
 62
7
  6
CONTINUOUS
 90
3
 70
0
 10
243.6277427336
 20
82.4802228516
 10
243.8147188006
 20
82.4229552538
 10
243.9864482483
 20
82.3307473126
  0
LWPOLYLINE
  5
5B1
100
AcDbEntity
  8
RUNDUNGEN
100
AcDbPolyline
 62
7
  6
CONTINUOUS
 90
66
 70
0
 10
220.9896338213
 20
86.5342450164
 10
221.0098787918
 20
86.526689014
 10
221.1080397641
 20
86.4871128331
 10
221.2028392301
 20
86.4457888375
 10
221.2936539644
 20
86.4029504225
 10
221.3798175004
 20
86.3589295335
 10
221.4613612788
 20
86.3137196843
 10
221.5378747832
 20
86.2675616245
 10
221.6097430527
 20
86.2202175766
 10
221.6771649536
 20
86.1714508819
 10
221.7395066335
 20
86.1215902214
 10
221.7959461033
 20
86.0712231968
 10
221.846382524
 20
86.0202716989
 10
221.8903720264
 20
85.968809543
 10
221.9268799899
 20
85.9183531107
 10
221.9549471723
 20
85.8711554753
 10
221.9750510978
 20
85.8269231438
 10
221.9881020687
 20
85.7846831998
 10
221.9957302362
 20
85.7409759618
 10
221.9973141508
 20
85.6915203264
 10
221.9895200183
 20
85.6288770129
 10
221.9675695714
 20
85.5438808036
 10
221.9289717957
 20
85.445850156
 10
221.877216657
 20
85.3461580613
 10
221.814892407
 20
85.2461151071
 10
221.7449588141
 20
85.1486439457
 10
221.6688549729
 20
85.0544181171
 10
221.5873194109
 20
84.9627172044
 10
221.5015997652
 20
84.8738966195
 10
221.4121506202
 20
84.7877687794
 10
221.3196323424
 20
84.7043546602
 10
221.2243082578
 20
84.623358515
 10
221.1266036623
 20
84.544749033
 10
221.0267855993
 20
84.4684356062
 10
220.9249862764
 20
84.3942464352
 10
220.8212628098
 20
84.3219910811
 10
220.7156314262
 20
84.2514968259
 10
220.6080937195
 20
84.1826194061
 10
220.4985419522
 20
84.1151798197
 10
220.3866891095
 20
84.0489275126
 10
220.2727833066
 20
83.9839501476
 10
220.1569427569
 20
83.9202545747
 10
220.0392570431
 20
83.8578329686
 10
219.9198611373
 20
83.7967088025
 10
219.798638293
 20
83.7367863484
 10
219.6755272618
 20
83.6780090043
 10
219.5504541501
 20
83.6203220608
 10
219.4233409481
 20
83.5636764349
 10
219.2941109465
 20
83.5080368119
 10
219.1626827733
 20
83.4533795873
 10
219.0289356371
 20
83.3996716313
 10
218.8927524969
 20
83.3468884821
 10
218.7540331546
 20
83.2950182633
 10
218.6126183429
 20
83.244036651
 10
218.4685494073
 20
83.1940053057
 10
218.3217903048
 20
83.1449601199
 10
218.1724106384
 20
83.0969723175
 10
218.0204511711
 20
83.0501009649
 10
217.8659731368
 20
83.0044099403
 10
217.7090340055
 20
82.9599677574
 10
217.5496816632
 20
82.9168433482
 10
217.3879693922
 20
82.8751060689
 10
217.2239466122
 20
82.8348231166
 10
217.057660302
 20
82.7960601419
 10
216.889180386
 20
82.7588915743
 10
216.718579008
 20
82.7233999474
  0
LINE
  5
5B2
100
AcDbEntity
  8
RUNDUNGEN
100
AcDbLine
 62
7
  6
CONTINUOUS
 10
214.4297771843
 20
174.2915048363
 11
214.4297771843
 21
174.2833137231
  0
LINE
  5
5B3
100
AcDbEntity
  8
RUNDUNGEN
100
AcDbLine
 62
7
  6
CONTINUOUS
 10
214.4297771843
 20
29.0915207746
 11
214.4297771843
 21
37.2615882219
  0
LINE
  5
5B4
100
AcDbEntity
  8
RUNDUNGEN
100
AcDbLine
 62
7
  6
CONTINUOUS
 10
214.4297771843
 20
39.0339932796
 11
214.4297771843
 21
53.3967080351
  0
LINE
  5
5B5
100
AcDbEntity
  8
RUNDUNGEN
100
AcDbLine
 62
7
  6
CONTINUOUS
 10
214.4297771843
 20
74.4682882666
 11
214.4297771843
 21
81.5000143282
  0
LINE
  5
5B6
100
AcDbEntity
  8
RUNDUNGEN
100
AcDbLine
 62
7
  6
CONTINUOUS
 10
214.4297771843
 20
87.5342450164
 11
214.4297771843
 21
91.074737091
  0
LINE
  5
5B7
100
AcDbEntity
  8
RUNDUNGEN
100
AcDbLine
 62
7
  6
CONTINUOUS
 10
214.4297771843
 20
130.8735487934
 11
214.4297771843
 21
137.0766136786
  0
LINE
  5
5B8
100
AcDbEntity
  8
RUNDUNGEN
100
AcDbLine
 62
7
  6
CONTINUOUS
 10
214.4297771843
 20
158.1481939101
 11
214.4297771843
 21
163.1063446289
  0
LINE
  5
5B9
100
AcDbEntity
  8
RUNDUNGEN
100
AcDbLine
 62
7
  6
CONTINUOUS
 10
214.4297771843
 20
163.1366477414
 11
214.4297771843
 21
172.5109086656
  0
LINE
  5
5BA
100
AcDbEntity
  8
0
100
AcDbLine
 62
7
  6
CONTINUOUS
 10
214.4297771843
 20
174.7949967302
 11
214.4297771843
 21
182.4533811705
  0
LINE
  5
5BB
100
AcDbEntity
  8
RUNDUNGEN
100
AcDbLine
 62
7
  6
CONTINUOUS
 10
214.4297771843
 20
174.3172344374
 11
214.4297771843
 21
182.4533811705
  0
LINE
  5
5BC
100
AcDbEntity
  8
RUNDUNGEN
100
AcDbLine
 62
7
  6
CONTINUOUS
 10
214.4487063905
 20
81.527399449
 11
214.4297771843
 21
81.3523776605
  0
LINE
  5
5BD
100
AcDbEntity
  8
0
100
AcDbLine
 62
7
  6
CONTINUOUS
 10
234.5747839343
 20
167.5324159901
 11
234.7585859887
 21
168.1011775493
  0
LINE
  5
5BE
100
AcDbEntity
  8
0
100
AcDbLine
 62
2
  6
CONTINUOUS
 10
236.5375793566
 20
134.3695896655
 11
223.6654406636
 21
121.4974509726
  0
LINE
  5
5BF
100
AcDbEntity
  8
0
100
AcDbLine
 62
2
  6
CONTINUOUS
 10
239.8676504767
 20
131.7987434432
 11
229.5663580061
 21
121.4974509726
  0
LINE
  5
5C0
100
AcDbEntity
  8
RUNDUNGEN
100
AcDbLine
 62
7
  6
CONTINUOUS
 10
219.9906380805
 20
92.7750025913
 11
215.2805080905
 21
92.064092095
  0
LINE
  5
5C1
100
AcDbEntity
  8
RUNDUNGEN
100
AcDbLine
 62
7
  6
CONTINUOUS
 10
243.5790313233
 20
92.0640943524
 11
238.868922908
 21
92.7751005396
  0
LWPOLYLINE
  5
5C2
100
AcDbEntity
  8
RUNDUNGEN
100
AcDbPolyline
 62
7
  6
CONTINUOUS
 90
5
 70
0
 10
238.868881437
 20
92.7750386412
 10
238.7934493711
 20
92.7873005005
 10
238.5067367678
 20
92.8496207459
 10
238.2077442719
 20
92.9400756252
 10
237.9003429129
 20
93.0593613611
  0
LWPOLYLINE
  5
5C3
100
AcDbEntity
  8
RUNDUNGEN
100
AcDbPolyline
 62
7
  6
CONTINUOUS
 90
3
 70
0
 10
224.2882948558
 20
73.4435269559
 10
224.3222649952
 20
73.3482291564
 10
224.373725342
 20
73.1516654545
  0
LWPOLYLINE
  5
5C4
100
AcDbEntity
  8
0
100
AcDbPolyline
 62
7
  6
CONTINUOUS
 90
4
 70
0
 10
214.4297771843
 20
163.1366477414
 10
214.4489154145
 20
162.9419434406
 10
214.5057218626
 20
162.7543889777
 10
214.5981305189
 20
162.5813425812
  0
LINE
  5
5C5
100
AcDbEntity
  8
RUNDUNGEN
100
AcDbLine
 62
7
  6
CONTINUOUS
 10
228.1720518026
 20
37.6226246931
 11
228.1779764604
 21
37.5600601179
  0
LINE
  5
5C6
100
AcDbEntity
  8
RUNDUNGEN
100
AcDbLine
 62
7
  6
CONTINUOUS
 10
224.4297771843
 20
58.9809706011
 11
224.4297771843
 21
72.6172794959
  0
LINE
  5
5C7
100
AcDbEntity
  8
RUNDUNGEN
100
AcDbLine
 62
7
  6
CONTINUOUS
 10
224.4297771843
 20
97.3447487187
 11
224.4297771843
 21
105.7724509732
  0
LINE
  5
5C8
100
AcDbEntity
  8
0
100
AcDbLine
 62
7
  6
CONTINUOUS
 10
224.4297771843
 20
140.2452072139
 11
224.4297771843
 21
167.6423054096
  0
LWPOLYLINE
  5
5C9
100
AcDbEntity
  8
0
100
AcDbPolyline
 62
7
  6
CONTINUOUS
 90
7
 70
0
 10
234.7057581702
 20
149.8435684759
 10
234.8757306145
 20
150.5433452184
 10
235.0853116559
 20
151.2078655112
 10
235.3317305193
 20
151.8263235218
 10
235.6219833285
 20
152.408416425
 10
235.964801875
 20
152.9519806408
 10
236.1933790933
 20
153.2459691366
  0
LWPOLYLINE
  5
5CA
100
AcDbEntity
  8
RUNDUNGEN
100
AcDbPolyline
 62
7
  6
CONTINUOUS
 90
3
 70
0
 10
214.5064741651
 20
81.8840866323
 10
214.4491476698
 20
81.6958789105
 10
214.4297771843
 20
81.5000143282
  0
LINE
  5
5CB
100
AcDbEntity
  8
0
100
AcDbLine
 62
2
  6
CONTINUOUS
 10
244.8163419292
 20
130.8465175532
 11
235.4672753486
 21
121.4974509726
  0
LWPOLYLINE
  5
5CC
100
AcDbEntity
  8
RUNDUNGEN
100
AcDbPolyline
 62
7
  6
CONTINUOUS
 90
3
 70
0
 10
237.9003429129
 20
93.0593613611
 10
237.5885975137
 20
93.2073042855
 10
237.4933151844
 20
93.257981674
  0
LWPOLYLINE
  5
5CD
100
AcDbEntity
  8
RUNDUNGEN
100
AcDbPolyline
 62
7
  6
CONTINUOUS
 90
6
 70
0
 10
237.4933154607
 20
93.2580229171
 10
237.2735099158
 20
93.384925025
 10
237.0478492956
 20
93.5301205574
 10
236.8205250803
 20
93.6922628103
 10
236.5928511136
 20
93.8714254403
 10
236.5649315569
 20
93.8945940963
  0
LWPOLYLINE
  5
5CE
100
AcDbEntity
  8
RUNDUNGEN
100
AcDbPolyline
 62
7
  6
CONTINUOUS
 90
4
 70
0
 10
243.9864482483
 20
82.3307473126
 10
244.1372154912
 20
82.2067894282
 10
244.2606978099
 20
82.056405295
 10
244.3530802035
 20
81.8840866323
  0
LWPOLYLINE
  5
5CF
100
AcDbEntity
  8
RUNDUNGEN
100
AcDbPolyline
 62
7
  6
CONTINUOUS
 90
4
 70
0
 10
244.1392997612
 20
81.9880811113
 10
244.263014129
 20
81.8511836328
 10
244.3546215459
 20
81.695492539
 10
244.4108479781
 20
81.5268988204
  0
LWPOLYLINE
  5
5D0
100
AcDbEntity
  8
RUNDUNGEN
100
AcDbPolyline
 62
7
  6
CONTINUOUS
 90
3
 70
0
 10
224.373725342
 20
73.1516654545
 10
224.4128444398
 20
72.9139426097
 10
224.4297774456
 20
72.6205696502
  0
LINE
  5
5D1
100
AcDbEntity
  8
RUNDUNGEN
100
AcDbLine
 62
7
  6
CONTINUOUS
 10
228.1779764604
 20
37.5600601179
 11
228.1797771859
 21
37.4756282552
  0
LWPOLYLINE
  5
5D2
100
AcDbEntity
  8
RUNDUNGEN
100
AcDbPolyline
 62
7
  6
CONTINUOUS
 90
5
 70
0
 10
228.1797771843
 20
56.7654653007
 10
228.1800635076
 20
56.7350236381
 10
228.1809245077
 20
56.7049162331
 10
228.182362984
 20
56.6751566656
 10
228.1843814033
 20
56.6457586548
  0
LINE
  5
5D3
100
AcDbEntity
  8
RUNDUNGEN
100
AcDbLine
 62
7
  6
CONTINUOUS
 10
228.1797771843
 20
31.2155263078
 11
228.1797771843
 21
37.4757346689
  0
LINE
  5
5D4
100
AcDbEntity
  8
RUNDUNGEN
100
AcDbLine
 62
7
  6
CONTINUOUS
 10
228.1797771843
 20
56.7654653007
 11
228.1797771843
 21
67.7637175004
  0
LINE
  5
5D5
100
AcDbEntity
  8
RUNDUNGEN
100
AcDbLine
 62
7
  6
CONTINUOUS
 10
228.1797771843
 20
98.9751572963
 11
228.1797771843
 21
105.7724509732
  0
LINE
  5
5D6
100
AcDbEntity
  8
RUNDUNGEN
100
AcDbLine
 62
7
  6
CONTINUOUS
 10
224.4297771628
 20
64.476458703
 11
224.4194201701
 21
63.9222222123
  0
LWPOLYLINE
  5
5D7
100
AcDbEntity
  8
RUNDUNGEN
100
AcDbPolyline
 62
7
  6
CONTINUOUS
 90
3
 70
0
 10
224.429777121
 20
99.4421877301
 10
224.4099725854
 20
98.8136211755
 10
224.321003765
 20
97.9796302482
  0
LWPOLYLINE
  5
5D8
100
AcDbEntity
  8
RUNDUNGEN
100
AcDbPolyline
 62
7
  6
CONTINUOUS
 90
10
 70
0
 10
224.4194201701
 20
63.9222222123
 10
224.3632680682
 20
63.0840077234
 10
224.2614655781
 20
62.2865770289
 10
224.1170132411
 20
61.5320964615
 10
223.9328953641
 20
60.8244069671
 10
223.7119696578
 20
60.1671300402
 10
223.4596536236
 20
59.5696966339
 10
223.1744776981
 20
59.026046477
 10
222.8545817544
 20
58.5376015135
 10
222.666073013
 20
58.2988078397
  0
LWPOLYLINE
  5
5D9
100
AcDbEntity
  8
RUNDUNGEN
100
AcDbPolyline
 62
7
  6
CONTINUOUS
 90
6
 70
0
 10
224.321003765
 20
97.9796302482
 10
224.1670560103
 20
97.196195432
 10
223.9540215561
 20
96.4667770865
 10
223.6891142131
 20
95.8003025275
 10
223.3738888551
 20
95.1934798113
 10
223.0077143851
 20
94.6476696343
  0
LWPOLYLINE
  5
5DA
100
AcDbEntity
  8
0
100
AcDbPolyline
 62
7
  6
CONTINUOUS
 90
41
 70
0
 10
236.8559819644
 20
158.2291748626
 10
236.8507609412
 20
158.204925979
 10
236.8483235396
 20
158.1969502446
 10
236.8583739
 20
158.2178167863
 10
236.8871307008
 20
158.2655854071
 10
236.9349048206
 20
158.3329768427
 10
236.9990676106
 20
158.4131079739
 10
237.0778634858
 20
158.5017803203
 10
237.1682390558
 20
158.595025032
 10
237.2690945878
 20
158.6920715473
 10
237.379232978
 20
158.7917883676
 10
237.4975505117
 20
158.8932496992
 10
237.6231437634
 20
158.9959795459
 10
237.7553073447
 20
159.0995729329
 10
237.8934735484
 20
159.2036765683
 10
238.0369951451
 20
159.3079981118
 10
238.1853393759
 20
159.4123222428
 10
238.3378650723
 20
159.5163174933
 10
238.4939623137
 20
159.6197044112
 10
238.6534033639
 20
159.7224782639
 10
238.8158287503
 20
159.8245218544
 10
238.9811303734
 20
159.9258554841
 10
239.1492093267
 20
160.0265055585
 10
239.319966875
 20
160.1264879918
 10
239.4933158088
 20
160.2258089499
 10
239.6691713739
 20
160.3244636518
 10
239.847482656
 20
160.4224648268
 10
240.0282030248
 20
160.5198202506
 10
240.2112873448
 20
160.6165295435
 10
240.3966984362
 20
160.7125886284
 10
240.5844122392
 20
160.8079963769
 10
240.7744138628
 20
160.9027512899
 10
240.9666933576
 20
160.9968481395
 10
241.1612199078
 20
161.0902657239
 10
241.3579870806
 20
161.1829896886
 10
241.5569321279
 20
161.2749750204
 10
241.757995036
 20
161.3661747923
 10
241.9611626472
 20
161.456559458
 10
242.1664095727
 20
161.5460891719
 10
242.3737123639
 20
161.6347192431
 10
242.5830464489
 20
161.7223991535
  0
LINE
  5
5DB
100
AcDbEntity
  8
0
100
AcDbLine
 62
2
  6
CONTINUOUS
 10
248.3837633697
 20
128.5130216512
 11
241.3681926911
 21
121.4974509726
  0
LINE
  5
5DC
100
AcDbEntity
  8
02___PRT_ALL_AXES
100
AcDbLine
 62
7
  6
CENTER
 10
207.3797771843
 20
105.7724509726
 11
251.4797771843
 21
105.7724509726
  0
LINE
  5
5DD
100
AcDbEntity
  8
0
100
AcDbLine
 62
2
  6
CONTINUOUS
 10
210.3797771843
 20
105.7724509732
 11
248.4797771843
 21
105.7724509732
  0
LWPOLYLINE
  5
5DE
100
AcDbEntity
  8
RUNDUNGEN
100
AcDbPolyline
 62
7
  6
CONTINUOUS
 90
3
 70
0
 10
236.5652680608
 20
93.8943533871
 10
236.4817278813
 20
93.9663180934
 10
236.337197892
 20
94.1011062017
  0
LWPOLYLINE
  5
5DF
100
AcDbEntity
  8
RUNDUNGEN
100
AcDbPolyline
 62
7
  6
CONTINUOUS
 90
3
 70
0
 10
236.337197892
 20
94.1011062017
 10
236.1905214466
 20
94.2506700119
 10
236.095290105
 20
94.3539660141
  0
LINE
  5
5E0
100
AcDbEntity
  8
RUNDUNGEN
100
AcDbLine
 62
7
  6
CONTINUOUS
 10
236.0953045089
 20
94.3539789786
 11
236.0962748227
 21
94.3528992169
  0
LINE
  5
5E1
100
AcDbEntity
  8
RUNDUNGEN
100
AcDbLine
 62
7
  6
CONTINUOUS
 10
236.0962748227
 20
94.3528992169
 11
235.8516969811
 21
94.6478606369
  0
LWPOLYLINE
  5
5E2
100
AcDbEntity
  8
RUNDUNGEN
100
AcDbPolyline
 62
7
  6
CONTINUOUS
 90
5
 70
0
 10
235.8516969811
 20
94.6478606369
 10
235.4852975544
 20
95.1941073406
 10
235.1697946887
 20
95.801721982
 10
234.9047837768
 20
96.4689599868
 10
234.6918673363
 20
97.1987886348
  0
LINE
  5
5E3
100
AcDbEntity
  8
RUNDUNGEN
100
AcDbLine
 62
7
  6
CONTINUOUS
 10
234.4378644817
 20
63.9865005268
 11
234.4297772141
 21
64.4764767121
  0
LINE
  5
5E4
100
AcDbEntity
  8
RUNDUNGEN
100
AcDbLine
 62
7
  6
CONTINUOUS
 10
230.6797771843
 20
105.7724509732
 11
230.6797771843
 21
98.9751572963
  0
LINE
  5
5E5
100
AcDbEntity
  8
RUNDUNGEN
100
AcDbLine
 62
7
  6
CONTINUOUS
 10
230.6797771843
 20
31.2155263078
 11
230.6797771843
 21
37.4757346689
  0
LINE
  5
5E6
100
AcDbEntity
  8
RUNDUNGEN
100
AcDbLine
 62
7
  6
CONTINUOUS
 10
230.6797771843
 20
56.7654653007
 11
230.6797771843
 21
67.7637175004
  0
LINE
  5
5E7
100
AcDbEntity
  8
RUNDUNGEN
100
AcDbLine
 62
7
  6
CONTINUOUS
 10
234.4297771843
 20
105.7724509732
 11
234.4297771843
 21
97.3447546383
  0
LINE
  5
5E8
100
AcDbEntity
  8
RUNDUNGEN
100
AcDbLine
 62
7
  6
CONTINUOUS
 10
234.4297771843
 20
72.6172864731
 11
234.4297771843
 21
58.9809860989
  0
LINE
  5
5E9
100
AcDbEntity
  8
0
100
AcDbLine
 62
7
  6
CONTINUOUS
 10
234.4297771843
 20
140.2452072139
 11
234.4297771843
 21
167.6423054096
  0
LINE
  5
5EA
100
AcDbEntity
  8
0
100
AcDbLine
 62
7
  6
CONTINUOUS
 10
234.9297771843
 20
168.4380562511
 11
234.9297771843
 21
165.8971418516
  0
LINE
  5
5EB
100
AcDbEntity
  8
0
100
AcDbLine
 62
7
  6
CONTINUOUS
 10
234.9297771843
 20
147.6729192384
 11
234.9297771843
 21
143.9800290329
  0
LINE
  5
5EC
100
AcDbEntity
  8
0
100
AcDbLine
 62
7
  6
CONTINUOUS
 10
234.9297771843
 20
143.6255175365
 11
234.9297771843
 21
142.4747199353
  0
LWPOLYLINE
  5
5ED
100
AcDbEntity
  8
0
100
AcDbPolyline
 62
7
  6
CONTINUOUS
 90
5
 70
0
 10
234.429777214
 20
147.0684250961
 10
234.437864482
 20
147.5584014441
 10
234.4856593691
 20
148.3465948931
 10
234.575274123
 20
149.1093282095
 10
234.7057581702
 20
149.8435684759
  0
LINE
  5
5EE
100
AcDbEntity
  8
RUNDUNGEN
100
AcDbLine
 62
7
  6
CONTINUOUS
 10
230.6797771864
 20
37.4756515522
 11
230.6816888567
 21
37.5626171852
  0
LWPOLYLINE
  5
5EF
100
AcDbEntity
  8
0
100
AcDbPolyline
 62
7
  6
CONTINUOUS
 90
3
 70
0
 10
234.4297773494
 20
166.262365748
 10
234.4594807582
 20
166.8562820058
 10
234.5747839343
 20
167.5324159901
  0
LWPOLYLINE
  5
5F0
100
AcDbEntity
  8
RUNDUNGEN
100
AcDbPolyline
 62
7
  6
CONTINUOUS
 90
5
 70
0
 10
230.6751729653
 20
56.6457586548
 10
230.6771913857
 20
56.6751566833
 10
230.6786298619
 20
56.7049162568
 10
230.6794908614
 20
56.7350236558
 10
230.6797771843
 20
56.7654653007
  0
LWPOLYLINE
  5
5F1
100
AcDbEntity
  8
RUNDUNGEN
100
AcDbPolyline
 62
7
  6
CONTINUOUS
 90
7
 70
0
 10
224.1537866724
 20
61.7012874607
 10
223.9838142243
 20
61.0015226382
 10
223.7742321378
 20
60.3370064364
 10
223.5278074547
 20
59.7185426136
 10
223.2375559507
 20
59.1364586866
 10
222.8947412227
 20
58.5929070834
 10
222.6661791122
 20
58.2989293587
  0
LINE
  5
5F2
100
AcDbEntity
  8
RUNDUNGEN
100
AcDbLine
 62
7
  6
CONTINUOUS
 10
223.0077143851
 20
94.6476696343
 11
222.7633116188
 21
94.3529185253
  0
LINE
  5
5F3
100
AcDbEntity
  8
RUNDUNGEN
100
AcDbLine
 62
7
  6
CONTINUOUS
 10
222.7633116188
 20
94.3529185253
 11
222.7642890841
 21
94.3540060154
  0
LWPOLYLINE
  5
5F4
100
AcDbEntity
  8
RUNDUNGEN
100
AcDbPolyline
 62
7
  6
CONTINUOUS
 90
4
 70
0
 10
214.7202546074
 20
81.9880811113
 10
214.5965402396
 20
81.851145416
 10
214.5049328228
 20
81.695492539
 10
214.4487063905
 20
81.527399449
  0
LWPOLYLINE
  5
5F5
100
AcDbEntity
  8
RUNDUNGEN
100
AcDbPolyline
 62
7
  6
CONTINUOUS
 90
4
 70
0
 10
222.7642658621
 20
94.3540269686
 10
222.6702484377
 20
94.2520042623
 10
222.5240328018
 20
94.102744589
 10
222.3795871482
 20
93.9679111931
  0
LINE
  5
5F6
100
AcDbEntity
  8
0
100
AcDbLine
 62
2
  6
CONTINUOUS
 10
248.4797771843
 20
122.7081181234
 11
247.2691100335
 21
121.4974509726
  0
LINE
  5
5F7
100
AcDbEntity
  8
RUNDUNGEN
100
AcDbLine
 62
7
  6
CONTINUOUS
 10
222.3795871482
 20
93.9679111931
 11
222.2943095749
 21
93.8944182598
  0
LWPOLYLINE
  5
5F8
100
AcDbEntity
  8
RUNDUNGEN
100
AcDbPolyline
 62
7
  6
CONTINUOUS
 90
6
 70
0
 10
222.2945865534
 20
93.8946495373
 10
222.2665587407
 20
93.8713069657
 10
222.0387897738
 20
93.692082576
 10
221.8114334995
 20
93.5299365953
 10
221.5858052367
 20
93.384779255
 10
221.3662799418
 20
93.2580450487
  0
LWPOLYLINE
  5
5F9
100
AcDbEntity
  8
RUNDUNGEN
100
AcDbPolyline
 62
7
  6
CONTINUOUS
 90
4
 70
0
 10
234.6918673363
 20
97.1987886348
 10
234.5381739689
 20
97.9821192602
 10
234.4494825592
 20
98.815183494
 10
234.4297772641
 20
99.4422224936
  0
LWPOLYLINE
  5
5FA
100
AcDbEntity
  8
0
100
AcDbPolyline
 62
7
  6
CONTINUOUS
 90
5
 70
0
 10
224.1170132534
 20
150.0128054279
 10
224.261465588
 20
149.258324854
 10
224.3632680746
 20
148.4608941563
 10
224.4194201716
 20
147.6226796933
 10
224.4297771628
 20
147.0684432902
  0
LWPOLYLINE
  5
5FB
100
AcDbEntity
  8
0
100
AcDbPolyline
 62
7
  6
CONTINUOUS
 90
3
 70
0
 10
224.2847665831
 20
167.5324316705
 10
224.4000753656
 20
166.8562648064
 10
224.4297770698
 20
166.2621546996
  0
LWPOLYLINE
  5
5FC
100
AcDbEntity
  8
RUNDUNGEN
100
AcDbPolyline
 62
7
  6
CONTINUOUS
 90
3
 70
0
 10
234.4297757616
 20
72.620577895
 10
234.4467081552
 20
72.9139240849
 10
234.4858166376
 20
73.1516099639
  0
LINE
  5
5FD
100
AcDbEntity
  8
RUNDUNGEN
100
AcDbLine
 62
7
  6
CONTINUOUS
 10
230.6816888567
 20
37.5626171852
 11
230.6873705772
 21
37.622666981
  0
LINE
  5
5FE
100
AcDbEntity
  8
0
100
AcDbLine
 62
7
  6
CONTINUOUS
 10
244.4105439921
 20
162.941465643
 11
244.4297771843
 21
163.1366477414
  0
LWPOLYLINE
  5
5FF
100
AcDbEntity
  8
RUNDUNGEN
100
AcDbPolyline
 62
7
  6
CONTINUOUS
 90
4
 70
0
 10
214.8731061203
 20
82.3307473126
 10
214.7223388774
 20
82.2067894282
 10
214.5988565588
 20
82.056405295
 10
214.5064741651
 20
81.8840866323
  0
LWPOLYLINE
  5
600
100
AcDbEntity
  8
RUNDUNGEN
100
AcDbPolyline
 62
7
  6
CONTINUOUS
 90
3
 70
0
 10
221.3662770638
 20
93.2580392366
 10
221.2709593204
 20
93.2073421513
 10
220.9591432981
 20
93.0593518353
  0
LWPOLYLINE
  5
601
100
AcDbEntity
  8
RUNDUNGEN
100
AcDbPolyline
 62
7
  6
CONTINUOUS
 90
5
 70
0
 10
220.9591432981
 20
93.0593518353
 10
220.6517044804
 20
92.9400383466
 10
220.3527084662
 20
92.8495776397
 10
220.066044688
 20
92.7872625143
 10
219.9906380805
 20
92.7750025913
  0
LWPOLYLINE
  5
602
100
AcDbEntity
  8
RUNDUNGEN
100
AcDbPolyline
 62
7
  6
CONTINUOUS
 90
3
 70
0
 10
244.3530802035
 20
81.8840866323
 10
244.4104066988
 20
81.6958789105
 10
244.4297771843
 20
81.5000143282
  0
LINE
  5
603
100
AcDbEntity
  8
RUNDUNGEN
100
AcDbLine
 62
7
  6
CONTINUOUS
 10
244.4108479781
 20
81.5268988204
 11
244.4297771843
 21
81.3523776605
  0
LINE
  5
604
100
AcDbEntity
  8
0
100
AcDbLine
 62
7
  6
CONTINUOUS
 10
244.4297771843
 20
174.7949967302
 11
244.4297771843
 21
174.3172344374
  0
LINE
  5
605
100
AcDbEntity
  8
RUNDUNGEN
100
AcDbLine
 62
7
  6
CONTINUOUS
 10
244.4297771843
 20
182.4533811705
 11
244.4297771843
 21
174.3172344374
  0
LINE
  5
606
100
AcDbEntity
  8
RUNDUNGEN
100
AcDbLine
 62
7
  6
CONTINUOUS
 10
244.4297771843
 20
174.2888960229
 11
244.4297771843
 21
174.2833256498
  0
LINE
  5
607
100
AcDbEntity
  8
RUNDUNGEN
100
AcDbLine
 62
7
  6
CONTINUOUS
 10
244.4297771843
 20
172.5109086656
 11
244.4297771843
 21
163.1366477414
  0
LINE
  5
608
100
AcDbEntity
  8
RUNDUNGEN
100
AcDbLine
 62
7
  6
CONTINUOUS
 10
244.4297771843
 20
163.1063446289
 11
244.4297771843
 21
158.1481922969
  0
LINE
  5
609
100
AcDbEntity
  8
RUNDUNGEN
100
AcDbLine
 62
7
  6
CONTINUOUS
 10
244.4297771843
 20
137.0766136786
 11
244.4297771843
 21
130.8735487934
  0
LINE
  5
60A
100
AcDbEntity
  8
RUNDUNGEN
100
AcDbLine
 62
7
  6
CONTINUOUS
 10
244.4297771843
 20
91.0747410247
 11
244.4297771843
 21
87.5342450164
  0
LINE
  5
60B
100
AcDbEntity
  8
RUNDUNGEN
100
AcDbLine
 62
7
  6
CONTINUOUS
 10
244.4297771843
 20
81.5000143282
 11
244.4297771843
 21
74.4682882666
  0
LINE
  5
60C
100
AcDbEntity
  8
RUNDUNGEN
100
AcDbLine
 62
7
  6
CONTINUOUS
 10
244.4297771843
 20
53.3967096483
 11
244.4297771843
 21
39.0339932796
  0
LINE
  5
60D
100
AcDbEntity
  8
RUNDUNGEN
100
AcDbLine
 62
7
  6
CONTINUOUS
 10
244.4297771843
 20
37.2615882279
 11
244.4297771843
 21
29.0915207746
  0
LINE
  5
60E
100
AcDbEntity
  8
0
100
AcDbLine
 62
7
  6
CONTINUOUS
 10
244.4297771843
 20
158.9693252246
 11
244.4297771843
 21
159.7025614156
  0
LINE
  5
60F
100
AcDbEntity
  8
0
100
AcDbLine
 62
7
  6
CONTINUOUS
 10
244.4297771843
 20
163.1366477414
 11
244.4297771843
 21
163.4375135998
  0
LWPOLYLINE
  5
610
100
AcDbEntity
  8
RUNDUNGEN
100
AcDbPolyline
 62
7
  6
CONTINUOUS
 90
3
 70
0
 10
234.4858166376
 20
73.1516099639
 10
234.5372652108
 20
73.3481503902
 10
234.5715982854
 20
73.4444778046
  0
LINE
  5
611
100
AcDbEntity
  8
0
100
AcDbLine
 62
7
  6
CONTINUOUS
 10
210.3797771843
 20
121.4974509726
 11
248.4797771843
 21
121.4974509726
  0
LINE
  5
612
100
AcDbEntity
  8
0
100
AcDbLine
 62
7
  6
CONTINUOUS
 10
224.1009036027
 20
168.101334819
 11
224.2847665831
 21
167.5324316705
  0
LWPOLYLINE
  5
613
100
AcDbEntity
  8
0
100
AcDbPolyline
 62
7
  6
CONTINUOUS
 90
7
 70
0
 10
244.4297771843
 20
172.5109086656
 10
244.4106203519
 20
172.7057069293
 10
244.3537900118
 20
172.8932701367
 10
244.2613819649
 20
173.0662765496
 10
244.1369838475
 20
173.2179155507
 10
243.9852923763
 20
173.3424150489
 10
243.8861999552
 20
173.3953677249
  0
LWPOLYLINE
  5
614
100
AcDbEntity
  8
0
100
AcDbPolyline
 62
7
  6
CONTINUOUS
 90
9
 70
0
 10
244.4297771843
 20
137.0766136786
 10
244.4110536377
 20
137.2692091596
 10
244.3547515325
 20
137.4566432238
 10
244.2622250209
 20
137.630717085
 10
244.1373031415
 20
137.7833010351
 10
243.9842400424
 20
137.908822067
 10
243.8108119176
 20
138.0011744024
 10
243.6247932778
 20
138.0574134537
 10
243.4297771843
 20
138.0766136786
  0
LINE
  5
615
100
AcDbEntity
  8
RUNDUNGEN
100
AcDbLine
 62
7
  6
CONTINUOUS
 10
248.4797771843
 20
105.7724509726
 11
248.4797771843
 21
83.7526775613
  0
LINE
  5
616
100
AcDbEntity
  8
0
100
AcDbLine
 62
7
  6
CONTINUOUS
 10
248.4797771843
 20
105.7724509732
 11
248.4797771843
 21
127.7927999466
  0
LWPOLYLINE
  5
617
100
AcDbEntity
  8
RUNDUNGEN
100
AcDbPolyline
 62
7
  6
CONTINUOUS
 90
9
 70
0
 10
244.4297771843
 20
74.4682882666
 10
244.4110536377
 20
74.2756927856
 10
244.3547515325
 20
74.0882587213
 10
244.2622250209
 20
73.9141848602
 10
244.1373031415
 20
73.76160091
 10
243.9842400424
 20
73.6360798781
 10
243.8108119176
 20
73.5437275428
 10
243.6247932778
 20
73.4874884914
 10
243.4297771843
 20
73.4682882666
  0
LWPOLYLINE
  5
618
100
AcDbEntity
  8
RUNDUNGEN
100
AcDbPolyline
 62
7
  6
CONTINUOUS
 90
6
 70
0
 10
244.4297771843
 20
39.0339932796
 10
244.4106203519
 20
38.8391950158
 10
244.3537900118
 20
38.6516318085
 10
244.2613819649
 20
38.4786253956
 10
244.1369838475
 20
38.3269863945
 10
243.9852923763
 20
38.2024868963
  0
LWPOLYLINE
  5
619
100
AcDbEntity
  8
RUNDUNGEN
100
AcDbPolyline
 62
7
  6
CONTINUOUS
 90
3
 70
0
 10
215.231811635
 20
82.4802228516
 10
215.044835568
 20
82.4229552538
 10
214.8731061203
 20
82.3307473126
  0
LINE
  5
61A
100
AcDbEntity
  8
RUNDUNGEN
100
AcDbLine
 62
7
  6
CONTINUOUS
 10
222.666073013
 20
58.2988078397
 11
222.6656425717
 21
58.2983021844
  0
LWPOLYLINE
  5
61B
100
AcDbEntity
  8
RUNDUNGEN
100
AcDbPolyline
 62
7
  6
CONTINUOUS
 90
5
 70
0
 10
222.6656280273
 20
58.2983145911
 10
222.593983942
 20
58.2157158059
 10
222.4614896369
 20
58.0728695342
 10
222.3309324057
 20
57.9456150979
 10
222.2523107307
 20
57.8758211197
  0
LINE
  5
61C
100
AcDbEntity
  8
0
100
AcDbLine
 62
7
  6
CONTINUOUS
 10
213.1705077631
 20
130.7854920974
 11
215.7785123901
 21
130.9678615465
  0
LINE
  5
61D
100
AcDbEntity
  8
0
100
AcDbLine
 62
7
  6
CONTINUOUS
 10
243.0810419785
 20
130.9678615465
 11
245.6890466055
 21
130.7854920974
  0
LINE
  5
61E
100
AcDbEntity
  8
RUNDUNGEN
100
AcDbLine
 62
7
  6
CONTINUOUS
 10
222.6660730575
 20
153.2460940711
 11
222.6656426024
 21
153.2465997422
  0
LWPOLYLINE
  5
61F
100
AcDbEntity
  8
0
100
AcDbPolyline
 62
7
  6
CONTINUOUS
 90
3
 70
0
 10
214.5981305189
 20
162.5813425812
 10
214.7225420019
 20
162.4296693847
 10
214.8742844986
 20
162.3051263238
  0
LINE
  5
620
100
AcDbEntity
  8
0
100
AcDbLine
 62
7
  6
CONTINUOUS
 10
234.8822898009
 20
137.5556315711
 11
234.8154938936
 21
137.638476229
  0
LWPOLYLINE
  5
621
100
AcDbEntity
  8
0
100
AcDbPolyline
 62
7
  6
CONTINUOUS
 90
7
 70
0
 10
222.6660730575
 20
153.2460940711
 10
222.8545817248
 20
153.0073004579
 10
223.17447768
 20
152.518855504
 10
223.4596536145
 20
151.9752053268
 10
223.7119696777
 20
151.3777718503
 10
223.9328953825
 20
150.720494914
 10
224.1170132534
 20
150.0128054279
  0
LINE
  5
622
100
AcDbEntity
  8
RUNDUNGEN
100
AcDbLine
 62
7
  6
CONTINUOUS
 10
222.2523107307
 20
57.8758211197
 11
222.2521039013
 21
57.8756446843
  0
LWPOLYLINE
  5
623
100
AcDbEntity
  8
RUNDUNGEN
100
AcDbPolyline
 62
7
  6
CONTINUOUS
 90
3
 70
0
 10
222.2521153986
 20
57.8756312466
 10
222.1083086436
 20
57.7548234683
 10
221.8342890664
 20
57.5349117101
  0
LWPOLYLINE
  5
624
100
AcDbEntity
  8
RUNDUNGEN
100
AcDbPolyline
 62
7
  6
CONTINUOUS
 90
3
 70
0
 10
221.8340995497
 20
57.5347683818
 10
221.5554298422
 20
57.3240151004
 10
221.2729197736
 20
57.1226476296
  0
LINE
  5
625
100
AcDbEntity
  8
0
100
AcDbLine
 62
7
  6
CONTINUOUS
 10
215.4297771843
 20
138.0766136786
 11
215.2315198446
 21
138.0567631257
  0
LINE
  5
626
100
AcDbEntity
  8
0
100
AcDbLine
 62
7
  6
CONTINUOUS
 10
224.1699461631
 20
138.0960160825
 11
223.740619945
 21
138.0765934598
  0
LINE
  5
627
100
AcDbEntity
  8
0
100
AcDbLine
 62
7
  6
CONTINUOUS
 10
243.4297771843
 20
138.0766136786
 11
235.1191757545
 21
138.0766136786
  0
LINE
  5
628
100
AcDbEntity
  8
0
100
AcDbLine
 62
7
  6
CONTINUOUS
 10
223.7406198424
 20
138.0766136786
 11
215.4297771843
 21
138.0766136786
  0
LINE
  5
629
100
AcDbEntity
  8
0
100
AcDbLine
 62
7
  6
CONTINUOUS
 10
235.1191791529
 20
138.076506627
 11
234.6898163025
 21
138.0952597403
  0
LWPOLYLINE
  5
62A
100
AcDbEntity
  8
0
100
AcDbPolyline
 62
7
  6
CONTINUOUS
 90
4
 70
0
 10
234.8297376431
 20
137.5867063801
 10
234.8645709989
 20
137.5626942465
 10
234.9092487562
 20
137.5283347842
 10
234.8822898009
 20
137.5556315711
  0
LINE
  5
62B
100
AcDbEntity
  8
RUNDUNGEN
100
AcDbLine
 62
7
  6
CONTINUOUS
 10
222.2523107044
 20
153.6690809557
 11
222.2521039446
 21
153.6692573319
  0
LWPOLYLINE
  5
62C
100
AcDbEntity
  8
0
100
AcDbPolyline
 62
7
  6
CONTINUOUS
 90
5
 70
0
 10
222.2523107044
 20
153.6690809557
 10
222.3309331085
 20
153.5992862125
 10
222.4614902031
 20
153.4720319014
 10
222.5939842
 20
153.3291860478
 10
222.6656281373
 20
153.246587403
  0
LWPOLYLINE
  5
62D
100
AcDbEntity
  8
0
100
AcDbPolyline
 62
7
  6
CONTINUOUS
 90
3
 70
0
 10
223.5831614064
 20
168.9386033279
 10
223.863874454
 20
168.5676952874
 10
224.1009036027
 20
168.101334819
  0
LINE
  5
62E
100
AcDbEntity
  8
RUNDUNGEN
100
AcDbLine
 62
7
  6
CONTINUOUS
 10
221.2726803934
 20
57.1224863372
 11
221.0182841941
 21
56.951076375
  0
LINE
  5
62F
100
AcDbEntity
  8
RUNDUNGEN
100
AcDbLine
 62
7
  6
CONTINUOUS
 10
221.0182801453
 20
56.9510283924
 11
220.8463462926
 21
56.8402207014
  0
LWPOLYLINE
  5
630
100
AcDbEntity
  8
RUNDUNGEN
100
AcDbPolyline
 62
7
  6
CONTINUOUS
 90
6
 70
0
 10
220.8465097684
 20
56.8403515465
 10
220.3711118487
 20
56.554128511
 10
219.9000851587
 20
56.2983372256
 10
219.4385058313
 20
56.0735241206
 10
218.9908431692
 20
55.8796830449
 10
218.8990779608
 20
55.8429015235
  0
LINE
  5
631
100
AcDbEntity
  8
0
100
AcDbLine
 62
7
  6
CONTINUOUS
 10
234.4297771843
 20
142.4747199353
 11
234.9297771843
 21
142.4747199353
  0
LINE
  5
632
100
AcDbEntity
  8
0
100
AcDbLine
 62
7
  6
CONTINUOUS
 10
234.4297771843
 20
142.6085158754
 11
234.9297771843
 21
142.6085158754
  0
LINE
  5
633
100
AcDbEntity
  8
0
100
AcDbLine
 62
7
  6
CONTINUOUS
 10
234.4297771843
 20
143.4488764062
 11
234.9297771843
 21
143.4488764062
  0
LINE
  5
634
100
AcDbEntity
  8
0
100
AcDbLine
 62
7
  6
CONTINUOUS
 10
234.4297771843
 20
143.6255175365
 11
234.9297771843
 21
143.6255175365
  0
LINE
  5
635
100
AcDbEntity
  8
0
100
AcDbLine
 62
7
  6
CONTINUOUS
 10
234.4245610138
 20
143.6462822761
 11
234.9297771843
 21
143.6462822761
  0
LINE
  5
636
100
AcDbEntity
  8
0
100
AcDbLine
 62
7
  6
CONTINUOUS
 10
234.4297771843
 20
143.9800290329
 11
234.9297771843
 21
143.9800290329
  0
LINE
  5
637
100
AcDbEntity
  8
0
100
AcDbLine
 62
7
  6
CONTINUOUS
 10
234.4297771843
 20
144.7644684651
 11
234.9297771843
 21
144.7644684651
  0
LINE
  5
638
100
AcDbEntity
  8
0
100
AcDbLine
 62
7
  6
CONTINUOUS
 10
234.4297771843
 20
145.281666137
 11
234.9297771843
 21
145.281666137
  0
LINE
  5
639
100
AcDbEntity
  8
0
100
AcDbLine
 62
7
  6
CONTINUOUS
 10
234.4297771843
 20
145.4106245991
 11
234.9297771843
 21
145.4106245991
  0
LWPOLYLINE
  5
63A
100
AcDbEntity
  8
0
100
AcDbPolyline
 62
7
  6
CONTINUOUS
 90
6
 70
0
 10
221.0182853959
 20
154.5938247759
 10
221.2729217053
 20
154.4222529802
 10
221.5554316808
 20
154.2208854947
 10
221.8342905194
 20
154.0099891022
 10
222.1083094834
 20
153.7900777831
 10
222.2521153901
 20
153.6692707088
  0
LINE
  5
63B
100
AcDbEntity
  8
RUNDUNGEN
100
AcDbLine
 62
7
  6
CONTINUOUS
 10
218.8991504356
 20
55.8429021351
 11
215.0621703648
 21
54.3265751985
  0
LINE
  5
63C
100
AcDbEntity
  8
0
100
AcDbLine
 62
7
  6
CONTINUOUS
 10
234.4297771843
 20
145.9799313748
 11
234.9297771843
 21
145.9799313748
  0
LINE
  5
63D
100
AcDbEntity
  8
0
100
AcDbLine
 62
7
  6
CONTINUOUS
 10
234.4297771843
 20
146.104149444
 11
234.9297771843
 21
146.104149444
  0
LINE
  5
63E
100
AcDbEntity
  8
0
100
AcDbLine
 62
7
  6
CONTINUOUS
 10
234.4297771843
 20
146.1402320003
 11
234.9297771843
 21
146.1402320003
  0
LINE
  5
63F
100
AcDbEntity
  8
0
100
AcDbLine
 62
7
  6
CONTINUOUS
 10
234.4297771843
 20
146.2218089785
 11
234.9297771843
 21
146.2218089785
  0
LINE
  5
640
100
AcDbEntity
  8
0
100
AcDbLine
 62
7
  6
CONTINUOUS
 10
234.4297771843
 20
146.4124159543
 11
234.9297771843
 21
146.4124159543
  0
LINE
  5
641
100
AcDbEntity
  8
0
100
AcDbLine
 62
7
  6
CONTINUOUS
 10
234.4297771843
 20
146.5426245637
 11
234.9297771843
 21
146.5426245637
  0
LINE
  5
642
100
AcDbEntity
  8
0
100
AcDbLine
 62
7
  6
CONTINUOUS
 10
234.4297771843
 20
146.6759704473
 11
234.9297771843
 21
146.6759704473
  0
LINE
  5
643
100
AcDbEntity
  8
0
100
AcDbLine
 62
7
  6
CONTINUOUS
 10
234.4297771843
 20
146.8579479599
 11
234.9297771843
 21
146.8579479599
  0
LINE
  5
644
100
AcDbEntity
  8
0
100
AcDbLine
 62
7
  6
CONTINUOUS
 10
234.4297771843
 20
146.997568373
 11
234.9297771843
 21
146.997568373
  0
LINE
  5
645
100
AcDbEntity
  8
0
100
AcDbLine
 62
7
  6
CONTINUOUS
 10
234.4297771843
 20
147.1403260352
 11
234.9297771843
 21
147.1403260352
  0
LINE
  5
646
100
AcDbEntity
  8
0
100
AcDbLine
 62
7
  6
CONTINUOUS
 10
234.4297771843
 20
147.5050633851
 11
234.9297771843
 21
147.5050633851
  0
LINE
  5
647
100
AcDbEntity
  8
0
100
AcDbLine
 62
7
  6
CONTINUOUS
 10
234.4297771843
 20
147.6054640017
 11
234.9297771843
 21
147.6054640017
  0
LINE
  5
648
100
AcDbEntity
  8
0
100
AcDbLine
 62
7
  6
CONTINUOUS
 10
234.4297771843
 20
147.6603701741
 11
234.9297771843
 21
147.6603701741
  0
LINE
  5
649
100
AcDbEntity
  8
0
100
AcDbLine
 62
7
  6
CONTINUOUS
 10
234.4285544736
 20
147.6729192384
 11
234.9297771843
 21
147.6729192384
  0
LINE
  5
64A
100
AcDbEntity
  8
RUNDUNGEN
100
AcDbLine
 62
7
  6
CONTINUOUS
 10
215.0621442818
 20
157.2183371948
 11
215.0620882893
 21
157.218359182
  0
LINE
  5
64B
100
AcDbEntity
  8
0
100
AcDbLine
 62
7
  6
CONTINUOUS
 10
215.0621703648
 20
157.2183267467
 11
218.899127998
 21
155.7019442656
  0
LINE
  5
64C
100
AcDbEntity
  8
RUNDUNGEN
100
AcDbLine
 62
7
  6
CONTINUOUS
 10
218.8990099476
 20
155.7020557156
 11
218.8991501645
 21
155.7020002727
  0
LWPOLYLINE
  5
64D
100
AcDbEntity
  8
0
100
AcDbPolyline
 62
7
  6
CONTINUOUS
 90
7
 70
0
 10
218.8990099476
 20
155.7020557156
 10
218.9904458888
 20
155.665414399
 10
219.4379131228
 20
155.4716944685
 10
219.8994881143
 20
155.2469004576
 10
220.3706710827
 20
154.9910498906
 10
220.8463482869
 20
154.7046799787
 10
221.0182813448
 20
154.5938727432
  0
LINE
  5
64E
100
AcDbEntity
  8
0
100
AcDbLine
 62
7
  6
CONTINUOUS
 10
214.8742844986
 20
162.3051263238
 11
215.0630503445
 21
162.2063190768
  0
LINE
  5
64F
100
AcDbEntity
  8
0
100
AcDbLine
 62
7
  6
CONTINUOUS
 10
223.3597693821
 20
169.1468620122
 11
223.5831614064
 21
168.9386033279
  0
LINE
  5
650
100
AcDbEntity
  8
RUNDUNGEN
100
AcDbLine
 62
7
  6
CONTINUOUS
 10
215.0630226443
 20
162.2063299988
 11
215.0630503445
 21
162.2063190768
  0
LINE
  5
651
100
AcDbEntity
  8
0
100
AcDbLine
 62
7
  6
CONTINUOUS
 10
215.062376798
 20
162.2065848638
 11
215.9391549948
 21
161.8598712116
  0
LWPOLYLINE
  5
652
100
AcDbEntity
  8
0
100
AcDbPolyline
 62
7
  6
CONTINUOUS
 90
3
 70
0
 10
215.9391549948
 20
161.8598712116
 10
216.1029042712
 20
161.7937321954
 10
216.2655358018
 20
161.7269435818
  0
LWPOLYLINE
  5
653
100
AcDbEntity
  8
0
100
AcDbPolyline
 62
7
  6
CONTINUOUS
 90
49
 70
0
 10
216.2655358018
 20
161.7269435818
 10
216.4270303559
 20
161.6595356354
 10
216.5873689779
 20
161.5915363879
 10
216.7465349265
 20
161.5229709148
 10
216.9045115471
 20
161.4538626956
 10
217.0612819609
 20
161.3842337853
 10
217.2168300913
 20
161.314104274
 10
217.3711386986
 20
161.2434930778
 10
217.5241977493
 20
161.172414289
 10
217.6759703263
 20
161.1008931293
 10
217.826418412
 20
161.0289544697
 10
217.975532591
 20
160.9566083386
 10
218.1232921447
 20
160.8838685771
 10
218.2696903651
 20
160.8107404586
 10
218.4147162349
 20
160.7372297303
 10
218.5583536447
 20
160.6633431735
 10
218.7005868599
 20
160.5890852781
 10
218.8413983684
 20
160.5144592968
 10
218.9807676113
 20
160.4394687226
 10
219.1186690629
 20
160.3641178167
 10
219.2550768653
 20
160.2884081389
 10
219.3899638747
 20
160.2123394309
 10
219.5232935125
 20
160.1359161266
 10
219.6550268644
 20
160.0591408027
 10
219.7851227986
 20
159.9820128428
 10
219.9135404314
 20
159.9045280891
 10
220.0402183665
 20
159.8266955737
 10
220.1651014398
 20
159.7485151827
 10
220.2881097553
 20
159.6699944655
 10
220.4092347064
 20
159.5910888075
 10
220.5284414951
 20
159.5117723214
 10
220.6455782285
 20
159.4320876701
 10
220.7605209766
 20
159.352044288
 10
220.8731035079
 20
159.2716692827
 10
220.98309167
 20
159.1910563455
 10
221.0903186096
 20
159.1102426764
 10
221.1945521294
 20
159.0292799073
 10
221.2956090077
 20
158.9481512508
 10
221.3931220083
 20
158.8670364426
 10
221.4868923032
 20
158.785970792
 10
221.5766254684
 20
158.7049585964
 10
221.6615586192
 20
158.6243332583
 10
221.7412378218
 20
158.5443007805
 10
221.8134688959
 20
158.4669784894
 10
221.8762906208
 20
158.3943905571
 10
221.9283214198
 20
158.3282351193
 10
221.969245978
 20
158.2700977158
 10
221.996804378
 20
158.2254765495
 10
222.0062661112
 20
158.2079896631
  0
LINE
  5
654
100
AcDbEntity
  8
0
100
AcDbLine
 62
7
  6
CONTINUOUS
 10
223.2123983611
 20
169.2533137184
 11
223.2958482514
 21
169.1956923899
  0
LINE
  5
655
100
AcDbEntity
  8
0
100
AcDbLine
 62
7
  6
CONTINUOUS
 10
223.2958482514
 20
169.1956923899
 11
223.3610785006
 21
169.1458113099
  0
LINE
  5
656
100
AcDbEntity
  8
RUNDUNGEN
100
AcDbLine
 62
7
  6
CONTINUOUS
 10
223.3610813917
 20
169.1458149901
 11
223.3597693821
 21
169.1468620122
  0
LWPOLYLINE
  5
657
100
AcDbEntity
  8
RUNDUNGEN
100
AcDbPolyline
 62
7
  6
CONTINUOUS
 90
9
 70
0
 10
215.4297771843
 20
160.4184823717
 10
215.2332370326
 20
160.4043390911
 10
215.0447468082
 20
160.3632876584
 10
214.8715518578
 20
160.2964966045
 10
214.7202546074
 20
160.2070585306
 10
214.5965402396
 20
160.0983711499
 10
214.5049328228
 20
159.9748589249
 10
214.4487063905
 20
159.8416507165
 10
214.4297771843
 20
159.7025614156
  0
LINE
  5
658
100
AcDbEntity
  8
RUNDUNGEN
100
AcDbLine
 62
7
  6
CONTINUOUS
 10
215.4297771843
 20
160.4184823717
 11
219.0191752218
 21
160.4184823717
  0
LINE
  5
659
100
AcDbEntity
  8
RUNDUNGEN
100
AcDbLine
 62
7
  6
CONTINUOUS
 10
239.8402366544
 20
160.4184823717
 11
243.4297771843
 21
160.4184823717
  0
LWPOLYLINE
  5
65A
100
AcDbEntity
  8
RUNDUNGEN
100
AcDbPolyline
 62
7
  6
CONTINUOUS
 90
9
 70
0
 10
243.4297771843
 20
160.4184823717
 10
243.626317336
 20
160.4046495212
 10
243.8148075604
 20
160.3632876584
 10
243.9880025108
 20
160.2965947289
 10
244.1392997612
 20
160.2070585306
 10
244.263014129
 20
160.0984306741
 10
244.3546215459
 20
159.9748589249
 10
244.4108479781
 20
159.8408709692
 10
244.4297771843
 20
159.7025614156
  0
LINE
  5
65B
100
AcDbEntity
  8
0
100
AcDbLine
 62
7
  6
CONTINUOUS
 10
222.5589194091
 20
169.8045224189
 11
223.3065194779
 21
169.4398935022
  0
LWPOLYLINE
  5
65C
100
AcDbEntity
  8
0
100
AcDbPolyline
 62
7
  6
CONTINUOUS
 90
4
 70
0
 10
214.9907614837
 20
173.3848967488
 10
219.3518456731
 20
171.252013887
 10
219.998258402
 20
170.9304860105
 10
220.6363553225
 20
170.6095174099
  0
LINE
  5
65D
100
AcDbEntity
  8
0
100
AcDbLine
 62
7
  6
CONTINUOUS
 10
220.6363553225
 20
170.6095174099
 11
221.4678540777
 21
170.1847207244
  0
LINE
  5
65E
100
AcDbEntity
  8
RUNDUNGEN
100
AcDbLine
 62
7
  6
CONTINUOUS
 10
221.4682287107
 20
170.1845033519
 11
221.4678442129
 21
170.1847017351
  0
LINE
  5
65F
100
AcDbEntity
  8
0
100
AcDbLine
 62
7
  6
CONTINUOUS
 10
221.4682287107
 20
170.1845033519
 11
221.8892782219
 21
169.9660154579
  0
LINE
  5
660
100
AcDbEntity
  8
0
100
AcDbLine
 62
7
  6
CONTINUOUS
 10
221.8892782219
 20
169.9660154579
 11
222.2941098577
 21
169.7533474762
  0
LINE
  5
661
100
AcDbEntity
  8
0
100
AcDbLine
 62
7
  6
CONTINUOUS
 10
222.2941098577
 20
169.7533474762
 11
222.6850675809
 21
169.5451124416
  0
LINE
  5
662
100
AcDbEntity
  8
0
100
AcDbLine
 62
7
  6
CONTINUOUS
 10
222.6850675809
 20
169.5451124416
 11
223.1001521077
 21
169.3203904285
  0
LINE
  5
663
100
AcDbEntity
  8
RUNDUNGEN
100
AcDbLine
 62
7
  6
CONTINUOUS
 10
223.1003626023
 20
169.3202760071
 11
223.1001525547
 21
169.320390859
  0
LWPOLYLINE
  5
664
100
AcDbEntity
  8
0
100
AcDbPolyline
 62
7
  6
CONTINUOUS
 90
3
 70
0
 10
223.1003626023
 20
169.3202760071
 10
223.1297495628
 20
169.3038301267
 10
223.2123983611
 20
169.2533137184
  0
LWPOLYLINE
  5
665
100
AcDbEntity
  8
RUNDUNGEN
100
AcDbPolyline
 62
7
  6
CONTINUOUS
 90
6
 70
0
 10
230.2353692739
 20
30.3840713003
 10
230.3868953204
 20
30.5084308817
 10
230.5112436583
 20
30.6599513782
 10
230.6036512901
 20
30.8328297745
 10
230.6605610908
 20
31.0204291617
 10
230.6797771843
 20
31.2155263078
  0
LINE
  5
666
100
AcDbEntity
  8
0
100
AcDbLine
 62
7
  6
CONTINUOUS
 10
234.4297771843
 20
165.8971418516
 11
234.9297771843
 21
165.8971418516
  0
LINE
  5
667
100
AcDbEntity
  8
0
100
AcDbLine
 62
7
  6
CONTINUOUS
 10
234.4297771843
 20
165.9614279043
 11
234.9297771843
 21
165.9614279043
  0
LINE
  5
668
100
AcDbEntity
  8
0
100
AcDbLine
 62
7
  6
CONTINUOUS
 10
234.4297771843
 20
166.110464212
 11
234.9297771843
 21
166.110464212
  0
LINE
  5
669
100
AcDbEntity
  8
0
100
AcDbLine
 62
7
  6
CONTINUOUS
 10
234.4297771843
 20
166.1631966778
 11
234.9297771843
 21
166.1631966778
  0
LINE
  5
66A
100
AcDbEntity
  8
0
100
AcDbLine
 62
7
  6
CONTINUOUS
 10
234.4297771843
 20
166.3441136333
 11
234.9297771843
 21
166.3441136333
  0
LINE
  5
66B
100
AcDbEntity
  8
0
100
AcDbLine
 62
7
  6
CONTINUOUS
 10
234.4297771843
 20
166.3875779742
 11
234.9297771843
 21
166.3875779742
  0
LINE
  5
66C
100
AcDbEntity
  8
0
100
AcDbLine
 62
7
  6
CONTINUOUS
 10
234.4297771843
 20
166.4024933277
 11
234.9297771843
 21
166.4024933277
  0
LINE
  5
66D
100
AcDbEntity
  8
0
100
AcDbLine
 62
7
  6
CONTINUOUS
 10
234.4297771843
 20
166.4537702241
 11
234.9297771843
 21
166.4537702241
  0
LINE
  5
66E
100
AcDbEntity
  8
0
100
AcDbLine
 62
7
  6
CONTINUOUS
 10
234.4297771843
 20
166.5414081941
 11
234.9297771843
 21
166.5414081941
  0
LINE
  5
66F
100
AcDbEntity
  8
0
100
AcDbLine
 62
7
  6
CONTINUOUS
 10
234.4297771843
 20
166.7017678416
 11
234.9297771843
 21
166.7017678416
  0
LINE
  5
670
100
AcDbEntity
  8
0
100
AcDbLine
 62
7
  6
CONTINUOUS
 10
234.4583065782
 20
166.8328044119
 11
234.9297771843
 21
166.8328044119
  0
LINE
  5
671
100
AcDbEntity
  8
0
100
AcDbLine
 62
7
  6
CONTINUOUS
 10
234.4589248186
 20
166.845166058
 11
234.9297771843
 21
166.845166058
  0
LINE
  5
672
100
AcDbEntity
  8
0
100
AcDbLine
 62
7
  6
CONTINUOUS
 10
234.4709521781
 20
166.9235500305
 11
234.9297771843
 21
166.9235500305
  0
LINE
  5
673
100
AcDbEntity
  8
0
100
AcDbLine
 62
7
  6
CONTINUOUS
 10
234.4855529964
 20
167.0091687423
 11
234.9297771843
 21
167.0091687423
  0
LINE
  5
674
100
AcDbEntity
  8
0
100
AcDbLine
 62
7
  6
CONTINUOUS
 10
234.5126465257
 20
167.1680442957
 11
234.9297771843
 21
167.1680442957
  0
LINE
  5
675
100
AcDbEntity
  8
0
100
AcDbLine
 62
7
  6
CONTINUOUS
 10
234.5488910536
 20
167.3805810002
 11
234.9297771843
 21
167.3805810002
  0
LINE
  5
676
100
AcDbEntity
  8
0
100
AcDbLine
 62
7
  6
CONTINUOUS
 10
234.5762307978
 20
167.5368931996
 11
234.9297771843
 21
167.5368931996
  0
LINE
  5
677
100
AcDbEntity
  8
0
100
AcDbLine
 62
7
  6
CONTINUOUS
 10
234.601266822
 20
167.6143652836
 11
234.9297771843
 21
167.6143652836
  0
LINE
  5
678
100
AcDbEntity
  8
0
100
AcDbLine
 62
7
  6
CONTINUOUS
 10
234.620264874
 20
167.673153319
 11
234.9297771843
 21
167.673153319
  0
LINE
  5
679
100
AcDbEntity
  8
0
100
AcDbLine
 62
7
  6
CONTINUOUS
 10
234.6371997643
 20
167.7255570564
 11
234.9297771843
 21
167.7255570564
  0
LINE
  5
67A
100
AcDbEntity
  8
0
100
AcDbLine
 62
7
  6
CONTINUOUS
 10
234.642330632
 20
167.7414341387
 11
234.9297771843
 21
167.7414341387
  0
LINE
  5
67B
100
AcDbEntity
  8
0
100
AcDbLine
 62
7
  6
CONTINUOUS
 10
234.6714693345
 20
167.8316016503
 11
234.9297771843
 21
167.8316016503
  0
LINE
  5
67C
100
AcDbEntity
  8
0
100
AcDbLine
 62
7
  6
CONTINUOUS
 10
234.7154984909
 20
167.9678465454
 11
234.9297771843
 21
167.9678465454
  0
LINE
  5
67D
100
AcDbEntity
  8
0
100
AcDbLine
 62
7
  6
CONTINUOUS
 10
234.731982788
 20
168.0188559565
 11
234.9297771843
 21
168.0188559565
  0
LWPOLYLINE
  5
67E
100
AcDbEntity
  8
RUNDUNGEN
100
AcDbPolyline
 62
7
  6
CONTINUOUS
 90
4
 70
0
 10
243.9852923763
 20
38.2024868963
 10
243.8123284503
 20
38.110059013
 10
243.62488837
 20
38.0532121704
 10
243.4297771843
 20
38.0339932796
  0
LINE
  5
67F
100
AcDbEntity
  8
0
100
AcDbLine
 62
7
  6
CONTINUOUS
 10
222.9970216716
 20
171.7033811705
 11
235.8626575711
 21
171.7033811705
  0
LWPOLYLINE
  5
680
100
AcDbEntity
  8
RUNDUNGEN
100
AcDbPolyline
 62
7
  6
CONTINUOUS
 90
3
 70
0
 10
229.8749077358
 20
30.2347490325
 10
230.0624947654
 20
30.2916609209
 10
230.2353692739
 20
30.3840713003
  0
LWPOLYLINE
  5
681
100
AcDbEntity
  8
RUNDUNGEN
100
AcDbPolyline
 62
7
  6
CONTINUOUS
 90
9
 70
0
 10
215.4297771843
 20
174.9533811705
 10
215.2332370326
 20
174.9500697617
 10
215.0447468082
 20
174.941170348
 10
214.8715518578
 20
174.9263363707
 10
214.7202546074
 20
174.9066075058
 10
214.5965402396
 20
174.8825274199
 10
214.5049328228
 20
174.8552375826
 10
214.4487063905
 20
174.8262260225
 10
214.4297771843
 20
174.7949967302
  0
LINE
  5
682
100
AcDbEntity
  8
RUNDUNGEN
100
AcDbLine
 62
7
  6
CONTINUOUS
 10
215.4297771843
 20
174.9533811705
 11
243.4297771843
 21
174.9533811705
  0
LWPOLYLINE
  5
683
100
AcDbEntity
  8
RUNDUNGEN
100
AcDbPolyline
 62
7
  6
CONTINUOUS
 90
9
 70
0
 10
243.4297771843
 20
174.9533811705
 10
243.626317336
 20
174.9505033711
 10
243.8148075604
 20
174.941170348
 10
243.9880025108
 20
174.926473431
 10
244.1392997612
 20
174.9066075058
 10
244.263014129
 20
174.8826105633
 10
244.3546215459
 20
174.8552375826
 10
244.4108479781
 20
174.8251368697
 10
244.4297771843
 20
174.7949967302
  0
LINE
  5
684
100
AcDbEntity
  8
RUNDUNGEN
100
AcDbLine
 62
7
  6
CONTINUOUS
 10
215.4297771843
 20
183.4533811705
 11
243.4297771843
 21
183.4533811705
  0
ARC
  5
685
100
AcDbEntity
  8
RUNDUNGEN
100
AcDbCircle
 62
7
  6
CONTINUOUS
 10
45.0692461881
 20
49.1493179564
 40
3.9999527772
100
AcDbArc
 50
357.4249264201
 51
11.3553547269
  0
ARC
  5
686
100
AcDbEntity
  8
RUNDUNGEN
100
AcDbCircle
 62
7
  6
CONTINUOUS
 10
46.1865710607
 20
53.7402040293
 40
2.0000000423
100
AcDbArc
 50
11.3623635435
 51
76.7677249463
  0
ARC
  5
687
100
AcDbEntity
  8
RUNDUNGEN
100
AcDbCircle
 62
7
  6
CONTINUOUS
 10
41.4072882915
 20
57.8396354668
 40
1.0
100
AcDbArc
 50
216.0
 51
257.8324053934
  0
ARC
  5
688
100
AcDbEntity
  8
RUNDUNGEN
100
AcDbCircle
 62
7
  6
CONTINUOUS
 10
37.8805767777
 20
62.6937374331
 40
1.0
100
AcDbArc
 50
174.1675946066
 51
216.0
  0
ARC
  5
689
100
AcDbEntity
  8
RUNDUNGEN
100
AcDbCircle
 62
7
  6
CONTINUOUS
 10
62.2014988428
 20
50.6129197501
 40
2.25
100
AcDbArc
 50
324.0007968666
 51
144.0017755928
  0
ARC
  5
68A
100
AcDbEntity
  8
RUNDUNGEN
100
AcDbCircle
 62
7
  6
CONTINUOUS
 10
61.8477549145
 20
40.3633519493
 40
1.0
100
AcDbArc
 50
162.0
 51
234.0
  0
ARC
  5
68B
100
AcDbEntity
  8
RUNDUNGEN
100
AcDbCircle
 62
7
  6
CONTINUOUS
 10
52.5628934822
 20
47.1091986465
 40
1.0
100
AcDbArc
 50
234.0
 51
306.0
  0
ARC
  5
68C
100
AcDbEntity
  8
RUNDUNGEN
100
AcDbCircle
 62
7
  6
CONTINUOUS
 10
50.0641349244
 20
48.924653006
 40
1.0
100
AcDbArc
 50
177.4234289457
 51
233.9998194585
  0
ARC
  5
68D
100
AcDbEntity
  8
RUNDUNGEN
100
AcDbCircle
 62
7
  6
CONTINUOUS
 10
50.7331882433
 20
48.4385573163
 40
1.0
100
AcDbArc
 50
144.0
 51
234.0
  0
ARC
  5
68E
100
AcDbEntity
  8
RUNDUNGEN
100
AcDbCircle
 62
7
  6
CONTINUOUS
 10
30.7471944694
 20
68.8619200597
 40
3.9999543613
100
AcDbArc
 50
60.6414873248
 51
74.5750100656
  0
ARC
  5
68F
100
AcDbEntity
  8
RUNDUNGEN
100
AcDbCircle
 62
7
  6
CONTINUOUS
 10
32.0770391151
 20
73.6817634648
 40
1.0
100
AcDbArc
 50
197.9998814762
 51
254.5759764827
  0
ARC
  5
690
100
AcDbEntity
  8
RUNDUNGEN
100
AcDbCircle
 62
7
  6
CONTINUOUS
 10
31.8214817154
 20
74.4682882666
 40
1.0
100
AcDbArc
 50
197.9993922456
 51
288.0009458389
  0
ARC
  5
691
100
AcDbEntity
  8
RUNDUNGEN
100
AcDbCircle
 62
7
  6
CONTINUOUS
 10
31.1225965036
 20
76.6192357774
 40
1.0
100
AcDbArc
 50
126.0
 51
198.0
  0
ARC
  5
692
100
AcDbEntity
  8
RUNDUNGEN
100
AcDbCircle
 62
7
  6
CONTINUOUS
 10
35.4586653923
 20
68.5058994321
 40
2.0000000431
100
AcDbArc
 50
355.0810264489
 51
60.6376364565
  0
ARC
  5
693
100
AcDbEntity
  8
RUNDUNGEN
100
AcDbCircle
 62
7
  6
CONTINUOUS
 10
37.4333261489
 20
84.7033848491
 40
2.25
100
AcDbArc
 50
287.9977363539
 51
108.0024370477
  0
ARC
  5
694
100
AcDbEntity
  8
RUNDUNGEN
100
AcDbCircle
 62
7
  6
CONTINUOUS
 10
22.7127590497
 20
93.589391574
 40
3.9999527772
100
AcDbArc
 50
321.4249264201
 51
335.3553547269
  0
ARC
  5
695
100
AcDbEntity
  8
RUNDUNGEN
100
AcDbCircle
 62
7
  6
CONTINUOUS
 10
26.3151489885
 20
96.6467493441
 40
2.0000000423
100
AcDbArc
 50
335.3623635435
 51
40.7677249471
  0
ARC
  5
696
100
AcDbEntity
  8
RUNDUNGEN
100
AcDbCircle
 62
7
  6
CONTINUOUS
 10
27.5760950173
 20
87.5342450164
 40
1.0
100
AcDbArc
 50
198.0
 51
270.0
  0
ARC
  5
697
100
AcDbEntity
  8
RUNDUNGEN
100
AcDbCircle
 62
7
  6
CONTINUOUS
 10
24.858213349
 20
102.7724509726
 40
1.0
100
AcDbArc
 50
180.0
 51
221.8324053934
  0
ARC
  5
698
100
AcDbEntity
  8
RUNDUNGEN
100
AcDbCircle
 62
7
  6
CONTINUOUS
 10
26.6216541779
 20
90.471711875
 40
1.0
100
AcDbArc
 50
141.4234289457
 51
197.9998194586
  0
ARC
  5
699
100
AcDbEntity
  8
RUNDUNGEN
100
AcDbCircle
 62
7
  6
CONTINUOUS
 10
26.8772098054
 20
89.6851925273
 40
1.0
100
AcDbArc
 50
108.0
 51
198.0
  0
ARC
  5
69A
100
AcDbEntity
  8
RUNDUNGEN
100
AcDbCircle
 62
7
  6
CONTINUOUS
 10
58.0719362278
 20
90.7724509726
 40
5.0
100
AcDbArc
 50
90.0
 51
198.7433983716
  0
ARC
  5
69B
100
AcDbEntity
  8
RUNDUNGEN
100
AcDbCircle
 62
7
  6
CONTINUOUS
 10
66.1036840654
 20
33.8668959236
 40
3.9999543613
100
AcDbArc
 50
96.6414873248
 51
110.5750100656
  0
ARC
  5
69C
100
AcDbEntity
  8
RUNDUNGEN
100
AcDbCircle
 62
7
  6
CONTINUOUS
 10
70.1246077849
 20
36.3482023106
 40
2.0000000431
100
AcDbArc
 50
31.081026434
 51
96.6376364565
  0
ARC
  5
69D
100
AcDbEntity
  8
RUNDUNGEN
100
AcDbCircle
 62
7
  6
CONTINUOUS
 10
63.6773702016
 20
39.0340586334
 40
1.0
100
AcDbArc
 50
234.0030846275
 51
324.0
  0
ARC
  5
69E
100
AcDbEntity
  8
RUNDUNGEN
100
AcDbCircle
 62
7
  6
CONTINUOUS
 10
64.3465181118
 20
38.5478942191
 40
1.0
100
AcDbArc
 50
233.9998814762
 51
290.5759764827
  0
ARC
  5
69F
100
AcDbEntity
  8
RUNDUNGEN
100
AcDbCircle
 62
7
  6
CONTINUOUS
 10
81.2066174593
 20
31.2155263078
 40
1.0
100
AcDbArc
 50
252.0
 51
293.8324053934
  0
ARC
  5
6A0
100
AcDbEntity
  8
RUNDUNGEN
100
AcDbCircle
 62
7
  6
CONTINUOUS
 10
75.5002783616
 20
33.069628274
 40
1.0
100
AcDbArc
 50
210.1675946066
 51
252.0
  0
ARC
  5
6A1
100
AcDbEntity
  8
RUNDUNGEN
100
AcDbCircle
 62
7
  6
CONTINUOUS
 10
89.2772441008
 20
26.3373562953
 40
3.9999528329
100
AcDbArc
 50
33.424929965
 51
47.3556449014
  0
ARC
  5
6A2
100
AcDbEntity
  8
RUNDUNGEN
100
AcDbCircle
 62
7
  6
CONTINUOUS
 10
87.4827237824
 20
30.7082085359
 40
2.0000000422
100
AcDbArc
 50
47.3623635435
 51
112.767749647
  0
ARC
  5
6A3
100
AcDbEntity
  8
RUNDUNGEN
100
AcDbCircle
 62
7
  6
CONTINUOUS
 10
93.4502486607
 20
29.0915207746
 40
1.0
100
AcDbArc
 50
213.4234287603
 51
269.9998649287
  0
ARC
  5
6A4
100
AcDbEntity
  8
RUNDUNGEN
100
AcDbCircle
 62
7
  6
CONTINUOUS
 10
94.2772441008
 20
29.0915207746
 40
1.0
100
AcDbArc
 50
180.0
 51
270.0
  0
ARC
  5
6A5
100
AcDbEntity
  8
RUNDUNGEN
100
AcDbCircle
 62
7
  6
CONTINUOUS
 10
96.5388841548
 20
29.0915207746
 40
1.0
100
AcDbArc
 50
270.0
 51
342.0
  0
ARC
  5
6A6
100
AcDbEntity
  8
RUNDUNGEN
100
AcDbCircle
 62
7
  6
CONTINUOUS
 10
102.2772441008
 20
37.5915207746
 40
2.25
100
AcDbArc
 50
0.0008088936
 51
180.0017852813
  0
ARC
  5
6A7
100
AcDbEntity
  8
RUNDUNGEN
100
AcDbCircle
 62
7
  6
CONTINUOUS
 10
87.2772441008
 20
61.5671430996
 40
5.0
100
AcDbArc
 50
251.2566016284
 51
360.0
  0
ARC
  5
6A8
100
AcDbEntity
  8
RUNDUNGEN
100
AcDbCircle
 62
7
  6
CONTINUOUS
 10
102.2772441008
 20
105.7724509726
 40
51.680930198
100
AcDbArc
 50
108.7433983716
 51
161.2566016284
  0
ARC
  5
6A9
100
AcDbEntity
  8
RUNDUNGEN
100
AcDbCircle
 62
7
  6
CONTINUOUS
 10
102.2772441008
 20
105.7724509726
 40
51.680930198
100
AcDbArc
 50
198.7433983716
 51
251.2566016284
  0
ARC
  5
6AA
100
AcDbEntity
  8
RUNDUNGEN
100
AcDbCircle
 62
7
  6
CONTINUOUS
 10
102.2772441008
 20
105.7724509726
 40
51.680930198
100
AcDbArc
 50
288.7433983716
 51
341.2566016284
  0
ARC
  5
6AB
100
AcDbEntity
  8
RUNDUNGEN
100
AcDbCircle
 62
7
  6
CONTINUOUS
 10
102.2772441008
 20
105.7724509726
 40
51.680930198
100
AcDbArc
 50
18.7433983716
 51
71.2566016284
  0
ARC
  5
6AC
100
AcDbEntity
  8
RUNDUNGEN
100
AcDbCircle
 62
7
  6
CONTINUOUS
 10
102.2772441008
 20
105.7724509726
 40
26.1402324077
100
AcDbArc
 50
32.9996575249
 51
57.0003424738
  0
ARC
  5
6AD
100
AcDbEntity
  8
RUNDUNGEN
100
AcDbCircle
 62
7
  6
CONTINUOUS
 10
102.2772441008
 20
105.7724509726
 40
26.1402324077
100
AcDbArc
 50
302.9996575249
 51
327.0003424738
  0
ARC
  5
6AE
100
AcDbEntity
  8
RUNDUNGEN
100
AcDbCircle
 62
7
  6
CONTINUOUS
 10
102.2772441008
 20
105.7724509726
 40
26.1402324077
100
AcDbArc
 50
212.9996575249
 51
237.0003424738
  0
ARC
  5
6AF
100
AcDbEntity
  8
RUNDUNGEN
100
AcDbCircle
 62
7
  6
CONTINUOUS
 10
102.2772441008
 20
105.7724509726
 40
26.1402324077
100
AcDbArc
 50
122.9996575249
 51
147.0003424738
  0
ARC
  5
6B0
100
AcDbEntity
  8
0
100
AcDbCircle
 62
7
  6
CONTINUOUS
 10
102.2772441008
 20
105.7724509726
 40
12.7
100
AcDbArc
 50
105.1666783324
 51
74.8333216676
  0
ARC
  5
6B1
100
AcDbEntity
  8
RUNDUNGEN
100
AcDbCircle
 62
7
  6
CONTINUOUS
 10
72.5531787004
 20
86.4724509726
 40
9.2999997544
100
AcDbArc
 50
32.9958866054
 51
89.7251871833
  0
ARC
  5
6B2
100
AcDbEntity
  8
RUNDUNGEN
100
AcDbCircle
 62
7
  6
CONTINUOUS
 10
82.9772441008
 20
76.0483855732
 40
9.2999997538
100
AcDbArc
 50
0.2748279909
 51
57.0041133937
  0
ARC
  5
6B3
100
AcDbEntity
  8
RUNDUNGEN
100
AcDbCircle
 62
7
  6
CONTINUOUS
 10
24.858213349
 20
108.7724509726
 40
1.0
100
AcDbArc
 50
138.1675946066
 51
180.0
  0
ARC
  5
6B4
100
AcDbEntity
  8
RUNDUNGEN
100
AcDbCircle
 62
7
  6
CONTINUOUS
 10
22.7127541289
 20
117.9555119701
 40
3.9999540701
100
AcDbArc
 50
24.645786411
 51
38.5750042739
  0
ARC
  5
6B5
100
AcDbEntity
  8
RUNDUNGEN
100
AcDbCircle
 62
7
  6
CONTINUOUS
 10
26.3151489863
 20
114.8981525985
 40
2.0000000431
100
AcDbArc
 50
319.0810361754
 51
24.6376364565
  0
ARC
  5
6B6
100
AcDbEntity
  8
RUNDUNGEN
100
AcDbCircle
 62
7
  6
CONTINUOUS
 10
27.5760950173
 20
124.0106569288
 40
1.0
100
AcDbArc
 50
90.0
 51
162.0
  0
ARC
  5
6B7
100
AcDbEntity
  8
RUNDUNGEN
100
AcDbCircle
 62
7
  6
CONTINUOUS
 10
26.8772383916
 20
121.859797397
 40
1.0
100
AcDbArc
 50
162.0
 51
252.0017607086
  0
ARC
  5
6B8
100
AcDbEntity
  8
RUNDUNGEN
100
AcDbCircle
 62
7
  6
CONTINUOUS
 10
26.6216538218
 20
121.0731889743
 40
1.0
100
AcDbArc
 50
161.9999957078
 51
218.5765549756
  0
ARC
  5
6B9
100
AcDbEntity
  8
RUNDUNGEN
100
AcDbCircle
 62
7
  6
CONTINUOUS
 10
30.7472009035
 20
142.6829797949
 40
3.9999527772
100
AcDbArc
 50
285.4249264201
 51
299.3553547269
  0
ARC
  5
6BA
100
AcDbEntity
  8
RUNDUNGEN
100
AcDbCircle
 62
7
  6
CONTINUOUS
 10
37.4333261489
 20
126.841517096
 40
2.25
100
AcDbArc
 50
252.0008035149
 51
72.0017809484
  0
ARC
  5
6BB
100
AcDbEntity
  8
RUNDUNGEN
100
AcDbCircle
 62
7
  6
CONTINUOUS
 10
35.4586653926
 20
143.0390025098
 40
2.0000000423
100
AcDbArc
 50
299.3623635435
 51
4.7677249466
  0
ARC
  5
6BC
100
AcDbEntity
  8
RUNDUNGEN
100
AcDbCircle
 62
7
  6
CONTINUOUS
 10
31.1225965036
 20
134.9256661677
 40
1.0
100
AcDbArc
 50
162.0
 51
234.0
  0
ARC
  5
6BD
100
AcDbEntity
  8
RUNDUNGEN
100
AcDbCircle
 62
7
  6
CONTINUOUS
 10
32.0770373429
 20
137.8631330263
 40
1.0
100
AcDbArc
 50
105.4234289457
 51
161.9998194585
  0
ARC
  5
6BE
100
AcDbEntity
  8
RUNDUNGEN
100
AcDbCircle
 62
7
  6
CONTINUOUS
 10
31.8214817154
 20
137.0766136786
 40
1.0
100
AcDbArc
 50
72.0
 51
162.0
  0
ARC
  5
6BF
100
AcDbEntity
  8
RUNDUNGEN
100
AcDbCircle
 62
7
  6
CONTINUOUS
 10
58.0719362278
 20
120.7724509726
 40
5.0
100
AcDbArc
 50
161.2566016284
 51
270.0
  0
ARC
  5
6C0
100
AcDbEntity
  8
RUNDUNGEN
100
AcDbCircle
 62
7
  6
CONTINUOUS
 10
46.1865710574
 20
157.8046979151
 40
2.0000000431
100
AcDbArc
 50
283.0810361767
 51
348.6376364565
  0
ARC
  5
6C1
100
AcDbEntity
  8
RUNDUNGEN
100
AcDbCircle
 62
7
  6
CONTINUOUS
 10
37.8805767777
 20
148.8511645121
 40
1.0
100
AcDbArc
 50
144.0
 51
185.8324053934
  0
ARC
  5
6C2
100
AcDbEntity
  8
RUNDUNGEN
100
AcDbCircle
 62
7
  6
CONTINUOUS
 10
41.4072882915
 20
153.7052664783
 40
1.0
100
AcDbArc
 50
102.1675946066
 51
144.0
  0
ARC
  5
6C3
100
AcDbEntity
  8
RUNDUNGEN
100
AcDbCircle
 62
7
  6
CONTINUOUS
 10
45.0692431468
 20
162.3955881747
 40
3.9999540701
100
AcDbArc
 50
348.645786411
 51
2.5750042739
  0
ARC
  5
6C4
100
AcDbEntity
  8
RUNDUNGEN
100
AcDbCircle
 62
7
  6
CONTINUOUS
 10
52.5628934822
 20
164.4357032986
 40
1.0
100
AcDbArc
 50
54.0
 51
126.0
  0
ARC
  5
6C5
100
AcDbEntity
  8
RUNDUNGEN
100
AcDbCircle
 62
7
  6
CONTINUOUS
 10
50.733263083
 20
163.1063990031
 40
1.0
100
AcDbArc
 50
126.0
 51
216.0017607086
  0
ARC
  5
6C6
100
AcDbEntity
  8
RUNDUNGEN
100
AcDbCircle
 62
7
  6
CONTINUOUS
 10
50.0641339922
 20
162.6202482619
 40
1.0
100
AcDbArc
 50
125.9999957078
 51
182.5765549756
  0
ARC
  5
6C7
100
AcDbEntity
  8
RUNDUNGEN
100
AcDbCircle
 62
7
  6
CONTINUOUS
 10
62.2014988428
 20
160.931982195
 40
2.25
100
AcDbArc
 50
216.000820921
 51
36.0017949707
  0
ARC
  5
6C8
100
AcDbEntity
  8
RUNDUNGEN
100
AcDbCircle
 62
7
  6
CONTINUOUS
 10
61.8477549145
 20
171.1815499958
 40
1.0
100
AcDbArc
 50
126.0
 51
198.0
  0
ARC
  5
6C9
100
AcDbEntity
  8
RUNDUNGEN
100
AcDbCircle
 62
7
  6
CONTINUOUS
 10
82.9772441008
 20
135.496516373
 40
9.2999997544
100
AcDbArc
 50
302.9958866054
 51
359.7251827435
  0
ARC
  5
6CA
100
AcDbEntity
  8
RUNDUNGEN
100
AcDbCircle
 62
7
  6
CONTINUOUS
 10
72.5531787014
 20
125.0724509726
 40
9.2999997538
100
AcDbArc
 50
270.2748126295
 51
327.0041133937
  0
ARC
  5
6CB
100
AcDbEntity
  8
0
100
AcDbCircle
 62
7
  6
CONTINUOUS
 10
98.9022441008
 20
118.223128665
 40
0.2
100
AcDbArc
 50
285.1666783324
 51
360.0
  0
ARC
  5
6CC
100
AcDbEntity
  8
RUNDUNGEN
100
AcDbCircle
 62
7
  6
CONTINUOUS
 10
70.1246077714
 20
175.1966996113
 40
2.0000000361
100
AcDbArc
 50
263.3623635436
 51
328.7701448097
  0
ARC
  5
6CD
100
AcDbEntity
  8
RUNDUNGEN
100
AcDbCircle
 62
7
  6
CONTINUOUS
 10
64.3465291579
 20
172.9970157515
 40
1.0
100
AcDbArc
 50
69.4256509375
 51
126.0003829197
  0
ARC
  5
6CE
100
AcDbEntity
  8
RUNDUNGEN
100
AcDbCircle
 62
7
  6
CONTINUOUS
 10
63.6774601533
 20
172.5109086656
 40
1.0
100
AcDbArc
 50
36.0
 51
126.0
  0
ARC
  5
6CF
100
AcDbEntity
  8
RUNDUNGEN
100
AcDbCircle
 62
7
  6
CONTINUOUS
 10
66.1036141521
 20
177.6781022489
 40
3.999993832
100
AcDbArc
 50
249.4260220943
 51
263.3620442279
  0
ARC
  5
6D0
100
AcDbEntity
  8
RUNDUNGEN
100
AcDbCircle
 62
7
  6
CONTINUOUS
 10
81.2066174593
 20
180.3293756374
 40
1.0
100
AcDbArc
 50
66.1675946066
 51
108.0
  0
ARC
  5
6D1
100
AcDbEntity
  8
RUNDUNGEN
100
AcDbCircle
 62
7
  6
CONTINUOUS
 10
75.5002783616
 20
178.4752736711
 40
1.0
100
AcDbArc
 50
108.0
 51
149.8324053934
  0
ARC
  5
6D2
100
AcDbEntity
  8
RUNDUNGEN
100
AcDbCircle
 62
7
  6
CONTINUOUS
 10
87.2772441008
 20
149.9777588456
 40
5.0
100
AcDbArc
 50
0.0
 51
108.7433983716
  0
ARC
  5
6D3
100
AcDbEntity
  8
RUNDUNGEN
100
AcDbCircle
 62
7
  6
CONTINUOUS
 10
89.2772441008
 20
185.2075861925
 40
3.9999656073
100
AcDbArc
 50
312.6389199185
 51
326.5747240833
  0
ARC
  5
6D4
100
AcDbEntity
  8
RUNDUNGEN
100
AcDbCircle
 62
7
  6
CONTINUOUS
 10
102.2772441008
 20
173.9533811705
 40
2.25
100
AcDbArc
 50
180.0008088936
 51
0.0017852813
  0
ARC
  5
6D5
100
AcDbEntity
  8
RUNDUNGEN
100
AcDbCircle
 62
7
  6
CONTINUOUS
 10
87.482723802
 20
180.8366934006
 40
2.0000000366
100
AcDbArc
 50
247.0806588636
 51
312.6376364564
  0
ARC
  5
6D6
100
AcDbEntity
  8
RUNDUNGEN
100
AcDbCircle
 62
7
  6
CONTINUOUS
 10
96.5388841548
 20
182.4533811705
 40
1.0
100
AcDbArc
 50
18.0
 51
90.0
  0
ARC
  5
6D7
100
AcDbEntity
  8
RUNDUNGEN
100
AcDbCircle
 62
7
  6
CONTINUOUS
 10
94.2772658598
 20
182.4533811705
 40
1.0
100
AcDbArc
 50
90.0
 51
179.9982784399
  0
ARC
  5
6D8
100
AcDbEntity
  8
RUNDUNGEN
100
AcDbCircle
 62
7
  6
CONTINUOUS
 10
93.4502422894
 20
182.4533811705
 40
1.0
100
AcDbArc
 50
90.0000079531
 51
146.5758309349
  0
ARC
  5
6D9
100
AcDbEntity
  8
RUNDUNGEN
100
AcDbCircle
 62
7
  6
CONTINUOUS
 10
115.2772441008
 20
26.3373495963
 40
3.9999544395
100
AcDbArc
 50
132.641460991
 51
146.5750090592
  0
ARC
  5
6DA
100
AcDbEntity
  8
RUNDUNGEN
100
AcDbCircle
 62
7
  6
CONTINUOUS
 10
108.0156040468
 20
29.0915207746
 40
1.0
100
AcDbArc
 50
198.0
 51
270.0
  0
ARC
  5
6DB
100
AcDbEntity
  8
RUNDUNGEN
100
AcDbCircle
 62
7
  6
CONTINUOUS
 10
110.2771325179
 20
29.0915207746
 40
1.0
100
AcDbArc
 50
270.0030961258
 51
360.0
  0
ARC
  5
6DC
100
AcDbEntity
  8
RUNDUNGEN
100
AcDbCircle
 62
7
  6
CONTINUOUS
 10
111.1042455798
 20
29.0915207746
 40
1.0
100
AcDbArc
 50
269.99987205
 51
326.5759353903
  0
ARC
  5
6DD
100
AcDbEntity
  8
RUNDUNGEN
100
AcDbCircle
 62
7
  6
CONTINUOUS
 10
117.0717644223
 20
30.7082085345
 40
2.0000000431
100
AcDbArc
 50
67.0810263258
 51
132.6376364565
  0
ARC
  5
6DE
100
AcDbEntity
  8
RUNDUNGEN
100
AcDbCircle
 62
7
  6
CONTINUOUS
 10
123.3478707422
 20
31.2155263078
 40
1.0
100
AcDbArc
 50
246.1675946066
 51
288.0
  0
ARC
  5
6DF
100
AcDbEntity
  8
RUNDUNGEN
100
AcDbCircle
 62
7
  6
CONTINUOUS
 10
117.2772441008
 20
61.5671430996
 40
5.0
100
AcDbArc
 50
180.0
 51
288.7433983716
  0
ARC
  5
6E0
100
AcDbEntity
  8
RUNDUNGEN
100
AcDbCircle
 62
7
  6
CONTINUOUS
 10
138.4508003397
 20
33.8669011491
 40
3.9999528329
100
AcDbArc
 50
69.424928853
 51
83.3556449014
  0
ARC
  5
6E1
100
AcDbEntity
  8
RUNDUNGEN
100
AcDbCircle
 62
7
  6
CONTINUOUS
 10
134.4298804183
 20
36.3482023134
 40
2.0000000423
100
AcDbArc
 50
83.3623635435
 51
148.7677249455
  0
ARC
  5
6E2
100
AcDbEntity
  8
RUNDUNGEN
100
AcDbCircle
 62
7
  6
CONTINUOUS
 10
142.7067332871
 20
40.3633519493
 40
1.0
100
AcDbArc
 50
306.0
 51
18.0
  0
ARC
  5
6E3
100
AcDbEntity
  8
RUNDUNGEN
100
AcDbCircle
 62
7
  6
CONTINUOUS
 10
129.05420984
 20
33.069628274
 40
1.0
100
AcDbArc
 50
288.0
 51
329.8324053934
  0
ARC
  5
6E4
100
AcDbEntity
  8
RUNDUNGEN
100
AcDbCircle
 62
7
  6
CONTINUOUS
 10
140.207974682
 20
38.5478975556
 40
1.0
100
AcDbArc
 50
249.4234355428
 51
305.9998173114
  0
ARC
  5
6E5
100
AcDbEntity
  8
RUNDUNGEN
100
AcDbCircle
 62
7
  6
CONTINUOUS
 10
140.8770280482
 20
39.0339932796
 40
1.0
100
AcDbArc
 50
216.0
 51
306.0
  0
ARC
  5
6E6
100
AcDbEntity
  8
RUNDUNGEN
100
AcDbCircle
 62
7
  6
CONTINUOUS
 10
142.3529893587
 20
50.6129197501
 40
2.25
100
AcDbArc
 50
36.000820921
 51
216.0017949707
  0
ARC
  5
6E7
100
AcDbEntity
  8
RUNDUNGEN
100
AcDbCircle
 62
7
  6
CONTINUOUS
 10
121.5772441008
 20
76.0483855722
 40
9.2999997544
100
AcDbArc
 50
122.9958866054
 51
179.7251827435
  0
ARC
  5
6E8
100
AcDbEntity
  8
RUNDUNGEN
100
AcDbCircle
 62
7
  6
CONTINUOUS
 10
132.0013095002
 20
86.4724509726
 40
9.2999997538
100
AcDbArc
 50
90.2748126295
 51
147.0041133937
  0
ARC
  5
6E9
100
AcDbEntity
  8
RUNDUNGEN
100
AcDbCircle
 62
7
  6
CONTINUOUS
 10
151.9915947193
 20
47.1091986465
 40
1.0
100
AcDbArc
 50
234.0
 51
306.0
  0
ARC
  5
6EA
100
AcDbEntity
  8
RUNDUNGEN
100
AcDbCircle
 62
7
  6
CONTINUOUS
 10
153.8212999582
 20
48.4385573163
 40
1.0
100
AcDbArc
 50
306.0
 51
36.0
  0
ARC
  5
6EB
100
AcDbEntity
  8
RUNDUNGEN
100
AcDbCircle
 62
7
  6
CONTINUOUS
 10
154.4903582091
 20
48.9246565893
 40
1.0
100
AcDbArc
 50
305.99987205
 51
2.5759353903
  0
ARC
  5
6EC
100
AcDbEntity
  8
RUNDUNGEN
100
AcDbCircle
 62
7
  6
CONTINUOUS
 10
158.3679171441
 20
53.74020403
 40
2.0000000431
100
AcDbArc
 50
103.0810263212
 51
168.6376364565
  0
ARC
  5
6ED
100
AcDbEntity
  8
RUNDUNGEN
100
AcDbCircle
 62
7
  6
CONTINUOUS
 10
159.485246131
 20
49.1493122891
 40
3.9999544395
100
AcDbArc
 50
168.641460991
 51
182.5750090592
  0
ARC
  5
6EE
100
AcDbEntity
  8
RUNDUNGEN
100
AcDbCircle
 62
7
  6
CONTINUOUS
 10
163.1471999101
 20
57.8396354668
 40
1.0
100
AcDbArc
 50
282.1675946066
 51
324.0
  0
ARC
  5
6EF
100
AcDbEntity
  8
RUNDUNGEN
100
AcDbCircle
 62
7
  6
CONTINUOUS
 10
166.6739114238
 20
62.6937374331
 40
1.0
100
AcDbArc
 50
324.0
 51
5.8324053934
  0
ARC
  5
6F0
100
AcDbEntity
  8
RUNDUNGEN
100
AcDbCircle
 62
7
  6
CONTINUOUS
 10
146.4825519738
 20
90.7724509726
 40
5.0
100
AcDbArc
 50
341.2566016284
 51
90.0
  0
ARC
  5
6F1
100
AcDbEntity
  8
RUNDUNGEN
100
AcDbCircle
 62
7
  6
CONTINUOUS
 10
173.8072875893
 20
68.8619220557
 40
3.9999528329
100
AcDbArc
 50
105.424928853
 51
119.3556449014
  0
ARC
  5
6F2
100
AcDbEntity
  8
RUNDUNGEN
100
AcDbCircle
 62
7
  6
CONTINUOUS
 10
167.1211620526
 20
84.7033848491
 40
2.25
100
AcDbArc
 50
71.9984791069
 51
252.0024165321
  0
ARC
  5
6F3
100
AcDbEntity
  8
RUNDUNGEN
100
AcDbCircle
 62
7
  6
CONTINUOUS
 10
169.0958228089
 20
68.5058994354
 40
2.0000000423
100
AcDbArc
 50
119.3623635435
 51
184.767724946
  0
ARC
  5
6F4
100
AcDbEntity
  8
RUNDUNGEN
100
AcDbCircle
 62
7
  6
CONTINUOUS
 10
173.431891698
 20
76.6192357774
 40
1.0
100
AcDbArc
 50
342.0
 51
54.0
  0
ARC
  5
6F5
100
AcDbEntity
  8
RUNDUNGEN
100
AcDbCircle
 62
7
  6
CONTINUOUS
 10
172.4774508405
 20
73.6817688633
 40
1.0
100
AcDbArc
 50
285.4234355428
 51
341.9998173114
  0
ARC
  5
6F6
100
AcDbEntity
  8
RUNDUNGEN
100
AcDbCircle
 62
7
  6
CONTINUOUS
 10
172.7330064861
 20
74.4682882666
 40
1.0
100
AcDbArc
 50
252.0
 51
342.0
  0
ARC
  5
6F7
100
AcDbEntity
  8
RUNDUNGEN
100
AcDbCircle
 62
7
  6
CONTINUOUS
 10
176.9783931843
 20
87.5342450164
 40
1.0
100
AcDbArc
 50
270.0
 51
342.0
  0
ARC
  5
6F8
100
AcDbEntity
  8
RUNDUNGEN
100
AcDbCircle
 62
7
  6
CONTINUOUS
 10
177.6772783961
 20
89.6851925273
 40
1.0
100
AcDbArc
 50
342.0
 51
72.0
  0
ARC
  5
6F9
100
AcDbEntity
  8
RUNDUNGEN
100
AcDbCircle
 62
7
  6
CONTINUOUS
 10
177.9328359075
 20
90.4717176729
 40
1.0
100
AcDbArc
 50
341.99987205
 51
38.5759353903
  0
ARC
  5
6FA
100
AcDbEntity
  8
RUNDUNGEN
100
AcDbCircle
 62
7
  6
CONTINUOUS
 10
178.2393392152
 20
96.6467493466
 40
2.0000000431
100
AcDbArc
 50
139.0810263252
 51
204.6376364565
  0
ARC
  5
6FB
100
AcDbEntity
  8
RUNDUNGEN
100
AcDbCircle
 62
7
  6
CONTINUOUS
 10
181.8417358141
 20
93.5893894092
 40
3.9999544395
100
AcDbArc
 50
204.641460991
 51
218.5750090592
  0
ARC
  5
6FC
100
AcDbEntity
  8
RUNDUNGEN
100
AcDbCircle
 62
7
  6
CONTINUOUS
 10
179.6962748525
 20
102.7724509726
 40
1.0
100
AcDbArc
 50
318.1675946066
 51
360.0
  0
ARC
  5
6FD
100
AcDbEntity
  8
RUNDUNGEN
100
AcDbCircle
 62
7
  6
CONTINUOUS
 10
132.0013095012
 20
125.0724509726
 40
9.2999997544
100
AcDbArc
 50
212.9958866054
 51
269.7251871833
  0
ARC
  5
6FE
100
AcDbEntity
  8
RUNDUNGEN
100
AcDbCircle
 62
7
  6
CONTINUOUS
 10
121.5772441008
 20
135.496516372
 40
9.2999997538
100
AcDbArc
 50
180.2748279909
 51
237.0041133937
  0
ARC
  5
6FF
100
AcDbEntity
  8
0
100
AcDbCircle
 62
7
  6
CONTINUOUS
 10
105.6522441008
 20
118.223128665
 40
0.2
100
AcDbArc
 50
180.0
 51
254.8333216676
  0
ARC
  5
700
100
AcDbEntity
  8
RUNDUNGEN
100
AcDbCircle
 62
7
  6
CONTINUOUS
 10
117.2772441008
 20
149.9777588456
 40
5.0
100
AcDbArc
 50
71.2566016284
 51
180.0
  0
ARC
  5
701
100
AcDbEntity
  8
RUNDUNGEN
100
AcDbCircle
 62
7
  6
CONTINUOUS
 10
108.0156040468
 20
182.4533811705
 40
1.0
100
AcDbArc
 50
89.999999978
 51
162.0000000918
  0
ARC
  5
702
100
AcDbEntity
  8
RUNDUNGEN
100
AcDbCircle
 62
7
  6
CONTINUOUS
 10
111.104239597
 20
182.4533811705
 40
1.0
100
AcDbArc
 50
33.4234384896
 51
89.9998523379
  0
ARC
  5
703
100
AcDbEntity
  8
RUNDUNGEN
100
AcDbCircle
 62
7
  6
CONTINUOUS
 10
110.2772441008
 20
182.4533811705
 40
1.0
100
AcDbArc
 50
0.0
 51
90.0
  0
ARC
  5
704
100
AcDbEntity
  8
RUNDUNGEN
100
AcDbCircle
 62
7
  6
CONTINUOUS
 10
115.2772441008
 20
185.2075459489
 40
3.9999528882
100
AcDbArc
 50
213.4249314171
 51
227.3559309773
  0
ARC
  5
705
100
AcDbEntity
  8
RUNDUNGEN
100
AcDbCircle
 62
7
  6
CONTINUOUS
 10
117.0717644191
 20
180.8366934092
 40
2.0000000422
100
AcDbArc
 50
227.3623635435
 51
292.767749821
  0
ARC
  5
706
100
AcDbEntity
  8
RUNDUNGEN
100
AcDbCircle
 62
7
  6
CONTINUOUS
 10
123.3478707422
 20
180.3293756374
 40
1.0
100
AcDbArc
 50
72.0
 51
113.8324053934
  0
ARC
  5
707
100
AcDbEntity
  8
RUNDUNGEN
100
AcDbCircle
 62
7
  6
CONTINUOUS
 10
142.3529893587
 20
160.931982195
 40
2.25
100
AcDbArc
 50
144.0007968666
 51
324.0017755928
  0
ARC
  5
708
100
AcDbEntity
  8
RUNDUNGEN
100
AcDbCircle
 62
7
  6
CONTINUOUS
 10
138.4508042772
 20
177.6780062157
 40
3.9999544395
100
AcDbArc
 50
276.641460991
 51
290.5750090592
  0
ARC
  5
709
100
AcDbEntity
  8
RUNDUNGEN
100
AcDbCircle
 62
7
  6
CONTINUOUS
 10
134.4298804166
 20
175.1966996346
 40
2.0000000431
100
AcDbArc
 50
211.0810263191
 51
276.6376364565
  0
ARC
  5
70A
100
AcDbEntity
  8
RUNDUNGEN
100
AcDbCircle
 62
7
  6
CONTINUOUS
 10
142.7067332871
 20
171.1815499958
 40
1.0
100
AcDbArc
 50
342.0
 51
54.0
  0
ARC
  5
70B
100
AcDbEntity
  8
RUNDUNGEN
100
AcDbCircle
 62
7
  6
CONTINUOUS
 10
129.05420984
 20
178.4752736711
 40
1.0
100
AcDbArc
 50
30.1675946066
 51
72.0
  0
ARC
  5
70C
100
AcDbEntity
  8
RUNDUNGEN
100
AcDbCircle
 62
7
  6
CONTINUOUS
 10
140.8771183206
 20
172.5108430788
 40
1.0
100
AcDbArc
 50
54.0
 51
144.0009280751
  0
ARC
  5
70D
100
AcDbEntity
  8
RUNDUNGEN
100
AcDbCircle
 62
7
  6
CONTINUOUS
 10
140.2079697973
 20
172.9970079386
 40
1.0
100
AcDbArc
 50
53.99987205
 51
110.5759353903
  0
ARC
  5
70E
100
AcDbEntity
  8
RUNDUNGEN
100
AcDbCircle
 62
7
  6
CONTINUOUS
 10
146.4825519738
 20
120.7724509726
 40
5.0
100
AcDbArc
 50
270.0
 51
18.7433983716
  0
ARC
  5
70F
100
AcDbEntity
  8
RUNDUNGEN
100
AcDbCircle
 62
7
  6
CONTINUOUS
 10
178.239339213
 20
114.898152601
 40
2.0000000423
100
AcDbArc
 50
155.3623635435
 51
220.7677249462
  0
ARC
  5
710
100
AcDbEntity
  8
RUNDUNGEN
100
AcDbCircle
 62
7
  6
CONTINUOUS
 10
176.9783931843
 20
124.0106569288
 40
1.0
100
AcDbArc
 50
18.0
 51
90.0
  0
ARC
  5
711
100
AcDbEntity
  8
RUNDUNGEN
100
AcDbCircle
 62
7
  6
CONTINUOUS
 10
177.9328340417
 20
121.0731900146
 40
1.0
100
AcDbArc
 50
321.4234355428
 51
17.9998173114
  0
ARC
  5
712
100
AcDbEntity
  8
RUNDUNGEN
100
AcDbCircle
 62
7
  6
CONTINUOUS
 10
177.6772783961
 20
121.8597094179
 40
1.0
100
AcDbArc
 50
288.0
 51
18.0
  0
ARC
  5
713
100
AcDbEntity
  8
RUNDUNGEN
100
AcDbCircle
 62
7
  6
CONTINUOUS
 10
179.6962748525
 20
108.7724509726
 40
1.0
100
AcDbArc
 50
0.0
 51
41.8324053934
  0
ARC
  5
714
100
AcDbEntity
  8
RUNDUNGEN
100
AcDbCircle
 62
7
  6
CONTINUOUS
 10
181.841729443
 20
117.9555104658
 40
3.9999528329
100
AcDbArc
 50
141.424928853
 51
155.3556449014
  0
ARC
  5
715
100
AcDbEntity
  8
RUNDUNGEN
100
AcDbCircle
 62
7
  6
CONTINUOUS
 10
167.1211620526
 20
126.841517096
 40
2.25
100
AcDbArc
 50
108.0008142724
 51
288.0017896145
  0
ARC
  5
716
100
AcDbEntity
  8
RUNDUNGEN
100
AcDbCircle
 62
7
  6
CONTINUOUS
 10
169.0958228093
 20
143.039002513
 40
2.0000000431
100
AcDbArc
 50
175.0810263295
 51
240.6376364565
  0
ARC
  5
717
100
AcDbEntity
  8
RUNDUNGEN
100
AcDbCircle
 62
7
  6
CONTINUOUS
 10
173.431891698
 20
134.9256661677
 40
1.0
100
AcDbArc
 50
306.0
 51
18.0
  0
ARC
  5
718
100
AcDbEntity
  8
RUNDUNGEN
100
AcDbCircle
 62
7
  6
CONTINUOUS
 10
173.8072939604
 20
142.6829819596
 40
3.9999544395
100
AcDbArc
 50
240.641460991
 51
254.5750090592
  0
ARC
  5
719
100
AcDbEntity
  8
RUNDUNGEN
100
AcDbCircle
 62
7
  6
CONTINUOUS
 10
172.4774489747
 20
137.8631388242
 40
1.0
100
AcDbArc
 50
17.99987205
 51
74.5759353903
  0
ARC
  5
71A
100
AcDbEntity
  8
RUNDUNGEN
100
AcDbCircle
 62
7
  6
CONTINUOUS
 10
172.7330064861
 20
137.0766136786
 40
1.0
100
AcDbArc
 50
17.9994118944
 51
108.0
  0
ARC
  5
71B
100
AcDbEntity
  8
RUNDUNGEN
100
AcDbCircle
 62
7
  6
CONTINUOUS
 10
158.3679171409
 20
157.8046979158
 40
2.0000000423
100
AcDbArc
 50
191.3623635435
 51
256.7677249457
  0
ARC
  5
71C
100
AcDbEntity
  8
RUNDUNGEN
100
AcDbCircle
 62
7
  6
CONTINUOUS
 10
151.9915947193
 20
164.4357032986
 40
1.0
100
AcDbArc
 50
54.0
 51
126.0
  0
ARC
  5
71D
100
AcDbEntity
  8
RUNDUNGEN
100
AcDbCircle
 62
7
  6
CONTINUOUS
 10
154.4903533244
 20
162.6202489048
 40
1.0
100
AcDbArc
 50
357.4234355428
 51
53.9998173113
  0
ARC
  5
71E
100
AcDbEntity
  8
RUNDUNGEN
100
AcDbCircle
 62
7
  6
CONTINUOUS
 10
153.8212999582
 20
163.1063446289
 40
1.0
100
AcDbArc
 50
324.0
 51
54.0
  0
ARC
  5
71F
100
AcDbEntity
  8
RUNDUNGEN
100
AcDbCircle
 62
7
  6
CONTINUOUS
 10
163.1471999101
 20
153.7052664783
 40
1.0
100
AcDbArc
 50
36.0
 51
77.8324053934
  0
ARC
  5
720
100
AcDbEntity
  8
RUNDUNGEN
100
AcDbCircle
 62
7
  6
CONTINUOUS
 10
166.6739114238
 20
148.8511645121
 40
1.0
100
AcDbArc
 50
354.1675946066
 51
36.0
  0
ARC
  5
721
100
AcDbEntity
  8
RUNDUNGEN
100
AcDbCircle
 62
7
  6
CONTINUOUS
 10
159.4852421934
 20
162.3955842365
 40
3.9999528329
100
AcDbArc
 50
177.424928853
 51
191.3556449014
  0
ARC
  5
722
100
AcDbEntity
  8
RUNDUNGEN
100
AcDbCircle
 62
7
  6
CONTINUOUS
 10
215.1297771843
 20
71.2996947312
 40
9.3
100
AcDbArc
 50
3.2385285669
 51
13.3740623395
  0
ARC
  5
723
100
AcDbEntity
  8
RUNDUNGEN
100
AcDbCircle
 62
7
  6
CONTINUOUS
 10
213.3797771843
 20
83.7521019985
 40
3.0
100
AcDbArc
 50
180.0
 51
266.0
  0
ARC
  5
724
100
AcDbEntity
  8
RUNDUNGEN
100
AcDbCircle
 62
7
  6
CONTINUOUS
 10
215.4297771843
 20
91.0753137492
 40
1.0
100
AcDbArc
 50
98.5821154728
 51
180.0000002436
  0
ARC
  5
725
100
AcDbEntity
  8
RUNDUNGEN
100
AcDbCircle
 62
7
  6
CONTINUOUS
 10
215.4297771843
 20
53.3965588756
 40
1.0
100
AcDbArc
 50
111.5604668071
 51
180.0000013363
  0
ARC
  5
726
100
AcDbEntity
  8
RUNDUNGEN
100
AcDbCircle
 62
7
  6
CONTINUOUS
 10
215.4297771843
 20
47.1091986465
 40
1.0
100
AcDbArc
 50
180.0
 51
270.0
  0
ARC
  5
727
100
AcDbEntity
  8
RUNDUNGEN
100
AcDbCircle
 62
7
  6
CONTINUOUS
 10
215.4297771843
 20
37.2613805
 40
1.0
100
AcDbArc
 50
116.0374415648
 51
180.0000000865
  0
ARC
  5
728
100
AcDbEntity
  8
RUNDUNGEN
100
AcDbCircle
 62
7
  6
CONTINUOUS
 10
215.4297771843
 20
87.5342450164
 40
1.0
100
AcDbArc
 50
180.0
 51
270.0
  0
ARC
  5
729
100
AcDbEntity
  8
RUNDUNGEN
100
AcDbCircle
 62
7
  6
CONTINUOUS
 10
215.4297771843
 20
29.0915207746
 40
1.0
100
AcDbArc
 50
180.0
 51
270.0
  0
ARC
  5
72A
100
AcDbEntity
  8
0
100
AcDbCircle
 62
7
  6
CONTINUOUS
 10
215.1297771843
 20
140.2452072139
 40
9.3
100
AcDbArc
 50
274.0
 51
360.0
  0
ARC
  5
72B
100
AcDbEntity
  8
0
100
AcDbCircle
 62
7
  6
CONTINUOUS
 10
213.3797771843
 20
127.7927999466
 40
3.0
100
AcDbArc
 50
94.0
 51
180.0
  0
ARC
  5
72C
100
AcDbEntity
  8
0
100
AcDbCircle
 62
7
  6
CONTINUOUS
 10
222.4297771843
 20
167.6423054096
 40
2.0
100
AcDbArc
 50
0.0
 51
64.0
  0
ARC
  5
72D
100
AcDbEntity
  8
0
100
AcDbCircle
 62
7
  6
CONTINUOUS
 10
215.4297771843
 20
158.1483430696
 40
1.0
100
AcDbArc
 50
179.9999991873
 51
248.439533719
  0
ARC
  5
72E
100
AcDbEntity
  8
0
100
AcDbCircle
 62
7
  6
CONTINUOUS
 10
215.4297771843
 20
174.2835214448
 40
1.0
100
AcDbArc
 50
179.9999999267
 51
243.9625584505
  0
ARC
  5
72F
100
AcDbEntity
  8
RUNDUNGEN
100
AcDbCircle
 62
7
  6
CONTINUOUS
 10
215.4297771843
 20
182.4533811705
 40
1.0
100
AcDbArc
 50
90.0
 51
180.0
  0
ARC
  5
730
100
AcDbEntity
  8
0
100
AcDbCircle
 62
7
  6
CONTINUOUS
 10
222.9970221722
 20
170.7034438116
 40
0.9999807389
100
AcDbArc
 50
90.000037207
 51
244.0169962743
  0
ARC
  5
731
100
AcDbEntity
  8
RUNDUNGEN
100
AcDbCircle
 62
7
  6
CONTINUOUS
 10
243.7297771843
 20
71.2996947312
 40
9.3
100
AcDbArc
 50
166.6210843989
 51
176.7614734203
  0
ARC
  5
732
100
AcDbEntity
  8
RUNDUNGEN
100
AcDbCircle
 62
7
  6
CONTINUOUS
 10
245.4797771843
 20
83.7521019985
 40
3.0
100
AcDbArc
 50
274.0
 51
360.0
  0
ARC
  5
733
100
AcDbEntity
  8
RUNDUNGEN
100
AcDbCircle
 62
7
  6
CONTINUOUS
 10
243.4297771843
 20
91.0753149741
 40
1.0
100
AcDbArc
 50
0.0
 51
81.4171432708
  0
ARC
  5
734
100
AcDbEntity
  8
RUNDUNGEN
100
AcDbCircle
 62
7
  6
CONTINUOUS
 10
243.4297771843
 20
53.3965853078
 40
1.0
100
AcDbArc
 50
359.9999986023
 51
68.4395195459
  0
ARC
  5
735
100
AcDbEntity
  8
RUNDUNGEN
100
AcDbCircle
 62
7
  6
CONTINUOUS
 10
243.4297771843
 20
47.1091986465
 40
1.0
100
AcDbArc
 50
270.0
 51
360.0
  0
ARC
  5
736
100
AcDbEntity
  8
RUNDUNGEN
100
AcDbCircle
 62
7
  6
CONTINUOUS
 10
243.4297771843
 20
37.2613917725
 40
1.0
100
AcDbArc
 50
359.9999990222
 51
63.9627818163
  0
ARC
  5
737
100
AcDbEntity
  8
RUNDUNGEN
100
AcDbCircle
 62
7
  6
CONTINUOUS
 10
243.4297771843
 20
87.5342450164
 40
1.0
100
AcDbArc
 50
270.0
 51
360.0
  0
ARC
  5
738
100
AcDbEntity
  8
RUNDUNGEN
100
AcDbCircle
 62
7
  6
CONTINUOUS
 10
243.4297771843
 20
29.0915207746
 40
1.0
100
AcDbArc
 50
270.0
 51
360.0
  0
ARC
  5
739
100
AcDbEntity
  8
0
100
AcDbCircle
 62
7
  6
CONTINUOUS
 10
243.7297771843
 20
140.2452072139
 40
9.3
100
AcDbArc
 50
180.0
 51
266.0
  0
ARC
  5
73A
100
AcDbEntity
  8
0
100
AcDbCircle
 62
7
  6
CONTINUOUS
 10
245.4797771843
 20
127.7927999466
 40
3.0
100
AcDbArc
 50
0.0
 51
86.0
  0
ARC
  5
73B
100
AcDbEntity
  8
0
100
AcDbCircle
 62
7
  6
CONTINUOUS
 10
236.4297771843
 20
167.6423054096
 40
2.0
100
AcDbArc
 50
116.0
 51
180.0
  0
ARC
  5
73C
100
AcDbEntity
  8
0
100
AcDbCircle
 62
7
  6
CONTINUOUS
 10
243.4297771843
 20
158.1483166374
 40
1.0
100
AcDbArc
 50
291.5604808765
 51
0.0000018189
  0
ARC
  5
73D
100
AcDbEntity
  8
0
100
AcDbCircle
 62
7
  6
CONTINUOUS
 10
243.4297771843
 20
174.2835101724
 40
1.0
100
AcDbArc
 50
296.0372185271
 51
0.000001783
  0
ARC
  5
73E
100
AcDbEntity
  8
RUNDUNGEN
100
AcDbCircle
 62
7
  6
CONTINUOUS
 10
243.4297771843
 20
182.4533811705
 40
1.0
100
AcDbArc
 50
0.0
 51
90.0
  0
ARC
  5
73F
100
AcDbEntity
  8
0
100
AcDbCircle
 62
7
  6
CONTINUOUS
 10
235.862657566
 20
170.7035016826
 40
0.9999629196
100
AcDbArc
 50
295.9669569442
 51
89.9999995026
  0
ENDSEC
  0
SECTION
  2
OBJECTS
  0
DICTIONARY
  5
C
100
AcDbDictionary
280
0
281
1
  3
ACAD_GROUP
350
D
  3
ACAD_MLINESTYLE
350
17
  3
ACAD_LAYOUT
350
1A
  3
ACAD_PLOTSETTINGS
350
19
  3
ACAD_PLOTSTYLENAME
350
E
  0
DICTIONARY
  5
D
102
{ACAD_REACTORS
330
C
102
}
100
AcDbDictionary
280
0
281
1
  0
ACDBDICTIONARYWDFLT
  5
E
102
{ACAD_REACTORS
330
C
102
}
100
AcDbDictionary
281
1
  3
Normal
350
F
100
AcDbDictionaryWithDefault
340
F
  0
DICTIONARY
  5
17
102
{ACAD_REACTORS
330
C
102
}
100
AcDbDictionary
280
0
281
1
  3
Standard
350
18
  0
DICTIONARY
  5
19
102
{ACAD_REACTORS
330
C
102
}
100
AcDbDictionary
281
1
  0
DICTIONARY
  5
1A
102
{ACAD_REACTORS
330
C
102
}
100
AcDbDictionary
281
1
  3
Model
350
740
  3
Layout1
350
741
  0
ACDBPLACEHOLDER
  5
F
102
{ACAD_REACTORS
330
E
102
}
  0
MLINESTYLE
  5
18
102
{ACAD_REACTORS
330
17
102
}
100
AcDbMlineStyle
  2
STANDARD
 70
0
  3

 62
256
 51
90.0
 52
90.0
 71
2
 49
0.5
 62
256
  6
BYLAYER
 49
-0.5
 62
256
  6
BYLAYER
  0
LAYOUT
  5
740
102
{ACAD_REACTORS
330
1A
102
}
100
AcDbPlotSettings
  1

  2
none_device
  4
ISO_A4_(297.00_x_210.00_MM)
  6

 40
0.0
 41
0.0
 42
0.0
 43
0.0
 44
297.0
 45
210.0
 46
0.0
 47
0.0
 48
0.0
 49
0.0
140
0.0
141
0.0
142
1.0
143
1.0
 70
1024
 72
1
 73
0
 74
0
  7

 75
0
147
1.0
148
0.0
149
0.0
100
AcDbLayout
  1
Model
 70
0
 71
0
 10
0.0
 20
0.0
 11
297.0
 21
210.0
 12
0.0
 22
0.0
 32
0.0
 14
0.0
 24
0.0
 34
0.0
 15
0.0
 25
0.0
 35
0.0
146
0.0
 13
0.0
 23
0.0
 33
0.0
 16
1.0
 26
0.0
 36
0.0
 17
0.0
 27
1.0
 37
0.0
 76
0
330
210
345
0
346
0
  0
LAYOUT
  5
741
102
{ACAD_REACTORS
330
1A
102
}
100
AcDbPlotSettings
  1

  2
none_device
  4
ISO_A4_(297.00_x_210.00_MM)
  6

 40
0.0
 41
0.0
 42
0.0
 43
0.0
 44
297.0
 45
210.0
 46
0.0
 47
0.0
 48
0.0
 49
0.0
140
0.0
141
0.0
142
1.0
143
1.0
 70
0
 72
1
 73
0
 74
0
  7

 75
0
147
1.0
148
0.0
149
0.0
100
AcDbLayout
  1
Layout1
 70
0
 71
1
 10
0.0
 20
0.0
 11
297.0
 21
210.0
 12
0.0
 22
0.0
 32
0.0
 14
0.0
 24
0.0
 34
0.0
 15
0.0
 25
0.0
 35
0.0
146
0.0
 13
0.0
 23
0.0
 33
0.0
 16
1.0
 26
0.0
 36
0.0
 17
0.0
 27
1.0
 37
0.0
 76
0
330
211
345
0
346
0
  0
ENDSEC
  0
EOF
