999
DXF file: s61_0umw100.dxf
999
Pro/ENGINEER 2013050 by Parametric Technology Corporation
  0
SECTION
  2
HEADER
  9
$ACADVER
  1
AC1015
  9
$DWGCODEPAGE
  3
ANSI_1252
  9
$EXTMAX
 10
297.0
 20
210.0
 30
0.0
  9
$EXTMIN
 10
0.0
 20
-0.0
 30
0.0
  9
$LIMMIN
 10
0.0
 20
-0.0
  9
$LIMMAX
 10
297.0
 20
210.0
  9
$VIEWCTR
 10
148.5
 20
105.0
  9
$VIEWSIZE
 40
210.0
  9
$CLAYER
  8
0
  9
$LTSCALE
 40
16.335
  9
$CELTYPE
  6
BYLAYER
  9
$DIMSCALE
 40
1.0
  9
$DIMASZ
 40
3.5
  9
$DIMEXO
 40
0.0
  9
$DIMDLI
 40
11.286
  9
$DIMEXE
 40
1.5
  9
$DIMCEN
 40
2.673
  9
$DIMLFAC
 40
1.0
  9
$DIMBLK
  1
_FILLED
  9
$DIMTXT
 40
3.5
  9
$DIMTOL
 70
1
  9
$DIMLIM
 70
0
  9
$DIMTFAC
 40
1.0
  9
$DIMTP
 40
0.005
  9
$DIMTM
 40
0.005
  9
$DIMGAP
 40
0.625
  9
$DIMDSEP
 70
46
  9
$PDMODE
 70
3
  9
$PDSIZE
 40
0.3125
  9
$HANDSEED
  5
4D9
  9
$TILEMODE
 70
1
  9
$MEASUREMENT
 70
1
  9
$INSUNITS
 70
4
  0
ENDSEC
  0
SECTION
  2
CLASSES
  0
CLASS
  1
ACDBDICTIONARYWDFLT
  2
AcDbDictionaryWithDefault
  3
AutoCAD 2000
 90
0
280
0
281
0
  0
CLASS
  1
ACDBPLACEHOLDER
  2
AcDbPlaceHolder
  3
AutoCAD 2000
 90
0
280
0
281
0
  0
CLASS
  1
LAYOUT
  2
AcDbLayout
  3
AutoCAD 2000
 90
0
280
0
281
0
  0
ENDSEC
  0
SECTION
  2
TABLES
  0
TABLE
  2
VPORT
  5
8
100
AcDbSymbolTable
 70
2
  0
VPORT
  5
1F4
100
AcDbSymbolTableRecord
100
AcDbViewportTableRecord
  2
*ACTIVE
 70
0
 10
0.0
 20
0.0
 11
1.0
 21
1.0
 12
148.5
 22
105.0
 13
0.0
 23
0.0
 14
1.0
 24
1.0
 15
0.0
 25
0.0
 16
0.0
 26
0.0
 36
1.0
 17
0.0
 27
0.0
 37
0.0
 40
210.0
 41
1.4142857143
 42
50.0
 43
0.0
 44
0.0
 50
0.0
 51
0.0
 71
0
 72
100
 73
1
 74
1
 75
0
 76
0
 77
0
 78
0
  0
ENDTAB
  0
TABLE
  2
LTYPE
  5
5
100
AcDbSymbolTable
 70
6
  0
LTYPE
  5
14
100
AcDbSymbolTableRecord
100
AcDbLinetypeTableRecord
  2
BYBLOCK
 70
0
  3

 72
65
 73
0
 40
0.0
  0
LTYPE
  5
15
100
AcDbSymbolTableRecord
100
AcDbLinetypeTableRecord
  2
BYLAYER
 70
0
  3

 72
65
 73
0
 40
0.0
  0
LTYPE
  5
16
100
AcDbSymbolTableRecord
100
AcDbLinetypeTableRecord
  2
CONTINUOUS
 70
64
  3
Solid line
 72
65
 73
0
 40
0.0
  0
LTYPE
  5
1F5
100
AcDbSymbolTableRecord
100
AcDbLinetypeTableRecord
  2
CENTER
 70
64
  3
____ _ ____ _ ____ _ ____ _ ____ _ ____ _ ____
 72
65
 73
4
 40
0.6
 49
0.375
 74
0
 49
-0.075
 74
0
 49
0.075
 74
0
 49
-0.075
 74
0
  0
LTYPE
  5
1F6
100
AcDbSymbolTableRecord
100
AcDbLinetypeTableRecord
  2
HIDDEN
 70
64
  3
- - - - - - - - - - - - - - - - - - - -
 72
65
 73
2
 40
0.2
 49
0.1
 74
0
 49
-0.1
 74
0
  0
LTYPE
  5
1F7
100
AcDbSymbolTableRecord
100
AcDbLinetypeTableRecord
  2
PHANTOM
 70
64
  3
_____ _ _ _____ _ _ _____ _ _ _____
 72
65
 73
6
 40
0.8
 49
0.45
 74
0
 49
-0.05
 74
0
 49
0.1
 74
0
 49
-0.05
 74
0
 49
0.1
 74
0
 49
-0.05
 74
0
  0
LTYPE
  5
1F8
100
AcDbSymbolTableRecord
100
AcDbLinetypeTableRecord
  2
DOT
 70
64
  3
. . . . . . . . . . . . . . . . . . . .
 72
65
 73
2
 40
0.2
 49
0.1
 74
0
 49
-0.1
 74
0
  0
LTYPE
  5
1F9
100
AcDbSymbolTableRecord
100
AcDbLinetypeTableRecord
  2
DASHED
 70
64
  3
- - - - - - - - - - - - - - - - - - - -
 72
65
 73
2
 40
0.2
 49
0.1
 74
0
 49
-0.1
 74
0
  0
ENDTAB
  0
TABLE
  2
LAYER
  5
2
100
AcDbSymbolTable
 70
36
  0
LAYER
  5
10
100
AcDbSymbolTableRecord
100
AcDbLayerTableRecord
  2
0
 70
0
 62
7
  6
CONTINUOUS
370
-3
390
F
  0
LAYER
  5
1FA
100
AcDbSymbolTableRecord
100
AcDbLayerTableRecord
  2
DEFAULT_1
 70
0
 62
7
  6
CENTER
370
-3
390
F
  0
LAYER
  5
1FB
100
AcDbSymbolTableRecord
100
AcDbLayerTableRecord
  2
DEFAULT_2
 70
0
 62
8
  6
HIDDEN
370
-3
390
F
  0
LAYER
  5
1FC
100
AcDbSymbolTableRecord
100
AcDbLayerTableRecord
  2
DEFAULT_3
 70
0
 62
7
  6
PHANTOM
370
-3
390
F
  0
LAYER
  5
1FD
100
AcDbSymbolTableRecord
100
AcDbLayerTableRecord
  2
01___PRT_ALL_DTM_PLN
 70
0
 62
7
  6
CONTINUOUS
370
-3
390
F
  0
LAYER
  5
1FE
100
AcDbSymbolTableRecord
100
AcDbLayerTableRecord
  2
01___PRT_DEF_DTM_PLN
 70
0
 62
7
  6
CONTINUOUS
370
-3
390
F
  0
LAYER
  5
1FF
100
AcDbSymbolTableRecord
100
AcDbLayerTableRecord
  2
02___PRT_ALL_AXES
 70
0
 62
7
  6
CONTINUOUS
370
-3
390
F
  0
LAYER
  5
200
100
AcDbSymbolTableRecord
100
AcDbLayerTableRecord
  2
03___PRT_ALL_CURVES
 70
0
 62
7
  6
CONTINUOUS
370
-3
390
F
  0
LAYER
  5
201
100
AcDbSymbolTableRecord
100
AcDbLayerTableRecord
  2
04___PRT_ALL_DTM_PNT
 70
0
 62
7
  6
CONTINUOUS
370
-3
390
F
  0
LAYER
  5
202
100
AcDbSymbolTableRecord
100
AcDbLayerTableRecord
  2
05___PRT_ALL_DTM_CSYS
 70
0
 62
7
  6
CONTINUOUS
370
-3
390
F
  0
LAYER
  5
203
100
AcDbSymbolTableRecord
100
AcDbLayerTableRecord
  2
05___PRT_DEF_DTM_CSYS
 70
0
 62
7
  6
CONTINUOUS
370
-3
390
F
  0
LAYER
  5
204
100
AcDbSymbolTableRecord
100
AcDbLayerTableRecord
  2
06___PRT_ALL_SURFS
 70
0
 62
7
  6
CONTINUOUS
370
-3
390
F
  0
LAYER
  5
205
100
AcDbSymbolTableRecord
100
AcDbLayerTableRecord
  2
ALLE
 70
0
 62
7
  6
CONTINUOUS
370
-3
390
F
  0
LAYER
  5
206
100
AcDbSymbolTableRecord
100
AcDbLayerTableRecord
  2
AUSFORMSCHRAEGEN
 70
0
 62
7
  6
CONTINUOUS
370
-3
390
F
  0
LAYER
  5
207
100
AcDbSymbolTableRecord
100
AcDbLayerTableRecord
  2
BEZUGS-KOORDINATENSYSTEME
 70
0
 62
7
  6
CONTINUOUS
370
-3
390
F
  0
LAYER
  5
208
100
AcDbSymbolTableRecord
100
AcDbLayerTableRecord
  2
BEZUGSACHSEN
 70
0
 62
7
  6
CONTINUOUS
370
-3
390
F
  0
LAYER
  5
209
100
AcDbSymbolTableRecord
100
AcDbLayerTableRecord
  2
BEZUGSEBENE
 70
0
 62
7
  6
CONTINUOUS
370
-3
390
F
  0
LAYER
  5
20A
100
AcDbSymbolTableRecord
100
AcDbLayerTableRecord
  2
BEZUGSEBENEN
 70
0
 62
7
  6
CONTINUOUS
370
-3
390
F
  0
LAYER
  5
20B
100
AcDbSymbolTableRecord
100
AcDbLayerTableRecord
  2
BEZUGSEBENEN-KES
 70
0
 62
7
  6
CONTINUOUS
370
-3
390
F
  0
LAYER
  5
20C
100
AcDbSymbolTableRecord
100
AcDbLayerTableRecord
  2
BOHRUNGEN
 70
0
 62
7
  6
CONTINUOUS
370
-3
390
F
  0
LAYER
  5
20D
100
AcDbSymbolTableRecord
100
AcDbLayerTableRecord
  2
FLAECHEN
 70
0
 62
7
  6
CONTINUOUS
370
-3
390
F
  0
LAYER
  5
20E
100
AcDbSymbolTableRecord
100
AcDbLayerTableRecord
  2
GEOMETRISCHE_TOLERANZEN
 70
0
 62
7
  6
CONTINUOUS
370
-3
390
F
  0
LAYER
  5
20F
100
AcDbSymbolTableRecord
100
AcDbLayerTableRecord
  2
KONTROLLBEMASSUNGEN_PRODUKTION
 70
0
 62
7
  6
CONTINUOUS
370
-3
390
F
  0
LAYER
  5
210
100
AcDbSymbolTableRecord
100
AcDbLayerTableRecord
  2
KURVEN
 70
0
 62
7
  6
CONTINUOUS
370
-3
390
F
  0
LAYER
  5
211
100
AcDbSymbolTableRecord
100
AcDbLayerTableRecord
  2
PARAMETER-BEMAßUNGEN
 70
0
 62
7
  6
CONTINUOUS
370
-3
390
F
  0
LAYER
  5
212
100
AcDbSymbolTableRecord
100
AcDbLayerTableRecord
  2
RUNDUNGEN
 70
0
 62
7
  6
CONTINUOUS
370
-3
390
F
  0
LAYER
  5
213
100
AcDbSymbolTableRecord
100
AcDbLayerTableRecord
  2
SAMMELFLÄCHEN
 70
0
 62
7
  6
CONTINUOUS
370
-3
390
F
  0
LAYER
  5
214
100
AcDbSymbolTableRecord
100
AcDbLayerTableRecord
  2
ZEICHNUNGSBEMASSUNGEN
 70
0
 62
7
  6
CONTINUOUS
370
-3
390
F
  0
LAYER
  5
215
100
AcDbSymbolTableRecord
100
AcDbLayerTableRecord
  2
ZEICHNUNGSNOTIZEN
 70
0
 62
7
  6
CONTINUOUS
370
-3
390
F
  0
ENDTAB
  0
TABLE
  2
STYLE
  5
3
100
AcDbSymbolTable
 70
1
  0
STYLE
  5
11
100
AcDbSymbolTableRecord
100
AcDbTextStyleTableRecord
  2
STANDARD
 70
0
 40
0.0
 41
0.7
 50
0.0
 71
0
 42
0.2
  3
txt
  4

  0
STYLE
  5
216
100
AcDbSymbolTableRecord
100
AcDbTextStyleTableRecord
  2
TEXTSTYLE_1
 70
0
 40
0.0
 41
0.8
 50
0.0
 71
0
 42
0.2
  3
gdt
  4

  0
ENDTAB
  0
TABLE
  2
VIEW
  5
6
100
AcDbSymbolTable
 70
0
  0
ENDTAB
  0
TABLE
  2
UCS
  5
7
100
AcDbSymbolTable
 70
0
  0
ENDTAB
  0
TABLE
  2
APPID
  5
9
100
AcDbSymbolTable
 70
1
  0
APPID
  5
217
100
AcDbSymbolTableRecord
100
AcDbRegAppTableRecord
  2
ACAD
 70
0
  0
ENDTAB
  0
TABLE
  2
BLOCK_RECORD
  5
1
100
AcDbSymbolTable
 70
0
  0
BLOCK_RECORD
  5
218
100
AcDbSymbolTableRecord
100
AcDbBlockTableRecord
  2
*Model_Space
  0
BLOCK_RECORD
  5
219
100
AcDbSymbolTableRecord
100
AcDbBlockTableRecord
  2
*Paper_Space
  0
ENDTAB
  0
TABLE
  2
DIMSTYLE
  5
A
100
AcDbSymbolTable
 70
1
100
AcDbDimStyleTable
 71
0
  0
DIMSTYLE
105
21A
100
AcDbSymbolTableRecord
100
AcDbDimStyleTableRecord
  2
STANDARD
 70
0
  3

  4

 40
1.0
 41
3.5
 42
0.0
 43
0.38
 44
1.5
 45
0.0
 46
0.0
 47
0.005
 48
0.005
140
3.5
141
0.09
142
0.0
143
25.4
144
1.0
145
0.0
146
1.0
147
0.625
 71
1.0
 72
0.0
 73
0
 74
0
 75
0
 76
0
 77
1
 78
8
170
0
171
2
172
0
173
0
174
0
175
0
176
0
177
0
178
5
270
2
271
3
272
3
273
2
274
2
275
0
280
0
281
0
282
0
283
1
284
8
285
0
286
0
287
3
288
0
340
11
278
46
  0
ENDTAB
  0
ENDSEC
  0
SECTION
  2
BLOCKS
  0
BLOCK
  5
20
100
AcDbEntity
  8
0
100
AcDbBlockBegin
  2
*Model_Space
 70
0
 10
0.0
 20
0.0
 30
0.0
  3
*Model_Space
  1

  0
ENDBLK
  5
21
100
AcDbEntity
  8
0
100
AcDbBlockEnd
  0
BLOCK
  5
1C
100
AcDbEntity
  8
0
100
AcDbBlockBegin
  2
*Paper_Space
 70
0
 10
0.0
 20
0.0
 30
0.0
  3
*Paper_Space
  1

  0
ENDBLK
  5
1D
100
AcDbEntity
  8
0
100
AcDbBlockEnd
  0
ENDSEC
  0
SECTION
  2
ENTITIES
  0
LINE
  5
21B
100
AcDbEntity
  8
0
100
AcDbLine
 62
7
  6
CONTINUOUS
 10
0.0
 20
-0.0
 11
0.0
 21
210.0
  0
LINE
  5
21C
100
AcDbEntity
  8
0
100
AcDbLine
 62
7
  6
CONTINUOUS
 10
0.0
 20
-0.0
 11
297.0
 21
-0.0
  0
LINE
  5
21D
100
AcDbEntity
  8
0
100
AcDbLine
 62
7
  6
CONTINUOUS
 10
0.0
 20
210.0
 11
297.0
 21
210.0
  0
LINE
  5
21E
100
AcDbEntity
  8
0
100
AcDbLine
 62
7
  6
CONTINUOUS
 10
297.0
 20
-0.0
 11
297.0
 21
210.0
  0
LWPOLYLINE
  5
21F
100
AcDbEntity
  8
RUNDUNGEN
100
AcDbPolyline
 62
7
  6
CONTINUOUS
 90
3
 70
0
 10
46.0603279002
 20
37.0265144694
 10
46.0699457035
 20
37.0055274895
 10
46.0854546715
 20
36.972190934
  0
LWPOLYLINE
  5
220
100
AcDbEntity
  8
RUNDUNGEN
100
AcDbPolyline
 62
7
  6
CONTINUOUS
 90
9
 70
0
 10
46.0854648625
 20
36.9721692337
 10
46.0946229927
 20
36.9518585216
 10
46.1040044747
 20
36.9288471381
 10
46.1112039778
 20
36.9087275517
 10
46.1164117546
 20
36.8917133427
 10
46.1198786958
 20
36.8779753402
 10
46.1219265082
 20
36.8675553823
 10
46.1229035875
 20
36.8605049278
 10
46.1231763406
 20
36.8572598976
  0
LWPOLYLINE
  5
221
100
AcDbEntity
  8
RUNDUNGEN
100
AcDbPolyline
 62
7
  6
CONTINUOUS
 90
3
 70
0
 10
46.0359697557
 20
37.0807597579
 10
46.0412668984
 20
37.0688282416
 10
46.0603279002
 20
37.0265144694
  0
LWPOLYLINE
  5
222
100
AcDbEntity
  8
RUNDUNGEN
100
AcDbPolyline
 62
7
  6
CONTINUOUS
 90
7
 70
0
 10
45.3318549484
 20
38.8675271524
 10
45.4422453664
 20
38.5598688314
 10
45.5581636624
 20
38.2484019594
 10
45.6758743725
 20
37.9438120357
 10
45.795366846
 20
37.6462118692
 10
45.9166317129
 20
37.3557126221
 10
46.03597015
 20
37.0807588704
  0
LINE
  5
223
100
AcDbEntity
  8
RUNDUNGEN
100
AcDbLine
 62
7
  6
CONTINUOUS
 10
45.3318736855
 20
38.8674740085
 11
45.3318549484
 21
38.8675271524
  0
LINE
  5
224
100
AcDbEntity
  8
RUNDUNGEN
100
AcDbLine
 62
7
  6
CONTINUOUS
 10
46.1593552273
 20
36.3726296722
 11
46.162510161
 21
36.3433239866
  0
LINE
  5
225
100
AcDbEntity
  8
RUNDUNGEN
100
AcDbLine
 62
7
  6
CONTINUOUS
 10
46.1562224612
 20
36.4036047512
 11
46.1593552273
 21
36.3726296722
  0
LINE
  5
226
100
AcDbEntity
  8
RUNDUNGEN
100
AcDbLine
 62
7
  6
CONTINUOUS
 10
46.1531002509
 20
36.4363883104
 11
46.1562224612
 21
36.4036047512
  0
LINE
  5
227
100
AcDbEntity
  8
RUNDUNGEN
100
AcDbLine
 62
7
  6
CONTINUOUS
 10
46.1499794133
 20
36.4711167511
 11
46.1531002509
 21
36.4363883104
  0
LINE
  5
228
100
AcDbEntity
  8
RUNDUNGEN
100
AcDbLine
 62
7
  6
CONTINUOUS
 10
46.1468526135
 20
36.5079255919
 11
46.1499794133
 21
36.4711167511
  0
LINE
  5
229
100
AcDbEntity
  8
RUNDUNGEN
100
AcDbLine
 62
7
  6
CONTINUOUS
 10
46.1421386537
 20
36.5673374272
 11
46.1468526135
 21
36.5079255919
  0
LINE
  5
22A
100
AcDbEntity
  8
RUNDUNGEN
100
AcDbLine
 62
7
  6
CONTINUOUS
 10
46.1373829572
 20
36.6322025635
 11
46.1421386537
 21
36.5673374272
  0
LINE
  5
22B
100
AcDbEntity
  8
RUNDUNGEN
100
AcDbLine
 62
7
  6
CONTINUOUS
 10
46.1325740627
 20
36.7030070919
 11
46.1373829572
 21
36.6322025635
  0
LINE
  5
22C
100
AcDbEntity
  8
RUNDUNGEN
100
AcDbLine
 62
7
  6
CONTINUOUS
 10
46.1277030477
 20
36.7802692904
 11
46.1325740627
 21
36.7030070919
  0
LINE
  5
22D
100
AcDbEntity
  8
RUNDUNGEN
100
AcDbLine
 62
7
  6
CONTINUOUS
 10
46.123175974
 20
36.8572663958
 11
46.1277030477
 21
36.7802692904
  0
LWPOLYLINE
  5
22E
100
AcDbEntity
  8
RUNDUNGEN
100
AcDbPolyline
 62
7
  6
CONTINUOUS
 90
9
 70
0
 10
45.271851001
 20
39.1220308881
 10
45.2756128339
 20
39.0973124839
 10
45.2817751774
 20
39.0611952921
 10
45.2886671107
 20
39.0256742358
 10
45.296322555
 20
38.990756987
 10
45.3047913547
 20
38.956419267
 10
45.3141352547
 20
38.9226371212
 10
45.3244405276
 20
38.8893522008
 10
45.3318736856
 20
38.8674740085
  0
LWPOLYLINE
  5
22F
100
AcDbEntity
  8
RUNDUNGEN
100
AcDbPolyline
 62
7
  6
CONTINUOUS
 90
48
 70
0
 10
46.1689505114
 20
36.2891353681
 10
46.1706036412
 20
36.2763941192
 10
46.1722810124
 20
36.2639331922
 10
46.1739874245
 20
36.2517274979
 10
46.1757285095
 20
36.2397502035
 10
46.177508564
 20
36.227987602
 10
46.1793331425
 20
36.2164208424
 10
46.1812081511
 20
36.2050326335
 10
46.1831400816
 20
36.1938059037
 10
46.185138215
 20
36.182712078
 10
46.1872121466
 20
36.1717268348
 10
46.1893752289
 20
36.160812768
 10
46.1916414237
 20
36.149937863
 10
46.1940296121
 20
36.1390560185
 10
46.1965595372
 20
36.1281286565
 10
46.1992583239
 20
36.1170982615
 10
46.2021541264
 20
36.1059188009
 10
46.2052861137
 20
36.0945193788
 10
46.2086953886
 20
36.0828437346
 10
46.2124368631
 20
36.0708121792
 10
46.2165714423
 20
36.0583548823
 10
46.2211684634
 20
36.0454068216
 10
46.2263111101
 20
36.0318973442
 10
46.2320764639
 20
36.0178045628
 10
46.2385601558
 20
36.0030904813
 10
46.2458454944
 20
35.9877738016
 10
46.2540331349
 20
35.9718594027
 10
46.2632071898
 20
35.9554057273
 10
46.2734539377
 20
35.9384795791
 10
46.2848818982
 20
35.9211264661
 10
46.2975984797
 20
35.9034140934
 10
46.3117059932
 20
35.8854344776
 10
46.3273101422
 20
35.8672905336
 10
46.3444992997
 20
35.8491184832
 10
46.363389506
 20
35.8310386954
 10
46.3839627298
 20
35.81330225
 10
46.4062182861
 20
35.7961222277
 10
46.4300844059
 20
35.7797446885
 10
46.4554735981
 20
35.7643942441
 10
46.4822614265
 20
35.7502855117
 10
46.5102826888
 20
35.7376175899
 10
46.5394087771
 20
35.7265392162
 10
46.5694676872
 20
35.7171893617
 10
46.6003085231
 20
35.709673133
 10
46.6317580927
 20
35.7040786709
 10
46.6636352421
 20
35.7004713496
 10
46.695719075
 20
35.6988937796
 10
46.7044744315
 20
35.6988179215
  0
LINE
  5
230
100
AcDbEntity
  8
RUNDUNGEN
100
AcDbLine
 62
7
  6
CONTINUOUS
 10
46.1657021372
 20
36.3155434637
 11
46.1689505114
 21
36.2891353681
  0
LINE
  5
231
100
AcDbEntity
  8
RUNDUNGEN
100
AcDbLine
 62
7
  6
CONTINUOUS
 10
46.162510161
 20
36.3433239866
 11
46.1657021372
 21
36.3155434637
  0
LWPOLYLINE
  5
232
100
AcDbEntity
  8
RUNDUNGEN
100
AcDbPolyline
 62
7
  6
CONTINUOUS
 90
17
 70
0
 10
45.0244017376
 20
42.7638179189
 10
45.0252528125
 20
42.5436248577
 10
45.0280760946
 20
42.3064529948
 10
45.0328750605
 20
42.0696761785
 10
45.0396484376
 20
41.8334502982
 10
45.0483943549
 20
41.5979569058
 10
45.0591104818
 20
41.3633790378
 10
45.0717940731
 20
41.1298996894
 10
45.0864420308
 20
40.8977011918
 10
45.1030508871
 20
40.6669661566
 10
45.1216167918
 20
40.4378779153
 10
45.1421355718
 20
40.21061994
 10
45.1646027548
 20
39.9853759619
 10
45.1890135705
 20
39.7623303658
 10
45.2153631923
 20
39.5416664893
 10
45.243649938
 20
39.3235438187
 10
45.2718533748
 20
39.122014505
  0
LINE
  5
233
100
AcDbEntity
  8
RUNDUNGEN
100
AcDbLine
 62
7
  6
CONTINUOUS
 10
44.8727890508
 20
58.2638179189
 11
44.8727890508
 21
87.7867111377
  0
LINE
  5
234
100
AcDbEntity
  8
RUNDUNGEN
100
AcDbLine
 62
7
  6
CONTINUOUS
 10
45.0244017373
 20
57.6066637113
 11
45.0244017373
 21
42.7638179189
  0
LWPOLYLINE
  5
235
100
AcDbEntity
  8
RUNDUNGEN
100
AcDbPolyline
 62
7
  6
CONTINUOUS
 90
9
 70
0
 10
55.3318736525
 20
96.6601617341
 10
55.3244437032
 20
96.6382933377
 10
55.3141402217
 20
96.6050156913
 10
55.3047970014
 20
96.5712381899
 10
55.2963280151
 20
96.5369023278
 10
55.2886716986
 20
96.5019838377
 10
55.2817784415
 20
96.4664584734
 10
55.2756145226
 20
96.4303339423
 10
55.2718510083
 20
96.4056050035
  0
LINE
  5
236
100
AcDbEntity
  8
RUNDUNGEN
100
AcDbLine
 62
7
  6
CONTINUOUS
 10
55.3318549487
 20
96.6601086861
 11
55.3318736521
 21
96.6601617343
  0
LWPOLYLINE
  5
237
100
AcDbEntity
  8
RUNDUNGEN
100
AcDbPolyline
 62
7
  6
CONTINUOUS
 90
7
 70
0
 10
56.0359701497
 20
98.4468769666
 10
55.9166318016
 20
98.171923424
 10
55.7953669878
 20
97.8814243152
 10
55.6758745277
 20
97.5838241959
 10
55.558163797
 20
97.2792342337
 10
55.4422454514
 20
96.9677672389
 10
55.3318549487
 20
96.6601086861
  0
LWPOLYLINE
  5
238
100
AcDbEntity
  8
RUNDUNGEN
100
AcDbPolyline
 62
7
  6
CONTINUOUS
 90
4
 70
0
 10
56.069946406
 20
98.5221098723
 10
56.060328685
 20
98.5011230915
 10
56.050769178
 20
98.4800224611
 10
56.0359697573
 20
98.446876083
  0
LINE
  5
239
100
AcDbEntity
  8
RUNDUNGEN
100
AcDbLine
 62
7
  6
CONTINUOUS
 10
56.0854546719
 20
98.5554449047
 11
56.069946406
 21
98.5221098723
  0
LWPOLYLINE
  5
23A
100
AcDbEntity
  8
RUNDUNGEN
100
AcDbPolyline
 62
7
  6
CONTINUOUS
 90
17
 70
0
 10
55.2718533745
 20
96.4056213298
 10
55.2436497714
 20
96.2040907883
 10
55.2153629967
 20
95.9859677747
 10
55.1890134703
 20
95.765304592
 10
55.1646028151
 20
95.5422604582
 10
55.1421358205
 20
95.3170185204
 10
55.121617224
 20
95.0897629611
 10
55.10305147
 20
94.8606773012
 10
55.0864427148
 20
94.6299447882
 10
55.0717947995
 20
94.3977485223
 10
55.0591111861
 20
94.1642708812
 10
55.0483949772
 20
93.9296939721
 10
55.0396489294
 20
93.6942005008
 10
55.0328753912
 20
93.4579731638
 10
55.0280762653
 20
93.2211934533
 10
55.0252528595
 20
92.9840170634
 10
55.0244017378
 20
92.7638179189
  0
LINE
  5
23B
100
AcDbEntity
  8
0
100
AcDbLine
 62
7
  6
CONTINUOUS
 10
54.7211763644
 20
42.7638179189
 11
54.7211763644
 21
45.78113371
  0
LINE
  5
23C
100
AcDbEntity
  8
RUNDUNGEN
100
AcDbLine
 62
7
  6
CONTINUOUS
 10
55.0244017373
 20
89.7465021284
 11
55.0244017373
 21
92.7638179189
  0
LWPOLYLINE
  5
23D
100
AcDbEntity
  8
0
100
AcDbPolyline
 62
7
  6
CONTINUOUS
 90
35
 70
0
 10
54.7211763655
 20
45.78113371
 10
54.7223476066
 20
45.855258576
 10
54.7269632693
 20
45.9453332681
 10
54.7348657104
 20
46.0326734944
 10
54.7458242332
 20
46.1171286273
 10
54.7596066668
 20
46.1985333115
 10
54.775989521
 20
46.2767638164
 10
54.7947556082
 20
46.3517243731
 10
54.815676967
 20
46.4232899685
 10
54.8385270206
 20
46.4913705517
 10
54.8630703455
 20
46.5558782204
 10
54.8890465564
 20
46.6167009077
 10
54.9162819891
 20
46.6739476426
 10
54.9445432819
 20
46.7275917394
 10
54.9738209502
 20
46.7780007394
 10
55.0041054736
 20
46.825434835
 10
55.0353787896
 20
46.8700680279
 10
55.067716341
 20
46.9121408587
 10
55.1009855822
 20
46.951580478
 10
55.1351207083
 20
46.9884064979
 10
55.1700222119
 20
47.0226026043
 10
55.2055981275
 20
47.0541686611
 10
55.2417849423
 20
47.0831334565
 10
55.2785255244
 20
47.1095289568
 10
55.3157656634
 20
47.1333876059
 10
55.3534589209
 20
47.1547456314
 10
55.3916006828
 20
47.1736576871
 10
55.4302155522
 20
47.1901795133
 10
55.469258038
 20
47.2043279777
 10
55.5087123368
 20
47.2161319828
 10
55.5485694794
 20
47.2256191396
 10
55.5888202402
 20
47.2328132937
 10
55.6294652588
 20
47.2377358419
 10
55.6705057839
 20
47.2404026079
 10
55.69893268
 20
47.2409328768
  0
LWPOLYLINE
  5
23E
100
AcDbEntity
  8
RUNDUNGEN
100
AcDbPolyline
 62
7
  6
CONTINUOUS
 90
35
 70
0
 10
55.0244017361
 20
89.7465021284
 10
55.0231815553
 20
89.6708484869
 10
55.0185035741
 20
89.5807424869
 10
55.0105316752
 20
89.493328043
 10
54.9994951881
 20
89.4087825884
 10
54.9856271789
 20
89.3272890862
 10
54.9691548317
 20
89.2489892121
 10
54.9503015061
 20
89.1739950589
 10
54.9293041249
 20
89.102447691
 10
54.9064027204
 20
89.0344571891
 10
54.8818393698
 20
88.9701044545
 10
54.8558903871
 20
88.9095160391
 10
54.8287155958
 20
88.8525310463
 10
54.8005352856
 20
88.7991424407
 10
54.7713457693
 20
88.7489602973
 10
54.7411341232
 20
88.7016953024
 10
54.7099150744
 20
88.6571806761
 10
54.6775992344
 20
88.6151690661
 10
54.6443269375
 20
88.575755094
 10
54.6101684008
 20
88.5389322839
 10
54.5752286285
 20
88.5047281458
 10
54.5396087355
 20
88.4731543475
 10
54.5033727908
 20
88.4441836139
 10
54.4665826842
 20
88.4177880669
 10
54.4292912651
 20
88.3939341597
 10
54.3915452001
 20
88.3725858482
 10
54.353348805
 20
88.3536884072
 10
54.3146772834
 20
88.3371861881
 10
54.2755757008
 20
88.3230623103
 10
54.2360595107
 20
88.3112880132
 10
54.1961371977
 20
88.3018358867
 10
54.1558175697
 20
88.2946824079
 10
54.1150997651
 20
88.289806631
 10
54.0739822388
 20
88.2871932422
 10
54.0466382521
 20
88.2867029602
  0
LINE
  5
23F
100
AcDbEntity
  8
RUNDUNGEN
100
AcDbLine
 62
7
  6
CONTINUOUS
 10
56.1294865782
 20
98.7763168132
 11
56.123175973
 21
98.6703694251
  0
LINE
  5
240
100
AcDbEntity
  8
0
100
AcDbLine
 62
7
  6
CONTINUOUS
 10
53.6160583553
 20
36.7507879237
 11
53.6224021277
 21
36.8572663963
  0
LINE
  5
241
100
AcDbEntity
  8
RUNDUNGEN
100
AcDbLine
 62
7
  6
CONTINUOUS
 10
56.1344451845
 20
98.8528136577
 11
56.1294865782
 21
98.7763168132
  0
LINE
  5
242
100
AcDbEntity
  8
0
100
AcDbLine
 62
7
  6
CONTINUOUS
 10
53.6111002987
 20
36.6743380728
 11
53.6160583553
 21
36.7507879237
  0
LINE
  5
243
100
AcDbEntity
  8
RUNDUNGEN
100
AcDbLine
 62
7
  6
CONTINUOUS
 10
56.1393409219
 20
98.9227493919
 11
56.1344451845
 21
98.8528136577
  0
LINE
  5
244
100
AcDbEntity
  8
0
100
AcDbLine
 62
7
  6
CONTINUOUS
 10
53.6062050344
 20
36.6044451561
 11
53.6111002987
 21
36.6743380728
  0
LINE
  5
245
100
AcDbEntity
  8
RUNDUNGEN
100
AcDbLine
 62
7
  6
CONTINUOUS
 10
56.1441846457
 20
98.9866720347
 11
56.1393409219
 21
98.9227493919
  0
LINE
  5
246
100
AcDbEntity
  8
0
100
AcDbLine
 62
7
  6
CONTINUOUS
 10
53.6013616885
 20
36.540561455
 11
53.6062050344
 21
36.6044451561
  0
LINE
  5
247
100
AcDbEntity
  8
RUNDUNGEN
100
AcDbLine
 62
7
  6
CONTINUOUS
 10
56.1473915203
 20
99.0262001992
 11
56.1441846457
 21
98.9866720347
  0
LINE
  5
248
100
AcDbEntity
  8
0
100
AcDbLine
 62
7
  6
CONTINUOUS
 10
53.5981550045
 20
36.5010572609
 11
53.6013616885
 21
36.540561455
  0
LWPOLYLINE
  5
249
100
AcDbEntity
  8
0
100
AcDbPolyline
 62
7
  6
CONTINUOUS
 90
9
 70
0
 10
53.6224017339
 20
36.8572594312
 10
53.6226641363
 20
36.8604064984
 10
53.6236260418
 20
36.8674009757
 10
53.6256527992
 20
36.8777663921
 10
53.6290935159
 20
36.891451491
 10
53.6342705188
 20
36.9084146631
 10
53.6414350068
 20
36.9284843459
 10
53.6507773062
 20
36.9514461498
 10
53.6601139074
 20
36.9721706568
  0
LWPOLYLINE
  5
24A
100
AcDbEntity
  8
RUNDUNGEN
100
AcDbPolyline
 62
7
  6
CONTINUOUS
 90
9
 70
0
 10
56.1231763435
 20
98.6703759805
 10
56.1229036331
 20
98.6671313412
 10
56.1219266759
 20
98.6600814655
 10
56.1198790855
 20
98.6496622405
 10
56.116412412
 20
98.6359248552
 10
56.1112048467
 20
98.6189109073
 10
56.1040053939
 20
98.598791103
 10
56.0946236548
 20
98.5757788508
 10
56.0854648544
 20
98.555466587
  0
LINE
  5
24B
100
AcDbEntity
  8
RUNDUNGEN
100
AcDbLine
 62
7
  6
CONTINUOUS
 10
56.1505865884
 20
99.0634315054
 11
56.1473915203
 21
99.0262001992
  0
LINE
  5
24C
100
AcDbEntity
  8
0
100
AcDbLine
 62
7
  6
CONTINUOUS
 10
53.5949600693
 20
36.4638484198
 11
53.5981550045
 21
36.5010572609
  0
LINE
  5
24D
100
AcDbEntity
  8
RUNDUNGEN
100
AcDbLine
 62
7
  6
CONTINUOUS
 10
56.1537764456
 20
99.0985122637
 11
56.1505865884
 21
99.0634315054
  0
LINE
  5
24E
100
AcDbEntity
  8
0
100
AcDbLine
 62
7
  6
CONTINUOUS
 10
53.5917702776
 20
36.4287886834
 11
53.5949600693
 21
36.4638484198
  0
LINE
  5
24F
100
AcDbEntity
  8
RUNDUNGEN
100
AcDbLine
 62
7
  6
CONTINUOUS
 10
56.1569693048
 20
99.1315880099
 11
56.1537764456
 21
99.0985122637
  0
LINE
  5
250
100
AcDbEntity
  8
0
100
AcDbLine
 62
7
  6
CONTINUOUS
 10
53.5885774058
 20
36.3957325762
 11
53.5917702776
 21
36.4287886834
  0
LWPOLYLINE
  5
251
100
AcDbEntity
  8
RUNDUNGEN
100
AcDbPolyline
 62
7
  6
CONTINUOUS
 90
3
 70
0
 10
56.1617877972
 20
99.1777662917
 10
56.1601755375
 20
99.1628059905
 10
56.1569693048
 20
99.1315880099
  0
LWPOLYLINE
  5
252
100
AcDbEntity
  8
0
100
AcDbPolyline
 62
7
  6
CONTINUOUS
 90
3
 70
0
 10
53.5837586032
 20
36.3495803742
 10
53.5853710266
 20
36.3645325356
 10
53.5885774058
 20
36.3957325762
  0
LWPOLYLINE
  5
253
100
AcDbEntity
  8
0
100
AcDbPolyline
 62
7
  6
CONTINUOUS
 90
3
 70
0
 10
66.0603279924
 20
37.026514265
 10
66.0699457905
 20
37.0055273012
 10
66.0854546708
 20
36.9721909359
  0
LWPOLYLINE
  5
254
100
AcDbEntity
  8
0
100
AcDbPolyline
 62
7
  6
CONTINUOUS
 90
9
 70
0
 10
66.0854648625
 20
36.9721692336
 10
66.0946229893
 20
36.9518585294
 10
66.1040044703
 20
36.9288471498
 10
66.1112039736
 20
36.9087275643
 10
66.1164117514
 20
36.8917133541
 10
66.1198786939
 20
36.8779753487
 10
66.1219265074
 20
36.8675553871
 10
66.1229035873
 20
36.8605049292
 10
66.1231763406
 20
36.8572598979
  0
LWPOLYLINE
  5
255
100
AcDbEntity
  8
0
100
AcDbPolyline
 62
7
  6
CONTINUOUS
 90
3
 70
0
 10
66.0359697531
 20
37.0807597629
 10
66.0412669371
 20
37.0688281521
 10
66.0603279924
 20
37.026514265
  0
LINE
  5
256
100
AcDbEntity
  8
0
100
AcDbLine
 62
7
  6
CONTINUOUS
 10
53.5805048793
 20
36.3208736487
 11
53.5837586032
 21
36.3495803742
  0
LWPOLYLINE
  5
257
100
AcDbEntity
  8
0
100
AcDbPolyline
 62
7
  6
CONTINUOUS
 90
17
 70
0
 10
54.4737247205
 20
39.1220144656
 10
54.5017584052
 20
39.3222860781
 10
54.5300564545
 20
39.5403940909
 10
54.5564172452
 20
39.7610430976
 10
54.580839159
 20
39.9840738272
 10
54.6033174112
 20
40.2093030916
 10
54.6238472676
 20
40.4365466707
 10
54.6424242893
 20
40.6656210055
 10
54.6590443276
 20
40.8963428088
 10
54.6737035489
 20
41.1285289444
 10
54.6863984979
 20
41.3619970021
 10
54.6971260825
 20
41.5965648538
 10
54.7058835551
 20
41.8320497288
 10
54.7126685769
 20
42.0682688322
 10
54.7174792609
 20
42.3050407735
 10
54.720314314
 20
42.5422099303
 10
54.7211763641
 20
42.7638179189
  0
LWPOLYLINE
  5
258
100
AcDbEntity
  8
0
100
AcDbPolyline
 62
7
  6
CONTINUOUS
 90
7
 70
0
 10
65.3318549486
 20
38.867527152
 10
65.4422460469
 20
38.5598669684
 10
65.5581647248
 20
38.2483991596
 10
65.6758754904
 20
37.9438091965
 10
65.7953677755
 20
37.6462095998
 10
65.9166322681
 20
37.355711318
 10
66.0359701467
 20
37.0807588737
  0
LINE
  5
259
100
AcDbEntity
  8
0
100
AcDbLine
 62
7
  6
CONTINUOUS
 10
65.3318736345
 20
38.8674741534
 11
65.3318549486
 21
38.867527152
  0
LWPOLYLINE
  5
25A
100
AcDbEntity
  8
0
100
AcDbPolyline
 62
7
  6
CONTINUOUS
 90
9
 70
0
 10
65.2718510049
 20
39.1220308564
 10
65.2756148388
 20
39.0972999144
 10
65.2817790712
 20
39.061173909
 10
65.2886726201
 20
39.0256475375
 10
65.2963291429
 20
38.9907286637
 10
65.3047981597
 20
38.9563932134
 10
65.3141412233
 20
38.9226167217
 10
65.3244443332
 20
38.8893405744
 10
65.3318736343
 20
38.8674741533
  0
LINE
  5
25B
100
AcDbEntity
  8
0
100
AcDbLine
 62
7
  6
CONTINUOUS
 10
66.1585839856
 20
36.380079779
 11
66.1618032785
 21
36.3497282228
  0
LINE
  5
25C
100
AcDbEntity
  8
0
100
AcDbLine
 62
7
  6
CONTINUOUS
 10
66.1553844198
 20
36.4122146291
 11
66.1585839856
 21
36.380079779
  0
LINE
  5
25D
100
AcDbEntity
  8
0
100
AcDbLine
 62
7
  6
CONTINUOUS
 10
66.1521927963
 20
36.4462821958
 11
66.1553844198
 21
36.4122146291
  0
LINE
  5
25E
100
AcDbEntity
  8
0
100
AcDbLine
 62
7
  6
CONTINUOUS
 10
66.1489999031
 20
36.4824284376
 11
66.1521927963
 21
36.4462821958
  0
LINE
  5
25F
100
AcDbEntity
  8
0
100
AcDbLine
 62
7
  6
CONTINUOUS
 10
66.1457983571
 20
36.5207994068
 11
66.1489999031
 21
36.4824284376
  0
LINE
  5
260
100
AcDbEntity
  8
0
100
AcDbLine
 62
7
  6
CONTINUOUS
 10
66.1409672068
 20
36.582849235
 11
66.1457983571
 21
36.5207994068
  0
LINE
  5
261
100
AcDbEntity
  8
0
100
AcDbLine
 62
7
  6
CONTINUOUS
 10
66.1360882974
 20
36.6507411546
 11
66.1409672068
 21
36.582849235
  0
LINE
  5
262
100
AcDbEntity
  8
0
100
AcDbLine
 62
7
  6
CONTINUOUS
 10
66.1311498545
 20
36.7250110056
 11
66.1360882974
 21
36.6507411546
  0
LINE
  5
263
100
AcDbEntity
  8
0
100
AcDbLine
 62
7
  6
CONTINUOUS
 10
63.6177582549
 20
98.7492860766
 11
63.6127753578
 21
98.8281172981
  0
LINE
  5
264
100
AcDbEntity
  8
0
100
AcDbLine
 62
7
  6
CONTINUOUS
 10
66.1261432102
 20
36.8062248459
 11
66.1311498545
 21
36.7250110056
  0
LINE
  5
265
100
AcDbEntity
  8
0
100
AcDbLine
 62
7
  6
CONTINUOUS
 10
66.123175973
 20
36.8572664131
 11
66.1261432102
 21
36.8062248459
  0
LINE
  5
266
100
AcDbEntity
  8
0
100
AcDbLine
 62
7
  6
CONTINUOUS
 10
63.6224021287
 20
98.6703694249
 11
63.6177582549
 21
98.7492860766
  0
LWPOLYLINE
  5
267
100
AcDbEntity
  8
0
100
AcDbPolyline
 62
7
  6
CONTINUOUS
 90
17
 70
0
 10
64.7211763641
 20
92.7638179189
 10
64.7203252772
 20
92.9840125312
 10
64.7175019705
 20
93.2211851162
 10
64.7127029905
 20
93.4579617281
 10
64.7059296253
 20
93.6941867259
 10
64.6971837558
 20
93.9296787158
 10
64.6864677168
 20
94.1642548565
 10
64.6737842522
 20
94.3977323407
 10
64.6591364516
 20
94.6299290124
 10
64.6425277687
 20
94.860662433
 10
64.6239620363
 20
95.0897494365
 10
64.6034434034
 20
95.3170067084
 10
64.5809763105
 20
95.542250661
 10
64.556565494
 20
95.7652970494
 10
64.5302157421
 20
95.9859626613
 10
64.5019286814
 20
96.2040881869
 10
64.4737247267
 20
96.4056213291
  0
LWPOLYLINE
  5
268
100
AcDbEntity
  8
0
100
AcDbPolyline
 62
7
  6
CONTINUOUS
 90
17
 70
0
 10
65.0244017376
 20
42.7638179189
 10
65.0252528245
 20
42.5436233067
 10
65.0280761312
 20
42.3064507216
 10
65.0328751112
 20
42.0696741097
 10
65.0396484764
 20
41.8334491119
 10
65.0483943458
 20
41.5979571219
 10
65.0591103849
 20
41.3633809812
 10
65.0717938495
 20
41.129903497
 10
65.0864416501
 20
40.8977068252
 10
65.103050333
 20
40.6669734045
 10
65.1216160654
 20
40.437886401
 10
65.1421346983
 20
40.2106291291
 10
65.1646017912
 20
39.9853851765
 10
65.1890126077
 20
39.7623387882
 10
65.2153623596
 20
39.5416731763
 10
65.2436494203
 20
39.3235476508
 10
65.2718533749
 20
39.1220145088
  0
LINE
  5
269
100
AcDbEntity
  8
0
100
AcDbLine
 62
7
  6
CONTINUOUS
 10
64.7211763644
 20
89.7465191701
 11
64.7211763644
 21
92.7638179189
  0
LINE
  5
26A
100
AcDbEntity
  8
0
100
AcDbLine
 62
7
  6
CONTINUOUS
 10
65.0244017373
 20
45.7811160637
 11
65.0244017373
 21
42.7638179189
  0
LWPOLYLINE
  5
26B
100
AcDbEntity
  8
0
100
AcDbPolyline
 62
7
  6
CONTINUOUS
 90
7
 70
0
 10
76.035970177
 20
98.4468770327
 10
75.9169602345
 20
98.1726948324
 10
75.7956916954
 20
97.882217478
 10
75.676195271
 20
97.584638468
 10
75.5584803146
 20
97.2800688535
 10
75.4425574648
 20
96.9686213461
 10
75.3318549645
 20
96.660108731
  0
LWPOLYLINE
  5
26C
100
AcDbEntity
  8
0
100
AcDbPolyline
 62
7
  6
CONTINUOUS
 90
4
 70
0
 10
76.070294781
 20
98.5228655302
 10
76.0606753468
 20
98.5018837491
 10
76.0511143271
 20
98.4807885187
 10
76.0359697581
 20
98.4468760863
  0
LINE
  5
26D
100
AcDbEntity
  8
0
100
AcDbLine
 62
7
  6
CONTINUOUS
 10
76.0854546774
 20
98.5554449163
 11
76.070294781
 21
98.5228655302
  0
LWPOLYLINE
  5
26E
100
AcDbEntity
  8
RUNDUNGEN
100
AcDbPolyline
 62
7
  6
CONTINUOUS
 90
49
 70
0
 10
133.0383380064
 20
35.6988179214
 10
133.0473479304
 20
35.6988975017
 10
133.0798610277
 20
35.7005116353
 10
133.1123272569
 20
35.7042161402
 10
133.1444719722
 20
35.7099902949
 10
133.1760737482
 20
35.7177817545
 10
133.2069200665
 20
35.7275065522
 10
133.236821037
 20
35.7390546841
 10
133.2655702303
 20
35.7522744712
 10
133.2930057429
 20
35.7669957516
 10
133.3189420735
 20
35.7829954742
 10
133.3432353344
 20
35.8000279923
 10
133.3657918915
 20
35.8178401054
 10
133.3865256206
 20
35.8361440442
 10
133.4054684643
 20
35.854724996
 10
133.4226156918
 20
35.8733163495
 10
133.4381239837
 20
35.8918214681
 10
133.4521130947
 20
35.9101298844
 10
133.464702226
 20
35.9281513704
 10
133.4760135492
 20
35.9458226392
 10
133.4861493365
 20
35.9630710568
 10
133.4952240629
 20
35.9798647566
 10
133.5033109544
 20
35.9961132875
 10
133.5104858737
 20
36.0117360584
 10
133.5168538565
 20
36.0267315167
 10
133.5224978415
 20
36.0410729398
 10
133.5275195644
 20
36.0548093997
 10
133.5319987023
 20
36.0679666792
 10
133.5360228173
 20
36.0806290528
 10
133.5396649832
 20
36.0928765733
 10
133.5429848895
 20
36.1047797153
 10
133.5460370581
 20
36.116421974
 10
133.54886215
 20
36.1278622474
 10
133.5514984923
 20
36.1391731363
 10
133.5539740241
 20
36.150403779
 10
133.5563152434
 20
36.1616135928
 10
133.5585416024
 20
36.1728436705
 10
133.5606716185
 20
36.1841427536
 10
133.5627185288
 20
36.1955427081
 10
133.5646951038
 20
36.2070815198
 10
133.5666102183
 20
36.2187822512
 10
133.5684724033
 20
36.2306717163
 10
133.5702878732
 20
36.2427672927
 10
133.5720617624
 20
36.2550829898
 10
133.573800544
 20
36.2676462187
 10
133.5755094476
 20
36.2804803482
 10
133.5771933364
 20
36.2936102235
 10
133.5788567799
 20
36.3070625564
 10
133.5821355705
 20
36.335018077
  0
LWPOLYLINE
  5
26F
100
AcDbEntity
  8
0
100
AcDbPolyline
 62
7
  6
CONTINUOUS
 90
48
 70
0
 10
113.0382354756
 20
35.6988179214
 10
113.0472272161
 20
35.6988971574
 10
113.0797262168
 20
35.7005085072
 10
113.1121816
 20
35.7042082572
 10
113.1443183903
 20
35.7099762044
 10
113.1759149396
 20
35.7177604627
 10
113.2067584416
 20
35.7274774478
 10
113.236658599
 20
35.7390174191
 10
113.2654088911
 20
35.7522290282
 10
113.2928471892
 20
35.7669423601
 10
113.3187877814
 20
35.7829346002
 10
113.3430865366
 20
35.7999602843
 10
113.3656495574
 20
35.8177663317
 10
113.3863904724
 20
35.8360650725
 10
113.4053409097
 20
35.8546416266
 10
113.4224956814
 20
35.8732291015
 10
113.4380117836
 20
35.8917312747
 10
113.4520090334
 20
35.9100379326
 10
113.4646067006
 20
35.9280591712
 10
113.4759270617
 20
35.945732155
 10
113.4860721471
 20
35.9629842107
 10
113.4951564249
 20
35.9797837765
 10
113.5032526252
 20
35.9960397739
 10
113.5104363514
 20
36.0116712175
 10
113.5168124079
 20
36.0266759962
 10
113.5224635365
 20
36.0410267448
 10
113.5274915115
 20
36.0547723245
 10
113.5319759918
 20
36.0679381319
 10
113.5360046443
 20
36.0806083636
 10
113.539650597
 20
36.0928628686
 10
113.5429736504
 20
36.1047721441
 10
113.5460283996
 20
36.1164196201
 10
113.5488555987
 20
36.1278642644
 10
113.5514936405
 20
36.1391786857
 10
113.5539705431
 20
36.1504121445
 10
113.5563128675
 20
36.1616241617
 10
113.5585401145
 20
36.1728559164
 10
113.5606708468
 20
36.1841562554
 10
113.5627183316
 20
36.1955571094
 10
113.5646953692
 20
36.20709655
 10
113.5666108548
 20
36.2187976962
 10
113.5684733399
 20
36.2306874375
 10
113.5702890513
 20
36.242783192
 10
113.5720631389
 20
36.2550990435
 10
113.5738020745
 20
36.2676623726
 10
113.5755110869
 20
36.280496513
 10
113.5771950522
 20
36.2936263781
 10
113.5805048793
 20
36.3208736487
  0
LWPOLYLINE
  5
270
100
AcDbEntity
  8
0
100
AcDbPolyline
 62
7
  6
CONTINUOUS
 90
48
 70
0
 10
93.0382354756
 20
35.6988179214
 10
93.0472272161
 20
35.6988971574
 10
93.0797262168
 20
35.7005085072
 10
93.1121816
 20
35.7042082572
 10
93.1443183903
 20
35.7099762044
 10
93.1759149396
 20
35.7177604627
 10
93.2067584416
 20
35.7274774478
 10
93.236658599
 20
35.7390174191
 10
93.2654088911
 20
35.7522290282
 10
93.2928471892
 20
35.7669423601
 10
93.3187877814
 20
35.7829346002
 10
93.3430865365
 20
35.7999602843
 10
93.3656495574
 20
35.8177663317
 10
93.3863904724
 20
35.8360650725
 10
93.4053409097
 20
35.8546416266
 10
93.4224956813
 20
35.8732291015
 10
93.4380117836
 20
35.8917312747
 10
93.4520090334
 20
35.9100379326
 10
93.4646067006
 20
35.9280591711
 10
93.4759270617
 20
35.945732155
 10
93.4860721471
 20
35.9629842107
 10
93.4951564248
 20
35.9797837765
 10
93.5032526252
 20
35.9960397739
 10
93.5104363514
 20
36.0116712175
 10
93.5168124079
 20
36.0266759962
 10
93.5224635365
 20
36.0410267448
 10
93.5274915115
 20
36.0547723245
 10
93.5319759918
 20
36.0679381319
 10
93.5360046443
 20
36.0806083635
 10
93.539650597
 20
36.0928628686
 10
93.5429736504
 20
36.1047721441
 10
93.5460283995
 20
36.1164196201
 10
93.5488555987
 20
36.1278642644
 10
93.5514936405
 20
36.1391786857
 10
93.5539705431
 20
36.1504121445
 10
93.5563128675
 20
36.1616241617
 10
93.5585401145
 20
36.1728559164
 10
93.5606708468
 20
36.1841562554
 10
93.5627183316
 20
36.1955571094
 10
93.5646953692
 20
36.20709655
 10
93.5666108548
 20
36.2187976962
 10
93.5684733399
 20
36.2306874375
 10
93.5702890513
 20
36.242783192
 10
93.5720631389
 20
36.2550990434
 10
93.5738020745
 20
36.2676623726
 10
93.5755110869
 20
36.280496513
 10
93.5771950522
 20
36.2936263781
 10
93.5805048793
 20
36.3208736487
  0
LWPOLYLINE
  5
271
100
AcDbEntity
  8
0
100
AcDbPolyline
 62
7
  6
CONTINUOUS
 90
49
 70
0
 10
73.0382354756
 20
35.6988179214
 10
73.0472272161
 20
35.6988971574
 10
73.0797262168
 20
35.7005085072
 10
73.1121816
 20
35.7042082572
 10
73.1443183903
 20
35.7099762044
 10
73.1759149396
 20
35.7177604627
 10
73.2067584416
 20
35.7274774478
 10
73.236658599
 20
35.7390174191
 10
73.2654088911
 20
35.7522290282
 10
73.2928471892
 20
35.7669423601
 10
73.3187877814
 20
35.7829346002
 10
73.3430865366
 20
35.7999602843
 10
73.3656495574
 20
35.8177663317
 10
73.3863904724
 20
35.8360650725
 10
73.4053409097
 20
35.8546416266
 10
73.4224956814
 20
35.8732291015
 10
73.4380117836
 20
35.8917312747
 10
73.4520090334
 20
35.9100379326
 10
73.4646067006
 20
35.9280591712
 10
73.4759270617
 20
35.945732155
 10
73.4860721471
 20
35.9629842107
 10
73.4951564249
 20
35.9797837765
 10
73.5032526252
 20
35.9960397739
 10
73.5104363514
 20
36.0116712175
 10
73.5168124079
 20
36.0266759962
 10
73.5224635365
 20
36.0410267448
 10
73.5274915115
 20
36.0547723245
 10
73.5319759918
 20
36.0679381319
 10
73.5360046443
 20
36.0806083636
 10
73.539650597
 20
36.0928628686
 10
73.5429736504
 20
36.1047721441
 10
73.5460283996
 20
36.1164196201
 10
73.5488555987
 20
36.1278642644
 10
73.5514936405
 20
36.1391786857
 10
73.5539705431
 20
36.1504121445
 10
73.5563128675
 20
36.1616241617
 10
73.5585401145
 20
36.1728559164
 10
73.5606708468
 20
36.1841562554
 10
73.5627183316
 20
36.1955571094
 10
73.5646953692
 20
36.20709655
 10
73.5666108548
 20
36.2187976962
 10
73.5684733399
 20
36.2306874375
 10
73.5702890513
 20
36.242783192
 10
73.5720631389
 20
36.2550990435
 10
73.5738020745
 20
36.2676623726
 10
73.5755110869
 20
36.280496513
 10
73.5771950522
 20
36.2936263781
 10
73.5788585487
 20
36.3070787296
 10
73.582137394
 20
36.3350345485
  0
LWPOLYLINE
  5
272
100
AcDbEntity
  8
0
100
AcDbPolyline
 62
7
  6
CONTINUOUS
 90
48
 70
0
 10
53.0382354756
 20
35.6988179214
 10
53.0472272161
 20
35.6988971574
 10
53.0797262168
 20
35.7005085072
 10
53.1121816
 20
35.7042082572
 10
53.1443183903
 20
35.7099762044
 10
53.1759149396
 20
35.7177604627
 10
53.2067584416
 20
35.7274774478
 10
53.236658599
 20
35.7390174191
 10
53.2654088911
 20
35.7522290282
 10
53.2928471892
 20
35.7669423601
 10
53.3187877814
 20
35.7829346002
 10
53.3430865366
 20
35.7999602843
 10
53.3656495574
 20
35.8177663317
 10
53.3863904724
 20
35.8360650725
 10
53.4053409097
 20
35.8546416266
 10
53.4224956814
 20
35.8732291015
 10
53.4380117836
 20
35.8917312747
 10
53.4520090334
 20
35.9100379326
 10
53.4646067006
 20
35.9280591712
 10
53.4759270617
 20
35.945732155
 10
53.4860721471
 20
35.9629842107
 10
53.4951564249
 20
35.9797837765
 10
53.5032526252
 20
35.9960397739
 10
53.5104363514
 20
36.0116712175
 10
53.5168124079
 20
36.0266759962
 10
53.5224635365
 20
36.0410267448
 10
53.5274915115
 20
36.0547723245
 10
53.5319759918
 20
36.0679381319
 10
53.5360046443
 20
36.0806083635
 10
53.539650597
 20
36.0928628686
 10
53.5429736504
 20
36.1047721441
 10
53.5460283996
 20
36.1164196201
 10
53.5488555987
 20
36.1278642644
 10
53.5514936405
 20
36.1391786857
 10
53.5539705431
 20
36.1504121445
 10
53.5563128675
 20
36.1616241617
 10
53.5585401145
 20
36.1728559164
 10
53.5606708468
 20
36.1841562554
 10
53.5627183316
 20
36.1955571094
 10
53.5646953692
 20
36.20709655
 10
53.5666108548
 20
36.2187976962
 10
53.5684733399
 20
36.2306874375
 10
53.5702890513
 20
36.242783192
 10
53.5720631389
 20
36.2550990435
 10
53.5738020745
 20
36.2676623726
 10
53.5755110869
 20
36.280496513
 10
53.5771950522
 20
36.2936263781
 10
53.5805048793
 20
36.3208736487
  0
LINE
  5
273
100
AcDbEntity
  8
02___PRT_ALL_AXES
100
AcDbLine
 62
7
  6
CONTINUOUS
 10
133.0383291675
 20
35.6988179189
 11
126.7071844383
 21
35.6988179189
  0
LINE
  5
274
100
AcDbEntity
  8
02___PRT_ALL_AXES
100
AcDbLine
 62
7
  6
CONTINUOUS
 10
113.0382015497
 20
35.6988179189
 11
106.7071844383
 21
35.6988179189
  0
LINE
  5
275
100
AcDbEntity
  8
02___PRT_ALL_AXES
100
AcDbLine
 62
7
  6
CONTINUOUS
 10
93.0382015497
 20
35.6988179189
 11
86.7071844383
 21
35.6988179189
  0
LINE
  5
276
100
AcDbEntity
  8
02___PRT_ALL_AXES
100
AcDbLine
 62
7
  6
CONTINUOUS
 10
73.0382015497
 20
35.6988179189
 11
66.7071844383
 21
35.6988179189
  0
LINE
  5
277
100
AcDbEntity
  8
02___PRT_ALL_AXES
100
AcDbLine
 62
7
  6
CONTINUOUS
 10
53.0382015497
 20
35.6988179189
 11
46.7044730612
 21
35.6988179189
  0
LWPOLYLINE
  5
278
100
AcDbEntity
  8
0
100
AcDbPolyline
 62
7
  6
CONTINUOUS
 90
47
 70
0
 10
66.1683683317
 20
36.2937389707
 10
66.1700525208
 20
36.2806011913
 10
66.1717616719
 20
36.2677596076
 10
66.1735006438
 20
36.2551893599
 10
66.1752746361
 20
36.2428672418
 10
66.1770900953
 20
36.2307659499
 10
66.1789521305
 20
36.2188715532
 10
66.1808669247
 20
36.2071667666
 10
66.1828429813
 20
36.19562481
 10
66.1848891444
 20
36.1842226533
 10
66.1870181358
 20
36.1729224045
 10
66.1892431445
 20
36.1616922514
 10
66.1915826106
 20
36.1504835964
 10
66.1940559033
 20
36.1392554573
 10
66.1966894148
 20
36.1279485488
 10
66.1995109434
 20
36.1165139339
 10
66.2025587273
 20
36.1048788985
 10
66.2058732819
 20
36.092984595
 10
66.2095090383
 20
36.080747291
 10
66.2135255473
 20
36.0680964037
 10
66.2179957882
 20
36.0549515741
 10
66.2230071674
 20
36.0412283617
 10
66.2286393837
 20
36.0269003928
 10
66.234994077
 20
36.0119183295
 10
66.242154587
 20
35.9963076744
 10
66.2502263561
 20
35.980069039
 10
66.2592858589
 20
35.9632820796
 10
66.2694073465
 20
35.9460359892
 10
66.2807054569
 20
35.9283630861
 10
66.293283171
 20
35.9103357264
 10
66.307262385
 20
35.8920183634
 10
66.322762184
 20
35.8735019866
 10
66.3399020842
 20
35.8548978181
 10
66.3588380379
 20
35.8363035055
 10
66.3795660244
 20
35.8179852966
 10
66.4021183557
 20
35.8001580462
 10
66.4264092475
 20
35.7831097333
 10
66.4523453815
 20
35.7670938084
 10
66.4797831704
 20
35.7523562301
 10
66.5085373557
 20
35.7391204291
 10
66.5384462568
 20
35.7275569582
 10
66.5693034841
 20
35.7178179838
 10
66.6009196061
 20
35.7100138881
 10
66.6330823997
 20
35.7042291611
 10
66.6655706425
 20
35.7005167572
 10
66.6981100201
 20
35.698898072
 10
66.7071509907
 20
35.6988179214
  0
LINE
  5
279
100
AcDbEntity
  8
0
100
AcDbLine
 62
7
  6
CONTINUOUS
 10
66.165057865
 20
36.3210031936
 11
66.1683683317
 21
36.2937389707
  0
LINE
  5
27A
100
AcDbEntity
  8
0
100
AcDbLine
 62
7
  6
CONTINUOUS
 10
66.1618032785
 20
36.3497282228
 11
66.165057865
 21
36.3210031936
  0
LINE
  5
27B
100
AcDbEntity
  8
0
100
AcDbLine
 62
7
  6
CONTINUOUS
 10
63.5869967933
 20
99.1475299956
 11
63.5837777997
 21
99.1778803732
  0
LINE
  5
27C
100
AcDbEntity
  8
0
100
AcDbLine
 62
7
  6
CONTINUOUS
 10
63.5901960066
 20
99.1153971323
 11
63.5869967933
 21
99.1475299956
  0
LINE
  5
27D
100
AcDbEntity
  8
0
100
AcDbLine
 62
7
  6
CONTINUOUS
 10
63.5933873095
 20
99.0813316081
 11
63.5901960066
 21
99.1153971323
  0
LINE
  5
27E
100
AcDbEntity
  8
0
100
AcDbLine
 62
7
  6
CONTINUOUS
 10
63.5965799017
 20
99.0451875575
 11
63.5933873095
 21
99.0813316081
  0
LINE
  5
27F
100
AcDbEntity
  8
0
100
AcDbLine
 62
7
  6
CONTINUOUS
 10
63.5997811682
 20
99.0068188874
 11
63.5965799017
 21
99.0451875575
  0
LINE
  5
280
100
AcDbEntity
  8
0
100
AcDbLine
 62
7
  6
CONTINUOUS
 10
63.604611934
 20
98.9447727094
 11
63.5997811682
 21
99.0068188874
  0
LINE
  5
281
100
AcDbEntity
  8
0
100
AcDbLine
 62
7
  6
CONTINUOUS
 10
63.6094904989
 20
98.8768846337
 11
63.604611934
 21
98.9447727094
  0
LINE
  5
282
100
AcDbEntity
  8
0
100
AcDbLine
 62
7
  6
CONTINUOUS
 10
63.6127753578
 20
98.8281172981
 11
63.6094904989
 21
98.8768846337
  0
LWPOLYLINE
  5
283
100
AcDbEntity
  8
0
100
AcDbPolyline
 62
7
  6
CONTINUOUS
 90
9
 70
0
 10
54.4137038034
 20
38.8674722709
 10
54.4207756648
 20
38.8882485619
 10
54.431094881
 20
38.9214502184
 10
54.4404619651
 20
38.9551783809
 10
54.4489609335
 20
38.9894930082
 10
54.4566517427
 20
39.0244205565
 10
54.4635826389
 20
39.0599880637
 10
54.4697859624
 20
39.0961905348
 10
54.4737269189
 20
39.1220296337
  0
LWPOLYLINE
  5
284
100
AcDbEntity
  8
0
100
AcDbPolyline
 62
7
  6
CONTINUOUS
 90
9
 70
0
 10
75.3318742983
 20
96.660163567
 10
75.3248024368
 20
96.6393872759
 10
75.3144832206
 20
96.6061856193
 10
75.3051161365
 20
96.5724574568
 10
75.2966171681
 20
96.5381428295
 10
75.288926359
 20
96.5032152812
 10
75.2819954627
 20
96.467647774
 10
75.2757921393
 20
96.431445303
 10
75.2718511828
 20
96.4056062042
  0
LINE
  5
285
100
AcDbEntity
  8
0
100
AcDbLine
 62
7
  6
CONTINUOUS
 10
54.4137038034
 20
38.8674722709
 11
54.4137231373
 21
38.8675271068
  0
LINE
  5
286
100
AcDbEntity
  8
0
100
AcDbLine
 62
7
  6
CONTINUOUS
 10
75.3318742983
 20
96.660163567
 11
75.3318549644
 21
96.6601087311
  0
LWPOLYLINE
  5
287
100
AcDbEntity
  8
0
100
AcDbPolyline
 62
7
  6
CONTINUOUS
 90
7
 70
0
 10
53.7096079247
 20
37.0807588051
 10
53.8286178672
 20
37.3549410055
 10
53.9498864063
 20
37.6454183599
 10
54.0693828307
 20
37.9429973699
 10
54.1870977871
 20
38.2475669843
 10
54.3030206368
 20
38.5590144918
 10
54.4137231372
 20
38.8675271068
  0
LINE
  5
288
100
AcDbEntity
  8
02___PRT_ALL_AXES
100
AcDbLine
 62
7
  6
CENTER
 10
42.6636248776
 20
42.7638179189
 11
137.0819532241
 21
42.7638179189
  0
LWPOLYLINE
  5
289
100
AcDbEntity
  8
0
100
AcDbPolyline
 62
7
  6
CONTINUOUS
 90
9
 70
0
 10
64.4737270967
 20
96.4056049814
 10
64.4699632628
 20
96.4303359236
 10
64.4637990304
 20
96.466461929
 10
64.4569054816
 20
96.5019883005
 10
64.4492489588
 20
96.5369071744
 10
64.4407799419
 20
96.5712426246
 10
64.4314368783
 20
96.6050191163
 10
64.4211337684
 20
96.6382952635
 10
64.4137044673
 20
96.6601616846
  0
LWPOLYLINE
  5
28A
100
AcDbEntity
  8
0
100
AcDbPolyline
 62
7
  6
CONTINUOUS
 90
47
 70
0
 10
63.5772127178
 20
99.2338702694
 10
63.5755284452
 20
99.2470080563
 10
63.5738191652
 20
99.2598496764
 10
63.5720800015
 20
99.272420082
 10
63.5703057551
 20
99.2847424341
 10
63.5684899804
 20
99.2968439959
 10
63.5666275465
 20
99.3087388035
 10
63.5647122527
 20
99.3204441989
 10
63.5627355657
 20
99.3319870736
 10
63.5606886116
 20
99.34339054
 10
63.5585586254
 20
99.354692617
 10
63.5563323736
 20
99.3659252124
 10
63.5539913501
 20
99.3771370792
 10
63.5515161146
 20
99.3883693266
 10
63.5488801822
 20
99.3996813939
 10
63.5460556392
 20
99.4111223994
 10
63.5430041506
 20
99.4227650718
 10
63.5396850635
 20
99.4346683642
 10
63.5360438383
 20
99.446915919
 10
63.5320207597
 20
99.4595783559
 10
63.5275427653
 20
99.4727357445
 10
63.5225222891
 20
99.4864724217
 10
63.516879658
 20
99.5008141906
 10
63.5105131687
 20
99.5158100861
 10
63.5033397748
 20
99.5314336423
 10
63.4952543729
 20
99.5476834207
 10
63.486180881
 20
99.5644791572
 10
63.4760457958
 20
99.5817307042
 10
63.4647344862
 20
99.5994062061
 10
63.4521443363
 20
99.6174332423
 10
63.4381532808
 20
99.635748054
 10
63.4226421278
 20
99.6542601393
 10
63.4054912349
 20
99.6728586877
 10
63.3865441415
 20
99.6914466941
 10
63.3658055283
 20
99.7097574854
 10
63.3432435066
 20
99.7275761137
 10
63.3189442486
 20
99.7446147002
 10
63.2930014715
 20
99.7606199421
 10
63.265559147
 20
99.7753461196
 10
63.2368028703
 20
99.7885701296
 10
63.2068946935
 20
99.8001217653
 10
63.176041179
 20
99.8098493414
 10
63.1444324106
 20
99.817642864
 10
63.1122810832
 20
99.823418421
 10
63.0798088008
 20
99.8271237586
 10
63.0472904338
 20
99.8287382831
 10
63.0382767044
 20
99.8288179165
  0
LINE
  5
28B
100
AcDbEntity
  8
0
100
AcDbLine
 62
7
  6
CONTINUOUS
 10
63.5805232555
 20
99.206605886
 11
63.5772127178
 21
99.2338702694
  0
LINE
  5
28C
100
AcDbEntity
  8
0
100
AcDbLine
 62
7
  6
CONTINUOUS
 10
63.5837777997
 20
99.1778803732
 11
63.5805232555
 21
99.206605886
  0
LINE
  5
28D
100
AcDbEntity
  8
0
100
AcDbLine
 62
7
  6
CONTINUOUS
 10
76.1344783854
 20
98.8533064075
 11
76.1295200459
 21
98.7768527091
  0
LINE
  5
28E
100
AcDbEntity
  8
0
100
AcDbLine
 62
7
  6
CONTINUOUS
 10
76.1393739771
 20
98.923203169
 11
76.1344783854
 21
98.8533064075
  0
LINE
  5
28F
100
AcDbEntity
  8
0
100
AcDbLine
 62
7
  6
CONTINUOUS
 10
76.1442176917
 20
98.9870905714
 11
76.1393739771
 21
98.923203169
  0
LINE
  5
290
100
AcDbEntity
  8
0
100
AcDbLine
 62
7
  6
CONTINUOUS
 10
76.1474246445
 20
99.0265971121
 11
76.1442176917
 21
98.9870905714
  0
LWPOLYLINE
  5
291
100
AcDbEntity
  8
0
100
AcDbPolyline
 62
7
  6
CONTINUOUS
 90
9
 70
0
 10
76.1231763678
 20
98.6703764066
 10
76.1229139654
 20
98.6672293395
 10
76.1219520599
 20
98.6602348623
 10
76.1199253025
 20
98.6498694459
 10
76.1164845858
 20
98.6361843471
 10
76.111307583
 20
98.6192211751
 10
76.104143095
 20
98.5991514923
 10
76.0948007956
 20
98.5761896883
 10
76.0854641943
 20
98.5554651811
  0
LINE
  5
292
100
AcDbEntity
  8
0
100
AcDbLine
 62
7
  6
CONTINUOUS
 10
76.1506198681
 20
99.0638081908
 11
76.1474246445
 21
99.0265971121
  0
LINE
  5
293
100
AcDbEntity
  8
0
100
AcDbLine
 62
7
  6
CONTINUOUS
 10
76.1538099699
 20
99.0988700486
 11
76.1506198681
 21
99.0638081908
  0
LINE
  5
294
100
AcDbEntity
  8
0
100
AcDbLine
 62
7
  6
CONTINUOUS
 10
76.1570031807
 20
99.1319282066
 11
76.1538099699
 21
99.0988700486
  0
LINE
  5
295
100
AcDbEntity
  8
0
100
AcDbLine
 62
7
  6
CONTINUOUS
 10
76.1602098898
 20
99.1631298434
 11
76.1570031807
 21
99.1319282066
  0
LINE
  5
296
100
AcDbEntity
  8
0
100
AcDbLine
 62
7
  6
CONTINUOUS
 10
76.1634436788
 20
99.1926279948
 11
76.1602098898
 21
99.1631298434
  0
LWPOLYLINE
  5
297
100
AcDbEntity
  8
0
100
AcDbPolyline
 62
7
  6
CONTINUOUS
 90
17
 70
0
 10
75.2718533812
 20
96.4056213723
 10
75.2438196964
 20
96.2053497593
 10
75.2155216471
 20
95.987241746
 10
75.1891608563
 20
95.7665927384
 10
75.1647389424
 20
95.543562008
 10
75.1422606902
 20
95.3183327429
 10
75.1217308337
 20
95.0910891632
 10
75.103153812
 20
94.8620148282
 10
75.0865337738
 20
94.6312930249
 10
75.0718745525
 20
94.3991068897
 10
75.0591796036
 20
94.1656388325
 10
75.0484520191
 20
93.9310709813
 10
75.0396945465
 20
93.6955861069
 10
75.0329095247
 20
93.4593670041
 10
75.0280988408
 20
93.2225950634
 10
75.0252637877
 20
92.9854259071
 10
75.0244017376
 20
92.7638179189
  0
LWPOLYLINE
  5
298
100
AcDbEntity
  8
0
100
AcDbPolyline
 62
7
  6
CONTINUOUS
 90
4
 70
0
 10
53.6752833206
 20
37.0047703077
 10
53.6849027549
 20
37.0257520888
 10
53.6944637745
 20
37.0468473191
 10
53.7096083436
 20
37.0807597515
  0
LINE
  5
299
100
AcDbEntity
  8
0
100
AcDbLine
 62
7
  6
CONTINUOUS
 10
53.6601234242
 20
36.9721909216
 11
53.6752833206
 21
37.0047703077
  0
LWPOLYLINE
  5
29A
100
AcDbEntity
  8
0
100
AcDbPolyline
 62
7
  6
CONTINUOUS
 90
35
 70
0
 10
64.0465763351
 20
47.2409318209
 10
64.0738879904
 20
47.2404427207
 10
64.1149718061
 20
47.2378343036
 10
64.1556545227
 20
47.2329677047
 10
64.1959384669
 20
47.2258279027
 10
64.2358249589
 20
47.2163941842
 10
64.275305839
 20
47.2046431161
 10
64.3143733011
 20
47.1905472339
 10
64.3530121989
 20
47.174077741
 10
64.3911779123
 20
47.1552175722
 10
64.4288956531
 20
47.1339108556
 10
64.4661615242
 20
47.1101025423
 10
64.5029294439
 20
47.0837560104
 10
64.5391459066
 20
47.0548380052
 10
64.574753028
 20
47.0233168455
 10
64.6096873924
 20
46.989163399
 10
64.6438551316
 20
46.9523795825
 10
64.6771554834
 20
46.9129834732
 10
64.7095218166
 20
46.8709573833
 10
64.7408200018
 20
46.8263776107
 10
64.771127854
 20
46.7790024328
 10
64.8004279766
 20
46.7286586376
 10
64.8287140283
 20
46.6750820784
 10
64.8559785511
 20
46.617901993
 10
64.8819894253
 20
46.5571410744
 10
64.9065747181
 20
46.4926835422
 10
64.9294716987
 20
46.4246436204
 10
64.9504439211
 20
46.3531085322
 10
64.9692630573
 20
46.2781710032
 10
64.9857000799
 20
46.1999580199
 10
64.999537093
 20
46.1185680139
 10
65.0105506793
 20
46.034126275
 10
65.0185091965
 20
45.9468010495
 10
65.0231823126
 20
45.8567474046
 10
65.0244017374
 20
45.7811160637
  0
LWPOLYLINE
  5
29B
100
AcDbEntity
  8
0
100
AcDbPolyline
 62
7
  6
CONTINUOUS
 90
35
 70
0
 10
84.0465763351
 20
47.2409318209
 10
84.0738879904
 20
47.2404427207
 10
84.1149718061
 20
47.2378343036
 10
84.1556545227
 20
47.2329677047
 10
84.1959384669
 20
47.2258279027
 10
84.2358249589
 20
47.2163941842
 10
84.275305839
 20
47.2046431161
 10
84.3143733011
 20
47.1905472339
 10
84.3530121989
 20
47.174077741
 10
84.3911779123
 20
47.1552175722
 10
84.4288956531
 20
47.1339108556
 10
84.4661615242
 20
47.1101025423
 10
84.5029294439
 20
47.0837560104
 10
84.5391459066
 20
47.0548380052
 10
84.574753028
 20
47.0233168455
 10
84.6096873924
 20
46.989163399
 10
84.6438551316
 20
46.9523795826
 10
84.6771554834
 20
46.9129834732
 10
84.7095218166
 20
46.8709573833
 10
84.7408200018
 20
46.8263776107
 10
84.771127854
 20
46.7790024328
 10
84.8004279766
 20
46.7286586376
 10
84.8287140283
 20
46.6750820784
 10
84.8559785511
 20
46.617901993
 10
84.8819894253
 20
46.5571410744
 10
84.9065747181
 20
46.4926835422
 10
84.9294716987
 20
46.4246436204
 10
84.9504439211
 20
46.3531085322
 10
84.9692630573
 20
46.2781710032
 10
84.9857000799
 20
46.1999580199
 10
84.999537093
 20
46.1185680139
 10
85.0105506793
 20
46.034126275
 10
85.0185091965
 20
45.9468010495
 10
85.0231823126
 20
45.8567474046
 10
85.0244017374
 20
45.7811160637
  0
LWPOLYLINE
  5
29C
100
AcDbEntity
  8
0
100
AcDbPolyline
 62
7
  6
CONTINUOUS
 90
4
 70
0
 10
86.0507685665
 20
37.0476147299
 10
86.0603279924
 20
37.026514265
 10
86.0699457905
 20
37.0055273012
 10
86.0854546708
 20
36.9721909359
  0
LWPOLYLINE
  5
29D
100
AcDbEntity
  8
0
100
AcDbPolyline
 62
7
  6
CONTINUOUS
 90
9
 70
0
 10
86.0854648625
 20
36.9721692336
 10
86.0946229893
 20
36.9518585294
 10
86.1040044703
 20
36.9288471498
 10
86.1112039736
 20
36.9087275643
 10
86.1164117514
 20
36.8917133541
 10
86.1198786939
 20
36.8779753487
 10
86.1219265074
 20
36.8675553871
 10
86.1229035873
 20
36.8605049292
 10
86.1231763406
 20
36.8572598979
  0
LINE
  5
29E
100
AcDbEntity
  8
0
100
AcDbLine
 62
7
  6
CONTINUOUS
 10
74.7211763644
 20
42.7638179189
 11
74.7211763644
 21
45.78113371
  0
LINE
  5
29F
100
AcDbEntity
  8
0
100
AcDbLine
 62
7
  6
CONTINUOUS
 10
75.0244017373
 20
92.7638179189
 11
75.0244017373
 21
89.7465021279
  0
LWPOLYLINE
  5
2A0
100
AcDbEntity
  8
0
100
AcDbPolyline
 62
7
  6
CONTINUOUS
 90
35
 70
0
 10
75.0244017361
 20
89.7465021279
 10
75.0232304951
 20
89.672377262
 10
75.0186148324
 20
89.5823025699
 10
75.0107123913
 20
89.4949623437
 10
74.9997538685
 20
89.4105072108
 10
74.985971435
 20
89.3291025267
 10
74.9695885807
 20
89.2508720218
 10
74.9508224936
 20
89.1759114652
 10
74.9299011348
 20
89.1043458698
 10
74.9070510812
 20
89.0362652866
 10
74.8825077564
 20
88.971757618
 10
74.8565315455
 20
88.9109349307
 10
74.8292961129
 20
88.8536881958
 10
74.80103482
 20
88.800044099
 10
74.7717571518
 20
88.749635099
 10
74.7414726284
 20
88.7022010034
 10
74.7101993125
 20
88.6575678105
 10
74.6778617611
 20
88.6154949797
 10
74.6445925199
 20
88.5760553604
 10
74.6104573939
 20
88.5392293405
 10
74.5755558903
 20
88.505033234
 10
74.5399799748
 20
88.4734671773
 10
74.50379316
 20
88.4445023819
 10
74.4670525779
 20
88.4181068816
 10
74.429812439
 20
88.3942482324
 10
74.3921191815
 20
88.3728902068
 10
74.3539774197
 20
88.3539781511
 10
74.3153625503
 20
88.3374563249
 10
74.2763200645
 20
88.3233078604
 10
74.2368657656
 20
88.3115038553
 10
74.197008623
 20
88.3020166984
 10
74.1567578621
 20
88.2948225443
 10
74.1161128433
 20
88.289899996
 10
74.075072318
 20
88.28723323
 10
74.0466454217
 20
88.2867029611
  0
LWPOLYLINE
  5
2A1
100
AcDbEntity
  8
0
100
AcDbPolyline
 62
7
  6
CONTINUOUS
 90
35
 70
0
 10
74.7211763655
 20
45.78113371
 10
74.7223476066
 20
45.855258576
 10
74.7269632693
 20
45.9453332681
 10
74.7348657104
 20
46.0326734944
 10
74.7458242332
 20
46.1171286273
 10
74.7596066668
 20
46.1985333115
 10
74.775989521
 20
46.2767638164
 10
74.7947556082
 20
46.3517243731
 10
74.815676967
 20
46.4232899685
 10
74.8385270206
 20
46.4913705517
 10
74.8630703455
 20
46.5558782204
 10
74.8890465564
 20
46.6167009077
 10
74.9162819891
 20
46.6739476426
 10
74.9445432819
 20
46.7275917394
 10
74.9738209502
 20
46.7780007394
 10
75.0041054736
 20
46.825434835
 10
75.0353787895
 20
46.8700680279
 10
75.067716341
 20
46.9121408587
 10
75.1009855822
 20
46.951580478
 10
75.1351207083
 20
46.9884064979
 10
75.1700222119
 20
47.0226026043
 10
75.2055981275
 20
47.0541686611
 10
75.2417849423
 20
47.0831334565
 10
75.2785255244
 20
47.1095289568
 10
75.3157656634
 20
47.1333876059
 10
75.3534589209
 20
47.1547456314
 10
75.3916006828
 20
47.1736576871
 10
75.4302155522
 20
47.1901795133
 10
75.469258038
 20
47.2043279777
 10
75.5087123368
 20
47.2161319828
 10
75.5485694794
 20
47.2256191396
 10
75.5888202402
 20
47.2328132937
 10
75.6294652588
 20
47.2377358419
 10
75.6705057839
 20
47.2404026079
 10
75.69893268
 20
47.2409328768
  0
LINE
  5
2A2
100
AcDbEntity
  8
0
100
AcDbLine
 62
7
  6
CONTINUOUS
 10
76.1295200459
 20
98.7768527091
 11
76.1231759739
 21
98.6703694414
  0
LINE
  5
2A3
100
AcDbEntity
  8
0
100
AcDbLine
 62
7
  6
CONTINUOUS
 10
73.6160583553
 20
36.7507879237
 11
73.6224021277
 21
36.8572663963
  0
LINE
  5
2A4
100
AcDbEntity
  8
0
100
AcDbLine
 62
7
  6
CONTINUOUS
 10
73.6111002987
 20
36.6743380728
 11
73.6160583553
 21
36.7507879237
  0
LINE
  5
2A5
100
AcDbEntity
  8
0
100
AcDbLine
 62
7
  6
CONTINUOUS
 10
73.6062050344
 20
36.6044451561
 11
73.6111002987
 21
36.6743380728
  0
LINE
  5
2A6
100
AcDbEntity
  8
0
100
AcDbLine
 62
7
  6
CONTINUOUS
 10
73.6013616885
 20
36.540561455
 11
73.6062050344
 21
36.6044451561
  0
LINE
  5
2A7
100
AcDbEntity
  8
0
100
AcDbLine
 62
7
  6
CONTINUOUS
 10
73.5981550045
 20
36.5010572609
 11
73.6013616885
 21
36.540561455
  0
LWPOLYLINE
  5
2A8
100
AcDbEntity
  8
0
100
AcDbPolyline
 62
7
  6
CONTINUOUS
 90
9
 70
0
 10
73.6224017339
 20
36.8572594312
 10
73.6226641363
 20
36.8604064984
 10
73.6236260418
 20
36.8674009757
 10
73.6256527992
 20
36.8777663921
 10
73.6290935159
 20
36.891451491
 10
73.6342705188
 20
36.9084146631
 10
73.6414350068
 20
36.9284843459
 10
73.6507773062
 20
36.9514461498
 10
73.6601139074
 20
36.9721706568
  0
LINE
  5
2A9
100
AcDbEntity
  8
0
100
AcDbLine
 62
7
  6
CONTINUOUS
 10
73.5949600693
 20
36.4638484198
 11
73.5981550045
 21
36.5010572609
  0
LINE
  5
2AA
100
AcDbEntity
  8
0
100
AcDbLine
 62
7
  6
CONTINUOUS
 10
73.5917702776
 20
36.4287886834
 11
73.5949600693
 21
36.4638484198
  0
LINE
  5
2AB
100
AcDbEntity
  8
0
100
AcDbLine
 62
7
  6
CONTINUOUS
 10
73.5885774058
 20
36.3957325762
 11
73.5917702776
 21
36.4287886834
  0
LINE
  5
2AC
100
AcDbEntity
  8
0
100
AcDbLine
 62
7
  6
CONTINUOUS
 10
73.5853710266
 20
36.3645325356
 11
73.5885774058
 21
36.3957325762
  0
LINE
  5
2AD
100
AcDbEntity
  8
0
100
AcDbLine
 62
7
  6
CONTINUOUS
 10
73.582137394
 20
36.3350345485
 11
73.5853710266
 21
36.3645325356
  0
LINE
  5
2AE
100
AcDbEntity
  8
0
100
AcDbLine
 62
7
  6
CONTINUOUS
 10
55.6989326801
 20
47.2409247001
 11
64.0465763562
 21
47.2409247001
  0
LINE
  5
2AF
100
AcDbEntity
  8
0
100
AcDbLine
 62
7
  6
CONTINUOUS
 10
75.6989326801
 20
47.2409247001
 11
84.0465763562
 21
47.2409247001
  0
LINE
  5
2B0
100
AcDbEntity
  8
0
100
AcDbLine
 62
7
  6
CONTINUOUS
 10
95.6989326801
 20
47.2409247001
 11
104.0465763562
 21
47.2409247001
  0
LINE
  5
2B1
100
AcDbEntity
  8
0
100
AcDbLine
 62
7
  6
CONTINUOUS
 10
115.6989326801
 20
47.2409247001
 11
124.0465763562
 21
47.2409247001
  0
LINE
  5
2B2
100
AcDbEntity
  8
RUNDUNGEN
100
AcDbLine
 62
7
  6
CONTINUOUS
 10
135.6989326802
 20
47.2409247001
 11
144.3727890508
 21
47.2409247001
  0
LWPOLYLINE
  5
2B3
100
AcDbEntity
  8
0
100
AcDbPolyline
 62
7
  6
CONTINUOUS
 90
35
 70
0
 10
104.0465763351
 20
47.2409318209
 10
104.0738879904
 20
47.2404427207
 10
104.1149718061
 20
47.2378343036
 10
104.1556545227
 20
47.2329677047
 10
104.1959384669
 20
47.2258279027
 10
104.2358249589
 20
47.2163941842
 10
104.275305839
 20
47.2046431161
 10
104.3143733011
 20
47.1905472339
 10
104.3530121989
 20
47.174077741
 10
104.3911779123
 20
47.1552175722
 10
104.4288956531
 20
47.1339108556
 10
104.4661615242
 20
47.1101025423
 10
104.5029294439
 20
47.0837560104
 10
104.5391459066
 20
47.0548380052
 10
104.574753028
 20
47.0233168455
 10
104.6096873924
 20
46.989163399
 10
104.6438551316
 20
46.9523795825
 10
104.6771554834
 20
46.9129834732
 10
104.7095218166
 20
46.8709573833
 10
104.7408200018
 20
46.8263776107
 10
104.771127854
 20
46.7790024328
 10
104.8004279766
 20
46.7286586376
 10
104.8287140283
 20
46.6750820784
 10
104.8559785511
 20
46.617901993
 10
104.8819894253
 20
46.5571410744
 10
104.9065747181
 20
46.4926835422
 10
104.9294716987
 20
46.4246436204
 10
104.9504439211
 20
46.3531085322
 10
104.9692630573
 20
46.2781710032
 10
104.9857000799
 20
46.1999580199
 10
104.999537093
 20
46.1185680139
 10
105.0105506793
 20
46.034126275
 10
105.0185091965
 20
45.9468010495
 10
105.0231823126
 20
45.8567474046
 10
105.0244017374
 20
45.7811160637
  0
LWPOLYLINE
  5
2B4
100
AcDbEntity
  8
0
100
AcDbPolyline
 62
7
  6
CONTINUOUS
 90
35
 70
0
 10
124.0465763351
 20
47.2409318209
 10
124.0738879904
 20
47.2404427207
 10
124.1149718061
 20
47.2378343036
 10
124.1556545227
 20
47.2329677047
 10
124.1959384669
 20
47.2258279027
 10
124.2358249589
 20
47.2163941842
 10
124.275305839
 20
47.2046431161
 10
124.3143733011
 20
47.1905472339
 10
124.3530121989
 20
47.174077741
 10
124.3911779123
 20
47.1552175722
 10
124.4288956531
 20
47.1339108556
 10
124.4661615242
 20
47.1101025423
 10
124.5029294439
 20
47.0837560104
 10
124.5391459066
 20
47.0548380052
 10
124.574753028
 20
47.0233168455
 10
124.6096873924
 20
46.989163399
 10
124.6438551316
 20
46.9523795825
 10
124.6771554834
 20
46.9129834732
 10
124.7095218166
 20
46.8709573833
 10
124.7408200018
 20
46.8263776107
 10
124.771127854
 20
46.7790024328
 10
124.8004279766
 20
46.7286586376
 10
124.8287140283
 20
46.6750820784
 10
124.8559785511
 20
46.617901993
 10
124.8819894253
 20
46.5571410744
 10
124.9065747181
 20
46.4926835422
 10
124.9294716987
 20
46.4246436204
 10
124.9504439211
 20
46.3531085322
 10
124.9692630573
 20
46.2781710032
 10
124.9857000799
 20
46.1999580199
 10
124.999537093
 20
46.1185680139
 10
125.0105506793
 20
46.034126275
 10
125.0185091965
 20
45.9468010495
 10
125.0231823126
 20
45.8567474046
 10
125.0244017374
 20
45.7811160637
  0
LINE
  5
2B5
100
AcDbEntity
  8
0
100
AcDbLine
 62
7
  6
CONTINUOUS
 10
86.0359697531
 20
37.0807597629
 11
86.0507685665
 21
37.0476147299
  0
LWPOLYLINE
  5
2B6
100
AcDbEntity
  8
0
100
AcDbPolyline
 62
7
  6
CONTINUOUS
 90
7
 70
0
 10
64.4137231531
 20
96.6601086859
 10
64.3033320548
 20
96.9677688695
 10
64.1874133769
 20
97.2792366783
 10
64.0697026112
 20
97.5838266414
 10
63.9502103262
 20
97.8814262381
 10
63.8289458336
 20
98.1719245199
 10
63.709607955
 20
98.4468769642
  0
LWPOLYLINE
  5
2B7
100
AcDbEntity
  8
0
100
AcDbPolyline
 62
7
  6
CONTINUOUS
 90
7
 70
0
 10
85.3318549486
 20
38.867527152
 10
85.4422460469
 20
38.5598669684
 10
85.5581647248
 20
38.2483991596
 10
85.6758754904
 20
37.9438091964
 10
85.7953677755
 20
37.6462095998
 10
85.9166322681
 20
37.355711318
 10
86.0359701467
 20
37.0807588737
  0
LINE
  5
2B8
100
AcDbEntity
  8
0
100
AcDbLine
 62
7
  6
CONTINUOUS
 10
64.4137044672
 20
96.6601616845
 11
64.4137231531
 21
96.6601086859
  0
LINE
  5
2B9
100
AcDbEntity
  8
0
100
AcDbLine
 62
7
  6
CONTINUOUS
 10
85.3318736345
 20
38.8674741534
 11
85.3318549486
 21
38.867527152
  0
LWPOLYLINE
  5
2BA
100
AcDbEntity
  8
0
100
AcDbPolyline
 62
7
  6
CONTINUOUS
 90
17
 70
0
 10
74.4737247205
 20
39.1220144656
 10
74.5017584052
 20
39.3222860781
 10
74.5300564545
 20
39.5403940909
 10
74.5564172452
 20
39.7610430976
 10
74.580839159
 20
39.9840738272
 10
74.6033174112
 20
40.2093030916
 10
74.6238472676
 20
40.4365466707
 10
74.6424242893
 20
40.6656210055
 10
74.6590443276
 20
40.8963428088
 10
74.6737035489
 20
41.1285289444
 10
74.6863984979
 20
41.3619970021
 10
74.6971260825
 20
41.5965648538
 10
74.7058835551
 20
41.8320497288
 10
74.7126685769
 20
42.0682688322
 10
74.7174792609
 20
42.3050407735
 10
74.720314314
 20
42.5422099303
 10
74.7211763641
 20
42.7638179189
  0
LWPOLYLINE
  5
2BB
100
AcDbEntity
  8
0
100
AcDbPolyline
 62
7
  6
CONTINUOUS
 90
3
 70
0
 10
63.6852501092
 20
98.5011215729
 10
63.6756323111
 20
98.5221085366
 10
63.6601234309
 20
98.555444902
  0
LWPOLYLINE
  5
2BC
100
AcDbEntity
  8
0
100
AcDbPolyline
 62
7
  6
CONTINUOUS
 90
9
 70
0
 10
63.6601132392
 20
98.5554666042
 10
63.6509551124
 20
98.5757773084
 10
63.6415736314
 20
98.5987886881
 10
63.634374128
 20
98.6189082736
 10
63.6291663503
 20
98.6359224838
 10
63.6256994077
 20
98.6496604892
 10
63.6236515942
 20
98.6600804508
 10
63.6226745143
 20
98.6671309086
 10
63.6224017611
 20
98.6703759399
  0
LWPOLYLINE
  5
2BD
100
AcDbEntity
  8
0
100
AcDbPolyline
 62
7
  6
CONTINUOUS
 90
3
 70
0
 10
63.7096083486
 20
98.4468760749
 10
63.7043111645
 20
98.4588076858
 10
63.6852501092
 20
98.5011215729
  0
LWPOLYLINE
  5
2BE
100
AcDbEntity
  8
0
100
AcDbPolyline
 62
7
  6
CONTINUOUS
 90
9
 70
0
 10
85.2718510049
 20
39.1220308564
 10
85.2756148388
 20
39.0972999144
 10
85.2817790712
 20
39.061173909
 10
85.2886726201
 20
39.0256475375
 10
85.2963291429
 20
38.9907286637
 10
85.3047981597
 20
38.9563932134
 10
85.3141412233
 20
38.9226167217
 10
85.3244443332
 20
38.8893405744
 10
85.3318736343
 20
38.8674741533
  0
LWPOLYLINE
  5
2BF
100
AcDbEntity
  8
0
100
AcDbPolyline
 62
7
  6
CONTINUOUS
 90
47
 70
0
 10
86.1683683317
 20
36.2937389707
 10
86.1700525208
 20
36.2806011913
 10
86.1717616719
 20
36.2677596076
 10
86.1735006438
 20
36.2551893599
 10
86.1752746361
 20
36.2428672418
 10
86.1770900953
 20
36.2307659499
 10
86.1789521305
 20
36.2188715532
 10
86.1808669247
 20
36.2071667666
 10
86.1828429813
 20
36.19562481
 10
86.1848891444
 20
36.1842226533
 10
86.1870181358
 20
36.1729224045
 10
86.1892431445
 20
36.1616922514
 10
86.1915826106
 20
36.1504835964
 10
86.1940559033
 20
36.1392554573
 10
86.1966894148
 20
36.1279485488
 10
86.1995109434
 20
36.1165139339
 10
86.2025587273
 20
36.1048788985
 10
86.2058732819
 20
36.092984595
 10
86.2095090383
 20
36.080747291
 10
86.2135255473
 20
36.0680964037
 10
86.2179957882
 20
36.0549515741
 10
86.2230071674
 20
36.0412283617
 10
86.2286393837
 20
36.0269003928
 10
86.234994077
 20
36.0119183295
 10
86.242154587
 20
35.9963076744
 10
86.2502263561
 20
35.980069039
 10
86.2592858589
 20
35.9632820796
 10
86.2694073465
 20
35.9460359892
 10
86.2807054569
 20
35.9283630861
 10
86.293283171
 20
35.9103357264
 10
86.307262385
 20
35.8920183634
 10
86.322762184
 20
35.8735019866
 10
86.3399020841
 20
35.8548978181
 10
86.3588380379
 20
35.8363035055
 10
86.3795660244
 20
35.8179852966
 10
86.4021183557
 20
35.8001580462
 10
86.4264092475
 20
35.7831097333
 10
86.4523453815
 20
35.7670938084
 10
86.4797831704
 20
35.7523562301
 10
86.5085373557
 20
35.7391204291
 10
86.5384462568
 20
35.7275569582
 10
86.5693034841
 20
35.7178179838
 10
86.6009196061
 20
35.7100138881
 10
86.6330823997
 20
35.7042291611
 10
86.6655706425
 20
35.7005167572
 10
86.6981100201
 20
35.698898072
 10
86.7071509907
 20
35.6988179214
  0
LINE
  5
2C0
100
AcDbEntity
  8
0
100
AcDbLine
 62
7
  6
CONTINUOUS
 10
86.1585839856
 20
36.380079779
 11
86.1618032785
 21
36.3497282228
  0
LINE
  5
2C1
100
AcDbEntity
  8
0
100
AcDbLine
 62
7
  6
CONTINUOUS
 10
83.5885980855
 20
99.1316956025
 11
83.5853906909
 21
99.1629179456
  0
LINE
  5
2C2
100
AcDbEntity
  8
0
100
AcDbLine
 62
7
  6
CONTINUOUS
 10
86.1553844198
 20
36.4122146291
 11
86.1585839856
 21
36.380079779
  0
LINE
  5
2C3
100
AcDbEntity
  8
0
100
AcDbLine
 62
7
  6
CONTINUOUS
 10
83.5917920392
 20
99.0986149227
 11
83.5885980855
 21
99.1316956025
  0
LINE
  5
2C4
100
AcDbEntity
  8
0
100
AcDbLine
 62
7
  6
CONTINUOUS
 10
86.1521927963
 20
36.4462821958
 11
86.1553844198
 21
36.4122146291
  0
LINE
  5
2C5
100
AcDbEntity
  8
0
100
AcDbLine
 62
7
  6
CONTINUOUS
 10
83.5949829569
 20
99.063528374
 11
83.5917920392
 21
99.0986149227
  0
LINE
  5
2C6
100
AcDbEntity
  8
0
100
AcDbLine
 62
7
  6
CONTINUOUS
 10
86.1489999031
 20
36.4824284376
 11
86.1521927963
 21
36.4462821958
  0
LINE
  5
2C7
100
AcDbEntity
  8
0
100
AcDbLine
 62
7
  6
CONTINUOUS
 10
83.598179061
 20
99.0262903336
 11
83.5949829569
 21
99.063528374
  0
LINE
  5
2C8
100
AcDbEntity
  8
0
100
AcDbLine
 62
7
  6
CONTINUOUS
 10
86.1457983571
 20
36.5207994068
 11
86.1489999031
 21
36.4824284376
  0
LINE
  5
2C9
100
AcDbEntity
  8
0
100
AcDbLine
 62
7
  6
CONTINUOUS
 10
83.6013869551
 20
98.9867543884
 11
83.598179061
 21
99.0262903336
  0
LINE
  5
2CA
100
AcDbEntity
  8
0
100
AcDbLine
 62
7
  6
CONTINUOUS
 10
86.1409672068
 20
36.582849235
 11
86.1457983571
 21
36.5207994068
  0
LINE
  5
2CB
100
AcDbEntity
  8
0
100
AcDbLine
 62
7
  6
CONTINUOUS
 10
83.6062321899
 20
98.9228179081
 11
83.6013869551
 21
98.9867543884
  0
LINE
  5
2CC
100
AcDbEntity
  8
0
100
AcDbLine
 62
7
  6
CONTINUOUS
 10
86.1360882974
 20
36.6507411546
 11
86.1409672068
 21
36.582849235
  0
LINE
  5
2CD
100
AcDbEntity
  8
0
100
AcDbLine
 62
7
  6
CONTINUOUS
 10
83.6111294255
 20
98.8528654912
 11
83.6062321899
 21
98.9228179081
  0
LINE
  5
2CE
100
AcDbEntity
  8
0
100
AcDbLine
 62
7
  6
CONTINUOUS
 10
86.1311498545
 20
36.7250110056
 11
86.1360882974
 21
36.6507411546
  0
LINE
  5
2CF
100
AcDbEntity
  8
0
100
AcDbLine
 62
7
  6
CONTINUOUS
 10
83.6160895252
 20
98.7763488191
 11
83.6111294255
 21
98.8528654912
  0
LINE
  5
2D0
100
AcDbEntity
  8
0
100
AcDbLine
 62
7
  6
CONTINUOUS
 10
86.1261432102
 20
36.8062248459
 11
86.1311498545
 21
36.7250110056
  0
LINE
  5
2D1
100
AcDbEntity
  8
0
100
AcDbLine
 62
7
  6
CONTINUOUS
 10
86.123175973
 20
36.8572664131
 11
86.1261432102
 21
36.8062248459
  0
LINE
  5
2D2
100
AcDbEntity
  8
0
100
AcDbLine
 62
7
  6
CONTINUOUS
 10
83.6224021287
 20
98.6703694249
 11
83.6160895252
 21
98.7763488191
  0
LWPOLYLINE
  5
2D3
100
AcDbEntity
  8
0
100
AcDbPolyline
 62
7
  6
CONTINUOUS
 90
17
 70
0
 10
84.7211763641
 20
92.7638179189
 10
84.7203252772
 20
92.9840125312
 10
84.7175019705
 20
93.2211851162
 10
84.7127029905
 20
93.4579617281
 10
84.7059296253
 20
93.6941867259
 10
84.6971837558
 20
93.9296787158
 10
84.6864677168
 20
94.1642548565
 10
84.6737842522
 20
94.3977323407
 10
84.6591364516
 20
94.6299290124
 10
84.6425277687
 20
94.860662433
 10
84.6239620363
 20
95.0897494365
 10
84.6034434034
 20
95.3170067084
 10
84.5809763105
 20
95.542250661
 10
84.556565494
 20
95.7652970494
 10
84.5302157421
 20
95.9859626613
 10
84.5019286814
 20
96.2040881869
 10
84.4737247267
 20
96.4056213291
  0
LWPOLYLINE
  5
2D4
100
AcDbEntity
  8
0
100
AcDbPolyline
 62
7
  6
CONTINUOUS
 90
17
 70
0
 10
85.0244017376
 20
42.7638179189
 10
85.0252528245
 20
42.5436233067
 10
85.0280761312
 20
42.3064507216
 10
85.0328751112
 20
42.0696741097
 10
85.0396484764
 20
41.8334491119
 10
85.0483943458
 20
41.5979571219
 10
85.0591103849
 20
41.3633809812
 10
85.0717938495
 20
41.129903497
 10
85.0864416501
 20
40.8977068252
 10
85.103050333
 20
40.6669734045
 10
85.1216160654
 20
40.437886401
 10
85.1421346983
 20
40.2106291291
 10
85.1646017912
 20
39.9853851765
 10
85.1890126077
 20
39.7623387882
 10
85.2153623596
 20
39.5416731763
 10
85.2436494203
 20
39.3235476509
 10
85.2718533749
 20
39.1220145088
  0
LINE
  5
2D5
100
AcDbEntity
  8
0
100
AcDbLine
 62
7
  6
CONTINUOUS
 10
84.7211763644
 20
89.7465191701
 11
84.7211763644
 21
92.7638179189
  0
LINE
  5
2D6
100
AcDbEntity
  8
0
100
AcDbLine
 62
7
  6
CONTINUOUS
 10
85.0244017373
 20
45.7811160637
 11
85.0244017373
 21
42.7638179189
  0
LWPOLYLINE
  5
2D7
100
AcDbEntity
  8
0
100
AcDbPolyline
 62
7
  6
CONTINUOUS
 90
9
 70
0
 10
74.4137038034
 20
38.8674722709
 10
74.4207756648
 20
38.8882485619
 10
74.431094881
 20
38.9214502184
 10
74.4404619651
 20
38.9551783809
 10
74.4489609335
 20
38.9894930082
 10
74.4566517427
 20
39.0244205564
 10
74.4635826389
 20
39.0599880637
 10
74.4697859624
 20
39.0961905348
 10
74.4737269189
 20
39.1220296337
  0
LWPOLYLINE
  5
2D8
100
AcDbEntity
  8
0
100
AcDbPolyline
 62
7
  6
CONTINUOUS
 90
9
 70
0
 10
95.3318742983
 20
96.660163567
 10
95.3248024368
 20
96.6393872759
 10
95.3144832206
 20
96.6061856193
 10
95.3051161365
 20
96.5724574568
 10
95.2966171681
 20
96.5381428295
 10
95.288926359
 20
96.5032152812
 10
95.2819954627
 20
96.467647774
 10
95.2757921393
 20
96.431445303
 10
95.2718511828
 20
96.4056062042
  0
LINE
  5
2D9
100
AcDbEntity
  8
0
100
AcDbLine
 62
7
  6
CONTINUOUS
 10
74.4137038034
 20
38.8674722709
 11
74.4137231373
 21
38.8675271068
  0
LINE
  5
2DA
100
AcDbEntity
  8
0
100
AcDbLine
 62
7
  6
CONTINUOUS
 10
95.3318742983
 20
96.660163567
 11
95.3318549644
 21
96.6601087311
  0
LWPOLYLINE
  5
2DB
100
AcDbEntity
  8
0
100
AcDbPolyline
 62
7
  6
CONTINUOUS
 90
7
 70
0
 10
96.035970177
 20
98.4468770327
 10
95.9169602345
 20
98.1726948324
 10
95.7956916954
 20
97.882217478
 10
95.676195271
 20
97.584638468
 10
95.5584803146
 20
97.2800688535
 10
95.4425574648
 20
96.9686213461
 10
95.3318549645
 20
96.660108731
  0
LWPOLYLINE
  5
2DC
100
AcDbEntity
  8
0
100
AcDbPolyline
 62
7
  6
CONTINUOUS
 90
4
 70
0
 10
96.070294781
 20
98.5228655302
 10
96.0606753468
 20
98.501883749
 10
96.0511143271
 20
98.4807885187
 10
96.0359697581
 20
98.4468760863
  0
LINE
  5
2DD
100
AcDbEntity
  8
0
100
AcDbLine
 62
7
  6
CONTINUOUS
 10
96.0854546774
 20
98.5554449163
 11
96.070294781
 21
98.5228655302
  0
LWPOLYLINE
  5
2DE
100
AcDbEntity
  8
0
100
AcDbPolyline
 62
7
  6
CONTINUOUS
 90
4
 70
0
 10
86.1618032785
 20
36.3497282228
 10
86.1634249597
 20
36.3351729469
 10
86.165057865
 20
36.3210031936
 10
86.1683683317
 20
36.2937389707
  0
LWPOLYLINE
  5
2DF
100
AcDbEntity
  8
0
100
AcDbPolyline
 62
7
  6
CONTINUOUS
 90
3
 70
0
 10
83.5853906909
 20
99.1629179456
 10
83.5837777997
 20
99.1778803732
 10
83.5805232555
 20
99.206605886
  0
LWPOLYLINE
  5
2E0
100
AcDbEntity
  8
0
100
AcDbPolyline
 62
7
  6
CONTINUOUS
 90
7
 70
0
 10
73.7096079247
 20
37.0807588051
 10
73.8286178672
 20
37.3549410055
 10
73.9498864063
 20
37.6454183599
 10
74.0693828307
 20
37.9429973699
 10
74.1870977871
 20
38.2475669843
 10
74.3030206368
 20
38.5590144918
 10
74.4137231372
 20
38.8675271068
  0
LWPOLYLINE
  5
2E1
100
AcDbEntity
  8
0
100
AcDbPolyline
 62
7
  6
CONTINUOUS
 90
4
 70
0
 10
73.6752833206
 20
37.0047703077
 10
73.6849027549
 20
37.0257520888
 10
73.6944637745
 20
37.0468473191
 10
73.7096083436
 20
37.0807597515
  0
LINE
  5
2E2
100
AcDbEntity
  8
0
100
AcDbLine
 62
7
  6
CONTINUOUS
 10
73.6601234242
 20
36.9721909216
 11
73.6752833206
 21
37.0047703077
  0
LWPOLYLINE
  5
2E3
100
AcDbEntity
  8
0
100
AcDbPolyline
 62
7
  6
CONTINUOUS
 90
9
 70
0
 10
84.4737270967
 20
96.4056049814
 10
84.4699632628
 20
96.4303359236
 10
84.4637990304
 20
96.466461929
 10
84.4569054816
 20
96.5019883005
 10
84.4492489588
 20
96.5369071744
 10
84.4407799419
 20
96.5712426247
 10
84.4314368783
 20
96.6050191163
 10
84.4211337684
 20
96.6382952635
 10
84.4137044673
 20
96.6601616846
  0
LWPOLYLINE
  5
2E4
100
AcDbEntity
  8
0
100
AcDbPolyline
 62
7
  6
CONTINUOUS
 90
47
 70
0
 10
83.5772127178
 20
99.2338702694
 10
83.5755284452
 20
99.2470080563
 10
83.5738191652
 20
99.2598496764
 10
83.5720800015
 20
99.272420082
 10
83.5703057551
 20
99.2847424341
 10
83.5684899804
 20
99.2968439959
 10
83.5666275465
 20
99.3087388035
 10
83.5647122527
 20
99.3204441989
 10
83.5627355657
 20
99.3319870736
 10
83.5606886116
 20
99.34339054
 10
83.5585586254
 20
99.354692617
 10
83.5563323736
 20
99.3659252124
 10
83.5539913501
 20
99.3771370792
 10
83.5515161146
 20
99.3883693266
 10
83.5488801822
 20
99.3996813939
 10
83.5460556392
 20
99.4111223994
 10
83.5430041506
 20
99.4227650718
 10
83.5396850635
 20
99.4346683642
 10
83.5360438383
 20
99.446915919
 10
83.5320207597
 20
99.4595783559
 10
83.5275427653
 20
99.4727357445
 10
83.5225222891
 20
99.4864724217
 10
83.516879658
 20
99.5008141906
 10
83.5105131687
 20
99.5158100861
 10
83.5033397748
 20
99.5314336423
 10
83.4952543729
 20
99.5476834207
 10
83.486180881
 20
99.5644791572
 10
83.4760457958
 20
99.5817307042
 10
83.4647344862
 20
99.5994062061
 10
83.4521443363
 20
99.6174332423
 10
83.4381532808
 20
99.635748054
 10
83.4226421278
 20
99.6542601393
 10
83.4054912349
 20
99.6728586877
 10
83.3865441415
 20
99.6914466941
 10
83.3658055283
 20
99.7097574854
 10
83.3432435066
 20
99.7275761137
 10
83.3189442486
 20
99.7446147002
 10
83.2930014715
 20
99.7606199421
 10
83.265559147
 20
99.7753461196
 10
83.2368028703
 20
99.7885701296
 10
83.2068946935
 20
99.8001217653
 10
83.176041179
 20
99.8098493414
 10
83.1444324106
 20
99.817642864
 10
83.1122810832
 20
99.823418421
 10
83.0798088008
 20
99.8271237586
 10
83.0472904338
 20
99.8287382831
 10
83.0382767044
 20
99.8288179165
  0
LINE
  5
2E5
100
AcDbEntity
  8
0
100
AcDbLine
 62
7
  6
CONTINUOUS
 10
83.5805232555
 20
99.206605886
 11
83.5772127178
 21
99.2338702694
  0
LINE
  5
2E6
100
AcDbEntity
  8
0
100
AcDbLine
 62
7
  6
CONTINUOUS
 10
94.7211763644
 20
42.7638179189
 11
94.7211763644
 21
45.78113371
  0
LINE
  5
2E7
100
AcDbEntity
  8
0
100
AcDbLine
 62
7
  6
CONTINUOUS
 10
95.0244017373
 20
92.7638179189
 11
95.0244017373
 21
89.7465021279
  0
LWPOLYLINE
  5
2E8
100
AcDbEntity
  8
0
100
AcDbPolyline
 62
7
  6
CONTINUOUS
 90
35
 70
0
 10
95.0244017361
 20
89.7465021279
 10
95.0232304951
 20
89.672377262
 10
95.0186148324
 20
89.5823025699
 10
95.0107123913
 20
89.4949623437
 10
94.9997538685
 20
89.4105072108
 10
94.985971435
 20
89.3291025267
 10
94.9695885807
 20
89.2508720218
 10
94.9508224936
 20
89.1759114652
 10
94.9299011348
 20
89.1043458698
 10
94.9070510812
 20
89.0362652866
 10
94.8825077564
 20
88.971757618
 10
94.8565315455
 20
88.9109349307
 10
94.8292961129
 20
88.8536881958
 10
94.80103482
 20
88.800044099
 10
94.7717571518
 20
88.749635099
 10
94.7414726284
 20
88.7022010034
 10
94.7101993125
 20
88.6575678105
 10
94.6778617611
 20
88.6154949797
 10
94.6445925199
 20
88.5760553603
 10
94.6104573939
 20
88.5392293405
 10
94.5755558903
 20
88.505033234
 10
94.5399799748
 20
88.4734671773
 10
94.50379316
 20
88.4445023819
 10
94.4670525779
 20
88.4181068816
 10
94.4298124389
 20
88.3942482324
 10
94.3921191815
 20
88.3728902068
 10
94.3539774197
 20
88.3539781511
 10
94.3153625503
 20
88.3374563249
 10
94.2763200645
 20
88.3233078604
 10
94.2368657656
 20
88.3115038553
 10
94.197008623
 20
88.3020166984
 10
94.1567578621
 20
88.2948225443
 10
94.1161128433
 20
88.289899996
 10
94.075072318
 20
88.28723323
 10
94.0466454217
 20
88.2867029611
  0
LWPOLYLINE
  5
2E9
100
AcDbEntity
  8
0
100
AcDbPolyline
 62
7
  6
CONTINUOUS
 90
35
 70
0
 10
94.7211763655
 20
45.78113371
 10
94.7223476066
 20
45.855258576
 10
94.7269632693
 20
45.9453332681
 10
94.7348657104
 20
46.0326734944
 10
94.7458242332
 20
46.1171286273
 10
94.7596066668
 20
46.1985333115
 10
94.775989521
 20
46.2767638164
 10
94.7947556082
 20
46.3517243731
 10
94.815676967
 20
46.4232899685
 10
94.8385270206
 20
46.4913705517
 10
94.8630703455
 20
46.5558782204
 10
94.8890465564
 20
46.6167009077
 10
94.9162819891
 20
46.6739476426
 10
94.9445432819
 20
46.7275917394
 10
94.9738209502
 20
46.7780007394
 10
95.0041054736
 20
46.825434835
 10
95.0353787896
 20
46.8700680279
 10
95.067716341
 20
46.9121408587
 10
95.1009855822
 20
46.951580478
 10
95.1351207083
 20
46.9884064979
 10
95.1700222119
 20
47.0226026043
 10
95.2055981275
 20
47.0541686611
 10
95.2417849423
 20
47.0831334565
 10
95.2785255244
 20
47.1095289568
 10
95.3157656634
 20
47.1333876059
 10
95.3534589209
 20
47.1547456314
 10
95.3916006828
 20
47.1736576871
 10
95.4302155522
 20
47.1901795133
 10
95.469258038
 20
47.2043279777
 10
95.5087123368
 20
47.2161319828
 10
95.5485694794
 20
47.2256191396
 10
95.5888202402
 20
47.2328132937
 10
95.6294652588
 20
47.2377358419
 10
95.6705057839
 20
47.2404026079
 10
95.69893268
 20
47.2409328768
  0
LINE
  5
2EA
100
AcDbEntity
  8
0
100
AcDbLine
 62
7
  6
CONTINUOUS
 10
93.6194024595
 20
36.8056790843
 11
93.6224021277
 21
36.8572663963
  0
LINE
  5
2EB
100
AcDbEntity
  8
0
100
AcDbLine
 62
7
  6
CONTINUOUS
 10
96.1295200459
 20
98.7768527091
 11
96.1231759739
 21
98.6703694414
  0
LINE
  5
2EC
100
AcDbEntity
  8
0
100
AcDbLine
 62
7
  6
CONTINUOUS
 10
96.1344783854
 20
98.8533064075
 11
96.1295200459
 21
98.7768527091
  0
LINE
  5
2ED
100
AcDbEntity
  8
0
100
AcDbLine
 62
7
  6
CONTINUOUS
 10
96.1393739771
 20
98.923203169
 11
96.1344783854
 21
98.8533064075
  0
LINE
  5
2EE
100
AcDbEntity
  8
0
100
AcDbLine
 62
7
  6
CONTINUOUS
 10
96.1442176917
 20
98.9870905714
 11
96.1393739771
 21
98.923203169
  0
LINE
  5
2EF
100
AcDbEntity
  8
0
100
AcDbLine
 62
7
  6
CONTINUOUS
 10
96.1474246445
 20
99.0265971121
 11
96.1442176917
 21
98.9870905714
  0
LWPOLYLINE
  5
2F0
100
AcDbEntity
  8
0
100
AcDbPolyline
 62
7
  6
CONTINUOUS
 90
9
 70
0
 10
96.1231763678
 20
98.6703764066
 10
96.1229139654
 20
98.6672293395
 10
96.1219520599
 20
98.6602348623
 10
96.1199253025
 20
98.6498694459
 10
96.1164845858
 20
98.6361843471
 10
96.111307583
 20
98.6192211751
 10
96.104143095
 20
98.5991514923
 10
96.0948007956
 20
98.5761896883
 10
96.0854641943
 20
98.5554651811
  0
LINE
  5
2F1
100
AcDbEntity
  8
0
100
AcDbLine
 62
7
  6
CONTINUOUS
 10
96.1506198681
 20
99.0638081908
 11
96.1474246445
 21
99.0265971121
  0
LINE
  5
2F2
100
AcDbEntity
  8
0
100
AcDbLine
 62
7
  6
CONTINUOUS
 10
96.1538099699
 20
99.0988700486
 11
96.1506198681
 21
99.0638081908
  0
LINE
  5
2F3
100
AcDbEntity
  8
0
100
AcDbLine
 62
7
  6
CONTINUOUS
 10
96.1570031807
 20
99.1319282066
 11
96.1538099699
 21
99.0988700486
  0
LINE
  5
2F4
100
AcDbEntity
  8
0
100
AcDbLine
 62
7
  6
CONTINUOUS
 10
96.1602098898
 20
99.1631298434
 11
96.1570031807
 21
99.1319282066
  0
LINE
  5
2F5
100
AcDbEntity
  8
0
100
AcDbLine
 62
7
  6
CONTINUOUS
 10
96.1634436788
 20
99.1926279948
 11
96.1602098898
 21
99.1631298434
  0
LWPOLYLINE
  5
2F6
100
AcDbEntity
  8
0
100
AcDbPolyline
 62
7
  6
CONTINUOUS
 90
17
 70
0
 10
95.2718533812
 20
96.4056213723
 10
95.2438196964
 20
96.2053497593
 10
95.2155216471
 20
95.987241746
 10
95.1891608563
 20
95.7665927383
 10
95.1647389424
 20
95.5435620079
 10
95.1422606902
 20
95.3183327429
 10
95.1217308337
 20
95.0910891632
 10
95.103153812
 20
94.8620148282
 10
95.0865337738
 20
94.6312930249
 10
95.0718745525
 20
94.3991068897
 10
95.0591796036
 20
94.1656388325
 10
95.0484520191
 20
93.9310709813
 10
95.0396945465
 20
93.6955861069
 10
95.0329095247
 20
93.4593670041
 10
95.0280988408
 20
93.2225950634
 10
95.0252637877
 20
92.9854259071
 10
95.0244017376
 20
92.7638179189
  0
LWPOLYLINE
  5
2F7
100
AcDbEntity
  8
0
100
AcDbPolyline
 62
7
  6
CONTINUOUS
 90
3
 70
0
 10
106.0603279924
 20
37.026514265
 10
106.0699457905
 20
37.0055273013
 10
106.0854546708
 20
36.9721909359
  0
LWPOLYLINE
  5
2F8
100
AcDbEntity
  8
0
100
AcDbPolyline
 62
7
  6
CONTINUOUS
 90
9
 70
0
 10
106.0854648625
 20
36.9721692336
 10
106.0946229893
 20
36.9518585294
 10
106.1040044703
 20
36.9288471498
 10
106.1112039736
 20
36.9087275643
 10
106.1164117514
 20
36.8917133541
 10
106.1198786939
 20
36.8779753487
 10
106.1219265074
 20
36.8675553871
 10
106.1229035873
 20
36.8605049292
 10
106.1231763406
 20
36.8572598979
  0
LWPOLYLINE
  5
2F9
100
AcDbEntity
  8
0
100
AcDbPolyline
 62
7
  6
CONTINUOUS
 90
3
 70
0
 10
106.0359697531
 20
37.0807597629
 10
106.0412669371
 20
37.0688281521
 10
106.0603279924
 20
37.026514265
  0
LWPOLYLINE
  5
2FA
100
AcDbEntity
  8
0
100
AcDbPolyline
 62
7
  6
CONTINUOUS
 90
7
 70
0
 10
84.4137231531
 20
96.6601086859
 10
84.3033320548
 20
96.9677688695
 10
84.1874133769
 20
97.2792366783
 10
84.0697026112
 20
97.5838266414
 10
83.9502103262
 20
97.8814262381
 10
83.8289458336
 20
98.1719245199
 10
83.709607955
 20
98.4468769642
  0
LWPOLYLINE
  5
2FB
100
AcDbEntity
  8
0
100
AcDbPolyline
 62
7
  6
CONTINUOUS
 90
7
 70
0
 10
105.3318549486
 20
38.867527152
 10
105.4422460469
 20
38.5598669684
 10
105.5581647248
 20
38.2483991596
 10
105.6758754904
 20
37.9438091965
 10
105.7953677755
 20
37.6462095998
 10
105.9166322681
 20
37.355711318
 10
106.0359701467
 20
37.0807588737
  0
LINE
  5
2FC
100
AcDbEntity
  8
0
100
AcDbLine
 62
7
  6
CONTINUOUS
 10
84.4137044672
 20
96.6601616845
 11
84.4137231531
 21
96.6601086859
  0
LINE
  5
2FD
100
AcDbEntity
  8
0
100
AcDbLine
 62
7
  6
CONTINUOUS
 10
105.3318736345
 20
38.8674741534
 11
105.3318549486
 21
38.867527152
  0
LINE
  5
2FE
100
AcDbEntity
  8
0
100
AcDbLine
 62
7
  6
CONTINUOUS
 10
93.6143981601
 20
36.7245411973
 11
93.6194024595
 21
36.8056790843
  0
LINE
  5
2FF
100
AcDbEntity
  8
0
100
AcDbLine
 62
7
  6
CONTINUOUS
 10
93.6094620375
 20
36.6503395425
 11
93.6143981601
 21
36.7245411973
  0
LINE
  5
300
100
AcDbEntity
  8
0
100
AcDbLine
 62
7
  6
CONTINUOUS
 10
93.6045854177
 20
36.582508665
 11
93.6094620375
 21
36.6503395425
  0
LINE
  5
301
100
AcDbEntity
  8
0
100
AcDbLine
 62
7
  6
CONTINUOUS
 10
93.5997565117
 20
36.5205131601
 11
93.6045854177
 21
36.582508665
  0
LWPOLYLINE
  5
302
100
AcDbEntity
  8
0
100
AcDbPolyline
 62
7
  6
CONTINUOUS
 90
9
 70
0
 10
93.6224017339
 20
36.8572594312
 10
93.6226641363
 20
36.8604064984
 10
93.6236260418
 20
36.8674009757
 10
93.6256527992
 20
36.8777663921
 10
93.6290935159
 20
36.8914514911
 10
93.6342705188
 20
36.9084146631
 10
93.6414350068
 20
36.9284843459
 10
93.6507773062
 20
36.9514461498
 10
93.6601139074
 20
36.9721706568
  0
LINE
  5
303
100
AcDbEntity
  8
0
100
AcDbLine
 62
7
  6
CONTINUOUS
 10
93.596556435
 20
36.4821749463
 11
93.5997565117
 21
36.5205131601
  0
LINE
  5
304
100
AcDbEntity
  8
0
100
AcDbLine
 62
7
  6
CONTINUOUS
 10
93.5933649902
 20
36.446058879
 11
93.596556435
 21
36.4821749463
  0
LINE
  5
305
100
AcDbEntity
  8
0
100
AcDbLine
 62
7
  6
CONTINUOUS
 10
93.5901747913
 20
36.412019028
 11
93.5933649902
 21
36.446058879
  0
LINE
  5
306
100
AcDbEntity
  8
0
100
AcDbLine
 62
7
  6
CONTINUOUS
 10
93.5869766325
 20
36.379909629
 11
93.5901747913
 21
36.412019028
  0
LINE
  5
307
100
AcDbEntity
  8
0
100
AcDbLine
 62
7
  6
CONTINUOUS
 10
93.5837586032
 20
36.3495803742
 11
93.5869766325
 21
36.379909629
  0
LINE
  5
308
100
AcDbEntity
  8
0
100
AcDbLine
 62
7
  6
CONTINUOUS
 10
93.5805048793
 20
36.3208736487
 11
93.5837586032
 21
36.3495803742
  0
LWPOLYLINE
  5
309
100
AcDbEntity
  8
0
100
AcDbPolyline
 62
7
  6
CONTINUOUS
 90
17
 70
0
 10
94.4737247205
 20
39.1220144656
 10
94.5017584052
 20
39.3222860781
 10
94.5300564545
 20
39.5403940909
 10
94.5564172452
 20
39.7610430976
 10
94.580839159
 20
39.9840738272
 10
94.6033174112
 20
40.2093030916
 10
94.6238472676
 20
40.4365466707
 10
94.6424242893
 20
40.6656210055
 10
94.6590443276
 20
40.8963428088
 10
94.6737035489
 20
41.1285289444
 10
94.6863984979
 20
41.3619970021
 10
94.6971260825
 20
41.5965648538
 10
94.7058835551
 20
41.8320497288
 10
94.7126685769
 20
42.0682688322
 10
94.7174792609
 20
42.3050407735
 10
94.720314314
 20
42.5422099303
 10
94.7211763641
 20
42.7638179189
  0
LWPOLYLINE
  5
30A
100
AcDbEntity
  8
0
100
AcDbPolyline
 62
7
  6
CONTINUOUS
 90
3
 70
0
 10
83.6852501092
 20
98.5011215729
 10
83.6756323111
 20
98.5221085366
 10
83.6601234309
 20
98.555444902
  0
LWPOLYLINE
  5
30B
100
AcDbEntity
  8
0
100
AcDbPolyline
 62
7
  6
CONTINUOUS
 90
9
 70
0
 10
83.6601132392
 20
98.5554666042
 10
83.6509551124
 20
98.5757773084
 10
83.6415736314
 20
98.5987886881
 10
83.634374128
 20
98.6189082736
 10
83.6291663503
 20
98.6359224838
 10
83.6256994077
 20
98.6496604892
 10
83.6236515942
 20
98.6600804508
 10
83.6226745143
 20
98.6671309086
 10
83.6224017611
 20
98.6703759399
  0
LWPOLYLINE
  5
30C
100
AcDbEntity
  8
0
100
AcDbPolyline
 62
7
  6
CONTINUOUS
 90
3
 70
0
 10
83.7096083486
 20
98.4468760749
 10
83.7043111645
 20
98.4588076858
 10
83.6852501092
 20
98.5011215729
  0
LINE
  5
30D
100
AcDbEntity
  8
0
100
AcDbLine
 62
7
  6
CONTINUOUS
 10
106.1585839856
 20
36.380079779
 11
106.1618032785
 21
36.3497282228
  0
LINE
  5
30E
100
AcDbEntity
  8
0
100
AcDbLine
 62
7
  6
CONTINUOUS
 10
106.1553844198
 20
36.4122146291
 11
106.1585839856
 21
36.380079779
  0
LINE
  5
30F
100
AcDbEntity
  8
0
100
AcDbLine
 62
7
  6
CONTINUOUS
 10
106.1521927963
 20
36.4462821958
 11
106.1553844198
 21
36.4122146291
  0
LINE
  5
310
100
AcDbEntity
  8
0
100
AcDbLine
 62
7
  6
CONTINUOUS
 10
106.1489999031
 20
36.4824284376
 11
106.1521927963
 21
36.4462821958
  0
LINE
  5
311
100
AcDbEntity
  8
0
100
AcDbLine
 62
7
  6
CONTINUOUS
 10
106.1457983571
 20
36.5207994068
 11
106.1489999031
 21
36.4824284376
  0
LINE
  5
312
100
AcDbEntity
  8
0
100
AcDbLine
 62
7
  6
CONTINUOUS
 10
106.1409672068
 20
36.582849235
 11
106.1457983571
 21
36.5207994068
  0
LINE
  5
313
100
AcDbEntity
  8
0
100
AcDbLine
 62
7
  6
CONTINUOUS
 10
106.1377206802
 20
36.627429237
 11
106.1409672068
 21
36.582849235
  0
LWPOLYLINE
  5
314
100
AcDbEntity
  8
0
100
AcDbPolyline
 62
7
  6
CONTINUOUS
 90
9
 70
0
 10
94.4137038034
 20
38.8674722709
 10
94.4207756648
 20
38.8882485619
 10
94.431094881
 20
38.9214502184
 10
94.4404619651
 20
38.9551783809
 10
94.4489609335
 20
38.9894930082
 10
94.4566517427
 20
39.0244205564
 10
94.4635826389
 20
39.0599880637
 10
94.4697859624
 20
39.0961905348
 10
94.4737269189
 20
39.1220296337
  0
LWPOLYLINE
  5
315
100
AcDbEntity
  8
0
100
AcDbPolyline
 62
7
  6
CONTINUOUS
 90
7
 70
0
 10
116.035970177
 20
98.4468770327
 10
115.9169602345
 20
98.1726948324
 10
115.7956916954
 20
97.882217478
 10
115.676195271
 20
97.584638468
 10
115.5584803146
 20
97.2800688535
 10
115.4425574648
 20
96.9686213461
 10
115.3318549645
 20
96.660108731
  0
LWPOLYLINE
  5
316
100
AcDbEntity
  8
0
100
AcDbPolyline
 62
7
  6
CONTINUOUS
 90
4
 70
0
 10
116.070294781
 20
98.5228655302
 10
116.0606753468
 20
98.5018837491
 10
116.0511143271
 20
98.4807885187
 10
116.0359697581
 20
98.4468760863
  0
LINE
  5
317
100
AcDbEntity
  8
0
100
AcDbLine
 62
7
  6
CONTINUOUS
 10
116.0854546774
 20
98.5554449163
 11
116.070294781
 21
98.5228655302
  0
LWPOLYLINE
  5
318
100
AcDbEntity
  8
0
100
AcDbPolyline
 62
7
  6
CONTINUOUS
 90
9
 70
0
 10
105.2718510049
 20
39.1220308564
 10
105.2756148388
 20
39.0972999144
 10
105.2817790712
 20
39.061173909
 10
105.2886726201
 20
39.0256475375
 10
105.2963291429
 20
38.9907286637
 10
105.3047981597
 20
38.9563932134
 10
105.3141412233
 20
38.9226167217
 10
105.3244443332
 20
38.8893405744
 10
105.3318736343
 20
38.8674741533
  0
LWPOLYLINE
  5
319
100
AcDbEntity
  8
0
100
AcDbPolyline
 62
7
  6
CONTINUOUS
 90
47
 70
0
 10
106.1683683317
 20
36.2937389707
 10
106.1700525208
 20
36.2806011913
 10
106.1717616719
 20
36.2677596076
 10
106.1735006438
 20
36.2551893599
 10
106.1752746361
 20
36.2428672418
 10
106.1770900953
 20
36.2307659499
 10
106.1789521305
 20
36.2188715532
 10
106.1808669247
 20
36.2071667666
 10
106.1828429813
 20
36.19562481
 10
106.1848891444
 20
36.1842226533
 10
106.1870181358
 20
36.1729224045
 10
106.1892431445
 20
36.1616922514
 10
106.1915826106
 20
36.1504835964
 10
106.1940559033
 20
36.1392554573
 10
106.1966894148
 20
36.1279485488
 10
106.1995109434
 20
36.1165139339
 10
106.2025587273
 20
36.1048788985
 10
106.2058732819
 20
36.092984595
 10
106.2095090383
 20
36.080747291
 10
106.2135255473
 20
36.0680964037
 10
106.2179957882
 20
36.0549515741
 10
106.2230071674
 20
36.0412283617
 10
106.2286393837
 20
36.0269003928
 10
106.234994077
 20
36.0119183295
 10
106.242154587
 20
35.9963076744
 10
106.2502263561
 20
35.980069039
 10
106.2592858589
 20
35.9632820796
 10
106.2694073465
 20
35.9460359892
 10
106.2807054569
 20
35.9283630861
 10
106.293283171
 20
35.9103357264
 10
106.307262385
 20
35.8920183634
 10
106.322762184
 20
35.8735019866
 10
106.3399020842
 20
35.8548978181
 10
106.3588380379
 20
35.8363035055
 10
106.3795660244
 20
35.8179852966
 10
106.4021183557
 20
35.8001580462
 10
106.4264092475
 20
35.7831097333
 10
106.4523453815
 20
35.7670938084
 10
106.4797831704
 20
35.7523562301
 10
106.5085373557
 20
35.7391204291
 10
106.5384462568
 20
35.7275569582
 10
106.5693034841
 20
35.7178179838
 10
106.6009196061
 20
35.7100138881
 10
106.6330823997
 20
35.7042291611
 10
106.6655706425
 20
35.7005167572
 10
106.69811002
 20
35.698898072
 10
106.7071509907
 20
35.6988179214
  0
LINE
  5
31A
100
AcDbEntity
  8
0
100
AcDbLine
 62
7
  6
CONTINUOUS
 10
106.165057865
 20
36.3210031936
 11
106.1683683317
 21
36.2937389707
  0
LINE
  5
31B
100
AcDbEntity
  8
0
100
AcDbLine
 62
7
  6
CONTINUOUS
 10
106.1618032785
 20
36.3497282228
 11
106.165057865
 21
36.3210031936
  0
LINE
  5
31C
100
AcDbEntity
  8
0
100
AcDbLine
 62
7
  6
CONTINUOUS
 10
103.5869967933
 20
99.1475299956
 11
103.5837777997
 21
99.1778803732
  0
LINE
  5
31D
100
AcDbEntity
  8
0
100
AcDbLine
 62
7
  6
CONTINUOUS
 10
103.5901960066
 20
99.1153971323
 11
103.5869967933
 21
99.1475299956
  0
LINE
  5
31E
100
AcDbEntity
  8
0
100
AcDbLine
 62
7
  6
CONTINUOUS
 10
103.5933873095
 20
99.0813316081
 11
103.5901960066
 21
99.1153971323
  0
LINE
  5
31F
100
AcDbEntity
  8
0
100
AcDbLine
 62
7
  6
CONTINUOUS
 10
103.5965799017
 20
99.0451875575
 11
103.5933873095
 21
99.0813316081
  0
LINE
  5
320
100
AcDbEntity
  8
0
100
AcDbLine
 62
7
  6
CONTINUOUS
 10
103.5997811682
 20
99.0068188874
 11
103.5965799017
 21
99.0451875575
  0
LINE
  5
321
100
AcDbEntity
  8
0
100
AcDbLine
 62
7
  6
CONTINUOUS
 10
103.604611934
 20
98.9447727094
 11
103.5997811682
 21
99.0068188874
  0
LINE
  5
322
100
AcDbEntity
  8
0
100
AcDbLine
 62
7
  6
CONTINUOUS
 10
103.6094904989
 20
98.8768846337
 11
103.604611934
 21
98.9447727094
  0
LINE
  5
323
100
AcDbEntity
  8
0
100
AcDbLine
 62
7
  6
CONTINUOUS
 10
106.1328032335
 20
36.6995110846
 11
106.1377206802
 21
36.627429237
  0
LINE
  5
324
100
AcDbEntity
  8
0
100
AcDbLine
 62
7
  6
CONTINUOUS
 10
103.6144286413
 20
98.8026186765
 11
103.6094904989
 21
98.8768846337
  0
LINE
  5
325
100
AcDbEntity
  8
0
100
AcDbLine
 62
7
  6
CONTINUOUS
 10
106.1278200646
 20
36.7783461841
 11
106.1328032335
 21
36.6995110846
  0
LINE
  5
326
100
AcDbEntity
  8
0
100
AcDbLine
 62
7
  6
CONTINUOUS
 10
103.6194350286
 20
98.7214086836
 11
103.6144286413
 21
98.8026186765
  0
LINE
  5
327
100
AcDbEntity
  8
0
100
AcDbLine
 62
7
  6
CONTINUOUS
 10
106.123175973
 20
36.8572664131
 11
106.1278200646
 21
36.7783461841
  0
LINE
  5
328
100
AcDbEntity
  8
0
100
AcDbLine
 62
7
  6
CONTINUOUS
 10
103.6224021287
 20
98.6703694249
 11
103.6194350286
 21
98.7214086836
  0
LWPOLYLINE
  5
329
100
AcDbEntity
  8
0
100
AcDbPolyline
 62
7
  6
CONTINUOUS
 90
17
 70
0
 10
104.7211763641
 20
92.7638179189
 10
104.7203252772
 20
92.9840125312
 10
104.7175019705
 20
93.2211851162
 10
104.7127029905
 20
93.4579617281
 10
104.7059296253
 20
93.6941867259
 10
104.6971837558
 20
93.9296787158
 10
104.6864677168
 20
94.1642548565
 10
104.6737842522
 20
94.3977323407
 10
104.6591364516
 20
94.6299290124
 10
104.6425277687
 20
94.860662433
 10
104.6239620363
 20
95.0897494365
 10
104.6034434034
 20
95.3170067084
 10
104.5809763105
 20
95.542250661
 10
104.556565494
 20
95.7652970494
 10
104.5302157421
 20
95.9859626613
 10
104.5019286814
 20
96.2040881869
 10
104.4737247267
 20
96.4056213291
  0
LWPOLYLINE
  5
32A
100
AcDbEntity
  8
0
100
AcDbPolyline
 62
7
  6
CONTINUOUS
 90
17
 70
0
 10
105.0244017376
 20
42.7638179189
 10
105.0252528245
 20
42.5436233067
 10
105.0280761312
 20
42.3064507216
 10
105.0328751112
 20
42.0696741097
 10
105.0396484764
 20
41.8334491119
 10
105.0483943458
 20
41.5979571219
 10
105.0591103849
 20
41.3633809812
 10
105.0717938495
 20
41.129903497
 10
105.0864416501
 20
40.8977068252
 10
105.103050333
 20
40.6669734045
 10
105.1216160654
 20
40.437886401
 10
105.1421346983
 20
40.2106291291
 10
105.1646017912
 20
39.9853851765
 10
105.1890126077
 20
39.7623387882
 10
105.2153623596
 20
39.5416731763
 10
105.2436494203
 20
39.3235476508
 10
105.2718533749
 20
39.1220145088
  0
LINE
  5
32B
100
AcDbEntity
  8
0
100
AcDbLine
 62
7
  6
CONTINUOUS
 10
104.7211763644
 20
89.7465191701
 11
104.7211763644
 21
92.7638179189
  0
LINE
  5
32C
100
AcDbEntity
  8
0
100
AcDbLine
 62
7
  6
CONTINUOUS
 10
105.0244017373
 20
45.7811160637
 11
105.0244017373
 21
42.7638179189
  0
LWPOLYLINE
  5
32D
100
AcDbEntity
  8
0
100
AcDbPolyline
 62
7
  6
CONTINUOUS
 90
9
 70
0
 10
115.3318742983
 20
96.660163567
 10
115.3248024368
 20
96.6393872759
 10
115.3144832206
 20
96.6061856193
 10
115.3051161365
 20
96.5724574568
 10
115.2966171681
 20
96.5381428295
 10
115.288926359
 20
96.5032152813
 10
115.2819954627
 20
96.467647774
 10
115.2757921393
 20
96.431445303
 10
115.2718511828
 20
96.4056062042
  0
LINE
  5
32E
100
AcDbEntity
  8
0
100
AcDbLine
 62
7
  6
CONTINUOUS
 10
94.4137038034
 20
38.8674722709
 11
94.4137231373
 21
38.8675271068
  0
LINE
  5
32F
100
AcDbEntity
  8
0
100
AcDbLine
 62
7
  6
CONTINUOUS
 10
115.3318742983
 20
96.660163567
 11
115.3318549644
 21
96.6601087311
  0
LWPOLYLINE
  5
330
100
AcDbEntity
  8
0
100
AcDbPolyline
 62
7
  6
CONTINUOUS
 90
7
 70
0
 10
93.7096079247
 20
37.0807588051
 10
93.8286178672
 20
37.3549410055
 10
93.9498864063
 20
37.6454183599
 10
94.0693828307
 20
37.9429973699
 10
94.1870977871
 20
38.2475669843
 10
94.3030206368
 20
38.5590144918
 10
94.4137231372
 20
38.8675271068
  0
LWPOLYLINE
  5
331
100
AcDbEntity
  8
0
100
AcDbPolyline
 62
7
  6
CONTINUOUS
 90
4
 70
0
 10
93.6752833206
 20
37.0047703077
 10
93.6849027549
 20
37.0257520888
 10
93.6944637745
 20
37.0468473191
 10
93.7096083436
 20
37.0807597515
  0
LINE
  5
332
100
AcDbEntity
  8
0
100
AcDbLine
 62
7
  6
CONTINUOUS
 10
93.6601234242
 20
36.9721909216
 11
93.6752833206
 21
37.0047703077
  0
LWPOLYLINE
  5
333
100
AcDbEntity
  8
0
100
AcDbPolyline
 62
7
  6
CONTINUOUS
 90
47
 70
0
 10
103.5772127178
 20
99.2338702694
 10
103.5755284452
 20
99.2470080563
 10
103.5738191652
 20
99.2598496764
 10
103.5720800015
 20
99.272420082
 10
103.5703057551
 20
99.2847424341
 10
103.5684899804
 20
99.2968439959
 10
103.5666275465
 20
99.3087388035
 10
103.5647122527
 20
99.3204441989
 10
103.5627355657
 20
99.3319870736
 10
103.5606886116
 20
99.34339054
 10
103.5585586254
 20
99.354692617
 10
103.5563323736
 20
99.3659252124
 10
103.5539913501
 20
99.3771370792
 10
103.5515161146
 20
99.3883693266
 10
103.5488801822
 20
99.3996813939
 10
103.5460556392
 20
99.4111223994
 10
103.5430041506
 20
99.4227650718
 10
103.5396850635
 20
99.4346683642
 10
103.5360438383
 20
99.446915919
 10
103.5320207597
 20
99.4595783559
 10
103.5275427653
 20
99.4727357445
 10
103.5225222891
 20
99.4864724217
 10
103.516879658
 20
99.5008141906
 10
103.5105131687
 20
99.5158100861
 10
103.5033397748
 20
99.5314336423
 10
103.4952543729
 20
99.5476834207
 10
103.486180881
 20
99.5644791572
 10
103.4760457958
 20
99.5817307042
 10
103.4647344862
 20
99.5994062061
 10
103.4521443363
 20
99.6174332423
 10
103.4381532808
 20
99.635748054
 10
103.4226421278
 20
99.6542601393
 10
103.4054912349
 20
99.6728586877
 10
103.3865441415
 20
99.6914466941
 10
103.3658055283
 20
99.7097574854
 10
103.3432435066
 20
99.7275761137
 10
103.3189442486
 20
99.7446147002
 10
103.2930014715
 20
99.7606199421
 10
103.265559147
 20
99.7753461196
 10
103.2368028703
 20
99.7885701296
 10
103.2068946935
 20
99.8001217653
 10
103.176041179
 20
99.8098493414
 10
103.1444324106
 20
99.817642864
 10
103.1122810832
 20
99.823418421
 10
103.0798088008
 20
99.8271237586
 10
103.0472904338
 20
99.8287382831
 10
103.0382767044
 20
99.8288179165
  0
LINE
  5
334
100
AcDbEntity
  8
0
100
AcDbLine
 62
7
  6
CONTINUOUS
 10
103.5805232555
 20
99.206605886
 11
103.5772127178
 21
99.2338702694
  0
LINE
  5
335
100
AcDbEntity
  8
0
100
AcDbLine
 62
7
  6
CONTINUOUS
 10
103.5837777997
 20
99.1778803732
 11
103.5805232555
 21
99.206605886
  0
LWPOLYLINE
  5
336
100
AcDbEntity
  8
0
100
AcDbPolyline
 62
7
  6
CONTINUOUS
 90
17
 70
0
 10
115.2718533812
 20
96.4056213723
 10
115.2438196964
 20
96.2053497593
 10
115.2155216471
 20
95.987241746
 10
115.1891608563
 20
95.7665927384
 10
115.1647389424
 20
95.543562008
 10
115.1422606902
 20
95.3183327429
 10
115.1217308337
 20
95.0910891632
 10
115.103153812
 20
94.8620148282
 10
115.0865337738
 20
94.6312930249
 10
115.0718745525
 20
94.3991068897
 10
115.0591796036
 20
94.1656388325
 10
115.0484520191
 20
93.9310709813
 10
115.0396945465
 20
93.6955861069
 10
115.0329095247
 20
93.4593670041
 10
115.0280988408
 20
93.2225950634
 10
115.0252637877
 20
92.9854259071
 10
115.0244017376
 20
92.7638179189
  0
LWPOLYLINE
  5
337
100
AcDbEntity
  8
0
100
AcDbPolyline
 62
7
  6
CONTINUOUS
 90
3
 70
0
 10
126.0603279924
 20
37.026514265
 10
126.0699457905
 20
37.0055273012
 10
126.0854546708
 20
36.9721909359
  0
LWPOLYLINE
  5
338
100
AcDbEntity
  8
0
100
AcDbPolyline
 62
7
  6
CONTINUOUS
 90
9
 70
0
 10
126.0854648625
 20
36.9721692336
 10
126.0946229893
 20
36.9518585294
 10
126.1040044703
 20
36.9288471498
 10
126.1112039736
 20
36.9087275643
 10
126.1164117514
 20
36.8917133541
 10
126.1198786939
 20
36.8779753487
 10
126.1219265074
 20
36.8675553871
 10
126.1229035873
 20
36.8605049292
 10
126.1231763406
 20
36.8572598979
  0
LWPOLYLINE
  5
339
100
AcDbEntity
  8
0
100
AcDbPolyline
 62
7
  6
CONTINUOUS
 90
3
 70
0
 10
126.0359697531
 20
37.0807597629
 10
126.0412669371
 20
37.068828152
 10
126.0603279924
 20
37.026514265
  0
LWPOLYLINE
  5
33A
100
AcDbEntity
  8
0
100
AcDbPolyline
 62
7
  6
CONTINUOUS
 90
9
 70
0
 10
104.4737270967
 20
96.4056049814
 10
104.4699632628
 20
96.4303359236
 10
104.4637990304
 20
96.466461929
 10
104.4569054816
 20
96.5019883005
 10
104.4492489588
 20
96.5369071744
 10
104.4407799419
 20
96.5712426247
 10
104.4314368783
 20
96.6050191163
 10
104.4211337684
 20
96.6382952635
 10
104.4137044673
 20
96.6601616846
  0
LINE
  5
33B
100
AcDbEntity
  8
0
100
AcDbLine
 62
7
  6
CONTINUOUS
 10
114.7211763644
 20
42.7638179189
 11
114.7211763644
 21
45.78113371
  0
LINE
  5
33C
100
AcDbEntity
  8
0
100
AcDbLine
 62
7
  6
CONTINUOUS
 10
115.0244017373
 20
92.7638179189
 11
115.0244017373
 21
89.7465021279
  0
LWPOLYLINE
  5
33D
100
AcDbEntity
  8
0
100
AcDbPolyline
 62
7
  6
CONTINUOUS
 90
35
 70
0
 10
115.0244017361
 20
89.7465021279
 10
115.0232304951
 20
89.672377262
 10
115.0186148324
 20
89.5823025699
 10
115.0107123913
 20
89.4949623437
 10
114.9997538685
 20
89.4105072108
 10
114.985971435
 20
89.3291025267
 10
114.9695885807
 20
89.2508720218
 10
114.9508224936
 20
89.1759114652
 10
114.9299011348
 20
89.1043458698
 10
114.9070510812
 20
89.0362652866
 10
114.8825077564
 20
88.971757618
 10
114.8565315455
 20
88.9109349307
 10
114.8292961129
 20
88.8536881958
 10
114.80103482
 20
88.800044099
 10
114.7717571518
 20
88.749635099
 10
114.7414726284
 20
88.7022010034
 10
114.7101993125
 20
88.6575678105
 10
114.6778617611
 20
88.6154949797
 10
114.6445925199
 20
88.5760553604
 10
114.6104573939
 20
88.5392293405
 10
114.5755558903
 20
88.505033234
 10
114.5399799748
 20
88.4734671773
 10
114.50379316
 20
88.4445023819
 10
114.4670525779
 20
88.4181068816
 10
114.429812439
 20
88.3942482324
 10
114.3921191815
 20
88.3728902068
 10
114.3539774197
 20
88.3539781511
 10
114.3153625503
 20
88.3374563249
 10
114.2763200645
 20
88.3233078604
 10
114.2368657656
 20
88.3115038553
 10
114.197008623
 20
88.3020166984
 10
114.1567578621
 20
88.2948225443
 10
114.1161128433
 20
88.289899996
 10
114.075072318
 20
88.28723323
 10
114.0466454217
 20
88.2867029611
  0
LWPOLYLINE
  5
33E
100
AcDbEntity
  8
0
100
AcDbPolyline
 62
7
  6
CONTINUOUS
 90
35
 70
0
 10
114.7211763655
 20
45.78113371
 10
114.7223476066
 20
45.855258576
 10
114.7269632693
 20
45.9453332681
 10
114.7348657104
 20
46.0326734944
 10
114.7458242332
 20
46.1171286273
 10
114.7596066668
 20
46.1985333115
 10
114.775989521
 20
46.2767638164
 10
114.7947556082
 20
46.3517243731
 10
114.815676967
 20
46.4232899685
 10
114.8385270206
 20
46.4913705517
 10
114.8630703455
 20
46.5558782204
 10
114.8890465564
 20
46.6167009077
 10
114.916281989
 20
46.6739476426
 10
114.9445432819
 20
46.7275917394
 10
114.9738209502
 20
46.7780007394
 10
115.0041054736
 20
46.825434835
 10
115.0353787895
 20
46.8700680279
 10
115.067716341
 20
46.9121408587
 10
115.1009855822
 20
46.951580478
 10
115.1351207083
 20
46.9884064979
 10
115.1700222119
 20
47.0226026043
 10
115.2055981275
 20
47.0541686611
 10
115.2417849423
 20
47.0831334565
 10
115.2785255244
 20
47.1095289568
 10
115.3157656634
 20
47.1333876059
 10
115.3534589209
 20
47.1547456314
 10
115.3916006828
 20
47.1736576871
 10
115.4302155522
 20
47.1901795133
 10
115.469258038
 20
47.2043279777
 10
115.5087123368
 20
47.2161319828
 10
115.5485694794
 20
47.2256191396
 10
115.5888202402
 20
47.2328132937
 10
115.6294652588
 20
47.2377358419
 10
115.6705057839
 20
47.2404026079
 10
115.69893268
 20
47.2409328768
  0
LINE
  5
33F
100
AcDbEntity
  8
0
100
AcDbLine
 62
7
  6
CONTINUOUS
 10
116.1295200459
 20
98.7768527091
 11
116.1231759739
 21
98.6703694414
  0
LINE
  5
340
100
AcDbEntity
  8
0
100
AcDbLine
 62
7
  6
CONTINUOUS
 10
113.6160583553
 20
36.7507879237
 11
113.6224021277
 21
36.8572663963
  0
LINE
  5
341
100
AcDbEntity
  8
0
100
AcDbLine
 62
7
  6
CONTINUOUS
 10
116.1344783854
 20
98.8533064075
 11
116.1295200459
 21
98.7768527091
  0
LINE
  5
342
100
AcDbEntity
  8
0
100
AcDbLine
 62
7
  6
CONTINUOUS
 10
113.6111002987
 20
36.6743380728
 11
113.6160583553
 21
36.7507879237
  0
LINE
  5
343
100
AcDbEntity
  8
0
100
AcDbLine
 62
7
  6
CONTINUOUS
 10
116.1393739771
 20
98.923203169
 11
116.1344783854
 21
98.8533064075
  0
LINE
  5
344
100
AcDbEntity
  8
0
100
AcDbLine
 62
7
  6
CONTINUOUS
 10
113.6062050344
 20
36.6044451561
 11
113.6111002987
 21
36.6743380728
  0
LINE
  5
345
100
AcDbEntity
  8
0
100
AcDbLine
 62
7
  6
CONTINUOUS
 10
116.1442176917
 20
98.9870905714
 11
116.1393739771
 21
98.923203169
  0
LINE
  5
346
100
AcDbEntity
  8
0
100
AcDbLine
 62
7
  6
CONTINUOUS
 10
113.6013616885
 20
36.540561455
 11
113.6062050344
 21
36.6044451561
  0
LINE
  5
347
100
AcDbEntity
  8
0
100
AcDbLine
 62
7
  6
CONTINUOUS
 10
116.1474246445
 20
99.0265971121
 11
116.1442176917
 21
98.9870905714
  0
LINE
  5
348
100
AcDbEntity
  8
0
100
AcDbLine
 62
7
  6
CONTINUOUS
 10
113.5981550045
 20
36.5010572609
 11
113.6013616885
 21
36.540561455
  0
LWPOLYLINE
  5
349
100
AcDbEntity
  8
0
100
AcDbPolyline
 62
7
  6
CONTINUOUS
 90
9
 70
0
 10
116.1231763678
 20
98.6703764066
 10
116.1229139654
 20
98.6672293395
 10
116.1219520599
 20
98.6602348623
 10
116.1199253025
 20
98.6498694459
 10
116.1164845858
 20
98.6361843471
 10
116.111307583
 20
98.6192211751
 10
116.104143095
 20
98.5991514923
 10
116.0948007956
 20
98.5761896883
 10
116.0854641943
 20
98.5554651811
  0
LWPOLYLINE
  5
34A
100
AcDbEntity
  8
0
100
AcDbPolyline
 62
7
  6
CONTINUOUS
 90
9
 70
0
 10
113.6224017339
 20
36.8572594312
 10
113.6226641363
 20
36.8604064984
 10
113.6236260418
 20
36.8674009757
 10
113.6256527992
 20
36.8777663921
 10
113.6290935159
 20
36.8914514911
 10
113.6342705188
 20
36.9084146631
 10
113.6414350068
 20
36.9284843459
 10
113.6507773062
 20
36.9514461498
 10
113.6601139074
 20
36.9721706568
  0
LINE
  5
34B
100
AcDbEntity
  8
0
100
AcDbLine
 62
7
  6
CONTINUOUS
 10
116.1506198681
 20
99.0638081908
 11
116.1474246445
 21
99.0265971121
  0
LINE
  5
34C
100
AcDbEntity
  8
0
100
AcDbLine
 62
7
  6
CONTINUOUS
 10
113.5949600693
 20
36.4638484198
 11
113.5981550045
 21
36.5010572609
  0
LINE
  5
34D
100
AcDbEntity
  8
0
100
AcDbLine
 62
7
  6
CONTINUOUS
 10
116.1538099699
 20
99.0988700486
 11
116.1506198681
 21
99.0638081908
  0
LINE
  5
34E
100
AcDbEntity
  8
0
100
AcDbLine
 62
7
  6
CONTINUOUS
 10
113.5917702776
 20
36.4287886834
 11
113.5949600693
 21
36.4638484198
  0
LINE
  5
34F
100
AcDbEntity
  8
0
100
AcDbLine
 62
7
  6
CONTINUOUS
 10
116.1570031807
 20
99.1319282066
 11
116.1538099699
 21
99.0988700486
  0
LWPOLYLINE
  5
350
100
AcDbEntity
  8
0
100
AcDbPolyline
 62
7
  6
CONTINUOUS
 90
3
 70
0
 10
113.5869766325
 20
36.379909629
 10
113.5885774058
 20
36.3957325762
 10
113.5917702776
 20
36.4287886834
  0
LINE
  5
351
100
AcDbEntity
  8
0
100
AcDbLine
 62
7
  6
CONTINUOUS
 10
116.1602098898
 20
99.1631298434
 11
116.1570031807
 21
99.1319282066
  0
LWPOLYLINE
  5
352
100
AcDbEntity
  8
0
100
AcDbPolyline
 62
7
  6
CONTINUOUS
 90
3
 70
0
 10
116.1650761828
 20
99.2067886115
 10
116.1634436788
 20
99.1926279948
 10
116.1602098898
 20
99.1631298434
  0
LINE
  5
353
100
AcDbEntity
  8
0
100
AcDbLine
 62
7
  6
CONTINUOUS
 10
134.0466454215
 20
88.2867111377
 11
125.6990017431
 21
88.2867111377
  0
LINE
  5
354
100
AcDbEntity
  8
0
100
AcDbLine
 62
7
  6
CONTINUOUS
 10
114.0466454215
 20
88.2867111377
 11
105.6990017431
 21
88.2867111377
  0
LINE
  5
355
100
AcDbEntity
  8
0
100
AcDbLine
 62
7
  6
CONTINUOUS
 10
94.0466454215
 20
88.2867111377
 11
85.6990017431
 21
88.2867111377
  0
LINE
  5
356
100
AcDbEntity
  8
0
100
AcDbLine
 62
7
  6
CONTINUOUS
 10
74.0466454215
 20
88.2867111377
 11
65.6990017431
 21
88.2867111377
  0
LINE
  5
357
100
AcDbEntity
  8
RUNDUNGEN
100
AcDbLine
 62
7
  6
CONTINUOUS
 10
45.3727890508
 20
88.2867111377
 11
54.0466382734
 21
88.2867111377
  0
LWPOLYLINE
  5
358
100
AcDbEntity
  8
0
100
AcDbPolyline
 62
7
  6
CONTINUOUS
 90
35
 70
0
 10
65.6990017642
 20
88.2867039954
 10
65.6716901202
 20
88.2871930952
 10
65.6306063135
 20
88.2898015112
 10
65.5899236054
 20
88.2946681082
 10
65.5496396692
 20
88.3018079073
 10
65.5097531845
 20
88.3112416219
 10
65.4702723113
 20
88.3229926853
 10
65.4312048555
 20
88.3370885618
 10
65.3925659635
 20
88.353558048
 10
65.3544002553
 20
88.3724182095
 10
65.3166825191
 20
88.393724918
 10
65.2794166524
 20
88.4175332225
 10
65.2426487364
 20
88.4438797449
 10
65.2064322772
 20
88.4727977402
 10
65.1708251591
 20
88.5043188891
 10
65.1358907981
 20
88.5384723239
 10
65.1017230631
 20
88.5752561269
 10
65.0684227169
 20
88.6146522201
 10
65.036056391
 20
88.6566782907
 10
65.0047582152
 20
88.7012580397
 10
64.9744503743
 20
88.7486331895
 10
64.9451502647
 20
88.7989769523
 10
64.9168642285
 20
88.8525534729
 10
64.88959972
 20
88.9097335197
 10
64.8635888548
 20
88.970494403
 10
64.8390035649
 20
89.0349519031
 10
64.8161065795
 20
89.1029917963
 10
64.7951343441
 20
89.1745268573
 10
64.7763151848
 20
89.2494643628
 10
64.7598781302
 20
89.3276773216
 10
64.7460410771
 20
89.4090673094
 10
64.7350274516
 20
89.4935090235
 10
64.7270689138
 20
89.5808342106
 10
64.7223957901
 20
89.6708878318
 10
64.7211763643
 20
89.7465191701
  0
LWPOLYLINE
  5
359
100
AcDbEntity
  8
0
100
AcDbPolyline
 62
7
  6
CONTINUOUS
 90
35
 70
0
 10
85.6990017642
 20
88.2867039954
 10
85.6716901202
 20
88.2871930952
 10
85.6306063135
 20
88.2898015112
 10
85.5899236054
 20
88.2946681082
 10
85.5496396692
 20
88.3018079073
 10
85.5097531845
 20
88.3112416219
 10
85.4702723113
 20
88.3229926853
 10
85.4312048555
 20
88.3370885618
 10
85.3925659635
 20
88.353558048
 10
85.3544002553
 20
88.3724182095
 10
85.3166825191
 20
88.393724918
 10
85.2794166524
 20
88.4175332225
 10
85.2426487364
 20
88.4438797449
 10
85.2064322772
 20
88.4727977402
 10
85.1708251591
 20
88.5043188891
 10
85.1358907981
 20
88.5384723239
 10
85.1017230631
 20
88.5752561269
 10
85.0684227169
 20
88.6146522201
 10
85.036056391
 20
88.6566782907
 10
85.0047582152
 20
88.7012580397
 10
84.9744503743
 20
88.7486331895
 10
84.9451502647
 20
88.7989769523
 10
84.9168642285
 20
88.8525534729
 10
84.88959972
 20
88.9097335197
 10
84.8635888548
 20
88.970494403
 10
84.8390035649
 20
89.0349519031
 10
84.8161065795
 20
89.1029917963
 10
84.7951343441
 20
89.1745268573
 10
84.7763151848
 20
89.2494643628
 10
84.7598781302
 20
89.3276773216
 10
84.7460410771
 20
89.4090673094
 10
84.7350274516
 20
89.4935090235
 10
84.7270689138
 20
89.5808342106
 10
84.7223957901
 20
89.6708878318
 10
84.7211763643
 20
89.7465191701
  0
LWPOLYLINE
  5
35A
100
AcDbEntity
  8
0
100
AcDbPolyline
 62
7
  6
CONTINUOUS
 90
35
 70
0
 10
105.6990017642
 20
88.2867039954
 10
105.6716901202
 20
88.2871930952
 10
105.6306063135
 20
88.2898015112
 10
105.5899236054
 20
88.2946681082
 10
105.5496396692
 20
88.3018079073
 10
105.5097531845
 20
88.3112416219
 10
105.4702723113
 20
88.3229926853
 10
105.4312048555
 20
88.3370885618
 10
105.3925659635
 20
88.353558048
 10
105.3544002553
 20
88.3724182095
 10
105.3166825191
 20
88.393724918
 10
105.2794166524
 20
88.4175332225
 10
105.2426487364
 20
88.4438797449
 10
105.2064322772
 20
88.4727977402
 10
105.1708251591
 20
88.5043188891
 10
105.1358907981
 20
88.5384723239
 10
105.1017230631
 20
88.5752561269
 10
105.0684227169
 20
88.6146522201
 10
105.036056391
 20
88.6566782907
 10
105.0047582152
 20
88.7012580397
 10
104.9744503743
 20
88.7486331895
 10
104.9451502647
 20
88.7989769523
 10
104.9168642285
 20
88.8525534729
 10
104.88959972
 20
88.9097335197
 10
104.8635888548
 20
88.970494403
 10
104.8390035649
 20
89.0349519031
 10
104.8161065795
 20
89.1029917963
 10
104.7951343441
 20
89.1745268573
 10
104.7763151848
 20
89.2494643628
 10
104.7598781302
 20
89.3276773216
 10
104.7460410771
 20
89.4090673094
 10
104.7350274516
 20
89.4935090235
 10
104.7270689138
 20
89.5808342106
 10
104.7223957901
 20
89.6708878318
 10
104.7211763643
 20
89.7465191701
  0
LWPOLYLINE
  5
35B
100
AcDbEntity
  8
0
100
AcDbPolyline
 62
7
  6
CONTINUOUS
 90
35
 70
0
 10
125.6990017642
 20
88.2867039954
 10
125.6716901202
 20
88.2871930952
 10
125.6306063135
 20
88.2898015112
 10
125.5899236054
 20
88.2946681082
 10
125.5496396692
 20
88.3018079073
 10
125.5097531845
 20
88.3112416219
 10
125.4702723113
 20
88.3229926853
 10
125.4312048555
 20
88.3370885618
 10
125.3925659635
 20
88.353558048
 10
125.3544002553
 20
88.3724182095
 10
125.3166825191
 20
88.393724918
 10
125.2794166524
 20
88.4175332225
 10
125.2426487364
 20
88.4438797449
 10
125.2064322772
 20
88.4727977402
 10
125.1708251591
 20
88.5043188891
 10
125.1358907981
 20
88.5384723239
 10
125.1017230631
 20
88.5752561269
 10
125.0684227169
 20
88.6146522201
 10
125.036056391
 20
88.6566782907
 10
125.0047582152
 20
88.7012580397
 10
124.9744503743
 20
88.7486331895
 10
124.9451502647
 20
88.7989769523
 10
124.9168642285
 20
88.8525534729
 10
124.88959972
 20
88.9097335197
 10
124.8635888548
 20
88.970494403
 10
124.8390035649
 20
89.0349519031
 10
124.8161065795
 20
89.1029917963
 10
124.7951343441
 20
89.1745268573
 10
124.7763151848
 20
89.2494643628
 10
124.7598781302
 20
89.3276773216
 10
124.7460410771
 20
89.4090673094
 10
124.7350274516
 20
89.4935090235
 10
124.7270689138
 20
89.5808342106
 10
124.7223957901
 20
89.6708878318
 10
124.7211763643
 20
89.7465191701
  0
LWPOLYLINE
  5
35C
100
AcDbEntity
  8
0
100
AcDbPolyline
 62
7
  6
CONTINUOUS
 90
3
 70
0
 10
103.6852501092
 20
98.5011215729
 10
103.6756323111
 20
98.5221085366
 10
103.6601234309
 20
98.555444902
  0
LWPOLYLINE
  5
35D
100
AcDbEntity
  8
0
100
AcDbPolyline
 62
7
  6
CONTINUOUS
 90
9
 70
0
 10
103.6601132392
 20
98.5554666042
 10
103.6509551124
 20
98.5757773084
 10
103.6415736314
 20
98.5987886881
 10
103.634374128
 20
98.6189082736
 10
103.6291663503
 20
98.6359224838
 10
103.6256994077
 20
98.6496604892
 10
103.6236515942
 20
98.6600804508
 10
103.6226745143
 20
98.6671309086
 10
103.6224017611
 20
98.6703759399
  0
LWPOLYLINE
  5
35E
100
AcDbEntity
  8
0
100
AcDbPolyline
 62
7
  6
CONTINUOUS
 90
3
 70
0
 10
103.7096083486
 20
98.4468760749
 10
103.7043111645
 20
98.4588076858
 10
103.6852501092
 20
98.5011215729
  0
LWPOLYLINE
  5
35F
100
AcDbEntity
  8
0
100
AcDbPolyline
 62
7
  6
CONTINUOUS
 90
7
 70
0
 10
104.4137231531
 20
96.6601086859
 10
104.3033320548
 20
96.9677688695
 10
104.1874133769
 20
97.2792366783
 10
104.0697026112
 20
97.5838266414
 10
103.9502103262
 20
97.8814262381
 10
103.8289458336
 20
98.1719245199
 10
103.709607955
 20
98.4468769642
  0
LWPOLYLINE
  5
360
100
AcDbEntity
  8
0
100
AcDbPolyline
 62
7
  6
CONTINUOUS
 90
7
 70
0
 10
125.3318549486
 20
38.867527152
 10
125.4422460469
 20
38.5598669684
 10
125.5581647248
 20
38.2483991596
 10
125.6758754904
 20
37.9438091964
 10
125.7953677755
 20
37.6462095998
 10
125.9166322681
 20
37.355711318
 10
126.0359701467
 20
37.0807588737
  0
LINE
  5
361
100
AcDbEntity
  8
0
100
AcDbLine
 62
7
  6
CONTINUOUS
 10
104.4137044672
 20
96.6601616845
 11
104.4137231531
 21
96.6601086859
  0
LINE
  5
362
100
AcDbEntity
  8
0
100
AcDbLine
 62
7
  6
CONTINUOUS
 10
125.3318736345
 20
38.8674741534
 11
125.3318549486
 21
38.867527152
  0
LINE
  5
363
100
AcDbEntity
  8
0
100
AcDbLine
 62
7
  6
CONTINUOUS
 10
113.5837586032
 20
36.3495803742
 11
113.5869766325
 21
36.379909629
  0
LINE
  5
364
100
AcDbEntity
  8
0
100
AcDbLine
 62
7
  6
CONTINUOUS
 10
113.5805048793
 20
36.3208736487
 11
113.5837586032
 21
36.3495803742
  0
LWPOLYLINE
  5
365
100
AcDbEntity
  8
0
100
AcDbPolyline
 62
7
  6
CONTINUOUS
 90
17
 70
0
 10
114.4737247205
 20
39.1220144656
 10
114.5017584052
 20
39.3222860781
 10
114.5300564545
 20
39.5403940909
 10
114.5564172452
 20
39.7610430976
 10
114.580839159
 20
39.9840738272
 10
114.6033174112
 20
40.2093030916
 10
114.6238472676
 20
40.4365466707
 10
114.6424242893
 20
40.6656210055
 10
114.6590443276
 20
40.8963428088
 10
114.6737035489
 20
41.1285289444
 10
114.6863984979
 20
41.3619970021
 10
114.6971260825
 20
41.5965648538
 10
114.7058835551
 20
41.8320497288
 10
114.7126685769
 20
42.0682688322
 10
114.7174792609
 20
42.3050407735
 10
114.720314314
 20
42.5422099303
 10
114.7211763641
 20
42.7638179189
  0
LWPOLYLINE
  5
366
100
AcDbEntity
  8
0
100
AcDbPolyline
 62
7
  6
CONTINUOUS
 90
7
 70
0
 10
136.035970177
 20
98.4468770327
 10
135.9169602345
 20
98.1726948324
 10
135.7956916954
 20
97.882217478
 10
135.676195271
 20
97.584638468
 10
135.5584803146
 20
97.2800688535
 10
135.4425574648
 20
96.9686213461
 10
135.3318549645
 20
96.660108731
  0
LWPOLYLINE
  5
367
100
AcDbEntity
  8
0
100
AcDbPolyline
 62
7
  6
CONTINUOUS
 90
4
 70
0
 10
136.070294781
 20
98.5228655301
 10
136.0606753468
 20
98.501883749
 10
136.0511143271
 20
98.4807885187
 10
136.0359697581
 20
98.4468760863
  0
LINE
  5
368
100
AcDbEntity
  8
0
100
AcDbLine
 62
7
  6
CONTINUOUS
 10
136.0854546774
 20
98.5554449163
 11
136.070294781
 21
98.5228655301
  0
LINE
  5
369
100
AcDbEntity
  8
02___PRT_ALL_AXES
100
AcDbLine
 62
7
  6
CENTER
 10
147.0819532241
 20
92.7638179189
 11
52.6636248776
 21
92.7638179189
  0
LWPOLYLINE
  5
36A
100
AcDbEntity
  8
0
100
AcDbPolyline
 62
7
  6
CONTINUOUS
 90
9
 70
0
 10
125.2718510049
 20
39.1220308564
 10
125.2756148388
 20
39.0972999144
 10
125.2817790712
 20
39.061173909
 10
125.2886726201
 20
39.0256475375
 10
125.2963291429
 20
38.9907286637
 10
125.3047981597
 20
38.9563932134
 10
125.3141412233
 20
38.9226167217
 10
125.3244443332
 20
38.8893405744
 10
125.3318736343
 20
38.8674741533
  0
LINE
  5
36B
100
AcDbEntity
  8
0
100
AcDbLine
 62
7
  6
CONTINUOUS
 10
126.1585839856
 20
36.380079779
 11
126.1618032785
 21
36.3497282228
  0
LINE
  5
36C
100
AcDbEntity
  8
0
100
AcDbLine
 62
7
  6
CONTINUOUS
 10
126.1553844198
 20
36.4122146291
 11
126.1585839856
 21
36.380079779
  0
LINE
  5
36D
100
AcDbEntity
  8
0
100
AcDbLine
 62
7
  6
CONTINUOUS
 10
126.1521927963
 20
36.4462821958
 11
126.1553844198
 21
36.4122146291
  0
LINE
  5
36E
100
AcDbEntity
  8
0
100
AcDbLine
 62
7
  6
CONTINUOUS
 10
126.1489999031
 20
36.4824284376
 11
126.1521927963
 21
36.4462821958
  0
LINE
  5
36F
100
AcDbEntity
  8
0
100
AcDbLine
 62
7
  6
CONTINUOUS
 10
126.1457983571
 20
36.5207994068
 11
126.1489999031
 21
36.4824284376
  0
LINE
  5
370
100
AcDbEntity
  8
0
100
AcDbLine
 62
7
  6
CONTINUOUS
 10
126.1409672068
 20
36.582849235
 11
126.1457983571
 21
36.5207994068
  0
LINE
  5
371
100
AcDbEntity
  8
0
100
AcDbLine
 62
7
  6
CONTINUOUS
 10
126.1360882974
 20
36.6507411546
 11
126.1409672068
 21
36.582849235
  0
LINE
  5
372
100
AcDbEntity
  8
0
100
AcDbLine
 62
7
  6
CONTINUOUS
 10
126.1311498545
 20
36.7250110056
 11
126.1360882974
 21
36.6507411546
  0
LINE
  5
373
100
AcDbEntity
  8
0
100
AcDbLine
 62
7
  6
CONTINUOUS
 10
126.1261432102
 20
36.8062248459
 11
126.1311498545
 21
36.7250110056
  0
LINE
  5
374
100
AcDbEntity
  8
0
100
AcDbLine
 62
7
  6
CONTINUOUS
 10
126.123175973
 20
36.8572664131
 11
126.1261432102
 21
36.8062248459
  0
LWPOLYLINE
  5
375
100
AcDbEntity
  8
0
100
AcDbPolyline
 62
7
  6
CONTINUOUS
 90
17
 70
0
 10
124.7211763641
 20
92.7638179189
 10
124.7203252772
 20
92.9840125312
 10
124.7175019705
 20
93.2211851162
 10
124.7127029905
 20
93.4579617281
 10
124.7059296253
 20
93.6941867259
 10
124.6971837558
 20
93.9296787158
 10
124.6864677168
 20
94.1642548565
 10
124.6737842522
 20
94.3977323407
 10
124.6591364516
 20
94.6299290124
 10
124.6425277687
 20
94.860662433
 10
124.6239620363
 20
95.0897494365
 10
124.6034434034
 20
95.3170067084
 10
124.5809763105
 20
95.542250661
 10
124.556565494
 20
95.7652970494
 10
124.5302157421
 20
95.9859626613
 10
124.5019286814
 20
96.2040881869
 10
124.4737247267
 20
96.4056213291
  0
LWPOLYLINE
  5
376
100
AcDbEntity
  8
0
100
AcDbPolyline
 62
7
  6
CONTINUOUS
 90
17
 70
0
 10
125.0244017376
 20
42.7638179189
 10
125.0252528245
 20
42.5436233067
 10
125.0280761312
 20
42.3064507216
 10
125.0328751112
 20
42.0696741097
 10
125.0396484764
 20
41.8334491119
 10
125.0483943458
 20
41.5979571219
 10
125.0591103849
 20
41.3633809812
 10
125.0717938495
 20
41.129903497
 10
125.0864416501
 20
40.8977068252
 10
125.103050333
 20
40.6669734045
 10
125.1216160654
 20
40.437886401
 10
125.1421346983
 20
40.2106291291
 10
125.1646017912
 20
39.9853851765
 10
125.1890126077
 20
39.7623387882
 10
125.2153623596
 20
39.5416731763
 10
125.2436494203
 20
39.3235476509
 10
125.2718533749
 20
39.1220145088
  0
LINE
  5
377
100
AcDbEntity
  8
0
100
AcDbLine
 62
7
  6
CONTINUOUS
 10
124.7211763644
 20
89.7465191701
 11
124.7211763644
 21
92.7638179189
  0
LINE
  5
378
100
AcDbEntity
  8
0
100
AcDbLine
 62
7
  6
CONTINUOUS
 10
125.0244017373
 20
45.7811160637
 11
125.0244017373
 21
42.7638179189
  0
LWPOLYLINE
  5
379
100
AcDbEntity
  8
0
100
AcDbPolyline
 62
7
  6
CONTINUOUS
 90
9
 70
0
 10
114.4137038034
 20
38.8674722709
 10
114.4207756648
 20
38.8882485619
 10
114.431094881
 20
38.9214502184
 10
114.4404619651
 20
38.9551783809
 10
114.4489609335
 20
38.9894930082
 10
114.4566517427
 20
39.0244205564
 10
114.4635826389
 20
39.0599880637
 10
114.4697859624
 20
39.0961905348
 10
114.4737269189
 20
39.1220296337
  0
LWPOLYLINE
  5
37A
100
AcDbEntity
  8
0
100
AcDbPolyline
 62
7
  6
CONTINUOUS
 90
9
 70
0
 10
135.3318742983
 20
96.660163567
 10
135.3248024368
 20
96.6393872759
 10
135.3144832206
 20
96.6061856193
 10
135.3051161365
 20
96.5724574568
 10
135.2966171681
 20
96.5381428295
 10
135.288926359
 20
96.5032152812
 10
135.2819954627
 20
96.467647774
 10
135.2757921393
 20
96.431445303
 10
135.2718511828
 20
96.4056062042
  0
LINE
  5
37B
100
AcDbEntity
  8
0
100
AcDbLine
 62
7
  6
CONTINUOUS
 10
114.4137038034
 20
38.8674722709
 11
114.4137231373
 21
38.8675271068
  0
LINE
  5
37C
100
AcDbEntity
  8
0
100
AcDbLine
 62
7
  6
CONTINUOUS
 10
135.3318742983
 20
96.660163567
 11
135.3318549644
 21
96.6601087311
  0
LWPOLYLINE
  5
37D
100
AcDbEntity
  8
0
100
AcDbPolyline
 62
7
  6
CONTINUOUS
 90
7
 70
0
 10
113.7096079247
 20
37.0807588051
 10
113.8286178672
 20
37.3549410055
 10
113.9498864063
 20
37.6454183599
 10
114.0693828307
 20
37.9429973699
 10
114.1870977871
 20
38.2475669843
 10
114.3030206368
 20
38.5590144918
 10
114.4137231372
 20
38.8675271068
  0
LWPOLYLINE
  5
37E
100
AcDbEntity
  8
0
100
AcDbPolyline
 62
7
  6
CONTINUOUS
 90
4
 70
0
 10
113.6752833206
 20
37.0047703077
 10
113.6849027549
 20
37.0257520888
 10
113.6944637745
 20
37.0468473191
 10
113.7096083436
 20
37.0807597515
  0
LINE
  5
37F
100
AcDbEntity
  8
0
100
AcDbLine
 62
7
  6
CONTINUOUS
 10
113.6601234242
 20
36.9721909216
 11
113.6752833206
 21
37.0047703077
  0
LWPOLYLINE
  5
380
100
AcDbEntity
  8
0
100
AcDbPolyline
 62
7
  6
CONTINUOUS
 90
47
 70
0
 10
126.1683683317
 20
36.2937389707
 10
126.1700525208
 20
36.2806011913
 10
126.1717616719
 20
36.2677596076
 10
126.1735006438
 20
36.2551893599
 10
126.1752746361
 20
36.2428672418
 10
126.1770900953
 20
36.2307659499
 10
126.1789521305
 20
36.2188715532
 10
126.1808669247
 20
36.2071667666
 10
126.1828429813
 20
36.19562481
 10
126.1848891444
 20
36.1842226533
 10
126.1870181358
 20
36.1729224045
 10
126.1892431445
 20
36.1616922514
 10
126.1915826106
 20
36.1504835964
 10
126.1940559033
 20
36.1392554573
 10
126.1966894148
 20
36.1279485488
 10
126.1995109434
 20
36.1165139339
 10
126.2025587273
 20
36.1048788985
 10
126.2058732819
 20
36.092984595
 10
126.2095090383
 20
36.080747291
 10
126.2135255473
 20
36.0680964037
 10
126.2179957882
 20
36.0549515741
 10
126.2230071674
 20
36.0412283617
 10
126.2286393837
 20
36.0269003928
 10
126.234994077
 20
36.0119183295
 10
126.242154587
 20
35.9963076744
 10
126.2502263561
 20
35.980069039
 10
126.2592858589
 20
35.9632820796
 10
126.2694073465
 20
35.9460359892
 10
126.2807054569
 20
35.9283630861
 10
126.293283171
 20
35.9103357264
 10
126.307262385
 20
35.8920183634
 10
126.322762184
 20
35.8735019866
 10
126.3399020842
 20
35.8548978181
 10
126.3588380379
 20
35.8363035055
 10
126.3795660244
 20
35.8179852966
 10
126.4021183557
 20
35.8001580462
 10
126.4264092475
 20
35.7831097333
 10
126.4523453815
 20
35.7670938084
 10
126.4797831704
 20
35.7523562301
 10
126.5085373557
 20
35.7391204291
 10
126.5384462568
 20
35.7275569582
 10
126.5693034841
 20
35.7178179838
 10
126.6009196061
 20
35.7100138881
 10
126.6330823997
 20
35.7042291611
 10
126.6655706425
 20
35.7005167572
 10
126.6981100201
 20
35.698898072
 10
126.7071509907
 20
35.6988179214
  0
LINE
  5
381
100
AcDbEntity
  8
0
100
AcDbLine
 62
7
  6
CONTINUOUS
 10
126.165057865
 20
36.3210031936
 11
126.1683683317
 21
36.2937389707
  0
LINE
  5
382
100
AcDbEntity
  8
0
100
AcDbLine
 62
7
  6
CONTINUOUS
 10
126.1618032785
 20
36.3497282228
 11
126.165057865
 21
36.3210031936
  0
LINE
  5
383
100
AcDbEntity
  8
0
100
AcDbLine
 62
7
  6
CONTINUOUS
 10
123.5869967933
 20
99.1475299956
 11
123.5837777997
 21
99.1778803732
  0
LINE
  5
384
100
AcDbEntity
  8
0
100
AcDbLine
 62
7
  6
CONTINUOUS
 10
123.5901960066
 20
99.1153971323
 11
123.5869967933
 21
99.1475299956
  0
LINE
  5
385
100
AcDbEntity
  8
0
100
AcDbLine
 62
7
  6
CONTINUOUS
 10
123.5933873095
 20
99.0813316081
 11
123.5901960066
 21
99.1153971323
  0
LINE
  5
386
100
AcDbEntity
  8
0
100
AcDbLine
 62
7
  6
CONTINUOUS
 10
123.5965799017
 20
99.0451875575
 11
123.5933873095
 21
99.0813316081
  0
LINE
  5
387
100
AcDbEntity
  8
0
100
AcDbLine
 62
7
  6
CONTINUOUS
 10
123.5997811682
 20
99.0068188874
 11
123.5965799017
 21
99.0451875575
  0
LINE
  5
388
100
AcDbEntity
  8
0
100
AcDbLine
 62
7
  6
CONTINUOUS
 10
123.604611934
 20
98.9447727094
 11
123.5997811682
 21
99.0068188874
  0
LINE
  5
389
100
AcDbEntity
  8
0
100
AcDbLine
 62
7
  6
CONTINUOUS
 10
123.6094904989
 20
98.8768846337
 11
123.604611934
 21
98.9447727094
  0
LINE
  5
38A
100
AcDbEntity
  8
0
100
AcDbLine
 62
7
  6
CONTINUOUS
 10
123.6144286413
 20
98.8026186765
 11
123.6094904989
 21
98.8768846337
  0
LINE
  5
38B
100
AcDbEntity
  8
0
100
AcDbLine
 62
7
  6
CONTINUOUS
 10
123.6194350286
 20
98.7214086836
 11
123.6144286413
 21
98.8026186765
  0
LINE
  5
38C
100
AcDbEntity
  8
0
100
AcDbLine
 62
7
  6
CONTINUOUS
 10
123.6224021287
 20
98.6703694249
 11
123.6194350286
 21
98.7214086836
  0
LWPOLYLINE
  5
38D
100
AcDbEntity
  8
RUNDUNGEN
100
AcDbPolyline
 62
7
  6
CONTINUOUS
 90
50
 70
0
 10
56.7072397905
 20
99.8288179165
 10
56.6967392991
 20
99.8287098159
 10
56.6642355112
 20
99.8270009664
 10
56.6317996737
 20
99.8232046836
 10
56.5997026414
 20
99.8173446946
 10
56.5681628518
 20
99.8094755888
 10
56.5373895477
 20
99.7996828606
 10
56.5075692827
 20
99.7880772935
 10
56.4789052607
 20
99.7748107649
 10
56.4515560768
 20
99.7600527644
 10
56.4257049827
 20
99.7440256676
 10
56.4014935184
 20
99.7269737454
 10
56.3790137739
 20
99.709148728
 10
56.3583495247
 20
99.6908357339
 10
56.3394706422
 20
99.672250015
 10
56.3223822008
 20
99.6536578595
 10
56.3069292028
 20
99.6351568345
 10
56.2929933335
 20
99.6168588929
 10
56.2804552389
 20
99.5988540892
 10
56.2691933757
 20
99.5812067636
 10
56.2591043632
 20
99.5639879929
 10
56.2500736365
 20
99.5472293619
 10
56.2420265732
 20
99.5310184128
 10
56.2348864177
 20
99.5154329161
 10
56.2285483596
 20
99.5004733304
 10
56.2229293576
 20
99.486164411
 10
56.2179283936
 20
99.4724569585
 10
56.2134661228
 20
99.4593242864
 10
56.2094558024
 20
99.4466827687
 10
56.205824935
 20
99.4344527083
 10
56.2025143042
 20
99.4225640005
 10
56.1994698179
 20
99.4109336557
 10
56.1966510893
 20
99.3995029886
 10
56.1940200648
 20
99.3881997822
 10
56.1915489706
 20
99.3769750257
 10
56.1892114727
 20
99.3657695295
 10
56.1869882326
 20
99.3545423229
 10
56.1848608412
 20
99.3432448375
 10
56.1828161341
 20
99.3318452864
 10
56.1808414108
 20
99.3203057996
 10
56.1789278427
 20
99.3086033571
 10
56.1770669395
 20
99.296711183
 10
56.1752525292
 20
99.2846119966
 10
56.1734795082
 20
99.2722918416
 10
56.171741449
 20
99.2597234857
 10
56.1700331676
 20
99.2468837911
 10
56.1683498086
 20
99.2337478877
 10
56.1666868181
 20
99.220289112
 10
56.1650409049
 20
99.2064874161
 10
56.1617877972
 20
99.1777662917
  0
LWPOLYLINE
  5
38E
100
AcDbEntity
  8
0
100
AcDbPolyline
 62
7
  6
CONTINUOUS
 90
48
 70
0
 10
136.7071908922
 20
99.8288179165
 10
136.6981718283
 20
99.8287381629
 10
136.6656517431
 20
99.8271226409
 10
136.6331803193
 20
99.8234157981
 10
136.601031983
 20
99.8176386386
 10
136.5694280061
 20
99.8098437499
 10
136.5385807272
 20
99.8001152954
 10
136.5086797949
 20
99.7885634066
 10
136.4799315607
 20
99.7753399169
 10
136.4524977842
 20
99.7606150911
 10
136.4265638424
 20
99.7446120764
 10
136.4022734836
 20
99.7275765816
 10
136.3797202044
 20
99.7097618394
 10
136.3589899902
 20
99.6914556275
 10
136.3400507777
 20
99.672872728
 10
136.3229070867
 20
99.6542796035
 10
136.307402427
 20
99.6357731166
 10
136.2934171025
 20
99.6174638845
 10
136.2808319553
 20
99.599442305
 10
136.2695248802
 20
99.5817719102
 10
136.2593934834
 20
99.5645253143
 10
136.2503232924
 20
99.5477345489
 10
136.2422408246
 20
99.5314897358
 10
136.2350700825
 20
99.5158712544
 10
136.2287059182
 20
99.5008803826
 10
136.2230652941
 20
99.4865435176
 10
136.2180464976
 20
99.4728114908
 10
136.2135698432
 20
99.4596583293
 10
136.2095478234
 20
99.44699973
 10
136.2059073935
 20
99.4347555494
 10
136.2025889182
 20
99.4228553266
 10
136.1995379116
 20
99.4112155388
 10
136.1967137586
 20
99.3997773255
 10
136.194078164
 20
99.3884680934
 10
136.1916032266
 20
99.3772387645
 10
136.1892624788
 20
99.3660299736
 10
136.1870364914
 20
99.354800669
 10
136.1849067683
 20
99.3435021603
 10
136.182860087
 20
99.3321026129
 10
136.1808836909
 20
99.3205640826
 10
136.1789687146
 20
99.3088635329
 10
136.177106637
 20
99.2969741859
 10
136.1752912489
 20
99.2848786813
 10
136.1735174228
 20
99.272563042
 10
136.1717786856
 20
99.2599998445
 10
136.1700698073
 20
99.2471657063
 10
136.1683859302
 20
99.2340358093
 10
136.1650761828
 20
99.2067886115
  0
LWPOLYLINE
  5
38F
100
AcDbEntity
  8
0
100
AcDbPolyline
 62
7
  6
CONTINUOUS
 90
48
 70
0
 10
116.7071908922
 20
99.8288179165
 10
116.6981718283
 20
99.8287381629
 10
116.6656517431
 20
99.8271226409
 10
116.6331803193
 20
99.8234157981
 10
116.601031983
 20
99.8176386386
 10
116.5694280061
 20
99.8098437499
 10
116.5385807272
 20
99.8001152954
 10
116.5086797949
 20
99.7885634066
 10
116.4799315607
 20
99.7753399169
 10
116.4524977842
 20
99.7606150911
 10
116.4265638424
 20
99.7446120764
 10
116.4022734836
 20
99.7275765815
 10
116.3797202044
 20
99.7097618394
 10
116.3589899902
 20
99.6914556275
 10
116.3400507776
 20
99.6728727279
 10
116.3229070867
 20
99.6542796035
 10
116.307402427
 20
99.6357731166
 10
116.2934171025
 20
99.6174638845
 10
116.2808319553
 20
99.599442305
 10
116.2695248802
 20
99.5817719102
 10
116.2593934834
 20
99.5645253143
 10
116.2503232924
 20
99.5477345489
 10
116.2422408246
 20
99.5314897358
 10
116.2350700825
 20
99.5158712544
 10
116.2287059182
 20
99.5008803826
 10
116.2230652941
 20
99.4865435176
 10
116.2180464976
 20
99.4728114908
 10
116.2135698432
 20
99.4596583293
 10
116.2095478234
 20
99.44699973
 10
116.2059073935
 20
99.4347555494
 10
116.2025889182
 20
99.4228553266
 10
116.1995379116
 20
99.4112155388
 10
116.1967137586
 20
99.3997773255
 10
116.194078164
 20
99.3884680934
 10
116.1916032266
 20
99.3772387645
 10
116.1892624788
 20
99.3660299736
 10
116.1870364914
 20
99.354800669
 10
116.1849067683
 20
99.3435021603
 10
116.182860087
 20
99.3321026129
 10
116.1808836909
 20
99.3205640826
 10
116.1789687146
 20
99.3088635329
 10
116.177106637
 20
99.2969741859
 10
116.1752912489
 20
99.2848786813
 10
116.1735174228
 20
99.272563042
 10
116.1717786856
 20
99.2599998445
 10
116.1700698073
 20
99.2471657063
 10
116.1683859302
 20
99.2340358093
 10
116.1650761828
 20
99.2067886115
  0
LWPOLYLINE
  5
390
100
AcDbEntity
  8
0
100
AcDbPolyline
 62
7
  6
CONTINUOUS
 90
49
 70
0
 10
96.7071908922
 20
99.8288179165
 10
96.6981718283
 20
99.8287381629
 10
96.6656517431
 20
99.8271226409
 10
96.6331803193
 20
99.8234157981
 10
96.601031983
 20
99.8176386386
 10
96.5694280061
 20
99.8098437499
 10
96.5385807272
 20
99.8001152954
 10
96.5086797949
 20
99.7885634066
 10
96.4799315607
 20
99.7753399169
 10
96.4524977842
 20
99.7606150911
 10
96.4265638424
 20
99.7446120764
 10
96.4022734836
 20
99.7275765816
 10
96.3797202044
 20
99.7097618394
 10
96.3589899902
 20
99.6914556275
 10
96.3400507777
 20
99.672872728
 10
96.3229070867
 20
99.6542796035
 10
96.307402427
 20
99.6357731166
 10
96.2934171025
 20
99.6174638845
 10
96.2808319553
 20
99.599442305
 10
96.2695248802
 20
99.5817719102
 10
96.2593934834
 20
99.5645253143
 10
96.2503232924
 20
99.5477345489
 10
96.2422408246
 20
99.5314897358
 10
96.2350700825
 20
99.5158712544
 10
96.2287059182
 20
99.5008803826
 10
96.2230652941
 20
99.4865435176
 10
96.2180464976
 20
99.4728114908
 10
96.2135698432
 20
99.4596583293
 10
96.2095478234
 20
99.44699973
 10
96.2059073935
 20
99.4347555494
 10
96.2025889182
 20
99.4228553266
 10
96.1995379116
 20
99.4112155388
 10
96.1967137586
 20
99.3997773255
 10
96.194078164
 20
99.3884680934
 10
96.1916032266
 20
99.3772387645
 10
96.1892624788
 20
99.3660299736
 10
96.1870364914
 20
99.354800669
 10
96.1849067683
 20
99.3435021603
 10
96.182860087
 20
99.3321026129
 10
96.1808836909
 20
99.3205640826
 10
96.1789687146
 20
99.3088635329
 10
96.177106637
 20
99.2969741859
 10
96.1752912489
 20
99.2848786813
 10
96.1735174228
 20
99.272563042
 10
96.1717786856
 20
99.2599998445
 10
96.1700698073
 20
99.2471657063
 10
96.1683859302
 20
99.2340358093
 10
96.1667224886
 20
99.2205834639
 10
96.1634436788
 20
99.1926279948
  0
LWPOLYLINE
  5
391
100
AcDbEntity
  8
0
100
AcDbPolyline
 62
7
  6
CONTINUOUS
 90
49
 70
0
 10
76.7071908922
 20
99.8288179165
 10
76.6981718283
 20
99.8287381629
 10
76.6656517431
 20
99.8271226409
 10
76.6331803193
 20
99.8234157981
 10
76.601031983
 20
99.8176386386
 10
76.5694280061
 20
99.8098437499
 10
76.5385807272
 20
99.8001152954
 10
76.5086797949
 20
99.7885634066
 10
76.4799315607
 20
99.7753399169
 10
76.4524977842
 20
99.7606150911
 10
76.4265638424
 20
99.7446120764
 10
76.4022734836
 20
99.7275765816
 10
76.3797202044
 20
99.7097618394
 10
76.3589899902
 20
99.6914556275
 10
76.3400507777
 20
99.672872728
 10
76.3229070867
 20
99.6542796035
 10
76.307402427
 20
99.6357731166
 10
76.2934171025
 20
99.6174638845
 10
76.2808319553
 20
99.599442305
 10
76.2695248802
 20
99.5817719102
 10
76.2593934834
 20
99.5645253143
 10
76.2503232924
 20
99.5477345489
 10
76.2422408246
 20
99.5314897358
 10
76.2350700825
 20
99.5158712544
 10
76.2287059182
 20
99.5008803826
 10
76.2230652941
 20
99.4865435176
 10
76.2180464976
 20
99.4728114908
 10
76.2135698432
 20
99.4596583293
 10
76.2095478234
 20
99.44699973
 10
76.2059073935
 20
99.4347555494
 10
76.2025889182
 20
99.4228553266
 10
76.1995379116
 20
99.4112155388
 10
76.1967137586
 20
99.3997773255
 10
76.194078164
 20
99.3884680934
 10
76.1916032266
 20
99.3772387645
 10
76.1892624788
 20
99.3660299736
 10
76.1870364914
 20
99.354800669
 10
76.1849067683
 20
99.3435021603
 10
76.182860087
 20
99.3321026129
 10
76.1808836909
 20
99.3205640826
 10
76.1789687146
 20
99.3088635329
 10
76.177106637
 20
99.2969741859
 10
76.1752912489
 20
99.2848786813
 10
76.1735174228
 20
99.272563042
 10
76.1717786856
 20
99.2599998445
 10
76.1700698073
 20
99.2471657063
 10
76.1683859302
 20
99.2340358093
 10
76.1667224886
 20
99.2205834639
 10
76.1634436788
 20
99.1926279948
  0
LINE
  5
392
100
AcDbEntity
  8
02___PRT_ALL_AXES
100
AcDbLine
 62
7
  6
CONTINUOUS
 10
56.7072486605
 20
99.8288179189
 11
63.0382428487
 21
99.8288179189
  0
LINE
  5
393
100
AcDbEntity
  8
02___PRT_ALL_AXES
100
AcDbLine
 62
7
  6
CONTINUOUS
 10
76.7072244122
 20
99.8288179189
 11
83.0382428487
 21
99.8288179189
  0
LINE
  5
394
100
AcDbEntity
  8
02___PRT_ALL_AXES
100
AcDbLine
 62
7
  6
CONTINUOUS
 10
96.7072244122
 20
99.8288179189
 11
103.0382428487
 21
99.8288179189
  0
LINE
  5
395
100
AcDbEntity
  8
02___PRT_ALL_AXES
100
AcDbLine
 62
7
  6
CONTINUOUS
 10
116.7072244122
 20
99.8288179189
 11
123.0382428487
 21
99.8288179189
  0
LINE
  5
396
100
AcDbEntity
  8
02___PRT_ALL_AXES
100
AcDbLine
 62
7
  6
CONTINUOUS
 10
136.7072244122
 20
99.8288179189
 11
143.0411050404
 21
99.8288179189
  0
LWPOLYLINE
  5
397
100
AcDbEntity
  8
0
100
AcDbPolyline
 62
7
  6
CONTINUOUS
 90
9
 70
0
 10
124.4737270967
 20
96.4056049814
 10
124.4699632628
 20
96.4303359235
 10
124.4637990304
 20
96.466461929
 10
124.4569054816
 20
96.5019883005
 10
124.4492489588
 20
96.5369071744
 10
124.4407799419
 20
96.5712426246
 10
124.4314368783
 20
96.6050191163
 10
124.4211337684
 20
96.6382952635
 10
124.4137044673
 20
96.6601616846
  0
LWPOLYLINE
  5
398
100
AcDbEntity
  8
0
100
AcDbPolyline
 62
7
  6
CONTINUOUS
 90
47
 70
0
 10
123.5772127178
 20
99.2338702694
 10
123.5755284452
 20
99.2470080563
 10
123.5738191652
 20
99.2598496764
 10
123.5720800015
 20
99.272420082
 10
123.5703057551
 20
99.2847424341
 10
123.5684899804
 20
99.2968439959
 10
123.5666275465
 20
99.3087388035
 10
123.5647122527
 20
99.3204441989
 10
123.5627355657
 20
99.3319870736
 10
123.5606886116
 20
99.34339054
 10
123.5585586254
 20
99.354692617
 10
123.5563323736
 20
99.3659252124
 10
123.5539913501
 20
99.3771370792
 10
123.5515161146
 20
99.3883693266
 10
123.5488801822
 20
99.3996813939
 10
123.5460556392
 20
99.4111223994
 10
123.5430041506
 20
99.4227650718
 10
123.5396850635
 20
99.4346683642
 10
123.5360438383
 20
99.446915919
 10
123.5320207597
 20
99.4595783559
 10
123.5275427653
 20
99.4727357445
 10
123.5225222891
 20
99.4864724217
 10
123.516879658
 20
99.5008141906
 10
123.5105131687
 20
99.5158100861
 10
123.5033397748
 20
99.5314336423
 10
123.4952543729
 20
99.5476834207
 10
123.486180881
 20
99.5644791572
 10
123.4760457958
 20
99.5817307042
 10
123.4647344862
 20
99.5994062061
 10
123.4521443363
 20
99.6174332423
 10
123.4381532808
 20
99.635748054
 10
123.4226421278
 20
99.6542601393
 10
123.4054912349
 20
99.6728586877
 10
123.3865441415
 20
99.6914466941
 10
123.3658055283
 20
99.7097574854
 10
123.3432435066
 20
99.7275761137
 10
123.3189442486
 20
99.7446147002
 10
123.2930014715
 20
99.7606199421
 10
123.265559147
 20
99.7753461196
 10
123.2368028703
 20
99.7885701296
 10
123.2068946935
 20
99.8001217653
 10
123.176041179
 20
99.8098493414
 10
123.1444324106
 20
99.817642864
 10
123.1122810832
 20
99.823418421
 10
123.0798088008
 20
99.8271237586
 10
123.0472904338
 20
99.8287382831
 10
123.0382767044
 20
99.8288179165
  0
LINE
  5
399
100
AcDbEntity
  8
0
100
AcDbLine
 62
7
  6
CONTINUOUS
 10
123.5805232555
 20
99.206605886
 11
123.5772127178
 21
99.2338702694
  0
LINE
  5
39A
100
AcDbEntity
  8
0
100
AcDbLine
 62
7
  6
CONTINUOUS
 10
123.5837777997
 20
99.1778803732
 11
123.5805232555
 21
99.206605886
  0
LINE
  5
39B
100
AcDbEntity
  8
0
100
AcDbLine
 62
7
  6
CONTINUOUS
 10
136.1458230005
 20
99.0071400528
 11
136.1426081248
 21
98.9664305332
  0
LWPOLYLINE
  5
39C
100
AcDbEntity
  8
0
100
AcDbPolyline
 62
7
  6
CONTINUOUS
 90
9
 70
0
 10
136.1231763678
 20
98.6703764066
 10
136.1229139654
 20
98.6672293395
 10
136.1219520599
 20
98.6602348623
 10
136.1199253025
 20
98.6498694459
 10
136.1164845858
 20
98.6361843471
 10
136.111307583
 20
98.6192211751
 10
136.104143095
 20
98.5991514923
 10
136.0948007956
 20
98.5761896883
 10
136.0854641943
 20
98.5554651811
  0
LINE
  5
39D
100
AcDbEntity
  8
0
100
AcDbLine
 62
7
  6
CONTINUOUS
 10
136.1490233556
 20
99.0454805595
 11
136.1458230005
 21
99.0071400528
  0
LINE
  5
39E
100
AcDbEntity
  8
0
100
AcDbLine
 62
7
  6
CONTINUOUS
 10
136.1522150995
 20
99.0815988074
 11
136.1490233556
 21
99.0454805595
  0
LINE
  5
39F
100
AcDbEntity
  8
0
100
AcDbLine
 62
7
  6
CONTINUOUS
 10
136.15540562
 20
99.1156407193
 11
136.1522150995
 21
99.0815988074
  0
LINE
  5
3A0
100
AcDbEntity
  8
0
100
AcDbLine
 62
7
  6
CONTINUOUS
 10
136.1586041257
 20
99.1477520548
 11
136.15540562
 21
99.1156407193
  0
LINE
  5
3A1
100
AcDbEntity
  8
0
100
AcDbLine
 62
7
  6
CONTINUOUS
 10
136.161822433
 20
99.1780823659
 11
136.1586041257
 21
99.1477520548
  0
LINE
  5
3A2
100
AcDbEntity
  8
0
100
AcDbLine
 62
7
  6
CONTINUOUS
 10
136.1650761828
 20
99.2067886115
 11
136.161822433
 21
99.1780823659
  0
LWPOLYLINE
  5
3A3
100
AcDbEntity
  8
0
100
AcDbPolyline
 62
7
  6
CONTINUOUS
 90
17
 70
0
 10
135.2718533812
 20
96.4056213723
 10
135.2438196964
 20
96.2053497593
 10
135.2155216471
 20
95.987241746
 10
135.1891608563
 20
95.7665927384
 10
135.1647389424
 20
95.543562008
 10
135.1422606902
 20
95.3183327429
 10
135.1217308337
 20
95.0910891632
 10
135.103153812
 20
94.8620148282
 10
135.0865337738
 20
94.6312930249
 10
135.0718745525
 20
94.3991068897
 10
135.0591796036
 20
94.1656388325
 10
135.0484520191
 20
93.9310709813
 10
135.0396945465
 20
93.6955861069
 10
135.0329095247
 20
93.4593670041
 10
135.0280988408
 20
93.2225950634
 10
135.0252637877
 20
92.9854259071
 10
135.0244017376
 20
92.7638179189
  0
LWPOLYLINE
  5
3A4
100
AcDbEntity
  8
0
100
AcDbPolyline
 62
7
  6
CONTINUOUS
 90
7
 70
0
 10
124.4137231531
 20
96.6601086859
 10
124.3033320548
 20
96.9677688695
 10
124.1874133769
 20
97.2792366783
 10
124.0697026112
 20
97.5838266414
 10
123.9502103262
 20
97.8814262381
 10
123.8289458336
 20
98.1719245199
 10
123.709607955
 20
98.4468769642
  0
LINE
  5
3A5
100
AcDbEntity
  8
0
100
AcDbLine
 62
7
  6
CONTINUOUS
 10
124.4137044672
 20
96.6601616845
 11
124.4137231531
 21
96.6601086859
  0
LINE
  5
3A6
100
AcDbEntity
  8
RUNDUNGEN
100
AcDbLine
 62
7
  6
CONTINUOUS
 10
134.7211763644
 20
42.7638179189
 11
134.7211763644
 21
45.78113371
  0
LINE
  5
3A7
100
AcDbEntity
  8
0
100
AcDbLine
 62
7
  6
CONTINUOUS
 10
135.0244017373
 20
92.7638179189
 11
135.0244017373
 21
89.7465021279
  0
LWPOLYLINE
  5
3A8
100
AcDbEntity
  8
0
100
AcDbPolyline
 62
7
  6
CONTINUOUS
 90
35
 70
0
 10
135.0244017361
 20
89.7465021279
 10
135.0232304951
 20
89.672377262
 10
135.0186148324
 20
89.5823025699
 10
135.0107123913
 20
89.4949623437
 10
134.9997538685
 20
89.4105072108
 10
134.985971435
 20
89.3291025267
 10
134.9695885807
 20
89.2508720218
 10
134.9508224936
 20
89.1759114652
 10
134.9299011348
 20
89.1043458698
 10
134.9070510812
 20
89.0362652866
 10
134.8825077564
 20
88.971757618
 10
134.8565315455
 20
88.9109349307
 10
134.8292961129
 20
88.8536881958
 10
134.80103482
 20
88.800044099
 10
134.7717571518
 20
88.749635099
 10
134.7414726284
 20
88.7022010034
 10
134.7101993125
 20
88.6575678105
 10
134.6778617611
 20
88.6154949797
 10
134.6445925199
 20
88.5760553604
 10
134.6104573939
 20
88.5392293405
 10
134.5755558903
 20
88.505033234
 10
134.5399799748
 20
88.4734671773
 10
134.50379316
 20
88.4445023819
 10
134.4670525779
 20
88.4181068816
 10
134.429812439
 20
88.3942482324
 10
134.3921191815
 20
88.3728902068
 10
134.3539774197
 20
88.3539781511
 10
134.3153625503
 20
88.3374563249
 10
134.2763200645
 20
88.3233078604
 10
134.2368657656
 20
88.3115038553
 10
134.197008623
 20
88.3020166984
 10
134.1567578621
 20
88.2948225443
 10
134.1161128433
 20
88.289899996
 10
134.075072318
 20
88.28723323
 10
134.0466454217
 20
88.2867029611
  0
LWPOLYLINE
  5
3A9
100
AcDbEntity
  8
RUNDUNGEN
100
AcDbPolyline
 62
7
  6
CONTINUOUS
 90
35
 70
0
 10
134.7211763656
 20
45.78113371
 10
134.7223476085
 20
45.8552586377
 10
134.7269633015
 20
45.9453337221
 10
134.7348658302
 20
46.0326745819
 10
134.7458245048
 20
46.1171304436
 10
134.759607147
 20
46.1985358474
 10
134.7759902438
 20
46.2767669608
 10
134.794756572
 20
46.3517279257
 10
134.8156781179
 20
46.4232936347
 10
134.8385282282
 20
46.491373925
 10
134.8630714398
 20
46.555880931
 10
134.8890472752
 20
46.6167025002
 10
134.9162821442
 20
46.6739479522
 10
134.9445427557
 20
46.7275907888
 10
134.9738197032
 20
46.7779986926
 10
135.0041035968
 20
46.8254320297
 10
135.0353763951
 20
46.8700647653
 10
135.0677136251
 20
46.9121374858
 10
135.1009826977
 20
46.9515772156
 10
135.1351177848
 20
46.9884034916
 10
135.1700193492
 20
47.0225999343
 10
135.205595375
 20
47.0541663405
 10
135.2417823453
 20
47.0831314859
 10
135.2785231005
 20
47.109527311
 10
135.3157634346
 20
47.1333862616
 10
135.3534569047
 20
47.1547445612
 10
135.3915988935
 20
47.1736568614
 10
135.4302140007
 20
47.1901789007
 10
135.4692567314
 20
47.204327546
 10
135.50871128
 20
47.2161316992
 10
135.5485686716
 20
47.2256189715
 10
135.5888196758
 20
47.2328132092
 10
135.6294649286
 20
47.2377358112
 10
135.6705056728
 20
47.2404026037
 10
135.6989326801
 20
47.2409328768
  0
LINE
  5
3AA
100
AcDbEntity
  8
0
100
AcDbLine
 62
7
  6
CONTINUOUS
 10
136.1295200459
 20
98.7768527091
 11
136.1231759739
 21
98.6703694414
  0
LINE
  5
3AB
100
AcDbEntity
  8
RUNDUNGEN
100
AcDbLine
 62
7
  6
CONTINUOUS
 10
133.6160581785
 20
36.750785094
 11
133.6224021277
 21
36.8572663964
  0
LINE
  5
3AC
100
AcDbEntity
  8
0
100
AcDbLine
 62
7
  6
CONTINUOUS
 10
136.1344783854
 20
98.8533064075
 11
136.1295200459
 21
98.7768527091
  0
LINE
  5
3AD
100
AcDbEntity
  8
RUNDUNGEN
100
AcDbLine
 62
7
  6
CONTINUOUS
 10
133.6110999503
 20
36.6743329036
 11
133.6160581785
 21
36.750785094
  0
LINE
  5
3AE
100
AcDbEntity
  8
0
100
AcDbLine
 62
7
  6
CONTINUOUS
 10
136.1393739771
 20
98.923203169
 11
136.1344783854
 21
98.8533064075
  0
LINE
  5
3AF
100
AcDbEntity
  8
RUNDUNGEN
100
AcDbLine
 62
7
  6
CONTINUOUS
 10
133.6062044843
 20
36.6044376055
 11
133.6110999503
 21
36.6743329036
  0
LINE
  5
3B0
100
AcDbEntity
  8
0
100
AcDbLine
 62
7
  6
CONTINUOUS
 10
136.1426081248
 20
98.9664305332
 11
136.1393739771
 21
98.923203169
  0
LINE
  5
3B1
100
AcDbEntity
  8
RUNDUNGEN
100
AcDbLine
 62
7
  6
CONTINUOUS
 10
133.6013609086
 20
36.54055158
 11
133.6062044843
 21
36.6044376055
  0
LINE
  5
3B2
100
AcDbEntity
  8
RUNDUNGEN
100
AcDbLine
 62
7
  6
CONTINUOUS
 10
133.5981540559
 20
36.5010458975
 11
133.6013609086
 21
36.54055158
  0
LWPOLYLINE
  5
3B3
100
AcDbEntity
  8
RUNDUNGEN
100
AcDbPolyline
 62
7
  6
CONTINUOUS
 90
9
 70
0
 10
133.6224017339
 20
36.8572594306
 10
133.6226641359
 20
36.8604064947
 10
133.6236260403
 20
36.8674009666
 10
133.6256527957
 20
36.8777663765
 10
133.62909351
 20
36.89145147
 10
133.634270511
 20
36.9084146397
 10
133.6414349986
 20
36.9284843245
 10
133.6507773002
 20
36.951446136
 10
133.6601139075
 20
36.9721706569
  0
LINE
  5
3B4
100
AcDbEntity
  8
RUNDUNGEN
100
AcDbLine
 62
7
  6
CONTINUOUS
 10
133.594958939
 20
36.46383563
 11
133.5981540559
 21
36.5010458975
  0
LINE
  5
3B5
100
AcDbEntity
  8
RUNDUNGEN
100
AcDbLine
 62
7
  6
CONTINUOUS
 10
133.5917689508
 20
36.4287745262
 11
133.594958939
 21
36.46383563
  0
LINE
  5
3B6
100
AcDbEntity
  8
RUNDUNGEN
100
AcDbLine
 62
7
  6
CONTINUOUS
 10
133.5885758635
 20
36.3957170957
 11
133.5917689508
 21
36.4287745262
  0
LINE
  5
3B7
100
AcDbEntity
  8
RUNDUNGEN
100
AcDbLine
 62
7
  6
CONTINUOUS
 10
133.5853692812
 20
36.3645160708
 11
133.5885758635
 21
36.3957170957
  0
LINE
  5
3B8
100
AcDbEntity
  8
RUNDUNGEN
100
AcDbLine
 62
7
  6
CONTINUOUS
 10
133.5821355705
 20
36.335018077
 11
133.5853692812
 21
36.3645160708
  0
LWPOLYLINE
  5
3B9
100
AcDbEntity
  8
0
100
AcDbPolyline
 62
7
  6
CONTINUOUS
 90
3
 70
0
 10
123.6852501092
 20
98.5011215729
 10
123.6756323111
 20
98.5221085367
 10
123.6601234309
 20
98.555444902
  0
LWPOLYLINE
  5
3BA
100
AcDbEntity
  8
0
100
AcDbPolyline
 62
7
  6
CONTINUOUS
 90
9
 70
0
 10
123.6601132392
 20
98.5554666042
 10
123.6509551124
 20
98.5757773084
 10
123.6415736314
 20
98.5987886881
 10
123.634374128
 20
98.6189082736
 10
123.6291663503
 20
98.6359224838
 10
123.6256994077
 20
98.6496604892
 10
123.6236515942
 20
98.6600804508
 10
123.6226745143
 20
98.6671309086
 10
123.6224017611
 20
98.6703759399
  0
LWPOLYLINE
  5
3BB
100
AcDbEntity
  8
0
100
AcDbPolyline
 62
7
  6
CONTINUOUS
 90
3
 70
0
 10
123.7096083486
 20
98.4468760749
 10
123.7043111645
 20
98.4588076858
 10
123.6852501092
 20
98.5011215729
  0
LWPOLYLINE
  5
3BC
100
AcDbEntity
  8
RUNDUNGEN
100
AcDbPolyline
 62
7
  6
CONTINUOUS
 90
17
 70
0
 10
134.4737247206
 20
39.1220144618
 10
134.5017579069
 20
39.3222823921
 10
134.5300556551
 20
39.5403876746
 10
134.5564163253
 20
39.7610350545
 10
134.5808382436
 20
39.9840650782
 10
134.6033165877
 20
40.2092944336
 10
134.6238465902
 20
40.4365387616
 10
134.6424237808
 20
40.6656143584
 10
134.6590439875
 20
40.8963377801
 10
134.6737033597
 20
41.1285257246
 10
134.6863984286
 20
41.3619956108
 10
134.697126094
 20
41.596565136
 10
134.705883608
 20
41.8320513432
 10
134.7126686361
 20
42.0682712432
 10
134.7174793015
 20
42.3050432884
 10
134.720314327
 20
42.5422116089
 10
134.7211763641
 20
42.7638179189
  0
LWPOLYLINE
  5
3BD
100
AcDbEntity
  8
RUNDUNGEN
100
AcDbPolyline
 62
7
  6
CONTINUOUS
 90
9
 70
0
 10
134.4137038138
 20
38.8674723011
 10
134.4207751764
 20
38.8882470753
 10
134.4310941157
 20
38.9214476137
 10
134.4404611005
 20
38.9551750844
 10
134.4489601007
 20
38.9894894426
 10
134.4566510372
 20
39.0244171519
 10
134.4635821314
 20
39.0599852881
 10
134.4697856983
 20
39.0961888858
 10
134.4737269183
 20
39.1220296288
  0
LINE
  5
3BE
100
AcDbEntity
  8
RUNDUNGEN
100
AcDbLine
 62
7
  6
CONTINUOUS
 10
134.4137038138
 20
38.8674723011
 11
134.4137231372
 21
38.8675271072
  0
LINE
  5
3BF
100
AcDbEntity
  8
RUNDUNGEN
100
AcDbLine
 62
7
  6
CONTINUOUS
 10
143.5940379319
 20
99.0741350364
 11
143.5909174249
 21
99.1078741141
  0
LINE
  5
3C0
100
AcDbEntity
  8
RUNDUNGEN
100
AcDbLine
 62
7
  6
CONTINUOUS
 10
143.5971609346
 20
99.0383833077
 11
143.5940379319
 21
99.0741350364
  0
LINE
  5
3C1
100
AcDbEntity
  8
RUNDUNGEN
100
AcDbLine
 62
7
  6
CONTINUOUS
 10
143.6002930069
 20
99.0004833187
 11
143.5971609346
 21
99.0383833077
  0
LINE
  5
3C2
100
AcDbEntity
  8
RUNDUNGEN
100
AcDbLine
 62
7
  6
CONTINUOUS
 10
143.6050194307
 20
98.9393058504
 11
143.6002930069
 21
99.0004833187
  0
LINE
  5
3C3
100
AcDbEntity
  8
RUNDUNGEN
100
AcDbLine
 62
7
  6
CONTINUOUS
 10
143.6097916901
 20
98.8725168825
 11
143.6050194307
 21
98.9393058504
  0
LINE
  5
3C4
100
AcDbEntity
  8
RUNDUNGEN
100
AcDbLine
 62
7
  6
CONTINUOUS
 10
143.6146204704
 20
98.7996181979
 11
143.6097916901
 21
98.8725168825
  0
LINE
  5
3C5
100
AcDbEntity
  8
RUNDUNGEN
100
AcDbLine
 62
7
  6
CONTINUOUS
 10
143.6195135992
 20
98.7200854252
 11
143.6146204704
 21
98.7996181979
  0
LINE
  5
3C6
100
AcDbEntity
  8
RUNDUNGEN
100
AcDbLine
 62
7
  6
CONTINUOUS
 10
143.6224021276
 20
98.6703694421
 11
143.6195135992
 21
98.7200854252
  0
LWPOLYLINE
  5
3C7
100
AcDbEntity
  8
RUNDUNGEN
100
AcDbPolyline
 62
7
  6
CONTINUOUS
 90
17
 70
0
 10
144.7211763641
 20
92.7638179189
 10
144.7203252891
 20
92.9840109802
 10
144.717502007
 20
93.2211828431
 10
144.7127030412
 20
93.4579596594
 10
144.7059296641
 20
93.6941855397
 10
144.6971837468
 20
93.929678932
 10
144.6864676199
 20
94.1642568001
 10
144.6737840285
 20
94.3977361485
 10
144.6591360708
 20
94.6299346461
 10
144.6425272145
 20
94.8606696813
 10
144.6239613099
 20
95.0897579225
 10
144.6034425299
 20
95.3170158979
 10
144.5809753469
 20
95.542259876
 10
144.5565645312
 20
95.765305472
 10
144.5302149093
 20
95.9859693486
 10
144.5019281636
 20
96.2040920192
 10
144.4737247269
 20
96.4056213329
  0
LINE
  5
3C8
100
AcDbEntity
  8
RUNDUNGEN
100
AcDbLine
 62
7
  6
CONTINUOUS
 10
144.7211763644
 20
77.9209721265
 11
144.7211763644
 21
92.7638179189
  0
LINE
  5
3C9
100
AcDbEntity
  8
RUNDUNGEN
100
AcDbLine
 62
7
  6
CONTINUOUS
 10
144.8727890508
 20
77.2638179189
 11
144.8727890508
 21
47.7409247001
  0
LWPOLYLINE
  5
3CA
100
AcDbEntity
  8
RUNDUNGEN
100
AcDbPolyline
 62
7
  6
CONTINUOUS
 90
7
 70
0
 10
133.7096079253
 20
37.080758811
 10
133.8286185537
 20
37.3549426167
 10
133.9498874604
 20
37.6454209339
 10
134.0693840083
 20
37.9430003604
 10
134.1870988326
 20
38.2475697399
 10
134.303021288
 20
38.5590162743
 10
134.4137231373
 20
38.8675271072
  0
LWPOLYLINE
  5
3CB
100
AcDbEntity
  8
RUNDUNGEN
100
AcDbPolyline
 62
7
  6
CONTINUOUS
 90
4
 70
0
 10
133.6752831656
 20
37.004769971
 10
133.6849025754
 20
37.025751697
 10
133.6944636168
 20
37.0468469737
 10
133.7096083408
 20
37.0807597463
  0
LINE
  5
3CC
100
AcDbEntity
  8
RUNDUNGEN
100
AcDbLine
 62
7
  6
CONTINUOUS
 10
133.6601234246
 20
36.972190922
 11
133.6752831656
 21
37.004769971
  0
LINE
  5
3CD
100
AcDbEntity
  8
RUNDUNGEN
100
AcDbLine
 62
7
  6
CONTINUOUS
 10
143.5862228737
 20
99.1550061719
 11
143.58306794
 21
99.1843118575
  0
LWPOLYLINE
  5
3CE
100
AcDbEntity
  8
RUNDUNGEN
100
AcDbPolyline
 62
7
  6
CONTINUOUS
 90
3
 70
0
 10
143.5909174249
 20
99.1078741141
 10
143.5893556399
 20
99.1240310928
 10
143.5862228737
 20
99.1550061719
  0
LWPOLYLINE
  5
3CF
100
AcDbEntity
  8
RUNDUNGEN
100
AcDbPolyline
 62
7
  6
CONTINUOUS
 90
9
 70
0
 10
144.4737271007
 20
96.4056049498
 10
144.4699652678
 20
96.430323354
 10
144.4638029243
 20
96.4664405457
 10
144.456910991
 20
96.501961602
 10
144.4492555467
 20
96.5368788508
 10
144.440786747
 20
96.5712165709
 10
144.4314428469
 20
96.6049987167
 10
144.4211375741
 20
96.6382836371
 10
144.413704416
 20
96.6601618293
  0
LWPOLYLINE
  5
3D0
100
AcDbEntity
  8
RUNDUNGEN
100
AcDbPolyline
 62
7
  6
CONTINUOUS
 90
48
 70
0
 10
143.5766275895
 20
99.2385004759
 10
143.5749744597
 20
99.2512417248
 10
143.5732970884
 20
99.2637026517
 10
143.5715906763
 20
99.2759083461
 10
143.5698495912
 20
99.2878856405
 10
143.5680695367
 20
99.299648242
 10
143.5662449581
 20
99.3112150015
 10
143.5643699496
 20
99.3226032104
 10
143.562438019
 20
99.3338299402
 10
143.5604398856
 20
99.3449237658
 10
143.5583659539
 20
99.355909009
 10
143.5562028715
 20
99.3668230757
 10
143.5539366767
 20
99.3776979807
 10
143.5515484882
 20
99.3885798253
 10
143.5490185631
 20
99.3995071872
 10
143.5463197763
 20
99.4105375822
 10
143.5434239737
 20
99.4217170429
 10
143.5402919863
 20
99.4331164651
 10
143.5368827112
 20
99.4447921094
 10
143.5331412365
 20
99.456823665
 10
143.5290066572
 20
99.4692809621
 10
143.5244096359
 20
99.4822290229
 10
143.5192669889
 20
99.4957385004
 10
143.5135016348
 20
99.509831282
 10
143.5070179426
 20
99.5245453639
 10
143.4997326035
 20
99.539862044
 10
143.4915449623
 20
99.5557764435
 10
143.4823709066
 20
99.5722301196
 10
143.4721241578
 20
99.5891562686
 10
143.4606961963
 20
99.6065093822
 10
143.4479796139
 20
99.6242217552
 10
143.4338720995
 20
99.6422013711
 10
143.4182679499
 20
99.6603453149
 10
143.4010787919
 20
99.6785173649
 10
143.3821885855
 20
99.6965971517
 10
143.361615362
 20
99.714333596
 10
143.3393598063
 20
99.7315136169
 10
143.3154936876
 20
99.7478911546
 10
143.290104497
 20
99.7632415975
 10
143.2633166703
 20
99.7773503286
 10
143.23529541
 20
99.7900182491
 10
143.2061693235
 20
99.801096622
 10
143.1761104152
 20
99.8104464759
 10
143.1452695807
 20
99.8179627044
 10
143.1138200119
 20
99.8235571665
 10
143.0819428625
 20
99.8271644881
 10
143.0498590286
 20
99.8287420583
 10
143.0411036702
 20
99.8288179164
  0
LINE
  5
3D1
100
AcDbEntity
  8
RUNDUNGEN
100
AcDbLine
 62
7
  6
CONTINUOUS
 10
143.5798759637
 20
99.2120923803
 11
143.5766275895
 21
99.2385004759
  0
LINE
  5
3D2
100
AcDbEntity
  8
RUNDUNGEN
100
AcDbLine
 62
7
  6
CONTINUOUS
 10
143.58306794
 20
99.1843118575
 11
143.5798759637
 21
99.2120923803
  0
LWPOLYLINE
  5
3D3
100
AcDbEntity
  8
RUNDUNGEN
100
AcDbPolyline
 62
7
  6
CONTINUOUS
 90
3
 70
0
 10
143.6852502014
 20
98.5011213685
 10
143.6756323981
 20
98.5221083483
 10
143.6601234302
 20
98.5554449039
  0
LWPOLYLINE
  5
3D4
100
AcDbEntity
  8
RUNDUNGEN
100
AcDbPolyline
 62
7
  6
CONTINUOUS
 90
9
 70
0
 10
143.6601132392
 20
98.5554666042
 10
143.650955109
 20
98.5757773163
 10
143.6415736269
 20
98.5987886998
 10
143.6343741239
 20
98.6189082862
 10
143.6291663471
 20
98.6359224952
 10
143.6256994058
 20
98.6496604977
 10
143.6236515934
 20
98.6600804556
 10
143.6226745142
 20
98.6671309101
 10
143.6224017611
 20
98.6703759402
  0
LWPOLYLINE
  5
3D5
100
AcDbEntity
  8
RUNDUNGEN
100
AcDbPolyline
 62
7
  6
CONTINUOUS
 90
3
 70
0
 10
143.709608346
 20
98.4468760799
 10
143.7043112033
 20
98.4588075963
 10
143.6852502014
 20
98.5011213685
  0
LWPOLYLINE
  5
3D6
100
AcDbEntity
  8
RUNDUNGEN
100
AcDbPolyline
 62
7
  6
CONTINUOUS
 90
7
 70
0
 10
144.4137231533
 20
96.6601086854
 10
144.3033327352
 20
96.9677670065
 10
144.1874144393
 20
97.2792338785
 10
144.0697037291
 20
97.5838238022
 10
143.9502112557
 20
97.8814239686
 10
143.8289463887
 20
98.1719232158
 10
143.7096079516
 20
98.4468769674
  0
LINE
  5
3D7
100
AcDbEntity
  8
RUNDUNGEN
100
AcDbLine
 62
7
  6
CONTINUOUS
 10
144.4137044161
 20
96.6601618294
 11
144.4137231533
 21
96.6601086854
  0
LWPOLYLINE
  5
3D8
100
AcDbEntity
  8
RUNDUNGEN
100
AcDbPolyline
 62
7
  6
CONTINUOUS
 90
29
 70
0
 10
46.3969744152
 20
146.4702800842
 10
46.3990013548
 20
146.4331116723
 10
46.4031279415
 20
146.3961131655
 10
46.4093411131
 20
146.3594035613
 10
46.4176215691
 20
146.3230987352
 10
46.4279437151
 20
146.2873135072
 10
46.4402751793
 20
146.2521626324
 10
46.4545773654
 20
146.2177583449
 10
46.4708052332
 20
146.1842109959
 10
46.4889076796
 20
146.1516280283
 10
46.5088274953
 20
146.1201140477
 10
46.5305017113
 20
146.0897701575
 10
46.5538616836
 20
146.0606938246
 10
46.5788333805
 20
146.0329784533
 10
46.6053377194
 20
146.006713004
 10
46.6332907277
 20
145.9819818408
 10
46.6626038727
 20
145.9588644142
 10
46.6931844014
 20
145.9374349938
 10
46.7249352648
 20
145.9177626882
 10
46.7577558918
 20
145.8999108855
 10
46.7915419958
 20
145.883937353
 10
46.8261867812
 20
145.8698936194
 10
46.8615791249
 20
145.8578256621
 10
46.89760674
 20
145.8477725627
 10
46.9341523802
 20
145.8397675467
 10
46.971098333
 20
145.8338364721
 10
47.0083244462
 20
145.8299982706
 10
47.0457086915
 20
145.8282645349
 10
47.0577687634
 20
145.8281550548
  0
LINE
  5
3D9
100
AcDbEntity
  8
0
100
AcDbLine
 62
7
  6
CONTINUOUS
 10
45.6636249157
 20
156.9781542016
 11
45.5765784972
 21
158.9291776493
  0
LINE
  5
3DA
100
AcDbEntity
  8
RUNDUNGEN
100
AcDbLine
 62
7
  6
CONTINUOUS
 10
46.1225398631
 20
156.950512806
 11
46.3969744155
 21
146.4702800735
  0
LINE
  5
3DB
100
AcDbEntity
  8
RUNDUNGEN
100
AcDbLine
 62
7
  6
CONTINUOUS
 10
44.8727890508
 20
146.3281550548
 11
44.8727890508
 21
161.3281550548
  0
LINE
  5
3DC
100
AcDbEntity
  8
RUNDUNGEN
100
AcDbLine
 62
7
  6
CONTINUOUS
 10
45.0414388241
 20
161.1987455323
 11
46.0550768559
 21
157.4157968972
  0
LINE
  5
3DD
100
AcDbEntity
  8
RUNDUNGEN
100
AcDbLine
 62
7
  6
CONTINUOUS
 10
53.6230382345
 20
156.9505126517
 11
53.5003508448
 21
152.2652702622
  0
LINE
  5
3DE
100
AcDbEntity
  8
0
100
AcDbLine
 62
7
  6
CONTINUOUS
 10
53.3576728482
 20
146.8166173967
 11
53.6230382308
 21
156.9505125103
  0
LINE
  5
3DF
100
AcDbEntity
  8
0
100
AcDbLine
 62
7
  6
CONTINUOUS
 10
54.1690001181
 20
158.9291891627
 11
54.0819531884
 21
156.9781542551
  0
LINE
  5
3E0
100
AcDbEntity
  8
RUNDUNGEN
100
AcDbLine
 62
7
  6
CONTINUOUS
 10
54.2682416411
 20
159.5719534061
 11
53.6905022998
 21
157.4158008307
  0
LINE
  5
3E1
100
AcDbEntity
  8
0
100
AcDbLine
 62
7
  6
CONTINUOUS
 10
53.6905012364
 20
157.415796862
 11
54.7041392775
 21
161.1987455322
  0
LWPOLYLINE
  5
3E2
100
AcDbEntity
  8
0
100
AcDbPolyline
 62
7
  6
CONTINUOUS
 90
31
 70
0
 10
66.3879615391
 20
146.8144679371
 10
66.3907194354
 20
146.7619760736
 10
66.3962375209
 20
146.7096621041
 10
66.4045030248
 20
146.6576735089
 10
66.4154970974
 20
146.6061482927
 10
66.4291943609
 20
146.5552243075
 10
66.4455613399
 20
146.5050428434
 10
66.464557935
 20
146.455741514
 10
66.4861364261
 20
146.4074573329
 10
66.5102424925
 20
146.3603237648
 10
66.5368142368
 20
146.3144726931
 10
66.5657832493
 20
146.2700320378
 10
66.5970744075
 20
146.2271261788
 10
66.6306063781
 20
146.1858751747
 10
66.6662915959
 20
146.146394801
 10
66.7040362593
 20
146.1087964101
 10
66.7437430224
 20
146.0731844003
 10
66.7853089472
 20
146.0396586352
 10
66.828627004
 20
146.0083131271
 10
66.8735859624
 20
145.9792363226
 10
66.9200693998
 20
145.9525116718
 10
66.9679577863
 20
145.9282162381
 10
67.0171265655
 20
145.9064217025
 10
67.0674499465
 20
145.8871925394
 10
67.118793323
 20
145.8705888131
 10
67.1710226707
 20
145.8566622207
 10
67.2239953336
 20
145.8454586774
 10
67.2775694689
 20
145.8370153229
 10
67.3315987957
 20
145.8313616391
 10
67.3859341569
 20
145.8285185838
 10
67.4135690885
 20
145.8281550549
  0
LINE
  5
3E3
100
AcDbEntity
  8
02___PRT_ALL_AXES
100
AcDbLine
 62
7
  6
CONTINUOUS
 10
65.6636249157
 20
156.9781542017
 11
65.5765811786
 21
158.9291175493
  0
LINE
  5
3E4
100
AcDbEntity
  8
0
100
AcDbLine
 62
7
  6
CONTINUOUS
 10
66.1225398681
 20
156.9505126147
 11
66.3879615419
 21
146.8144678266
  0
LINE
  5
3E5
100
AcDbEntity
  8
RUNDUNGEN
100
AcDbLine
 62
7
  6
CONTINUOUS
 10
66.2452272503
 20
152.2652705148
 11
66.1225398671
 21
156.9505126518
  0
LINE
  5
3E6
100
AcDbEntity
  8
0
100
AcDbLine
 62
7
  6
CONTINUOUS
 10
65.0414388241
 20
161.1987455323
 11
66.0550768559
 21
157.4157968971
  0
LINE
  5
3E7
100
AcDbEntity
  8
RUNDUNGEN
100
AcDbLine
 62
7
  6
CONTINUOUS
 10
66.0550762915
 20
157.4157990034
 11
65.4773366418
 21
159.5719527297
  0
LINE
  5
3E8
100
AcDbEntity
  8
RUNDUNGEN
100
AcDbLine
 62
7
  6
CONTINUOUS
 10
73.6230382345
 20
156.9505126518
 11
73.5003508487
 21
152.2652704099
  0
LINE
  5
3E9
100
AcDbEntity
  8
0
100
AcDbLine
 62
7
  6
CONTINUOUS
 10
73.3576728482
 20
146.8166173967
 11
73.6230382345
 21
156.9505126518
  0
LINE
  5
3EA
100
AcDbEntity
  8
0
100
AcDbLine
 62
7
  6
CONTINUOUS
 10
74.1689974263
 20
158.9291288283
 11
74.0819531884
 21
156.978154255
  0
LINE
  5
3EB
100
AcDbEntity
  8
RUNDUNGEN
100
AcDbLine
 62
7
  6
CONTINUOUS
 10
74.2682414848
 20
159.5719528227
 11
73.6905022307
 21
157.4158005731
  0
LINE
  5
3EC
100
AcDbEntity
  8
0
100
AcDbLine
 62
7
  6
CONTINUOUS
 10
73.6905012319
 20
157.4157968454
 11
74.7041392775
 21
161.1987455322
  0
LWPOLYLINE
  5
3ED
100
AcDbEntity
  8
0
100
AcDbPolyline
 62
7
  6
CONTINUOUS
 90
31
 70
0
 10
86.3879615391
 20
146.8144679371
 10
86.3907194221
 20
146.7619762427
 10
86.3962374854
 20
146.7096623727
 10
86.4045029712
 20
146.657673797
 10
86.4154970348
 20
146.6061485527
 10
86.4291942996
 20
146.5552245138
 10
86.4455612869
 20
146.5050429923
 10
86.4645578849
 20
146.4557416344
 10
86.4861363762
 20
146.4074574372
 10
86.5102424394
 20
146.3603238622
 10
86.5368141792
 20
146.3144727867
 10
86.5657831899
 20
146.2700321239
 10
86.5970743476
 20
146.2271262566
 10
86.6306063188
 20
146.1858752439
 10
86.666291538
 20
146.1463948618
 10
86.7040362033
 20
146.1087964631
 10
86.7437429685
 20
146.0731844461
 10
86.7853088956
 20
146.0396586747
 10
86.8286269548
 20
146.0083131608
 10
86.8735859157
 20
145.9792363511
 10
86.9200693558
 20
145.9525116957
 10
86.9679577451
 20
145.9282162576
 10
87.0171265274
 20
145.9064217182
 10
87.0674499116
 20
145.8871925517
 10
87.1187932918
 20
145.8705888223
 10
87.1710226435
 20
145.8566622272
 10
87.2239953107
 20
145.8454586817
 10
87.2775694509
 20
145.8370153252
 10
87.3315987832
 20
145.8313616401
 10
87.3859341503
 20
145.828518584
 10
87.4135690885
 20
145.8281550549
  0
LINE
  5
3EE
100
AcDbEntity
  8
02___PRT_ALL_AXES
100
AcDbLine
 62
7
  6
CONTINUOUS
 10
85.6636249157
 20
156.9781542017
 11
85.5765811786
 21
158.9291175493
  0
LINE
  5
3EF
100
AcDbEntity
  8
0
100
AcDbLine
 62
7
  6
CONTINUOUS
 10
86.1225398671
 20
156.9505126518
 11
86.3879615419
 21
146.8144678266
  0
LINE
  5
3F0
100
AcDbEntity
  8
RUNDUNGEN
100
AcDbLine
 62
7
  6
CONTINUOUS
 10
86.2452272503
 20
152.2652705148
 11
86.1225398671
 21
156.9505126518
  0
LWPOLYLINE
  5
3F1
100
AcDbEntity
  8
RUNDUNGEN
100
AcDbPolyline
 62
7
  6
CONTINUOUS
 90
31
 70
0
 10
132.33092003
 20
145.8281550549
 10
132.3586047157
 20
145.828519498
 10
132.4129987626
 20
145.8313666388
 10
132.4670863165
 20
145.8370274124
 10
132.5207180847
 20
145.8454808256
 10
132.5737476482
 20
145.8566973557
 10
132.6260330252
 20
145.8706398163
 10
132.6774314246
 20
145.8872622399
 10
132.7278086856
 20
145.9065128705
 10
132.7770300706
 20
145.9283315794
 10
132.8249696566
 20
145.9526538205
 10
132.8715027598
 20
145.9794078352
 10
132.9165097265
 20
146.0085164765
 10
132.9598740146
 20
146.0398962051
 10
133.0014842779
 20
146.0734584787
 10
133.0412333757
 20
146.1091091842
 10
133.0790182635
 20
146.1467483508
 10
133.1147414937
 20
146.1862714676
 10
133.1483091708
 20
146.2275670665
 10
133.1796336408
 20
146.2705192514
 10
133.208633487
 20
146.3150078382
 10
133.235233517
 20
146.3609083303
 10
133.2593652299
 20
146.4080926365
 10
133.2809666562
 20
146.4564287043
 10
133.2999834218
 20
146.5057829113
 10
133.3163677451
 20
146.5560180189
 10
133.3300795478
 20
146.6069964256
 10
133.3410853381
 20
146.6585768028
 10
133.3493597047
 20
146.710621246
 10
133.3548837562
 20
146.7629917495
 10
133.3576446521
 20
146.8155406295
  0
LWPOLYLINE
  5
3F2
100
AcDbEntity
  8
0
100
AcDbPolyline
 62
7
  6
CONTINUOUS
 90
31
 70
0
 10
112.3298229986
 20
145.8281550549
 10
112.357559386
 20
145.8285204586
 10
112.4120127528
 20
145.8313717957
 10
112.4661591287
 20
145.8370397937
 10
112.5198490858
 20
145.8455034214
 10
112.5729360673
 20
145.8567331122
 10
112.625277953
 20
145.8706916301
 10
112.6767318173
 20
145.8873329527
 10
112.7271633649
 20
145.9066052625
 10
112.7764377275
 20
145.928448364
 10
112.8244288524
 20
145.9527976378
 10
112.87101193
 20
145.9795812459
 10
112.9160671849
 20
146.0087219564
 10
112.9594779573
 20
146.0401361402
 10
113.0011327869
 20
146.0737351583
 10
113.0409244242
 20
146.1094247971
 10
113.0787497176
 20
146.1471049766
 10
113.1145111189
 20
146.1866710723
 10
113.1481146366
 20
146.228011496
 10
113.1794725272
 20
146.2710102271
 10
113.2085032907
 20
146.3155469515
 10
113.2351316515
 20
146.3614970259
 10
113.2592890597
 20
146.4087322582
 10
113.2809134918
 20
146.4571204848
 10
113.2999505172
 20
146.5065279592
 10
113.3163523199
 20
146.556817379
 10
113.3300787196
 20
146.6078508383
 10
113.3410961756
 20
146.6594867551
 10
113.3493792564
 20
146.7115869624
 10
113.3549090772
 20
146.7640131398
 10
113.3576728509
 20
146.8166174991
  0
LWPOLYLINE
  5
3F3
100
AcDbEntity
  8
0
100
AcDbPolyline
 62
7
  6
CONTINUOUS
 90
31
 70
0
 10
92.3298229986
 20
145.8281550549
 10
92.3575593861
 20
145.8285204586
 10
92.4120127528
 20
145.8313717957
 10
92.4661591287
 20
145.8370397938
 10
92.5198490859
 20
145.8455034214
 10
92.5729360674
 20
145.8567331123
 10
92.625277953
 20
145.8706916301
 10
92.6767318174
 20
145.8873329527
 10
92.727163365
 20
145.9066052625
 10
92.7764377276
 20
145.9284483641
 10
92.8244288525
 20
145.9527976379
 10
92.8710119301
 20
145.9795812459
 10
92.916067185
 20
146.0087219565
 10
92.9594779575
 20
146.0401361403
 10
93.001132787
 20
146.0737351584
 10
93.0409244243
 20
146.1094247972
 10
93.0787497177
 20
146.1471049767
 10
93.114511119
 20
146.1866710725
 10
93.1481146367
 20
146.2280114962
 10
93.1794725273
 20
146.2710102273
 10
93.2085032908
 20
146.3155469517
 10
93.2351316516
 20
146.3614970261
 10
93.2592890598
 20
146.4087322584
 10
93.2809134919
 20
146.457120485
 10
93.2999505173
 20
146.5065279595
 10
93.31635232
 20
146.5568173794
 10
93.3300787197
 20
146.6078508389
 10
93.3410961757
 20
146.6594867557
 10
93.3493792565
 20
146.711586963
 10
93.3549090773
 20
146.7640131402
 10
93.3576728509
 20
146.8166174991
  0
LWPOLYLINE
  5
3F4
100
AcDbEntity
  8
0
100
AcDbPolyline
 62
7
  6
CONTINUOUS
 90
31
 70
0
 10
72.3298229986
 20
145.8281550549
 10
72.3575594002
 20
145.8285204589
 10
72.4120127799
 20
145.8313717978
 10
72.4661591674
 20
145.8370397988
 10
72.5198491351
 20
145.8455034305
 10
72.5729361261
 20
145.8567331263
 10
72.6252780203
 20
145.8706916499
 10
72.6767318924
 20
145.8873329792
 10
72.7271634471
 20
145.9066052964
 10
72.7764378163
 20
145.9284484062
 10
72.8244289473
 20
145.9527976891
 10
72.8710120307
 20
145.9795813073
 10
72.9160672909
 20
146.008722029
 10
72.9594780686
 20
146.0401362252
 10
73.0011329029
 20
146.0737352571
 10
73.040924545
 20
146.1094249113
 10
73.0787498424
 20
146.1471051076
 10
73.1145112468
 20
146.1866712215
 10
73.1481147657
 20
146.2280116637
 10
73.1794726552
 20
146.2710104127
 10
73.2085034149
 20
146.3155471534
 10
73.235131766
 20
146.361497236
 10
73.2592891673
 20
146.4087324831
 10
73.2809135991
 20
146.4571207429
 10
73.2999506298
 20
146.506528276
 10
73.3163524491
 20
146.5568178136
 10
73.3300788508
 20
146.6078513827
 10
73.3410962874
 20
146.6594873559
 10
73.3493793303
 20
146.7115875212
 10
73.354909105
 20
146.7640134912
 10
73.3576728509
 20
146.8166174991
  0
LWPOLYLINE
  5
3F5
100
AcDbEntity
  8
0
100
AcDbPolyline
 62
7
  6
CONTINUOUS
 90
31
 70
0
 10
52.3298229986
 20
145.8281550549
 10
52.357559386
 20
145.8285204586
 10
52.4120127528
 20
145.8313717957
 10
52.4661591287
 20
145.8370397937
 10
52.5198490858
 20
145.8455034214
 10
52.5729360673
 20
145.8567331122
 10
52.625277953
 20
145.8706916301
 10
52.6767318173
 20
145.8873329527
 10
52.7271633649
 20
145.9066052625
 10
52.7764377275
 20
145.928448364
 10
52.8244288524
 20
145.9527976378
 10
52.87101193
 20
145.9795812459
 10
52.9160671849
 20
146.0087219564
 10
52.9594779573
 20
146.0401361402
 10
53.0011327869
 20
146.0737351583
 10
53.0409244242
 20
146.1094247971
 10
53.0787497176
 20
146.1471049766
 10
53.1145111189
 20
146.1866710723
 10
53.1481146366
 20
146.228011496
 10
53.1794725272
 20
146.2710102271
 10
53.2085032907
 20
146.3155469515
 10
53.2351316515
 20
146.3614970259
 10
53.2592890597
 20
146.4087322582
 10
53.2809134918
 20
146.4571204848
 10
53.2999505172
 20
146.5065279592
 10
53.3163523199
 20
146.556817379
 10
53.3300787196
 20
146.6078508383
 10
53.3410961756
 20
146.6594867551
 10
53.3493792564
 20
146.7115869624
 10
53.3549090772
 20
146.7640131398
 10
53.3576728509
 20
146.8166174991
  0
LINE
  5
3F6
100
AcDbEntity
  8
RUNDUNGEN
100
AcDbLine
 62
7
  6
CONTINUOUS
 10
45.3727890508
 20
145.8281550548
 11
67.4135667416
 21
145.8281550548
  0
LINE
  5
3F7
100
AcDbEntity
  8
0
100
AcDbLine
 62
7
  6
CONTINUOUS
 10
67.4135667416
 20
145.8281550548
 11
72.3298253473
 21
145.8281550548
  0
LINE
  5
3F8
100
AcDbEntity
  8
RUNDUNGEN
100
AcDbLine
 62
7
  6
CONTINUOUS
 10
72.3298253473
 20
145.8281550548
 11
87.4135667416
 21
145.8281550548
  0
LINE
  5
3F9
100
AcDbEntity
  8
0
100
AcDbLine
 62
7
  6
CONTINUOUS
 10
87.4135667416
 20
145.8281550548
 11
92.3298253473
 21
145.8281550548
  0
LINE
  5
3FA
100
AcDbEntity
  8
RUNDUNGEN
100
AcDbLine
 62
7
  6
CONTINUOUS
 10
92.3298253473
 20
145.8281550548
 11
107.4135667416
 21
145.8281550548
  0
LINE
  5
3FB
100
AcDbEntity
  8
0
100
AcDbLine
 62
7
  6
CONTINUOUS
 10
107.4135667416
 20
145.8281550548
 11
112.3298253473
 21
145.8281550548
  0
LINE
  5
3FC
100
AcDbEntity
  8
RUNDUNGEN
100
AcDbLine
 62
7
  6
CONTINUOUS
 10
112.3298253473
 20
145.8281550548
 11
144.3727890508
 21
145.8281550548
  0
LINE
  5
3FD
100
AcDbEntity
  8
0
100
AcDbLine
 62
7
  6
CONTINUOUS
 10
85.0414388241
 20
161.1987455323
 11
86.0550768698
 21
157.4157968454
  0
LINE
  5
3FE
100
AcDbEntity
  8
RUNDUNGEN
100
AcDbLine
 62
7
  6
CONTINUOUS
 10
86.0550762915
 20
157.4157990034
 11
85.4773366418
 21
159.5719527297
  0
LINE
  5
3FF
100
AcDbEntity
  8
RUNDUNGEN
100
AcDbLine
 62
7
  6
CONTINUOUS
 10
93.6230382345
 20
156.9505126518
 11
93.5003508487
 21
152.2652704099
  0
LINE
  5
400
100
AcDbEntity
  8
0
100
AcDbLine
 62
7
  6
CONTINUOUS
 10
93.3576728482
 20
146.8166173967
 11
93.6230382345
 21
156.9505126518
  0
LINE
  5
401
100
AcDbEntity
  8
0
100
AcDbLine
 62
7
  6
CONTINUOUS
 10
94.1689941814
 20
158.9290560995
 11
94.0819531884
 21
156.9781542564
  0
LINE
  5
402
100
AcDbEntity
  8
RUNDUNGEN
100
AcDbLine
 62
7
  6
CONTINUOUS
 10
94.2682424063
 20
159.5719562618
 11
93.690501729
 21
157.4157987007
  0
LINE
  5
403
100
AcDbEntity
  8
0
100
AcDbLine
 62
7
  6
CONTINUOUS
 10
93.6905012319
 20
157.4157968454
 11
94.7041392775
 21
161.1987455322
  0
LWPOLYLINE
  5
404
100
AcDbEntity
  8
RUNDUNGEN
100
AcDbPolyline
 62
7
  6
CONTINUOUS
 90
6
 70
0
 10
133.7436168966
 20
153.8092254057
 10
133.7580171267
 20
153.8099081796
 10
133.8404603318
 20
153.813222877
 10
133.9262671247
 20
153.8161185861
 10
134.0150544891
 20
153.8186057682
 10
134.1068512001
 20
153.8207138987
  0
LWPOLYLINE
  5
405
100
AcDbEntity
  8
0
100
AcDbPolyline
 62
7
  6
CONTINUOUS
 90
6
 70
0
 10
113.7436170427
 20
153.8092256187
 10
113.7579294936
 20
153.8099043488
 10
113.8403691431
 20
153.813219514
 10
113.9261732294
 20
153.816115696
 10
114.0149594069
 20
153.8186033536
 10
114.106756781
 20
153.8207119469
  0
LWPOLYLINE
  5
406
100
AcDbEntity
  8
0
100
AcDbPolyline
 62
7
  6
CONTINUOUS
 90
6
 70
0
 10
93.7436170427
 20
153.8092256187
 10
93.7579294936
 20
153.8099043488
 10
93.8403691431
 20
153.813219514
 10
93.9261732294
 20
153.816115696
 10
94.0149594069
 20
153.8186033536
 10
94.106756781
 20
153.8207119469
  0
LINE
  5
407
100
AcDbEntity
  8
RUNDUNGEN
100
AcDbLine
 62
7
  6
CONTINUOUS
 10
134.1068512001
 20
153.8207138987
 11
134.2991816036
 21
153.8239110816
  0
LINE
  5
408
100
AcDbEntity
  8
0
100
AcDbLine
 62
7
  6
CONTINUOUS
 10
114.106756781
 20
153.8207119469
 11
114.2990959223
 21
153.8239099644
  0
LINE
  5
409
100
AcDbEntity
  8
0
100
AcDbLine
 62
7
  6
CONTINUOUS
 10
94.106756781
 20
153.8207119469
 11
94.2990959223
 21
153.8239099644
  0
LINE
  5
40A
100
AcDbEntity
  8
0
100
AcDbLine
 62
7
  6
CONTINUOUS
 10
74.1067567521
 20
153.8207119463
 11
74.2990958967
 21
153.8239099641
  0
LINE
  5
40B
100
AcDbEntity
  8
RUNDUNGEN
100
AcDbLine
 62
7
  6
CONTINUOUS
 10
134.2991816036
 20
153.8239110816
 11
134.5043820186
 21
153.8259805092
  0
LINE
  5
40C
100
AcDbEntity
  8
0
100
AcDbLine
 62
7
  6
CONTINUOUS
 10
114.2990959223
 20
153.8239099644
 11
114.5043123639
 21
153.8259799855
  0
LINE
  5
40D
100
AcDbEntity
  8
0
100
AcDbLine
 62
7
  6
CONTINUOUS
 10
94.2990959223
 20
153.8239099644
 11
94.5043123638
 21
153.8259799855
  0
LINE
  5
40E
100
AcDbEntity
  8
0
100
AcDbLine
 62
7
  6
CONTINUOUS
 10
74.2990958967
 20
153.8239099641
 11
74.504312342
 21
153.8259799854
  0
LINE
  5
40F
100
AcDbEntity
  8
0
100
AcDbLine
 62
7
  6
CONTINUOUS
 10
54.2990959427
 20
153.8239099647
 11
54.5043123812
 21
153.8259799857
  0
LINE
  5
410
100
AcDbEntity
  8
RUNDUNGEN
100
AcDbLine
 62
7
  6
CONTINUOUS
 10
134.5043820186
 20
153.8259805092
 11
134.7236876066
 21
153.8271866378
  0
LINE
  5
411
100
AcDbEntity
  8
0
100
AcDbLine
 62
7
  6
CONTINUOUS
 10
114.5043123639
 20
153.8259799855
 11
114.723638174
 21
153.82718645
  0
LINE
  5
412
100
AcDbEntity
  8
0
100
AcDbLine
 62
7
  6
CONTINUOUS
 10
94.5043123638
 20
153.8259799855
 11
94.723638174
 21
153.82718645
  0
LINE
  5
413
100
AcDbEntity
  8
0
100
AcDbLine
 62
7
  6
CONTINUOUS
 10
74.504312342
 20
153.8259799854
 11
74.7236381565
 21
153.8271864499
  0
LINE
  5
414
100
AcDbEntity
  8
0
100
AcDbLine
 62
7
  6
CONTINUOUS
 10
54.5043123812
 20
153.8259799857
 11
54.7236381878
 21
153.82718645
  0
LINE
  5
415
100
AcDbEntity
  8
RUNDUNGEN
100
AcDbLine
 62
7
  6
CONTINUOUS
 10
134.7236876066
 20
153.8271866378
 11
135.0811526581
 21
153.8279373558
  0
LINE
  5
416
100
AcDbEntity
  8
0
100
AcDbLine
 62
7
  6
CONTINUOUS
 10
114.723638174
 20
153.82718645
 11
115.0811330813
 21
153.827937338
  0
LINE
  5
417
100
AcDbEntity
  8
0
100
AcDbLine
 62
7
  6
CONTINUOUS
 10
94.723638174
 20
153.82718645
 11
95.0811330813
 21
153.827937338
  0
LINE
  5
418
100
AcDbEntity
  8
0
100
AcDbLine
 62
7
  6
CONTINUOUS
 10
74.7236381565
 20
153.8271864499
 11
75.0811330718
 21
153.827937338
  0
LINE
  5
419
100
AcDbEntity
  8
0
100
AcDbLine
 62
7
  6
CONTINUOUS
 10
54.7236381878
 20
153.82718645
 11
55.0811330889
 21
153.827937338
  0
LINE
  5
41A
100
AcDbEntity
  8
RUNDUNGEN
100
AcDbLine
 62
7
  6
CONTINUOUS
 10
135.0811526581
 20
153.8279373558
 11
135.4547487141
 21
153.8280741466
  0
LINE
  5
41B
100
AcDbEntity
  8
0
100
AcDbLine
 62
7
  6
CONTINUOUS
 10
115.0811330813
 20
153.827937338
 11
115.4547487141
 21
153.8280741466
  0
LINE
  5
41C
100
AcDbEntity
  8
0
100
AcDbLine
 62
7
  6
CONTINUOUS
 10
95.0811330813
 20
153.827937338
 11
104.2908247985
 21
153.8280737626
  0
LINE
  5
41D
100
AcDbEntity
  8
RUNDUNGEN
100
AcDbLine
 62
7
  6
CONTINUOUS
 10
135.4547487142
 20
153.8280737626
 11
144.3727890508
 21
153.8280737626
  0
LINE
  5
41E
100
AcDbEntity
  8
RUNDUNGEN
100
AcDbLine
 62
7
  6
CONTINUOUS
 10
124.2908247976
 20
153.8281550548
 11
115.4547487142
 21
153.8281550548
  0
LINE
  5
41F
100
AcDbEntity
  8
RUNDUNGEN
100
AcDbLine
 62
7
  6
CONTINUOUS
 10
104.2908247976
 20
153.8281550548
 11
95.4547487142
 21
153.8281550548
  0
LINE
  5
420
100
AcDbEntity
  8
RUNDUNGEN
100
AcDbLine
 62
7
  6
CONTINUOUS
 10
84.2908247976
 20
153.8281550548
 11
75.4547487142
 21
153.8281550548
  0
LINE
  5
421
100
AcDbEntity
  8
RUNDUNGEN
100
AcDbLine
 62
7
  6
CONTINUOUS
 10
64.2908247976
 20
153.8281550548
 11
55.4547487142
 21
153.8281550548
  0
LINE
  5
422
100
AcDbEntity
  8
02___PRT_ALL_AXES
100
AcDbLine
 62
7
  6
CENTER
 10
42.6636248776
 20
153.8281550548
 11
147.0819532241
 21
153.8281550548
  0
LINE
  5
423
100
AcDbEntity
  8
RUNDUNGEN
100
AcDbLine
 62
7
  6
CONTINUOUS
 10
45.3727890508
 20
153.8281550548
 11
46.0028587373
 21
153.8281550548
  0
LINE
  5
424
100
AcDbEntity
  8
0
100
AcDbLine
 62
7
  6
CONTINUOUS
 10
55.0811330889
 20
153.827937338
 11
64.4041662926
 21
153.8280638178
  0
LINE
  5
425
100
AcDbEntity
  8
0
100
AcDbLine
 62
7
  6
CONTINUOUS
 10
75.0811330718
 20
153.827937338
 11
84.404166296
 21
153.8280638178
  0
LINE
  5
426
100
AcDbEntity
  8
0
100
AcDbLine
 62
7
  6
CONTINUOUS
 10
104.2908247976
 20
153.8280703138
 11
104.7873149957
 21
153.8277876712
  0
LINE
  5
427
100
AcDbEntity
  8
0
100
AcDbLine
 62
7
  6
CONTINUOUS
 10
115.4547487142
 20
153.8280737626
 11
124.7873149957
 21
153.8277876712
  0
LINE
  5
428
100
AcDbEntity
  8
0
100
AcDbLine
 62
7
  6
CONTINUOUS
 10
64.4041662926
 20
153.8280638178
 11
64.9071540262
 21
153.8275455272
  0
LINE
  5
429
100
AcDbEntity
  8
0
100
AcDbLine
 62
7
  6
CONTINUOUS
 10
84.404166296
 20
153.8280638178
 11
84.9071540423
 21
153.8275455271
  0
LINE
  5
42A
100
AcDbEntity
  8
0
100
AcDbLine
 62
7
  6
CONTINUOUS
 10
104.7873149957
 20
153.8277876712
 11
105.0228601582
 21
153.8271827275
  0
LINE
  5
42B
100
AcDbEntity
  8
0
100
AcDbLine
 62
7
  6
CONTINUOUS
 10
124.7873149957
 20
153.8277876712
 11
125.0228601583
 21
153.8271827275
  0
LINE
  5
42C
100
AcDbEntity
  8
0
100
AcDbLine
 62
7
  6
CONTINUOUS
 10
64.9071540262
 20
153.8275455272
 11
65.1343639094
 21
153.8266695244
  0
LINE
  5
42D
100
AcDbEntity
  8
0
100
AcDbLine
 62
7
  6
CONTINUOUS
 10
84.9071540423
 20
153.8275455271
 11
85.1343639305
 21
153.8266695243
  0
LINE
  5
42E
100
AcDbEntity
  8
0
100
AcDbLine
 62
7
  6
CONTINUOUS
 10
105.0228601582
 20
153.8271827275
 11
105.2420619677
 21
153.8259737289
  0
LINE
  5
42F
100
AcDbEntity
  8
0
100
AcDbLine
 62
7
  6
CONTINUOUS
 10
125.0228601583
 20
153.8271827275
 11
125.2420619678
 21
153.8259737289
  0
LINE
  5
430
100
AcDbEntity
  8
0
100
AcDbLine
 62
7
  6
CONTINUOUS
 10
65.1343639094
 20
153.8266695244
 11
65.3462954031
 21
153.8250617086
  0
LINE
  5
431
100
AcDbEntity
  8
0
100
AcDbLine
 62
7
  6
CONTINUOUS
 10
85.1343639305
 20
153.8266695243
 11
85.3462954286
 21
153.8250617083
  0
LINE
  5
432
100
AcDbEntity
  8
0
100
AcDbLine
 62
7
  6
CONTINUOUS
 10
105.2420619677
 20
153.8259737289
 11
105.4471609198
 21
153.8239008991
  0
LWPOLYLINE
  5
433
100
AcDbEntity
  8
0
100
AcDbPolyline
 62
7
  6
CONTINUOUS
 90
9
 70
0
 10
125.2420619678
 20
153.8259737289
 10
125.4471609199
 20
153.8239008991
 10
125.5448054779
 20
153.8224582806
 10
125.6393834755
 20
153.8207003063
 10
125.7311187985
 20
153.8185907492
 10
125.8198442938
 20
153.8161023558
 10
125.9055872054
 20
153.8132057831
 10
125.9879721145
 20
153.8098903012
 10
126.0019605028
 20
153.8092264971
  0
LWPOLYLINE
  5
434
100
AcDbEntity
  8
0
100
AcDbPolyline
 62
7
  6
CONTINUOUS
 90
8
 70
0
 10
65.3462954031
 20
153.8250617086
 10
65.5448054486
 20
153.8224582811
 10
65.6393834445
 20
153.820700307
 10
65.7311187659
 20
153.81859075
 10
65.8198442599
 20
153.8161023568
 10
65.9055871704
 20
153.8132057844
 10
65.9879720787
 20
153.8098903027
 10
66.0019605028
 20
153.809226497
  0
LWPOLYLINE
  5
435
100
AcDbEntity
  8
0
100
AcDbPolyline
 62
7
  6
CONTINUOUS
 90
8
 70
0
 10
85.3462954286
 20
153.8250617083
 10
85.5448054778
 20
153.8224582806
 10
85.6393834754
 20
153.8207003063
 10
85.7311187984
 20
153.8185907492
 10
85.8198442938
 20
153.8161023558
 10
85.9055872054
 20
153.8132057831
 10
85.9879721145
 20
153.8098903012
 10
86.0019605028
 20
153.8092264971
  0
LWPOLYLINE
  5
436
100
AcDbEntity
  8
0
100
AcDbPolyline
 62
7
  6
CONTINUOUS
 90
7
 70
0
 10
105.4471609198
 20
153.8239008991
 10
105.6393834754
 20
153.8207003063
 10
105.7311187984
 20
153.8185907492
 10
105.8198442937
 20
153.8161023558
 10
105.9055872053
 20
153.8132057831
 10
105.9879721144
 20
153.8098903012
 10
106.0019605028
 20
153.8092264971
  0
LWPOLYLINE
  5
437
100
AcDbEntity
  8
0
100
AcDbPolyline
 62
7
  6
CONTINUOUS
 90
6
 70
0
 10
73.7436170428
 20
153.8092256188
 10
73.7579294603
 20
153.8099043474
 10
73.8403691104
 20
153.8132195128
 10
73.9261731978
 20
153.816115695
 10
74.0149593765
 20
153.8186033528
 10
74.1067567521
 20
153.8207119463
  0
LWPOLYLINE
  5
438
100
AcDbEntity
  8
0
100
AcDbPolyline
 62
7
  6
CONTINUOUS
 90
6
 70
0
 10
53.7436170427
 20
153.8092256187
 10
53.7579295202
 20
153.80990435
 10
53.840369169
 20
153.813219515
 10
53.9261732545
 20
153.8161156968
 10
54.014959431
 20
153.8186033542
 10
54.1067568039
 20
153.8207119474
  0
LINE
  5
439
100
AcDbEntity
  8
0
100
AcDbLine
 62
7
  6
CONTINUOUS
 10
54.1067568039
 20
153.8207119474
 11
54.2990959427
 21
153.8239099647
  0
LWPOLYLINE
  5
43A
100
AcDbEntity
  8
0
100
AcDbPolyline
 62
7
  6
CONTINUOUS
 90
31
 70
0
 10
106.3879615391
 20
146.8144679371
 10
106.390719422
 20
146.7619762431
 10
106.3962374853
 20
146.7096623733
 10
106.4045029711
 20
146.6576737976
 10
106.4154970346
 20
146.6061485533
 10
106.4291942994
 20
146.5552245143
 10
106.4455612868
 20
146.5050429927
 10
106.4645578848
 20
146.4557416346
 10
106.486136376
 20
146.4074574374
 10
106.5102424393
 20
146.3603238624
 10
106.536814179
 20
146.3144727869
 10
106.5657831897
 20
146.2700321241
 10
106.5970743475
 20
146.2271262567
 10
106.6306063187
 20
146.185875244
 10
106.6662915379
 20
146.1463948619
 10
106.7040362032
 20
146.1087964632
 10
106.7437429684
 20
146.0731844462
 10
106.7853088955
 20
146.0396586748
 10
106.8286269546
 20
146.0083131609
 10
106.8735859156
 20
145.9792363512
 10
106.9200693557
 20
145.9525116957
 10
106.967957745
 20
145.9282162577
 10
107.0171265273
 20
145.9064217183
 10
107.0674499115
 20
145.8871925517
 10
107.1187932917
 20
145.8705888223
 10
107.1710226434
 20
145.8566622272
 10
107.2239953107
 20
145.8454586817
 10
107.2775694509
 20
145.8370153252
 10
107.3315987832
 20
145.8313616401
 10
107.3859341503
 20
145.828518584
 10
107.4135690885
 20
145.8281550549
  0
LINE
  5
43B
100
AcDbEntity
  8
02___PRT_ALL_AXES
100
AcDbLine
 62
7
  6
CONTINUOUS
 10
105.6636249157
 20
156.9781542003
 11
105.576583492
 21
158.9290656981
  0
LINE
  5
43C
100
AcDbEntity
  8
0
100
AcDbLine
 62
7
  6
CONTINUOUS
 10
106.1225398671
 20
156.9505126518
 11
106.3879615419
 21
146.8144678266
  0
LINE
  5
43D
100
AcDbEntity
  8
RUNDUNGEN
100
AcDbLine
 62
7
  6
CONTINUOUS
 10
106.2452272503
 20
152.2652705148
 11
106.1225398671
 21
156.9505126518
  0
LINE
  5
43E
100
AcDbEntity
  8
0
100
AcDbLine
 62
7
  6
CONTINUOUS
 10
134.2315542389
 20
161.8281550548
 11
134.2211763644
 21
161.8281550548
  0
LINE
  5
43F
100
AcDbEntity
  8
02___PRT_ALL_AXES
100
AcDbLine
 62
7
  6
CONTINUOUS
 10
134.2211763644
 20
161.8281550548
 11
125.5244017373
 21
161.8281550548
  0
LINE
  5
440
100
AcDbEntity
  8
02___PRT_ALL_AXES
100
AcDbLine
 62
7
  6
CONTINUOUS
 10
114.2211763644
 20
161.8281550548
 11
105.5244017373
 21
161.8281550548
  0
LINE
  5
441
100
AcDbEntity
  8
02___PRT_ALL_AXES
100
AcDbLine
 62
7
  6
CONTINUOUS
 10
94.2211763644
 20
161.8281550548
 11
85.5244017373
 21
161.8281550548
  0
LINE
  5
442
100
AcDbEntity
  8
02___PRT_ALL_AXES
100
AcDbLine
 62
7
  6
CONTINUOUS
 10
74.2211763644
 20
161.8281550548
 11
65.5244017373
 21
161.8281550548
  0
LINE
  5
443
100
AcDbEntity
  8
02___PRT_ALL_AXES
100
AcDbLine
 62
7
  6
CONTINUOUS
 10
54.2211763644
 20
161.8281550548
 11
45.5244017373
 21
161.8281550548
  0
LINE
  5
444
100
AcDbEntity
  8
RUNDUNGEN
100
AcDbLine
 62
7
  6
CONTINUOUS
 10
45.3727890508
 20
161.8281550548
 11
54.2211763644
 21
161.8281550548
  0
LINE
  5
445
100
AcDbEntity
  8
0
100
AcDbLine
 62
7
  6
CONTINUOUS
 10
54.2211763644
 20
161.8281550548
 11
125.5244017373
 21
161.8281550548
  0
LINE
  5
446
100
AcDbEntity
  8
RUNDUNGEN
100
AcDbLine
 62
7
  6
CONTINUOUS
 10
125.5244017373
 20
161.8281550548
 11
144.3727890508
 21
161.8281550548
  0
LINE
  5
447
100
AcDbEntity
  8
0
100
AcDbLine
 62
7
  6
CONTINUOUS
 10
105.0414388241
 20
161.1987455323
 11
106.0550768698
 21
157.4157968454
  0
LINE
  5
448
100
AcDbEntity
  8
RUNDUNGEN
100
AcDbLine
 62
7
  6
CONTINUOUS
 10
106.0550761885
 20
157.4157993879
 11
105.4773357161
 21
159.5719561845
  0
LINE
  5
449
100
AcDbEntity
  8
RUNDUNGEN
100
AcDbLine
 62
7
  6
CONTINUOUS
 10
113.6230382345
 20
156.9505126518
 11
113.5003508487
 21
152.2652704099
  0
LINE
  5
44A
100
AcDbEntity
  8
0
100
AcDbLine
 62
7
  6
CONTINUOUS
 10
113.3576728482
 20
146.8166173967
 11
113.6230382345
 21
156.9505126518
  0
LINE
  5
44B
100
AcDbEntity
  8
RUNDUNGEN
100
AcDbLine
 62
7
  6
CONTINUOUS
 10
114.2682424063
 20
159.5719562618
 11
113.690501729
 21
157.4157987007
  0
LINE
  5
44C
100
AcDbEntity
  8
0
100
AcDbLine
 62
7
  6
CONTINUOUS
 10
113.6905012319
 20
157.4157968454
 11
114.7041392775
 21
161.1987455322
  0
LINE
  5
44D
100
AcDbEntity
  8
0
100
AcDbLine
 62
7
  6
CONTINUOUS
 10
114.1689941814
 20
158.9290560995
 11
114.0819531884
 21
156.9781542564
  0
LWPOLYLINE
  5
44E
100
AcDbEntity
  8
0
100
AcDbPolyline
 62
7
  6
CONTINUOUS
 90
31
 70
0
 10
126.3879615391
 20
146.8144679371
 10
126.3907194749
 20
146.7619755734
 10
126.3962376254
 20
146.7096613135
 10
126.404503181
 20
146.6576726692
 10
126.4154972773
 20
146.6061475465
 10
126.4291945324
 20
146.5552237308
 10
126.4455614814
 20
146.5050424452
 10
126.4645580639
 20
146.455741204
 10
126.4861365515
 20
146.4074570711
 10
126.5102426248
 20
146.3603235219
 10
126.5368143813
 20
146.3144724581
 10
126.5657833983
 20
146.2700318218
 10
126.5970745578
 20
146.2271259837
 10
126.630606527
 20
146.1858750011
 10
126.6662917411
 20
146.1463946486
 10
126.7040364
 20
146.1087962772
 10
126.7437431575
 20
146.0731842853
 10
126.7853090767
 20
146.0396585363
 10
126.8286271275
 20
146.0083130426
 10
126.8735860796
 20
145.9792362511
 10
126.9200695103
 20
145.9525116121
 10
126.9679578897
 20
145.928216189
 10
127.0171266612
 20
145.906421663
 10
127.0674500339
 20
145.8871925086
 10
127.1187934013
 20
145.87058879
 10
127.1710227391
 20
145.8566622044
 10
127.2239953909
 20
145.8454586669
 10
127.277569514
 20
145.837015317
 10
127.3315988273
 20
145.8313616366
 10
127.3859341733
 20
145.8285185834
 10
127.4135690885
 20
145.8281550549
  0
LINE
  5
44F
100
AcDbEntity
  8
02___PRT_ALL_AXES
100
AcDbLine
 62
7
  6
CONTINUOUS
 10
125.6636249157
 20
156.9781542003
 11
125.576583492
 21
158.9290656981
  0
LINE
  5
450
100
AcDbEntity
  8
0
100
AcDbLine
 62
7
  6
CONTINUOUS
 10
126.1225398671
 20
156.9505126518
 11
126.3879615419
 21
146.8144678266
  0
LINE
  5
451
100
AcDbEntity
  8
RUNDUNGEN
100
AcDbLine
 62
7
  6
CONTINUOUS
 10
126.2452272503
 20
152.2652705148
 11
126.1225398671
 21
156.9505126518
  0
LINE
  5
452
100
AcDbEntity
  8
0
100
AcDbLine
 62
7
  6
CONTINUOUS
 10
125.0414388241
 20
161.1987455323
 11
126.0550768698
 21
157.4157968454
  0
LINE
  5
453
100
AcDbEntity
  8
RUNDUNGEN
100
AcDbLine
 62
7
  6
CONTINUOUS
 10
126.0550761885
 20
157.4157993879
 11
125.4773357161
 21
159.5719561845
  0
LINE
  5
454
100
AcDbEntity
  8
RUNDUNGEN
100
AcDbLine
 62
7
  6
CONTINUOUS
 10
134.7041392775
 20
161.1987455322
 11
133.6905022307
 21
157.4158005731
  0
LINE
  5
455
100
AcDbEntity
  8
RUNDUNGEN
100
AcDbLine
 62
7
  6
CONTINUOUS
 10
133.3576446525
 20
146.8155406484
 11
133.6230382308
 21
156.9505125097
  0
LINE
  5
456
100
AcDbEntity
  8
0
100
AcDbLine
 62
7
  6
CONTINUOUS
 10
134.1689974263
 20
158.9291288283
 11
134.0819531884
 21
156.978154255
  0
LINE
  5
457
100
AcDbEntity
  8
RUNDUNGEN
100
AcDbLine
 62
7
  6
CONTINUOUS
 10
144.8727890508
 20
161.3281550548
 11
144.8727890508
 21
146.3281550548
  0
LINE
  5
458
100
AcDbEntity
  8
02___PRT_ALL_AXES
100
AcDbLine
 62
7
  6
CENTER
 10
200.4049171958
 20
153.8281550548
 11
200.4049171958
 21
147.6781550548
  0
LINE
  5
459
100
AcDbEntity
  8
02___PRT_ALL_AXES
100
AcDbLine
 62
7
  6
CENTER
 10
200.4049171958
 20
153.8281550548
 11
200.4049171958
 21
159.9781550548
  0
LINE
  5
45A
100
AcDbEntity
  8
RUNDUNGEN
100
AcDbLine
 62
7
  6
CONTINUOUS
 10
205.0284705864
 20
160.9746016642
 11
211.5892069218
 21
154.4138653288
  0
LINE
  5
45B
100
AcDbEntity
  8
RUNDUNGEN
100
AcDbLine
 62
7
  6
CONTINUOUS
 10
252.1034168223
 20
145.8281550548
 11
248.7064166271
 21
145.8281550548
  0
LINE
  5
45C
100
AcDbEntity
  8
0
100
AcDbLine
 62
7
  6
CONTINUOUS
 10
252.1034171958
 20
145.8281550548
 11
248.7064171958
 21
145.8281550548
  0
LINE
  5
45D
100
AcDbEntity
  8
RUNDUNGEN
100
AcDbLine
 62
7
  6
CONTINUOUS
 10
198.7064167693
 20
145.8281550548
 11
202.1034208242
 21
145.8281550548
  0
LINE
  5
45E
100
AcDbEntity
  8
RUNDUNGEN
100
AcDbLine
 62
7
  6
CONTINUOUS
 10
224.2549171958
 20
145.8281550548
 11
226.5549171958
 21
145.8281550548
  0
LINE
  5
45F
100
AcDbEntity
  8
02___PRT_ALL_AXES
100
AcDbLine
 62
7
  6
CENTER
 10
250.4049171958
 20
153.8281550548
 11
244.2549171958
 21
153.8281550548
  0
LINE
  5
460
100
AcDbEntity
  8
02___PRT_ALL_AXES
100
AcDbLine
 62
7
  6
CENTER
 10
200.4049171958
 20
153.8281550548
 11
194.2549171958
 21
153.8281550548
  0
LINE
  5
461
100
AcDbEntity
  8
02___PRT_ALL_AXES
100
AcDbLine
 62
7
  6
CENTER
 10
200.4049171958
 20
153.8281550548
 11
206.5549171958
 21
153.8281550548
  0
LINE
  5
462
100
AcDbEntity
  8
RUNDUNGEN
100
AcDbLine
 62
7
  6
CONTINUOUS
 10
213.0077765167
 20
153.8280784952
 11
221.0099171958
 21
153.8281550548
  0
LINE
  5
463
100
AcDbEntity
  8
RUNDUNGEN
100
AcDbLine
 62
7
  6
CONTINUOUS
 10
229.7999171958
 20
153.8281550548
 11
237.7671079345
 21
153.8281550548
  0
LINE
  5
464
100
AcDbEntity
  8
02___PRT_ALL_AXES
100
AcDbLine
 62
7
  6
CENTER
 10
250.4049171958
 20
153.8281550548
 11
256.5549171958
 21
153.8281550548
  0
LINE
  5
465
100
AcDbEntity
  8
RUNDUNGEN
100
AcDbLine
 62
7
  6
CONTINUOUS
 10
200.4049176496
 20
161.8281550548
 11
250.404916759
 21
161.8281550548
  0
LINE
  5
466
100
AcDbEntity
  8
RUNDUNGEN
100
AcDbLine
 62
7
  6
CONTINUOUS
 10
235.4049171958
 20
154.3281550548
 11
235.4049171958
 21
154.620719985
  0
LINE
  5
467
100
AcDbEntity
  8
02___PRT_ALL_AXES
100
AcDbLine
 62
7
  6
CENTER
 10
250.4049171958
 20
153.8281550548
 11
250.4049171958
 21
147.6781550548
  0
LINE
  5
468
100
AcDbEntity
  8
02___PRT_ALL_AXES
100
AcDbLine
 62
7
  6
CENTER
 10
250.4049171958
 20
153.8281550548
 11
250.4049171958
 21
159.9781550548
  0
ARC
  5
469
100
AcDbEntity
  8
RUNDUNGEN
100
AcDbCircle
 62
7
  6
CONTINUOUS
 10
145.7211763069
 20
77.9209722481
 40
1.0000000011
100
AcDbArc
 50
180.0000069672
 51
205.9829028655
  0
ARC
  5
46A
100
AcDbEntity
  8
RUNDUNGEN
100
AcDbCircle
 62
7
  6
CONTINUOUS
 10
44.0244017946
 20
57.6066635897
 40
1.0000000011
100
AcDbArc
 50
0.0000069681
 51
25.9829028629
  0
ARC
  5
46B
100
AcDbEntity
  8
RUNDUNGEN
100
AcDbCircle
 62
7
  6
CONTINUOUS
 10
144.3727884467
 20
47.7409253042
 40
0.5000006041
100
AcDbArc
 50
270.000069224
 51
359.999930776
  0
ARC
  5
46C
100
AcDbEntity
  8
RUNDUNGEN
100
AcDbCircle
 62
7
  6
CONTINUOUS
 10
45.3727896549
 20
87.7867105337
 40
0.5000006041
100
AcDbArc
 50
90.000069224
 51
179.999930776
  0
ARC
  5
46D
100
AcDbEntity
  8
RUNDUNGEN
100
AcDbCircle
 62
7
  6
CONTINUOUS
 10
144.3727890508
 20
77.2638179189
 40
0.5
100
AcDbArc
 50
0.0
 51
25.9828971529
  0
ARC
  5
46E
100
AcDbEntity
  8
RUNDUNGEN
100
AcDbCircle
 62
7
  6
CONTINUOUS
 10
45.3727890508
 20
58.2638179189
 40
0.5
100
AcDbArc
 50
180.0
 51
205.9828971535
  0
ARC
  5
46F
100
AcDbEntity
  8
RUNDUNGEN
100
AcDbCircle
 62
7
  6
CONTINUOUS
 10
45.3727890508
 20
146.3281550548
 40
0.5
100
AcDbArc
 50
180.0
 51
270.0
  0
ARC
  5
470
100
AcDbEntity
  8
0
100
AcDbCircle
 62
7
  6
CONTINUOUS
 10
51.6068440509
 20
153.9233762964
 40
2.1379968286
100
AcDbArc
 50
343.8832555275
 51
357.4473392672
  0
ARC
  5
471
100
AcDbEntity
  8
0
100
AcDbCircle
 62
7
  6
CONTINUOUS
 10
48.1387339204
 20
153.9233762789
 40
2.1379966976
100
AcDbArc
 50
182.5526604192
 51
196.1168470272
  0
ARC
  5
472
100
AcDbEntity
  8
0
100
AcDbCircle
 62
7
  6
CONTINUOUS
 10
55.6223528845
 20
156.8981587552
 40
2.0
100
AcDbArc
 50
164.9999995066
 51
178.5000040547
  0
ARC
  5
473
100
AcDbEntity
  8
RUNDUNGEN
100
AcDbCircle
 62
7
  6
CONTINUOUS
 10
44.1232252172
 20
156.8981587552
 40
2.0
100
AcDbArc
 50
1.4999989269
 51
15.0000015359
  0
ARC
  5
474
100
AcDbEntity
  8
0
100
AcDbCircle
 62
7
  6
CONTINUOUS
 10
64.1232252172
 20
156.8981587552
 40
2.0
100
AcDbArc
 50
1.4999989378
 51
15.000001533
  0
ARC
  5
475
100
AcDbEntity
  8
RUNDUNGEN
100
AcDbCircle
 62
7
  6
CONTINUOUS
 10
45.3727890508
 20
154.3281550548
 40
0.5
100
AcDbArc
 50
180.0
 51
270.0
  0
ARC
  5
476
100
AcDbEntity
  8
RUNDUNGEN
100
AcDbCircle
 62
7
  6
CONTINUOUS
 10
57.1660195425
 20
158.7954978477
 40
2.9999999791
100
AcDbArc
 50
165.0000114215
 51
177.4453986669
  0
ARC
  5
477
100
AcDbEntity
  8
RUNDUNGEN
100
AcDbCircle
 62
7
  6
CONTINUOUS
 10
42.5795585593
 20
158.7954978473
 40
2.999999979
100
AcDbArc
 50
2.5546013331
 51
14.9999885733
  0
ARC
  5
478
100
AcDbEntity
  8
RUNDUNGEN
100
AcDbCircle
 62
7
  6
CONTINUOUS
 10
62.5795585654
 20
158.7954978243
 40
2.9999999785
100
AcDbArc
 50
2.5546013331
 51
14.9999882773
  0
ARC
  5
479
100
AcDbEntity
  8
0
100
AcDbCircle
 62
7
  6
CONTINUOUS
 10
65.5244017376
 20
161.3281550536
 40
0.5
100
AcDbArc
 50
90.0000000367
 51
194.9999998582
  0
ARC
  5
47A
100
AcDbEntity
  8
0
100
AcDbCircle
 62
7
  6
CONTINUOUS
 10
54.2211763655
 20
161.3281550548
 40
0.4999999999
100
AcDbArc
 50
344.999999963
 51
90.0000001313
  0
ARC
  5
47B
100
AcDbEntity
  8
RUNDUNGEN
100
AcDbCircle
 62
7
  6
CONTINUOUS
 10
45.5244017373
 20
161.3281550548
 40
0.5
100
AcDbArc
 50
89.999976723
 51
195.0000849302
  0
ARC
  5
47C
100
AcDbEntity
  8
RUNDUNGEN
100
AcDbCircle
 62
7
  6
CONTINUOUS
 10
45.3727890508
 20
161.3281550548
 40
0.5
100
AcDbArc
 50
90.0
 51
180.0
  0
ARC
  5
47D
100
AcDbEntity
  8
0
100
AcDbCircle
 62
7
  6
CONTINUOUS
 10
91.606844049
 20
153.9233762966
 40
2.1379968306
100
AcDbArc
 50
343.8832555115
 51
357.4473392641
  0
ARC
  5
47E
100
AcDbEntity
  8
0
100
AcDbCircle
 62
7
  6
CONTINUOUS
 10
71.606844051
 20
153.9233762964
 40
2.1379968286
100
AcDbArc
 50
343.8832555278
 51
357.4473392672
  0
ARC
  5
47F
100
AcDbEntity
  8
0
100
AcDbCircle
 62
7
  6
CONTINUOUS
 10
88.1387340239
 20
153.9233762901
 40
2.1379968016
100
AcDbArc
 50
182.5526605973
 51
196.1168344412
  0
ARC
  5
480
100
AcDbEntity
  8
0
100
AcDbCircle
 62
7
  6
CONTINUOUS
 10
68.1387340238
 20
153.9233762901
 40
2.1379968014
100
AcDbArc
 50
182.5526605971
 51
196.1168344401
  0
ARC
  5
481
100
AcDbEntity
  8
0
100
AcDbCircle
 62
7
  6
CONTINUOUS
 10
84.1232252172
 20
156.8981587552
 40
2.0
100
AcDbArc
 50
1.5
 51
15.0
  0
ARC
  5
482
100
AcDbEntity
  8
0
100
AcDbCircle
 62
7
  6
CONTINUOUS
 10
75.6223528845
 20
156.8981587552
 40
2.0
100
AcDbArc
 50
165.0
 51
178.5
  0
ARC
  5
483
100
AcDbEntity
  8
RUNDUNGEN
100
AcDbCircle
 62
7
  6
CONTINUOUS
 10
82.5795585654
 20
158.7954978243
 40
2.9999999785
100
AcDbArc
 50
2.5546013331
 51
14.9999882773
  0
ARC
  5
484
100
AcDbEntity
  8
RUNDUNGEN
100
AcDbCircle
 62
7
  6
CONTINUOUS
 10
77.166019536
 20
158.7954978233
 40
2.9999999785
100
AcDbArc
 50
165.0000117353
 51
177.4453986669
  0
ARC
  5
485
100
AcDbEntity
  8
0
100
AcDbCircle
 62
7
  6
CONTINUOUS
 10
85.5244017376
 20
161.3281550536
 40
0.5
100
AcDbArc
 50
90.0000000367
 51
194.9999998582
  0
ARC
  5
486
100
AcDbEntity
  8
0
100
AcDbCircle
 62
7
  6
CONTINUOUS
 10
74.2211763655
 20
161.3281550548
 40
0.4999999999
100
AcDbArc
 50
344.999999963
 51
90.0000001313
  0
ARC
  5
487
100
AcDbEntity
  8
RUNDUNGEN
100
AcDbCircle
 62
7
  6
CONTINUOUS
 10
144.3727890508
 20
146.3281550548
 40
0.5
100
AcDbArc
 50
270.0
 51
360.0
  0
ARC
  5
488
100
AcDbEntity
  8
RUNDUNGEN
100
AcDbCircle
 62
7
  6
CONTINUOUS
 10
137.166019536
 20
158.7954978233
 40
2.9999999785
100
AcDbArc
 50
165.0000117353
 51
177.4453986669
  0
ARC
  5
489
100
AcDbEntity
  8
RUNDUNGEN
100
AcDbCircle
 62
7
  6
CONTINUOUS
 10
122.5795585627
 20
158.7954978344
 40
2.9999999787
100
AcDbArc
 50
2.5546013331
 51
14.9999884076
  0
ARC
  5
48A
100
AcDbEntity
  8
RUNDUNGEN
100
AcDbCircle
 62
7
  6
CONTINUOUS
 10
117.1660195383
 20
158.7954978319
 40
2.9999999787
100
AcDbArc
 50
165.0000116234
 51
177.4453986669
  0
ARC
  5
48B
100
AcDbEntity
  8
RUNDUNGEN
100
AcDbCircle
 62
7
  6
CONTINUOUS
 10
102.5795585627
 20
158.7954978344
 40
2.9999999787
100
AcDbArc
 50
2.5546013331
 51
14.9999884076
  0
ARC
  5
48C
100
AcDbEntity
  8
RUNDUNGEN
100
AcDbCircle
 62
7
  6
CONTINUOUS
 10
97.1660195383
 20
158.7954978319
 40
2.9999999787
100
AcDbArc
 50
165.0000116234
 51
177.4453986669
  0
ARC
  5
48D
100
AcDbEntity
  8
0
100
AcDbCircle
 62
7
  6
CONTINUOUS
 10
131.6068440494
 20
153.9233762965
 40
2.1379968302
100
AcDbArc
 50
343.8832555144
 51
357.4473392646
  0
ARC
  5
48E
100
AcDbEntity
  8
0
100
AcDbCircle
 62
7
  6
CONTINUOUS
 10
111.6068440502
 20
153.9233762965
 40
2.1379968293
100
AcDbArc
 50
343.8832555216
 51
357.447339266
  0
ARC
  5
48F
100
AcDbEntity
  8
0
100
AcDbCircle
 62
7
  6
CONTINUOUS
 10
128.1387340239
 20
153.9233762901
 40
2.1379968016
100
AcDbArc
 50
182.5526605973
 51
196.1168344412
  0
ARC
  5
490
100
AcDbEntity
  8
0
100
AcDbCircle
 62
7
  6
CONTINUOUS
 10
108.1387340237
 20
153.9233762901
 40
2.1379968014
100
AcDbArc
 50
182.552660597
 51
196.1168344395
  0
ARC
  5
491
100
AcDbEntity
  8
0
100
AcDbCircle
 62
7
  6
CONTINUOUS
 10
95.6223528845
 20
156.8981587552
 40
2.0
100
AcDbArc
 50
165.0
 51
178.5
  0
ARC
  5
492
100
AcDbEntity
  8
0
100
AcDbCircle
 62
7
  6
CONTINUOUS
 10
115.6223528845
 20
156.8981587552
 40
2.0
100
AcDbArc
 50
165.0
 51
178.5
  0
ARC
  5
493
100
AcDbEntity
  8
0
100
AcDbCircle
 62
7
  6
CONTINUOUS
 10
104.1232252172
 20
156.8981587552
 40
2.0
100
AcDbArc
 50
1.5
 51
15.0
  0
ARC
  5
494
100
AcDbEntity
  8
RUNDUNGEN
100
AcDbCircle
 62
7
  6
CONTINUOUS
 10
135.6223528845
 20
156.8981587552
 40
2.0
100
AcDbArc
 50
164.9999995065
 51
178.5000040727
  0
ARC
  5
495
100
AcDbEntity
  8
0
100
AcDbCircle
 62
7
  6
CONTINUOUS
 10
124.1232252172
 20
156.8981587552
 40
2.0
100
AcDbArc
 50
1.5
 51
15.0
  0
ARC
  5
496
100
AcDbEntity
  8
0
100
AcDbCircle
 62
7
  6
CONTINUOUS
 10
105.5244017376
 20
161.3281550536
 40
0.5
100
AcDbArc
 50
90.0000000367
 51
194.9999998582
  0
ARC
  5
497
100
AcDbEntity
  8
0
100
AcDbCircle
 62
7
  6
CONTINUOUS
 10
94.2211763655
 20
161.3281550548
 40
0.4999999999
100
AcDbArc
 50
344.999999963
 51
90.0000001313
  0
ARC
  5
498
100
AcDbEntity
  8
0
100
AcDbCircle
 62
7
  6
CONTINUOUS
 10
125.5244017376
 20
161.3281550536
 40
0.5
100
AcDbArc
 50
90.0000000367
 51
194.9999998582
  0
ARC
  5
499
100
AcDbEntity
  8
0
100
AcDbCircle
 62
7
  6
CONTINUOUS
 10
114.2211763655
 20
161.3281550548
 40
0.4999999999
100
AcDbArc
 50
344.999999963
 51
90.0000001313
  0
ARC
  5
49A
100
AcDbEntity
  8
RUNDUNGEN
100
AcDbCircle
 62
7
  6
CONTINUOUS
 10
134.2211763644
 20
161.3281550548
 40
0.5
100
AcDbArc
 50
345.0
 51
90.0
  0
ARC
  5
49B
100
AcDbEntity
  8
RUNDUNGEN
100
AcDbCircle
 62
7
  6
CONTINUOUS
 10
144.3727890508
 20
154.3280738931
 40
0.5
100
AcDbArc
 50
270.0
 51
360.0
  0
ARC
  5
49C
100
AcDbEntity
  8
RUNDUNGEN
100
AcDbCircle
 62
7
  6
CONTINUOUS
 10
144.3727890508
 20
161.3281550548
 40
0.5
100
AcDbArc
 50
0.0
 51
90.0
  0
ARC
  5
49D
100
AcDbEntity
  8
RUNDUNGEN
100
AcDbCircle
 62
7
  6
CONTINUOUS
 10
220.159330603
 20
142.4338723214
 40
30.0
100
AcDbArc
 50
142.7578071895
 51
148.8070367725
  0
ARC
  5
49E
100
AcDbEntity
  8
RUNDUNGEN
100
AcDbCircle
 62
7
  6
CONTINUOUS
 10
213.0427263118
 20
146.3281550548
 40
7.5
100
AcDbArc
 50
90.0
 51
149.745121462
  0
ARC
  5
49F
100
AcDbEntity
  8
0
100
AcDbCircle
 62
7
  6
CONTINUOUS
 10
213.0427263118
 20
146.3281550548
 40
7.5
100
AcDbArc
 50
90.2515157985
 51
117.0806367607
  0
ARC
  5
4A0
100
AcDbEntity
  8
RUNDUNGEN
100
AcDbCircle
 62
7
  6
CONTINUOUS
 10
202.1034171958
 20
148.8281550548
 40
3.0
100
AcDbArc
 50
270.0000692971
 51
322.6129789636
  0
ARC
  5
4A1
100
AcDbEntity
  8
RUNDUNGEN
100
AcDbCircle
 62
7
  6
CONTINUOUS
 10
198.7064171958
 20
148.8281550548
 40
3.0
100
AcDbArc
 50
217.3870279121
 51
269.9999918552
  0
ARC
  5
4A2
100
AcDbEntity
  8
RUNDUNGEN
100
AcDbCircle
 62
7
  6
CONTINUOUS
 10
221.0099171958
 20
152.8281550548
 40
1.0
100
AcDbArc
 50
4.8980862274
 51
90.0
  0
ARC
  5
4A3
100
AcDbEntity
  8
RUNDUNGEN
100
AcDbCircle
 62
7
  6
CONTINUOUS
 10
224.2549171958
 20
146.8281550548
 40
1.0
100
AcDbArc
 50
198.0456823953
 51
270.0
  0
ARC
  5
4A4
100
AcDbEntity
  8
RUNDUNGEN
100
AcDbCircle
 62
7
  6
CONTINUOUS
 10
180.6505037886
 20
165.2224377882
 40
30.0
100
AcDbArc
 50
322.6129927263
 51
329.7451204898
  0
ARC
  5
4A5
100
AcDbEntity
  8
RUNDUNGEN
100
AcDbCircle
 62
7
  6
CONTINUOUS
 10
220.159330603
 20
165.2224377882
 40
30.0
100
AcDbArc
 50
211.1929634601
 51
217.3870079613
  0
ARC
  5
4A6
100
AcDbEntity
  8
RUNDUNGEN
100
AcDbCircle
 62
7
  6
CONTINUOUS
 10
200.4076468091
 20
155.3469725389
 40
28.5
100
AcDbArc
 50
341.9543176047
 51
355.1019137726
  0
ARC
  5
4A7
100
AcDbEntity
  8
RUNDUNGEN
100
AcDbCircle
 62
7
  6
CONTINUOUS
 10
200.4049171958
 20
153.8281550548
 40
8.0
100
AcDbArc
 50
89.9999967498
 51
118.4248196724
  0
ARC
  5
4A8
100
AcDbEntity
  8
RUNDUNGEN
100
AcDbCircle
 62
7
  6
CONTINUOUS
 10
201.3399171958
 20
153.8281550548
 40
8.0
100
AcDbArc
 50
148.8070346348
 51
211.1929662373
  0
ARC
  5
4A9
100
AcDbEntity
  8
0
100
AcDbCircle
 62
7
  6
CONTINUOUS
 10
200.4049171958
 20
153.8281550548
 40
3.15
100
AcDbArc
 50
330.2541561818
 51
209.745872289
  0
ARC
  5
4AA
100
AcDbEntity
  8
RUNDUNGEN
100
AcDbCircle
 62
7
  6
CONTINUOUS
 10
200.4049171958
 20
153.8281550548
 40
3.15
100
AcDbArc
 50
209.745872289
 51
330.2541561818
  0
ARC
  5
4AB
100
AcDbEntity
  8
RUNDUNGEN
100
AcDbCircle
 62
7
  6
CONTINUOUS
 10
213.0034256127
 20
155.8280737626
 40
2.0
100
AcDbArc
 50
224.99979222
 51
270.2372152007
  0
ARC
  5
4AC
100
AcDbEntity
  8
0
100
AcDbCircle
 62
7
  6
CONTINUOUS
 10
213.0034267266
 20
155.8280735943
 40
1.9999994478
100
AcDbArc
 50
269.2249198772
 51
270.2370217716
  0
ARC
  5
4AD
100
AcDbEntity
  8
0
100
AcDbCircle
 62
7
  6
CONTINUOUS
 10
213.0034267266
 20
155.8280735943
 40
1.9999994478
100
AcDbArc
 50
227.4879694625
 51
268.4970896512
  0
ARC
  5
4AE
100
AcDbEntity
  8
RUNDUNGEN
100
AcDbCircle
 62
7
  6
CONTINUOUS
 10
197.0728808872
 20
159.9842523606
 40
1.0
100
AcDbArc
 50
118.4248324697
 51
142.7578078741
  0
ARC
  5
4AF
100
AcDbEntity
  8
RUNDUNGEN
100
AcDbCircle
 62
7
  6
CONTINUOUS
 10
205.382032152
 20
161.3281550548
 40
0.4999999992
100
AcDbArc
 50
90.0
 51
224.9979804859
  0
ARC
  5
4B0
100
AcDbEntity
  8
0
100
AcDbCircle
 62
7
  6
CONTINUOUS
 10
205.3820311157
 20
161.3281550548
 40
0.4999999989
100
AcDbArc
 50
90.00040848
 51
91.6887763955
  0
ARC
  5
4B1
100
AcDbEntity
  8
RUNDUNGEN
100
AcDbCircle
 62
7
  6
CONTINUOUS
 10
230.6505037886
 20
142.4338723214
 40
30.0
100
AcDbArc
 50
31.1929631106
 51
37.2421930051
  0
ARC
  5
4B2
100
AcDbEntity
  8
RUNDUNGEN
100
AcDbCircle
 62
7
  6
CONTINUOUS
 10
237.7671080798
 20
146.3281550548
 40
7.5
100
AcDbArc
 50
30.2548794481
 51
90.0000011104
  0
ARC
  5
4B3
100
AcDbEntity
  8
RUNDUNGEN
100
AcDbCircle
 62
7
  6
CONTINUOUS
 10
248.7064171958
 20
148.8281550548
 40
3.0
100
AcDbArc
 50
217.3870061594
 51
269.9999891393
  0
ARC
  5
4B4
100
AcDbEntity
  8
RUNDUNGEN
100
AcDbCircle
 62
7
  6
CONTINUOUS
 10
252.1034171958
 20
148.8281550548
 40
3.0
100
AcDbArc
 50
269.9999928671
 51
322.6129918159
  0
ARC
  5
4B5
100
AcDbEntity
  8
RUNDUNGEN
100
AcDbCircle
 62
7
  6
CONTINUOUS
 10
226.5549171958
 20
146.8281550548
 40
1.0
100
AcDbArc
 50
270.0
 51
341.9543176047
  0
ARC
  5
4B6
100
AcDbEntity
  8
RUNDUNGEN
100
AcDbCircle
 62
7
  6
CONTINUOUS
 10
229.7999171958
 20
152.8281550548
 40
1.0
100
AcDbArc
 50
90.0
 51
175.1019137726
  0
ARC
  5
4B7
100
AcDbEntity
  8
RUNDUNGEN
100
AcDbCircle
 62
7
  6
CONTINUOUS
 10
270.159330603
 20
165.2224377882
 40
30.0
100
AcDbArc
 50
210.2548792826
 51
217.387005786
  0
ARC
  5
4B8
100
AcDbEntity
  8
RUNDUNGEN
100
AcDbCircle
 62
7
  6
CONTINUOUS
 10
230.6505037886
 20
165.2224377882
 40
30.0
100
AcDbArc
 50
322.6129940115
 51
328.8070363029
  0
ARC
  5
4B9
100
AcDbEntity
  8
RUNDUNGEN
100
AcDbCircle
 62
7
  6
CONTINUOUS
 10
250.4021875824
 20
155.3469725389
 40
28.5
100
AcDbArc
 50
184.8980862274
 51
198.0456823953
  0
ARC
  5
4BA
100
AcDbEntity
  8
RUNDUNGEN
100
AcDbCircle
 62
7
  6
CONTINUOUS
 10
250.4049171958
 20
153.8281550548
 40
8.0
100
AcDbArc
 50
61.5753933659
 51
90.0000031284
  0
ARC
  5
4BB
100
AcDbEntity
  8
0
100
AcDbCircle
 62
7
  6
CONTINUOUS
 10
250.4049171958
 20
153.8281550548
 40
8.0
100
AcDbArc
 50
63.3268670716
 51
90.0000030096
  0
ARC
  5
4BC
100
AcDbEntity
  8
RUNDUNGEN
100
AcDbCircle
 62
7
  6
CONTINUOUS
 10
249.4699171958
 20
153.8281550548
 40
8.0
100
AcDbArc
 50
328.807032874
 51
31.1929649268
  0
ARC
  5
4BD
100
AcDbEntity
  8
0
100
AcDbCircle
 62
7
  6
CONTINUOUS
 10
249.4699171958
 20
153.8281550548
 40
8.0
100
AcDbArc
 50
22.9941452552
 51
24.7121345962
  0
ARC
  5
4BE
100
AcDbEntity
  8
RUNDUNGEN
100
AcDbCircle
 62
7
  6
CONTINUOUS
 10
250.4049171958
 20
153.8281550548
 40
3.15
100
AcDbArc
 50
209.7458771481
 51
330.2541569259
  0
ARC
  5
4BF
100
AcDbEntity
  8
0
100
AcDbCircle
 62
7
  6
CONTINUOUS
 10
250.4049171958
 20
153.8281550548
 40
3.15
100
AcDbArc
 50
330.2541569259
 51
209.7458771481
  0
ARC
  5
4C0
100
AcDbEntity
  8
RUNDUNGEN
100
AcDbCircle
 62
7
  6
CONTINUOUS
 10
253.7369535044
 20
159.9842523606
 40
1.0
100
AcDbArc
 50
37.2421979656
 51
61.5768718361
  0
ARC
  5
4C1
100
AcDbEntity
  8
RUNDUNGEN
100
AcDbCircle
 62
7
  6
CONTINUOUS
 10
234.9049171958
 20
154.3281550548
 40
0.5
100
AcDbArc
 50
270.0
 51
360.0
  0
ARC
  5
4C2
100
AcDbEntity
  8
RUNDUNGEN
100
AcDbCircle
 62
7
  6
CONTINUOUS
 10
234.9049171958
 20
161.3281550548
 40
0.5
100
AcDbArc
 50
84.1987799812
 51
90.0
  0
SPLINE
  5
4C3
100
AcDbEntity
  8
0
100
AcDbSpline
 62
7
  6
CONTINUOUS
 70
0
 71
3
 72
28
 73
24
 74
0
 42
0.0000001
 43
0.0000001
 44
0.0000000001
 40
0.0
 40
0.0
 40
0.0
 40
0.0
 40
0.0003052507
 40
0.0012205436
 40
0.0027451909
 40
0.0048783747
 40
0.0076184035
 40
0.0109632272
 40
0.0194580547
 40
0.0303386828
 40
0.0435750474
 40
0.0591304805
 40
0.0769623232
 40
0.11925777
 40
0.1700136811
 40
0.2287070729
 40
0.2947488844
 40
0.3674916986
 40
0.4462357298
 40
0.5302335928
 40
0.6186939995
 40
0.8056349921
 40
1.0
 40
1.0
 40
1.0
 40
1.0
 10
125.6636248776
 20
156.9781550548
 30
0.0
 10
125.6637153801
 20
156.9778454442
 30
0.0
 10
125.6638421459
 20
156.9765533547
 30
0.0
 10
125.664412711
 20
156.9737129801
 30
0.0
 10
125.6651704546
 20
156.9689369712
 30
0.0
 10
125.6663195204
 20
156.9622758205
 30
0.0
 10
125.6677567771
 20
156.9537108343
 30
0.0
 10
125.6703197425
 20
156.938518998
 30
0.0
 10
125.6742890968
 20
156.9148400699
 30
0.0
 10
125.6799520377
 20
156.8808467751
 30
0.0
 10
125.686780957
 20
156.8394836977
 30
0.0
 10
125.6947243957
 20
156.7908597385
 30
0.0
 10
125.7074625548
 20
156.7119045868
 30
0.0
 10
125.7257140827
 20
156.5961608818
 30
0.0
 10
125.7498141571
 20
156.4376283729
 30
0.0
 10
125.7764848366
 20
156.2541083428
 30
0.0
 10
125.8049457289
 20
156.0473754961
 30
0.0
 10
125.8343801221
 20
155.8193961487
 30
0.0
 10
125.863961493
 20
155.5723135434
 30
0.0
 10
125.8928798934
 20
155.3084359298
 30
0.0
 10
125.9302230227
 20
154.9304825837
 30
0.0
 10
125.9705542723
 20
154.4356614985
 30
0.0
 10
125.9936311768
 20
154.0333386086
 30
0.0
 10
126.0028587373
 20
153.8281550548
 30
0.0
  0
SPLINE
  5
4C4
100
AcDbEntity
  8
0
100
AcDbSpline
 62
7
  6
CONTINUOUS
 70
0
 71
3
 72
28
 73
24
 74
0
 42
0.0000001
 43
0.0000001
 44
0.0000000001
 40
0.0
 40
0.0
 40
0.0
 40
0.0
 40
0.0003052507
 40
0.0012205436
 40
0.0027451909
 40
0.0048783747
 40
0.0076184035
 40
0.0109632272
 40
0.0194580547
 40
0.0303386828
 40
0.0435750474
 40
0.0591304805
 40
0.0769623232
 40
0.11925777
 40
0.1700136811
 40
0.2287070729
 40
0.2947488844
 40
0.3674916986
 40
0.4462357298
 40
0.5302335928
 40
0.6186939995
 40
0.8056349921
 40
1.0
 40
1.0
 40
1.0
 40
1.0
 10
105.6636248776
 20
156.9781550548
 30
0.0
 10
105.6637153842
 20
156.9778454454
 30
0.0
 10
105.6638421399
 20
156.976553353
 30
0.0
 10
105.6644127148
 20
156.9737129813
 30
0.0
 10
105.6651704529
 20
156.9689369707
 30
0.0
 10
105.6663195211
 20
156.9622758207
 30
0.0
 10
105.6677567768
 20
156.9537108342
 30
0.0
 10
105.6703197427
 20
156.9385189981
 30
0.0
 10
105.6742890967
 20
156.9148400699
 30
0.0
 10
105.6799520377
 20
156.8808467751
 30
0.0
 10
105.686780957
 20
156.8394836977
 30
0.0
 10
105.6947243957
 20
156.7908597385
 30
0.0
 10
105.7074625548
 20
156.7119045868
 30
0.0
 10
105.7257140827
 20
156.5961608818
 30
0.0
 10
105.7498141571
 20
156.4376283729
 30
0.0
 10
105.7764848366
 20
156.2541083428
 30
0.0
 10
105.8049457289
 20
156.0473754961
 30
0.0
 10
105.8343801221
 20
155.8193961487
 30
0.0
 10
105.863961493
 20
155.5723135434
 30
0.0
 10
105.8928798934
 20
155.3084359298
 30
0.0
 10
105.9302230227
 20
154.9304825837
 30
0.0
 10
105.9705542723
 20
154.4356614985
 30
0.0
 10
105.9936311768
 20
154.0333386086
 30
0.0
 10
106.0028587373
 20
153.8281550548
 30
0.0
  0
SPLINE
  5
4C5
100
AcDbEntity
  8
0
100
AcDbSpline
 62
7
  6
CONTINUOUS
 70
0
 71
3
 72
28
 73
24
 74
0
 42
0.0000001
 43
0.0000001
 44
0.0000000001
 40
0.0
 40
0.0
 40
0.0
 40
0.0
 40
0.0003052507
 40
0.0012205436
 40
0.0027451909
 40
0.0048783747
 40
0.0076184035
 40
0.0109632272
 40
0.0194580547
 40
0.0303386828
 40
0.0435750474
 40
0.0591304805
 40
0.0769623232
 40
0.11925777
 40
0.1700136811
 40
0.2287070729
 40
0.2947488844
 40
0.3674916986
 40
0.4462357298
 40
0.5302335928
 40
0.6186939995
 40
0.8056349921
 40
1.0
 40
1.0
 40
1.0
 40
1.0
 10
85.6636248776
 20
156.9781550548
 30
0.0
 10
85.6637153836
 20
156.9778454452
 30
0.0
 10
85.6638421408
 20
156.9765533532
 30
0.0
 10
85.6644127142
 20
156.9737129811
 30
0.0
 10
85.6651704531
 20
156.9689369708
 30
0.0
 10
85.666319521
 20
156.9622758207
 30
0.0
 10
85.6677567768
 20
156.9537108342
 30
0.0
 10
85.6703197427
 20
156.9385189981
 30
0.0
 10
85.6742890967
 20
156.9148400699
 30
0.0
 10
85.6799520377
 20
156.8808467751
 30
0.0
 10
85.686780957
 20
156.8394836977
 30
0.0
 10
85.6947243957
 20
156.7908597385
 30
0.0
 10
85.7074625548
 20
156.7119045868
 30
0.0
 10
85.7257140827
 20
156.5961608818
 30
0.0
 10
85.7498141571
 20
156.437628373
 30
0.0
 10
85.7764848366
 20
156.2541083429
 30
0.0
 10
85.8049457289
 20
156.0473754961
 30
0.0
 10
85.8343801221
 20
155.8193961487
 30
0.0
 10
85.863961493
 20
155.5723135434
 30
0.0
 10
85.8928798934
 20
155.3084359299
 30
0.0
 10
85.9302230227
 20
154.9304825837
 30
0.0
 10
85.9705542723
 20
154.4356614985
 30
0.0
 10
85.9936311768
 20
154.0333386086
 30
0.0
 10
86.0028587373
 20
153.8281550548
 30
0.0
  0
SPLINE
  5
4C6
100
AcDbEntity
  8
0
100
AcDbSpline
 62
7
  6
CONTINUOUS
 70
0
 71
3
 72
28
 73
24
 74
0
 42
0.0000001
 43
0.0000001
 44
0.0000000001
 40
0.0
 40
0.0
 40
0.0
 40
0.0
 40
0.0003052507
 40
0.0012205436
 40
0.0027451909
 40
0.0048783747
 40
0.0076184035
 40
0.0109632272
 40
0.0194580547
 40
0.0303386828
 40
0.0435750474
 40
0.0591304805
 40
0.0769623232
 40
0.11925777
 40
0.1700136811
 40
0.2287070729
 40
0.2947488844
 40
0.3674916986
 40
0.4462357298
 40
0.5302335928
 40
0.6186939995
 40
0.8056349921
 40
1.0
 40
1.0
 40
1.0
 40
1.0
 10
65.6636248776
 20
156.9781550548
 30
0.0
 10
65.663715385
 20
156.9778454456
 30
0.0
 10
65.6638421387
 20
156.9765533526
 30
0.0
 10
65.6644127155
 20
156.9737129815
 30
0.0
 10
65.6651704525
 20
156.9689369706
 30
0.0
 10
65.6663195213
 20
156.9622758208
 30
0.0
 10
65.6677567767
 20
156.9537108342
 30
0.0
 10
65.6703197428
 20
156.9385189981
 30
0.0
 10
65.6742890967
 20
156.9148400699
 30
0.0
 10
65.6799520377
 20
156.8808467751
 30
0.0
 10
65.686780957
 20
156.8394836977
 30
0.0
 10
65.6947243957
 20
156.7908597385
 30
0.0
 10
65.7074625548
 20
156.7119045868
 30
0.0
 10
65.7257140827
 20
156.5961608818
 30
0.0
 10
65.7498141571
 20
156.437628373
 30
0.0
 10
65.7764848366
 20
156.2541083429
 30
0.0
 10
65.8049457289
 20
156.0473754961
 30
0.0
 10
65.8343801221
 20
155.8193961487
 30
0.0
 10
65.863961493
 20
155.5723135434
 30
0.0
 10
65.8928798934
 20
155.3084359299
 30
0.0
 10
65.9302230227
 20
154.9304825837
 30
0.0
 10
65.9705542723
 20
154.4356614985
 30
0.0
 10
65.9936311768
 20
154.0333386086
 30
0.0
 10
66.0028587373
 20
153.8281550548
 30
0.0
  0
SPLINE
  5
4C7
100
AcDbEntity
  8
0
100
AcDbSpline
 62
7
  6
CONTINUOUS
 70
0
 71
3
 72
28
 73
24
 74
0
 42
0.0000001
 43
0.0000001
 44
0.0000000001
 40
0.0
 40
0.0
 40
0.0
 40
0.0
 40
0.0003052507
 40
0.0012205436
 40
0.0027451909
 40
0.0048783747
 40
0.0076184035
 40
0.0109632272
 40
0.0194580547
 40
0.0303386828
 40
0.0435750474
 40
0.0591304805
 40
0.0769623232
 40
0.11925777
 40
0.1700136811
 40
0.2287070729
 40
0.2947488844
 40
0.3674916986
 40
0.4462357298
 40
0.5302335928
 40
0.6186939995
 40
0.8056349921
 40
1.0
 40
1.0
 40
1.0
 40
1.0
 10
45.6636248776
 20
156.9781550548
 30
0.0
 10
45.6637153854
 20
156.9778454457
 30
0.0
 10
45.6638421383
 20
156.9765533525
 30
0.0
 10
45.6644127158
 20
156.9737129816
 30
0.0
 10
45.6651704524
 20
156.9689369706
 30
0.0
 10
45.6663195213
 20
156.9622758208
 30
0.0
 10
45.6677567767
 20
156.9537108342
 30
0.0
 10
45.6703197428
 20
156.9385189981
 30
0.0
 10
45.6742890967
 20
156.9148400699
 30
0.0
 10
45.6799520377
 20
156.8808467751
 30
0.0
 10
45.686780957
 20
156.8394836977
 30
0.0
 10
45.6947243957
 20
156.7908597385
 30
0.0
 10
45.7074625548
 20
156.7119045868
 30
0.0
 10
45.7257140827
 20
156.5961608818
 30
0.0
 10
45.7498141571
 20
156.437628373
 30
0.0
 10
45.7764848366
 20
156.2541083429
 30
0.0
 10
45.8049457289
 20
156.0473754961
 30
0.0
 10
45.8343801221
 20
155.8193961487
 30
0.0
 10
45.863961493
 20
155.5723135434
 30
0.0
 10
45.8928798934
 20
155.3084359299
 30
0.0
 10
45.9302230227
 20
154.9304825837
 30
0.0
 10
45.9705542723
 20
154.4356614985
 30
0.0
 10
45.9936311768
 20
154.0333386086
 30
0.0
 10
46.0028587373
 20
153.8281550548
 30
0.0
  0
SPLINE
  5
4C8
100
AcDbEntity
  8
0
100
AcDbSpline
 62
7
  6
CONTINUOUS
 70
0
 71
3
 72
9
 73
5
 74
0
 42
0.0000001
 43
0.0000001
 44
0.0000000001
 40
0.0
 40
0.0
 40
0.0
 40
0.0
 40
0.5160068015
 40
1.0
 40
1.0
 40
1.0
 40
1.0
 10
133.6608134755
 20
153.3298781563
 30
0.0
 10
133.6092015945
 20
153.1516417181
 30
0.0
 10
133.5344633969
 20
152.7985084173
 30
0.0
 10
133.5049060009
 20
152.43925839
 30
0.0
 10
133.5003508941
 20
152.2652716071
 30
0.0
  0
SPLINE
  5
4C9
100
AcDbEntity
  8
0
100
AcDbSpline
 62
7
  6
CONTINUOUS
 70
0
 71
3
 72
9
 73
5
 74
0
 42
0.0000001
 43
0.0000001
 44
0.0000000001
 40
0.0
 40
0.0
 40
0.0
 40
0.0
 40
0.4839932648
 40
1.0
 40
1.0
 40
1.0
 40
1.0
 10
126.2452272146
 20
152.265271454
 30
0.0
 10
126.2406719282
 20
152.4392577383
 30
0.0
 10
126.2111145775
 20
152.7985066233
 30
0.0
 10
126.1363775537
 20
153.1516391276
 30
0.0
 10
126.0847655571
 20
153.329874933
 30
0.0
  0
SPLINE
  5
4CA
100
AcDbEntity
  8
0
100
AcDbSpline
 62
7
  6
CONTINUOUS
 70
0
 71
3
 72
9
 73
5
 74
0
 42
0.0000001
 43
0.0000001
 44
0.0000000001
 40
0.0
 40
0.0
 40
0.0
 40
0.0
 40
0.5160068008
 40
1.0
 40
1.0
 40
1.0
 40
1.0
 10
113.6608134756
 20
153.3298781567
 30
0.0
 10
113.6092015946
 20
153.1516417186
 30
0.0
 10
113.5344633959
 20
152.7985084176
 30
0.0
 10
113.5049060009
 20
152.4392583899
 30
0.0
 10
113.5003508941
 20
152.2652716066
 30
0.0
  0
SPLINE
  5
4CB
100
AcDbEntity
  8
0
100
AcDbSpline
 62
7
  6
CONTINUOUS
 70
0
 71
3
 72
9
 73
5
 74
0
 42
0.0000001
 43
0.0000001
 44
0.0000000001
 40
0.0
 40
0.0
 40
0.0
 40
0.0
 40
0.4839932595
 40
1.0
 40
1.0
 40
1.0
 40
1.0
 10
106.2452272146
 20
152.2652714536
 30
0.0
 10
106.2406719282
 20
152.4392577362
 30
0.0
 10
106.2111145786
 20
152.7985066214
 30
0.0
 10
106.1363775542
 20
153.1516391258
 30
0.0
 10
106.0847655571
 20
153.3298749331
 30
0.0
  0
SPLINE
  5
4CC
100
AcDbEntity
  8
0
100
AcDbSpline
 62
7
  6
CONTINUOUS
 70
0
 71
3
 72
9
 73
5
 74
0
 42
0.0000001
 43
0.0000001
 44
0.0000000001
 40
0.0
 40
0.0
 40
0.0
 40
0.0
 40
0.5160067709
 40
1.0
 40
1.0
 40
1.0
 40
1.0
 10
93.6608134755
 20
153.3298781561
 30
0.0
 10
93.6092015975
 20
153.1516417285
 30
0.0
 10
93.5344633988
 20
152.7985084282
 30
0.0
 10
93.5049060011
 20
152.439258401
 30
0.0
 10
93.5003508941
 20
152.2652716071
 30
0.0
  0
SPLINE
  5
4CD
100
AcDbEntity
  8
0
100
AcDbSpline
 62
7
  6
CONTINUOUS
 70
0
 71
3
 72
9
 73
5
 74
0
 42
0.0000001
 43
0.0000001
 44
0.0000000001
 40
0.0
 40
0.0
 40
0.0
 40
0.0
 40
0.4839932621
 40
1.0
 40
1.0
 40
1.0
 40
1.0
 10
86.2452272146
 20
152.2652714541
 30
0.0
 10
86.2406719282
 20
152.4392577374
 30
0.0
 10
86.2111145776
 20
152.7985066223
 30
0.0
 10
86.1363775539
 20
153.1516391266
 30
0.0
 10
86.0847655571
 20
153.329874933
 30
0.0
  0
SPLINE
  5
4CE
100
AcDbEntity
  8
0
100
AcDbSpline
 62
7
  6
CONTINUOUS
 70
0
 71
3
 72
9
 73
5
 74
0
 42
0.0000001
 43
0.0000001
 44
0.0000000001
 40
0.0
 40
0.0
 40
0.0
 40
0.0
 40
0.516006909
 40
1.0
 40
1.0
 40
1.0
 40
1.0
 10
73.6608134757
 20
153.3298781571
 30
0.0
 10
73.6092015839
 20
153.1516416816
 30
0.0
 10
73.5344633897
 20
152.798508379
 30
0.0
 10
73.5049059999
 20
152.4392583514
 30
0.0
 10
73.5003508941
 20
152.2652716071
 30
0.0
  0
SPLINE
  5
4CF
100
AcDbEntity
  8
0
100
AcDbSpline
 62
7
  6
CONTINUOUS
 70
0
 71
3
 72
9
 73
5
 74
0
 42
0.0000001
 43
0.0000001
 44
0.0000000001
 40
0.0
 40
0.0
 40
0.0
 40
0.0
 40
0.4839932142
 40
1.0
 40
1.0
 40
1.0
 40
1.0
 10
66.2452272146
 20
152.265271454
 30
0.0
 10
66.2406719286
 20
152.4392577202
 30
0.0
 10
66.2111145804
 20
152.7985066051
 30
0.0
 10
66.1363775587
 20
153.1516391102
 30
0.0
 10
66.0847655571
 20
153.3298749331
 30
0.0
  0
SPLINE
  5
4D0
100
AcDbEntity
  8
0
100
AcDbSpline
 62
7
  6
CONTINUOUS
 70
0
 71
3
 72
9
 73
5
 74
0
 42
0.0000001
 43
0.0000001
 44
0.0000000001
 40
0.0
 40
0.0
 40
0.0
 40
0.0
 40
0.5160068934
 40
1.0
 40
1.0
 40
1.0
 40
1.0
 10
53.6608134757
 20
153.329878157
 30
0.0
 10
53.6092015953
 20
153.151641721
 30
0.0
 10
53.5344634117
 20
152.7985084878
 30
0.0
 10
53.5049060086
 20
152.4392585299
 30
0.0
 10
53.5003509036
 20
152.2652718132
 30
0.0
  0
SPLINE
  5
4D1
100
AcDbEntity
  8
0
100
AcDbSpline
 62
7
  6
CONTINUOUS
 70
0
 71
3
 72
9
 73
5
 74
0
 42
0.0000001
 43
0.0000001
 44
0.0000000001
 40
0.0
 40
0.0
 40
0.0
 40
0.0
 40
0.4839931568
 40
1.0
 40
1.0
 40
1.0
 40
1.0
 10
46.245227213
 20
152.2652714896
 30
0.0
 10
46.2406718062
 20
152.4392576529
 30
0.0
 10
46.2111145866
 20
152.7985063648
 30
0.0
 10
46.1363777099
 20
153.1516387498
 30
0.0
 10
46.0847656838
 20
153.3298744994
 30
0.0
  0
SPLINE
  5
4D2
100
AcDbEntity
  8
0
100
AcDbSpline
 62
7
  6
CONTINUOUS
 70
0
 71
3
 72
28
 73
24
 74
0
 42
0.0000001
 43
0.0000001
 44
0.0000000001
 40
0.0
 40
0.0
 40
0.0
 40
0.0
 40
0.1943650079
 40
0.3813060006
 40
0.4697664073
 40
0.5537642704
 40
0.6325083015
 40
0.7052511158
 40
0.7712929273
 40
0.8299863191
 40
0.8807422301
 40
0.923037677
 40
0.9408695196
 40
0.9564249527
 40
0.9696613173
 40
0.9805419454
 40
0.9890367729
 40
0.9923815966
 40
0.9951216253
 40
0.9972548091
 40
0.9987794565
 40
0.9996947493
 40
1.0
 40
1.0
 40
1.0
 40
1.0
 10
133.7427193643
 20
153.8281550548
 30
0.0
 10
133.7519469248
 20
154.0333386087
 30
0.0
 10
133.7750238294
 20
154.4356614987
 30
0.0
 10
133.815355079
 20
154.930482584
 30
0.0
 10
133.8526982084
 20
155.3084359303
 30
0.0
 10
133.8816166087
 20
155.5723135438
 30
0.0
 10
133.9111979797
 20
155.8193961492
 30
0.0
 10
133.9406323728
 20
156.0473754966
 30
0.0
 10
133.9690932651
 20
156.2541083434
 30
0.0
 10
133.9957639447
 20
156.4376283734
 30
0.0
 10
134.0198640191
 20
156.5961608823
 30
0.0
 10
134.0381155469
 20
156.7119045872
 30
0.0
 10
134.050853706
 20
156.7908597389
 30
0.0
 10
134.0587971446
 20
156.8394836981
 30
0.0
 10
134.0656260643
 20
156.8808467753
 30
0.0
 10
134.0712890043
 20
156.9148400704
 30
0.0
 10
134.0752583604
 20
156.9385189979
 30
0.0
 10
134.0778213231
 20
156.9537108349
 30
0.0
 10
134.0792585857
 20
156.9622758194
 30
0.0
 10
134.0804076359
 20
156.9689369746
 30
0.0
 10
134.0811654148
 20
156.9737129732
 30
0.0
 10
134.0817359181
 20
156.9765533658
 30
0.0
 10
134.0818627479
 20
156.9778454365
 30
0.0
 10
134.0819532241
 20
156.9781550548
 30
0.0
  0
SPLINE
  5
4D3
100
AcDbEntity
  8
0
100
AcDbSpline
 62
7
  6
CONTINUOUS
 70
0
 71
3
 72
28
 73
24
 74
0
 42
0.0000001
 43
0.0000001
 44
0.0000000001
 40
0.0
 40
0.0
 40
0.0
 40
0.0
 40
0.1943650079
 40
0.3813060007
 40
0.4697664073
 40
0.5537642704
 40
0.6325083015
 40
0.7052511158
 40
0.7712929273
 40
0.8299863191
 40
0.8807422301
 40
0.923037677
 40
0.9408695196
 40
0.9564249527
 40
0.9696613173
 40
0.9805419454
 40
0.9890367729
 40
0.9923815966
 40
0.9951216253
 40
0.9972548091
 40
0.9987794565
 40
0.9996947493
 40
1.0
 40
1.0
 40
1.0
 40
1.0
 10
113.7427193643
 20
153.8281550548
 30
0.0
 10
113.7519469248
 20
154.0333386087
 30
0.0
 10
113.7750238294
 20
154.4356614987
 30
0.0
 10
113.815355079
 20
154.930482584
 30
0.0
 10
113.8526982084
 20
155.3084359303
 30
0.0
 10
113.8816166087
 20
155.5723135438
 30
0.0
 10
113.9111979797
 20
155.8193961492
 30
0.0
 10
113.9406323728
 20
156.0473754966
 30
0.0
 10
113.9690932651
 20
156.2541083434
 30
0.0
 10
113.9957639447
 20
156.4376283735
 30
0.0
 10
114.0198640191
 20
156.5961608823
 30
0.0
 10
114.0381155469
 20
156.7119045873
 30
0.0
 10
114.050853706
 20
156.7908597389
 30
0.0
 10
114.0587971446
 20
156.8394836981
 30
0.0
 10
114.0656260643
 20
156.8808467754
 30
0.0
 10
114.0712890043
 20
156.9148400704
 30
0.0
 10
114.0752583605
 20
156.9385189979
 30
0.0
 10
114.077821323
 20
156.9537108349
 30
0.0
 10
114.0792585859
 20
156.9622758193
 30
0.0
 10
114.0804076354
 20
156.9689369748
 30
0.0
 10
114.0811654159
 20
156.9737129729
 30
0.0
 10
114.0817359164
 20
156.9765533663
 30
0.0
 10
114.0818627491
 20
156.9778454362
 30
0.0
 10
114.0819532241
 20
156.9781550548
 30
0.0
  0
SPLINE
  5
4D4
100
AcDbEntity
  8
0
100
AcDbSpline
 62
7
  6
CONTINUOUS
 70
0
 71
3
 72
28
 73
24
 74
0
 42
0.0000001
 43
0.0000001
 44
0.0000000001
 40
0.0
 40
0.0
 40
0.0
 40
0.0
 40
0.1943650079
 40
0.3813060007
 40
0.4697664073
 40
0.5537642704
 40
0.6325083015
 40
0.7052511158
 40
0.7712929273
 40
0.8299863191
 40
0.8807422301
 40
0.923037677
 40
0.9408695196
 40
0.9564249527
 40
0.9696613173
 40
0.9805419454
 40
0.9890367729
 40
0.9923815966
 40
0.9951216253
 40
0.9972548091
 40
0.9987794565
 40
0.9996947493
 40
1.0
 40
1.0
 40
1.0
 40
1.0
 10
93.7427193643
 20
153.8281550548
 30
0.0
 10
93.7519469248
 20
154.0333386087
 30
0.0
 10
93.7750238294
 20
154.4356614987
 30
0.0
 10
93.815355079
 20
154.930482584
 30
0.0
 10
93.8526982084
 20
155.3084359303
 30
0.0
 10
93.8816166087
 20
155.5723135438
 30
0.0
 10
93.9111979797
 20
155.8193961492
 30
0.0
 10
93.9406323728
 20
156.0473754966
 30
0.0
 10
93.9690932651
 20
156.2541083434
 30
0.0
 10
93.9957639447
 20
156.4376283735
 30
0.0
 10
94.0198640191
 20
156.5961608823
 30
0.0
 10
94.0381155469
 20
156.7119045873
 30
0.0
 10
94.050853706
 20
156.7908597389
 30
0.0
 10
94.0587971446
 20
156.8394836981
 30
0.0
 10
94.0656260643
 20
156.8808467754
 30
0.0
 10
94.0712890043
 20
156.9148400704
 30
0.0
 10
94.0752583605
 20
156.9385189979
 30
0.0
 10
94.077821323
 20
156.9537108349
 30
0.0
 10
94.0792585858
 20
156.9622758193
 30
0.0
 10
94.0804076356
 20
156.9689369747
 30
0.0
 10
94.0811654155
 20
156.973712973
 30
0.0
 10
94.0817359169
 20
156.9765533661
 30
0.0
 10
94.0818627487
 20
156.9778454363
 30
0.0
 10
94.0819532241
 20
156.9781550548
 30
0.0
  0
SPLINE
  5
4D5
100
AcDbEntity
  8
0
100
AcDbSpline
 62
7
  6
CONTINUOUS
 70
0
 71
3
 72
28
 73
24
 74
0
 42
0.0000001
 43
0.0000001
 44
0.0000000001
 40
0.0
 40
0.0
 40
0.0
 40
0.0
 40
0.1943650079
 40
0.3813060006
 40
0.4697664073
 40
0.5537642704
 40
0.6325083015
 40
0.7052511158
 40
0.7712929273
 40
0.8299863191
 40
0.8807422301
 40
0.923037677
 40
0.9408695196
 40
0.9564249527
 40
0.9696613173
 40
0.9805419454
 40
0.9890367729
 40
0.9923815966
 40
0.9951216253
 40
0.9972548091
 40
0.9987794565
 40
0.9996947493
 40
1.0
 40
1.0
 40
1.0
 40
1.0
 10
73.7427193643
 20
153.8281550548
 30
0.0
 10
73.7519469248
 20
154.0333386087
 30
0.0
 10
73.7750238294
 20
154.4356614987
 30
0.0
 10
73.815355079
 20
154.930482584
 30
0.0
 10
73.8526982084
 20
155.3084359303
 30
0.0
 10
73.8816166087
 20
155.5723135438
 30
0.0
 10
73.9111979797
 20
155.8193961492
 30
0.0
 10
73.9406323728
 20
156.0473754966
 30
0.0
 10
73.9690932651
 20
156.2541083434
 30
0.0
 10
73.9957639447
 20
156.4376283734
 30
0.0
 10
74.0198640191
 20
156.5961608823
 30
0.0
 10
74.0381155469
 20
156.7119045872
 30
0.0
 10
74.050853706
 20
156.7908597389
 30
0.0
 10
74.0587971446
 20
156.8394836981
 30
0.0
 10
74.0656260643
 20
156.8808467753
 30
0.0
 10
74.0712890043
 20
156.9148400704
 30
0.0
 10
74.0752583605
 20
156.9385189979
 30
0.0
 10
74.077821323
 20
156.9537108349
 30
0.0
 10
74.0792585859
 20
156.9622758193
 30
0.0
 10
74.0804076355
 20
156.9689369747
 30
0.0
 10
74.0811654158
 20
156.9737129729
 30
0.0
 10
74.0817359165
 20
156.9765533662
 30
0.0
 10
74.081862749
 20
156.9778454362
 30
0.0
 10
74.0819532241
 20
156.9781550548
 30
0.0
  0
SPLINE
  5
4D6
100
AcDbEntity
  8
0
100
AcDbSpline
 62
7
  6
CONTINUOUS
 70
0
 71
3
 72
28
 73
24
 74
0
 42
0.0000001
 43
0.0000001
 44
0.0000000001
 40
0.0
 40
0.0
 40
0.0
 40
0.0
 40
0.1943650079
 40
0.3813060006
 40
0.4697664073
 40
0.5537642704
 40
0.6325083015
 40
0.7052511158
 40
0.7712929273
 40
0.8299863191
 40
0.8807422301
 40
0.923037677
 40
0.9408695196
 40
0.9564249527
 40
0.9696613173
 40
0.9805419454
 40
0.9890367729
 40
0.9923815966
 40
0.9951216253
 40
0.9972548091
 40
0.9987794565
 40
0.9996947493
 40
1.0
 40
1.0
 40
1.0
 40
1.0
 10
53.7427193643
 20
153.8281550548
 30
0.0
 10
53.7519469248
 20
154.0333386087
 30
0.0
 10
53.7750238294
 20
154.4356614987
 30
0.0
 10
53.815355079
 20
154.930482584
 30
0.0
 10
53.8526982084
 20
155.3084359303
 30
0.0
 10
53.8816166087
 20
155.5723135438
 30
0.0
 10
53.9111979797
 20
155.8193961492
 30
0.0
 10
53.9406323728
 20
156.0473754966
 30
0.0
 10
53.9690932651
 20
156.2541083434
 30
0.0
 10
53.9957639447
 20
156.4376283734
 30
0.0
 10
54.0198640191
 20
156.5961608823
 30
0.0
 10
54.0381155469
 20
156.7119045872
 30
0.0
 10
54.050853706
 20
156.7908597389
 30
0.0
 10
54.0587971446
 20
156.8394836981
 30
0.0
 10
54.0656260643
 20
156.8808467753
 30
0.0
 10
54.0712890043
 20
156.9148400704
 30
0.0
 10
54.0752583605
 20
156.9385189979
 30
0.0
 10
54.077821323
 20
156.9537108349
 30
0.0
 10
54.0792585859
 20
156.9622758193
 30
0.0
 10
54.0804076354
 20
156.9689369748
 30
0.0
 10
54.0811654159
 20
156.9737129728
 30
0.0
 10
54.0817359163
 20
156.9765533663
 30
0.0
 10
54.0818627491
 20
156.9778454361
 30
0.0
 10
54.0819532241
 20
156.9781550548
 30
0.0
  0
ENDSEC
  0
SECTION
  2
OBJECTS
  0
DICTIONARY
  5
C
100
AcDbDictionary
280
0
281
1
  3
ACAD_GROUP
350
D
  3
ACAD_MLINESTYLE
350
17
  3
ACAD_LAYOUT
350
1A
  3
ACAD_PLOTSETTINGS
350
19
  3
ACAD_PLOTSTYLENAME
350
E
  0
DICTIONARY
  5
D
102
{ACAD_REACTORS
330
C
102
}
100
AcDbDictionary
280
0
281
1
  0
ACDBDICTIONARYWDFLT
  5
E
102
{ACAD_REACTORS
330
C
102
}
100
AcDbDictionary
281
1
  3
Normal
350
F
100
AcDbDictionaryWithDefault
340
F
  0
DICTIONARY
  5
17
102
{ACAD_REACTORS
330
C
102
}
100
AcDbDictionary
280
0
281
1
  3
Standard
350
18
  0
DICTIONARY
  5
19
102
{ACAD_REACTORS
330
C
102
}
100
AcDbDictionary
281
1
  0
DICTIONARY
  5
1A
102
{ACAD_REACTORS
330
C
102
}
100
AcDbDictionary
281
1
  3
Model
350
4D7
  3
Layout1
350
4D8
  0
ACDBPLACEHOLDER
  5
F
102
{ACAD_REACTORS
330
E
102
}
  0
MLINESTYLE
  5
18
102
{ACAD_REACTORS
330
17
102
}
100
AcDbMlineStyle
  2
STANDARD
 70
0
  3

 62
256
 51
90.0
 52
90.0
 71
2
 49
0.5
 62
256
  6
BYLAYER
 49
-0.5
 62
256
  6
BYLAYER
  0
LAYOUT
  5
4D7
102
{ACAD_REACTORS
330
1A
102
}
100
AcDbPlotSettings
  1

  2
none_device
  4
ISO_A4_(297.00_x_210.00_MM)
  6

 40
0.0
 41
0.0
 42
0.0
 43
0.0
 44
297.0
 45
210.0
 46
0.0
 47
0.0
 48
0.0
 49
0.0
140
0.0
141
0.0
142
1.0
143
1.0
 70
1024
 72
1
 73
0
 74
0
  7

 75
0
147
1.0
148
0.0
149
0.0
100
AcDbLayout
  1
Model
 70
0
 71
0
 10
0.0
 20
0.0
 11
297.0
 21
210.0
 12
0.0
 22
0.0
 32
0.0
 14
0.0
 24
0.0
 34
0.0
 15
0.0
 25
0.0
 35
0.0
146
0.0
 13
0.0
 23
0.0
 33
0.0
 16
1.0
 26
0.0
 36
0.0
 17
0.0
 27
1.0
 37
0.0
 76
0
330
218
345
0
346
0
  0
LAYOUT
  5
4D8
102
{ACAD_REACTORS
330
1A
102
}
100
AcDbPlotSettings
  1

  2
none_device
  4
ISO_A4_(297.00_x_210.00_MM)
  6

 40
0.0
 41
0.0
 42
0.0
 43
0.0
 44
297.0
 45
210.0
 46
0.0
 47
0.0
 48
0.0
 49
0.0
140
0.0
141
0.0
142
1.0
143
1.0
 70
0
 72
1
 73
0
 74
0
  7

 75
0
147
1.0
148
0.0
149
0.0
100
AcDbLayout
  1
Layout1
 70
0
 71
1
 10
0.0
 20
0.0
 11
297.0
 21
210.0
 12
0.0
 22
0.0
 32
0.0
 14
0.0
 24
0.0
 34
0.0
 15
0.0
 25
0.0
 35
0.0
146
0.0
 13
0.0
 23
0.0
 33
0.0
 16
1.0
 26
0.0
 36
0.0
 17
0.0
 27
1.0
 37
0.0
 76
0
330
219
345
0
346
0
  0
ENDSEC
  0
EOF
