999
DXF file: S5-Z11_SPR_DR_RD30mm.dxf
999
Pro/ENGINEER 2012230 by Parametric Technology Corporation
  0
SECTION
  2
HEADER
  9
$ACADVER
  1
AC1015
  9
$DWGCODEPAGE
  3
ANSI_1252
  9
$EXTMAX
 10
420.0
 20
297.0
 30
0.0
  9
$EXTMIN
 10
0.0
 20
-0.0
 30
0.0
  9
$LIMMIN
 10
0.0
 20
-0.0
  9
$LIMMAX
 10
420.0
 20
297.0
  9
$VIEWCTR
 10
210.0
 20
148.5
  9
$VIEWSIZE
 40
297.0
  9
$CLAYER
  8
0
  9
$LTSCALE
 40
23.1
  9
$CELTYPE
  6
BYLAYER
  9
$DIMSCALE
 40
1.0
  9
$DIMASZ
 40
3.5
  9
$DIMEXO
 40
0.0
  9
$DIMDLI
 40
15.96
  9
$DIMEXE
 40
1.5
  9
$DIMCEN
 40
3.78
  9
$DIMLFAC
 40
1.0
  9
$DIMBLK
  1
_FILLED
  9
$DIMTXT
 40
3.5
  9
$DIMTOL
 70
1
  9
$DIMLIM
 70
0
  9
$DIMTFAC
 40
1.0
  9
$DIMTP
 40
0.005
  9
$DIMTM
 40
0.005
  9
$DIMGAP
 40
0.625
  9
$DIMDSEP
 70
46
  9
$PDMODE
 70
3
  9
$PDSIZE
 40
0.3125
  9
$HANDSEED
  5
3CA
  9
$TILEMODE
 70
1
  9
$MEASUREMENT
 70
1
  9
$INSUNITS
 70
4
  0
ENDSEC
  0
SECTION
  2
CLASSES
  0
CLASS
  1
ACDBDICTIONARYWDFLT
  2
AcDbDictionaryWithDefault
  3
AutoCAD 2000
 90
0
280
0
281
0
  0
CLASS
  1
ACDBPLACEHOLDER
  2
AcDbPlaceHolder
  3
AutoCAD 2000
 90
0
280
0
281
0
  0
CLASS
  1
LAYOUT
  2
AcDbLayout
  3
AutoCAD 2000
 90
0
280
0
281
0
  0
ENDSEC
  0
SECTION
  2
TABLES
  0
TABLE
  2
VPORT
  5
8
100
AcDbSymbolTable
 70
2
  0
VPORT
  5
1F4
100
AcDbSymbolTableRecord
100
AcDbViewportTableRecord
  2
*ACTIVE
 70
0
 10
0.0
 20
0.0
 11
1.0
 21
1.0
 12
210.0
 22
148.5
 13
0.0
 23
0.0
 14
1.0
 24
1.0
 15
0.0
 25
0.0
 16
0.0
 26
0.0
 36
1.0
 17
0.0
 27
0.0
 37
0.0
 40
297.0
 41
1.4141414141
 42
50.0
 43
0.0
 44
0.0
 50
0.0
 51
0.0
 71
0
 72
100
 73
1
 74
1
 75
0
 76
0
 77
0
 78
0
  0
ENDTAB
  0
TABLE
  2
LTYPE
  5
5
100
AcDbSymbolTable
 70
6
  0
LTYPE
  5
14
100
AcDbSymbolTableRecord
100
AcDbLinetypeTableRecord
  2
BYBLOCK
 70
0
  3

 72
65
 73
0
 40
0.0
  0
LTYPE
  5
15
100
AcDbSymbolTableRecord
100
AcDbLinetypeTableRecord
  2
BYLAYER
 70
0
  3

 72
65
 73
0
 40
0.0
  0
LTYPE
  5
16
100
AcDbSymbolTableRecord
100
AcDbLinetypeTableRecord
  2
CONTINUOUS
 70
64
  3
Solid line
 72
65
 73
0
 40
0.0
  0
LTYPE
  5
1F5
100
AcDbSymbolTableRecord
100
AcDbLinetypeTableRecord
  2
CENTER
 70
64
  3
____ _ ____ _ ____ _ ____ _ ____ _ ____ _ ____
 72
65
 73
4
 40
0.6
 49
0.375
 74
0
 49
-0.075
 74
0
 49
0.075
 74
0
 49
-0.075
 74
0
  0
LTYPE
  5
1F6
100
AcDbSymbolTableRecord
100
AcDbLinetypeTableRecord
  2
HIDDEN
 70
64
  3
- - - - - - - - - - - - - - - - - - - -
 72
65
 73
2
 40
0.2
 49
0.1
 74
0
 49
-0.1
 74
0
  0
LTYPE
  5
1F7
100
AcDbSymbolTableRecord
100
AcDbLinetypeTableRecord
  2
PHANTOM
 70
64
  3
_____ _ _ _____ _ _ _____ _ _ _____
 72
65
 73
6
 40
0.8
 49
0.45
 74
0
 49
-0.05
 74
0
 49
0.1
 74
0
 49
-0.05
 74
0
 49
0.1
 74
0
 49
-0.05
 74
0
  0
LTYPE
  5
1F8
100
AcDbSymbolTableRecord
100
AcDbLinetypeTableRecord
  2
DOT
 70
64
  3
. . . . . . . . . . . . . . . . . . . .
 72
65
 73
2
 40
0.2
 49
0.1
 74
0
 49
-0.1
 74
0
  0
LTYPE
  5
1F9
100
AcDbSymbolTableRecord
100
AcDbLinetypeTableRecord
  2
DASHED
 70
64
  3
- - - - - - - - - - - - - - - - - - - -
 72
65
 73
2
 40
0.2
 49
0.1
 74
0
 49
-0.1
 74
0
  0
ENDTAB
  0
TABLE
  2
LAYER
  5
2
100
AcDbSymbolTable
 70
36
  0
LAYER
  5
10
100
AcDbSymbolTableRecord
100
AcDbLayerTableRecord
  2
0
 70
0
 62
7
  6
CONTINUOUS
370
-3
390
F
  0
LAYER
  5
1FA
100
AcDbSymbolTableRecord
100
AcDbLayerTableRecord
  2
DEFAULT_1
 70
0
 62
7
  6
CENTER
370
-3
390
F
  0
LAYER
  5
1FB
100
AcDbSymbolTableRecord
100
AcDbLayerTableRecord
  2
DEFAULT_2
 70
0
 62
8
  6
HIDDEN
370
-3
390
F
  0
LAYER
  5
1FC
100
AcDbSymbolTableRecord
100
AcDbLayerTableRecord
  2
DEFAULT_3
 70
0
 62
7
  6
PHANTOM
370
-3
390
F
  0
LAYER
  5
1FD
100
AcDbSymbolTableRecord
100
AcDbLayerTableRecord
  2
01_ALL_DTM_PLN
 70
0
 62
7
  6
CONTINUOUS
370
-3
390
F
  0
LAYER
  5
1FE
100
AcDbSymbolTableRecord
100
AcDbLayerTableRecord
  2
01__ASM_ALL_DTM_PLN
 70
0
 62
7
  6
CONTINUOUS
370
-3
390
F
  0
LAYER
  5
1FF
100
AcDbSymbolTableRecord
100
AcDbLayerTableRecord
  2
01__ASM_DEF_DTM_PLN
 70
0
 62
7
  6
CONTINUOUS
370
-3
390
F
  0
LAYER
  5
200
100
AcDbSymbolTableRecord
100
AcDbLayerTableRecord
  2
01___PRT_ALL_DTM_PLN
 70
0
 62
7
  6
CONTINUOUS
370
-3
390
F
  0
LAYER
  5
201
100
AcDbSymbolTableRecord
100
AcDbLayerTableRecord
  2
01___PRT_DEF_DTM_PLN
 70
0
 62
7
  6
CONTINUOUS
370
-3
390
F
  0
LAYER
  5
202
100
AcDbSymbolTableRecord
100
AcDbLayerTableRecord
  2
02_ALL_AXES
 70
0
 62
7
  6
CONTINUOUS
370
-3
390
F
  0
LAYER
  5
203
100
AcDbSymbolTableRecord
100
AcDbLayerTableRecord
  2
02__ASM_ALL_AXES
 70
0
 62
7
  6
CONTINUOUS
370
-3
390
F
  0
LAYER
  5
204
100
AcDbSymbolTableRecord
100
AcDbLayerTableRecord
  2
02___PRT_ALL_AXES
 70
0
 62
7
  6
CONTINUOUS
370
-3
390
F
  0
LAYER
  5
205
100
AcDbSymbolTableRecord
100
AcDbLayerTableRecord
  2
03_ALL_CURVES
 70
0
 62
7
  6
CONTINUOUS
370
-3
390
F
  0
LAYER
  5
206
100
AcDbSymbolTableRecord
100
AcDbLayerTableRecord
  2
03__ASM_ALL_CURVES
 70
0
 62
7
  6
CONTINUOUS
370
-3
390
F
  0
LAYER
  5
207
100
AcDbSymbolTableRecord
100
AcDbLayerTableRecord
  2
03___PRT_ALL_CURVES
 70
0
 62
7
  6
CONTINUOUS
370
-3
390
F
  0
LAYER
  5
208
100
AcDbSymbolTableRecord
100
AcDbLayerTableRecord
  2
04_ALL_DTM_PNT
 70
0
 62
7
  6
CONTINUOUS
370
-3
390
F
  0
LAYER
  5
209
100
AcDbSymbolTableRecord
100
AcDbLayerTableRecord
  2
04__ASM_ALL_DTM_PNT
 70
0
 62
7
  6
CONTINUOUS
370
-3
390
F
  0
LAYER
  5
20A
100
AcDbSymbolTableRecord
100
AcDbLayerTableRecord
  2
04___PRT_ALL_DTM_PNT
 70
0
 62
7
  6
CONTINUOUS
370
-3
390
F
  0
LAYER
  5
20B
100
AcDbSymbolTableRecord
100
AcDbLayerTableRecord
  2
05_ALL_DTM_CSYS
 70
0
 62
7
  6
CONTINUOUS
370
-3
390
F
  0
LAYER
  5
20C
100
AcDbSymbolTableRecord
100
AcDbLayerTableRecord
  2
05__ASM_ALL_DTM_CSYS
 70
0
 62
7
  6
CONTINUOUS
370
-3
390
F
  0
LAYER
  5
20D
100
AcDbSymbolTableRecord
100
AcDbLayerTableRecord
  2
05__ASM_DEF_DTM_CSYS
 70
0
 62
7
  6
CONTINUOUS
370
-3
390
F
  0
LAYER
  5
20E
100
AcDbSymbolTableRecord
100
AcDbLayerTableRecord
  2
05___PRT_ALL_DTM_CSYS
 70
0
 62
7
  6
CONTINUOUS
370
-3
390
F
  0
LAYER
  5
20F
100
AcDbSymbolTableRecord
100
AcDbLayerTableRecord
  2
05___PRT_DEF_DTM_CSYS
 70
0
 62
7
  6
CONTINUOUS
370
-3
390
F
  0
LAYER
  5
210
100
AcDbSymbolTableRecord
100
AcDbLayerTableRecord
  2
06_ALL_SURFS
 70
0
 62
7
  6
CONTINUOUS
370
-3
390
F
  0
LAYER
  5
211
100
AcDbSymbolTableRecord
100
AcDbLayerTableRecord
  2
06__ASM_ALL_SURFS
 70
0
 62
7
  6
CONTINUOUS
370
-3
390
F
  0
LAYER
  5
212
100
AcDbSymbolTableRecord
100
AcDbLayerTableRecord
  2
06___PRT_ALL_SURFS
 70
0
 62
7
  6
CONTINUOUS
370
-3
390
F
  0
LAYER
  5
213
100
AcDbSymbolTableRecord
100
AcDbLayerTableRecord
  2
07__ASM_ALL_SKELETONS
 70
0
 62
7
  6
CONTINUOUS
370
-3
390
F
  0
LAYER
  5
214
100
AcDbSymbolTableRecord
100
AcDbLayerTableRecord
  2
ALLE
 70
0
 62
7
  6
CONTINUOUS
370
-3
390
F
  0
LAYER
  5
215
100
AcDbSymbolTableRecord
100
AcDbLayerTableRecord
  2
AUSFORMSCHRAEGEN
 70
0
 62
7
  6
CONTINUOUS
370
-3
390
F
  0
LAYER
  5
216
100
AcDbSymbolTableRecord
100
AcDbLayerTableRecord
  2
BEZUGSACHSEN
 70
0
 62
7
  6
CONTINUOUS
370
-3
390
F
  0
LAYER
  5
217
100
AcDbSymbolTableRecord
100
AcDbLayerTableRecord
  2
BEZUGSEBENE
 70
0
 62
7
  6
CONTINUOUS
370
-3
390
F
  0
LAYER
  5
218
100
AcDbSymbolTableRecord
100
AcDbLayerTableRecord
  2
BEZUGSEBENEN
 70
0
 62
7
  6
CONTINUOUS
370
-3
390
F
  0
LAYER
  5
219
100
AcDbSymbolTableRecord
100
AcDbLayerTableRecord
  2
BEZUGSEBENEN-KES
 70
0
 62
7
  6
CONTINUOUS
370
-3
390
F
  0
LAYER
  5
21A
100
AcDbSymbolTableRecord
100
AcDbLayerTableRecord
  2
BEZUGSPUNKTE
 70
0
 62
7
  6
CONTINUOUS
370
-3
390
F
  0
LAYER
  5
21B
100
AcDbSymbolTableRecord
100
AcDbLayerTableRecord
  2
BOHRUNGEN
 70
0
 62
7
  6
CONTINUOUS
370
-3
390
F
  0
LAYER
  5
21C
100
AcDbSymbolTableRecord
100
AcDbLayerTableRecord
  2
GESTEUERTE
 70
0
 62
7
  6
CONTINUOUS
370
-3
390
F
  0
LAYER
  5
21D
100
AcDbSymbolTableRecord
100
AcDbLayerTableRecord
  2
GEWINDE
 70
0
 62
7
  6
CONTINUOUS
370
-3
390
F
  0
LAYER
  5
21E
100
AcDbSymbolTableRecord
100
AcDbLayerTableRecord
  2
KURVEN
 70
0
 62
7
  6
CONTINUOUS
370
-3
390
F
  0
LAYER
  5
21F
100
AcDbSymbolTableRecord
100
AcDbLayerTableRecord
  2
PARAMETER-BEMAßUNGEN
 70
0
 62
7
  6
CONTINUOUS
370
-3
390
F
  0
LAYER
  5
220
100
AcDbSymbolTableRecord
100
AcDbLayerTableRecord
  2
PRUEFMASSE_MODEL
 70
0
 62
7
  6
CONTINUOUS
370
-3
390
F
  0
LAYER
  5
221
100
AcDbSymbolTableRecord
100
AcDbLayerTableRecord
  2
RUNDUNGEN
 70
0
 62
7
  6
CONTINUOUS
370
-3
390
F
  0
LAYER
  5
222
100
AcDbSymbolTableRecord
100
AcDbLayerTableRecord
  2
ZEICHNUNGSBEMASSUNGEN
 70
0
 62
7
  6
CONTINUOUS
370
-3
390
F
  0
LAYER
  5
223
100
AcDbSymbolTableRecord
100
AcDbLayerTableRecord
  2
ZEICHNUNGSNOTIZEN
 70
0
 62
7
  6
CONTINUOUS
370
-3
390
F
  0
ENDTAB
  0
TABLE
  2
STYLE
  5
3
100
AcDbSymbolTable
 70
1
  0
STYLE
  5
11
100
AcDbSymbolTableRecord
100
AcDbTextStyleTableRecord
  2
STANDARD
 70
0
 40
0.0
 41
0.7
 50
0.0
 71
0
 42
0.2
  3
txt
  4

  0
STYLE
  5
224
100
AcDbSymbolTableRecord
100
AcDbTextStyleTableRecord
  2
TEXTSTYLE_1
 70
0
 40
0.0
 41
0.8
 50
0.0
 71
0
 42
0.2
  3
gdt
  4

  0
ENDTAB
  0
TABLE
  2
VIEW
  5
6
100
AcDbSymbolTable
 70
0
  0
ENDTAB
  0
TABLE
  2
UCS
  5
7
100
AcDbSymbolTable
 70
0
  0
ENDTAB
  0
TABLE
  2
APPID
  5
9
100
AcDbSymbolTable
 70
1
  0
APPID
  5
225
100
AcDbSymbolTableRecord
100
AcDbRegAppTableRecord
  2
ACAD
 70
0
  0
ENDTAB
  0
TABLE
  2
BLOCK_RECORD
  5
1
100
AcDbSymbolTable
 70
0
  0
BLOCK_RECORD
  5
226
100
AcDbSymbolTableRecord
100
AcDbBlockTableRecord
  2
*Model_Space
  0
BLOCK_RECORD
  5
227
100
AcDbSymbolTableRecord
100
AcDbBlockTableRecord
  2
*Paper_Space
  0
ENDTAB
  0
TABLE
  2
DIMSTYLE
  5
A
100
AcDbSymbolTable
 70
1
100
AcDbDimStyleTable
 71
0
  0
DIMSTYLE
105
228
100
AcDbSymbolTableRecord
100
AcDbDimStyleTableRecord
  2
STANDARD
 70
0
  3

  4

 40
1.0
 41
3.5
 42
0.0
 43
0.38
 44
1.5
 45
0.0
 46
0.0
 47
0.005
 48
0.005
140
3.5
141
0.09
142
0.0
143
25.4
144
1.0
145
0.0
146
1.0
147
0.625
 71
1.0
 72
0.0
 73
0
 74
0
 75
0
 76
0
 77
1
 78
8
170
0
171
2
172
0
173
0
174
0
175
0
176
0
177
0
178
5
270
2
271
3
272
3
273
2
274
2
275
0
280
0
281
0
282
0
283
1
284
8
285
0
286
0
287
3
288
0
340
11
278
46
  0
ENDTAB
  0
ENDSEC
  0
SECTION
  2
BLOCKS
  0
BLOCK
  5
20
100
AcDbEntity
  8
0
100
AcDbBlockBegin
  2
*Model_Space
 70
0
 10
0.0
 20
0.0
 30
0.0
  3
*Model_Space
  1

  0
ENDBLK
  5
21
100
AcDbEntity
  8
0
100
AcDbBlockEnd
  0
BLOCK
  5
1C
100
AcDbEntity
  8
0
100
AcDbBlockBegin
  2
*Paper_Space
 70
0
 10
0.0
 20
0.0
 30
0.0
  3
*Paper_Space
  1

  0
ENDBLK
  5
1D
100
AcDbEntity
  8
0
100
AcDbBlockEnd
  0
ENDSEC
  0
SECTION
  2
ENTITIES
  0
HATCH
  5
229
100
AcDbEntity
  8
0
100
AcDbHatch
 62
2
  6
CONTINUOUS
 10
0.0
 20
0.0
 30
0.0
210
0.0
220
0.0
230
1.0
  2
A
 70
0
 71
0
 91
4
 92
1
 93
9
 72
1
 10
260.6795808576
 20
159.8807153162
 11
260.6795808576
 21
154.2353236547
 72
1
 10
250.0795808576
 20
153.8651634981
 11
260.6795808576
 21
154.2353236547
 72
1
 10
250.0795808576
 20
153.8651634981
 11
250.0795808576
 21
151.028972497
 72
1
 10
246.1795808576
 20
151.1651634981
 11
250.0795808576
 21
151.028972497
 72
1
 10
246.1795808576
 20
152.8651634981
 11
246.1795808576
 21
151.1651634981
 72
4
 94
3
 73
1
 74
0
 95
8
 96
4
 40
0.0
 40
0.0
 40
0.0
 40
0.0
 40
1.0
 40
1.0
 40
1.0
 40
1.0
 10
251.1795808576
 20
157.8651634981
 42
1.0
 10
248.2506486695
 20
157.8651634981
 42
0.8047378541
 10
246.1795808576
 20
155.7940956862
 42
0.8047378541
 10
246.1795808576
 20
152.8651634981
 42
1.0
 72
1
 10
251.1795808576
 20
157.8651634981
 11
256.7795808576
 21
157.8651634981
 72
1
 10
256.7795808576
 20
159.8807153162
 11
256.7795808576
 21
157.8651634981
 72
1
 10
256.7795808576
 20
159.8807153162
 11
260.6795808576
 21
159.8807153162
 97
0
 92
1
 93
7
 72
1
 10
260.6795808576
 20
174.8307153162
 11
260.6795808576
 21
162.8807153162
 72
1
 10
256.7795808576
 20
162.8807153162
 11
260.6795808576
 21
162.8807153162
 72
1
 10
256.7795808576
 20
170.8307153162
 11
256.7795808576
 21
162.8807153162
 72
1
 10
247.1795808576
 20
170.8307153162
 11
256.7795808576
 21
170.8307153162
 72
4
 94
3
 73
1
 74
0
 95
8
 96
4
 40
0.0
 40
0.0
 40
0.0
 40
0.0
 40
1.0
 40
1.0
 40
1.0
 40
1.0
 10
246.1795808576
 20
171.8307153162
 42
1.0
 10
246.1795808576
 20
171.2449288786
 42
0.8047378541
 10
246.59379442
 20
170.8307153162
 42
0.8047378541
 10
247.1795808576
 20
170.8307153162
 42
1.0
 72
1
 10
246.1795808576
 20
174.8307153162
 11
246.1795808576
 21
171.8307153162
 72
1
 10
246.1795808576
 20
174.8307153162
 11
260.6795808576
 21
174.8307153162
 97
0
 92
1
 93
7
 72
1
 10
260.6795808576
 20
216.8807153162
 11
260.6795808576
 21
208.2307153162
 72
1
 10
246.1795808576
 20
208.2307153162
 11
260.6795808576
 21
208.2307153162
 72
1
 10
246.1795808576
 20
211.2307153162
 11
246.1795808576
 21
208.2307153162
 72
4
 94
3
 73
1
 74
0
 95
8
 96
4
 40
0.0
 40
0.0
 40
0.0
 40
0.0
 40
1.0
 40
1.0
 40
1.0
 40
1.0
 10
247.1795808576
 20
212.2307153162
 42
1.0
 10
246.59379442
 20
212.2307153162
 42
0.8047378541
 10
246.1795808576
 20
211.8165017539
 42
0.8047378541
 10
246.1795808576
 20
211.2307153162
 42
1.0
 72
1
 10
247.1795808576
 20
212.2307153162
 11
256.7795808576
 21
212.2307153162
 72
1
 10
256.7795808576
 20
216.8807153162
 11
256.7795808576
 21
212.2307153162
 72
1
 10
256.7795808576
 20
216.8807153162
 11
260.6795808576
 21
216.8807153162
 97
0
 92
1
 93
9
 72
1
 10
260.6795808576
 20
225.5261069778
 11
260.6795808576
 21
219.8807153162
 72
1
 10
256.7795808576
 20
219.8807153162
 11
260.6795808576
 21
219.8807153162
 72
1
 10
256.7795808576
 20
221.8962671344
 11
256.7795808576
 21
219.8807153162
 72
1
 10
251.1795808576
 20
221.8962671344
 11
256.7795808576
 21
221.8962671344
 72
4
 94
3
 73
1
 74
0
 95
8
 96
4
 40
0.0
 40
0.0
 40
0.0
 40
0.0
 40
1.0
 40
1.0
 40
1.0
 40
1.0
 10
251.1795808576
 20
221.8962671344
 42
1.0
 10
248.2506486695
 20
221.8962671344
 42
0.8047378541
 10
246.1795808576
 20
223.9673349463
 42
0.8047378541
 10
246.1795808576
 20
226.8962671344
 42
1.0
 72
1
 10
246.1795808576
 20
236.6962671344
 11
246.1795808576
 21
226.8962671344
 72
1
 10
246.1795808576
 20
236.6962671344
 11
250.0795808576
 21
236.8324581355
 72
1
 10
250.0795808576
 20
236.8324581355
 11
250.0795808576
 21
225.8962671344
 72
1
 10
250.0795808576
 20
225.8962671344
 11
260.6795808576
 21
225.5261069778
 97
0
 75
0
 76
0
 52
45.0
 41
5.2739800496
 77
0
 78
1
 53
45.0
 43
0.0
 44
0.0
 45
-3.7292670569
 46
3.7292670569
 79
0
 98
1
 10
0.0
 20
0.0
  0
HATCH
  5
22A
100
AcDbEntity
  8
0
100
AcDbHatch
 62
2
  6
CONTINUOUS
 10
0.0
 20
0.0
 30
0.0
210
0.0
220
0.0
230
1.0
  2
default__1
 70
0
 71
0
 91
4
 92
1
 93
9
 72
1
 10
260.6795808576
 20
159.8807153162
 11
260.6795808576
 21
154.2353236547
 72
1
 10
264.5795808576
 20
159.8807153162
 11
260.6795808576
 21
159.8807153162
 72
1
 10
264.5795808576
 20
159.8807153162
 11
264.5795808576
 21
157.8651634981
 72
1
 10
270.1795808576
 20
157.8651634981
 11
264.5795808576
 21
157.8651634981
 72
4
 94
3
 73
1
 74
0
 95
8
 96
4
 40
0.0
 40
0.0
 40
0.0
 40
0.0
 40
1.0
 40
1.0
 40
1.0
 40
1.0
 10
270.1795808576
 20
157.8651634981
 42
1.0
 10
273.1085130458
 20
157.8651634981
 42
0.8047378541
 10
275.1795808576
 20
155.7940956862
 42
0.8047378541
 10
275.1795808576
 20
152.8651634981
 42
1.0
 72
1
 10
275.1795808576
 20
152.8651634981
 11
275.1795808576
 21
151.1651634981
 72
1
 10
275.1795808576
 20
151.1651634981
 11
271.2795808576
 21
151.028972497
 72
1
 10
271.2795808576
 20
153.8651634981
 11
271.2795808576
 21
151.028972497
 72
1
 10
271.2795808576
 20
153.8651634981
 11
260.6795808576
 21
154.2353236547
 97
0
 92
1
 93
7
 72
1
 10
260.6795808576
 20
174.8307153162
 11
260.6795808576
 21
162.8807153162
 72
1
 10
275.1795808576
 20
174.8307153162
 11
260.6795808576
 21
174.8307153162
 72
1
 10
275.1795808576
 20
174.8307153162
 11
275.1795808576
 21
171.8307153162
 72
4
 94
3
 73
1
 74
0
 95
8
 96
4
 40
0.0
 40
0.0
 40
0.0
 40
0.0
 40
1.0
 40
1.0
 40
1.0
 40
1.0
 10
275.1795808576
 20
171.8307153162
 42
1.0
 10
275.1795808576
 20
171.2449288786
 42
0.8047378541
 10
274.7653672952
 20
170.8307153162
 42
0.8047378541
 10
274.1795808576
 20
170.8307153162
 42
1.0
 72
1
 10
274.1795808576
 20
170.8307153162
 11
264.5795808576
 21
170.8307153162
 72
1
 10
264.5795808576
 20
170.8307153162
 11
264.5795808576
 21
162.8807153162
 72
1
 10
264.5795808576
 20
162.8807153162
 11
260.6795808576
 21
162.8807153162
 97
0
 92
1
 93
7
 72
1
 10
260.6795808576
 20
216.8807153162
 11
260.6795808576
 21
208.2307153162
 72
1
 10
264.5795808576
 20
216.8807153162
 11
260.6795808576
 21
216.8807153162
 72
1
 10
264.5795808576
 20
216.8807153162
 11
264.5795808576
 21
212.2307153162
 72
1
 10
274.1795808576
 20
212.2307153162
 11
264.5795808576
 21
212.2307153162
 72
4
 94
3
 73
1
 74
0
 95
8
 96
4
 40
0.0
 40
0.0
 40
0.0
 40
0.0
 40
1.0
 40
1.0
 40
1.0
 40
1.0
 10
274.1795808576
 20
212.2307153162
 42
1.0
 10
274.7653672952
 20
212.2307153162
 42
0.8047378541
 10
275.1795808576
 20
211.8165017539
 42
0.8047378541
 10
275.1795808576
 20
211.2307153162
 42
1.0
 72
1
 10
275.1795808576
 20
211.2307153162
 11
275.1795808576
 21
208.2307153162
 72
1
 10
275.1795808576
 20
208.2307153162
 11
260.6795808576
 21
208.2307153162
 97
0
 92
1
 93
9
 72
1
 10
260.6795808576
 20
225.5261069778
 11
260.6795808576
 21
219.8807153162
 72
1
 10
271.2795808576
 20
225.8962671344
 11
260.6795808576
 21
225.5261069778
 72
1
 10
271.2795808576
 20
236.8324581355
 11
271.2795808576
 21
225.8962671344
 72
1
 10
275.1795808576
 20
236.6962671344
 11
271.2795808576
 21
236.8324581355
 72
1
 10
275.1795808576
 20
236.6962671344
 11
275.1795808576
 21
226.8962671344
 72
4
 94
3
 73
1
 74
0
 95
8
 96
4
 40
0.0
 40
0.0
 40
0.0
 40
0.0
 40
1.0
 40
1.0
 40
1.0
 40
1.0
 10
270.1795808576
 20
221.8962671344
 42
1.0
 10
273.1085130458
 20
221.8962671344
 42
0.8047378541
 10
275.1795808576
 20
223.9673349463
 42
0.8047378541
 10
275.1795808576
 20
226.8962671344
 42
1.0
 72
1
 10
270.1795808576
 20
221.8962671344
 11
264.5795808576
 21
221.8962671344
 72
1
 10
264.5795808576
 20
221.8962671344
 11
264.5795808576
 21
219.8807153162
 72
1
 10
264.5795808576
 20
219.8807153162
 11
260.6795808576
 21
219.8807153162
 97
0
 75
0
 76
0
 52
325.0
 41
5.8357622117
 77
0
 78
1
 53
325.0
 43
0.0
 44
0.0
 45
3.3472556928
 46
4.7803765457
 79
0
 98
1
 10
0.0
 20
0.0
  0
LINE
  5
22B
100
AcDbEntity
  8
0
100
AcDbLine
 62
7
  6
CONTINUOUS
 10
0.0
 20
-0.0
 11
0.0
 21
297.0
  0
LINE
  5
22C
100
AcDbEntity
  8
0
100
AcDbLine
 62
7
  6
CONTINUOUS
 10
0.0
 20
-0.0
 11
420.0
 21
-0.0
  0
LINE
  5
22D
100
AcDbEntity
  8
0
100
AcDbLine
 62
7
  6
CONTINUOUS
 10
0.0
 20
297.0
 11
420.0
 21
297.0
  0
LINE
  5
22E
100
AcDbEntity
  8
0
100
AcDbLine
 62
7
  6
CONTINUOUS
 10
420.0
 20
-0.0
 11
420.0
 21
297.0
  0
LINE
  5
22F
100
AcDbEntity
  8
AUSFORMSCHRAEGEN
100
AcDbLine
 62
9
  6
CONTINUOUS
 10
75.7702265138
 20
177.0564632906
 11
75.7573785275
 21
177.1920469106
  0
LINE
  5
230
100
AcDbEntity
  8
AUSFORMSCHRAEGEN
100
AcDbLine
 62
9
  6
CONTINUOUS
 10
74.4610113786
 20
176.9771964008
 11
74.4574075625
 21
177.1133397123
  0
LINE
  5
231
100
AcDbEntity
  8
AUSFORMSCHRAEGEN
100
AcDbLine
 62
9
  6
CONTINUOUS
 10
79.8725453525
 20
214.6152419193
 11
79.830731513
 21
214.4856286808
  0
LINE
  5
232
100
AcDbEntity
  8
AUSFORMSCHRAEGEN
100
AcDbLine
 62
9
  6
CONTINUOUS
 10
74.4457161939
 20
202.7321436163
 11
74.516289102
 21
202.8486230281
  0
LINE
  5
233
100
AcDbEntity
  8
AUSFORMSCHRAEGEN
100
AcDbLine
 62
9
  6
CONTINUOUS
 10
99.346851964
 20
231.4695862262
 11
99.2416017166
 21
231.3831548998
  0
LINE
  5
234
100
AcDbEntity
  8
AUSFORMSCHRAEGEN
100
AcDbLine
 62
9
  6
CONTINUOUS
 10
88.3570247818
 20
224.4068531503
 11
88.4793680145
 21
224.4666872723
  0
LINE
  5
235
100
AcDbEntity
  8
AUSFORMSCHRAEGEN
100
AcDbLine
 62
9
  6
CONTINUOUS
 10
137.0577735473
 20
149.5990055339
 11
136.9253984321
 21
149.5669927607
  0
LINE
  5
236
100
AcDbEntity
  8
AUSFORMSCHRAEGEN
100
AcDbLine
 62
9
  6
CONTINUOUS
 10
137.3225543547
 20
148.3143971756
 11
137.1883096623
 21
148.2914548278
  0
LINE
  5
237
100
AcDbEntity
  8
AUSFORMSCHRAEGEN
100
AcDbLine
 62
9
  6
CONTINUOUS
 10
99.2974682877
 20
148.3143971756
 11
99.4317129801
 21
148.2914548278
  0
LINE
  5
238
100
AcDbEntity
  8
AUSFORMSCHRAEGEN
100
AcDbLine
 62
9
  6
CONTINUOUS
 10
99.5622490951
 20
149.5990055339
 11
99.6946242102
 21
149.5669927607
  0
LINE
  5
239
100
AcDbEntity
  8
AUSFORMSCHRAEGEN
100
AcDbLine
 62
9
  6
CONTINUOUS
 10
112.3036960213
 20
145.857779158
 11
112.1750275762
 21
145.9024156899
  0
LINE
  5
23A
100
AcDbEntity
  8
AUSFORMSCHRAEGEN
100
AcDbLine
 62
9
  6
CONTINUOUS
 10
111.8319320981
 20
144.6339465261
 11
111.7065947066
 21
144.6872243552
  0
LINE
  5
23B
100
AcDbEntity
  8
AUSFORMSCHRAEGEN
100
AcDbLine
 62
9
  6
CONTINUOUS
 10
79.843194108
 20
165.1918601412
 11
79.94372436
 21
165.0999816498
  0
LINE
  5
23C
100
AcDbEntity
  8
AUSFORMSCHRAEGEN
100
AcDbLine
 62
9
  6
CONTINUOUS
 10
80.7604536106
 20
166.1293901488
 11
80.854507232
 21
166.0308918997
  0
LINE
  5
23D
100
AcDbEntity
  8
AUSFORMSCHRAEGEN
100
AcDbLine
 62
9
  6
CONTINUOUS
 10
89.4565811645
 20
156.0935239612
 11
89.3724707115
 21
156.2006380146
  0
LINE
  5
23E
100
AcDbEntity
  8
AUSFORMSCHRAEGEN
100
AcDbLine
 62
9
  6
CONTINUOUS
 10
88.3980542229
 20
155.3190252691
 11
88.3214178686
 21
155.4316079408
  0
LINE
  5
23F
100
AcDbEntity
  8
AUSFORMSCHRAEGEN
100
AcDbLine
 62
9
  6
CONTINUOUS
 10
72.6018625999
 20
189.9078601817
 11
72.6367607669
 21
189.7762163186
  0
LINE
  5
240
100
AcDbEntity
  8
AUSFORMSCHRAEGEN
100
AcDbLine
 62
9
  6
CONTINUOUS
 10
73.8803773867
 20
190.2006526854
 11
73.9062481541
 21
190.0669414587
  0
LINE
  5
241
100
AcDbEntity
  8
AUSFORMSCHRAEGEN
100
AcDbLine
 62
9
  6
CONTINUOUS
 10
77.8744280905
 20
177.2183299584
 11
77.8819658003
 21
177.3543122061
  0
LINE
  5
242
100
AcDbEntity
  8
AUSFORMSCHRAEGEN
100
AcDbLine
 62
9
  6
CONTINUOUS
 10
83.0797595299
 20
213.4222053473
 11
83.0486812831
 21
213.2896077178
  0
LINE
  5
243
100
AcDbEntity
  8
AUSFORMSCHRAEGEN
100
AcDbLine
 62
9
  6
CONTINUOUS
 10
81.1063960122
 20
214.1703373679
 11
81.0558701397
 21
214.0438655333
  0
LINE
  5
244
100
AcDbEntity
  8
AUSFORMSCHRAEGEN
100
AcDbLine
 62
9
  6
CONTINUOUS
 10
75.5899529677
 20
202.0910120264
 11
75.652446593
 21
202.2120183715
  0
LINE
  5
245
100
AcDbEntity
  8
AUSFORMSCHRAEGEN
100
AcDbLine
 62
9
  6
CONTINUOUS
 10
77.4476317054
 20
201.089565672
 11
77.527490384
 21
201.1998860247
  0
LINE
  5
246
100
AcDbEntity
  8
AUSFORMSCHRAEGEN
100
AcDbLine
 62
9
  6
CONTINUOUS
 10
101.3999279537
 20
228.7319891006
 11
101.3020955781
 21
228.6372430451
  0
LINE
  5
247
100
AcDbEntity
  8
AUSFORMSCHRAEGEN
100
AcDbLine
 62
9
  6
CONTINUOUS
 10
100.1442996301
 20
230.4282386713
 11
100.0334187253
 21
230.3491601426
  0
LINE
  5
248
100
AcDbEntity
  8
AUSFORMSCHRAEGEN
100
AcDbLine
 62
9
  6
CONTINUOUS
 10
88.9729961034
 20
223.2488778305
 11
89.0909900557
 21
223.3168882412
  0
LINE
  5
249
100
AcDbEntity
  8
AUSFORMSCHRAEGEN
100
AcDbLine
 62
9
  6
CONTINUOUS
 10
89.9943521286
 20
221.4020705957
 11
90.1211772097
 21
221.4517031209
  0
LINE
  5
24A
100
AcDbEntity
  8
AUSFORMSCHRAEGEN
100
AcDbLine
 62
9
  6
CONTINUOUS
 10
136.5980953417
 20
151.6587533439
 11
136.4624244693
 21
151.6468620391
  0
LINE
  5
24B
100
AcDbEntity
  8
AUSFORMSCHRAEGEN
100
AcDbLine
 62
9
  6
CONTINUOUS
 10
100.0219273006
 20
151.6587533439
 11
100.1575981731
 21
151.6468620391
  0
LINE
  5
24C
100
AcDbEntity
  8
AUSFORMSCHRAEGEN
100
AcDbLine
 62
9
  6
CONTINUOUS
 10
113.0305738467
 20
147.8390700807
 11
112.9100113212
 21
147.9024156899
  0
LINE
  5
24D
100
AcDbEntity
  8
AUSFORMSCHRAEGEN
100
AcDbLine
 62
9
  6
CONTINUOUS
 10
82.2607432647
 20
167.6136394698
 11
82.3684479407
 21
167.5302866562
  0
LINE
  5
24E
100
AcDbEntity
  8
AUSFORMSCHRAEGEN
100
AcDbLine
 62
9
  6
CONTINUOUS
 10
91.1392364471
 20
157.3673121277
 11
91.0720600185
 21
157.4857828676
  0
LINE
  5
24F
100
AcDbEntity
  8
AUSFORMSCHRAEGEN
100
AcDbLine
 62
9
  6
CONTINUOUS
 10
75.9449471247
 20
190.6381648454
 11
75.9904901306
 21
190.5098144524
  0
LINE
  5
250
100
AcDbEntity
  8
RUNDUNGEN
100
AcDbLine
 62
7
  6
CONTINUOUS
 10
110.3100113212
 20
210.2307153162
 11
110.3100113212
 21
208.4037415269
  0
LINE
  5
251
100
AcDbEntity
  8
RUNDUNGEN
100
AcDbLine
 62
9
  6
CONTINUOUS
 10
111.3100113212
 20
210.2307153162
 11
111.3100113212
 21
208.4037415269
  0
LINE
  5
252
100
AcDbEntity
  8
RUNDUNGEN
100
AcDbLine
 62
9
  6
CONTINUOUS
 10
112.3100113212
 20
211.2307153162
 11
112.3100113288
 21
212.2307153162
  0
LINE
  5
253
100
AcDbEntity
  8
0
100
AcDbLine
 62
7
  6
CONTINUOUS
 10
114.3100113212
 20
204.3894196002
 11
114.3100113212
 21
208.2307153162
  0
LINE
  5
254
100
AcDbEntity
  8
AUSFORMSCHRAEGEN
100
AcDbLine
 62
9
  6
CONTINUOUS
 10
113.2261626945
 20
236.5564117428
 11
113.2409092063
 21
236.4210214583
  0
LINE
  5
255
100
AcDbEntity
  8
02___PRT_ALL_AXES
100
AcDbLine
 62
7
  6
CENTER
 10
118.3100113212
 20
189.8807153162
 11
118.3100113212
 21
140.6547516076
  0
LINE
  5
256
100
AcDbEntity
  8
02___PRT_ALL_AXES
100
AcDbLine
 62
7
  6
CENTER
 10
118.3100113212
 20
189.8807153162
 11
118.3100113212
 21
192.8808153162
  0
LINE
  5
257
100
AcDbEntity
  8
02___PRT_ALL_AXES
100
AcDbLine
 62
7
  6
CENTER
 10
118.3100113212
 20
192.8808153162
 11
118.3100113212
 21
239.1066790249
  0
LINE
  5
258
100
AcDbEntity
  8
AUSFORMSCHRAEGEN
100
AcDbLine
 62
9
  6
CONTINUOUS
 10
123.3938599479
 20
236.5564117428
 11
123.379113436
 21
236.4210214583
  0
LINE
  5
259
100
AcDbEntity
  8
AUSFORMSCHRAEGEN
100
AcDbLine
 62
9
  6
CONTINUOUS
 10
110.0378650609
 20
143.6634268842
 11
110.0618597374
 21
143.7974874834
  0
LINE
  5
25A
100
AcDbEntity
  8
02___PRT_ALL_AXES
100
AcDbLine
 62
7
  6
CENTER
 10
130.9360113212
 20
232.8809223945
 11
130.0907854774
 21
230.0023475243
  0
LINE
  5
25B
100
AcDbEntity
  8
02___PRT_ALL_AXES
100
AcDbLine
 62
7
  6
CENTER
 10
130.9360113212
 20
232.8809223945
 11
131.781237165
 21
235.7594972646
  0
LINE
  5
25C
100
AcDbEntity
  8
AUSFORMSCHRAEGEN
100
AcDbLine
 62
9
  6
CONTINUOUS
 10
100.2820309883
 20
146.5279982286
 11
100.3343240139
 21
146.6537496828
  0
LINE
  5
25D
100
AcDbEntity
  8
AUSFORMSCHRAEGEN
100
AcDbLine
 62
9
  6
CONTINUOUS
 10
139.2679923749
 20
231.8953459098
 11
139.207200416
 21
231.7734757884
  0
LINE
  5
25E
100
AcDbEntity
  8
RUNDUNGEN
100
AcDbLine
 62
9
  6
CONTINUOUS
 10
126.884833175
 20
205.7638803139
 11
127.3598925535
 21
206.64383405
  0
LINE
  5
25F
100
AcDbEntity
  8
02___PRT_ALL_AXES
100
AcDbLine
 62
7
  6
CENTER
 10
94.0808947515
 20
152.1794740234
 11
92.458918235
 21
149.6556292996
  0
LINE
  5
260
100
AcDbEntity
  8
02___PRT_ALL_AXES
100
AcDbLine
 62
7
  6
CENTER
 10
94.0808947515
 20
152.1794740234
 11
95.7028712679
 21
154.7033187473
  0
LINE
  5
261
100
AcDbEntity
  8
AUSFORMSCHRAEGEN
100
AcDbLine
 62
9
  6
CONTINUOUS
 10
147.8216036102
 20
226.398273755
 11
147.7360005408
 21
226.2923487661
  0
LINE
  5
262
100
AcDbEntity
  8
AUSFORMSCHRAEGEN
100
AcDbLine
 62
9
  6
CONTINUOUS
 10
86.3640864571
 20
155.4725180612
 11
86.4567506954
 21
155.5723245124
  0
LINE
  5
263
100
AcDbEntity
  8
02___PRT_ALL_AXES
100
AcDbLine
 62
7
  6
CENTER
 10
152.1793455322
 20
219.2286604721
 11
149.9120212342
 21
217.2640127842
  0
LINE
  5
264
100
AcDbEntity
  8
02___PRT_ALL_AXES
100
AcDbLine
 62
7
  6
CENTER
 10
152.1793455322
 20
219.2286604721
 11
154.4466698303
 21
221.19330816
  0
LINE
  5
265
100
AcDbEntity
  8
AUSFORMSCHRAEGEN
100
AcDbLine
 62
9
  6
CONTINUOUS
 10
79.7056607712
 20
163.1567509327
 11
79.8176388327
 21
163.2342680437
  0
LINE
  5
266
100
AcDbEntity
  8
AUSFORMSCHRAEGEN
100
AcDbLine
 62
9
  6
CONTINUOUS
 10
158.6558111528
 20
213.8949317246
 11
158.5387817406
 21
213.8252746687
  0
LINE
  5
267
100
AcDbEntity
  8
02___PRT_ALL_AXES
100
AcDbLine
 62
7
  6
CENTER
 10
77.5443514979
 20
171.263662275
 11
74.8153645486
 21
170.0173756945
  0
LINE
  5
268
100
AcDbEntity
  8
02___PRT_ALL_AXES
100
AcDbLine
 62
7
  6
CENTER
 10
77.5443514979
 20
171.263662275
 11
80.2733384472
 21
172.5099488555
  0
LINE
  5
269
100
AcDbEntity
  8
AUSFORMSCHRAEGEN
100
AcDbLine
 62
9
  6
CONTINUOUS
 10
162.8796252396
 20
204.6460689837
 11
162.7503439825
 21
204.603239726
  0
LINE
  5
26A
100
AcDbEntity
  8
AUSFORMSCHRAEGEN
100
AcDbLine
 62
9
  6
CONTINUOUS
 10
72.8329132786
 20
178.20596875
 11
72.9648268378
 21
178.2398332101
  0
LINE
  5
26B
100
AcDbEntity
  8
02___PRT_ALL_AXES
100
AcDbLine
 62
7
  6
CENTER
 10
162.6694054406
 20
196.2586333254
 11
159.6998421328
 21
195.8316745791
  0
LINE
  5
26C
100
AcDbEntity
  8
02___PRT_ALL_AXES
100
AcDbLine
 62
7
  6
CENTER
 10
162.6694054406
 20
196.2586333254
 11
165.6389687484
 21
196.6855920717
  0
LINE
  5
26D
100
AcDbEntity
  8
AUSFORMSCHRAEGEN
100
AcDbLine
 62
9
  6
CONTINUOUS
 10
71.3858990884
 20
188.270173506
 11
71.5220099425
 21
188.2748451388
  0
LINE
  5
26E
100
AcDbEntity
  8
02___PRT_ALL_AXES
100
AcDbLine
 62
7
  6
CENTER
 10
118.3100113212
 20
189.8807153162
 11
115.3099113212
 21
189.8807153162
  0
LINE
  5
26F
100
AcDbEntity
  8
02___PRT_ALL_AXES
100
AcDbLine
 62
7
  6
CENTER
 10
115.3099113212
 20
189.8807153162
 11
69.0840476126
 21
189.8807153162
  0
LINE
  5
270
100
AcDbEntity
  8
02___PRT_ALL_AXES
100
AcDbLine
 62
7
  6
CENTER
 10
118.3100113212
 20
189.8807153162
 11
167.5359750298
 21
189.8807153162
  0
LINE
  5
271
100
AcDbEntity
  8
AUSFORMSCHRAEGEN
100
AcDbLine
 62
9
  6
CONTINUOUS
 10
165.234123554
 20
188.270173506
 11
165.0980126999
 21
188.2748451388
  0
LINE
  5
272
100
AcDbEntity
  8
02___PRT_ALL_AXES
100
AcDbLine
 62
7
  6
CENTER
 10
73.9506172018
 20
196.2586333254
 11
70.981053894
 21
196.6855920717
  0
LINE
  5
273
100
AcDbEntity
  8
02___PRT_ALL_AXES
100
AcDbLine
 62
7
  6
CENTER
 10
73.9506172018
 20
196.2586333254
 11
76.9201805096
 21
195.8316745791
  0
LINE
  5
274
100
AcDbEntity
  8
AUSFORMSCHRAEGEN
100
AcDbLine
 62
9
  6
CONTINUOUS
 10
163.7871093638
 20
178.20596875
 11
163.6551958046
 21
178.2398332101
  0
LINE
  5
275
100
AcDbEntity
  8
AUSFORMSCHRAEGEN
100
AcDbLine
 62
9
  6
CONTINUOUS
 10
73.7403974028
 20
204.6460689837
 11
73.8696786599
 21
204.603239726
  0
LINE
  5
276
100
AcDbEntity
  8
02___PRT_ALL_AXES
100
AcDbLine
 62
7
  6
CENTER
 10
159.0756711445
 20
171.263662275
 11
156.3466841952
 21
172.5099488555
  0
LINE
  5
277
100
AcDbEntity
  8
02___PRT_ALL_AXES
100
AcDbLine
 62
7
  6
CENTER
 10
159.0756711445
 20
171.263662275
 11
161.8046580938
 21
170.0173756945
  0
LINE
  5
278
100
AcDbEntity
  8
AUSFORMSCHRAEGEN
100
AcDbLine
 62
9
  6
CONTINUOUS
 10
77.9642114895
 20
213.8949317246
 11
78.0812409018
 21
213.8252746687
  0
LINE
  5
279
100
AcDbEntity
  8
AUSFORMSCHRAEGEN
100
AcDbLine
 62
9
  6
CONTINUOUS
 10
156.9143618712
 20
163.1567509327
 11
156.8023838097
 21
163.2342680437
  0
LINE
  5
27A
100
AcDbEntity
  8
02___PRT_ALL_AXES
100
AcDbLine
 62
7
  6
CENTER
 10
84.4406771101
 20
219.2286604721
 11
86.7080014082
 21
217.2640127842
  0
LINE
  5
27B
100
AcDbEntity
  8
02___PRT_ALL_AXES
100
AcDbLine
 62
7
  6
CENTER
 10
84.4406771101
 20
219.2286604721
 11
82.1733528121
 21
221.19330816
  0
LINE
  5
27C
100
AcDbEntity
  8
AUSFORMSCHRAEGEN
100
AcDbLine
 62
9
  6
CONTINUOUS
 10
150.2559361853
 20
155.4725180612
 11
150.163271947
 21
155.5723245124
  0
LINE
  5
27D
100
AcDbEntity
  8
AUSFORMSCHRAEGEN
100
AcDbLine
 62
9
  6
CONTINUOUS
 10
88.7984190322
 20
226.398273755
 11
88.8840221015
 21
226.2923487661
  0
LINE
  5
27E
100
AcDbEntity
  8
02___PRT_ALL_AXES
100
AcDbLine
 62
7
  6
CENTER
 10
142.5391278909
 20
152.1794740234
 11
144.1611044074
 21
149.6556292996
  0
LINE
  5
27F
100
AcDbEntity
  8
02___PRT_ALL_AXES
100
AcDbLine
 62
7
  6
CENTER
 10
142.5391278909
 20
152.1794740234
 11
140.9171513745
 21
154.7033187473
  0
LINE
  5
280
100
AcDbEntity
  8
RUNDUNGEN
100
AcDbLine
 62
9
  6
CONTINUOUS
 10
109.7351894685
 20
205.7638803092
 11
109.260130086
 21
206.6438340484
  0
LINE
  5
281
100
AcDbEntity
  8
AUSFORMSCHRAEGEN
100
AcDbLine
 62
9
  6
CONTINUOUS
 10
97.3520302675
 20
231.8953459098
 11
97.4128222263
 21
231.7734757884
  0
LINE
  5
282
100
AcDbEntity
  8
AUSFORMSCHRAEGEN
100
AcDbLine
 62
9
  6
CONTINUOUS
 10
136.3379916541
 20
146.5279982286
 11
136.2856986285
 21
146.6537496828
  0
LINE
  5
283
100
AcDbEntity
  8
02___PRT_ALL_AXES
100
AcDbLine
 62
7
  6
CENTER
 10
105.6840113212
 20
232.8809223945
 11
106.529237165
 21
230.0023475243
  0
LINE
  5
284
100
AcDbEntity
  8
02___PRT_ALL_AXES
100
AcDbLine
 62
7
  6
CENTER
 10
105.6840113212
 20
232.8809223945
 11
104.8387854774
 21
235.7594972646
  0
LINE
  5
285
100
AcDbEntity
  8
AUSFORMSCHRAEGEN
100
AcDbLine
 62
9
  6
CONTINUOUS
 10
126.5821575815
 20
143.6634268842
 11
126.558162905
 21
143.7974874834
  0
LINE
  5
286
100
AcDbEntity
  8
0
100
AcDbLine
 62
7
  6
CONTINUOUS
 10
122.3100113212
 20
208.2307153162
 11
122.3100113212
 21
204.3894196002
  0
LINE
  5
287
100
AcDbEntity
  8
RUNDUNGEN
100
AcDbLine
 62
9
  6
CONTINUOUS
 10
124.3100113212
 20
211.2307153162
 11
124.3100113212
 21
212.2307153162
  0
LINE
  5
288
100
AcDbEntity
  8
RUNDUNGEN
100
AcDbLine
 62
9
  6
CONTINUOUS
 10
125.3100113212
 20
208.4037415269
 11
125.3100113212
 21
210.2307153162
  0
LINE
  5
289
100
AcDbEntity
  8
RUNDUNGEN
100
AcDbLine
 62
7
  6
CONTINUOUS
 10
126.3100113212
 20
208.4037415269
 11
126.3100113212
 21
210.2307153162
  0
LINE
  5
28A
100
AcDbEntity
  8
0
100
AcDbLine
 62
7
  6
CONTINUOUS
 10
114.3100113212
 20
208.2307153162
 11
122.3100113212
 21
208.2307153162
  0
LINE
  5
28B
100
AcDbEntity
  8
RUNDUNGEN
100
AcDbLine
 62
9
  6
CONTINUOUS
 10
111.3100113212
 20
208.4037415269
 11
110.3100113212
 21
208.4037415237
  0
LINE
  5
28C
100
AcDbEntity
  8
RUNDUNGEN
100
AcDbLine
 62
9
  6
CONTINUOUS
 10
125.3100113212
 20
208.4037415269
 11
126.3100113212
 21
208.4037415269
  0
LINE
  5
28D
100
AcDbEntity
  8
RUNDUNGEN
100
AcDbLine
 62
9
  6
CONTINUOUS
 10
111.3100113212
 20
210.2307153162
 11
110.3100113212
 21
210.2307153162
  0
LINE
  5
28E
100
AcDbEntity
  8
RUNDUNGEN
100
AcDbLine
 62
9
  6
CONTINUOUS
 10
125.3100113212
 20
210.2307153162
 11
126.3100113212
 21
210.2307153087
  0
LINE
  5
28F
100
AcDbEntity
  8
RUNDUNGEN
100
AcDbLine
 62
9
  6
CONTINUOUS
 10
124.3100113212
 20
211.2307153162
 11
112.3100113212
 21
211.2307153162
  0
LINE
  5
290
100
AcDbEntity
  8
RUNDUNGEN
100
AcDbLine
 62
7
  6
CONTINUOUS
 10
124.3100113212
 20
212.2307153162
 11
112.3100113212
 21
212.2307153162
  0
LINE
  5
291
100
AcDbEntity
  8
AUSFORMSCHRAEGEN
100
AcDbLine
 62
9
  6
CONTINUOUS
 10
158.7455945519
 20
177.2183299584
 11
158.7380568421
 21
177.3543122061
  0
LINE
  5
292
100
AcDbEntity
  8
AUSFORMSCHRAEGEN
100
AcDbLine
 62
9
  6
CONTINUOUS
 10
160.6750755177
 20
190.6381648454
 11
160.6295325118
 21
190.5098144524
  0
LINE
  5
293
100
AcDbEntity
  8
AUSFORMSCHRAEGEN
100
AcDbLine
 62
9
  6
CONTINUOUS
 10
145.4807861953
 20
157.3673121277
 11
145.5479626239
 21
157.4857828676
  0
LINE
  5
294
100
AcDbEntity
  8
AUSFORMSCHRAEGEN
100
AcDbLine
 62
9
  6
CONTINUOUS
 10
154.3592793777
 20
167.6136394698
 11
154.2515747017
 21
167.5302866562
  0
LINE
  5
295
100
AcDbEntity
  8
AUSFORMSCHRAEGEN
100
AcDbLine
 62
9
  6
CONTINUOUS
 10
123.5894487957
 20
147.8390700807
 11
123.7100113212
 21
147.9024156899
  0
LINE
  5
296
100
AcDbEntity
  8
AUSFORMSCHRAEGEN
100
AcDbLine
 62
9
  6
CONTINUOUS
 10
125.0889283658
 20
231.7067679374
 11
124.9554029493
 21
231.679954659
  0
LINE
  5
297
100
AcDbEntity
  8
AUSFORMSCHRAEGEN
100
AcDbLine
 62
9
  6
CONTINUOUS
 10
111.5310942766
 20
231.7067679374
 11
111.6646196931
 21
231.679954659
  0
LINE
  5
298
100
AcDbEntity
  8
AUSFORMSCHRAEGEN
100
AcDbLine
 62
9
  6
CONTINUOUS
 10
146.6256705138
 20
221.4020705957
 11
146.4988454326
 21
221.4517031209
  0
LINE
  5
299
100
AcDbEntity
  8
AUSFORMSCHRAEGEN
100
AcDbLine
 62
9
  6
CONTINUOUS
 10
135.2200946887
 20
228.7319891006
 11
135.3179270643
 21
228.6372430451
  0
LINE
  5
29A
100
AcDbEntity
  8
AUSFORMSCHRAEGEN
100
AcDbLine
 62
9
  6
CONTINUOUS
 10
159.172390937
 20
201.089565672
 11
159.0925322584
 21
201.1998860247
  0
LINE
  5
29B
100
AcDbEntity
  8
AUSFORMSCHRAEGEN
100
AcDbLine
 62
9
  6
CONTINUOUS
 10
153.5402631125
 20
213.4222053473
 11
153.5713413592
 21
213.2896077178
  0
LINE
  5
29C
100
AcDbEntity
  8
AUSFORMSCHRAEGEN
100
AcDbLine
 62
9
  6
CONTINUOUS
 10
162.1590112638
 20
176.9771964008
 11
162.1626150799
 21
177.1133397123
  0
LINE
  5
29D
100
AcDbEntity
  8
AUSFORMSCHRAEGEN
100
AcDbLine
 62
9
  6
CONTINUOUS
 10
160.8497961285
 20
177.0564632906
 11
160.8626441148
 21
177.1920469106
  0
LINE
  5
29E
100
AcDbEntity
  8
AUSFORMSCHRAEGEN
100
AcDbLine
 62
9
  6
CONTINUOUS
 10
162.7396452557
 20
190.2006526854
 11
162.7137744883
 21
190.0669414587
  0
LINE
  5
29F
100
AcDbEntity
  8
AUSFORMSCHRAEGEN
100
AcDbLine
 62
9
  6
CONTINUOUS
 10
164.0181600424
 20
189.9078601817
 11
163.9832618754
 21
189.7762163186
  0
LINE
  5
2A0
100
AcDbEntity
  8
AUSFORMSCHRAEGEN
100
AcDbLine
 62
9
  6
CONTINUOUS
 10
148.2219684195
 20
155.3190252691
 11
148.2986047738
 21
155.4316079408
  0
LINE
  5
2A1
100
AcDbEntity
  8
AUSFORMSCHRAEGEN
100
AcDbLine
 62
9
  6
CONTINUOUS
 10
147.1634414779
 20
156.0935239612
 11
147.2475519309
 21
156.2006380146
  0
LINE
  5
2A2
100
AcDbEntity
  8
AUSFORMSCHRAEGEN
100
AcDbLine
 62
9
  6
CONTINUOUS
 10
155.8595690318
 20
166.1293901488
 11
155.7655154104
 21
166.0308918997
  0
LINE
  5
2A3
100
AcDbEntity
  8
AUSFORMSCHRAEGEN
100
AcDbLine
 62
9
  6
CONTINUOUS
 10
156.7768285344
 20
165.1918601412
 11
156.6762982823
 21
165.0999816498
  0
LINE
  5
2A4
100
AcDbEntity
  8
AUSFORMSCHRAEGEN
100
AcDbLine
 62
9
  6
CONTINUOUS
 10
124.7880905443
 20
144.6339465261
 11
124.9134279358
 21
144.6872243552
  0
LINE
  5
2A5
100
AcDbEntity
  8
AUSFORMSCHRAEGEN
100
AcDbLine
 62
9
  6
CONTINUOUS
 10
124.316326621
 20
145.857779158
 11
124.4449950662
 21
145.9024156899
  0
LINE
  5
2A6
100
AcDbEntity
  8
AUSFORMSCHRAEGEN
100
AcDbLine
 62
9
  6
CONTINUOUS
 10
124.8418276841
 20
235.1197578721
 11
124.7065572387
 21
235.1039497932
  0
LINE
  5
2A7
100
AcDbEntity
  8
AUSFORMSCHRAEGEN
100
AcDbLine
 62
9
  6
CONTINUOUS
 10
124.9496883572
 20
233.8125878046
 11
124.8136563239
 21
233.8060094559
  0
LINE
  5
2A8
100
AcDbEntity
  8
AUSFORMSCHRAEGEN
100
AcDbLine
 62
9
  6
CONTINUOUS
 10
111.6703342852
 20
233.8125878046
 11
111.8063663185
 21
233.8060094559
  0
LINE
  5
2A9
100
AcDbEntity
  8
AUSFORMSCHRAEGEN
100
AcDbLine
 62
9
  6
CONTINUOUS
 10
111.7781949583
 20
235.1197578721
 11
111.9134654037
 21
235.1039497932
  0
LINE
  5
2AA
100
AcDbEntity
  8
AUSFORMSCHRAEGEN
100
AcDbLine
 62
9
  6
CONTINUOUS
 10
148.2629978606
 20
224.4068531503
 11
148.1406546278
 21
224.4666872723
  0
LINE
  5
2AB
100
AcDbEntity
  8
AUSFORMSCHRAEGEN
100
AcDbLine
 62
9
  6
CONTINUOUS
 10
147.647026539
 20
223.2488778305
 11
147.5290325866
 21
223.3168882412
  0
LINE
  5
2AC
100
AcDbEntity
  8
AUSFORMSCHRAEGEN
100
AcDbLine
 62
9
  6
CONTINUOUS
 10
136.4757230122
 20
230.4282386713
 11
136.5866039171
 21
230.3491601426
  0
LINE
  5
2AD
100
AcDbEntity
  8
AUSFORMSCHRAEGEN
100
AcDbLine
 62
9
  6
CONTINUOUS
 10
137.2731706784
 20
231.4695862262
 11
137.3784209258
 21
231.3831548998
  0
LINE
  5
2AE
100
AcDbEntity
  8
AUSFORMSCHRAEGEN
100
AcDbLine
 62
9
  6
CONTINUOUS
 10
162.1743064485
 20
202.7321436163
 11
162.1037335403
 21
202.8486230281
  0
LINE
  5
2AF
100
AcDbEntity
  8
AUSFORMSCHRAEGEN
100
AcDbLine
 62
9
  6
CONTINUOUS
 10
161.0300696746
 20
202.0910120264
 11
160.9675760494
 21
202.2120183715
  0
LINE
  5
2B0
100
AcDbEntity
  8
AUSFORMSCHRAEGEN
100
AcDbLine
 62
9
  6
CONTINUOUS
 10
155.5136266302
 20
214.1703373679
 11
155.5641525027
 21
214.0438655333
  0
LINE
  5
2B1
100
AcDbEntity
  8
AUSFORMSCHRAEGEN
100
AcDbLine
 62
9
  6
CONTINUOUS
 10
156.7474772898
 20
214.6152419193
 11
156.7892911293
 21
214.4856286808
  0
LINE
  5
2B2
100
AcDbEntity
  8
0
100
AcDbLine
 62
7
  6
CONTINUOUS
 10
271.2795808576
 20
143.637832357
 11
275.1795808576
 21
143.774023358
  0
LINE
  5
2B3
100
AcDbEntity
  8
AUSFORMSCHRAEGEN
100
AcDbLine
 62
9
  6
CONTINUOUS
 10
271.2795808576
 20
144.6339465261
 11
275.1795808576
 21
144.6872243552
  0
LINE
  5
2B4
100
AcDbEntity
  8
AUSFORMSCHRAEGEN
100
AcDbLine
 62
9
  6
CONTINUOUS
 10
250.0795808576
 20
144.6339465261
 11
246.1795808576
 21
144.6872243552
  0
LINE
  5
2B5
100
AcDbEntity
  8
0
100
AcDbLine
 62
7
  6
CONTINUOUS
 10
250.0795808576
 20
143.637832357
 11
246.1795808576
 21
143.774023358
  0
LINE
  5
2B6
100
AcDbEntity
  8
AUSFORMSCHRAEGEN
100
AcDbLine
 62
9
  6
CONTINUOUS
 10
271.2795808576
 20
147.8390700807
 11
275.1795808576
 21
147.9024156899
  0
LINE
  5
2B7
100
AcDbEntity
  8
AUSFORMSCHRAEGEN
100
AcDbLine
 62
9
  6
CONTINUOUS
 10
271.2795808576
 20
145.857779158
 11
275.1795808576
 21
145.9024156899
  0
LINE
  5
2B8
100
AcDbEntity
  8
AUSFORMSCHRAEGEN
100
AcDbLine
 62
9
  6
CONTINUOUS
 10
250.0795808576
 20
145.857779158
 11
246.1795808576
 21
145.9024156899
  0
LINE
  5
2B9
100
AcDbEntity
  8
AUSFORMSCHRAEGEN
100
AcDbLine
 62
9
  6
CONTINUOUS
 10
250.0795808576
 20
147.8390700807
 11
246.1795808576
 21
147.9024156899
  0
LINE
  5
2BA
100
AcDbEntity
  8
0
100
AcDbLine
 62
7
  6
CONTINUOUS
 10
275.1795808576
 20
151.1651634981
 11
271.2795808576
 21
151.028972497
  0
LINE
  5
2BB
100
AcDbEntity
  8
0
100
AcDbLine
 62
7
  6
CONTINUOUS
 10
246.1795808576
 20
151.1651634981
 11
250.0795808576
 21
151.028972497
  0
LINE
  5
2BC
100
AcDbEntity
  8
0
100
AcDbLine
 62
7
  6
CONTINUOUS
 10
250.0795808576
 20
153.8651634981
 11
260.6795808576
 21
154.2353236547
  0
LINE
  5
2BD
100
AcDbEntity
  8
0
100
AcDbLine
 62
7
  6
CONTINUOUS
 10
271.2795808576
 20
153.8651634981
 11
260.6795808576
 21
154.2353236547
  0
LINE
  5
2BE
100
AcDbEntity
  8
0
100
AcDbLine
 62
7
  6
CONTINUOUS
 10
270.1795808576
 20
157.8651634981
 11
264.5795808576
 21
157.8651634981
  0
LINE
  5
2BF
100
AcDbEntity
  8
0
100
AcDbLine
 62
7
  6
CONTINUOUS
 10
251.1795808576
 20
157.8651634981
 11
256.7795808576
 21
157.8651634981
  0
LINE
  5
2C0
100
AcDbEntity
  8
0
100
AcDbLine
 62
7
  6
CONTINUOUS
 10
256.7795808576
 20
159.8807153162
 11
264.5795808576
 21
159.8807153162
  0
LINE
  5
2C1
100
AcDbEntity
  8
0
100
AcDbLine
 62
7
  6
CONTINUOUS
 10
256.7795808576
 20
162.8807153162
 11
264.5795808576
 21
162.8807153162
  0
LINE
  5
2C2
100
AcDbEntity
  8
0
100
AcDbLine
 62
7
  6
CONTINUOUS
 10
274.1795808576
 20
170.8307153162
 11
264.5795808576
 21
170.8307153162
  0
LINE
  5
2C3
100
AcDbEntity
  8
0
100
AcDbLine
 62
7
  6
CONTINUOUS
 10
247.1795808576
 20
170.8307153162
 11
256.7795808576
 21
170.8307153162
  0
LINE
  5
2C4
100
AcDbEntity
  8
0
100
AcDbLine
 62
7
  6
CONTINUOUS
 10
246.1795808576
 20
236.6962671344
 11
246.1795808576
 21
226.8962671344
  0
LINE
  5
2C5
100
AcDbEntity
  8
AUSFORMSCHRAEGEN
100
AcDbLine
 62
7
  6
CONTINUOUS
 10
246.1795808576
 20
143.7741245882
 11
246.1795808576
 21
147.9024156215
  0
LINE
  5
2C6
100
AcDbEntity
  8
0
100
AcDbLine
 62
7
  6
CONTINUOUS
 10
246.1795808576
 20
147.9024156215
 11
246.1795808576
 21
226.7811582334
  0
LINE
  5
2C7
100
AcDbEntity
  8
0
100
AcDbLine
 62
7
  6
CONTINUOUS
 10
246.1795808576
 20
174.8307153162
 11
275.1795808576
 21
174.8307153162
  0
LINE
  5
2C8
100
AcDbEntity
  8
0
100
AcDbLine
 62
7
  6
CONTINUOUS
 10
250.0795808576
 20
236.8324581355
 11
250.0795808576
 21
225.8962671344
  0
LINE
  5
2C9
100
AcDbEntity
  8
AUSFORMSCHRAEGEN
100
AcDbLine
 62
7
  6
CONTINUOUS
 10
250.0795808576
 20
143.637833577
 11
250.0795808576
 21
147.8390700807
  0
LINE
  5
2CA
100
AcDbEntity
  8
0
100
AcDbLine
 62
7
  6
CONTINUOUS
 10
250.0795808576
 20
147.8390700807
 11
250.0795808576
 21
153.8651634981
  0
LINE
  5
2CB
100
AcDbEntity
  8
0
100
AcDbLine
 62
9
  6
CONTINUOUS
 10
251.1795808576
 20
221.8962671344
 11
251.1795808576
 21
212.2307153162
  0
LINE
  5
2CC
100
AcDbEntity
  8
0
100
AcDbLine
 62
9
  6
CONTINUOUS
 10
251.1795808576
 20
170.8307153162
 11
251.1795808576
 21
157.8651634981
  0
LINE
  5
2CD
100
AcDbEntity
  8
0
100
AcDbLine
 62
7
  6
CONTINUOUS
 10
256.7795808576
 20
157.8651634981
 11
256.7795808576
 21
170.8307153162
  0
LINE
  5
2CE
100
AcDbEntity
  8
0
100
AcDbLine
 62
7
  6
CONTINUOUS
 10
256.7795808576
 20
212.2307153162
 11
256.7795808576
 21
221.8962671344
  0
LINE
  5
2CF
100
AcDbEntity
  8
0
100
AcDbLine
 62
7
  6
CONTINUOUS
 10
260.6795808576
 20
154.2353236547
 11
260.6795808576
 21
225.5261069778
  0
LINE
  5
2D0
100
AcDbEntity
  8
02___PRT_ALL_AXES
100
AcDbLine
 62
7
  6
CENTER
 10
243.0465109445
 20
189.8807153162
 11
278.3126507707
 21
189.8807153162
  0
LINE
  5
2D1
100
AcDbEntity
  8
0
100
AcDbLine
 62
7
  6
CONTINUOUS
 10
264.5795808576
 20
221.8962671344
 11
264.5795808576
 21
212.2307153162
  0
LINE
  5
2D2
100
AcDbEntity
  8
0
100
AcDbLine
 62
7
  6
CONTINUOUS
 10
264.5795808576
 20
170.8307153162
 11
264.5795808576
 21
157.8651634981
  0
LINE
  5
2D3
100
AcDbEntity
  8
0
100
AcDbLine
 62
9
  6
CONTINUOUS
 10
270.1795808576
 20
157.8651634981
 11
270.1795808576
 21
170.8307153162
  0
LINE
  5
2D4
100
AcDbEntity
  8
0
100
AcDbLine
 62
9
  6
CONTINUOUS
 10
270.1795808576
 20
212.2307153162
 11
270.1795808576
 21
221.8962671344
  0
LINE
  5
2D5
100
AcDbEntity
  8
0
100
AcDbLine
 62
7
  6
CONTINUOUS
 10
271.2795808576
 20
236.8324581355
 11
271.2795808576
 21
225.8962671344
  0
LINE
  5
2D6
100
AcDbEntity
  8
0
100
AcDbLine
 62
7
  6
CONTINUOUS
 10
271.2795808576
 20
153.8651634981
 11
271.2795808576
 21
147.8390700807
  0
LINE
  5
2D7
100
AcDbEntity
  8
AUSFORMSCHRAEGEN
100
AcDbLine
 62
7
  6
CONTINUOUS
 10
271.2795808576
 20
143.6378335592
 11
271.2795808576
 21
147.8390700807
  0
LINE
  5
2D8
100
AcDbEntity
  8
0
100
AcDbLine
 62
7
  6
CONTINUOUS
 10
275.1795808576
 20
236.6962671344
 11
275.1795808576
 21
226.8962671344
  0
LINE
  5
2D9
100
AcDbEntity
  8
0
100
AcDbLine
 62
7
  6
CONTINUOUS
 10
275.1795808576
 20
152.8651634981
 11
275.1795808576
 21
147.9024156455
  0
LINE
  5
2DA
100
AcDbEntity
  8
AUSFORMSCHRAEGEN
100
AcDbLine
 62
7
  6
CONTINUOUS
 10
275.1795808576
 20
147.9024156455
 11
275.1795808576
 21
143.7741245882
  0
LINE
  5
2DB
100
AcDbEntity
  8
0
100
AcDbLine
 62
7
  6
CONTINUOUS
 10
275.1795808576
 20
155.1715871336
 11
275.1795808576
 21
226.8010943015
  0
LINE
  5
2DC
100
AcDbEntity
  8
0
100
AcDbLine
 62
7
  6
CONTINUOUS
 10
275.1795808576
 20
204.3894196002
 11
246.1795808576
 21
204.3894196002
  0
LINE
  5
2DD
100
AcDbEntity
  8
0
100
AcDbLine
 62
7
  6
CONTINUOUS
 10
246.1795808576
 20
208.2307153162
 11
275.1795808576
 21
208.2307153162
  0
LINE
  5
2DE
100
AcDbEntity
  8
0
100
AcDbLine
 62
7
  6
CONTINUOUS
 10
274.1795808576
 20
212.2307153162
 11
264.5795808576
 21
212.2307153162
  0
LINE
  5
2DF
100
AcDbEntity
  8
0
100
AcDbLine
 62
7
  6
CONTINUOUS
 10
247.1795808576
 20
212.2307153162
 11
256.7795808576
 21
212.2307153162
  0
LINE
  5
2E0
100
AcDbEntity
  8
0
100
AcDbLine
 62
7
  6
CONTINUOUS
 10
256.7795808576
 20
216.8807153162
 11
264.5795808576
 21
216.8807153162
  0
LINE
  5
2E1
100
AcDbEntity
  8
0
100
AcDbLine
 62
7
  6
CONTINUOUS
 10
256.7795808576
 20
219.8807153162
 11
264.5795808576
 21
219.8807153162
  0
LINE
  5
2E2
100
AcDbEntity
  8
0
100
AcDbLine
 62
7
  6
CONTINUOUS
 10
270.1795808576
 20
221.8962671344
 11
264.5795808576
 21
221.8962671344
  0
LINE
  5
2E3
100
AcDbEntity
  8
0
100
AcDbLine
 62
7
  6
CONTINUOUS
 10
251.1795808576
 20
221.8962671344
 11
256.7795808576
 21
221.8962671344
  0
LINE
  5
2E4
100
AcDbEntity
  8
0
100
AcDbLine
 62
7
  6
CONTINUOUS
 10
271.2795808576
 20
225.8962671344
 11
260.6795808576
 21
225.5261069778
  0
LINE
  5
2E5
100
AcDbEntity
  8
0
100
AcDbLine
 62
7
  6
CONTINUOUS
 10
250.0795808576
 20
225.8962671344
 11
260.6795808576
 21
225.5261069778
  0
LINE
  5
2E6
100
AcDbEntity
  8
0
100
AcDbLine
 62
7
  6
CONTINUOUS
 10
246.1795808576
 20
236.6962671344
 11
250.0795808576
 21
236.8324581355
  0
LINE
  5
2E7
100
AcDbEntity
  8
0
100
AcDbLine
 62
7
  6
CONTINUOUS
 10
275.1795808576
 20
236.6962671344
 11
271.2795808576
 21
236.8324581355
  0
ARC
  5
2E8
100
AcDbEntity
  8
AUSFORMSCHRAEGEN
100
AcDbCircle
 62
7
  6
CONTINUOUS
 10
77.5443514979
 20
171.263662275
 40
19.288191001
100
AcDbArc
 50
100.9504176277
 51
104.8473279628
  0
ARC
  5
2E9
100
AcDbEntity
  8
AUSFORMSCHRAEGEN
100
AcDbCircle
 62
7
  6
CONTINUOUS
 10
94.0808947515
 20
152.1794740234
 40
19.288191001
100
AcDbArc
 50
133.677690355
 51
137.5746006901
  0
ARC
  5
2EA
100
AcDbEntity
  8
AUSFORMSCHRAEGEN
100
AcDbCircle
 62
7
  6
CONTINUOUS
 10
77.5443514979
 20
171.263662275
 40
19.288191001
100
AcDbArc
 50
304.2435811281
 51
308.1404914632
  0
ARC
  5
2EB
100
AcDbEntity
  8
AUSFORMSCHRAEGEN
100
AcDbCircle
 62
7
  6
CONTINUOUS
 10
94.0808947515
 20
152.1794740234
 40
19.288191001
100
AcDbArc
 50
336.9708538553
 51
340.8677641905
  0
ARC
  5
2EC
100
AcDbEntity
  8
AUSFORMSCHRAEGEN
100
AcDbCircle
 62
7
  6
CONTINUOUS
 10
94.0808947515
 20
152.1794740234
 40
19.152
100
AcDbArc
 50
336.9708538553
 51
340.86776459
  0
ARC
  5
2ED
100
AcDbEntity
  8
AUSFORMSCHRAEGEN
100
AcDbCircle
 62
7
  6
CONTINUOUS
 10
77.5443514979
 20
171.263662275
 40
19.152
100
AcDbArc
 50
304.2435811281
 51
308.1404918627
  0
ARC
  5
2EE
100
AcDbEntity
  8
AUSFORMSCHRAEGEN
100
AcDbCircle
 62
7
  6
CONTINUOUS
 10
94.0808947515
 20
152.1794740234
 40
19.152
100
AcDbArc
 50
133.677689745
 51
137.5746006901
  0
ARC
  5
2EF
100
AcDbEntity
  8
AUSFORMSCHRAEGEN
100
AcDbCircle
 62
7
  6
CONTINUOUS
 10
77.5443514979
 20
171.263662275
 40
19.152
100
AcDbArc
 50
100.9504170177
 51
104.8473279628
  0
ARC
  5
2F0
100
AcDbEntity
  8
AUSFORMSCHRAEGEN
100
AcDbCircle
 62
7
  6
CONTINUOUS
 10
94.0808947515
 20
152.1794740234
 40
6.1
100
AcDbArc
 50
354.9909295332
 51
119.5545252823
  0
ARC
  5
2F1
100
AcDbEntity
  8
AUSFORMSCHRAEGEN
100
AcDbCircle
 62
7
  6
CONTINUOUS
 10
77.5443514979
 20
171.263662275
 40
6.1
100
AcDbArc
 50
322.2636568058
 51
86.827252555
  0
ARC
  5
2F2
100
AcDbEntity
  8
AUSFORMSCHRAEGEN
100
AcDbCircle
 62
7
  6
CONTINUOUS
 10
77.5443514979
 20
171.263662275
 40
5.963808999
100
AcDbArc
 50
322.2636573058
 51
86.8272517851
  0
ARC
  5
2F3
100
AcDbEntity
  8
AUSFORMSCHRAEGEN
100
AcDbCircle
 62
7
  6
CONTINUOUS
 10
94.0808947515
 20
152.1794740234
 40
5.963808999
100
AcDbArc
 50
354.9909300331
 51
119.5545245124
  0
ARC
  5
2F4
100
AcDbEntity
  8
AUSFORMSCHRAEGEN
100
AcDbCircle
 62
7
  6
CONTINUOUS
 10
73.0211272089
 20
188.3262982388
 40
1.636191001
100
AcDbArc
 50
104.8473279628
 51
181.9657492685
  0
ARC
  5
2F5
100
AcDbEntity
  8
AUSFORMSCHRAEGEN
100
AcDbCircle
 62
7
  6
CONTINUOUS
 10
74.417715335
 20
178.6128144627
 40
1.636191001
100
AcDbArc
 50
194.3978870952
 51
271.5163084008
  0
ARC
  5
2F6
100
AcDbEntity
  8
AUSFORMSCHRAEGEN
100
AcDbCircle
 62
7
  6
CONTINUOUS
 10
81.0509588832
 20
164.0880371302
 40
1.636191001
100
AcDbArc
 50
137.5746006901
 51
214.6930219957
  0
ARC
  5
2F7
100
AcDbEntity
  8
AUSFORMSCHRAEGEN
100
AcDbCircle
 62
7
  6
CONTINUOUS
 10
87.4773493872
 20
156.6715871336
 40
1.636191001
100
AcDbArc
 50
227.1251598224
 51
304.2435811281
  0
ARC
  5
2F8
100
AcDbEntity
  8
AUSFORMSCHRAEGEN
100
AcDbCircle
 62
7
  6
CONTINUOUS
 10
100.9102764467
 20
148.0387691033
 40
1.636191001
100
AcDbArc
 50
170.3018734174
 51
247.420294723
  0
ARC
  5
2F9
100
AcDbEntity
  8
AUSFORMSCHRAEGEN
100
AcDbCircle
 62
7
  6
CONTINUOUS
 10
110.3261357502
 20
145.274023358
 40
1.636191001
100
AcDbArc
 50
259.8524325497
 51
336.9708538553
  0
CIRCLE
  5
2FA
100
AcDbEntity
  8
02___PRT_ALL_AXES
100
AcDbCircle
 62
7
  6
CONTINUOUS
 10
89.8100113212
 20
189.8807153162
 40
1.5
  0
ARC
  5
2FB
100
AcDbEntity
  8
AUSFORMSCHRAEGEN
100
AcDbCircle
 62
7
  6
CONTINUOUS
 10
110.3261357502
 20
145.274023358
 40
1.5
100
AcDbArc
 50
259.8524325497
 51
336.9708538553
  0
ARC
  5
2FC
100
AcDbEntity
  8
AUSFORMSCHRAEGEN
100
AcDbCircle
 62
7
  6
CONTINUOUS
 10
100.9102764467
 20
148.0387691033
 40
1.5
100
AcDbArc
 50
170.3018734174
 51
247.420294723
  0
ARC
  5
2FD
100
AcDbEntity
  8
AUSFORMSCHRAEGEN
100
AcDbCircle
 62
7
  6
CONTINUOUS
 10
87.4773493872
 20
156.6715871336
 40
1.5
100
AcDbArc
 50
227.1251598224
 51
304.2435811281
  0
ARC
  5
2FE
100
AcDbEntity
  8
AUSFORMSCHRAEGEN
100
AcDbCircle
 62
7
  6
CONTINUOUS
 10
81.0509588832
 20
164.0880371302
 40
1.5
100
AcDbArc
 50
137.5746006901
 51
214.6930219957
  0
ARC
  5
2FF
100
AcDbEntity
  8
AUSFORMSCHRAEGEN
100
AcDbCircle
 62
7
  6
CONTINUOUS
 10
74.417715335
 20
178.6128144627
 40
1.5
100
AcDbArc
 50
194.3978870952
 51
271.5163084008
  0
ARC
  5
300
100
AcDbEntity
  8
AUSFORMSCHRAEGEN
100
AcDbCircle
 62
7
  6
CONTINUOUS
 10
73.0211272089
 20
188.3262982388
 40
1.5
100
AcDbArc
 50
104.8473279628
 51
181.9657492685
  0
ARC
  5
301
100
AcDbEntity
  8
AUSFORMSCHRAEGEN
100
AcDbCircle
 62
7
  6
CONTINUOUS
 10
73.9506172018
 20
196.2586333254
 40
19.288191001
100
AcDbArc
 50
68.2231449005
 51
72.1200552356
  0
ARC
  5
302
100
AcDbEntity
  8
AUSFORMSCHRAEGEN
100
AcDbCircle
 62
7
  6
CONTINUOUS
 10
84.4406771101
 20
219.2286604721
 40
19.288191001
100
AcDbArc
 50
238.7890356735
 51
242.6859460086
  0
ARC
  5
303
100
AcDbEntity
  8
AUSFORMSCHRAEGEN
100
AcDbCircle
 62
7
  6
CONTINUOUS
 10
105.6840113212
 20
232.8809223945
 40
19.288191001
100
AcDbArc
 50
206.0617629463
 51
209.9586732814
  0
ARC
  5
304
100
AcDbEntity
  8
AUSFORMSCHRAEGEN
100
AcDbCircle
 62
7
  6
CONTINUOUS
 10
84.4406771101
 20
219.2286604721
 40
19.288191001
100
AcDbArc
 50
35.4958721732
 51
39.3927825083
  0
ARC
  5
305
100
AcDbEntity
  8
AUSFORMSCHRAEGEN
100
AcDbCircle
 62
7
  6
CONTINUOUS
 10
73.9506172018
 20
196.2586333254
 40
19.288191001
100
AcDbArc
 50
271.5163084008
 51
275.4132187359
  0
ARC
  5
306
100
AcDbEntity
  8
AUSFORMSCHRAEGEN
100
AcDbCircle
 62
7
  6
CONTINUOUS
 10
105.6840113212
 20
232.8809223945
 40
19.288191001
100
AcDbArc
 50
2.7685994459
 51
6.665509781
  0
ARC
  5
307
100
AcDbEntity
  8
AUSFORMSCHRAEGEN
100
AcDbCircle
 62
7
  6
CONTINUOUS
 10
73.9506172018
 20
196.2586333254
 40
19.152
100
AcDbArc
 50
68.2231442905
 51
72.1200552356
  0
ARC
  5
308
100
AcDbEntity
  8
AUSFORMSCHRAEGEN
100
AcDbCircle
 62
7
  6
CONTINUOUS
 10
105.6840113212
 20
232.8809223945
 40
19.152
100
AcDbArc
 50
206.0617629463
 51
209.9586736809
  0
ARC
  5
309
100
AcDbEntity
  8
AUSFORMSCHRAEGEN
100
AcDbCircle
 62
7
  6
CONTINUOUS
 10
84.4406771101
 20
219.2286604721
 40
19.152
100
AcDbArc
 50
35.4958715632
 51
39.3927825083
  0
ARC
  5
30A
100
AcDbEntity
  8
AUSFORMSCHRAEGEN
100
AcDbCircle
 62
7
  6
CONTINUOUS
 10
105.6840113212
 20
232.8809223945
 40
19.152
100
AcDbArc
 50
2.7685988359
 51
6.665509781
  0
ARC
  5
30B
100
AcDbEntity
  8
AUSFORMSCHRAEGEN
100
AcDbCircle
 62
7
  6
CONTINUOUS
 10
73.9506172018
 20
196.2586333254
 40
19.152
100
AcDbArc
 50
271.5163084008
 51
275.4132191355
  0
ARC
  5
30C
100
AcDbEntity
  8
AUSFORMSCHRAEGEN
100
AcDbCircle
 62
7
  6
CONTINUOUS
 10
84.4406771101
 20
219.2286604721
 40
19.152
100
AcDbArc
 50
238.7890356735
 51
242.6859464082
  0
ARC
  5
30D
100
AcDbEntity
  8
AUSFORMSCHRAEGEN
100
AcDbCircle
 62
7
  6
CONTINUOUS
 10
84.4406771101
 20
219.2286604721
 40
6.1
100
AcDbArc
 50
256.8091113513
 51
21.3727071005
  0
ARC
  5
30E
100
AcDbEntity
  8
AUSFORMSCHRAEGEN
100
AcDbCircle
 62
7
  6
CONTINUOUS
 10
105.6840113212
 20
232.8809223945
 40
6.1
100
AcDbArc
 50
224.081838624
 51
348.6454343734
  0
ARC
  5
30F
100
AcDbEntity
  8
AUSFORMSCHRAEGEN
100
AcDbCircle
 62
7
  6
CONTINUOUS
 10
73.9506172018
 20
196.2586333254
 40
6.1
100
AcDbArc
 50
289.5363840785
 51
54.0999798277
  0
ARC
  5
310
100
AcDbEntity
  8
AUSFORMSCHRAEGEN
100
AcDbCircle
 62
7
  6
CONTINUOUS
 10
84.4406771101
 20
219.2286604721
 40
5.963808999
100
AcDbArc
 50
256.8091118513
 51
21.3727063306
  0
ARC
  5
311
100
AcDbEntity
  8
AUSFORMSCHRAEGEN
100
AcDbCircle
 62
7
  6
CONTINUOUS
 10
73.9506172018
 20
196.2586333254
 40
5.963808999
100
AcDbArc
 50
289.5363845785
 51
54.0999790578
  0
ARC
  5
312
100
AcDbEntity
  8
AUSFORMSCHRAEGEN
100
AcDbCircle
 62
7
  6
CONTINUOUS
 10
105.6840113212
 20
232.8809223945
 40
5.963808999
100
AcDbArc
 50
224.081839124
 51
348.6454336033
  0
ARC
  5
313
100
AcDbEntity
  8
RUNDUNGEN
100
AcDbCircle
 62
9
  6
CONTINUOUS
 10
108.3100113212
 20
208.4037415269
 40
3.0
100
AcDbArc
 50
298.3632164817
 51
360.0
  0
ARC
  5
314
100
AcDbEntity
  8
RUNDUNGEN
100
AcDbCircle
 62
7
  6
CONTINUOUS
 10
112.3100113212
 20
210.2307153162
 40
2.0
100
AcDbArc
 50
90.0
 51
180.0
  0
ARC
  5
315
100
AcDbEntity
  8
RUNDUNGEN
100
AcDbCircle
 62
7
  6
CONTINUOUS
 10
108.3100113212
 20
208.4037415269
 40
2.0
100
AcDbArc
 50
298.3632164817
 51
360.0
  0
ARC
  5
316
100
AcDbEntity
  8
AUSFORMSCHRAEGEN
100
AcDbCircle
 62
7
  6
CONTINUOUS
 10
79.3701962443
 20
213.0580757864
 40
1.636191001
100
AcDbArc
 50
72.1200552356
 51
149.2384765412
  0
ARC
  5
317
100
AcDbEntity
  8
AUSFORMSCHRAEGEN
100
AcDbCircle
 62
7
  6
CONTINUOUS
 10
75.2935751302
 20
204.1315206976
 40
1.636191001
100
AcDbArc
 50
161.6706143679
 51
238.7890356735
  0
ARC
  5
318
100
AcDbEntity
  8
AUSFORMSCHRAEGEN
100
AcDbCircle
 62
7
  6
CONTINUOUS
 10
89.8268494765
 20
225.1256969153
 40
1.636191001
100
AcDbArc
 50
128.9433416406
 51
206.0617629463
  0
ARC
  5
319
100
AcDbEntity
  8
AUSFORMSCHRAEGEN
100
AcDbCircle
 62
7
  6
CONTINUOUS
 10
98.082381431
 20
230.4312051482
 40
1.636191001
100
AcDbArc
 50
39.3927825083
 51
116.5112038139
  0
ARC
  5
31A
100
AcDbEntity
  8
AUSFORMSCHRAEGEN
100
AcDbCircle
 62
7
  6
CONTINUOUS
 10
113.4033264561
 20
234.9298405045
 40
1.636191001
100
AcDbArc
 50
96.2160689134
 51
173.334490219
  0
ARC
  5
31B
100
AcDbEntity
  8
AUSFORMSCHRAEGEN
100
AcDbCircle
 62
7
  6
CONTINUOUS
 10
79.3701962443
 20
213.0580757864
 40
1.5
100
AcDbArc
 50
72.1200552356
 51
149.2384765412
  0
ARC
  5
31C
100
AcDbEntity
  8
AUSFORMSCHRAEGEN
100
AcDbCircle
 62
7
  6
CONTINUOUS
 10
89.8268494765
 20
225.1256969153
 40
1.5
100
AcDbArc
 50
128.9433416406
 51
206.0617629463
  0
ARC
  5
31D
100
AcDbEntity
  8
AUSFORMSCHRAEGEN
100
AcDbCircle
 62
7
  6
CONTINUOUS
 10
98.082381431
 20
230.4312051482
 40
1.5
100
AcDbArc
 50
39.3927825083
 51
116.5112038139
  0
ARC
  5
31E
100
AcDbEntity
  8
AUSFORMSCHRAEGEN
100
AcDbCircle
 62
7
  6
CONTINUOUS
 10
113.4033264561
 20
234.9298405045
 40
1.5
100
AcDbArc
 50
96.2160689133
 51
173.334490219
  0
ARC
  5
31F
100
AcDbEntity
  8
AUSFORMSCHRAEGEN
100
AcDbCircle
 62
7
  6
CONTINUOUS
 10
75.2935751302
 20
204.1315206976
 40
1.5
100
AcDbArc
 50
161.6706143679
 51
238.7890356735
  0
ARC
  5
320
100
AcDbEntity
  8
RUNDUNGEN
100
AcDbCircle
 62
9
  6
CONTINUOUS
 10
112.3100113212
 20
210.2307153162
 40
1.0
100
AcDbArc
 50
90.0
 51
180.0
  0
ARC
  5
321
100
AcDbEntity
  8
AUSFORMSCHRAEGEN
100
AcDbCircle
 62
7
  6
CONTINUOUS
 10
118.3100113212
 20
145.0651634981
 40
19.288191001
100
AcDbArc
 50
166.4049630823
 51
170.3018734174
  0
ARC
  5
322
100
AcDbEntity
  8
AUSFORMSCHRAEGEN
100
AcDbCircle
 62
7
  6
CONTINUOUS
 10
118.3100113212
 20
145.0651634981
 40
19.288191001
100
AcDbArc
 50
9.6981265826
 51
13.5950369177
  0
ARC
  5
323
100
AcDbEntity
  8
AUSFORMSCHRAEGEN
100
AcDbCircle
 62
7
  6
CONTINUOUS
 10
118.3100113212
 20
145.0651634981
 40
19.152
100
AcDbArc
 50
9.6981265826
 51
13.5950373173
  0
ARC
  5
324
100
AcDbEntity
  8
AUSFORMSCHRAEGEN
100
AcDbCircle
 62
7
  6
CONTINUOUS
 10
118.3100113212
 20
145.0651634981
 40
19.152
100
AcDbArc
 50
166.4049624722
 51
170.3018734174
  0
ARC
  5
325
100
AcDbEntity
  8
AUSFORMSCHRAEGEN
100
AcDbCircle
 62
7
  6
CONTINUOUS
 10
118.3100113212
 20
145.0651634981
 40
6.1
100
AcDbArc
 50
27.7182022603
 51
152.2817980096
  0
ARC
  5
326
100
AcDbEntity
  8
AUSFORMSCHRAEGEN
100
AcDbCircle
 62
7
  6
CONTINUOUS
 10
118.3100113212
 20
145.0651634981
 40
5.963808999
100
AcDbArc
 50
27.7182027604
 51
152.2817972396
  0
ARC
  5
327
100
AcDbEntity
  8
AUSFORMSCHRAEGEN
100
AcDbCircle
 62
7
  6
CONTINUOUS
 10
126.2938868921
 20
145.274023358
 40
1.636191001
100
AcDbArc
 50
203.0291461447
 51
280.1475674503
  0
ARC
  5
328
100
AcDbEntity
  8
AUSFORMSCHRAEGEN
100
AcDbCircle
 62
7
  6
CONTINUOUS
 10
135.7097461957
 20
148.0387691033
 40
1.636191001
100
AcDbArc
 50
292.579705277
 51
9.6981265826
  0
CIRCLE
  5
329
100
AcDbEntity
  8
02___PRT_ALL_AXES
100
AcDbCircle
 62
7
  6
CONTINUOUS
 10
118.3100113212
 20
161.3807153162
 40
1.5
  0
ARC
  5
32A
100
AcDbEntity
  8
AUSFORMSCHRAEGEN
100
AcDbCircle
 62
7
  6
CONTINUOUS
 10
135.7097461957
 20
148.0387691033
 40
1.5
100
AcDbArc
 50
292.579705277
 51
9.6981265826
  0
ARC
  5
32B
100
AcDbEntity
  8
AUSFORMSCHRAEGEN
100
AcDbCircle
 62
7
  6
CONTINUOUS
 10
126.2938868921
 20
145.274023358
 40
1.5
100
AcDbArc
 50
203.0291461447
 51
280.1475674503
  0
ARC
  5
32C
100
AcDbEntity
  8
AUSFORMSCHRAEGEN
100
AcDbCircle
 62
7
  6
CONTINUOUS
 10
118.3100113212
 20
189.8807153162
 40
46.9517428192
100
AcDbArc
 50
149.2384765412
 51
161.6706143679
  0
ARC
  5
32D
100
AcDbEntity
  8
AUSFORMSCHRAEGEN
100
AcDbCircle
 62
7
  6
CONTINUOUS
 10
118.3100113212
 20
189.8807153162
 40
46.9517428192
100
AcDbArc
 50
116.5112038139
 51
128.9433416406
  0
ARC
  5
32E
100
AcDbEntity
  8
AUSFORMSCHRAEGEN
100
AcDbCircle
 62
7
  6
CONTINUOUS
 10
118.3100113212
 20
189.8807153162
 40
46.9517428192
100
AcDbArc
 50
181.9657492685
 51
194.3978870952
  0
ARC
  5
32F
100
AcDbEntity
  8
AUSFORMSCHRAEGEN
100
AcDbCircle
 62
7
  6
CONTINUOUS
 10
118.3100113212
 20
189.8807153162
 40
46.9517428192
100
AcDbArc
 50
83.7839310866
 51
96.2160689134
  0
ARC
  5
330
100
AcDbEntity
  8
AUSFORMSCHRAEGEN
100
AcDbCircle
 62
7
  6
CONTINUOUS
 10
118.3100113212
 20
189.8807153162
 40
46.9517428192
100
AcDbArc
 50
214.6930219957
 51
227.1251598224
  0
ARC
  5
331
100
AcDbEntity
  8
AUSFORMSCHRAEGEN
100
AcDbCircle
 62
7
  6
CONTINUOUS
 10
118.3100113212
 20
189.8807153162
 40
46.9517428192
100
AcDbArc
 50
51.0566583594
 51
63.4887961861
  0
ARC
  5
332
100
AcDbEntity
  8
AUSFORMSCHRAEGEN
100
AcDbCircle
 62
7
  6
CONTINUOUS
 10
118.3100113212
 20
189.8807153162
 40
46.9517428192
100
AcDbArc
 50
247.420294723
 51
259.8524325497
  0
ARC
  5
333
100
AcDbEntity
  8
AUSFORMSCHRAEGEN
100
AcDbCircle
 62
7
  6
CONTINUOUS
 10
118.3100113212
 20
189.8807153162
 40
46.9517428192
100
AcDbArc
 50
18.3293856321
 51
30.7615234588
  0
ARC
  5
334
100
AcDbEntity
  8
AUSFORMSCHRAEGEN
100
AcDbCircle
 62
7
  6
CONTINUOUS
 10
118.3100113212
 20
189.8807153162
 40
46.9517428192
100
AcDbArc
 50
280.1475674503
 51
292.579705277
  0
ARC
  5
335
100
AcDbEntity
  8
AUSFORMSCHRAEGEN
100
AcDbCircle
 62
7
  6
CONTINUOUS
 10
118.3100113212
 20
189.8807153162
 40
46.9517428192
100
AcDbArc
 50
345.6021129048
 51
358.0342507315
  0
ARC
  5
336
100
AcDbEntity
  8
AUSFORMSCHRAEGEN
100
AcDbCircle
 62
7
  6
CONTINUOUS
 10
118.3100113212
 20
189.8807153162
 40
46.9517428192
100
AcDbArc
 50
312.8748401776
 51
325.3069780043
  0
ARC
  5
337
100
AcDbEntity
  8
AUSFORMSCHRAEGEN
100
AcDbCircle
 62
7
  6
CONTINUOUS
 10
118.3100113212
 20
189.8807153162
 40
46.8155518182
100
AcDbArc
 50
149.2384765412
 51
161.6706143679
  0
ARC
  5
338
100
AcDbEntity
  8
AUSFORMSCHRAEGEN
100
AcDbCircle
 62
7
  6
CONTINUOUS
 10
118.3100113212
 20
189.8807153162
 40
46.8155518182
100
AcDbArc
 50
116.5112038139
 51
128.9433416406
  0
ARC
  5
339
100
AcDbEntity
  8
AUSFORMSCHRAEGEN
100
AcDbCircle
 62
7
  6
CONTINUOUS
 10
118.3100113212
 20
189.8807153162
 40
46.8155518182
100
AcDbArc
 50
83.7839310866
 51
96.2160689134
  0
ARC
  5
33A
100
AcDbEntity
  8
AUSFORMSCHRAEGEN
100
AcDbCircle
 62
7
  6
CONTINUOUS
 10
118.3100113212
 20
189.8807153162
 40
46.8155518182
100
AcDbArc
 50
51.0566583594
 51
63.4887961861
  0
ARC
  5
33B
100
AcDbEntity
  8
AUSFORMSCHRAEGEN
100
AcDbCircle
 62
7
  6
CONTINUOUS
 10
118.3100113212
 20
189.8807153162
 40
46.8155518182
100
AcDbArc
 50
18.3293856321
 51
30.7615234588
  0
ARC
  5
33C
100
AcDbEntity
  8
AUSFORMSCHRAEGEN
100
AcDbCircle
 62
7
  6
CONTINUOUS
 10
118.3100113212
 20
189.8807153162
 40
46.8155518182
100
AcDbArc
 50
345.6021129048
 51
358.0342507315
  0
ARC
  5
33D
100
AcDbEntity
  8
AUSFORMSCHRAEGEN
100
AcDbCircle
 62
7
  6
CONTINUOUS
 10
118.3100113212
 20
189.8807153162
 40
46.8155518182
100
AcDbArc
 50
312.8748401776
 51
325.3069780043
  0
ARC
  5
33E
100
AcDbEntity
  8
AUSFORMSCHRAEGEN
100
AcDbCircle
 62
7
  6
CONTINUOUS
 10
118.3100113212
 20
189.8807153162
 40
46.8155518182
100
AcDbArc
 50
280.1475674503
 51
292.579705277
  0
ARC
  5
33F
100
AcDbEntity
  8
AUSFORMSCHRAEGEN
100
AcDbCircle
 62
7
  6
CONTINUOUS
 10
118.3100113212
 20
189.8807153162
 40
46.8155518182
100
AcDbArc
 50
247.420294723
 51
259.8524325497
  0
ARC
  5
340
100
AcDbEntity
  8
AUSFORMSCHRAEGEN
100
AcDbCircle
 62
7
  6
CONTINUOUS
 10
118.3100113212
 20
189.8807153162
 40
46.8155518182
100
AcDbArc
 50
214.6930219957
 51
227.1251598224
  0
ARC
  5
341
100
AcDbEntity
  8
AUSFORMSCHRAEGEN
100
AcDbCircle
 62
7
  6
CONTINUOUS
 10
118.3100113212
 20
189.8807153162
 40
46.8155518182
100
AcDbArc
 50
181.9657492685
 51
194.3978870952
  0
CIRCLE
  5
342
100
AcDbEntity
  8
02___PRT_ALL_AXES
100
AcDbCircle
 62
7
  6
CENTER
 10
118.3100113212
 20
189.8807153162
 40
44.8155518182
  0
CIRCLE
  5
343
100
AcDbEntity
  8
RUNDUNGEN
100
AcDbCircle
 62
9
  6
CONTINUOUS
 10
118.3100113212
 20
189.8807153162
 40
37.0155518182
  0
CIRCLE
  5
344
100
AcDbEntity
  8
RUNDUNGEN
100
AcDbCircle
 62
7
  6
CONTINUOUS
 10
118.3100113212
 20
189.8807153162
 40
32.0155518182
  0
ARC
  5
345
100
AcDbEntity
  8
RUNDUNGEN
100
AcDbCircle
 62
7
  6
CONTINUOUS
 10
118.3100113212
 20
189.8807153162
 40
19.05
100
AcDbArc
 50
118.3632164817
 51
61.6367835183
  0
ARC
  5
346
100
AcDbEntity
  8
RUNDUNGEN
100
AcDbCircle
 62
9
  6
CONTINUOUS
 10
118.3100113212
 20
189.8807153162
 40
18.05
100
AcDbArc
 50
118.3632164817
 51
61.6367835183
  0
ARC
  5
347
100
AcDbEntity
  8
0
100
AcDbCircle
 62
7
  6
CONTINUOUS
 10
118.3100113212
 20
189.8807153162
 40
15.05
100
AcDbArc
 50
105.4133491078
 51
74.5866508922
  0
ARC
  5
348
100
AcDbEntity
  8
AUSFORMSCHRAEGEN
100
AcDbCircle
 62
7
  6
CONTINUOUS
 10
142.5391278909
 20
152.1794740234
 40
19.288191001
100
AcDbArc
 50
199.1322358095
 51
203.0291461447
  0
ARC
  5
349
100
AcDbEntity
  8
AUSFORMSCHRAEGEN
100
AcDbCircle
 62
7
  6
CONTINUOUS
 10
142.5391278909
 20
152.1794740234
 40
19.288191001
100
AcDbArc
 50
42.4253993099
 51
46.322309645
  0
ARC
  5
34A
100
AcDbEntity
  8
AUSFORMSCHRAEGEN
100
AcDbCircle
 62
7
  6
CONTINUOUS
 10
142.5391278909
 20
152.1794740234
 40
19.152
100
AcDbArc
 50
42.4253993099
 51
46.3223100446
  0
ARC
  5
34B
100
AcDbEntity
  8
AUSFORMSCHRAEGEN
100
AcDbCircle
 62
7
  6
CONTINUOUS
 10
142.5391278909
 20
152.1794740234
 40
19.152
100
AcDbArc
 50
199.1322351995
 51
203.0291461447
  0
ARC
  5
34C
100
AcDbEntity
  8
AUSFORMSCHRAEGEN
100
AcDbCircle
 62
7
  6
CONTINUOUS
 10
142.5391278909
 20
152.1794740234
 40
6.1
100
AcDbArc
 50
60.4454749876
 51
185.0090707368
  0
ARC
  5
34D
100
AcDbEntity
  8
AUSFORMSCHRAEGEN
100
AcDbCircle
 62
7
  6
CONTINUOUS
 10
142.5391278909
 20
152.1794740234
 40
5.963808999
100
AcDbArc
 50
60.4454754876
 51
185.0090699669
  0
ARC
  5
34E
100
AcDbEntity
  8
AUSFORMSCHRAEGEN
100
AcDbCircle
 62
7
  6
CONTINUOUS
 10
149.1426732552
 20
156.6715871336
 40
1.636191001
100
AcDbArc
 50
235.7564188719
 51
312.8748401776
  0
ARC
  5
34F
100
AcDbEntity
  8
AUSFORMSCHRAEGEN
100
AcDbCircle
 62
7
  6
CONTINUOUS
 10
155.5690637592
 20
164.0880371302
 40
1.636191001
100
AcDbArc
 50
325.3069780043
 51
42.4253993099
  0
ARC
  5
350
100
AcDbEntity
  8
AUSFORMSCHRAEGEN
100
AcDbCircle
 62
7
  6
CONTINUOUS
 10
155.5690637592
 20
164.0880371302
 40
1.5
100
AcDbArc
 50
325.3069780043
 51
42.4253993099
  0
ARC
  5
351
100
AcDbEntity
  8
AUSFORMSCHRAEGEN
100
AcDbCircle
 62
7
  6
CONTINUOUS
 10
149.1426732552
 20
156.6715871336
 40
1.5
100
AcDbArc
 50
235.7564188719
 51
312.8748401776
  0
ARC
  5
352
100
AcDbEntity
  8
AUSFORMSCHRAEGEN
100
AcDbCircle
 62
7
  6
CONTINUOUS
 10
159.0756711445
 20
171.263662275
 40
19.288191001
100
AcDbArc
 50
75.1526720372
 51
79.0495823723
  0
ARC
  5
353
100
AcDbEntity
  8
AUSFORMSCHRAEGEN
100
AcDbCircle
 62
7
  6
CONTINUOUS
 10
159.0756711445
 20
171.263662275
 40
19.288191001
100
AcDbArc
 50
231.8595085368
 51
235.7564188719
  0
ARC
  5
354
100
AcDbEntity
  8
AUSFORMSCHRAEGEN
100
AcDbCircle
 62
7
  6
CONTINUOUS
 10
159.0756711445
 20
171.263662275
 40
19.152
100
AcDbArc
 50
75.1526720372
 51
79.0495827718
  0
ARC
  5
355
100
AcDbEntity
  8
AUSFORMSCHRAEGEN
100
AcDbCircle
 62
7
  6
CONTINUOUS
 10
159.0756711445
 20
171.263662275
 40
19.152
100
AcDbArc
 50
231.8595079268
 51
235.7564188719
  0
ARC
  5
356
100
AcDbEntity
  8
AUSFORMSCHRAEGEN
100
AcDbCircle
 62
7
  6
CONTINUOUS
 10
159.0756711445
 20
171.263662275
 40
6.1
100
AcDbArc
 50
93.1727477149
 51
217.7363434641
  0
ARC
  5
357
100
AcDbEntity
  8
AUSFORMSCHRAEGEN
100
AcDbCircle
 62
7
  6
CONTINUOUS
 10
159.0756711445
 20
171.263662275
 40
5.963808999
100
AcDbArc
 50
93.1727482149
 51
217.7363426942
  0
ARC
  5
358
100
AcDbEntity
  8
AUSFORMSCHRAEGEN
100
AcDbCircle
 62
7
  6
CONTINUOUS
 10
163.5988954335
 20
188.3262982388
 40
1.636191001
100
AcDbArc
 50
358.0342507315
 51
75.1526720372
  0
ARC
  5
359
100
AcDbEntity
  8
AUSFORMSCHRAEGEN
100
AcDbCircle
 62
7
  6
CONTINUOUS
 10
162.2023073074
 20
178.6128144627
 40
1.636191001
100
AcDbArc
 50
268.4836915992
 51
345.6021129048
  0
CIRCLE
  5
35A
100
AcDbEntity
  8
02___PRT_ALL_AXES
100
AcDbCircle
 62
7
  6
CONTINUOUS
 10
146.8100113212
 20
189.8807153162
 40
1.5
  0
ARC
  5
35B
100
AcDbEntity
  8
AUSFORMSCHRAEGEN
100
AcDbCircle
 62
7
  6
CONTINUOUS
 10
163.5988954335
 20
188.3262982388
 40
1.5
100
AcDbArc
 50
358.0342507315
 51
75.1526720372
  0
ARC
  5
35C
100
AcDbEntity
  8
AUSFORMSCHRAEGEN
100
AcDbCircle
 62
7
  6
CONTINUOUS
 10
162.2023073074
 20
178.6128144627
 40
1.5
100
AcDbArc
 50
268.4836915992
 51
345.6021129048
  0
ARC
  5
35D
100
AcDbEntity
  8
AUSFORMSCHRAEGEN
100
AcDbCircle
 62
7
  6
CONTINUOUS
 10
130.9360113212
 20
232.8809223945
 40
19.288191001
100
AcDbArc
 50
173.334490219
 51
177.2314005541
  0
ARC
  5
35E
100
AcDbEntity
  8
AUSFORMSCHRAEGEN
100
AcDbCircle
 62
7
  6
CONTINUOUS
 10
152.1793455322
 20
219.2286604721
 40
19.288191001
100
AcDbArc
 50
140.6072174917
 51
144.5041278268
  0
ARC
  5
35F
100
AcDbEntity
  8
AUSFORMSCHRAEGEN
100
AcDbCircle
 62
7
  6
CONTINUOUS
 10
130.9360113212
 20
232.8809223945
 40
19.288191001
100
AcDbArc
 50
330.0413267186
 51
333.9382370537
  0
ARC
  5
360
100
AcDbEntity
  8
AUSFORMSCHRAEGEN
100
AcDbCircle
 62
7
  6
CONTINUOUS
 10
162.6694054406
 20
196.2586333254
 40
19.288191001
100
AcDbArc
 50
107.8799447644
 51
111.7768550995
  0
ARC
  5
361
100
AcDbEntity
  8
AUSFORMSCHRAEGEN
100
AcDbCircle
 62
7
  6
CONTINUOUS
 10
152.1793455322
 20
219.2286604721
 40
19.288191001
100
AcDbArc
 50
297.3140539914
 51
301.2109643265
  0
ARC
  5
362
100
AcDbEntity
  8
AUSFORMSCHRAEGEN
100
AcDbCircle
 62
7
  6
CONTINUOUS
 10
162.6694054406
 20
196.2586333254
 40
19.288191001
100
AcDbArc
 50
264.5867812641
 51
268.4836915992
  0
ARC
  5
363
100
AcDbEntity
  8
AUSFORMSCHRAEGEN
100
AcDbCircle
 62
7
  6
CONTINUOUS
 10
130.9360113212
 20
232.8809223945
 40
19.152
100
AcDbArc
 50
173.334490219
 51
177.2314009537
  0
ARC
  5
364
100
AcDbEntity
  8
AUSFORMSCHRAEGEN
100
AcDbCircle
 62
7
  6
CONTINUOUS
 10
152.1793455322
 20
219.2286604721
 40
19.152
100
AcDbArc
 50
140.6072174917
 51
144.5041282264
  0
ARC
  5
365
100
AcDbEntity
  8
AUSFORMSCHRAEGEN
100
AcDbCircle
 62
7
  6
CONTINUOUS
 10
130.9360113212
 20
232.8809223945
 40
19.152
100
AcDbArc
 50
330.0413261086
 51
333.9382370537
  0
ARC
  5
366
100
AcDbEntity
  8
AUSFORMSCHRAEGEN
100
AcDbCircle
 62
7
  6
CONTINUOUS
 10
162.6694054406
 20
196.2586333254
 40
19.152
100
AcDbArc
 50
107.8799447644
 51
111.7768554991
  0
ARC
  5
367
100
AcDbEntity
  8
AUSFORMSCHRAEGEN
100
AcDbCircle
 62
7
  6
CONTINUOUS
 10
152.1793455322
 20
219.2286604721
 40
19.152
100
AcDbArc
 50
297.3140533814
 51
301.2109643265
  0
ARC
  5
368
100
AcDbEntity
  8
AUSFORMSCHRAEGEN
100
AcDbCircle
 62
7
  6
CONTINUOUS
 10
162.6694054406
 20
196.2586333254
 40
19.152
100
AcDbArc
 50
264.5867806541
 51
268.4836915992
  0
ARC
  5
369
100
AcDbEntity
  8
AUSFORMSCHRAEGEN
100
AcDbCircle
 62
7
  6
CONTINUOUS
 10
130.9360113212
 20
232.8809223945
 40
6.1
100
AcDbArc
 50
191.3545658967
 51
315.9181616459
  0
ARC
  5
36A
100
AcDbEntity
  8
AUSFORMSCHRAEGEN
100
AcDbCircle
 62
7
  6
CONTINUOUS
 10
152.1793455322
 20
219.2286604721
 40
6.1
100
AcDbArc
 50
158.6272931694
 51
283.1908889186
  0
ARC
  5
36B
100
AcDbEntity
  8
AUSFORMSCHRAEGEN
100
AcDbCircle
 62
7
  6
CONTINUOUS
 10
162.6694054406
 20
196.2586333254
 40
6.1
100
AcDbArc
 50
125.9000204422
 51
250.4636161914
  0
ARC
  5
36C
100
AcDbEntity
  8
AUSFORMSCHRAEGEN
100
AcDbCircle
 62
7
  6
CONTINUOUS
 10
130.9360113212
 20
232.8809223945
 40
5.963808999
100
AcDbArc
 50
191.3545663967
 51
315.918160876
  0
ARC
  5
36D
100
AcDbEntity
  8
AUSFORMSCHRAEGEN
100
AcDbCircle
 62
7
  6
CONTINUOUS
 10
152.1793455322
 20
219.2286604721
 40
5.963808999
100
AcDbArc
 50
158.6272936694
 51
283.1908881487
  0
ARC
  5
36E
100
AcDbEntity
  8
AUSFORMSCHRAEGEN
100
AcDbCircle
 62
7
  6
CONTINUOUS
 10
162.6694054406
 20
196.2586333254
 40
5.963808999
100
AcDbArc
 50
125.9000209422
 51
250.4636154215
  0
ARC
  5
36F
100
AcDbEntity
  8
RUNDUNGEN
100
AcDbCircle
 62
9
  6
CONTINUOUS
 10
128.3100113212
 20
208.4037415269
 40
3.0
100
AcDbArc
 50
180.0
 51
241.6367835183
  0
ARC
  5
370
100
AcDbEntity
  8
RUNDUNGEN
100
AcDbCircle
 62
7
  6
CONTINUOUS
 10
124.3100113212
 20
210.2307153162
 40
2.0
100
AcDbArc
 50
0.0
 51
90.0
  0
ARC
  5
371
100
AcDbEntity
  8
RUNDUNGEN
100
AcDbCircle
 62
7
  6
CONTINUOUS
 10
128.3100113212
 20
208.4037415269
 40
2.0
100
AcDbArc
 50
180.0
 51
241.6367835183
  0
ARC
  5
372
100
AcDbEntity
  8
AUSFORMSCHRAEGEN
100
AcDbCircle
 62
7
  6
CONTINUOUS
 10
123.2166961863
 20
234.9298405045
 40
1.636191001
100
AcDbArc
 50
6.665509781
 51
83.7839310866
  0
ARC
  5
373
100
AcDbEntity
  8
AUSFORMSCHRAEGEN
100
AcDbCircle
 62
7
  6
CONTINUOUS
 10
138.5376412114
 20
230.4312051482
 40
1.636191001
100
AcDbArc
 50
63.4887961861
 51
140.6072174917
  0
ARC
  5
374
100
AcDbEntity
  8
AUSFORMSCHRAEGEN
100
AcDbCircle
 62
7
  6
CONTINUOUS
 10
146.7931731658
 20
225.1256969153
 40
1.636191001
100
AcDbArc
 50
333.9382370537
 51
51.0566583594
  0
ARC
  5
375
100
AcDbEntity
  8
AUSFORMSCHRAEGEN
100
AcDbCircle
 62
7
  6
CONTINUOUS
 10
157.2498263981
 20
213.0580757864
 40
1.636191001
100
AcDbArc
 50
30.7615234588
 51
107.8799447644
  0
ARC
  5
376
100
AcDbEntity
  8
AUSFORMSCHRAEGEN
100
AcDbCircle
 62
7
  6
CONTINUOUS
 10
161.3264475121
 20
204.1315206976
 40
1.636191001
100
AcDbArc
 50
301.2109643265
 51
18.3293856321
  0
CIRCLE
  5
377
100
AcDbEntity
  8
02___PRT_ALL_AXES
100
AcDbCircle
 62
7
  6
CONTINUOUS
 10
118.3100113212
 20
218.3807153162
 40
1.5
  0
ARC
  5
378
100
AcDbEntity
  8
AUSFORMSCHRAEGEN
100
AcDbCircle
 62
7
  6
CONTINUOUS
 10
123.2166961863
 20
234.9298405045
 40
1.5
100
AcDbArc
 50
6.665509781
 51
83.7839310866
  0
ARC
  5
379
100
AcDbEntity
  8
AUSFORMSCHRAEGEN
100
AcDbCircle
 62
7
  6
CONTINUOUS
 10
138.5376412114
 20
230.4312051482
 40
1.5
100
AcDbArc
 50
63.4887961861
 51
140.6072174917
  0
ARC
  5
37A
100
AcDbEntity
  8
AUSFORMSCHRAEGEN
100
AcDbCircle
 62
7
  6
CONTINUOUS
 10
146.7931731658
 20
225.1256969153
 40
1.5
100
AcDbArc
 50
333.9382370537
 51
51.0566583594
  0
ARC
  5
37B
100
AcDbEntity
  8
AUSFORMSCHRAEGEN
100
AcDbCircle
 62
7
  6
CONTINUOUS
 10
157.2498263981
 20
213.0580757864
 40
1.5
100
AcDbArc
 50
30.7615234588
 51
107.8799447644
  0
ARC
  5
37C
100
AcDbEntity
  8
AUSFORMSCHRAEGEN
100
AcDbCircle
 62
7
  6
CONTINUOUS
 10
161.3264475121
 20
204.1315206976
 40
1.5
100
AcDbArc
 50
301.2109643265
 51
18.3293856321
  0
ARC
  5
37D
100
AcDbEntity
  8
RUNDUNGEN
100
AcDbCircle
 62
9
  6
CONTINUOUS
 10
124.3100113212
 20
210.2307153162
 40
1.0
100
AcDbArc
 50
0.0
 51
90.0
  0
ARC
  5
37E
100
AcDbEntity
  8
0
100
AcDbCircle
 62
7
  6
CONTINUOUS
 10
251.1795808576
 20
226.8962671344
 40
5.0
100
AcDbArc
 50
180.0
 51
270.0
  0
ARC
  5
37F
100
AcDbEntity
  8
0
100
AcDbCircle
 62
7
  6
CONTINUOUS
 10
251.1795808576
 20
152.8651634981
 40
5.0
100
AcDbArc
 50
90.0
 51
180.0
  0
ARC
  5
380
100
AcDbEntity
  8
0
100
AcDbCircle
 62
7
  6
CONTINUOUS
 10
270.1795808576
 20
226.8962671344
 40
5.0
100
AcDbArc
 50
270.0
 51
360.0
  0
ARC
  5
381
100
AcDbEntity
  8
0
100
AcDbCircle
 62
7
  6
CONTINUOUS
 10
270.1795808576
 20
152.8651634981
 40
5.0
100
AcDbArc
 50
0.0
 51
90.0
  0
ARC
  5
382
100
AcDbEntity
  8
0
100
AcDbCircle
 62
7
  6
CONTINUOUS
 10
247.1795808576
 20
171.8307153162
 40
1.0
100
AcDbArc
 50
180.0
 51
270.0
  0
ARC
  5
383
100
AcDbEntity
  8
0
100
AcDbCircle
 62
7
  6
CONTINUOUS
 10
247.1795808576
 20
211.2307153162
 40
1.0
100
AcDbArc
 50
90.0
 51
180.0
  0
ARC
  5
384
100
AcDbEntity
  8
0
100
AcDbCircle
 62
7
  6
CONTINUOUS
 10
274.1795808576
 20
171.8307153162
 40
1.0
100
AcDbArc
 50
270.0
 51
360.0
  0
ARC
  5
385
100
AcDbEntity
  8
0
100
AcDbCircle
 62
7
  6
CONTINUOUS
 10
274.1795808576
 20
211.2307153162
 40
1.0
100
AcDbArc
 50
0.0
 51
90.0
  0
SPLINE
  5
386
100
AcDbEntity
  8
AUSFORMSCHRAEGEN
100
AcDbSpline
 62
7
  6
CONTINUOUS
 70
0
 71
3
 72
8
 73
4
 74
0
 42
0.0000001
 43
0.0000001
 44
0.0000000001
 40
0.0
 40
0.0
 40
0.0
 40
0.0
 40
1.0
 40
1.0
 40
1.0
 40
1.0
 10
82.2607432647
 20
167.6136394698
 30
0.0
 10
82.1265948887
 20
167.4402991019
 30
0.0
 10
81.9785861689
 20
167.2775030086
 30
0.0
 10
81.8244081335
 20
167.121708903
 30
0.0
  0
SPLINE
  5
387
100
AcDbEntity
  8
AUSFORMSCHRAEGEN
100
AcDbSpline
 62
7
  6
CONTINUOUS
 70
0
 71
3
 72
8
 73
4
 74
0
 42
0.0000001
 43
0.0000001
 44
0.0000000001
 40
0.0
 40
0.0
 40
0.0
 40
0.0
 40
1.0
 40
1.0
 40
1.0
 40
1.0
 10
77.2169151333
 20
177.2106841278
 30
0.0
 10
77.4356205212
 20
177.2251882543
 30
0.0
 10
77.6555782547
 20
177.2304611489
 30
0.0
 10
77.8744280905
 20
177.2183299584
 30
0.0
  0
SPLINE
  5
388
100
AcDbEntity
  8
AUSFORMSCHRAEGEN
100
AcDbSpline
 62
7
  6
CONTINUOUS
 70
0
 71
3
 72
8
 73
4
 74
0
 42
0.0000001
 43
0.0000001
 44
0.0000000001
 40
0.0
 40
0.0
 40
0.0
 40
0.0
 40
1.0
 40
1.0
 40
1.0
 40
1.0
 10
90.5902349971
 20
157.005401703
 30
0.0
 10
90.7663801545
 20
157.1358444104
 30
0.0
 10
90.9485696328
 20
157.2591983805
 30
0.0
 10
91.1392364471
 20
157.3673121277
 30
0.0
  0
SPLINE
  5
389
100
AcDbEntity
  8
AUSFORMSCHRAEGEN
100
AcDbSpline
 62
7
  6
CONTINUOUS
 70
0
 71
3
 72
8
 73
4
 74
0
 42
0.0000001
 43
0.0000001
 44
0.0000000001
 40
0.0
 40
0.0
 40
0.0
 40
0.0
 40
1.0
 40
1.0
 40
1.0
 40
1.0
 10
75.9449471247
 20
190.6381648454
 30
0.0
 10
75.7383794513
 20
190.5648677361
 30
0.0
 10
75.5258523799
 20
190.5079345028
 30
0.0
 10
75.3119209103
 20
190.4602271002
 30
0.0
  0
SPLINE
  5
38A
100
AcDbEntity
  8
AUSFORMSCHRAEGEN
100
AcDbSpline
 62
7
  6
CONTINUOUS
 70
0
 71
3
 72
8
 73
4
 74
0
 42
0.0000001
 43
0.0000001
 44
0.0000000001
 40
0.0
 40
0.0
 40
0.0
 40
0.0
 40
1.0
 40
1.0
 40
1.0
 40
1.0
 10
100.0219273006
 20
151.6587533439
 30
0.0
 10
100.0027893836
 20
151.4404040593
 30
0.0
 10
99.9662907382
 20
151.2234317154
 30
0.0
 10
99.9208165738
 20
151.0090144346
 30
0.0
  0
SPLINE
  5
38B
100
AcDbEntity
  8
AUSFORMSCHRAEGEN
100
AcDbSpline
 62
7
  6
CONTINUOUS
 70
0
 71
3
 72
8
 73
4
 74
0
 42
0.0000001
 43
0.0000001
 44
0.0000000001
 40
0.0
 40
0.0
 40
0.0
 40
0.0
 40
1.0
 40
1.0
 40
1.0
 40
1.0
 10
76.8903629592
 20
201.4386119327
 30
0.0
 10
77.0821911623
 20
201.3325725206
 30
0.0
 10
77.2700821247
 20
201.218090233
 30
0.0
 10
77.4476317054
 20
201.089565672
 30
0.0
  0
SPLINE
  5
38C
100
AcDbEntity
  8
AUSFORMSCHRAEGEN
100
AcDbSpline
 62
7
  6
CONTINUOUS
 70
0
 71
3
 72
8
 73
4
 74
0
 42
0.0000001
 43
0.0000001
 44
0.0000000001
 40
0.0
 40
0.0
 40
0.0
 40
0.0
 40
1.0
 40
1.0
 40
1.0
 40
1.0
 10
112.7643879852
 20
147.2377990646
 30
0.0
 10
112.8420480692
 20
147.442765715
 30
0.0
 10
112.9286254203
 20
147.6450367465
 30
0.0
 10
113.0305738467
 20
147.8390700807
 30
0.0
  0
SPLINE
  5
38D
100
AcDbEntity
  8
AUSFORMSCHRAEGEN
100
AcDbSpline
 62
7
  6
CONTINUOUS
 70
0
 71
3
 72
8
 73
4
 74
0
 42
0.0000001
 43
0.0000001
 44
0.0000000001
 40
0.0
 40
0.0
 40
0.0
 40
0.0
 40
1.0
 40
1.0
 40
1.0
 40
1.0
 10
83.0797595299
 20
213.4222053473
 30
0.0
 10
82.8663563358
 20
213.472222811
 30
0.0
 10
82.6567867563
 20
213.539228337
 30
0.0
 10
82.4510235826
 20
213.6147544005
 30
0.0
  0
SPLINE
  5
38E
100
AcDbEntity
  8
AUSFORMSCHRAEGEN
100
AcDbSpline
 62
7
  6
CONTINUOUS
 70
0
 71
3
 72
8
 73
4
 74
0
 42
0.0000001
 43
0.0000001
 44
0.0000000001
 40
0.0
 40
0.0
 40
0.0
 40
0.0
 40
1.0
 40
1.0
 40
1.0
 40
1.0
 10
123.5894487957
 20
147.8390700807
 30
0.0
 10
123.6913974911
 20
147.6450362346
 30
0.0
 10
123.777996982
 20
147.4427748262
 30
0.0
 10
123.8556644145
 20
147.2378103418
 30
0.0
  0
SPLINE
  5
38F
100
AcDbEntity
  8
AUSFORMSCHRAEGEN
100
AcDbSpline
 62
7
  6
CONTINUOUS
 70
0
 71
3
 72
8
 73
4
 74
0
 42
0.0000001
 43
0.0000001
 44
0.0000000001
 40
0.0
 40
0.0
 40
0.0
 40
0.0
 40
1.0
 40
1.0
 40
1.0
 40
1.0
 10
89.7142564828
 20
221.9969892261
 30
0.0
 10
89.8183034019
 20
221.8040730395
 30
0.0
 10
89.9144735403
 20
221.6061828871
 30
0.0
 10
89.9943521286
 20
221.4020705957
 30
0.0
  0
SPLINE
  5
390
100
AcDbEntity
  8
AUSFORMSCHRAEGEN
100
AcDbSpline
 62
7
  6
CONTINUOUS
 70
0
 71
3
 72
8
 73
4
 74
0
 42
0.0000001
 43
0.0000001
 44
0.0000000001
 40
0.0
 40
0.0
 40
0.0
 40
0.0
 40
1.0
 40
1.0
 40
1.0
 40
1.0
 10
136.699237199
 20
151.0090210357
 30
0.0
 10
136.6537556817
 20
151.2234361657
 30
0.0
 10
136.6172332082
 20
151.4404046355
 30
0.0
 10
136.5980953417
 20
151.6587533439
 30
0.0
  0
SPLINE
  5
391
100
AcDbEntity
  8
AUSFORMSCHRAEGEN
100
AcDbSpline
 62
7
  6
CONTINUOUS
 70
0
 71
3
 72
8
 73
4
 74
0
 42
0.0000001
 43
0.0000001
 44
0.0000000001
 40
0.0
 40
0.0
 40
0.0
 40
0.0
 40
1.0
 40
1.0
 40
1.0
 40
1.0
 10
101.3999279537
 20
228.7319891006
 30
0.0
 10
101.2474432453
 20
228.8894409459
 30
0.0
 10
101.1073680184
 20
229.0591114501
 30
0.0
 10
100.9751014944
 20
229.2338919884
 30
0.0
  0
SPLINE
  5
392
100
AcDbEntity
  8
AUSFORMSCHRAEGEN
100
AcDbSpline
 62
7
  6
CONTINUOUS
 70
0
 71
3
 72
8
 73
4
 74
0
 42
0.0000001
 43
0.0000001
 44
0.0000000001
 40
0.0
 40
0.0
 40
0.0
 40
0.0
 40
1.0
 40
1.0
 40
1.0
 40
1.0
 10
145.4807861953
 20
157.3673121277
 30
0.0
 10
145.6714535127
 20
157.2591980952
 30
0.0
 10
145.8536564135
 20
157.1358641904
 30
0.0
 10
146.0298065819
 20
157.0054272781
 30
0.0
  0
SPLINE
  5
393
100
AcDbEntity
  8
AUSFORMSCHRAEGEN
100
AcDbSpline
 62
7
  6
CONTINUOUS
 70
0
 71
3
 72
8
 73
4
 74
0
 42
0.0000001
 43
0.0000001
 44
0.0000000001
 40
0.0
 40
0.0
 40
0.0
 40
0.0
 40
1.0
 40
1.0
 40
1.0
 40
1.0
 10
111.6171001197
 20
232.3586764758
 30
0.0
 10
111.6003315932
 20
232.140133041
 30
0.0
 10
111.574247568
 20
231.9216637489
 30
0.0
 10
111.5310942766
 20
231.7067679374
 30
0.0
  0
SPLINE
  5
394
100
AcDbEntity
  8
AUSFORMSCHRAEGEN
100
AcDbSpline
 62
7
  6
CONTINUOUS
 70
0
 71
3
 72
8
 73
4
 74
0
 42
0.0000001
 43
0.0000001
 44
0.0000000001
 40
0.0
 40
0.0
 40
0.0
 40
0.0
 40
1.0
 40
1.0
 40
1.0
 40
1.0
 10
154.7956371286
 20
167.1217312865
 30
0.0
 10
154.6414540704
 20
167.2775196074
 30
0.0
 10
154.4934273997
 20
167.4402995593
 30
0.0
 10
154.3592793777
 20
167.6136394698
 30
0.0
  0
SPLINE
  5
395
100
AcDbEntity
  8
AUSFORMSCHRAEGEN
100
AcDbSpline
 62
7
  6
CONTINUOUS
 70
0
 71
3
 72
8
 73
4
 74
0
 42
0.0000001
 43
0.0000001
 44
0.0000000001
 40
0.0
 40
0.0
 40
0.0
 40
0.0
 40
1.0
 40
1.0
 40
1.0
 40
1.0
 10
125.0889283658
 20
231.7067679374
 30
0.0
 10
125.0457749605
 20
231.9216643159
 30
0.0
 10
125.0196669812
 20
232.1401306121
 30
0.0
 10
125.0028907936
 20
232.3586740391
 30
0.0
  0
SPLINE
  5
396
100
AcDbEntity
  8
AUSFORMSCHRAEGEN
100
AcDbSpline
 62
7
  6
CONTINUOUS
 70
0
 71
3
 72
8
 73
4
 74
0
 42
0.0000001
 43
0.0000001
 44
0.0000000001
 40
0.0
 40
0.0
 40
0.0
 40
0.0
 40
1.0
 40
1.0
 40
1.0
 40
1.0
 10
158.7455945519
 20
177.2183299584
 30
0.0
 10
158.9644449651
 20
177.2304611809
 30
0.0
 10
159.1844031423
 20
177.225212423
 30
0.0
 10
159.4031096127
 20
177.2107158807
 30
0.0
  0
SPLINE
  5
397
100
AcDbEntity
  8
AUSFORMSCHRAEGEN
100
AcDbSpline
 62
7
  6
CONTINUOUS
 70
0
 71
3
 72
8
 73
4
 74
0
 42
0.0000001
 43
0.0000001
 44
0.0000000001
 40
0.0
 40
0.0
 40
0.0
 40
0.0
 40
1.0
 40
1.0
 40
1.0
 40
1.0
 10
135.6448957731
 20
229.2339111924
 30
0.0
 10
135.5126356897
 20
229.0591265056
 30
0.0
 10
135.3725789948
 20
228.8894405305
 30
0.0
 10
135.2200946887
 20
228.7319891006
 30
0.0
  0
SPLINE
  5
398
100
AcDbEntity
  8
AUSFORMSCHRAEGEN
100
AcDbSpline
 62
7
  6
CONTINUOUS
 70
0
 71
3
 72
8
 73
4
 74
0
 42
0.0000001
 43
0.0000001
 44
0.0000000001
 40
0.0
 40
0.0
 40
0.0
 40
0.0
 40
1.0
 40
1.0
 40
1.0
 40
1.0
 10
161.3081086596
 20
190.4602581595
 30
0.0
 10
161.0941760919
 20
190.5079579802
 30
0.0
 10
160.8816426461
 20
190.5648679295
 30
0.0
 10
160.6750755177
 20
190.6381648454
 30
0.0
  0
SPLINE
  5
399
100
AcDbEntity
  8
AUSFORMSCHRAEGEN
100
AcDbSpline
 62
7
  6
CONTINUOUS
 70
0
 71
3
 72
8
 73
4
 74
0
 42
0.0000001
 43
0.0000001
 44
0.0000000001
 40
0.0
 40
0.0
 40
0.0
 40
0.0
 40
1.0
 40
1.0
 40
1.0
 40
1.0
 10
146.6256705138
 20
221.4020705957
 30
0.0
 10
146.7055493129
 20
221.6061834257
 30
0.0
 10
146.80169768
 20
221.8040840084
 30
0.0
 10
146.9057381499
 20
221.9970043302
 30
0.0
  0
SPLINE
  5
39A
100
AcDbEntity
  8
AUSFORMSCHRAEGEN
100
AcDbSpline
 62
7
  6
CONTINUOUS
 70
0
 71
3
 72
8
 73
4
 74
0
 42
0.0000001
 43
0.0000001
 44
0.0000000001
 40
0.0
 40
0.0
 40
0.0
 40
0.0
 40
1.0
 40
1.0
 40
1.0
 40
1.0
 10
159.172390937
 20
201.089565672
 30
0.0
 10
159.3499409862
 20
201.2180905721
 30
0.0
 10
159.5378192725
 20
201.3325934047
 30
0.0
 10
159.7296442859
 20
201.4386397822
 30
0.0
  0
SPLINE
  5
39B
100
AcDbEntity
  8
AUSFORMSCHRAEGEN
100
AcDbSpline
 62
7
  6
CONTINUOUS
 70
0
 71
3
 72
8
 73
4
 74
0
 42
0.0000001
 43
0.0000001
 44
0.0000000001
 40
0.0
 40
0.0
 40
0.0
 40
0.0
 40
1.0
 40
1.0
 40
1.0
 40
1.0
 10
154.1689880956
 20
213.6147842746
 30
0.0
 10
153.9632280972
 20
213.539251239
 30
0.0
 10
153.7536657435
 20
213.472222679
 30
0.0
 10
153.5402631125
 20
213.4222053473
 30
0.0
  0
SPLINE
  5
39C
100
AcDbEntity
  8
AUSFORMSCHRAEGEN
100
AcDbSpline
 62
7
  6
CONTINUOUS
 70
0
 71
3
 72
9
 73
5
 74
0
 42
0.0000001
 43
0.0000001
 44
0.0000000001
 40
0.0
 40
0.0
 40
0.0
 40
0.0
 40
0.500162799
 40
1.0
 40
1.0
 40
1.0
 40
1.0
 10
81.1063960122
 20
214.1703373679
 30
0.0
 10
81.4333536084
 20
214.03971684
 30
0.0
 10
82.0738787486
 20
213.7495559257
 30
0.0
 10
82.7371885562
 20
213.5024971692
 30
0.0
 10
83.0797595299
 20
213.4222053473
 30
0.0
  0
SPLINE
  5
39D
100
AcDbEntity
  8
AUSFORMSCHRAEGEN
100
AcDbSpline
 62
7
  6
CONTINUOUS
 70
0
 71
3
 72
9
 73
5
 74
0
 42
0.0000001
 43
0.0000001
 44
0.0000000001
 40
0.0
 40
0.0
 40
0.0
 40
0.0
 40
0.4998385278
 40
1.0
 40
1.0
 40
1.0
 40
1.0
 10
77.4476317054
 20
201.089565672
 30
0.0
 10
77.1626138331
 20
201.295884362
 30
0.0
 10
76.541555533
 20
201.6354495549
 30
0.0
 10
75.9027805958
 20
201.9294524607
 30
0.0
 10
75.5899529677
 20
202.0910120264
 30
0.0
  0
SPLINE
  5
39E
100
AcDbEntity
  8
AUSFORMSCHRAEGEN
100
AcDbSpline
 62
7
  6
CONTINUOUS
 70
0
 71
3
 72
9
 73
5
 74
0
 42
0.0000001
 43
0.0000001
 44
0.0000000001
 40
0.0
 40
0.0
 40
0.0
 40
0.0
 40
0.4998385278
 40
1.0
 40
1.0
 40
1.0
 40
1.0
 10
89.9943521286
 20
221.4020705957
 30
0.0
 10
89.8661241419
 20
221.729729218
 30
0.0
 10
89.5272394563
 20
222.3511591032
 30
0.0
 10
89.1488177549
 20
222.9438378906
 30
0.0
 10
88.9729961034
 20
223.2488778305
 30
0.0
  0
SPLINE
  5
39F
100
AcDbEntity
  8
AUSFORMSCHRAEGEN
100
AcDbSpline
 62
7
  6
CONTINUOUS
 70
0
 71
3
 72
9
 73
5
 74
0
 42
0.0000001
 43
0.0000001
 44
0.0000000001
 40
0.0
 40
0.0
 40
0.0
 40
0.0
 40
0.500162799
 40
1.0
 40
1.0
 40
1.0
 40
1.0
 10
73.8803773867
 20
190.2006526854
 30
0.0
 10
74.2260504086
 20
190.2675343269
 30
0.0
 10
74.9217672796
 20
190.369729468
 30
0.0
 10
75.6133490466
 20
190.5205027729
 30
0.0
 10
75.9449471247
 20
190.6381648454
 30
0.0
  0
SPLINE
  5
3A0
100
AcDbEntity
  8
AUSFORMSCHRAEGEN
100
AcDbSpline
 62
7
  6
CONTINUOUS
 70
0
 71
3
 72
9
 73
5
 74
0
 42
0.0000001
 43
0.0000001
 44
0.0000000001
 40
0.0
 40
0.0
 40
0.0
 40
0.0
 40
0.500162799
 40
1.0
 40
1.0
 40
1.0
 40
1.0
 10
100.1442996301
 20
230.4282386713
 30
0.0
 10
100.348735074
 20
230.1415870687
 30
0.0
 10
100.7307062772
 20
229.551194139
 30
0.0
 10
101.1551479481
 20
228.9847427307
 30
0.0
 10
101.3999279537
 20
228.7319891006
 30
0.0
  0
SPLINE
  5
3A1
100
AcDbEntity
  8
AUSFORMSCHRAEGEN
100
AcDbSpline
 62
7
  6
CONTINUOUS
 70
0
 71
3
 72
9
 73
5
 74
0
 42
0.0000001
 43
0.0000001
 44
0.0000000001
 40
0.0
 40
0.0
 40
0.0
 40
0.0
 40
0.4998385278
 40
1.0
 40
1.0
 40
1.0
 40
1.0
 10
77.8744280905
 20
177.2183299584
 30
0.0
 10
77.5231114933
 20
177.2378039898
 30
0.0
 10
76.8170612007
 20
177.1876949408
 30
0.0
 10
76.1207395567
 20
177.0896781198
 30
0.0
 10
75.7702265138
 20
177.0564632906
 30
0.0
  0
SPLINE
  5
3A2
100
AcDbEntity
  8
AUSFORMSCHRAEGEN
100
AcDbSpline
 62
7
  6
CONTINUOUS
 70
0
 71
3
 72
9
 73
5
 74
0
 42
0.0000001
 43
0.0000001
 44
0.0000000001
 40
0.0
 40
0.0
 40
0.0
 40
0.0
 40
0.4998385278
 40
1.0
 40
1.0
 40
1.0
 40
1.0
 10
111.5310942766
 20
231.7067679374
 30
0.0
 10
111.6003676551
 20
232.0517371945
 30
0.0
 10
111.6512500773
 20
232.7577321743
 30
0.0
 10
111.6533278283
 20
233.460915516
 30
0.0
 10
111.6703342852
 20
233.8125878046
 30
0.0
  0
SPLINE
  5
3A3
100
AcDbEntity
  8
AUSFORMSCHRAEGEN
100
AcDbSpline
 62
7
  6
CONTINUOUS
 70
0
 71
3
 72
9
 73
5
 74
0
 42
0.0000001
 43
0.0000001
 44
0.0000000001
 40
0.0
 40
0.0
 40
0.0
 40
0.0
 40
0.500162799
 40
1.0
 40
1.0
 40
1.0
 40
1.0
 10
80.7604536106
 20
166.1293901488
 30
0.0
 10
81.0150933161
 20
166.372539511
 30
0.0
 10
81.5451167271
 20
166.8346444724
 30
0.0
 10
82.0453981291
 20
167.3353803797
 30
0.0
 10
82.2607432647
 20
167.6136394698
 30
0.0
  0
SPLINE
  5
3A4
100
AcDbEntity
  8
AUSFORMSCHRAEGEN
100
AcDbSpline
 62
7
  6
CONTINUOUS
 70
0
 71
3
 72
9
 73
5
 74
0
 42
0.0000001
 43
0.0000001
 44
0.0000000001
 40
0.0
 40
0.0
 40
0.0
 40
0.0
 40
0.500162799
 40
1.0
 40
1.0
 40
1.0
 40
1.0
 10
124.9496883572
 20
233.8125878046
 30
0.0
 10
124.9666948398
 20
233.4609149857
 30
0.0
 10
124.9688389478
 20
232.7577356243
 30
0.0
 10
125.0196552505
 20
232.0517358839
 30
0.0
 10
125.0889283658
 20
231.7067679374
 30
0.0
  0
SPLINE
  5
3A5
100
AcDbEntity
  8
AUSFORMSCHRAEGEN
100
AcDbSpline
 62
7
  6
CONTINUOUS
 70
0
 71
3
 72
9
 73
5
 74
0
 42
0.0000001
 43
0.0000001
 44
0.0000000001
 40
0.0
 40
0.0
 40
0.0
 40
0.0
 40
0.4998385278
 40
1.0
 40
1.0
 40
1.0
 40
1.0
 10
91.1392364471
 20
157.3673121277
 30
0.0
 10
90.8331616623
 20
157.1937586331
 30
0.0
 10
90.2662853565
 20
156.7698846114
 30
0.0
 10
89.7334942078
 20
156.3109677115
 30
0.0
 10
89.4565811645
 20
156.0935239612
 30
0.0
  0
SPLINE
  5
3A6
100
AcDbEntity
  8
AUSFORMSCHRAEGEN
100
AcDbSpline
 62
7
  6
CONTINUOUS
 70
0
 71
3
 72
9
 73
5
 74
0
 42
0.0000001
 43
0.0000001
 44
0.0000000001
 40
0.0
 40
0.0
 40
0.0
 40
0.0
 40
0.4998385278
 40
1.0
 40
1.0
 40
1.0
 40
1.0
 10
135.2200946887
 20
228.7319891006
 30
0.0
 10
135.4648756243
 20
228.9847436909
 30
0.0
 10
135.8893703446
 20
229.5511553475
 30
0.0
 10
136.2712878767
 20
230.141587501
 30
0.0
 10
136.4757230122
 20
230.4282386713
 30
0.0
  0
SPLINE
  5
3A7
100
AcDbEntity
  8
AUSFORMSCHRAEGEN
100
AcDbSpline
 62
7
  6
CONTINUOUS
 70
0
 71
3
 72
9
 73
5
 74
0
 42
0.0000001
 43
0.0000001
 44
0.0000000001
 40
0.0
 40
0.0
 40
0.0
 40
0.0
 40
0.500162799
 40
1.0
 40
1.0
 40
1.0
 40
1.0
 10
99.5622490951
 20
149.5990055339
 30
0.0
 10
99.645009177
 20
149.9412244125
 30
0.0
 10
99.8410604399
 20
150.616524134
 30
0.0
 10
99.9912056665
 20
151.3082425311
 30
0.0
 10
100.0219273006
 20
151.6587533439
 30
0.0
  0
SPLINE
  5
3A8
100
AcDbEntity
  8
AUSFORMSCHRAEGEN
100
AcDbSpline
 62
7
  6
CONTINUOUS
 70
0
 71
3
 72
9
 73
5
 74
0
 42
0.0000001
 43
0.0000001
 44
0.0000000001
 40
0.0
 40
0.0
 40
0.0
 40
0.0
 40
0.500162799
 40
1.0
 40
1.0
 40
1.0
 40
1.0
 10
147.647026539
 20
223.2488778305
 30
0.0
 10
147.4712046223
 20
222.9438374306
 30
0.0
 10
147.0928408959
 20
222.3511261163
 30
0.0
 10
146.7538980134
 20
221.7297279732
 30
0.0
 10
146.6256705138
 20
221.4020705957
 30
0.0
  0
SPLINE
  5
3A9
100
AcDbEntity
  8
AUSFORMSCHRAEGEN
100
AcDbSpline
 62
7
  6
CONTINUOUS
 70
0
 71
3
 72
9
 73
5
 74
0
 42
0.0000001
 43
0.0000001
 44
0.0000000001
 40
0.0
 40
0.0
 40
0.0
 40
0.0
 40
0.4998385278
 40
1.0
 40
1.0
 40
1.0
 40
1.0
 10
113.0305738467
 20
147.8390700807
 30
0.0
 10
112.8669174559
 20
147.5275910684
 30
0.0
 10
112.6191943586
 20
146.8645290808
 30
0.0
 10
112.4190911303
 20
146.1904149753
 30
0.0
 10
112.3036960213
 20
145.857779158
 30
0.0
  0
SPLINE
  5
3AA
100
AcDbEntity
  8
AUSFORMSCHRAEGEN
100
AcDbSpline
 62
7
  6
CONTINUOUS
 70
0
 71
3
 72
9
 73
5
 74
0
 42
0.0000001
 43
0.0000001
 44
0.0000000001
 40
0.0
 40
0.0
 40
0.0
 40
0.0
 40
0.4998385278
 40
1.0
 40
1.0
 40
1.0
 40
1.0
 10
153.5402631125
 20
213.4222053473
 30
0.0
 10
153.8828353877
 20
213.5024974742
 30
0.0
 10
154.5461683319
 20
213.7494941087
 30
0.0
 10
155.1866695271
 20
214.039717037
 30
0.0
 10
155.5136266302
 20
214.1703373679
 30
0.0
  0
SPLINE
  5
3AB
100
AcDbEntity
  8
AUSFORMSCHRAEGEN
100
AcDbSpline
 62
7
  6
CONTINUOUS
 70
0
 71
3
 72
9
 73
5
 74
0
 42
0.0000001
 43
0.0000001
 44
0.0000000001
 40
0.0
 40
0.0
 40
0.0
 40
0.0
 40
0.500162799
 40
1.0
 40
1.0
 40
1.0
 40
1.0
 10
124.316326621
 20
145.857779158
 30
0.0
 10
124.2009313381
 20
146.190415477
 30
0.0
 10
124.0007655621
 20
146.8645070684
 30
0.0
 10
123.7531045648
 20
147.5275922517
 30
0.0
 10
123.5894487957
 20
147.8390700807
 30
0.0
  0
SPLINE
  5
3AC
100
AcDbEntity
  8
AUSFORMSCHRAEGEN
100
AcDbSpline
 62
7
  6
CONTINUOUS
 70
0
 71
3
 72
9
 73
5
 74
0
 42
0.0000001
 43
0.0000001
 44
0.0000000001
 40
0.0
 40
0.0
 40
0.0
 40
0.0
 40
0.500162799
 40
1.0
 40
1.0
 40
1.0
 40
1.0
 10
161.0300696746
 20
202.0910120264
 30
0.0
 10
160.7172415748
 20
201.9294522171
 30
0.0
 10
160.0784978239
 20
201.6353906043
 30
0.0
 10
159.4574077264
 20
201.2958835782
 30
0.0
 10
159.172390937
 20
201.089565672
 30
0.0
  0
SPLINE
  5
3AD
100
AcDbEntity
  8
AUSFORMSCHRAEGEN
100
AcDbSpline
 62
7
  6
CONTINUOUS
 70
0
 71
3
 72
9
 73
5
 74
0
 42
0.0000001
 43
0.0000001
 44
0.0000000001
 40
0.0
 40
0.0
 40
0.0
 40
0.0
 40
0.4998385278
 40
1.0
 40
1.0
 40
1.0
 40
1.0
 10
136.5980953417
 20
151.6587533439
 30
0.0
 10
136.6288170926
 20
151.3082411995
 30
0.0
 10
136.7788975369
 20
150.6165087421
 30
0.0
 10
136.9750135902
 20
149.9412238964
 30
0.0
 10
137.0577735473
 20
149.5990055339
 30
0.0
  0
SPLINE
  5
3AE
100
AcDbEntity
  8
AUSFORMSCHRAEGEN
100
AcDbSpline
 62
7
  6
CONTINUOUS
 70
0
 71
3
 72
9
 73
5
 74
0
 42
0.0000001
 43
0.0000001
 44
0.0000000001
 40
0.0
 40
0.0
 40
0.0
 40
0.0
 40
0.4998385278
 40
1.0
 40
1.0
 40
1.0
 40
1.0
 10
160.6750755177
 20
190.6381648454
 30
0.0
 10
161.0066748555
 20
190.5205023259
 30
0.0
 10
161.6982425007
 20
190.3696642521
 30
0.0
 10
162.3939727551
 20
190.267534226
 30
0.0
 10
162.7396452557
 20
190.2006526854
 30
0.0
  0
SPLINE
  5
3AF
100
AcDbEntity
  8
AUSFORMSCHRAEGEN
100
AcDbSpline
 62
7
  6
CONTINUOUS
 70
0
 71
3
 72
9
 73
5
 74
0
 42
0.0000001
 43
0.0000001
 44
0.0000000001
 40
0.0
 40
0.0
 40
0.0
 40
0.0
 40
0.500162799
 40
1.0
 40
1.0
 40
1.0
 40
1.0
 10
147.1634414779
 20
156.0935239612
 30
0.0
 10
146.886528017
 20
156.3109680395
 30
0.0
 10
146.3536964218
 20
156.7698321835
 30
0.0
 10
145.7868598173
 20
157.1937592925
 30
0.0
 10
145.4807861953
 20
157.3673121277
 30
0.0
  0
SPLINE
  5
3B0
100
AcDbEntity
  8
AUSFORMSCHRAEGEN
100
AcDbSpline
 62
7
  6
CONTINUOUS
 70
0
 71
3
 72
9
 73
5
 74
0
 42
0.0000001
 43
0.0000001
 44
0.0000000001
 40
0.0
 40
0.0
 40
0.0
 40
0.0
 40
0.500162799
 40
1.0
 40
1.0
 40
1.0
 40
1.0
 10
160.8497961285
 20
177.0564632906
 30
0.0
 10
160.499282557
 20
177.0896781699
 30
0.0
 10
159.8029554093
 20
177.1876287429
 30
0.0
 10
159.0969098144
 20
177.2378039158
 30
0.0
 10
158.7455945519
 20
177.2183299584
 30
0.0
  0
SPLINE
  5
3B1
100
AcDbEntity
  8
AUSFORMSCHRAEGEN
100
AcDbSpline
 62
7
  6
CONTINUOUS
 70
0
 71
3
 72
9
 73
5
 74
0
 42
0.0000001
 43
0.0000001
 44
0.0000000001
 40
0.0
 40
0.0
 40
0.0
 40
0.0
 40
0.4998385278
 40
1.0
 40
1.0
 40
1.0
 40
1.0
 10
154.3592793777
 20
167.6136394698
 30
0.0
 10
154.5746253315
 20
167.3353793225
 30
0.0
 10
155.0748598366
 20
166.834596563
 30
0.0
 10
155.6049297103
 20
166.3725391443
 30
0.0
 10
155.8595690318
 20
166.1293901488
 30
0.0
  0
SPLINE
  5
3B2
100
AcDbEntity
  8
AUSFORMSCHRAEGEN
100
AcDbSpline
 62
7
  6
CONTINUOUS
 70
0
 71
3
 72
8
 73
4
 74
0
 42
0.0000001
 43
0.0000001
 44
0.0000000001
 40
0.0
 40
0.0
 40
0.0
 40
0.0
 40
1.0
 40
1.0
 40
1.0
 40
1.0
 10
83.0486812313
 20
213.28960773
 30
0.0
 10
82.3571630792
 20
213.4516858383
 30
0.0
 10
81.7154414648
 20
213.780364822
 30
0.0
 10
81.0558703291
 20
214.0438654576
 30
0.0
  0
SPLINE
  5
3B3
100
AcDbEntity
  8
AUSFORMSCHRAEGEN
100
AcDbSpline
 62
7
  6
CONTINUOUS
 70
0
 71
3
 72
8
 73
4
 74
0
 42
0.0000001
 43
0.0000001
 44
0.0000000001
 40
0.0
 40
0.0
 40
0.0
 40
0.0
 40
1.0
 40
1.0
 40
1.0
 40
1.0
 10
89.0909901224
 20
223.3168881255
 30
0.0
 10
89.4456754643
 20
222.7015305091
 30
0.0
 10
89.8623354897
 20
222.1131165832
 30
0.0
 10
90.1211771799
 20
221.4517031972
 30
0.0
  0
SPLINE
  5
3B4
100
AcDbEntity
  8
AUSFORMSCHRAEGEN
100
AcDbSpline
 62
7
  6
CONTINUOUS
 70
0
 71
3
 72
8
 73
4
 74
0
 42
0.0000001
 43
0.0000001
 44
0.0000000001
 40
0.0
 40
0.0
 40
0.0
 40
0.0
 40
1.0
 40
1.0
 40
1.0
 40
1.0
 10
101.302095541
 20
228.6372430833
 30
0.0
 10
100.8079794935
 20
229.1474548037
 30
0.0
 10
100.4458261927
 20
229.770898058
 30
0.0
 10
100.0334188437
 20
230.3491599766
 30
0.0
  0
SPLINE
  5
3B5
100
AcDbEntity
  8
AUSFORMSCHRAEGEN
100
AcDbSpline
 62
7
  6
CONTINUOUS
 70
0
 71
3
 72
8
 73
4
 74
0
 42
0.0000001
 43
0.0000001
 44
0.0000000001
 40
0.0
 40
0.0
 40
0.0
 40
0.0
 40
1.0
 40
1.0
 40
1.0
 40
1.0
 10
111.8063663121
 20
233.8060093225
 30
0.0
 10
111.7720591642
 20
233.0965801806
 30
0.0
 10
111.8044552966
 20
232.37631147
 30
0.0
 10
111.6646197093
 20
231.6799547394
 30
0.0
  0
SPLINE
  5
3B6
100
AcDbEntity
  8
AUSFORMSCHRAEGEN
100
AcDbSpline
 62
7
  6
CONTINUOUS
 70
0
 71
3
 72
8
 73
4
 74
0
 42
0.0000001
 43
0.0000001
 44
0.0000000001
 40
0.0
 40
0.0
 40
0.0
 40
0.0
 40
1.0
 40
1.0
 40
1.0
 40
1.0
 10
124.9554029388
 20
231.6799547112
 30
0.0
 10
124.8155673497
 20
232.3763114272
 30
0.0
 10
124.8479634767
 20
233.0965801241
 30
0.0
 10
124.8136563337
 20
233.8060092523
 30
0.0
  0
SPLINE
  5
3B7
100
AcDbEntity
  8
AUSFORMSCHRAEGEN
100
AcDbSpline
 62
7
  6
CONTINUOUS
 70
0
 71
3
 72
8
 73
4
 74
0
 42
0.0000001
 43
0.0000001
 44
0.0000000001
 40
0.0
 40
0.0
 40
0.0
 40
0.0
 40
1.0
 40
1.0
 40
1.0
 40
1.0
 10
136.5866038395
 20
230.3491600339
 30
0.0
 10
136.174196479
 20
229.7708981064
 30
0.0
 10
135.8120431753
 20
229.1474548375
 30
0.0
 10
135.3179271213
 20
228.637243104
 30
0.0
  0
SPLINE
  5
3B8
100
AcDbEntity
  8
AUSFORMSCHRAEGEN
100
AcDbSpline
 62
7
  6
CONTINUOUS
 70
0
 71
3
 72
8
 73
4
 74
0
 42
0.0000001
 43
0.0000001
 44
0.0000000001
 40
0.0
 40
0.0
 40
0.0
 40
0.0
 40
1.0
 40
1.0
 40
1.0
 40
1.0
 10
146.498845452
 20
221.4517031704
 30
0.0
 10
146.7576871329
 20
222.1131165451
 30
0.0
 10
147.1743471463
 20
222.7015304623
 30
0.0
 10
147.5290324848
 20
223.3168880646
 30
0.0
  0
SPLINE
  5
3B9
100
AcDbEntity
  8
AUSFORMSCHRAEGEN
100
AcDbSpline
 62
7
  6
CONTINUOUS
 70
0
 71
3
 72
8
 73
4
 74
0
 42
0.0000001
 43
0.0000001
 44
0.0000000001
 40
0.0
 40
0.0
 40
0.0
 40
0.0
 40
1.0
 40
1.0
 40
1.0
 40
1.0
 10
155.5641523786
 20
214.0438654837
 30
0.0
 10
154.9045812284
 20
213.7803648468
 30
0.0
 10
154.2628596038
 20
213.4516858525
 30
0.0
 10
153.5713414391
 20
213.2896077365
 30
0.0
  0
SPLINE
  5
3BA
100
AcDbEntity
  8
AUSFORMSCHRAEGEN
100
AcDbSpline
 62
7
  6
CONTINUOUS
 70
0
 71
3
 72
8
 73
4
 74
0
 42
0.0000001
 43
0.0000001
 44
0.0000000001
 40
0.0
 40
0.0
 40
0.0
 40
0.0
 40
1.0
 40
1.0
 40
1.0
 40
1.0
 10
159.0925323015
 20
201.1998860559
 30
0.0
 10
159.6678708476
 20
201.6163620161
 30
0.0
 10
160.336508137
 20
201.8861038925
 30
0.0
 10
160.9675758682
 20
202.212018278
 30
0.0
  0
SPLINE
  5
3BB
100
AcDbEntity
  8
AUSFORMSCHRAEGEN
100
AcDbSpline
 62
7
  6
CONTINUOUS
 70
0
 71
3
 72
8
 73
4
 74
0
 42
0.0000001
 43
0.0000001
 44
0.0000000001
 40
0.0
 40
0.0
 40
0.0
 40
0.0
 40
1.0
 40
1.0
 40
1.0
 40
1.0
 10
162.7137743572
 20
190.0669414841
 30
0.0
 10
162.0164485972
 20
190.2018617282
 30
0.0
 10
161.2989007332
 20
190.2723002668
 30
0.0
 10
160.629532589
 20
190.509814425
 30
0.0
  0
SPLINE
  5
3BC
100
AcDbEntity
  8
AUSFORMSCHRAEGEN
100
AcDbSpline
 62
7
  6
CONTINUOUS
 70
0
 71
3
 72
8
 73
4
 74
0
 42
0.0000001
 43
0.0000001
 44
0.0000000001
 40
0.0
 40
0.0
 40
0.0
 40
0.0
 40
1.0
 40
1.0
 40
1.0
 40
1.0
 10
158.7380568953
 20
177.354312209
 30
0.0
 10
159.4472263833
 20
177.39362258
 30
0.0
 10
160.1555533338
 20
177.2590512757
 30
0.0
 10
160.8626439118
 20
177.1920469298
 30
0.0
  0
SPLINE
  5
3BD
100
AcDbEntity
  8
AUSFORMSCHRAEGEN
100
AcDbSpline
 62
7
  6
CONTINUOUS
 70
0
 71
3
 72
8
 73
4
 74
0
 42
0.0000001
 43
0.0000001
 44
0.0000000001
 40
0.0
 40
0.0
 40
0.0
 40
0.0
 40
1.0
 40
1.0
 40
1.0
 40
1.0
 10
155.7655153138
 20
166.0308919919
 30
0.0
 10
155.2518309458
 20
166.5213968929
 30
0.0
 10
154.6862732193
 20
166.9685892261
 30
0.0
 10
154.2515747519
 20
167.5302865914
 30
0.0
  0
SPLINE
  5
3BE
100
AcDbEntity
  8
AUSFORMSCHRAEGEN
100
AcDbSpline
 62
7
  6
CONTINUOUS
 70
0
 71
3
 72
8
 73
4
 74
0
 42
0.0000001
 43
0.0000001
 44
0.0000000001
 40
0.0
 40
0.0
 40
0.0
 40
0.0
 40
1.0
 40
1.0
 40
1.0
 40
1.0
 10
145.5479626702
 20
157.4857828413
 30
0.0
 10
146.1658067984
 20
157.1354468581
 30
0.0
 10
146.688934608
 20
156.6392878114
 30
0.0
 10
147.2475517705
 20
156.2006381406
 30
0.0
  0
SPLINE
  5
3BF
100
AcDbEntity
  8
AUSFORMSCHRAEGEN
100
AcDbSpline
 62
7
  6
CONTINUOUS
 70
0
 71
3
 72
8
 73
4
 74
0
 42
0.0000001
 43
0.0000001
 44
0.0000000001
 40
0.0
 40
0.0
 40
0.0
 40
0.0
 40
1.0
 40
1.0
 40
1.0
 40
1.0
 10
136.9253984007
 20
149.5669928905
 30
0.0
 10
136.758446582
 20
150.2573506079
 30
0.0
 10
136.5244395751
 20
150.9393163297
 30
0.0
 10
136.4624244765
 20
151.6468619574
 30
0.0
  0
SPLINE
  5
3C0
100
AcDbEntity
  8
AUSFORMSCHRAEGEN
100
AcDbSpline
 62
7
  6
CONTINUOUS
 70
0
 71
3
 72
8
 73
4
 74
0
 42
0.0000001
 43
0.0000001
 44
0.0000000001
 40
0.0
 40
0.0
 40
0.0
 40
0.0
 40
1.0
 40
1.0
 40
1.0
 40
1.0
 10
123.710011346
 20
147.9024156428
 30
0.0
 10
124.0403689692
 20
147.2736625046
 30
0.0
 10
124.2122082546
 20
146.5734427072
 30
0.0
 10
124.4449949994
 20
145.9024158825
 30
0.0
  0
SPLINE
  5
3C1
100
AcDbEntity
  8
AUSFORMSCHRAEGEN
100
AcDbSpline
 62
7
  6
CONTINUOUS
 70
0
 71
3
 72
8
 73
4
 74
0
 42
0.0000001
 43
0.0000001
 44
0.0000000001
 40
0.0
 40
0.0
 40
0.0
 40
0.0
 40
1.0
 40
1.0
 40
1.0
 40
1.0
 10
112.1750276199
 20
145.9024158161
 30
0.0
 10
112.4078143733
 20
146.5734426525
 30
0.0
 10
112.5796536573
 20
147.2736624647
 30
0.0
 10
112.9100112831
 20
147.9024156173
 30
0.0
  0
SPLINE
  5
3C2
100
AcDbEntity
  8
AUSFORMSCHRAEGEN
100
AcDbSpline
 62
7
  6
CONTINUOUS
 70
0
 71
3
 72
8
 73
4
 74
0
 42
0.0000001
 43
0.0000001
 44
0.0000000001
 40
0.0
 40
0.0
 40
0.0
 40
0.0
 40
1.0
 40
1.0
 40
1.0
 40
1.0
 10
100.1575981684
 20
151.646861986
 30
0.0
 10
100.0955830755
 20
150.9393163718
 30
0.0
 10
99.8615760777
 20
150.2573506617
 30
0.0
 10
99.6946242582
 20
149.5669929589
 30
0.0
  0
SPLINE
  5
3C3
100
AcDbEntity
  8
AUSFORMSCHRAEGEN
100
AcDbSpline
 62
7
  6
CONTINUOUS
 70
0
 71
3
 72
8
 73
4
 74
0
 42
0.0000001
 43
0.0000001
 44
0.0000000001
 40
0.0
 40
0.0
 40
0.0
 40
0.0
 40
1.0
 40
1.0
 40
1.0
 40
1.0
 10
89.3724708166
 20
156.2006380971
 30
0.0
 10
89.9310879926
 20
156.6392877733
 30
0.0
 10
90.4542158091
 20
157.1354468331
 30
0.0
 10
91.0720599472
 20
157.4857828271
 30
0.0
  0
SPLINE
  5
3C4
100
AcDbEntity
  8
AUSFORMSCHRAEGEN
100
AcDbSpline
 62
7
  6
CONTINUOUS
 70
0
 71
3
 72
8
 73
4
 74
0
 42
0.0000001
 43
0.0000001
 44
0.0000000001
 40
0.0
 40
0.0
 40
0.0
 40
0.0
 40
1.0
 40
1.0
 40
1.0
 40
1.0
 10
82.3684479081
 20
167.5302866141
 30
0.0
 10
81.9337494528
 20
166.9685892571
 30
0.0
 10
81.3681917402
 20
166.5213969288
 30
0.0
 10
80.8545073794
 20
166.0308920405
 30
0.0
  0
SPLINE
  5
3C5
100
AcDbEntity
  8
AUSFORMSCHRAEGEN
100
AcDbSpline
 62
7
  6
CONTINUOUS
 70
0
 71
3
 72
8
 73
4
 74
0
 42
0.0000001
 43
0.0000001
 44
0.0000000001
 40
0.0
 40
0.0
 40
0.0
 40
0.0
 40
1.0
 40
1.0
 40
1.0
 40
1.0
 10
75.7573786605
 20
177.1920469232
 30
0.0
 10
76.4644692529
 20
177.2590512663
 30
0.0
 10
77.1727962162
 20
177.3936225778
 30
0.0
 10
77.8819657184
 20
177.3543122106
 30
0.0
  0
SPLINE
  5
3C6
100
AcDbEntity
  8
AUSFORMSCHRAEGEN
100
AcDbSpline
 62
7
  6
CONTINUOUS
 70
0
 71
3
 72
8
 73
4
 74
0
 42
0.0000001
 43
0.0000001
 44
0.0000000001
 40
0.0
 40
0.0
 40
0.0
 40
0.0
 40
1.0
 40
1.0
 40
1.0
 40
1.0
 10
75.9904900805
 20
190.5098144346
 30
0.0
 10
75.3211219509
 20
190.2723002768
 30
0.0
 10
74.6035741013
 20
190.2018617348
 30
0.0
 10
73.9062483542
 20
190.0669414974
 30
0.0
  0
SPLINE
  5
3C7
100
AcDbEntity
  8
AUSFORMSCHRAEGEN
100
AcDbSpline
 62
7
  6
CONTINUOUS
 70
0
 71
3
 72
8
 73
4
 74
0
 42
0.0000001
 43
0.0000001
 44
0.0000000001
 40
0.0
 40
0.0
 40
0.0
 40
0.0
 40
1.0
 40
1.0
 40
1.0
 40
1.0
 10
75.6524467117
 20
202.2120183102
 30
0.0
 10
76.2835144534
 20
201.8861039147
 30
0.0
 10
76.9521517576
 20
201.6163620374
 30
0.0
 10
77.5274903176
 20
201.1998860728
 30
0.0
  0
ENDSEC
  0
SECTION
  2
OBJECTS
  0
DICTIONARY
  5
C
100
AcDbDictionary
280
0
281
1
  3
ACAD_GROUP
350
D
  3
ACAD_MLINESTYLE
350
17
  3
ACAD_LAYOUT
350
1A
  3
ACAD_PLOTSETTINGS
350
19
  3
ACAD_PLOTSTYLENAME
350
E
  0
DICTIONARY
  5
D
102
{ACAD_REACTORS
330
C
102
}
100
AcDbDictionary
280
0
281
1
  0
ACDBDICTIONARYWDFLT
  5
E
102
{ACAD_REACTORS
330
C
102
}
100
AcDbDictionary
281
1
  3
Normal
350
F
100
AcDbDictionaryWithDefault
340
F
  0
DICTIONARY
  5
17
102
{ACAD_REACTORS
330
C
102
}
100
AcDbDictionary
280
0
281
1
  3
Standard
350
18
  0
DICTIONARY
  5
19
102
{ACAD_REACTORS
330
C
102
}
100
AcDbDictionary
281
1
  0
DICTIONARY
  5
1A
102
{ACAD_REACTORS
330
C
102
}
100
AcDbDictionary
281
1
  3
Model
350
3C8
  3
Layout1
350
3C9
  0
ACDBPLACEHOLDER
  5
F
102
{ACAD_REACTORS
330
E
102
}
  0
MLINESTYLE
  5
18
102
{ACAD_REACTORS
330
17
102
}
100
AcDbMlineStyle
  2
STANDARD
 70
0
  3

 62
256
 51
90.0
 52
90.0
 71
2
 49
0.5
 62
256
  6
BYLAYER
 49
-0.5
 62
256
  6
BYLAYER
  0
LAYOUT
  5
3C8
102
{ACAD_REACTORS
330
1A
102
}
100
AcDbPlotSettings
  1

  2
none_device
  4
ISO_A3_(420.00_x_297.00_MM)
  6

 40
0.0
 41
0.0
 42
0.0
 43
0.0
 44
420.0
 45
297.0
 46
0.0
 47
0.0
 48
0.0
 49
0.0
140
0.0
141
0.0
142
1.0
143
1.0
 70
1024
 72
1
 73
0
 74
0
  7

 75
0
147
1.0
148
0.0
149
0.0
100
AcDbLayout
  1
Model
 70
0
 71
0
 10
0.0
 20
0.0
 11
420.0
 21
297.0
 12
0.0
 22
0.0
 32
0.0
 14
0.0
 24
0.0
 34
0.0
 15
0.0
 25
0.0
 35
0.0
146
0.0
 13
0.0
 23
0.0
 33
0.0
 16
1.0
 26
0.0
 36
0.0
 17
0.0
 27
1.0
 37
0.0
 76
0
330
226
345
0
346
0
  0
LAYOUT
  5
3C9
102
{ACAD_REACTORS
330
1A
102
}
100
AcDbPlotSettings
  1

  2
none_device
  4
ISO_A3_(420.00_x_297.00_MM)
  6

 40
0.0
 41
0.0
 42
0.0
 43
0.0
 44
420.0
 45
297.0
 46
0.0
 47
0.0
 48
0.0
 49
0.0
140
0.0
141
0.0
142
1.0
143
1.0
 70
0
 72
1
 73
0
 74
0
  7

 75
0
147
1.0
148
0.0
149
0.0
100
AcDbLayout
  1
Layout1
 70
0
 71
1
 10
0.0
 20
0.0
 11
420.0
 21
297.0
 12
0.0
 22
0.0
 32
0.0
 14
0.0
 24
0.0
 34
0.0
 15
0.0
 25
0.0
 35
0.0
146
0.0
 13
0.0
 23
0.0
 33
0.0
 16
1.0
 26
0.0
 36
0.0
 17
0.0
 27
1.0
 37
0.0
 76
0
330
227
345
0
346
0
  0
ENDSEC
  0
EOF
