999
DXF file: S:\Prolink\03_Konstruktion\CAD-Plots\Internet\2D_neu\S5\s5-45_ntp_smr_st_w75.dxf
999
Pro/ENGINEER 2012230 by Parametric Technology Corporation
  0
SECTION
  2
HEADER
  9
$ACADVER
  1
AC1021
  9
$DWGCODEPAGE
  3
ANSI_1252
  9
$EXTMAX
 10
297.0
 20
210.0
 30
0.0
  9
$EXTMIN
 10
0.0
 20
0.0
 30
0.0
  9
$LIMMIN
 10
0.0
 20
0.0
  9
$LIMMAX
 10
297.0
 20
210.0
  9
$VIEWCTR
 10
148.5
 20
105.0
  9
$VIEWSIZE
 40
210.0
  9
$CLAYER
  8
0
  9
$LTSCALE
 40
16.335
  9
$CELTYPE
  6
BYLAYER
  9
$DIMSCALE
 40
1.0
  9
$DIMASZ
 40
3.5
  9
$DIMEXO
 40
0.0
  9
$DIMDLI
 40
11.286
  9
$DIMEXE
 40
1.5
  9
$DIMCEN
 40
2.673
  9
$DIMLFAC
 40
1.0
  9
$DIMBLK
  1
_FILLED
  9
$DIMTXT
 40
3.5
  9
$DIMTOL
 70
1
  9
$DIMLIM
 70
0
  9
$DIMTFAC
 40
1.0
  9
$DIMTP
 40
0.005
  9
$DIMTM
 40
0.005
  9
$DIMGAP
 40
0.625
  9
$DIMDSEP
 70
46
  9
$PDMODE
 70
3
  9
$PDSIZE
 40
0.3125
  9
$HANDSEED
  5
3C8
  9
$TILEMODE
 70
1
  9
$MEASUREMENT
 70
1
  9
$INSUNITS
 70
4
  0
ENDSEC
  0
SECTION
  2
CLASSES
  0
CLASS
  1
ACDBDICTIONARYWDFLT
  2
AcDbDictionaryWithDefault
  3
AutoCAD 2000
 90
0
 91
1
280
0
281
0
  0
CLASS
  1
ACDBPLACEHOLDER
  2
AcDbPlaceHolder
  3
AutoCAD 2000
 90
0
 91
1
280
0
281
0
  0
CLASS
  1
LAYOUT
  2
AcDbLayout
  3
AutoCAD 2000
 90
0
 91
0
280
0
281
0
  0
ENDSEC
  0
SECTION
  2
TABLES
  0
TABLE
  2
VPORT
  5
8
100
AcDbSymbolTable
 70
2
  0
VPORT
  5
1F4
100
AcDbSymbolTableRecord
100
AcDbViewportTableRecord
  2
*ACTIVE
 70
0
 10
0.0
 20
0.0
 11
1.0
 21
1.0
 12
148.5
 22
105.0
 13
0.0
 23
0.0
 14
1.0
 24
1.0
 15
0.0
 25
0.0
 16
0.0
 26
0.0
 36
1.0
 17
0.0
 27
0.0
 37
0.0
 40
210.0
 41
1.4142857143
 42
50.0
 43
0.0
 44
0.0
 50
0.0
 51
0.0
 71
0
 72
100
 73
1
 74
1
 75
0
 76
0
 77
0
 78
0
  0
ENDTAB
  0
TABLE
  2
LTYPE
  5
5
100
AcDbSymbolTable
 70
6
  0
LTYPE
  5
14
100
AcDbSymbolTableRecord
100
AcDbLinetypeTableRecord
  2
BYBLOCK
 70
0
  3

 72
65
 73
0
 40
0.0
  0
LTYPE
  5
15
100
AcDbSymbolTableRecord
100
AcDbLinetypeTableRecord
  2
BYLAYER
 70
0
  3

 72
65
 73
0
 40
0.0
  0
LTYPE
  5
16
100
AcDbSymbolTableRecord
100
AcDbLinetypeTableRecord
  2
CONTINUOUS
 70
64
  3
Solid line
 72
65
 73
0
 40
0.0
  0
LTYPE
  5
1F5
100
AcDbSymbolTableRecord
100
AcDbLinetypeTableRecord
  2
CENTER
 70
64
  3
____ _ ____ _ ____ _ ____ _ ____ _ ____ _ ____
 72
65
 73
4
 40
0.6
 49
0.375
 74
0
 49
-0.075
 74
0
 49
0.075
 74
0
 49
-0.075
 74
0
  0
LTYPE
  5
1F6
100
AcDbSymbolTableRecord
100
AcDbLinetypeTableRecord
  2
HIDDEN
 70
64
  3
- - - - - - - - - - - - - - - - - - - -
 72
65
 73
2
 40
0.2
 49
0.1
 74
0
 49
-0.1
 74
0
  0
LTYPE
  5
1F7
100
AcDbSymbolTableRecord
100
AcDbLinetypeTableRecord
  2
PHANTOM
 70
64
  3
_____ _ _ _____ _ _ _____ _ _ _____
 72
65
 73
6
 40
0.8
 49
0.45
 74
0
 49
-0.05
 74
0
 49
0.1
 74
0
 49
-0.05
 74
0
 49
0.1
 74
0
 49
-0.05
 74
0
  0
LTYPE
  5
1F8
100
AcDbSymbolTableRecord
100
AcDbLinetypeTableRecord
  2
DOT
 70
64
  3
. . . . . . . . . . . . . . . . . . . .
 72
65
 73
2
 40
0.2
 49
0.1
 74
0
 49
-0.1
 74
0
  0
LTYPE
  5
1F9
100
AcDbSymbolTableRecord
100
AcDbLinetypeTableRecord
  2
DASHED
 70
64
  3
- - - - - - - - - - - - - - - - - - - -
 72
65
 73
2
 40
0.2
 49
0.1
 74
0
 49
-0.1
 74
0
  0
ENDTAB
  0
TABLE
  2
LAYER
  5
2
100
AcDbSymbolTable
 70
36
  0
LAYER
  5
10
100
AcDbSymbolTableRecord
100
AcDbLayerTableRecord
  2
0
 70
0
 62
7
  6
CONTINUOUS
370
-3
390
F
  0
LAYER
  5
1FA
100
AcDbSymbolTableRecord
100
AcDbLayerTableRecord
  2
DEFAULT_1
 70
0
 62
7
  6
CENTER
370
-3
390
F
  0
LAYER
  5
1FB
100
AcDbSymbolTableRecord
100
AcDbLayerTableRecord
  2
DEFAULT_2
 70
0
 62
8
  6
HIDDEN
370
-3
390
F
  0
LAYER
  5
1FC
100
AcDbSymbolTableRecord
100
AcDbLayerTableRecord
  2
DEFAULT_3
 70
0
 62
7
  6
PHANTOM
370
-3
390
F
  0
LAYER
  5
1FD
100
AcDbSymbolTableRecord
100
AcDbLayerTableRecord
  2
01___PRT_ALL_DTM_PLN
 70
0
 62
7
  6
CONTINUOUS
370
-3
390
F
  0
LAYER
  5
1FE
100
AcDbSymbolTableRecord
100
AcDbLayerTableRecord
  2
01___PRT_DEF_DTM_PLN
 70
0
 62
7
  6
CONTINUOUS
370
-3
390
F
  0
LAYER
  5
1FF
100
AcDbSymbolTableRecord
100
AcDbLayerTableRecord
  2
02___PRT_ALL_AXES
 70
0
 62
7
  6
CONTINUOUS
370
-3
390
F
  0
LAYER
  5
200
100
AcDbSymbolTableRecord
100
AcDbLayerTableRecord
  2
03___PRT_ALL_CURVES
 70
0
 62
7
  6
CONTINUOUS
370
-3
390
F
  0
LAYER
  5
201
100
AcDbSymbolTableRecord
100
AcDbLayerTableRecord
  2
04___PRT_ALL_DTM_PNT
 70
0
 62
7
  6
CONTINUOUS
370
-3
390
F
  0
LAYER
  5
202
100
AcDbSymbolTableRecord
100
AcDbLayerTableRecord
  2
05___PRT_ALL_DTM_CSYS
 70
0
 62
7
  6
CONTINUOUS
370
-3
390
F
  0
LAYER
  5
203
100
AcDbSymbolTableRecord
100
AcDbLayerTableRecord
  2
05___PRT_DEF_DTM_CSYS
 70
0
 62
7
  6
CONTINUOUS
370
-3
390
F
  0
LAYER
  5
204
100
AcDbSymbolTableRecord
100
AcDbLayerTableRecord
  2
06___PRT_ALL_SURFS
 70
0
 62
7
  6
CONTINUOUS
370
-3
390
F
  0
LAYER
  5
205
100
AcDbSymbolTableRecord
100
AcDbLayerTableRecord
  2
AUSFORMSCHRAEGEN
 70
0
 62
7
  6
CONTINUOUS
370
-3
390
F
  0
LAYER
  5
206
100
AcDbSymbolTableRecord
100
AcDbLayerTableRecord
  2
BEZUGSACHSEN
 70
0
 62
7
  6
CONTINUOUS
370
-3
390
F
  0
LAYER
  5
207
100
AcDbSymbolTableRecord
100
AcDbLayerTableRecord
  2
BEZUGSEBENE
 70
0
 62
7
  6
CONTINUOUS
370
-3
390
F
  0
LAYER
  5
208
100
AcDbSymbolTableRecord
100
AcDbLayerTableRecord
  2
BEZUGSEBENEN
 70
0
 62
7
  6
CONTINUOUS
370
-3
390
F
  0
LAYER
  5
209
100
AcDbSymbolTableRecord
100
AcDbLayerTableRecord
  2
BEZUGSEBENEN-KES
 70
0
 62
7
  6
CONTINUOUS
370
-3
390
F
  0
LAYER
  5
20A
100
AcDbSymbolTableRecord
100
AcDbLayerTableRecord
  2
KURVEN
 70
0
 62
7
  6
CONTINUOUS
370
-3
390
F
  0
LAYER
  5
20B
100
AcDbSymbolTableRecord
100
AcDbLayerTableRecord
  2
RUNDUNGEN
 70
0
 62
7
  6
CONTINUOUS
370
-3
390
F
  0
LAYER
  5
20C
100
AcDbSymbolTableRecord
100
AcDbLayerTableRecord
  2
ZEICHNUNGSBEMASSUNGEN
 70
0
 62
7
  6
CONTINUOUS
370
-3
390
F
  0
LAYER
  5
20D
100
AcDbSymbolTableRecord
100
AcDbLayerTableRecord
  2
ZEICHNUNGSNOTIZEN
 70
0
 62
7
  6
CONTINUOUS
370
-3
390
F
  0
ENDTAB
  0
TABLE
  2
STYLE
  5
3
100
AcDbSymbolTable
 70
1
  0
STYLE
  5
11
100
AcDbSymbolTableRecord
100
AcDbTextStyleTableRecord
  2
STANDARD
 70
0
 40
0.0
 41
0.7
 50
0.0
 71
0
 42
0.2
  3
txt
  4

  0
STYLE
  5
20E
100
AcDbSymbolTableRecord
100
AcDbTextStyleTableRecord
  2
TEXTSTYLE_1
 70
0
 40
0.0
 41
0.8
 50
0.0
 71
0
 42
0.2
  3
gdt
  4

  0
ENDTAB
  0
TABLE
  2
VIEW
  5
6
100
AcDbSymbolTable
 70
0
  0
ENDTAB
  0
TABLE
  2
UCS
  5
7
100
AcDbSymbolTable
 70
0
  0
ENDTAB
  0
TABLE
  2
APPID
  5
9
100
AcDbSymbolTable
 70
1
  0
APPID
  5
20F
100
AcDbSymbolTableRecord
100
AcDbRegAppTableRecord
  2
ACAD
 70
0
  0
ENDTAB
  0
TABLE
  2
BLOCK_RECORD
  5
1
100
AcDbSymbolTable
 70
0
  0
BLOCK_RECORD
  5
210
100
AcDbSymbolTableRecord
100
AcDbBlockTableRecord
  2
*Model_Space
  0
BLOCK_RECORD
  5
211
100
AcDbSymbolTableRecord
100
AcDbBlockTableRecord
  2
*Paper_Space
  0
ENDTAB
  0
TABLE
  2
DIMSTYLE
  5
A
100
AcDbSymbolTable
 70
1
100
AcDbDimStyleTable
 71
0
  0
DIMSTYLE
105
212
100
AcDbSymbolTableRecord
100
AcDbDimStyleTableRecord
  2
STANDARD
 70
0
  3

  4

 40
1.0
 41
3.5
 42
0.0
 43
0.38
 44
1.5
 45
0.0
 46
0.0
 47
0.005
 48
0.005
140
3.5
141
0.09
142
0.0
143
25.4
144
1.0
145
0.0
146
1.0
147
0.625
 71
1.0
 72
0.0
 73
0
 74
0
 75
0
 76
0
 77
1
 78
8
170
0
171
2
172
0
173
0
174
0
175
0
176
0
177
0
178
5
270
2
271
3
272
3
273
2
274
2
275
0
280
0
281
0
282
0
283
1
284
8
285
0
286
0
287
3
288
0
340
11
278
46
  0
ENDTAB
  0
ENDSEC
  0
SECTION
  2
BLOCKS
  0
BLOCK
  5
20
100
AcDbEntity
  8
0
100
AcDbBlockBegin
  2
*Model_Space
 70
0
 10
0.0
 20
0.0
 30
0.0
  3
*Model_Space
  1

  0
ENDBLK
  5
21
100
AcDbEntity
  8
0
100
AcDbBlockEnd
  0
BLOCK
  5
1C
100
AcDbEntity
  8
0
100
AcDbBlockBegin
  2
*Paper_Space
 70
0
 10
0.0
 20
0.0
 30
0.0
  3
*Paper_Space
  1

  0
ENDBLK
  5
1D
100
AcDbEntity
  8
0
100
AcDbBlockEnd
  0
ENDSEC
  0
SECTION
  2
ENTITIES
  0
LINE
  5
213
100
AcDbEntity
  8
0
100
AcDbLine
 62
7
  6
CONTINUOUS
 10
0.0
 20
0.0
 11
0.0
 21
210.0
  0
LINE
  5
214
100
AcDbEntity
  8
0
100
AcDbLine
 62
7
  6
CONTINUOUS
 10
0.0
 20
0.0
 11
297.0
 21
0.0
  0
LINE
  5
215
100
AcDbEntity
  8
0
100
AcDbLine
 62
7
  6
CONTINUOUS
 10
0.0
 20
210.0
 11
297.0
 21
210.0
  0
LINE
  5
216
100
AcDbEntity
  8
0
100
AcDbLine
 62
7
  6
CONTINUOUS
 10
297.0
 20
0.0
 11
297.0
 21
210.0
  0
LINE
  5
217
100
AcDbEntity
  8
RUNDUNGEN
100
AcDbLine
 62
7
  6
CONTINUOUS
 10
66.7016809964
 20
157.4238792597
 11
66.7016809964
 21
147.4238792597
  0
LINE
  5
218
100
AcDbEntity
  8
RUNDUNGEN
100
AcDbLine
 62
7
  6
CONTINUOUS
 10
67.7016809964
 20
158.4238792597
 11
67.7016809964
 21
146.4238792597
  0
LINE
  5
219
100
AcDbEntity
  8
0
100
AcDbLine
 62
7
  6
CONTINUOUS
 10
68.7016809964
 20
158.4238792597
 11
68.7016809964
 21
156.0033185207
  0
LINE
  5
21A
100
AcDbEntity
  8
RUNDUNGEN
100
AcDbLine
 62
7
  6
CONTINUOUS
 10
68.9016809964
 20
156.3238792597
 11
68.9016809964
 21
156.0033185207
  0
LINE
  5
21B
100
AcDbEntity
  8
RUNDUNGEN
100
AcDbLine
 62
7
  6
CONTINUOUS
 10
68.9516809964
 20
156.3238792597
 11
68.9516809964
 21
156.1238792597
  0
LINE
  5
21C
100
AcDbEntity
  8
RUNDUNGEN
100
AcDbLine
 62
7
  6
CONTINUOUS
 10
72.5516809964
 20
156.3238792597
 11
72.5516809964
 21
156.1238792597
  0
LINE
  5
21D
100
AcDbEntity
  8
RUNDUNGEN
100
AcDbLine
 62
7
  6
CONTINUOUS
 10
72.6016809964
 20
156.0033185207
 11
72.6016809964
 21
156.3238792597
  0
LINE
  5
21E
100
AcDbEntity
  8
0
100
AcDbLine
 62
7
  6
CONTINUOUS
 10
72.8016809964
 20
158.4238792597
 11
72.8016809964
 21
156.0033185207
  0
LINE
  5
21F
100
AcDbEntity
  8
RUNDUNGEN
100
AcDbLine
 62
7
  6
CONTINUOUS
 10
77.0014734582
 20
155.4238792597
 11
77.0014734582
 21
149.4238792597
  0
LINE
  5
220
100
AcDbEntity
  8
RUNDUNGEN
100
AcDbLine
 62
7
  6
CONTINUOUS
 10
77.941166079
 20
155.4238792597
 11
77.941166079
 21
149.4238792597
  0
LINE
  5
221
100
AcDbEntity
  8
RUNDUNGEN
100
AcDbLine
 62
7
  6
CONTINUOUS
 10
85.5940262194
 20
146.9238792597
 11
85.5940262194
 21
157.9238792597
  0
LINE
  5
222
100
AcDbEntity
  8
RUNDUNGEN
100
AcDbLine
 62
7
  6
CONTINUOUS
 10
87.473411461
 20
147.4238792597
 11
87.473411461
 21
157.4238792597
  0
LINE
  5
223
100
AcDbEntity
  8
RUNDUNGEN
100
AcDbLine
 62
7
  6
CONTINUOUS
 10
96.073411461
 20
147.4238792597
 11
96.073411461
 21
157.4238792597
  0
LINE
  5
224
100
AcDbEntity
  8
RUNDUNGEN
100
AcDbLine
 62
7
  6
CONTINUOUS
 10
97.9277791701
 20
146.9238792597
 11
97.9277791701
 21
157.9238792597
  0
LINE
  5
225
100
AcDbEntity
  8
0
100
AcDbLine
 62
7
  6
CONTINUOUS
 10
107.8855159018
 20
146.4238792597
 11
118.7016809964
 21
146.4238792597
  0
LINE
  5
226
100
AcDbEntity
  8
RUNDUNGEN
100
AcDbLine
 62
7
  6
CONTINUOUS
 10
67.7016809964
 20
146.4238792597
 11
139.7017319147
 21
146.4238792597
  0
LINE
  5
227
100
AcDbEntity
  8
0
100
AcDbLine
 62
7
  6
CONTINUOUS
 10
138.7016809964
 20
146.4238792597
 11
141.7016809964
 21
146.4238792597
  0
LINE
  5
228
100
AcDbEntity
  8
RUNDUNGEN
100
AcDbLine
 62
7
  6
CONTINUOUS
 10
126.6039389213
 20
146.9238792597
 11
119.2016809964
 21
146.9238792597
  0
LINE
  5
229
100
AcDbEntity
  8
RUNDUNGEN
100
AcDbLine
 62
7
  6
CONTINUOUS
 10
97.564123446
 20
146.9238792597
 11
108.3491108017
 21
146.9238791465
  0
LINE
  5
22A
100
AcDbEntity
  8
RUNDUNGEN
100
AcDbLine
 62
7
  6
CONTINUOUS
 10
131.7994230716
 20
146.9238792597
 11
139.2016809964
 21
146.9238792597
  0
LINE
  5
22B
100
AcDbEntity
  8
RUNDUNGEN
100
AcDbLine
 62
7
  6
CONTINUOUS
 10
77.6217585459
 20
146.9238763253
 11
85.982699476
 21
146.9238792597
  0
LINE
  5
22C
100
AcDbEntity
  8
RUNDUNGEN
100
AcDbLine
 62
7
  6
CONTINUOUS
 10
87.473411461
 20
147.4238792597
 11
96.073411461
 21
147.4238792597
  0
LINE
  5
22D
100
AcDbEntity
  8
RUNDUNGEN
100
AcDbLine
 62
7
  6
CONTINUOUS
 10
66.7016809964
 20
149.4238792597
 11
77.941166079
 21
149.4238792597
  0
LINE
  5
22E
100
AcDbEntity
  8
0
100
AcDbLine
 62
7
  6
CONTINUOUS
 10
122.7016809964
 20
149.6738792597
 11
122.2161094113
 21
149.6738792597
  0
LINE
  5
22F
100
AcDbEntity
  8
0
100
AcDbLine
 62
7
  6
CONTINUOUS
 10
83.7981824204
 20
149.6738792597
 11
81.0684056634
 21
149.6738792597
  0
LINE
  5
230
100
AcDbEntity
  8
0
100
AcDbLine
 62
7
  6
CONTINUOUS
 10
99.9475924061
 20
149.6738792597
 11
102.9777890999
 21
149.6738792597
  0
LINE
  5
231
100
AcDbEntity
  8
0
100
AcDbLine
 62
7
  6
CONTINUOUS
 10
135.7016809964
 20
149.6738792597
 11
136.1872525816
 21
149.6738792597
  0
LINE
  5
232
100
AcDbEntity
  8
0
100
AcDbLine
 62
7
  6
CONTINUOUS
 10
122.7016809964
 20
155.1738792597
 11
122.2161094113
 21
155.1738792597
  0
LINE
  5
233
100
AcDbEntity
  8
0
100
AcDbLine
 62
7
  6
CONTINUOUS
 10
102.9777890999
 20
155.1738792597
 11
99.9475924061
 21
155.1738792597
  0
LINE
  5
234
100
AcDbEntity
  8
0
100
AcDbLine
 62
7
  6
CONTINUOUS
 10
81.0684056634
 20
155.1738792597
 11
83.7981824204
 21
155.1738792597
  0
LINE
  5
235
100
AcDbEntity
  8
0
100
AcDbLine
 62
7
  6
CONTINUOUS
 10
135.7016809964
 20
155.1738792597
 11
136.1872525816
 21
155.1738792597
  0
LINE
  5
236
100
AcDbEntity
  8
RUNDUNGEN
100
AcDbLine
 62
7
  6
CONTINUOUS
 10
66.7016809964
 20
155.4238792597
 11
77.941166079
 21
155.4238792597
  0
LINE
  5
237
100
AcDbEntity
  8
0
100
AcDbLine
 62
7
  6
CONTINUOUS
 10
68.7016809964
 20
156.0033185207
 11
72.8016809964
 21
156.0033185207
  0
LINE
  5
238
100
AcDbEntity
  8
RUNDUNGEN
100
AcDbLine
 62
7
  6
CONTINUOUS
 10
68.7016809964
 20
156.1238792597
 11
68.9516809964
 21
156.1238792597
  0
LINE
  5
239
100
AcDbEntity
  8
RUNDUNGEN
100
AcDbLine
 62
7
  6
CONTINUOUS
 10
72.5516809964
 20
156.1238792597
 11
72.8016809964
 21
156.1238792597
  0
LINE
  5
23A
100
AcDbEntity
  8
RUNDUNGEN
100
AcDbLine
 62
7
  6
CONTINUOUS
 10
68.9016809964
 20
156.3238792597
 11
68.9516809964
 21
156.3238792597
  0
LINE
  5
23B
100
AcDbEntity
  8
RUNDUNGEN
100
AcDbLine
 62
7
  6
CONTINUOUS
 10
72.5516809964
 20
156.3238792597
 11
72.6016809964
 21
156.3238792597
  0
LINE
  5
23C
100
AcDbEntity
  8
RUNDUNGEN
100
AcDbLine
 62
7
  6
CONTINUOUS
 10
87.473411461
 20
157.4238792597
 11
96.073411461
 21
157.4238792597
  0
LINE
  5
23D
100
AcDbEntity
  8
RUNDUNGEN
100
AcDbLine
 62
7
  6
CONTINUOUS
 10
119.2016809964
 20
157.9238792597
 11
126.6039389213
 21
157.9238792597
  0
LINE
  5
23E
100
AcDbEntity
  8
RUNDUNGEN
100
AcDbLine
 62
7
  6
CONTINUOUS
 10
131.7994230716
 20
157.9238792597
 11
139.2016809964
 21
157.9238792597
  0
LINE
  5
23F
100
AcDbEntity
  8
RUNDUNGEN
100
AcDbLine
 62
7
  6
CONTINUOUS
 10
108.3491142458
 20
157.9238794372
 11
97.564123446
 21
157.9238792597
  0
LINE
  5
240
100
AcDbEntity
  8
RUNDUNGEN
100
AcDbLine
 62
7
  6
CONTINUOUS
 10
85.982699476
 20
157.9238792597
 11
77.6217705224
 21
157.9238782072
  0
LINE
  5
241
100
AcDbEntity
  8
RUNDUNGEN
100
AcDbLine
 62
7
  6
CONTINUOUS
 10
67.7016809964
 20
158.4238792597
 11
68.7016809964
 21
158.4238792597
  0
LINE
  5
242
100
AcDbEntity
  8
0
100
AcDbLine
 62
7
  6
CONTINUOUS
 10
67.7016809964
 20
158.4238792597
 11
68.7016809964
 21
158.4238792597
  0
LINE
  5
243
100
AcDbEntity
  8
0
100
AcDbLine
 62
7
  6
CONTINUOUS
 10
72.8016809964
 20
158.4238792597
 11
75.5455065101
 21
158.4238792597
  0
LINE
  5
244
100
AcDbEntity
  8
0
100
AcDbLine
 62
7
  6
CONTINUOUS
 10
86.3553774722
 20
158.4238792597
 11
97.1914454497
 21
158.4238792597
  0
LINE
  5
245
100
AcDbEntity
  8
0
100
AcDbLine
 62
7
  6
CONTINUOUS
 10
107.8855157321
 20
158.4238792597
 11
118.7016809964
 21
158.4238792597
  0
LINE
  5
246
100
AcDbEntity
  8
RUNDUNGEN
100
AcDbLine
 62
7
  6
CONTINUOUS
 10
72.8016809964
 20
158.4238792597
 11
138.7640946117
 21
158.4238792597
  0
LINE
  5
247
100
AcDbEntity
  8
0
100
AcDbLine
 62
7
  6
CONTINUOUS
 10
139.0191809964
 20
158.4238792597
 11
141.7016809964
 21
158.4238792596
  0
LINE
  5
248
100
AcDbEntity
  8
RUNDUNGEN
100
AcDbLine
 62
7
  6
CONTINUOUS
 10
139.0191809964
 20
158.4238792597
 11
139.7016809964
 21
158.4238792597
  0
LINE
  5
249
100
AcDbEntity
  8
02___PRT_ALL_AXES
100
AcDbLine
 62
7
  6
CONTINUOUS
 10
119.3841809964
 20
160.4238792597
 11
121.8841809964
 21
160.4238792597
  0
LINE
  5
24A
100
AcDbEntity
  8
02___PRT_ALL_AXES
100
AcDbLine
 62
7
  6
CONTINUOUS
 10
123.4161809964
 20
160.4238792597
 11
126.1266809964
 21
160.4238792597
  0
LINE
  5
24B
100
AcDbEntity
  8
02___PRT_ALL_AXES
100
AcDbLine
 62
7
  6
CONTINUOUS
 10
132.2766809964
 20
160.4238792597
 11
134.9871809964
 21
160.4238792597
  0
LINE
  5
24C
100
AcDbEntity
  8
02___PRT_ALL_AXES
100
AcDbLine
 62
7
  6
CONTINUOUS
 10
136.5191809964
 20
160.4238792597
 11
139.0191809964
 21
160.4238792597
  0
LINE
  5
24D
100
AcDbEntity
  8
RUNDUNGEN
100
AcDbLine
 62
7
  6
CONTINUOUS
 10
118.7016809964
 20
146.4238792597
 11
118.7016809964
 21
150.116186952
  0
LINE
  5
24E
100
AcDbEntity
  8
RUNDUNGEN
100
AcDbLine
 62
7
  6
CONTINUOUS
 10
118.7016809964
 20
154.7315715674
 11
118.7016809964
 21
158.4238792597
  0
LINE
  5
24F
100
AcDbEntity
  8
RUNDUNGEN
100
AcDbLine
 62
7
  6
CONTINUOUS
 10
119.2016809964
 20
146.4238792597
 11
119.2016809964
 21
149.9238792597
  0
LINE
  5
250
100
AcDbEntity
  8
RUNDUNGEN
100
AcDbLine
 62
7
  6
CONTINUOUS
 10
119.2016809964
 20
154.9238792597
 11
119.2016809964
 21
158.4238792597
  0
LINE
  5
251
100
AcDbEntity
  8
02___PRT_ALL_AXES
100
AcDbLine
 62
7
  6
CONTINUOUS
 10
119.3841809964
 20
158.4238792597
 11
119.3841809964
 21
160.4238792597
  0
LINE
  5
252
100
AcDbEntity
  8
RUNDUNGEN
100
AcDbLine
 62
7
  6
CONTINUOUS
 10
121.8841809964
 20
160.4238792597
 11
121.8841809964
 21
158.4238792597
  0
LINE
  5
253
100
AcDbEntity
  8
02___PRT_ALL_AXES
100
AcDbLine
 62
7
  6
CONTINUOUS
 10
121.8841809964
 20
158.4238792597
 11
121.8841809964
 21
160.4238792597
  0
LINE
  5
254
100
AcDbEntity
  8
0
100
AcDbLine
 62
7
  6
CONTINUOUS
 10
122.7016809964
 20
146.9238792597
 11
122.7016809964
 21
149.6738792597
  0
LINE
  5
255
100
AcDbEntity
  8
0
100
AcDbLine
 62
7
  6
CONTINUOUS
 10
122.7016809964
 20
155.1738792597
 11
122.7016809964
 21
157.9238792597
  0
LINE
  5
256
100
AcDbEntity
  8
02___PRT_ALL_AXES
100
AcDbLine
 62
7
  6
CONTINUOUS
 10
123.4161809964
 20
158.4238792597
 11
123.4161809964
 21
160.4238792597
  0
LINE
  5
257
100
AcDbEntity
  8
02___PRT_ALL_AXES
100
AcDbLine
 62
7
  6
CONTINUOUS
 10
123.6266809964
 20
158.4238792597
 11
123.6266809964
 21
160.4238792597
  0
LINE
  5
258
100
AcDbEntity
  8
02___PRT_ALL_AXES
100
AcDbLine
 62
7
  6
CONTINUOUS
 10
126.1266809964
 20
158.4238792597
 11
126.1266809964
 21
160.4238792597
  0
LINE
  5
259
100
AcDbEntity
  8
02___PRT_ALL_AXES
100
AcDbLine
 62
7
  6
CONTINUOUS
 10
132.2766809964
 20
158.4238792597
 11
132.2766809964
 21
160.4238792597
  0
LINE
  5
25A
100
AcDbEntity
  8
02___PRT_ALL_AXES
100
AcDbLine
 62
7
  6
CONTINUOUS
 10
134.7766809964
 20
158.4238792597
 11
134.7766809964
 21
160.4238792597
  0
LINE
  5
25B
100
AcDbEntity
  8
02___PRT_ALL_AXES
100
AcDbLine
 62
7
  6
CONTINUOUS
 10
134.9871809964
 20
158.4238792597
 11
134.9871809964
 21
160.4238792597
  0
LINE
  5
25C
100
AcDbEntity
  8
0
100
AcDbLine
 62
7
  6
CONTINUOUS
 10
135.7016809964
 20
146.9238792597
 11
135.7016809964
 21
149.6738792597
  0
LINE
  5
25D
100
AcDbEntity
  8
0
100
AcDbLine
 62
7
  6
CONTINUOUS
 10
135.7016809964
 20
155.1738792597
 11
135.7016809964
 21
157.9238792597
  0
LINE
  5
25E
100
AcDbEntity
  8
RUNDUNGEN
100
AcDbLine
 62
7
  6
CONTINUOUS
 10
136.5191809964
 20
160.4238792597
 11
136.5191809964
 21
158.4238792597
  0
LINE
  5
25F
100
AcDbEntity
  8
02___PRT_ALL_AXES
100
AcDbLine
 62
7
  6
CONTINUOUS
 10
136.5191809964
 20
158.4238792597
 11
136.5191809964
 21
160.4238792597
  0
LINE
  5
260
100
AcDbEntity
  8
02___PRT_ALL_AXES
100
AcDbLine
 62
7
  6
CONTINUOUS
 10
139.0191809964
 20
158.418030191
 11
139.0191809964
 21
160.4238792597
  0
LINE
  5
261
100
AcDbEntity
  8
RUNDUNGEN
100
AcDbLine
 62
7
  6
CONTINUOUS
 10
139.0191809964
 20
158.418030191
 11
139.0191809964
 21
160.4238792597
  0
LINE
  5
262
100
AcDbEntity
  8
RUNDUNGEN
100
AcDbLine
 62
7
  6
CONTINUOUS
 10
139.2016809964
 20
146.9238792597
 11
139.2016809964
 21
149.9238792597
  0
LINE
  5
263
100
AcDbEntity
  8
RUNDUNGEN
100
AcDbLine
 62
7
  6
CONTINUOUS
 10
139.2016809964
 20
154.9238792597
 11
139.2016809964
 21
157.9238792597
  0
LINE
  5
264
100
AcDbEntity
  8
RUNDUNGEN
100
AcDbLine
 62
7
  6
CONTINUOUS
 10
139.7016809964
 20
158.4238792597
 11
139.7016809964
 21
154.7315715674
  0
LINE
  5
265
100
AcDbEntity
  8
RUNDUNGEN
100
AcDbLine
 62
7
  6
CONTINUOUS
 10
139.7016809964
 20
150.116186952
 11
139.7016809964
 21
146.4238792597
  0
LINE
  5
266
100
AcDbEntity
  8
0
100
AcDbLine
 62
7
  6
CONTINUOUS
 10
141.7016809964
 20
158.4238820438
 11
141.7016809964
 21
146.4238776761
  0
LINE
  5
267
100
AcDbEntity
  8
RUNDUNGEN
100
AcDbLine
 62
7
  6
CONTINUOUS
 10
207.4341727464
 20
149.4238792597
 11
207.4341727464
 21
155.4238792597
  0
LINE
  5
268
100
AcDbEntity
  8
RUNDUNGEN
100
AcDbLine
 62
7
  6
CONTINUOUS
 10
208.4341727464
 20
149.4238792597
 11
208.4341727464
 21
155.4238792597
  0
LINE
  5
269
100
AcDbEntity
  8
RUNDUNGEN
100
AcDbLine
 62
7
  6
CONTINUOUS
 10
210.4341727464
 20
158.4238792597
 11
210.4341727464
 21
157.4238792597
  0
LINE
  5
26A
100
AcDbEntity
  8
RUNDUNGEN
100
AcDbLine
 62
7
  6
CONTINUOUS
 10
210.4341727464
 20
146.4238792597
 11
210.4341727464
 21
147.4238792597
  0
LINE
  5
26B
100
AcDbEntity
  8
02___PRT_ALL_AXES
100
AcDbLine
 62
7
  6
CONTINUOUS
 10
216.1841727464
 20
158.4238792597
 11
216.1841727464
 21
160.4238792597
  0
LINE
  5
26C
100
AcDbEntity
  8
02___PRT_ALL_AXES
100
AcDbLine
 62
7
  6
CONTINUOUS
 10
218.6841727464
 20
158.4238792597
 11
218.6841727464
 21
160.4238792597
  0
LINE
  5
26D
100
AcDbEntity
  8
RUNDUNGEN
100
AcDbLine
 62
7
  6
CONTINUOUS
 10
210.4341727464
 20
146.4238792597
 11
245.4341727512
 21
146.4238792597
  0
LINE
  5
26E
100
AcDbEntity
  8
RUNDUNGEN
100
AcDbLine
 62
7
  6
CONTINUOUS
 10
220.4341727464
 20
158.4238792597
 11
220.4341727464
 21
157.4238792597
  0
LINE
  5
26F
100
AcDbEntity
  8
RUNDUNGEN
100
AcDbLine
 62
7
  6
CONTINUOUS
 10
220.4341727464
 20
146.4238792597
 11
220.4341727464
 21
147.4238792597
  0
LINE
  5
270
100
AcDbEntity
  8
RUNDUNGEN
100
AcDbLine
 62
7
  6
CONTINUOUS
 10
223.2145876182
 20
146.9238763253
 11
245.7675060798
 21
146.9238792597
  0
LINE
  5
271
100
AcDbEntity
  8
RUNDUNGEN
100
AcDbLine
 62
7
  6
CONTINUOUS
 10
220.4341727464
 20
147.4238792597
 11
210.4341727464
 21
147.4238792597
  0
LINE
  5
272
100
AcDbEntity
  8
RUNDUNGEN
100
AcDbLine
 62
7
  6
CONTINUOUS
 10
222.4341727464
 20
155.4238792597
 11
222.4341727464
 21
149.4238792597
  0
LINE
  5
273
100
AcDbEntity
  8
RUNDUNGEN
100
AcDbLine
 62
7
  6
CONTINUOUS
 10
207.4341727464
 20
149.4238792597
 11
208.4341727464
 21
149.4238792597
  0
LINE
  5
274
100
AcDbEntity
  8
RUNDUNGEN
100
AcDbLine
 62
7
  6
CONTINUOUS
 10
222.4341727464
 20
149.4238792597
 11
224.0921526031
 21
149.4238792597
  0
LINE
  5
275
100
AcDbEntity
  8
RUNDUNGEN
100
AcDbLine
 62
7
  6
CONTINUOUS
 10
223.4341727464
 20
155.4238792597
 11
223.4341727464
 21
149.4238792597
  0
LINE
  5
276
100
AcDbEntity
  8
RUNDUNGEN
100
AcDbLine
 62
7
  6
CONTINUOUS
 10
224.0921526031
 20
155.4238792597
 11
224.0921526031
 21
149.4238792597
  0
LINE
  5
277
100
AcDbEntity
  8
0
100
AcDbLine
 62
7
  6
CONTINUOUS
 10
240.1841727464
 20
149.6738792597
 11
232.6841727464
 21
149.6738792597
  0
LINE
  5
278
100
AcDbEntity
  8
0
100
AcDbLine
 62
7
  6
CONTINUOUS
 10
232.6841727464
 20
155.1738792597
 11
240.1841727464
 21
155.1738792597
  0
LINE
  5
279
100
AcDbEntity
  8
RUNDUNGEN
100
AcDbLine
 62
7
  6
CONTINUOUS
 10
207.4341727464
 20
155.4238792597
 11
208.4341727464
 21
155.4238792597
  0
LINE
  5
27A
100
AcDbEntity
  8
RUNDUNGEN
100
AcDbLine
 62
7
  6
CONTINUOUS
 10
222.4341727464
 20
155.4238792597
 11
224.0921526031
 21
155.4238792597
  0
LINE
  5
27B
100
AcDbEntity
  8
02___PRT_ALL_AXES
100
AcDbLine
 62
7
  6
CONTINUOUS
 10
230.3111727464
 20
158.4238792597
 11
230.3111727464
 21
160.4238792597
  0
LINE
  5
27C
100
AcDbEntity
  8
RUNDUNGEN
100
AcDbLine
 62
7
  6
CONTINUOUS
 10
210.4341727464
 20
157.4238792597
 11
220.4341727464
 21
157.4238792597
  0
LINE
  5
27D
100
AcDbEntity
  8
RUNDUNGEN
100
AcDbLine
 62
7
  6
CONTINUOUS
 10
245.7675060798
 20
157.9238792597
 11
223.2146205236
 21
157.9238782072
  0
LINE
  5
27E
100
AcDbEntity
  8
RUNDUNGEN
100
AcDbLine
 62
7
  6
CONTINUOUS
 10
210.4341727464
 20
158.4238792597
 11
245.4341727464
 21
158.4238792597
  0
LINE
  5
27F
100
AcDbEntity
  8
02___PRT_ALL_AXES
100
AcDbLine
 62
7
  6
CONTINUOUS
 10
232.8111727464
 20
158.4238792597
 11
232.8111727464
 21
160.4238792597
  0
LINE
  5
280
100
AcDbEntity
  8
02___PRT_ALL_AXES
100
AcDbLine
 62
7
  6
CONTINUOUS
 10
216.1846033131
 20
160.4238792597
 11
218.6837421798
 21
160.4238792597
  0
LINE
  5
281
100
AcDbEntity
  8
02___PRT_ALL_AXES
100
AcDbLine
 62
7
  6
CONTINUOUS
 10
230.3116033131
 20
160.4238792597
 11
232.8107421798
 21
160.4238792597
  0
LINE
  5
282
100
AcDbEntity
  8
02___PRT_ALL_AXES
100
AcDbLine
 62
7
  6
CONTINUOUS
 10
240.3906033131
 20
160.4238792597
 11
242.8897421798
 21
160.4238792597
  0
LINE
  5
283
100
AcDbEntity
  8
02___PRT_ALL_AXES
100
AcDbLine
 62
7
  6
CONTINUOUS
 10
240.3901727464
 20
158.4238792597
 11
240.3901727464
 21
160.4238792597
  0
LINE
  5
284
100
AcDbEntity
  8
02___PRT_ALL_AXES
100
AcDbLine
 62
7
  6
CONTINUOUS
 10
242.8901727464
 20
158.4238792597
 11
242.8901727464
 21
160.4238792597
  0
LINE
  5
285
100
AcDbEntity
  8
RUNDUNGEN
100
AcDbLine
 62
7
  6
CONTINUOUS
 10
245.1182130331
 20
146.9238792597
 11
245.1182130331
 21
157.9238792597
  0
LINE
  5
286
100
AcDbEntity
  8
RUNDUNGEN
100
AcDbLine
 62
7
  6
CONTINUOUS
 10
246.4341727464
 20
147.4238792597
 11
246.4341727464
 21
157.4238792597
  0
LINE
  5
287
100
AcDbEntity
  8
RUNDUNGEN
100
AcDbLine
 62
7
  6
CONTINUOUS
 10
66.7016809964
 20
95.1537358568
 11
66.7016809964
 21
81.1537358568
  0
LINE
  5
288
100
AcDbEntity
  8
RUNDUNGEN
100
AcDbLine
 62
7
  6
CONTINUOUS
 10
67.7016809964
 20
96.1537358568
 11
67.7016809964
 21
80.1537358568
  0
LINE
  5
289
100
AcDbEntity
  8
0
100
AcDbLine
 62
7
  6
CONTINUOUS
 10
68.7016809964
 20
80.2102260228
 11
68.7016809964
 21
96.0972456908
  0
LINE
  5
28A
100
AcDbEntity
  8
RUNDUNGEN
100
AcDbLine
 62
7
  6
CONTINUOUS
 10
68.9016809964
 20
93.6537358568
 11
68.9016809964
 21
82.6537358568
  0
LINE
  5
28B
100
AcDbEntity
  8
RUNDUNGEN
100
AcDbLine
 62
7
  6
CONTINUOUS
 10
68.9516809964
 20
82.6537358568
 11
68.9516809964
 21
93.6537358568
  0
LINE
  5
28C
100
AcDbEntity
  8
RUNDUNGEN
100
AcDbLine
 62
7
  6
CONTINUOUS
 10
69.2516809964
 20
93.9221398855
 11
69.2516809964
 21
93.6537358568
  0
LINE
  5
28D
100
AcDbEntity
  8
RUNDUNGEN
100
AcDbLine
 62
7
  6
CONTINUOUS
 10
69.2516809964
 20
82.6537358568
 11
69.2516809963
 21
82.3853318282
  0
LINE
  5
28E
100
AcDbEntity
  8
RUNDUNGEN
100
AcDbLine
 62
7
  6
CONTINUOUS
 10
69.4516809964
 20
93.4537358568
 11
69.4516809964
 21
82.8537358568
  0
LINE
  5
28F
100
AcDbEntity
  8
RUNDUNGEN
100
AcDbLine
 62
7
  6
CONTINUOUS
 10
69.6516809964
 20
82.6549331756
 11
69.6516809964
 21
93.6525400038
  0
LINE
  5
290
100
AcDbEntity
  8
RUNDUNGEN
100
AcDbLine
 62
7
  6
CONTINUOUS
 10
71.8516809964
 20
82.6549318701
 11
71.8516809964
 21
93.6525385488
  0
LINE
  5
291
100
AcDbEntity
  8
RUNDUNGEN
100
AcDbLine
 62
7
  6
CONTINUOUS
 10
72.0516809964
 20
82.8537358568
 11
72.0516809964
 21
93.4537358568
  0
LINE
  5
292
100
AcDbEntity
  8
RUNDUNGEN
100
AcDbLine
 62
7
  6
CONTINUOUS
 10
72.2516809964
 20
93.9221398855
 11
72.2516809964
 21
93.6537358568
  0
LINE
  5
293
100
AcDbEntity
  8
RUNDUNGEN
100
AcDbLine
 62
7
  6
CONTINUOUS
 10
72.2516809964
 20
82.6537358568
 11
72.2516809964
 21
82.3853318282
  0
LINE
  5
294
100
AcDbEntity
  8
RUNDUNGEN
100
AcDbLine
 62
7
  6
CONTINUOUS
 10
72.5516809964
 20
82.6537358568
 11
72.5516809964
 21
93.6537358568
  0
LINE
  5
295
100
AcDbEntity
  8
RUNDUNGEN
100
AcDbLine
 62
7
  6
CONTINUOUS
 10
72.6016809964
 20
82.6537358568
 11
72.6016809964
 21
93.6537358568
  0
LINE
  5
296
100
AcDbEntity
  8
0
100
AcDbLine
 62
7
  6
CONTINUOUS
 10
72.8016809964
 20
80.2102260228
 11
72.8016809964
 21
96.0972456908
  0
LINE
  5
297
100
AcDbEntity
  8
RUNDUNGEN
100
AcDbLine
 62
7
  6
CONTINUOUS
 10
78.3754730473
 20
93.1537358568
 11
78.8453193576
 21
93.3247459285
  0
LINE
  5
298
100
AcDbEntity
  8
RUNDUNGEN
100
AcDbLine
 62
7
  6
CONTINUOUS
 10
85.5940262194
 20
58.4696955702
 11
77.6217705224
 21
80.3732880797
  0
LINE
  5
299
100
AcDbEntity
  8
RUNDUNGEN
100
AcDbLine
 62
7
  6
CONTINUOUS
 10
86.0638725298
 20
58.6407056418
 11
78.0916162172
 21
80.5442888547
  0
LINE
  5
29A
100
AcDbEntity
  8
RUNDUNGEN
100
AcDbLine
 62
7
  6
CONTINUOUS
 10
87.473411461
 20
57.1537358568
 11
96.073411461
 21
57.1537358568
  0
LINE
  5
29B
100
AcDbEntity
  8
RUNDUNGEN
100
AcDbLine
 62
7
  6
CONTINUOUS
 10
87.223411461
 20
73.6537358568
 11
87.2234114613
 21
74.1537358568
  0
LINE
  5
29C
100
AcDbEntity
  8
RUNDUNGEN
100
AcDbLine
 62
7
  6
CONTINUOUS
 10
86.3553774722
 20
58.1537358568
 11
97.1914454497
 21
58.1537358568
  0
LINE
  5
29D
100
AcDbEntity
  8
RUNDUNGEN
100
AcDbLine
 62
7
  6
CONTINUOUS
 10
126.8037835327
 20
58.1537256867
 11
131.5995168478
 21
58.1536914258
  0
LINE
  5
29E
100
AcDbEntity
  8
RUNDUNGEN
100
AcDbLine
 62
7
  6
CONTINUOUS
 10
97.9277791701
 20
58.40452267
 11
97.4641872428
 21
58.5918259667
  0
LINE
  5
29F
100
AcDbEntity
  8
RUNDUNGEN
100
AcDbLine
 62
7
  6
CONTINUOUS
 10
97.5641234458
 20
57.8204025233
 11
97.1914454519
 21
58.1537358622
  0
LINE
  5
2A0
100
AcDbEntity
  8
RUNDUNGEN
100
AcDbLine
 62
7
  6
CONTINUOUS
 10
84.874179909
 20
75.2986854985
 11
78.3754730473
 21
93.1537358568
  0
LINE
  5
2A1
100
AcDbEntity
  8
RUNDUNGEN
100
AcDbLine
 62
7
  6
CONTINUOUS
 10
85.3440262194
 20
75.4696955702
 11
77.935393772
 21
95.8247459285
  0
LINE
  5
2A2
100
AcDbEntity
  8
RUNDUNGEN
100
AcDbLine
 62
7
  6
CONTINUOUS
 10
77.6217737459
 20
80.3732792232
 11
78.0916162168
 21
80.5442888542
  0
LINE
  5
2A3
100
AcDbEntity
  8
RUNDUNGEN
100
AcDbLine
 62
7
  6
CONTINUOUS
 10
132.2016809964
 20
63.1537358568
 11
131.7016809964
 21
63.1537358661
  0
LINE
  5
2A4
100
AcDbEntity
  8
RUNDUNGEN
100
AcDbLine
 62
7
  6
CONTINUOUS
 10
126.2016809964
 20
63.1537358568
 11
126.7016809964
 21
63.1537358568
  0
LINE
  5
2A5
100
AcDbEntity
  8
RUNDUNGEN
100
AcDbLine
 62
7
  6
CONTINUOUS
 10
135.7016809964
 20
63.6537358568
 11
135.2016809964
 21
63.6537358568
  0
LINE
  5
2A6
100
AcDbEntity
  8
RUNDUNGEN
100
AcDbLine
 62
7
  6
CONTINUOUS
 10
123.2016809964
 20
63.6537358568
 11
122.7016809964
 21
63.6537358595
  0
LINE
  5
2A7
100
AcDbEntity
  8
RUNDUNGEN
100
AcDbLine
 62
7
  6
CONTINUOUS
 10
96.173411461
 20
73.6537358568
 11
96.173411461
 21
74.1537358568
  0
LINE
  5
2A8
100
AcDbEntity
  8
RUNDUNGEN
100
AcDbLine
 62
7
  6
CONTINUOUS
 10
84.874179909
 20
75.2986854985
 11
85.3440262194
 21
75.4696955702
  0
LINE
  5
2A9
100
AcDbEntity
  8
RUNDUNGEN
100
AcDbLine
 62
7
  6
CONTINUOUS
 10
132.2016809964
 20
71.1537358568
 11
131.7016809964
 21
71.1537358568
  0
LINE
  5
2AA
100
AcDbEntity
  8
RUNDUNGEN
100
AcDbLine
 62
7
  6
CONTINUOUS
 10
126.2016809964
 20
71.1537358568
 11
126.7016809964
 21
71.1537358476
  0
LINE
  5
2AB
100
AcDbEntity
  8
RUNDUNGEN
100
AcDbLine
 62
7
  6
CONTINUOUS
 10
105.4766149392
 20
93.8410381553
 11
98.0277791701
 21
75.40452267
  0
LINE
  5
2AC
100
AcDbEntity
  8
RUNDUNGEN
100
AcDbLine
 62
7
  6
CONTINUOUS
 10
103.7180630277
 20
88.1537358568
 11
98.4913710974
 21
75.2172193733
  0
LINE
  5
2AD
100
AcDbEntity
  8
RUNDUNGEN
100
AcDbLine
 62
7
  6
CONTINUOUS
 10
122.1394384206
 20
88.3247459285
 11
121.6695921102
 21
88.1537358568
  0
LINE
  5
2AE
100
AcDbEntity
  8
RUNDUNGEN
100
AcDbLine
 62
7
  6
CONTINUOUS
 10
96.173411461
 20
73.6537358568
 11
87.223411461
 21
73.6537358568
  0
LINE
  5
2AF
100
AcDbEntity
  8
RUNDUNGEN
100
AcDbLine
 62
7
  6
CONTINUOUS
 10
96.173411461
 20
74.1537358568
 11
87.223411461
 21
74.1537358568
  0
LINE
  5
2B0
100
AcDbEntity
  8
RUNDUNGEN
100
AcDbLine
 62
7
  6
CONTINUOUS
 10
98.4913710974
 20
75.2172193733
 11
98.02777917
 21
75.4045226698
  0
LINE
  5
2B1
100
AcDbEntity
  8
RUNDUNGEN
100
AcDbLine
 62
7
  6
CONTINUOUS
 10
107.8855153771
 20
84.3855192492
 11
97.4641872428
 21
58.5918259667
  0
LINE
  5
2B2
100
AcDbEntity
  8
RUNDUNGEN
100
AcDbLine
 62
7
  6
CONTINUOUS
 10
108.3491142458
 20
84.198232111
 11
97.9277791701
 21
58.40452267
  0
LINE
  5
2B3
100
AcDbEntity
  8
RUNDUNGEN
100
AcDbLine
 62
7
  6
CONTINUOUS
 10
85.9826994763
 20
57.8204025231
 11
86.3553774722
 21
58.1537358568
  0
LINE
  5
2B4
100
AcDbEntity
  8
RUNDUNGEN
100
AcDbLine
 62
7
  6
CONTINUOUS
 10
67.7016809964
 20
80.1537358568
 11
77.0014734582
 21
80.1537358568
  0
LINE
  5
2B5
100
AcDbEntity
  8
0
100
AcDbLine
 62
7
  6
CONTINUOUS
 10
68.7016809964
 20
80.2102260228
 11
72.8016809964
 21
80.2102260228
  0
LINE
  5
2B6
100
AcDbEntity
  8
RUNDUNGEN
100
AcDbLine
 62
7
  6
CONTINUOUS
 10
121.7016809964
 20
81.1537358568
 11
122.2016809964
 21
81.1537358568
  0
LINE
  5
2B7
100
AcDbEntity
  8
RUNDUNGEN
100
AcDbLine
 62
7
  6
CONTINUOUS
 10
136.7016809964
 20
81.1537358568
 11
136.2016809964
 21
81.1537358602
  0
LINE
  5
2B8
100
AcDbEntity
  8
0
100
AcDbLine
 62
7
  6
CONTINUOUS
 10
108.1976079935
 20
82.1537358568
 11
118.8180173863
 21
82.1537358568
  0
LINE
  5
2B9
100
AcDbEntity
  8
0
100
AcDbLine
 62
7
  6
CONTINUOUS
 10
139.5853575331
 20
82.1537358568
 11
141.7016809964
 21
82.1537358568
  0
LINE
  5
2BA
100
AcDbEntity
  8
RUNDUNGEN
100
AcDbLine
 62
7
  6
CONTINUOUS
 10
72.8016809964
 20
82.3853318282
 11
72.2516809964
 21
82.3853318282
  0
LINE
  5
2BB
100
AcDbEntity
  8
RUNDUNGEN
100
AcDbLine
 62
7
  6
CONTINUOUS
 10
69.2516809964
 20
82.3853318282
 11
68.7016809964
 21
82.3853318282
  0
LINE
  5
2BC
100
AcDbEntity
  8
RUNDUNGEN
100
AcDbLine
 62
7
  6
CONTINUOUS
 10
68.9016809964
 20
82.6537358568
 11
69.2516809964
 21
82.6537358568
  0
LINE
  5
2BD
100
AcDbEntity
  8
RUNDUNGEN
100
AcDbLine
 62
7
  6
CONTINUOUS
 10
69.6516809964
 20
82.6537358568
 11
71.8516809964
 21
82.6537358568
  0
LINE
  5
2BE
100
AcDbEntity
  8
RUNDUNGEN
100
AcDbLine
 62
7
  6
CONTINUOUS
 10
72.2516809964
 20
82.6537358568
 11
72.6016809964
 21
82.6537358568
  0
LINE
  5
2BF
100
AcDbEntity
  8
RUNDUNGEN
100
AcDbLine
 62
7
  6
CONTINUOUS
 10
68.7016809964
 20
82.8537358568
 11
72.8016809964
 21
82.8537358568
  0
LINE
  5
2C0
100
AcDbEntity
  8
RUNDUNGEN
100
AcDbLine
 62
7
  6
CONTINUOUS
 10
67.7016809964
 20
83.1537358568
 11
66.7016809964
 21
83.1537358568
  0
LINE
  5
2C1
100
AcDbEntity
  8
0
100
AcDbLine
 62
7
  6
CONTINUOUS
 10
67.7016809964
 20
83.1537358568
 11
68.7016809964
 21
83.1537358568
  0
LINE
  5
2C2
100
AcDbEntity
  8
0
100
AcDbLine
 62
7
  6
CONTINUOUS
 10
72.8016809964
 20
83.1537358568
 11
75.5455065101
 21
83.1538143196
  0
LINE
  5
2C3
100
AcDbEntity
  8
RUNDUNGEN
100
AcDbLine
 62
7
  6
CONTINUOUS
 10
138.7016809964
 20
84.6896342417
 11
139.2016809964
 21
84.6896342417
  0
LINE
  5
2C4
100
AcDbEntity
  8
RUNDUNGEN
100
AcDbLine
 62
7
  6
CONTINUOUS
 10
108.3491077507
 20
84.1982160351
 11
107.8855153771
 21
84.3855192492
  0
LINE
  5
2C5
100
AcDbEntity
  8
RUNDUNGEN
100
AcDbLine
 62
7
  6
CONTINUOUS
 10
85.5940262194
 20
58.4696955702
 11
86.0638725298
 21
58.6407056418
  0
LINE
  5
2C6
100
AcDbEntity
  8
RUNDUNGEN
100
AcDbLine
 62
7
  6
CONTINUOUS
 10
103.7180630277
 20
88.1537358568
 11
111.0257752564
 21
88.1537358568
  0
LINE
  5
2C7
100
AcDbEntity
  8
RUNDUNGEN
100
AcDbLine
 62
7
  6
CONTINUOUS
 10
118.7016809964
 20
88.1537358568
 11
121.6695921102
 21
88.1537358568
  0
LINE
  5
2C8
100
AcDbEntity
  8
RUNDUNGEN
100
AcDbLine
 62
7
  6
CONTINUOUS
 10
136.7337698827
 20
88.1537358568
 11
139.7016809964
 21
88.1537358568
  0
LINE
  5
2C9
100
AcDbEntity
  8
RUNDUNGEN
100
AcDbLine
 62
7
  6
CONTINUOUS
 10
103.7180630277
 20
88.1537358568
 11
103.2544711004
 21
88.3410391535
  0
LINE
  5
2CA
100
AcDbEntity
  8
RUNDUNGEN
100
AcDbLine
 62
7
  6
CONTINUOUS
 10
118.7016809964
 20
82.6152743184
 11
118.7016809964
 21
88.1537358568
  0
LINE
  5
2CB
100
AcDbEntity
  8
RUNDUNGEN
100
AcDbLine
 62
7
  6
CONTINUOUS
 10
119.2016809964
 20
82.1537358568
 11
119.2016809964
 21
85.6537358568
  0
LINE
  5
2CC
100
AcDbEntity
  8
0
100
AcDbLine
 62
7
  6
CONTINUOUS
 10
78.3754730473
 20
93.1537358568
 11
72.8016809964
 21
93.1537358568
  0
LINE
  5
2CD
100
AcDbEntity
  8
0
100
AcDbLine
 62
7
  6
CONTINUOUS
 10
68.7016809964
 20
93.1537358568
 11
67.7016809964
 21
93.1537358568
  0
LINE
  5
2CE
100
AcDbEntity
  8
RUNDUNGEN
100
AcDbLine
 62
7
  6
CONTINUOUS
 10
67.7016809964
 20
93.1537358568
 11
66.7016809964
 21
93.1537358568
  0
LINE
  5
2CF
100
AcDbEntity
  8
RUNDUNGEN
100
AcDbLine
 62
7
  6
CONTINUOUS
 10
68.7016809964
 20
93.4537358568
 11
72.8016809964
 21
93.4537358568
  0
LINE
  5
2D0
100
AcDbEntity
  8
RUNDUNGEN
100
AcDbLine
 62
7
  6
CONTINUOUS
 10
72.6016809964
 20
93.6537358568
 11
72.2516809964
 21
93.6537358568
  0
LINE
  5
2D1
100
AcDbEntity
  8
RUNDUNGEN
100
AcDbLine
 62
7
  6
CONTINUOUS
 10
69.2516809964
 20
93.6537358568
 11
68.9016809964
 21
93.6537358568
  0
LINE
  5
2D2
100
AcDbEntity
  8
RUNDUNGEN
100
AcDbLine
 62
7
  6
CONTINUOUS
 10
69.6516809964
 20
93.6537358568
 11
71.8516809964
 21
93.6537358568
  0
LINE
  5
2D3
100
AcDbEntity
  8
RUNDUNGEN
100
AcDbLine
 62
7
  6
CONTINUOUS
 10
72.8016809964
 20
93.9221398855
 11
72.2516809964
 21
93.9221398855
  0
LINE
  5
2D4
100
AcDbEntity
  8
RUNDUNGEN
100
AcDbLine
 62
7
  6
CONTINUOUS
 10
69.2516809964
 20
93.9221398855
 11
68.7016809964
 21
93.9221398855
  0
LINE
  5
2D5
100
AcDbEntity
  8
RUNDUNGEN
100
AcDbLine
 62
7
  6
CONTINUOUS
 10
138.9758529152
 20
85.8274800057
 11
139.2806541328
 21
85.7522205275
  0
LINE
  5
2D6
100
AcDbEntity
  8
RUNDUNGEN
100
AcDbLine
 62
7
  6
CONTINUOUS
 10
119.2016809964
 20
82.1537358568
 11
122.7016809964
 21
69.0915580303
  0
LINE
  5
2D7
100
AcDbEntity
  8
RUNDUNGEN
100
AcDbLine
 62
7
  6
CONTINUOUS
 10
119.2016809964
 20
84.0855875094
 11
123.2016809964
 21
69.1573842791
  0
LINE
  5
2D8
100
AcDbEntity
  8
RUNDUNGEN
100
AcDbLine
 62
7
  6
CONTINUOUS
 10
121.7016809964
 20
81.1537358568
 11
121.7016809964
 21
85.5033946003
  0
LINE
  5
2D9
100
AcDbEntity
  8
RUNDUNGEN
100
AcDbLine
 62
7
  6
CONTINUOUS
 10
121.7016809964
 20
86.8040771134
 11
121.7016809964
 21
88.0655723665
  0
LINE
  5
2DA
100
AcDbEntity
  8
RUNDUNGEN
100
AcDbLine
 62
7
  6
CONTINUOUS
 10
122.2016809964
 20
88.1537358568
 11
122.2016809964
 21
81.1537358568
  0
LINE
  5
2DB
100
AcDbEntity
  8
RUNDUNGEN
100
AcDbLine
 62
7
  6
CONTINUOUS
 10
122.7016809964
 20
69.0915580303
 11
122.7016809964
 21
63.6537358568
  0
LINE
  5
2DC
100
AcDbEntity
  8
RUNDUNGEN
100
AcDbLine
 62
7
  6
CONTINUOUS
 10
123.2016809964
 20
69.1573842791
 11
123.2016809964
 21
63.6537358568
  0
LINE
  5
2DD
100
AcDbEntity
  8
0
100
AcDbLine
 62
7
  6
CONTINUOUS
 10
105.940046752
 20
94.1537358568
 11
119.6761636912
 21
94.1537358568
  0
LINE
  5
2DE
100
AcDbEntity
  8
0
100
AcDbLine
 62
7
  6
CONTINUOUS
 10
138.727195766
 20
94.1537358568
 11
141.7016809964
 21
94.1537358568
  0
LINE
  5
2DF
100
AcDbEntity
  8
0
100
AcDbLine
 62
7
  6
CONTINUOUS
 10
72.8016809964
 20
96.0972456908
 11
68.7016809964
 21
96.0972456908
  0
LINE
  5
2E0
100
AcDbEntity
  8
RUNDUNGEN
100
AcDbLine
 62
7
  6
CONTINUOUS
 10
77.4655474616
 20
96.1537358568
 11
67.7016809964
 21
96.1537358568
  0
LINE
  5
2E1
100
AcDbEntity
  8
RUNDUNGEN
100
AcDbLine
 62
7
  6
CONTINUOUS
 10
131.7994230741
 20
57.6954025246
 11
131.5995967614
 21
58.1537358618
  0
LINE
  5
2E2
100
AcDbEntity
  8
RUNDUNGEN
100
AcDbLine
 62
7
  6
CONTINUOUS
 10
126.2016809964
 20
63.1537358568
 11
126.2016809964
 21
71.1537358568
  0
LINE
  5
2E3
100
AcDbEntity
  8
RUNDUNGEN
100
AcDbLine
 62
7
  6
CONTINUOUS
 10
126.7016809964
 20
63.1537358568
 11
126.7016809964
 21
71.1537358568
  0
LINE
  5
2E4
100
AcDbEntity
  8
RUNDUNGEN
100
AcDbLine
 62
7
  6
CONTINUOUS
 10
136.2639235723
 20
88.3247459285
 11
136.7337698827
 21
88.1537358568
  0
LINE
  5
2E5
100
AcDbEntity
  8
RUNDUNGEN
100
AcDbLine
 62
7
  6
CONTINUOUS
 10
121.6695921102
 20
88.1537358568
 11
121.7016809964
 21
88.0655723665
  0
LINE
  5
2E6
100
AcDbEntity
  8
RUNDUNGEN
100
AcDbLine
 62
7
  6
CONTINUOUS
 10
120.1384805056
 20
93.8223326171
 11
122.2016809964
 21
88.1537358568
  0
LINE
  5
2E7
100
AcDbEntity
  8
RUNDUNGEN
100
AcDbLine
 62
7
  6
CONTINUOUS
 10
131.7016809964
 20
71.1537358568
 11
131.7016809964
 21
63.1537358568
  0
LINE
  5
2E8
100
AcDbEntity
  8
RUNDUNGEN
100
AcDbLine
 62
7
  6
CONTINUOUS
 10
132.2016809964
 20
71.1537358568
 11
132.2016809964
 21
63.1537358568
  0
LINE
  5
2E9
100
AcDbEntity
  8
RUNDUNGEN
100
AcDbLine
 62
7
  6
CONTINUOUS
 10
136.2016809964
 20
88.1537358568
 11
138.2648798699
 21
93.8223281735
  0
LINE
  5
2EA
100
AcDbEntity
  8
RUNDUNGEN
100
AcDbLine
 62
7
  6
CONTINUOUS
 10
136.7016809964
 20
88.0655723665
 11
136.7337698827
 21
88.1537358568
  0
LINE
  5
2EB
100
AcDbEntity
  8
RUNDUNGEN
100
AcDbLine
 62
7
  6
CONTINUOUS
 10
126.8037652348
 20
58.1537358568
 11
126.6039389255
 21
57.6954025217
  0
LINE
  5
2EC
100
AcDbEntity
  8
RUNDUNGEN
100
AcDbLine
 62
7
  6
CONTINUOUS
 10
135.2016809964
 20
69.1573842791
 11
135.2016809964
 21
63.6537358568
  0
LINE
  5
2ED
100
AcDbEntity
  8
RUNDUNGEN
100
AcDbLine
 62
7
  6
CONTINUOUS
 10
135.7016809964
 20
69.0915580303
 11
135.7016809964
 21
63.6537358568
  0
LINE
  5
2EE
100
AcDbEntity
  8
RUNDUNGEN
100
AcDbLine
 62
7
  6
CONTINUOUS
 10
136.2016809964
 20
81.1537358568
 11
136.2016809964
 21
88.1537358568
  0
LINE
  5
2EF
100
AcDbEntity
  8
RUNDUNGEN
100
AcDbLine
 62
7
  6
CONTINUOUS
 10
136.7016809964
 20
88.0655723665
 11
136.7016809964
 21
86.8040771134
  0
LINE
  5
2F0
100
AcDbEntity
  8
RUNDUNGEN
100
AcDbLine
 62
7
  6
CONTINUOUS
 10
136.7016809964
 20
85.5033946003
 11
136.7016809964
 21
81.1537358568
  0
LINE
  5
2F1
100
AcDbEntity
  8
RUNDUNGEN
100
AcDbLine
 62
7
  6
CONTINUOUS
 10
135.2016809964
 20
69.1573842791
 11
138.7016809964
 21
82.2195621056
  0
LINE
  5
2F2
100
AcDbEntity
  8
RUNDUNGEN
100
AcDbLine
 62
7
  6
CONTINUOUS
 10
135.7016809964
 20
69.0915580303
 11
139.2016809964
 21
82.1537358568
  0
LINE
  5
2F3
100
AcDbEntity
  8
RUNDUNGEN
100
AcDbLine
 62
7
  6
CONTINUOUS
 10
138.7016809964
 20
82.2195621056
 11
138.7016809964
 21
84.6896342417
  0
LINE
  5
2F4
100
AcDbEntity
  8
RUNDUNGEN
100
AcDbLine
 62
7
  6
CONTINUOUS
 10
139.2016809964
 20
82.1537358568
 11
139.2016809964
 21
84.6896341791
  0
LINE
  5
2F5
100
AcDbEntity
  8
RUNDUNGEN
100
AcDbLine
 62
7
  6
CONTINUOUS
 10
139.7016809964
 20
88.1537358568
 11
139.7016809964
 21
82.6152743184
  0
LINE
  5
2F6
100
AcDbEntity
  8
0
100
AcDbLine
 62
7
  6
CONTINUOUS
 10
141.7016809964
 20
94.153466268
 11
141.7016809964
 21
82.1540054503
  0
ARC
  5
2F7
100
AcDbEntity
  8
RUNDUNGEN
100
AcDbCircle
 62
7
  6
CONTINUOUS
 10
67.7016809964
 20
147.4238792597
 40
1.0
100
AcDbArc
 50
180.0
 51
270.0
  0
ARC
  5
2F8
100
AcDbEntity
  8
RUNDUNGEN
100
AcDbCircle
 62
7
  6
CONTINUOUS
 10
67.7016809964
 20
157.4238792597
 40
1.0
100
AcDbArc
 50
90.0
 51
180.0
  0
ARC
  5
2F9
100
AcDbEntity
  8
RUNDUNGEN
100
AcDbCircle
 62
7
  6
CONTINUOUS
 10
68.9516809964
 20
155.8238792597
 40
0.5
100
AcDbArc
 50
21.0724161889
 51
90.0
  0
ARC
  5
2FA
100
AcDbEntity
  8
RUNDUNGEN
100
AcDbCircle
 62
7
  6
CONTINUOUS
 10
72.5516809964
 20
155.8238792597
 40
0.5
100
AcDbArc
 50
90.0
 51
158.9275888236
  0
ARC
  5
2FB
100
AcDbEntity
  8
RUNDUNGEN
100
AcDbCircle
 62
7
  6
CONTINUOUS
 10
68.9516809964
 20
155.8238792597
 40
0.3
100
AcDbArc
 50
36.9661103733
 51
90.0
  0
ARC
  5
2FC
100
AcDbEntity
  8
RUNDUNGEN
100
AcDbCircle
 62
7
  6
CONTINUOUS
 10
72.5516809964
 20
155.8238792597
 40
0.3
100
AcDbArc
 50
90.0
 51
143.0352658943
  0
ARC
  5
2FD
100
AcDbEntity
  8
RUNDUNGEN
100
AcDbCircle
 62
7
  6
CONTINUOUS
 10
68.9016809964
 20
156.5238792597
 40
0.2
100
AcDbArc
 50
180.0
 51
270.0
  0
ARC
  5
2FE
100
AcDbEntity
  8
RUNDUNGEN
100
AcDbCircle
 62
7
  6
CONTINUOUS
 10
72.6016809964
 20
156.5238792597
 40
0.2
100
AcDbArc
 50
270.0
 51
360.0
  0
ARC
  5
2FF
100
AcDbEntity
  8
RUNDUNGEN
100
AcDbCircle
 62
7
  6
CONTINUOUS
 10
123.2016809964
 20
146.9238792597
 40
0.5
100
AcDbArc
 50
180.0
 51
270.0
  0
ARC
  5
300
100
AcDbEntity
  8
RUNDUNGEN
100
AcDbCircle
 62
7
  6
CONTINUOUS
 10
135.2016809964
 20
146.9238792597
 40
0.5
100
AcDbArc
 50
270.0
 51
360.0
  0
ARC
  5
301
100
AcDbEntity
  8
RUNDUNGEN
100
AcDbCircle
 62
7
  6
CONTINUOUS
 10
138.7016809964
 20
146.9238792597
 40
0.5
100
AcDbArc
 50
270.0
 51
360.0
  0
ARC
  5
302
100
AcDbEntity
  8
RUNDUNGEN
100
AcDbCircle
 62
7
  6
CONTINUOUS
 10
123.2016809964
 20
157.9238792597
 40
0.5
100
AcDbArc
 50
90.0
 51
180.0
  0
ARC
  5
303
100
AcDbEntity
  8
RUNDUNGEN
100
AcDbCircle
 62
7
  6
CONTINUOUS
 10
135.2016809964
 20
157.9238792597
 40
0.5
100
AcDbArc
 50
0.0
 51
90.0
  0
ARC
  5
304
100
AcDbEntity
  8
RUNDUNGEN
100
AcDbCircle
 62
7
  6
CONTINUOUS
 10
138.7016809964
 20
157.9238792597
 40
0.5
100
AcDbArc
 50
0.0
 51
90.0
  0
ARC
  5
305
100
AcDbEntity
  8
RUNDUNGEN
100
AcDbCircle
 62
7
  6
CONTINUOUS
 10
220.0920707429
 20
149.4239849755
 40
4.0000818616
100
AcDbArc
 50
321.3167577176
 51
359.9984857631
  0
ARC
  5
306
100
AcDbEntity
  8
RUNDUNGEN
100
AcDbCircle
 62
7
  6
CONTINUOUS
 10
220.4341727464
 20
149.4238792597
 40
3.0
100
AcDbArc
 50
270.0
 51
360.0
  0
ARC
  5
307
100
AcDbEntity
  8
RUNDUNGEN
100
AcDbCircle
 62
7
  6
CONTINUOUS
 10
210.4341727464
 20
149.4238792597
 40
3.0
100
AcDbArc
 50
180.0
 51
270.0
  0
ARC
  5
308
100
AcDbEntity
  8
RUNDUNGEN
100
AcDbCircle
 62
7
  6
CONTINUOUS
 10
220.4341727464
 20
149.4238792597
 40
2.0
100
AcDbArc
 50
270.0
 51
360.0
  0
ARC
  5
309
100
AcDbEntity
  8
RUNDUNGEN
100
AcDbCircle
 62
7
  6
CONTINUOUS
 10
210.4341727464
 20
149.4238792597
 40
2.0
100
AcDbArc
 50
180.0
 51
270.0
  0
ARC
  5
30A
100
AcDbEntity
  8
RUNDUNGEN
100
AcDbCircle
 62
7
  6
CONTINUOUS
 10
220.0923764331
 20
155.4239179573
 40
3.9997761702
100
AcDbArc
 50
359.9994456666
 51
38.6840251467
  0
ARC
  5
30B
100
AcDbEntity
  8
RUNDUNGEN
100
AcDbCircle
 62
7
  6
CONTINUOUS
 10
220.4341727464
 20
155.4238792597
 40
3.0
100
AcDbArc
 50
0.0
 51
90.0
  0
ARC
  5
30C
100
AcDbEntity
  8
RUNDUNGEN
100
AcDbCircle
 62
7
  6
CONTINUOUS
 10
210.4341727464
 20
155.4238792597
 40
3.0
100
AcDbArc
 50
90.0
 51
180.0
  0
CIRCLE
  5
30D
100
AcDbEntity
  8
0
100
AcDbCircle
 62
7
  6
CONTINUOUS
 10
215.4341727464
 20
152.4238792597
 40
2.7
  0
ARC
  5
30E
100
AcDbEntity
  8
RUNDUNGEN
100
AcDbCircle
 62
7
  6
CONTINUOUS
 10
220.4341727464
 20
155.4238792597
 40
2.0
100
AcDbArc
 50
0.0
 51
90.0
  0
ARC
  5
30F
100
AcDbEntity
  8
RUNDUNGEN
100
AcDbCircle
 62
7
  6
CONTINUOUS
 10
210.4341727464
 20
155.4238792597
 40
2.0
100
AcDbArc
 50
90.0
 51
180.0
  0
ARC
  5
310
100
AcDbEntity
  8
RUNDUNGEN
100
AcDbCircle
 62
7
  6
CONTINUOUS
 10
245.4341727464
 20
147.4238792597
 40
1.0
100
AcDbArc
 50
270.0
 51
360.0
  0
ARC
  5
311
100
AcDbEntity
  8
0
100
AcDbCircle
 62
7
  6
CONTINUOUS
 10
240.1841727464
 20
152.4238792597
 40
2.75
100
AcDbArc
 50
270.0
 51
90.0
  0
ARC
  5
312
100
AcDbEntity
  8
0
100
AcDbCircle
 62
7
  6
CONTINUOUS
 10
232.6841727464
 20
152.4238792597
 40
2.75
100
AcDbArc
 50
90.0
 51
270.0
  0
ARC
  5
313
100
AcDbEntity
  8
RUNDUNGEN
100
AcDbCircle
 62
7
  6
CONTINUOUS
 10
245.4341727464
 20
157.4238792597
 40
1.0
100
AcDbArc
 50
0.0
 51
90.0
  0
ARC
  5
314
100
AcDbEntity
  8
RUNDUNGEN
100
AcDbCircle
 62
7
  6
CONTINUOUS
 10
87.473411461
 20
59.1537358568
 40
2.0
100
AcDbArc
 50
199.9999998349
 51
270.0
  0
ARC
  5
315
100
AcDbEntity
  8
RUNDUNGEN
100
AcDbCircle
 62
7
  6
CONTINUOUS
 10
87.473411461
 20
59.1537358568
 40
1.5
100
AcDbArc
 50
200.0
 51
221.8103148958
  0
ARC
  5
316
100
AcDbEntity
  8
RUNDUNGEN
100
AcDbCircle
 62
7
  6
CONTINUOUS
 10
87.223411461
 20
76.1537358568
 40
2.5
100
AcDbArc
 50
200.0
 51
270.0
  0
ARC
  5
317
100
AcDbEntity
  8
RUNDUNGEN
100
AcDbCircle
 62
7
  6
CONTINUOUS
 10
87.223411461
 20
76.1537358568
 40
2.0
100
AcDbArc
 50
200.0
 51
270.0
  0
ARC
  5
318
100
AcDbEntity
  8
RUNDUNGEN
100
AcDbCircle
 62
7
  6
CONTINUOUS
 10
96.073411461
 20
59.1537358568
 40
2.0
100
AcDbArc
 50
270.0
 51
338.00000011
  0
ARC
  5
319
100
AcDbEntity
  8
RUNDUNGEN
100
AcDbCircle
 62
7
  6
CONTINUOUS
 10
96.073411461
 20
59.1537358568
 40
1.5
100
AcDbArc
 50
318.1896851042
 51
338.0
  0
ARC
  5
31A
100
AcDbEntity
  8
RUNDUNGEN
100
AcDbCircle
 62
7
  6
CONTINUOUS
 10
96.173411461
 20
76.1537358568
 40
2.5
100
AcDbArc
 50
270.0
 51
338.0
  0
ARC
  5
31B
100
AcDbEntity
  8
RUNDUNGEN
100
AcDbCircle
 62
7
  6
CONTINUOUS
 10
96.173411461
 20
76.1537358568
 40
2.0
100
AcDbArc
 50
270.0
 51
338.0
  0
ARC
  5
31C
100
AcDbEntity
  8
RUNDUNGEN
100
AcDbCircle
 62
7
  6
CONTINUOUS
 10
67.7016809964
 20
81.1537358568
 40
1.0
100
AcDbArc
 50
180.0
 51
270.0
  0
ARC
  5
31D
100
AcDbEntity
  8
RUNDUNGEN
100
AcDbCircle
 62
7
  6
CONTINUOUS
 10
72.2516822353
 20
82.7853340574
 40
0.4000022293
100
AcDbArc
 50
199.0256067779
 51
269.9998225434
  0
ARC
  5
31E
100
AcDbEntity
  8
RUNDUNGEN
100
AcDbCircle
 62
7
  6
CONTINUOUS
 10
69.2516797154
 20
82.7853336247
 40
0.4000017966
100
AcDbArc
 50
270.0001834942
 51
340.9738495556
  0
ARC
  5
31F
100
AcDbEntity
  8
RUNDUNGEN
100
AcDbCircle
 62
7
  6
CONTINUOUS
 10
68.9016809964
 20
82.4537358568
 40
0.2
100
AcDbArc
 50
90.0
 51
168.7499999627
  0
ARC
  5
320
100
AcDbEntity
  8
RUNDUNGEN
100
AcDbCircle
 62
7
  6
CONTINUOUS
 10
72.2516809964
 20
82.8537358568
 40
0.2
100
AcDbArc
 50
180.0
 51
270.0
  0
ARC
  5
321
100
AcDbEntity
  8
RUNDUNGEN
100
AcDbCircle
 62
7
  6
CONTINUOUS
 10
69.6516809964
 20
82.8537358568
 40
0.2
100
AcDbArc
 50
180.0
 51
270.0
  0
ARC
  5
322
100
AcDbEntity
  8
RUNDUNGEN
100
AcDbCircle
 62
7
  6
CONTINUOUS
 10
69.2516809964
 20
82.8537358568
 40
0.2
100
AcDbArc
 50
270.0
 51
360.0
  0
ARC
  5
323
100
AcDbEntity
  8
RUNDUNGEN
100
AcDbCircle
 62
7
  6
CONTINUOUS
 10
71.8516809964
 20
82.8537358568
 40
0.2
100
AcDbArc
 50
270.0
 51
360.0
  0
ARC
  5
324
100
AcDbEntity
  8
RUNDUNGEN
100
AcDbCircle
 62
7
  6
CONTINUOUS
 10
67.7016809964
 20
95.1537358568
 40
1.0
100
AcDbArc
 50
90.0
 51
180.0
  0
ARC
  5
325
100
AcDbEntity
  8
RUNDUNGEN
100
AcDbCircle
 62
7
  6
CONTINUOUS
 10
69.2516798431
 20
93.522137676
 40
0.4000022095
100
AcDbArc
 50
19.0255432807
 51
89.9998347979
  0
ARC
  5
326
100
AcDbEntity
  8
RUNDUNGEN
100
AcDbCircle
 62
7
  6
CONTINUOUS
 10
72.2516821113
 20
93.5221383163
 40
0.4000015692
100
AcDbArc
 50
90.0001596898
 51
160.9738775325
  0
ARC
  5
327
100
AcDbEntity
  8
RUNDUNGEN
100
AcDbCircle
 62
7
  6
CONTINUOUS
 10
68.9016809964
 20
93.8537358568
 40
0.2
100
AcDbArc
 50
180.0
 51
270.0
  0
ARC
  5
328
100
AcDbEntity
  8
RUNDUNGEN
100
AcDbCircle
 62
7
  6
CONTINUOUS
 10
69.6516809964
 20
93.4537358568
 40
0.2
100
AcDbArc
 50
90.0
 51
180.0
  0
ARC
  5
329
100
AcDbEntity
  8
RUNDUNGEN
100
AcDbCircle
 62
7
  6
CONTINUOUS
 10
71.8516809964
 20
93.4537358568
 40
0.2
100
AcDbArc
 50
0.0004463939
 51
90.0
  0
ARC
  5
32A
100
AcDbEntity
  8
RUNDUNGEN
100
AcDbCircle
 62
7
  6
CONTINUOUS
 10
72.2516809964
 20
93.4537358568
 40
0.2
100
AcDbArc
 50
90.0
 51
180.0
  0
ARC
  5
32B
100
AcDbEntity
  8
RUNDUNGEN
100
AcDbCircle
 62
7
  6
CONTINUOUS
 10
69.2516809964
 20
93.4537358568
 40
0.2
100
AcDbArc
 50
0.0
 51
90.0
  0
ARC
  5
32C
100
AcDbEntity
  8
RUNDUNGEN
100
AcDbCircle
 62
7
  6
CONTINUOUS
 10
77.0014607645
 20
79.1537707324
 40
0.9999912811
100
AcDbArc
 50
19.9978735332
 51
89.9992726801
  0
ARC
  5
32D
100
AcDbEntity
  8
RUNDUNGEN
100
AcDbCircle
 62
7
  6
CONTINUOUS
 10
72.6016809964
 20
82.4537358568
 40
0.2
100
AcDbArc
 50
0.0
 51
90.0
  0
ARC
  5
32E
100
AcDbEntity
  8
RUNDUNGEN
100
AcDbCircle
 62
7
  6
CONTINUOUS
 10
77.4655586081
 20
95.6537052322
 40
0.5
100
AcDbArc
 50
20.0037345496
 51
90.001277213
  0
ARC
  5
32F
100
AcDbEntity
  8
RUNDUNGEN
100
AcDbCircle
 62
7
  6
CONTINUOUS
 10
72.6016809964
 20
93.8537358568
 40
0.2
100
AcDbArc
 50
270.0
 51
348.7499999627
  0
ARC
  5
330
100
AcDbEntity
  8
0
100
AcDbCircle
 62
7
  6
CONTINUOUS
 10
129.2016809964
 20
63.6537358568
 40
6.5
100
AcDbArc
 50
180.0
 51
182.204227504
  0
ARC
  5
331
100
AcDbEntity
  8
RUNDUNGEN
100
AcDbCircle
 62
7
  6
CONTINUOUS
 10
129.2016809964
 20
63.6537358568
 40
6.5
100
AcDbArc
 50
179.9999999766
 51
360.0
  0
ARC
  5
332
100
AcDbEntity
  8
RUNDUNGEN
100
AcDbCircle
 62
7
  6
CONTINUOUS
 10
129.2016809964
 20
63.6537358568
 40
6.0
100
AcDbArc
 50
180.0
 51
246.4437346751
  0
ARC
  5
333
100
AcDbEntity
  8
RUNDUNGEN
100
AcDbCircle
 62
7
  6
CONTINUOUS
 10
129.2016809964
 20
63.6537358568
 40
6.0
100
AcDbArc
 50
293.5555952472
 51
360.0
  0
ARC
  5
334
100
AcDbEntity
  8
RUNDUNGEN
100
AcDbCircle
 62
7
  6
CONTINUOUS
 10
129.2016809964
 20
71.1537358568
 40
3.0
100
AcDbArc
 50
0.0
 51
61.5453391771
  0
ARC
  5
335
100
AcDbEntity
  8
RUNDUNGEN
100
AcDbCircle
 62
7
  6
CONTINUOUS
 10
129.2016809964
 20
63.1537358568
 40
3.0
100
AcDbArc
 50
180.0
 51
360.0
  0
ARC
  5
336
100
AcDbEntity
  8
RUNDUNGEN
100
AcDbCircle
 62
7
  6
CONTINUOUS
 10
129.2016809964
 20
71.1537358568
 40
3.0
100
AcDbArc
 50
118.4546490896
 51
180.0
  0
ARC
  5
337
100
AcDbEntity
  8
RUNDUNGEN
100
AcDbCircle
 62
7
  6
CONTINUOUS
 10
129.2016809964
 20
63.1537358568
 40
2.5
100
AcDbArc
 50
180.0
 51
360.0
  0
ARC
  5
338
100
AcDbEntity
  8
RUNDUNGEN
100
AcDbCircle
 62
7
  6
CONTINUOUS
 10
129.2016809964
 20
71.1537358568
 40
2.5
100
AcDbArc
 50
0.0
 51
180.0
  0
CIRCLE
  5
339
100
AcDbEntity
  8
02___PRT_ALL_AXES
100
AcDbCircle
 62
7
  6
CONTINUOUS
 10
124.6661809964
 20
72.0267358568
 40
1.25
  0
CIRCLE
  5
33A
100
AcDbEntity
  8
02___PRT_ALL_AXES
100
AcDbCircle
 62
7
  6
CONTINUOUS
 10
133.7371809964
 20
72.0267358568
 40
1.25
  0
CIRCLE
  5
33B
100
AcDbEntity
  8
02___PRT_ALL_AXES
100
AcDbCircle
 62
7
  6
CONTINUOUS
 10
124.8766809964
 20
61.9477358568
 40
1.25
  0
CIRCLE
  5
33C
100
AcDbEntity
  8
02___PRT_ALL_AXES
100
AcDbCircle
 62
7
  6
CONTINUOUS
 10
133.5266809964
 20
61.9477358568
 40
1.25
  0
ARC
  5
33D
100
AcDbEntity
  8
RUNDUNGEN
100
AcDbCircle
 62
7
  6
CONTINUOUS
 10
129.2016809964
 20
81.1537358568
 40
7.5
100
AcDbArc
 50
280.9861676309
 51
360.0
  0
ARC
  5
33E
100
AcDbEntity
  8
RUNDUNGEN
100
AcDbCircle
 62
7
  6
CONTINUOUS
 10
129.2016809964
 20
81.1537358568
 40
7.5
100
AcDbArc
 50
180.0
 51
259.0138388222
  0
ARC
  5
33F
100
AcDbEntity
  8
RUNDUNGEN
100
AcDbCircle
 62
7
  6
CONTINUOUS
 10
129.2016809964
 20
81.1537358568
 40
7.0
100
AcDbArc
 50
180.0
 51
360.0
  0
CIRCLE
  5
340
100
AcDbEntity
  8
02___PRT_ALL_AXES
100
AcDbCircle
 62
7
  6
CONTINUOUS
 10
120.6341809964
 20
86.1537358568
 40
1.25
  0
CIRCLE
  5
341
100
AcDbEntity
  8
02___PRT_ALL_AXES
100
AcDbCircle
 62
7
  6
CONTINUOUS
 10
137.7691809964
 20
86.1537358568
 40
1.25
  0
ARC
  5
342
100
AcDbEntity
  8
RUNDUNGEN
100
AcDbCircle
 62
7
  6
CONTINUOUS
 10
108.1976087487
 20
81.1537756842
 40
0.9999943155
100
AcDbArc
 50
90.0015624911
 51
158.0041708443
  0
ARC
  5
343
100
AcDbEntity
  8
RUNDUNGEN
100
AcDbCircle
 62
7
  6
CONTINUOUS
 10
138.7355938788
 20
93.653702084
 40
0.5
100
AcDbArc
 50
90.0004628199
 51
159.9999999996
  0
ARC
  5
344
100
AcDbEntity
  8
RUNDUNGEN
100
AcDbCircle
 62
7
  6
CONTINUOUS
 10
119.6677680882
 20
93.6537021549
 40
0.5
100
AcDbArc
 50
20.0000000004
 51
89.9995381168
  0
ARC
  5
345
100
AcDbEntity
  8
RUNDUNGEN
100
AcDbCircle
 62
7
  6
CONTINUOUS
 10
105.9402072641
 20
93.6537358427
 40
0.5
100
AcDbArc
 50
90.0000002268
 51
158.0
  0
ARC
  5
346
100
AcDbEntity
  8
RUNDUNGEN
100
AcDbCircle
 62
7
  6
CONTINUOUS
 10
139.5853444902
 20
81.6537358558
 40
0.5000000001
100
AcDbArc
 50
90.0
 51
136.9681003277
  0
ARC
  5
347
100
AcDbEntity
  8
RUNDUNGEN
100
AcDbCircle
 62
7
  6
CONTINUOUS
 10
118.8180175024
 20
81.6537358568
 40
0.5
100
AcDbArc
 50
15.0353948782
 51
90.0
  0
ARC
  5
348
100
AcDbEntity
  8
RUNDUNGEN
100
AcDbCircle
 62
7
  6
CONTINUOUS
 10
139.2742357868
 20
82.6152956502
 40
0.4274452102
100
AcDbArc
 50
343.7688891572
 51
359.9971406357
  0
ARC
  5
349
100
AcDbEntity
  8
RUNDUNGEN
100
AcDbCircle
 62
7
  6
CONTINUOUS
 10
119.129124129
 20
82.6152953539
 40
0.427443133
100
AcDbArc
 50
180.0028196687
 51
196.2311505384
  0
SPLINE
  5
34A
100
AcDbEntity
  8
0
100
AcDbSpline
 62
7
  6
CONTINUOUS
 70
0
 71
3
 72
35
 73
31
 74
0
 42
0.0000001
 43
0.0000001
 44
0.0000000001
 40
0.0
 40
0.0
 40
0.0
 40
0.0
 40
0.0013120389
 40
0.0037498289
 40
0.0073990886
 40
0.0122682184
 40
0.025610936
 40
0.0435487181
 40
0.0657893412
 40
0.0920044645
 40
0.1218527905
 40
0.1550006626
 40
0.2299034249
 40
0.3142112407
 40
0.4052892886
 40
0.5000016781
 40
0.5947137761
 40
0.6857912026
 40
0.7700983176
 40
0.8450003332
 40
0.8781480517
 40
0.9079962191
 40
0.9342111377
 40
0.9564516067
 40
0.9743892531
 40
0.9877319234
 40
0.9926010295
 40
0.9962502399
 40
0.9986879813
 40
1.0
 40
1.0
 40
1.0
 40
1.0
 10
122.706490468
 20
155.1738792597
 30
0.0
 10
122.709008444
 20
155.1738792597
 30
0.0
 10
122.7153289363
 20
155.169051801
 30
0.0
 10
122.7244043296
 20
155.1586900369
 30
0.0
 10
122.7367502882
 20
155.1413743367
 30
0.0
 10
122.7590687688
 20
155.1059805282
 30
0.0
 10
122.792880149
 20
155.0452566617
 30
0.0
 10
122.8394485124
 20
154.9537395746
 30
0.0
 10
122.8938669658
 20
154.8384890558
 30
0.0
 10
122.9543550867
 20
154.7009120935
 30
0.0
 10
123.0190539034
 20
154.5423723865
 30
0.0
 10
123.1120821279
 20
154.294584752
 30
0.0
 10
123.2253438507
 20
153.9429171663
 30
0.0
 10
123.3388612952
 20
153.4756597351
 30
0.0
 10
123.4168560963
 20
152.9624249323
 30
0.0
 10
123.4447759073
 20
152.4238700981
 30
0.0
 10
123.4168557346
 20
151.8853163921
 30
0.0
 10
123.3388585077
 20
151.3720850924
 30
0.0
 10
123.2253411575
 20
150.90483176
 30
0.0
 10
123.1120795946
 20
150.5531673667
 30
0.0
 10
123.0190522541
 20
150.3053815689
 30
0.0
 10
122.9543534279
 20
150.1468429384
 30
0.0
 10
122.8938658558
 20
150.0092668193
 30
0.0
 10
122.8394475677
 20
149.8940172724
 30
0.0
 10
122.7928795682
 20
149.8025007257
 30
0.0
 10
122.7590683398
 20
149.7417772309
 30
0.0
 10
122.7367499107
 20
149.7063836549
 30
0.0
 10
122.7244040815
 20
149.6890681682
 30
0.0
 10
122.7153288239
 20
149.678706544
 30
0.0
 10
122.7090084053
 20
149.6738792597
 30
0.0
 10
122.706490468
 20
149.6738792597
 30
0.0
  0
SPLINE
  5
34B
100
AcDbEntity
  8
0
100
AcDbSpline
 62
7
  6
CONTINUOUS
 70
0
 71
3
 72
35
 73
31
 74
0
 42
0.0000001
 43
0.0000001
 44
0.0000000001
 40
0.0
 40
0.0
 40
0.0
 40
0.0
 40
0.0013120165
 40
0.0037497522
 40
0.0073989559
 40
0.0122680565
 40
0.0256107044
 40
0.0435483127
 40
0.0657887493
 40
0.0920036268
 40
0.1218517592
 40
0.154999456
 40
0.2299014613
 40
0.3142086262
 40
0.4052861318
 40
0.49999823
 40
0.5947105093
 40
0.6857883611
 40
0.7700960467
 40
0.844998823
 40
0.87814675
 40
0.9079951652
 40
0.9342103919
 40
0.9564510956
 40
0.9743889682
 40
0.9877317393
 40
0.9926008819
 40
0.9962501556
 40
0.9986879568
 40
1.0
 40
1.0
 40
1.0
 40
1.0
 10
135.6968715248
 20
149.6738792597
 30
0.0
 10
135.6943535918
 20
149.6738792597
 30
0.0
 10
135.688033182
 20
149.678706525
 30
0.0
 10
135.6789579412
 20
149.6890681314
 30
0.0
 10
135.666612131
 20
149.7063835872
 30
0.0
 10
135.6442937265
 20
149.7417771012
 30
0.0
 10
135.610482562
 20
149.8025004862
 30
0.0
 10
135.5639146489
 20
149.8940168765
 30
0.0
 10
135.509496392
 20
150.0092662016
 30
0.0
 10
135.4490089452
 20
150.1468421488
 30
0.0
 10
135.3843100922
 20
150.3053805652
 30
0.0
 10
135.291282835
 20
150.5531662581
 30
0.0
 10
135.1780211286
 20
150.9048306372
 30
0.0
 10
135.064503618
 20
151.3720841716
 30
0.0
 10
134.9865063616
 20
151.8853157174
 30
0.0
 10
134.9585860548
 20
152.423869354
 30
0.0
 10
134.9865057319
 20
152.9624236098
 30
0.0
 10
135.0645003651
 20
153.4756575888
 30
0.0
 10
135.1780174526
 20
153.9429144779
 30
0.0
 10
135.2912788089
 20
154.2945820675
 30
0.0
 10
135.384307231
 20
154.5423699499
 30
0.0
 10
135.4490059914
 20
154.700910194
 30
0.0
 10
135.5094944206
 20
154.8384875941
 30
0.0
 10
135.5639129614
 20
154.9537386537
 30
0.0
 10
135.6104815298
 20
155.0452561215
 30
0.0
 10
135.6442930645
 20
155.1059802467
 30
0.0
 10
135.6666116048
 20
155.1413741977
 30
0.0
 10
135.6789576032
 20
155.1586899632
 30
0.0
 10
135.6880330305
 20
155.169051764
 30
0.0
 10
135.6943535406
 20
155.1738792597
 30
0.0
 10
135.6968715248
 20
155.1738792597
 30
0.0
  0
LINE
  5
34C
100
AcDbEntity
  8
RUNDUNGEN
100
AcDbLine
 62
7
  6
CONTINUOUS
 10
119.2016809964
 20
154.9238792597
 11
119.2016809964
 21
154.587288353
  0
SPLINE
  5
34D
100
AcDbEntity
  8
RUNDUNGEN
100
AcDbSpline
 62
7
  6
CONTINUOUS
 70
0
 71
3
 72
15
 73
11
 74
0
 42
0.0000001
 43
0.0000001
 44
0.0000000001
 40
0.0
 40
0.0
 40
0.0
 40
0.0
 40
0.0764996264
 40
0.1613890295
 40
0.2606240028
 40
0.3773504199
 40
0.5122660983
 40
0.6638446161
 40
0.828344518
 40
1.0
 40
1.0
 40
1.0
 40
1.0
 10
75.545590657
 20
158.4238792577
 30
0.0
 10
75.6373901941
 20
158.4238743943
 30
0.0
 10
75.8324987415
 20
158.3840583273
 30
0.0
 10
76.101856302
 20
158.2158377864
 30
0.0
 10
76.348713214
 20
157.9480599438
 30
0.0
 10
76.5679676459
 20
157.5861321577
 30
0.0
 10
76.7523152286
 20
157.1370754538
 30
0.0
 10
76.8929261493
 20
156.6131623618
 30
0.0
 10
76.9814643659
 20
156.0335625088
 30
0.0
 10
77.0014427474
 20
155.6298658031
 30
0.0
 10
77.0014734582
 20
155.4238792597
 30
0.0
  0
SPLINE
  5
34E
100
AcDbEntity
  8
RUNDUNGEN
100
AcDbSpline
 62
7
  6
CONTINUOUS
 70
0
 71
3
 72
13
 73
9
 74
0
 42
0.0000001
 43
0.0000001
 44
0.0000000001
 40
0.0
 40
0.0
 40
0.0
 40
0.0
 40
0.071683775
 40
0.1621405996
 40
0.2718380965
 40
0.3981188568
 40
0.6864676161
 40
1.0
 40
1.0
 40
1.0
 40
1.0
 10
86.3553774722
 20
146.4238792597
 30
0.0
 10
86.3917728052
 20
146.4238752185
 30
0.0
 10
86.4735323229
 20
146.4461669435
 30
0.0
 10
86.5929003426
 20
146.5161882119
 30
0.0
 10
86.7234040734
 20
146.6190105603
 30
0.0
 10
86.9180431081
 20
146.8008097608
 30
0.0
 10
87.1693996604
 20
147.072390158
 30
0.0
 10
87.3688158612
 20
147.3038783462
 30
0.0
 10
87.473411461
 20
147.4238792597
 30
0.0
  0
SPLINE
  5
34F
100
AcDbEntity
  8
RUNDUNGEN
100
AcDbSpline
 62
7
  6
CONTINUOUS
 70
0
 71
3
 72
13
 73
9
 74
0
 42
0.0000001
 43
0.0000001
 44
0.0000000001
 40
0.0
 40
0.0
 40
0.0
 40
0.0
 40
0.3135315028
 40
0.6018803136
 40
0.7281612524
 40
0.8378588997
 40
0.9283165353
 40
1.0
 40
1.0
 40
1.0
 40
1.0
 10
96.073411461
 20
147.4238792597
 30
0.0
 10
96.1779973089
 20
147.3038704308
 30
0.0
 10
96.3774258428
 20
147.0723935236
 30
0.0
 10
96.6287785494
 20
146.8008102075
 30
0.0
 10
96.8234180679
 20
146.6190112082
 30
0.0
 10
96.9539216992
 20
146.5161877359
 30
0.0
 10
97.0732906839
 20
146.4461673107
 30
0.0
 10
97.1550502726
 20
146.4238755219
 30
0.0
 10
97.1914454497
 20
146.4238792597
 30
0.0
  0
SPLINE
  5
350
100
AcDbEntity
  8
RUNDUNGEN
100
AcDbSpline
 62
7
  6
CONTINUOUS
 70
0
 71
3
 72
11
 73
7
 74
0
 42
0.0000001
 43
0.0000001
 44
0.0000000001
 40
0.0
 40
0.0
 40
0.0
 40
0.0
 40
0.2723932492
 40
0.5357746664
 40
0.7809189256
 40
1.0
 40
1.0
 40
1.0
 40
1.0
 10
129.2016809964
 20
147.4238792597
 30
0.0
 10
128.9956046052
 20
147.3049506219
 30
0.0
 10
128.5904760473
 20
147.0708195027
 30
0.0
 10
127.986234631
 20
146.752683138
 30
0.0
 10
127.3991067554
 20
146.5085270684
 30
0.0
 10
126.9952172899
 20
146.4238731631
 30
0.0
 10
126.8038530202
 20
146.4238792622
 30
0.0
  0
SPLINE
  5
351
100
AcDbEntity
  8
RUNDUNGEN
100
AcDbSpline
 62
7
  6
CONTINUOUS
 70
0
 71
3
 72
11
 73
7
 74
0
 42
0.0000001
 43
0.0000001
 44
0.0000000001
 40
0.0
 40
0.0
 40
0.0
 40
0.0
 40
0.2723961892
 40
0.5357778777
 40
0.7809243646
 40
1.0
 40
1.0
 40
1.0
 40
1.0
 10
129.2016809964
 20
147.4238792597
 30
0.0
 10
129.4077657235
 20
147.3049438213
 30
0.0
 10
129.8129097179
 20
147.0707990671
 30
0.0
 10
130.4171739407
 20
146.7526595149
 30
0.0
 10
131.0043251436
 20
146.5084634167
 30
0.0
 10
131.4082307704
 20
146.4239271704
 30
0.0
 10
131.5995967585
 20
146.4238792597
 30
0.0
  0
SPLINE
  5
352
100
AcDbEntity
  8
RUNDUNGEN
100
AcDbSpline
 62
7
  6
CONTINUOUS
 70
0
 71
3
 72
13
 73
9
 74
0
 42
0.0000001
 43
0.0000001
 44
0.0000000001
 40
0.0
 40
0.0
 40
0.0
 40
0.0
 40
0.313529566
 40
0.6018806298
 40
0.7281583006
 40
0.837819662
 40
0.9282908465
 40
1.0
 40
1.0
 40
1.0
 40
1.0
 10
87.473411461
 20
157.4238792597
 30
0.0
 10
87.3688590695
 20
157.5439173085
 30
0.0
 10
87.16937797
 20
157.7753502298
 30
0.0
 10
86.9180345432
 20
158.0469463443
 30
0.0
 10
86.7233906637
 20
158.2287106691
 30
0.0
 10
86.5929635851
 20
158.3316104689
 30
0.0
 10
86.4735659247
 20
158.4016072769
 30
0.0
 10
86.3917859283
 20
158.4238698954
 30
0.0
 10
86.3553774722
 20
158.4238792597
 30
0.0
  0
SPLINE
  5
353
100
AcDbEntity
  8
RUNDUNGEN
100
AcDbSpline
 62
7
  6
CONTINUOUS
 70
0
 71
3
 72
11
 73
7
 74
0
 42
0.0000001
 43
0.0000001
 44
0.0000000001
 40
0.0
 40
0.0
 40
0.0
 40
0.0
 40
0.2190798615
 40
0.4642232746
 40
0.7276053128
 40
1.0
 40
1.0
 40
1.0
 40
1.0
 10
126.8037778566
 20
158.4238792596
 30
0.0
 10
126.9951465483
 20
158.4238801529
 30
0.0
 10
127.3990506165
 20
158.3392634639
 30
0.0
 10
127.9861958517
 20
158.0950933019
 30
0.0
 10
128.5904561359
 20
157.7769518965
 30
0.0
 10
128.99559818
 20
157.5428129117
 30
0.0
 10
129.2016809964
 20
157.4238792597
 30
0.0
  0
SPLINE
  5
354
100
AcDbEntity
  8
RUNDUNGEN
100
AcDbSpline
 62
7
  6
CONTINUOUS
 70
0
 71
3
 72
11
 73
7
 74
0
 42
0.0000001
 43
0.0000001
 44
0.0000000001
 40
0.0
 40
0.0
 40
0.0
 40
0.0
 40
0.2190809603
 40
0.4642248065
 40
0.7276062625
 40
1.0
 40
1.0
 40
1.0
 40
1.0
 10
131.599541612
 20
158.4238792587
 30
0.0
 10
131.4081750605
 20
158.4238831011
 30
0.0
 10
131.0042789135
 20
158.3392452984
 30
0.0
 10
130.4171434816
 20
158.0950828071
 30
0.0
 10
129.8128943015
 20
157.7769442491
 30
0.0
 10
129.4077597959
 20
157.5428105013
 30
0.0
 10
129.2016809964
 20
157.4238792597
 30
0.0
  0
SPLINE
  5
355
100
AcDbEntity
  8
RUNDUNGEN
100
AcDbSpline
 62
7
  6
CONTINUOUS
 70
0
 71
3
 72
9
 73
5
 74
0
 42
0.0000001
 43
0.0000001
 44
0.0000000001
 40
0.0
 40
0.0
 40
0.0
 40
0.0
 40
0.2479456329
 40
1.0
 40
1.0
 40
1.0
 40
1.0
 10
139.7016809964
 20
154.7315715674
 30
0.0
 10
139.7016805838
 20
154.7058474721
 30
0.0
 10
139.7000539656
 20
154.6020988338
 30
0.0
 10
139.6925942022
 20
154.4984910065
 30
0.0
 10
139.6846439096
 20
154.4208722689
 30
0.0
  0
SPLINE
  5
356
100
AcDbEntity
  8
RUNDUNGEN
100
AcDbSpline
 62
7
  6
CONTINUOUS
 70
0
 71
3
 72
9
 73
5
 74
0
 42
0.0000001
 43
0.0000001
 44
0.0000000001
 40
0.0
 40
0.0
 40
0.0
 40
0.0
 40
0.5000003646
 40
1.0
 40
1.0
 40
1.0
 40
1.0
 10
139.6846439096
 20
154.4208722689
 30
0.0
 10
139.6167386499
 20
153.7578533178
 30
0.0
 10
139.5539505097
 20
152.4238787925
 30
0.0
 10
139.616738291
 20
151.0899041877
 30
0.0
 10
139.6846439096
 20
150.4268862505
 30
0.0
  0
SPLINE
  5
357
100
AcDbEntity
  8
RUNDUNGEN
100
AcDbSpline
 62
7
  6
CONTINUOUS
 70
0
 71
3
 72
9
 73
5
 74
0
 42
0.0000001
 43
0.0000001
 44
0.0000000001
 40
0.0
 40
0.0
 40
0.0
 40
0.0
 40
0.2520709234
 40
1.0
 40
1.0
 40
1.0
 40
1.0
 10
139.6846439096
 20
150.4268862505
 30
0.0
 10
139.6873087699
 20
150.4008711513
 30
0.0
 10
139.6968213653
 20
150.2975664627
 30
0.0
 10
139.7016784813
 20
150.1937812479
 30
0.0
 10
139.7016809964
 20
150.116186952
 30
0.0
  0
SPLINE
  5
358
100
AcDbEntity
  8
RUNDUNGEN
100
AcDbSpline
 62
7
  6
CONTINUOUS
 70
0
 71
3
 72
9
 73
5
 74
0
 42
0.0000001
 43
0.0000001
 44
0.0000000001
 40
0.0
 40
0.0
 40
0.0
 40
0.0
 40
0.2520709035
 40
1.0
 40
1.0
 40
1.0
 40
1.0
 10
118.7187180833
 20
150.4268862505
 30
0.0
 10
118.7160532036
 20
150.4008711553
 30
0.0
 10
118.7065405733
 20
150.2975664675
 30
0.0
 10
118.7016835879
 20
150.1937812502
 30
0.0
 10
118.7016809964
 20
150.116186952
 30
0.0
  0
SPLINE
  5
359
100
AcDbEntity
  8
RUNDUNGEN
100
AcDbSpline
 62
7
  6
CONTINUOUS
 70
0
 71
3
 72
12
 73
8
 74
0
 42
0.0000001
 43
0.0000001
 44
0.0000000001
 40
0.0
 40
0.0
 40
0.0
 40
0.0
 40
0.2779290696
 40
0.5456893583
 40
0.7911964876
 40
0.9011133868
 40
1.0
 40
1.0
 40
1.0
 40
1.0
 10
87.473411461
 20
157.4238792597
 30
0.0
 10
87.3391612838
 20
157.4821705603
 30
0.0
 10
87.0753665369
 20
157.5962323023
 30
0.0
 10
86.689373215
 20
157.7529445722
 30
0.0
 10
86.3782533163
 20
157.8594869438
 30
0.0
 10
86.1446936916
 20
157.912288081
 30
0.0
 10
86.0347737537
 20
157.9238761315
 30
0.0
 10
85.982699476
 20
157.9238792597
 30
0.0
  0
SPLINE
  5
35A
100
AcDbEntity
  8
RUNDUNGEN
100
AcDbSpline
 62
7
  6
CONTINUOUS
 70
0
 71
3
 72
9
 73
5
 74
0
 42
0.0000001
 43
0.0000001
 44
0.0000000001
 40
0.0
 40
0.0
 40
0.0
 40
0.0
 40
0.4999999968
 40
1.0
 40
1.0
 40
1.0
 40
1.0
 10
118.7187180833
 20
154.4208722689
 30
0.0
 10
118.7866241461
 20
153.7578538929
 30
0.0
 10
118.8494108701
 20
152.4238792628
 30
0.0
 10
118.7866241234
 20
151.0899046374
 30
0.0
 10
118.7187180833
 20
150.4268862505
 30
0.0
  0
SPLINE
  5
35B
100
AcDbEntity
  8
RUNDUNGEN
100
AcDbSpline
 62
7
  6
CONTINUOUS
 70
0
 71
3
 72
9
 73
5
 74
0
 42
0.0000001
 43
0.0000001
 44
0.0000000001
 40
0.0
 40
0.0
 40
0.0
 40
0.0
 40
0.2479456782
 40
1.0
 40
1.0
 40
1.0
 40
1.0
 10
118.7016809964
 20
154.7315715674
 30
0.0
 10
118.7016813741
 20
154.7058474673
 30
0.0
 10
118.7033080249
 20
154.6020988273
 30
0.0
 10
118.710767814
 20
154.4984910044
 30
0.0
 10
118.7187180833
 20
154.4208722689
 30
0.0
  0
SPLINE
  5
35C
100
AcDbEntity
  8
RUNDUNGEN
100
AcDbSpline
 62
7
  6
CONTINUOUS
 70
0
 71
3
 72
12
 73
8
 74
0
 42
0.0000001
 43
0.0000001
 44
0.0000000001
 40
0.0
 40
0.0
 40
0.0
 40
0.0
 40
0.0988844898
 40
0.2088053475
 40
0.4543104664
 40
0.7220710827
 40
1.0
 40
1.0
 40
1.0
 40
1.0
 10
85.982699476
 20
146.9238792597
 30
0.0
 10
86.0347726481
 20
146.9238692051
 30
0.0
 10
86.1446937621
 20
146.935475836
 30
0.0
 10
86.3782525175
 20
146.9882694163
 30
0.0
 10
86.6893773183
 20
147.094807168
 30
0.0
 10
87.0753644406
 20
147.2515304018
 30
0.0
 10
87.3391694608
 20
147.3655692366
 30
0.0
 10
87.473411461
 20
147.4238792597
 30
0.0
  0
SPLINE
  5
35D
100
AcDbEntity
  8
RUNDUNGEN
100
AcDbSpline
 62
7
  6
CONTINUOUS
 70
0
 71
3
 72
16
 73
12
 74
0
 42
0.0000001
 43
0.0000001
 44
0.0000000001
 40
0.0
 40
0.0
 40
0.0
 40
0.0
 40
0.037126172
 40
0.075438413
 40
0.1593149761
 40
0.2581247385
 40
0.3749418223
 40
0.5103113207
 40
0.6625362137
 40
0.8277122532
 40
1.0
 40
1.0
 40
1.0
 40
1.0
 10
111.0257752949
 20
158.4238792597
 30
0.0
 10
110.9372890365
 20
158.4238809335
 30
0.0
 10
110.7570113396
 20
158.4056749116
 30
0.0
 10
110.3917361055
 20
158.2946218784
 30
0.0
 10
109.9403966011
 20
158.0042249251
 30
0.0
 10
109.4619103759
 20
157.4668232976
 30
0.0
 10
109.0364274354
 20
156.7416957588
 30
0.0
 10
108.6794016652
 20
155.8432318068
 30
0.0
 10
108.4073390578
 20
154.7964947051
 30
0.0
 10
108.2363186646
 20
153.6400027874
 30
0.0
 10
108.1976111487
 20
152.8351177426
 30
0.0
 10
108.1975814792
 20
152.4244883338
 30
0.0
  0
SPLINE
  5
35E
100
AcDbEntity
  8
RUNDUNGEN
100
AcDbSpline
 62
7
  6
CONTINUOUS
 70
0
 71
3
 72
13
 73
9
 74
0
 42
0.0000001
 43
0.0000001
 44
0.0000000001
 40
0.0
 40
0.0
 40
0.0
 40
0.0
 40
0.3344685828
 40
0.6270301902
 40
0.7474733744
 40
0.8480743797
 40
0.9301612072
 40
1.0
 40
1.0
 40
1.0
 40
1.0
 10
131.7994230741
 20
146.9238792597
 30
0.0
 10
131.799423072
 20
146.8598974504
 30
0.0
 10
131.790400938
 20
146.739842784
 30
0.0
 10
131.7562436012
 20
146.5997373768
 30
0.0
 10
131.7142282619
 20
146.5105310161
 30
0.0
 10
131.6802987103
 20
146.4629630713
 30
0.0
 10
131.6421895641
 20
146.4319134633
 30
0.0
 10
131.6129564951
 20
146.4238792597
 30
0.0
 10
131.5995967581
 20
146.4238792597
 30
0.0
  0
SPLINE
  5
35F
100
AcDbEntity
  8
RUNDUNGEN
100
AcDbSpline
 62
7
  6
CONTINUOUS
 70
0
 71
3
 72
16
 73
12
 74
0
 42
0.0000001
 43
0.0000001
 44
0.0000000001
 40
0.0
 40
0.0
 40
0.0
 40
0.0
 40
0.1722848341
 40
0.3374640267
 40
0.4896982615
 40
0.6250716196
 40
0.7418909137
 40
0.8406979787
 40
0.9245766078
 40
0.9628890878
 40
1.0
 40
1.0
 40
1.0
 40
1.0
 10
108.1975814792
 20
152.4244883338
 30
0.0
 10
108.1975577719
 20
152.0137964583
 30
0.0
 10
108.2362382102
 20
151.2087718981
 30
0.0
 10
108.4071826729
 20
150.0520474315
 30
0.0
 10
108.6792204302
 20
149.005074209
 30
0.0
 10
109.0362571163
 20
148.1063965781
 30
0.0
 10
109.461787352
 20
147.3811264176
 30
0.0
 10
109.9402956107
 20
146.8435739895
 30
0.0
 10
110.3917279489
 20
146.5531390002
 30
0.0
 10
110.757040195
 20
146.4421026914
 30
0.0
 10
110.9373099099
 20
146.4238767234
 30
0.0
 10
111.0257747491
 20
146.4238792597
 30
0.0
  0
SPLINE
  5
360
100
AcDbEntity
  8
RUNDUNGEN
100
AcDbSpline
 62
7
  6
CONTINUOUS
 70
0
 71
3
 72
13
 73
9
 74
0
 42
0.0000001
 43
0.0000001
 44
0.0000000001
 40
0.0
 40
0.0
 40
0.0
 40
0.0
 40
0.334473231
 40
0.6270390511
 40
0.7474830235
 40
0.8480832306
 40
0.9301669597
 40
1.0
 40
1.0
 40
1.0
 40
1.0
 10
131.7994230741
 20
157.9238792597
 30
0.0
 10
131.7994201981
 20
157.9878612715
 30
0.0
 10
131.7903938739
 20
158.1079159192
 30
0.0
 10
131.7562342967
 20
158.2480208172
 30
0.0
 10
131.714219725
 20
158.337227181
 30
0.0
 10
131.6802920826
 20
158.3847948732
 30
0.0
 10
131.6421862036
 20
158.4158445727
 30
0.0
 10
131.6129552547
 20
158.4238792599
 30
0.0
 10
131.5995967614
 20
158.4238792597
 30
0.0
  0
SPLINE
  5
361
100
AcDbEntity
  8
RUNDUNGEN
100
AcDbSpline
 62
7
  6
CONTINUOUS
 70
0
 71
3
 72
10
 73
6
 74
0
 42
0.0000001
 43
0.0000001
 44
0.0000000001
 40
0.0
 40
0.0
 40
0.0
 40
0.0
 40
0.2404997978
 40
0.4893169977
 40
1.0
 40
1.0
 40
1.0
 40
1.0
 10
126.6039389213
 20
157.9238792597
 30
0.0
 10
126.8164916725
 20
157.9238775192
 30
0.0
 10
127.2487011093
 20
157.8817484789
 30
0.0
 10
128.1167556642
 20
157.7144490864
 30
0.0
 10
128.7655751197
 20
157.5401508314
 30
0.0
 10
129.2016809964
 20
157.4238792597
 30
0.0
  0
SPLINE
  5
362
100
AcDbEntity
  8
RUNDUNGEN
100
AcDbSpline
 62
7
  6
CONTINUOUS
 70
0
 71
3
 72
10
 73
6
 74
0
 42
0.0000001
 43
0.0000001
 44
0.0000000001
 40
0.0
 40
0.0
 40
0.0
 40
0.0
 40
0.2405000119
 40
0.4893171683
 40
1.0
 40
1.0
 40
1.0
 40
1.0
 10
131.7994230716
 20
157.9238792597
 30
0.0
 10
131.5868701471
 20
157.9238823651
 30
0.0
 10
131.1546609075
 20
157.881743004
 30
0.0
 10
130.2866056502
 20
157.7144521357
 30
0.0
 10
129.6377870459
 20
157.5401494674
 30
0.0
 10
129.2016809964
 20
157.4238792597
 30
0.0
  0
SPLINE
  5
363
100
AcDbEntity
  8
RUNDUNGEN
100
AcDbSpline
 62
7
  6
CONTINUOUS
 70
0
 71
3
 72
9
 73
5
 74
0
 42
0.0000001
 43
0.0000001
 44
0.0000000001
 40
0.0
 40
0.0
 40
0.0
 40
0.0
 40
0.199292227
 40
1.0
 40
1.0
 40
1.0
 40
1.0
 10
138.9758529152
 20
158.4093372686
 30
0.0
 10
138.9698128367
 20
158.4094625607
 30
0.0
 10
138.9395298854
 20
158.4110820113
 30
0.0
 10
138.9093928853
 20
158.4144779409
 30
0.0
 10
138.8852350344
 20
158.4168372917
 30
0.0
  0
SPLINE
  5
364
100
AcDbEntity
  8
RUNDUNGEN
100
AcDbSpline
 62
7
  6
CONTINUOUS
 70
0
 71
3
 72
9
 73
5
 74
0
 42
0.0000001
 43
0.0000001
 44
0.0000000001
 40
0.0
 40
0.0
 40
0.0
 40
0.0
 40
0.222960537
 40
1.0
 40
1.0
 40
1.0
 40
1.0
 10
138.8852350344
 20
158.4168372917
 30
0.0
 10
138.8762593895
 20
158.4177138885
 30
0.0
 10
138.8360001437
 20
158.4215618923
 30
0.0
 10
138.7955462626
 20
158.4238792589
 30
0.0
 10
138.7641164261
 20
158.4238792597
 30
0.0
  0
SPLINE
  5
365
100
AcDbEntity
  8
RUNDUNGEN
100
AcDbSpline
 62
7
  6
CONTINUOUS
 70
0
 71
3
 72
13
 73
9
 74
0
 42
0.0000001
 43
0.0000001
 44
0.0000000001
 40
0.0
 40
0.0
 40
0.0
 40
0.0
 40
0.0698328373
 40
0.1519164556
 40
0.2525166328
 40
0.3729606316
 40
0.6655266018
 40
1.0
 40
1.0
 40
1.0
 40
1.0
 10
126.8037652348
 20
158.4238792597
 30
0.0
 10
126.7904067854
 20
158.4238792597
 30
0.0
 10
126.7611759115
 20
158.4158445561
 30
0.0
 10
126.7230701485
 20
158.3847948534
 30
0.0
 10
126.6891425738
 20
158.3372271711
 30
0.0
 10
126.6471280286
 20
158.2480208079
 30
0.0
 10
126.6129683729
 20
158.1079159271
 30
0.0
 10
126.603941902
 20
157.9878612792
 30
0.0
 10
126.6039389255
 20
157.9238792597
 30
0.0
  0
SPLINE
  5
366
100
AcDbEntity
  8
RUNDUNGEN
100
AcDbSpline
 62
7
  6
CONTINUOUS
 70
0
 71
3
 72
9
 73
5
 74
0
 42
0.0000001
 43
0.0000001
 44
0.0000000001
 40
0.0
 40
0.0
 40
0.0
 40
0.0
 40
0.3018958546
 40
1.0
 40
1.0
 40
1.0
 40
1.0
 10
139.0191809964
 20
158.418030191
 30
0.0
 10
139.0191809964
 20
158.4154323866
 30
0.0
 10
139.0089537712
 20
158.4107039739
 30
0.0
 10
139.001517446
 20
158.4102001812
 30
0.0
 10
138.9955270237
 20
158.4097520017
 30
0.0
  0
SPLINE
  5
367
100
AcDbEntity
  8
RUNDUNGEN
100
AcDbSpline
 62
7
  6
CONTINUOUS
 70
0
 71
3
 72
9
 73
5
 74
0
 42
0.0000001
 43
0.0000001
 44
0.0000000001
 40
0.0
 40
0.0
 40
0.0
 40
0.0
 40
0.2225570603
 40
1.0
 40
1.0
 40
1.0
 40
1.0
 10
138.9955270237
 20
158.4097520017
 30
0.0
 10
138.9940709137
 20
158.4096430614
 30
0.0
 10
138.9875205788
 20
158.4092565854
 30
0.0
 10
138.9809525606
 20
158.4092314789
 30
0.0
 10
138.9758529152
 20
158.4093372686
 30
0.0
  0
SPLINE
  5
368
100
AcDbEntity
  8
RUNDUNGEN
100
AcDbSpline
 62
7
  6
CONTINUOUS
 70
0
 71
3
 72
9
 73
5
 74
0
 42
0.0000001
 43
0.0000001
 44
0.0000000001
 40
0.0
 40
0.0
 40
0.0
 40
0.0
 40
0.4971837069
 40
1.0
 40
1.0
 40
1.0
 40
1.0
 10
138.9758529152
 20
158.4093372686
 30
0.0
 10
139.039138295
 20
158.3932619848
 30
0.0
 10
139.1609113056
 20
158.3336249463
 30
0.0
 10
139.2485163118
 20
158.2304239461
 30
0.0
 10
139.2806541328
 20
158.1727371807
 30
0.0
  0
SPLINE
  5
369
100
AcDbEntity
  8
RUNDUNGEN
100
AcDbSpline
 62
7
  6
CONTINUOUS
 70
0
 71
3
 72
10
 73
6
 74
0
 42
0.0000001
 43
0.0000001
 44
0.0000000001
 40
0.0
 40
0.0
 40
0.0
 40
0.0
 40
0.5106834745
 40
0.7595007261
 40
1.0
 40
1.0
 40
1.0
 40
1.0
 10
129.2016809964
 20
147.4238792597
 30
0.0
 10
129.6377849947
 20
147.3075981223
 30
0.0
 10
130.286609172
 20
147.1333294795
 30
0.0
 10
131.1546594044
 20
146.9659725767
 30
0.0
 10
131.5868706775
 20
146.9239168036
 30
0.0
 10
131.7994230716
 20
146.9238792597
 30
0.0
  0
SPLINE
  5
36A
100
AcDbEntity
  8
RUNDUNGEN
100
AcDbSpline
 62
7
  6
CONTINUOUS
 70
0
 71
3
 72
10
 73
6
 74
0
 42
0.0000001
 43
0.0000001
 44
0.0000000001
 40
0.0
 40
0.0
 40
0.0
 40
0.0
 40
0.5106829003
 40
0.7595000377
 40
1.0
 40
1.0
 40
1.0
 40
1.0
 10
129.2016809964
 20
147.4238792597
 30
0.0
 10
128.7655746314
 20
147.3076101077
 30
0.0
 10
128.1167565343
 20
147.1333037713
 30
0.0
 10
127.2487006809
 20
146.966019948
 30
0.0
 10
126.8164917888
 20
146.9238722414
 30
0.0
 10
126.6039389213
 20
146.9238792597
 30
0.0
  0
SPLINE
  5
36B
100
AcDbEntity
  8
RUNDUNGEN
100
AcDbSpline
 62
7
  6
CONTINUOUS
 70
0
 71
3
 72
13
 73
9
 74
0
 42
0.0000001
 43
0.0000001
 44
0.0000000001
 40
0.0
 40
0.0
 40
0.0
 40
0.0
 40
0.0698387915
 40
0.1519255906
 40
0.2525265625
 40
0.3729697196
 40
0.6655313553
 40
1.0
 40
1.0
 40
1.0
 40
1.0
 10
126.8037652348
 20
146.4238792597
 30
0.0
 10
126.7904054978
 20
146.4238792597
 30
0.0
 10
126.7611724305
 20
146.431913446
 30
0.0
 10
126.7230632919
 20
146.4629630496
 30
0.0
 10
126.6891337488
 20
146.5105309784
 30
0.0
 10
126.6471184039
 20
146.5997373316
 30
0.0
 10
126.6129610637
 20
146.7398427528
 30
0.0
 10
126.6039389279
 20
146.8598974378
 30
0.0
 10
126.6039389273
 20
146.9238792597
 30
0.0
  0
SPLINE
  5
36C
100
AcDbEntity
  8
RUNDUNGEN
100
AcDbSpline
 62
7
  6
CONTINUOUS
 70
0
 71
3
 72
12
 73
8
 74
0
 42
0.0000001
 43
0.0000001
 44
0.0000000001
 40
0.0
 40
0.0
 40
0.0
 40
0.0
 40
0.2779285617
 40
0.5456891536
 40
0.7911945042
 40
0.9011155039
 40
1.0
 40
1.0
 40
1.0
 40
1.0
 10
96.073411461
 20
147.4238792597
 30
0.0
 10
96.2076543846
 20
147.365571849
 30
0.0
 10
96.4714578465
 20
147.251529955
 30
0.0
 10
96.8574451595
 20
147.0948074476
 30
0.0
 10
97.1685700472
 20
146.9882692
 30
0.0
 10
97.4021291679
 20
146.9354766149
 30
0.0
 10
97.5120502729
 20
146.9238692325
 30
0.0
 10
97.564123446
 20
146.9238792597
 30
0.0
  0
SPLINE
  5
36D
100
AcDbEntity
  8
RUNDUNGEN
100
AcDbSpline
 62
7
  6
CONTINUOUS
 70
0
 71
3
 72
12
 73
8
 74
0
 42
0.0000001
 43
0.0000001
 44
0.0000000001
 40
0.0
 40
0.0
 40
0.0
 40
0.0
 40
0.0988865459
 40
0.2088034307
 40
0.4543109661
 40
0.7220713527
 40
1.0
 40
1.0
 40
1.0
 40
1.0
 10
97.564123446
 20
157.9238792597
 30
0.0
 10
97.5120492024
 20
157.9238759889
 30
0.0
 10
97.4021292889
 20
157.9122883554
 30
0.0
 10
97.1685694811
 20
157.8594870445
 30
0.0
 10
96.8574493359
 20
157.7529446016
 30
0.0
 10
96.4714562847
 20
157.5962315764
 30
0.0
 10
96.207660638
 20
157.4821723146
 30
0.0
 10
96.073411461
 20
157.4238792597
 30
0.0
  0
SPLINE
  5
36E
100
AcDbEntity
  8
RUNDUNGEN
100
AcDbSpline
 62
7
  6
CONTINUOUS
 70
0
 71
3
 72
13
 73
9
 74
0
 42
0.0000001
 43
0.0000001
 44
0.0000000001
 40
0.0
 40
0.0
 40
0.0
 40
0.0
 40
0.0717095123
 40
0.1621801468
 40
0.2718419579
 40
0.3981200519
 40
0.6864713969
 40
1.0
 40
1.0
 40
1.0
 40
1.0
 10
97.1914454497
 20
158.4238792597
 30
0.0
 10
97.1550368099
 20
158.4238698139
 30
0.0
 10
97.0732567191
 20
158.401607946
 30
0.0
 10
96.9538594233
 20
158.3316100111
 30
0.0
 10
96.8234319618
 20
158.2287105574
 30
0.0
 10
96.6287879968
 20
158.0469454314
 30
0.0
 10
96.3774417388
 20
157.7753519521
 30
0.0
 10
96.1779706961
 20
157.5439107083
 30
0.0
 10
96.073411461
 20
157.4238792597
 30
0.0
  0
SPLINE
  5
36F
100
AcDbEntity
  8
RUNDUNGEN
100
AcDbSpline
 62
7
  6
CONTINUOUS
 70
0
 71
3
 72
13
 73
9
 74
0
 42
0.0000001
 43
0.0000001
 44
0.0000000001
 40
0.0
 40
0.0
 40
0.0
 40
0.0
 40
0.3368893795
 40
0.6309116701
 40
0.7513927601
 40
0.8513955885
 40
0.9321308812
 40
1.0
 40
1.0
 40
1.0
 40
1.0
 10
118.7016809964
 20
150.1161869522
 30
0.0
 10
118.7656479457
 20
150.1161869522
 30
0.0
 10
118.8855378924
 20
150.107515313
 30
0.0
 10
119.0255611573
 20
150.0747251601
 30
0.0
 10
119.114862222
 20
150.0342870088
 30
0.0
 10
119.1623796165
 20
150.0017153266
 30
0.0
 10
119.1935175878
 20
149.9651293881
 30
0.0
 10
119.2016809964
 20
149.9367659246
 30
0.0
 10
119.2016809964
 20
149.9238792599
 30
0.0
  0
SPLINE
  5
370
100
AcDbEntity
  8
RUNDUNGEN
100
AcDbSpline
 62
7
  6
CONTINUOUS
 70
0
 71
3
 72
13
 73
9
 74
0
 42
0.0000001
 43
0.0000001
 44
0.0000000001
 40
0.0
 40
0.0
 40
0.0
 40
0.0
 40
0.3368893761
 40
0.6309116668
 40
0.751392758
 40
0.8513955875
 40
0.9321308809
 40
1.0
 40
1.0
 40
1.0
 40
1.0
 10
118.7016809964
 20
154.7315715668
 30
0.0
 10
118.7656479451
 20
154.7315715668
 30
0.0
 10
118.8855378912
 20
154.7402432058
 30
0.0
 10
119.0255611558
 20
154.7730333586
 30
0.0
 10
119.114862221
 20
154.8134715098
 30
0.0
 10
119.1623796161
 20
154.8460431923
 30
0.0
 10
119.1935175876
 20
154.8826291312
 30
0.0
 10
119.2016809964
 20
154.9109925948
 30
0.0
 10
119.2016809964
 20
154.9238792596
 30
0.0
  0
SPLINE
  5
371
100
AcDbEntity
  8
RUNDUNGEN
100
AcDbSpline
 62
7
  6
CONTINUOUS
 70
0
 71
3
 72
11
 73
7
 74
0
 42
0.0000001
 43
0.0000001
 44
0.0000000001
 40
0.0
 40
0.0
 40
0.0
 40
0.0
 40
0.2227070835
 40
0.4617795392
 40
0.7222480737
 40
1.0
 40
1.0
 40
1.0
 40
1.0
 10
139.7016809964
 20
146.4238792597
 30
0.0
 10
139.6444803565
 20
146.4238765747
 30
0.0
 10
139.5248310781
 20
146.4490964924
 30
0.0
 10
139.367442834
 20
146.5540928569
 30
0.0
 10
139.2432051814
 20
146.7140264591
 30
0.0
 10
139.2016787326
 20
146.8525407657
 30
0.0
 10
139.2016809964
 20
146.9238792597
 30
0.0
  0
SPLINE
  5
372
100
AcDbEntity
  8
RUNDUNGEN
100
AcDbSpline
 62
7
  6
CONTINUOUS
 70
0
 71
3
 72
13
 73
9
 74
0
 42
0.0000001
 43
0.0000001
 44
0.0000000001
 40
0.0
 40
0.0
 40
0.0
 40
0.0
 40
0.0678691192
 40
0.1486044122
 40
0.2486072408
 40
0.3690883309
 40
0.6631106213
 40
1.0
 40
1.0
 40
1.0
 40
1.0
 10
139.2016809964
 20
149.9238792597
 30
0.0
 10
139.2016809964
 20
149.9367659245
 30
0.0
 10
139.209844405
 20
149.9651293882
 30
0.0
 10
139.2409823763
 20
150.001715327
 30
0.0
 10
139.2884997708
 20
150.0342870096
 30
0.0
 10
139.3778008356
 20
150.0747251612
 30
0.0
 10
139.5178241004
 20
150.1075153146
 30
0.0
 10
139.6377140472
 20
150.116186954
 30
0.0
 10
139.7016809964
 20
150.1161869542
 30
0.0
  0
SPLINE
  5
373
100
AcDbEntity
  8
RUNDUNGEN
100
AcDbSpline
 62
7
  6
CONTINUOUS
 70
0
 71
3
 72
9
 73
5
 74
0
 42
0.0000001
 43
0.0000001
 44
0.0000000001
 40
0.0
 40
0.0
 40
0.0
 40
0.0
 40
0.25943042
 40
1.0
 40
1.0
 40
1.0
 40
1.0
 10
139.2016809964
 20
157.9238792597
 30
0.0
 10
139.2016811791
 20
157.946642991
 30
0.0
 10
139.2100711825
 20
158.0343943419
 30
0.0
 10
139.2457603285
 20
158.1179191973
 30
0.0
 10
139.2806546992
 20
158.1727366464
 30
0.0
  0
SPLINE
  5
374
100
AcDbEntity
  8
RUNDUNGEN
100
AcDbSpline
 62
7
  6
CONTINUOUS
 70
0
 71
3
 72
10
 73
6
 74
0
 42
0.0000001
 43
0.0000001
 44
0.0000000001
 40
0.0
 40
0.0
 40
0.0
 40
0.0
 40
0.5254721473
 40
0.7672788815
 40
1.0
 40
1.0
 40
1.0
 40
1.0
 10
139.2806546992
 20
158.1727366464
 30
0.0
 10
139.3284300376
 20
158.2477860621
 30
0.0
 10
139.4251076334
 20
158.3439854283
 30
0.0
 10
139.5814784229
 20
158.4123432558
 30
0.0
 10
139.6622798599
 20
158.4238804071
 30
0.0
 10
139.7016809964
 20
158.4238792597
 30
0.0
  0
SPLINE
  5
375
100
AcDbEntity
  8
RUNDUNGEN
100
AcDbSpline
 62
7
  6
CONTINUOUS
 70
0
 71
3
 72
13
 73
9
 74
0
 42
0.0000001
 43
0.0000001
 44
0.0000000001
 40
0.0
 40
0.0
 40
0.0
 40
0.0
 40
0.0678691191
 40
0.1486044125
 40
0.2486072419
 40
0.3690883331
 40
0.6631106237
 40
1.0
 40
1.0
 40
1.0
 40
1.0
 10
139.2016809964
 20
154.9238792596
 30
0.0
 10
139.2016809964
 20
154.9109925948
 30
0.0
 10
139.2098444053
 20
154.8826291312
 30
0.0
 10
139.2409823768
 20
154.8460431924
 30
0.0
 10
139.2884997718
 20
154.8134715099
 30
0.0
 10
139.377800837
 20
154.7730333587
 30
0.0
 10
139.5178241016
 20
154.7402432059
 30
0.0
 10
139.6377140477
 20
154.7315715669
 30
0.0
 10
139.7016809964
 20
154.7315715669
 30
0.0
  0
SPLINE
  5
376
100
AcDbEntity
  8
RUNDUNGEN
100
AcDbSpline
 62
7
  6
CONTINUOUS
 70
0
 71
3
 72
11
 73
7
 74
0
 42
0.0000001
 43
0.0000001
 44
0.0000000001
 40
0.0
 40
0.0
 40
0.0
 40
0.0
 40
0.3136968471
 40
0.600755584
 40
0.834452889
 40
1.0
 40
1.0
 40
1.0
 40
1.0
 10
118.7187180833
 20
150.4268868747
 30
0.0
 10
118.7729647975
 20
150.4223248345
 30
0.0
 10
118.8764018406
 20
150.4080225191
 30
0.0
 10
119.0173539641
 20
150.3720839445
 30
0.0
 10
119.127010247
 20
150.3260195521
 30
0.0
 10
119.1850758336
 20
150.2839138015
 30
0.0
 10
119.2016809964
 20
150.2604701664
 30
0.0
  0
SPLINE
  5
377
100
AcDbEntity
  8
RUNDUNGEN
100
AcDbSpline
 62
7
  6
CONTINUOUS
 70
0
 71
3
 72
11
 73
7
 74
0
 42
0.0000001
 43
0.0000001
 44
0.0000000001
 40
0.0
 40
0.0
 40
0.0
 40
0.0
 40
0.3137124895
 40
0.6007781341
 40
0.8344694489
 40
1.0
 40
1.0
 40
1.0
 40
1.0
 10
118.7187180845
 20
154.4208527634
 30
0.0
 10
118.7729676629
 20
154.4254155937
 30
0.0
 10
118.8764087656
 20
154.4397199146
 30
0.0
 10
119.017363596
 20
154.4756631613
 30
0.0
 10
119.1270151849
 20
154.5217317118
 30
0.0
 10
119.1850745628
 20
154.5638427945
 30
0.0
 10
119.2016722249
 20
154.5872883527
 30
0.0
  0
SPLINE
  5
378
100
AcDbEntity
  8
RUNDUNGEN
100
AcDbSpline
 62
7
  6
CONTINUOUS
 70
0
 71
3
 72
11
 73
7
 74
0
 42
0.0000001
 43
0.0000001
 44
0.0000000001
 40
0.0
 40
0.0
 40
0.0
 40
0.0
 40
0.1655471115
 40
0.3992444193
 40
0.6863031571
 40
1.0
 40
1.0
 40
1.0
 40
1.0
 10
139.2016809964
 20
150.2604701664
 30
0.0
 10
139.21828616
 20
150.2839138008
 30
0.0
 10
139.2763517483
 20
150.326019549
 30
0.0
 10
139.386008032
 20
150.3720839382
 30
0.0
 10
139.5269601548
 20
150.4080225098
 30
0.0
 10
139.6303971966
 20
150.4223248237
 30
0.0
 10
139.6846439096
 20
150.4268868634
 30
0.0
  0
SPLINE
  5
379
100
AcDbEntity
  8
RUNDUNGEN
100
AcDbSpline
 62
7
  6
CONTINUOUS
 70
0
 71
3
 72
11
 73
7
 74
0
 42
0.0000001
 43
0.0000001
 44
0.0000000001
 40
0.0
 40
0.0
 40
0.0
 40
0.0
 40
0.1655313375
 40
0.3992229458
 40
0.6862882653
 40
1.0
 40
1.0
 40
1.0
 40
1.0
 10
139.201689331
 20
154.5872883527
 30
0.0
 10
139.2182873513
 20
154.5638428866
 30
0.0
 10
139.2763470319
 20
154.5217320623
 30
0.0
 10
139.3859988506
 20
154.4756637167
 30
0.0
 10
139.5269535567
 20
154.4397206988
 30
0.0
 10
139.6303944672
 20
154.4254164761
 30
0.0
 10
139.6846439085
 20
154.4208536844
 30
0.0
  0
SPLINE
  5
37A
100
AcDbEntity
  8
RUNDUNGEN
100
AcDbSpline
 62
7
  6
CONTINUOUS
 70
0
 71
3
 72
11
 73
7
 74
0
 42
0.0000001
 43
0.0000001
 44
0.0000000001
 40
0.0
 40
0.0
 40
0.0
 40
0.0
 40
0.2074188621
 40
0.4491815399
 40
0.7173596946
 40
1.0
 40
1.0
 40
1.0
 40
1.0
 10
108.3491142458
 20
157.9238794372
 30
0.0
 10
108.1708156092
 20
157.576457426
 30
0.0
 10
107.8577789968
 20
156.7864229742
 30
0.0
 10
107.5269763353
 20
155.474352832
 30
0.0
 10
107.3177886434
 20
153.9943735651
 30
0.0
 10
107.2704366593
 20
152.9567114963
 30
0.0
 10
107.2703976246
 20
152.4245909515
 30
0.0
  0
SPLINE
  5
37B
100
AcDbEntity
  8
RUNDUNGEN
100
AcDbSpline
 62
7
  6
CONTINUOUS
 70
0
 71
3
 72
11
 73
7
 74
0
 42
0.0000001
 43
0.0000001
 44
0.0000000001
 40
0.0
 40
0.0
 40
0.0
 40
0.0
 40
0.2826275403
 40
0.5508104089
 40
0.7925783827
 40
1.0
 40
1.0
 40
1.0
 40
1.0
 10
107.2703976246
 20
152.4245909515
 30
0.0
 10
107.2703687918
 20
151.892360738
 30
0.0
 10
107.3177056103
 20
150.8544504756
 30
0.0
 10
107.5268206375
 20
149.3740874054
 30
0.0
 10
107.8576755237
 20
148.0616540811
 30
0.0
 10
108.170763209
 20
147.2713921544
 30
0.0
 10
108.3491108017
 20
146.9238791465
 30
0.0
  0
SPLINE
  5
37C
100
AcDbEntity
  8
RUNDUNGEN
100
AcDbSpline
 62
7
  6
CONTINUOUS
 70
0
 71
3
 72
15
 73
11
 74
0
 42
0.0000001
 43
0.0000001
 44
0.0000000001
 40
0.0
 40
0.0
 40
0.0
 40
0.0
 40
0.171593839
 40
0.3360537182
 40
0.4876390469
 40
0.622569472
 40
0.7393291289
 40
0.8385923307
 40
0.9234968078
 40
1.0
 40
1.0
 40
1.0
 40
1.0
 10
77.0014734582
 20
149.4238792597
 30
0.0
 10
77.0014521541
 20
149.2179638027
 30
0.0
 10
76.9814781981
 20
148.8143831149
 30
0.0
 10
76.8929746181
 20
148.2348865461
 30
0.0
 10
76.7524137539
 20
147.7109758381
 30
0.0
 10
76.5680767604
 20
147.2618350275
 30
0.0
 10
76.3487921262
 20
146.8998123387
 30
0.0
 10
76.1018940657
 20
146.6319370818
 30
0.0
 10
75.8324767469
 20
146.4636903052
 30
0.0
 10
75.6373412046
 20
146.423879003
 30
0.0
 10
75.5455361028
 20
146.4238792619
 30
0.0
  0
LINE
  5
37D
100
AcDbEntity
  8
RUNDUNGEN
100
AcDbLine
 62
7
  6
CONTINUOUS
 10
139.2016809964
 20
154.9238792597
 11
139.2016809964
 21
154.587288353
  0
SPLINE
  5
37E
100
AcDbEntity
  8
RUNDUNGEN
100
AcDbSpline
 62
7
  6
CONTINUOUS
 70
0
 71
3
 72
9
 73
5
 74
0
 42
0.0000001
 43
0.0000001
 44
0.0000000001
 40
0.0
 40
0.0
 40
0.0
 40
0.0
 40
0.5000003515
 40
1.0
 40
1.0
 40
1.0
 40
1.0
 10
139.2016809964
 20
154.587288353
 30
0.0
 10
139.1337456435
 20
153.8685959474
 30
0.0
 10
139.0710177688
 20
152.423878777
 30
0.0
 10
139.1337451264
 20
150.9791615036
 30
0.0
 10
139.2016809964
 20
150.2604701664
 30
0.0
  0
LINE
  5
37F
100
AcDbEntity
  8
RUNDUNGEN
100
AcDbLine
 62
7
  6
CONTINUOUS
 10
139.2016809964
 20
150.2604701664
 11
139.2016809964
 21
149.9238792597
  0
SPLINE
  5
380
100
AcDbEntity
  8
RUNDUNGEN
100
AcDbSpline
 62
7
  6
CONTINUOUS
 70
0
 71
3
 72
9
 73
5
 74
0
 42
0.0000001
 43
0.0000001
 44
0.0000000001
 40
0.0
 40
0.0
 40
0.0
 40
0.0
 40
0.5287744098
 40
1.0
 40
1.0
 40
1.0
 40
1.0
 10
77.941166079
 20
149.4238792597
 30
0.0
 10
77.9411076601
 20
148.9786058334
 30
0.0
 10
77.8910433874
 20
148.1358902011
 30
0.0
 10
77.7327632774
 20
147.3048461651
 30
0.0
 10
77.6217585459
 20
146.9238763253
 30
0.0
  0
SPLINE
  5
381
100
AcDbEntity
  8
RUNDUNGEN
100
AcDbSpline
 62
7
  6
CONTINUOUS
 70
0
 71
3
 72
10
 73
6
 74
0
 42
0.0000001
 43
0.0000001
 44
0.0000000001
 40
0.0
 40
0.0
 40
0.0
 40
0.0
 40
0.225437557
 40
0.4713465669
 40
1.0
 40
1.0
 40
1.0
 40
1.0
 10
77.6217705224
 20
157.9238782072
 30
0.0
 10
77.6749027494
 20
157.7415587985
 30
0.0
 10
77.7679250239
 20
157.3549657127
 30
0.0
 10
77.9026207789
 20
156.522948502
 30
0.0
 10
77.9410821742
 20
155.8692053254
 30
0.0
 10
77.941166079
 20
155.4238792597
 30
0.0
  0
SPLINE
  5
382
100
AcDbEntity
  8
RUNDUNGEN
100
AcDbSpline
 62
7
  6
CONTINUOUS
 70
0
 71
3
 72
13
 73
9
 74
0
 42
0.0000001
 43
0.0000001
 44
0.0000000001
 40
0.0
 40
0.0
 40
0.0
 40
0.0
 40
0.2732375467
 40
0.5424010804
 40
0.6723707554
 40
0.7956221298
 40
0.9073099608
 40
1.0
 40
1.0
 40
1.0
 40
1.0
 10
75.5455850994
 20
146.4238866081
 30
0.0
 10
75.7417800268
 20
146.4238629703
 30
0.0
 10
76.1317139172
 20
146.4510086071
 30
0.0
 10
76.6061108866
 20
146.5467991596
 30
0.0
 10
76.9664760798
 20
146.6512880346
 30
0.0
 10
77.214283801
 20
146.7368880984
 30
0.0
 10
77.4322196351
 20
146.8254995224
 30
0.0
 10
77.564597982
 20
146.889744418
 30
0.0
 10
77.6217478245
 20
146.9238539329
 30
0.0
  0
SPLINE
  5
383
100
AcDbEntity
  8
RUNDUNGEN
100
AcDbSpline
 62
7
  6
CONTINUOUS
 70
0
 71
3
 72
13
 73
9
 74
0
 42
0.0000001
 43
0.0000001
 44
0.0000000001
 40
0.0
 40
0.0
 40
0.0
 40
0.0
 40
0.0926895806
 40
0.2043753936
 40
0.3276270562
 40
0.4575969707
 40
0.7267592779
 40
1.0
 40
1.0
 40
1.0
 40
1.0
 10
77.6217626304
 20
157.9238807463
 30
0.0
 10
77.5646132955
 20
157.9579918072
 30
0.0
 10
77.4322480771
 20
158.0222621546
 30
0.0
 10
77.2143055187
 20
158.1108627905
 30
0.0
 10
76.9664933741
 20
158.1964528083
 30
0.0
 10
76.6061301341
 20
158.3009605233
 30
0.0
 10
76.1317252315
 20
158.3967490138
 30
0.0
 10
75.7417862486
 20
158.4238955718
 30
0.0
 10
75.5455870199
 20
158.4238714207
 30
0.0
  0
SPLINE
  5
384
100
AcDbEntity
  8
RUNDUNGEN
100
AcDbSpline
 62
7
  6
CONTINUOUS
 70
0
 71
3
 72
12
 73
8
 74
0
 42
0.0000001
 43
0.0000001
 44
0.0000000001
 40
0.0
 40
0.0
 40
0.0
 40
0.0
 40
0.2724235057
 40
0.5385782557
 40
0.7882364706
 40
0.9010144553
 40
1.0
 40
1.0
 40
1.0
 40
1.0
 10
111.0257752562
 20
158.423869861
 30
0.0
 10
110.7769327951
 20
158.4238879786
 30
0.0
 10
110.2846260641
 20
158.4005848435
 30
0.0
 10
109.5709092218
 20
158.299118459
 30
0.0
 10
109.0111477817
 20
158.1663542876
 30
0.0
 10
108.6103427177
 20
158.035507637
 30
0.0
 10
108.4306534517
 20
157.9629602543
 30
0.0
 10
108.3491159744
 20
157.9238842545
 30
0.0
  0
SPLINE
  5
385
100
AcDbEntity
  8
RUNDUNGEN
100
AcDbSpline
 62
7
  6
CONTINUOUS
 70
0
 71
3
 72
12
 73
8
 74
0
 42
0.0000001
 43
0.0000001
 44
0.0000000001
 40
0.0
 40
0.0
 40
0.0
 40
0.0
 40
0.0989848547
 40
0.2117627044
 40
0.4614199243
 40
0.7275766439
 40
1.0
 40
1.0
 40
1.0
 40
1.0
 10
108.3491109869
 20
146.923877246
 30
0.0
 10
108.4306483964
 20
146.8848021619
 30
0.0
 10
108.6103367941
 20
146.8122538889
 30
0.0
 10
109.0111410556
 20
146.68140721
 30
0.0
 10
109.5709040777
 20
146.5486422911
 30
0.0
 10
110.2846225806
 20
146.4471714564
 30
0.0
 10
110.7769319473
 20
146.4238696792
 30
0.0
 10
111.025774749
 20
146.4238862259
 30
0.0
  0
SPLINE
  5
386
100
AcDbEntity
  8
RUNDUNGEN
100
AcDbSpline
 62
7
  6
CONTINUOUS
 70
0
 71
3
 72
9
 73
5
 74
0
 42
0.0000001
 43
0.0000001
 44
0.0000000001
 40
0.0
 40
0.0
 40
0.0
 40
0.0
 40
0.5338381791
 40
1.0
 40
1.0
 40
1.0
 40
1.0
 10
85.9826994763
 20
146.9238792597
 30
0.0
 10
85.9826943939
 20
146.828934413
 30
0.0
 10
86.0187203464
 20
146.6486075833
 30
0.0
 10
86.14025462
 20
146.5021651231
 30
0.0
 10
86.2127510399
 20
146.4619398842
 30
0.0
  0
SPLINE
  5
387
100
AcDbEntity
  8
RUNDUNGEN
100
AcDbSpline
 62
7
  6
CONTINUOUS
 70
0
 71
3
 72
9
 73
5
 74
0
 42
0.0000001
 43
0.0000001
 44
0.0000000001
 40
0.0
 40
0.0
 40
0.0
 40
0.0
 40
0.257664958
 40
1.0
 40
1.0
 40
1.0
 40
1.0
 10
86.2127510399
 20
146.4619398842
 30
0.0
 10
86.2239037143
 20
146.4557517305
 30
0.0
 10
86.2685354882
 20
146.4342875425
 30
0.0
 10
86.3186318603
 20
146.4238792597
 30
0.0
 10
86.3553774764
 20
146.4238792597
 30
0.0
  0
SPLINE
  5
388
100
AcDbEntity
  8
RUNDUNGEN
100
AcDbSpline
 62
7
  6
CONTINUOUS
 70
0
 71
3
 72
11
 73
7
 74
0
 42
0.0000001
 43
0.0000001
 44
0.0000000001
 40
0.0
 40
0.0
 40
0.0
 40
0.0
 40
0.2571361857
 40
0.5101514665
 40
0.7572215914
 40
1.0
 40
1.0
 40
1.0
 40
1.0
 10
85.5940262194
 20
146.9238792597
 30
0.0
 10
85.5940262194
 20
146.8589940779
 30
0.0
 10
85.6179805284
 20
146.7289757699
 30
0.0
 10
85.7214086011
 20
146.5629342805
 30
0.0
 10
85.8775429155
 20
146.4505003688
 30
0.0
 10
86.0026103581
 20
146.4238792597
 30
0.0
 10
86.0638725298
 20
146.4238792597
 30
0.0
  0
SPLINE
  5
389
100
AcDbEntity
  8
RUNDUNGEN
100
AcDbSpline
 62
7
  6
CONTINUOUS
 70
0
 71
3
 72
11
 73
7
 74
0
 42
0.0000001
 43
0.0000001
 44
0.0000000001
 40
0.0
 40
0.0
 40
0.0
 40
0.0
 40
0.2571360361
 40
0.5101512625
 40
0.7572214569
 40
1.0
 40
1.0
 40
1.0
 40
1.0
 10
77.621776635
 20
146.9238763253
 30
0.0
 10
77.6217770638
 20
146.8589915638
 30
0.0
 10
77.6457319213
 20
146.7289742498
 30
0.0
 10
77.7491598191
 20
146.5629341258
 30
0.0
 10
77.9052931935
 20
146.4505009166
 30
0.0
 10
78.030359797
 20
146.4238795602
 30
0.0
 10
78.0916216416
 20
146.4238792597
 30
0.0
  0
SPLINE
  5
38A
100
AcDbEntity
  8
RUNDUNGEN
100
AcDbSpline
 62
7
  6
CONTINUOUS
 70
0
 71
3
 72
11
 73
7
 74
0
 42
0.0000001
 43
0.0000001
 44
0.0000000001
 40
0.0
 40
0.0
 40
0.0
 40
0.0
 40
0.2571357893
 40
0.5101505746
 40
0.7572207807
 40
1.0
 40
1.0
 40
1.0
 40
1.0
 10
77.6217737459
 20
157.9238782072
 30
0.0
 10
77.6217734016
 20
157.9887631095
 30
0.0
 10
77.6457268664
 20
158.118780945
 30
0.0
 10
77.7491534722
 20
158.2848224794
 30
0.0
 10
77.9052869004
 20
158.3972569152
 30
0.0
 10
78.03035401
 20
158.4238787696
 30
0.0
 10
78.0916162168
 20
158.4238792597
 30
0.0
  0
SPLINE
  5
38B
100
AcDbEntity
  8
RUNDUNGEN
100
AcDbSpline
 62
7
  6
CONTINUOUS
 70
0
 71
3
 72
11
 73
7
 74
0
 42
0.0000001
 43
0.0000001
 44
0.0000000001
 40
0.0
 40
0.0
 40
0.0
 40
0.0
 40
0.2571361879
 40
0.5101514653
 40
0.7572215883
 40
1.0
 40
1.0
 40
1.0
 40
1.0
 10
85.5940262194
 20
157.9238792597
 30
0.0
 10
85.5940262194
 20
157.988764442
 30
0.0
 10
85.6179805287
 20
158.1187827496
 30
0.0
 10
85.7214086009
 20
158.2848242384
 30
0.0
 10
85.8775429145
 20
158.3972581499
 30
0.0
 10
86.0026103573
 20
158.4238792597
 30
0.0
 10
86.0638725298
 20
158.4238792597
 30
0.0
  0
SPLINE
  5
38C
100
AcDbEntity
  8
RUNDUNGEN
100
AcDbSpline
 62
7
  6
CONTINUOUS
 70
0
 71
3
 72
9
 73
5
 74
0
 42
0.0000001
 43
0.0000001
 44
0.0000000001
 40
0.0
 40
0.0
 40
0.0
 40
0.0
 40
0.5338416095
 40
1.0
 40
1.0
 40
1.0
 40
1.0
 10
85.9826994763
 20
157.9238792597
 30
0.0
 10
85.9826994764
 20
158.0188248826
 30
0.0
 10
86.0187321359
 20
158.1991491057
 30
0.0
 10
86.1402638612
 20
158.3455924038
 30
0.0
 10
86.2127591692
 20
158.3858186878
 30
0.0
  0
SPLINE
  5
38D
100
AcDbEntity
  8
RUNDUNGEN
100
AcDbSpline
 62
7
  6
CONTINUOUS
 70
0
 71
3
 72
9
 73
5
 74
0
 42
0.0000001
 43
0.0000001
 44
0.0000000001
 40
0.0
 40
0.0
 40
0.0
 40
0.0
 40
0.2576686864
 40
1.0
 40
1.0
 40
1.0
 40
1.0
 10
86.2127591692
 20
158.3858186878
 30
0.0
 10
86.2239113058
 20
158.3920067988
 30
0.0
 10
86.2685402979
 20
158.4134706754
 30
0.0
 10
86.3186339868
 20
158.4238792597
 30
0.0
 10
86.3553774722
 20
158.4238792597
 30
0.0
  0
SPLINE
  5
38E
100
AcDbEntity
  8
RUNDUNGEN
100
AcDbSpline
 62
7
  6
CONTINUOUS
 70
0
 71
3
 72
11
 73
7
 74
0
 42
0.0000001
 43
0.0000001
 44
0.0000000001
 40
0.0
 40
0.0
 40
0.0
 40
0.0
 40
0.2586598092
 40
0.5123341604
 40
0.7587859021
 40
1.0
 40
1.0
 40
1.0
 40
1.0
 10
108.3491077507
 20
157.9238794372
 30
0.0
 10
108.3491077218
 20
157.9887356354
 30
0.0
 10
108.3255692371
 20
158.1184567078
 30
0.0
 10
108.2237629408
 20
158.2844432614
 30
0.0
 10
108.0697396744
 20
158.3971183079
 30
0.0
 10
107.9459976036
 20
158.4238792584
 30
0.0
 10
107.8855157321
 20
158.4238792597
 30
0.0
  0
SPLINE
  5
38F
100
AcDbEntity
  8
RUNDUNGEN
100
AcDbSpline
 62
7
  6
CONTINUOUS
 70
0
 71
3
 72
11
 73
7
 74
0
 42
0.0000001
 43
0.0000001
 44
0.0000000001
 40
0.0
 40
0.0
 40
0.0
 40
0.0
 40
0.2586598225
 40
0.5123341816
 40
0.7587859203
 40
1.0
 40
1.0
 40
1.0
 40
1.0
 10
97.9277791701
 20
157.9238792597
 30
0.0
 10
97.9277791701
 20
157.9887354713
 30
0.0
 10
97.9042407337
 20
158.1184565803
 30
0.0
 10
97.802434471
 20
158.2844431988
 30
0.0
 10
97.6484112047
 20
158.3971182946
 30
0.0
 10
97.5246691192
 20
158.4238792597
 30
0.0
 10
97.4641872428
 20
158.4238792597
 30
0.0
  0
SPLINE
  5
390
100
AcDbEntity
  8
RUNDUNGEN
100
AcDbSpline
 62
7
  6
CONTINUOUS
 70
0
 71
3
 72
11
 73
7
 74
0
 42
0.0000001
 43
0.0000001
 44
0.0000000001
 40
0.0
 40
0.0
 40
0.0
 40
0.0
 40
0.2770435788
 40
0.5406117956
 40
0.7812973526
 40
1.0
 40
1.0
 40
1.0
 40
1.0
 10
97.5641234458
 20
157.9238792597
 30
0.0
 10
97.5641260662
 20
157.9804639844
 30
0.0
 10
97.5501881758
 20
158.0914402929
 30
0.0
 10
97.4888390508
 20
158.2409565171
 30
0.0
 10
97.3928120985
 20
158.3566719054
 30
0.0
 10
97.307300486
 20
158.4026820112
 30
0.0
 10
97.2641437292
 20
158.4142060756
 30
0.0
  0
SPLINE
  5
391
100
AcDbEntity
  8
RUNDUNGEN
100
AcDbSpline
 62
7
  6
CONTINUOUS
 70
0
 71
3
 72
8
 73
4
 74
0
 42
0.0000001
 43
0.0000001
 44
0.0000000001
 40
0.0
 40
0.0
 40
0.0
 40
0.0
 40
1.0
 40
1.0
 40
1.0
 40
1.0
 10
97.2641437292
 20
158.4142060756
 30
0.0
 10
97.2405249522
 20
158.4205129515
 30
0.0
 10
97.2158917887
 20
158.4238792597
 30
0.0
 10
97.1914454533
 20
158.4238792597
 30
0.0
  0
SPLINE
  5
392
100
AcDbEntity
  8
RUNDUNGEN
100
AcDbSpline
 62
7
  6
CONTINUOUS
 70
0
 71
3
 72
11
 73
7
 74
0
 42
0.0000001
 43
0.0000001
 44
0.0000000001
 40
0.0
 40
0.0
 40
0.0
 40
0.0
 40
0.258659788
 40
0.5123341301
 40
0.7587858764
 40
1.0
 40
1.0
 40
1.0
 40
1.0
 10
108.3491082702
 20
146.9238791465
 30
0.0
 10
108.3491082911
 20
146.859022913
 30
0.0
 10
108.3255698506
 20
146.7293017417
 30
0.0
 10
108.223763435
 20
146.5633151114
 30
0.0
 10
108.0697400007
 20
146.4506400743
 30
0.0
 10
107.9459978176
 20
146.4238792058
 30
0.0
 10
107.8855159018
 20
146.4238792597
 30
0.0
  0
SPLINE
  5
393
100
AcDbEntity
  8
RUNDUNGEN
100
AcDbSpline
 62
7
  6
CONTINUOUS
 70
0
 71
3
 72
11
 73
7
 74
0
 42
0.0000001
 43
0.0000001
 44
0.0000000001
 40
0.0
 40
0.0
 40
0.0
 40
0.0
 40
0.2586598242
 40
0.5123341807
 40
0.758785918
 40
1.0
 40
1.0
 40
1.0
 40
1.0
 10
97.9277791701
 20
146.9238792597
 30
0.0
 10
97.9277791701
 20
146.8590230476
 30
0.0
 10
97.9042407334
 20
146.7293019388
 30
0.0
 10
97.8024344712
 20
146.5633153209
 30
0.0
 10
97.6484112054
 20
146.4506402253
 30
0.0
 10
97.5246691197
 20
146.4238792597
 30
0.0
 10
97.4641872428
 20
146.4238792597
 30
0.0
  0
SPLINE
  5
394
100
AcDbEntity
  8
RUNDUNGEN
100
AcDbSpline
 62
7
  6
CONTINUOUS
 70
0
 71
3
 72
11
 73
7
 74
0
 42
0.0000001
 43
0.0000001
 44
0.0000000001
 40
0.0
 40
0.0
 40
0.0
 40
0.0
 40
0.2825356639
 40
0.5472257215
 40
0.7843970166
 40
1.0
 40
1.0
 40
1.0
 40
1.0
 10
97.5641234458
 20
146.9238792597
 30
0.0
 10
97.5641234457
 20
146.8594015153
 30
0.0
 10
97.5461936203
 20
146.7336654053
 30
0.0
 10
97.4675066204
 20
146.5694183271
 30
0.0
 10
97.3452840778
 20
146.4534648857
 30
0.0
 10
97.2406484207
 20
146.4238792597
 30
0.0
 10
97.1914454497
 20
146.4238792597
 30
0.0
  0
LINE
  5
395
100
AcDbEntity
  8
RUNDUNGEN
100
AcDbLine
 62
7
  6
CONTINUOUS
 10
119.2016809964
 20
150.2604701664
 11
119.2016809964
 21
149.9238792597
  0
SPLINE
  5
396
100
AcDbEntity
  8
RUNDUNGEN
100
AcDbSpline
 62
7
  6
CONTINUOUS
 70
0
 71
3
 72
9
 73
5
 74
0
 42
0.0000001
 43
0.0000001
 44
0.0000000001
 40
0.0
 40
0.0
 40
0.0
 40
0.0
 40
0.4999999972
 40
1.0
 40
1.0
 40
1.0
 40
1.0
 10
119.2016809964
 20
154.587288353
 30
0.0
 10
119.2696173228
 20
153.8685965532
 30
0.0
 10
119.3323435235
 20
152.4238792622
 30
0.0
 10
119.2696172925
 20
150.9791619771
 30
0.0
 10
119.2016809964
 20
150.2604701664
 30
0.0
  0
SPLINE
  5
397
100
AcDbEntity
  8
RUNDUNGEN
100
AcDbSpline
 62
7
  6
CONTINUOUS
 70
0
 71
3
 72
11
 73
7
 74
0
 42
0.0000001
 43
0.0000001
 44
0.0000000001
 40
0.0
 40
0.0
 40
0.0
 40
0.0
 40
0.232653477
 40
0.4709641149
 40
0.7227572591
 40
1.0
 40
1.0
 40
1.0
 40
1.0
 10
220.4341645883
 20
146.4238866081
 30
0.0
 10
220.6537789161
 20
146.4238628311
 30
0.0
 10
221.098774375
 20
146.4521141503
 30
0.0
 10
221.7713670383
 20
146.5719326889
 30
0.0
 10
222.4740659641
 20
146.7480102906
 30
0.0
 10
222.9588310053
 20
146.8683020503
 30
0.0
 10
223.2145716378
 20
146.9238539329
 30
0.0
  0
SPLINE
  5
398
100
AcDbEntity
  8
RUNDUNGEN
100
AcDbSpline
 62
7
  6
CONTINUOUS
 70
0
 71
3
 72
11
 73
7
 74
0
 42
0.0000001
 43
0.0000001
 44
0.0000000001
 40
0.0
 40
0.0
 40
0.0
 40
0.0
 40
0.2772443234
 40
0.5290371274
 40
0.7673486688
 40
1.0
 40
1.0
 40
1.0
 40
1.0
 10
223.2146208168
 20
157.9238807463
 30
0.0
 10
222.9588752511
 20
157.979439247
 30
0.0
 10
222.4741028024
 20
158.0997433434
 30
0.0
 10
221.7713879221
 20
158.2758192089
 30
0.0
 10
221.0987855015
 20
158.3956443911
 30
0.0
 10
220.6537829723
 20
158.4238957178
 30
0.0
 10
220.4341666993
 20
158.4238714207
 30
0.0
  0
SPLINE
  5
399
100
AcDbEntity
  8
RUNDUNGEN
100
AcDbSpline
 62
7
  6
CONTINUOUS
 70
0
 71
3
 72
11
 73
7
 74
0
 42
0.0000001
 43
0.0000001
 44
0.0000000001
 40
0.0
 40
0.0
 40
0.0
 40
0.0
 40
0.2938707601
 40
0.5642354769
 40
0.7973401006
 40
1.0
 40
1.0
 40
1.0
 40
1.0
 10
245.7675060801
 20
146.9238792597
 30
0.0
 10
245.7675022295
 20
146.859539962
 30
0.0
 10
245.7517847016
 20
146.7352936769
 30
0.0
 10
245.6826560248
 20
146.5723239407
 30
0.0
 10
245.574926084
 20
146.4553187363
 30
0.0
 10
245.478542581
 20
146.4238792597
 30
0.0
 10
245.4341727512
 20
146.4238792597
 30
0.0
  0
SPLINE
  5
39A
100
AcDbEntity
  8
RUNDUNGEN
100
AcDbSpline
 62
7
  6
CONTINUOUS
 70
0
 71
3
 72
14
 73
10
 74
0
 42
0.0000001
 43
0.0000001
 44
0.0000000001
 40
0.0
 40
0.0
 40
0.0
 40
0.0
 40
0.3436085044
 40
0.5011161098
 40
0.6420459874
 40
0.7626653901
 40
0.8610174894
 40
0.9379018219
 40
1.0
 40
1.0
 40
1.0
 40
1.0
 10
245.1182130331
 20
146.9238792597
 30
0.0
 10
245.1182130331
 20
146.8599512589
 30
0.0
 10
245.1123461972
 20
146.7664906912
 30
0.0
 10
245.0912810907
 20
146.6488049929
 30
0.0
 10
245.0706842987
 20
146.5734718157
 30
0.0
 10
245.0455981614
 20
146.511167475
 30
0.0
 10
245.0168576814
 20
146.4638345323
 30
0.0
 10
244.9846590745
 20
146.4324833369
 30
0.0
 10
244.9587562621
 20
146.4238792597
 30
0.0
 10
244.9472029614
 20
146.4238792597
 30
0.0
  0
SPLINE
  5
39B
100
AcDbEntity
  8
RUNDUNGEN
100
AcDbSpline
 62
7
  6
CONTINUOUS
 70
0
 71
3
 72
14
 73
10
 74
0
 42
0.0000001
 43
0.0000001
 44
0.0000000001
 40
0.0
 40
0.0
 40
0.0
 40
0.0
 40
0.3436087614
 40
0.501116348
 40
0.6420461956
 40
0.7626655997
 40
0.861017731
 40
0.9379020557
 40
1.0
 40
1.0
 40
1.0
 40
1.0
 10
223.2146373177
 20
146.9238763253
 30
0.0
 10
223.2146373815
 20
146.8599488093
 30
0.0
 10
223.2087707277
 20
146.7664889726
 30
0.0
 10
223.1877060465
 20
146.6488041721
 30
0.0
 10
223.167109643
 20
146.5734715746
 30
0.0
 10
223.1420239619
 20
146.5111676577
 30
0.0
 10
223.1132839862
 20
146.4638349491
 30
0.0
 10
223.0810859802
 20
146.4324837718
 30
0.0
 10
223.0551835639
 20
146.4238794154
 30
0.0
 10
223.0436304029
 20
146.4238792597
 30
0.0
  0
SPLINE
  5
39C
100
AcDbEntity
  8
RUNDUNGEN
100
AcDbSpline
 62
7
  6
CONTINUOUS
 70
0
 71
3
 72
14
 73
10
 74
0
 42
0.0000001
 43
0.0000001
 44
0.0000000001
 40
0.0
 40
0.0
 40
0.0
 40
0.0
 40
0.3436084528
 40
0.5011163595
 40
0.6420467654
 40
0.7626667288
 40
0.861019163
 40
0.937903251
 40
1.0
 40
1.0
 40
1.0
 40
1.0
 10
223.2146293801
 20
157.9238782072
 30
0.0
 10
223.2146288414
 20
157.9878060316
 30
0.0
 10
223.2087613936
 20
158.0812663543
 30
0.0
 10
223.1876955315
 20
158.1989517474
 30
0.0
 10
223.1670984201
 20
158.2742848818
 30
0.0
 10
223.1420124311
 20
158.3365893526
 30
0.0
 10
223.1132724729
 20
158.3839225593
 30
0.0
 10
223.0810749042
 20
158.4152741512
 30
0.0
 10
223.0551727538
 20
158.4238790057
 30
0.0
 10
223.0436197491
 20
158.4238792597
 30
0.0
  0
SPLINE
  5
39D
100
AcDbEntity
  8
RUNDUNGEN
100
AcDbSpline
 62
7
  6
CONTINUOUS
 70
0
 71
3
 72
14
 73
10
 74
0
 42
0.0000001
 43
0.0000001
 44
0.0000000001
 40
0.0
 40
0.0
 40
0.0
 40
0.0
 40
0.3436085073
 40
0.5011161115
 40
0.6420459864
 40
0.7626653881
 40
0.8610174874
 40
0.9379018212
 40
1.0
 40
1.0
 40
1.0
 40
1.0
 10
245.1182130331
 20
157.9238792597
 30
0.0
 10
245.1182130331
 20
157.987807261
 30
0.0
 10
245.1123461969
 20
158.0812678289
 30
0.0
 10
245.0912810908
 20
158.1989535271
 30
0.0
 10
245.0706842987
 20
158.2742867033
 30
0.0
 10
245.0455981621
 20
158.3365910434
 30
0.0
 10
245.016857682
 20
158.3839239863
 30
0.0
 10
244.9846590748
 20
158.4152751816
 30
0.0
 10
244.9587562623
 20
158.4238792597
 30
0.0
 10
244.9472029614
 20
158.4238792597
 30
0.0
  0
SPLINE
  5
39E
100
AcDbEntity
  8
RUNDUNGEN
100
AcDbSpline
 62
7
  6
CONTINUOUS
 70
0
 71
3
 72
11
 73
7
 74
0
 42
0.0000001
 43
0.0000001
 44
0.0000000001
 40
0.0
 40
0.0
 40
0.0
 40
0.0
 40
0.2938652625
 40
0.5642245621
 40
0.7973295733
 40
1.0
 40
1.0
 40
1.0
 40
1.0
 10
245.7675060801
 20
157.9238792597
 30
0.0
 10
245.7675060802
 20
157.9882181741
 30
0.0
 10
245.7517944218
 20
158.1124647017
 30
0.0
 10
245.6826685286
 20
158.2754361995
 30
0.0
 10
245.5749332887
 20
158.3924420485
 30
0.0
 10
245.4785454468
 20
158.4238792597
 30
0.0
 10
245.4341727464
 20
158.4238792597
 30
0.0
  0
SPLINE
  5
39F
100
AcDbEntity
  8
RUNDUNGEN
100
AcDbSpline
 62
7
  6
CONTINUOUS
 70
0
 71
3
 72
11
 73
7
 74
0
 42
0.0000001
 43
0.0000001
 44
0.0000000001
 40
0.0
 40
0.0
 40
0.0
 40
0.0
 40
0.194211587
 40
0.4127979504
 40
0.676156338
 40
1.0
 40
1.0
 40
1.0
 40
1.0
 10
246.4341727464
 20
157.4238792597
 30
0.0
 10
246.434099446
 20
157.4831306337
 30
0.0
 10
246.4025017944
 20
157.6105238946
 30
0.0
 10
246.266871126
 20
157.7733540698
 30
0.0
 10
246.0473245796
 20
157.8942017864
 30
0.0
 10
245.8663065524
 20
157.923873951
 30
0.0
 10
245.7675060798
 20
157.9238792597
 30
0.0
  0
SPLINE
  5
3A0
100
AcDbEntity
  8
RUNDUNGEN
100
AcDbSpline
 62
7
  6
CONTINUOUS
 70
0
 71
3
 72
11
 73
7
 74
0
 42
0.0000001
 43
0.0000001
 44
0.0000000001
 40
0.0
 40
0.0
 40
0.0
 40
0.0
 40
0.3238415625
 40
0.5871984514
 40
0.8057855586
 40
1.0
 40
1.0
 40
1.0
 40
1.0
 10
245.7675060798
 20
146.9238792597
 30
0.0
 10
245.8663061073
 20
146.9238622032
 30
0.0
 10
246.0473226097
 20
146.9535696155
 30
0.0
 10
246.266870497
 20
147.0743970263
 30
0.0
 10
246.4025111238
 20
147.2372325259
 30
0.0
 10
246.4340850647
 20
147.3646269164
 30
0.0
 10
246.4341727464
 20
147.4238792597
 30
0.0
  0
SPLINE
  5
3A1
100
AcDbEntity
  8
RUNDUNGEN
100
AcDbSpline
 62
7
  6
CONTINUOUS
 70
0
 71
3
 72
12
 73
8
 74
0
 42
0.0000001
 43
0.0000001
 44
0.0000000001
 40
0.0
 40
0.0
 40
0.0
 40
0.0
 40
0.2516133088
 40
0.502408592
 40
0.7518392182
 40
0.876058189
 40
1.0
 40
1.0
 40
1.0
 40
1.0
 10
111.0257752562
 20
88.1537358566
 30
0.0
 10
110.7761881884
 20
87.8389215427
 30
0.0
 10
110.2775423587
 20
87.2104905095
 30
0.0
 10
109.5513453604
 20
86.2545467938
 30
0.0
 10
108.9879237039
 20
85.4304937375
 30
0.0
 10
108.5929553363
 20
84.7406142365
 30
0.0
 10
108.4232488931
 20
84.381725161
 30
0.0
 10
108.3491159744
 20
84.1982384336
 30
0.0
  0
LINE
  5
3A2
100
AcDbEntity
  8
RUNDUNGEN
100
AcDbLine
 62
7
  6
CONTINUOUS
 10
122.2016809964
 20
88.1537358568
 11
121.7016809964
 21
88.0655723665
  0
LINE
  5
3A3
100
AcDbEntity
  8
RUNDUNGEN
100
AcDbLine
 62
7
  6
CONTINUOUS
 10
111.0257752949
 20
88.1537358568
 11
108.1975814468
 21
82.1537358407
  0
SPLINE
  5
3A4
100
AcDbEntity
  8
RUNDUNGEN
100
AcDbSpline
 62
7
  6
CONTINUOUS
 70
0
 71
3
 72
11
 73
7
 74
0
 42
0.0000001
 43
0.0000001
 44
0.0000000001
 40
0.0
 40
0.0
 40
0.0
 40
0.0
 40
0.2496791392
 40
0.4996897961
 40
0.7498347971
 40
1.0
 40
1.0
 40
1.0
 40
1.0
 10
78.0916162172
 20
80.5442888547
 30
0.0
 10
77.9863232895
 20
80.8336255178
 30
0.0
 10
77.6712821856
 20
81.3759766947
 30
0.0
 10
77.0303091281
 20
82.0479484254
 30
0.0
 10
76.3048530084
 20
82.624763157
 30
0.0
 10
75.7987626379
 20
82.9776521451
 30
0.0
 10
75.5455065101
 20
83.1538143196
 30
0.0
  0
SPLINE
  5
3A5
100
AcDbEntity
  8
RUNDUNGEN
100
AcDbSpline
 62
7
  6
CONTINUOUS
 70
0
 71
3
 72
11
 73
7
 74
0
 42
0.0000001
 43
0.0000001
 44
0.0000000001
 40
0.0
 40
0.0
 40
0.0
 40
0.0
 40
0.2501660579
 40
0.5002955244
 40
0.750308392
 40
1.0
 40
1.0
 40
1.0
 40
1.0
 10
111.0257752564
 20
88.1537358568
 30
0.0
 10
110.7224368644
 20
87.8748603445
 30
0.0
 10
110.1155498303
 20
87.3174631728
 30
0.0
 10
109.2421930223
 20
86.4415307767
 30
0.0
 10
108.4553334379
 20
85.4868321408
 30
0.0
 10
108.0395759472
 20
84.7668428282
 30
0.0
 10
107.8855153771
 20
84.3855192492
 30
0.0
  0
SPLINE
  5
3A6
100
AcDbEntity
  8
RUNDUNGEN
100
AcDbSpline
 62
7
  6
CONTINUOUS
 70
0
 71
3
 72
14
 73
10
 74
0
 42
0.0000001
 43
0.0000001
 44
0.0000000001
 40
0.0
 40
0.0
 40
0.0
 40
0.0
 40
0.1251031686
 40
0.2499884899
 40
0.3749138721
 40
0.5000317061
 40
0.7500272056
 40
0.8749052456
 40
1.0
 40
1.0
 40
1.0
 40
1.0
 10
127.7721378002
 20
73.7912358568
 30
0.0
 10
127.8907857841
 20
73.8070607865
 30
0.0
 10
128.1275354484
 20
73.8413033633
 30
0.0
 10
128.4845317736
 20
73.8776939195
 30
0.0
 10
128.8427456936
 20
73.898692095
 30
0.0
 10
129.3211671832
 20
73.90870473
 30
0.0
 10
129.7998038944
 20
73.8892093073
 30
0.0
 10
130.2758393572
 20
73.8414822464
 30
0.0
 10
130.512994862
 20
73.8098817851
 30
0.0
 10
130.6312241927
 20
73.7912358568
 30
0.0
  0
LINE
  5
3A7
100
AcDbEntity
  8
RUNDUNGEN
100
AcDbLine
 62
7
  6
CONTINUOUS
 10
119.6677673626
 20
94.1537039123
 11
121.6695921102
 21
88.1537358568
  0
LINE
  5
3A8
100
AcDbEntity
  8
RUNDUNGEN
100
AcDbLine
 62
7
  6
CONTINUOUS
 10
136.2016809964
 20
88.1537358568
 11
136.7016809964
 21
88.0655723665
  0
SPLINE
  5
3A9
100
AcDbEntity
  8
RUNDUNGEN
100
AcDbSpline
 62
7
  6
CONTINUOUS
 70
0
 71
3
 72
9
 73
5
 74
0
 42
0.0000001
 43
0.0000001
 44
0.0000000001
 40
0.0
 40
0.0
 40
0.0
 40
0.0
 40
0.2500174705
 40
1.0
 40
1.0
 40
1.0
 40
1.0
 10
139.0021851776
 20
86.3591668548
 30
0.0
 10
139.0506883271
 20
86.512230436
 30
0.0
 10
139.2602331953
 20
87.1195796205
 30
0.0
 10
139.5127508318
 20
87.7106881197
 30
0.0
 10
139.7016809964
 20
88.1537358568
 30
0.0
  0
LINE
  5
3AA
100
AcDbEntity
  8
RUNDUNGEN
100
AcDbLine
 62
7
  6
CONTINUOUS
 10
122.7016809964
 20
69.0915580303
 11
123.2016809964
 21
69.1573842791
  0
LINE
  5
3AB
100
AcDbEntity
  8
RUNDUNGEN
100
AcDbLine
 62
7
  6
CONTINUOUS
 10
139.2016809964
 20
82.1537358568
 11
138.7016809964
 21
82.2195621056
  0
SPLINE
  5
3AC
100
AcDbEntity
  8
RUNDUNGEN
100
AcDbSpline
 62
7
  6
CONTINUOUS
 70
0
 71
3
 72
8
 73
4
 74
0
 42
0.0000001
 43
0.0000001
 44
0.0000000001
 40
0.0
 40
0.0
 40
0.0
 40
0.0
 40
1.0
 40
1.0
 40
1.0
 40
1.0
 10
138.7016809964
 20
84.6896342417
 30
0.0
 10
138.701682365
 20
84.926324566
 30
0.0
 10
138.7252841884
 20
85.1634701427
 30
0.0
 10
138.7640946117
 20
85.396956889
 30
0.0
  0
SPLINE
  5
3AD
100
AcDbEntity
  8
RUNDUNGEN
100
AcDbSpline
 62
7
  6
CONTINUOUS
 70
0
 71
3
 72
11
 73
7
 74
0
 42
0.0000001
 43
0.0000001
 44
0.0000000001
 40
0.0
 40
0.0
 40
0.0
 40
0.0
 40
0.259163346
 40
0.5130566908
 40
0.7593046633
 40
1.0
 40
1.0
 40
1.0
 40
1.0
 10
118.7016809964
 20
82.6152743181
 30
0.0
 10
118.7665277743
 20
82.6152743181
 30
0.0
 10
118.89615185
 20
82.5918715132
 30
0.0
 10
119.0621186587
 20
82.4905971931
 30
0.0
 10
119.1748728785
 20
82.337268984
 30
0.0
 10
119.2016809964
 20
82.2139616461
 30
0.0
 10
119.2016809964
 20
82.1537358569
 30
0.0
  0
SPLINE
  5
3AE
100
AcDbEntity
  8
RUNDUNGEN
100
AcDbSpline
 62
7
  6
CONTINUOUS
 70
0
 71
3
 72
10
 73
6
 74
0
 42
0.0000001
 43
0.0000001
 44
0.0000000001
 40
0.0
 40
0.0
 40
0.0
 40
0.0
 40
0.5000630689
 40
0.7500748673
 40
1.0
 40
1.0
 40
1.0
 40
1.0
 10
118.7016809964
 20
88.1537358568
 30
0.0
 10
118.8198837359
 20
87.7442695562
 30
0.0
 10
118.9981974609
 20
87.1296033051
 30
0.0
 10
119.1627476777
 20
86.2928068102
 30
0.0
 10
119.2016809964
 20
85.8667381934
 30
0.0
 10
119.2016809964
 20
85.6537358568
 30
0.0
  0
SPLINE
  5
3AF
100
AcDbEntity
  8
RUNDUNGEN
100
AcDbSpline
 62
7
  6
CONTINUOUS
 70
0
 71
3
 72
12
 73
8
 74
0
 42
0.0000001
 43
0.0000001
 44
0.0000000001
 40
0.0
 40
0.0
 40
0.0
 40
0.0
 40
0.1006975846
 40
0.2047678548
 40
0.4336084039
 40
0.7008098045
 40
1.0
 40
1.0
 40
1.0
 40
1.0
 10
87.473411461
 20
57.1537358568
 30
0.0
 10
87.4204155198
 20
57.153773709
 30
0.0
 10
87.3123315034
 20
57.165388867
 30
0.0
 10
87.0939309484
 20
57.2362485721
 30
0.0
 10
86.8287865512
 20
57.4196171284
 30
0.0
 10
86.5612434988
 20
57.7457802448
 30
0.0
 10
86.4197030078
 20
58.010014022
 30
0.0
 10
86.3553774722
 20
58.1537358568
 30
0.0
  0
SPLINE
  5
3B0
100
AcDbEntity
  8
RUNDUNGEN
100
AcDbSpline
 62
7
  6
CONTINUOUS
 70
0
 71
3
 72
9
 73
5
 74
0
 42
0.0000001
 43
0.0000001
 44
0.0000000001
 40
0.0
 40
0.0
 40
0.0
 40
0.0
 40
0.4982031201
 40
1.0
 40
1.0
 40
1.0
 40
1.0
 10
139.2016809964
 20
84.6896342417
 30
0.0
 10
139.2016813698
 20
84.8666665934
 30
0.0
 10
139.2193902029
 20
85.2220194727
 30
0.0
 10
139.2580112549
 20
85.5753486182
 30
0.0
 10
139.2806546992
 20
85.7522143975
 30
0.0
  0
SPLINE
  5
3B1
100
AcDbEntity
  8
RUNDUNGEN
100
AcDbSpline
 62
7
  6
CONTINUOUS
 70
0
 71
3
 72
9
 73
5
 74
0
 42
0.0000001
 43
0.0000001
 44
0.0000000001
 40
0.0
 40
0.0
 40
0.0
 40
0.0
 40
0.4974266827
 40
1.0
 40
1.0
 40
1.0
 40
1.0
 10
139.2806546992
 20
85.7522143975
 30
0.0
 10
139.3319995838
 20
86.1532546264
 30
0.0
 10
139.4673905851
 20
86.9551998387
 30
0.0
 10
139.623333395
 20
87.752822653
 30
0.0
 10
139.7016809964
 20
88.1537358568
 30
0.0
  0
SPLINE
  5
3B2
100
AcDbEntity
  8
RUNDUNGEN
100
AcDbSpline
 62
7
  6
CONTINUOUS
 70
0
 71
3
 72
11
 73
7
 74
0
 42
0.0000001
 43
0.0000001
 44
0.0000000001
 40
0.0
 40
0.0
 40
0.0
 40
0.0
 40
0.2406953367
 40
0.4869433091
 40
0.7408366539
 40
1.0
 40
1.0
 40
1.0
 40
1.0
 10
139.2016809964
 20
82.153735857
 30
0.0
 10
139.2016809965
 20
82.2139616461
 30
0.0
 10
139.2284891144
 20
82.337268984
 30
0.0
 10
139.3412433341
 20
82.4905971931
 30
0.0
 10
139.5072101428
 20
82.5918715132
 30
0.0
 10
139.6368342185
 20
82.6152743182
 30
0.0
 10
139.7016809964
 20
82.6152743182
 30
0.0
  0
LINE
  5
3B3
100
AcDbEntity
  8
RUNDUNGEN
100
AcDbLine
 62
7
  6
CONTINUOUS
 10
105.9402072393
 20
94.153735846
 11
103.7180630277
 21
88.1537358568
  0
SPLINE
  5
3B4
100
AcDbEntity
  8
RUNDUNGEN
100
AcDbSpline
 62
7
  6
CONTINUOUS
 70
0
 71
3
 72
12
 73
8
 74
0
 42
0.0000001
 43
0.0000001
 44
0.0000000001
 40
0.0
 40
0.0
 40
0.0
 40
0.0
 40
0.2991899103
 40
0.5663920666
 40
0.7952327401
 40
0.8993006089
 40
1.0
 40
1.0
 40
1.0
 40
1.0
 10
97.1914454497
 20
58.1537358568
 30
0.0
 10
97.1271168032
 20
58.0100155641
 30
0.0
 10
96.9855810544
 20
57.7457792649
 30
0.0
 10
96.7180353958
 20
57.4196172692
 30
0.0
 10
96.4528925536
 20
57.2362484076
 30
0.0
 10
96.2344920579
 20
57.1653884857
 30
0.0
 10
96.1264083567
 20
57.153774715
 30
0.0
 10
96.073411461
 20
57.1537358568
 30
0.0
  0
SPLINE
  5
3B5
100
AcDbEntity
  8
RUNDUNGEN
100
AcDbSpline
 62
7
  6
CONTINUOUS
 70
0
 71
3
 72
11
 73
7
 74
0
 42
0.0000001
 43
0.0000001
 44
0.0000000001
 40
0.0
 40
0.0
 40
0.0
 40
0.0
 40
0.2565756042
 40
0.5089276631
 40
0.7562524194
 40
1.0
 40
1.0
 40
1.0
 40
1.0
 10
118.7187180845
 20
82.4958746587
 30
0.0
 10
118.7730551879
 20
82.4974858837
 30
0.0
 10
118.8820997661
 20
82.4836227066
 30
0.0
 10
119.029272597
 20
82.4134054843
 30
0.0
 10
119.1429274521
 20
82.3000356068
 30
0.0
 10
119.1883131881
 20
82.2036188327
 30
0.0
 10
119.2016722249
 20
82.1537335078
 30
0.0
  0
SPLINE
  5
3B6
100
AcDbEntity
  8
RUNDUNGEN
100
AcDbSpline
 62
7
  6
CONTINUOUS
 70
0
 71
3
 72
11
 73
7
 74
0
 42
0.0000001
 43
0.0000001
 44
0.0000000001
 40
0.0
 40
0.0
 40
0.0
 40
0.0
 40
0.267338577
 40
0.522334094
 40
0.7647972326
 40
1.0
 40
1.0
 40
1.0
 40
1.0
 10
126.8037778566
 20
58.1537256868
 30
0.0
 10
126.9817566105
 20
57.9982182361
 30
0.0
 10
127.3506810456
 20
57.7173182197
 30
0.0
 10
127.9492667558
 20
57.3959364748
 30
0.0
 10
128.5702445056
 20
57.1983188157
 30
0.0
 10
128.993746097
 20
57.1537586158
 30
0.0
 10
129.2016809964
 20
57.1537358568
 30
0.0
  0
SPLINE
  5
3B7
100
AcDbEntity
  8
RUNDUNGEN
100
AcDbSpline
 62
7
  6
CONTINUOUS
 70
0
 71
3
 72
11
 73
7
 74
0
 42
0.0000001
 43
0.0000001
 44
0.0000000001
 40
0.0
 40
0.0
 40
0.0
 40
0.0
 40
0.2437475707
 40
0.4910723464
 40
0.7434244152
 40
1.0
 40
1.0
 40
1.0
 40
1.0
 10
139.201689331
 20
82.1537336247
 30
0.0
 10
139.2150486719
 20
82.2036187237
 30
0.0
 10
139.2604348892
 20
82.3000349415
 30
0.0
 10
139.3740899943
 20
82.4134039328
 30
0.0
 10
139.5212626595
 20
82.4836204396
 30
0.0
 10
139.6303069563
 20
82.4974833471
 30
0.0
 10
139.6846439085
 20
82.4958720489
 30
0.0
  0
LINE
  5
3B8
100
AcDbEntity
  8
RUNDUNGEN
100
AcDbLine
 62
7
  6
CONTINUOUS
 10
75.5455518895
 20
83.15381432
 11
77.0014735126
 21
80.1537358307
  0
SPLINE
  5
3B9
100
AcDbEntity
  8
RUNDUNGEN
100
AcDbSpline
 62
7
  6
CONTINUOUS
 70
0
 71
3
 72
11
 73
7
 74
0
 42
0.0000001
 43
0.0000001
 44
0.0000000001
 40
0.0
 40
0.0
 40
0.0
 40
0.0
 40
0.2673389496
 40
0.522334142
 40
0.7647970759
 40
1.0
 40
1.0
 40
1.0
 40
1.0
 10
131.599541612
 20
58.1536914256
 30
0.0
 10
131.4215593938
 20
57.9981947808
 30
0.0
 10
131.0526500126
 20
57.7172918647
 30
0.0
 10
130.4540698698
 20
57.3959267543
 30
0.0
 10
129.8331048153
 20
57.1983168636
 30
0.0
 10
129.4096117848
 20
57.1537582427
 30
0.0
 10
129.2016809964
 20
57.1537358568
 30
0.0
  0
LINE
  5
3BA
100
AcDbEntity
  8
RUNDUNGEN
100
AcDbLine
 62
7
  6
CONTINUOUS
 10
136.7337698827
 20
88.1537358568
 11
138.7355946155
 21
94.1537038824
  0
LINE
  5
3BB
100
AcDbEntity
  8
RUNDUNGEN
100
AcDbLine
 62
7
  6
CONTINUOUS
 10
139.6846439096
 20
82.4958193745
 11
139.5853444901
 21
82.1537358565
  0
LINE
  5
3BC
100
AcDbEntity
  8
RUNDUNGEN
100
AcDbLine
 62
7
  6
CONTINUOUS
 10
78.3754730473
 20
93.1537358568
 11
77.4655474141
 21
96.1537358883
  0
LINE
  5
3BD
100
AcDbEntity
  8
RUNDUNGEN
100
AcDbLine
 62
7
  6
CONTINUOUS
 10
135.7016809964
 20
69.0915580303
 11
135.2016809964
 21
69.1573842791
  0
LINE
  5
3BE
100
AcDbEntity
  8
RUNDUNGEN
100
AcDbLine
 62
7
  6
CONTINUOUS
 10
118.7187180833
 20
82.4958193745
 11
118.8180175024
 21
82.1537358568
  0
SPLINE
  5
3BF
100
AcDbEntity
  8
RUNDUNGEN
100
AcDbSpline
 62
7
  6
CONTINUOUS
 70
0
 71
3
 72
11
 73
7
 74
0
 42
0.0000001
 43
0.0000001
 44
0.0000000001
 40
0.0
 40
0.0
 40
0.0
 40
0.0
 40
0.2473781448
 40
0.4960357358
 40
0.7470967107
 40
1.0
 40
1.0
 40
1.0
 40
1.0
 10
77.6217626304
 20
80.3732877865
 30
0.0
 10
77.5234450962
 20
80.6434176623
 30
0.0
 10
77.2369496413
 20
81.1512748394
 30
0.0
 10
76.7059711524
 20
81.8379455201
 30
0.0
 10
76.1333914794
 20
82.4995810723
 30
0.0
 10
75.7420382707
 20
82.9351647847
 30
0.0
 10
75.5455870199
 20
83.1537419039
 30
0.0
  0
ELLIPSE
  5
3C0
100
AcDbEntity
  8
0
100
AcDbEllipse
 62
7
  6
CONTINUOUS
 10
99.9475924061
 20
152.4238792597
 30
0.0
 11
0.0
 21
2.75
 31
0.0
 40
0.4040262258
 41
-0.0
 42
3.1415926536
  0
ELLIPSE
  5
3C1
100
AcDbEntity
  8
0
100
AcDbEllipse
 62
7
  6
CONTINUOUS
 10
83.7981824204
 20
152.4238792597
 30
0.0
 11
0.0
 21
2.75
 31
0.0
 40
0.3639702343
 41
-3.1415926536
 42
0.0
  0
ELLIPSE
  5
3C2
100
AcDbEntity
  8
0
100
AcDbEllipse
 62
7
  6
CONTINUOUS
 10
122.2161094113
 20
152.4238792597
 30
0.0
 11
0.0
 21
2.75
 31
0.0
 40
0.2679491924
 41
-0.0
 42
3.1415926536
  0
ELLIPSE
  5
3C3
100
AcDbEntity
  8
0
100
AcDbEllipse
 62
7
  6
CONTINUOUS
 10
102.9777890999
 20
152.4238792597
 30
0.0
 11
0.0
 21
2.75
 31
0.0
 40
0.4040262258
 41
-3.1415926536
 42
-0.0
  0
ELLIPSE
  5
3C4
100
AcDbEntity
  8
0
100
AcDbEllipse
 62
7
  6
CONTINUOUS
 10
81.0684056634
 20
152.4238792597
 30
0.0
 11
0.0
 21
2.75
 31
0.0
 40
0.3639702343
 41
0.0
 42
3.1415926536
  0
ELLIPSE
  5
3C5
100
AcDbEntity
  8
0
100
AcDbEllipse
 62
7
  6
CONTINUOUS
 10
136.1872525816
 20
152.4238792597
 30
0.0
 11
0.0
 21
2.75
 31
0.0
 40
0.2679491924
 41
-3.1415926536
 42
0.0
  0
ENDSEC
  0
SECTION
  2
OBJECTS
  0
DICTIONARY
  5
C
100
AcDbDictionary
280
0
281
1
  3
ACAD_GROUP
350
D
  3
ACAD_MLINESTYLE
350
17
  3
ACAD_LAYOUT
350
1A
  3
ACAD_PLOTSETTINGS
350
19
  3
ACAD_PLOTSTYLENAME
350
E
  0
DICTIONARY
  5
D
102
{ACAD_REACTORS
330
C
102
}
100
AcDbDictionary
280
0
281
1
  0
ACDBDICTIONARYWDFLT
  5
E
102
{ACAD_REACTORS
330
C
102
}
100
AcDbDictionary
281
1
  3
Normal
350
F
100
AcDbDictionaryWithDefault
340
F
  0
DICTIONARY
  5
17
102
{ACAD_REACTORS
330
C
102
}
100
AcDbDictionary
280
0
281
1
  3
Standard
350
18
  0
DICTIONARY
  5
19
102
{ACAD_REACTORS
330
C
102
}
100
AcDbDictionary
281
1
  0
DICTIONARY
  5
1A
102
{ACAD_REACTORS
330
C
102
}
100
AcDbDictionary
281
1
  3
Model
350
3C6
  3
Layout1
350
3C7
  0
ACDBPLACEHOLDER
  5
F
102
{ACAD_REACTORS
330
E
102
}
  0
MLINESTYLE
  5
18
102
{ACAD_REACTORS
330
17
102
}
100
AcDbMlineStyle
  2
STANDARD
 70
0
  3

 62
256
 51
90.0
 52
90.0
 71
2
 49
0.5
 62
256
  6
BYLAYER
 49
-0.5
 62
256
  6
BYLAYER
  0
LAYOUT
  5
3C6
102
{ACAD_REACTORS
330
1A
102
}
100
AcDbPlotSettings
  1

  2
none_device
  4
ISO_A4_(297.00_x_210.00_MM)
  6

 40
0.0
 41
0.0
 42
0.0
 43
0.0
 44
297.0
 45
210.0
 46
0.0
 47
0.0
 48
0.0
 49
0.0
140
0.0
141
0.0
142
1.0
143
1.0
 70
1024
 72
1
 73
0
 74
0
  7

 75
0
147
1.0
148
0.0
149
0.0
100
AcDbLayout
  1
Model
 70
0
 71
0
 10
0.0
 20
0.0
 11
297.0
 21
210.0
 12
0.0
 22
0.0
 32
0.0
 14
0.0
 24
0.0
 34
0.0
 15
0.0
 25
0.0
 35
0.0
146
0.0
 13
0.0
 23
0.0
 33
0.0
 16
1.0
 26
0.0
 36
0.0
 17
0.0
 27
1.0
 37
0.0
 76
0
330
210
345
0
346
0
  0
LAYOUT
  5
3C7
102
{ACAD_REACTORS
330
1A
102
}
100
AcDbPlotSettings
  1

  2
none_device
  4
ISO_A4_(297.00_x_210.00_MM)
  6

 40
0.0
 41
0.0
 42
0.0
 43
0.0
 44
297.0
 45
210.0
 46
0.0
 47
0.0
 48
0.0
 49
0.0
140
0.0
141
0.0
142
1.0
143
1.0
 70
0
 72
1
 73
0
 74
0
  7

 75
0
147
1.0
148
0.0
149
0.0
100
AcDbLayout
  1
Layout1
 70
0
 71
1
 10
0.0
 20
0.0
 11
297.0
 21
210.0
 12
0.0
 22
0.0
 32
0.0
 14
0.0
 24
0.0
 34
0.0
 15
0.0
 25
0.0
 35
0.0
146
0.0
 13
0.0
 23
0.0
 33
0.0
 16
1.0
 26
0.0
 36
0.0
 17
0.0
 27
1.0
 37
0.0
 76
0
330
211
345
0
346
0
  0
ENDSEC
  0
EOF
