999
DXF file: S:\Prolink\03_Konstruktion\CAD-Plots\Internet\2D_neu\S5\s5-45_ntp_smr_st_w100.dxf
999
Pro/ENGINEER 2012230 by Parametric Technology Corporation
  0
SECTION
  2
HEADER
  9
$ACADVER
  1
AC1021
  9
$DWGCODEPAGE
  3
ANSI_1252
  9
$EXTMAX
 10
297.0
 20
210.0
 30
0.0
  9
$EXTMIN
 10
0.0
 20
0.0
 30
0.0
  9
$LIMMIN
 10
0.0
 20
0.0
  9
$LIMMAX
 10
297.0
 20
210.0
  9
$VIEWCTR
 10
148.5
 20
105.0
  9
$VIEWSIZE
 40
210.0
  9
$CLAYER
  8
0
  9
$LTSCALE
 40
16.335
  9
$CELTYPE
  6
BYLAYER
  9
$DIMSCALE
 40
1.0
  9
$DIMASZ
 40
3.5
  9
$DIMEXO
 40
0.0
  9
$DIMDLI
 40
11.286
  9
$DIMEXE
 40
1.5
  9
$DIMCEN
 40
2.673
  9
$DIMLFAC
 40
1.0
  9
$DIMBLK
  1
_FILLED
  9
$DIMTXT
 40
3.5
  9
$DIMTOL
 70
1
  9
$DIMLIM
 70
0
  9
$DIMTFAC
 40
1.0
  9
$DIMTP
 40
0.005
  9
$DIMTM
 40
0.005
  9
$DIMGAP
 40
0.625
  9
$DIMDSEP
 70
46
  9
$PDMODE
 70
3
  9
$PDSIZE
 40
0.3125
  9
$HANDSEED
  5
490
  9
$TILEMODE
 70
1
  9
$MEASUREMENT
 70
1
  9
$INSUNITS
 70
4
  0
ENDSEC
  0
SECTION
  2
CLASSES
  0
CLASS
  1
ACDBDICTIONARYWDFLT
  2
AcDbDictionaryWithDefault
  3
AutoCAD 2000
 90
0
 91
1
280
0
281
0
  0
CLASS
  1
ACDBPLACEHOLDER
  2
AcDbPlaceHolder
  3
AutoCAD 2000
 90
0
 91
1
280
0
281
0
  0
CLASS
  1
LAYOUT
  2
AcDbLayout
  3
AutoCAD 2000
 90
0
 91
0
280
0
281
0
  0
ENDSEC
  0
SECTION
  2
TABLES
  0
TABLE
  2
VPORT
  5
8
100
AcDbSymbolTable
 70
2
  0
VPORT
  5
1F4
100
AcDbSymbolTableRecord
100
AcDbViewportTableRecord
  2
*ACTIVE
 70
0
 10
0.0
 20
0.0
 11
1.0
 21
1.0
 12
148.5
 22
105.0
 13
0.0
 23
0.0
 14
1.0
 24
1.0
 15
0.0
 25
0.0
 16
0.0
 26
0.0
 36
1.0
 17
0.0
 27
0.0
 37
0.0
 40
210.0
 41
1.4142857143
 42
50.0
 43
0.0
 44
0.0
 50
0.0
 51
0.0
 71
0
 72
100
 73
1
 74
1
 75
0
 76
0
 77
0
 78
0
  0
ENDTAB
  0
TABLE
  2
LTYPE
  5
5
100
AcDbSymbolTable
 70
6
  0
LTYPE
  5
14
100
AcDbSymbolTableRecord
100
AcDbLinetypeTableRecord
  2
BYBLOCK
 70
0
  3

 72
65
 73
0
 40
0.0
  0
LTYPE
  5
15
100
AcDbSymbolTableRecord
100
AcDbLinetypeTableRecord
  2
BYLAYER
 70
0
  3

 72
65
 73
0
 40
0.0
  0
LTYPE
  5
16
100
AcDbSymbolTableRecord
100
AcDbLinetypeTableRecord
  2
CONTINUOUS
 70
64
  3
Solid line
 72
65
 73
0
 40
0.0
  0
LTYPE
  5
1F5
100
AcDbSymbolTableRecord
100
AcDbLinetypeTableRecord
  2
CENTER
 70
64
  3
____ _ ____ _ ____ _ ____ _ ____ _ ____ _ ____
 72
65
 73
4
 40
0.6
 49
0.375
 74
0
 49
-0.075
 74
0
 49
0.075
 74
0
 49
-0.075
 74
0
  0
LTYPE
  5
1F6
100
AcDbSymbolTableRecord
100
AcDbLinetypeTableRecord
  2
HIDDEN
 70
64
  3
- - - - - - - - - - - - - - - - - - - -
 72
65
 73
2
 40
0.2
 49
0.1
 74
0
 49
-0.1
 74
0
  0
LTYPE
  5
1F7
100
AcDbSymbolTableRecord
100
AcDbLinetypeTableRecord
  2
PHANTOM
 70
64
  3
_____ _ _ _____ _ _ _____ _ _ _____
 72
65
 73
6
 40
0.8
 49
0.45
 74
0
 49
-0.05
 74
0
 49
0.1
 74
0
 49
-0.05
 74
0
 49
0.1
 74
0
 49
-0.05
 74
0
  0
LTYPE
  5
1F8
100
AcDbSymbolTableRecord
100
AcDbLinetypeTableRecord
  2
DOT
 70
64
  3
. . . . . . . . . . . . . . . . . . . .
 72
65
 73
2
 40
0.2
 49
0.1
 74
0
 49
-0.1
 74
0
  0
LTYPE
  5
1F9
100
AcDbSymbolTableRecord
100
AcDbLinetypeTableRecord
  2
DASHED
 70
64
  3
- - - - - - - - - - - - - - - - - - - -
 72
65
 73
2
 40
0.2
 49
0.1
 74
0
 49
-0.1
 74
0
  0
ENDTAB
  0
TABLE
  2
LAYER
  5
2
100
AcDbSymbolTable
 70
36
  0
LAYER
  5
10
100
AcDbSymbolTableRecord
100
AcDbLayerTableRecord
  2
0
 70
0
 62
7
  6
CONTINUOUS
370
-3
390
F
  0
LAYER
  5
1FA
100
AcDbSymbolTableRecord
100
AcDbLayerTableRecord
  2
DEFAULT_1
 70
0
 62
7
  6
CENTER
370
-3
390
F
  0
LAYER
  5
1FB
100
AcDbSymbolTableRecord
100
AcDbLayerTableRecord
  2
DEFAULT_2
 70
0
 62
8
  6
HIDDEN
370
-3
390
F
  0
LAYER
  5
1FC
100
AcDbSymbolTableRecord
100
AcDbLayerTableRecord
  2
DEFAULT_3
 70
0
 62
7
  6
PHANTOM
370
-3
390
F
  0
LAYER
  5
1FD
100
AcDbSymbolTableRecord
100
AcDbLayerTableRecord
  2
01___PRT_ALL_DTM_PLN
 70
0
 62
7
  6
CONTINUOUS
370
-3
390
F
  0
LAYER
  5
1FE
100
AcDbSymbolTableRecord
100
AcDbLayerTableRecord
  2
01___PRT_DEF_DTM_PLN
 70
0
 62
7
  6
CONTINUOUS
370
-3
390
F
  0
LAYER
  5
1FF
100
AcDbSymbolTableRecord
100
AcDbLayerTableRecord
  2
02___PRT_ALL_AXES
 70
0
 62
7
  6
CONTINUOUS
370
-3
390
F
  0
LAYER
  5
200
100
AcDbSymbolTableRecord
100
AcDbLayerTableRecord
  2
03___PRT_ALL_CURVES
 70
0
 62
7
  6
CONTINUOUS
370
-3
390
F
  0
LAYER
  5
201
100
AcDbSymbolTableRecord
100
AcDbLayerTableRecord
  2
04___PRT_ALL_DTM_PNT
 70
0
 62
7
  6
CONTINUOUS
370
-3
390
F
  0
LAYER
  5
202
100
AcDbSymbolTableRecord
100
AcDbLayerTableRecord
  2
05___PRT_ALL_DTM_CSYS
 70
0
 62
7
  6
CONTINUOUS
370
-3
390
F
  0
LAYER
  5
203
100
AcDbSymbolTableRecord
100
AcDbLayerTableRecord
  2
05___PRT_DEF_DTM_CSYS
 70
0
 62
7
  6
CONTINUOUS
370
-3
390
F
  0
LAYER
  5
204
100
AcDbSymbolTableRecord
100
AcDbLayerTableRecord
  2
06___PRT_ALL_SURFS
 70
0
 62
7
  6
CONTINUOUS
370
-3
390
F
  0
LAYER
  5
205
100
AcDbSymbolTableRecord
100
AcDbLayerTableRecord
  2
AUSFORMSCHRAEGEN
 70
0
 62
7
  6
CONTINUOUS
370
-3
390
F
  0
LAYER
  5
206
100
AcDbSymbolTableRecord
100
AcDbLayerTableRecord
  2
BEZUGSACHSEN
 70
0
 62
7
  6
CONTINUOUS
370
-3
390
F
  0
LAYER
  5
207
100
AcDbSymbolTableRecord
100
AcDbLayerTableRecord
  2
BEZUGSEBENE
 70
0
 62
7
  6
CONTINUOUS
370
-3
390
F
  0
LAYER
  5
208
100
AcDbSymbolTableRecord
100
AcDbLayerTableRecord
  2
BEZUGSEBENEN
 70
0
 62
7
  6
CONTINUOUS
370
-3
390
F
  0
LAYER
  5
209
100
AcDbSymbolTableRecord
100
AcDbLayerTableRecord
  2
BEZUGSEBENEN-KES
 70
0
 62
7
  6
CONTINUOUS
370
-3
390
F
  0
LAYER
  5
20A
100
AcDbSymbolTableRecord
100
AcDbLayerTableRecord
  2
KURVEN
 70
0
 62
7
  6
CONTINUOUS
370
-3
390
F
  0
LAYER
  5
20B
100
AcDbSymbolTableRecord
100
AcDbLayerTableRecord
  2
RUNDUNGEN
 70
0
 62
7
  6
CONTINUOUS
370
-3
390
F
  0
LAYER
  5
20C
100
AcDbSymbolTableRecord
100
AcDbLayerTableRecord
  2
ZEICHNUNGSBEMASSUNGEN
 70
0
 62
7
  6
CONTINUOUS
370
-3
390
F
  0
LAYER
  5
20D
100
AcDbSymbolTableRecord
100
AcDbLayerTableRecord
  2
ZEICHNUNGSNOTIZEN
 70
0
 62
7
  6
CONTINUOUS
370
-3
390
F
  0
ENDTAB
  0
TABLE
  2
STYLE
  5
3
100
AcDbSymbolTable
 70
1
  0
STYLE
  5
11
100
AcDbSymbolTableRecord
100
AcDbTextStyleTableRecord
  2
STANDARD
 70
0
 40
0.0
 41
0.7
 50
0.0
 71
0
 42
0.2
  3
txt
  4

  0
STYLE
  5
20E
100
AcDbSymbolTableRecord
100
AcDbTextStyleTableRecord
  2
TEXTSTYLE_1
 70
0
 40
0.0
 41
0.8
 50
0.0
 71
0
 42
0.2
  3
gdt
  4

  0
ENDTAB
  0
TABLE
  2
VIEW
  5
6
100
AcDbSymbolTable
 70
0
  0
ENDTAB
  0
TABLE
  2
UCS
  5
7
100
AcDbSymbolTable
 70
0
  0
ENDTAB
  0
TABLE
  2
APPID
  5
9
100
AcDbSymbolTable
 70
1
  0
APPID
  5
20F
100
AcDbSymbolTableRecord
100
AcDbRegAppTableRecord
  2
ACAD
 70
0
  0
ENDTAB
  0
TABLE
  2
BLOCK_RECORD
  5
1
100
AcDbSymbolTable
 70
0
  0
BLOCK_RECORD
  5
210
100
AcDbSymbolTableRecord
100
AcDbBlockTableRecord
  2
*Model_Space
  0
BLOCK_RECORD
  5
211
100
AcDbSymbolTableRecord
100
AcDbBlockTableRecord
  2
*Paper_Space
  0
ENDTAB
  0
TABLE
  2
DIMSTYLE
  5
A
100
AcDbSymbolTable
 70
1
100
AcDbDimStyleTable
 71
0
  0
DIMSTYLE
105
212
100
AcDbSymbolTableRecord
100
AcDbDimStyleTableRecord
  2
STANDARD
 70
0
  3

  4

 40
1.0
 41
3.5
 42
0.0
 43
0.38
 44
1.5
 45
0.0
 46
0.0
 47
0.005
 48
0.005
140
3.5
141
0.09
142
0.0
143
25.4
144
1.0
145
0.0
146
1.0
147
0.625
 71
1.0
 72
0.0
 73
0
 74
0
 75
0
 76
0
 77
1
 78
8
170
0
171
2
172
0
173
0
174
0
175
0
176
0
177
0
178
5
270
2
271
3
272
3
273
2
274
2
275
0
280
0
281
0
282
0
283
1
284
8
285
0
286
0
287
3
288
0
340
11
278
46
  0
ENDTAB
  0
ENDSEC
  0
SECTION
  2
BLOCKS
  0
BLOCK
  5
20
100
AcDbEntity
  8
0
100
AcDbBlockBegin
  2
*Model_Space
 70
0
 10
0.0
 20
0.0
 30
0.0
  3
*Model_Space
  1

  0
ENDBLK
  5
21
100
AcDbEntity
  8
0
100
AcDbBlockEnd
  0
BLOCK
  5
1C
100
AcDbEntity
  8
0
100
AcDbBlockBegin
  2
*Paper_Space
 70
0
 10
0.0
 20
0.0
 30
0.0
  3
*Paper_Space
  1

  0
ENDBLK
  5
1D
100
AcDbEntity
  8
0
100
AcDbBlockEnd
  0
ENDSEC
  0
SECTION
  2
ENTITIES
  0
LINE
  5
213
100
AcDbEntity
  8
0
100
AcDbLine
 62
7
  6
CONTINUOUS
 10
0.0
 20
0.0
 11
0.0
 21
210.0
  0
LINE
  5
214
100
AcDbEntity
  8
0
100
AcDbLine
 62
7
  6
CONTINUOUS
 10
0.0
 20
0.0
 11
297.0
 21
0.0
  0
LINE
  5
215
100
AcDbEntity
  8
0
100
AcDbLine
 62
7
  6
CONTINUOUS
 10
0.0
 20
210.0
 11
297.0
 21
210.0
  0
LINE
  5
216
100
AcDbEntity
  8
0
100
AcDbLine
 62
7
  6
CONTINUOUS
 10
297.0
 20
0.0
 11
297.0
 21
210.0
  0
LINE
  5
217
100
AcDbEntity
  8
RUNDUNGEN
100
AcDbLine
 62
7
  6
CONTINUOUS
 10
54.2016809964
 20
157.4238792597
 11
54.2016809964
 21
147.4238792597
  0
LINE
  5
218
100
AcDbEntity
  8
RUNDUNGEN
100
AcDbLine
 62
7
  6
CONTINUOUS
 10
55.2016809964
 20
158.4238792597
 11
55.2016809964
 21
146.4238792597
  0
LINE
  5
219
100
AcDbEntity
  8
0
100
AcDbLine
 62
7
  6
CONTINUOUS
 10
56.2016809964
 20
158.4238792597
 11
56.2016809964
 21
156.0033185207
  0
LINE
  5
21A
100
AcDbEntity
  8
RUNDUNGEN
100
AcDbLine
 62
7
  6
CONTINUOUS
 10
56.4016809964
 20
156.3238792597
 11
56.4016809964
 21
156.0033185207
  0
LINE
  5
21B
100
AcDbEntity
  8
RUNDUNGEN
100
AcDbLine
 62
7
  6
CONTINUOUS
 10
56.4516809964
 20
156.3238792597
 11
56.4516809964
 21
156.1238792597
  0
LINE
  5
21C
100
AcDbEntity
  8
RUNDUNGEN
100
AcDbLine
 62
7
  6
CONTINUOUS
 10
60.0516809964
 20
156.3238792597
 11
60.0516809964
 21
156.1238792597
  0
LINE
  5
21D
100
AcDbEntity
  8
RUNDUNGEN
100
AcDbLine
 62
7
  6
CONTINUOUS
 10
60.1016809964
 20
156.0033185207
 11
60.1016809964
 21
156.3238792597
  0
LINE
  5
21E
100
AcDbEntity
  8
0
100
AcDbLine
 62
7
  6
CONTINUOUS
 10
60.3016809964
 20
158.4238792597
 11
60.3016809964
 21
156.0033185207
  0
LINE
  5
21F
100
AcDbEntity
  8
RUNDUNGEN
100
AcDbLine
 62
7
  6
CONTINUOUS
 10
64.5014734582
 20
155.4238792597
 11
64.5014734582
 21
149.4238792597
  0
LINE
  5
220
100
AcDbEntity
  8
RUNDUNGEN
100
AcDbLine
 62
7
  6
CONTINUOUS
 10
65.441166079
 20
155.4238792597
 11
65.441166079
 21
149.4238792597
  0
LINE
  5
221
100
AcDbEntity
  8
RUNDUNGEN
100
AcDbLine
 62
7
  6
CONTINUOUS
 10
73.0940262194
 20
146.9238792597
 11
73.0940262194
 21
157.9238792597
  0
LINE
  5
222
100
AcDbEntity
  8
RUNDUNGEN
100
AcDbLine
 62
7
  6
CONTINUOUS
 10
74.973411461
 20
147.4238792597
 11
74.973411461
 21
157.4238792597
  0
LINE
  5
223
100
AcDbEntity
  8
RUNDUNGEN
100
AcDbLine
 62
7
  6
CONTINUOUS
 10
83.573411461
 20
147.4238792597
 11
83.573411461
 21
157.4238792597
  0
LINE
  5
224
100
AcDbEntity
  8
RUNDUNGEN
100
AcDbLine
 62
7
  6
CONTINUOUS
 10
85.4277791701
 20
146.9238792597
 11
85.4277791701
 21
157.9238792597
  0
LINE
  5
225
100
AcDbEntity
  8
0
100
AcDbLine
 62
7
  6
CONTINUOUS
 10
95.3855159018
 20
146.4238792597
 11
106.2016809964
 21
146.4238792597
  0
LINE
  5
226
100
AcDbEntity
  8
0
100
AcDbLine
 62
7
  6
CONTINUOUS
 10
126.2016809964
 20
146.4238792597
 11
132.2016809964
 21
146.4238792597
  0
LINE
  5
227
100
AcDbEntity
  8
RUNDUNGEN
100
AcDbLine
 62
7
  6
CONTINUOUS
 10
55.2016809964
 20
146.4238792597
 11
154.2016809964
 21
146.4238792597
  0
LINE
  5
228
100
AcDbEntity
  8
0
100
AcDbLine
 62
7
  6
CONTINUOUS
 10
151.2016809964
 20
146.4238792597
 11
154.2016809964
 21
146.4238792597
  0
LINE
  5
229
100
AcDbEntity
  8
RUNDUNGEN
100
AcDbLine
 62
7
  6
CONTINUOUS
 10
151.7016809964
 20
146.9238792597
 11
144.2994230716
 21
146.9238792597
  0
LINE
  5
22A
100
AcDbEntity
  8
RUNDUNGEN
100
AcDbLine
 62
7
  6
CONTINUOUS
 10
114.1039389213
 20
146.9238792597
 11
106.7016809964
 21
146.9238792597
  0
LINE
  5
22B
100
AcDbEntity
  8
RUNDUNGEN
100
AcDbLine
 62
7
  6
CONTINUOUS
 10
85.064123446
 20
146.9238792597
 11
95.8491108017
 21
146.9238791465
  0
LINE
  5
22C
100
AcDbEntity
  8
RUNDUNGEN
100
AcDbLine
 62
7
  6
CONTINUOUS
 10
119.2994230716
 20
146.9238792597
 11
126.7016809964
 21
146.9238792597
  0
LINE
  5
22D
100
AcDbEntity
  8
RUNDUNGEN
100
AcDbLine
 62
7
  6
CONTINUOUS
 10
131.7016809964
 20
146.9238792597
 11
139.1039389213
 21
146.9238792597
  0
LINE
  5
22E
100
AcDbEntity
  8
RUNDUNGEN
100
AcDbLine
 62
7
  6
CONTINUOUS
 10
65.1217585459
 20
146.9238763253
 11
73.482699476
 21
146.9238792597
  0
LINE
  5
22F
100
AcDbEntity
  8
RUNDUNGEN
100
AcDbLine
 62
7
  6
CONTINUOUS
 10
74.973411461
 20
147.4238792597
 11
83.573411461
 21
147.4238792597
  0
LINE
  5
230
100
AcDbEntity
  8
RUNDUNGEN
100
AcDbLine
 62
7
  6
CONTINUOUS
 10
54.2016809964
 20
149.4238792597
 11
65.441166079
 21
149.4238792597
  0
LINE
  5
231
100
AcDbEntity
  8
0
100
AcDbLine
 62
7
  6
CONTINUOUS
 10
135.2016809964
 20
149.6738792597
 11
134.7161094113
 21
149.6738792597
  0
LINE
  5
232
100
AcDbEntity
  8
0
100
AcDbLine
 62
7
  6
CONTINUOUS
 10
110.2016809964
 20
149.6738792597
 11
109.7161094113
 21
149.6738792597
  0
LINE
  5
233
100
AcDbEntity
  8
0
100
AcDbLine
 62
7
  6
CONTINUOUS
 10
71.2981824204
 20
149.6738792597
 11
68.5684056634
 21
149.6738792597
  0
LINE
  5
234
100
AcDbEntity
  8
0
100
AcDbLine
 62
7
  6
CONTINUOUS
 10
87.4475924061
 20
149.6738792597
 11
90.4777890999
 21
149.6738792597
  0
LINE
  5
235
100
AcDbEntity
  8
0
100
AcDbLine
 62
7
  6
CONTINUOUS
 10
123.2016809964
 20
149.6738792597
 11
123.6872525816
 21
149.6738792597
  0
LINE
  5
236
100
AcDbEntity
  8
RUNDUNGEN
100
AcDbLine
 62
7
  6
CONTINUOUS
 10
106.2016809964
 20
146.4238792597
 11
106.2016809964
 21
150.116186952
  0
LINE
  5
237
100
AcDbEntity
  8
RUNDUNGEN
100
AcDbLine
 62
7
  6
CONTINUOUS
 10
106.2016809964
 20
154.7315715674
 11
106.2016809964
 21
158.4238792597
  0
LINE
  5
238
100
AcDbEntity
  8
RUNDUNGEN
100
AcDbLine
 62
7
  6
CONTINUOUS
 10
106.7016809964
 20
146.4238792597
 11
106.7016809964
 21
149.9238792597
  0
LINE
  5
239
100
AcDbEntity
  8
RUNDUNGEN
100
AcDbLine
 62
7
  6
CONTINUOUS
 10
106.7016809964
 20
154.9238792597
 11
106.7016809964
 21
158.4238792597
  0
LINE
  5
23A
100
AcDbEntity
  8
02___PRT_ALL_AXES
100
AcDbLine
 62
7
  6
CONTINUOUS
 10
106.8841809964
 20
158.4238792597
 11
106.8841809964
 21
160.4238792597
  0
LINE
  5
23B
100
AcDbEntity
  8
0
100
AcDbLine
 62
7
  6
CONTINUOUS
 10
135.2016809964
 20
155.1738792597
 11
134.7161094113
 21
155.1738792597
  0
LINE
  5
23C
100
AcDbEntity
  8
0
100
AcDbLine
 62
7
  6
CONTINUOUS
 10
110.2016809964
 20
155.1738792597
 11
109.7161094113
 21
155.1738792597
  0
LINE
  5
23D
100
AcDbEntity
  8
0
100
AcDbLine
 62
7
  6
CONTINUOUS
 10
90.4777890999
 20
155.1738792597
 11
87.4475924061
 21
155.1738792597
  0
LINE
  5
23E
100
AcDbEntity
  8
0
100
AcDbLine
 62
7
  6
CONTINUOUS
 10
68.5684056634
 20
155.1738792597
 11
71.2981824204
 21
155.1738792597
  0
LINE
  5
23F
100
AcDbEntity
  8
0
100
AcDbLine
 62
7
  6
CONTINUOUS
 10
123.2016809964
 20
155.1738792597
 11
123.6872525816
 21
155.1738792597
  0
LINE
  5
240
100
AcDbEntity
  8
RUNDUNGEN
100
AcDbLine
 62
7
  6
CONTINUOUS
 10
54.2016809964
 20
155.4238792597
 11
65.441166079
 21
155.4238792597
  0
LINE
  5
241
100
AcDbEntity
  8
0
100
AcDbLine
 62
7
  6
CONTINUOUS
 10
56.2016809964
 20
156.0033185207
 11
60.3016809964
 21
156.0033185207
  0
LINE
  5
242
100
AcDbEntity
  8
RUNDUNGEN
100
AcDbLine
 62
7
  6
CONTINUOUS
 10
56.2016809964
 20
156.1238792597
 11
56.4516809964
 21
156.1238792597
  0
LINE
  5
243
100
AcDbEntity
  8
RUNDUNGEN
100
AcDbLine
 62
7
  6
CONTINUOUS
 10
60.0516809964
 20
156.1238792597
 11
60.3016809964
 21
156.1238792597
  0
LINE
  5
244
100
AcDbEntity
  8
RUNDUNGEN
100
AcDbLine
 62
7
  6
CONTINUOUS
 10
56.4016809964
 20
156.3238792597
 11
56.4516809964
 21
156.3238792597
  0
LINE
  5
245
100
AcDbEntity
  8
RUNDUNGEN
100
AcDbLine
 62
7
  6
CONTINUOUS
 10
60.0516809964
 20
156.3238792597
 11
60.1016809964
 21
156.3238792597
  0
LINE
  5
246
100
AcDbEntity
  8
RUNDUNGEN
100
AcDbLine
 62
7
  6
CONTINUOUS
 10
109.3841809964
 20
160.4238792597
 11
109.3841809964
 21
158.4238792597
  0
LINE
  5
247
100
AcDbEntity
  8
02___PRT_ALL_AXES
100
AcDbLine
 62
7
  6
CONTINUOUS
 10
109.3841809964
 20
158.4238792597
 11
109.3841809964
 21
160.4238792597
  0
LINE
  5
248
100
AcDbEntity
  8
0
100
AcDbLine
 62
7
  6
CONTINUOUS
 10
110.2016809964
 20
146.9238792597
 11
110.2016809964
 21
149.6738792597
  0
LINE
  5
249
100
AcDbEntity
  8
0
100
AcDbLine
 62
7
  6
CONTINUOUS
 10
110.2016809964
 20
155.1738792597
 11
110.2016809964
 21
157.9238792597
  0
LINE
  5
24A
100
AcDbEntity
  8
02___PRT_ALL_AXES
100
AcDbLine
 62
7
  6
CONTINUOUS
 10
110.9161809964
 20
158.4238792597
 11
110.9161809964
 21
160.4238792597
  0
LINE
  5
24B
100
AcDbEntity
  8
02___PRT_ALL_AXES
100
AcDbLine
 62
7
  6
CONTINUOUS
 10
111.1266809964
 20
158.4238792597
 11
111.1266809964
 21
160.4238792597
  0
LINE
  5
24C
100
AcDbEntity
  8
RUNDUNGEN
100
AcDbLine
 62
7
  6
CONTINUOUS
 10
74.973411461
 20
157.4238792597
 11
83.573411461
 21
157.4238792597
  0
LINE
  5
24D
100
AcDbEntity
  8
RUNDUNGEN
100
AcDbLine
 62
7
  6
CONTINUOUS
 10
106.7016809964
 20
157.9238792597
 11
114.1039389213
 21
157.9238792597
  0
LINE
  5
24E
100
AcDbEntity
  8
RUNDUNGEN
100
AcDbLine
 62
7
  6
CONTINUOUS
 10
119.2994230716
 20
157.9238792597
 11
126.7016809964
 21
157.9238792597
  0
LINE
  5
24F
100
AcDbEntity
  8
RUNDUNGEN
100
AcDbLine
 62
7
  6
CONTINUOUS
 10
131.7016809964
 20
157.9238792597
 11
139.1039389213
 21
157.9238792597
  0
LINE
  5
250
100
AcDbEntity
  8
RUNDUNGEN
100
AcDbLine
 62
7
  6
CONTINUOUS
 10
144.2994230716
 20
157.9238792597
 11
151.7016809964
 21
157.9238792597
  0
LINE
  5
251
100
AcDbEntity
  8
RUNDUNGEN
100
AcDbLine
 62
7
  6
CONTINUOUS
 10
95.8491142458
 20
157.9238794372
 11
85.064123446
 21
157.9238792597
  0
LINE
  5
252
100
AcDbEntity
  8
RUNDUNGEN
100
AcDbLine
 62
7
  6
CONTINUOUS
 10
73.482699476
 20
157.9238792597
 11
65.1217705224
 21
157.9238782072
  0
LINE
  5
253
100
AcDbEntity
  8
0
100
AcDbLine
 62
7
  6
CONTINUOUS
 10
55.2016809964
 20
158.4238792597
 11
56.2016809964
 21
158.4238792597
  0
LINE
  5
254
100
AcDbEntity
  8
RUNDUNGEN
100
AcDbLine
 62
7
  6
CONTINUOUS
 10
55.2016809964
 20
158.4238792597
 11
56.2016809964
 21
158.4238792597
  0
LINE
  5
255
100
AcDbEntity
  8
0
100
AcDbLine
 62
7
  6
CONTINUOUS
 10
60.3016809964
 20
158.4238792597
 11
63.0455065101
 21
158.4238792597
  0
LINE
  5
256
100
AcDbEntity
  8
0
100
AcDbLine
 62
7
  6
CONTINUOUS
 10
73.8553774722
 20
158.4238792597
 11
84.6914454497
 21
158.4238792597
  0
LINE
  5
257
100
AcDbEntity
  8
0
100
AcDbLine
 62
7
  6
CONTINUOUS
 10
95.3855157321
 20
158.4238792597
 11
106.2016809964
 21
158.4238792597
  0
LINE
  5
258
100
AcDbEntity
  8
RUNDUNGEN
100
AcDbLine
 62
7
  6
CONTINUOUS
 10
60.3016809964
 20
158.4238792597
 11
126.2640946117
 21
158.4238792597
  0
LINE
  5
259
100
AcDbEntity
  8
RUNDUNGEN
100
AcDbLine
 62
7
  6
CONTINUOUS
 10
126.5191809964
 20
158.4238792597
 11
131.8841809964
 21
158.4238792597
  0
LINE
  5
25A
100
AcDbEntity
  8
0
100
AcDbLine
 62
7
  6
CONTINUOUS
 10
126.5191809964
 20
158.4238792597
 11
131.8841809964
 21
158.4238792597
  0
LINE
  5
25B
100
AcDbEntity
  8
RUNDUNGEN
100
AcDbLine
 62
7
  6
CONTINUOUS
 10
132.1392383345
 20
158.4238792597
 11
151.2640946117
 21
158.4238792597
  0
LINE
  5
25C
100
AcDbEntity
  8
RUNDUNGEN
100
AcDbLine
 62
7
  6
CONTINUOUS
 10
151.5191809964
 20
158.4238792597
 11
154.2016809964
 21
158.4238792597
  0
LINE
  5
25D
100
AcDbEntity
  8
0
100
AcDbLine
 62
7
  6
CONTINUOUS
 10
151.5191809964
 20
158.4238792597
 11
154.2016809964
 21
158.4238792597
  0
LINE
  5
25E
100
AcDbEntity
  8
02___PRT_ALL_AXES
100
AcDbLine
 62
7
  6
CONTINUOUS
 10
106.8841809964
 20
160.4238792597
 11
109.3841809964
 21
160.4238792597
  0
LINE
  5
25F
100
AcDbEntity
  8
02___PRT_ALL_AXES
100
AcDbLine
 62
7
  6
CONTINUOUS
 10
110.9161809964
 20
160.4238792597
 11
113.6266809964
 21
160.4238792597
  0
LINE
  5
260
100
AcDbEntity
  8
02___PRT_ALL_AXES
100
AcDbLine
 62
7
  6
CONTINUOUS
 10
119.7766809964
 20
160.4238792597
 11
122.2766809964
 21
160.4238792597
  0
LINE
  5
261
100
AcDbEntity
  8
02___PRT_ALL_AXES
100
AcDbLine
 62
7
  6
CONTINUOUS
 10
122.3193398695
 20
160.4238792597
 11
122.4871809964
 21
160.4238792597
  0
LINE
  5
262
100
AcDbEntity
  8
02___PRT_ALL_AXES
100
AcDbLine
 62
7
  6
CONTINUOUS
 10
124.0191809964
 20
160.4238792597
 11
126.5191809964
 21
160.4238792597
  0
LINE
  5
263
100
AcDbEntity
  8
02___PRT_ALL_AXES
100
AcDbLine
 62
7
  6
CONTINUOUS
 10
131.8841809964
 20
160.4238792597
 11
134.3841809964
 21
160.4238792597
  0
LINE
  5
264
100
AcDbEntity
  8
02___PRT_ALL_AXES
100
AcDbLine
 62
7
  6
CONTINUOUS
 10
135.9161809964
 20
160.4238792597
 11
138.6266809964
 21
160.4238792597
  0
LINE
  5
265
100
AcDbEntity
  8
02___PRT_ALL_AXES
100
AcDbLine
 62
7
  6
CONTINUOUS
 10
144.7766809964
 20
160.4238792597
 11
147.2766809964
 21
160.4238792597
  0
LINE
  5
266
100
AcDbEntity
  8
02___PRT_ALL_AXES
100
AcDbLine
 62
7
  6
CONTINUOUS
 10
147.3193398695
 20
160.4238792597
 11
147.4871809964
 21
160.4238792597
  0
LINE
  5
267
100
AcDbEntity
  8
02___PRT_ALL_AXES
100
AcDbLine
 62
7
  6
CONTINUOUS
 10
149.0191809964
 20
160.4238792597
 11
151.5191809964
 21
160.4238792597
  0
LINE
  5
268
100
AcDbEntity
  8
02___PRT_ALL_AXES
100
AcDbLine
 62
7
  6
CONTINUOUS
 10
113.6266809964
 20
158.4238792597
 11
113.6266809964
 21
160.4238792597
  0
LINE
  5
269
100
AcDbEntity
  8
02___PRT_ALL_AXES
100
AcDbLine
 62
7
  6
CONTINUOUS
 10
119.7766809964
 20
158.4238792597
 11
119.7766809964
 21
160.4238792597
  0
LINE
  5
26A
100
AcDbEntity
  8
02___PRT_ALL_AXES
100
AcDbLine
 62
7
  6
CONTINUOUS
 10
122.2766809964
 20
158.4238792597
 11
122.2766809964
 21
160.4238792597
  0
LINE
  5
26B
100
AcDbEntity
  8
02___PRT_ALL_AXES
100
AcDbLine
 62
7
  6
CONTINUOUS
 10
122.4871809964
 20
158.4238792597
 11
122.4871809964
 21
160.4238792597
  0
LINE
  5
26C
100
AcDbEntity
  8
0
100
AcDbLine
 62
7
  6
CONTINUOUS
 10
123.2016809964
 20
146.9238792597
 11
123.2016809964
 21
149.6738792597
  0
LINE
  5
26D
100
AcDbEntity
  8
0
100
AcDbLine
 62
7
  6
CONTINUOUS
 10
123.2016809964
 20
155.1738792597
 11
123.2016809964
 21
157.9238792597
  0
LINE
  5
26E
100
AcDbEntity
  8
RUNDUNGEN
100
AcDbLine
 62
7
  6
CONTINUOUS
 10
124.0191809964
 20
160.4238792597
 11
124.0191809964
 21
158.4238792597
  0
LINE
  5
26F
100
AcDbEntity
  8
02___PRT_ALL_AXES
100
AcDbLine
 62
7
  6
CONTINUOUS
 10
124.0191809964
 20
158.4238792597
 11
124.0191809964
 21
160.4238792597
  0
LINE
  5
270
100
AcDbEntity
  8
02___PRT_ALL_AXES
100
AcDbLine
 62
7
  6
CONTINUOUS
 10
126.5191809964
 20
158.418030191
 11
126.5191809964
 21
160.4238792597
  0
LINE
  5
271
100
AcDbEntity
  8
RUNDUNGEN
100
AcDbLine
 62
7
  6
CONTINUOUS
 10
126.5191809964
 20
158.418030191
 11
126.5191809964
 21
160.4238792597
  0
LINE
  5
272
100
AcDbEntity
  8
RUNDUNGEN
100
AcDbLine
 62
7
  6
CONTINUOUS
 10
126.7016809964
 20
146.9238792597
 11
126.7016809964
 21
149.9238792597
  0
LINE
  5
273
100
AcDbEntity
  8
RUNDUNGEN
100
AcDbLine
 62
7
  6
CONTINUOUS
 10
126.7016809964
 20
154.9238792597
 11
126.7016809964
 21
157.9238792597
  0
LINE
  5
274
100
AcDbEntity
  8
RUNDUNGEN
100
AcDbLine
 62
7
  6
CONTINUOUS
 10
127.2016809964
 20
158.4238792597
 11
127.2016809964
 21
154.7315715674
  0
LINE
  5
275
100
AcDbEntity
  8
RUNDUNGEN
100
AcDbLine
 62
7
  6
CONTINUOUS
 10
127.2016809964
 20
150.116186952
 11
127.2016809964
 21
146.4238792597
  0
LINE
  5
276
100
AcDbEntity
  8
RUNDUNGEN
100
AcDbLine
 62
7
  6
CONTINUOUS
 10
131.2016809964
 20
146.4238792597
 11
131.2016809964
 21
150.116186952
  0
LINE
  5
277
100
AcDbEntity
  8
RUNDUNGEN
100
AcDbLine
 62
7
  6
CONTINUOUS
 10
131.2016809964
 20
154.7315715674
 11
131.2016809964
 21
158.4238792597
  0
LINE
  5
278
100
AcDbEntity
  8
RUNDUNGEN
100
AcDbLine
 62
7
  6
CONTINUOUS
 10
131.7016809964
 20
146.9238792597
 11
131.7016809964
 21
149.9238792597
  0
LINE
  5
279
100
AcDbEntity
  8
RUNDUNGEN
100
AcDbLine
 62
7
  6
CONTINUOUS
 10
131.7016809964
 20
154.9238792597
 11
131.7016809964
 21
157.9238792597
  0
LINE
  5
27A
100
AcDbEntity
  8
02___PRT_ALL_AXES
100
AcDbLine
 62
7
  6
CONTINUOUS
 10
131.8841809964
 20
158.4180301649
 11
131.8841809964
 21
160.4238792597
  0
LINE
  5
27B
100
AcDbEntity
  8
RUNDUNGEN
100
AcDbLine
 62
7
  6
CONTINUOUS
 10
131.8841809964
 20
158.4180301649
 11
131.8841809964
 21
160.4238792597
  0
LINE
  5
27C
100
AcDbEntity
  8
02___PRT_ALL_AXES
100
AcDbLine
 62
7
  6
CONTINUOUS
 10
134.3841809964
 20
158.4238792597
 11
134.3841809964
 21
160.4238792597
  0
LINE
  5
27D
100
AcDbEntity
  8
RUNDUNGEN
100
AcDbLine
 62
7
  6
CONTINUOUS
 10
134.3841809964
 20
158.4238792597
 11
134.3841809964
 21
160.4238792597
  0
LINE
  5
27E
100
AcDbEntity
  8
0
100
AcDbLine
 62
7
  6
CONTINUOUS
 10
135.2016809964
 20
146.9238792597
 11
135.2016809964
 21
149.6738792597
  0
LINE
  5
27F
100
AcDbEntity
  8
0
100
AcDbLine
 62
7
  6
CONTINUOUS
 10
135.2016809964
 20
155.1738792597
 11
135.2016809964
 21
157.9238792597
  0
LINE
  5
280
100
AcDbEntity
  8
02___PRT_ALL_AXES
100
AcDbLine
 62
7
  6
CONTINUOUS
 10
135.9161809964
 20
158.4238792597
 11
135.9161809964
 21
160.4238792597
  0
LINE
  5
281
100
AcDbEntity
  8
02___PRT_ALL_AXES
100
AcDbLine
 62
7
  6
CONTINUOUS
 10
136.1266809964
 20
158.4238792597
 11
136.1266809964
 21
160.4238792597
  0
LINE
  5
282
100
AcDbEntity
  8
02___PRT_ALL_AXES
100
AcDbLine
 62
7
  6
CONTINUOUS
 10
138.6266809964
 20
158.4238792597
 11
138.6266809964
 21
160.4238792597
  0
LINE
  5
283
100
AcDbEntity
  8
02___PRT_ALL_AXES
100
AcDbLine
 62
7
  6
CONTINUOUS
 10
144.7766809964
 20
158.4238792597
 11
144.7766809964
 21
160.4238792597
  0
LINE
  5
284
100
AcDbEntity
  8
02___PRT_ALL_AXES
100
AcDbLine
 62
7
  6
CONTINUOUS
 10
147.2766809964
 20
158.4238792597
 11
147.2766809964
 21
160.4238792597
  0
LINE
  5
285
100
AcDbEntity
  8
02___PRT_ALL_AXES
100
AcDbLine
 62
7
  6
CONTINUOUS
 10
147.4871809964
 20
158.4238792597
 11
147.4871809964
 21
160.4238792597
  0
LINE
  5
286
100
AcDbEntity
  8
0
100
AcDbLine
 62
7
  6
CONTINUOUS
 10
148.2016809964
 20
146.9238792597
 11
148.2016809964
 21
149.6738792597
  0
LINE
  5
287
100
AcDbEntity
  8
0
100
AcDbLine
 62
7
  6
CONTINUOUS
 10
148.2016809964
 20
155.1738792597
 11
148.2016809964
 21
157.9238792597
  0
LINE
  5
288
100
AcDbEntity
  8
02___PRT_ALL_AXES
100
AcDbLine
 62
7
  6
CONTINUOUS
 10
149.0191809964
 20
158.4238792597
 11
149.0191809964
 21
160.4238792597
  0
LINE
  5
289
100
AcDbEntity
  8
RUNDUNGEN
100
AcDbLine
 62
7
  6
CONTINUOUS
 10
149.0191809964
 20
158.4238792597
 11
149.0191809964
 21
160.4238792597
  0
LINE
  5
28A
100
AcDbEntity
  8
02___PRT_ALL_AXES
100
AcDbLine
 62
7
  6
CONTINUOUS
 10
151.5191809964
 20
158.418030191
 11
151.5191809964
 21
160.4238792597
  0
LINE
  5
28B
100
AcDbEntity
  8
RUNDUNGEN
100
AcDbLine
 62
7
  6
CONTINUOUS
 10
151.5191809964
 20
158.418030191
 11
151.5191809964
 21
160.4238792597
  0
LINE
  5
28C
100
AcDbEntity
  8
RUNDUNGEN
100
AcDbLine
 62
7
  6
CONTINUOUS
 10
151.7016809964
 20
146.9238792597
 11
151.7016809964
 21
149.9238792597
  0
LINE
  5
28D
100
AcDbEntity
  8
RUNDUNGEN
100
AcDbLine
 62
7
  6
CONTINUOUS
 10
151.7016809964
 20
154.9238792597
 11
151.7016809964
 21
157.9238792597
  0
LINE
  5
28E
100
AcDbEntity
  8
RUNDUNGEN
100
AcDbLine
 62
7
  6
CONTINUOUS
 10
152.2016809964
 20
158.4238792597
 11
152.2016809964
 21
154.7315715674
  0
LINE
  5
28F
100
AcDbEntity
  8
RUNDUNGEN
100
AcDbLine
 62
7
  6
CONTINUOUS
 10
152.2016809964
 20
150.116186952
 11
152.2016809964
 21
146.4238792597
  0
LINE
  5
290
100
AcDbEntity
  8
0
100
AcDbLine
 62
7
  6
CONTINUOUS
 10
154.2016809964
 20
158.4238792597
 11
154.2016809964
 21
146.4238792597
  0
LINE
  5
291
100
AcDbEntity
  8
RUNDUNGEN
100
AcDbLine
 62
7
  6
CONTINUOUS
 10
207.4341727464
 20
149.4238792597
 11
207.4341727464
 21
155.4238792597
  0
LINE
  5
292
100
AcDbEntity
  8
RUNDUNGEN
100
AcDbLine
 62
7
  6
CONTINUOUS
 10
208.4341727464
 20
149.4238792597
 11
208.4341727464
 21
155.4238792597
  0
LINE
  5
293
100
AcDbEntity
  8
RUNDUNGEN
100
AcDbLine
 62
7
  6
CONTINUOUS
 10
210.4341727464
 20
158.4238792597
 11
210.4341727464
 21
157.4238792597
  0
LINE
  5
294
100
AcDbEntity
  8
RUNDUNGEN
100
AcDbLine
 62
7
  6
CONTINUOUS
 10
210.4341727464
 20
146.4238792597
 11
210.4341727464
 21
147.4238792597
  0
LINE
  5
295
100
AcDbEntity
  8
02___PRT_ALL_AXES
100
AcDbLine
 62
7
  6
CONTINUOUS
 10
216.1841727464
 20
158.4238792597
 11
216.1841727464
 21
160.4238792597
  0
LINE
  5
296
100
AcDbEntity
  8
02___PRT_ALL_AXES
100
AcDbLine
 62
7
  6
CONTINUOUS
 10
218.6841727464
 20
158.4238792597
 11
218.6841727464
 21
160.4238792597
  0
LINE
  5
297
100
AcDbEntity
  8
RUNDUNGEN
100
AcDbLine
 62
7
  6
CONTINUOUS
 10
210.4341727464
 20
146.4238792597
 11
245.4341727464
 21
146.4238792597
  0
LINE
  5
298
100
AcDbEntity
  8
RUNDUNGEN
100
AcDbLine
 62
7
  6
CONTINUOUS
 10
220.4341727464
 20
158.4238792597
 11
220.4341727464
 21
157.4238792597
  0
LINE
  5
299
100
AcDbEntity
  8
RUNDUNGEN
100
AcDbLine
 62
7
  6
CONTINUOUS
 10
220.4341727464
 20
146.4238792597
 11
220.4341727464
 21
147.4238792597
  0
LINE
  5
29A
100
AcDbEntity
  8
RUNDUNGEN
100
AcDbLine
 62
7
  6
CONTINUOUS
 10
223.2145876182
 20
146.9238763253
 11
245.7675060798
 21
146.9238792597
  0
LINE
  5
29B
100
AcDbEntity
  8
RUNDUNGEN
100
AcDbLine
 62
7
  6
CONTINUOUS
 10
220.4341727464
 20
147.4238792597
 11
210.4341727464
 21
147.4238792597
  0
LINE
  5
29C
100
AcDbEntity
  8
RUNDUNGEN
100
AcDbLine
 62
7
  6
CONTINUOUS
 10
222.4341727464
 20
155.4238792597
 11
222.4341727464
 21
149.4238792597
  0
LINE
  5
29D
100
AcDbEntity
  8
RUNDUNGEN
100
AcDbLine
 62
7
  6
CONTINUOUS
 10
207.4341727464
 20
149.4238792597
 11
208.4341727464
 21
149.4238792597
  0
LINE
  5
29E
100
AcDbEntity
  8
RUNDUNGEN
100
AcDbLine
 62
7
  6
CONTINUOUS
 10
222.4341727464
 20
149.4238792597
 11
224.0921526031
 21
149.4238792597
  0
LINE
  5
29F
100
AcDbEntity
  8
RUNDUNGEN
100
AcDbLine
 62
7
  6
CONTINUOUS
 10
223.4341727464
 20
155.4238792597
 11
223.4341727464
 21
149.4238792597
  0
LINE
  5
2A0
100
AcDbEntity
  8
RUNDUNGEN
100
AcDbLine
 62
7
  6
CONTINUOUS
 10
224.0921526031
 20
155.4238792597
 11
224.0921526031
 21
149.4238792597
  0
LINE
  5
2A1
100
AcDbEntity
  8
0
100
AcDbLine
 62
7
  6
CONTINUOUS
 10
240.1841727464
 20
149.6738792597
 11
232.6841727464
 21
149.6738792597
  0
LINE
  5
2A2
100
AcDbEntity
  8
0
100
AcDbLine
 62
7
  6
CONTINUOUS
 10
232.6841727464
 20
155.1738792597
 11
240.1841727464
 21
155.1738792597
  0
LINE
  5
2A3
100
AcDbEntity
  8
RUNDUNGEN
100
AcDbLine
 62
7
  6
CONTINUOUS
 10
207.4341727464
 20
155.4238792597
 11
208.4341727464
 21
155.4238792597
  0
LINE
  5
2A4
100
AcDbEntity
  8
RUNDUNGEN
100
AcDbLine
 62
7
  6
CONTINUOUS
 10
222.4341727464
 20
155.4238792597
 11
224.0921526031
 21
155.4238792597
  0
LINE
  5
2A5
100
AcDbEntity
  8
02___PRT_ALL_AXES
100
AcDbLine
 62
7
  6
CONTINUOUS
 10
230.3111727464
 20
158.4238792597
 11
230.3111727464
 21
160.4238792597
  0
LINE
  5
2A6
100
AcDbEntity
  8
RUNDUNGEN
100
AcDbLine
 62
7
  6
CONTINUOUS
 10
210.4341727464
 20
157.4238792597
 11
220.4341727464
 21
157.4238792597
  0
LINE
  5
2A7
100
AcDbEntity
  8
RUNDUNGEN
100
AcDbLine
 62
7
  6
CONTINUOUS
 10
245.7675060798
 20
157.9238792597
 11
223.2146205236
 21
157.9238782072
  0
LINE
  5
2A8
100
AcDbEntity
  8
RUNDUNGEN
100
AcDbLine
 62
7
  6
CONTINUOUS
 10
210.4341727464
 20
158.4238792597
 11
245.4341727464
 21
158.4238792597
  0
LINE
  5
2A9
100
AcDbEntity
  8
02___PRT_ALL_AXES
100
AcDbLine
 62
7
  6
CONTINUOUS
 10
232.8111727464
 20
158.4238792597
 11
232.8111727464
 21
160.4238792597
  0
LINE
  5
2AA
100
AcDbEntity
  8
02___PRT_ALL_AXES
100
AcDbLine
 62
7
  6
CONTINUOUS
 10
216.1846033131
 20
160.4238792597
 11
218.6837421798
 21
160.4238792597
  0
LINE
  5
2AB
100
AcDbEntity
  8
02___PRT_ALL_AXES
100
AcDbLine
 62
7
  6
CONTINUOUS
 10
230.3116033131
 20
160.4238792597
 11
232.8107421798
 21
160.4238792597
  0
LINE
  5
2AC
100
AcDbEntity
  8
02___PRT_ALL_AXES
100
AcDbLine
 62
7
  6
CONTINUOUS
 10
240.3906033131
 20
160.4238792597
 11
242.8897421798
 21
160.4238792597
  0
LINE
  5
2AD
100
AcDbEntity
  8
02___PRT_ALL_AXES
100
AcDbLine
 62
7
  6
CONTINUOUS
 10
240.3901727464
 20
158.4238792597
 11
240.3901727464
 21
160.4238792597
  0
LINE
  5
2AE
100
AcDbEntity
  8
02___PRT_ALL_AXES
100
AcDbLine
 62
7
  6
CONTINUOUS
 10
242.8901727464
 20
158.4238792597
 11
242.8901727464
 21
160.4238792597
  0
LINE
  5
2AF
100
AcDbEntity
  8
RUNDUNGEN
100
AcDbLine
 62
7
  6
CONTINUOUS
 10
245.1182130331
 20
146.9238792597
 11
245.1182130331
 21
157.9238792597
  0
LINE
  5
2B0
100
AcDbEntity
  8
RUNDUNGEN
100
AcDbLine
 62
7
  6
CONTINUOUS
 10
246.4341727464
 20
147.4238792597
 11
246.4341727464
 21
157.4238792597
  0
LINE
  5
2B1
100
AcDbEntity
  8
RUNDUNGEN
100
AcDbLine
 62
7
  6
CONTINUOUS
 10
54.2016809964
 20
95.1537358568
 11
54.2016809964
 21
81.1537358568
  0
LINE
  5
2B2
100
AcDbEntity
  8
RUNDUNGEN
100
AcDbLine
 62
7
  6
CONTINUOUS
 10
55.2016809964
 20
96.1537358568
 11
55.2016809964
 21
80.1537358568
  0
LINE
  5
2B3
100
AcDbEntity
  8
0
100
AcDbLine
 62
7
  6
CONTINUOUS
 10
56.2016809964
 20
80.2102260228
 11
56.2016809964
 21
96.0972456908
  0
LINE
  5
2B4
100
AcDbEntity
  8
RUNDUNGEN
100
AcDbLine
 62
7
  6
CONTINUOUS
 10
56.4016809964
 20
93.6537358568
 11
56.4016809964
 21
82.6537358568
  0
LINE
  5
2B5
100
AcDbEntity
  8
RUNDUNGEN
100
AcDbLine
 62
7
  6
CONTINUOUS
 10
56.4516809964
 20
82.6537358568
 11
56.4516809964
 21
93.6537358568
  0
LINE
  5
2B6
100
AcDbEntity
  8
RUNDUNGEN
100
AcDbLine
 62
7
  6
CONTINUOUS
 10
56.7516809964
 20
93.9221398855
 11
56.7516809964
 21
93.6537358568
  0
LINE
  5
2B7
100
AcDbEntity
  8
RUNDUNGEN
100
AcDbLine
 62
7
  6
CONTINUOUS
 10
56.7516809964
 20
82.6537358568
 11
56.7516809963
 21
82.3853318282
  0
LINE
  5
2B8
100
AcDbEntity
  8
RUNDUNGEN
100
AcDbLine
 62
7
  6
CONTINUOUS
 10
56.9516809964
 20
93.4537358568
 11
56.9516809964
 21
82.8537358568
  0
LINE
  5
2B9
100
AcDbEntity
  8
RUNDUNGEN
100
AcDbLine
 62
7
  6
CONTINUOUS
 10
57.1516809964
 20
82.6549331756
 11
57.1516809964
 21
93.6525400038
  0
LINE
  5
2BA
100
AcDbEntity
  8
RUNDUNGEN
100
AcDbLine
 62
7
  6
CONTINUOUS
 10
59.3516809964
 20
82.6549318701
 11
59.3516809964
 21
93.6525385488
  0
LINE
  5
2BB
100
AcDbEntity
  8
RUNDUNGEN
100
AcDbLine
 62
7
  6
CONTINUOUS
 10
59.5516809964
 20
82.8537358568
 11
59.5516809964
 21
93.4537358568
  0
LINE
  5
2BC
100
AcDbEntity
  8
RUNDUNGEN
100
AcDbLine
 62
7
  6
CONTINUOUS
 10
59.7516809964
 20
93.9221398855
 11
59.7516809964
 21
93.6537358568
  0
LINE
  5
2BD
100
AcDbEntity
  8
RUNDUNGEN
100
AcDbLine
 62
7
  6
CONTINUOUS
 10
59.7516809964
 20
82.6537358568
 11
59.7516809964
 21
82.3853318282
  0
LINE
  5
2BE
100
AcDbEntity
  8
RUNDUNGEN
100
AcDbLine
 62
7
  6
CONTINUOUS
 10
60.0516809964
 20
82.6537358568
 11
60.0516809964
 21
93.6537358568
  0
LINE
  5
2BF
100
AcDbEntity
  8
RUNDUNGEN
100
AcDbLine
 62
7
  6
CONTINUOUS
 10
60.1016809964
 20
82.6537358568
 11
60.1016809964
 21
93.6537358568
  0
LINE
  5
2C0
100
AcDbEntity
  8
0
100
AcDbLine
 62
7
  6
CONTINUOUS
 10
60.3016809964
 20
80.2102260228
 11
60.3016809964
 21
96.0972456908
  0
LINE
  5
2C1
100
AcDbEntity
  8
RUNDUNGEN
100
AcDbLine
 62
7
  6
CONTINUOUS
 10
73.0940262194
 20
58.4696955702
 11
65.1217705224
 21
80.3732880797
  0
LINE
  5
2C2
100
AcDbEntity
  8
RUNDUNGEN
100
AcDbLine
 62
7
  6
CONTINUOUS
 10
73.5638725298
 20
58.6407056418
 11
65.5916162172
 21
80.5442888547
  0
LINE
  5
2C3
100
AcDbEntity
  8
RUNDUNGEN
100
AcDbLine
 62
7
  6
CONTINUOUS
 10
74.723411461
 20
73.6537358568
 11
74.7234114613
 21
74.1537358568
  0
LINE
  5
2C4
100
AcDbEntity
  8
RUNDUNGEN
100
AcDbLine
 62
7
  6
CONTINUOUS
 10
65.8754730473
 20
93.1537358568
 11
66.3453193576
 21
93.3247459285
  0
LINE
  5
2C5
100
AcDbEntity
  8
RUNDUNGEN
100
AcDbLine
 62
7
  6
CONTINUOUS
 10
72.374179909
 20
75.2986854985
 11
65.8754730473
 21
93.1537358568
  0
LINE
  5
2C6
100
AcDbEntity
  8
RUNDUNGEN
100
AcDbLine
 62
7
  6
CONTINUOUS
 10
72.8440262194
 20
75.4696955702
 11
65.435393772
 21
95.8247459285
  0
LINE
  5
2C7
100
AcDbEntity
  8
RUNDUNGEN
100
AcDbLine
 62
7
  6
CONTINUOUS
 10
85.0641234458
 20
57.8204025233
 11
84.6914454519
 21
58.1537358622
  0
LINE
  5
2C8
100
AcDbEntity
  8
RUNDUNGEN
100
AcDbLine
 62
7
  6
CONTINUOUS
 10
85.4277791701
 20
58.40452267
 11
84.9641872428
 21
58.5918259667
  0
LINE
  5
2C9
100
AcDbEntity
  8
RUNDUNGEN
100
AcDbLine
 62
7
  6
CONTINUOUS
 10
83.673411461
 20
73.6537358568
 11
83.673411461
 21
74.1537358568
  0
LINE
  5
2CA
100
AcDbEntity
  8
RUNDUNGEN
100
AcDbLine
 62
7
  6
CONTINUOUS
 10
74.973411461
 20
57.1537358568
 11
83.573411461
 21
57.1537358568
  0
LINE
  5
2CB
100
AcDbEntity
  8
RUNDUNGEN
100
AcDbLine
 62
7
  6
CONTINUOUS
 10
73.8553774722
 20
58.1537358568
 11
84.6914454497
 21
58.1537358568
  0
LINE
  5
2CC
100
AcDbEntity
  8
RUNDUNGEN
100
AcDbLine
 62
7
  6
CONTINUOUS
 10
114.3037835327
 20
58.1537256867
 11
119.0995168478
 21
58.1536914258
  0
LINE
  5
2CD
100
AcDbEntity
  8
RUNDUNGEN
100
AcDbLine
 62
7
  6
CONTINUOUS
 10
139.3037835327
 20
58.1537256867
 11
144.0995168478
 21
58.1536914258
  0
LINE
  5
2CE
100
AcDbEntity
  8
RUNDUNGEN
100
AcDbLine
 62
7
  6
CONTINUOUS
 10
92.9766149392
 20
93.8410381553
 11
85.5277791701
 21
75.40452267
  0
LINE
  5
2CF
100
AcDbEntity
  8
RUNDUNGEN
100
AcDbLine
 62
7
  6
CONTINUOUS
 10
91.2180630277
 20
88.1537358568
 11
85.9913710974
 21
75.2172193733
  0
LINE
  5
2D0
100
AcDbEntity
  8
RUNDUNGEN
100
AcDbLine
 62
7
  6
CONTINUOUS
 10
65.1217737459
 20
80.3732792232
 11
65.5916162168
 21
80.5442888542
  0
LINE
  5
2D1
100
AcDbEntity
  8
RUNDUNGEN
100
AcDbLine
 62
7
  6
CONTINUOUS
 10
95.3855153771
 20
84.3855192492
 11
84.9641872428
 21
58.5918259667
  0
LINE
  5
2D2
100
AcDbEntity
  8
RUNDUNGEN
100
AcDbLine
 62
7
  6
CONTINUOUS
 10
95.8491142458
 20
84.198232111
 11
85.4277791701
 21
58.40452267
  0
LINE
  5
2D3
100
AcDbEntity
  8
RUNDUNGEN
100
AcDbLine
 62
7
  6
CONTINUOUS
 10
144.7016809964
 20
63.1537358568
 11
144.2016809964
 21
63.1537358661
  0
LINE
  5
2D4
100
AcDbEntity
  8
RUNDUNGEN
100
AcDbLine
 62
7
  6
CONTINUOUS
 10
119.7016809964
 20
63.1537358568
 11
119.2016809964
 21
63.1537358661
  0
LINE
  5
2D5
100
AcDbEntity
  8
RUNDUNGEN
100
AcDbLine
 62
7
  6
CONTINUOUS
 10
113.7016809964
 20
63.1537358568
 11
114.2016809964
 21
63.1537358568
  0
LINE
  5
2D6
100
AcDbEntity
  8
RUNDUNGEN
100
AcDbLine
 62
7
  6
CONTINUOUS
 10
138.7016809964
 20
63.1537358568
 11
139.2016809964
 21
63.1537358568
  0
LINE
  5
2D7
100
AcDbEntity
  8
RUNDUNGEN
100
AcDbLine
 62
7
  6
CONTINUOUS
 10
148.2016809964
 20
63.6537358568
 11
147.7016809964
 21
63.6537358568
  0
LINE
  5
2D8
100
AcDbEntity
  8
RUNDUNGEN
100
AcDbLine
 62
7
  6
CONTINUOUS
 10
135.7016809964
 20
63.6537358568
 11
135.2016809964
 21
63.6537358595
  0
LINE
  5
2D9
100
AcDbEntity
  8
RUNDUNGEN
100
AcDbLine
 62
7
  6
CONTINUOUS
 10
123.2016809964
 20
63.6537358568
 11
122.7016809964
 21
63.6537358568
  0
LINE
  5
2DA
100
AcDbEntity
  8
RUNDUNGEN
100
AcDbLine
 62
7
  6
CONTINUOUS
 10
110.7016809964
 20
63.6537358568
 11
110.2016809964
 21
63.6537358595
  0
LINE
  5
2DB
100
AcDbEntity
  8
RUNDUNGEN
100
AcDbLine
 62
7
  6
CONTINUOUS
 10
72.374179909
 20
75.2986854985
 11
72.8440262194
 21
75.4696955702
  0
LINE
  5
2DC
100
AcDbEntity
  8
RUNDUNGEN
100
AcDbLine
 62
7
  6
CONTINUOUS
 10
109.6394384206
 20
88.3247459285
 11
109.1695921102
 21
88.1537358568
  0
LINE
  5
2DD
100
AcDbEntity
  8
RUNDUNGEN
100
AcDbLine
 62
7
  6
CONTINUOUS
 10
85.9913710974
 20
75.2172193733
 11
85.52777917
 21
75.4045226698
  0
LINE
  5
2DE
100
AcDbEntity
  8
RUNDUNGEN
100
AcDbLine
 62
7
  6
CONTINUOUS
 10
73.4826994763
 20
57.8204025231
 11
73.8553774722
 21
58.1537358568
  0
LINE
  5
2DF
100
AcDbEntity
  8
RUNDUNGEN
100
AcDbLine
 62
7
  6
CONTINUOUS
 10
144.7016809964
 20
71.1537358568
 11
144.2016809964
 21
71.1537358568
  0
LINE
  5
2E0
100
AcDbEntity
  8
RUNDUNGEN
100
AcDbLine
 62
7
  6
CONTINUOUS
 10
119.7016809964
 20
71.1537358568
 11
119.2016809964
 21
71.1537358568
  0
LINE
  5
2E1
100
AcDbEntity
  8
RUNDUNGEN
100
AcDbLine
 62
7
  6
CONTINUOUS
 10
113.7016809964
 20
71.1537358568
 11
114.2016809964
 21
71.1537358476
  0
LINE
  5
2E2
100
AcDbEntity
  8
RUNDUNGEN
100
AcDbLine
 62
7
  6
CONTINUOUS
 10
138.7016809964
 20
71.1537358568
 11
139.2016809964
 21
71.1537358476
  0
LINE
  5
2E3
100
AcDbEntity
  8
RUNDUNGEN
100
AcDbLine
 62
7
  6
CONTINUOUS
 10
134.6394384206
 20
88.3247459285
 11
134.1695921102
 21
88.1537358568
  0
LINE
  5
2E4
100
AcDbEntity
  8
RUNDUNGEN
100
AcDbLine
 62
7
  6
CONTINUOUS
 10
83.673411461
 20
73.6537358568
 11
74.723411461
 21
73.6537358568
  0
LINE
  5
2E5
100
AcDbEntity
  8
RUNDUNGEN
100
AcDbLine
 62
7
  6
CONTINUOUS
 10
83.673411461
 20
74.1537358568
 11
74.723411461
 21
74.1537358568
  0
LINE
  5
2E6
100
AcDbEntity
  8
RUNDUNGEN
100
AcDbLine
 62
7
  6
CONTINUOUS
 10
106.2016809964
 20
82.6152743184
 11
106.2016809964
 21
88.1537358568
  0
LINE
  5
2E7
100
AcDbEntity
  8
RUNDUNGEN
100
AcDbLine
 62
7
  6
CONTINUOUS
 10
106.7016809964
 20
82.1537358568
 11
106.7016809964
 21
85.6537358568
  0
LINE
  5
2E8
100
AcDbEntity
  8
RUNDUNGEN
100
AcDbLine
 62
7
  6
CONTINUOUS
 10
131.6215994894
 20
85.760917097
 11
131.9251610584
 21
85.8362917051
  0
LINE
  5
2E9
100
AcDbEntity
  8
RUNDUNGEN
100
AcDbLine
 62
7
  6
CONTINUOUS
 10
55.2016809964
 20
80.1537358568
 11
64.5014734582
 21
80.1537358568
  0
LINE
  5
2EA
100
AcDbEntity
  8
0
100
AcDbLine
 62
7
  6
CONTINUOUS
 10
56.2016809964
 20
80.2102260228
 11
60.3016809964
 21
80.2102260228
  0
LINE
  5
2EB
100
AcDbEntity
  8
RUNDUNGEN
100
AcDbLine
 62
7
  6
CONTINUOUS
 10
95.8491077507
 20
84.1982160351
 11
95.3855153771
 21
84.3855192492
  0
LINE
  5
2EC
100
AcDbEntity
  8
RUNDUNGEN
100
AcDbLine
 62
7
  6
CONTINUOUS
 10
106.7016809964
 20
82.1537358568
 11
110.2016809964
 21
69.0915580303
  0
LINE
  5
2ED
100
AcDbEntity
  8
RUNDUNGEN
100
AcDbLine
 62
7
  6
CONTINUOUS
 10
109.2016809964
 20
81.1537358568
 11
109.2016809964
 21
85.5033946003
  0
LINE
  5
2EE
100
AcDbEntity
  8
RUNDUNGEN
100
AcDbLine
 62
7
  6
CONTINUOUS
 10
109.2016809964
 20
86.8040771134
 11
109.2016809964
 21
88.0655723665
  0
LINE
  5
2EF
100
AcDbEntity
  8
RUNDUNGEN
100
AcDbLine
 62
7
  6
CONTINUOUS
 10
109.7016809964
 20
88.1537358568
 11
109.7016809964
 21
81.1537358568
  0
LINE
  5
2F0
100
AcDbEntity
  8
RUNDUNGEN
100
AcDbLine
 62
7
  6
CONTINUOUS
 10
110.2016809964
 20
69.0915580303
 11
110.2016809964
 21
63.6537358568
  0
LINE
  5
2F1
100
AcDbEntity
  8
RUNDUNGEN
100
AcDbLine
 62
7
  6
CONTINUOUS
 10
110.7016809964
 20
69.1573842791
 11
110.7016809964
 21
63.6537358568
  0
LINE
  5
2F2
100
AcDbEntity
  8
RUNDUNGEN
100
AcDbLine
 62
7
  6
CONTINUOUS
 10
73.0940262194
 20
58.4696955702
 11
73.5638725298
 21
58.6407056418
  0
LINE
  5
2F3
100
AcDbEntity
  8
RUNDUNGEN
100
AcDbLine
 62
7
  6
CONTINUOUS
 10
109.2016809964
 20
81.1537358568
 11
109.7016809964
 21
81.1537358568
  0
LINE
  5
2F4
100
AcDbEntity
  8
RUNDUNGEN
100
AcDbLine
 62
7
  6
CONTINUOUS
 10
134.2016809964
 20
81.1537358568
 11
134.7016809964
 21
81.1537358568
  0
LINE
  5
2F5
100
AcDbEntity
  8
RUNDUNGEN
100
AcDbLine
 62
7
  6
CONTINUOUS
 10
149.2016809964
 20
81.1537358568
 11
148.7016809964
 21
81.1537358602
  0
LINE
  5
2F6
100
AcDbEntity
  8
RUNDUNGEN
100
AcDbLine
 62
7
  6
CONTINUOUS
 10
124.2016809964
 20
81.1537358568
 11
123.7016809964
 21
81.1537358602
  0
LINE
  5
2F7
100
AcDbEntity
  8
0
100
AcDbLine
 62
7
  6
CONTINUOUS
 10
95.6976079935
 20
82.1537358568
 11
106.3180173863
 21
82.1537358568
  0
LINE
  5
2F8
100
AcDbEntity
  8
0
100
AcDbLine
 62
7
  6
CONTINUOUS
 10
127.0853575331
 20
82.1537358568
 11
131.3180173863
 21
82.1537358568
  0
LINE
  5
2F9
100
AcDbEntity
  8
0
100
AcDbLine
 62
7
  6
CONTINUOUS
 10
152.0674280735
 20
82.1537358568
 11
154.2016809964
 21
82.1537358568
  0
LINE
  5
2FA
100
AcDbEntity
  8
RUNDUNGEN
100
AcDbLine
 62
7
  6
CONTINUOUS
 10
60.3016809964
 20
82.3853318282
 11
59.7516809964
 21
82.3853318282
  0
LINE
  5
2FB
100
AcDbEntity
  8
RUNDUNGEN
100
AcDbLine
 62
7
  6
CONTINUOUS
 10
56.7516809964
 20
82.3853318282
 11
56.2016809964
 21
82.3853318282
  0
LINE
  5
2FC
100
AcDbEntity
  8
RUNDUNGEN
100
AcDbLine
 62
7
  6
CONTINUOUS
 10
56.4016809964
 20
82.6537358568
 11
56.7516809964
 21
82.6537358568
  0
LINE
  5
2FD
100
AcDbEntity
  8
RUNDUNGEN
100
AcDbLine
 62
7
  6
CONTINUOUS
 10
57.1516809964
 20
82.6537358568
 11
59.3516809964
 21
82.6537358568
  0
LINE
  5
2FE
100
AcDbEntity
  8
RUNDUNGEN
100
AcDbLine
 62
7
  6
CONTINUOUS
 10
59.7516809964
 20
82.6537358568
 11
60.1016809964
 21
82.6537358568
  0
LINE
  5
2FF
100
AcDbEntity
  8
RUNDUNGEN
100
AcDbLine
 62
7
  6
CONTINUOUS
 10
56.2016809964
 20
82.8537358568
 11
60.3016809964
 21
82.8537358568
  0
LINE
  5
300
100
AcDbEntity
  8
RUNDUNGEN
100
AcDbLine
 62
7
  6
CONTINUOUS
 10
55.2016809964
 20
83.1537358568
 11
54.2016809964
 21
83.1537358568
  0
LINE
  5
301
100
AcDbEntity
  8
0
100
AcDbLine
 62
7
  6
CONTINUOUS
 10
55.2016809964
 20
83.1537358568
 11
56.2016809964
 21
83.1537358568
  0
LINE
  5
302
100
AcDbEntity
  8
0
100
AcDbLine
 62
7
  6
CONTINUOUS
 10
60.3016809964
 20
83.1537358568
 11
63.0455065101
 21
83.1538143196
  0
LINE
  5
303
100
AcDbEntity
  8
RUNDUNGEN
100
AcDbLine
 62
7
  6
CONTINUOUS
 10
91.2180630277
 20
88.1537358568
 11
90.7544711004
 21
88.3410391535
  0
LINE
  5
304
100
AcDbEntity
  8
RUNDUNGEN
100
AcDbLine
 62
7
  6
CONTINUOUS
 10
119.2994230741
 20
57.6954025246
 11
119.0995967614
 21
58.1537358618
  0
LINE
  5
305
100
AcDbEntity
  8
RUNDUNGEN
100
AcDbLine
 62
7
  6
CONTINUOUS
 10
106.7016809964
 20
84.0855875094
 11
110.7016809964
 21
69.1573842791
  0
LINE
  5
306
100
AcDbEntity
  8
RUNDUNGEN
100
AcDbLine
 62
7
  6
CONTINUOUS
 10
113.7016809964
 20
63.1537358568
 11
113.7016809964
 21
71.1537358568
  0
LINE
  5
307
100
AcDbEntity
  8
RUNDUNGEN
100
AcDbLine
 62
7
  6
CONTINUOUS
 10
114.2016809964
 20
63.1537358568
 11
114.2016809964
 21
71.1537358568
  0
LINE
  5
308
100
AcDbEntity
  8
RUNDUNGEN
100
AcDbLine
 62
7
  6
CONTINUOUS
 10
126.2016809964
 20
84.6896342417
 11
126.7016809964
 21
84.6896342417
  0
LINE
  5
309
100
AcDbEntity
  8
RUNDUNGEN
100
AcDbLine
 62
7
  6
CONTINUOUS
 10
151.2016809964
 20
84.6896342417
 11
151.7016809964
 21
84.6896342417
  0
LINE
  5
30A
100
AcDbEntity
  8
RUNDUNGEN
100
AcDbLine
 62
7
  6
CONTINUOUS
 10
131.7016809964
 20
84.6896342417
 11
132.2016809962
 21
84.68963424
  0
LINE
  5
30B
100
AcDbEntity
  8
RUNDUNGEN
100
AcDbLine
 62
7
  6
CONTINUOUS
 10
109.1695921102
 20
88.1537358568
 11
109.2016809964
 21
88.0655723665
  0
LINE
  5
30C
100
AcDbEntity
  8
RUNDUNGEN
100
AcDbLine
 62
7
  6
CONTINUOUS
 10
107.6384805056
 20
93.8223326171
 11
109.7016809964
 21
88.1537358568
  0
LINE
  5
30D
100
AcDbEntity
  8
RUNDUNGEN
100
AcDbLine
 62
7
  6
CONTINUOUS
 10
123.7016809964
 20
88.1537358568
 11
125.7648798699
 21
93.8223281735
  0
LINE
  5
30E
100
AcDbEntity
  8
RUNDUNGEN
100
AcDbLine
 62
7
  6
CONTINUOUS
 10
91.2180630277
 20
88.1537358568
 11
98.5257752564
 21
88.1537358568
  0
LINE
  5
30F
100
AcDbEntity
  8
RUNDUNGEN
100
AcDbLine
 62
7
  6
CONTINUOUS
 10
106.2016809964
 20
88.1537358568
 11
109.1695921102
 21
88.1537358568
  0
LINE
  5
310
100
AcDbEntity
  8
RUNDUNGEN
100
AcDbLine
 62
7
  6
CONTINUOUS
 10
124.2337698827
 20
88.1537358568
 11
127.2016809964
 21
88.1537358568
  0
LINE
  5
311
100
AcDbEntity
  8
RUNDUNGEN
100
AcDbLine
 62
7
  6
CONTINUOUS
 10
149.2337698827
 20
88.1537358568
 11
152.2016809964
 21
88.1537358568
  0
LINE
  5
312
100
AcDbEntity
  8
RUNDUNGEN
100
AcDbLine
 62
7
  6
CONTINUOUS
 10
131.20159164
 20
88.1539477725
 11
134.1695921102
 21
88.1537358568
  0
LINE
  5
313
100
AcDbEntity
  8
RUNDUNGEN
100
AcDbLine
 62
7
  6
CONTINUOUS
 10
126.4758529152
 20
85.8274800057
 11
126.7806541328
 21
85.7522205275
  0
LINE
  5
314
100
AcDbEntity
  8
RUNDUNGEN
100
AcDbLine
 62
7
  6
CONTINUOUS
 10
119.2016809964
 20
71.1537358568
 11
119.2016809964
 21
63.1537358568
  0
LINE
  5
315
100
AcDbEntity
  8
RUNDUNGEN
100
AcDbLine
 62
7
  6
CONTINUOUS
 10
119.7016809964
 20
71.1537358568
 11
119.7016809964
 21
63.1537358568
  0
LINE
  5
316
100
AcDbEntity
  8
RUNDUNGEN
100
AcDbLine
 62
7
  6
CONTINUOUS
 10
124.2016809964
 20
88.0655723665
 11
124.2337698827
 21
88.1537358568
  0
LINE
  5
317
100
AcDbEntity
  8
RUNDUNGEN
100
AcDbLine
 62
7
  6
CONTINUOUS
 10
114.3037652348
 20
58.1537358568
 11
114.1039389255
 21
57.6954025217
  0
LINE
  5
318
100
AcDbEntity
  8
0
100
AcDbLine
 62
7
  6
CONTINUOUS
 10
65.8754730473
 20
93.1537358568
 11
60.3016809964
 21
93.1537358568
  0
LINE
  5
319
100
AcDbEntity
  8
0
100
AcDbLine
 62
7
  6
CONTINUOUS
 10
56.2016809964
 20
93.1537358568
 11
55.2016809964
 21
93.1537358568
  0
LINE
  5
31A
100
AcDbEntity
  8
RUNDUNGEN
100
AcDbLine
 62
7
  6
CONTINUOUS
 10
55.2016809964
 20
93.1537358568
 11
54.2016809964
 21
93.1537358568
  0
LINE
  5
31B
100
AcDbEntity
  8
RUNDUNGEN
100
AcDbLine
 62
7
  6
CONTINUOUS
 10
56.2016809964
 20
93.4537358568
 11
60.3016809964
 21
93.4537358568
  0
LINE
  5
31C
100
AcDbEntity
  8
RUNDUNGEN
100
AcDbLine
 62
7
  6
CONTINUOUS
 10
60.1016809964
 20
93.6537358568
 11
59.7516809964
 21
93.6537358568
  0
LINE
  5
31D
100
AcDbEntity
  8
RUNDUNGEN
100
AcDbLine
 62
7
  6
CONTINUOUS
 10
56.7516809964
 20
93.6537358568
 11
56.4016809964
 21
93.6537358568
  0
LINE
  5
31E
100
AcDbEntity
  8
RUNDUNGEN
100
AcDbLine
 62
7
  6
CONTINUOUS
 10
57.1516809964
 20
93.6537358568
 11
59.3516809964
 21
93.6537358568
  0
LINE
  5
31F
100
AcDbEntity
  8
RUNDUNGEN
100
AcDbLine
 62
7
  6
CONTINUOUS
 10
60.3016809964
 20
93.9221398855
 11
59.7516809964
 21
93.9221398855
  0
LINE
  5
320
100
AcDbEntity
  8
RUNDUNGEN
100
AcDbLine
 62
7
  6
CONTINUOUS
 10
56.7516809964
 20
93.9221398855
 11
56.2016809964
 21
93.9221398855
  0
LINE
  5
321
100
AcDbEntity
  8
0
100
AcDbLine
 62
7
  6
CONTINUOUS
 10
93.440046752
 20
94.1537358568
 11
107.1761636912
 21
94.1537358568
  0
LINE
  5
322
100
AcDbEntity
  8
0
100
AcDbLine
 62
7
  6
CONTINUOUS
 10
126.227195766
 20
94.1537358568
 11
132.1761636912
 21
94.1537358568
  0
LINE
  5
323
100
AcDbEntity
  8
0
100
AcDbLine
 62
7
  6
CONTINUOUS
 10
151.227195766
 20
94.1537358568
 11
154.2016809964
 21
94.1537358568
  0
LINE
  5
324
100
AcDbEntity
  8
RUNDUNGEN
100
AcDbLine
 62
7
  6
CONTINUOUS
 10
123.7639235723
 20
88.3247459285
 11
124.2337698827
 21
88.1537358568
  0
LINE
  5
325
100
AcDbEntity
  8
RUNDUNGEN
100
AcDbLine
 62
7
  6
CONTINUOUS
 10
122.7016809964
 20
69.1573842791
 11
122.7016809964
 21
63.6537358568
  0
LINE
  5
326
100
AcDbEntity
  8
RUNDUNGEN
100
AcDbLine
 62
7
  6
CONTINUOUS
 10
123.2016809964
 20
69.0915580303
 11
123.2016809964
 21
63.6537358568
  0
LINE
  5
327
100
AcDbEntity
  8
RUNDUNGEN
100
AcDbLine
 62
7
  6
CONTINUOUS
 10
123.7016809964
 20
81.1537358568
 11
123.7016809964
 21
88.1537358568
  0
LINE
  5
328
100
AcDbEntity
  8
RUNDUNGEN
100
AcDbLine
 62
7
  6
CONTINUOUS
 10
124.2016809964
 20
88.0655723665
 11
124.2016809964
 21
86.8040771134
  0
LINE
  5
329
100
AcDbEntity
  8
RUNDUNGEN
100
AcDbLine
 62
7
  6
CONTINUOUS
 10
124.2016809964
 20
85.5033946003
 11
124.2016809964
 21
81.1537358568
  0
LINE
  5
32A
100
AcDbEntity
  8
RUNDUNGEN
100
AcDbLine
 62
7
  6
CONTINUOUS
 10
122.7016809964
 20
69.1573842791
 11
126.2016809964
 21
82.2195621056
  0
LINE
  5
32B
100
AcDbEntity
  8
RUNDUNGEN
100
AcDbLine
 62
7
  6
CONTINUOUS
 10
123.2016809964
 20
69.0915580303
 11
126.7016809964
 21
82.1537358568
  0
LINE
  5
32C
100
AcDbEntity
  8
0
100
AcDbLine
 62
7
  6
CONTINUOUS
 10
60.3016809964
 20
96.0972456908
 11
56.2016809964
 21
96.0972456908
  0
LINE
  5
32D
100
AcDbEntity
  8
RUNDUNGEN
100
AcDbLine
 62
7
  6
CONTINUOUS
 10
64.9655474616
 20
96.1537358568
 11
55.2016809964
 21
96.1537358568
  0
LINE
  5
32E
100
AcDbEntity
  8
RUNDUNGEN
100
AcDbLine
 62
7
  6
CONTINUOUS
 10
151.4758529152
 20
85.8274800057
 11
151.7806541328
 21
85.7522205275
  0
LINE
  5
32F
100
AcDbEntity
  8
RUNDUNGEN
100
AcDbLine
 62
7
  6
CONTINUOUS
 10
126.2016809964
 20
82.2195621056
 11
126.2016809964
 21
84.6896342417
  0
LINE
  5
330
100
AcDbEntity
  8
RUNDUNGEN
100
AcDbLine
 62
7
  6
CONTINUOUS
 10
126.7016809964
 20
82.1537358568
 11
126.7016809964
 21
84.6896341791
  0
LINE
  5
331
100
AcDbEntity
  8
RUNDUNGEN
100
AcDbLine
 62
7
  6
CONTINUOUS
 10
127.2016809964
 20
88.1537358568
 11
127.2016809964
 21
82.6152743184
  0
LINE
  5
332
100
AcDbEntity
  8
RUNDUNGEN
100
AcDbLine
 62
7
  6
CONTINUOUS
 10
131.2016809964
 20
82.6152743184
 11
131.2016809964
 21
88.1537358568
  0
LINE
  5
333
100
AcDbEntity
  8
RUNDUNGEN
100
AcDbLine
 62
7
  6
CONTINUOUS
 10
131.7016809964
 20
82.1537358568
 11
131.7016809964
 21
84.6896342417
  0
LINE
  5
334
100
AcDbEntity
  8
RUNDUNGEN
100
AcDbLine
 62
7
  6
CONTINUOUS
 10
132.2016809964
 20
82.2195621056
 11
132.2016809964
 21
84.6896342417
  0
LINE
  5
335
100
AcDbEntity
  8
RUNDUNGEN
100
AcDbLine
 62
7
  6
CONTINUOUS
 10
148.7639235723
 20
88.3247459285
 11
149.2337698827
 21
88.1537358568
  0
LINE
  5
336
100
AcDbEntity
  8
RUNDUNGEN
100
AcDbLine
 62
7
  6
CONTINUOUS
 10
131.7016809964
 20
82.1537358568
 11
135.2016809964
 21
69.0915580303
  0
LINE
  5
337
100
AcDbEntity
  8
RUNDUNGEN
100
AcDbLine
 62
7
  6
CONTINUOUS
 10
132.2016809964
 20
82.2195621056
 11
135.7016809964
 21
69.1573842791
  0
LINE
  5
338
100
AcDbEntity
  8
RUNDUNGEN
100
AcDbLine
 62
7
  6
CONTINUOUS
 10
134.2016809964
 20
81.1537358568
 11
134.2016809964
 21
85.5033946003
  0
LINE
  5
339
100
AcDbEntity
  8
RUNDUNGEN
100
AcDbLine
 62
7
  6
CONTINUOUS
 10
134.2016809964
 20
86.8040771134
 11
134.2016809964
 21
88.0655723665
  0
LINE
  5
33A
100
AcDbEntity
  8
RUNDUNGEN
100
AcDbLine
 62
7
  6
CONTINUOUS
 10
134.7016809964
 20
88.1537358568
 11
134.7016809964
 21
81.1537358568
  0
LINE
  5
33B
100
AcDbEntity
  8
RUNDUNGEN
100
AcDbLine
 62
7
  6
CONTINUOUS
 10
135.2016809964
 20
69.0915580303
 11
135.2016809964
 21
63.6537358568
  0
LINE
  5
33C
100
AcDbEntity
  8
RUNDUNGEN
100
AcDbLine
 62
7
  6
CONTINUOUS
 10
135.7016809964
 20
69.1573842791
 11
135.7016809964
 21
63.6537358568
  0
LINE
  5
33D
100
AcDbEntity
  8
RUNDUNGEN
100
AcDbLine
 62
7
  6
CONTINUOUS
 10
144.2994230741
 20
57.6954025246
 11
144.0995967614
 21
58.1537358618
  0
LINE
  5
33E
100
AcDbEntity
  8
RUNDUNGEN
100
AcDbLine
 62
7
  6
CONTINUOUS
 10
134.1695921102
 20
88.1537358568
 11
134.2016809964
 21
88.0655723665
  0
LINE
  5
33F
100
AcDbEntity
  8
RUNDUNGEN
100
AcDbLine
 62
7
  6
CONTINUOUS
 10
132.6384805056
 20
93.8223326171
 11
134.7016809964
 21
88.1537358568
  0
LINE
  5
340
100
AcDbEntity
  8
RUNDUNGEN
100
AcDbLine
 62
7
  6
CONTINUOUS
 10
138.7016809964
 20
63.1537358568
 11
138.7016809964
 21
71.1537358568
  0
LINE
  5
341
100
AcDbEntity
  8
RUNDUNGEN
100
AcDbLine
 62
7
  6
CONTINUOUS
 10
139.2016809964
 20
63.1537358568
 11
139.2016809964
 21
71.1537358568
  0
LINE
  5
342
100
AcDbEntity
  8
RUNDUNGEN
100
AcDbLine
 62
7
  6
CONTINUOUS
 10
148.7016809964
 20
88.1537358568
 11
150.7648798699
 21
93.8223281735
  0
LINE
  5
343
100
AcDbEntity
  8
RUNDUNGEN
100
AcDbLine
 62
7
  6
CONTINUOUS
 10
149.2016809964
 20
88.0655723665
 11
149.2337698827
 21
88.1537358568
  0
LINE
  5
344
100
AcDbEntity
  8
RUNDUNGEN
100
AcDbLine
 62
7
  6
CONTINUOUS
 10
139.3037652348
 20
58.1537358568
 11
139.1039389255
 21
57.6954025217
  0
LINE
  5
345
100
AcDbEntity
  8
RUNDUNGEN
100
AcDbLine
 62
7
  6
CONTINUOUS
 10
144.2016809964
 20
71.1537358568
 11
144.2016809964
 21
63.1537358568
  0
LINE
  5
346
100
AcDbEntity
  8
RUNDUNGEN
100
AcDbLine
 62
7
  6
CONTINUOUS
 10
144.7016809964
 20
71.1537358568
 11
144.7016809964
 21
63.1537358568
  0
LINE
  5
347
100
AcDbEntity
  8
RUNDUNGEN
100
AcDbLine
 62
7
  6
CONTINUOUS
 10
147.7016809964
 20
71.2313639112
 11
151.2016809964
 21
82.2313639112
  0
LINE
  5
348
100
AcDbEntity
  8
RUNDUNGEN
100
AcDbLine
 62
7
  6
CONTINUOUS
 10
147.7016809964
 20
71.2313639112
 11
147.7016809964
 21
63.6537358568
  0
LINE
  5
349
100
AcDbEntity
  8
RUNDUNGEN
100
AcDbLine
 62
7
  6
CONTINUOUS
 10
148.2016809964
 20
71.1537358568
 11
148.2016809964
 21
63.6537358568
  0
LINE
  5
34A
100
AcDbEntity
  8
RUNDUNGEN
100
AcDbLine
 62
7
  6
CONTINUOUS
 10
148.7016809964
 20
81.1537358568
 11
148.7016809964
 21
88.1537358568
  0
LINE
  5
34B
100
AcDbEntity
  8
RUNDUNGEN
100
AcDbLine
 62
7
  6
CONTINUOUS
 10
149.2016809964
 20
88.0655723665
 11
149.2016809964
 21
86.8040771134
  0
LINE
  5
34C
100
AcDbEntity
  8
RUNDUNGEN
100
AcDbLine
 62
7
  6
CONTINUOUS
 10
149.2016809964
 20
85.5033946003
 11
149.2016809964
 21
81.1537358568
  0
LINE
  5
34D
100
AcDbEntity
  8
RUNDUNGEN
100
AcDbLine
 62
7
  6
CONTINUOUS
 10
148.2016809964
 20
71.1537358568
 11
151.7016809964
 21
82.1537358568
  0
LINE
  5
34E
100
AcDbEntity
  8
RUNDUNGEN
100
AcDbLine
 62
7
  6
CONTINUOUS
 10
151.2016809964
 20
82.2313639112
 11
151.2016809964
 21
84.6896342417
  0
LINE
  5
34F
100
AcDbEntity
  8
RUNDUNGEN
100
AcDbLine
 62
7
  6
CONTINUOUS
 10
151.7016809964
 20
82.1537358568
 11
151.7016809964
 21
84.6896342417
  0
LINE
  5
350
100
AcDbEntity
  8
RUNDUNGEN
100
AcDbLine
 62
7
  6
CONTINUOUS
 10
152.2016809964
 20
88.1537358568
 11
152.2016809964
 21
82.6152743184
  0
LINE
  5
351
100
AcDbEntity
  8
0
100
AcDbLine
 62
7
  6
CONTINUOUS
 10
154.2016809964
 20
82.1540056342
 11
154.2016809964
 21
94.1534660794
  0
ARC
  5
352
100
AcDbEntity
  8
RUNDUNGEN
100
AcDbCircle
 62
7
  6
CONTINUOUS
 10
55.2016809964
 20
147.4238792597
 40
1.0
100
AcDbArc
 50
180.0
 51
270.0
  0
ARC
  5
353
100
AcDbEntity
  8
RUNDUNGEN
100
AcDbCircle
 62
7
  6
CONTINUOUS
 10
55.2016809964
 20
157.4238792597
 40
1.0
100
AcDbArc
 50
90.0
 51
180.0
  0
ARC
  5
354
100
AcDbEntity
  8
RUNDUNGEN
100
AcDbCircle
 62
7
  6
CONTINUOUS
 10
135.7016809964
 20
157.9238792597
 40
0.5
100
AcDbArc
 50
90.0
 51
180.0
  0
ARC
  5
355
100
AcDbEntity
  8
RUNDUNGEN
100
AcDbCircle
 62
7
  6
CONTINUOUS
 10
147.7016809964
 20
146.9238792597
 40
0.5
100
AcDbArc
 50
270.0
 51
360.0
  0
ARC
  5
356
100
AcDbEntity
  8
RUNDUNGEN
100
AcDbCircle
 62
7
  6
CONTINUOUS
 10
110.7016809964
 20
157.9238792597
 40
0.5
100
AcDbArc
 50
90.0
 51
180.0
  0
ARC
  5
357
100
AcDbEntity
  8
RUNDUNGEN
100
AcDbCircle
 62
7
  6
CONTINUOUS
 10
110.7016809964
 20
146.9238792597
 40
0.5
100
AcDbArc
 50
180.0
 51
270.0
  0
ARC
  5
358
100
AcDbEntity
  8
RUNDUNGEN
100
AcDbCircle
 62
7
  6
CONTINUOUS
 10
60.0516809964
 20
155.8238792597
 40
0.5
100
AcDbArc
 50
90.0
 51
158.9275888236
  0
ARC
  5
359
100
AcDbEntity
  8
RUNDUNGEN
100
AcDbCircle
 62
7
  6
CONTINUOUS
 10
56.4516809964
 20
155.8238792597
 40
0.5
100
AcDbArc
 50
21.0724161889
 51
90.0
  0
ARC
  5
35A
100
AcDbEntity
  8
RUNDUNGEN
100
AcDbCircle
 62
7
  6
CONTINUOUS
 10
151.2016809964
 20
157.9238792597
 40
0.5
100
AcDbArc
 50
0.0
 51
90.0
  0
ARC
  5
35B
100
AcDbEntity
  8
RUNDUNGEN
100
AcDbCircle
 62
7
  6
CONTINUOUS
 10
147.7016809964
 20
157.9238792597
 40
0.5
100
AcDbArc
 50
0.0
 51
90.0
  0
ARC
  5
35C
100
AcDbEntity
  8
RUNDUNGEN
100
AcDbCircle
 62
7
  6
CONTINUOUS
 10
132.2016809964
 20
157.9238792597
 40
0.5
100
AcDbArc
 50
90.0
 51
180.0
  0
ARC
  5
35D
100
AcDbEntity
  8
RUNDUNGEN
100
AcDbCircle
 62
7
  6
CONTINUOUS
 10
132.2016809964
 20
146.9238792597
 40
0.5
100
AcDbArc
 50
180.0
 51
270.0
  0
ARC
  5
35E
100
AcDbEntity
  8
RUNDUNGEN
100
AcDbCircle
 62
7
  6
CONTINUOUS
 10
135.7016809964
 20
146.9238792597
 40
0.5
100
AcDbArc
 50
180.0
 51
270.0
  0
ARC
  5
35F
100
AcDbEntity
  8
RUNDUNGEN
100
AcDbCircle
 62
7
  6
CONTINUOUS
 10
151.2016809964
 20
146.9238792597
 40
0.5
100
AcDbArc
 50
270.0
 51
360.0
  0
ARC
  5
360
100
AcDbEntity
  8
RUNDUNGEN
100
AcDbCircle
 62
7
  6
CONTINUOUS
 10
126.2016809964
 20
157.9238792597
 40
0.5
100
AcDbArc
 50
0.0
 51
90.0
  0
ARC
  5
361
100
AcDbEntity
  8
RUNDUNGEN
100
AcDbCircle
 62
7
  6
CONTINUOUS
 10
122.7016809964
 20
157.9238792597
 40
0.5
100
AcDbArc
 50
0.0
 51
90.0
  0
ARC
  5
362
100
AcDbEntity
  8
RUNDUNGEN
100
AcDbCircle
 62
7
  6
CONTINUOUS
 10
126.2016809964
 20
146.9238792597
 40
0.5
100
AcDbArc
 50
270.0
 51
360.0
  0
ARC
  5
363
100
AcDbEntity
  8
RUNDUNGEN
100
AcDbCircle
 62
7
  6
CONTINUOUS
 10
122.7016809964
 20
146.9238792597
 40
0.5
100
AcDbArc
 50
270.0
 51
360.0
  0
ARC
  5
364
100
AcDbEntity
  8
RUNDUNGEN
100
AcDbCircle
 62
7
  6
CONTINUOUS
 10
60.0516809964
 20
155.8238792597
 40
0.3
100
AcDbArc
 50
90.0
 51
143.0352658943
  0
ARC
  5
365
100
AcDbEntity
  8
RUNDUNGEN
100
AcDbCircle
 62
7
  6
CONTINUOUS
 10
56.4516809964
 20
155.8238792597
 40
0.3
100
AcDbArc
 50
36.9661103733
 51
90.0
  0
ARC
  5
366
100
AcDbEntity
  8
RUNDUNGEN
100
AcDbCircle
 62
7
  6
CONTINUOUS
 10
56.4016809964
 20
156.5238792597
 40
0.2
100
AcDbArc
 50
180.0
 51
270.0
  0
ARC
  5
367
100
AcDbEntity
  8
RUNDUNGEN
100
AcDbCircle
 62
7
  6
CONTINUOUS
 10
60.1016809964
 20
156.5238792597
 40
0.2
100
AcDbArc
 50
270.0
 51
360.0
  0
ARC
  5
368
100
AcDbEntity
  8
RUNDUNGEN
100
AcDbCircle
 62
7
  6
CONTINUOUS
 10
220.0920707429
 20
149.4239849755
 40
4.0000818616
100
AcDbArc
 50
321.3167577176
 51
359.9984857631
  0
ARC
  5
369
100
AcDbEntity
  8
RUNDUNGEN
100
AcDbCircle
 62
7
  6
CONTINUOUS
 10
210.4341727464
 20
149.4238792597
 40
3.0
100
AcDbArc
 50
180.0
 51
270.0
  0
ARC
  5
36A
100
AcDbEntity
  8
RUNDUNGEN
100
AcDbCircle
 62
7
  6
CONTINUOUS
 10
220.4341727464
 20
149.4238792597
 40
3.0
100
AcDbArc
 50
269.9977812256
 51
360.0
  0
ARC
  5
36B
100
AcDbEntity
  8
RUNDUNGEN
100
AcDbCircle
 62
7
  6
CONTINUOUS
 10
220.4341727464
 20
149.4238792597
 40
2.0
100
AcDbArc
 50
270.0
 51
360.0
  0
ARC
  5
36C
100
AcDbEntity
  8
RUNDUNGEN
100
AcDbCircle
 62
7
  6
CONTINUOUS
 10
210.4341727464
 20
149.4238792597
 40
2.0
100
AcDbArc
 50
180.0
 51
270.0
  0
ARC
  5
36D
100
AcDbEntity
  8
RUNDUNGEN
100
AcDbCircle
 62
7
  6
CONTINUOUS
 10
220.0923764331
 20
155.4239179573
 40
3.9997761702
100
AcDbArc
 50
359.9994456666
 51
38.6840251467
  0
ARC
  5
36E
100
AcDbEntity
  8
RUNDUNGEN
100
AcDbCircle
 62
7
  6
CONTINUOUS
 10
210.4341727464
 20
155.4238792597
 40
3.0
100
AcDbArc
 50
90.0
 51
180.0
  0
ARC
  5
36F
100
AcDbEntity
  8
RUNDUNGEN
100
AcDbCircle
 62
7
  6
CONTINUOUS
 10
220.4341727464
 20
155.4238792597
 40
3.0
100
AcDbArc
 50
0.0
 51
90.0
  0
CIRCLE
  5
370
100
AcDbEntity
  8
0
100
AcDbCircle
 62
7
  6
CONTINUOUS
 10
215.4341727464
 20
152.4238792597
 40
2.7
  0
ARC
  5
371
100
AcDbEntity
  8
RUNDUNGEN
100
AcDbCircle
 62
7
  6
CONTINUOUS
 10
220.4341727464
 20
155.4238792597
 40
2.0
100
AcDbArc
 50
0.0
 51
90.0
  0
ARC
  5
372
100
AcDbEntity
  8
RUNDUNGEN
100
AcDbCircle
 62
7
  6
CONTINUOUS
 10
210.4341727464
 20
155.4238792597
 40
2.0
100
AcDbArc
 50
90.0
 51
180.0
  0
ARC
  5
373
100
AcDbEntity
  8
RUNDUNGEN
100
AcDbCircle
 62
7
  6
CONTINUOUS
 10
245.4341727464
 20
147.4238792597
 40
1.0
100
AcDbArc
 50
270.0
 51
360.0
  0
ARC
  5
374
100
AcDbEntity
  8
0
100
AcDbCircle
 62
7
  6
CONTINUOUS
 10
240.1841727464
 20
152.4238792597
 40
2.75
100
AcDbArc
 50
270.0
 51
90.0
  0
ARC
  5
375
100
AcDbEntity
  8
0
100
AcDbCircle
 62
7
  6
CONTINUOUS
 10
232.6841727464
 20
152.4238792597
 40
2.75
100
AcDbArc
 50
90.0
 51
270.0
  0
ARC
  5
376
100
AcDbEntity
  8
RUNDUNGEN
100
AcDbCircle
 62
7
  6
CONTINUOUS
 10
245.4341727464
 20
157.4238792597
 40
1.0
100
AcDbArc
 50
0.0
 51
90.0
  0
ARC
  5
377
100
AcDbEntity
  8
RUNDUNGEN
100
AcDbCircle
 62
7
  6
CONTINUOUS
 10
74.973411461
 20
59.1537358568
 40
2.0
100
AcDbArc
 50
199.9999998349
 51
270.0
  0
ARC
  5
378
100
AcDbEntity
  8
RUNDUNGEN
100
AcDbCircle
 62
7
  6
CONTINUOUS
 10
74.973411461
 20
59.1537358568
 40
1.5
100
AcDbArc
 50
200.0
 51
221.8103148958
  0
ARC
  5
379
100
AcDbEntity
  8
RUNDUNGEN
100
AcDbCircle
 62
7
  6
CONTINUOUS
 10
74.723411461
 20
76.1537358568
 40
2.5
100
AcDbArc
 50
200.0
 51
270.0
  0
ARC
  5
37A
100
AcDbEntity
  8
RUNDUNGEN
100
AcDbCircle
 62
7
  6
CONTINUOUS
 10
74.723411461
 20
76.1537358568
 40
2.0
100
AcDbArc
 50
200.0
 51
270.0
  0
ARC
  5
37B
100
AcDbEntity
  8
RUNDUNGEN
100
AcDbCircle
 62
7
  6
CONTINUOUS
 10
83.573411461
 20
59.1537358568
 40
2.0
100
AcDbArc
 50
270.0
 51
338.0
  0
ARC
  5
37C
100
AcDbEntity
  8
RUNDUNGEN
100
AcDbCircle
 62
7
  6
CONTINUOUS
 10
83.573411461
 20
59.1537358568
 40
1.5
100
AcDbArc
 50
318.1896851042
 51
338.0
  0
ARC
  5
37D
100
AcDbEntity
  8
RUNDUNGEN
100
AcDbCircle
 62
7
  6
CONTINUOUS
 10
83.673411461
 20
76.1537358568
 40
2.5
100
AcDbArc
 50
270.0
 51
338.0
  0
ARC
  5
37E
100
AcDbEntity
  8
RUNDUNGEN
100
AcDbCircle
 62
7
  6
CONTINUOUS
 10
83.673411461
 20
76.1537358568
 40
2.0
100
AcDbArc
 50
270.0
 51
338.0
  0
ARC
  5
37F
100
AcDbEntity
  8
RUNDUNGEN
100
AcDbCircle
 62
7
  6
CONTINUOUS
 10
55.2016809964
 20
81.1537358568
 40
1.0
100
AcDbArc
 50
180.0
 51
270.0
  0
ARC
  5
380
100
AcDbEntity
  8
RUNDUNGEN
100
AcDbCircle
 62
7
  6
CONTINUOUS
 10
64.5014607645
 20
79.1537707324
 40
0.9999912811
100
AcDbArc
 50
20.0
 51
89.9992726801
  0
ARC
  5
381
100
AcDbEntity
  8
RUNDUNGEN
100
AcDbCircle
 62
7
  6
CONTINUOUS
 10
59.7516822353
 20
82.7853340574
 40
0.4000022293
100
AcDbArc
 50
199.0256067779
 51
269.9998225434
  0
ARC
  5
382
100
AcDbEntity
  8
RUNDUNGEN
100
AcDbCircle
 62
7
  6
CONTINUOUS
 10
56.7516797154
 20
82.7853336247
 40
0.4000017966
100
AcDbArc
 50
270.0001834942
 51
340.9738495556
  0
ARC
  5
383
100
AcDbEntity
  8
RUNDUNGEN
100
AcDbCircle
 62
7
  6
CONTINUOUS
 10
56.4016809964
 20
82.4537358568
 40
0.2
100
AcDbArc
 50
90.0
 51
168.7499999627
  0
ARC
  5
384
100
AcDbEntity
  8
RUNDUNGEN
100
AcDbCircle
 62
7
  6
CONTINUOUS
 10
60.1016809964
 20
82.4537358568
 40
0.2
100
AcDbArc
 50
0.0
 51
90.0
  0
ARC
  5
385
100
AcDbEntity
  8
RUNDUNGEN
100
AcDbCircle
 62
7
  6
CONTINUOUS
 10
59.7516809964
 20
82.8537358568
 40
0.2
100
AcDbArc
 50
180.0
 51
270.0
  0
ARC
  5
386
100
AcDbEntity
  8
RUNDUNGEN
100
AcDbCircle
 62
7
  6
CONTINUOUS
 10
56.7516809964
 20
82.8537358568
 40
0.2
100
AcDbArc
 50
270.0
 51
360.0
  0
ARC
  5
387
100
AcDbEntity
  8
RUNDUNGEN
100
AcDbCircle
 62
7
  6
CONTINUOUS
 10
59.3516809964
 20
82.8537358568
 40
0.2
100
AcDbArc
 50
270.0
 51
360.0
  0
ARC
  5
388
100
AcDbEntity
  8
RUNDUNGEN
100
AcDbCircle
 62
7
  6
CONTINUOUS
 10
57.1516809964
 20
82.8537358568
 40
0.2
100
AcDbArc
 50
180.0
 51
270.0
  0
ARC
  5
389
100
AcDbEntity
  8
RUNDUNGEN
100
AcDbCircle
 62
7
  6
CONTINUOUS
 10
55.2016809964
 20
95.1537358568
 40
1.0
100
AcDbArc
 50
90.0
 51
180.0
  0
ARC
  5
38A
100
AcDbEntity
  8
RUNDUNGEN
100
AcDbCircle
 62
7
  6
CONTINUOUS
 10
64.9655474616
 20
95.6537358568
 40
0.5
100
AcDbArc
 50
20.0
 51
90.0
  0
ARC
  5
38B
100
AcDbEntity
  8
RUNDUNGEN
100
AcDbCircle
 62
7
  6
CONTINUOUS
 10
56.7516798431
 20
93.522137676
 40
0.4000022095
100
AcDbArc
 50
19.0255432807
 51
89.9998347979
  0
ARC
  5
38C
100
AcDbEntity
  8
RUNDUNGEN
100
AcDbCircle
 62
7
  6
CONTINUOUS
 10
59.7516821113
 20
93.5221383163
 40
0.4000015692
100
AcDbArc
 50
90.0001596898
 51
160.9738775325
  0
ARC
  5
38D
100
AcDbEntity
  8
RUNDUNGEN
100
AcDbCircle
 62
7
  6
CONTINUOUS
 10
56.4016809964
 20
93.8537358568
 40
0.2
100
AcDbArc
 50
180.0
 51
270.0
  0
ARC
  5
38E
100
AcDbEntity
  8
RUNDUNGEN
100
AcDbCircle
 62
7
  6
CONTINUOUS
 10
60.1016809964
 20
93.8537358568
 40
0.2
100
AcDbArc
 50
270.0
 51
348.7499999627
  0
ARC
  5
38F
100
AcDbEntity
  8
RUNDUNGEN
100
AcDbCircle
 62
7
  6
CONTINUOUS
 10
56.7516809964
 20
93.4537358568
 40
0.2
100
AcDbArc
 50
0.0
 51
90.0
  0
ARC
  5
390
100
AcDbEntity
  8
RUNDUNGEN
100
AcDbCircle
 62
7
  6
CONTINUOUS
 10
59.7516809964
 20
93.4537358568
 40
0.2
100
AcDbArc
 50
90.0
 51
180.0
  0
ARC
  5
391
100
AcDbEntity
  8
RUNDUNGEN
100
AcDbCircle
 62
7
  6
CONTINUOUS
 10
59.3516809964
 20
93.4537358568
 40
0.2
100
AcDbArc
 50
0.0004463939
 51
90.0
  0
ARC
  5
392
100
AcDbEntity
  8
RUNDUNGEN
100
AcDbCircle
 62
7
  6
CONTINUOUS
 10
57.1516809964
 20
93.4537358568
 40
0.2
100
AcDbArc
 50
90.0
 51
180.0
  0
ARC
  5
393
100
AcDbEntity
  8
RUNDUNGEN
100
AcDbCircle
 62
7
  6
CONTINUOUS
 10
95.6976087487
 20
81.1537756842
 40
0.9999943155
100
AcDbArc
 50
90.0015624911
 51
158.0041708443
  0
ARC
  5
394
100
AcDbEntity
  8
RUNDUNGEN
100
AcDbCircle
 62
7
  6
CONTINUOUS
 10
93.4402072641
 20
93.6537358427
 40
0.5
100
AcDbArc
 50
90.0000002268
 51
158.0
  0
ARC
  5
395
100
AcDbEntity
  8
RUNDUNGEN
100
AcDbCircle
 62
7
  6
CONTINUOUS
 10
116.7016809964
 20
63.6537358568
 40
6.5
100
AcDbArc
 50
180.0
 51
360.0
  0
ARC
  5
396
100
AcDbEntity
  8
0
100
AcDbCircle
 62
7
  6
CONTINUOUS
 10
116.7016809964
 20
63.6537358568
 40
6.5
100
AcDbArc
 50
180.0
 51
182.204227504
  0
ARC
  5
397
100
AcDbEntity
  8
RUNDUNGEN
100
AcDbCircle
 62
7
  6
CONTINUOUS
 10
116.7016809964
 20
63.6537358568
 40
6.0
100
AcDbArc
 50
293.5555952472
 51
360.0
  0
ARC
  5
398
100
AcDbEntity
  8
RUNDUNGEN
100
AcDbCircle
 62
7
  6
CONTINUOUS
 10
116.7016809964
 20
63.6537358568
 40
6.0
100
AcDbArc
 50
180.0
 51
246.4437346751
  0
ARC
  5
399
100
AcDbEntity
  8
RUNDUNGEN
100
AcDbCircle
 62
7
  6
CONTINUOUS
 10
116.7016809964
 20
63.1537358568
 40
3.0
100
AcDbArc
 50
180.0
 51
360.0
  0
ARC
  5
39A
100
AcDbEntity
  8
RUNDUNGEN
100
AcDbCircle
 62
7
  6
CONTINUOUS
 10
116.7016809964
 20
63.1537358568
 40
2.5
100
AcDbArc
 50
180.0
 51
360.0
  0
CIRCLE
  5
39B
100
AcDbEntity
  8
02___PRT_ALL_AXES
100
AcDbCircle
 62
7
  6
CONTINUOUS
 10
121.0266809964
 20
61.9477358568
 40
1.25
  0
CIRCLE
  5
39C
100
AcDbEntity
  8
02___PRT_ALL_AXES
100
AcDbCircle
 62
7
  6
CONTINUOUS
 10
112.3766809964
 20
61.9477358568
 40
1.25
  0
ARC
  5
39D
100
AcDbEntity
  8
RUNDUNGEN
100
AcDbCircle
 62
7
  6
CONTINUOUS
 10
116.7016809964
 20
71.1537358568
 40
3.0
100
AcDbArc
 50
118.4546490896
 51
180.0
  0
ARC
  5
39E
100
AcDbEntity
  8
RUNDUNGEN
100
AcDbCircle
 62
7
  6
CONTINUOUS
 10
116.7016809964
 20
71.1537358568
 40
3.0
100
AcDbArc
 50
0.0
 51
61.5453391771
  0
ARC
  5
39F
100
AcDbEntity
  8
RUNDUNGEN
100
AcDbCircle
 62
7
  6
CONTINUOUS
 10
116.7016809964
 20
71.1537358568
 40
2.5
100
AcDbArc
 50
0.0
 51
180.0
  0
CIRCLE
  5
3A0
100
AcDbEntity
  8
02___PRT_ALL_AXES
100
AcDbCircle
 62
7
  6
CONTINUOUS
 10
121.2371809964
 20
72.0267358568
 40
1.25
  0
CIRCLE
  5
3A1
100
AcDbEntity
  8
02___PRT_ALL_AXES
100
AcDbCircle
 62
7
  6
CONTINUOUS
 10
112.1661809964
 20
72.0267358568
 40
1.25
  0
ARC
  5
3A2
100
AcDbEntity
  8
0
100
AcDbCircle
 62
7
  6
CONTINUOUS
 10
141.7016809964
 20
63.6537358568
 40
6.5
100
AcDbArc
 50
357.795772496
 51
360.0
  0
ARC
  5
3A3
100
AcDbEntity
  8
RUNDUNGEN
100
AcDbCircle
 62
7
  6
CONTINUOUS
 10
141.7016809964
 20
63.6537358568
 40
6.5
100
AcDbArc
 50
180.0
 51
360.0
  0
ARC
  5
3A4
100
AcDbEntity
  8
RUNDUNGEN
100
AcDbCircle
 62
7
  6
CONTINUOUS
 10
141.7016809964
 20
63.6537358568
 40
6.0
100
AcDbArc
 50
293.5555952472
 51
360.0
  0
ARC
  5
3A5
100
AcDbEntity
  8
RUNDUNGEN
100
AcDbCircle
 62
7
  6
CONTINUOUS
 10
141.7016809964
 20
63.6537358568
 40
6.0
100
AcDbArc
 50
180.0
 51
246.4437346751
  0
ARC
  5
3A6
100
AcDbEntity
  8
RUNDUNGEN
100
AcDbCircle
 62
7
  6
CONTINUOUS
 10
141.7016809964
 20
63.1537358568
 40
3.0
100
AcDbArc
 50
180.0
 51
360.0
  0
ARC
  5
3A7
100
AcDbEntity
  8
RUNDUNGEN
100
AcDbCircle
 62
7
  6
CONTINUOUS
 10
141.7016809964
 20
63.1537358568
 40
2.5
100
AcDbArc
 50
180.0
 51
360.0
  0
CIRCLE
  5
3A8
100
AcDbEntity
  8
02___PRT_ALL_AXES
100
AcDbCircle
 62
7
  6
CONTINUOUS
 10
146.0266809964
 20
61.9477358568
 40
1.25
  0
CIRCLE
  5
3A9
100
AcDbEntity
  8
02___PRT_ALL_AXES
100
AcDbCircle
 62
7
  6
CONTINUOUS
 10
137.3766809964
 20
61.9477358568
 40
1.25
  0
ARC
  5
3AA
100
AcDbEntity
  8
RUNDUNGEN
100
AcDbCircle
 62
7
  6
CONTINUOUS
 10
141.7016809964
 20
71.1537358568
 40
3.0
100
AcDbArc
 50
118.4546490896
 51
180.0
  0
ARC
  5
3AB
100
AcDbEntity
  8
RUNDUNGEN
100
AcDbCircle
 62
7
  6
CONTINUOUS
 10
141.7016809964
 20
71.1537358568
 40
3.0
100
AcDbArc
 50
0.0
 51
61.5453391771
  0
ARC
  5
3AC
100
AcDbEntity
  8
RUNDUNGEN
100
AcDbCircle
 62
7
  6
CONTINUOUS
 10
141.7016809964
 20
71.1537358568
 40
2.5
100
AcDbArc
 50
0.0
 51
180.0
  0
CIRCLE
  5
3AD
100
AcDbEntity
  8
02___PRT_ALL_AXES
100
AcDbCircle
 62
7
  6
CONTINUOUS
 10
146.2371809964
 20
72.0267358568
 40
1.25
  0
CIRCLE
  5
3AE
100
AcDbEntity
  8
02___PRT_ALL_AXES
100
AcDbCircle
 62
7
  6
CONTINUOUS
 10
137.1661809964
 20
72.0267358568
 40
1.25
  0
ARC
  5
3AF
100
AcDbEntity
  8
RUNDUNGEN
100
AcDbCircle
 62
7
  6
CONTINUOUS
 10
116.7016809964
 20
81.1537358568
 40
7.5
100
AcDbArc
 50
180.0
 51
259.0138388222
  0
ARC
  5
3B0
100
AcDbEntity
  8
RUNDUNGEN
100
AcDbCircle
 62
7
  6
CONTINUOUS
 10
116.7016809964
 20
81.1537358568
 40
7.5
100
AcDbArc
 50
280.9861676309
 51
360.0
  0
ARC
  5
3B1
100
AcDbEntity
  8
RUNDUNGEN
100
AcDbCircle
 62
7
  6
CONTINUOUS
 10
141.7016809964
 20
81.1537358568
 40
7.5
100
AcDbArc
 50
180.0
 51
259.0138388222
  0
ARC
  5
3B2
100
AcDbEntity
  8
RUNDUNGEN
100
AcDbCircle
 62
7
  6
CONTINUOUS
 10
141.7016809964
 20
81.1537358568
 40
7.5
100
AcDbArc
 50
280.9861676309
 51
360.0
  0
ARC
  5
3B3
100
AcDbEntity
  8
RUNDUNGEN
100
AcDbCircle
 62
7
  6
CONTINUOUS
 10
141.7016809964
 20
81.1537358568
 40
7.0
100
AcDbArc
 50
180.0
 51
360.0
  0
ARC
  5
3B4
100
AcDbEntity
  8
RUNDUNGEN
100
AcDbCircle
 62
7
  6
CONTINUOUS
 10
116.7016809964
 20
81.1537358568
 40
7.0
100
AcDbArc
 50
180.0
 51
360.0
  0
CIRCLE
  5
3B5
100
AcDbEntity
  8
02___PRT_ALL_AXES
100
AcDbCircle
 62
7
  6
CONTINUOUS
 10
150.2691809964
 20
86.1537358568
 40
1.25
  0
CIRCLE
  5
3B6
100
AcDbEntity
  8
02___PRT_ALL_AXES
100
AcDbCircle
 62
7
  6
CONTINUOUS
 10
133.1341809964
 20
86.1537358568
 40
1.25
  0
CIRCLE
  5
3B7
100
AcDbEntity
  8
02___PRT_ALL_AXES
100
AcDbCircle
 62
7
  6
CONTINUOUS
 10
125.2691809964
 20
86.1537358568
 40
1.25
  0
CIRCLE
  5
3B8
100
AcDbEntity
  8
02___PRT_ALL_AXES
100
AcDbCircle
 62
7
  6
CONTINUOUS
 10
108.1341809964
 20
86.1537358568
 40
1.25
  0
ARC
  5
3B9
100
AcDbEntity
  8
RUNDUNGEN
100
AcDbCircle
 62
7
  6
CONTINUOUS
 10
132.1677680882
 20
93.6537021549
 40
0.5
100
AcDbArc
 50
20.0000000004
 51
89.9995381168
  0
ARC
  5
3BA
100
AcDbEntity
  8
RUNDUNGEN
100
AcDbCircle
 62
7
  6
CONTINUOUS
 10
151.2355938788
 20
93.653702084
 40
0.5
100
AcDbArc
 50
90.0004628199
 51
159.9999999997
  0
ARC
  5
3BB
100
AcDbEntity
  8
RUNDUNGEN
100
AcDbCircle
 62
7
  6
CONTINUOUS
 10
126.2355938788
 20
93.653702084
 40
0.5
100
AcDbArc
 50
90.0004628199
 51
159.9999999996
  0
ARC
  5
3BC
100
AcDbEntity
  8
RUNDUNGEN
100
AcDbCircle
 62
7
  6
CONTINUOUS
 10
107.1677680882
 20
93.6537021549
 40
0.5
100
AcDbArc
 50
20.0000000004
 51
89.9995381168
  0
ARC
  5
3BD
100
AcDbEntity
  8
RUNDUNGEN
100
AcDbCircle
 62
7
  6
CONTINUOUS
 10
127.0853444902
 20
81.6537358558
 40
0.5000000001
100
AcDbArc
 50
90.0
 51
141.6341897906
  0
ARC
  5
3BE
100
AcDbEntity
  8
RUNDUNGEN
100
AcDbCircle
 62
7
  6
CONTINUOUS
 10
131.3180175024
 20
81.6537358568
 40
0.5
100
AcDbArc
 50
34.0308024135
 51
90.0
  0
ARC
  5
3BF
100
AcDbEntity
  8
RUNDUNGEN
100
AcDbCircle
 62
7
  6
CONTINUOUS
 10
106.3180175024
 20
81.6537358568
 40
0.5
100
AcDbArc
 50
34.0308024135
 51
90.0
  0
ARC
  5
3C0
100
AcDbEntity
  8
RUNDUNGEN
100
AcDbCircle
 62
7
  6
CONTINUOUS
 10
152.0672899297
 20
81.6537358785
 40
0.4999999983
100
AcDbArc
 50
90.0000000012
 51
150.9769735517
  0
ARC
  5
3C1
100
AcDbEntity
  8
RUNDUNGEN
100
AcDbCircle
 62
7
  6
CONTINUOUS
 10
151.7736784325
 20
82.6153123555
 40
0.4280025656
100
AcDbArc
 50
340.9101874508
 51
359.994908045
  0
ARC
  5
3C2
100
AcDbEntity
  8
RUNDUNGEN
100
AcDbCircle
 62
7
  6
CONTINUOUS
 10
126.7742357868
 20
82.6152956502
 40
0.4274452102
100
AcDbArc
 50
343.7688891572
 51
359.9971406357
  0
ARC
  5
3C3
100
AcDbEntity
  8
RUNDUNGEN
100
AcDbCircle
 62
7
  6
CONTINUOUS
 10
131.6291241289
 20
82.6152953539
 40
0.427443133
100
AcDbArc
 50
180.0028196687
 51
196.2311505384
  0
ARC
  5
3C4
100
AcDbEntity
  8
RUNDUNGEN
100
AcDbCircle
 62
7
  6
CONTINUOUS
 10
106.629124129
 20
82.6152953539
 40
0.427443133
100
AcDbArc
 50
180.0028196687
 51
196.2311505384
  0
SPLINE
  5
3C5
100
AcDbEntity
  8
0
100
AcDbSpline
 62
7
  6
CONTINUOUS
 70
0
 71
3
 72
35
 73
31
 74
0
 42
0.0000001
 43
0.0000001
 44
0.0000000001
 40
0.0
 40
0.0
 40
0.0
 40
0.0
 40
0.0013120389
 40
0.0037498289
 40
0.0073990886
 40
0.0122682184
 40
0.025610936
 40
0.0435487181
 40
0.0657893412
 40
0.0920044645
 40
0.1218527905
 40
0.1550006626
 40
0.2299034249
 40
0.3142112407
 40
0.4052892886
 40
0.5000016781
 40
0.5947137761
 40
0.6857912026
 40
0.7700983176
 40
0.8450003332
 40
0.8781480517
 40
0.9079962191
 40
0.9342111377
 40
0.9564516067
 40
0.9743892531
 40
0.9877319234
 40
0.9926010295
 40
0.9962502399
 40
0.9986879813
 40
1.0
 40
1.0
 40
1.0
 40
1.0
 10
135.206490468
 20
155.1738792597
 30
0.0
 10
135.209008444
 20
155.1738792597
 30
0.0
 10
135.2153289363
 20
155.169051801
 30
0.0
 10
135.2244043296
 20
155.1586900369
 30
0.0
 10
135.2367502882
 20
155.1413743367
 30
0.0
 10
135.2590687688
 20
155.1059805282
 30
0.0
 10
135.292880149
 20
155.0452566617
 30
0.0
 10
135.3394485124
 20
154.9537395746
 30
0.0
 10
135.3938669658
 20
154.8384890558
 30
0.0
 10
135.4543550867
 20
154.7009120935
 30
0.0
 10
135.5190539034
 20
154.5423723865
 30
0.0
 10
135.6120821279
 20
154.294584752
 30
0.0
 10
135.7253438507
 20
153.9429171663
 30
0.0
 10
135.8388612952
 20
153.4756597351
 30
0.0
 10
135.9168560963
 20
152.9624249323
 30
0.0
 10
135.9447759073
 20
152.4238700981
 30
0.0
 10
135.9168557346
 20
151.8853163921
 30
0.0
 10
135.8388585077
 20
151.3720850924
 30
0.0
 10
135.7253411575
 20
150.90483176
 30
0.0
 10
135.6120795946
 20
150.5531673667
 30
0.0
 10
135.5190522541
 20
150.3053815689
 30
0.0
 10
135.4543534279
 20
150.1468429384
 30
0.0
 10
135.3938658558
 20
150.0092668193
 30
0.0
 10
135.3394475677
 20
149.8940172724
 30
0.0
 10
135.2928795682
 20
149.8025007257
 30
0.0
 10
135.2590683398
 20
149.7417772309
 30
0.0
 10
135.2367499107
 20
149.7063836549
 30
0.0
 10
135.2244040815
 20
149.6890681682
 30
0.0
 10
135.2153288239
 20
149.678706544
 30
0.0
 10
135.2090084053
 20
149.6738792597
 30
0.0
 10
135.206490468
 20
149.6738792597
 30
0.0
  0
SPLINE
  5
3C6
100
AcDbEntity
  8
0
100
AcDbSpline
 62
7
  6
CONTINUOUS
 70
0
 71
3
 72
35
 73
31
 74
0
 42
0.0000001
 43
0.0000001
 44
0.0000000001
 40
0.0
 40
0.0
 40
0.0
 40
0.0
 40
0.0013120389
 40
0.0037498289
 40
0.0073990886
 40
0.0122682184
 40
0.025610936
 40
0.0435487181
 40
0.0657893412
 40
0.0920044645
 40
0.1218527905
 40
0.1550006626
 40
0.2299034249
 40
0.3142112407
 40
0.4052892886
 40
0.5000016781
 40
0.5947137761
 40
0.6857912026
 40
0.7700983176
 40
0.8450003332
 40
0.8781480517
 40
0.9079962191
 40
0.9342111377
 40
0.9564516067
 40
0.9743892531
 40
0.9877319234
 40
0.9926010295
 40
0.9962502399
 40
0.9986879813
 40
1.0
 40
1.0
 40
1.0
 40
1.0
 10
110.206490468
 20
155.1738792597
 30
0.0
 10
110.209008444
 20
155.1738792597
 30
0.0
 10
110.2153289363
 20
155.169051801
 30
0.0
 10
110.2244043296
 20
155.1586900369
 30
0.0
 10
110.2367502882
 20
155.1413743367
 30
0.0
 10
110.2590687688
 20
155.1059805282
 30
0.0
 10
110.292880149
 20
155.0452566617
 30
0.0
 10
110.3394485124
 20
154.9537395746
 30
0.0
 10
110.3938669658
 20
154.8384890558
 30
0.0
 10
110.4543550867
 20
154.7009120935
 30
0.0
 10
110.5190539034
 20
154.5423723865
 30
0.0
 10
110.6120821279
 20
154.294584752
 30
0.0
 10
110.7253438507
 20
153.9429171663
 30
0.0
 10
110.8388612952
 20
153.4756597351
 30
0.0
 10
110.9168560963
 20
152.9624249323
 30
0.0
 10
110.9447759073
 20
152.4238700981
 30
0.0
 10
110.9168557346
 20
151.8853163921
 30
0.0
 10
110.8388585077
 20
151.3720850924
 30
0.0
 10
110.7253411575
 20
150.90483176
 30
0.0
 10
110.6120795946
 20
150.5531673667
 30
0.0
 10
110.5190522541
 20
150.3053815689
 30
0.0
 10
110.4543534279
 20
150.1468429384
 30
0.0
 10
110.3938658558
 20
150.0092668193
 30
0.0
 10
110.3394475677
 20
149.8940172724
 30
0.0
 10
110.2928795682
 20
149.8025007257
 30
0.0
 10
110.2590683398
 20
149.7417772309
 30
0.0
 10
110.2367499107
 20
149.7063836549
 30
0.0
 10
110.2244040815
 20
149.6890681682
 30
0.0
 10
110.2153288239
 20
149.678706544
 30
0.0
 10
110.2090084053
 20
149.6738792597
 30
0.0
 10
110.206490468
 20
149.6738792597
 30
0.0
  0
SPLINE
  5
3C7
100
AcDbEntity
  8
0
100
AcDbSpline
 62
7
  6
CONTINUOUS
 70
0
 71
3
 72
35
 73
31
 74
0
 42
0.0000001
 43
0.0000001
 44
0.0000000001
 40
0.0
 40
0.0
 40
0.0
 40
0.0
 40
0.0013120165
 40
0.0037497522
 40
0.0073989559
 40
0.0122680565
 40
0.0256107044
 40
0.0435483127
 40
0.0657887493
 40
0.0920036268
 40
0.1218517592
 40
0.154999456
 40
0.2299014613
 40
0.3142086262
 40
0.4052861318
 40
0.49999823
 40
0.5947105093
 40
0.6857883611
 40
0.7700960467
 40
0.844998823
 40
0.87814675
 40
0.9079951652
 40
0.9342103919
 40
0.9564510956
 40
0.9743889682
 40
0.9877317393
 40
0.9926008819
 40
0.9962501556
 40
0.9986879568
 40
1.0
 40
1.0
 40
1.0
 40
1.0
 10
123.1968715248
 20
149.6738792597
 30
0.0
 10
123.1943535918
 20
149.6738792597
 30
0.0
 10
123.188033182
 20
149.678706525
 30
0.0
 10
123.1789579412
 20
149.6890681314
 30
0.0
 10
123.166612131
 20
149.7063835872
 30
0.0
 10
123.1442937265
 20
149.7417771012
 30
0.0
 10
123.110482562
 20
149.8025004862
 30
0.0
 10
123.0639146489
 20
149.8940168765
 30
0.0
 10
123.009496392
 20
150.0092662016
 30
0.0
 10
122.9490089452
 20
150.1468421488
 30
0.0
 10
122.8843100922
 20
150.3053805652
 30
0.0
 10
122.791282835
 20
150.5531662581
 30
0.0
 10
122.6780211286
 20
150.9048306372
 30
0.0
 10
122.564503618
 20
151.3720841716
 30
0.0
 10
122.4865063616
 20
151.8853157174
 30
0.0
 10
122.4585860548
 20
152.423869354
 30
0.0
 10
122.4865057319
 20
152.9624236098
 30
0.0
 10
122.5645003651
 20
153.4756575888
 30
0.0
 10
122.6780174526
 20
153.9429144779
 30
0.0
 10
122.7912788089
 20
154.2945820675
 30
0.0
 10
122.884307231
 20
154.5423699499
 30
0.0
 10
122.9490059914
 20
154.700910194
 30
0.0
 10
123.0094944206
 20
154.8384875941
 30
0.0
 10
123.0639129614
 20
154.9537386537
 30
0.0
 10
123.1104815298
 20
155.0452561215
 30
0.0
 10
123.1442930645
 20
155.1059802467
 30
0.0
 10
123.1666116048
 20
155.1413741977
 30
0.0
 10
123.1789576032
 20
155.1586899632
 30
0.0
 10
123.1880330305
 20
155.169051764
 30
0.0
 10
123.1943535406
 20
155.1738792597
 30
0.0
 10
123.1968715248
 20
155.1738792597
 30
0.0
  0
SPLINE
  5
3C8
100
AcDbEntity
  8
0
100
AcDbSpline
 62
7
  6
CONTINUOUS
 70
0
 71
3
 72
35
 73
31
 74
0
 42
0.0000001
 43
0.0000001
 44
0.0000000001
 40
0.0
 40
0.0
 40
0.0
 40
0.0
 40
0.0013120165
 40
0.0037497522
 40
0.0073989559
 40
0.0122680565
 40
0.0256107044
 40
0.0435483127
 40
0.0657887493
 40
0.0920036268
 40
0.1218517592
 40
0.154999456
 40
0.2299014613
 40
0.3142086262
 40
0.4052861318
 40
0.49999823
 40
0.5947105093
 40
0.6857883611
 40
0.7700960467
 40
0.844998823
 40
0.87814675
 40
0.9079951652
 40
0.9342103919
 40
0.9564510956
 40
0.9743889682
 40
0.9877317393
 40
0.9926008819
 40
0.9962501556
 40
0.9986879568
 40
1.0
 40
1.0
 40
1.0
 40
1.0
 10
148.1968715248
 20
149.6738792597
 30
0.0
 10
148.1943535918
 20
149.6738792597
 30
0.0
 10
148.188033182
 20
149.678706525
 30
0.0
 10
148.1789579412
 20
149.6890681314
 30
0.0
 10
148.166612131
 20
149.7063835872
 30
0.0
 10
148.1442937265
 20
149.7417771012
 30
0.0
 10
148.110482562
 20
149.8025004862
 30
0.0
 10
148.0639146489
 20
149.8940168765
 30
0.0
 10
148.009496392
 20
150.0092662016
 30
0.0
 10
147.9490089452
 20
150.1468421488
 30
0.0
 10
147.8843100922
 20
150.3053805652
 30
0.0
 10
147.791282835
 20
150.5531662581
 30
0.0
 10
147.6780211286
 20
150.9048306372
 30
0.0
 10
147.564503618
 20
151.3720841716
 30
0.0
 10
147.4865063616
 20
151.8853157174
 30
0.0
 10
147.4585860548
 20
152.423869354
 30
0.0
 10
147.4865057319
 20
152.9624236098
 30
0.0
 10
147.5645003651
 20
153.4756575888
 30
0.0
 10
147.6780174526
 20
153.9429144779
 30
0.0
 10
147.7912788089
 20
154.2945820675
 30
0.0
 10
147.884307231
 20
154.5423699499
 30
0.0
 10
147.9490059914
 20
154.700910194
 30
0.0
 10
148.0094944206
 20
154.8384875941
 30
0.0
 10
148.0639129614
 20
154.9537386537
 30
0.0
 10
148.1104815298
 20
155.0452561215
 30
0.0
 10
148.1442930645
 20
155.1059802467
 30
0.0
 10
148.1666116048
 20
155.1413741977
 30
0.0
 10
148.1789576032
 20
155.1586899632
 30
0.0
 10
148.1880330305
 20
155.169051764
 30
0.0
 10
148.1943535406
 20
155.1738792597
 30
0.0
 10
148.1968715248
 20
155.1738792597
 30
0.0
  0
LINE
  5
3C9
100
AcDbEntity
  8
RUNDUNGEN
100
AcDbLine
 62
7
  6
CONTINUOUS
 10
106.7016809964
 20
154.9238792597
 11
106.7016809964
 21
154.587288353
  0
SPLINE
  5
3CA
100
AcDbEntity
  8
RUNDUNGEN
100
AcDbSpline
 62
7
  6
CONTINUOUS
 70
0
 71
3
 72
13
 73
9
 74
0
 42
0.0000001
 43
0.0000001
 44
0.0000000001
 40
0.0
 40
0.0
 40
0.0
 40
0.0
 40
0.0698328373
 40
0.1519164556
 40
0.2525166328
 40
0.3729606316
 40
0.6655266018
 40
1.0
 40
1.0
 40
1.0
 40
1.0
 10
114.3037652348
 20
158.4238792597
 30
0.0
 10
114.2904067854
 20
158.4238792597
 30
0.0
 10
114.2611759115
 20
158.4158445561
 30
0.0
 10
114.2230701485
 20
158.3847948534
 30
0.0
 10
114.1891425738
 20
158.3372271711
 30
0.0
 10
114.1471280286
 20
158.2480208079
 30
0.0
 10
114.1129683729
 20
158.1079159271
 30
0.0
 10
114.103941902
 20
157.9878612792
 30
0.0
 10
114.1039389255
 20
157.9238792597
 30
0.0
  0
SPLINE
  5
3CB
100
AcDbEntity
  8
RUNDUNGEN
100
AcDbSpline
 62
7
  6
CONTINUOUS
 70
0
 71
3
 72
15
 73
11
 74
0
 42
0.0000001
 43
0.0000001
 44
0.0000000001
 40
0.0
 40
0.0
 40
0.0
 40
0.0
 40
0.0764996264
 40
0.1613890295
 40
0.2606240028
 40
0.3773504199
 40
0.5122660983
 40
0.6638446161
 40
0.828344518
 40
1.0
 40
1.0
 40
1.0
 40
1.0
 10
63.045590657
 20
158.4238792577
 30
0.0
 10
63.1373901941
 20
158.4238743943
 30
0.0
 10
63.3324987415
 20
158.3840583273
 30
0.0
 10
63.601856302
 20
158.2158377864
 30
0.0
 10
63.848713214
 20
157.9480599438
 30
0.0
 10
64.0679676459
 20
157.5861321577
 30
0.0
 10
64.2523152286
 20
157.1370754538
 30
0.0
 10
64.3929261493
 20
156.6131623618
 30
0.0
 10
64.4814643659
 20
156.0335625088
 30
0.0
 10
64.5014427474
 20
155.6298658031
 30
0.0
 10
64.5014734582
 20
155.4238792597
 30
0.0
  0
LINE
  5
3CC
100
AcDbEntity
  8
RUNDUNGEN
100
AcDbLine
 62
7
  6
CONTINUOUS
 10
151.7016809964
 20
154.9238792597
 11
151.7016809964
 21
154.5233541802
  0
SPLINE
  5
3CD
100
AcDbEntity
  8
RUNDUNGEN
100
AcDbSpline
 62
7
  6
CONTINUOUS
 70
0
 71
3
 72
9
 73
5
 74
0
 42
0.0000001
 43
0.0000001
 44
0.0000000001
 40
0.0
 40
0.0
 40
0.0
 40
0.0
 40
0.4999966864
 40
1.0
 40
1.0
 40
1.0
 40
1.0
 10
151.7016809964
 20
154.5233541802
 30
0.0
 10
151.6260590214
 20
153.8266510863
 30
0.0
 10
151.5555951069
 20
152.4238839061
 30
0.0
 10
151.626058909
 20
151.021116764
 30
0.0
 10
151.7016809964
 20
150.3244043392
 30
0.0
  0
LINE
  5
3CE
100
AcDbEntity
  8
RUNDUNGEN
100
AcDbLine
 62
7
  6
CONTINUOUS
 10
151.7016809964
 20
150.3244043392
 11
151.7016809964
 21
149.9238792597
  0
SPLINE
  5
3CF
100
AcDbEntity
  8
RUNDUNGEN
100
AcDbSpline
 62
7
  6
CONTINUOUS
 70
0
 71
3
 72
13
 73
9
 74
0
 42
0.0000001
 43
0.0000001
 44
0.0000000001
 40
0.0
 40
0.0
 40
0.0
 40
0.0
 40
0.0717095123
 40
0.1621801468
 40
0.2718419579
 40
0.3981200519
 40
0.6864713969
 40
1.0
 40
1.0
 40
1.0
 40
1.0
 10
84.6914454497
 20
158.4238792597
 30
0.0
 10
84.6550368099
 20
158.4238698139
 30
0.0
 10
84.5732567191
 20
158.401607946
 30
0.0
 10
84.4538594233
 20
158.3316100111
 30
0.0
 10
84.3234319618
 20
158.2287105574
 30
0.0
 10
84.1287879968
 20
158.0469454314
 30
0.0
 10
83.8774417388
 20
157.7753519521
 30
0.0
 10
83.6779706961
 20
157.5439107083
 30
0.0
 10
83.573411461
 20
157.4238792597
 30
0.0
  0
SPLINE
  5
3D0
100
AcDbEntity
  8
RUNDUNGEN
100
AcDbSpline
 62
7
  6
CONTINUOUS
 70
0
 71
3
 72
10
 73
6
 74
0
 42
0.0000001
 43
0.0000001
 44
0.0000000001
 40
0.0
 40
0.0
 40
0.0
 40
0.0
 40
0.2404997978
 40
0.4893169977
 40
1.0
 40
1.0
 40
1.0
 40
1.0
 10
114.1039389213
 20
157.9238792597
 30
0.0
 10
114.3164916725
 20
157.9238775192
 30
0.0
 10
114.7487011093
 20
157.8817484789
 30
0.0
 10
115.6167556642
 20
157.7144490864
 30
0.0
 10
116.2655751197
 20
157.5401508314
 30
0.0
 10
116.7016809964
 20
157.4238792597
 30
0.0
  0
SPLINE
  5
3D1
100
AcDbEntity
  8
RUNDUNGEN
100
AcDbSpline
 62
7
  6
CONTINUOUS
 70
0
 71
3
 72
10
 73
6
 74
0
 42
0.0000001
 43
0.0000001
 44
0.0000000001
 40
0.0
 40
0.0
 40
0.0
 40
0.0
 40
0.2405000119
 40
0.4893171683
 40
1.0
 40
1.0
 40
1.0
 40
1.0
 10
119.2994230716
 20
157.9238792597
 30
0.0
 10
119.0868701471
 20
157.9238823651
 30
0.0
 10
118.6546609075
 20
157.881743004
 30
0.0
 10
117.7866056502
 20
157.7144521357
 30
0.0
 10
117.1377870459
 20
157.5401494674
 30
0.0
 10
116.7016809964
 20
157.4238792597
 30
0.0
  0
SPLINE
  5
3D2
100
AcDbEntity
  8
RUNDUNGEN
100
AcDbSpline
 62
7
  6
CONTINUOUS
 70
0
 71
3
 72
10
 73
6
 74
0
 42
0.0000001
 43
0.0000001
 44
0.0000000001
 40
0.0
 40
0.0
 40
0.0
 40
0.0
 40
0.5106834745
 40
0.7595007261
 40
1.0
 40
1.0
 40
1.0
 40
1.0
 10
116.7016809964
 20
147.4238792597
 30
0.0
 10
117.1377849947
 20
147.3075981223
 30
0.0
 10
117.786609172
 20
147.1333294795
 30
0.0
 10
118.6546594044
 20
146.9659725767
 30
0.0
 10
119.0868706775
 20
146.9239168036
 30
0.0
 10
119.2994230716
 20
146.9238792597
 30
0.0
  0
SPLINE
  5
3D3
100
AcDbEntity
  8
RUNDUNGEN
100
AcDbSpline
 62
7
  6
CONTINUOUS
 70
0
 71
3
 72
10
 73
6
 74
0
 42
0.0000001
 43
0.0000001
 44
0.0000000001
 40
0.0
 40
0.0
 40
0.0
 40
0.0
 40
0.5106829003
 40
0.7595000377
 40
1.0
 40
1.0
 40
1.0
 40
1.0
 10
116.7016809964
 20
147.4238792597
 30
0.0
 10
116.2655746314
 20
147.3076101077
 30
0.0
 10
115.6167565343
 20
147.1333037713
 30
0.0
 10
114.7487006809
 20
146.966019948
 30
0.0
 10
114.3164917888
 20
146.9238722414
 30
0.0
 10
114.1039389213
 20
146.9238792597
 30
0.0
  0
SPLINE
  5
3D4
100
AcDbEntity
  8
RUNDUNGEN
100
AcDbSpline
 62
7
  6
CONTINUOUS
 70
0
 71
3
 72
9
 73
5
 74
0
 42
0.0000001
 43
0.0000001
 44
0.0000000001
 40
0.0
 40
0.0
 40
0.0
 40
0.0
 40
0.5287744098
 40
1.0
 40
1.0
 40
1.0
 40
1.0
 10
65.441166079
 20
149.4238792597
 30
0.0
 10
65.4411076601
 20
148.9786058334
 30
0.0
 10
65.3910433874
 20
148.1358902011
 30
0.0
 10
65.2327632774
 20
147.3048461651
 30
0.0
 10
65.1217585459
 20
146.9238763253
 30
0.0
  0
SPLINE
  5
3D5
100
AcDbEntity
  8
RUNDUNGEN
100
AcDbSpline
 62
7
  6
CONTINUOUS
 70
0
 71
3
 72
10
 73
6
 74
0
 42
0.0000001
 43
0.0000001
 44
0.0000000001
 40
0.0
 40
0.0
 40
0.0
 40
0.0
 40
0.225437557
 40
0.4713465669
 40
1.0
 40
1.0
 40
1.0
 40
1.0
 10
65.1217705224
 20
157.9238782072
 30
0.0
 10
65.1749027494
 20
157.7415587985
 30
0.0
 10
65.2679250239
 20
157.3549657127
 30
0.0
 10
65.4026207789
 20
156.522948502
 30
0.0
 10
65.4410821742
 20
155.8692053254
 30
0.0
 10
65.441166079
 20
155.4238792597
 30
0.0
  0
SPLINE
  5
3D6
100
AcDbEntity
  8
RUNDUNGEN
100
AcDbSpline
 62
7
  6
CONTINUOUS
 70
0
 71
3
 72
9
 73
5
 74
0
 42
0.0000001
 43
0.0000001
 44
0.0000000001
 40
0.0
 40
0.0
 40
0.0
 40
0.0
 40
0.3017574403
 40
1.0
 40
1.0
 40
1.0
 40
1.0
 10
151.5191809964
 20
158.418030191
 30
0.0
 10
151.5191809964
 20
158.4154257716
 30
0.0
 10
151.5089133005
 20
158.4106937656
 30
0.0
 10
151.5014581347
 20
158.4101920224
 30
0.0
 10
151.4954482528
 20
158.4097458904
 30
0.0
  0
SPLINE
  5
3D7
100
AcDbEntity
  8
RUNDUNGEN
100
AcDbSpline
 62
7
  6
CONTINUOUS
 70
0
 71
3
 72
9
 73
5
 74
0
 42
0.0000001
 43
0.0000001
 44
0.0000000001
 40
0.0
 40
0.0
 40
0.0
 40
0.0
 40
0.222703195
 40
1.0
 40
1.0
 40
1.0
 40
1.0
 10
151.4954482528
 20
158.4097458904
 30
0.0
 10
151.4939969685
 20
158.4096381572
 30
0.0
 10
151.487472742
 20
158.4092562579
 30
0.0
 10
151.4809311505
 20
158.4092319231
 30
0.0
 10
151.4758529152
 20
158.4093372686
 30
0.0
  0
SPLINE
  5
3D8
100
AcDbEntity
  8
RUNDUNGEN
100
AcDbSpline
 62
7
  6
CONTINUOUS
 70
0
 71
3
 72
9
 73
5
 74
0
 42
0.0000001
 43
0.0000001
 44
0.0000000001
 40
0.0
 40
0.0
 40
0.0
 40
0.0
 40
0.4971837069
 40
1.0
 40
1.0
 40
1.0
 40
1.0
 10
151.4758529152
 20
158.4093372686
 30
0.0
 10
151.539138295
 20
158.3932619848
 30
0.0
 10
151.6609113056
 20
158.3336249463
 30
0.0
 10
151.7485163118
 20
158.2304239461
 30
0.0
 10
151.7806541328
 20
158.1727371807
 30
0.0
  0
SPLINE
  5
3D9
100
AcDbEntity
  8
RUNDUNGEN
100
AcDbSpline
 62
7
  6
CONTINUOUS
 70
0
 71
3
 72
9
 73
5
 74
0
 42
0.0000001
 43
0.0000001
 44
0.0000000001
 40
0.0
 40
0.0
 40
0.0
 40
0.0
 40
0.5028300433
 40
1.0
 40
1.0
 40
1.0
 40
1.0
 10
131.6215994894
 20
158.1744853196
 30
0.0
 10
131.6537781552
 20
158.231728178
 30
0.0
 10
131.7411509863
 20
158.3340756959
 30
0.0
 10
131.8622384233
 20
158.3932878035
 30
0.0
 10
131.9251610584
 20
158.4093009004
 30
0.0
  0
SPLINE
  5
3DA
100
AcDbEntity
  8
RUNDUNGEN
100
AcDbSpline
 62
7
  6
CONTINUOUS
 70
0
 71
3
 72
9
 73
5
 74
0
 42
0.0000001
 43
0.0000001
 44
0.0000000001
 40
0.0
 40
0.0
 40
0.0
 40
0.0
 40
0.6431872835
 40
1.0
 40
1.0
 40
1.0
 40
1.0
 10
131.9251610585
 20
158.4093009004
 30
0.0
 10
131.9167271092
 20
158.409191432
 30
0.0
 10
131.9038274565
 20
158.4096580524
 30
0.0
 10
131.8903431375
 20
158.4121254707
 30
0.0
 10
131.8864804123
 20
158.4147663319
 30
0.0
  0
SPLINE
  5
3DB
100
AcDbEntity
  8
RUNDUNGEN
100
AcDbSpline
 62
7
  6
CONTINUOUS
 70
0
 71
3
 72
8
 73
4
 74
0
 42
0.0000001
 43
0.0000001
 44
0.0000000001
 40
0.0
 40
0.0
 40
0.0
 40
0.0
 40
1.0
 40
1.0
 40
1.0
 40
1.0
 10
131.8864804123
 20
158.4147663319
 30
0.0
 10
131.8853817981
 20
158.4155174305
 30
0.0
 10
131.8841809964
 20
158.4166993373
 30
0.0
 10
131.8841809964
 20
158.4180301649
 30
0.0
  0
SPLINE
  5
3DC
100
AcDbEntity
  8
RUNDUNGEN
100
AcDbSpline
 62
7
  6
CONTINUOUS
 70
0
 71
3
 72
9
 73
5
 74
0
 42
0.0000001
 43
0.0000001
 44
0.0000000001
 40
0.0
 40
0.0
 40
0.0
 40
0.0
 40
0.4971837069
 40
1.0
 40
1.0
 40
1.0
 40
1.0
 10
126.4758529152
 20
158.4093372686
 30
0.0
 10
126.539138295
 20
158.3932619848
 30
0.0
 10
126.6609113056
 20
158.3336249463
 30
0.0
 10
126.7485163118
 20
158.2304239461
 30
0.0
 10
126.7806541328
 20
158.1727371807
 30
0.0
  0
SPLINE
  5
3DD
100
AcDbEntity
  8
RUNDUNGEN
100
AcDbSpline
 62
7
  6
CONTINUOUS
 70
0
 71
3
 72
9
 73
5
 74
0
 42
0.0000001
 43
0.0000001
 44
0.0000000001
 40
0.0
 40
0.0
 40
0.0
 40
0.0
 40
0.3018958546
 40
1.0
 40
1.0
 40
1.0
 40
1.0
 10
126.5191809964
 20
158.418030191
 30
0.0
 10
126.5191809964
 20
158.4154323866
 30
0.0
 10
126.5089537712
 20
158.4107039739
 30
0.0
 10
126.501517446
 20
158.4102001812
 30
0.0
 10
126.4955270237
 20
158.4097520017
 30
0.0
  0
SPLINE
  5
3DE
100
AcDbEntity
  8
RUNDUNGEN
100
AcDbSpline
 62
7
  6
CONTINUOUS
 70
0
 71
3
 72
9
 73
5
 74
0
 42
0.0000001
 43
0.0000001
 44
0.0000000001
 40
0.0
 40
0.0
 40
0.0
 40
0.0
 40
0.2225570603
 40
1.0
 40
1.0
 40
1.0
 40
1.0
 10
126.4955270237
 20
158.4097520017
 30
0.0
 10
126.4940709137
 20
158.4096430614
 30
0.0
 10
126.4875205788
 20
158.4092565854
 30
0.0
 10
126.4809525606
 20
158.4092314789
 30
0.0
 10
126.4758529152
 20
158.4093372686
 30
0.0
  0
SPLINE
  5
3DF
100
AcDbEntity
  8
RUNDUNGEN
100
AcDbSpline
 62
7
  6
CONTINUOUS
 70
0
 71
3
 72
13
 73
9
 74
0
 42
0.0000001
 43
0.0000001
 44
0.0000000001
 40
0.0
 40
0.0
 40
0.0
 40
0.0
 40
0.0698387915
 40
0.1519255906
 40
0.2525265625
 40
0.3729697196
 40
0.6655313553
 40
1.0
 40
1.0
 40
1.0
 40
1.0
 10
114.3037652348
 20
146.4238792597
 30
0.0
 10
114.2904054978
 20
146.4238792597
 30
0.0
 10
114.2611724305
 20
146.431913446
 30
0.0
 10
114.2230632919
 20
146.4629630496
 30
0.0
 10
114.1891337488
 20
146.5105309784
 30
0.0
 10
114.1471184039
 20
146.5997373316
 30
0.0
 10
114.1129610637
 20
146.7398427528
 30
0.0
 10
114.1039389279
 20
146.8598974378
 30
0.0
 10
114.1039389273
 20
146.9238792597
 30
0.0
  0
SPLINE
  5
3E0
100
AcDbEntity
  8
RUNDUNGEN
100
AcDbSpline
 62
7
  6
CONTINUOUS
 70
0
 71
3
 72
13
 73
9
 74
0
 42
0.0000001
 43
0.0000001
 44
0.0000000001
 40
0.0
 40
0.0
 40
0.0
 40
0.0
 40
0.0698332416
 40
0.1519170792
 40
0.2525173136
 40
0.3729612587
 40
0.6655269321
 40
1.0
 40
1.0
 40
1.0
 40
1.0
 10
144.0995967581
 20
146.4238792597
 30
0.0
 10
144.1129552947
 20
146.4238792597
 30
0.0
 10
144.1421863172
 20
146.4319139312
 30
0.0
 10
144.180292309
 20
146.4629636282
 30
0.0
 10
144.2142200147
 20
146.510531331
 30
0.0
 10
144.2562346077
 20
146.5997376959
 30
0.0
 10
144.2903941075
 20
146.7398426092
 30
0.0
 10
144.2994202885
 20
146.8598972558
 30
0.0
 10
144.2994230671
 20
146.9238792597
 30
0.0
  0
SPLINE
  5
3E1
100
AcDbEntity
  8
RUNDUNGEN
100
AcDbSpline
 62
7
  6
CONTINUOUS
 70
0
 71
3
 72
12
 73
8
 74
0
 42
0.0000001
 43
0.0000001
 44
0.0000000001
 40
0.0
 40
0.0
 40
0.0
 40
0.0
 40
0.2779290696
 40
0.5456893583
 40
0.7911964876
 40
0.9011133868
 40
1.0
 40
1.0
 40
1.0
 40
1.0
 10
74.973411461
 20
157.4238792597
 30
0.0
 10
74.8391612838
 20
157.4821705603
 30
0.0
 10
74.5753665369
 20
157.5962323023
 30
0.0
 10
74.189373215
 20
157.7529445722
 30
0.0
 10
73.8782533163
 20
157.8594869438
 30
0.0
 10
73.6446936916
 20
157.912288081
 30
0.0
 10
73.5347737537
 20
157.9238761315
 30
0.0
 10
73.482699476
 20
157.9238792597
 30
0.0
  0
SPLINE
  5
3E2
100
AcDbEntity
  8
RUNDUNGEN
100
AcDbSpline
 62
7
  6
CONTINUOUS
 70
0
 71
3
 72
12
 73
8
 74
0
 42
0.0000001
 43
0.0000001
 44
0.0000000001
 40
0.0
 40
0.0
 40
0.0
 40
0.0
 40
0.0988844898
 40
0.2088053475
 40
0.4543104664
 40
0.7220710827
 40
1.0
 40
1.0
 40
1.0
 40
1.0
 10
73.482699476
 20
146.9238792597
 30
0.0
 10
73.5347726481
 20
146.9238692051
 30
0.0
 10
73.6446937621
 20
146.935475836
 30
0.0
 10
73.8782525175
 20
146.9882694163
 30
0.0
 10
74.1893773183
 20
147.094807168
 30
0.0
 10
74.5753644406
 20
147.2515304018
 30
0.0
 10
74.8391694608
 20
147.3655692366
 30
0.0
 10
74.973411461
 20
147.4238792597
 30
0.0
  0
SPLINE
  5
3E3
100
AcDbEntity
  8
RUNDUNGEN
100
AcDbSpline
 62
7
  6
CONTINUOUS
 70
0
 71
3
 72
9
 73
5
 74
0
 42
0.0000001
 43
0.0000001
 44
0.0000000001
 40
0.0
 40
0.0
 40
0.0
 40
0.0
 40
0.2195646186
 40
1.0
 40
1.0
 40
1.0
 40
1.0
 10
151.4758529152
 20
158.4093372686
 30
0.0
 10
151.4728870505
 20
158.4093987909
 30
0.0
 10
151.4593836445
 20
158.4099010849
 30
0.0
 10
151.4459126274
 20
158.4110199869
 30
0.0
 10
151.4354108543
 20
158.4119664731
 30
0.0
  0
SPLINE
  5
3E4
100
AcDbEntity
  8
RUNDUNGEN
100
AcDbSpline
 62
7
  6
CONTINUOUS
 70
0
 71
3
 72
9
 73
5
 74
0
 42
0.0000001
 43
0.0000001
 44
0.0000000001
 40
0.0
 40
0.0
 40
0.0
 40
0.0
 40
0.2024662447
 40
1.0
 40
1.0
 40
1.0
 40
1.0
 10
151.4354108543
 20
158.4119664731
 30
0.0
 10
151.4238682221
 20
158.4130067681
 30
0.0
 10
151.3669304586
 20
158.4187369559
 30
0.0
 10
151.3097682374
 20
158.4238792585
 30
0.0
 10
151.2641164261
 20
158.4238792597
 30
0.0
  0
SPLINE
  5
3E5
100
AcDbEntity
  8
RUNDUNGEN
100
AcDbSpline
 62
7
  6
CONTINUOUS
 70
0
 71
3
 72
13
 73
9
 74
0
 42
0.0000001
 43
0.0000001
 44
0.0000000001
 40
0.0
 40
0.0
 40
0.0
 40
0.0
 40
0.3344732304
 40
0.6270390504
 40
0.7474830229
 40
0.8480832303
 40
0.9301669596
 40
1.0
 40
1.0
 40
1.0
 40
1.0
 10
144.2994230741
 20
157.9238792597
 30
0.0
 10
144.2994201981
 20
157.9878612712
 30
0.0
 10
144.290393874
 20
158.1079159185
 30
0.0
 10
144.256234297
 20
158.2480208161
 30
0.0
 10
144.2142197256
 20
158.3372271799
 30
0.0
 10
144.1802920834
 20
158.3847948722
 30
0.0
 10
144.1421862048
 20
158.415844572
 30
0.0
 10
144.112955256
 20
158.4238792597
 30
0.0
 10
144.0995967627
 20
158.4238792597
 30
0.0
  0
SPLINE
  5
3E6
100
AcDbEntity
  8
RUNDUNGEN
100
AcDbSpline
 62
7
  6
CONTINUOUS
 70
0
 71
3
 72
9
 73
5
 74
0
 42
0.0000001
 43
0.0000001
 44
0.0000000001
 40
0.0
 40
0.0
 40
0.0
 40
0.0
 40
0.2969993689
 40
1.0
 40
1.0
 40
1.0
 40
1.0
 10
132.1392455667
 20
158.4238792597
 30
0.0
 10
132.1220108958
 20
158.4238792599
 30
0.0
 10
132.0639617038
 20
158.4221880763
 30
0.0
 10
132.006279536
 20
158.4153529007
 30
0.0
 10
131.9656426732
 20
158.4117684016
 30
0.0
  0
SPLINE
  5
3E7
100
AcDbEntity
  8
RUNDUNGEN
100
AcDbSpline
 62
7
  6
CONTINUOUS
 70
0
 71
3
 72
9
 73
5
 74
0
 42
0.0000001
 43
0.0000001
 44
0.0000000001
 40
0.0
 40
0.0
 40
0.0
 40
0.0
 40
0.2815624553
 40
1.0
 40
1.0
 40
1.0
 40
1.0
 10
131.9656426732
 20
158.4117684016
 30
0.0
 10
131.9618506027
 20
158.4114339103
 30
0.0
 10
131.9483793971
 20
158.4103050794
 30
0.0
 10
131.934873696
 20
158.4094268311
 30
0.0
 10
131.9251610585
 20
158.4093009004
 30
0.0
  0
LINE
  5
3E8
100
AcDbEntity
  8
RUNDUNGEN
100
AcDbLine
 62
7
  6
CONTINUOUS
 10
126.7016809964
 20
154.9238792597
 11
126.7016809964
 21
154.587288353
  0
SPLINE
  5
3E9
100
AcDbEntity
  8
RUNDUNGEN
100
AcDbSpline
 62
7
  6
CONTINUOUS
 70
0
 71
3
 72
9
 73
5
 74
0
 42
0.0000001
 43
0.0000001
 44
0.0000000001
 40
0.0
 40
0.0
 40
0.0
 40
0.0
 40
0.5000003515
 40
1.0
 40
1.0
 40
1.0
 40
1.0
 10
126.7016809964
 20
154.587288353
 30
0.0
 10
126.6337456435
 20
153.8685959474
 30
0.0
 10
126.5710177688
 20
152.423878777
 30
0.0
 10
126.6337451264
 20
150.9791615036
 30
0.0
 10
126.7016809964
 20
150.2604701664
 30
0.0
  0
LINE
  5
3EA
100
AcDbEntity
  8
RUNDUNGEN
100
AcDbLine
 62
7
  6
CONTINUOUS
 10
126.7016809964
 20
150.2604701664
 11
126.7016809964
 21
149.9238792597
  0
SPLINE
  5
3EB
100
AcDbEntity
  8
RUNDUNGEN
100
AcDbSpline
 62
7
  6
CONTINUOUS
 70
0
 71
3
 72
12
 73
8
 74
0
 42
0.0000001
 43
0.0000001
 44
0.0000000001
 40
0.0
 40
0.0
 40
0.0
 40
0.0
 40
0.2779285617
 40
0.5456891536
 40
0.7911945042
 40
0.9011155039
 40
1.0
 40
1.0
 40
1.0
 40
1.0
 10
83.573411461
 20
147.4238792597
 30
0.0
 10
83.7076543846
 20
147.365571849
 30
0.0
 10
83.9714578465
 20
147.251529955
 30
0.0
 10
84.3574451595
 20
147.0948074476
 30
0.0
 10
84.6685700472
 20
146.9882692
 30
0.0
 10
84.9021291679
 20
146.9354766149
 30
0.0
 10
85.0120502729
 20
146.9238692325
 30
0.0
 10
85.064123446
 20
146.9238792597
 30
0.0
  0
LINE
  5
3EC
100
AcDbEntity
  8
RUNDUNGEN
100
AcDbLine
 62
7
  6
CONTINUOUS
 10
131.7016809964
 20
150.2604701664
 11
131.7016809964
 21
149.9238792597
  0
SPLINE
  5
3ED
100
AcDbEntity
  8
RUNDUNGEN
100
AcDbSpline
 62
7
  6
CONTINUOUS
 70
0
 71
3
 72
9
 73
5
 74
0
 42
0.0000001
 43
0.0000001
 44
0.0000000001
 40
0.0
 40
0.0
 40
0.0
 40
0.0
 40
0.4999999972
 40
1.0
 40
1.0
 40
1.0
 40
1.0
 10
131.7016809964
 20
154.587288353
 30
0.0
 10
131.7696173228
 20
153.8685965532
 30
0.0
 10
131.8323435235
 20
152.4238792622
 30
0.0
 10
131.7696172925
 20
150.9791619771
 30
0.0
 10
131.7016809964
 20
150.2604701664
 30
0.0
  0
LINE
  5
3EE
100
AcDbEntity
  8
RUNDUNGEN
100
AcDbLine
 62
7
  6
CONTINUOUS
 10
131.7016809964
 20
154.9238792597
 11
131.7016809964
 21
154.587288353
  0
SPLINE
  5
3EF
100
AcDbEntity
  8
RUNDUNGEN
100
AcDbSpline
 62
7
  6
CONTINUOUS
 70
0
 71
3
 72
12
 73
8
 74
0
 42
0.0000001
 43
0.0000001
 44
0.0000000001
 40
0.0
 40
0.0
 40
0.0
 40
0.0
 40
0.0988865459
 40
0.2088034307
 40
0.4543109661
 40
0.7220713527
 40
1.0
 40
1.0
 40
1.0
 40
1.0
 10
85.064123446
 20
157.9238792597
 30
0.0
 10
85.0120492024
 20
157.9238759889
 30
0.0
 10
84.9021292889
 20
157.9122883554
 30
0.0
 10
84.6685694811
 20
157.8594870445
 30
0.0
 10
84.3574493359
 20
157.7529446016
 30
0.0
 10
83.9714562847
 20
157.5962315764
 30
0.0
 10
83.707660638
 20
157.4821723146
 30
0.0
 10
83.573411461
 20
157.4238792597
 30
0.0
  0
SPLINE
  5
3F0
100
AcDbEntity
  8
RUNDUNGEN
100
AcDbSpline
 62
7
  6
CONTINUOUS
 70
0
 71
3
 72
13
 73
9
 74
0
 42
0.0000001
 43
0.0000001
 44
0.0000000001
 40
0.0
 40
0.0
 40
0.0
 40
0.0
 40
0.3344736554
 40
0.6270398579
 40
0.7474838992
 40
0.8480840339
 40
0.9301674805
 40
1.0
 40
1.0
 40
1.0
 40
1.0
 10
139.1039389187
 20
146.9238792597
 30
0.0
 10
139.103942051
 20
146.8598972265
 30
0.0
 10
139.1129687531
 20
146.7398425749
 30
0.0
 10
139.1471285366
 20
146.5997377163
 30
0.0
 10
139.1891430575
 20
146.5105313565
 30
0.0
 10
139.223070537
 20
146.4629636935
 30
0.0
 10
139.2611761232
 20
146.4319139869
 30
0.0
 10
139.2904068816
 20
146.4238792597
 30
0.0
 10
139.3037652628
 20
146.4238792597
 30
0.0
  0
SPLINE
  5
3F1
100
AcDbEntity
  8
RUNDUNGEN
100
AcDbSpline
 62
7
  6
CONTINUOUS
 70
0
 71
3
 72
9
 73
5
 74
0
 42
0.0000001
 43
0.0000001
 44
0.0000000001
 40
0.0
 40
0.0
 40
0.0
 40
0.0
 40
0.2520709234
 40
1.0
 40
1.0
 40
1.0
 40
1.0
 10
127.1846439096
 20
150.4268862505
 30
0.0
 10
127.1873087699
 20
150.4008711513
 30
0.0
 10
127.1968213653
 20
150.2975664627
 30
0.0
 10
127.2016784813
 20
150.1937812479
 30
0.0
 10
127.2016809964
 20
150.116186952
 30
0.0
  0
SPLINE
  5
3F2
100
AcDbEntity
  8
RUNDUNGEN
100
AcDbSpline
 62
7
  6
CONTINUOUS
 70
0
 71
3
 72
9
 73
5
 74
0
 42
0.0000001
 43
0.0000001
 44
0.0000000001
 40
0.0
 40
0.0
 40
0.0
 40
0.0
 40
0.5000003646
 40
1.0
 40
1.0
 40
1.0
 40
1.0
 10
127.1846439096
 20
154.4208722689
 30
0.0
 10
127.1167386499
 20
153.7578533178
 30
0.0
 10
127.0539505097
 20
152.4238787925
 30
0.0
 10
127.116738291
 20
151.0899041877
 30
0.0
 10
127.1846439096
 20
150.4268862505
 30
0.0
  0
SPLINE
  5
3F3
100
AcDbEntity
  8
RUNDUNGEN
100
AcDbSpline
 62
7
  6
CONTINUOUS
 70
0
 71
3
 72
9
 73
5
 74
0
 42
0.0000001
 43
0.0000001
 44
0.0000000001
 40
0.0
 40
0.0
 40
0.0
 40
0.0
 40
0.2479456329
 40
1.0
 40
1.0
 40
1.0
 40
1.0
 10
127.2016809964
 20
154.7315715674
 30
0.0
 10
127.2016805838
 20
154.7058474721
 30
0.0
 10
127.2000539656
 20
154.6020988338
 30
0.0
 10
127.1925942022
 20
154.4984910065
 30
0.0
 10
127.1846439096
 20
154.4208722689
 30
0.0
  0
SPLINE
  5
3F4
100
AcDbEntity
  8
RUNDUNGEN
100
AcDbSpline
 62
7
  6
CONTINUOUS
 70
0
 71
3
 72
9
 73
5
 74
0
 42
0.0000001
 43
0.0000001
 44
0.0000000001
 40
0.0
 40
0.0
 40
0.0
 40
0.0
 40
0.2479456782
 40
1.0
 40
1.0
 40
1.0
 40
1.0
 10
131.2016809964
 20
154.7315715674
 30
0.0
 10
131.2016813741
 20
154.7058474673
 30
0.0
 10
131.2033080249
 20
154.6020988273
 30
0.0
 10
131.210767814
 20
154.4984910044
 30
0.0
 10
131.2187180833
 20
154.4208722689
 30
0.0
  0
SPLINE
  5
3F5
100
AcDbEntity
  8
RUNDUNGEN
100
AcDbSpline
 62
7
  6
CONTINUOUS
 70
0
 71
3
 72
9
 73
5
 74
0
 42
0.0000001
 43
0.0000001
 44
0.0000000001
 40
0.0
 40
0.0
 40
0.0
 40
0.0
 40
0.4999999968
 40
1.0
 40
1.0
 40
1.0
 40
1.0
 10
131.2187180833
 20
154.4208722689
 30
0.0
 10
131.2866241461
 20
153.7578538929
 30
0.0
 10
131.3494108701
 20
152.4238792628
 30
0.0
 10
131.2866241234
 20
151.0899046374
 30
0.0
 10
131.2187180833
 20
150.4268862505
 30
0.0
  0
SPLINE
  5
3F6
100
AcDbEntity
  8
RUNDUNGEN
100
AcDbSpline
 62
7
  6
CONTINUOUS
 70
0
 71
3
 72
9
 73
5
 74
0
 42
0.0000001
 43
0.0000001
 44
0.0000000001
 40
0.0
 40
0.0
 40
0.0
 40
0.0
 40
0.2520709035
 40
1.0
 40
1.0
 40
1.0
 40
1.0
 10
131.2187180833
 20
150.4268862505
 30
0.0
 10
131.2160532036
 20
150.4008711553
 30
0.0
 10
131.2065405733
 20
150.2975664675
 30
0.0
 10
131.2016835879
 20
150.1937812502
 30
0.0
 10
131.2016809964
 20
150.116186952
 30
0.0
  0
SPLINE
  5
3F7
100
AcDbEntity
  8
RUNDUNGEN
100
AcDbSpline
 62
7
  6
CONTINUOUS
 70
0
 71
3
 72
9
 73
5
 74
0
 42
0.0000001
 43
0.0000001
 44
0.0000000001
 40
0.0
 40
0.0
 40
0.0
 40
0.0
 40
0.2524242855
 40
1.0
 40
1.0
 40
1.0
 40
1.0
 10
152.1781438864
 20
150.48590241
 30
0.0
 10
152.1817863805
 20
150.4549353783
 30
0.0
 10
152.1948242075
 20
150.332109286
 30
0.0
 10
152.2016784854
 20
150.2085306792
 30
0.0
 10
152.2016809964
 20
150.116186952
 30
0.0
  0
SPLINE
  5
3F8
100
AcDbEntity
  8
RUNDUNGEN
100
AcDbSpline
 62
7
  6
CONTINUOUS
 70
0
 71
3
 72
9
 73
5
 74
0
 42
0.0000001
 43
0.0000001
 44
0.0000000001
 40
0.0
 40
0.0
 40
0.0
 40
0.0
 40
0.4999966234
 40
1.0
 40
1.0
 40
1.0
 40
1.0
 10
152.1781438864
 20
154.3618561094
 30
0.0
 10
152.1025708156
 20
153.7192407607
 30
0.0
 10
152.0320092076
 20
152.4238836451
 30
0.0
 10
152.1025704739
 20
151.1285265179
 30
0.0
 10
152.1781438864
 20
150.48590241
 30
0.0
  0
SPLINE
  5
3F9
100
AcDbEntity
  8
RUNDUNGEN
100
AcDbSpline
 62
7
  6
CONTINUOUS
 70
0
 71
3
 72
9
 73
5
 74
0
 42
0.0000001
 43
0.0000001
 44
0.0000000001
 40
0.0
 40
0.0
 40
0.0
 40
0.0
 40
0.2475883826
 40
1.0
 40
1.0
 40
1.0
 40
1.0
 10
152.2016809964
 20
154.7315715674
 30
0.0
 10
152.2016808571
 20
154.7009868482
 30
0.0
 10
152.1993786902
 20
154.5774559905
 30
0.0
 10
152.1890006226
 20
154.4541656501
 30
0.0
 10
152.1781438864
 20
154.3618561094
 30
0.0
  0
SPLINE
  5
3FA
100
AcDbEntity
  8
RUNDUNGEN
100
AcDbSpline
 62
7
  6
CONTINUOUS
 70
0
 71
3
 72
16
 73
12
 74
0
 42
0.0000001
 43
0.0000001
 44
0.0000000001
 40
0.0
 40
0.0
 40
0.0
 40
0.0
 40
0.1722848341
 40
0.3374640267
 40
0.4896982615
 40
0.6250716196
 40
0.7418909137
 40
0.8406979787
 40
0.9245766078
 40
0.9628890878
 40
1.0
 40
1.0
 40
1.0
 40
1.0
 10
95.6975814792
 20
152.4244883338
 30
0.0
 10
95.6975577719
 20
152.0137964583
 30
0.0
 10
95.7362382102
 20
151.2087718981
 30
0.0
 10
95.9071826729
 20
150.0520474315
 30
0.0
 10
96.1792204302
 20
149.005074209
 30
0.0
 10
96.5362571163
 20
148.1063965781
 30
0.0
 10
96.961787352
 20
147.3811264176
 30
0.0
 10
97.4402956107
 20
146.8435739895
 30
0.0
 10
97.8917279489
 20
146.5531390002
 30
0.0
 10
98.257040195
 20
146.4421026914
 30
0.0
 10
98.4373099099
 20
146.4238767234
 30
0.0
 10
98.5257747491
 20
146.4238792597
 30
0.0
  0
SPLINE
  5
3FB
100
AcDbEntity
  8
RUNDUNGEN
100
AcDbSpline
 62
7
  6
CONTINUOUS
 70
0
 71
3
 72
16
 73
12
 74
0
 42
0.0000001
 43
0.0000001
 44
0.0000000001
 40
0.0
 40
0.0
 40
0.0
 40
0.0
 40
0.037126172
 40
0.075438413
 40
0.1593149761
 40
0.2581247385
 40
0.3749418223
 40
0.5103113207
 40
0.6625362137
 40
0.8277122532
 40
1.0
 40
1.0
 40
1.0
 40
1.0
 10
98.5257752949
 20
158.4238792597
 30
0.0
 10
98.4372890365
 20
158.4238809335
 30
0.0
 10
98.2570113396
 20
158.4056749116
 30
0.0
 10
97.8917361055
 20
158.2946218784
 30
0.0
 10
97.4403966011
 20
158.0042249251
 30
0.0
 10
96.9619103759
 20
157.4668232976
 30
0.0
 10
96.5364274354
 20
156.7416957588
 30
0.0
 10
96.1794016652
 20
155.8432318068
 30
0.0
 10
95.9073390578
 20
154.7964947051
 30
0.0
 10
95.7363186646
 20
153.6400027874
 30
0.0
 10
95.6976111487
 20
152.8351177426
 30
0.0
 10
95.6975814792
 20
152.4244883338
 30
0.0
  0
SPLINE
  5
3FC
100
AcDbEntity
  8
RUNDUNGEN
100
AcDbSpline
 62
7
  6
CONTINUOUS
 70
0
 71
3
 72
9
 73
5
 74
0
 42
0.0000001
 43
0.0000001
 44
0.0000000001
 40
0.0
 40
0.0
 40
0.0
 40
0.0
 40
0.2479456782
 40
1.0
 40
1.0
 40
1.0
 40
1.0
 10
106.2016809964
 20
154.7315715674
 30
0.0
 10
106.2016813741
 20
154.7058474673
 30
0.0
 10
106.2033080249
 20
154.6020988273
 30
0.0
 10
106.210767814
 20
154.4984910044
 30
0.0
 10
106.2187180833
 20
154.4208722689
 30
0.0
  0
SPLINE
  5
3FD
100
AcDbEntity
  8
RUNDUNGEN
100
AcDbSpline
 62
7
  6
CONTINUOUS
 70
0
 71
3
 72
9
 73
5
 74
0
 42
0.0000001
 43
0.0000001
 44
0.0000000001
 40
0.0
 40
0.0
 40
0.0
 40
0.0
 40
0.4999999968
 40
1.0
 40
1.0
 40
1.0
 40
1.0
 10
106.2187180833
 20
154.4208722689
 30
0.0
 10
106.2866241461
 20
153.7578538929
 30
0.0
 10
106.3494108701
 20
152.4238792628
 30
0.0
 10
106.2866241234
 20
151.0899046374
 30
0.0
 10
106.2187180833
 20
150.4268862505
 30
0.0
  0
SPLINE
  5
3FE
100
AcDbEntity
  8
RUNDUNGEN
100
AcDbSpline
 62
7
  6
CONTINUOUS
 70
0
 71
3
 72
9
 73
5
 74
0
 42
0.0000001
 43
0.0000001
 44
0.0000000001
 40
0.0
 40
0.0
 40
0.0
 40
0.0
 40
0.2520709035
 40
1.0
 40
1.0
 40
1.0
 40
1.0
 10
106.2187180833
 20
150.4268862505
 30
0.0
 10
106.2160532036
 20
150.4008711553
 30
0.0
 10
106.2065405733
 20
150.2975664675
 30
0.0
 10
106.2016835879
 20
150.1937812502
 30
0.0
 10
106.2016809964
 20
150.116186952
 30
0.0
  0
SPLINE
  5
3FF
100
AcDbEntity
  8
RUNDUNGEN
100
AcDbSpline
 62
7
  6
CONTINUOUS
 70
0
 71
3
 72
11
 73
7
 74
0
 42
0.0000001
 43
0.0000001
 44
0.0000000001
 40
0.0
 40
0.0
 40
0.0
 40
0.0
 40
0.2074188621
 40
0.4491815399
 40
0.7173596946
 40
1.0
 40
1.0
 40
1.0
 40
1.0
 10
95.8491142458
 20
157.9238794372
 30
0.0
 10
95.6708156092
 20
157.576457426
 30
0.0
 10
95.3577789968
 20
156.7864229742
 30
0.0
 10
95.0269763353
 20
155.474352832
 30
0.0
 10
94.8177886434
 20
153.9943735651
 30
0.0
 10
94.7704366593
 20
152.9567114963
 30
0.0
 10
94.7703976246
 20
152.4245909515
 30
0.0
  0
SPLINE
  5
400
100
AcDbEntity
  8
RUNDUNGEN
100
AcDbSpline
 62
7
  6
CONTINUOUS
 70
0
 71
3
 72
9
 73
5
 74
0
 42
0.0000001
 43
0.0000001
 44
0.0000000001
 40
0.0
 40
0.0
 40
0.0
 40
0.0
 40
0.2195646186
 40
1.0
 40
1.0
 40
1.0
 40
1.0
 10
126.4758529152
 20
158.4093372686
 30
0.0
 10
126.4728870505
 20
158.4093987909
 30
0.0
 10
126.4593836445
 20
158.4099010849
 30
0.0
 10
126.4459126274
 20
158.4110199869
 30
0.0
 10
126.4354108543
 20
158.4119664731
 30
0.0
  0
SPLINE
  5
401
100
AcDbEntity
  8
RUNDUNGEN
100
AcDbSpline
 62
7
  6
CONTINUOUS
 70
0
 71
3
 72
9
 73
5
 74
0
 42
0.0000001
 43
0.0000001
 44
0.0000000001
 40
0.0
 40
0.0
 40
0.0
 40
0.0
 40
0.2024662447
 40
1.0
 40
1.0
 40
1.0
 40
1.0
 10
126.4354108543
 20
158.4119664731
 30
0.0
 10
126.4238682221
 20
158.4130067681
 30
0.0
 10
126.3669304586
 20
158.4187369559
 30
0.0
 10
126.3097682374
 20
158.4238792585
 30
0.0
 10
126.2641164261
 20
158.4238792597
 30
0.0
  0
SPLINE
  5
402
100
AcDbEntity
  8
RUNDUNGEN
100
AcDbSpline
 62
7
  6
CONTINUOUS
 70
0
 71
3
 72
11
 73
7
 74
0
 42
0.0000001
 43
0.0000001
 44
0.0000000001
 40
0.0
 40
0.0
 40
0.0
 40
0.0
 40
0.2826275403
 40
0.5508104089
 40
0.7925783827
 40
1.0
 40
1.0
 40
1.0
 40
1.0
 10
94.7703976246
 20
152.4245909515
 30
0.0
 10
94.7703687918
 20
151.892360738
 30
0.0
 10
94.8177056103
 20
150.8544504756
 30
0.0
 10
95.0268206375
 20
149.3740874054
 30
0.0
 10
95.3576755237
 20
148.0616540811
 30
0.0
 10
95.670763209
 20
147.2713921544
 30
0.0
 10
95.8491108017
 20
146.9238791465
 30
0.0
  0
SPLINE
  5
403
100
AcDbEntity
  8
RUNDUNGEN
100
AcDbSpline
 62
7
  6
CONTINUOUS
 70
0
 71
3
 72
13
 73
9
 74
0
 42
0.0000001
 43
0.0000001
 44
0.0000000001
 40
0.0
 40
0.0
 40
0.0
 40
0.0
 40
0.0698328373
 40
0.1519164556
 40
0.2525166328
 40
0.3729606316
 40
0.6655266018
 40
1.0
 40
1.0
 40
1.0
 40
1.0
 10
139.3037652348
 20
158.4238792597
 30
0.0
 10
139.2904067854
 20
158.4238792597
 30
0.0
 10
139.2611759115
 20
158.4158445561
 30
0.0
 10
139.2230701485
 20
158.3847948534
 30
0.0
 10
139.1891425738
 20
158.3372271711
 30
0.0
 10
139.1471280286
 20
158.2480208079
 30
0.0
 10
139.1129683729
 20
158.1079159271
 30
0.0
 10
139.103941902
 20
157.9878612792
 30
0.0
 10
139.1039389255
 20
157.9238792597
 30
0.0
  0
SPLINE
  5
404
100
AcDbEntity
  8
RUNDUNGEN
100
AcDbSpline
 62
7
  6
CONTINUOUS
 70
0
 71
3
 72
13
 73
9
 74
0
 42
0.0000001
 43
0.0000001
 44
0.0000000001
 40
0.0
 40
0.0
 40
0.0
 40
0.0
 40
0.334473231
 40
0.6270390511
 40
0.7474830235
 40
0.8480832306
 40
0.9301669597
 40
1.0
 40
1.0
 40
1.0
 40
1.0
 10
119.2994230741
 20
157.9238792597
 30
0.0
 10
119.2994201981
 20
157.9878612715
 30
0.0
 10
119.2903938739
 20
158.1079159192
 30
0.0
 10
119.2562342967
 20
158.2480208172
 30
0.0
 10
119.214219725
 20
158.337227181
 30
0.0
 10
119.1802920826
 20
158.3847948732
 30
0.0
 10
119.1421862036
 20
158.4158445727
 30
0.0
 10
119.1129552547
 20
158.4238792599
 30
0.0
 10
119.0995967614
 20
158.4238792597
 30
0.0
  0
SPLINE
  5
405
100
AcDbEntity
  8
RUNDUNGEN
100
AcDbSpline
 62
7
  6
CONTINUOUS
 70
0
 71
3
 72
10
 73
6
 74
0
 42
0.0000001
 43
0.0000001
 44
0.0000000001
 40
0.0
 40
0.0
 40
0.0
 40
0.0
 40
0.2404997978
 40
0.4893169977
 40
1.0
 40
1.0
 40
1.0
 40
1.0
 10
139.1039389213
 20
157.9238792597
 30
0.0
 10
139.3164916725
 20
157.9238775192
 30
0.0
 10
139.7487011093
 20
157.8817484789
 30
0.0
 10
140.6167556642
 20
157.7144490864
 30
0.0
 10
141.2655751197
 20
157.5401508314
 30
0.0
 10
141.7016809964
 20
157.4238792597
 30
0.0
  0
SPLINE
  5
406
100
AcDbEntity
  8
RUNDUNGEN
100
AcDbSpline
 62
7
  6
CONTINUOUS
 70
0
 71
3
 72
13
 73
9
 74
0
 42
0.0000001
 43
0.0000001
 44
0.0000000001
 40
0.0
 40
0.0
 40
0.0
 40
0.0
 40
0.3344685828
 40
0.6270301902
 40
0.7474733744
 40
0.8480743797
 40
0.9301612072
 40
1.0
 40
1.0
 40
1.0
 40
1.0
 10
119.2994230741
 20
146.9238792597
 30
0.0
 10
119.299423072
 20
146.8598974504
 30
0.0
 10
119.290400938
 20
146.739842784
 30
0.0
 10
119.2562436012
 20
146.5997373768
 30
0.0
 10
119.2142282619
 20
146.5105310161
 30
0.0
 10
119.1802987103
 20
146.4629630713
 30
0.0
 10
119.1421895641
 20
146.4319134633
 30
0.0
 10
119.1129564951
 20
146.4238792597
 30
0.0
 10
119.0995967581
 20
146.4238792597
 30
0.0
  0
SPLINE
  5
407
100
AcDbEntity
  8
RUNDUNGEN
100
AcDbSpline
 62
7
  6
CONTINUOUS
 70
0
 71
3
 72
10
 73
6
 74
0
 42
0.0000001
 43
0.0000001
 44
0.0000000001
 40
0.0
 40
0.0
 40
0.0
 40
0.0
 40
0.2405000119
 40
0.4893171683
 40
1.0
 40
1.0
 40
1.0
 40
1.0
 10
144.2994230716
 20
157.9238792597
 30
0.0
 10
144.0868701471
 20
157.9238823651
 30
0.0
 10
143.6546609075
 20
157.881743004
 30
0.0
 10
142.7866056502
 20
157.7144521357
 30
0.0
 10
142.1377870459
 20
157.5401494674
 30
0.0
 10
141.7016809964
 20
157.4238792597
 30
0.0
  0
SPLINE
  5
408
100
AcDbEntity
  8
RUNDUNGEN
100
AcDbSpline
 62
7
  6
CONTINUOUS
 70
0
 71
3
 72
11
 73
7
 74
0
 42
0.0000001
 43
0.0000001
 44
0.0000000001
 40
0.0
 40
0.0
 40
0.0
 40
0.0
 40
0.2190809603
 40
0.4642248065
 40
0.7276062625
 40
1.0
 40
1.0
 40
1.0
 40
1.0
 10
144.099541612
 20
158.4238792587
 30
0.0
 10
143.9081750605
 20
158.4238831011
 30
0.0
 10
143.5042789135
 20
158.3392452984
 30
0.0
 10
142.9171434816
 20
158.0950828071
 30
0.0
 10
142.3128943015
 20
157.7769442491
 30
0.0
 10
141.9077597959
 20
157.5428105013
 30
0.0
 10
141.7016809964
 20
157.4238792597
 30
0.0
  0
SPLINE
  5
409
100
AcDbEntity
  8
RUNDUNGEN
100
AcDbSpline
 62
7
  6
CONTINUOUS
 70
0
 71
3
 72
11
 73
7
 74
0
 42
0.0000001
 43
0.0000001
 44
0.0000000001
 40
0.0
 40
0.0
 40
0.0
 40
0.0
 40
0.2190798615
 40
0.4642232746
 40
0.7276053128
 40
1.0
 40
1.0
 40
1.0
 40
1.0
 10
139.3037778566
 20
158.4238792596
 30
0.0
 10
139.4951465483
 20
158.4238801529
 30
0.0
 10
139.8990506165
 20
158.3392634639
 30
0.0
 10
140.4861958517
 20
158.0950933019
 30
0.0
 10
141.0904561359
 20
157.7769518965
 30
0.0
 10
141.49559818
 20
157.5428129117
 30
0.0
 10
141.7016809964
 20
157.4238792597
 30
0.0
  0
SPLINE
  5
40A
100
AcDbEntity
  8
RUNDUNGEN
100
AcDbSpline
 62
7
  6
CONTINUOUS
 70
0
 71
3
 72
11
 73
7
 74
0
 42
0.0000001
 43
0.0000001
 44
0.0000000001
 40
0.0
 40
0.0
 40
0.0
 40
0.0
 40
0.2190809603
 40
0.4642248065
 40
0.7276062625
 40
1.0
 40
1.0
 40
1.0
 40
1.0
 10
119.099541612
 20
158.4238792587
 30
0.0
 10
118.9081750605
 20
158.4238831011
 30
0.0
 10
118.5042789135
 20
158.3392452984
 30
0.0
 10
117.9171434816
 20
158.0950828071
 30
0.0
 10
117.3128943015
 20
157.7769442491
 30
0.0
 10
116.9077597959
 20
157.5428105013
 30
0.0
 10
116.7016809964
 20
157.4238792597
 30
0.0
  0
SPLINE
  5
40B
100
AcDbEntity
  8
RUNDUNGEN
100
AcDbSpline
 62
7
  6
CONTINUOUS
 70
0
 71
3
 72
11
 73
7
 74
0
 42
0.0000001
 43
0.0000001
 44
0.0000000001
 40
0.0
 40
0.0
 40
0.0
 40
0.0
 40
0.2190798615
 40
0.4642232746
 40
0.7276053128
 40
1.0
 40
1.0
 40
1.0
 40
1.0
 10
114.3037778566
 20
158.4238792596
 30
0.0
 10
114.4951465483
 20
158.4238801529
 30
0.0
 10
114.8990506165
 20
158.3392634639
 30
0.0
 10
115.4861958517
 20
158.0950933019
 30
0.0
 10
116.0904561359
 20
157.7769518965
 30
0.0
 10
116.49559818
 20
157.5428129117
 30
0.0
 10
116.7016809964
 20
157.4238792597
 30
0.0
  0
SPLINE
  5
40C
100
AcDbEntity
  8
RUNDUNGEN
100
AcDbSpline
 62
7
  6
CONTINUOUS
 70
0
 71
3
 72
13
 73
9
 74
0
 42
0.0000001
 43
0.0000001
 44
0.0000000001
 40
0.0
 40
0.0
 40
0.0
 40
0.0
 40
0.313529566
 40
0.6018806298
 40
0.7281583006
 40
0.837819662
 40
0.9282908465
 40
1.0
 40
1.0
 40
1.0
 40
1.0
 10
74.973411461
 20
157.4238792597
 30
0.0
 10
74.8688590695
 20
157.5439173085
 30
0.0
 10
74.66937797
 20
157.7753502298
 30
0.0
 10
74.4180345432
 20
158.0469463443
 30
0.0
 10
74.2233906637
 20
158.2287106691
 30
0.0
 10
74.0929635851
 20
158.3316104689
 30
0.0
 10
73.9735659247
 20
158.4016072769
 30
0.0
 10
73.8917859283
 20
158.4238698954
 30
0.0
 10
73.8553774722
 20
158.4238792597
 30
0.0
  0
SPLINE
  5
40D
100
AcDbEntity
  8
RUNDUNGEN
100
AcDbSpline
 62
7
  6
CONTINUOUS
 70
0
 71
3
 72
11
 73
7
 74
0
 42
0.0000001
 43
0.0000001
 44
0.0000000001
 40
0.0
 40
0.0
 40
0.0
 40
0.0
 40
0.2190756156
 40
0.4642221346
 40
0.7276038175
 40
1.0
 40
1.0
 40
1.0
 40
1.0
 10
139.3037652344
 20
146.4238792597
 30
0.0
 10
139.4951312057
 20
146.4239276134
 30
0.0
 10
139.8990368336
 20
146.508463196
 30
0.0
 10
140.4861881104
 20
146.7526594829
 30
0.0
 10
141.0904521178
 20
147.0707993415
 30
0.0
 10
141.4955968601
 20
147.3049428078
 30
0.0
 10
141.7016809964
 20
147.4238792597
 30
0.0
  0
SPLINE
  5
40E
100
AcDbEntity
  8
RUNDUNGEN
100
AcDbSpline
 62
7
  6
CONTINUOUS
 70
0
 71
3
 72
11
 73
7
 74
0
 42
0.0000001
 43
0.0000001
 44
0.0000000001
 40
0.0
 40
0.0
 40
0.0
 40
0.0
 40
0.21908113
 40
0.4642252905
 40
0.727606708
 40
1.0
 40
1.0
 40
1.0
 40
1.0
 10
144.0995101499
 20
146.4238792621
 30
0.0
 10
143.9081457468
 20
146.4238732439
 30
0.0
 10
143.5042560973
 20
146.5085267192
 30
0.0
 10
142.917127889
 20
146.7526828018
 30
0.0
 10
142.3128864305
 20
147.0708195549
 30
0.0
 10
141.9077570573
 20
147.3049497636
 30
0.0
 10
141.7016809964
 20
147.4238792597
 30
0.0
  0
SPLINE
  5
40F
100
AcDbEntity
  8
RUNDUNGEN
100
AcDbSpline
 62
7
  6
CONTINUOUS
 70
0
 71
3
 72
11
 73
7
 74
0
 42
0.0000001
 43
0.0000001
 44
0.0000000001
 40
0.0
 40
0.0
 40
0.0
 40
0.0
 40
0.2723961892
 40
0.5357778777
 40
0.7809243646
 40
1.0
 40
1.0
 40
1.0
 40
1.0
 10
116.7016809964
 20
147.4238792597
 30
0.0
 10
116.9077657235
 20
147.3049438213
 30
0.0
 10
117.3129097179
 20
147.0707990671
 30
0.0
 10
117.9171739407
 20
146.7526595149
 30
0.0
 10
118.5043251436
 20
146.5084634167
 30
0.0
 10
118.9082307704
 20
146.4239271704
 30
0.0
 10
119.0995967585
 20
146.4238792597
 30
0.0
  0
SPLINE
  5
410
100
AcDbEntity
  8
RUNDUNGEN
100
AcDbSpline
 62
7
  6
CONTINUOUS
 70
0
 71
3
 72
11
 73
7
 74
0
 42
0.0000001
 43
0.0000001
 44
0.0000000001
 40
0.0
 40
0.0
 40
0.0
 40
0.0
 40
0.2723932492
 40
0.5357746664
 40
0.7809189256
 40
1.0
 40
1.0
 40
1.0
 40
1.0
 10
116.7016809964
 20
147.4238792597
 30
0.0
 10
116.4956046052
 20
147.3049506219
 30
0.0
 10
116.0904760473
 20
147.0708195027
 30
0.0
 10
115.486234631
 20
146.752683138
 30
0.0
 10
114.8991067554
 20
146.5085270684
 30
0.0
 10
114.4952172899
 20
146.4238731631
 30
0.0
 10
114.3038530202
 20
146.4238792622
 30
0.0
  0
SPLINE
  5
411
100
AcDbEntity
  8
RUNDUNGEN
100
AcDbSpline
 62
7
  6
CONTINUOUS
 70
0
 71
3
 72
13
 73
9
 74
0
 42
0.0000001
 43
0.0000001
 44
0.0000000001
 40
0.0
 40
0.0
 40
0.0
 40
0.0
 40
0.3135315028
 40
0.6018803136
 40
0.7281612524
 40
0.8378588997
 40
0.9283165353
 40
1.0
 40
1.0
 40
1.0
 40
1.0
 10
83.573411461
 20
147.4238792597
 30
0.0
 10
83.6779973089
 20
147.3038704308
 30
0.0
 10
83.8774258428
 20
147.0723935236
 30
0.0
 10
84.1287785494
 20
146.8008102075
 30
0.0
 10
84.3234180679
 20
146.6190112082
 30
0.0
 10
84.4539216992
 20
146.5161877359
 30
0.0
 10
84.5732906839
 20
146.4461673107
 30
0.0
 10
84.6550502726
 20
146.4238755219
 30
0.0
 10
84.6914454497
 20
146.4238792597
 30
0.0
  0
SPLINE
  5
412
100
AcDbEntity
  8
RUNDUNGEN
100
AcDbSpline
 62
7
  6
CONTINUOUS
 70
0
 71
3
 72
13
 73
9
 74
0
 42
0.0000001
 43
0.0000001
 44
0.0000000001
 40
0.0
 40
0.0
 40
0.0
 40
0.0
 40
0.071683775
 40
0.1621405996
 40
0.2718380965
 40
0.3981188568
 40
0.6864676161
 40
1.0
 40
1.0
 40
1.0
 40
1.0
 10
73.8553774722
 20
146.4238792597
 30
0.0
 10
73.8917728052
 20
146.4238752185
 30
0.0
 10
73.9735323229
 20
146.4461669435
 30
0.0
 10
74.0929003426
 20
146.5161882119
 30
0.0
 10
74.2234040734
 20
146.6190105603
 30
0.0
 10
74.4180431081
 20
146.8008097608
 30
0.0
 10
74.6693996604
 20
147.072390158
 30
0.0
 10
74.8688158612
 20
147.3038783462
 30
0.0
 10
74.973411461
 20
147.4238792597
 30
0.0
  0
SPLINE
  5
413
100
AcDbEntity
  8
RUNDUNGEN
100
AcDbSpline
 62
7
  6
CONTINUOUS
 70
0
 71
3
 72
13
 73
9
 74
0
 42
0.0000001
 43
0.0000001
 44
0.0000000001
 40
0.0
 40
0.0
 40
0.0
 40
0.0
 40
0.3368893795
 40
0.6309116701
 40
0.7513927601
 40
0.8513955885
 40
0.9321308812
 40
1.0
 40
1.0
 40
1.0
 40
1.0
 10
106.2016809964
 20
150.1161869522
 30
0.0
 10
106.2656479457
 20
150.1161869522
 30
0.0
 10
106.3855378924
 20
150.107515313
 30
0.0
 10
106.5255611573
 20
150.0747251601
 30
0.0
 10
106.614862222
 20
150.0342870088
 30
0.0
 10
106.6623796165
 20
150.0017153266
 30
0.0
 10
106.6935175878
 20
149.9651293881
 30
0.0
 10
106.7016809964
 20
149.9367659246
 30
0.0
 10
106.7016809964
 20
149.9238792599
 30
0.0
  0
SPLINE
  5
414
100
AcDbEntity
  8
RUNDUNGEN
100
AcDbSpline
 62
7
  6
CONTINUOUS
 70
0
 71
3
 72
13
 73
9
 74
0
 42
0.0000001
 43
0.0000001
 44
0.0000000001
 40
0.0
 40
0.0
 40
0.0
 40
0.0
 40
0.3368893761
 40
0.6309116668
 40
0.751392758
 40
0.8513955875
 40
0.9321308809
 40
1.0
 40
1.0
 40
1.0
 40
1.0
 10
106.2016809964
 20
154.7315715668
 30
0.0
 10
106.2656479451
 20
154.7315715668
 30
0.0
 10
106.3855378912
 20
154.7402432058
 30
0.0
 10
106.5255611558
 20
154.7730333586
 30
0.0
 10
106.614862221
 20
154.8134715098
 30
0.0
 10
106.6623796161
 20
154.8460431923
 30
0.0
 10
106.6935175876
 20
154.8826291312
 30
0.0
 10
106.7016809964
 20
154.9109925948
 30
0.0
 10
106.7016809964
 20
154.9238792596
 30
0.0
  0
SPLINE
  5
415
100
AcDbEntity
  8
RUNDUNGEN
100
AcDbSpline
 62
7
  6
CONTINUOUS
 70
0
 71
3
 72
11
 73
7
 74
0
 42
0.0000001
 43
0.0000001
 44
0.0000000001
 40
0.0
 40
0.0
 40
0.0
 40
0.0
 40
0.2227070835
 40
0.4617795392
 40
0.7222480737
 40
1.0
 40
1.0
 40
1.0
 40
1.0
 10
127.2016809964
 20
146.4238792597
 30
0.0
 10
127.1444803565
 20
146.4238765747
 30
0.0
 10
127.0248310781
 20
146.4490964924
 30
0.0
 10
126.867442834
 20
146.5540928569
 30
0.0
 10
126.7432051814
 20
146.7140264591
 30
0.0
 10
126.7016787326
 20
146.8525407657
 30
0.0
 10
126.7016809964
 20
146.9238792597
 30
0.0
  0
SPLINE
  5
416
100
AcDbEntity
  8
RUNDUNGEN
100
AcDbSpline
 62
7
  6
CONTINUOUS
 70
0
 71
3
 72
13
 73
9
 74
0
 42
0.0000001
 43
0.0000001
 44
0.0000000001
 40
0.0
 40
0.0
 40
0.0
 40
0.0
 40
0.0678691192
 40
0.1486044122
 40
0.2486072408
 40
0.3690883309
 40
0.6631106213
 40
1.0
 40
1.0
 40
1.0
 40
1.0
 10
126.7016809964
 20
149.9238792597
 30
0.0
 10
126.7016809964
 20
149.9367659245
 30
0.0
 10
126.709844405
 20
149.9651293882
 30
0.0
 10
126.7409823763
 20
150.001715327
 30
0.0
 10
126.7884997708
 20
150.0342870096
 30
0.0
 10
126.8778008356
 20
150.0747251612
 30
0.0
 10
127.0178241004
 20
150.1075153146
 30
0.0
 10
127.1377140472
 20
150.116186954
 30
0.0
 10
127.2016809964
 20
150.1161869542
 30
0.0
  0
SPLINE
  5
417
100
AcDbEntity
  8
RUNDUNGEN
100
AcDbSpline
 62
7
  6
CONTINUOUS
 70
0
 71
3
 72
9
 73
5
 74
0
 42
0.0000001
 43
0.0000001
 44
0.0000000001
 40
0.0
 40
0.0
 40
0.0
 40
0.0
 40
0.25943042
 40
1.0
 40
1.0
 40
1.0
 40
1.0
 10
126.7016809964
 20
157.9238792597
 30
0.0
 10
126.7016811791
 20
157.946642991
 30
0.0
 10
126.7100711825
 20
158.0343943419
 30
0.0
 10
126.7457603285
 20
158.1179191973
 30
0.0
 10
126.7806546992
 20
158.1727366464
 30
0.0
  0
SPLINE
  5
418
100
AcDbEntity
  8
RUNDUNGEN
100
AcDbSpline
 62
7
  6
CONTINUOUS
 70
0
 71
3
 72
10
 73
6
 74
0
 42
0.0000001
 43
0.0000001
 44
0.0000000001
 40
0.0
 40
0.0
 40
0.0
 40
0.0
 40
0.5254721473
 40
0.7672788815
 40
1.0
 40
1.0
 40
1.0
 40
1.0
 10
126.7806546992
 20
158.1727366464
 30
0.0
 10
126.8284300376
 20
158.2477860621
 30
0.0
 10
126.9251076334
 20
158.3439854283
 30
0.0
 10
127.0814784229
 20
158.4123432558
 30
0.0
 10
127.1622798599
 20
158.4238804071
 30
0.0
 10
127.2016809964
 20
158.4238792597
 30
0.0
  0
SPLINE
  5
419
100
AcDbEntity
  8
RUNDUNGEN
100
AcDbSpline
 62
7
  6
CONTINUOUS
 70
0
 71
3
 72
13
 73
9
 74
0
 42
0.0000001
 43
0.0000001
 44
0.0000000001
 40
0.0
 40
0.0
 40
0.0
 40
0.0
 40
0.0678691191
 40
0.1486044125
 40
0.2486072419
 40
0.3690883331
 40
0.6631106237
 40
1.0
 40
1.0
 40
1.0
 40
1.0
 10
126.7016809964
 20
154.9238792596
 30
0.0
 10
126.7016809964
 20
154.9109925948
 30
0.0
 10
126.7098444053
 20
154.8826291312
 30
0.0
 10
126.7409823768
 20
154.8460431924
 30
0.0
 10
126.7884997718
 20
154.8134715099
 30
0.0
 10
126.877800837
 20
154.7730333587
 30
0.0
 10
127.0178241016
 20
154.7402432059
 30
0.0
 10
127.1377140477
 20
154.7315715669
 30
0.0
 10
127.2016809964
 20
154.7315715669
 30
0.0
  0
SPLINE
  5
41A
100
AcDbEntity
  8
RUNDUNGEN
100
AcDbSpline
 62
7
  6
CONTINUOUS
 70
0
 71
3
 72
11
 73
7
 74
0
 42
0.0000001
 43
0.0000001
 44
0.0000000001
 40
0.0
 40
0.0
 40
0.0
 40
0.0
 40
0.2777547316
 40
0.5382133199
 40
0.7772921978
 40
1.0
 40
1.0
 40
1.0
 40
1.0
 10
131.7016809928
 20
146.92381975
 30
0.0
 10
131.7016860119
 20
146.8524857178
 30
0.0
 10
131.6601296867
 20
146.7139899104
 30
0.0
 10
131.5359032183
 20
146.5540723654
 30
0.0
 10
131.3785192896
 20
146.4490935105
 30
0.0
 10
131.2588776657
 20
146.4238752795
 30
0.0
 10
131.2016809964
 20
146.4238792597
 30
0.0
  0
SPLINE
  5
41B
100
AcDbEntity
  8
RUNDUNGEN
100
AcDbSpline
 62
7
  6
CONTINUOUS
 70
0
 71
3
 72
13
 73
9
 74
0
 42
0.0000001
 43
0.0000001
 44
0.0000000001
 40
0.0
 40
0.0
 40
0.0
 40
0.0
 40
0.3368893795
 40
0.6309116701
 40
0.7513927601
 40
0.8513955885
 40
0.9321308812
 40
1.0
 40
1.0
 40
1.0
 40
1.0
 10
131.2016809964
 20
150.1161869522
 30
0.0
 10
131.2656479457
 20
150.1161869522
 30
0.0
 10
131.3855378924
 20
150.107515313
 30
0.0
 10
131.5255611573
 20
150.0747251601
 30
0.0
 10
131.614862222
 20
150.0342870088
 30
0.0
 10
131.6623796165
 20
150.0017153266
 30
0.0
 10
131.6935175878
 20
149.9651293881
 30
0.0
 10
131.7016809964
 20
149.9367659246
 30
0.0
 10
131.7016809964
 20
149.9238792599
 30
0.0
  0
SPLINE
  5
41C
100
AcDbEntity
  8
RUNDUNGEN
100
AcDbSpline
 62
7
  6
CONTINUOUS
 70
0
 71
3
 72
9
 73
5
 74
0
 42
0.0000001
 43
0.0000001
 44
0.0000000001
 40
0.0
 40
0.0
 40
0.0
 40
0.0
 40
0.2594869265
 40
1.0
 40
1.0
 40
1.0
 40
1.0
 10
131.7016809964
 20
157.9238792597
 30
0.0
 10
131.7016854961
 20
157.946822943
 30
0.0
 10
131.6931583419
 20
158.0352487194
 30
0.0
 10
131.6569686322
 20
158.1193571325
 30
0.0
 10
131.6216082971
 20
158.1744635646
 30
0.0
  0
SPLINE
  5
41D
100
AcDbEntity
  8
RUNDUNGEN
100
AcDbSpline
 62
7
  6
CONTINUOUS
 70
0
 71
3
 72
13
 73
9
 74
0
 42
0.0000001
 43
0.0000001
 44
0.0000000001
 40
0.0
 40
0.0
 40
0.0
 40
0.0
 40
0.3368893761
 40
0.6309116668
 40
0.751392758
 40
0.8513955875
 40
0.9321308809
 40
1.0
 40
1.0
 40
1.0
 40
1.0
 10
131.2016809964
 20
154.7315715668
 30
0.0
 10
131.2656479451
 20
154.7315715668
 30
0.0
 10
131.3855378912
 20
154.7402432058
 30
0.0
 10
131.5255611558
 20
154.7730333586
 30
0.0
 10
131.614862221
 20
154.8134715098
 30
0.0
 10
131.6623796161
 20
154.8460431923
 30
0.0
 10
131.6935175876
 20
154.8826291312
 30
0.0
 10
131.7016809964
 20
154.9109925948
 30
0.0
 10
131.7016809964
 20
154.9238792596
 30
0.0
  0
SPLINE
  5
41E
100
AcDbEntity
  8
RUNDUNGEN
100
AcDbSpline
 62
7
  6
CONTINUOUS
 70
0
 71
3
 72
10
 73
6
 74
0
 42
0.0000001
 43
0.0000001
 44
0.0000000001
 40
0.0
 40
0.0
 40
0.0
 40
0.0
 40
0.5253619452
 40
0.7671984173
 40
1.0
 40
1.0
 40
1.0
 40
1.0
 10
131.6216082971
 20
158.1744635646
 30
0.0
 10
131.5737612909
 20
158.2490272498
 30
0.0
 10
131.4772831764
 20
158.3445728976
 30
0.0
 10
131.3214364969
 20
158.4124276486
 30
0.0
 10
131.2409397647
 20
158.4238824943
 30
0.0
 10
131.2016809964
 20
158.4238792597
 30
0.0
  0
SPLINE
  5
41F
100
AcDbEntity
  8
RUNDUNGEN
100
AcDbSpline
 62
7
  6
CONTINUOUS
 70
0
 71
3
 72
11
 73
7
 74
0
 42
0.0000001
 43
0.0000001
 44
0.0000000001
 40
0.0
 40
0.0
 40
0.0
 40
0.0
 40
0.2777546312
 40
0.5382110401
 40
0.7772901422
 40
1.0
 40
1.0
 40
1.0
 40
1.0
 10
151.701681003
 20
146.9237985195
 30
0.0
 10
151.7016741295
 20
146.8524663009
 30
0.0
 10
151.7432404982
 20
146.7139763661
 30
0.0
 10
151.8674638231
 20
146.5540654132
 30
0.0
 10
152.0248461871
 20
146.4490927325
 30
0.0
 10
152.1444852327
 20
146.4238740301
 30
0.0
 10
152.2016809964
 20
146.4238792597
 30
0.0
  0
SPLINE
  5
420
100
AcDbEntity
  8
RUNDUNGEN
100
AcDbSpline
 62
7
  6
CONTINUOUS
 70
0
 71
3
 72
13
 73
9
 74
0
 42
0.0000001
 43
0.0000001
 44
0.0000000001
 40
0.0
 40
0.0
 40
0.0
 40
0.0
 40
0.0678691201
 40
0.1486044158
 40
0.2486072487
 40
0.3690883435
 40
0.6631106339
 40
1.0
 40
1.0
 40
1.0
 40
1.0
 10
151.7016809964
 20
149.9238792597
 30
0.0
 10
151.7016809964
 20
149.9367659247
 30
0.0
 10
151.709844406
 20
149.9651293888
 30
0.0
 10
151.7409823781
 20
150.0017153288
 30
0.0
 10
151.788499775
 20
150.034287012
 30
0.0
 10
151.8778008418
 20
150.0747251631
 30
0.0
 10
152.0178241053
 20
150.1075153153
 30
0.0
 10
152.1377140496
 20
150.116186954
 30
0.0
 10
152.2016809964
 20
150.1161869542
 30
0.0
  0
SPLINE
  5
421
100
AcDbEntity
  8
RUNDUNGEN
100
AcDbSpline
 62
7
  6
CONTINUOUS
 70
0
 71
3
 72
9
 73
5
 74
0
 42
0.0000001
 43
0.0000001
 44
0.0000000001
 40
0.0
 40
0.0
 40
0.0
 40
0.0
 40
0.25943042
 40
1.0
 40
1.0
 40
1.0
 40
1.0
 10
151.7016809964
 20
157.9238792597
 30
0.0
 10
151.7016811791
 20
157.946642991
 30
0.0
 10
151.7100711825
 20
158.0343943419
 30
0.0
 10
151.7457603285
 20
158.1179191973
 30
0.0
 10
151.7806546992
 20
158.1727366464
 30
0.0
  0
SPLINE
  5
422
100
AcDbEntity
  8
RUNDUNGEN
100
AcDbSpline
 62
7
  6
CONTINUOUS
 70
0
 71
3
 72
10
 73
6
 74
0
 42
0.0000001
 43
0.0000001
 44
0.0000000001
 40
0.0
 40
0.0
 40
0.0
 40
0.0
 40
0.5254721473
 40
0.7672788815
 40
1.0
 40
1.0
 40
1.0
 40
1.0
 10
151.7806546992
 20
158.1727366464
 30
0.0
 10
151.8284300376
 20
158.2477860621
 30
0.0
 10
151.9251076334
 20
158.3439854283
 30
0.0
 10
152.0814784229
 20
158.4123432558
 30
0.0
 10
152.1622798599
 20
158.4238804071
 30
0.0
 10
152.2016809964
 20
158.4238792597
 30
0.0
  0
SPLINE
  5
423
100
AcDbEntity
  8
RUNDUNGEN
100
AcDbSpline
 62
7
  6
CONTINUOUS
 70
0
 71
3
 72
13
 73
9
 74
0
 42
0.0000001
 43
0.0000001
 44
0.0000000001
 40
0.0
 40
0.0
 40
0.0
 40
0.0
 40
0.0678691199
 40
0.1486044156
 40
0.2486072488
 40
0.3690883441
 40
0.6631106348
 40
1.0
 40
1.0
 40
1.0
 40
1.0
 10
151.7016809964
 20
154.9238792596
 30
0.0
 10
151.7016809964
 20
154.9109925947
 30
0.0
 10
151.7098444062
 20
154.8826291306
 30
0.0
 10
151.7409823783
 20
154.8460431908
 30
0.0
 10
151.7884997755
 20
154.8134715078
 30
0.0
 10
151.8778008425
 20
154.773033357
 30
0.0
 10
152.0178241058
 20
154.7402432053
 30
0.0
 10
152.1377140499
 20
154.7315715669
 30
0.0
 10
152.2016809964
 20
154.7315715669
 30
0.0
  0
SPLINE
  5
424
100
AcDbEntity
  8
RUNDUNGEN
100
AcDbSpline
 62
7
  6
CONTINUOUS
 70
0
 71
3
 72
11
 73
7
 74
0
 42
0.0000001
 43
0.0000001
 44
0.0000000001
 40
0.0
 40
0.0
 40
0.0
 40
0.0
 40
0.3136968471
 40
0.600755584
 40
0.834452889
 40
1.0
 40
1.0
 40
1.0
 40
1.0
 10
106.2187180833
 20
150.4268868747
 30
0.0
 10
106.2729647975
 20
150.4223248345
 30
0.0
 10
106.3764018406
 20
150.4080225191
 30
0.0
 10
106.5173539641
 20
150.3720839445
 30
0.0
 10
106.627010247
 20
150.3260195521
 30
0.0
 10
106.6850758336
 20
150.2839138015
 30
0.0
 10
106.7016809964
 20
150.2604701664
 30
0.0
  0
SPLINE
  5
425
100
AcDbEntity
  8
RUNDUNGEN
100
AcDbSpline
 62
7
  6
CONTINUOUS
 70
0
 71
3
 72
11
 73
7
 74
0
 42
0.0000001
 43
0.0000001
 44
0.0000000001
 40
0.0
 40
0.0
 40
0.0
 40
0.0
 40
0.3137124895
 40
0.6007781341
 40
0.8344694489
 40
1.0
 40
1.0
 40
1.0
 40
1.0
 10
106.2187180845
 20
154.4208527634
 30
0.0
 10
106.2729676629
 20
154.4254155937
 30
0.0
 10
106.3764087656
 20
154.4397199146
 30
0.0
 10
106.517363596
 20
154.4756631613
 30
0.0
 10
106.6270151849
 20
154.5217317118
 30
0.0
 10
106.6850745628
 20
154.5638427945
 30
0.0
 10
106.7016722249
 20
154.5872883527
 30
0.0
  0
SPLINE
  5
426
100
AcDbEntity
  8
RUNDUNGEN
100
AcDbSpline
 62
7
  6
CONTINUOUS
 70
0
 71
3
 72
11
 73
7
 74
0
 42
0.0000001
 43
0.0000001
 44
0.0000000001
 40
0.0
 40
0.0
 40
0.0
 40
0.0
 40
0.3136968471
 40
0.600755584
 40
0.834452889
 40
1.0
 40
1.0
 40
1.0
 40
1.0
 10
131.2187180833
 20
150.4268868747
 30
0.0
 10
131.2729647975
 20
150.4223248345
 30
0.0
 10
131.3764018406
 20
150.4080225191
 30
0.0
 10
131.5173539641
 20
150.3720839445
 30
0.0
 10
131.627010247
 20
150.3260195521
 30
0.0
 10
131.6850758336
 20
150.2839138015
 30
0.0
 10
131.7016809964
 20
150.2604701664
 30
0.0
  0
SPLINE
  5
427
100
AcDbEntity
  8
RUNDUNGEN
100
AcDbSpline
 62
7
  6
CONTINUOUS
 70
0
 71
3
 72
11
 73
7
 74
0
 42
0.0000001
 43
0.0000001
 44
0.0000000001
 40
0.0
 40
0.0
 40
0.0
 40
0.0
 40
0.3137124895
 40
0.6007781341
 40
0.8344694489
 40
1.0
 40
1.0
 40
1.0
 40
1.0
 10
131.2187180845
 20
154.4208527634
 30
0.0
 10
131.2729676629
 20
154.4254155937
 30
0.0
 10
131.3764087656
 20
154.4397199146
 30
0.0
 10
131.517363596
 20
154.4756631613
 30
0.0
 10
131.6270151849
 20
154.5217317118
 30
0.0
 10
131.6850745628
 20
154.5638427945
 30
0.0
 10
131.7016722249
 20
154.5872883527
 30
0.0
  0
SPLINE
  5
428
100
AcDbEntity
  8
RUNDUNGEN
100
AcDbSpline
 62
7
  6
CONTINUOUS
 70
0
 71
3
 72
11
 73
7
 74
0
 42
0.0000001
 43
0.0000001
 44
0.0000000001
 40
0.0
 40
0.0
 40
0.0
 40
0.0
 40
0.1655471115
 40
0.3992444193
 40
0.6863031571
 40
1.0
 40
1.0
 40
1.0
 40
1.0
 10
126.7016809964
 20
150.2604701664
 30
0.0
 10
126.71828616
 20
150.2839138008
 30
0.0
 10
126.7763517483
 20
150.326019549
 30
0.0
 10
126.886008032
 20
150.3720839382
 30
0.0
 10
127.0269601548
 20
150.4080225098
 30
0.0
 10
127.1303971966
 20
150.4223248237
 30
0.0
 10
127.1846439096
 20
150.4268868634
 30
0.0
  0
SPLINE
  5
429
100
AcDbEntity
  8
RUNDUNGEN
100
AcDbSpline
 62
7
  6
CONTINUOUS
 70
0
 71
3
 72
11
 73
7
 74
0
 42
0.0000001
 43
0.0000001
 44
0.0000000001
 40
0.0
 40
0.0
 40
0.0
 40
0.0
 40
0.1655313375
 40
0.3992229458
 40
0.6862882653
 40
1.0
 40
1.0
 40
1.0
 40
1.0
 10
126.701689331
 20
154.5872883527
 30
0.0
 10
126.7182873513
 20
154.5638428866
 30
0.0
 10
126.7763470319
 20
154.5217320623
 30
0.0
 10
126.8859988506
 20
154.4756637167
 30
0.0
 10
127.0269535567
 20
154.4397206988
 30
0.0
 10
127.1303944672
 20
154.4254164761
 30
0.0
 10
127.1846439085
 20
154.4208536844
 30
0.0
  0
SPLINE
  5
42A
100
AcDbEntity
  8
RUNDUNGEN
100
AcDbSpline
 62
7
  6
CONTINUOUS
 70
0
 71
3
 72
11
 73
7
 74
0
 42
0.0000001
 43
0.0000001
 44
0.0000000001
 40
0.0
 40
0.0
 40
0.0
 40
0.0
 40
0.1703643421
 40
0.4057238332
 40
0.6906790541
 40
1.0
 40
1.0
 40
1.0
 40
1.0
 10
151.7016809964
 20
150.3244043392
 30
0.0
 10
151.7204286191
 20
150.3465494482
 30
0.0
 10
151.7792809438
 20
150.3860686101
 30
0.0
 10
151.8881049146
 20
150.4306050679
 30
0.0
 10
152.0254424109
 20
150.4659271197
 30
0.0
 10
152.1257101368
 20
150.4808034005
 30
0.0
 10
152.1781438864
 20
150.4859033017
 30
0.0
  0
SPLINE
  5
42B
100
AcDbEntity
  8
RUNDUNGEN
100
AcDbSpline
 62
7
  6
CONTINUOUS
 70
0
 71
3
 72
11
 73
7
 74
0
 42
0.0000001
 43
0.0000001
 44
0.0000000001
 40
0.0
 40
0.0
 40
0.0
 40
0.0
 40
0.1703487276
 40
0.405703016
 40
0.6906647059
 40
1.0
 40
1.0
 40
1.0
 40
1.0
 10
151.7016892069
 20
154.52335418
 30
0.0
 10
151.7204305626
 20
154.5012072123
 30
0.0
 10
151.7792773705
 20
154.461683901
 30
0.0
 10
151.8880969672
 20
154.4171437019
 30
0.0
 10
152.0254365789
 20
154.3818175861
 30
0.0
 10
152.1257077038
 20
154.3669394054
 30
0.0
 10
152.1781438852
 20
154.3618387164
 30
0.0
  0
SPLINE
  5
42C
100
AcDbEntity
  8
RUNDUNGEN
100
AcDbSpline
 62
7
  6
CONTINUOUS
 70
0
 71
3
 72
10
 73
6
 74
0
 42
0.0000001
 43
0.0000001
 44
0.0000000001
 40
0.0
 40
0.0
 40
0.0
 40
0.0
 40
0.2404999904
 40
0.4893170963
 40
1.0
 40
1.0
 40
1.0
 40
1.0
 10
144.2994230716
 20
146.9238792597
 30
0.0
 10
144.0868701795
 20
146.9238724717
 30
0.0
 10
143.6546612921
 20
146.9660198756
 30
0.0
 10
142.7866054499
 20
147.1333038867
 30
0.0
 10
142.1377872954
 20
147.3076098508
 30
0.0
 10
141.7016809964
 20
147.4238792597
 30
0.0
  0
SPLINE
  5
42D
100
AcDbEntity
  8
RUNDUNGEN
100
AcDbSpline
 62
7
  6
CONTINUOUS
 70
0
 71
3
 72
11
 73
7
 74
0
 42
0.0000001
 43
0.0000001
 44
0.0000000001
 40
0.0
 40
0.0
 40
0.0
 40
0.0
 40
0.2825356639
 40
0.5472257215
 40
0.7843970166
 40
1.0
 40
1.0
 40
1.0
 40
1.0
 10
85.0641234458
 20
146.9238792597
 30
0.0
 10
85.0641234457
 20
146.8594015153
 30
0.0
 10
85.0461936203
 20
146.7336654053
 30
0.0
 10
84.9675066204
 20
146.5694183271
 30
0.0
 10
84.8452840778
 20
146.4534648857
 30
0.0
 10
84.7406484207
 20
146.4238792597
 30
0.0
 10
84.6914454497
 20
146.4238792597
 30
0.0
  0
SPLINE
  5
42E
100
AcDbEntity
  8
RUNDUNGEN
100
AcDbSpline
 62
7
  6
CONTINUOUS
 70
0
 71
3
 72
15
 73
11
 74
0
 42
0.0000001
 43
0.0000001
 44
0.0000000001
 40
0.0
 40
0.0
 40
0.0
 40
0.0
 40
0.171593839
 40
0.3360537182
 40
0.4876390469
 40
0.622569472
 40
0.7393291289
 40
0.8385923307
 40
0.9234968078
 40
1.0
 40
1.0
 40
1.0
 40
1.0
 10
64.5014734582
 20
149.4238792597
 30
0.0
 10
64.5014521541
 20
149.2179638027
 30
0.0
 10
64.4814781981
 20
148.8143831149
 30
0.0
 10
64.3929746181
 20
148.2348865461
 30
0.0
 10
64.2524137539
 20
147.7109758381
 30
0.0
 10
64.0680767604
 20
147.2618350275
 30
0.0
 10
63.8487921262
 20
146.8998123387
 30
0.0
 10
63.6018940657
 20
146.6319370818
 30
0.0
 10
63.3324767469
 20
146.4636903052
 30
0.0
 10
63.1373412046
 20
146.423879003
 30
0.0
 10
63.0455361028
 20
146.4238792619
 30
0.0
  0
SPLINE
  5
42F
100
AcDbEntity
  8
RUNDUNGEN
100
AcDbSpline
 62
7
  6
CONTINUOUS
 70
0
 71
3
 72
11
 73
7
 74
0
 42
0.0000001
 43
0.0000001
 44
0.0000000001
 40
0.0
 40
0.0
 40
0.0
 40
0.0
 40
0.2586598242
 40
0.5123341807
 40
0.758785918
 40
1.0
 40
1.0
 40
1.0
 40
1.0
 10
85.4277791701
 20
146.9238792597
 30
0.0
 10
85.4277791701
 20
146.8590230476
 30
0.0
 10
85.4042407334
 20
146.7293019388
 30
0.0
 10
85.3024344712
 20
146.5633153209
 30
0.0
 10
85.1484112054
 20
146.4506402253
 30
0.0
 10
85.0246691197
 20
146.4238792597
 30
0.0
 10
84.9641872428
 20
146.4238792597
 30
0.0
  0
SPLINE
  5
430
100
AcDbEntity
  8
RUNDUNGEN
100
AcDbSpline
 62
7
  6
CONTINUOUS
 70
0
 71
3
 72
11
 73
7
 74
0
 42
0.0000001
 43
0.0000001
 44
0.0000000001
 40
0.0
 40
0.0
 40
0.0
 40
0.0
 40
0.258659788
 40
0.5123341301
 40
0.7587858764
 40
1.0
 40
1.0
 40
1.0
 40
1.0
 10
95.8491082702
 20
146.9238791465
 30
0.0
 10
95.8491082911
 20
146.859022913
 30
0.0
 10
95.8255698506
 20
146.7293017417
 30
0.0
 10
95.723763435
 20
146.5633151114
 30
0.0
 10
95.5697400007
 20
146.4506400743
 30
0.0
 10
95.4459978176
 20
146.4238792058
 30
0.0
 10
95.3855159018
 20
146.4238792597
 30
0.0
  0
SPLINE
  5
431
100
AcDbEntity
  8
RUNDUNGEN
100
AcDbSpline
 62
7
  6
CONTINUOUS
 70
0
 71
3
 72
11
 73
7
 74
0
 42
0.0000001
 43
0.0000001
 44
0.0000000001
 40
0.0
 40
0.0
 40
0.0
 40
0.0
 40
0.2770435788
 40
0.5406117956
 40
0.7812973526
 40
1.0
 40
1.0
 40
1.0
 40
1.0
 10
85.0641234458
 20
157.9238792597
 30
0.0
 10
85.0641260662
 20
157.9804639844
 30
0.0
 10
85.0501881758
 20
158.0914402929
 30
0.0
 10
84.9888390508
 20
158.2409565171
 30
0.0
 10
84.8928120985
 20
158.3566719054
 30
0.0
 10
84.807300486
 20
158.4026820112
 30
0.0
 10
84.7641437292
 20
158.4142060756
 30
0.0
  0
SPLINE
  5
432
100
AcDbEntity
  8
RUNDUNGEN
100
AcDbSpline
 62
7
  6
CONTINUOUS
 70
0
 71
3
 72
8
 73
4
 74
0
 42
0.0000001
 43
0.0000001
 44
0.0000000001
 40
0.0
 40
0.0
 40
0.0
 40
0.0
 40
1.0
 40
1.0
 40
1.0
 40
1.0
 10
84.7641437292
 20
158.4142060756
 30
0.0
 10
84.7405249522
 20
158.4205129515
 30
0.0
 10
84.7158917887
 20
158.4238792597
 30
0.0
 10
84.6914454533
 20
158.4238792597
 30
0.0
  0
SPLINE
  5
433
100
AcDbEntity
  8
RUNDUNGEN
100
AcDbSpline
 62
7
  6
CONTINUOUS
 70
0
 71
3
 72
11
 73
7
 74
0
 42
0.0000001
 43
0.0000001
 44
0.0000000001
 40
0.0
 40
0.0
 40
0.0
 40
0.0
 40
0.2586598225
 40
0.5123341816
 40
0.7587859203
 40
1.0
 40
1.0
 40
1.0
 40
1.0
 10
85.4277791701
 20
157.9238792597
 30
0.0
 10
85.4277791701
 20
157.9887354713
 30
0.0
 10
85.4042407337
 20
158.1184565803
 30
0.0
 10
85.302434471
 20
158.2844431988
 30
0.0
 10
85.1484112047
 20
158.3971182946
 30
0.0
 10
85.0246691192
 20
158.4238792597
 30
0.0
 10
84.9641872428
 20
158.4238792597
 30
0.0
  0
SPLINE
  5
434
100
AcDbEntity
  8
RUNDUNGEN
100
AcDbSpline
 62
7
  6
CONTINUOUS
 70
0
 71
3
 72
11
 73
7
 74
0
 42
0.0000001
 43
0.0000001
 44
0.0000000001
 40
0.0
 40
0.0
 40
0.0
 40
0.0
 40
0.2586598092
 40
0.5123341604
 40
0.7587859021
 40
1.0
 40
1.0
 40
1.0
 40
1.0
 10
95.8491077507
 20
157.9238794372
 30
0.0
 10
95.8491077218
 20
157.9887356354
 30
0.0
 10
95.8255692371
 20
158.1184567078
 30
0.0
 10
95.7237629408
 20
158.2844432614
 30
0.0
 10
95.5697396744
 20
158.3971183079
 30
0.0
 10
95.4459976036
 20
158.4238792584
 30
0.0
 10
95.3855157321
 20
158.4238792597
 30
0.0
  0
SPLINE
  5
435
100
AcDbEntity
  8
RUNDUNGEN
100
AcDbSpline
 62
7
  6
CONTINUOUS
 70
0
 71
3
 72
11
 73
7
 74
0
 42
0.0000001
 43
0.0000001
 44
0.0000000001
 40
0.0
 40
0.0
 40
0.0
 40
0.0
 40
0.2770458812
 40
0.5406169631
 40
0.7813028014
 40
1.0
 40
1.0
 40
1.0
 40
1.0
 10
73.4826994763
 20
157.9238792597
 30
0.0
 10
73.4826994763
 20
157.9804640227
 30
0.0
 10
73.4966414676
 20
158.0914398035
 30
0.0
 10
73.5579927368
 20
158.2409546729
 30
0.0
 10
73.6540172728
 20
158.3566693825
 30
0.0
 10
73.7395259276
 20
158.4026809812
 30
0.0
 10
73.7826810538
 20
158.4142055168
 30
0.0
  0
SPLINE
  5
436
100
AcDbEntity
  8
RUNDUNGEN
100
AcDbSpline
 62
7
  6
CONTINUOUS
 70
0
 71
3
 72
8
 73
4
 74
0
 42
0.0000001
 43
0.0000001
 44
0.0000000001
 40
0.0
 40
0.0
 40
0.0
 40
0.0
 40
1.0
 40
1.0
 40
1.0
 40
1.0
 10
73.7826810538
 20
158.4142055168
 30
0.0
 10
73.8062991379
 20
158.4205127038
 30
0.0
 10
73.830931726
 20
158.4238792597
 30
0.0
 10
73.8553774722
 20
158.4238792597
 30
0.0
  0
SPLINE
  5
437
100
AcDbEntity
  8
RUNDUNGEN
100
AcDbSpline
 62
7
  6
CONTINUOUS
 70
0
 71
3
 72
10
 73
6
 74
0
 42
0.0000001
 43
0.0000001
 44
0.0000000001
 40
0.0
 40
0.0
 40
0.0
 40
0.0
 40
0.2404992733
 40
0.4893165292
 40
1.0
 40
1.0
 40
1.0
 40
1.0
 10
139.1039389213
 20
146.9238792597
 30
0.0
 10
139.3164913152
 20
146.923917137
 30
0.0
 10
139.7487026067
 20
146.9659723071
 30
0.0
 10
140.6167527872
 20
147.1333297322
 30
0.0
 10
141.2655771018
 20
147.3075977431
 30
0.0
 10
141.7016809964
 20
147.4238792597
 30
0.0
  0
SPLINE
  5
438
100
AcDbEntity
  8
RUNDUNGEN
100
AcDbSpline
 62
7
  6
CONTINUOUS
 70
0
 71
3
 72
11
 73
7
 74
0
 42
0.0000001
 43
0.0000001
 44
0.0000000001
 40
0.0
 40
0.0
 40
0.0
 40
0.0
 40
0.2571361879
 40
0.5101514653
 40
0.7572215883
 40
1.0
 40
1.0
 40
1.0
 40
1.0
 10
73.0940262194
 20
157.9238792597
 30
0.0
 10
73.0940262194
 20
157.988764442
 30
0.0
 10
73.1179805287
 20
158.1187827496
 30
0.0
 10
73.2214086009
 20
158.2848242384
 30
0.0
 10
73.3775429145
 20
158.3972581499
 30
0.0
 10
73.5026103573
 20
158.4238792597
 30
0.0
 10
73.5638725298
 20
158.4238792597
 30
0.0
  0
SPLINE
  5
439
100
AcDbEntity
  8
RUNDUNGEN
100
AcDbSpline
 62
7
  6
CONTINUOUS
 70
0
 71
3
 72
11
 73
7
 74
0
 42
0.0000001
 43
0.0000001
 44
0.0000000001
 40
0.0
 40
0.0
 40
0.0
 40
0.0
 40
0.2571357893
 40
0.5101505746
 40
0.7572207807
 40
1.0
 40
1.0
 40
1.0
 40
1.0
 10
65.1217737459
 20
157.9238782072
 30
0.0
 10
65.1217734016
 20
157.9887631095
 30
0.0
 10
65.1457268664
 20
158.118780945
 30
0.0
 10
65.2491534722
 20
158.2848224794
 30
0.0
 10
65.4052869004
 20
158.3972569152
 30
0.0
 10
65.53035401
 20
158.4238787696
 30
0.0
 10
65.5916162168
 20
158.4238792597
 30
0.0
  0
SPLINE
  5
43A
100
AcDbEntity
  8
RUNDUNGEN
100
AcDbSpline
 62
7
  6
CONTINUOUS
 70
0
 71
3
 72
11
 73
7
 74
0
 42
0.0000001
 43
0.0000001
 44
0.0000000001
 40
0.0
 40
0.0
 40
0.0
 40
0.0
 40
0.2571360361
 40
0.5101512625
 40
0.7572214569
 40
1.0
 40
1.0
 40
1.0
 40
1.0
 10
65.121776635
 20
146.9238763253
 30
0.0
 10
65.1217770638
 20
146.8589915638
 30
0.0
 10
65.1457319213
 20
146.7289742498
 30
0.0
 10
65.2491598191
 20
146.5629341258
 30
0.0
 10
65.4052931935
 20
146.4505009166
 30
0.0
 10
65.530359797
 20
146.4238795602
 30
0.0
 10
65.5916216416
 20
146.4238792597
 30
0.0
  0
LINE
  5
43B
100
AcDbEntity
  8
RUNDUNGEN
100
AcDbLine
 62
7
  6
CONTINUOUS
 10
106.7016809964
 20
150.2604701664
 11
106.7016809964
 21
149.9238792597
  0
SPLINE
  5
43C
100
AcDbEntity
  8
RUNDUNGEN
100
AcDbSpline
 62
7
  6
CONTINUOUS
 70
0
 71
3
 72
9
 73
5
 74
0
 42
0.0000001
 43
0.0000001
 44
0.0000000001
 40
0.0
 40
0.0
 40
0.0
 40
0.0
 40
0.4999999972
 40
1.0
 40
1.0
 40
1.0
 40
1.0
 10
106.7016809964
 20
154.587288353
 30
0.0
 10
106.7696173228
 20
153.8685965532
 30
0.0
 10
106.8323435235
 20
152.4238792622
 30
0.0
 10
106.7696172925
 20
150.9791619771
 30
0.0
 10
106.7016809964
 20
150.2604701664
 30
0.0
  0
SPLINE
  5
43D
100
AcDbEntity
  8
RUNDUNGEN
100
AcDbSpline
 62
7
  6
CONTINUOUS
 70
0
 71
3
 72
13
 73
9
 74
0
 42
0.0000001
 43
0.0000001
 44
0.0000000001
 40
0.0
 40
0.0
 40
0.0
 40
0.0
 40
0.2732375467
 40
0.5424010804
 40
0.6723707554
 40
0.7956221298
 40
0.9073099608
 40
1.0
 40
1.0
 40
1.0
 40
1.0
 10
63.0455850994
 20
146.4238866081
 30
0.0
 10
63.2417800268
 20
146.4238629703
 30
0.0
 10
63.6317139172
 20
146.4510086071
 30
0.0
 10
64.1061108866
 20
146.5467991596
 30
0.0
 10
64.4664760798
 20
146.6512880346
 30
0.0
 10
64.714283801
 20
146.7368880984
 30
0.0
 10
64.9322196351
 20
146.8254995224
 30
0.0
 10
65.064597982
 20
146.889744418
 30
0.0
 10
65.1217478245
 20
146.9238539329
 30
0.0
  0
SPLINE
  5
43E
100
AcDbEntity
  8
RUNDUNGEN
100
AcDbSpline
 62
7
  6
CONTINUOUS
 70
0
 71
3
 72
13
 73
9
 74
0
 42
0.0000001
 43
0.0000001
 44
0.0000000001
 40
0.0
 40
0.0
 40
0.0
 40
0.0
 40
0.0926895806
 40
0.2043753936
 40
0.3276270562
 40
0.4575969707
 40
0.7267592779
 40
1.0
 40
1.0
 40
1.0
 40
1.0
 10
65.1217626304
 20
157.9238807463
 30
0.0
 10
65.0646132955
 20
157.9579918072
 30
0.0
 10
64.9322480771
 20
158.0222621546
 30
0.0
 10
64.7143055187
 20
158.1108627905
 30
0.0
 10
64.4664933741
 20
158.1964528083
 30
0.0
 10
64.1061301341
 20
158.3009605233
 30
0.0
 10
63.6317252315
 20
158.3967490138
 30
0.0
 10
63.2417862486
 20
158.4238955718
 30
0.0
 10
63.0455870199
 20
158.4238714207
 30
0.0
  0
SPLINE
  5
43F
100
AcDbEntity
  8
RUNDUNGEN
100
AcDbSpline
 62
7
  6
CONTINUOUS
 70
0
 71
3
 72
12
 73
8
 74
0
 42
0.0000001
 43
0.0000001
 44
0.0000000001
 40
0.0
 40
0.0
 40
0.0
 40
0.0
 40
0.2724235057
 40
0.5385782557
 40
0.7882364706
 40
0.9010144553
 40
1.0
 40
1.0
 40
1.0
 40
1.0
 10
98.5257752562
 20
158.423869861
 30
0.0
 10
98.2769327951
 20
158.4238879786
 30
0.0
 10
97.7846260641
 20
158.4005848435
 30
0.0
 10
97.0709092218
 20
158.299118459
 30
0.0
 10
96.5111477817
 20
158.1663542876
 30
0.0
 10
96.1103427177
 20
158.035507637
 30
0.0
 10
95.9306534517
 20
157.9629602543
 30
0.0
 10
95.8491159744
 20
157.9238842545
 30
0.0
  0
SPLINE
  5
440
100
AcDbEntity
  8
RUNDUNGEN
100
AcDbSpline
 62
7
  6
CONTINUOUS
 70
0
 71
3
 72
12
 73
8
 74
0
 42
0.0000001
 43
0.0000001
 44
0.0000000001
 40
0.0
 40
0.0
 40
0.0
 40
0.0
 40
0.0989848547
 40
0.2117627044
 40
0.4614199243
 40
0.7275766439
 40
1.0
 40
1.0
 40
1.0
 40
1.0
 10
95.8491109869
 20
146.923877246
 30
0.0
 10
95.9306483964
 20
146.8848021619
 30
0.0
 10
96.1103367941
 20
146.8122538889
 30
0.0
 10
96.5111410556
 20
146.68140721
 30
0.0
 10
97.0709040777
 20
146.5486422911
 30
0.0
 10
97.7846225806
 20
146.4471714564
 30
0.0
 10
98.2769319473
 20
146.4238696792
 30
0.0
 10
98.525774749
 20
146.4238862259
 30
0.0
  0
SPLINE
  5
441
100
AcDbEntity
  8
RUNDUNGEN
100
AcDbSpline
 62
7
  6
CONTINUOUS
 70
0
 71
3
 72
11
 73
7
 74
0
 42
0.0000001
 43
0.0000001
 44
0.0000000001
 40
0.0
 40
0.0
 40
0.0
 40
0.0
 40
0.2770429694
 40
0.540610625
 40
0.7812962716
 40
1.0
 40
1.0
 40
1.0
 40
1.0
 10
73.4826994763
 20
146.9238792597
 30
0.0
 10
73.4826964473
 20
146.8672948057
 30
0.0
 10
73.4966335621
 20
146.7563189128
 30
0.0
 10
73.5579818112
 20
146.6068029918
 30
0.0
 10
73.6540083392
 20
146.4910875501
 30
0.0
 10
73.7395198223
 20
146.4450772843
 30
0.0
 10
73.7826766226
 20
146.4335529743
 30
0.0
  0
SPLINE
  5
442
100
AcDbEntity
  8
RUNDUNGEN
100
AcDbSpline
 62
7
  6
CONTINUOUS
 70
0
 71
3
 72
8
 73
4
 74
0
 42
0.0000001
 43
0.0000001
 44
0.0000000001
 40
0.0
 40
0.0
 40
0.0
 40
0.0
 40
1.0
 40
1.0
 40
1.0
 40
1.0
 10
73.7826766226
 20
146.4335529743
 30
0.0
 10
73.8062962132
 20
146.4272457532
 30
0.0
 10
73.830930266
 20
146.4238792597
 30
0.0
 10
73.8553774764
 20
146.4238792597
 30
0.0
  0
SPLINE
  5
443
100
AcDbEntity
  8
RUNDUNGEN
100
AcDbSpline
 62
7
  6
CONTINUOUS
 70
0
 71
3
 72
11
 73
7
 74
0
 42
0.0000001
 43
0.0000001
 44
0.0000000001
 40
0.0
 40
0.0
 40
0.0
 40
0.0
 40
0.2571361857
 40
0.5101514665
 40
0.7572215914
 40
1.0
 40
1.0
 40
1.0
 40
1.0
 10
73.0940262194
 20
146.9238792597
 30
0.0
 10
73.0940262194
 20
146.8589940779
 30
0.0
 10
73.1179805284
 20
146.7289757699
 30
0.0
 10
73.2214086011
 20
146.5629342805
 30
0.0
 10
73.3775429155
 20
146.4505003688
 30
0.0
 10
73.5026103581
 20
146.4238792597
 30
0.0
 10
73.5638725298
 20
146.4238792597
 30
0.0
  0
SPLINE
  5
444
100
AcDbEntity
  8
RUNDUNGEN
100
AcDbSpline
 62
7
  6
CONTINUOUS
 70
0
 71
3
 72
11
 73
7
 74
0
 42
0.0000001
 43
0.0000001
 44
0.0000000001
 40
0.0
 40
0.0
 40
0.0
 40
0.0
 40
0.2938652625
 40
0.5642245621
 40
0.7973295733
 40
1.0
 40
1.0
 40
1.0
 40
1.0
 10
245.7675060801
 20
157.9238792597
 30
0.0
 10
245.7675060802
 20
157.9882181741
 30
0.0
 10
245.7517944218
 20
158.1124647017
 30
0.0
 10
245.6826685286
 20
158.2754361995
 30
0.0
 10
245.5749332887
 20
158.3924420485
 30
0.0
 10
245.4785454468
 20
158.4238792597
 30
0.0
 10
245.4341727464
 20
158.4238792597
 30
0.0
  0
SPLINE
  5
445
100
AcDbEntity
  8
RUNDUNGEN
100
AcDbSpline
 62
7
  6
CONTINUOUS
 70
0
 71
3
 72
14
 73
10
 74
0
 42
0.0000001
 43
0.0000001
 44
0.0000000001
 40
0.0
 40
0.0
 40
0.0
 40
0.0
 40
0.3436085073
 40
0.5011161115
 40
0.6420459864
 40
0.7626653881
 40
0.8610174874
 40
0.9379018212
 40
1.0
 40
1.0
 40
1.0
 40
1.0
 10
245.1182130331
 20
157.9238792597
 30
0.0
 10
245.1182130331
 20
157.987807261
 30
0.0
 10
245.1123461969
 20
158.0812678289
 30
0.0
 10
245.0912810908
 20
158.1989535271
 30
0.0
 10
245.0706842987
 20
158.2742867033
 30
0.0
 10
245.0455981621
 20
158.3365910434
 30
0.0
 10
245.016857682
 20
158.3839239863
 30
0.0
 10
244.9846590748
 20
158.4152751816
 30
0.0
 10
244.9587562623
 20
158.4238792597
 30
0.0
 10
244.9472029614
 20
158.4238792597
 30
0.0
  0
SPLINE
  5
446
100
AcDbEntity
  8
RUNDUNGEN
100
AcDbSpline
 62
7
  6
CONTINUOUS
 70
0
 71
3
 72
14
 73
10
 74
0
 42
0.0000001
 43
0.0000001
 44
0.0000000001
 40
0.0
 40
0.0
 40
0.0
 40
0.0
 40
0.3436084528
 40
0.5011163595
 40
0.6420467654
 40
0.7626667288
 40
0.861019163
 40
0.937903251
 40
1.0
 40
1.0
 40
1.0
 40
1.0
 10
223.2146293801
 20
157.9238782072
 30
0.0
 10
223.2146288414
 20
157.9878060316
 30
0.0
 10
223.2087613936
 20
158.0812663543
 30
0.0
 10
223.1876955315
 20
158.1989517474
 30
0.0
 10
223.1670984201
 20
158.2742848818
 30
0.0
 10
223.1420124311
 20
158.3365893526
 30
0.0
 10
223.1132724729
 20
158.3839225593
 30
0.0
 10
223.0810749042
 20
158.4152741512
 30
0.0
 10
223.0551727538
 20
158.4238790057
 30
0.0
 10
223.0436197491
 20
158.4238792597
 30
0.0
  0
SPLINE
  5
447
100
AcDbEntity
  8
RUNDUNGEN
100
AcDbSpline
 62
7
  6
CONTINUOUS
 70
0
 71
3
 72
14
 73
10
 74
0
 42
0.0000001
 43
0.0000001
 44
0.0000000001
 40
0.0
 40
0.0
 40
0.0
 40
0.0
 40
0.3436087614
 40
0.501116348
 40
0.6420461956
 40
0.7626655997
 40
0.861017731
 40
0.9379020557
 40
1.0
 40
1.0
 40
1.0
 40
1.0
 10
223.2146373177
 20
146.9238763253
 30
0.0
 10
223.2146373815
 20
146.8599488093
 30
0.0
 10
223.2087707277
 20
146.7664889726
 30
0.0
 10
223.1877060465
 20
146.6488041721
 30
0.0
 10
223.167109643
 20
146.5734715746
 30
0.0
 10
223.1420239619
 20
146.5111676577
 30
0.0
 10
223.1132839862
 20
146.4638349491
 30
0.0
 10
223.0810859802
 20
146.4324837718
 30
0.0
 10
223.0551835639
 20
146.4238794154
 30
0.0
 10
223.0436304029
 20
146.4238792597
 30
0.0
  0
SPLINE
  5
448
100
AcDbEntity
  8
RUNDUNGEN
100
AcDbSpline
 62
7
  6
CONTINUOUS
 70
0
 71
3
 72
14
 73
10
 74
0
 42
0.0000001
 43
0.0000001
 44
0.0000000001
 40
0.0
 40
0.0
 40
0.0
 40
0.0
 40
0.3436085044
 40
0.5011161098
 40
0.6420459874
 40
0.7626653901
 40
0.8610174894
 40
0.9379018219
 40
1.0
 40
1.0
 40
1.0
 40
1.0
 10
245.1182130331
 20
146.9238792597
 30
0.0
 10
245.1182130331
 20
146.8599512589
 30
0.0
 10
245.1123461972
 20
146.7664906912
 30
0.0
 10
245.0912810907
 20
146.6488049929
 30
0.0
 10
245.0706842987
 20
146.5734718157
 30
0.0
 10
245.0455981614
 20
146.511167475
 30
0.0
 10
245.0168576814
 20
146.4638345323
 30
0.0
 10
244.9846590745
 20
146.4324833369
 30
0.0
 10
244.9587562621
 20
146.4238792597
 30
0.0
 10
244.9472029614
 20
146.4238792597
 30
0.0
  0
SPLINE
  5
449
100
AcDbEntity
  8
RUNDUNGEN
100
AcDbSpline
 62
7
  6
CONTINUOUS
 70
0
 71
3
 72
11
 73
7
 74
0
 42
0.0000001
 43
0.0000001
 44
0.0000000001
 40
0.0
 40
0.0
 40
0.0
 40
0.0
 40
0.2938707601
 40
0.5642354769
 40
0.7973401006
 40
1.0
 40
1.0
 40
1.0
 40
1.0
 10
245.7675060801
 20
146.9238792597
 30
0.0
 10
245.7675022295
 20
146.859539962
 30
0.0
 10
245.7517847016
 20
146.7352936769
 30
0.0
 10
245.6826560248
 20
146.5723239407
 30
0.0
 10
245.574926084
 20
146.4553187363
 30
0.0
 10
245.478542581
 20
146.4238792597
 30
0.0
 10
245.4341727512
 20
146.4238792597
 30
0.0
  0
SPLINE
  5
44A
100
AcDbEntity
  8
RUNDUNGEN
100
AcDbSpline
 62
7
  6
CONTINUOUS
 70
0
 71
3
 72
11
 73
7
 74
0
 42
0.0000001
 43
0.0000001
 44
0.0000000001
 40
0.0
 40
0.0
 40
0.0
 40
0.0
 40
0.2772443234
 40
0.5290371274
 40
0.7673486688
 40
1.0
 40
1.0
 40
1.0
 40
1.0
 10
223.2146208168
 20
157.9238807463
 30
0.0
 10
222.9588752511
 20
157.979439247
 30
0.0
 10
222.4741028024
 20
158.0997433434
 30
0.0
 10
221.7713879221
 20
158.2758192089
 30
0.0
 10
221.0987855015
 20
158.3956443911
 30
0.0
 10
220.6537829723
 20
158.4238957178
 30
0.0
 10
220.4341666993
 20
158.4238714207
 30
0.0
  0
SPLINE
  5
44B
100
AcDbEntity
  8
RUNDUNGEN
100
AcDbSpline
 62
7
  6
CONTINUOUS
 70
0
 71
3
 72
11
 73
7
 74
0
 42
0.0000001
 43
0.0000001
 44
0.0000000001
 40
0.0
 40
0.0
 40
0.0
 40
0.0
 40
0.232653477
 40
0.4709641149
 40
0.7227572591
 40
1.0
 40
1.0
 40
1.0
 40
1.0
 10
220.4341645883
 20
146.4238866081
 30
0.0
 10
220.6537789161
 20
146.4238628311
 30
0.0
 10
221.098774375
 20
146.4521141503
 30
0.0
 10
221.7713670383
 20
146.5719326889
 30
0.0
 10
222.4740659641
 20
146.7480102906
 30
0.0
 10
222.9588310053
 20
146.8683020503
 30
0.0
 10
223.2145716378
 20
146.9238539329
 30
0.0
  0
SPLINE
  5
44C
100
AcDbEntity
  8
RUNDUNGEN
100
AcDbSpline
 62
7
  6
CONTINUOUS
 70
0
 71
3
 72
11
 73
7
 74
0
 42
0.0000001
 43
0.0000001
 44
0.0000000001
 40
0.0
 40
0.0
 40
0.0
 40
0.0
 40
0.194211587
 40
0.4127979504
 40
0.676156338
 40
1.0
 40
1.0
 40
1.0
 40
1.0
 10
246.4341727464
 20
157.4238792597
 30
0.0
 10
246.434099446
 20
157.4831306337
 30
0.0
 10
246.4025017944
 20
157.6105238946
 30
0.0
 10
246.266871126
 20
157.7733540698
 30
0.0
 10
246.0473245796
 20
157.8942017864
 30
0.0
 10
245.8663065524
 20
157.923873951
 30
0.0
 10
245.7675060798
 20
157.9238792597
 30
0.0
  0
SPLINE
  5
44D
100
AcDbEntity
  8
RUNDUNGEN
100
AcDbSpline
 62
7
  6
CONTINUOUS
 70
0
 71
3
 72
11
 73
7
 74
0
 42
0.0000001
 43
0.0000001
 44
0.0000000001
 40
0.0
 40
0.0
 40
0.0
 40
0.0
 40
0.3238415625
 40
0.5871984514
 40
0.8057855586
 40
1.0
 40
1.0
 40
1.0
 40
1.0
 10
245.7675060798
 20
146.9238792597
 30
0.0
 10
245.8663061073
 20
146.9238622032
 30
0.0
 10
246.0473226097
 20
146.9535696155
 30
0.0
 10
246.266870497
 20
147.0743970263
 30
0.0
 10
246.4025111238
 20
147.2372325259
 30
0.0
 10
246.4340850647
 20
147.3646269164
 30
0.0
 10
246.4341727464
 20
147.4238792597
 30
0.0
  0
LINE
  5
44E
100
AcDbEntity
  8
RUNDUNGEN
100
AcDbLine
 62
7
  6
CONTINUOUS
 10
148.2016809964
 20
71.1537358568
 11
147.7016809964
 21
71.2313639112
  0
SPLINE
  5
44F
100
AcDbEntity
  8
RUNDUNGEN
100
AcDbSpline
 62
7
  6
CONTINUOUS
 70
0
 71
3
 72
8
 73
4
 74
0
 42
0.0000001
 43
0.0000001
 44
0.0000000001
 40
0.0
 40
0.0
 40
0.0
 40
0.0
 40
1.0
 40
1.0
 40
1.0
 40
1.0
 10
126.2016809964
 20
84.6896342417
 30
0.0
 10
126.201682365
 20
84.926324566
 30
0.0
 10
126.2252841884
 20
85.1634701427
 30
0.0
 10
126.2640946117
 20
85.396956889
 30
0.0
  0
LINE
  5
450
100
AcDbEntity
  8
RUNDUNGEN
100
AcDbLine
 62
7
  6
CONTINUOUS
 10
134.7016809964
 20
88.1537358568
 11
134.2016809964
 21
88.0655723665
  0
LINE
  5
451
100
AcDbEntity
  8
RUNDUNGEN
100
AcDbLine
 62
7
  6
CONTINUOUS
 10
107.1677673626
 20
94.1537039123
 11
109.1695921102
 21
88.1537358568
  0
LINE
  5
452
100
AcDbEntity
  8
RUNDUNGEN
100
AcDbLine
 62
7
  6
CONTINUOUS
 10
93.4402072393
 20
94.153735846
 11
91.2180630277
 21
88.1537358568
  0
SPLINE
  5
453
100
AcDbEntity
  8
RUNDUNGEN
100
AcDbSpline
 62
7
  6
CONTINUOUS
 70
0
 71
3
 72
9
 73
5
 74
0
 42
0.0000001
 43
0.0000001
 44
0.0000000001
 40
0.0
 40
0.0
 40
0.0
 40
0.0
 40
0.2500174705
 40
1.0
 40
1.0
 40
1.0
 40
1.0
 10
126.5021851776
 20
86.3591668548
 30
0.0
 10
126.5506883271
 20
86.512230436
 30
0.0
 10
126.7602331953
 20
87.1195796205
 30
0.0
 10
127.0127508318
 20
87.7106881197
 30
0.0
 10
127.2016809964
 20
88.1537358568
 30
0.0
  0
LINE
  5
454
100
AcDbEntity
  8
RUNDUNGEN
100
AcDbLine
 62
7
  6
CONTINUOUS
 10
131.7016809964
 20
82.1537358568
 11
132.2016809964
 21
82.2195621056
  0
LINE
  5
455
100
AcDbEntity
  8
RUNDUNGEN
100
AcDbLine
 62
7
  6
CONTINUOUS
 10
132.1677673626
 20
94.1537039123
 11
134.1695921102
 21
88.1537358568
  0
SPLINE
  5
456
100
AcDbEntity
  8
RUNDUNGEN
100
AcDbSpline
 62
7
  6
CONTINUOUS
 70
0
 71
3
 72
11
 73
7
 74
0
 42
0.0000001
 43
0.0000001
 44
0.0000000001
 40
0.0
 40
0.0
 40
0.0
 40
0.0
 40
0.2501660579
 40
0.5002955244
 40
0.750308392
 40
1.0
 40
1.0
 40
1.0
 40
1.0
 10
98.5257752564
 20
88.1537358568
 30
0.0
 10
98.2224368644
 20
87.8748603445
 30
0.0
 10
97.6155498303
 20
87.3174631728
 30
0.0
 10
96.7421930223
 20
86.4415307767
 30
0.0
 10
95.9553334379
 20
85.4868321408
 30
0.0
 10
95.5395759472
 20
84.7668428282
 30
0.0
 10
95.3855153771
 20
84.3855192492
 30
0.0
  0
SPLINE
  5
457
100
AcDbEntity
  8
RUNDUNGEN
100
AcDbSpline
 62
7
  6
CONTINUOUS
 70
0
 71
3
 72
11
 73
7
 74
0
 42
0.0000001
 43
0.0000001
 44
0.0000000001
 40
0.0
 40
0.0
 40
0.0
 40
0.0
 40
0.2496791392
 40
0.4996897961
 40
0.7498347971
 40
1.0
 40
1.0
 40
1.0
 40
1.0
 10
65.5916162172
 20
80.5442888547
 30
0.0
 10
65.4863232895
 20
80.8336255178
 30
0.0
 10
65.1712821856
 20
81.3759766947
 30
0.0
 10
64.5303091281
 20
82.0479484254
 30
0.0
 10
63.8048530084
 20
82.624763157
 30
0.0
 10
63.2987626379
 20
82.9776521451
 30
0.0
 10
63.0455065101
 20
83.1538143196
 30
0.0
  0
LINE
  5
458
100
AcDbEntity
  8
RUNDUNGEN
100
AcDbLine
 62
7
  6
CONTINUOUS
 10
123.2016809964
 20
69.0915580303
 11
122.7016809964
 21
69.1573842791
  0
LINE
  5
459
100
AcDbEntity
  8
RUNDUNGEN
100
AcDbLine
 62
7
  6
CONTINUOUS
 10
148.7016809964
 20
88.1537358568
 11
149.2016809964
 21
88.0655723665
  0
LINE
  5
45A
100
AcDbEntity
  8
RUNDUNGEN
100
AcDbLine
 62
7
  6
CONTINUOUS
 10
123.7016809964
 20
88.1537358568
 11
124.2016809964
 21
88.0655723665
  0
LINE
  5
45B
100
AcDbEntity
  8
RUNDUNGEN
100
AcDbLine
 62
7
  6
CONTINUOUS
 10
151.7016809964
 20
82.1537358568
 11
151.2016809964
 21
82.2313639112
  0
SPLINE
  5
45C
100
AcDbEntity
  8
RUNDUNGEN
100
AcDbSpline
 62
7
  6
CONTINUOUS
 70
0
 71
3
 72
9
 73
5
 74
0
 42
0.0000001
 43
0.0000001
 44
0.0000000001
 40
0.0
 40
0.0
 40
0.0
 40
0.0
 40
0.4999690171
 40
1.0
 40
1.0
 40
1.0
 40
1.0
 10
131.9011748093
 20
86.3591765621
 30
0.0
 10
131.8041916959
 20
86.6653012382
 30
0.0
 10
131.5794816515
 20
87.2677704542
 30
0.0
 10
131.3275813503
 20
87.8585324769
 30
0.0
 10
131.20159164
 20
88.1539477725
 30
0.0
  0
SPLINE
  5
45D
100
AcDbEntity
  8
RUNDUNGEN
100
AcDbSpline
 62
7
  6
CONTINUOUS
 70
0
 71
3
 72
14
 73
10
 74
0
 42
0.0000001
 43
0.0000001
 44
0.0000000001
 40
0.0
 40
0.0
 40
0.0
 40
0.0
 40
0.1251031686
 40
0.2499884899
 40
0.3749138721
 40
0.5000317061
 40
0.7500272056
 40
0.8749052456
 40
1.0
 40
1.0
 40
1.0
 40
1.0
 10
140.2721378002
 20
73.7912358568
 30
0.0
 10
140.3907857841
 20
73.8070607865
 30
0.0
 10
140.6275354484
 20
73.8413033633
 30
0.0
 10
140.9845317736
 20
73.8776939195
 30
0.0
 10
141.3427456936
 20
73.898692095
 30
0.0
 10
141.8211671832
 20
73.90870473
 30
0.0
 10
142.2998038944
 20
73.8892093073
 30
0.0
 10
142.7758393572
 20
73.8414822464
 30
0.0
 10
143.012994862
 20
73.8098817851
 30
0.0
 10
143.1312241927
 20
73.7912358568
 30
0.0
  0
LINE
  5
45E
100
AcDbEntity
  8
RUNDUNGEN
100
AcDbLine
 62
7
  6
CONTINUOUS
 10
135.2016809964
 20
69.0915580303
 11
135.7016809964
 21
69.1573842791
  0
LINE
  5
45F
100
AcDbEntity
  8
RUNDUNGEN
100
AcDbLine
 62
7
  6
CONTINUOUS
 10
126.7016809964
 20
82.1537358568
 11
126.2016809964
 21
82.2195621056
  0
LINE
  5
460
100
AcDbEntity
  8
RUNDUNGEN
100
AcDbLine
 62
7
  6
CONTINUOUS
 10
127.1846439096
 20
82.4958193745
 11
127.0853444901
 21
82.1537358565
  0
LINE
  5
461
100
AcDbEntity
  8
RUNDUNGEN
100
AcDbLine
 62
7
  6
CONTINUOUS
 10
131.2187180833
 20
82.4958193745
 11
131.3180175024
 21
82.1537358568
  0
LINE
  5
462
100
AcDbEntity
  8
RUNDUNGEN
100
AcDbLine
 62
7
  6
CONTINUOUS
 10
110.2016809964
 20
69.0915580303
 11
110.7016809964
 21
69.1573842791
  0
LINE
  5
463
100
AcDbEntity
  8
RUNDUNGEN
100
AcDbLine
 62
7
  6
CONTINUOUS
 10
152.1781438864
 20
82.4753341689
 11
152.0672899261
 21
82.1537358647
  0
LINE
  5
464
100
AcDbEntity
  8
RUNDUNGEN
100
AcDbLine
 62
7
  6
CONTINUOUS
 10
98.5257752949
 20
88.1537358568
 11
95.6975814468
 21
82.1537358407
  0
LINE
  5
465
100
AcDbEntity
  8
RUNDUNGEN
100
AcDbLine
 62
7
  6
CONTINUOUS
 10
106.2187180833
 20
82.4958193745
 11
106.3180175024
 21
82.1537358568
  0
SPLINE
  5
466
100
AcDbEntity
  8
RUNDUNGEN
100
AcDbSpline
 62
7
  6
CONTINUOUS
 70
0
 71
3
 72
14
 73
10
 74
0
 42
0.0000001
 43
0.0000001
 44
0.0000000001
 40
0.0
 40
0.0
 40
0.0
 40
0.0
 40
0.1251031686
 40
0.2499884899
 40
0.3749138721
 40
0.5000317061
 40
0.7500272056
 40
0.8749052456
 40
1.0
 40
1.0
 40
1.0
 40
1.0
 10
115.2721378002
 20
73.7912358568
 30
0.0
 10
115.3907857841
 20
73.8070607865
 30
0.0
 10
115.6275354484
 20
73.8413033633
 30
0.0
 10
115.9845317736
 20
73.8776939195
 30
0.0
 10
116.3427456936
 20
73.898692095
 30
0.0
 10
116.8211671832
 20
73.90870473
 30
0.0
 10
117.2998038944
 20
73.8892093073
 30
0.0
 10
117.7758393572
 20
73.8414822464
 30
0.0
 10
118.012994862
 20
73.8098817851
 30
0.0
 10
118.1312241927
 20
73.7912358568
 30
0.0
  0
SPLINE
  5
467
100
AcDbEntity
  8
RUNDUNGEN
100
AcDbSpline
 62
7
  6
CONTINUOUS
 70
0
 71
3
 72
9
 73
5
 74
0
 42
0.0000001
 43
0.0000001
 44
0.0000000001
 40
0.0
 40
0.0
 40
0.0
 40
0.0
 40
0.2500174705
 40
1.0
 40
1.0
 40
1.0
 40
1.0
 10
151.5021851776
 20
86.3591668548
 30
0.0
 10
151.5506883271
 20
86.512230436
 30
0.0
 10
151.7602331953
 20
87.1195796205
 30
0.0
 10
152.0127508318
 20
87.7106881197
 30
0.0
 10
152.2016809964
 20
88.1537358568
 30
0.0
  0
LINE
  5
468
100
AcDbEntity
  8
RUNDUNGEN
100
AcDbLine
 62
7
  6
CONTINUOUS
 10
124.2337698827
 20
88.1537358568
 11
126.2355946155
 21
94.1537038824
  0
LINE
  5
469
100
AcDbEntity
  8
RUNDUNGEN
100
AcDbLine
 62
7
  6
CONTINUOUS
 10
149.2337698827
 20
88.1537358568
 11
151.2355946155
 21
94.1537038824
  0
SPLINE
  5
46A
100
AcDbEntity
  8
RUNDUNGEN
100
AcDbSpline
 62
7
  6
CONTINUOUS
 70
0
 71
3
 72
11
 73
7
 74
0
 42
0.0000001
 43
0.0000001
 44
0.0000000001
 40
0.0
 40
0.0
 40
0.0
 40
0.0
 40
0.2673389496
 40
0.522334142
 40
0.7647970759
 40
1.0
 40
1.0
 40
1.0
 40
1.0
 10
144.099541612
 20
58.1536914256
 30
0.0
 10
143.9215593938
 20
57.9981947808
 30
0.0
 10
143.5526500126
 20
57.7172918647
 30
0.0
 10
142.9540698698
 20
57.3959267543
 30
0.0
 10
142.3331048153
 20
57.1983168636
 30
0.0
 10
141.9096117848
 20
57.1537582427
 30
0.0
 10
141.7016809964
 20
57.1537358568
 30
0.0
  0
SPLINE
  5
46B
100
AcDbEntity
  8
RUNDUNGEN
100
AcDbSpline
 62
7
  6
CONTINUOUS
 70
0
 71
3
 72
11
 73
7
 74
0
 42
0.0000001
 43
0.0000001
 44
0.0000000001
 40
0.0
 40
0.0
 40
0.0
 40
0.0
 40
0.267338577
 40
0.522334094
 40
0.7647972326
 40
1.0
 40
1.0
 40
1.0
 40
1.0
 10
139.3037778566
 20
58.1537256868
 30
0.0
 10
139.4817566105
 20
57.9982182361
 30
0.0
 10
139.8506810456
 20
57.7173182197
 30
0.0
 10
140.4492667558
 20
57.3959364748
 30
0.0
 10
141.0702445056
 20
57.1983188157
 30
0.0
 10
141.493746097
 20
57.1537586158
 30
0.0
 10
141.7016809964
 20
57.1537358568
 30
0.0
  0
SPLINE
  5
46C
100
AcDbEntity
  8
RUNDUNGEN
100
AcDbSpline
 62
7
  6
CONTINUOUS
 70
0
 71
3
 72
11
 73
7
 74
0
 42
0.0000001
 43
0.0000001
 44
0.0000000001
 40
0.0
 40
0.0
 40
0.0
 40
0.0
 40
0.2673389496
 40
0.522334142
 40
0.7647970759
 40
1.0
 40
1.0
 40
1.0
 40
1.0
 10
119.099541612
 20
58.1536914256
 30
0.0
 10
118.9215593938
 20
57.9981947808
 30
0.0
 10
118.5526500126
 20
57.7172918647
 30
0.0
 10
117.9540698698
 20
57.3959267543
 30
0.0
 10
117.3331048153
 20
57.1983168636
 30
0.0
 10
116.9096117848
 20
57.1537582427
 30
0.0
 10
116.7016809964
 20
57.1537358568
 30
0.0
  0
SPLINE
  5
46D
100
AcDbEntity
  8
RUNDUNGEN
100
AcDbSpline
 62
7
  6
CONTINUOUS
 70
0
 71
3
 72
11
 73
7
 74
0
 42
0.0000001
 43
0.0000001
 44
0.0000000001
 40
0.0
 40
0.0
 40
0.0
 40
0.0
 40
0.267338577
 40
0.522334094
 40
0.7647972326
 40
1.0
 40
1.0
 40
1.0
 40
1.0
 10
114.3037778566
 20
58.1537256868
 30
0.0
 10
114.4817566105
 20
57.9982182361
 30
0.0
 10
114.8506810456
 20
57.7173182197
 30
0.0
 10
115.4492667558
 20
57.3959364748
 30
0.0
 10
116.0702445056
 20
57.1983188157
 30
0.0
 10
116.493746097
 20
57.1537586158
 30
0.0
 10
116.7016809964
 20
57.1537358568
 30
0.0
  0
SPLINE
  5
46E
100
AcDbEntity
  8
RUNDUNGEN
100
AcDbSpline
 62
7
  6
CONTINUOUS
 70
0
 71
3
 72
12
 73
8
 74
0
 42
0.0000001
 43
0.0000001
 44
0.0000000001
 40
0.0
 40
0.0
 40
0.0
 40
0.0
 40
0.2991899103
 40
0.5663920666
 40
0.7952327401
 40
0.8993006089
 40
1.0
 40
1.0
 40
1.0
 40
1.0
 10
84.6914454497
 20
58.1537358568
 30
0.0
 10
84.6271168032
 20
58.0100155641
 30
0.0
 10
84.4855810544
 20
57.7457792649
 30
0.0
 10
84.2180353958
 20
57.4196172692
 30
0.0
 10
83.9528925536
 20
57.2362484076
 30
0.0
 10
83.7344920579
 20
57.1653884857
 30
0.0
 10
83.6264083567
 20
57.153774715
 30
0.0
 10
83.573411461
 20
57.1537358568
 30
0.0
  0
SPLINE
  5
46F
100
AcDbEntity
  8
RUNDUNGEN
100
AcDbSpline
 62
7
  6
CONTINUOUS
 70
0
 71
3
 72
12
 73
8
 74
0
 42
0.0000001
 43
0.0000001
 44
0.0000000001
 40
0.0
 40
0.0
 40
0.0
 40
0.0
 40
0.1006975846
 40
0.2047678548
 40
0.4336084039
 40
0.7008098045
 40
1.0
 40
1.0
 40
1.0
 40
1.0
 10
74.973411461
 20
57.1537358568
 30
0.0
 10
74.9204155198
 20
57.153773709
 30
0.0
 10
74.8123315034
 20
57.165388867
 30
0.0
 10
74.5939309484
 20
57.2362485721
 30
0.0
 10
74.3287865512
 20
57.4196171284
 30
0.0
 10
74.0612434988
 20
57.7457802448
 30
0.0
 10
73.9197030078
 20
58.010014022
 30
0.0
 10
73.8553774722
 20
58.1537358568
 30
0.0
  0
SPLINE
  5
470
100
AcDbEntity
  8
RUNDUNGEN
100
AcDbSpline
 62
7
  6
CONTINUOUS
 70
0
 71
3
 72
11
 73
7
 74
0
 42
0.0000001
 43
0.0000001
 44
0.0000000001
 40
0.0
 40
0.0
 40
0.0
 40
0.0
 40
0.259163346
 40
0.5130566908
 40
0.7593046633
 40
1.0
 40
1.0
 40
1.0
 40
1.0
 10
106.2016809964
 20
82.6152743181
 30
0.0
 10
106.2665277743
 20
82.6152743181
 30
0.0
 10
106.39615185
 20
82.5918715132
 30
0.0
 10
106.5621186587
 20
82.4905971931
 30
0.0
 10
106.6748728785
 20
82.337268984
 30
0.0
 10
106.7016809964
 20
82.2139616461
 30
0.0
 10
106.7016809964
 20
82.1537358569
 30
0.0
  0
SPLINE
  5
471
100
AcDbEntity
  8
RUNDUNGEN
100
AcDbSpline
 62
7
  6
CONTINUOUS
 70
0
 71
3
 72
10
 73
6
 74
0
 42
0.0000001
 43
0.0000001
 44
0.0000000001
 40
0.0
 40
0.0
 40
0.0
 40
0.0
 40
0.5000630689
 40
0.7500748673
 40
1.0
 40
1.0
 40
1.0
 40
1.0
 10
106.2016809964
 20
88.1537358568
 30
0.0
 10
106.3198837359
 20
87.7442695562
 30
0.0
 10
106.4981974609
 20
87.1296033051
 30
0.0
 10
106.6627476777
 20
86.2928068102
 30
0.0
 10
106.7016809964
 20
85.8667381934
 30
0.0
 10
106.7016809964
 20
85.6537358568
 30
0.0
  0
SPLINE
  5
472
100
AcDbEntity
  8
RUNDUNGEN
100
AcDbSpline
 62
7
  6
CONTINUOUS
 70
0
 71
3
 72
12
 73
8
 74
0
 42
0.0000001
 43
0.0000001
 44
0.0000000001
 40
0.0
 40
0.0
 40
0.0
 40
0.0
 40
0.2516133088
 40
0.502408592
 40
0.7518392182
 40
0.876058189
 40
1.0
 40
1.0
 40
1.0
 40
1.0
 10
98.5257752562
 20
88.1537358566
 30
0.0
 10
98.2761881884
 20
87.8389215427
 30
0.0
 10
97.7775423587
 20
87.2104905095
 30
0.0
 10
97.0513453604
 20
86.2545467938
 30
0.0
 10
96.4879237039
 20
85.4304937375
 30
0.0
 10
96.0929553363
 20
84.7406142365
 30
0.0
 10
95.9232488931
 20
84.381725161
 30
0.0
 10
95.8491159744
 20
84.1982384336
 30
0.0
  0
LINE
  5
473
100
AcDbEntity
  8
RUNDUNGEN
100
AcDbLine
 62
7
  6
CONTINUOUS
 10
109.7016809964
 20
88.1537358568
 11
109.2016809964
 21
88.0655723665
  0
SPLINE
  5
474
100
AcDbEntity
  8
RUNDUNGEN
100
AcDbSpline
 62
7
  6
CONTINUOUS
 70
0
 71
3
 72
11
 73
7
 74
0
 42
0.0000001
 43
0.0000001
 44
0.0000000001
 40
0.0
 40
0.0
 40
0.0
 40
0.0
 40
0.2473781448
 40
0.4960357358
 40
0.7470967107
 40
1.0
 40
1.0
 40
1.0
 40
1.0
 10
65.1217626304
 20
80.3732877865
 30
0.0
 10
65.0234450962
 20
80.6434176623
 30
0.0
 10
64.7369496413
 20
81.1512748394
 30
0.0
 10
64.2059711524
 20
81.8379455201
 30
0.0
 10
63.6333914794
 20
82.4995810723
 30
0.0
 10
63.2420382707
 20
82.9351647847
 30
0.0
 10
63.0455870199
 20
83.1537419039
 30
0.0
  0
SPLINE
  5
475
100
AcDbEntity
  8
RUNDUNGEN
100
AcDbSpline
 62
7
  6
CONTINUOUS
 70
0
 71
3
 72
8
 73
4
 74
0
 42
0.0000001
 43
0.0000001
 44
0.0000000001
 40
0.0
 40
0.0
 40
0.0
 40
0.0
 40
1.0
 40
1.0
 40
1.0
 40
1.0
 10
151.2016809964
 20
84.6896342417
 30
0.0
 10
151.201682365
 20
84.926324566
 30
0.0
 10
151.2252841884
 20
85.1634701427
 30
0.0
 10
151.2640946117
 20
85.396956889
 30
0.0
  0
SPLINE
  5
476
100
AcDbEntity
  8
RUNDUNGEN
100
AcDbSpline
 62
7
  6
CONTINUOUS
 70
0
 71
3
 72
9
 73
5
 74
0
 42
0.0000001
 43
0.0000001
 44
0.0000000001
 40
0.0
 40
0.0
 40
0.0
 40
0.0
 40
0.4982031201
 40
1.0
 40
1.0
 40
1.0
 40
1.0
 10
126.7016809964
 20
84.6896342417
 30
0.0
 10
126.7016813698
 20
84.8666665934
 30
0.0
 10
126.7193902029
 20
85.2220194727
 30
0.0
 10
126.7580112549
 20
85.5753486182
 30
0.0
 10
126.7806546992
 20
85.7522143975
 30
0.0
  0
SPLINE
  5
477
100
AcDbEntity
  8
RUNDUNGEN
100
AcDbSpline
 62
7
  6
CONTINUOUS
 70
0
 71
3
 72
9
 73
5
 74
0
 42
0.0000001
 43
0.0000001
 44
0.0000000001
 40
0.0
 40
0.0
 40
0.0
 40
0.0
 40
0.4974266827
 40
1.0
 40
1.0
 40
1.0
 40
1.0
 10
126.7806546992
 20
85.7522143975
 30
0.0
 10
126.8319995838
 20
86.1532546264
 30
0.0
 10
126.9673905851
 20
86.9551998387
 30
0.0
 10
127.123333395
 20
87.752822653
 30
0.0
 10
127.2016809964
 20
88.1537358568
 30
0.0
  0
SPLINE
  5
478
100
AcDbEntity
  8
RUNDUNGEN
100
AcDbSpline
 62
7
  6
CONTINUOUS
 70
0
 71
3
 72
11
 73
7
 74
0
 42
0.0000001
 43
0.0000001
 44
0.0000000001
 40
0.0
 40
0.0
 40
0.0
 40
0.0
 40
0.2406953367
 40
0.4869433091
 40
0.7408366539
 40
1.0
 40
1.0
 40
1.0
 40
1.0
 10
126.7016809964
 20
82.153735857
 30
0.0
 10
126.7016809965
 20
82.2139616461
 30
0.0
 10
126.7284891144
 20
82.337268984
 30
0.0
 10
126.8412433341
 20
82.4905971931
 30
0.0
 10
127.0072101428
 20
82.5918715132
 30
0.0
 10
127.1368342185
 20
82.6152743182
 30
0.0
 10
127.2016809964
 20
82.6152743182
 30
0.0
  0
SPLINE
  5
479
100
AcDbEntity
  8
RUNDUNGEN
100
AcDbSpline
 62
7
  6
CONTINUOUS
 70
0
 71
3
 72
9
 73
5
 74
0
 42
0.0000001
 43
0.0000001
 44
0.0000000001
 40
0.0
 40
0.0
 40
0.0
 40
0.0
 40
0.4981941696
 40
1.0
 40
1.0
 40
1.0
 40
1.0
 10
131.7016809964
 20
84.6896342417
 30
0.0
 10
131.7016901939
 20
84.8680994102
 30
0.0
 10
131.6836885815
 20
85.226333746
 30
0.0
 10
131.6445464842
 20
85.582505367
 30
0.0
 10
131.6216082971
 20
85.7607947966
 30
0.0
  0
SPLINE
  5
47A
100
AcDbEntity
  8
RUNDUNGEN
100
AcDbSpline
 62
7
  6
CONTINUOUS
 70
0
 71
3
 72
11
 73
7
 74
0
 42
0.0000001
 43
0.0000001
 44
0.0000000001
 40
0.0
 40
0.0
 40
0.0
 40
0.0
 40
0.259163346
 40
0.5130566908
 40
0.7593046633
 40
1.0
 40
1.0
 40
1.0
 40
1.0
 10
131.2016809964
 20
82.6152743181
 30
0.0
 10
131.2665277743
 20
82.6152743181
 30
0.0
 10
131.39615185
 20
82.5918715132
 30
0.0
 10
131.5621186587
 20
82.4905971931
 30
0.0
 10
131.6748728785
 20
82.337268984
 30
0.0
 10
131.7016809964
 20
82.2139616461
 30
0.0
 10
131.7016809964
 20
82.1537358569
 30
0.0
  0
SPLINE
  5
47B
100
AcDbEntity
  8
RUNDUNGEN
100
AcDbSpline
 62
7
  6
CONTINUOUS
 70
0
 71
3
 72
9
 73
5
 74
0
 42
0.0000001
 43
0.0000001
 44
0.0000000001
 40
0.0
 40
0.0
 40
0.0
 40
0.0
 40
0.4974394375
 40
1.0
 40
1.0
 40
1.0
 40
1.0
 10
131.6216082971
 20
85.7607947966
 30
0.0
 10
131.5701961718
 20
86.1603912848
 30
0.0
 10
131.4351449284
 20
86.9594591447
 30
0.0
 10
131.2797502441
 20
87.754254784
 30
0.0
 10
131.2016809964
 20
88.1537358568
 30
0.0
  0
SPLINE
  5
47C
100
AcDbEntity
  8
RUNDUNGEN
100
AcDbSpline
 62
7
  6
CONTINUOUS
 70
0
 71
3
 72
9
 73
5
 74
0
 42
0.0000001
 43
0.0000001
 44
0.0000000001
 40
0.0
 40
0.0
 40
0.0
 40
0.0
 40
0.4982031201
 40
1.0
 40
1.0
 40
1.0
 40
1.0
 10
151.7016809964
 20
84.6896342417
 30
0.0
 10
151.7016813698
 20
84.8666665934
 30
0.0
 10
151.7193902029
 20
85.2220194727
 30
0.0
 10
151.7580112549
 20
85.5753486182
 30
0.0
 10
151.7806546992
 20
85.7522143975
 30
0.0
  0
SPLINE
  5
47D
100
AcDbEntity
  8
RUNDUNGEN
100
AcDbSpline
 62
7
  6
CONTINUOUS
 70
0
 71
3
 72
9
 73
5
 74
0
 42
0.0000001
 43
0.0000001
 44
0.0000000001
 40
0.0
 40
0.0
 40
0.0
 40
0.0
 40
0.4974266827
 40
1.0
 40
1.0
 40
1.0
 40
1.0
 10
151.7806546992
 20
85.7522143975
 30
0.0
 10
151.8319995838
 20
86.1532546264
 30
0.0
 10
151.9673905851
 20
86.9551998387
 30
0.0
 10
152.123333395
 20
87.752822653
 30
0.0
 10
152.2016809964
 20
88.1537358568
 30
0.0
  0
SPLINE
  5
47E
100
AcDbEntity
  8
RUNDUNGEN
100
AcDbSpline
 62
7
  6
CONTINUOUS
 70
0
 71
3
 72
11
 73
7
 74
0
 42
0.0000001
 43
0.0000001
 44
0.0000000001
 40
0.0
 40
0.0
 40
0.0
 40
0.0
 40
0.240695341
 40
0.4869433197
 40
0.7408366628
 40
1.0
 40
1.0
 40
1.0
 40
1.0
 10
151.7016809964
 20
82.153735857
 30
0.0
 10
151.7016809965
 20
82.2139616472
 30
0.0
 10
151.7284891157
 20
82.3372689878
 30
0.0
 10
151.8412433387
 20
82.4905971975
 30
0.0
 10
152.0072101477
 20
82.5918715151
 30
0.0
 10
152.1368342208
 20
82.6152743182
 30
0.0
 10
152.2016809964
 20
82.6152743182
 30
0.0
  0
SPLINE
  5
47F
100
AcDbEntity
  8
RUNDUNGEN
100
AcDbSpline
 62
7
  6
CONTINUOUS
 70
0
 71
3
 72
11
 73
7
 74
0
 42
0.0000001
 43
0.0000001
 44
0.0000000001
 40
0.0
 40
0.0
 40
0.0
 40
0.0
 40
0.2565756042
 40
0.5089276631
 40
0.7562524194
 40
1.0
 40
1.0
 40
1.0
 40
1.0
 10
106.2187180845
 20
82.4958746587
 30
0.0
 10
106.2730551879
 20
82.4974858837
 30
0.0
 10
106.3820997661
 20
82.4836227066
 30
0.0
 10
106.529272597
 20
82.4134054843
 30
0.0
 10
106.6429274521
 20
82.3000356068
 30
0.0
 10
106.6883131881
 20
82.2036188327
 30
0.0
 10
106.7016722249
 20
82.1537335078
 30
0.0
  0
SPLINE
  5
480
100
AcDbEntity
  8
RUNDUNGEN
100
AcDbSpline
 62
7
  6
CONTINUOUS
 70
0
 71
3
 72
11
 73
7
 74
0
 42
0.0000001
 43
0.0000001
 44
0.0000000001
 40
0.0
 40
0.0
 40
0.0
 40
0.0
 40
0.2565756042
 40
0.5089276631
 40
0.7562524194
 40
1.0
 40
1.0
 40
1.0
 40
1.0
 10
131.2187180845
 20
82.4958746587
 30
0.0
 10
131.2730551879
 20
82.4974858837
 30
0.0
 10
131.3820997661
 20
82.4836227066
 30
0.0
 10
131.529272597
 20
82.4134054843
 30
0.0
 10
131.6429274521
 20
82.3000356068
 30
0.0
 10
131.6883131881
 20
82.2036188327
 30
0.0
 10
131.7016722249
 20
82.1537335078
 30
0.0
  0
LINE
  5
481
100
AcDbEntity
  8
RUNDUNGEN
100
AcDbLine
 62
7
  6
CONTINUOUS
 10
65.8754730473
 20
93.1537358568
 11
64.9655474141
 21
96.1537358883
  0
SPLINE
  5
482
100
AcDbEntity
  8
RUNDUNGEN
100
AcDbSpline
 62
7
  6
CONTINUOUS
 70
0
 71
3
 72
11
 73
7
 74
0
 42
0.0000001
 43
0.0000001
 44
0.0000000001
 40
0.0
 40
0.0
 40
0.0
 40
0.0
 40
0.2437475707
 40
0.4910723464
 40
0.7434244152
 40
1.0
 40
1.0
 40
1.0
 40
1.0
 10
126.701689331
 20
82.1537336247
 30
0.0
 10
126.7150486719
 20
82.2036187237
 30
0.0
 10
126.7604348892
 20
82.3000349415
 30
0.0
 10
126.8740899943
 20
82.4134039328
 30
0.0
 10
127.0212626595
 20
82.4836204396
 30
0.0
 10
127.1303069563
 20
82.4974833471
 30
0.0
 10
127.1846439085
 20
82.4958720489
 30
0.0
  0
SPLINE
  5
483
100
AcDbEntity
  8
RUNDUNGEN
100
AcDbSpline
 62
7
  6
CONTINUOUS
 70
0
 71
3
 72
8
 73
4
 74
0
 42
0.0000001
 43
0.0000001
 44
0.0000000001
 40
0.0
 40
0.0
 40
0.0
 40
0.0
 40
1.0
 40
1.0
 40
1.0
 40
1.0
 10
132.2016809964
 20
84.6896342417
 30
0.0
 10
132.2017201688
 20
84.926362095
 30
0.0
 10
132.1780600343
 20
85.1635444409
 30
0.0
 10
132.1392383345
 20
85.3970673599
 30
0.0
  0
SPLINE
  5
484
100
AcDbEntity
  8
RUNDUNGEN
100
AcDbSpline
 62
7
  6
CONTINUOUS
 70
0
 71
3
 72
11
 73
7
 74
0
 42
0.0000001
 43
0.0000001
 44
0.0000000001
 40
0.0
 40
0.0
 40
0.0
 40
0.0
 40
0.2442272636
 40
0.4917070731
 40
0.7438213997
 40
1.0
 40
1.0
 40
1.0
 40
1.0
 10
151.7016892069
 20
82.1537332455
 30
0.0
 10
151.7168527769
 20
82.2014124
 30
0.0
 10
151.7643860169
 20
82.2927894107
 30
0.0
 10
151.8771993179
 20
82.3992403212
 30
0.0
 10
152.020394697
 20
82.4645988947
 30
0.0
 10
152.1256920234
 20
82.4771245324
 30
0.0
 10
152.1781438852
 20
82.4753851501
 30
0.0
  0
LINE
  5
485
100
AcDbEntity
  8
RUNDUNGEN
100
AcDbLine
 62
7
  6
CONTINUOUS
 10
63.0455518895
 20
83.15381432
 11
64.5014735126
 21
80.1537358307
  0
ELLIPSE
  5
486
100
AcDbEntity
  8
0
100
AcDbEllipse
 62
7
  6
CONTINUOUS
 10
87.4475924061
 20
152.4238792597
 30
0.0
 11
0.0
 21
2.75
 31
0.0
 40
0.4040262258
 41
0.0
 42
3.1415926536
  0
ELLIPSE
  5
487
100
AcDbEntity
  8
0
100
AcDbEllipse
 62
7
  6
CONTINUOUS
 10
71.2981824204
 20
152.4238792597
 30
0.0
 11
0.0
 21
2.75
 31
0.0
 40
0.3639702343
 41
-3.1415926536
 42
0.0
  0
ELLIPSE
  5
488
100
AcDbEntity
  8
0
100
AcDbEllipse
 62
7
  6
CONTINUOUS
 10
109.7161094113
 20
152.4238792597
 30
0.0
 11
0.0
 21
2.75
 31
0.0
 40
0.2679491924
 41
-0.0
 42
3.1415926536
  0
ELLIPSE
  5
489
100
AcDbEntity
  8
0
100
AcDbEllipse
 62
7
  6
CONTINUOUS
 10
90.4777890999
 20
152.4238792597
 30
0.0
 11
0.0
 21
2.75
 31
0.0
 40
0.4040262258
 41
-3.1415926536
 42
-0.0
  0
ELLIPSE
  5
48A
100
AcDbEntity
  8
0
100
AcDbEllipse
 62
7
  6
CONTINUOUS
 10
148.1221355419
 20
152.4238792597
 30
0.0
 11
-0.0
 21
2.75
 31
0.0
 40
0.3181818182
 41
3.2326274316
 42
6.1921505291
  0
ELLIPSE
  5
48B
100
AcDbEntity
  8
0
100
AcDbEllipse
 62
7
  6
CONTINUOUS
 10
68.5684056634
 20
152.4238792597
 30
0.0
 11
0.0
 21
2.75
 31
0.0
 40
0.3639702343
 41
0.0
 42
3.1415926536
  0
ELLIPSE
  5
48C
100
AcDbEntity
  8
0
100
AcDbEllipse
 62
7
  6
CONTINUOUS
 10
134.7161094113
 20
152.4238792597
 30
0.0
 11
0.0
 21
2.75
 31
0.0
 40
0.2679491924
 41
0.0
 42
3.1415926536
  0
ELLIPSE
  5
48D
100
AcDbEntity
  8
0
100
AcDbEllipse
 62
7
  6
CONTINUOUS
 10
123.6872525816
 20
152.4238792597
 30
0.0
 11
0.0
 21
2.75
 31
0.0
 40
0.2679491924
 41
-3.1415926536
 42
0.0
  0
ENDSEC
  0
SECTION
  2
OBJECTS
  0
DICTIONARY
  5
C
100
AcDbDictionary
280
0
281
1
  3
ACAD_GROUP
350
D
  3
ACAD_MLINESTYLE
350
17
  3
ACAD_LAYOUT
350
1A
  3
ACAD_PLOTSETTINGS
350
19
  3
ACAD_PLOTSTYLENAME
350
E
  0
DICTIONARY
  5
D
102
{ACAD_REACTORS
330
C
102
}
100
AcDbDictionary
280
0
281
1
  0
ACDBDICTIONARYWDFLT
  5
E
102
{ACAD_REACTORS
330
C
102
}
100
AcDbDictionary
281
1
  3
Normal
350
F
100
AcDbDictionaryWithDefault
340
F
  0
DICTIONARY
  5
17
102
{ACAD_REACTORS
330
C
102
}
100
AcDbDictionary
280
0
281
1
  3
Standard
350
18
  0
DICTIONARY
  5
19
102
{ACAD_REACTORS
330
C
102
}
100
AcDbDictionary
281
1
  0
DICTIONARY
  5
1A
102
{ACAD_REACTORS
330
C
102
}
100
AcDbDictionary
281
1
  3
Model
350
48E
  3
Layout1
350
48F
  0
ACDBPLACEHOLDER
  5
F
102
{ACAD_REACTORS
330
E
102
}
  0
MLINESTYLE
  5
18
102
{ACAD_REACTORS
330
17
102
}
100
AcDbMlineStyle
  2
STANDARD
 70
0
  3

 62
256
 51
90.0
 52
90.0
 71
2
 49
0.5
 62
256
  6
BYLAYER
 49
-0.5
 62
256
  6
BYLAYER
  0
LAYOUT
  5
48E
102
{ACAD_REACTORS
330
1A
102
}
100
AcDbPlotSettings
  1

  2
none_device
  4
ISO_A4_(297.00_x_210.00_MM)
  6

 40
0.0
 41
0.0
 42
0.0
 43
0.0
 44
297.0
 45
210.0
 46
0.0
 47
0.0
 48
0.0
 49
0.0
140
0.0
141
0.0
142
1.0
143
1.0
 70
1024
 72
1
 73
0
 74
0
  7

 75
0
147
1.0
148
0.0
149
0.0
100
AcDbLayout
  1
Model
 70
0
 71
0
 10
0.0
 20
0.0
 11
297.0
 21
210.0
 12
0.0
 22
0.0
 32
0.0
 14
0.0
 24
0.0
 34
0.0
 15
0.0
 25
0.0
 35
0.0
146
0.0
 13
0.0
 23
0.0
 33
0.0
 16
1.0
 26
0.0
 36
0.0
 17
0.0
 27
1.0
 37
0.0
 76
0
330
210
345
0
346
0
  0
LAYOUT
  5
48F
102
{ACAD_REACTORS
330
1A
102
}
100
AcDbPlotSettings
  1

  2
none_device
  4
ISO_A4_(297.00_x_210.00_MM)
  6

 40
0.0
 41
0.0
 42
0.0
 43
0.0
 44
297.0
 45
210.0
 46
0.0
 47
0.0
 48
0.0
 49
0.0
140
0.0
141
0.0
142
1.0
143
1.0
 70
0
 72
1
 73
0
 74
0
  7

 75
0
147
1.0
148
0.0
149
0.0
100
AcDbLayout
  1
Layout1
 70
0
 71
1
 10
0.0
 20
0.0
 11
297.0
 21
210.0
 12
0.0
 22
0.0
 32
0.0
 14
0.0
 24
0.0
 34
0.0
 15
0.0
 25
0.0
 35
0.0
146
0.0
 13
0.0
 23
0.0
 33
0.0
 16
1.0
 26
0.0
 36
0.0
 17
0.0
 27
1.0
 37
0.0
 76
0
330
211
345
0
346
0
  0
ENDSEC
  0
EOF
