999
DXF file: s5-45ntpsmlstw75.dxf
999
Pro/ENGINEER 2013050 by Parametric Technology Corporation
  0
SECTION
  2
HEADER
  9
$ACADVER
  1
AC1015
  9
$DWGCODEPAGE
  3
ANSI_1252
  9
$EXTMAX
 10
297.0
 20
210.0
 30
0.0
  9
$EXTMIN
 10
0.0
 20
-0.0
 30
0.0
  9
$LIMMIN
 10
0.0
 20
-0.0
  9
$LIMMAX
 10
297.0
 20
210.0
  9
$VIEWCTR
 10
148.5
 20
105.0
  9
$VIEWSIZE
 40
210.0
  9
$CLAYER
  8
0
  9
$LTSCALE
 40
16.335
  9
$CELTYPE
  6
BYLAYER
  9
$DIMSCALE
 40
1.0
  9
$DIMASZ
 40
3.5
  9
$DIMEXO
 40
0.0
  9
$DIMDLI
 40
11.286
  9
$DIMEXE
 40
1.5
  9
$DIMCEN
 40
2.673
  9
$DIMLFAC
 40
1.0
  9
$DIMBLK
  1
_FILLED
  9
$DIMTXT
 40
3.5
  9
$DIMTOL
 70
1
  9
$DIMLIM
 70
0
  9
$DIMTFAC
 40
1.0
  9
$DIMTP
 40
0.005
  9
$DIMTM
 40
0.005
  9
$DIMGAP
 40
0.625
  9
$DIMDSEP
 70
46
  9
$PDMODE
 70
3
  9
$PDSIZE
 40
0.3125
  9
$HANDSEED
  5
316
  9
$TILEMODE
 70
1
  9
$MEASUREMENT
 70
1
  9
$INSUNITS
 70
4
  0
ENDSEC
  0
SECTION
  2
CLASSES
  0
CLASS
  1
ACDBDICTIONARYWDFLT
  2
AcDbDictionaryWithDefault
  3
AutoCAD 2000
 90
0
280
0
281
0
  0
CLASS
  1
ACDBPLACEHOLDER
  2
AcDbPlaceHolder
  3
AutoCAD 2000
 90
0
280
0
281
0
  0
CLASS
  1
LAYOUT
  2
AcDbLayout
  3
AutoCAD 2000
 90
0
280
0
281
0
  0
ENDSEC
  0
SECTION
  2
TABLES
  0
TABLE
  2
VPORT
  5
8
100
AcDbSymbolTable
 70
2
  0
VPORT
  5
1F4
100
AcDbSymbolTableRecord
100
AcDbViewportTableRecord
  2
*ACTIVE
 70
0
 10
0.0
 20
0.0
 11
1.0
 21
1.0
 12
148.5
 22
105.0
 13
0.0
 23
0.0
 14
1.0
 24
1.0
 15
0.0
 25
0.0
 16
0.0
 26
0.0
 36
1.0
 17
0.0
 27
0.0
 37
0.0
 40
210.0
 41
1.4142857143
 42
50.0
 43
0.0
 44
0.0
 50
0.0
 51
0.0
 71
0
 72
100
 73
1
 74
1
 75
0
 76
0
 77
0
 78
0
  0
ENDTAB
  0
TABLE
  2
LTYPE
  5
5
100
AcDbSymbolTable
 70
6
  0
LTYPE
  5
14
100
AcDbSymbolTableRecord
100
AcDbLinetypeTableRecord
  2
BYBLOCK
 70
0
  3

 72
65
 73
0
 40
0.0
  0
LTYPE
  5
15
100
AcDbSymbolTableRecord
100
AcDbLinetypeTableRecord
  2
BYLAYER
 70
0
  3

 72
65
 73
0
 40
0.0
  0
LTYPE
  5
16
100
AcDbSymbolTableRecord
100
AcDbLinetypeTableRecord
  2
CONTINUOUS
 70
64
  3
Solid line
 72
65
 73
0
 40
0.0
  0
LTYPE
  5
1F5
100
AcDbSymbolTableRecord
100
AcDbLinetypeTableRecord
  2
CENTER
 70
64
  3
____ _ ____ _ ____ _ ____ _ ____ _ ____ _ ____
 72
65
 73
4
 40
0.6
 49
0.375
 74
0
 49
-0.075
 74
0
 49
0.075
 74
0
 49
-0.075
 74
0
  0
LTYPE
  5
1F6
100
AcDbSymbolTableRecord
100
AcDbLinetypeTableRecord
  2
HIDDEN
 70
64
  3
- - - - - - - - - - - - - - - - - - - -
 72
65
 73
2
 40
0.2
 49
0.1
 74
0
 49
-0.1
 74
0
  0
LTYPE
  5
1F7
100
AcDbSymbolTableRecord
100
AcDbLinetypeTableRecord
  2
PHANTOM
 70
64
  3
_____ _ _ _____ _ _ _____ _ _ _____
 72
65
 73
6
 40
0.8
 49
0.45
 74
0
 49
-0.05
 74
0
 49
0.1
 74
0
 49
-0.05
 74
0
 49
0.1
 74
0
 49
-0.05
 74
0
  0
LTYPE
  5
1F8
100
AcDbSymbolTableRecord
100
AcDbLinetypeTableRecord
  2
DOT
 70
64
  3
. . . . . . . . . . . . . . . . . . . .
 72
65
 73
2
 40
0.2
 49
0.1
 74
0
 49
-0.1
 74
0
  0
LTYPE
  5
1F9
100
AcDbSymbolTableRecord
100
AcDbLinetypeTableRecord
  2
DASHED
 70
64
  3
- - - - - - - - - - - - - - - - - - - -
 72
65
 73
2
 40
0.2
 49
0.1
 74
0
 49
-0.1
 74
0
  0
ENDTAB
  0
TABLE
  2
LAYER
  5
2
100
AcDbSymbolTable
 70
36
  0
LAYER
  5
10
100
AcDbSymbolTableRecord
100
AcDbLayerTableRecord
  2
0
 70
0
 62
7
  6
CONTINUOUS
370
-3
390
F
  0
LAYER
  5
1FA
100
AcDbSymbolTableRecord
100
AcDbLayerTableRecord
  2
DEFAULT_1
 70
0
 62
7
  6
CENTER
370
-3
390
F
  0
LAYER
  5
1FB
100
AcDbSymbolTableRecord
100
AcDbLayerTableRecord
  2
DEFAULT_2
 70
0
 62
8
  6
HIDDEN
370
-3
390
F
  0
LAYER
  5
1FC
100
AcDbSymbolTableRecord
100
AcDbLayerTableRecord
  2
DEFAULT_3
 70
0
 62
7
  6
PHANTOM
370
-3
390
F
  0
LAYER
  5
1FD
100
AcDbSymbolTableRecord
100
AcDbLayerTableRecord
  2
01___PRT_ALL_DTM_PLN
 70
0
 62
7
  6
CONTINUOUS
370
-3
390
F
  0
LAYER
  5
1FE
100
AcDbSymbolTableRecord
100
AcDbLayerTableRecord
  2
01___PRT_DEF_DTM_PLN
 70
0
 62
7
  6
CONTINUOUS
370
-3
390
F
  0
LAYER
  5
1FF
100
AcDbSymbolTableRecord
100
AcDbLayerTableRecord
  2
02___PRT_ALL_AXES
 70
0
 62
7
  6
CONTINUOUS
370
-3
390
F
  0
LAYER
  5
200
100
AcDbSymbolTableRecord
100
AcDbLayerTableRecord
  2
03___PRT_ALL_CURVES
 70
0
 62
7
  6
CONTINUOUS
370
-3
390
F
  0
LAYER
  5
201
100
AcDbSymbolTableRecord
100
AcDbLayerTableRecord
  2
04___PRT_ALL_DTM_PNT
 70
0
 62
7
  6
CONTINUOUS
370
-3
390
F
  0
LAYER
  5
202
100
AcDbSymbolTableRecord
100
AcDbLayerTableRecord
  2
05___PRT_ALL_DTM_CSYS
 70
0
 62
7
  6
CONTINUOUS
370
-3
390
F
  0
LAYER
  5
203
100
AcDbSymbolTableRecord
100
AcDbLayerTableRecord
  2
05___PRT_DEF_DTM_CSYS
 70
0
 62
7
  6
CONTINUOUS
370
-3
390
F
  0
LAYER
  5
204
100
AcDbSymbolTableRecord
100
AcDbLayerTableRecord
  2
06___PRT_ALL_SURFS
 70
0
 62
7
  6
CONTINUOUS
370
-3
390
F
  0
LAYER
  5
205
100
AcDbSymbolTableRecord
100
AcDbLayerTableRecord
  2
AENDERUNGSHINWEISE
 70
0
 62
7
  6
CONTINUOUS
370
-3
390
F
  0
LAYER
  5
206
100
AcDbSymbolTableRecord
100
AcDbLayerTableRecord
  2
ALLE
 70
0
 62
7
  6
CONTINUOUS
370
-3
390
F
  0
LAYER
  5
207
100
AcDbSymbolTableRecord
100
AcDbLayerTableRecord
  2
ANFRAGEZEICHNUNG
 70
0
 62
7
  6
CONTINUOUS
370
-3
390
F
  0
LAYER
  5
208
100
AcDbSymbolTableRecord
100
AcDbLayerTableRecord
  2
AUSFORMSCHRAEGEN
 70
0
 62
7
  6
CONTINUOUS
370
-3
390
F
  0
LAYER
  5
209
100
AcDbSymbolTableRecord
100
AcDbLayerTableRecord
  2
BEAMSSUNGEN_MARKETING
 70
0
 62
7
  6
CONTINUOUS
370
-3
390
F
  0
LAYER
  5
20A
100
AcDbSymbolTableRecord
100
AcDbLayerTableRecord
  2
BEZUGSACHSEN
 70
0
 62
7
  6
CONTINUOUS
370
-3
390
F
  0
LAYER
  5
20B
100
AcDbSymbolTableRecord
100
AcDbLayerTableRecord
  2
BEZUGSEBENE
 70
0
 62
7
  6
CONTINUOUS
370
-3
390
F
  0
LAYER
  5
20C
100
AcDbSymbolTableRecord
100
AcDbLayerTableRecord
  2
BEZUGSEBENEN
 70
0
 62
7
  6
CONTINUOUS
370
-3
390
F
  0
LAYER
  5
20D
100
AcDbSymbolTableRecord
100
AcDbLayerTableRecord
  2
BEZUGSEBENEN-KES
 70
0
 62
7
  6
CONTINUOUS
370
-3
390
F
  0
LAYER
  5
20E
100
AcDbSymbolTableRecord
100
AcDbLayerTableRecord
  2
CD_ANMERKUNG
 70
0
 62
7
  6
CONTINUOUS
370
-3
390
F
  0
LAYER
  5
20F
100
AcDbSymbolTableRecord
100
AcDbLayerTableRecord
  2
CD_ANMERKUNGEN
 70
0
 62
7
  6
CONTINUOUS
370
-3
390
F
  0
LAYER
  5
210
100
AcDbSymbolTableRecord
100
AcDbLayerTableRecord
  2
CD_INAKTIV
 70
0
 62
7
  6
CONTINUOUS
370
-3
390
F
  0
LAYER
  5
211
100
AcDbSymbolTableRecord
100
AcDbLayerTableRecord
  2
CD_PITCH
 70
0
 62
7
  6
CONTINUOUS
370
-3
390
F
  0
LAYER
  5
212
100
AcDbSymbolTableRecord
100
AcDbLayerTableRecord
  2
CD_WIDTH
 70
0
 62
7
  6
CONTINUOUS
370
-3
390
F
  0
LAYER
  5
213
100
AcDbSymbolTableRecord
100
AcDbLayerTableRecord
  2
KURVEN
 70
0
 62
7
  6
CONTINUOUS
370
-3
390
F
  0
LAYER
  5
214
100
AcDbSymbolTableRecord
100
AcDbLayerTableRecord
  2
RUNDUNGEN
 70
0
 62
7
  6
CONTINUOUS
370
-3
390
F
  0
LAYER
  5
215
100
AcDbSymbolTableRecord
100
AcDbLayerTableRecord
  2
ZEICHNUNGSBEMASSUNGEN
 70
0
 62
7
  6
CONTINUOUS
370
-3
390
F
  0
LAYER
  5
216
100
AcDbSymbolTableRecord
100
AcDbLayerTableRecord
  2
ZEICHNUNGSNOTIZEN
 70
0
 62
7
  6
CONTINUOUS
370
-3
390
F
  0
ENDTAB
  0
TABLE
  2
STYLE
  5
3
100
AcDbSymbolTable
 70
1
  0
STYLE
  5
11
100
AcDbSymbolTableRecord
100
AcDbTextStyleTableRecord
  2
STANDARD
 70
0
 40
0.0
 41
0.7
 50
0.0
 71
0
 42
0.2
  3
txt
  4

  0
STYLE
  5
217
100
AcDbSymbolTableRecord
100
AcDbTextStyleTableRecord
  2
TEXTSTYLE_1
 70
0
 40
0.0
 41
0.8
 50
0.0
 71
0
 42
0.2
  3
gdt
  4

  0
ENDTAB
  0
TABLE
  2
VIEW
  5
6
100
AcDbSymbolTable
 70
0
  0
ENDTAB
  0
TABLE
  2
UCS
  5
7
100
AcDbSymbolTable
 70
0
  0
ENDTAB
  0
TABLE
  2
APPID
  5
9
100
AcDbSymbolTable
 70
1
  0
APPID
  5
218
100
AcDbSymbolTableRecord
100
AcDbRegAppTableRecord
  2
ACAD
 70
0
  0
ENDTAB
  0
TABLE
  2
BLOCK_RECORD
  5
1
100
AcDbSymbolTable
 70
0
  0
BLOCK_RECORD
  5
219
100
AcDbSymbolTableRecord
100
AcDbBlockTableRecord
  2
*Model_Space
  0
BLOCK_RECORD
  5
21A
100
AcDbSymbolTableRecord
100
AcDbBlockTableRecord
  2
*Paper_Space
  0
ENDTAB
  0
TABLE
  2
DIMSTYLE
  5
A
100
AcDbSymbolTable
 70
1
100
AcDbDimStyleTable
 71
0
  0
DIMSTYLE
105
21B
100
AcDbSymbolTableRecord
100
AcDbDimStyleTableRecord
  2
STANDARD
 70
0
  3

  4

 40
1.0
 41
3.5
 42
0.0
 43
0.38
 44
1.5
 45
0.0
 46
0.0
 47
0.005
 48
0.005
140
3.5
141
0.09
142
0.0
143
25.4
144
1.0
145
0.0
146
1.0
147
0.625
 71
1.0
 72
0.0
 73
0
 74
0
 75
0
 76
0
 77
1
 78
8
170
0
171
2
172
0
173
0
174
0
175
0
176
0
177
0
178
5
270
2
271
3
272
3
273
2
274
2
275
0
280
0
281
0
282
0
283
1
284
8
285
0
286
0
287
3
288
0
340
11
278
46
  0
ENDTAB
  0
ENDSEC
  0
SECTION
  2
BLOCKS
  0
BLOCK
  5
20
100
AcDbEntity
  8
0
100
AcDbBlockBegin
  2
*Model_Space
 70
0
 10
0.0
 20
0.0
 30
0.0
  3
*Model_Space
  1

  0
ENDBLK
  5
21
100
AcDbEntity
  8
0
100
AcDbBlockEnd
  0
BLOCK
  5
1C
100
AcDbEntity
  8
0
100
AcDbBlockBegin
  2
*Paper_Space
 70
0
 10
0.0
 20
0.0
 30
0.0
  3
*Paper_Space
  1

  0
ENDBLK
  5
1D
100
AcDbEntity
  8
0
100
AcDbBlockEnd
  0
ENDSEC
  0
SECTION
  2
ENTITIES
  0
LINE
  5
21C
100
AcDbEntity
  8
0
100
AcDbLine
 62
7
  6
CONTINUOUS
 10
0.0
 20
-0.0
 11
0.0
 21
210.0
  0
LINE
  5
21D
100
AcDbEntity
  8
0
100
AcDbLine
 62
7
  6
CONTINUOUS
 10
0.0
 20
-0.0
 11
297.0
 21
-0.0
  0
LINE
  5
21E
100
AcDbEntity
  8
0
100
AcDbLine
 62
7
  6
CONTINUOUS
 10
0.0
 20
210.0
 11
297.0
 21
210.0
  0
LINE
  5
21F
100
AcDbEntity
  8
0
100
AcDbLine
 62
7
  6
CONTINUOUS
 10
297.0
 20
-0.0
 11
297.0
 21
210.0
  0
LINE
  5
220
100
AcDbEntity
  8
RUNDUNGEN
100
AcDbLine
 62
7
  6
CONTINUOUS
 10
71.0107138226
 20
105.0708230679
 11
71.0107138226
 21
91.0708230679
  0
LINE
  5
221
100
AcDbEntity
  8
RUNDUNGEN
100
AcDbLine
 62
9
  6
CONTINUOUS
 10
72.0107138226
 20
106.0708230679
 11
72.0107138226
 21
90.0708230679
  0
LINE
  5
222
100
AcDbEntity
  8
0
100
AcDbLine
 62
7
  6
CONTINUOUS
 10
73.0107138226
 20
90.127313234
 11
73.0107138226
 21
106.0143329019
  0
LINE
  5
223
100
AcDbEntity
  8
RUNDUNGEN
100
AcDbLine
 62
9
  6
CONTINUOUS
 10
73.2107138226
 20
103.5708230679
 11
73.2107138226
 21
92.5708230679
  0
LINE
  5
224
100
AcDbEntity
  8
RUNDUNGEN
100
AcDbLine
 62
9
  6
CONTINUOUS
 10
73.2607138226
 20
92.5708230679
 11
73.2607138226
 21
103.5708230679
  0
LINE
  5
225
100
AcDbEntity
  8
RUNDUNGEN
100
AcDbLine
 62
9
  6
CONTINUOUS
 10
73.5607138226
 20
103.8392270966
 11
73.5607138226
 21
103.5708230679
  0
LINE
  5
226
100
AcDbEntity
  8
RUNDUNGEN
100
AcDbLine
 62
9
  6
CONTINUOUS
 10
73.5607138226
 20
92.5708230679
 11
73.5607138225
 21
92.3024190393
  0
LINE
  5
227
100
AcDbEntity
  8
RUNDUNGEN
100
AcDbLine
 62
7
  6
CONTINUOUS
 10
73.7607138226
 20
103.3708230679
 11
73.7607138226
 21
92.7708230679
  0
LINE
  5
228
100
AcDbEntity
  8
RUNDUNGEN
100
AcDbLine
 62
9
  6
CONTINUOUS
 10
73.9607138226
 20
92.5720203867
 11
73.9607138226
 21
103.5696272145
  0
LINE
  5
229
100
AcDbEntity
  8
RUNDUNGEN
100
AcDbLine
 62
9
  6
CONTINUOUS
 10
76.1607138226
 20
92.5720190812
 11
76.1607138226
 21
103.5696257599
  0
LINE
  5
22A
100
AcDbEntity
  8
RUNDUNGEN
100
AcDbLine
 62
7
  6
CONTINUOUS
 10
76.3607138226
 20
92.7708230679
 11
76.3607138226
 21
103.3708230679
  0
LINE
  5
22B
100
AcDbEntity
  8
RUNDUNGEN
100
AcDbLine
 62
9
  6
CONTINUOUS
 10
76.5607138226
 20
103.8392270966
 11
76.5607138226
 21
103.5708230679
  0
LINE
  5
22C
100
AcDbEntity
  8
RUNDUNGEN
100
AcDbLine
 62
9
  6
CONTINUOUS
 10
76.5607138226
 20
92.5708230679
 11
76.5607138226
 21
92.3024190393
  0
LINE
  5
22D
100
AcDbEntity
  8
RUNDUNGEN
100
AcDbLine
 62
9
  6
CONTINUOUS
 10
76.8607138226
 20
92.5708230679
 11
76.8607138226
 21
103.5708230679
  0
LINE
  5
22E
100
AcDbEntity
  8
RUNDUNGEN
100
AcDbLine
 62
9
  6
CONTINUOUS
 10
76.9107138226
 20
92.5708230679
 11
76.9107138226
 21
103.5708230679
  0
LINE
  5
22F
100
AcDbEntity
  8
0
100
AcDbLine
 62
7
  6
CONTINUOUS
 10
77.1107138226
 20
90.127313234
 11
77.1107138226
 21
106.0143329019
  0
LINE
  5
230
100
AcDbEntity
  8
RUNDUNGEN
100
AcDbLine
 62
7
  6
CONTINUOUS
 10
81.9307913721
 20
105.8512379397
 11
89.9030590456
 21
127.7548633546
  0
LINE
  5
231
100
AcDbEntity
  8
RUNDUNGEN
100
AcDbLine
 62
9
  6
CONTINUOUS
 10
82.4006544677
 20
105.6802807245
 11
90.372905356
 21
127.5838532829
  0
LINE
  5
232
100
AcDbEntity
  8
RUNDUNGEN
100
AcDbLine
 62
9
  6
CONTINUOUS
 10
82.6845058734
 20
93.0708230679
 11
83.1543521838
 21
92.8998129963
  0
LINE
  5
233
100
AcDbEntity
  8
RUNDUNGEN
100
AcDbLine
 62
7
  6
CONTINUOUS
 10
72.0107138226
 20
90.0708230679
 11
81.7745802878
 21
90.0708230679
  0
LINE
  5
234
100
AcDbEntity
  8
0
100
AcDbLine
 62
7
  6
CONTINUOUS
 10
73.0107138226
 20
90.127313234
 11
77.1107138226
 21
90.127313234
  0
LINE
  5
235
100
AcDbEntity
  8
RUNDUNGEN
100
AcDbLine
 62
9
  6
CONTINUOUS
 10
91.5324442872
 20
112.5708230679
 11
91.5324442872
 21
112.0708230679
  0
LINE
  5
236
100
AcDbEntity
  8
RUNDUNGEN
100
AcDbLine
 62
9
  6
CONTINUOUS
 10
82.6845058734
 20
93.0708230679
 11
89.1832127352
 21
110.9258734263
  0
LINE
  5
237
100
AcDbEntity
  8
RUNDUNGEN
100
AcDbLine
 62
7
  6
CONTINUOUS
 10
82.2444265982
 20
90.3998129963
 11
89.6530590456
 21
110.7548633546
  0
LINE
  5
238
100
AcDbEntity
  8
RUNDUNGEN
100
AcDbLine
 62
9
  6
CONTINUOUS
 10
101.873156272
 20
128.4041564015
 11
101.5004782759
 21
128.0708230679
  0
LINE
  5
239
100
AcDbEntity
  8
RUNDUNGEN
100
AcDbLine
 62
9
  6
CONTINUOUS
 10
102.2368119963
 20
127.8200362548
 11
101.773220069
 21
127.6327329581
  0
LINE
  5
23A
100
AcDbEntity
  8
RUNDUNGEN
100
AcDbLine
 62
9
  6
CONTINUOUS
 10
143.2841132973
 20
100.399922532
 11
143.5893279189
 21
100.4751450678
  0
LINE
  5
23B
100
AcDbEntity
  8
0
100
AcDbLine
 62
7
  6
CONTINUOUS
 10
110.2490795782
 20
92.0708230679
 11
123.9851965174
 21
92.0708230679
  0
LINE
  5
23C
100
AcDbEntity
  8
0
100
AcDbLine
 62
7
  6
CONTINUOUS
 10
143.0362285922
 20
92.0708230679
 11
146.0107138226
 21
92.0708230679
  0
LINE
  5
23D
100
AcDbEntity
  8
RUNDUNGEN
100
AcDbLine
 62
9
  6
CONTINUOUS
 10
77.1107138226
 20
92.3024190393
 11
76.5607138226
 21
92.3024190393
  0
LINE
  5
23E
100
AcDbEntity
  8
RUNDUNGEN
100
AcDbLine
 62
9
  6
CONTINUOUS
 10
73.5607138226
 20
92.3024190393
 11
73.0107138226
 21
92.3024190393
  0
LINE
  5
23F
100
AcDbEntity
  8
RUNDUNGEN
100
AcDbLine
 62
7
  6
CONTINUOUS
 10
73.2107138226
 20
92.5708230679
 11
73.5607138226
 21
92.5708230679
  0
LINE
  5
240
100
AcDbEntity
  8
RUNDUNGEN
100
AcDbLine
 62
7
  6
CONTINUOUS
 10
73.9607138226
 20
92.5708230679
 11
76.1607138226
 21
92.5708230679
  0
LINE
  5
241
100
AcDbEntity
  8
RUNDUNGEN
100
AcDbLine
 62
7
  6
CONTINUOUS
 10
76.5607138226
 20
92.5708230679
 11
76.9107138226
 21
92.5708230679
  0
LINE
  5
242
100
AcDbEntity
  8
RUNDUNGEN
100
AcDbLine
 62
9
  6
CONTINUOUS
 10
73.0107138226
 20
92.7708230679
 11
77.1107138226
 21
92.7708230679
  0
LINE
  5
243
100
AcDbEntity
  8
RUNDUNGEN
100
AcDbLine
 62
9
  6
CONTINUOUS
 10
72.0107138226
 20
93.0708230679
 11
71.0107138226
 21
93.0708230679
  0
LINE
  5
244
100
AcDbEntity
  8
0
100
AcDbLine
 62
9
  6
CONTINUOUS
 10
72.0107138226
 20
93.0708230679
 11
73.0107138226
 21
93.0708230679
  0
LINE
  5
245
100
AcDbEntity
  8
0
100
AcDbLine
 62
9
  6
CONTINUOUS
 10
77.1107138226
 20
93.0708230679
 11
82.6845058734
 21
93.0708230679
  0
LINE
  5
246
100
AcDbEntity
  8
RUNDUNGEN
100
AcDbLine
 62
9
  6
CONTINUOUS
 10
125.9786249364
 20
98.0708230679
 11
123.0107138226
 21
98.0708230679
  0
LINE
  5
247
100
AcDbEntity
  8
RUNDUNGEN
100
AcDbLine
 62
9
  6
CONTINUOUS
 10
115.3348075753
 20
98.0708230679
 11
108.0270958539
 21
98.0708230679
  0
LINE
  5
248
100
AcDbEntity
  8
RUNDUNGEN
100
AcDbLine
 62
9
  6
CONTINUOUS
 10
144.0107440196
 20
98.0707517599
 11
141.0428027089
 21
98.0708230679
  0
LINE
  5
249
100
AcDbEntity
  8
RUNDUNGEN
100
AcDbLine
 62
9
  6
CONTINUOUS
 10
81.9308094612
 20
105.8512876392
 11
82.4006544677
 21
105.6802807245
  0
LINE
  5
24A
100
AcDbEntity
  8
RUNDUNGEN
100
AcDbLine
 62
9
  6
CONTINUOUS
 10
100.4824442872
 20
112.5708230679
 11
100.4824442832
 21
112.0708230679
  0
LINE
  5
24B
100
AcDbEntity
  8
RUNDUNGEN
100
AcDbLine
 62
9
  6
CONTINUOUS
 10
143.0107138226
 20
101.5349246831
 11
143.5107138226
 21
101.5349246831
  0
LINE
  5
24C
100
AcDbEntity
  8
0
100
AcDbLine
 62
9
  6
CONTINUOUS
 10
79.8544980063
 20
103.0707068942
 11
77.1107138226
 21
103.0708230679
  0
LINE
  5
24D
100
AcDbEntity
  8
0
100
AcDbLine
 62
9
  6
CONTINUOUS
 10
73.0107138226
 20
103.0708230679
 11
72.0107138226
 21
103.0708230679
  0
LINE
  5
24E
100
AcDbEntity
  8
RUNDUNGEN
100
AcDbLine
 62
9
  6
CONTINUOUS
 10
72.0107138226
 20
103.0708230679
 11
71.0107138226
 21
103.0708230679
  0
LINE
  5
24F
100
AcDbEntity
  8
RUNDUNGEN
100
AcDbLine
 62
9
  6
CONTINUOUS
 10
73.0107138226
 20
103.3708230679
 11
77.1107138226
 21
103.3708230679
  0
LINE
  5
250
100
AcDbEntity
  8
RUNDUNGEN
100
AcDbLine
 62
7
  6
CONTINUOUS
 10
76.9107138226
 20
103.5708230679
 11
76.5607138226
 21
103.5708230679
  0
LINE
  5
251
100
AcDbEntity
  8
RUNDUNGEN
100
AcDbLine
 62
7
  6
CONTINUOUS
 10
73.5607138226
 20
103.5708230679
 11
73.2107138226
 21
103.5708230679
  0
LINE
  5
252
100
AcDbEntity
  8
RUNDUNGEN
100
AcDbLine
 62
7
  6
CONTINUOUS
 10
73.9607138226
 20
103.5708230679
 11
76.1607138226
 21
103.5708230679
  0
LINE
  5
253
100
AcDbEntity
  8
RUNDUNGEN
100
AcDbLine
 62
9
  6
CONTINUOUS
 10
77.1107138226
 20
103.8392270966
 11
76.5607138226
 21
103.8392270966
  0
LINE
  5
254
100
AcDbEntity
  8
RUNDUNGEN
100
AcDbLine
 62
9
  6
CONTINUOUS
 10
73.5607138226
 20
103.8392270966
 11
73.0107138226
 21
103.8392270966
  0
LINE
  5
255
100
AcDbEntity
  8
0
100
AcDbLine
 62
7
  6
CONTINUOUS
 10
112.5066408197
 20
104.0708230679
 11
123.1270502125
 21
104.0708230679
  0
LINE
  5
256
100
AcDbEntity
  8
0
100
AcDbLine
 62
7
  6
CONTINUOUS
 10
143.8943903593
 20
104.0708230679
 11
146.0107138226
 21
104.0708230679
  0
LINE
  5
257
100
AcDbEntity
  8
RUNDUNGEN
100
AcDbLine
 62
9
  6
CONTINUOUS
 10
89.1832127352
 20
110.9258734263
 11
89.6530590439
 21
110.75486335
  0
LINE
  5
258
100
AcDbEntity
  8
RUNDUNGEN
100
AcDbLine
 62
9
  6
CONTINUOUS
 10
102.8004039236
 20
111.0073395515
 11
102.3368119963
 21
110.8200362548
  0
LINE
  5
259
100
AcDbEntity
  8
RUNDUNGEN
100
AcDbLine
 62
9
  6
CONTINUOUS
 10
141.0107138226
 20
105.0708230679
 11
140.5107138226
 21
105.0708230679
  0
LINE
  5
25A
100
AcDbEntity
  8
RUNDUNGEN
100
AcDbLine
 62
9
  6
CONTINUOUS
 10
126.0107138226
 20
105.0708230679
 11
126.5107138226
 21
105.070823066
  0
LINE
  5
25B
100
AcDbEntity
  8
0
100
AcDbLine
 62
7
  6
CONTINUOUS
 10
77.1107138226
 20
106.0143329019
 11
73.0107138226
 21
106.0143329019
  0
LINE
  5
25C
100
AcDbEntity
  8
RUNDUNGEN
100
AcDbLine
 62
7
  6
CONTINUOUS
 10
81.3105062844
 20
106.0708230679
 11
72.0107138226
 21
106.0708230679
  0
LINE
  5
25D
100
AcDbEntity
  8
RUNDUNGEN
100
AcDbLine
 62
9
  6
CONTINUOUS
 10
126.4484712468
 20
97.8998129963
 11
125.9786249364
 21
98.070823068
  0
LINE
  5
25E
100
AcDbEntity
  8
RUNDUNGEN
100
AcDbLine
 62
7
  6
CONTINUOUS
 10
102.3368119963
 20
110.8200362548
 11
109.7856477654
 21
92.3835207695
  0
LINE
  5
25F
100
AcDbEntity
  8
RUNDUNGEN
100
AcDbLine
 62
9
  6
CONTINUOUS
 10
102.8004039236
 20
111.0073395515
 11
108.0270958539
 21
98.0708230679
  0
LINE
  5
260
100
AcDbEntity
  8
RUNDUNGEN
100
AcDbLine
 62
7
  6
CONTINUOUS
 10
91.5324442872
 20
112.0708230679
 11
100.4824442872
 21
112.0708230679
  0
LINE
  5
261
100
AcDbEntity
  8
RUNDUNGEN
100
AcDbLine
 62
9
  6
CONTINUOUS
 10
91.5324442872
 20
112.5708230679
 11
100.4824442872
 21
112.5708230679
  0
LINE
  5
262
100
AcDbEntity
  8
RUNDUNGEN
100
AcDbLine
 62
9
  6
CONTINUOUS
 10
90.2917323025
 20
128.4041564016
 11
90.6644103054
 21
128.0708230702
  0
LINE
  5
263
100
AcDbEntity
  8
RUNDUNGEN
100
AcDbLine
 62
9
  6
CONTINUOUS
 10
101.773220069
 20
127.6327329581
 11
112.194548728
 21
101.8390382968
  0
LINE
  5
264
100
AcDbEntity
  8
RUNDUNGEN
100
AcDbLine
 62
7
  6
CONTINUOUS
 10
102.2368119963
 20
127.8200362548
 11
112.6581436279
 21
102.0263353382
  0
LINE
  5
265
100
AcDbEntity
  8
RUNDUNGEN
100
AcDbLine
 62
9
  6
CONTINUOUS
 10
112.6581410964
 20
102.026341604
 11
112.194548728
 21
101.8390382968
  0
LINE
  5
266
100
AcDbEntity
  8
RUNDUNGEN
100
AcDbLine
 62
9
  6
CONTINUOUS
 10
108.0270958539
 20
98.0708230679
 11
107.5635039266
 21
97.8835197712
  0
LINE
  5
267
100
AcDbEntity
  8
RUNDUNGEN
100
AcDbLine
 62
9
  6
CONTINUOUS
 10
89.9030590456
 20
127.7548633546
 11
90.372905356
 21
127.5838532829
  0
LINE
  5
268
100
AcDbEntity
  8
RUNDUNGEN
100
AcDbLine
 62
9
  6
CONTINUOUS
 10
140.0107138226
 20
122.5708230679
 11
139.5107138226
 21
122.5708230679
  0
LINE
  5
269
100
AcDbEntity
  8
RUNDUNGEN
100
AcDbLine
 62
9
  6
CONTINUOUS
 10
127.5107138226
 20
122.5708230679
 11
127.0107138226
 21
122.5708230679
  0
LINE
  5
26A
100
AcDbEntity
  8
RUNDUNGEN
100
AcDbLine
 62
9
  6
CONTINUOUS
 10
123.0107138226
 20
98.0708230679
 11
123.0107138226
 21
103.6092846064
  0
LINE
  5
26B
100
AcDbEntity
  8
RUNDUNGEN
100
AcDbLine
 62
7
  6
CONTINUOUS
 10
123.5107138226
 20
100.5708230679
 11
123.5107138226
 21
104.0708230679
  0
LINE
  5
26C
100
AcDbEntity
  8
RUNDUNGEN
100
AcDbLine
 62
7
  6
CONTINUOUS
 10
127.0107138226
 20
117.1330008944
 11
123.5107138226
 21
104.0708230679
  0
LINE
  5
26D
100
AcDbEntity
  8
RUNDUNGEN
100
AcDbLine
 62
9
  6
CONTINUOUS
 10
127.5107138226
 20
117.0671746456
 11
123.5107138226
 21
102.1389714154
  0
LINE
  5
26E
100
AcDbEntity
  8
RUNDUNGEN
100
AcDbLine
 62
9
  6
CONTINUOUS
 10
126.0107138226
 20
98.1589865583
 11
126.0107138226
 21
99.4204818114
  0
LINE
  5
26F
100
AcDbEntity
  8
RUNDUNGEN
100
AcDbLine
 62
9
  6
CONTINUOUS
 10
126.0107138226
 20
100.7211643245
 11
126.0107138226
 21
105.0708230679
  0
LINE
  5
270
100
AcDbEntity
  8
RUNDUNGEN
100
AcDbLine
 62
7
  6
CONTINUOUS
 10
126.5107138226
 20
105.0708230679
 11
126.5107138226
 21
98.0708230679
  0
LINE
  5
271
100
AcDbEntity
  8
RUNDUNGEN
100
AcDbLine
 62
7
  6
CONTINUOUS
 10
127.0107138226
 20
122.5708230679
 11
127.0107138226
 21
117.1330008944
  0
LINE
  5
272
100
AcDbEntity
  8
RUNDUNGEN
100
AcDbLine
 62
9
  6
CONTINUOUS
 10
127.5107138226
 20
122.5708230679
 11
127.5107138226
 21
117.0671746456
  0
LINE
  5
273
100
AcDbEntity
  8
RUNDUNGEN
100
AcDbLine
 62
9
  6
CONTINUOUS
 10
136.1084559003
 20
128.5291564002
 11
135.9086295843
 21
128.0708230679
  0
LINE
  5
274
100
AcDbEntity
  8
RUNDUNGEN
100
AcDbLine
 62
9
  6
CONTINUOUS
 10
90.6644102984
 20
128.0708230679
 11
101.5004782759
 21
128.0708230679
  0
LINE
  5
275
100
AcDbEntity
  8
RUNDUNGEN
100
AcDbLine
 62
9
  6
CONTINUOUS
 10
131.1129253168
 20
128.0708937974
 11
135.9086295848
 21
128.0708230676
  0
LINE
  5
276
100
AcDbEntity
  8
RUNDUNGEN
100
AcDbLine
 62
7
  6
CONTINUOUS
 10
91.7824442872
 20
129.0708230679
 11
100.3824442872
 21
129.0708230679
  0
LINE
  5
277
100
AcDbEntity
  8
0
100
AcDbLine
 62
7
  6
CONTINUOUS
 10
91.7824442872
 20
129.0708230679
 11
100.3824442872
 21
129.0708230679
  0
LINE
  5
278
100
AcDbEntity
  8
0
100
AcDbLine
 62
7
  6
CONTINUOUS
 10
131.0107138226
 20
123.0708230679
 11
131.0107138226
 21
115.0708230679
  0
LINE
  5
279
100
AcDbEntity
  8
RUNDUNGEN
100
AcDbLine
 62
9
  6
CONTINUOUS
 10
126.0107138226
 20
98.1589865583
 11
125.9786249364
 21
98.0708230679
  0
LINE
  5
27A
100
AcDbEntity
  8
RUNDUNGEN
100
AcDbLine
 62
7
  6
CONTINUOUS
 10
126.5107138226
 20
98.0708230679
 11
124.4475133318
 21
92.4022263076
  0
LINE
  5
27B
100
AcDbEntity
  8
RUNDUNGEN
100
AcDbLine
 62
9
  6
CONTINUOUS
 10
140.5729563985
 20
97.8998129963
 11
141.0428027089
 21
98.0708230679
  0
LINE
  5
27C
100
AcDbEntity
  8
0
100
AcDbLine
 62
7
  6
CONTINUOUS
 10
136.0107138226
 20
115.0708230679
 11
136.0107138226
 21
123.0708230679
  0
LINE
  5
27D
100
AcDbEntity
  8
RUNDUNGEN
100
AcDbLine
 62
9
  6
CONTINUOUS
 10
131.112798061
 20
128.0708230679
 11
130.9129717535
 21
128.5291564039
  0
LINE
  5
27E
100
AcDbEntity
  8
RUNDUNGEN
100
AcDbLine
 62
7
  6
CONTINUOUS
 10
142.5739126961
 20
92.4022307513
 11
140.5107138226
 21
98.0708230679
  0
LINE
  5
27F
100
AcDbEntity
  8
RUNDUNGEN
100
AcDbLine
 62
9
  6
CONTINUOUS
 10
141.0428027089
 20
98.0708230679
 11
141.0107138226
 21
98.1589865583
  0
LINE
  5
280
100
AcDbEntity
  8
RUNDUNGEN
100
AcDbLine
 62
9
  6
CONTINUOUS
 10
139.5107138226
 20
122.5708230679
 11
139.5107138226
 21
117.0671746456
  0
LINE
  5
281
100
AcDbEntity
  8
RUNDUNGEN
100
AcDbLine
 62
7
  6
CONTINUOUS
 10
140.0107138226
 20
122.5708230679
 11
140.0107138226
 21
117.1330008944
  0
LINE
  5
282
100
AcDbEntity
  8
RUNDUNGEN
100
AcDbLine
 62
7
  6
CONTINUOUS
 10
140.5107138226
 20
98.0708230679
 11
140.5107138226
 21
105.0708230679
  0
LINE
  5
283
100
AcDbEntity
  8
RUNDUNGEN
100
AcDbLine
 62
9
  6
CONTINUOUS
 10
141.0107138226
 20
105.0708230679
 11
141.0107138226
 21
100.7211643245
  0
LINE
  5
284
100
AcDbEntity
  8
RUNDUNGEN
100
AcDbLine
 62
9
  6
CONTINUOUS
 10
141.0107138226
 20
99.4204818114
 11
141.0107138226
 21
98.1589865583
  0
LINE
  5
285
100
AcDbEntity
  8
RUNDUNGEN
100
AcDbLine
 62
9
  6
CONTINUOUS
 10
143.0107138226
 20
104.0049968192
 11
139.5107138226
 21
117.0671746456
  0
LINE
  5
286
100
AcDbEntity
  8
RUNDUNGEN
100
AcDbLine
 62
7
  6
CONTINUOUS
 10
143.5107138226
 20
104.0708230679
 11
140.0107138226
 21
117.1330008944
  0
LINE
  5
287
100
AcDbEntity
  8
RUNDUNGEN
100
AcDbLine
 62
9
  6
CONTINUOUS
 10
143.0107138226
 20
101.5349246831
 11
143.0107138226
 21
104.0049968192
  0
LINE
  5
288
100
AcDbEntity
  8
RUNDUNGEN
100
AcDbLine
 62
7
  6
CONTINUOUS
 10
143.5107138226
 20
101.5349246831
 11
143.5107138226
 21
104.0708230679
  0
LINE
  5
289
100
AcDbEntity
  8
RUNDUNGEN
100
AcDbLine
 62
9
  6
CONTINUOUS
 10
144.0107138226
 20
103.6092846064
 11
144.0107138226
 21
98.0708230679
  0
LINE
  5
28A
100
AcDbEntity
  8
0
100
AcDbLine
 62
7
  6
CONTINUOUS
 10
146.0107138226
 20
104.0705534745
 11
146.0107138226
 21
92.0710926604
  0
LINE
  5
28B
100
AcDbEntity
  8
RUNDUNGEN
100
AcDbLine
 62
7
  6
CONTINUOUS
 10
198.7861294126
 20
90.0708230679
 11
192.7861294126
 21
90.0708230679
  0
LINE
  5
28C
100
AcDbEntity
  8
RUNDUNGEN
100
AcDbLine
 62
9
  6
CONTINUOUS
 10
198.7861294126
 20
91.0708230679
 11
192.7861294126
 21
91.0708230679
  0
LINE
  5
28D
100
AcDbEntity
  8
RUNDUNGEN
100
AcDbLine
 62
9
  6
CONTINUOUS
 10
201.7861294126
 20
93.0708230679
 11
200.7861294126
 21
93.0708230679
  0
LINE
  5
28E
100
AcDbEntity
  8
RUNDUNGEN
100
AcDbLine
 62
9
  6
CONTINUOUS
 10
189.7861294126
 20
93.0708230679
 11
190.7861294126
 21
93.0708230679
  0
LINE
  5
28F
100
AcDbEntity
  8
02___PRT_ALL_AXES
100
AcDbLine
 62
7
  6
CONTINUOUS
 10
203.7861294126
 20
98.8208230679
 11
201.7861294126
 21
98.8208230679
  0
LINE
  5
290
100
AcDbEntity
  8
02___PRT_ALL_AXES
100
AcDbLine
 62
7
  6
CONTINUOUS
 10
203.7861294126
 20
101.3208230679
 11
201.7861294126
 21
101.3208230679
  0
LINE
  5
291
100
AcDbEntity
  8
RUNDUNGEN
100
AcDbLine
 62
7
  6
CONTINUOUS
 10
189.7861294126
 20
93.0708230679
 11
189.7861294126
 21
128.0708230679
  0
LINE
  5
292
100
AcDbEntity
  8
RUNDUNGEN
100
AcDbLine
 62
9
  6
CONTINUOUS
 10
190.2861294126
 20
128.4041564013
 11
190.2861304651
 21
105.8512708451
  0
LINE
  5
293
100
AcDbEntity
  8
RUNDUNGEN
100
AcDbLine
 62
9
  6
CONTINUOUS
 10
190.7861294126
 20
93.0708230679
 11
190.7861294126
 21
103.0708230679
  0
LINE
  5
294
100
AcDbEntity
  8
RUNDUNGEN
100
AcDbLine
 62
9
  6
CONTINUOUS
 10
201.7861294126
 20
103.0708230679
 11
200.7861294126
 21
103.0708230679
  0
LINE
  5
295
100
AcDbEntity
  8
RUNDUNGEN
100
AcDbLine
 62
9
  6
CONTINUOUS
 10
189.7861294126
 20
103.0708230679
 11
190.7861294126
 21
103.0708230679
  0
LINE
  5
296
100
AcDbEntity
  8
RUNDUNGEN
100
AcDbLine
 62
9
  6
CONTINUOUS
 10
192.7861294126
 20
90.0708230679
 11
192.7861294126
 21
91.0708230679
  0
LINE
  5
297
100
AcDbEntity
  8
RUNDUNGEN
100
AcDbLine
 62
9
  6
CONTINUOUS
 10
192.7861294126
 20
105.0708230679
 11
192.7861294126
 21
106.7288029246
  0
LINE
  5
298
100
AcDbEntity
  8
RUNDUNGEN
100
AcDbLine
 62
9
  6
CONTINUOUS
 10
192.7861294126
 20
105.0708230679
 11
198.7861294126
 21
105.0708230679
  0
LINE
  5
299
100
AcDbEntity
  8
0
100
AcDbLine
 62
7
  6
CONTINUOUS
 10
193.0361294126
 20
115.3208230679
 11
193.0361294126
 21
122.8208230679
  0
LINE
  5
29A
100
AcDbEntity
  8
RUNDUNGEN
100
AcDbLine
 62
7
  6
CONTINUOUS
 10
192.7861294126
 20
106.0708230679
 11
198.7861294126
 21
106.0708230679
  0
LINE
  5
29B
100
AcDbEntity
  8
RUNDUNGEN
100
AcDbLine
 62
9
  6
CONTINUOUS
 10
192.7861294126
 20
106.7288029246
 11
198.7861294126
 21
106.7288029246
  0
LINE
  5
29C
100
AcDbEntity
  8
0
100
AcDbLine
 62
7
  6
CONTINUOUS
 10
198.5361294126
 20
122.8208230679
 11
198.5361294126
 21
115.3208230679
  0
LINE
  5
29D
100
AcDbEntity
  8
RUNDUNGEN
100
AcDbLine
 62
9
  6
CONTINUOUS
 10
198.7861294126
 20
90.0708230679
 11
198.7861294126
 21
91.0708230679
  0
LINE
  5
29E
100
AcDbEntity
  8
RUNDUNGEN
100
AcDbLine
 62
9
  6
CONTINUOUS
 10
198.7861294126
 20
105.0708230679
 11
198.7861294126
 21
106.7288029246
  0
LINE
  5
29F
100
AcDbEntity
  8
RUNDUNGEN
100
AcDbLine
 62
9
  6
CONTINUOUS
 10
200.7861294126
 20
103.0708230679
 11
200.7861294126
 21
93.0708230679
  0
LINE
  5
2A0
100
AcDbEntity
  8
02___PRT_ALL_AXES
100
AcDbLine
 62
7
  6
CONTINUOUS
 10
203.7861294126
 20
112.9478230679
 11
201.7861294126
 21
112.9478230679
  0
LINE
  5
2A1
100
AcDbEntity
  8
RUNDUNGEN
100
AcDbLine
 62
9
  6
CONTINUOUS
 10
201.2861323469
 20
105.8512379397
 11
201.2861294126
 21
128.4041564013
  0
LINE
  5
2A2
100
AcDbEntity
  8
RUNDUNGEN
100
AcDbLine
 62
7
  6
CONTINUOUS
 10
201.7861294126
 20
93.0708230679
 11
201.7861294126
 21
128.0708230727
  0
LINE
  5
2A3
100
AcDbEntity
  8
02___PRT_ALL_AXES
100
AcDbLine
 62
7
  6
CONTINUOUS
 10
203.7861294126
 20
98.8212536346
 11
203.7861294126
 21
101.3203925013
  0
LINE
  5
2A4
100
AcDbEntity
  8
02___PRT_ALL_AXES
100
AcDbLine
 62
7
  6
CONTINUOUS
 10
203.7861294126
 20
112.9482536346
 11
203.7861294126
 21
115.4473925013
  0
LINE
  5
2A5
100
AcDbEntity
  8
02___PRT_ALL_AXES
100
AcDbLine
 62
7
  6
CONTINUOUS
 10
203.7861294126
 20
123.0272536346
 11
203.7861294126
 21
125.5263925013
  0
LINE
  5
2A6
100
AcDbEntity
  8
02___PRT_ALL_AXES
100
AcDbLine
 62
7
  6
CONTINUOUS
 10
203.7861294126
 20
115.4478230679
 11
201.7861294126
 21
115.4478230679
  0
LINE
  5
2A7
100
AcDbEntity
  8
02___PRT_ALL_AXES
100
AcDbLine
 62
7
  6
CONTINUOUS
 10
203.7861294126
 20
123.0268230679
 11
201.7861294126
 21
123.0268230679
  0
LINE
  5
2A8
100
AcDbEntity
  8
02___PRT_ALL_AXES
100
AcDbLine
 62
7
  6
CONTINUOUS
 10
203.7861294126
 20
125.5268230679
 11
201.7861294126
 21
125.5268230679
  0
LINE
  5
2A9
100
AcDbEntity
  8
RUNDUNGEN
100
AcDbLine
 62
9
  6
CONTINUOUS
 10
201.2861294126
 20
127.7548633546
 11
190.2861294126
 21
127.7548633546
  0
LINE
  5
2AA
100
AcDbEntity
  8
RUNDUNGEN
100
AcDbLine
 62
7
  6
CONTINUOUS
 10
200.7861294126
 20
129.0708230679
 11
190.7861294126
 21
129.0708230679
  0
ARC
  5
2AB
100
AcDbEntity
  8
RUNDUNGEN
100
AcDbCircle
 62
7
  6
CONTINUOUS
 10
72.0107138226
 20
91.0708230679
 40
1.0
100
AcDbArc
 50
180.0
 51
270.0
  0
ARC
  5
2AC
100
AcDbEntity
  8
RUNDUNGEN
100
AcDbCircle
 62
9
  6
CONTINUOUS
 10
76.5607150615
 20
92.7024212685
 40
0.4000022293
100
AcDbArc
 50
199.025606778
 51
269.9998225434
  0
ARC
  5
2AD
100
AcDbEntity
  8
RUNDUNGEN
100
AcDbCircle
 62
9
  6
CONTINUOUS
 10
73.5607125416
 20
92.7024208359
 40
0.4000017966
100
AcDbArc
 50
270.0001834942
 51
340.9738495556
  0
ARC
  5
2AE
100
AcDbEntity
  8
RUNDUNGEN
100
AcDbCircle
 62
7
  6
CONTINUOUS
 10
73.2107138226
 20
92.3708230679
 40
0.2
100
AcDbArc
 50
90.0
 51
168.7499999627
  0
ARC
  5
2AF
100
AcDbEntity
  8
RUNDUNGEN
100
AcDbCircle
 62
7
  6
CONTINUOUS
 10
76.5607138226
 20
92.7708230679
 40
0.2
100
AcDbArc
 50
180.0
 51
270.0
  0
ARC
  5
2B0
100
AcDbEntity
  8
RUNDUNGEN
100
AcDbCircle
 62
7
  6
CONTINUOUS
 10
73.9607138226
 20
92.7708230679
 40
0.2
100
AcDbArc
 50
180.0
 51
270.0
  0
ARC
  5
2B1
100
AcDbEntity
  8
RUNDUNGEN
100
AcDbCircle
 62
7
  6
CONTINUOUS
 10
73.5607138226
 20
92.7708230679
 40
0.2
100
AcDbArc
 50
270.0
 51
360.0
  0
ARC
  5
2B2
100
AcDbEntity
  8
RUNDUNGEN
100
AcDbCircle
 62
7
  6
CONTINUOUS
 10
76.1607138226
 20
92.7708230679
 40
0.2
100
AcDbArc
 50
270.0
 51
360.0
  0
ARC
  5
2B3
100
AcDbEntity
  8
RUNDUNGEN
100
AcDbCircle
 62
7
  6
CONTINUOUS
 10
72.0107138226
 20
105.0708230679
 40
1.0
100
AcDbArc
 50
90.0
 51
180.0
  0
ARC
  5
2B4
100
AcDbEntity
  8
RUNDUNGEN
100
AcDbCircle
 62
9
  6
CONTINUOUS
 10
73.5607126693
 20
103.4392248871
 40
0.4000022095
100
AcDbArc
 50
19.0255432807
 51
89.9998347979
  0
ARC
  5
2B5
100
AcDbEntity
  8
RUNDUNGEN
100
AcDbCircle
 62
9
  6
CONTINUOUS
 10
76.5607149375
 20
103.4392255275
 40
0.4000015692
100
AcDbArc
 50
90.0001596898
 51
160.9738775325
  0
ARC
  5
2B6
100
AcDbEntity
  8
RUNDUNGEN
100
AcDbCircle
 62
7
  6
CONTINUOUS
 10
73.2107138226
 20
103.7708230679
 40
0.2
100
AcDbArc
 50
180.0
 51
270.0
  0
ARC
  5
2B7
100
AcDbEntity
  8
RUNDUNGEN
100
AcDbCircle
 62
7
  6
CONTINUOUS
 10
73.9607138226
 20
103.3708230679
 40
0.2
100
AcDbArc
 50
90.0
 51
179.9993112015
  0
ARC
  5
2B8
100
AcDbEntity
  8
RUNDUNGEN
100
AcDbCircle
 62
7
  6
CONTINUOUS
 10
76.1607138226
 20
103.3708230679
 40
0.2
100
AcDbArc
 50
0.000446394
 51
90.0
  0
ARC
  5
2B9
100
AcDbEntity
  8
RUNDUNGEN
100
AcDbCircle
 62
7
  6
CONTINUOUS
 10
76.5607138226
 20
103.3708230679
 40
0.2
100
AcDbArc
 50
90.0
 51
180.0
  0
ARC
  5
2BA
100
AcDbEntity
  8
RUNDUNGEN
100
AcDbCircle
 62
7
  6
CONTINUOUS
 10
73.5607138226
 20
103.3708230679
 40
0.2
100
AcDbArc
 50
0.0
 51
90.0
  0
ARC
  5
2BB
100
AcDbEntity
  8
RUNDUNGEN
100
AcDbCircle
 62
7
  6
CONTINUOUS
 10
81.7745802878
 20
90.5708230679
 40
0.5
100
AcDbArc
 50
270.0
 51
340.0
  0
ARC
  5
2BC
100
AcDbEntity
  8
RUNDUNGEN
100
AcDbCircle
 62
7
  6
CONTINUOUS
 10
76.9107138226
 20
92.3708230679
 40
0.2
100
AcDbArc
 50
0.0
 51
90.0
  0
ARC
  5
2BD
100
AcDbEntity
  8
RUNDUNGEN
100
AcDbCircle
 62
7
  6
CONTINUOUS
 10
81.3104935907
 20
107.0707881923
 40
0.9999912811
100
AcDbArc
 50
270.0007273199
 51
340.0021264669
  0
ARC
  5
2BE
100
AcDbEntity
  8
RUNDUNGEN
100
AcDbCircle
 62
7
  6
CONTINUOUS
 10
76.9107138226
 20
103.7708230679
 40
0.2
100
AcDbArc
 50
270.0
 51
348.7499999627
  0
ARC
  5
2BF
100
AcDbEntity
  8
RUNDUNGEN
100
AcDbCircle
 62
9
  6
CONTINUOUS
 10
91.5324442872
 20
110.0708230679
 40
2.5
100
AcDbArc
 50
90.0
 51
160.0
  0
ARC
  5
2C0
100
AcDbEntity
  8
RUNDUNGEN
100
AcDbCircle
 62
9
  6
CONTINUOUS
 10
100.4824442872
 20
110.0708230679
 40
2.5
100
AcDbArc
 50
22.0
 51
90.0
  0
ARC
  5
2C1
100
AcDbEntity
  8
RUNDUNGEN
100
AcDbCircle
 62
7
  6
CONTINUOUS
 10
91.7824442872
 20
127.0708230679
 40
2.0
100
AcDbArc
 50
90.0
 51
160.0
  0
ARC
  5
2C2
100
AcDbEntity
  8
RUNDUNGEN
100
AcDbCircle
 62
7
  6
CONTINUOUS
 10
100.3824442872
 20
127.0708230679
 40
2.0
100
AcDbArc
 50
22.0
 51
90.0
  0
ARC
  5
2C3
100
AcDbEntity
  8
RUNDUNGEN
100
AcDbCircle
 62
7
  6
CONTINUOUS
 10
100.4824442872
 20
110.0708230679
 40
2.0
100
AcDbArc
 50
22.0
 51
90.0
  0
ARC
  5
2C4
100
AcDbEntity
  8
RUNDUNGEN
100
AcDbCircle
 62
7
  6
CONTINUOUS
 10
91.5324442872
 20
110.0708230679
 40
2.0
100
AcDbArc
 50
90.0
 51
160.0
  0
ARC
  5
2C5
100
AcDbEntity
  8
RUNDUNGEN
100
AcDbCircle
 62
9
  6
CONTINUOUS
 10
100.3824442872
 20
127.0708230679
 40
1.5
100
AcDbArc
 50
22.0
 51
41.8103148958
  0
ARC
  5
2C6
100
AcDbEntity
  8
RUNDUNGEN
100
AcDbCircle
 62
9
  6
CONTINUOUS
 10
91.7824442872
 20
127.0708230679
 40
1.5
100
AcDbArc
 50
138.1896851042
 51
160.0
  0
ARC
  5
2C7
100
AcDbEntity
  8
RUNDUNGEN
100
AcDbCircle
 62
9
  6
CONTINUOUS
 10
133.5107138226
 20
105.0708230679
 40
7.5
100
AcDbArc
 50
0.0
 51
180.0
  0
ARC
  5
2C8
100
AcDbEntity
  8
RUNDUNGEN
100
AcDbCircle
 62
7
  6
CONTINUOUS
 10
133.5107138226
 20
105.0708230679
 40
7.0
100
AcDbArc
 50
0.0
 51
180.0000000163
  0
CIRCLE
  5
2C9
100
AcDbEntity
  8
02___PRT_ALL_AXES
100
AcDbCircle
 62
7
  6
CONTINUOUS
 10
124.9432138226
 20
100.0708230679
 40
1.25
  0
CIRCLE
  5
2CA
100
AcDbEntity
  8
02___PRT_ALL_AXES
100
AcDbCircle
 62
7
  6
CONTINUOUS
 10
142.0782138226
 20
100.0708230679
 40
1.25
  0
ARC
  5
2CB
100
AcDbEntity
  8
RUNDUNGEN
100
AcDbCircle
 62
7
  6
CONTINUOUS
 10
112.5066415749
 20
105.0707832406
 40
0.9999943155
100
AcDbArc
 50
201.9958291558
 51
269.9984375089
  0
ARC
  5
2CC
100
AcDbEntity
  8
RUNDUNGEN
100
AcDbCircle
 62
7
  6
CONTINUOUS
 10
110.2492400903
 20
92.5708230821
 40
0.5
100
AcDbArc
 50
202.0
 51
269.9999997732
  0
ARC
  5
2CD
100
AcDbEntity
  8
RUNDUNGEN
100
AcDbCircle
 62
7
  6
CONTINUOUS
 10
123.9768009144
 20
92.5708567699
 40
0.5
100
AcDbArc
 50
270.0004618832
 51
339.9999999996
  0
ARC
  5
2CE
100
AcDbEntity
  8
RUNDUNGEN
100
AcDbCircle
 62
7
  6
CONTINUOUS
 10
143.044626705
 20
92.5708568408
 40
0.5
100
AcDbArc
 50
200.0000000004
 51
269.9995371801
  0
ARC
  5
2CF
100
AcDbEntity
  8
RUNDUNGEN
100
AcDbCircle
 62
7
  6
CONTINUOUS
 10
143.8943773163
 20
104.5708230689
 40
0.5000000001
100
AcDbArc
 50
195.0353628968
 51
270.0
  0
ARC
  5
2D0
100
AcDbEntity
  8
RUNDUNGEN
100
AcDbCircle
 62
7
  6
CONTINUOUS
 10
123.1270503286
 20
104.5708230679
 40
0.5
100
AcDbArc
 50
270.0
 51
316.4714938688
  0
ARC
  5
2D1
100
AcDbEntity
  8
RUNDUNGEN
100
AcDbCircle
 62
9
  6
CONTINUOUS
 10
143.5819796478
 20
103.6090794378
 40
0.4287342239
100
AcDbArc
 50
0.0274186021
 51
16.206551605
  0
ARC
  5
2D2
100
AcDbEntity
  8
RUNDUNGEN
100
AcDbCircle
 62
9
  6
CONTINUOUS
 10
123.4394449638
 20
103.6090798705
 40
0.4287311901
100
AcDbArc
 50
163.793390768
 51
179.9726390248
  0
ARC
  5
2D3
100
AcDbEntity
  8
0
100
AcDbCircle
 62
7
  6
CONTINUOUS
 10
133.5107138226
 20
122.5708230679
 40
6.5
100
AcDbArc
 50
177.795772496
 51
180.0
  0
ARC
  5
2D4
100
AcDbEntity
  8
RUNDUNGEN
100
AcDbCircle
 62
7
  6
CONTINUOUS
 10
133.5107138226
 20
122.5708230679
 40
6.5
100
AcDbArc
 50
0.0
 51
180.0
  0
ARC
  5
2D5
100
AcDbEntity
  8
RUNDUNGEN
100
AcDbCircle
 62
9
  6
CONTINUOUS
 10
133.5107138226
 20
122.5708230679
 40
6.0
100
AcDbArc
 50
0.0
 51
66.4435356846
  0
ARC
  5
2D6
100
AcDbEntity
  8
RUNDUNGEN
100
AcDbCircle
 62
9
  6
CONTINUOUS
 10
133.5107138226
 20
122.5708230679
 40
6.0
100
AcDbArc
 50
113.5550804432
 51
180.0
  0
ARC
  5
2D7
100
AcDbEntity
  8
RUNDUNGEN
100
AcDbCircle
 62
7
  6
CONTINUOUS
 10
133.5107138226
 20
115.0708230679
 40
2.5
100
AcDbArc
 50
180.0
 51
360.0
  0
ARC
  5
2D8
100
AcDbEntity
  8
0
100
AcDbCircle
 62
7
  6
CONTINUOUS
 10
133.5107138226
 20
123.0708230679
 40
2.5
100
AcDbArc
 50
0.0
 51
180.0
  0
CIRCLE
  5
2D9
100
AcDbEntity
  8
02___PRT_ALL_AXES
100
AcDbCircle
 62
7
  6
CONTINUOUS
 10
128.9752138226
 20
114.1978230679
 40
1.25
  0
CIRCLE
  5
2DA
100
AcDbEntity
  8
02___PRT_ALL_AXES
100
AcDbCircle
 62
7
  6
CONTINUOUS
 10
138.0462138226
 20
114.1978230679
 40
1.25
  0
CIRCLE
  5
2DB
100
AcDbEntity
  8
02___PRT_ALL_AXES
100
AcDbCircle
 62
7
  6
CONTINUOUS
 10
129.1857138226
 20
124.2768230679
 40
1.25
  0
CIRCLE
  5
2DC
100
AcDbEntity
  8
02___PRT_ALL_AXES
100
AcDbCircle
 62
7
  6
CONTINUOUS
 10
137.8357138226
 20
124.2768230679
 40
1.25
  0
ARC
  5
2DD
100
AcDbEntity
  8
RUNDUNGEN
100
AcDbCircle
 62
9
  6
CONTINUOUS
 10
198.7860236967
 20
102.7287210644
 40
4.0000818616
100
AcDbArc
 50
51.3167577179
 51
89.998485763
  0
ARC
  5
2DE
100
AcDbEntity
  8
RUNDUNGEN
100
AcDbCircle
 62
9
  6
CONTINUOUS
 10
192.7860907149
 20
102.7290267546
 40
3.9997761702
100
AcDbArc
 50
89.9994456666
 51
128.6840251465
  0
ARC
  5
2DF
100
AcDbEntity
  8
RUNDUNGEN
100
AcDbCircle
 62
7
  6
CONTINUOUS
 10
192.7861294126
 20
103.0708230679
 40
3.0
100
AcDbArc
 50
90.0
 51
180.0
  0
ARC
  5
2E0
100
AcDbEntity
  8
RUNDUNGEN
100
AcDbCircle
 62
7
  6
CONTINUOUS
 10
198.7861294126
 20
103.0708230679
 40
3.0
100
AcDbArc
 50
0.0
 51
90.0
  0
ARC
  5
2E1
100
AcDbEntity
  8
RUNDUNGEN
100
AcDbCircle
 62
7
  6
CONTINUOUS
 10
198.7861294126
 20
93.0708230679
 40
3.0
100
AcDbArc
 50
270.0
 51
360.0
  0
ARC
  5
2E2
100
AcDbEntity
  8
RUNDUNGEN
100
AcDbCircle
 62
7
  6
CONTINUOUS
 10
192.7861294126
 20
93.0708230679
 40
3.0
100
AcDbArc
 50
180.0
 51
270.0
  0
ARC
  5
2E3
100
AcDbEntity
  8
0
100
AcDbCircle
 62
7
  6
CONTINUOUS
 10
195.7861294126
 20
122.8208230679
 40
2.75
100
AcDbArc
 50
0.0
 51
180.0
  0
ARC
  5
2E4
100
AcDbEntity
  8
0
100
AcDbCircle
 62
7
  6
CONTINUOUS
 10
195.7861294126
 20
115.3208230679
 40
2.75
100
AcDbArc
 50
180.0
 51
360.0
  0
CIRCLE
  5
2E5
100
AcDbEntity
  8
0
100
AcDbCircle
 62
7
  6
CONTINUOUS
 10
195.7861294126
 20
98.0708230679
 40
2.7
  0
ARC
  5
2E6
100
AcDbEntity
  8
RUNDUNGEN
100
AcDbCircle
 62
9
  6
CONTINUOUS
 10
198.7861294126
 20
93.0708230679
 40
2.0
100
AcDbArc
 50
270.0
 51
360.0
  0
ARC
  5
2E7
100
AcDbEntity
  8
RUNDUNGEN
100
AcDbCircle
 62
9
  6
CONTINUOUS
 10
192.7861294126
 20
93.0708230679
 40
2.0
100
AcDbArc
 50
180.0
 51
270.0
  0
ARC
  5
2E8
100
AcDbEntity
  8
RUNDUNGEN
100
AcDbCircle
 62
9
  6
CONTINUOUS
 10
192.7861294126
 20
103.0708230679
 40
2.0
100
AcDbArc
 50
90.0
 51
180.0
  0
ARC
  5
2E9
100
AcDbEntity
  8
RUNDUNGEN
100
AcDbCircle
 62
9
  6
CONTINUOUS
 10
198.7861294126
 20
103.0708230679
 40
2.0
100
AcDbArc
 50
0.0
 51
90.0
  0
ARC
  5
2EA
100
AcDbEntity
  8
RUNDUNGEN
100
AcDbCircle
 62
7
  6
CONTINUOUS
 10
200.7861294126
 20
128.0708230679
 40
1.0
100
AcDbArc
 50
0.0
 51
90.0
  0
ARC
  5
2EB
100
AcDbEntity
  8
RUNDUNGEN
100
AcDbCircle
 62
7
  6
CONTINUOUS
 10
190.7861294126
 20
128.0708230679
 40
1.0
100
AcDbArc
 50
90.0
 51
180.0
  0
SPLINE
  5
2EC
100
AcDbEntity
  8
RUNDUNGEN
100
AcDbSpline
 62
9
  6
CONTINUOUS
 70
0
 71
3
 72
11
 73
7
 74
0
 42
0.0000001
 43
0.0000001
 44
0.0000000001
 40
0.0
 40
0.0
 40
0.0
 40
0.0
 40
0.2496899904
 40
0.4997021451
 40
0.7498319471
 40
1.0
 40
1.0
 40
1.0
 40
1.0
 10
112.194548728
 20
101.8390382968
 30
0.0
 10
112.3486106028
 20
101.4577182227
 30
0.0
 10
112.7643636699
 20
100.7377325505
 30
0.0
 10
113.5512102479
 20
99.783026452
 30
0.0
 10
114.4245858767
 20
98.9071095204
 30
0.0
 10
115.0314617808
 20
98.3496952402
 30
0.0
 10
115.3348075753
 20
98.0708230679
 30
0.0
  0
SPLINE
  5
2ED
100
AcDbEntity
  8
RUNDUNGEN
100
AcDbSpline
 62
9
  6
CONTINUOUS
 70
0
 71
3
 72
11
 73
7
 74
0
 42
0.0000001
 43
0.0000001
 44
0.0000000001
 40
0.0
 40
0.0
 40
0.0
 40
0.0
 40
0.2501652317
 40
0.5003101893
 40
0.7503209319
 40
1.0
 40
1.0
 40
1.0
 40
1.0
 10
79.8544980063
 20
103.0707068942
 30
0.0
 10
80.1077393168
 20
103.2469004172
 30
0.0
 10
80.6138580626
 20
103.5997673165
 30
0.0
 10
81.3393343153
 20
104.1765879533
 30
0.0
 10
81.980308127
 20
104.8485801836
 30
0.0
 10
82.2953652582
 20
105.3909367441
 30
0.0
 10
82.4006544677
 20
105.6802807245
 30
0.0
  0
LINE
  5
2EE
100
AcDbEntity
  8
RUNDUNGEN
100
AcDbLine
 62
9
  6
CONTINUOUS
 10
143.8943773162
 20
104.0708230683
 11
143.9936767358
 21
103.7287395503
  0
SPLINE
  5
2EF
100
AcDbEntity
  8
RUNDUNGEN
100
AcDbSpline
 62
9
  6
CONTINUOUS
 70
0
 71
3
 72
9
 73
5
 74
0
 42
0.0000001
 43
0.0000001
 44
0.0000000001
 40
0.0
 40
0.0
 40
0.0
 40
0.0
 40
0.7499831766
 40
1.0
 40
1.0
 40
1.0
 40
1.0
 10
144.0107440196
 20
98.0707517599
 30
0.0
 10
143.8218440735
 20
98.513731799
 30
0.0
 10
143.5693682771
 20
99.1047488686
 30
0.0
 10
143.3598329957
 20
99.7119965247
 30
0.0
 10
143.3113401928
 20
99.8650368815
 30
0.0
  0
LINE
  5
2F0
100
AcDbEntity
  8
RUNDUNGEN
100
AcDbLine
 62
7
  6
CONTINUOUS
 10
140.0107138226
 20
117.1330008944
 11
139.5107138226
 21
117.0671746456
  0
SPLINE
  5
2F1
100
AcDbEntity
  8
RUNDUNGEN
100
AcDbSpline
 62
9
  6
CONTINUOUS
 70
0
 71
3
 72
8
 73
4
 74
0
 42
0.0000001
 43
0.0000001
 44
0.0000000001
 40
0.0
 40
0.0
 40
0.0
 40
0.0
 40
1.0
 40
1.0
 40
1.0
 40
1.0
 10
143.0730594203
 20
100.8280543985
 30
0.0
 10
143.0342781673
 20
101.0613917086
 30
0.0
 10
143.0107075402
 20
101.2983865554
 30
0.0
 10
143.0107138226
 20
101.5349246831
 30
0.0
  0
SPLINE
  5
2F2
100
AcDbEntity
  8
RUNDUNGEN
100
AcDbSpline
 62
7
  6
CONTINUOUS
 70
0
 71
3
 72
10
 73
6
 74
0
 42
0.0000001
 43
0.0000001
 44
0.0000000001
 40
0.0
 40
0.0
 40
0.0
 40
0.0
 40
0.2499238906
 40
0.4999361684
 40
1.0
 40
1.0
 40
1.0
 40
1.0
 10
123.5107138226
 20
100.5708230679
 30
0.0
 10
123.5107138226
 20
100.3578217916
 30
0.0
 10
123.4717804533
 20
99.931753853
 30
0.0
 10
123.3072308495
 20
99.0949572483
 30
0.0
 10
123.1289167415
 20
98.48028999
 30
0.0
 10
123.0107138226
 20
98.0708230679
 30
0.0
  0
SPLINE
  5
2F3
100
AcDbEntity
  8
RUNDUNGEN
100
AcDbSpline
 62
9
  6
CONTINUOUS
 70
0
 71
3
 72
11
 73
7
 74
0
 42
0.0000001
 43
0.0000001
 44
0.0000000001
 40
0.0
 40
0.0
 40
0.0
 40
0.0
 40
0.2591633486
 40
0.5130566939
 40
0.7593046645
 40
1.0
 40
1.0
 40
1.0
 40
1.0
 10
123.0107138226
 20
103.6092846065
 30
0.0
 10
123.0755606011
 20
103.6092846065
 30
0.0
 10
123.2051846776
 20
103.632687412
 30
0.0
 10
123.3711514862
 20
103.7339617328
 30
0.0
 10
123.483905705
 20
103.8872899417
 30
0.0
 10
123.5107138226
 20
104.0105972788
 30
0.0
 10
123.5107138226
 20
104.0708230677
 30
0.0
  0
SPLINE
  5
2F4
100
AcDbEntity
  8
RUNDUNGEN
100
AcDbSpline
 62
9
  6
CONTINUOUS
 70
0
 71
3
 72
11
 73
7
 74
0
 42
0.0000001
 43
0.0000001
 44
0.0000000001
 40
0.0
 40
0.0
 40
0.0
 40
0.0
 40
0.2565752146
 40
0.508927477
 40
0.7562526322
 40
1.0
 40
1.0
 40
1.0
 40
1.0
 10
123.0277509095
 20
103.7287377816
 30
0.0
 10
123.0820848764
 20
103.7271251717
 30
0.0
 10
123.1911235629
 20
103.7409830244
 30
0.0
 10
123.3382927715
 20
103.8111857104
 30
0.0
 10
123.4519526442
 20
103.9245372987
 30
0.0
 10
123.4973483973
 20
104.0209424627
 30
0.0
 10
123.5107138226
 20
104.0708230679
 30
0.0
  0
SPLINE
  5
2F5
100
AcDbEntity
  8
RUNDUNGEN
100
AcDbSpline
 62
9
  6
CONTINUOUS
 70
0
 71
3
 72
12
 73
8
 74
0
 42
0.0000001
 43
0.0000001
 44
0.0000000001
 40
0.0
 40
0.0
 40
0.0
 40
0.0
 40
0.2991844427
 40
0.566399384
 40
0.7952350821
 40
0.8992913744
 40
1.0
 40
1.0
 40
1.0
 40
1.0
 10
90.6644102984
 20
128.0708230679
 30
0.0
 10
90.7288374965
 20
128.2144969857
 30
0.0
 10
90.8701061617
 20
128.4788836768
 30
0.0
 10
91.1378746016
 20
128.8048865428
 30
0.0
 10
91.4029555774
 20
128.9883132359
 30
0.0
 10
91.6213606738
 20
129.0591675517
 30
0.0
 10
91.7294422507
 20
129.0707777832
 30
0.0
 10
91.7824442872
 20
129.0708230679
 30
0.0
  0
SPLINE
  5
2F6
100
AcDbEntity
  8
RUNDUNGEN
100
AcDbSpline
 62
9
  6
CONTINUOUS
 70
0
 71
3
 72
11
 73
7
 74
0
 42
0.0000001
 43
0.0000001
 44
0.0000000001
 40
0.0
 40
0.0
 40
0.0
 40
0.0
 40
0.2352032608
 40
0.4776664404
 40
0.7326615097
 40
1.0
 40
1.0
 40
1.0
 40
1.0
 10
133.5107138226
 20
129.0708230679
 30
0.0
 10
133.302785994
 20
129.0708006107
 30
0.0
 10
132.8792988914
 20
129.0262437768
 30
0.0
 10
132.2583433692
 20
128.8286386484
 30
0.0
 10
131.6597664156
 20
128.5072880417
 30
0.0
 10
131.2908719383
 20
128.226379764
 30
0.0
 10
131.1128858464
 20
128.070893798
 30
0.0
  0
SPLINE
  5
2F7
100
AcDbEntity
  8
RUNDUNGEN
100
AcDbSpline
 62
9
  6
CONTINUOUS
 70
0
 71
3
 72
11
 73
7
 74
0
 42
0.0000001
 43
0.0000001
 44
0.0000000001
 40
0.0
 40
0.0
 40
0.0
 40
0.0
 40
0.2352033662
 40
0.4776663916
 40
0.7326632005
 40
1.0
 40
1.0
 40
1.0
 40
1.0
 10
133.5107138226
 20
129.0708230679
 30
0.0
 10
133.7186505095
 20
129.0707975763
 30
0.0
 10
134.1421564471
 20
129.0262424544
 30
0.0
 10
134.7631319263
 20
128.828603428
 30
0.0
 10
135.3617365033
 20
128.5072498161
 30
0.0
 10
135.730652243
 20
128.2263319203
 30
0.0
 10
135.9086295847
 20
128.0708230676
 30
0.0
  0
LINE
  5
2F8
100
AcDbEntity
  8
RUNDUNGEN
100
AcDbLine
 62
9
  6
CONTINUOUS
 10
112.5066142849
 20
104.0708230736
 11
115.3348075753
 21
98.0708230679
  0
SPLINE
  5
2F9
100
AcDbEntity
  8
RUNDUNGEN
100
AcDbSpline
 62
9
  6
CONTINUOUS
 70
0
 71
3
 72
9
 73
5
 74
0
 42
0.0000001
 43
0.0000001
 44
0.0000000001
 40
0.0
 40
0.0
 40
0.0
 40
0.0
 40
0.5017918709
 40
1.0
 40
1.0
 40
1.0
 40
1.0
 10
143.5893319571
 20
100.4751262342
 30
0.0
 10
143.5667815775
 20
100.6515294236
 30
0.0
 10
143.528334292
 20
101.0039374127
 30
0.0
 10
143.51071235
 20
101.3583560828
 30
0.0
 10
143.5107138226
 20
101.5349246831
 30
0.0
  0
SPLINE
  5
2FA
100
AcDbEntity
  8
RUNDUNGEN
100
AcDbSpline
 62
9
  6
CONTINUOUS
 70
0
 71
3
 72
11
 73
7
 74
0
 42
0.0000001
 43
0.0000001
 44
0.0000000001
 40
0.0
 40
0.0
 40
0.0
 40
0.0
 40
0.2406953355
 40
0.4869433063
 40
0.7408366515
 40
1.0
 40
1.0
 40
1.0
 40
1.0
 10
143.5107138226
 20
104.0708230679
 30
0.0
 10
143.5107138226
 20
104.010597279
 30
0.0
 10
143.5375219402
 20
103.8872899419
 30
0.0
 10
143.6502761591
 20
103.7339617332
 30
0.0
 10
143.8162429678
 20
103.6326874125
 30
0.0
 10
143.9458670442
 20
103.6092846073
 30
0.0
 10
144.0107138226
 20
103.6092846073
 30
0.0
  0
SPLINE
  5
2FB
100
AcDbEntity
  8
RUNDUNGEN
100
AcDbSpline
 62
9
  6
CONTINUOUS
 70
0
 71
3
 72
9
 73
5
 74
0
 42
0.0000001
 43
0.0000001
 44
0.0000000001
 40
0.0
 40
0.0
 40
0.0
 40
0.0
 40
0.5025773992
 40
1.0
 40
1.0
 40
1.0
 40
1.0
 10
144.0107138226
 20
98.0708230679
 30
0.0
 10
143.932275574
 20
98.4722004398
 30
0.0
 10
143.7761541766
 20
99.2707396158
 30
0.0
 10
143.6406545583
 20
100.0736179098
 30
0.0
 10
143.5893319571
 20
100.4751262342
 30
0.0
  0
LINE
  5
2FC
100
AcDbEntity
  8
RUNDUNGEN
100
AcDbLine
 62
7
  6
CONTINUOUS
 10
143.5107138226
 20
104.0708230679
 11
143.0107138226
 21
104.0049968192
  0
SPLINE
  5
2FD
100
AcDbEntity
  8
RUNDUNGEN
100
AcDbSpline
 62
9
  6
CONTINUOUS
 70
0
 71
3
 72
11
 73
7
 74
0
 42
0.0000001
 43
0.0000001
 44
0.0000000001
 40
0.0
 40
0.0
 40
0.0
 40
0.0
 40
0.2437473678
 40
0.4910725231
 40
0.7434247857
 40
1.0
 40
1.0
 40
1.0
 40
1.0
 10
143.5107138226
 20
104.0708230679
 30
0.0
 10
143.5240792482
 20
104.0209424642
 30
0.0
 10
143.5694750027
 20
103.9245373036
 30
0.0
 10
143.6831348775
 20
103.8111857231
 30
0.0
 10
143.8303040861
 20
103.740983047
 30
0.0
 10
143.9393427704
 20
103.7271252009
 30
0.0
 10
143.9936767358
 20
103.7287378138
 30
0.0
  0
LINE
  5
2FE
100
AcDbEntity
  8
RUNDUNGEN
100
AcDbLine
 62
9
  6
CONTINUOUS
 10
108.0270958539
 20
98.0708230679
 11
110.2492400655
 21
92.0708230787
  0
LINE
  5
2FF
100
AcDbEntity
  8
RUNDUNGEN
100
AcDbLine
 62
9
  6
CONTINUOUS
 10
125.9786249364
 20
98.0708230679
 11
123.9768001882
 21
92.0708550097
  0
LINE
  5
300
100
AcDbEntity
  8
RUNDUNGEN
100
AcDbLine
 62
9
  6
CONTINUOUS
 10
81.3105062844
 20
106.0708230679
 11
79.8545689289
 21
103.0707068932
  0
LINE
  5
301
100
AcDbEntity
  8
RUNDUNGEN
100
AcDbLine
 62
7
  6
CONTINUOUS
 10
126.5107138226
 20
98.0708230679
 11
126.0107138226
 21
98.1589865583
  0
LINE
  5
302
100
AcDbEntity
  8
RUNDUNGEN
100
AcDbLine
 62
9
  6
CONTINUOUS
 10
81.7745802878
 20
90.0708230679
 11
82.6845058734
 21
93.0708230679
  0
LINE
  5
303
100
AcDbEntity
  8
RUNDUNGEN
100
AcDbLine
 62
7
  6
CONTINUOUS
 10
127.0107138226
 20
117.1330008944
 11
127.5107138226
 21
117.0671746456
  0
SPLINE
  5
304
100
AcDbEntity
  8
RUNDUNGEN
100
AcDbSpline
 62
9
  6
CONTINUOUS
 70
0
 71
3
 72
11
 73
7
 74
0
 42
0.0000001
 43
0.0000001
 44
0.0000000001
 40
0.0
 40
0.0
 40
0.0
 40
0.0
 40
0.2529030582
 40
0.5039639388
 40
0.7526211021
 40
1.0
 40
1.0
 40
1.0
 40
1.0
 10
79.8546179256
 20
103.0708149099
 30
0.0
 10
80.0510479816
 20
103.2894052693
 30
0.0
 10
80.4424133018
 20
103.7249663586
 30
0.0
 10
81.0149884551
 20
104.3865901201
 30
0.0
 10
81.5459511399
 20
105.0732552552
 30
0.0
 10
81.8324681339
 20
105.5810935428
 30
0.0
 10
81.9307806507
 20
105.8512219593
 30
0.0
  0
SPLINE
  5
305
100
AcDbEntity
  8
RUNDUNGEN
100
AcDbSpline
 62
9
  6
CONTINUOUS
 70
0
 71
3
 72
12
 73
8
 74
0
 42
0.0000001
 43
0.0000001
 44
0.0000000001
 40
0.0
 40
0.0
 40
0.0
 40
0.0
 40
0.1007055032
 40
0.2047641132
 40
0.433599766
 40
0.7008152669
 40
1.0
 40
1.0
 40
1.0
 40
1.0
 10
100.3824442872
 20
129.0708230679
 30
0.0
 10
100.4354446707
 20
129.0707792082
 30
0.0
 10
100.5435258848
 20
129.0591677128
 30
0.0
 10
100.7619302363
 20
128.9883137009
 30
0.0
 10
101.0270140873
 20
128.8048879825
 30
0.0
 10
101.2947793284
 20
128.4788825555
 30
0.0
 10
101.4360545143
 20
128.2144986591
 30
0.0
 10
101.5004782759
 20
128.0708230679
 30
0.0
  0
LINE
  5
306
100
AcDbEntity
  8
RUNDUNGEN
100
AcDbLine
 62
9
  6
CONTINUOUS
 10
143.0446274387
 20
92.0708550535
 11
141.0428027089
 21
98.0708230679
  0
SPLINE
  5
307
100
AcDbEntity
  8
RUNDUNGEN
100
AcDbSpline
 62
9
  6
CONTINUOUS
 70
0
 71
3
 72
12
 73
8
 74
0
 42
0.0000001
 43
0.0000001
 44
0.0000000001
 40
0.0
 40
0.0
 40
0.0
 40
0.0
 40
0.1239416122
 40
0.2481606509
 40
0.4975916529
 40
0.7483868965
 40
1.0
 40
1.0
 40
1.0
 40
1.0
 10
112.6581438131
 20
102.0263326753
 30
0.0
 10
112.7322770943
 20
101.8428458465
 30
0.0
 10
112.9019813392
 20
101.4839547782
 30
0.0
 10
113.2969516483
 20
100.7940734155
 30
0.0
 10
113.8603659451
 20
99.9700111343
 30
0.0
 10
114.586577871
 20
99.0140741388
 30
0.0
 10
115.0852160747
 20
98.3856348674
 30
0.0
 10
115.3348075752
 20
98.0708230681
 30
0.0
  0
LINE
  5
308
100
AcDbEntity
  8
RUNDUNGEN
100
AcDbLine
 62
9
  6
CONTINUOUS
 10
123.1270503286
 20
104.0708230679
 11
123.0277509095
 21
103.7287395503
  0
LINE
  5
309
100
AcDbEntity
  8
RUNDUNGEN
100
AcDbLine
 62
7
  6
CONTINUOUS
 10
140.5107138226
 20
98.0708230679
 11
141.0107138226
 21
98.1589865583
  0
SPLINE
  5
30A
100
AcDbEntity
  8
RUNDUNGEN
100
AcDbSpline
 62
9
  6
CONTINUOUS
 70
0
 71
3
 72
11
 73
7
 74
0
 42
0.0000001
 43
0.0000001
 44
0.0000000001
 40
0.0
 40
0.0
 40
0.0
 40
0.0
 40
0.232653477
 40
0.4709641149
 40
0.7227572591
 40
1.0
 40
1.0
 40
1.0
 40
1.0
 10
201.7861220641
 20
103.0708149099
 30
0.0
 10
201.7861458411
 20
103.2904292376
 30
0.0
 10
201.7578945219
 20
103.7354246965
 30
0.0
 10
201.6380759834
 20
104.4080173598
 30
0.0
 10
201.4619983816
 20
105.1107162856
 30
0.0
 10
201.3417066219
 20
105.5954813268
 30
0.0
 10
201.2861547393
 20
105.8512219593
 30
0.0
  0
SPLINE
  5
30B
100
AcDbEntity
  8
RUNDUNGEN
100
AcDbSpline
 62
9
  6
CONTINUOUS
 70
0
 71
3
 72
11
 73
7
 74
0
 42
0.0000001
 43
0.0000001
 44
0.0000000001
 40
0.0
 40
0.0
 40
0.0
 40
0.0
 40
0.2772443234
 40
0.5290371274
 40
0.7673486688
 40
1.0
 40
1.0
 40
1.0
 40
1.0
 10
190.286127926
 20
105.8512711383
 30
0.0
 10
190.2305694252
 20
105.5955255726
 30
0.0
 10
190.1102653289
 20
105.1107531239
 30
0.0
 10
189.9341894633
 20
104.4080382436
 30
0.0
 10
189.8143642811
 20
103.735435823
 30
0.0
 10
189.7861129545
 20
103.2904332938
 30
0.0
 10
189.7861372515
 20
103.0708170208
 30
0.0
  0
SPLINE
  5
30C
100
AcDbEntity
  8
RUNDUNGEN
100
AcDbSpline
 62
9
  6
CONTINUOUS
 70
0
 71
3
 72
11
 73
7
 74
0
 42
0.0000001
 43
0.0000001
 44
0.0000000001
 40
0.0
 40
0.0
 40
0.0
 40
0.0
 40
0.194211587
 40
0.4127979504
 40
0.676156338
 40
1.0
 40
1.0
 40
1.0
 40
1.0
 10
190.7861294126
 20
129.0708230679
 30
0.0
 10
190.7268780386
 20
129.0707497675
 30
0.0
 10
190.5994847777
 20
129.0391521159
 30
0.0
 10
190.4366546025
 20
128.9035214475
 30
0.0
 10
190.3158068858
 20
128.6839749012
 30
0.0
 10
190.2861347213
 20
128.5029568739
 30
0.0
 10
190.2861294126
 20
128.4041564013
 30
0.0
  0
SPLINE
  5
30D
100
AcDbEntity
  8
RUNDUNGEN
100
AcDbSpline
 62
9
  6
CONTINUOUS
 70
0
 71
3
 72
11
 73
7
 74
0
 42
0.0000001
 43
0.0000001
 44
0.0000000001
 40
0.0
 40
0.0
 40
0.0
 40
0.0
 40
0.3238415625
 40
0.5871984514
 40
0.8057855586
 40
1.0
 40
1.0
 40
1.0
 40
1.0
 10
201.2861294126
 20
128.4041564013
 30
0.0
 10
201.286146469
 20
128.5029564288
 30
0.0
 10
201.2564390568
 20
128.6839729312
 30
0.0
 10
201.135611646
 20
128.9035208185
 30
0.0
 10
200.9727761463
 20
129.0391614454
 30
0.0
 10
200.8453817558
 20
129.0707353862
 30
0.0
 10
200.7861294126
 20
129.0708230679
 30
0.0
  0
SPLINE
  5
30E
100
AcDbEntity
  8
RUNDUNGEN
100
AcDbSpline
 62
9
  6
CONTINUOUS
 70
0
 71
3
 72
14
 73
10
 74
0
 42
0.0000001
 43
0.0000001
 44
0.0000000001
 40
0.0
 40
0.0
 40
0.0
 40
0.0
 40
0.3436084528
 40
0.5011163595
 40
0.6420467654
 40
0.7626667288
 40
0.861019163
 40
0.937903251
 40
1.0
 40
1.0
 40
1.0
 40
1.0
 10
190.2861304651
 20
105.8512797016
 30
0.0
 10
190.2222026406
 20
105.851279163
 30
0.0
 10
190.128742318
 20
105.8454117151
 30
0.0
 10
190.0110569248
 20
105.824345853
 30
0.0
 10
189.9357237904
 20
105.8037487416
 30
0.0
 10
189.8734193196
 20
105.7786627526
 30
0.0
 10
189.8260861129
 20
105.7499227944
 30
0.0
 10
189.794734521
 20
105.7177252257
 30
0.0
 10
189.7861296665
 20
105.6918230753
 30
0.0
 10
189.7861294126
 20
105.6802700706
 30
0.0
  0
SPLINE
  5
30F
100
AcDbEntity
  8
RUNDUNGEN
100
AcDbSpline
 62
9
  6
CONTINUOUS
 70
0
 71
3
 72
14
 73
10
 74
0
 42
0.0000001
 43
0.0000001
 44
0.0000000001
 40
0.0
 40
0.0
 40
0.0
 40
0.0
 40
0.3436085073
 40
0.5011161115
 40
0.6420459864
 40
0.7626653881
 40
0.8610174874
 40
0.9379018212
 40
1.0
 40
1.0
 40
1.0
 40
1.0
 10
190.2861294126
 20
127.7548633546
 30
0.0
 10
190.2222014112
 20
127.7548633546
 30
0.0
 10
190.1287408433
 20
127.7489965184
 30
0.0
 10
190.0110551451
 20
127.7279314123
 30
0.0
 10
189.935721969
 20
127.7073346202
 30
0.0
 10
189.8734176288
 20
127.6822484836
 30
0.0
 10
189.8260846859
 20
127.6535080036
 30
0.0
 10
189.7947334906
 20
127.6213093963
 30
0.0
 10
189.7861294126
 20
127.5954065838
 30
0.0
 10
189.7861294126
 20
127.5838532829
 30
0.0
  0
SPLINE
  5
310
100
AcDbEntity
  8
RUNDUNGEN
100
AcDbSpline
 62
9
  6
CONTINUOUS
 70
0
 71
3
 72
11
 73
7
 74
0
 42
0.0000001
 43
0.0000001
 44
0.0000000001
 40
0.0
 40
0.0
 40
0.0
 40
0.0
 40
0.2938652625
 40
0.5642245621
 40
0.7973295733
 40
1.0
 40
1.0
 40
1.0
 40
1.0
 10
190.2861294126
 20
128.4041564016
 30
0.0
 10
190.2217904981
 20
128.4041564017
 30
0.0
 10
190.0975439705
 20
128.3884447433
 30
0.0
 10
189.9345724727
 20
128.3193188501
 30
0.0
 10
189.8175666238
 20
128.2115836103
 30
0.0
 10
189.7861294126
 20
128.1151957683
 30
0.0
 10
189.7861294126
 20
128.0708230679
 30
0.0
  0
SPLINE
  5
311
100
AcDbEntity
  8
RUNDUNGEN
100
AcDbSpline
 62
9
  6
CONTINUOUS
 70
0
 71
3
 72
11
 73
7
 74
0
 42
0.0000001
 43
0.0000001
 44
0.0000000001
 40
0.0
 40
0.0
 40
0.0
 40
0.0
 40
0.2938707601
 40
0.5642354769
 40
0.7973401006
 40
1.0
 40
1.0
 40
1.0
 40
1.0
 10
201.2861294126
 20
128.4041564016
 30
0.0
 10
201.3504687103
 20
128.4041525511
 30
0.0
 10
201.4747149953
 20
128.3884350231
 30
0.0
 10
201.6376847316
 20
128.3193063463
 30
0.0
 10
201.754689936
 20
128.2115764055
 30
0.0
 10
201.7861294125
 20
128.1151929025
 30
0.0
 10
201.7861294126
 20
128.0708230727
 30
0.0
  0
SPLINE
  5
312
100
AcDbEntity
  8
RUNDUNGEN
100
AcDbSpline
 62
9
  6
CONTINUOUS
 70
0
 71
3
 72
14
 73
10
 74
0
 42
0.0000001
 43
0.0000001
 44
0.0000000001
 40
0.0
 40
0.0
 40
0.0
 40
0.0
 40
0.3436085044
 40
0.5011161098
 40
0.6420459874
 40
0.7626653901
 40
0.8610174894
 40
0.9379018219
 40
1.0
 40
1.0
 40
1.0
 40
1.0
 10
201.2861294126
 20
127.7548633546
 30
0.0
 10
201.3500574134
 20
127.7548633546
 30
0.0
 10
201.443517981
 20
127.7489965187
 30
0.0
 10
201.5612036793
 20
127.7279314123
 30
0.0
 10
201.6365368565
 20
127.7073346203
 30
0.0
 10
201.6988411972
 20
127.6822484829
 30
0.0
 10
201.7461741399
 20
127.6535080029
 30
0.0
 10
201.7775253353
 20
127.621309396
 30
0.0
 10
201.7861294126
 20
127.5954065836
 30
0.0
 10
201.7861294126
 20
127.5838532829
 30
0.0
  0
SPLINE
  5
313
100
AcDbEntity
  8
RUNDUNGEN
100
AcDbSpline
 62
9
  6
CONTINUOUS
 70
0
 71
3
 72
14
 73
10
 74
0
 42
0.0000001
 43
0.0000001
 44
0.0000000001
 40
0.0
 40
0.0
 40
0.0
 40
0.0
 40
0.3436087614
 40
0.501116348
 40
0.6420461956
 40
0.7626655997
 40
0.861017731
 40
0.9379020557
 40
1.0
 40
1.0
 40
1.0
 40
1.0
 10
201.2861323469
 20
105.8512876392
 30
0.0
 10
201.350059863
 20
105.8512877031
 30
0.0
 10
201.4435196996
 20
105.8454210492
 30
0.0
 10
201.5612045001
 20
105.824356368
 30
0.0
 10
201.6365370977
 20
105.8037599645
 30
0.0
 10
201.6988410145
 20
105.7786742834
 30
0.0
 10
201.7461737231
 20
105.7499343077
 30
0.0
 10
201.7775249004
 20
105.7177363017
 30
0.0
 10
201.7861292568
 20
105.6918338854
 30
0.0
 10
201.7861294125
 20
105.6802807245
 30
0.0
  0
ENDSEC
  0
SECTION
  2
OBJECTS
  0
DICTIONARY
  5
C
100
AcDbDictionary
280
0
281
1
  3
ACAD_GROUP
350
D
  3
ACAD_MLINESTYLE
350
17
  3
ACAD_LAYOUT
350
1A
  3
ACAD_PLOTSETTINGS
350
19
  3
ACAD_PLOTSTYLENAME
350
E
  0
DICTIONARY
  5
D
102
{ACAD_REACTORS
330
C
102
}
100
AcDbDictionary
280
0
281
1
  0
ACDBDICTIONARYWDFLT
  5
E
102
{ACAD_REACTORS
330
C
102
}
100
AcDbDictionary
281
1
  3
Normal
350
F
100
AcDbDictionaryWithDefault
340
F
  0
DICTIONARY
  5
17
102
{ACAD_REACTORS
330
C
102
}
100
AcDbDictionary
280
0
281
1
  3
Standard
350
18
  0
DICTIONARY
  5
19
102
{ACAD_REACTORS
330
C
102
}
100
AcDbDictionary
281
1
  0
DICTIONARY
  5
1A
102
{ACAD_REACTORS
330
C
102
}
100
AcDbDictionary
281
1
  3
Model
350
314
  3
Layout1
350
315
  0
ACDBPLACEHOLDER
  5
F
102
{ACAD_REACTORS
330
E
102
}
  0
MLINESTYLE
  5
18
102
{ACAD_REACTORS
330
17
102
}
100
AcDbMlineStyle
  2
STANDARD
 70
0
  3

 62
256
 51
90.0
 52
90.0
 71
2
 49
0.5
 62
256
  6
BYLAYER
 49
-0.5
 62
256
  6
BYLAYER
  0
LAYOUT
  5
314
102
{ACAD_REACTORS
330
1A
102
}
100
AcDbPlotSettings
  1

  2
none_device
  4
ISO_A4_(297.00_x_210.00_MM)
  6

 40
0.0
 41
0.0
 42
0.0
 43
0.0
 44
297.0
 45
210.0
 46
0.0
 47
0.0
 48
0.0
 49
0.0
140
0.0
141
0.0
142
1.0
143
1.0
 70
1024
 72
1
 73
0
 74
0
  7

 75
0
147
1.0
148
0.0
149
0.0
100
AcDbLayout
  1
Model
 70
0
 71
0
 10
0.0
 20
0.0
 11
297.0
 21
210.0
 12
0.0
 22
0.0
 32
0.0
 14
0.0
 24
0.0
 34
0.0
 15
0.0
 25
0.0
 35
0.0
146
0.0
 13
0.0
 23
0.0
 33
0.0
 16
1.0
 26
0.0
 36
0.0
 17
0.0
 27
1.0
 37
0.0
 76
0
330
219
345
0
346
0
  0
LAYOUT
  5
315
102
{ACAD_REACTORS
330
1A
102
}
100
AcDbPlotSettings
  1

  2
none_device
  4
ISO_A4_(297.00_x_210.00_MM)
  6

 40
0.0
 41
0.0
 42
0.0
 43
0.0
 44
297.0
 45
210.0
 46
0.0
 47
0.0
 48
0.0
 49
0.0
140
0.0
141
0.0
142
1.0
143
1.0
 70
0
 72
1
 73
0
 74
0
  7

 75
0
147
1.0
148
0.0
149
0.0
100
AcDbLayout
  1
Layout1
 70
0
 71
1
 10
0.0
 20
0.0
 11
297.0
 21
210.0
 12
0.0
 22
0.0
 32
0.0
 14
0.0
 24
0.0
 34
0.0
 15
0.0
 25
0.0
 35
0.0
146
0.0
 13
0.0
 23
0.0
 33
0.0
 16
1.0
 26
0.0
 36
0.0
 17
0.0
 27
1.0
 37
0.0
 76
0
330
21A
345
0
346
0
  0
ENDSEC
  0
EOF
