999
DXF file: S:\Prolink\03_Konstruktion\CAD-Plots\Internet\2D_neu\S5\s5-45_ntp_sml_st_w100.dxf
999
Pro/ENGINEER 2012230 by Parametric Technology Corporation
  0
SECTION
  2
HEADER
  9
$ACADVER
  1
AC1021
  9
$DWGCODEPAGE
  3
ANSI_1252
  9
$EXTMAX
 10
297.0
 20
210.0
 30
0.0
  9
$EXTMIN
 10
0.0
 20
0.0
 30
0.0
  9
$LIMMIN
 10
0.0
 20
0.0
  9
$LIMMAX
 10
297.0
 20
210.0
  9
$VIEWCTR
 10
148.5
 20
105.0
  9
$VIEWSIZE
 40
210.0
  9
$CLAYER
  8
0
  9
$LTSCALE
 40
16.335
  9
$CELTYPE
  6
BYLAYER
  9
$DIMSCALE
 40
1.0
  9
$DIMASZ
 40
3.5
  9
$DIMEXO
 40
0.0
  9
$DIMDLI
 40
11.286
  9
$DIMEXE
 40
1.5
  9
$DIMCEN
 40
2.673
  9
$DIMLFAC
 40
1.0
  9
$DIMBLK
  1
_FILLED
  9
$DIMTXT
 40
3.5
  9
$DIMTOL
 70
1
  9
$DIMLIM
 70
0
  9
$DIMTFAC
 40
1.0
  9
$DIMTP
 40
0.005
  9
$DIMTM
 40
0.005
  9
$DIMGAP
 40
0.625
  9
$DIMDSEP
 70
46
  9
$PDMODE
 70
3
  9
$PDSIZE
 40
0.3125
  9
$HANDSEED
  5
484
  9
$TILEMODE
 70
1
  9
$MEASUREMENT
 70
1
  9
$INSUNITS
 70
4
  0
ENDSEC
  0
SECTION
  2
CLASSES
  0
CLASS
  1
ACDBDICTIONARYWDFLT
  2
AcDbDictionaryWithDefault
  3
AutoCAD 2000
 90
0
 91
1
280
0
281
0
  0
CLASS
  1
ACDBPLACEHOLDER
  2
AcDbPlaceHolder
  3
AutoCAD 2000
 90
0
 91
1
280
0
281
0
  0
CLASS
  1
LAYOUT
  2
AcDbLayout
  3
AutoCAD 2000
 90
0
 91
0
280
0
281
0
  0
ENDSEC
  0
SECTION
  2
TABLES
  0
TABLE
  2
VPORT
  5
8
100
AcDbSymbolTable
 70
2
  0
VPORT
  5
1F4
100
AcDbSymbolTableRecord
100
AcDbViewportTableRecord
  2
*ACTIVE
 70
0
 10
0.0
 20
0.0
 11
1.0
 21
1.0
 12
148.5
 22
105.0
 13
0.0
 23
0.0
 14
1.0
 24
1.0
 15
0.0
 25
0.0
 16
0.0
 26
0.0
 36
1.0
 17
0.0
 27
0.0
 37
0.0
 40
210.0
 41
1.4142857143
 42
50.0
 43
0.0
 44
0.0
 50
0.0
 51
0.0
 71
0
 72
100
 73
1
 74
1
 75
0
 76
0
 77
0
 78
0
  0
ENDTAB
  0
TABLE
  2
LTYPE
  5
5
100
AcDbSymbolTable
 70
6
  0
LTYPE
  5
14
100
AcDbSymbolTableRecord
100
AcDbLinetypeTableRecord
  2
BYBLOCK
 70
0
  3

 72
65
 73
0
 40
0.0
  0
LTYPE
  5
15
100
AcDbSymbolTableRecord
100
AcDbLinetypeTableRecord
  2
BYLAYER
 70
0
  3

 72
65
 73
0
 40
0.0
  0
LTYPE
  5
16
100
AcDbSymbolTableRecord
100
AcDbLinetypeTableRecord
  2
CONTINUOUS
 70
64
  3
Solid line
 72
65
 73
0
 40
0.0
  0
LTYPE
  5
1F5
100
AcDbSymbolTableRecord
100
AcDbLinetypeTableRecord
  2
CENTER
 70
64
  3
____ _ ____ _ ____ _ ____ _ ____ _ ____ _ ____
 72
65
 73
4
 40
0.6
 49
0.375
 74
0
 49
-0.075
 74
0
 49
0.075
 74
0
 49
-0.075
 74
0
  0
LTYPE
  5
1F6
100
AcDbSymbolTableRecord
100
AcDbLinetypeTableRecord
  2
HIDDEN
 70
64
  3
- - - - - - - - - - - - - - - - - - - -
 72
65
 73
2
 40
0.2
 49
0.1
 74
0
 49
-0.1
 74
0
  0
LTYPE
  5
1F7
100
AcDbSymbolTableRecord
100
AcDbLinetypeTableRecord
  2
PHANTOM
 70
64
  3
_____ _ _ _____ _ _ _____ _ _ _____
 72
65
 73
6
 40
0.8
 49
0.45
 74
0
 49
-0.05
 74
0
 49
0.1
 74
0
 49
-0.05
 74
0
 49
0.1
 74
0
 49
-0.05
 74
0
  0
LTYPE
  5
1F8
100
AcDbSymbolTableRecord
100
AcDbLinetypeTableRecord
  2
DOT
 70
64
  3
. . . . . . . . . . . . . . . . . . . .
 72
65
 73
2
 40
0.2
 49
0.1
 74
0
 49
-0.1
 74
0
  0
LTYPE
  5
1F9
100
AcDbSymbolTableRecord
100
AcDbLinetypeTableRecord
  2
DASHED
 70
64
  3
- - - - - - - - - - - - - - - - - - - -
 72
65
 73
2
 40
0.2
 49
0.1
 74
0
 49
-0.1
 74
0
  0
ENDTAB
  0
TABLE
  2
LAYER
  5
2
100
AcDbSymbolTable
 70
36
  0
LAYER
  5
10
100
AcDbSymbolTableRecord
100
AcDbLayerTableRecord
  2
0
 70
0
 62
7
  6
CONTINUOUS
370
-3
390
F
  0
LAYER
  5
1FA
100
AcDbSymbolTableRecord
100
AcDbLayerTableRecord
  2
DEFAULT_1
 70
0
 62
7
  6
CENTER
370
-3
390
F
  0
LAYER
  5
1FB
100
AcDbSymbolTableRecord
100
AcDbLayerTableRecord
  2
DEFAULT_2
 70
0
 62
8
  6
HIDDEN
370
-3
390
F
  0
LAYER
  5
1FC
100
AcDbSymbolTableRecord
100
AcDbLayerTableRecord
  2
DEFAULT_3
 70
0
 62
7
  6
PHANTOM
370
-3
390
F
  0
LAYER
  5
1FD
100
AcDbSymbolTableRecord
100
AcDbLayerTableRecord
  2
01___PRT_ALL_DTM_PLN
 70
0
 62
7
  6
CONTINUOUS
370
-3
390
F
  0
LAYER
  5
1FE
100
AcDbSymbolTableRecord
100
AcDbLayerTableRecord
  2
01___PRT_DEF_DTM_PLN
 70
0
 62
7
  6
CONTINUOUS
370
-3
390
F
  0
LAYER
  5
1FF
100
AcDbSymbolTableRecord
100
AcDbLayerTableRecord
  2
02___PRT_ALL_AXES
 70
0
 62
7
  6
CONTINUOUS
370
-3
390
F
  0
LAYER
  5
200
100
AcDbSymbolTableRecord
100
AcDbLayerTableRecord
  2
03___PRT_ALL_CURVES
 70
0
 62
7
  6
CONTINUOUS
370
-3
390
F
  0
LAYER
  5
201
100
AcDbSymbolTableRecord
100
AcDbLayerTableRecord
  2
04___PRT_ALL_DTM_PNT
 70
0
 62
7
  6
CONTINUOUS
370
-3
390
F
  0
LAYER
  5
202
100
AcDbSymbolTableRecord
100
AcDbLayerTableRecord
  2
05___PRT_ALL_DTM_CSYS
 70
0
 62
7
  6
CONTINUOUS
370
-3
390
F
  0
LAYER
  5
203
100
AcDbSymbolTableRecord
100
AcDbLayerTableRecord
  2
05___PRT_DEF_DTM_CSYS
 70
0
 62
7
  6
CONTINUOUS
370
-3
390
F
  0
LAYER
  5
204
100
AcDbSymbolTableRecord
100
AcDbLayerTableRecord
  2
06___PRT_ALL_SURFS
 70
0
 62
7
  6
CONTINUOUS
370
-3
390
F
  0
LAYER
  5
205
100
AcDbSymbolTableRecord
100
AcDbLayerTableRecord
  2
AUSFORMSCHRAEGEN
 70
0
 62
7
  6
CONTINUOUS
370
-3
390
F
  0
LAYER
  5
206
100
AcDbSymbolTableRecord
100
AcDbLayerTableRecord
  2
BEZUGSACHSEN
 70
0
 62
7
  6
CONTINUOUS
370
-3
390
F
  0
LAYER
  5
207
100
AcDbSymbolTableRecord
100
AcDbLayerTableRecord
  2
BEZUGSEBENE
 70
0
 62
7
  6
CONTINUOUS
370
-3
390
F
  0
LAYER
  5
208
100
AcDbSymbolTableRecord
100
AcDbLayerTableRecord
  2
BEZUGSEBENEN
 70
0
 62
7
  6
CONTINUOUS
370
-3
390
F
  0
LAYER
  5
209
100
AcDbSymbolTableRecord
100
AcDbLayerTableRecord
  2
BEZUGSEBENEN-KES
 70
0
 62
7
  6
CONTINUOUS
370
-3
390
F
  0
LAYER
  5
20A
100
AcDbSymbolTableRecord
100
AcDbLayerTableRecord
  2
KURVEN
 70
0
 62
7
  6
CONTINUOUS
370
-3
390
F
  0
LAYER
  5
20B
100
AcDbSymbolTableRecord
100
AcDbLayerTableRecord
  2
RUNDUNGEN
 70
0
 62
7
  6
CONTINUOUS
370
-3
390
F
  0
LAYER
  5
20C
100
AcDbSymbolTableRecord
100
AcDbLayerTableRecord
  2
ZEICHNUNGSBEMASSUNGEN
 70
0
 62
7
  6
CONTINUOUS
370
-3
390
F
  0
LAYER
  5
20D
100
AcDbSymbolTableRecord
100
AcDbLayerTableRecord
  2
ZEICHNUNGSNOTIZEN
 70
0
 62
7
  6
CONTINUOUS
370
-3
390
F
  0
ENDTAB
  0
TABLE
  2
STYLE
  5
3
100
AcDbSymbolTable
 70
1
  0
STYLE
  5
11
100
AcDbSymbolTableRecord
100
AcDbTextStyleTableRecord
  2
STANDARD
 70
0
 40
0.0
 41
0.7
 50
0.0
 71
0
 42
0.2
  3
txt
  4

  0
STYLE
  5
20E
100
AcDbSymbolTableRecord
100
AcDbTextStyleTableRecord
  2
TEXTSTYLE_1
 70
0
 40
0.0
 41
0.8
 50
0.0
 71
0
 42
0.2
  3
gdt
  4

  0
ENDTAB
  0
TABLE
  2
VIEW
  5
6
100
AcDbSymbolTable
 70
0
  0
ENDTAB
  0
TABLE
  2
UCS
  5
7
100
AcDbSymbolTable
 70
0
  0
ENDTAB
  0
TABLE
  2
APPID
  5
9
100
AcDbSymbolTable
 70
1
  0
APPID
  5
20F
100
AcDbSymbolTableRecord
100
AcDbRegAppTableRecord
  2
ACAD
 70
0
  0
ENDTAB
  0
TABLE
  2
BLOCK_RECORD
  5
1
100
AcDbSymbolTable
 70
0
  0
BLOCK_RECORD
  5
210
100
AcDbSymbolTableRecord
100
AcDbBlockTableRecord
  2
*Model_Space
  0
BLOCK_RECORD
  5
211
100
AcDbSymbolTableRecord
100
AcDbBlockTableRecord
  2
*Paper_Space
  0
ENDTAB
  0
TABLE
  2
DIMSTYLE
  5
A
100
AcDbSymbolTable
 70
1
100
AcDbDimStyleTable
 71
0
  0
DIMSTYLE
105
212
100
AcDbSymbolTableRecord
100
AcDbDimStyleTableRecord
  2
STANDARD
 70
0
  3

  4

 40
1.0
 41
3.5
 42
0.0
 43
0.38
 44
1.5
 45
0.0
 46
0.0
 47
0.005
 48
0.005
140
3.5
141
0.09
142
0.0
143
25.4
144
1.0
145
0.0
146
1.0
147
0.625
 71
1.0
 72
0.0
 73
0
 74
0
 75
0
 76
0
 77
1
 78
8
170
0
171
2
172
0
173
0
174
0
175
0
176
0
177
0
178
5
270
2
271
3
272
3
273
2
274
2
275
0
280
0
281
0
282
0
283
1
284
8
285
0
286
0
287
3
288
0
340
11
278
46
  0
ENDTAB
  0
ENDSEC
  0
SECTION
  2
BLOCKS
  0
BLOCK
  5
20
100
AcDbEntity
  8
0
100
AcDbBlockBegin
  2
*Model_Space
 70
0
 10
0.0
 20
0.0
 30
0.0
  3
*Model_Space
  1

  0
ENDBLK
  5
21
100
AcDbEntity
  8
0
100
AcDbBlockEnd
  0
BLOCK
  5
1C
100
AcDbEntity
  8
0
100
AcDbBlockBegin
  2
*Paper_Space
 70
0
 10
0.0
 20
0.0
 30
0.0
  3
*Paper_Space
  1

  0
ENDBLK
  5
1D
100
AcDbEntity
  8
0
100
AcDbBlockEnd
  0
ENDSEC
  0
SECTION
  2
ENTITIES
  0
LINE
  5
213
100
AcDbEntity
  8
0
100
AcDbLine
 62
7
  6
CONTINUOUS
 10
0.0
 20
0.0
 11
0.0
 21
210.0
  0
LINE
  5
214
100
AcDbEntity
  8
0
100
AcDbLine
 62
7
  6
CONTINUOUS
 10
0.0
 20
0.0
 11
297.0
 21
0.0
  0
LINE
  5
215
100
AcDbEntity
  8
0
100
AcDbLine
 62
7
  6
CONTINUOUS
 10
0.0
 20
210.0
 11
297.0
 21
210.0
  0
LINE
  5
216
100
AcDbEntity
  8
0
100
AcDbLine
 62
7
  6
CONTINUOUS
 10
297.0
 20
0.0
 11
297.0
 21
210.0
  0
LINE
  5
217
100
AcDbEntity
  8
0
100
AcDbLine
 62
7
  6
CONTINUOUS
 10
54.2016809964
 20
146.423878749
 11
54.2016809964
 21
158.423878749
  0
LINE
  5
218
100
AcDbEntity
  8
RUNDUNGEN
100
AcDbLine
 62
7
  6
CONTINUOUS
 10
56.2016809964
 20
146.423878749
 11
56.2016809964
 21
150.1161864413
  0
LINE
  5
219
100
AcDbEntity
  8
RUNDUNGEN
100
AcDbLine
 62
7
  6
CONTINUOUS
 10
56.2016809964
 20
154.7315710567
 11
56.2016809964
 21
158.423878749
  0
LINE
  5
21A
100
AcDbEntity
  8
RUNDUNGEN
100
AcDbLine
 62
7
  6
CONTINUOUS
 10
56.7016809964
 20
157.923878749
 11
56.7016809964
 21
154.923878749
  0
LINE
  5
21B
100
AcDbEntity
  8
RUNDUNGEN
100
AcDbLine
 62
7
  6
CONTINUOUS
 10
56.7016809964
 20
149.923878749
 11
56.7016809964
 21
146.923878749
  0
LINE
  5
21C
100
AcDbEntity
  8
02___PRT_ALL_AXES
100
AcDbLine
 62
7
  6
CONTINUOUS
 10
56.8841809964
 20
160.423878749
 11
56.8841809964
 21
158.4180295973
  0
LINE
  5
21D
100
AcDbEntity
  8
RUNDUNGEN
100
AcDbLine
 62
7
  6
CONTINUOUS
 10
56.8841809964
 20
160.423878749
 11
56.8841809964
 21
158.4180295973
  0
LINE
  5
21E
100
AcDbEntity
  8
02___PRT_ALL_AXES
100
AcDbLine
 62
7
  6
CONTINUOUS
 10
59.3841809964
 20
160.423878749
 11
59.3841809964
 21
158.423878749
  0
LINE
  5
21F
100
AcDbEntity
  8
RUNDUNGEN
100
AcDbLine
 62
7
  6
CONTINUOUS
 10
59.3841809964
 20
160.423878749
 11
59.3841809964
 21
158.423878749
  0
LINE
  5
220
100
AcDbEntity
  8
0
100
AcDbLine
 62
7
  6
CONTINUOUS
 10
60.2016809964
 20
157.923878749
 11
60.2016809964
 21
155.173878749
  0
LINE
  5
221
100
AcDbEntity
  8
0
100
AcDbLine
 62
7
  6
CONTINUOUS
 10
60.2016809964
 20
149.673878749
 11
60.2016809964
 21
146.923878749
  0
LINE
  5
222
100
AcDbEntity
  8
02___PRT_ALL_AXES
100
AcDbLine
 62
7
  6
CONTINUOUS
 10
60.9161809964
 20
160.423878749
 11
60.9161809964
 21
158.423878749
  0
LINE
  5
223
100
AcDbEntity
  8
02___PRT_ALL_AXES
100
AcDbLine
 62
7
  6
CONTINUOUS
 10
61.1266809964
 20
160.423878749
 11
61.1266809964
 21
158.423878749
  0
LINE
  5
224
100
AcDbEntity
  8
02___PRT_ALL_AXES
100
AcDbLine
 62
7
  6
CONTINUOUS
 10
63.6266809964
 20
160.423878749
 11
63.6266809964
 21
158.423878749
  0
LINE
  5
225
100
AcDbEntity
  8
02___PRT_ALL_AXES
100
AcDbLine
 62
7
  6
CONTINUOUS
 10
69.7766809964
 20
160.423878749
 11
69.7766809964
 21
158.423878749
  0
LINE
  5
226
100
AcDbEntity
  8
02___PRT_ALL_AXES
100
AcDbLine
 62
7
  6
CONTINUOUS
 10
72.2766809964
 20
160.423878749
 11
72.2766809964
 21
158.423878749
  0
LINE
  5
227
100
AcDbEntity
  8
02___PRT_ALL_AXES
100
AcDbLine
 62
7
  6
CONTINUOUS
 10
72.4871809964
 20
160.423878749
 11
72.4871809964
 21
158.423878749
  0
LINE
  5
228
100
AcDbEntity
  8
0
100
AcDbLine
 62
7
  6
CONTINUOUS
 10
73.2016809964
 20
157.923878749
 11
73.2016809964
 21
155.173878749
  0
LINE
  5
229
100
AcDbEntity
  8
0
100
AcDbLine
 62
7
  6
CONTINUOUS
 10
73.2016809964
 20
149.673878749
 11
73.2016809964
 21
146.923878749
  0
LINE
  5
22A
100
AcDbEntity
  8
02___PRT_ALL_AXES
100
AcDbLine
 62
7
  6
CONTINUOUS
 10
74.0191809964
 20
160.423878749
 11
74.0191809964
 21
158.423878749
  0
LINE
  5
22B
100
AcDbEntity
  8
RUNDUNGEN
100
AcDbLine
 62
7
  6
CONTINUOUS
 10
74.0191809964
 20
160.423878749
 11
74.0191809964
 21
158.423878749
  0
LINE
  5
22C
100
AcDbEntity
  8
02___PRT_ALL_AXES
100
AcDbLine
 62
7
  6
CONTINUOUS
 10
76.5191809964
 20
160.423878749
 11
76.5191809964
 21
158.4180300576
  0
LINE
  5
22D
100
AcDbEntity
  8
RUNDUNGEN
100
AcDbLine
 62
7
  6
CONTINUOUS
 10
76.5191809964
 20
160.423878749
 11
76.5191809964
 21
158.4180300576
  0
LINE
  5
22E
100
AcDbEntity
  8
RUNDUNGEN
100
AcDbLine
 62
7
  6
CONTINUOUS
 10
76.7016809964
 20
157.923878749
 11
76.7016809964
 21
154.923878749
  0
LINE
  5
22F
100
AcDbEntity
  8
RUNDUNGEN
100
AcDbLine
 62
7
  6
CONTINUOUS
 10
76.7016809964
 20
149.923878749
 11
76.7016809964
 21
146.923878749
  0
LINE
  5
230
100
AcDbEntity
  8
RUNDUNGEN
100
AcDbLine
 62
7
  6
CONTINUOUS
 10
77.2016809964
 20
158.423878749
 11
77.2016809964
 21
154.7315710567
  0
LINE
  5
231
100
AcDbEntity
  8
RUNDUNGEN
100
AcDbLine
 62
7
  6
CONTINUOUS
 10
77.2016809964
 20
150.1161864413
 11
77.2016809964
 21
146.423878749
  0
LINE
  5
232
100
AcDbEntity
  8
RUNDUNGEN
100
AcDbLine
 62
7
  6
CONTINUOUS
 10
81.2016809964
 20
146.423878749
 11
81.2016809964
 21
150.1161864413
  0
LINE
  5
233
100
AcDbEntity
  8
RUNDUNGEN
100
AcDbLine
 62
7
  6
CONTINUOUS
 10
81.2016809964
 20
154.7315710567
 11
81.2016809964
 21
158.423878749
  0
LINE
  5
234
100
AcDbEntity
  8
RUNDUNGEN
100
AcDbLine
 62
7
  6
CONTINUOUS
 10
81.7016809964
 20
157.923878749
 11
81.7016809964
 21
154.923878749
  0
LINE
  5
235
100
AcDbEntity
  8
RUNDUNGEN
100
AcDbLine
 62
7
  6
CONTINUOUS
 10
81.7016809964
 20
149.923878749
 11
81.7016809964
 21
146.923878749
  0
LINE
  5
236
100
AcDbEntity
  8
02___PRT_ALL_AXES
100
AcDbLine
 62
7
  6
CONTINUOUS
 10
81.8841809964
 20
160.423878749
 11
81.8841809964
 21
158.4180300257
  0
LINE
  5
237
100
AcDbEntity
  8
RUNDUNGEN
100
AcDbLine
 62
7
  6
CONTINUOUS
 10
81.8841809964
 20
160.423878749
 11
81.8841809964
 21
158.4180300257
  0
LINE
  5
238
100
AcDbEntity
  8
02___PRT_ALL_AXES
100
AcDbLine
 62
7
  6
CONTINUOUS
 10
84.3841809964
 20
160.423878749
 11
84.3841809964
 21
158.423878749
  0
LINE
  5
239
100
AcDbEntity
  8
RUNDUNGEN
100
AcDbLine
 62
7
  6
CONTINUOUS
 10
84.3841809964
 20
158.423878749
 11
84.3841809964
 21
160.423878749
  0
LINE
  5
23A
100
AcDbEntity
  8
0
100
AcDbLine
 62
7
  6
CONTINUOUS
 10
85.2016809964
 20
157.923878749
 11
85.2016809964
 21
155.173878749
  0
LINE
  5
23B
100
AcDbEntity
  8
0
100
AcDbLine
 62
7
  6
CONTINUOUS
 10
85.2016809964
 20
149.673878749
 11
85.2016809964
 21
146.923878749
  0
LINE
  5
23C
100
AcDbEntity
  8
02___PRT_ALL_AXES
100
AcDbLine
 62
7
  6
CONTINUOUS
 10
85.9161809964
 20
160.423878749
 11
85.9161809964
 21
158.423878749
  0
LINE
  5
23D
100
AcDbEntity
  8
02___PRT_ALL_AXES
100
AcDbLine
 62
7
  6
CONTINUOUS
 10
86.1266809964
 20
160.423878749
 11
86.1266809964
 21
158.423878749
  0
LINE
  5
23E
100
AcDbEntity
  8
02___PRT_ALL_AXES
100
AcDbLine
 62
7
  6
CONTINUOUS
 10
88.6266809964
 20
160.423878749
 11
88.6266809964
 21
158.423878749
  0
LINE
  5
23F
100
AcDbEntity
  8
02___PRT_ALL_AXES
100
AcDbLine
 62
7
  6
CONTINUOUS
 10
94.7766809964
 20
160.423878749
 11
94.7766809964
 21
158.423878749
  0
LINE
  5
240
100
AcDbEntity
  8
02___PRT_ALL_AXES
100
AcDbLine
 62
7
  6
CONTINUOUS
 10
97.2766809964
 20
160.423878749
 11
97.2766809964
 21
158.423878749
  0
LINE
  5
241
100
AcDbEntity
  8
02___PRT_ALL_AXES
100
AcDbLine
 62
7
  6
CONTINUOUS
 10
97.4871809964
 20
160.423878749
 11
97.4871809964
 21
158.423878749
  0
LINE
  5
242
100
AcDbEntity
  8
0
100
AcDbLine
 62
7
  6
CONTINUOUS
 10
134.5479845206
 20
146.423878749
 11
123.7119165431
 21
146.423878749
  0
LINE
  5
243
100
AcDbEntity
  8
0
100
AcDbLine
 62
7
  6
CONTINUOUS
 10
113.0178462607
 20
146.423878749
 11
102.2016809964
 21
146.423878749
  0
LINE
  5
244
100
AcDbEntity
  8
0
100
AcDbLine
 62
7
  6
CONTINUOUS
 10
82.2016809964
 20
146.423878749
 11
76.2016809964
 21
146.423878749
  0
LINE
  5
245
100
AcDbEntity
  8
0
100
AcDbLine
 62
7
  6
CONTINUOUS
 10
57.2016809964
 20
146.423878749
 11
54.2016809964
 21
146.423878749
  0
LINE
  5
246
100
AcDbEntity
  8
RUNDUNGEN
100
AcDbLine
 62
7
  6
CONTINUOUS
 10
54.2016809964
 20
146.423878749
 11
153.2016809964
 21
146.423878749
  0
LINE
  5
247
100
AcDbEntity
  8
RUNDUNGEN
100
AcDbLine
 62
7
  6
CONTINUOUS
 10
101.7016809964
 20
146.923878749
 11
94.2994230716
 21
146.923878749
  0
LINE
  5
248
100
AcDbEntity
  8
RUNDUNGEN
100
AcDbLine
 62
7
  6
CONTINUOUS
 10
76.7016809964
 20
146.923878749
 11
69.2994230716
 21
146.923878749
  0
LINE
  5
249
100
AcDbEntity
  8
RUNDUNGEN
100
AcDbLine
 62
7
  6
CONTINUOUS
 10
56.7016809964
 20
146.923878749
 11
64.1039389213
 21
146.923878749
  0
LINE
  5
24A
100
AcDbEntity
  8
RUNDUNGEN
100
AcDbLine
 62
7
  6
CONTINUOUS
 10
81.7016809964
 20
146.923878749
 11
89.1039389213
 21
146.923878749
  0
LINE
  5
24B
100
AcDbEntity
  8
RUNDUNGEN
100
AcDbLine
 62
7
  6
CONTINUOUS
 10
112.554247747
 20
146.9238785715
 11
123.3392385469
 21
146.923878749
  0
LINE
  5
24C
100
AcDbEntity
  8
RUNDUNGEN
100
AcDbLine
 62
7
  6
CONTINUOUS
 10
134.9206625169
 20
146.923878749
 11
143.2815914704
 21
146.9238798015
  0
LINE
  5
24D
100
AcDbEntity
  8
0
100
AcDbLine
 62
7
  6
CONTINUOUS
 10
98.2016809964
 20
157.923878749
 11
98.2016809964
 21
155.173878749
  0
LINE
  5
24E
100
AcDbEntity
  8
0
100
AcDbLine
 62
7
  6
CONTINUOUS
 10
98.2016809964
 20
149.673878749
 11
98.2016809964
 21
146.923878749
  0
LINE
  5
24F
100
AcDbEntity
  8
02___PRT_ALL_AXES
100
AcDbLine
 62
7
  6
CONTINUOUS
 10
99.0191809964
 20
160.423878749
 11
99.0191809964
 21
158.423878749
  0
LINE
  5
250
100
AcDbEntity
  8
RUNDUNGEN
100
AcDbLine
 62
7
  6
CONTINUOUS
 10
99.0191809964
 20
158.423878749
 11
99.0191809964
 21
160.423878749
  0
LINE
  5
251
100
AcDbEntity
  8
RUNDUNGEN
100
AcDbLine
 62
7
  6
CONTINUOUS
 10
133.4299505319
 20
147.423878749
 11
124.8299505319
 21
147.423878749
  0
LINE
  5
252
100
AcDbEntity
  8
RUNDUNGEN
100
AcDbLine
 62
7
  6
CONTINUOUS
 10
142.9621959139
 20
149.423878749
 11
154.2016809964
 21
149.423878749
  0
LINE
  5
253
100
AcDbEntity
  8
0
100
AcDbLine
 62
7
  6
CONTINUOUS
 10
139.8349563295
 20
149.673878749
 11
137.1051795725
 21
149.673878749
  0
LINE
  5
254
100
AcDbEntity
  8
0
100
AcDbLine
 62
7
  6
CONTINUOUS
 10
85.2016809964
 20
149.673878749
 11
84.7161094113
 21
149.673878749
  0
LINE
  5
255
100
AcDbEntity
  8
0
100
AcDbLine
 62
7
  6
CONTINUOUS
 10
73.2016809964
 20
149.673878749
 11
73.6872525816
 21
149.673878749
  0
LINE
  5
256
100
AcDbEntity
  8
0
100
AcDbLine
 62
7
  6
CONTINUOUS
 10
98.2016809964
 20
149.673878749
 11
98.6872525816
 21
149.673878749
  0
LINE
  5
257
100
AcDbEntity
  8
0
100
AcDbLine
 62
7
  6
CONTINUOUS
 10
117.925572893
 20
149.673878749
 11
120.9557695867
 21
149.673878749
  0
LINE
  5
258
100
AcDbEntity
  8
02___PRT_ALL_AXES
100
AcDbLine
 62
7
  6
CONTINUOUS
 10
101.5191809964
 20
160.423878749
 11
101.5191809964
 21
158.423878749
  0
LINE
  5
259
100
AcDbEntity
  8
RUNDUNGEN
100
AcDbLine
 62
7
  6
CONTINUOUS
 10
101.7016809964
 20
158.423878749
 11
101.7016809964
 21
154.923878749
  0
LINE
  5
25A
100
AcDbEntity
  8
RUNDUNGEN
100
AcDbLine
 62
7
  6
CONTINUOUS
 10
101.7016809964
 20
149.923878749
 11
101.7016809964
 21
146.423878749
  0
LINE
  5
25B
100
AcDbEntity
  8
RUNDUNGEN
100
AcDbLine
 62
7
  6
CONTINUOUS
 10
102.2016809964
 20
158.423878749
 11
102.2016809964
 21
154.7315710567
  0
LINE
  5
25C
100
AcDbEntity
  8
RUNDUNGEN
100
AcDbLine
 62
7
  6
CONTINUOUS
 10
102.2016809964
 20
150.1161864413
 11
102.2016809964
 21
146.423878749
  0
LINE
  5
25D
100
AcDbEntity
  8
0
100
AcDbLine
 62
7
  6
CONTINUOUS
 10
120.9557695867
 20
155.173878749
 11
117.925572893
 21
155.173878749
  0
LINE
  5
25E
100
AcDbEntity
  8
0
100
AcDbLine
 62
7
  6
CONTINUOUS
 10
85.2016809964
 20
155.173878749
 11
84.7161094113
 21
155.173878749
  0
LINE
  5
25F
100
AcDbEntity
  8
0
100
AcDbLine
 62
7
  6
CONTINUOUS
 10
73.2016809964
 20
155.173878749
 11
73.6872525816
 21
155.173878749
  0
LINE
  5
260
100
AcDbEntity
  8
0
100
AcDbLine
 62
7
  6
CONTINUOUS
 10
98.2016809964
 20
155.173878749
 11
98.6872525816
 21
155.173878749
  0
LINE
  5
261
100
AcDbEntity
  8
0
100
AcDbLine
 62
7
  6
CONTINUOUS
 10
137.1051795725
 20
155.173878749
 11
139.8349563295
 21
155.173878749
  0
LINE
  5
262
100
AcDbEntity
  8
RUNDUNGEN
100
AcDbLine
 62
7
  6
CONTINUOUS
 10
142.9621959139
 20
155.423878749
 11
154.2016809964
 21
155.423878749
  0
LINE
  5
263
100
AcDbEntity
  8
0
100
AcDbLine
 62
7
  6
CONTINUOUS
 10
148.1016809964
 20
156.0033180101
 11
152.2016809964
 21
156.0033180101
  0
LINE
  5
264
100
AcDbEntity
  8
RUNDUNGEN
100
AcDbLine
 62
7
  6
CONTINUOUS
 10
151.9516809964
 20
156.123878749
 11
152.2016809964
 21
156.123878749
  0
LINE
  5
265
100
AcDbEntity
  8
RUNDUNGEN
100
AcDbLine
 62
7
  6
CONTINUOUS
 10
148.1016809964
 20
156.123878749
 11
148.3516809964
 21
156.123878749
  0
LINE
  5
266
100
AcDbEntity
  8
RUNDUNGEN
100
AcDbLine
 62
7
  6
CONTINUOUS
 10
148.3016809964
 20
156.323878749
 11
148.3516809964
 21
156.323878749
  0
LINE
  5
267
100
AcDbEntity
  8
RUNDUNGEN
100
AcDbLine
 62
7
  6
CONTINUOUS
 10
151.9516809964
 20
156.323878749
 11
152.0016809964
 21
156.323878749
  0
LINE
  5
268
100
AcDbEntity
  8
RUNDUNGEN
100
AcDbLine
 62
7
  6
CONTINUOUS
 10
133.4299505319
 20
157.423878749
 11
124.8299505319
 21
157.423878749
  0
LINE
  5
269
100
AcDbEntity
  8
RUNDUNGEN
100
AcDbLine
 62
7
  6
CONTINUOUS
 10
143.281603447
 20
157.9238816834
 11
134.9206625169
 21
157.923878749
  0
LINE
  5
26A
100
AcDbEntity
  8
RUNDUNGEN
100
AcDbLine
 62
7
  6
CONTINUOUS
 10
123.3392385469
 20
157.923878749
 11
112.5542511911
 21
157.9238788622
  0
LINE
  5
26B
100
AcDbEntity
  8
RUNDUNGEN
100
AcDbLine
 62
7
  6
CONTINUOUS
 10
56.7016809964
 20
157.923878749
 11
64.1039389213
 21
157.923878749
  0
LINE
  5
26C
100
AcDbEntity
  8
RUNDUNGEN
100
AcDbLine
 62
7
  6
CONTINUOUS
 10
69.2994230716
 20
157.923878749
 11
76.7016809964
 21
157.923878749
  0
LINE
  5
26D
100
AcDbEntity
  8
RUNDUNGEN
100
AcDbLine
 62
7
  6
CONTINUOUS
 10
81.7016809964
 20
157.923878749
 11
89.1039389213
 21
157.923878749
  0
LINE
  5
26E
100
AcDbEntity
  8
RUNDUNGEN
100
AcDbLine
 62
7
  6
CONTINUOUS
 10
94.2994230716
 20
157.923878749
 11
101.7016809964
 21
157.923878749
  0
LINE
  5
26F
100
AcDbEntity
  8
0
100
AcDbLine
 62
7
  6
CONTINUOUS
 10
113.0178460911
 20
158.423878749
 11
102.2016809964
 21
158.423878749
  0
LINE
  5
270
100
AcDbEntity
  8
0
100
AcDbLine
 62
7
  6
CONTINUOUS
 10
81.8841809964
 20
158.423878749
 11
76.5191809964
 21
158.423878749
  0
LINE
  5
271
100
AcDbEntity
  8
0
100
AcDbLine
 62
7
  6
CONTINUOUS
 10
56.8841809964
 20
158.423878749
 11
54.2016809964
 21
158.423878749
  0
LINE
  5
272
100
AcDbEntity
  8
RUNDUNGEN
100
AcDbLine
 62
7
  6
CONTINUOUS
 10
54.2016809964
 20
158.423878749
 11
56.8841809964
 21
158.423878749
  0
LINE
  5
273
100
AcDbEntity
  8
RUNDUNGEN
100
AcDbLine
 62
7
  6
CONTINUOUS
 10
57.1392392674
 20
158.423878749
 11
76.2641291462
 21
158.423878749
  0
LINE
  5
274
100
AcDbEntity
  8
RUNDUNGEN
100
AcDbLine
 62
7
  6
CONTINUOUS
 10
76.5191809964
 20
158.423878749
 11
81.8841809964
 21
158.423878749
  0
LINE
  5
275
100
AcDbEntity
  8
RUNDUNGEN
100
AcDbLine
 62
7
  6
CONTINUOUS
 10
82.1393353987
 20
158.423878749
 11
145.3578968127
 21
158.423878749
  0
LINE
  5
276
100
AcDbEntity
  8
0
100
AcDbLine
 62
7
  6
CONTINUOUS
 10
145.3578968127
 20
158.423878749
 11
148.1016809964
 21
158.423878749
  0
LINE
  5
277
100
AcDbEntity
  8
0
100
AcDbLine
 62
7
  6
CONTINUOUS
 10
152.2016809964
 20
158.423878749
 11
153.2016809964
 21
158.423878749
  0
LINE
  5
278
100
AcDbEntity
  8
02___PRT_ALL_AXES
100
AcDbLine
 62
7
  6
CONTINUOUS
 10
101.5191809964
 20
160.423878749
 11
99.0191809964
 21
160.423878749
  0
LINE
  5
279
100
AcDbEntity
  8
02___PRT_ALL_AXES
100
AcDbLine
 62
7
  6
CONTINUOUS
 10
97.4871809964
 20
160.423878749
 11
94.7766809964
 21
160.423878749
  0
LINE
  5
27A
100
AcDbEntity
  8
02___PRT_ALL_AXES
100
AcDbLine
 62
7
  6
CONTINUOUS
 10
88.6266809964
 20
160.423878749
 11
85.9161809964
 21
160.423878749
  0
LINE
  5
27B
100
AcDbEntity
  8
02___PRT_ALL_AXES
100
AcDbLine
 62
7
  6
CONTINUOUS
 10
84.3841809964
 20
160.423878749
 11
81.8841809964
 21
160.423878749
  0
LINE
  5
27C
100
AcDbEntity
  8
02___PRT_ALL_AXES
100
AcDbLine
 62
7
  6
CONTINUOUS
 10
76.5191809964
 20
160.423878749
 11
74.0191809964
 21
160.423878749
  0
LINE
  5
27D
100
AcDbEntity
  8
02___PRT_ALL_AXES
100
AcDbLine
 62
7
  6
CONTINUOUS
 10
72.4871809964
 20
160.423878749
 11
69.7766809964
 21
160.423878749
  0
LINE
  5
27E
100
AcDbEntity
  8
02___PRT_ALL_AXES
100
AcDbLine
 62
7
  6
CONTINUOUS
 10
63.6266809964
 20
160.423878749
 11
60.9161809964
 21
160.423878749
  0
LINE
  5
27F
100
AcDbEntity
  8
02___PRT_ALL_AXES
100
AcDbLine
 62
7
  6
CONTINUOUS
 10
59.3841809964
 20
160.423878749
 11
56.8841809964
 21
160.423878749
  0
LINE
  5
280
100
AcDbEntity
  8
RUNDUNGEN
100
AcDbLine
 62
7
  6
CONTINUOUS
 10
122.9755828228
 20
157.923878749
 11
122.9755828228
 21
146.923878749
  0
LINE
  5
281
100
AcDbEntity
  8
RUNDUNGEN
100
AcDbLine
 62
7
  6
CONTINUOUS
 10
124.8299505319
 20
157.423878749
 11
124.8299505319
 21
147.423878749
  0
LINE
  5
282
100
AcDbEntity
  8
RUNDUNGEN
100
AcDbLine
 62
7
  6
CONTINUOUS
 10
133.4299505319
 20
157.423878749
 11
133.4299505319
 21
147.423878749
  0
LINE
  5
283
100
AcDbEntity
  8
RUNDUNGEN
100
AcDbLine
 62
7
  6
CONTINUOUS
 10
135.3093357735
 20
157.923878749
 11
135.3093357735
 21
146.923878749
  0
LINE
  5
284
100
AcDbEntity
  8
RUNDUNGEN
100
AcDbLine
 62
7
  6
CONTINUOUS
 10
142.9621959139
 20
149.423878749
 11
142.9621959139
 21
155.423878749
  0
LINE
  5
285
100
AcDbEntity
  8
RUNDUNGEN
100
AcDbLine
 62
7
  6
CONTINUOUS
 10
143.9018885346
 20
149.423878749
 11
143.9018885346
 21
155.423878749
  0
LINE
  5
286
100
AcDbEntity
  8
0
100
AcDbLine
 62
7
  6
CONTINUOUS
 10
148.1016809964
 20
158.423878749
 11
148.1016809964
 21
156.0033180101
  0
LINE
  5
287
100
AcDbEntity
  8
RUNDUNGEN
100
AcDbLine
 62
7
  6
CONTINUOUS
 10
148.3016809964
 20
156.323878749
 11
148.3016809964
 21
156.0033180101
  0
LINE
  5
288
100
AcDbEntity
  8
RUNDUNGEN
100
AcDbLine
 62
7
  6
CONTINUOUS
 10
148.3516809964
 20
156.323878749
 11
148.3516809964
 21
156.123878749
  0
LINE
  5
289
100
AcDbEntity
  8
RUNDUNGEN
100
AcDbLine
 62
7
  6
CONTINUOUS
 10
151.9516809964
 20
156.323878749
 11
151.9516809964
 21
156.123878749
  0
LINE
  5
28A
100
AcDbEntity
  8
RUNDUNGEN
100
AcDbLine
 62
7
  6
CONTINUOUS
 10
152.0016809964
 20
156.0033180101
 11
152.0016809964
 21
156.323878749
  0
LINE
  5
28B
100
AcDbEntity
  8
0
100
AcDbLine
 62
7
  6
CONTINUOUS
 10
152.2016809964
 20
158.423878749
 11
152.2016809964
 21
156.0033180101
  0
LINE
  5
28C
100
AcDbEntity
  8
RUNDUNGEN
100
AcDbLine
 62
7
  6
CONTINUOUS
 10
153.2016809964
 20
146.423878749
 11
153.2016809964
 21
158.423878749
  0
LINE
  5
28D
100
AcDbEntity
  8
RUNDUNGEN
100
AcDbLine
 62
7
  6
CONTINUOUS
 10
154.2016809964
 20
147.423878749
 11
154.2016809964
 21
157.423878749
  0
LINE
  5
28E
100
AcDbEntity
  8
RUNDUNGEN
100
AcDbLine
 62
7
  6
CONTINUOUS
 10
207.4341727464
 20
149.423878749
 11
207.4341727464
 21
155.423878749
  0
LINE
  5
28F
100
AcDbEntity
  8
RUNDUNGEN
100
AcDbLine
 62
7
  6
CONTINUOUS
 10
207.7631626748
 20
149.423878749
 11
207.7631626748
 21
155.423878749
  0
LINE
  5
290
100
AcDbEntity
  8
02___PRT_ALL_AXES
100
AcDbLine
 62
7
  6
CONTINUOUS
 10
216.1841727464
 20
160.423878749
 11
216.1841727464
 21
158.423878749
  0
LINE
  5
291
100
AcDbEntity
  8
02___PRT_ALL_AXES
100
AcDbLine
 62
7
  6
CONTINUOUS
 10
218.6841727464
 20
160.423878749
 11
218.6841727464
 21
158.423878749
  0
LINE
  5
292
100
AcDbEntity
  8
RUNDUNGEN
100
AcDbLine
 62
7
  6
CONTINUOUS
 10
218.8982743616
 20
146.423878749
 11
218.8982743616
 21
146.923878749
  0
LINE
  5
293
100
AcDbEntity
  8
RUNDUNGEN
100
AcDbLine
 62
7
  6
CONTINUOUS
 10
218.8982743616
 20
157.923878749
 11
218.8982743641
 21
158.423878749
  0
LINE
  5
294
100
AcDbEntity
  8
RUNDUNGEN
100
AcDbLine
 62
7
  6
CONTINUOUS
 10
210.4341727464
 20
146.423878749
 11
245.4341727444
 21
146.423878749
  0
LINE
  5
295
100
AcDbEntity
  8
RUNDUNGEN
100
AcDbLine
 62
7
  6
CONTINUOUS
 10
221.4341727464
 20
157.923878749
 11
221.4341727464
 21
154.923878749
  0
LINE
  5
296
100
AcDbEntity
  8
RUNDUNGEN
100
AcDbLine
 62
7
  6
CONTINUOUS
 10
221.4341727464
 20
149.923878749
 11
221.4341727464
 21
146.923878749
  0
LINE
  5
297
100
AcDbEntity
  8
RUNDUNGEN
100
AcDbLine
 62
7
  6
CONTINUOUS
 10
213.0425819273
 20
146.923878749
 11
210.2631626748
 21
146.923878749
  0
LINE
  5
298
100
AcDbEntity
  8
RUNDUNGEN
100
AcDbLine
 62
7
  6
CONTINUOUS
 10
218.8982744242
 20
146.923878749
 11
245.8925060798
 21
146.923878749
  0
LINE
  5
299
100
AcDbEntity
  8
RUNDUNGEN
100
AcDbLine
 62
7
  6
CONTINUOUS
 10
221.4341727463
 20
149.9238787491
 11
220.9726342851
 21
150.1161864418
  0
LINE
  5
29A
100
AcDbEntity
  8
RUNDUNGEN
100
AcDbLine
 62
7
  6
CONTINUOUS
 10
207.4341727464
 20
149.423878749
 11
207.7631626748
 21
149.423878749
  0
LINE
  5
29B
100
AcDbEntity
  8
RUNDUNGEN
100
AcDbLine
 62
7
  6
CONTINUOUS
 10
221.4341727463
 20
154.923878749
 11
220.9726342858
 21
154.7315710545
  0
LINE
  5
29C
100
AcDbEntity
  8
0
100
AcDbLine
 62
7
  6
CONTINUOUS
 10
240.1841727464
 20
149.673878749
 11
232.6841727464
 21
149.673878749
  0
LINE
  5
29D
100
AcDbEntity
  8
0
100
AcDbLine
 62
7
  6
CONTINUOUS
 10
240.1841727464
 20
155.173878749
 11
232.6841727464
 21
155.173878749
  0
LINE
  5
29E
100
AcDbEntity
  8
RUNDUNGEN
100
AcDbLine
 62
7
  6
CONTINUOUS
 10
207.4341727464
 20
155.423878749
 11
207.7631626748
 21
155.423878749
  0
LINE
  5
29F
100
AcDbEntity
  8
02___PRT_ALL_AXES
100
AcDbLine
 62
7
  6
CONTINUOUS
 10
230.3111727464
 20
160.423878749
 11
230.3111727464
 21
158.423878749
  0
LINE
  5
2A0
100
AcDbEntity
  8
0
100
AcDbLine
 62
7
  6
CONTINUOUS
 10
232.4341727464
 20
157.923878749
 11
232.4341727464
 21
155.1624915365
  0
LINE
  5
2A1
100
AcDbEntity
  8
0
100
AcDbLine
 62
7
  6
CONTINUOUS
 10
232.4341727464
 20
149.6852659615
 11
232.4341727464
 21
146.923878749
  0
LINE
  5
2A2
100
AcDbEntity
  8
RUNDUNGEN
100
AcDbLine
 62
7
  6
CONTINUOUS
 10
210.2631626748
 20
157.923878749
 11
213.0425819273
 21
157.923878749
  0
LINE
  5
2A3
100
AcDbEntity
  8
RUNDUNGEN
100
AcDbLine
 62
7
  6
CONTINUOUS
 10
218.8982743616
 20
157.923878749
 11
245.8925060798
 21
157.923878749
  0
LINE
  5
2A4
100
AcDbEntity
  8
RUNDUNGEN
100
AcDbLine
 62
7
  6
CONTINUOUS
 10
210.4341727464
 20
158.423878749
 11
217.2287192089
 21
158.423878749
  0
LINE
  5
2A5
100
AcDbEntity
  8
RUNDUNGEN
100
AcDbLine
 62
7
  6
CONTINUOUS
 10
218.1908445644
 20
158.423878749
 11
245.4341727464
 21
158.423878749
  0
LINE
  5
2A6
100
AcDbEntity
  8
02___PRT_ALL_AXES
100
AcDbLine
 62
7
  6
CONTINUOUS
 10
232.8111727464
 20
160.423878749
 11
232.8111727464
 21
158.423878749
  0
LINE
  5
2A7
100
AcDbEntity
  8
02___PRT_ALL_AXES
100
AcDbLine
 62
7
  6
CONTINUOUS
 10
242.8897421798
 20
160.423878749
 11
240.3906033131
 21
160.423878749
  0
LINE
  5
2A8
100
AcDbEntity
  8
02___PRT_ALL_AXES
100
AcDbLine
 62
7
  6
CONTINUOUS
 10
232.8107421798
 20
160.423878749
 11
230.3116033131
 21
160.423878749
  0
LINE
  5
2A9
100
AcDbEntity
  8
02___PRT_ALL_AXES
100
AcDbLine
 62
7
  6
CONTINUOUS
 10
218.6837421798
 20
160.423878749
 11
216.1846033131
 21
160.423878749
  0
LINE
  5
2AA
100
AcDbEntity
  8
RUNDUNGEN
100
AcDbLine
 62
7
  6
CONTINUOUS
 10
239.9341727464
 20
158.423878749
 11
239.9341727417
 21
157.923878749
  0
LINE
  5
2AB
100
AcDbEntity
  8
0
100
AcDbLine
 62
7
  6
CONTINUOUS
 10
239.9341727464
 20
157.923878749
 11
239.9341727464
 21
155.173878749
  0
LINE
  5
2AC
100
AcDbEntity
  8
0
100
AcDbLine
 62
7
  6
CONTINUOUS
 10
239.9341727464
 20
149.673878749
 11
239.9341727464
 21
146.923878749
  0
LINE
  5
2AD
100
AcDbEntity
  8
RUNDUNGEN
100
AcDbLine
 62
7
  6
CONTINUOUS
 10
239.9341727464
 20
146.923878749
 11
239.9341727464
 21
146.423878749
  0
LINE
  5
2AE
100
AcDbEntity
  8
02___PRT_ALL_AXES
100
AcDbLine
 62
7
  6
CONTINUOUS
 10
240.3901727464
 20
160.423878749
 11
240.3901727464
 21
158.423878749
  0
LINE
  5
2AF
100
AcDbEntity
  8
02___PRT_ALL_AXES
100
AcDbLine
 62
7
  6
CONTINUOUS
 10
242.8901727464
 20
160.423878749
 11
242.8901727464
 21
158.423878749
  0
LINE
  5
2B0
100
AcDbEntity
  8
0
100
AcDbLine
 62
7
  6
CONTINUOUS
 10
246.4341727464
 20
157.423878749
 11
246.4341727464
 21
147.423878749
  0
LINE
  5
2B1
100
AcDbEntity
  8
0
100
AcDbLine
 62
7
  6
CONTINUOUS
 10
54.2016809964
 20
82.1540056342
 11
54.2016809964
 21
94.1534660794
  0
LINE
  5
2B2
100
AcDbEntity
  8
RUNDUNGEN
100
AcDbLine
 62
7
  6
CONTINUOUS
 10
56.2016809964
 20
82.6152743184
 11
56.2016809964
 21
88.1537358568
  0
LINE
  5
2B3
100
AcDbEntity
  8
RUNDUNGEN
100
AcDbLine
 62
7
  6
CONTINUOUS
 10
56.7016809964
 20
82.1537358568
 11
56.7016809964
 21
84.6896342417
  0
LINE
  5
2B4
100
AcDbEntity
  8
RUNDUNGEN
100
AcDbLine
 62
7
  6
CONTINUOUS
 10
57.2016809964
 20
82.2313639112
 11
57.2016809964
 21
84.6896342417
  0
LINE
  5
2B5
100
AcDbEntity
  8
RUNDUNGEN
100
AcDbLine
 62
7
  6
CONTINUOUS
 10
59.2016809964
 20
81.1537358568
 11
59.2016809964
 21
85.5033946003
  0
LINE
  5
2B6
100
AcDbEntity
  8
RUNDUNGEN
100
AcDbLine
 62
7
  6
CONTINUOUS
 10
59.2016809964
 20
86.8040771134
 11
59.2016809964
 21
88.0655723665
  0
LINE
  5
2B7
100
AcDbEntity
  8
RUNDUNGEN
100
AcDbLine
 62
7
  6
CONTINUOUS
 10
59.7016809964
 20
88.1537358568
 11
59.7016809964
 21
81.1537358568
  0
LINE
  5
2B8
100
AcDbEntity
  8
RUNDUNGEN
100
AcDbLine
 62
7
  6
CONTINUOUS
 10
60.2016809964
 20
71.1537358568
 11
60.2016809964
 21
63.6537358568
  0
LINE
  5
2B9
100
AcDbEntity
  8
RUNDUNGEN
100
AcDbLine
 62
7
  6
CONTINUOUS
 10
60.7016809964
 20
71.2313639112
 11
60.7016809964
 21
63.6537358568
  0
LINE
  5
2BA
100
AcDbEntity
  8
RUNDUNGEN
100
AcDbLine
 62
7
  6
CONTINUOUS
 10
56.7016809964
 20
82.1537358568
 11
60.2016809964
 21
71.1537358568
  0
LINE
  5
2BB
100
AcDbEntity
  8
RUNDUNGEN
100
AcDbLine
 62
7
  6
CONTINUOUS
 10
57.2016809964
 20
82.2313639112
 11
60.7016809964
 21
71.2313639112
  0
LINE
  5
2BC
100
AcDbEntity
  8
0
100
AcDbLine
 62
7
  6
CONTINUOUS
 10
64.2016809964
 20
71.1537358568
 11
64.2016809964
 21
63.1537358568
  0
LINE
  5
2BD
100
AcDbEntity
  8
RUNDUNGEN
100
AcDbLine
 62
7
  6
CONTINUOUS
 10
69.2994230741
 20
57.6954025246
 11
69.0995967288
 21
58.1537358477
  0
LINE
  5
2BE
100
AcDbEntity
  8
RUNDUNGEN
100
AcDbLine
 62
7
  6
CONTINUOUS
 10
59.1695921102
 20
88.1537358568
 11
59.2016809964
 21
88.0655723665
  0
LINE
  5
2BF
100
AcDbEntity
  8
RUNDUNGEN
100
AcDbLine
 62
7
  6
CONTINUOUS
 10
57.638482123
 20
93.8223281735
 11
59.7016809964
 21
88.1537358568
  0
LINE
  5
2C0
100
AcDbEntity
  8
0
100
AcDbLine
 62
7
  6
CONTINUOUS
 10
69.2016809964
 20
63.1537358568
 11
69.2016809964
 21
71.1537358568
  0
LINE
  5
2C1
100
AcDbEntity
  8
RUNDUNGEN
100
AcDbLine
 62
7
  6
CONTINUOUS
 10
73.7016809964
 20
88.1537358568
 11
75.7648814872
 21
93.8223326171
  0
LINE
  5
2C2
100
AcDbEntity
  8
RUNDUNGEN
100
AcDbLine
 62
7
  6
CONTINUOUS
 10
74.2016809964
 20
88.0655723665
 11
74.2337698827
 21
88.1537358568
  0
LINE
  5
2C3
100
AcDbEntity
  8
RUNDUNGEN
100
AcDbLine
 62
7
  6
CONTINUOUS
 10
72.7016809964
 20
69.1573842791
 11
72.7016809964
 21
63.6537358568
  0
LINE
  5
2C4
100
AcDbEntity
  8
RUNDUNGEN
100
AcDbLine
 62
7
  6
CONTINUOUS
 10
73.2016809964
 20
69.0915580303
 11
73.2016809964
 21
63.6537358568
  0
LINE
  5
2C5
100
AcDbEntity
  8
RUNDUNGEN
100
AcDbLine
 62
7
  6
CONTINUOUS
 10
73.7016809964
 20
81.1537358568
 11
73.7016809964
 21
88.1537358568
  0
LINE
  5
2C6
100
AcDbEntity
  8
RUNDUNGEN
100
AcDbLine
 62
7
  6
CONTINUOUS
 10
74.2016809964
 20
88.0655723665
 11
74.2016809964
 21
86.8040771134
  0
LINE
  5
2C7
100
AcDbEntity
  8
RUNDUNGEN
100
AcDbLine
 62
7
  6
CONTINUOUS
 10
74.2016809964
 20
85.5033946003
 11
74.2016809964
 21
81.1537358568
  0
LINE
  5
2C8
100
AcDbEntity
  8
RUNDUNGEN
100
AcDbLine
 62
7
  6
CONTINUOUS
 10
72.7016809964
 20
69.1573842791
 11
76.2016809964
 21
82.2195621056
  0
LINE
  5
2C9
100
AcDbEntity
  8
RUNDUNGEN
100
AcDbLine
 62
7
  6
CONTINUOUS
 10
64.3037652348
 20
58.1537358568
 11
64.1039389257
 21
57.6954025216
  0
LINE
  5
2CA
100
AcDbEntity
  8
RUNDUNGEN
100
AcDbLine
 62
7
  6
CONTINUOUS
 10
76.2016809964
 20
82.2195621056
 11
76.2016809964
 21
84.6896342417
  0
LINE
  5
2CB
100
AcDbEntity
  8
RUNDUNGEN
100
AcDbLine
 62
7
  6
CONTINUOUS
 10
76.7016809964
 20
82.1537358568
 11
76.7016809964
 21
84.6896353425
  0
LINE
  5
2CC
100
AcDbEntity
  8
RUNDUNGEN
100
AcDbLine
 62
7
  6
CONTINUOUS
 10
77.2016809964
 20
88.1537358568
 11
77.2016809964
 21
82.6152743184
  0
LINE
  5
2CD
100
AcDbEntity
  8
RUNDUNGEN
100
AcDbLine
 62
7
  6
CONTINUOUS
 10
73.2016809964
 20
69.0915580303
 11
76.7016809964
 21
82.1537358568
  0
LINE
  5
2CE
100
AcDbEntity
  8
RUNDUNGEN
100
AcDbLine
 62
7
  6
CONTINUOUS
 10
59.6394384206
 20
88.3247459285
 11
59.1695921102
 21
88.1537358568
  0
LINE
  5
2CF
100
AcDbEntity
  8
RUNDUNGEN
100
AcDbLine
 62
7
  6
CONTINUOUS
 10
81.2016809964
 20
82.6152743184
 11
81.2016809964
 21
88.1537358568
  0
LINE
  5
2D0
100
AcDbEntity
  8
RUNDUNGEN
100
AcDbLine
 62
7
  6
CONTINUOUS
 10
81.7016809964
 20
84.6896344891
 11
81.7016809964
 21
82.1537358568
  0
LINE
  5
2D1
100
AcDbEntity
  8
RUNDUNGEN
100
AcDbLine
 62
7
  6
CONTINUOUS
 10
82.2016809964
 20
84.6896342417
 11
82.2016809964
 21
82.2195621056
  0
LINE
  5
2D2
100
AcDbEntity
  8
RUNDUNGEN
100
AcDbLine
 62
7
  6
CONTINUOUS
 10
84.2016809964
 20
81.1537358568
 11
84.2016809964
 21
85.5033946003
  0
LINE
  5
2D3
100
AcDbEntity
  8
RUNDUNGEN
100
AcDbLine
 62
7
  6
CONTINUOUS
 10
84.2016809964
 20
86.8040771134
 11
84.2016809964
 21
88.0655723665
  0
LINE
  5
2D4
100
AcDbEntity
  8
RUNDUNGEN
100
AcDbLine
 62
7
  6
CONTINUOUS
 10
84.7016809964
 20
88.1537358568
 11
84.7016809964
 21
81.1537358568
  0
LINE
  5
2D5
100
AcDbEntity
  8
RUNDUNGEN
100
AcDbLine
 62
7
  6
CONTINUOUS
 10
85.2016809964
 20
63.6537358568
 11
85.2016809964
 21
69.0915580303
  0
LINE
  5
2D6
100
AcDbEntity
  8
RUNDUNGEN
100
AcDbLine
 62
7
  6
CONTINUOUS
 10
85.7016809964
 20
63.6537358568
 11
85.7016809964
 21
69.1573842791
  0
LINE
  5
2D7
100
AcDbEntity
  8
RUNDUNGEN
100
AcDbLine
 62
7
  6
CONTINUOUS
 10
84.6394384206
 20
88.3247459285
 11
84.1695921102
 21
88.1537358568
  0
LINE
  5
2D8
100
AcDbEntity
  8
RUNDUNGEN
100
AcDbLine
 62
7
  6
CONTINUOUS
 10
133.4299505319
 20
57.1537358568
 11
124.8299505319
 21
57.1537358568
  0
LINE
  5
2D9
100
AcDbEntity
  8
0
100
AcDbLine
 62
7
  6
CONTINUOUS
 10
133.4299505319
 20
57.1537358568
 11
124.8299505319
 21
57.1537358568
  0
LINE
  5
2DA
100
AcDbEntity
  8
RUNDUNGEN
100
AcDbLine
 62
7
  6
CONTINUOUS
 10
94.0994695022
 20
58.1536651273
 11
89.3037652342
 21
58.1537358571
  0
LINE
  5
2DB
100
AcDbEntity
  8
RUNDUNGEN
100
AcDbLine
 62
7
  6
CONTINUOUS
 10
134.5479845206
 20
58.1537358568
 11
123.7119165431
 21
58.1537358568
  0
LINE
  5
2DC
100
AcDbEntity
  8
RUNDUNGEN
100
AcDbLine
 62
7
  6
CONTINUOUS
 10
69.0995967587
 20
58.1537358571
 11
64.3038907822
 21
58.1536660768
  0
LINE
  5
2DD
100
AcDbEntity
  8
RUNDUNGEN
100
AcDbLine
 62
7
  6
CONTINUOUS
 10
81.7016809964
 20
82.1537358568
 11
85.2016809964
 21
69.0915580303
  0
LINE
  5
2DE
100
AcDbEntity
  8
RUNDUNGEN
100
AcDbLine
 62
7
  6
CONTINUOUS
 10
82.2016809964
 20
82.2195621056
 11
85.7016809964
 21
69.1573842791
  0
LINE
  5
2DF
100
AcDbEntity
  8
0
100
AcDbLine
 62
7
  6
CONTINUOUS
 10
89.2016809964
 20
71.1537358568
 11
89.2016809964
 21
63.1537358568
  0
LINE
  5
2E0
100
AcDbEntity
  8
RUNDUNGEN
100
AcDbLine
 62
7
  6
CONTINUOUS
 10
94.0995967581
 20
58.1537358568
 11
94.2994230656
 21
57.6954025209
  0
LINE
  5
2E1
100
AcDbEntity
  8
RUNDUNGEN
100
AcDbLine
 62
7
  6
CONTINUOUS
 10
84.1695921102
 20
88.1537358568
 11
84.2016809964
 21
88.0655723665
  0
LINE
  5
2E2
100
AcDbEntity
  8
RUNDUNGEN
100
AcDbLine
 62
7
  6
CONTINUOUS
 10
82.638482123
 20
93.8223281735
 11
84.7016809964
 21
88.1537358568
  0
LINE
  5
2E3
100
AcDbEntity
  8
RUNDUNGEN
100
AcDbLine
 62
7
  6
CONTINUOUS
 10
60.7016809964
 20
63.6537358568
 11
60.2016809964
 21
63.6537358616
  0
LINE
  5
2E4
100
AcDbEntity
  8
RUNDUNGEN
100
AcDbLine
 62
7
  6
CONTINUOUS
 10
73.2016809964
 20
63.6537358568
 11
72.7016809964
 21
63.6537358568
  0
LINE
  5
2E5
100
AcDbEntity
  8
RUNDUNGEN
100
AcDbLine
 62
7
  6
CONTINUOUS
 10
85.2016809964
 20
63.6537358568
 11
85.7016809964
 21
63.6537358568
  0
LINE
  5
2E6
100
AcDbEntity
  8
RUNDUNGEN
100
AcDbLine
 62
7
  6
CONTINUOUS
 10
97.7016809964
 20
63.6537358568
 11
98.2016809964
 21
63.6537358568
  0
LINE
  5
2E7
100
AcDbEntity
  8
0
100
AcDbLine
 62
7
  6
CONTINUOUS
 10
94.2016809964
 20
63.1537358568
 11
94.2016809964
 21
71.1537358568
  0
LINE
  5
2E8
100
AcDbEntity
  8
RUNDUNGEN
100
AcDbLine
 62
7
  6
CONTINUOUS
 10
98.7016809964
 20
88.1537358568
 11
100.7648814872
 21
93.8223326171
  0
LINE
  5
2E9
100
AcDbEntity
  8
RUNDUNGEN
100
AcDbLine
 62
7
  6
CONTINUOUS
 10
99.2016809964
 20
88.0655723665
 11
99.2337698827
 21
88.1537358568
  0
LINE
  5
2EA
100
AcDbEntity
  8
RUNDUNGEN
100
AcDbLine
 62
7
  6
CONTINUOUS
 10
97.7016809964
 20
63.6537358568
 11
97.7016809964
 21
69.1573842791
  0
LINE
  5
2EB
100
AcDbEntity
  8
RUNDUNGEN
100
AcDbLine
 62
7
  6
CONTINUOUS
 10
98.2016809964
 20
63.6537358568
 11
98.2016809964
 21
69.0915580303
  0
LINE
  5
2EC
100
AcDbEntity
  8
RUNDUNGEN
100
AcDbLine
 62
7
  6
CONTINUOUS
 10
98.7016809964
 20
81.1537358568
 11
98.7016809964
 21
88.1537358568
  0
LINE
  5
2ED
100
AcDbEntity
  8
RUNDUNGEN
100
AcDbLine
 62
7
  6
CONTINUOUS
 10
99.2016809964
 20
88.0655723665
 11
99.2016809964
 21
86.8040771134
  0
LINE
  5
2EE
100
AcDbEntity
  8
RUNDUNGEN
100
AcDbLine
 62
7
  6
CONTINUOUS
 10
99.2016809964
 20
85.5033946003
 11
99.2016809964
 21
81.1537358568
  0
LINE
  5
2EF
100
AcDbEntity
  8
RUNDUNGEN
100
AcDbLine
 62
7
  6
CONTINUOUS
 10
97.7016809964
 20
69.1573842791
 11
101.7016809964
 21
84.0855875094
  0
LINE
  5
2F0
100
AcDbEntity
  8
RUNDUNGEN
100
AcDbLine
 62
7
  6
CONTINUOUS
 10
98.2016809964
 20
69.0915580303
 11
101.7016809964
 21
82.1537358568
  0
LINE
  5
2F1
100
AcDbEntity
  8
RUNDUNGEN
100
AcDbLine
 62
7
  6
CONTINUOUS
 10
89.1039389188
 20
57.6954025246
 11
89.3037652348
 21
58.1537358568
  0
LINE
  5
2F2
100
AcDbEntity
  8
RUNDUNGEN
100
AcDbLine
 62
7
  6
CONTINUOUS
 10
117.1852989652
 20
88.1537358568
 11
117.6488908925
 21
88.3410391535
  0
LINE
  5
2F3
100
AcDbEntity
  8
RUNDUNGEN
100
AcDbLine
 62
7
  6
CONTINUOUS
 10
112.5542537226
 20
84.1982173208
 11
113.0178460911
 21
84.385520628
  0
LINE
  5
2F4
100
AcDbEntity
  8
RUNDUNGEN
100
AcDbLine
 62
7
  6
CONTINUOUS
 10
135.3093357735
 20
58.4696955702
 11
134.8394894631
 21
58.6407056418
  0
LINE
  5
2F5
100
AcDbEntity
  8
RUNDUNGEN
100
AcDbLine
 62
7
  6
CONTINUOUS
 10
101.7016809964
 20
82.1537358568
 11
101.7016809964
 21
85.6537358568
  0
LINE
  5
2F6
100
AcDbEntity
  8
RUNDUNGEN
100
AcDbLine
 62
7
  6
CONTINUOUS
 10
102.2016809964
 20
88.1537358568
 11
102.2016809964
 21
82.6152743184
  0
LINE
  5
2F7
100
AcDbEntity
  8
RUNDUNGEN
100
AcDbLine
 62
7
  6
CONTINUOUS
 10
133.6799505319
 20
73.6537358568
 11
124.7299505319
 21
73.6537358568
  0
LINE
  5
2F8
100
AcDbEntity
  8
RUNDUNGEN
100
AcDbLine
 62
7
  6
CONTINUOUS
 10
133.6799505319
 20
74.1537358568
 11
124.7299505319
 21
74.1537358568
  0
LINE
  5
2F9
100
AcDbEntity
  8
RUNDUNGEN
100
AcDbLine
 62
7
  6
CONTINUOUS
 10
143.9018885346
 20
80.1537358568
 11
153.2016809964
 21
80.1537358568
  0
LINE
  5
2FA
100
AcDbEntity
  8
0
100
AcDbLine
 62
7
  6
CONTINUOUS
 10
148.1016809964
 20
80.2102260228
 11
152.2016809964
 21
80.2102260228
  0
LINE
  5
2FB
100
AcDbEntity
  8
RUNDUNGEN
100
AcDbLine
 62
7
  6
CONTINUOUS
 10
76.4783528253
 20
85.8368707625
 11
76.781832154
 21
85.7614828032
  0
LINE
  5
2FC
100
AcDbEntity
  8
RUNDUNGEN
100
AcDbLine
 62
7
  6
CONTINUOUS
 10
73.7639235723
 20
88.3247459285
 11
74.2337698827
 21
88.1537358568
  0
LINE
  5
2FD
100
AcDbEntity
  8
RUNDUNGEN
100
AcDbLine
 62
7
  6
CONTINUOUS
 10
99.2016809964
 20
81.1537358568
 11
98.7016809964
 21
81.1537358588
  0
LINE
  5
2FE
100
AcDbEntity
  8
RUNDUNGEN
100
AcDbLine
 62
7
  6
CONTINUOUS
 10
74.2016809964
 20
81.1537358568
 11
73.7016809964
 21
81.1537358588
  0
LINE
  5
2FF
100
AcDbEntity
  8
RUNDUNGEN
100
AcDbLine
 62
7
  6
CONTINUOUS
 10
59.2016809964
 20
81.1537358568
 11
59.7016809964
 21
81.1537358568
  0
LINE
  5
300
100
AcDbEntity
  8
RUNDUNGEN
100
AcDbLine
 62
7
  6
CONTINUOUS
 10
84.2016809964
 20
81.1537358568
 11
84.7016809964
 21
81.1537358568
  0
LINE
  5
301
100
AcDbEntity
  8
0
100
AcDbLine
 62
7
  6
CONTINUOUS
 10
112.7057539993
 20
82.1537358568
 11
102.0853446065
 21
82.1537358568
  0
LINE
  5
302
100
AcDbEntity
  8
0
100
AcDbLine
 62
7
  6
CONTINUOUS
 10
81.3180044598
 20
82.1537358568
 11
77.0853446065
 21
82.1537358568
  0
LINE
  5
303
100
AcDbEntity
  8
0
100
AcDbLine
 62
7
  6
CONTINUOUS
 10
56.3359339193
 20
82.1537358568
 11
54.2016809964
 21
82.1537358568
  0
LINE
  5
304
100
AcDbEntity
  8
RUNDUNGEN
100
AcDbLine
 62
7
  6
CONTINUOUS
 10
148.1016809964
 20
82.3853318282
 11
148.6516809964
 21
82.3853318282
  0
LINE
  5
305
100
AcDbEntity
  8
RUNDUNGEN
100
AcDbLine
 62
7
  6
CONTINUOUS
 10
151.6516809964
 20
82.3853318282
 11
152.2016809964
 21
82.3853318282
  0
LINE
  5
306
100
AcDbEntity
  8
RUNDUNGEN
100
AcDbLine
 62
7
  6
CONTINUOUS
 10
151.2516809964
 20
82.6537358568
 11
149.0516809964
 21
82.6537358568
  0
LINE
  5
307
100
AcDbEntity
  8
RUNDUNGEN
100
AcDbLine
 62
7
  6
CONTINUOUS
 10
148.3016809964
 20
82.6537358568
 11
148.6516809964
 21
82.6537358568
  0
LINE
  5
308
100
AcDbEntity
  8
RUNDUNGEN
100
AcDbLine
 62
7
  6
CONTINUOUS
 10
151.6516809964
 20
82.6537358568
 11
152.0016809964
 21
82.6537358568
  0
LINE
  5
309
100
AcDbEntity
  8
RUNDUNGEN
100
AcDbLine
 62
7
  6
CONTINUOUS
 10
148.1016809964
 20
82.8537358568
 11
152.2016809964
 21
82.8537358568
  0
LINE
  5
30A
100
AcDbEntity
  8
0
100
AcDbLine
 62
7
  6
CONTINUOUS
 10
152.2016809964
 20
83.1537358568
 11
153.2016809964
 21
83.1537358568
  0
LINE
  5
30B
100
AcDbEntity
  8
RUNDUNGEN
100
AcDbLine
 62
7
  6
CONTINUOUS
 10
153.2016809964
 20
83.1537358568
 11
154.2016809964
 21
83.1537358568
  0
LINE
  5
30C
100
AcDbEntity
  8
0
100
AcDbLine
 62
7
  6
CONTINUOUS
 10
145.3578968127
 20
83.1538520305
 11
148.1016809964
 21
83.1537358568
  0
LINE
  5
30D
100
AcDbEntity
  8
RUNDUNGEN
100
AcDbLine
 62
7
  6
CONTINUOUS
 10
134.9206625166
 20
57.8204025231
 11
134.5479845136
 21
58.1537358546
  0
LINE
  5
30E
100
AcDbEntity
  8
RUNDUNGEN
100
AcDbLine
 62
7
  6
CONTINUOUS
 10
122.4119908955
 20
75.2172193733
 11
122.8755828228
 21
75.40452267
  0
LINE
  5
30F
100
AcDbEntity
  8
RUNDUNGEN
100
AcDbLine
 62
7
  6
CONTINUOUS
 10
82.2016809964
 20
84.6896342417
 11
81.7016809964
 21
84.6896342417
  0
LINE
  5
310
100
AcDbEntity
  8
RUNDUNGEN
100
AcDbLine
 62
7
  6
CONTINUOUS
 10
56.7016809964
 20
84.6896342417
 11
57.2016809959
 21
84.6896342391
  0
LINE
  5
311
100
AcDbEntity
  8
RUNDUNGEN
100
AcDbLine
 62
7
  6
CONTINUOUS
 10
76.2016809964
 20
84.6896342417
 11
76.7016809964
 21
84.6896342415
  0
LINE
  5
312
100
AcDbEntity
  8
RUNDUNGEN
100
AcDbLine
 62
7
  6
CONTINUOUS
 10
98.7639235723
 20
88.3247459285
 11
99.2337698827
 21
88.1537358568
  0
LINE
  5
313
100
AcDbEntity
  8
RUNDUNGEN
100
AcDbLine
 62
7
  6
CONTINUOUS
 10
136.0291820839
 20
75.2986854985
 11
135.5593357751
 21
75.4696955747
  0
LINE
  5
314
100
AcDbEntity
  8
RUNDUNGEN
100
AcDbLine
 62
7
  6
CONTINUOUS
 10
122.9755828228
 20
58.40452267
 11
112.5542511911
 21
84.1982235865
  0
LINE
  5
315
100
AcDbEntity
  8
RUNDUNGEN
100
AcDbLine
 62
7
  6
CONTINUOUS
 10
123.43917475
 20
58.5918259667
 11
113.0178460911
 21
84.385520628
  0
LINE
  5
316
100
AcDbEntity
  8
RUNDUNGEN
100
AcDbLine
 62
7
  6
CONTINUOUS
 10
81.9282815218
 20
85.8246363928
 11
81.6230669002
 21
85.749413857
  0
LINE
  5
317
100
AcDbEntity
  8
RUNDUNGEN
100
AcDbLine
 62
7
  6
CONTINUOUS
 10
81.2016507994
 20
88.1538071649
 11
84.1695921102
 21
88.1537358568
  0
LINE
  5
318
100
AcDbEntity
  8
RUNDUNGEN
100
AcDbLine
 62
7
  6
CONTINUOUS
 10
74.2337698827
 20
88.1537358568
 11
77.2016809964
 21
88.1537358568
  0
LINE
  5
319
100
AcDbEntity
  8
RUNDUNGEN
100
AcDbLine
 62
7
  6
CONTINUOUS
 10
99.2337698827
 20
88.1537358568
 11
102.2016809964
 21
88.1537358568
  0
LINE
  5
31A
100
AcDbEntity
  8
RUNDUNGEN
100
AcDbLine
 62
7
  6
CONTINUOUS
 10
109.8775872437
 20
88.1537358568
 11
117.1852989652
 21
88.1537358568
  0
LINE
  5
31B
100
AcDbEntity
  8
RUNDUNGEN
100
AcDbLine
 62
7
  6
CONTINUOUS
 10
56.2015900264
 20
88.1539516078
 11
59.1695921102
 21
88.1537358568
  0
LINE
  5
31C
100
AcDbEntity
  8
0
100
AcDbLine
 62
7
  6
CONTINUOUS
 10
153.2016809964
 20
93.1537358568
 11
152.2016809964
 21
93.1537358568
  0
LINE
  5
31D
100
AcDbEntity
  8
0
100
AcDbLine
 62
7
  6
CONTINUOUS
 10
148.1016809964
 20
93.1537358568
 11
142.5278889456
 21
93.1537358568
  0
LINE
  5
31E
100
AcDbEntity
  8
RUNDUNGEN
100
AcDbLine
 62
7
  6
CONTINUOUS
 10
153.2016809964
 20
93.1537358568
 11
154.2016809964
 21
93.1537358568
  0
LINE
  5
31F
100
AcDbEntity
  8
RUNDUNGEN
100
AcDbLine
 62
7
  6
CONTINUOUS
 10
148.1016809964
 20
93.4537358568
 11
152.2016809964
 21
93.4537358568
  0
LINE
  5
320
100
AcDbEntity
  8
RUNDUNGEN
100
AcDbLine
 62
7
  6
CONTINUOUS
 10
152.0016809964
 20
93.6537358568
 11
151.6516809964
 21
93.6537358568
  0
LINE
  5
321
100
AcDbEntity
  8
RUNDUNGEN
100
AcDbLine
 62
7
  6
CONTINUOUS
 10
151.2516809964
 20
93.6537358568
 11
149.0516809964
 21
93.6537358568
  0
LINE
  5
322
100
AcDbEntity
  8
RUNDUNGEN
100
AcDbLine
 62
7
  6
CONTINUOUS
 10
148.6516809964
 20
93.6537358568
 11
148.3016809964
 21
93.6537358568
  0
LINE
  5
323
100
AcDbEntity
  8
RUNDUNGEN
100
AcDbLine
 62
7
  6
CONTINUOUS
 10
148.1016809964
 20
93.9221398855
 11
148.6516809964
 21
93.9221398855
  0
LINE
  5
324
100
AcDbEntity
  8
RUNDUNGEN
100
AcDbLine
 62
7
  6
CONTINUOUS
 10
151.6516809964
 20
93.9221398855
 11
152.2016809964
 21
93.9221398855
  0
LINE
  5
325
100
AcDbEntity
  8
0
100
AcDbLine
 62
7
  6
CONTINUOUS
 10
114.9633152408
 20
94.1537358568
 11
101.2271983017
 21
94.1537358568
  0
LINE
  5
326
100
AcDbEntity
  8
0
100
AcDbLine
 62
7
  6
CONTINUOUS
 10
82.1761662268
 20
94.1537358568
 11
76.2271983017
 21
94.1537358568
  0
LINE
  5
327
100
AcDbEntity
  8
0
100
AcDbLine
 62
7
  6
CONTINUOUS
 10
57.1761662268
 20
94.1537358568
 11
54.2016809964
 21
94.1537358568
  0
LINE
  5
328
100
AcDbEntity
  8
RUNDUNGEN
100
AcDbLine
 62
7
  6
CONTINUOUS
 10
143.2815853578
 20
80.3732712856
 11
142.8117403513
 21
80.5442782003
  0
LINE
  5
329
100
AcDbEntity
  8
RUNDUNGEN
100
AcDbLine
 62
7
  6
CONTINUOUS
 10
122.4119908955
 20
75.2172193733
 11
117.1852989652
 21
88.1537358568
  0
LINE
  5
32A
100
AcDbEntity
  8
RUNDUNGEN
100
AcDbLine
 62
7
  6
CONTINUOUS
 10
122.8755828228
 20
75.40452267
 11
115.4267470537
 21
93.8410381553
  0
LINE
  5
32B
100
AcDbEntity
  8
RUNDUNGEN
100
AcDbLine
 62
7
  6
CONTINUOUS
 10
124.7299505319
 20
73.6537358568
 11
124.7299505359
 21
74.1537358568
  0
LINE
  5
32C
100
AcDbEntity
  8
RUNDUNGEN
100
AcDbLine
 62
7
  6
CONTINUOUS
 10
56.6216169625
 20
85.7607626576
 11
56.9252007653
 21
85.8361405155
  0
LINE
  5
32D
100
AcDbEntity
  8
0
100
AcDbLine
 62
7
  6
CONTINUOUS
 10
152.2016809964
 20
96.0972456908
 11
148.1016809964
 21
96.0972456908
  0
LINE
  5
32E
100
AcDbEntity
  8
RUNDUNGEN
100
AcDbLine
 62
7
  6
CONTINUOUS
 10
153.2016809964
 20
96.1537358568
 11
143.4378145313
 21
96.1537358568
  0
LINE
  5
32F
100
AcDbEntity
  8
RUNDUNGEN
100
AcDbLine
 62
7
  6
CONTINUOUS
 10
122.9755828228
 20
58.40452267
 11
123.43917475
 21
58.5918259667
  0
LINE
  5
330
100
AcDbEntity
  8
RUNDUNGEN
100
AcDbLine
 62
7
  6
CONTINUOUS
 10
123.3392385471
 20
57.8204025233
 11
123.7119165431
 21
58.1537358568
  0
LINE
  5
331
100
AcDbEntity
  8
RUNDUNGEN
100
AcDbLine
 62
7
  6
CONTINUOUS
 10
142.5278889456
 20
93.1537358568
 11
142.0580426352
 21
93.3247459285
  0
LINE
  5
332
100
AcDbEntity
  8
RUNDUNGEN
100
AcDbLine
 62
7
  6
CONTINUOUS
 10
133.6799505319
 20
73.6537358568
 11
133.6799505319
 21
74.1537358568
  0
LINE
  5
333
100
AcDbEntity
  8
RUNDUNGEN
100
AcDbLine
 62
7
  6
CONTINUOUS
 10
142.9679682209
 20
95.8247459285
 11
135.5593357735
 21
75.4696955702
  0
LINE
  5
334
100
AcDbEntity
  8
RUNDUNGEN
100
AcDbLine
 62
7
  6
CONTINUOUS
 10
142.5278889456
 20
93.1537358568
 11
136.0291820839
 21
75.2986854985
  0
LINE
  5
335
100
AcDbEntity
  8
RUNDUNGEN
100
AcDbLine
 62
7
  6
CONTINUOUS
 10
142.8117403513
 20
80.5442782003
 11
134.8394894631
 21
58.6407056418
  0
LINE
  5
336
100
AcDbEntity
  8
RUNDUNGEN
100
AcDbLine
 62
7
  6
CONTINUOUS
 10
143.281603447
 20
80.373320985
 11
135.3093357735
 21
58.4696955702
  0
LINE
  5
337
100
AcDbEntity
  8
0
100
AcDbLine
 62
7
  6
CONTINUOUS
 10
148.1016809964
 20
80.2102260228
 11
148.1016809964
 21
96.0972456908
  0
LINE
  5
338
100
AcDbEntity
  8
RUNDUNGEN
100
AcDbLine
 62
7
  6
CONTINUOUS
 10
148.3016809964
 20
93.6537358568
 11
148.3016809964
 21
82.6537358568
  0
LINE
  5
339
100
AcDbEntity
  8
RUNDUNGEN
100
AcDbLine
 62
7
  6
CONTINUOUS
 10
148.3516809964
 20
82.6537358568
 11
148.3516809964
 21
93.6537358568
  0
LINE
  5
33A
100
AcDbEntity
  8
RUNDUNGEN
100
AcDbLine
 62
7
  6
CONTINUOUS
 10
148.6516809964
 20
82.3853318282
 11
148.6516809964
 21
82.6537358568
  0
LINE
  5
33B
100
AcDbEntity
  8
RUNDUNGEN
100
AcDbLine
 62
7
  6
CONTINUOUS
 10
148.6516809964
 20
93.6537358568
 11
148.6516809964
 21
93.9221398855
  0
LINE
  5
33C
100
AcDbEntity
  8
RUNDUNGEN
100
AcDbLine
 62
7
  6
CONTINUOUS
 10
148.8516809964
 20
93.4537358568
 11
148.8516809964
 21
82.8537358568
  0
LINE
  5
33D
100
AcDbEntity
  8
RUNDUNGEN
100
AcDbLine
 62
7
  6
CONTINUOUS
 10
149.0516809964
 20
82.6549331649
 11
149.0516809964
 21
93.6525398436
  0
LINE
  5
33E
100
AcDbEntity
  8
RUNDUNGEN
100
AcDbLine
 62
7
  6
CONTINUOUS
 10
151.2516809964
 20
82.6549317102
 11
151.2516809964
 21
93.652538538
  0
LINE
  5
33F
100
AcDbEntity
  8
RUNDUNGEN
100
AcDbLine
 62
7
  6
CONTINUOUS
 10
151.4516809964
 20
82.8537358568
 11
151.4516809964
 21
93.4537358568
  0
LINE
  5
340
100
AcDbEntity
  8
RUNDUNGEN
100
AcDbLine
 62
7
  6
CONTINUOUS
 10
151.6516809964
 20
82.3853318282
 11
151.6516809964
 21
82.6537358568
  0
LINE
  5
341
100
AcDbEntity
  8
RUNDUNGEN
100
AcDbLine
 62
7
  6
CONTINUOUS
 10
151.6516809964
 20
93.6537358568
 11
151.6516809965
 21
93.9221398855
  0
LINE
  5
342
100
AcDbEntity
  8
RUNDUNGEN
100
AcDbLine
 62
7
  6
CONTINUOUS
 10
151.9516809964
 20
82.6537358568
 11
151.9516809964
 21
93.6537358568
  0
LINE
  5
343
100
AcDbEntity
  8
RUNDUNGEN
100
AcDbLine
 62
7
  6
CONTINUOUS
 10
152.0016809964
 20
82.6537358568
 11
152.0016809964
 21
93.6537358568
  0
LINE
  5
344
100
AcDbEntity
  8
0
100
AcDbLine
 62
7
  6
CONTINUOUS
 10
152.2016809964
 20
80.2102260228
 11
152.2016809964
 21
96.0972456908
  0
LINE
  5
345
100
AcDbEntity
  8
RUNDUNGEN
100
AcDbLine
 62
7
  6
CONTINUOUS
 10
153.2016809964
 20
80.1537358568
 11
153.2016809964
 21
96.1537358568
  0
LINE
  5
346
100
AcDbEntity
  8
RUNDUNGEN
100
AcDbLine
 62
7
  6
CONTINUOUS
 10
154.2016809964
 20
81.1537358568
 11
154.2016809964
 21
95.1537358568
  0
ARC
  5
347
100
AcDbEntity
  8
RUNDUNGEN
100
AcDbCircle
 62
7
  6
CONTINUOUS
 10
97.7016809964
 20
146.923878749
 40
0.5
100
AcDbArc
 50
270.0
 51
360.0
  0
ARC
  5
348
100
AcDbEntity
  8
RUNDUNGEN
100
AcDbCircle
 62
7
  6
CONTINUOUS
 10
72.7016809964
 20
146.923878749
 40
0.5
100
AcDbArc
 50
270.0
 51
360.0
  0
ARC
  5
349
100
AcDbEntity
  8
RUNDUNGEN
100
AcDbCircle
 62
7
  6
CONTINUOUS
 10
85.7016809964
 20
146.923878749
 40
0.5
100
AcDbArc
 50
180.0
 51
270.0
  0
ARC
  5
34A
100
AcDbEntity
  8
RUNDUNGEN
100
AcDbCircle
 62
7
  6
CONTINUOUS
 10
82.2016809964
 20
146.923878749
 40
0.5
100
AcDbArc
 50
180.0
 51
270.0
  0
ARC
  5
34B
100
AcDbEntity
  8
RUNDUNGEN
100
AcDbCircle
 62
7
  6
CONTINUOUS
 10
76.2016809964
 20
146.923878749
 40
0.5
100
AcDbArc
 50
270.0
 51
360.0
  0
ARC
  5
34C
100
AcDbEntity
  8
RUNDUNGEN
100
AcDbCircle
 62
7
  6
CONTINUOUS
 10
60.7016809964
 20
146.923878749
 40
0.5
100
AcDbArc
 50
180.0
 51
270.0
  0
ARC
  5
34D
100
AcDbEntity
  8
RUNDUNGEN
100
AcDbCircle
 62
7
  6
CONTINUOUS
 10
57.2016809964
 20
146.923878749
 40
0.5
100
AcDbArc
 50
180.0
 51
270.0
  0
ARC
  5
34E
100
AcDbEntity
  8
RUNDUNGEN
100
AcDbCircle
 62
7
  6
CONTINUOUS
 10
97.7016809964
 20
157.923878749
 40
0.5
100
AcDbArc
 50
0.0
 51
90.0
  0
ARC
  5
34F
100
AcDbEntity
  8
RUNDUNGEN
100
AcDbCircle
 62
7
  6
CONTINUOUS
 10
60.7016809964
 20
157.923878749
 40
0.5
100
AcDbArc
 50
90.0
 51
180.0
  0
ARC
  5
350
100
AcDbEntity
  8
RUNDUNGEN
100
AcDbCircle
 62
7
  6
CONTINUOUS
 10
85.7016809964
 20
157.923878749
 40
0.5
100
AcDbArc
 50
90.0
 51
180.0
  0
ARC
  5
351
100
AcDbEntity
  8
RUNDUNGEN
100
AcDbCircle
 62
7
  6
CONTINUOUS
 10
82.2016809964
 20
157.923878749
 40
0.5
100
AcDbArc
 50
90.0
 51
180.0
  0
ARC
  5
352
100
AcDbEntity
  8
RUNDUNGEN
100
AcDbCircle
 62
7
  6
CONTINUOUS
 10
57.2016809964
 20
157.923878749
 40
0.5
100
AcDbArc
 50
90.0
 51
180.0
  0
ARC
  5
353
100
AcDbEntity
  8
RUNDUNGEN
100
AcDbCircle
 62
7
  6
CONTINUOUS
 10
72.7016809964
 20
157.923878749
 40
0.5
100
AcDbArc
 50
0.0
 51
90.0
  0
ARC
  5
354
100
AcDbEntity
  8
RUNDUNGEN
100
AcDbCircle
 62
7
  6
CONTINUOUS
 10
76.2016809964
 20
157.923878749
 40
0.5
100
AcDbArc
 50
0.0
 51
90.0
  0
ARC
  5
355
100
AcDbEntity
  8
RUNDUNGEN
100
AcDbCircle
 62
7
  6
CONTINUOUS
 10
153.2016809964
 20
147.423878749
 40
1.0
100
AcDbArc
 50
270.0
 51
360.0
  0
ARC
  5
356
100
AcDbEntity
  8
RUNDUNGEN
100
AcDbCircle
 62
7
  6
CONTINUOUS
 10
153.2016809964
 20
157.423878749
 40
1.0
100
AcDbArc
 50
0.0
 51
90.0
  0
ARC
  5
357
100
AcDbEntity
  8
RUNDUNGEN
100
AcDbCircle
 62
7
  6
CONTINUOUS
 10
148.3516809964
 20
155.823878749
 40
0.5
100
AcDbArc
 50
21.0724161889
 51
90.0
  0
ARC
  5
358
100
AcDbEntity
  8
RUNDUNGEN
100
AcDbCircle
 62
7
  6
CONTINUOUS
 10
151.9516809964
 20
155.823878749
 40
0.5
100
AcDbArc
 50
90.0
 51
158.9275888236
  0
ARC
  5
359
100
AcDbEntity
  8
RUNDUNGEN
100
AcDbCircle
 62
7
  6
CONTINUOUS
 10
148.3516809964
 20
155.823878749
 40
0.3
100
AcDbArc
 50
36.9661103733
 51
90.0
  0
ARC
  5
35A
100
AcDbEntity
  8
RUNDUNGEN
100
AcDbCircle
 62
7
  6
CONTINUOUS
 10
151.9516809964
 20
155.823878749
 40
0.3
100
AcDbArc
 50
90.0
 51
143.0352658943
  0
ARC
  5
35B
100
AcDbEntity
  8
RUNDUNGEN
100
AcDbCircle
 62
7
  6
CONTINUOUS
 10
152.0016809964
 20
156.523878749
 40
0.2
100
AcDbArc
 50
270.0
 51
360.0
  0
ARC
  5
35C
100
AcDbEntity
  8
RUNDUNGEN
100
AcDbCircle
 62
7
  6
CONTINUOUS
 10
148.3016809964
 20
156.523878749
 40
0.2
100
AcDbArc
 50
180.0
 51
270.0
  0
ARC
  5
35D
100
AcDbEntity
  8
RUNDUNGEN
100
AcDbCircle
 62
7
  6
CONTINUOUS
 10
215.0869777251
 20
144.5415104245
 40
13.9055992877
100
AcDbArc
 50
78.6355346392
 51
81.8893408851
  0
ARC
  5
35E
100
AcDbEntity
  8
RUNDUNGEN
100
AcDbCircle
 62
7
  6
CONTINUOUS
 10
215.2825707204
 20
152.423878749
 40
6.5000001868
100
AcDbArc
 50
341.1557846108
 51
18.8442153892
  0
ARC
  5
35F
100
AcDbEntity
  8
RUNDUNGEN
100
AcDbCircle
 62
7
  6
CONTINUOUS
 10
215.4341727464
 20
152.423878749
 40
6.5
100
AcDbArc
 50
22.619864948
 51
57.7957724958
  0
ARC
  5
360
100
AcDbEntity
  8
RUNDUNGEN
100
AcDbCircle
 62
7
  6
CONTINUOUS
 10
215.4341727464
 20
152.423878749
 40
6.5
100
AcDbArc
 50
302.2042279709
 51
337.380135052
  0
CIRCLE
  5
361
100
AcDbEntity
  8
0
100
AcDbCircle
 62
7
  6
CONTINUOUS
 10
215.4341727464
 20
152.423878749
 40
6.0
  0
ARC
  5
362
100
AcDbEntity
  8
RUNDUNGEN
100
AcDbCircle
 62
7
  6
CONTINUOUS
 10
210.4341727464
 20
149.423878749
 40
3.0
100
AcDbArc
 50
180.0
 51
270.0
  0
ARC
  5
363
100
AcDbEntity
  8
RUNDUNGEN
100
AcDbCircle
 62
7
  6
CONTINUOUS
 10
210.4341727464
 20
155.423878749
 40
3.0
100
AcDbArc
 50
90.0
 51
180.0
  0
ARC
  5
364
100
AcDbEntity
  8
0
100
AcDbCircle
 62
7
  6
CONTINUOUS
 10
240.1841727464
 20
152.423878749
 40
2.75
100
AcDbArc
 50
270.0
 51
90.0
  0
ARC
  5
365
100
AcDbEntity
  8
0
100
AcDbCircle
 62
7
  6
CONTINUOUS
 10
232.6841727464
 20
152.423878749
 40
2.75
100
AcDbArc
 50
90.0
 51
270.0
  0
CIRCLE
  5
366
100
AcDbEntity
  8
0
100
AcDbCircle
 62
7
  6
CONTINUOUS
 10
215.4341727464
 20
152.423878749
 40
2.7
  0
ARC
  5
367
100
AcDbEntity
  8
RUNDUNGEN
100
AcDbCircle
 62
7
  6
CONTINUOUS
 10
210.263183941
 20
149.4239000235
 40
2.5000183068
100
AcDbArc
 50
180.0004875713
 51
269.9995126171
  0
ARC
  5
368
100
AcDbEntity
  8
RUNDUNGEN
100
AcDbCircle
 62
7
  6
CONTINUOUS
 10
210.2631841597
 20
155.4238572552
 40
2.5000182955
100
AcDbArc
 50
90.0004923939
 51
179.999507403
  0
ARC
  5
369
100
AcDbEntity
  8
RUNDUNGEN
100
AcDbCircle
 62
7
  6
CONTINUOUS
 10
245.4341727464
 20
147.423878749
 40
1.0
100
AcDbArc
 50
270.0025457208
 51
360.0
  0
ARC
  5
36A
100
AcDbEntity
  8
RUNDUNGEN
100
AcDbCircle
 62
7
  6
CONTINUOUS
 10
245.4341727464
 20
157.423878749
 40
1.0
100
AcDbArc
 50
0.0
 51
89.9960018673
  0
ARC
  5
36B
100
AcDbEntity
  8
0
100
AcDbCircle
 62
7
  6
CONTINUOUS
 10
66.7016809964
 20
63.6537358568
 40
6.5
100
AcDbArc
 50
180.0
 51
182.204227504
  0
ARC
  5
36C
100
AcDbEntity
  8
RUNDUNGEN
100
AcDbCircle
 62
7
  6
CONTINUOUS
 10
66.7016809964
 20
63.6537358568
 40
6.5
100
AcDbArc
 50
180.0
 51
360.0
  0
ARC
  5
36D
100
AcDbEntity
  8
RUNDUNGEN
100
AcDbCircle
 62
7
  6
CONTINUOUS
 10
66.7016809964
 20
63.6537358568
 40
6.0
100
AcDbArc
 50
293.5564643153
 51
360.0
  0
ARC
  5
36E
100
AcDbEntity
  8
RUNDUNGEN
100
AcDbCircle
 62
7
  6
CONTINUOUS
 10
66.7016809964
 20
63.6537358568
 40
6.0
100
AcDbArc
 50
180.0
 51
246.4449009786
  0
ARC
  5
36F
100
AcDbEntity
  8
0
100
AcDbCircle
 62
7
  6
CONTINUOUS
 10
66.7016809964
 20
63.1537358568
 40
2.5
100
AcDbArc
 50
180.0
 51
360.0
  0
CIRCLE
  5
370
100
AcDbEntity
  8
02___PRT_ALL_AXES
100
AcDbCircle
 62
7
  6
CONTINUOUS
 10
62.3766809964
 20
61.9477358568
 40
1.25
  0
CIRCLE
  5
371
100
AcDbEntity
  8
02___PRT_ALL_AXES
100
AcDbCircle
 62
7
  6
CONTINUOUS
 10
71.0266809964
 20
61.9477358568
 40
1.25
  0
ARC
  5
372
100
AcDbEntity
  8
RUNDUNGEN
100
AcDbCircle
 62
7
  6
CONTINUOUS
 10
66.7016809964
 20
71.1537358568
 40
2.5
100
AcDbArc
 50
0.0
 51
180.0
  0
CIRCLE
  5
373
100
AcDbEntity
  8
02___PRT_ALL_AXES
100
AcDbCircle
 62
7
  6
CONTINUOUS
 10
62.1661809964
 20
72.0267358568
 40
1.25
  0
CIRCLE
  5
374
100
AcDbEntity
  8
02___PRT_ALL_AXES
100
AcDbCircle
 62
7
  6
CONTINUOUS
 10
71.2371809964
 20
72.0267358568
 40
1.25
  0
ARC
  5
375
100
AcDbEntity
  8
0
100
AcDbCircle
 62
7
  6
CONTINUOUS
 10
91.7016809964
 20
63.6537358568
 40
6.5
100
AcDbArc
 50
180.0
 51
182.204227504
  0
ARC
  5
376
100
AcDbEntity
  8
RUNDUNGEN
100
AcDbCircle
 62
7
  6
CONTINUOUS
 10
91.7016809964
 20
63.6537358568
 40
6.5
100
AcDbArc
 50
180.0
 51
360.0
  0
ARC
  5
377
100
AcDbEntity
  8
RUNDUNGEN
100
AcDbCircle
 62
7
  6
CONTINUOUS
 10
91.7016809964
 20
63.6537358568
 40
6.0
100
AcDbArc
 50
293.5550804432
 51
360.0
  0
ARC
  5
378
100
AcDbEntity
  8
RUNDUNGEN
100
AcDbCircle
 62
7
  6
CONTINUOUS
 10
91.7016809964
 20
63.6537358568
 40
6.0
100
AcDbArc
 50
180.0
 51
246.4435356846
  0
ARC
  5
379
100
AcDbEntity
  8
0
100
AcDbCircle
 62
7
  6
CONTINUOUS
 10
91.7016809964
 20
63.1537358568
 40
2.5
100
AcDbArc
 50
180.0
 51
360.0
  0
CIRCLE
  5
37A
100
AcDbEntity
  8
02___PRT_ALL_AXES
100
AcDbCircle
 62
7
  6
CONTINUOUS
 10
87.3766809964
 20
61.9477358568
 40
1.25
  0
CIRCLE
  5
37B
100
AcDbEntity
  8
02___PRT_ALL_AXES
100
AcDbCircle
 62
7
  6
CONTINUOUS
 10
96.0266809964
 20
61.9477358568
 40
1.25
  0
ARC
  5
37C
100
AcDbEntity
  8
RUNDUNGEN
100
AcDbCircle
 62
7
  6
CONTINUOUS
 10
91.7016809964
 20
71.1537358568
 40
2.5
100
AcDbArc
 50
0.0
 51
180.0
  0
CIRCLE
  5
37D
100
AcDbEntity
  8
02___PRT_ALL_AXES
100
AcDbCircle
 62
7
  6
CONTINUOUS
 10
87.1661809964
 20
72.0267358568
 40
1.25
  0
CIRCLE
  5
37E
100
AcDbEntity
  8
02___PRT_ALL_AXES
100
AcDbCircle
 62
7
  6
CONTINUOUS
 10
96.2371809964
 20
72.0267358568
 40
1.25
  0
ARC
  5
37F
100
AcDbEntity
  8
RUNDUNGEN
100
AcDbCircle
 62
7
  6
CONTINUOUS
 10
66.7016809964
 20
81.1537358568
 40
7.5
100
AcDbArc
 50
180.0
 51
360.0
  0
ARC
  5
380
100
AcDbEntity
  8
RUNDUNGEN
100
AcDbCircle
 62
7
  6
CONTINUOUS
 10
91.7016809964
 20
81.1537358568
 40
7.5
100
AcDbArc
 50
180.0
 51
360.0
  0
ARC
  5
381
100
AcDbEntity
  8
RUNDUNGEN
100
AcDbCircle
 62
7
  6
CONTINUOUS
 10
66.7016809964
 20
81.1537358568
 40
7.0
100
AcDbArc
 50
180.0
 51
360.0
  0
ARC
  5
382
100
AcDbEntity
  8
RUNDUNGEN
100
AcDbCircle
 62
7
  6
CONTINUOUS
 10
91.7016809964
 20
81.1537358568
 40
7.0
100
AcDbArc
 50
180.0
 51
360.0
  0
CIRCLE
  5
383
100
AcDbEntity
  8
02___PRT_ALL_AXES
100
AcDbCircle
 62
7
  6
CONTINUOUS
 10
58.1341809964
 20
86.1537358568
 40
1.25
  0
CIRCLE
  5
384
100
AcDbEntity
  8
02___PRT_ALL_AXES
100
AcDbCircle
 62
7
  6
CONTINUOUS
 10
75.2691809964
 20
86.1537358568
 40
1.25
  0
CIRCLE
  5
385
100
AcDbEntity
  8
02___PRT_ALL_AXES
100
AcDbCircle
 62
7
  6
CONTINUOUS
 10
83.1341809964
 20
86.1537358568
 40
1.25
  0
CIRCLE
  5
386
100
AcDbEntity
  8
02___PRT_ALL_AXES
100
AcDbCircle
 62
7
  6
CONTINUOUS
 10
100.2691809964
 20
86.1537358568
 40
1.25
  0
ARC
  5
387
100
AcDbEntity
  8
RUNDUNGEN
100
AcDbCircle
 62
7
  6
CONTINUOUS
 10
101.2355939046
 20
93.6537021549
 40
0.5
100
AcDbArc
 50
90.0004618832
 51
159.9999999996
  0
ARC
  5
388
100
AcDbEntity
  8
RUNDUNGEN
100
AcDbCircle
 62
7
  6
CONTINUOUS
 10
82.167768114
 20
93.653702084
 40
0.5
100
AcDbArc
 50
20.0000000004
 51
89.9995371801
  0
ARC
  5
389
100
AcDbEntity
  8
RUNDUNGEN
100
AcDbCircle
 62
7
  6
CONTINUOUS
 10
57.167768114
 20
93.653702084
 40
0.5
100
AcDbArc
 50
20.0000000003
 51
89.9995371801
  0
ARC
  5
38A
100
AcDbEntity
  8
RUNDUNGEN
100
AcDbCircle
 62
7
  6
CONTINUOUS
 10
76.2355939046
 20
93.6537021549
 40
0.5
100
AcDbArc
 50
90.0004618832
 51
159.9999999996
  0
ARC
  5
38B
100
AcDbEntity
  8
RUNDUNGEN
100
AcDbCircle
 62
7
  6
CONTINUOUS
 10
77.0853444904
 20
81.6537358568
 40
0.5
100
AcDbArc
 50
90.0
 51
145.9691976198
  0
ARC
  5
38C
100
AcDbEntity
  8
RUNDUNGEN
100
AcDbCircle
 62
7
  6
CONTINUOUS
 10
81.3180175027
 20
81.6537358558
 40
0.5000000001
100
AcDbArc
 50
38.3658101712
 51
90.0
  0
ARC
  5
38D
100
AcDbEntity
  8
RUNDUNGEN
100
AcDbCircle
 62
7
  6
CONTINUOUS
 10
102.0853444904
 20
81.6537358568
 40
0.5
100
AcDbArc
 50
90.0
 51
145.9691976198
  0
ARC
  5
38E
100
AcDbEntity
  8
RUNDUNGEN
100
AcDbCircle
 62
7
  6
CONTINUOUS
 10
56.3360720631
 20
81.6537358785
 40
0.4999999983
100
AcDbArc
 50
29.0230264292
 51
89.9999999988
  0
ARC
  5
38F
100
AcDbEntity
  8
RUNDUNGEN
100
AcDbCircle
 62
7
  6
CONTINUOUS
 10
56.631481122
 20
82.6156146948
 40
0.4298002604
100
AcDbArc
 50
180.0453748858
 51
199.0495296183
  0
ARC
  5
390
100
AcDbEntity
  8
RUNDUNGEN
100
AcDbCircle
 62
7
  6
CONTINUOUS
 10
81.6304151712
 20
82.6154794869
 40
0.4287342239
100
AcDbArc
 50
180.0274186021
 51
196.2065516051
  0
ARC
  5
391
100
AcDbEntity
  8
RUNDUNGEN
100
AcDbCircle
 62
7
  6
CONTINUOUS
 10
76.7729498552
 20
82.6154790543
 40
0.4287311901
100
AcDbArc
 50
343.7933907681
 51
359.9726390248
  0
ARC
  5
392
100
AcDbEntity
  8
RUNDUNGEN
100
AcDbCircle
 62
7
  6
CONTINUOUS
 10
101.7729498552
 20
82.6154790543
 40
0.4287311901
100
AcDbArc
 50
343.793390768
 51
359.9726390248
  0
ARC
  5
393
100
AcDbEntity
  8
RUNDUNGEN
100
AcDbCircle
 62
7
  6
CONTINUOUS
 10
124.7299505319
 20
76.1537358568
 40
2.5
100
AcDbArc
 50
202.0
 51
270.0
  0
ARC
  5
394
100
AcDbEntity
  8
RUNDUNGEN
100
AcDbCircle
 62
7
  6
CONTINUOUS
 10
133.6799505319
 20
76.1537358568
 40
2.5
100
AcDbArc
 50
270.0
 51
340.0
  0
ARC
  5
395
100
AcDbEntity
  8
RUNDUNGEN
100
AcDbCircle
 62
7
  6
CONTINUOUS
 10
133.4299505319
 20
59.1537358568
 40
2.0
100
AcDbArc
 50
270.0
 51
340.0
  0
ARC
  5
396
100
AcDbEntity
  8
RUNDUNGEN
100
AcDbCircle
 62
7
  6
CONTINUOUS
 10
124.8299505319
 20
59.1537358568
 40
2.0
100
AcDbArc
 50
202.0
 51
270.0
  0
ARC
  5
397
100
AcDbEntity
  8
RUNDUNGEN
100
AcDbCircle
 62
7
  6
CONTINUOUS
 10
124.7299505319
 20
76.1537358568
 40
2.0
100
AcDbArc
 50
202.0
 51
270.0
  0
ARC
  5
398
100
AcDbEntity
  8
RUNDUNGEN
100
AcDbCircle
 62
7
  6
CONTINUOUS
 10
133.6799505319
 20
76.1537358568
 40
2.0
100
AcDbArc
 50
270.0
 51
340.0
  0
ARC
  5
399
100
AcDbEntity
  8
RUNDUNGEN
100
AcDbCircle
 62
7
  6
CONTINUOUS
 10
133.4299505319
 20
59.1537358568
 40
1.5
100
AcDbArc
 50
318.1896851042
 51
340.0
  0
ARC
  5
39A
100
AcDbEntity
  8
RUNDUNGEN
100
AcDbCircle
 62
7
  6
CONTINUOUS
 10
124.8299505319
 20
59.1537358568
 40
1.5
100
AcDbArc
 50
202.0
 51
221.8103148958
  0
ARC
  5
39B
100
AcDbEntity
  8
RUNDUNGEN
100
AcDbCircle
 62
7
  6
CONTINUOUS
 10
112.7057532442
 20
81.1537756842
 40
0.9999943155
100
AcDbArc
 50
21.9958291558
 51
89.9984375089
  0
ARC
  5
39C
100
AcDbEntity
  8
RUNDUNGEN
100
AcDbCircle
 62
7
  6
CONTINUOUS
 10
114.9631547288
 20
93.6537358427
 40
0.5
100
AcDbArc
 50
22.0
 51
89.9999997732
  0
ARC
  5
39D
100
AcDbEntity
  8
RUNDUNGEN
100
AcDbCircle
 62
7
  6
CONTINUOUS
 10
153.2016809964
 20
81.1537358568
 40
1.0
100
AcDbArc
 50
270.0
 51
360.0
  0
ARC
  5
39E
100
AcDbEntity
  8
RUNDUNGEN
100
AcDbCircle
 62
7
  6
CONTINUOUS
 10
143.9019012283
 20
79.1537707324
 40
0.9999912811
100
AcDbArc
 50
90.0007273199
 51
160.0021264668
  0
ARC
  5
39F
100
AcDbEntity
  8
RUNDUNGEN
100
AcDbCircle
 62
7
  6
CONTINUOUS
 10
151.6516821498
 20
82.7853340376
 40
0.4000022095
100
AcDbArc
 50
199.0255432807
 51
269.9998347979
  0
ARC
  5
3A0
100
AcDbEntity
  8
RUNDUNGEN
100
AcDbCircle
 62
7
  6
CONTINUOUS
 10
148.6516798816
 20
82.7853333973
 40
0.4000015692
100
AcDbArc
 50
270.0001596898
 51
340.9738775326
  0
ARC
  5
3A1
100
AcDbEntity
  8
RUNDUNGEN
100
AcDbCircle
 62
7
  6
CONTINUOUS
 10
152.0016809964
 20
82.4537358568
 40
0.2
100
AcDbArc
 50
0.0
 51
90.0
  0
ARC
  5
3A2
100
AcDbEntity
  8
RUNDUNGEN
100
AcDbCircle
 62
7
  6
CONTINUOUS
 10
148.3016809964
 20
82.4537358568
 40
0.2
100
AcDbArc
 50
90.0
 51
168.7499999627
  0
ARC
  5
3A3
100
AcDbEntity
  8
RUNDUNGEN
100
AcDbCircle
 62
7
  6
CONTINUOUS
 10
151.6516809964
 20
82.8537358568
 40
0.2
100
AcDbArc
 50
180.0
 51
270.0
  0
ARC
  5
3A4
100
AcDbEntity
  8
RUNDUNGEN
100
AcDbCircle
 62
7
  6
CONTINUOUS
 10
148.6516809964
 20
82.8537358568
 40
0.2
100
AcDbArc
 50
270.0
 51
360.0
  0
ARC
  5
3A5
100
AcDbEntity
  8
RUNDUNGEN
100
AcDbCircle
 62
7
  6
CONTINUOUS
 10
149.0516809964
 20
82.8537358568
 40
0.2
100
AcDbArc
 50
180.000446394
 51
270.0
  0
ARC
  5
3A6
100
AcDbEntity
  8
RUNDUNGEN
100
AcDbCircle
 62
7
  6
CONTINUOUS
 10
151.2516809964
 20
82.8537358568
 40
0.2
100
AcDbArc
 50
270.0
 51
359.9993112015
  0
ARC
  5
3A7
100
AcDbEntity
  8
RUNDUNGEN
100
AcDbCircle
 62
7
  6
CONTINUOUS
 10
153.2016809964
 20
95.1537358568
 40
1.0
100
AcDbArc
 50
0.0
 51
90.0
  0
ARC
  5
3A8
100
AcDbEntity
  8
RUNDUNGEN
100
AcDbCircle
 62
7
  6
CONTINUOUS
 10
143.4378033848
 20
95.6537052322
 40
0.5
100
AcDbArc
 50
89.9987227871
 51
159.9962654505
  0
ARC
  5
3A9
100
AcDbEntity
  8
RUNDUNGEN
100
AcDbCircle
 62
7
  6
CONTINUOUS
 10
148.6516797575
 20
93.5221376562
 40
0.4000022293
100
AcDbArc
 50
19.025606778
 51
89.9998225434
  0
ARC
  5
3AA
100
AcDbEntity
  8
RUNDUNGEN
100
AcDbCircle
 62
7
  6
CONTINUOUS
 10
151.6516822775
 20
93.5221380889
 40
0.4000017966
100
AcDbArc
 50
90.0001834943
 51
160.9738495556
  0
ARC
  5
3AB
100
AcDbEntity
  8
RUNDUNGEN
100
AcDbCircle
 62
7
  6
CONTINUOUS
 10
152.0016809964
 20
93.8537358568
 40
0.2
100
AcDbArc
 50
270.0
 51
348.7499999627
  0
ARC
  5
3AC
100
AcDbEntity
  8
RUNDUNGEN
100
AcDbCircle
 62
7
  6
CONTINUOUS
 10
148.3016809964
 20
93.8537358568
 40
0.2
100
AcDbArc
 50
180.0
 51
270.0
  0
ARC
  5
3AD
100
AcDbEntity
  8
RUNDUNGEN
100
AcDbCircle
 62
7
  6
CONTINUOUS
 10
148.6516809964
 20
93.4537358568
 40
0.2
100
AcDbArc
 50
0.0
 51
90.0
  0
ARC
  5
3AE
100
AcDbEntity
  8
RUNDUNGEN
100
AcDbCircle
 62
7
  6
CONTINUOUS
 10
151.6516809964
 20
93.4537358568
 40
0.2
100
AcDbArc
 50
90.0
 51
180.0
  0
ARC
  5
3AF
100
AcDbEntity
  8
RUNDUNGEN
100
AcDbCircle
 62
7
  6
CONTINUOUS
 10
149.0516809964
 20
93.4537358568
 40
0.2
100
AcDbArc
 50
90.0
 51
180.0
  0
ARC
  5
3B0
100
AcDbEntity
  8
RUNDUNGEN
100
AcDbCircle
 62
7
  6
CONTINUOUS
 10
151.2516809964
 20
93.4537358568
 40
0.2
100
AcDbArc
 50
0.0
 51
90.0
  0
SPLINE
  5
3B1
100
AcDbEntity
  8
0
100
AcDbSpline
 62
7
  6
CONTINUOUS
 70
0
 71
3
 72
35
 73
31
 74
0
 42
0.0000001
 43
0.0000001
 44
0.0000000001
 40
0.0
 40
0.0
 40
0.0
 40
0.0
 40
0.0013120389
 40
0.0037498289
 40
0.0073990886
 40
0.0122682184
 40
0.025610936
 40
0.0435487181
 40
0.0657893412
 40
0.0920044645
 40
0.1218527905
 40
0.1550006626
 40
0.2299034249
 40
0.3142112407
 40
0.4052892886
 40
0.5000016781
 40
0.5947137761
 40
0.6857912026
 40
0.7700983176
 40
0.8450003332
 40
0.8781480517
 40
0.9079962191
 40
0.9342111377
 40
0.9564516067
 40
0.9743892531
 40
0.9877319234
 40
0.9926010295
 40
0.9962502399
 40
0.9986879813
 40
1.0
 40
1.0
 40
1.0
 40
1.0
 10
73.1968715248
 20
149.673878749
 30
0.0
 10
73.1943535489
 20
149.673878749
 30
0.0
 10
73.1880330566
 20
149.6787062077
 30
0.0
 10
73.1789576632
 20
149.6890679718
 30
0.0
 10
73.1666117047
 20
149.706383672
 30
0.0
 10
73.1442932241
 20
149.7417774805
 30
0.0
 10
73.1104818439
 20
149.802501347
 30
0.0
 10
73.0639134804
 20
149.8940184341
 30
0.0
 10
73.009495027
 20
150.0092689529
 30
0.0
 10
72.9490069062
 20
150.1468459152
 30
0.0
 10
72.8843080895
 20
150.3053856222
 30
0.0
 10
72.791279865
 20
150.5531732567
 30
0.0
 10
72.6780181421
 20
150.9048408424
 30
0.0
 10
72.5645006977
 20
151.3720982736
 30
0.0
 10
72.4865058966
 20
151.8853330764
 30
0.0
 10
72.4585860855
 20
152.4238879106
 30
0.0
 10
72.4865062582
 20
152.9624416166
 30
0.0
 10
72.5645034851
 20
153.4756729163
 30
0.0
 10
72.6780208354
 20
153.9429262487
 30
0.0
 10
72.7912823983
 20
154.294590642
 30
0.0
 10
72.8843097387
 20
154.5423764398
 30
0.0
 10
72.949008565
 20
154.7009150703
 30
0.0
 10
73.0094961371
 20
154.8384911894
 30
0.0
 10
73.0639144252
 20
154.9537407363
 30
0.0
 10
73.1104824246
 20
155.045257283
 30
0.0
 10
73.1442936531
 20
155.1059807778
 30
0.0
 10
73.1666120822
 20
155.1413743538
 30
0.0
 10
73.1789579113
 20
155.1586898405
 30
0.0
 10
73.1880331689
 20
155.1690514647
 30
0.0
 10
73.1943535876
 20
155.173878749
 30
0.0
 10
73.1968715248
 20
155.173878749
 30
0.0
  0
SPLINE
  5
3B2
100
AcDbEntity
  8
0
100
AcDbSpline
 62
7
  6
CONTINUOUS
 70
0
 71
3
 72
35
 73
31
 74
0
 42
0.0000001
 43
0.0000001
 44
0.0000000001
 40
0.0
 40
0.0
 40
0.0
 40
0.0
 40
0.0013120389
 40
0.0037498289
 40
0.0073990886
 40
0.0122682184
 40
0.025610936
 40
0.0435487181
 40
0.0657893412
 40
0.0920044645
 40
0.1218527905
 40
0.1550006626
 40
0.2299034249
 40
0.3142112407
 40
0.4052892886
 40
0.5000016781
 40
0.5947137761
 40
0.6857912026
 40
0.7700983176
 40
0.8450003332
 40
0.8781480517
 40
0.9079962191
 40
0.9342111377
 40
0.9564516067
 40
0.9743892531
 40
0.9877319234
 40
0.9926010295
 40
0.9962502399
 40
0.9986879813
 40
1.0
 40
1.0
 40
1.0
 40
1.0
 10
98.1968715248
 20
149.673878749
 30
0.0
 10
98.1943535489
 20
149.673878749
 30
0.0
 10
98.1880330566
 20
149.6787062077
 30
0.0
 10
98.1789576632
 20
149.6890679718
 30
0.0
 10
98.1666117047
 20
149.706383672
 30
0.0
 10
98.1442932241
 20
149.7417774805
 30
0.0
 10
98.1104818439
 20
149.802501347
 30
0.0
 10
98.0639134804
 20
149.8940184341
 30
0.0
 10
98.009495027
 20
150.0092689529
 30
0.0
 10
97.9490069062
 20
150.1468459152
 30
0.0
 10
97.8843080895
 20
150.3053856222
 30
0.0
 10
97.791279865
 20
150.5531732567
 30
0.0
 10
97.6780181421
 20
150.9048408424
 30
0.0
 10
97.5645006977
 20
151.3720982736
 30
0.0
 10
97.4865058966
 20
151.8853330764
 30
0.0
 10
97.4585860855
 20
152.4238879106
 30
0.0
 10
97.4865062582
 20
152.9624416166
 30
0.0
 10
97.5645034851
 20
153.4756729163
 30
0.0
 10
97.6780208354
 20
153.9429262487
 30
0.0
 10
97.7912823983
 20
154.294590642
 30
0.0
 10
97.8843097387
 20
154.5423764398
 30
0.0
 10
97.949008565
 20
154.7009150703
 30
0.0
 10
98.0094961371
 20
154.8384911894
 30
0.0
 10
98.0639144252
 20
154.9537407363
 30
0.0
 10
98.1104824246
 20
155.045257283
 30
0.0
 10
98.1442936531
 20
155.1059807778
 30
0.0
 10
98.1666120822
 20
155.1413743538
 30
0.0
 10
98.1789579113
 20
155.1586898405
 30
0.0
 10
98.1880331689
 20
155.1690514647
 30
0.0
 10
98.1943535876
 20
155.173878749
 30
0.0
 10
98.1968715248
 20
155.173878749
 30
0.0
  0
SPLINE
  5
3B3
100
AcDbEntity
  8
0
100
AcDbSpline
 62
7
  6
CONTINUOUS
 70
0
 71
3
 72
35
 73
31
 74
0
 42
0.0000001
 43
0.0000001
 44
0.0000000001
 40
0.0
 40
0.0
 40
0.0
 40
0.0
 40
0.0013120165
 40
0.0037497522
 40
0.0073989559
 40
0.0122680565
 40
0.0256107044
 40
0.0435483127
 40
0.0657887493
 40
0.0920036268
 40
0.1218517592
 40
0.154999456
 40
0.2299014613
 40
0.3142086262
 40
0.4052861318
 40
0.49999823
 40
0.5947105093
 40
0.6857883611
 40
0.7700960467
 40
0.844998823
 40
0.87814675
 40
0.9079951652
 40
0.9342103919
 40
0.9564510956
 40
0.9743889682
 40
0.9877317393
 40
0.9926008819
 40
0.9962501556
 40
0.9986879568
 40
1.0
 40
1.0
 40
1.0
 40
1.0
 10
85.206490468
 20
155.173878749
 30
0.0
 10
85.2090084011
 20
155.173878749
 30
0.0
 10
85.2153288109
 20
155.1690514837
 30
0.0
 10
85.2244040516
 20
155.1586898773
 30
0.0
 10
85.2367498619
 20
155.1413744215
 30
0.0
 10
85.2590682664
 20
155.1059809075
 30
0.0
 10
85.2928794309
 20
155.0452575225
 30
0.0
 10
85.3394473439
 20
154.9537411322
 30
0.0
 10
85.3938656009
 20
154.8384918071
 30
0.0
 10
85.4543530476
 20
154.7009158599
 30
0.0
 10
85.5190519007
 20
154.5423774435
 30
0.0
 10
85.6120791579
 20
154.2945917506
 30
0.0
 10
85.7253408642
 20
153.9429273715
 30
0.0
 10
85.8388583749
 20
153.4756738371
 30
0.0
 10
85.9168556313
 20
152.9624422913
 30
0.0
 10
85.9447759381
 20
152.4238886547
 30
0.0
 10
85.916856261
 20
151.8853343989
 30
0.0
 10
85.8388616278
 20
151.3721004199
 30
0.0
 10
85.7253445403
 20
150.9048435308
 30
0.0
 10
85.612083184
 20
150.5531759412
 30
0.0
 10
85.5190547619
 20
150.3053880588
 30
0.0
 10
85.4543560015
 20
150.1468478147
 30
0.0
 10
85.3938675722
 20
150.0092704146
 30
0.0
 10
85.3394490315
 20
149.894019355
 30
0.0
 10
85.2928804631
 20
149.8025018872
 30
0.0
 10
85.2590689283
 20
149.741777762
 30
0.0
 10
85.236750388
 20
149.706383811
 30
0.0
 10
85.2244043896
 20
149.6890680455
 30
0.0
 10
85.2153289623
 20
149.6787062447
 30
0.0
 10
85.2090084522
 20
149.673878749
 30
0.0
 10
85.206490468
 20
149.673878749
 30
0.0
  0
SPLINE
  5
3B4
100
AcDbEntity
  8
0
100
AcDbSpline
 62
7
  6
CONTINUOUS
 70
0
 71
3
 72
35
 73
31
 74
0
 42
0.0000001
 43
0.0000001
 44
0.0000000001
 40
0.0
 40
0.0
 40
0.0
 40
0.0
 40
0.0013120165
 40
0.0037497522
 40
0.0073989559
 40
0.0122680565
 40
0.0256107044
 40
0.0435483127
 40
0.0657887493
 40
0.0920036268
 40
0.1218517592
 40
0.154999456
 40
0.2299014613
 40
0.3142086262
 40
0.4052861318
 40
0.49999823
 40
0.5947105093
 40
0.6857883611
 40
0.7700960467
 40
0.844998823
 40
0.87814675
 40
0.9079951652
 40
0.9342103919
 40
0.9564510956
 40
0.9743889682
 40
0.9877317393
 40
0.9926008819
 40
0.9962501556
 40
0.9986879568
 40
1.0
 40
1.0
 40
1.0
 40
1.0
 10
60.206490468
 20
155.173878749
 30
0.0
 10
60.2090084011
 20
155.173878749
 30
0.0
 10
60.2153288109
 20
155.1690514837
 30
0.0
 10
60.2244040516
 20
155.1586898773
 30
0.0
 10
60.2367498619
 20
155.1413744215
 30
0.0
 10
60.2590682664
 20
155.1059809075
 30
0.0
 10
60.2928794309
 20
155.0452575225
 30
0.0
 10
60.3394473439
 20
154.9537411322
 30
0.0
 10
60.3938656009
 20
154.8384918071
 30
0.0
 10
60.4543530476
 20
154.7009158599
 30
0.0
 10
60.5190519007
 20
154.5423774435
 30
0.0
 10
60.6120791579
 20
154.2945917506
 30
0.0
 10
60.7253408642
 20
153.9429273715
 30
0.0
 10
60.8388583749
 20
153.4756738371
 30
0.0
 10
60.9168556313
 20
152.9624422913
 30
0.0
 10
60.9447759381
 20
152.4238886547
 30
0.0
 10
60.916856261
 20
151.8853343989
 30
0.0
 10
60.8388616278
 20
151.3721004199
 30
0.0
 10
60.7253445403
 20
150.9048435308
 30
0.0
 10
60.612083184
 20
150.5531759412
 30
0.0
 10
60.5190547619
 20
150.3053880588
 30
0.0
 10
60.4543560015
 20
150.1468478147
 30
0.0
 10
60.3938675722
 20
150.0092704146
 30
0.0
 10
60.3394490315
 20
149.894019355
 30
0.0
 10
60.2928804631
 20
149.8025018872
 30
0.0
 10
60.2590689283
 20
149.741777762
 30
0.0
 10
60.236750388
 20
149.706383811
 30
0.0
 10
60.2244043896
 20
149.6890680455
 30
0.0
 10
60.2153289623
 20
149.6787062447
 30
0.0
 10
60.2090084522
 20
149.673878749
 30
0.0
 10
60.206490468
 20
149.673878749
 30
0.0
  0
SPLINE
  5
3B5
100
AcDbEntity
  8
RUNDUNGEN
100
AcDbSpline
 62
7
  6
CONTINUOUS
 70
0
 71
3
 72
10
 73
6
 74
0
 42
0.0000001
 43
0.0000001
 44
0.0000000001
 40
0.0
 40
0.0
 40
0.0
 40
0.0
 40
0.2404997978
 40
0.4893169977
 40
1.0
 40
1.0
 40
1.0
 40
1.0
 10
69.2994230716
 20
146.923878749
 30
0.0
 10
69.0868703204
 20
146.9238804895
 30
0.0
 10
68.6546608836
 20
146.9660095298
 30
0.0
 10
67.7866063287
 20
147.1333089223
 30
0.0
 10
67.1377868731
 20
147.3076071773
 30
0.0
 10
66.7016809964
 20
147.423878749
 30
0.0
  0
SPLINE
  5
3B6
100
AcDbEntity
  8
RUNDUNGEN
100
AcDbSpline
 62
7
  6
CONTINUOUS
 70
0
 71
3
 72
10
 73
6
 74
0
 42
0.0000001
 43
0.0000001
 44
0.0000000001
 40
0.0
 40
0.0
 40
0.0
 40
0.0
 40
0.2405000119
 40
0.4893171683
 40
1.0
 40
1.0
 40
1.0
 40
1.0
 10
64.1039389213
 20
146.923878749
 30
0.0
 10
64.3164918457
 20
146.9238756436
 30
0.0
 10
64.7487010854
 20
146.9660150047
 30
0.0
 10
65.6167563427
 20
147.133305873
 30
0.0
 10
66.265574947
 20
147.3076085413
 30
0.0
 10
66.7016809964
 20
147.423878749
 30
0.0
  0
SPLINE
  5
3B7
100
AcDbEntity
  8
RUNDUNGEN
100
AcDbSpline
 62
7
  6
CONTINUOUS
 70
0
 71
3
 72
11
 73
7
 74
0
 42
0.0000001
 43
0.0000001
 44
0.0000000001
 40
0.0
 40
0.0
 40
0.0
 40
0.0
 40
0.2074188621
 40
0.4491815399
 40
0.7173596946
 40
1.0
 40
1.0
 40
1.0
 40
1.0
 10
112.554247747
 20
146.9238785715
 30
0.0
 10
112.7325463837
 20
147.2713005827
 30
0.0
 10
113.0455829961
 20
148.0613350345
 30
0.0
 10
113.3763856576
 20
149.3734051767
 30
0.0
 10
113.5855733495
 20
150.8533844436
 30
0.0
 10
113.6329253336
 20
151.8910465124
 30
0.0
 10
113.6329643683
 20
152.4231670572
 30
0.0
  0
SPLINE
  5
3B8
100
AcDbEntity
  8
RUNDUNGEN
100
AcDbSpline
 62
7
  6
CONTINUOUS
 70
0
 71
3
 72
11
 73
7
 74
0
 42
0.0000001
 43
0.0000001
 44
0.0000000001
 40
0.0
 40
0.0
 40
0.0
 40
0.0
 40
0.2826275403
 40
0.5508104089
 40
0.7925783827
 40
1.0
 40
1.0
 40
1.0
 40
1.0
 10
113.6329643683
 20
152.4231670572
 30
0.0
 10
113.6329932011
 20
152.9553972707
 30
0.0
 10
113.5856563825
 20
153.9933075331
 30
0.0
 10
113.3765413553
 20
155.4736706033
 30
0.0
 10
113.0456864692
 20
156.7861039276
 30
0.0
 10
112.7325987838
 20
157.5763658543
 30
0.0
 10
112.5542511911
 20
157.9238788622
 30
0.0
  0
SPLINE
  5
3B9
100
AcDbEntity
  8
RUNDUNGEN
100
AcDbSpline
 62
7
  6
CONTINUOUS
 70
0
 71
3
 72
10
 73
6
 74
0
 42
0.0000001
 43
0.0000001
 44
0.0000000001
 40
0.0
 40
0.0
 40
0.0
 40
0.0
 40
0.2404999904
 40
0.4893170963
 40
1.0
 40
1.0
 40
1.0
 40
1.0
 10
64.1039389213
 20
157.923878749
 30
0.0
 10
64.3164918134
 20
157.923885537
 30
0.0
 10
64.7487007008
 20
157.8817381331
 30
0.0
 10
65.616756543
 20
157.714454122
 30
0.0
 10
66.2655746974
 20
157.5401481579
 30
0.0
 10
66.7016809964
 20
157.423878749
 30
0.0
  0
SPLINE
  5
3BA
100
AcDbEntity
  8
RUNDUNGEN
100
AcDbSpline
 62
7
  6
CONTINUOUS
 70
0
 71
3
 72
10
 73
6
 74
0
 42
0.0000001
 43
0.0000001
 44
0.0000000001
 40
0.0
 40
0.0
 40
0.0
 40
0.0
 40
0.2404992733
 40
0.4893165292
 40
1.0
 40
1.0
 40
1.0
 40
1.0
 10
69.2994230716
 20
157.923878749
 30
0.0
 10
69.0868706777
 20
157.9238408717
 30
0.0
 10
68.6546593862
 20
157.8817857016
 30
0.0
 10
67.7866092056
 20
157.7144282765
 30
0.0
 10
67.1377848911
 20
157.5401602656
 30
0.0
 10
66.7016809964
 20
157.423878749
 30
0.0
  0
SPLINE
  5
3BB
100
AcDbEntity
  8
RUNDUNGEN
100
AcDbSpline
 62
7
  6
CONTINUOUS
 70
0
 71
3
 72
13
 73
9
 74
0
 42
0.0000001
 43
0.0000001
 44
0.0000000001
 40
0.0
 40
0.0
 40
0.0
 40
0.0
 40
0.0698332416
 40
0.1519170792
 40
0.2525173136
 40
0.3729612587
 40
0.6655269321
 40
1.0
 40
1.0
 40
1.0
 40
1.0
 10
64.3037652348
 20
158.423878749
 30
0.0
 10
64.2904066981
 20
158.423878749
 30
0.0
 10
64.2611756756
 20
158.4158440775
 30
0.0
 10
64.2230696838
 20
158.3847943805
 30
0.0
 10
64.1891419781
 20
158.3372266777
 30
0.0
 10
64.1471273851
 20
158.2480203128
 30
0.0
 10
64.1129678854
 20
158.1079153995
 30
0.0
 10
64.1039417043
 20
157.9878607529
 30
0.0
 10
64.1039389257
 20
157.923878749
 30
0.0
  0
SPLINE
  5
3BC
100
AcDbEntity
  8
RUNDUNGEN
100
AcDbSpline
 62
7
  6
CONTINUOUS
 70
0
 71
3
 72
9
 73
5
 74
0
 42
0.0000001
 43
0.0000001
 44
0.0000000001
 40
0.0
 40
0.0
 40
0.0
 40
0.0
 40
0.3040560531
 40
1.0
 40
1.0
 40
1.0
 40
1.0
 10
76.5191809964
 20
158.4180300576
 30
0.0
 10
76.5191809964
 20
158.415532459
 30
0.0
 10
76.5095572076
 20
158.4108709707
 30
0.0
 10
76.502411711
 20
158.4103241756
 30
0.0
 10
76.4967150655
 20
158.4098460925
 30
0.0
  0
SPLINE
  5
3BD
100
AcDbEntity
  8
RUNDUNGEN
100
AcDbSpline
 62
7
  6
CONTINUOUS
 70
0
 71
3
 72
9
 73
5
 74
0
 42
0.0000001
 43
0.0000001
 44
0.0000000001
 40
0.0
 40
0.0
 40
0.0
 40
0.0
 40
0.2229677815
 40
1.0
 40
1.0
 40
1.0
 40
1.0
 10
76.4967150655
 20
158.4098460925
 30
0.0
 10
76.4953542103
 20
158.4097318846
 30
0.0
 10
76.4892427764
 20
158.4093158628
 30
0.0
 10
76.4831116456
 20
158.4092388486
 30
0.0
 10
76.4783528252
 20
158.4092979938
 30
0.0
  0
LINE
  5
3BE
100
AcDbEntity
  8
RUNDUNGEN
100
AcDbLine
 62
7
  6
CONTINUOUS
 10
101.7016809964
 20
154.5872878423
 11
101.7016809964
 21
154.923878749
  0
SPLINE
  5
3BF
100
AcDbEntity
  8
RUNDUNGEN
100
AcDbSpline
 62
7
  6
CONTINUOUS
 70
0
 71
3
 72
9
 73
5
 74
0
 42
0.0000001
 43
0.0000001
 44
0.0000000001
 40
0.0
 40
0.0
 40
0.0
 40
0.0
 40
0.4999999972
 40
1.0
 40
1.0
 40
1.0
 40
1.0
 10
101.7016809964
 20
150.2604696557
 30
0.0
 10
101.6337446701
 20
150.9791614555
 30
0.0
 10
101.5710184694
 20
152.4238787465
 30
0.0
 10
101.6337447003
 20
153.8685960316
 30
0.0
 10
101.7016809964
 20
154.5872878423
 30
0.0
  0
LINE
  5
3C0
100
AcDbEntity
  8
RUNDUNGEN
100
AcDbLine
 62
7
  6
CONTINUOUS
 10
101.7016809964
 20
149.923878749
 11
101.7016809964
 21
150.2604696557
  0
SPLINE
  5
3C1
100
AcDbEntity
  8
RUNDUNGEN
100
AcDbSpline
 62
7
  6
CONTINUOUS
 70
0
 71
3
 72
13
 73
9
 74
0
 42
0.0000001
 43
0.0000001
 44
0.0000000001
 40
0.0
 40
0.0
 40
0.0
 40
0.0
 40
0.0698387915
 40
0.1519255906
 40
0.2525265625
 40
0.3729697196
 40
0.6655313553
 40
1.0
 40
1.0
 40
1.0
 40
1.0
 10
94.0995967581
 20
158.423878749
 30
0.0
 10
94.1129564951
 20
158.423878749
 30
0.0
 10
94.1421895624
 20
158.4158445627
 30
0.0
 10
94.180298701
 20
158.3847949591
 30
0.0
 10
94.214228244
 20
158.3372270303
 30
0.0
 10
94.256243589
 20
158.2480206771
 30
0.0
 10
94.2904009292
 20
158.1079152559
 30
0.0
 10
94.2994230649
 20
157.9878605709
 30
0.0
 10
94.2994230656
 20
157.923878749
 30
0.0
  0
SPLINE
  5
3C2
100
AcDbEntity
  8
RUNDUNGEN
100
AcDbSpline
 62
7
  6
CONTINUOUS
 70
0
 71
3
 72
11
 73
7
 74
0
 42
0.0000001
 43
0.0000001
 44
0.0000000001
 40
0.0
 40
0.0
 40
0.0
 40
0.0
 40
0.2571360361
 40
0.5101512625
 40
0.7572214569
 40
1.0
 40
1.0
 40
1.0
 40
1.0
 10
143.2815853578
 20
157.9238816834
 30
0.0
 10
143.281584929
 20
157.9887664449
 30
0.0
 10
143.2576300715
 20
158.1187837589
 30
0.0
 10
143.1542021737
 20
158.2848238829
 30
0.0
 10
142.9980687994
 20
158.3972570921
 30
0.0
 10
142.8730021959
 20
158.4238784485
 30
0.0
 10
142.8117403513
 20
158.423878749
 30
0.0
  0
SPLINE
  5
3C3
100
AcDbEntity
  8
RUNDUNGEN
100
AcDbSpline
 62
7
  6
CONTINUOUS
 70
0
 71
3
 72
11
 73
7
 74
0
 42
0.0000001
 43
0.0000001
 44
0.0000000001
 40
0.0
 40
0.0
 40
0.0
 40
0.0
 40
0.2571361857
 40
0.5101514665
 40
0.7572215914
 40
1.0
 40
1.0
 40
1.0
 40
1.0
 10
135.3093357735
 20
157.923878749
 30
0.0
 10
135.3093357735
 20
157.9887639308
 30
0.0
 10
135.2853814645
 20
158.1187822388
 30
0.0
 10
135.1819533917
 20
158.2848237282
 30
0.0
 10
135.0258190774
 20
158.3972576399
 30
0.0
 10
134.9007516348
 20
158.423878749
 30
0.0
 10
134.8394894631
 20
158.423878749
 30
0.0
  0
LINE
  5
3C4
100
AcDbEntity
  8
RUNDUNGEN
100
AcDbLine
 62
7
  6
CONTINUOUS
 10
56.7016809964
 20
149.923878749
 11
56.7016809964
 21
150.3244038285
  0
SPLINE
  5
3C5
100
AcDbEntity
  8
RUNDUNGEN
100
AcDbSpline
 62
7
  6
CONTINUOUS
 70
0
 71
3
 72
11
 73
7
 74
0
 42
0.0000001
 43
0.0000001
 44
0.0000000001
 40
0.0
 40
0.0
 40
0.0
 40
0.0
 40
0.2770429694
 40
0.540610625
 40
0.7812962716
 40
1.0
 40
1.0
 40
1.0
 40
1.0
 10
134.9206625166
 20
157.923878749
 30
0.0
 10
134.9206655455
 20
157.980463203
 30
0.0
 10
134.9067284307
 20
158.0914390959
 30
0.0
 10
134.8453801816
 20
158.2409550169
 30
0.0
 10
134.7493536536
 20
158.3566704586
 30
0.0
 10
134.6638421706
 20
158.4026807244
 30
0.0
 10
134.6206853703
 20
158.4142050344
 30
0.0
  0
SPLINE
  5
3C6
100
AcDbEntity
  8
RUNDUNGEN
100
AcDbSpline
 62
7
  6
CONTINUOUS
 70
0
 71
3
 72
8
 73
4
 74
0
 42
0.0000001
 43
0.0000001
 44
0.0000000001
 40
0.0
 40
0.0
 40
0.0
 40
0.0
 40
1.0
 40
1.0
 40
1.0
 40
1.0
 10
134.6206853703
 20
158.4142050344
 30
0.0
 10
134.5970657796
 20
158.4205122555
 30
0.0
 10
134.5724317269
 20
158.423878749
 30
0.0
 10
134.5479845164
 20
158.423878749
 30
0.0
  0
SPLINE
  5
3C7
100
AcDbEntity
  8
RUNDUNGEN
100
AcDbSpline
 62
7
  6
CONTINUOUS
 70
0
 71
3
 72
11
 73
7
 74
0
 42
0.0000001
 43
0.0000001
 44
0.0000000001
 40
0.0
 40
0.0
 40
0.0
 40
0.0
 40
0.2825356674
 40
0.5472257273
 40
0.78439702
 40
1.0
 40
1.0
 40
1.0
 40
1.0
 10
134.9206625166
 20
146.923878749
 30
0.0
 10
134.9206625165
 20
146.8594010038
 30
0.0
 10
134.9027326906
 20
146.7336648925
 30
0.0
 10
134.8240456896
 20
146.5694178138
 30
0.0
 10
134.7018231467
 20
146.4534643739
 30
0.0
 10
134.5971874908
 20
146.423878749
 30
0.0
 10
134.5479845206
 20
146.423878749
 30
0.0
  0
SPLINE
  5
3C8
100
AcDbEntity
  8
RUNDUNGEN
100
AcDbSpline
 62
7
  6
CONTINUOUS
 70
0
 71
3
 72
11
 73
7
 74
0
 42
0.0000001
 43
0.0000001
 44
0.0000000001
 40
0.0
 40
0.0
 40
0.0
 40
0.0
 40
0.2571361879
 40
0.5101514653
 40
0.7572215883
 40
1.0
 40
1.0
 40
1.0
 40
1.0
 10
135.3093357735
 20
146.923878749
 30
0.0
 10
135.3093357735
 20
146.8589935667
 30
0.0
 10
135.2853814642
 20
146.7289752591
 30
0.0
 10
135.1819533919
 20
146.5629337703
 30
0.0
 10
135.0258190784
 20
146.4504998588
 30
0.0
 10
134.9007516355
 20
146.423878749
 30
0.0
 10
134.8394894631
 20
146.423878749
 30
0.0
  0
SPLINE
  5
3C9
100
AcDbEntity
  8
RUNDUNGEN
100
AcDbSpline
 62
7
  6
CONTINUOUS
 70
0
 71
3
 72
9
 73
5
 74
0
 42
0.0000001
 43
0.0000001
 44
0.0000000001
 40
0.0
 40
0.0
 40
0.0
 40
0.0
 40
0.4999966864
 40
1.0
 40
1.0
 40
1.0
 40
1.0
 10
56.7016809964
 20
150.3244038285
 30
0.0
 10
56.7773029714
 20
151.0211069224
 30
0.0
 10
56.847766886
 20
152.4238741026
 30
0.0
 10
56.7773030838
 20
153.8266412447
 30
0.0
 10
56.7016809964
 20
154.5233536695
 30
0.0
  0
SPLINE
  5
3CA
100
AcDbEntity
  8
RUNDUNGEN
100
AcDbSpline
 62
7
  6
CONTINUOUS
 70
0
 71
3
 72
11
 73
7
 74
0
 42
0.0000001
 43
0.0000001
 44
0.0000000001
 40
0.0
 40
0.0
 40
0.0
 40
0.0
 40
0.2571357893
 40
0.5101505746
 40
0.7572207807
 40
1.0
 40
1.0
 40
1.0
 40
1.0
 10
143.2815882469
 20
146.9238798015
 30
0.0
 10
143.2815885912
 20
146.8589948992
 30
0.0
 10
143.2576351265
 20
146.7289770637
 30
0.0
 10
143.1542085206
 20
146.5629355293
 30
0.0
 10
142.9980750924
 20
146.4505010935
 30
0.0
 10
142.8730079829
 20
146.4238792391
 30
0.0
 10
142.811745776
 20
146.423878749
 30
0.0
  0
LINE
  5
3CB
100
AcDbEntity
  8
RUNDUNGEN
100
AcDbLine
 62
7
  6
CONTINUOUS
 10
56.7016809964
 20
154.5233536695
 11
56.7016809964
 21
154.923878749
  0
SPLINE
  5
3CC
100
AcDbEntity
  8
RUNDUNGEN
100
AcDbSpline
 62
7
  6
CONTINUOUS
 70
0
 71
3
 72
11
 73
7
 74
0
 42
0.0000001
 43
0.0000001
 44
0.0000000001
 40
0.0
 40
0.0
 40
0.0
 40
0.0
 40
0.2586598092
 40
0.5123341604
 40
0.7587859021
 40
1.0
 40
1.0
 40
1.0
 40
1.0
 10
112.5542542421
 20
146.9238785715
 30
0.0
 10
112.554254271
 20
146.8590223733
 30
0.0
 10
112.5777927558
 20
146.7293013009
 30
0.0
 10
112.6795990521
 20
146.5633147473
 30
0.0
 10
112.8336223185
 20
146.4506397008
 30
0.0
 10
112.9573643892
 20
146.4238787503
 30
0.0
 10
113.0178462607
 20
146.423878749
 30
0.0
  0
SPLINE
  5
3CD
100
AcDbEntity
  8
RUNDUNGEN
100
AcDbSpline
 62
7
  6
CONTINUOUS
 70
0
 71
3
 72
13
 73
9
 74
0
 42
0.0000001
 43
0.0000001
 44
0.0000000001
 40
0.0
 40
0.0
 40
0.0
 40
0.0
 40
0.0698328373
 40
0.1519164556
 40
0.2525166328
 40
0.3729606316
 40
0.6655266018
 40
1.0
 40
1.0
 40
1.0
 40
1.0
 10
94.0995967581
 20
146.423878749
 30
0.0
 10
94.1129552075
 20
146.423878749
 30
0.0
 10
94.1421860814
 20
146.4319134526
 30
0.0
 10
94.1802918444
 20
146.4629631553
 30
0.0
 10
94.214219419
 20
146.5105308376
 30
0.0
 10
94.2562339642
 20
146.5997372008
 30
0.0
 10
94.29039362
 20
146.7398420816
 30
0.0
 10
94.2994200909
 20
146.8598967295
 30
0.0
 10
94.2994230674
 20
146.923878749
 30
0.0
  0
SPLINE
  5
3CE
100
AcDbEntity
  8
RUNDUNGEN
100
AcDbSpline
 62
7
  6
CONTINUOUS
 70
0
 71
3
 72
11
 73
7
 74
0
 42
0.0000001
 43
0.0000001
 44
0.0000000001
 40
0.0
 40
0.0
 40
0.0
 40
0.0
 40
0.2586598225
 40
0.5123341816
 40
0.7587859203
 40
1.0
 40
1.0
 40
1.0
 40
1.0
 10
122.9755828228
 20
146.923878749
 30
0.0
 10
122.9755828228
 20
146.8590225374
 30
0.0
 10
122.9991212592
 20
146.7293014284
 30
0.0
 10
123.1009275218
 20
146.5633148099
 30
0.0
 10
123.2549507882
 20
146.4506397141
 30
0.0
 10
123.3786928737
 20
146.423878749
 30
0.0
 10
123.43917475
 20
146.423878749
 30
0.0
  0
SPLINE
  5
3CF
100
AcDbEntity
  8
RUNDUNGEN
100
AcDbSpline
 62
7
  6
CONTINUOUS
 70
0
 71
3
 72
11
 73
7
 74
0
 42
0.0000001
 43
0.0000001
 44
0.0000000001
 40
0.0
 40
0.0
 40
0.0
 40
0.0
 40
0.2770435788
 40
0.5406117956
 40
0.7812973526
 40
1.0
 40
1.0
 40
1.0
 40
1.0
 10
123.3392385471
 20
146.923878749
 30
0.0
 10
123.3392359267
 20
146.8672940243
 30
0.0
 10
123.3531738171
 20
146.7563177158
 30
0.0
 10
123.4145229421
 20
146.6068014916
 30
0.0
 10
123.5105498943
 20
146.4910861033
 30
0.0
 10
123.5960615069
 20
146.4450759975
 30
0.0
 10
123.6392182637
 20
146.4335519331
 30
0.0
  0
SPLINE
  5
3D0
100
AcDbEntity
  8
RUNDUNGEN
100
AcDbSpline
 62
7
  6
CONTINUOUS
 70
0
 71
3
 72
8
 73
4
 74
0
 42
0.0000001
 43
0.0000001
 44
0.0000000001
 40
0.0
 40
0.0
 40
0.0
 40
0.0
 40
1.0
 40
1.0
 40
1.0
 40
1.0
 10
123.6392182637
 20
146.4335519331
 30
0.0
 10
123.6628370407
 20
146.4272450572
 30
0.0
 10
123.6874702042
 20
146.423878749
 30
0.0
 10
123.7119165395
 20
146.423878749
 30
0.0
  0
SPLINE
  5
3D1
100
AcDbEntity
  8
RUNDUNGEN
100
AcDbSpline
 62
7
  6
CONTINUOUS
 70
0
 71
3
 72
11
 73
7
 74
0
 42
0.0000001
 43
0.0000001
 44
0.0000000001
 40
0.0
 40
0.0
 40
0.0
 40
0.0
 40
0.2825356639
 40
0.5472257215
 40
0.7843970166
 40
1.0
 40
1.0
 40
1.0
 40
1.0
 10
123.3392385471
 20
157.923878749
 30
0.0
 10
123.3392385472
 20
157.9883564934
 30
0.0
 10
123.3571683725
 20
158.1140926034
 30
0.0
 10
123.4358553724
 20
158.2783396816
 30
0.0
 10
123.558077915
 20
158.394293123
 30
0.0
 10
123.6627135722
 20
158.423878749
 30
0.0
 10
123.7119165431
 20
158.423878749
 30
0.0
  0
SPLINE
  5
3D2
100
AcDbEntity
  8
RUNDUNGEN
100
AcDbSpline
 62
7
  6
CONTINUOUS
 70
0
 71
3
 72
11
 73
7
 74
0
 42
0.0000001
 43
0.0000001
 44
0.0000000001
 40
0.0
 40
0.0
 40
0.0
 40
0.0
 40
0.2586598242
 40
0.5123341807
 40
0.758785918
 40
1.0
 40
1.0
 40
1.0
 40
1.0
 10
122.9755828228
 20
157.923878749
 30
0.0
 10
122.9755828228
 20
157.9887349611
 30
0.0
 10
122.9991212594
 20
158.1184560699
 30
0.0
 10
123.1009275217
 20
158.2844426878
 30
0.0
 10
123.2549507874
 20
158.3971177834
 30
0.0
 10
123.3786928731
 20
158.423878749
 30
0.0
 10
123.43917475
 20
158.423878749
 30
0.0
  0
SPLINE
  5
3D3
100
AcDbEntity
  8
RUNDUNGEN
100
AcDbSpline
 62
7
  6
CONTINUOUS
 70
0
 71
3
 72
11
 73
7
 74
0
 42
0.0000001
 43
0.0000001
 44
0.0000000001
 40
0.0
 40
0.0
 40
0.0
 40
0.0
 40
0.258659788
 40
0.5123341301
 40
0.7587858764
 40
1.0
 40
1.0
 40
1.0
 40
1.0
 10
112.5542537226
 20
157.9238788622
 30
0.0
 10
112.5542537018
 20
157.9887350957
 30
0.0
 10
112.5777921423
 20
158.118456267
 30
0.0
 10
112.6795985579
 20
158.2844428973
 30
0.0
 10
112.8336219921
 20
158.3971179344
 30
0.0
 10
112.9573641752
 20
158.4238788029
 30
0.0
 10
113.0178460911
 20
158.423878749
 30
0.0
  0
SPLINE
  5
3D4
100
AcDbEntity
  8
RUNDUNGEN
100
AcDbSpline
 62
7
  6
CONTINUOUS
 70
0
 71
3
 72
13
 73
9
 74
0
 42
0.0000001
 43
0.0000001
 44
0.0000000001
 40
0.0
 40
0.0
 40
0.0
 40
0.0
 40
0.3344685828
 40
0.6270301902
 40
0.7474733744
 40
0.8480743797
 40
0.9301612072
 40
1.0
 40
1.0
 40
1.0
 40
1.0
 10
89.1039389188
 20
157.923878749
 30
0.0
 10
89.1039389209
 20
157.9878605583
 30
0.0
 10
89.1129610548
 20
158.1079152247
 30
0.0
 10
89.1471183917
 20
158.2480206319
 30
0.0
 10
89.189133731
 20
158.3372269926
 30
0.0
 10
89.2230632826
 20
158.3847949374
 30
0.0
 10
89.2611724287
 20
158.4158445454
 30
0.0
 10
89.2904054977
 20
158.423878749
 30
0.0
 10
89.3037652348
 20
158.423878749
 30
0.0
  0
SPLINE
  5
3D5
100
AcDbEntity
  8
RUNDUNGEN
100
AcDbSpline
 62
7
  6
CONTINUOUS
 70
0
 71
3
 72
13
 73
9
 74
0
 42
0.0000001
 43
0.0000001
 44
0.0000000001
 40
0.0
 40
0.0
 40
0.0
 40
0.0
 40
0.0698328373
 40
0.1519164556
 40
0.2525166328
 40
0.3729606316
 40
0.6655266018
 40
1.0
 40
1.0
 40
1.0
 40
1.0
 10
69.0995967581
 20
146.423878749
 30
0.0
 10
69.1129552075
 20
146.423878749
 30
0.0
 10
69.1421860814
 20
146.4319134526
 30
0.0
 10
69.1802918444
 20
146.4629631553
 30
0.0
 10
69.214219419
 20
146.5105308376
 30
0.0
 10
69.2562339642
 20
146.5997372008
 30
0.0
 10
69.29039362
 20
146.7398420816
 30
0.0
 10
69.2994200909
 20
146.8598967295
 30
0.0
 10
69.2994230674
 20
146.923878749
 30
0.0
  0
SPLINE
  5
3D6
100
AcDbEntity
  8
RUNDUNGEN
100
AcDbSpline
 62
7
  6
CONTINUOUS
 70
0
 71
3
 72
9
 73
5
 74
0
 42
0.0000001
 43
0.0000001
 44
0.0000000001
 40
0.0
 40
0.0
 40
0.0
 40
0.0
 40
0.2955005865
 40
1.0
 40
1.0
 40
1.0
 40
1.0
 10
82.1392455667
 20
158.423878749
 30
0.0
 10
82.1224034269
 20
158.4238787479
 30
0.0
 10
82.0653895772
 20
158.4222509392
 30
0.0
 10
82.008722071
 20
158.4156609104
 30
0.0
 10
81.9687330269
 20
158.4120344327
 30
0.0
  0
SPLINE
  5
3D7
100
AcDbEntity
  8
RUNDUNGEN
100
AcDbSpline
 62
7
  6
CONTINUOUS
 70
0
 71
3
 72
9
 73
5
 74
0
 42
0.0000001
 43
0.0000001
 44
0.0000000001
 40
0.0
 40
0.0
 40
0.0
 40
0.0
 40
0.2798914876
 40
1.0
 40
1.0
 40
1.0
 40
1.0
 10
81.9687330269
 20
158.4120344327
 30
0.0
 10
81.9649658997
 20
158.4116928041
 30
0.0
 10
81.9515035885
 20
158.4105234585
 30
0.0
 10
81.9380107968
 20
158.4095794982
 30
0.0
 10
81.9282815221
 20
158.4093540144
 30
0.0
  0
SPLINE
  5
3D8
100
AcDbEntity
  8
RUNDUNGEN
100
AcDbSpline
 62
7
  6
CONTINUOUS
 70
0
 71
3
 72
9
 73
5
 74
0
 42
0.0000001
 43
0.0000001
 44
0.0000000001
 40
0.0
 40
0.0
 40
0.0
 40
0.0
 40
0.4971883242
 40
1.0
 40
1.0
 40
1.0
 40
1.0
 10
81.9282815218
 20
158.4093540144
 30
0.0
 10
81.8648760492
 20
158.393259647
 30
0.0
 10
81.7428754332
 20
158.3334848524
 30
0.0
 10
81.655192095
 20
158.2300037921
 30
0.0
 10
81.6230669002
 20
158.1721712591
 30
0.0
  0
SPLINE
  5
3D9
100
AcDbEntity
  8
RUNDUNGEN
100
AcDbSpline
 62
7
  6
CONTINUOUS
 70
0
 71
3
 72
9
 73
5
 74
0
 42
0.0000001
 43
0.0000001
 44
0.0000000001
 40
0.0
 40
0.0
 40
0.0
 40
0.0
 40
0.6437013525
 40
1.0
 40
1.0
 40
1.0
 40
1.0
 10
81.9282815221
 20
158.4093540144
 30
0.0
 10
81.9192265467
 20
158.4091439338
 30
0.0
 10
81.9053761724
 20
158.4094844624
 30
0.0
 10
81.8908872943
 20
158.411893465
 30
0.0
 10
81.8866860765
 20
158.4146291778
 30
0.0
  0
SPLINE
  5
3DA
100
AcDbEntity
  8
RUNDUNGEN
100
AcDbSpline
 62
7
  6
CONTINUOUS
 70
0
 71
3
 72
8
 73
4
 74
0
 42
0.0000001
 43
0.0000001
 44
0.0000000001
 40
0.0
 40
0.0
 40
0.0
 40
0.0
 40
1.0
 40
1.0
 40
1.0
 40
1.0
 10
81.8866860765
 20
158.4146291778
 30
0.0
 10
81.8855062124
 20
158.4153974716
 30
0.0
 10
81.8841809964
 20
158.4166220645
 30
0.0
 10
81.8841809964
 20
158.4180300257
 30
0.0
  0
SPLINE
  5
3DB
100
AcDbEntity
  8
RUNDUNGEN
100
AcDbSpline
 62
7
  6
CONTINUOUS
 70
0
 71
3
 72
10
 73
6
 74
0
 42
0.0000001
 43
0.0000001
 44
0.0000000001
 40
0.0
 40
0.0
 40
0.0
 40
0.0
 40
0.2404997978
 40
0.4893169977
 40
1.0
 40
1.0
 40
1.0
 40
1.0
 10
94.2994230716
 20
146.923878749
 30
0.0
 10
94.0868703204
 20
146.9238804895
 30
0.0
 10
93.6546608836
 20
146.9660095298
 30
0.0
 10
92.7866063287
 20
147.1333089223
 30
0.0
 10
92.1377868731
 20
147.3076071773
 30
0.0
 10
91.7016809964
 20
147.423878749
 30
0.0
  0
SPLINE
  5
3DC
100
AcDbEntity
  8
RUNDUNGEN
100
AcDbSpline
 62
7
  6
CONTINUOUS
 70
0
 71
3
 72
10
 73
6
 74
0
 42
0.0000001
 43
0.0000001
 44
0.0000000001
 40
0.0
 40
0.0
 40
0.0
 40
0.0
 40
0.2405000119
 40
0.4893171683
 40
1.0
 40
1.0
 40
1.0
 40
1.0
 10
89.1039389213
 20
146.923878749
 30
0.0
 10
89.3164918457
 20
146.9238756436
 30
0.0
 10
89.7487010854
 20
146.9660150047
 30
0.0
 10
90.6167563427
 20
147.133305873
 30
0.0
 10
91.265574947
 20
147.3076085413
 30
0.0
 10
91.7016809964
 20
147.423878749
 30
0.0
  0
SPLINE
  5
3DD
100
AcDbEntity
  8
RUNDUNGEN
100
AcDbSpline
 62
7
  6
CONTINUOUS
 70
0
 71
3
 72
13
 73
9
 74
0
 42
0.0000001
 43
0.0000001
 44
0.0000000001
 40
0.0
 40
0.0
 40
0.0
 40
0.0
 40
0.334473231
 40
0.6270390511
 40
0.7474830235
 40
0.8480832306
 40
0.9301669597
 40
1.0
 40
1.0
 40
1.0
 40
1.0
 10
89.1039389188
 20
146.923878749
 30
0.0
 10
89.1039417948
 20
146.8598967372
 30
0.0
 10
89.1129681189
 20
146.7398420895
 30
0.0
 10
89.1471276962
 20
146.5997371915
 30
0.0
 10
89.1891422679
 20
146.5105308277
 30
0.0
 10
89.2230699103
 20
146.4629631355
 30
0.0
 10
89.2611757892
 20
146.431913436
 30
0.0
 10
89.2904067382
 20
146.4238787488
 30
0.0
 10
89.3037652315
 20
146.423878749
 30
0.0
  0
SPLINE
  5
3DE
100
AcDbEntity
  8
RUNDUNGEN
100
AcDbSpline
 62
7
  6
CONTINUOUS
 70
0
 71
3
 72
10
 73
6
 74
0
 42
0.0000001
 43
0.0000001
 44
0.0000000001
 40
0.0
 40
0.0
 40
0.0
 40
0.0
 40
0.5106834745
 40
0.7595007261
 40
1.0
 40
1.0
 40
1.0
 40
1.0
 10
91.7016809964
 20
157.423878749
 30
0.0
 10
91.2655769982
 20
157.5401598864
 30
0.0
 10
90.6167528208
 20
157.7144285292
 30
0.0
 10
89.7487025885
 20
157.881785432
 30
0.0
 10
89.3164913153
 20
157.9238412051
 30
0.0
 10
89.1039389213
 20
157.923878749
 30
0.0
  0
SPLINE
  5
3DF
100
AcDbEntity
  8
RUNDUNGEN
100
AcDbSpline
 62
7
  6
CONTINUOUS
 70
0
 71
3
 72
9
 73
5
 74
0
 42
0.0000001
 43
0.0000001
 44
0.0000000001
 40
0.0
 40
0.0
 40
0.0
 40
0.0
 40
0.2969798184
 40
1.0
 40
1.0
 40
1.0
 40
1.0
 10
57.1392455667
 20
158.423878749
 30
0.0
 10
57.1220159742
 20
158.42387875
 30
0.0
 10
57.063980082
 20
158.4221882032
 30
0.0
 10
57.0063109557
 20
158.4153561536
 30
0.0
 10
56.9656823597
 20
158.4117712754
 30
0.0
  0
SPLINE
  5
3E0
100
AcDbEntity
  8
RUNDUNGEN
100
AcDbSpline
 62
7
  6
CONTINUOUS
 70
0
 71
3
 72
9
 73
5
 74
0
 42
0.0000001
 43
0.0000001
 44
0.0000000001
 40
0.0
 40
0.0
 40
0.0
 40
0.0
 40
0.2815401554
 40
1.0
 40
1.0
 40
1.0
 40
1.0
 10
56.9656823597
 20
158.4117712754
 30
0.0
 10
56.9618905853
 20
158.4114367069
 30
0.0
 10
56.9484193661
 20
158.4103073931
 30
0.0
 10
56.9349137193
 20
158.4094282906
 30
0.0
 10
56.9252007654
 20
158.4093008805
 30
0.0
  0
SPLINE
  5
3E1
100
AcDbEntity
  8
RUNDUNGEN
100
AcDbSpline
 62
7
  6
CONTINUOUS
 70
0
 71
3
 72
10
 73
6
 74
0
 42
0.0000001
 43
0.0000001
 44
0.0000000001
 40
0.0
 40
0.0
 40
0.0
 40
0.0
 40
0.5106829003
 40
0.7595000377
 40
1.0
 40
1.0
 40
1.0
 40
1.0
 10
91.7016809964
 20
157.423878749
 30
0.0
 10
92.1377873614
 20
157.540147901
 30
0.0
 10
92.7866054585
 20
157.7144542374
 30
0.0
 10
93.6546613119
 20
157.8817380607
 30
0.0
 10
94.086870204
 20
157.9238857673
 30
0.0
 10
94.2994230716
 20
157.923878749
 30
0.0
  0
SPLINE
  5
3E2
100
AcDbEntity
  8
RUNDUNGEN
100
AcDbSpline
 62
7
  6
CONTINUOUS
 70
0
 71
3
 72
9
 73
5
 74
0
 42
0.0000001
 43
0.0000001
 44
0.0000000001
 40
0.0
 40
0.0
 40
0.0
 40
0.0
 40
0.6433691828
 40
1.0
 40
1.0
 40
1.0
 40
1.0
 10
56.9252007654
 20
158.4093008805
 30
0.0
 10
56.9167535895
 20
158.4091900226
 30
0.0
 10
56.9038390054
 20
158.4096563627
 30
0.0
 10
56.8903336059
 20
158.4121248217
 30
0.0
 10
56.8864708518
 20
158.4147720736
 30
0.0
  0
SPLINE
  5
3E3
100
AcDbEntity
  8
RUNDUNGEN
100
AcDbSpline
 62
7
  6
CONTINUOUS
 70
0
 71
3
 72
8
 73
4
 74
0
 42
0.0000001
 43
0.0000001
 44
0.0000000001
 40
0.0
 40
0.0
 40
0.0
 40
0.0
 40
1.0
 40
1.0
 40
1.0
 40
1.0
 10
56.8864708518
 20
158.4147720736
 30
0.0
 10
56.8853760135
 20
158.4155223965
 30
0.0
 10
56.8841809964
 20
158.4167023236
 30
0.0
 10
56.8841809964
 20
158.4180295973
 30
0.0
  0
SPLINE
  5
3E4
100
AcDbEntity
  8
RUNDUNGEN
100
AcDbSpline
 62
7
  6
CONTINUOUS
 70
0
 71
3
 72
15
 73
11
 74
0
 42
0.0000001
 43
0.0000001
 44
0.0000000001
 40
0.0
 40
0.0
 40
0.0
 40
0.0
 40
0.0764996264
 40
0.1613890295
 40
0.2606240028
 40
0.3773504199
 40
0.5122660983
 40
0.6638446161
 40
0.828344518
 40
1.0
 40
1.0
 40
1.0
 40
1.0
 10
145.3577713358
 20
146.423878751
 30
0.0
 10
145.2659717988
 20
146.4238836144
 30
0.0
 10
145.0708632514
 20
146.4636996814
 30
0.0
 10
144.8015056909
 20
146.6319202223
 30
0.0
 10
144.5546487788
 20
146.8996980649
 30
0.0
 10
144.335394347
 20
147.261625851
 30
0.0
 10
144.1510467643
 20
147.7106825549
 30
0.0
 10
144.0104358436
 20
148.2345956469
 30
0.0
 10
143.9218976269
 20
148.8141954999
 30
0.0
 10
143.9019192454
 20
149.2178922056
 30
0.0
 10
143.9018885346
 20
149.423878749
 30
0.0
  0
SPLINE
  5
3E5
100
AcDbEntity
  8
RUNDUNGEN
100
AcDbSpline
 62
7
  6
CONTINUOUS
 70
0
 71
3
 72
9
 73
5
 74
0
 42
0.0000001
 43
0.0000001
 44
0.0000000001
 40
0.0
 40
0.0
 40
0.0
 40
0.0
 40
0.5287744098
 40
1.0
 40
1.0
 40
1.0
 40
1.0
 10
142.9621959139
 20
155.423878749
 30
0.0
 10
142.9622543327
 20
155.8691521753
 30
0.0
 10
143.0123186055
 20
156.7118678076
 30
0.0
 10
143.1705987155
 20
157.5429118436
 30
0.0
 10
143.281603447
 20
157.9238816834
 30
0.0
  0
SPLINE
  5
3E6
100
AcDbEntity
  8
RUNDUNGEN
100
AcDbSpline
 62
7
  6
CONTINUOUS
 70
0
 71
3
 72
13
 73
9
 74
0
 42
0.0000001
 43
0.0000001
 44
0.0000000001
 40
0.0
 40
0.0
 40
0.0
 40
0.0
 40
0.0717095123
 40
0.1621801468
 40
0.2718419579
 40
0.3981200519
 40
0.6864713969
 40
1.0
 40
1.0
 40
1.0
 40
1.0
 10
123.7119165431
 20
146.423878749
 30
0.0
 10
123.7483251829
 20
146.4238881948
 30
0.0
 10
123.8301052737
 20
146.4461500627
 30
0.0
 10
123.9495025696
 20
146.5161479976
 30
0.0
 10
124.0799300311
 20
146.6190474513
 30
0.0
 10
124.2745739961
 20
146.8008125773
 30
0.0
 10
124.5259202541
 20
147.0724060566
 30
0.0
 10
124.7253912968
 20
147.3038473004
 30
0.0
 10
124.8299505319
 20
147.423878749
 30
0.0
  0
SPLINE
  5
3E7
100
AcDbEntity
  8
RUNDUNGEN
100
AcDbSpline
 62
7
  6
CONTINUOUS
 70
0
 71
3
 72
10
 73
6
 74
0
 42
0.0000001
 43
0.0000001
 44
0.0000000001
 40
0.0
 40
0.0
 40
0.0
 40
0.0
 40
0.225437557
 40
0.4713465669
 40
1.0
 40
1.0
 40
1.0
 40
1.0
 10
143.2815914704
 20
146.9238798015
 30
0.0
 10
143.2284592435
 20
147.1061992102
 30
0.0
 10
143.135436969
 20
147.492792296
 30
0.0
 10
143.000741214
 20
148.3248095067
 30
0.0
 10
142.9622798187
 20
148.9785526833
 30
0.0
 10
142.9621959139
 20
149.423878749
 30
0.0
  0
SPLINE
  5
3E8
100
AcDbEntity
  8
RUNDUNGEN
100
AcDbSpline
 62
7
  6
CONTINUOUS
 70
0
 71
3
 72
9
 73
5
 74
0
 42
0.0000001
 43
0.0000001
 44
0.0000000001
 40
0.0
 40
0.0
 40
0.0
 40
0.0
 40
0.5028300651
 40
1.0
 40
1.0
 40
1.0
 40
1.0
 10
56.6216169625
 20
158.1744501614
 30
0.0
 10
56.6537945313
 20
158.2317016383
 30
0.0
 10
56.741171183
 20
158.3340657976
 30
0.0
 10
56.8622713615
 20
158.3932864388
 30
0.0
 10
56.9252007653
 20
158.4093008805
 30
0.0
  0
LINE
  5
3E9
100
AcDbEntity
  8
RUNDUNGEN
100
AcDbLine
 62
7
  6
CONTINUOUS
 10
81.7016809964
 20
149.923878749
 11
81.7016809964
 21
150.2604696557
  0
SPLINE
  5
3EA
100
AcDbEntity
  8
RUNDUNGEN
100
AcDbSpline
 62
7
  6
CONTINUOUS
 70
0
 71
3
 72
13
 73
9
 74
0
 42
0.0000001
 43
0.0000001
 44
0.0000000001
 40
0.0
 40
0.0
 40
0.0
 40
0.0
 40
0.3344736554
 40
0.6270398579
 40
0.7474838992
 40
0.8480840339
 40
0.9301674805
 40
1.0
 40
1.0
 40
1.0
 40
1.0
 10
69.2994230741
 20
157.923878749
 30
0.0
 10
69.2994199419
 20
157.9878607822
 30
0.0
 10
69.2903932398
 20
158.1079154338
 30
0.0
 10
69.2562334563
 20
158.2480202924
 30
0.0
 10
69.2142189353
 20
158.3372266522
 30
0.0
 10
69.1802914558
 20
158.3847943152
 30
0.0
 10
69.1421858696
 20
158.4158440218
 30
0.0
 10
69.1129551113
 20
158.423878749
 30
0.0
 10
69.0995967301
 20
158.423878749
 30
0.0
  0
SPLINE
  5
3EB
100
AcDbEntity
  8
RUNDUNGEN
100
AcDbSpline
 62
7
  6
CONTINUOUS
 70
0
 71
3
 72
9
 73
5
 74
0
 42
0.0000001
 43
0.0000001
 44
0.0000000001
 40
0.0
 40
0.0
 40
0.0
 40
0.0
 40
0.5000003515
 40
1.0
 40
1.0
 40
1.0
 40
1.0
 10
81.7016809964
 20
150.2604696557
 30
0.0
 10
81.7696163494
 20
150.9791620613
 30
0.0
 10
81.832344224
 20
152.4238792317
 30
0.0
 10
81.7696168664
 20
153.8685965051
 30
0.0
 10
81.7016809964
 20
154.5872878423
 30
0.0
  0
LINE
  5
3EC
100
AcDbEntity
  8
RUNDUNGEN
100
AcDbLine
 62
7
  6
CONTINUOUS
 10
81.7016809964
 20
154.5872878423
 11
81.7016809964
 21
154.923878749
  0
SPLINE
  5
3ED
100
AcDbEntity
  8
RUNDUNGEN
100
AcDbSpline
 62
7
  6
CONTINUOUS
 70
0
 71
3
 72
9
 73
5
 74
0
 42
0.0000001
 43
0.0000001
 44
0.0000000001
 40
0.0
 40
0.0
 40
0.0
 40
0.0
 40
0.2520709234
 40
1.0
 40
1.0
 40
1.0
 40
1.0
 10
81.2187180833
 20
154.4208717582
 30
0.0
 10
81.2160532229
 20
154.4468868574
 30
0.0
 10
81.2065406276
 20
154.550191546
 30
0.0
 10
81.2016835115
 20
154.6539767608
 30
0.0
 10
81.2016809964
 20
154.7315710567
 30
0.0
  0
SPLINE
  5
3EE
100
AcDbEntity
  8
RUNDUNGEN
100
AcDbSpline
 62
7
  6
CONTINUOUS
 70
0
 71
3
 72
9
 73
5
 74
0
 42
0.0000001
 43
0.0000001
 44
0.0000000001
 40
0.0
 40
0.0
 40
0.0
 40
0.0
 40
0.5000003646
 40
1.0
 40
1.0
 40
1.0
 40
1.0
 10
81.2187180833
 20
150.4268857398
 30
0.0
 10
81.286623343
 20
151.0899046909
 30
0.0
 10
81.3494114832
 20
152.4238792162
 30
0.0
 10
81.2866237018
 20
153.757853821
 30
0.0
 10
81.2187180833
 20
154.4208717582
 30
0.0
  0
SPLINE
  5
3EF
100
AcDbEntity
  8
RUNDUNGEN
100
AcDbSpline
 62
7
  6
CONTINUOUS
 70
0
 71
3
 72
9
 73
5
 74
0
 42
0.0000001
 43
0.0000001
 44
0.0000000001
 40
0.0
 40
0.0
 40
0.0
 40
0.0
 40
0.2479456329
 40
1.0
 40
1.0
 40
1.0
 40
1.0
 10
81.2016809964
 20
150.1161864413
 30
0.0
 10
81.201681409
 20
150.1419105366
 30
0.0
 10
81.2033080273
 20
150.2456591749
 30
0.0
 10
81.2107677907
 20
150.3492670022
 30
0.0
 10
81.2187180833
 20
150.4268857398
 30
0.0
  0
SPLINE
  5
3F0
100
AcDbEntity
  8
RUNDUNGEN
100
AcDbSpline
 62
7
  6
CONTINUOUS
 70
0
 71
3
 72
9
 73
5
 74
0
 42
0.0000001
 43
0.0000001
 44
0.0000000001
 40
0.0
 40
0.0
 40
0.0
 40
0.0
 40
0.2479456782
 40
1.0
 40
1.0
 40
1.0
 40
1.0
 10
77.2016809964
 20
150.1161864413
 30
0.0
 10
77.2016806187
 20
150.1419105414
 30
0.0
 10
77.2000539679
 20
150.2456591814
 30
0.0
 10
77.1925941789
 20
150.3492670043
 30
0.0
 10
77.1846439096
 20
150.4268857398
 30
0.0
  0
SPLINE
  5
3F1
100
AcDbEntity
  8
RUNDUNGEN
100
AcDbSpline
 62
7
  6
CONTINUOUS
 70
0
 71
3
 72
9
 73
5
 74
0
 42
0.0000001
 43
0.0000001
 44
0.0000000001
 40
0.0
 40
0.0
 40
0.0
 40
0.0
 40
0.4999999968
 40
1.0
 40
1.0
 40
1.0
 40
1.0
 10
77.1846439096
 20
150.4268857398
 30
0.0
 10
77.1167378467
 20
151.0899041158
 30
0.0
 10
77.0539511227
 20
152.4238787459
 30
0.0
 10
77.1167378694
 20
153.7578533713
 30
0.0
 10
77.1846439096
 20
154.4208717582
 30
0.0
  0
SPLINE
  5
3F2
100
AcDbEntity
  8
RUNDUNGEN
100
AcDbSpline
 62
7
  6
CONTINUOUS
 70
0
 71
3
 72
9
 73
5
 74
0
 42
0.0000001
 43
0.0000001
 44
0.0000000001
 40
0.0
 40
0.0
 40
0.0
 40
0.0
 40
0.2520709035
 40
1.0
 40
1.0
 40
1.0
 40
1.0
 10
77.1846439096
 20
154.4208717582
 30
0.0
 10
77.1873087892
 20
154.4468868534
 30
0.0
 10
77.1968214196
 20
154.5501915412
 30
0.0
 10
77.201678405
 20
154.6539767585
 30
0.0
 10
77.2016809964
 20
154.7315710567
 30
0.0
  0
SPLINE
  5
3F3
100
AcDbEntity
  8
RUNDUNGEN
100
AcDbSpline
 62
7
  6
CONTINUOUS
 70
0
 71
3
 72
9
 73
5
 74
0
 42
0.0000001
 43
0.0000001
 44
0.0000000001
 40
0.0
 40
0.0
 40
0.0
 40
0.0
 40
0.2524242855
 40
1.0
 40
1.0
 40
1.0
 40
1.0
 10
56.2252181064
 20
154.3618555987
 30
0.0
 10
56.2215756124
 20
154.3928226304
 30
0.0
 10
56.2085377854
 20
154.5156487227
 30
0.0
 10
56.2016835075
 20
154.6392273295
 30
0.0
 10
56.2016809964
 20
154.7315710567
 30
0.0
  0
SPLINE
  5
3F4
100
AcDbEntity
  8
RUNDUNGEN
100
AcDbSpline
 62
7
  6
CONTINUOUS
 70
0
 71
3
 72
9
 73
5
 74
0
 42
0.0000001
 43
0.0000001
 44
0.0000000001
 40
0.0
 40
0.0
 40
0.0
 40
0.0
 40
0.4999966234
 40
1.0
 40
1.0
 40
1.0
 40
1.0
 10
56.2252181064
 20
150.4859018993
 30
0.0
 10
56.3007911773
 20
151.128517248
 30
0.0
 10
56.3713527853
 20
152.4238743636
 30
0.0
 10
56.300791519
 20
153.7192314908
 30
0.0
 10
56.2252181064
 20
154.3618555987
 30
0.0
  0
SPLINE
  5
3F5
100
AcDbEntity
  8
RUNDUNGEN
100
AcDbSpline
 62
7
  6
CONTINUOUS
 70
0
 71
3
 72
9
 73
5
 74
0
 42
0.0000001
 43
0.0000001
 44
0.0000000001
 40
0.0
 40
0.0
 40
0.0
 40
0.0
 40
0.2475883826
 40
1.0
 40
1.0
 40
1.0
 40
1.0
 10
56.2016809964
 20
150.1161864413
 30
0.0
 10
56.2016811357
 20
150.1467711605
 30
0.0
 10
56.2039833026
 20
150.2703020182
 30
0.0
 10
56.2143613703
 20
150.3935923586
 30
0.0
 10
56.2252181064
 20
150.4859018993
 30
0.0
  0
SPLINE
  5
3F6
100
AcDbEntity
  8
RUNDUNGEN
100
AcDbSpline
 62
7
  6
CONTINUOUS
 70
0
 71
3
 72
9
 73
5
 74
0
 42
0.0000001
 43
0.0000001
 44
0.0000000001
 40
0.0
 40
0.0
 40
0.0
 40
0.0
 40
0.218231478
 40
1.0
 40
1.0
 40
1.0
 40
1.0
 10
76.4783528252
 20
158.4092979938
 30
0.0
 10
76.4754055174
 20
158.4093345697
 30
0.0
 10
76.4619030353
 20
158.4097443906
 30
0.0
 10
76.4484320104
 20
158.4108248499
 30
0.0
 10
76.4379138127
 20
158.4117513578
 30
0.0
  0
SPLINE
  5
3F7
100
AcDbEntity
  8
RUNDUNGEN
100
AcDbSpline
 62
7
  6
CONTINUOUS
 70
0
 71
3
 72
9
 73
5
 74
0
 42
0.0000001
 43
0.0000001
 44
0.0000000001
 40
0.0
 40
0.0
 40
0.0
 40
0.0
 40
0.2011625936
 40
1.0
 40
1.0
 40
1.0
 40
1.0
 10
76.4379138127
 20
158.4117513578
 30
0.0
 10
76.4262757411
 20
158.4127765111
 30
0.0
 10
76.3685011936
 20
158.4185474255
 30
0.0
 10
76.3105113615
 20
158.4238787438
 30
0.0
 10
76.2641164261
 20
158.423878749
 30
0.0
  0
SPLINE
  5
3F8
100
AcDbEntity
  8
RUNDUNGEN
100
AcDbSpline
 62
7
  6
CONTINUOUS
 70
0
 71
3
 72
16
 73
12
 74
0
 42
0.0000001
 43
0.0000001
 44
0.0000000001
 40
0.0
 40
0.0
 40
0.0
 40
0.0
 40
0.1722848341
 40
0.3374640267
 40
0.4896982615
 40
0.6250716196
 40
0.7418909137
 40
0.8406979787
 40
0.9245766078
 40
0.9628890878
 40
1.0
 40
1.0
 40
1.0
 40
1.0
 10
112.7057805137
 20
152.4232696749
 30
0.0
 10
112.705804221
 20
152.8339615504
 30
0.0
 10
112.6671237827
 20
153.6389861106
 30
0.0
 10
112.49617932
 20
154.7957105772
 30
0.0
 10
112.2241415627
 20
155.8426837997
 30
0.0
 10
111.8671048766
 20
156.7413614306
 30
0.0
 10
111.4415746408
 20
157.4666315911
 30
0.0
 10
110.9630663821
 20
158.0041840192
 30
0.0
 10
110.511634044
 20
158.2946190085
 30
0.0
 10
110.1463217978
 20
158.4056553173
 30
0.0
 10
109.966052083
 20
158.4238812853
 30
0.0
 10
109.8775872437
 20
158.423878749
 30
0.0
  0
SPLINE
  5
3F9
100
AcDbEntity
  8
RUNDUNGEN
100
AcDbSpline
 62
7
  6
CONTINUOUS
 70
0
 71
3
 72
16
 73
12
 74
0
 42
0.0000001
 43
0.0000001
 44
0.0000000001
 40
0.0
 40
0.0
 40
0.0
 40
0.0
 40
0.037126172
 40
0.075438413
 40
0.1593149761
 40
0.2581247385
 40
0.3749418223
 40
0.5103113207
 40
0.6625362137
 40
0.8277122532
 40
1.0
 40
1.0
 40
1.0
 40
1.0
 10
109.8775866979
 20
146.423878749
 30
0.0
 10
109.9660729564
 20
146.4238770752
 30
0.0
 10
110.1463506532
 20
146.4420830971
 30
0.0
 10
110.5116258874
 20
146.5531361303
 30
0.0
 10
110.9629653917
 20
146.8435330836
 30
0.0
 10
111.4414516169
 20
147.3809347111
 30
0.0
 10
111.8669345574
 20
148.1060622499
 30
0.0
 10
112.2239603276
 20
149.0045262019
 30
0.0
 10
112.4960229351
 20
150.0512633036
 30
0.0
 10
112.6670433282
 20
151.2077552213
 30
0.0
 10
112.7057508442
 20
152.0126402661
 30
0.0
 10
112.7057805137
 20
152.4232696749
 30
0.0
  0
SPLINE
  5
3FA
100
AcDbEntity
  8
RUNDUNGEN
100
AcDbSpline
 62
7
  6
CONTINUOUS
 70
0
 71
3
 72
9
 73
5
 74
0
 42
0.0000001
 43
0.0000001
 44
0.0000000001
 40
0.0
 40
0.0
 40
0.0
 40
0.0
 40
0.2479456782
 40
1.0
 40
1.0
 40
1.0
 40
1.0
 10
102.2016809964
 20
150.1161864413
 30
0.0
 10
102.2016806187
 20
150.1419105414
 30
0.0
 10
102.2000539679
 20
150.2456591814
 30
0.0
 10
102.1925941789
 20
150.3492670043
 30
0.0
 10
102.1846439096
 20
150.4268857398
 30
0.0
  0
SPLINE
  5
3FB
100
AcDbEntity
  8
RUNDUNGEN
100
AcDbSpline
 62
7
  6
CONTINUOUS
 70
0
 71
3
 72
9
 73
5
 74
0
 42
0.0000001
 43
0.0000001
 44
0.0000000001
 40
0.0
 40
0.0
 40
0.0
 40
0.0
 40
0.4999999968
 40
1.0
 40
1.0
 40
1.0
 40
1.0
 10
102.1846439096
 20
150.4268857398
 30
0.0
 10
102.1167378467
 20
151.0899041158
 30
0.0
 10
102.0539511227
 20
152.4238787459
 30
0.0
 10
102.1167378694
 20
153.7578533713
 30
0.0
 10
102.1846439096
 20
154.4208717582
 30
0.0
  0
SPLINE
  5
3FC
100
AcDbEntity
  8
RUNDUNGEN
100
AcDbSpline
 62
7
  6
CONTINUOUS
 70
0
 71
3
 72
9
 73
5
 74
0
 42
0.0000001
 43
0.0000001
 44
0.0000000001
 40
0.0
 40
0.0
 40
0.0
 40
0.0
 40
0.2520709035
 40
1.0
 40
1.0
 40
1.0
 40
1.0
 10
102.1846439096
 20
154.4208717582
 30
0.0
 10
102.1873087892
 20
154.4468868534
 30
0.0
 10
102.1968214196
 20
154.5501915412
 30
0.0
 10
102.201678405
 20
154.6539767585
 30
0.0
 10
102.2016809964
 20
154.7315710567
 30
0.0
  0
SPLINE
  5
3FD
100
AcDbEntity
  8
RUNDUNGEN
100
AcDbSpline
 62
7
  6
CONTINUOUS
 70
0
 71
3
 72
9
 73
5
 74
0
 42
0.0000001
 43
0.0000001
 44
0.0000000001
 40
0.0
 40
0.0
 40
0.0
 40
0.0
 40
0.4971688982
 40
1.0
 40
1.0
 40
1.0
 40
1.0
 10
76.4783528253
 20
158.4092979938
 30
0.0
 10
76.5412512367
 20
158.3932896857
 30
0.0
 10
76.6622931579
 20
158.3341069625
 30
0.0
 10
76.7496507099
 20
158.2318169537
 30
0.0
 10
76.781832154
 20
158.1746039481
 30
0.0
  0
SPLINE
  5
3FE
100
AcDbEntity
  8
RUNDUNGEN
100
AcDbSpline
 62
7
  6
CONTINUOUS
 70
0
 71
3
 72
13
 73
9
 74
0
 42
0.0000001
 43
0.0000001
 44
0.0000000001
 40
0.0
 40
0.0
 40
0.0
 40
0.0
 40
0.3344732304
 40
0.6270390504
 40
0.7474830229
 40
0.8480832303
 40
0.9301669596
 40
1.0
 40
1.0
 40
1.0
 40
1.0
 10
64.1039389188
 20
146.923878749
 30
0.0
 10
64.1039417948
 20
146.8598967375
 30
0.0
 10
64.1129681189
 20
146.7398420902
 30
0.0
 10
64.1471276959
 20
146.5997371926
 30
0.0
 10
64.1891422673
 20
146.5105308288
 30
0.0
 10
64.2230699095
 20
146.4629631365
 30
0.0
 10
64.2611757881
 20
146.4319134367
 30
0.0
 10
64.2904067369
 20
146.423878749
 30
0.0
 10
64.3037652302
 20
146.423878749
 30
0.0
  0
SPLINE
  5
3FF
100
AcDbEntity
  8
RUNDUNGEN
100
AcDbSpline
 62
7
  6
CONTINUOUS
 70
0
 71
3
 72
12
 73
8
 74
0
 42
0.0000001
 43
0.0000001
 44
0.0000000001
 40
0.0
 40
0.0
 40
0.0
 40
0.0
 40
0.2779290696
 40
0.5456893583
 40
0.7911964876
 40
0.9011133868
 40
1.0
 40
1.0
 40
1.0
 40
1.0
 10
133.4299505319
 20
147.423878749
 30
0.0
 10
133.5642007091
 20
147.3655874484
 30
0.0
 10
133.827995456
 20
147.2515257064
 30
0.0
 10
134.2139887779
 20
147.0948134365
 30
0.0
 10
134.5251086765
 20
146.9882710649
 30
0.0
 10
134.7586683013
 20
146.9354699277
 30
0.0
 10
134.8685882391
 20
146.9238818772
 30
0.0
 10
134.9206625169
 20
146.923878749
 30
0.0
  0
SPLINE
  5
400
100
AcDbEntity
  8
RUNDUNGEN
100
AcDbSpline
 62
7
  6
CONTINUOUS
 70
0
 71
3
 72
12
 73
8
 74
0
 42
0.0000001
 43
0.0000001
 44
0.0000000001
 40
0.0
 40
0.0
 40
0.0
 40
0.0
 40
0.0988844898
 40
0.2088053475
 40
0.4543104664
 40
0.7220710827
 40
1.0
 40
1.0
 40
1.0
 40
1.0
 10
134.9206625169
 20
157.923878749
 30
0.0
 10
134.8685893448
 20
157.9238888036
 30
0.0
 10
134.7586682307
 20
157.9122821727
 30
0.0
 10
134.5251094754
 20
157.8594885924
 30
0.0
 10
134.2139846746
 20
157.7529508407
 30
0.0
 10
133.8279975523
 20
157.5962276069
 30
0.0
 10
133.564192532
 20
157.4821887721
 30
0.0
 10
133.4299505319
 20
157.423878749
 30
0.0
  0
SPLINE
  5
401
100
AcDbEntity
  8
RUNDUNGEN
100
AcDbSpline
 62
7
  6
CONTINUOUS
 70
0
 71
3
 72
11
 73
7
 74
0
 42
0.0000001
 43
0.0000001
 44
0.0000000001
 40
0.0
 40
0.0
 40
0.0
 40
0.0
 40
0.2190809603
 40
0.4642248065
 40
0.7276062625
 40
1.0
 40
1.0
 40
1.0
 40
1.0
 10
64.3038203809
 20
146.42387875
 30
0.0
 10
64.4951869323
 20
146.4238749076
 30
0.0
 10
64.8990830794
 20
146.5085127103
 30
0.0
 10
65.4862185112
 20
146.7526752016
 30
0.0
 10
66.0904676914
 20
147.0708137596
 30
0.0
 10
66.4956021969
 20
147.3049475074
 30
0.0
 10
66.7016809964
 20
147.423878749
 30
0.0
  0
SPLINE
  5
402
100
AcDbEntity
  8
RUNDUNGEN
100
AcDbSpline
 62
7
  6
CONTINUOUS
 70
0
 71
3
 72
11
 73
7
 74
0
 42
0.0000001
 43
0.0000001
 44
0.0000000001
 40
0.0
 40
0.0
 40
0.0
 40
0.0
 40
0.2190798615
 40
0.4642232746
 40
0.7276053128
 40
1.0
 40
1.0
 40
1.0
 40
1.0
 10
69.0995841362
 20
146.4238787491
 30
0.0
 10
68.9082154446
 20
146.4238778558
 30
0.0
 10
68.5043113764
 20
146.5084945448
 30
0.0
 10
67.9171661411
 20
146.7526647068
 30
0.0
 10
67.312905857
 20
147.0708061122
 30
0.0
 10
66.9077638129
 20
147.304945097
 30
0.0
 10
66.7016809964
 20
147.423878749
 30
0.0
  0
SPLINE
  5
403
100
AcDbEntity
  8
RUNDUNGEN
100
AcDbSpline
 62
7
  6
CONTINUOUS
 70
0
 71
3
 72
11
 73
7
 74
0
 42
0.0000001
 43
0.0000001
 44
0.0000000001
 40
0.0
 40
0.0
 40
0.0
 40
0.0
 40
0.2190809603
 40
0.4642248065
 40
0.7276062625
 40
1.0
 40
1.0
 40
1.0
 40
1.0
 10
89.3038203809
 20
146.42387875
 30
0.0
 10
89.4951869323
 20
146.4238749076
 30
0.0
 10
89.8990830794
 20
146.5085127103
 30
0.0
 10
90.4862185112
 20
146.7526752016
 30
0.0
 10
91.0904676914
 20
147.0708137596
 30
0.0
 10
91.4956021969
 20
147.3049475074
 30
0.0
 10
91.7016809964
 20
147.423878749
 30
0.0
  0
SPLINE
  5
404
100
AcDbEntity
  8
RUNDUNGEN
100
AcDbSpline
 62
7
  6
CONTINUOUS
 70
0
 71
3
 72
11
 73
7
 74
0
 42
0.0000001
 43
0.0000001
 44
0.0000000001
 40
0.0
 40
0.0
 40
0.0
 40
0.0
 40
0.2190798615
 40
0.4642232746
 40
0.7276053128
 40
1.0
 40
1.0
 40
1.0
 40
1.0
 10
94.0995841362
 20
146.4238787491
 30
0.0
 10
93.9082154446
 20
146.4238778558
 30
0.0
 10
93.5043113764
 20
146.5084945448
 30
0.0
 10
92.9171661411
 20
146.7526647068
 30
0.0
 10
92.312905857
 20
147.0708061122
 30
0.0
 10
91.9077638129
 20
147.304945097
 30
0.0
 10
91.7016809964
 20
147.423878749
 30
0.0
  0
SPLINE
  5
405
100
AcDbEntity
  8
RUNDUNGEN
100
AcDbSpline
 62
7
  6
CONTINUOUS
 70
0
 71
3
 72
13
 73
9
 74
0
 42
0.0000001
 43
0.0000001
 44
0.0000000001
 40
0.0
 40
0.0
 40
0.0
 40
0.0
 40
0.313529566
 40
0.6018806298
 40
0.7281583006
 40
0.837819662
 40
0.9282908465
 40
1.0
 40
1.0
 40
1.0
 40
1.0
 10
133.4299505319
 20
147.423878749
 30
0.0
 10
133.5345029233
 20
147.3038407002
 30
0.0
 10
133.7339840228
 20
147.0724077789
 30
0.0
 10
133.9853274496
 20
146.8008116644
 30
0.0
 10
134.1799713292
 20
146.6190473396
 30
0.0
 10
134.3103984077
 20
146.5161475398
 30
0.0
 10
134.4297960682
 20
146.4461507318
 30
0.0
 10
134.5115760646
 20
146.4238881133
 30
0.0
 10
134.5479845206
 20
146.423878749
 30
0.0
  0
SPLINE
  5
406
100
AcDbEntity
  8
RUNDUNGEN
100
AcDbSpline
 62
7
  6
CONTINUOUS
 70
0
 71
3
 72
11
 73
7
 74
0
 42
0.0000001
 43
0.0000001
 44
0.0000000001
 40
0.0
 40
0.0
 40
0.0
 40
0.0
 40
0.2190756156
 40
0.4642221346
 40
0.7276038175
 40
1.0
 40
1.0
 40
1.0
 40
1.0
 10
69.0995967585
 20
158.423878749
 30
0.0
 10
68.9082307872
 20
158.4238303953
 30
0.0
 10
68.5043251593
 20
158.3392948127
 30
0.0
 10
67.9171738824
 20
158.0950985258
 30
0.0
 10
67.312909875
 20
157.7769586672
 30
0.0
 10
66.9077651327
 20
157.5428152009
 30
0.0
 10
66.7016809964
 20
157.423878749
 30
0.0
  0
SPLINE
  5
407
100
AcDbEntity
  8
RUNDUNGEN
100
AcDbSpline
 62
7
  6
CONTINUOUS
 70
0
 71
3
 72
11
 73
7
 74
0
 42
0.0000001
 43
0.0000001
 44
0.0000000001
 40
0.0
 40
0.0
 40
0.0
 40
0.0
 40
0.21908113
 40
0.4642252905
 40
0.727606708
 40
1.0
 40
1.0
 40
1.0
 40
1.0
 10
64.303851843
 20
158.4238787466
 30
0.0
 10
64.4952162461
 20
158.4238847648
 30
0.0
 10
64.8991058956
 20
158.3392312895
 30
0.0
 10
65.4862341038
 20
158.0950752069
 30
0.0
 10
66.0904755624
 20
157.7769384538
 30
0.0
 10
66.4956049356
 20
157.5428082451
 30
0.0
 10
66.7016809964
 20
157.423878749
 30
0.0
  0
SPLINE
  5
408
100
AcDbEntity
  8
RUNDUNGEN
100
AcDbSpline
 62
7
  6
CONTINUOUS
 70
0
 71
3
 72
11
 73
7
 74
0
 42
0.0000001
 43
0.0000001
 44
0.0000000001
 40
0.0
 40
0.0
 40
0.0
 40
0.0
 40
0.2723961892
 40
0.5357778777
 40
0.7809243646
 40
1.0
 40
1.0
 40
1.0
 40
1.0
 10
91.7016809964
 20
157.423878749
 30
0.0
 10
91.4955962693
 20
157.5428141874
 30
0.0
 10
91.090452275
 20
157.7769589416
 30
0.0
 10
90.4861880521
 20
158.0950984938
 30
0.0
 10
89.8990368493
 20
158.339294592
 30
0.0
 10
89.4951312224
 20
158.4238308383
 30
0.0
 10
89.3037652344
 20
158.423878749
 30
0.0
  0
SPLINE
  5
409
100
AcDbEntity
  8
RUNDUNGEN
100
AcDbSpline
 62
7
  6
CONTINUOUS
 70
0
 71
3
 72
11
 73
7
 74
0
 42
0.0000001
 43
0.0000001
 44
0.0000000001
 40
0.0
 40
0.0
 40
0.0
 40
0.0
 40
0.2723932492
 40
0.5357746664
 40
0.7809189256
 40
1.0
 40
1.0
 40
1.0
 40
1.0
 10
91.7016809964
 20
157.423878749
 30
0.0
 10
91.9077573876
 20
157.5428073868
 30
0.0
 10
92.3128859456
 20
157.776938506
 30
0.0
 10
92.9171273619
 20
158.0950748707
 30
0.0
 10
93.5042552374
 20
158.3392309403
 30
0.0
 10
93.908144703
 20
158.4238848456
 30
0.0
 10
94.0995089727
 20
158.4238787465
 30
0.0
  0
SPLINE
  5
40A
100
AcDbEntity
  8
RUNDUNGEN
100
AcDbSpline
 62
7
  6
CONTINUOUS
 70
0
 71
3
 72
13
 73
9
 74
0
 42
0.0000001
 43
0.0000001
 44
0.0000000001
 40
0.0
 40
0.0
 40
0.0
 40
0.0
 40
0.3135315028
 40
0.6018803136
 40
0.7281612524
 40
0.8378588997
 40
0.9283165353
 40
1.0
 40
1.0
 40
1.0
 40
1.0
 10
124.8299505319
 20
157.423878749
 30
0.0
 10
124.725364684
 20
157.5438875779
 30
0.0
 10
124.5259361501
 20
157.7753644851
 30
0.0
 10
124.2745834435
 20
158.0469478012
 30
0.0
 10
124.079943925
 20
158.2287468005
 30
0.0
 10
123.9494402937
 20
158.3315702728
 30
0.0
 10
123.8300713089
 20
158.401590698
 30
0.0
 10
123.7483117202
 20
158.4238824868
 30
0.0
 10
123.7119165431
 20
158.423878749
 30
0.0
  0
SPLINE
  5
40B
100
AcDbEntity
  8
RUNDUNGEN
100
AcDbSpline
 62
7
  6
CONTINUOUS
 70
0
 71
3
 72
13
 73
9
 74
0
 42
0.0000001
 43
0.0000001
 44
0.0000000001
 40
0.0
 40
0.0
 40
0.0
 40
0.0
 40
0.071683775
 40
0.1621405996
 40
0.2718380965
 40
0.3981188568
 40
0.6864676161
 40
1.0
 40
1.0
 40
1.0
 40
1.0
 10
134.5479845206
 20
158.423878749
 30
0.0
 10
134.5115891877
 20
158.4238827902
 30
0.0
 10
134.4298296699
 20
158.4015910652
 30
0.0
 10
134.3104616502
 20
158.3315697968
 30
0.0
 10
134.1799579194
 20
158.2287474484
 30
0.0
 10
133.9853188848
 20
158.0469482479
 30
0.0
 10
133.7339623325
 20
157.7753678507
 30
0.0
 10
133.5345461317
 20
157.5438796625
 30
0.0
 10
133.4299505319
 20
157.423878749
 30
0.0
  0
LINE
  5
40C
100
AcDbEntity
  8
RUNDUNGEN
100
AcDbLine
 62
7
  6
CONTINUOUS
 10
76.7016809964
 20
154.5872878423
 11
76.7016809964
 21
154.923878749
  0
SPLINE
  5
40D
100
AcDbEntity
  8
RUNDUNGEN
100
AcDbSpline
 62
7
  6
CONTINUOUS
 70
0
 71
3
 72
13
 73
9
 74
0
 42
0.0000001
 43
0.0000001
 44
0.0000000001
 40
0.0
 40
0.0
 40
0.0
 40
0.0
 40
0.3368893761
 40
0.6309116668
 40
0.751392758
 40
0.8513955875
 40
0.9321308809
 40
1.0
 40
1.0
 40
1.0
 40
1.0
 10
102.2016809964
 20
150.1161864419
 30
0.0
 10
102.1377140478
 20
150.1161864419
 30
0.0
 10
102.0178241016
 20
150.1075148029
 30
0.0
 10
101.8778008371
 20
150.0747246501
 30
0.0
 10
101.7884997718
 20
150.0342864989
 30
0.0
 10
101.7409823768
 20
150.0017148164
 30
0.0
 10
101.7098444053
 20
149.9651288775
 30
0.0
 10
101.7016809964
 20
149.9367654139
 30
0.0
 10
101.7016809964
 20
149.9238787491
 30
0.0
  0
SPLINE
  5
40E
100
AcDbEntity
  8
RUNDUNGEN
100
AcDbSpline
 62
7
  6
CONTINUOUS
 70
0
 71
3
 72
13
 73
9
 74
0
 42
0.0000001
 43
0.0000001
 44
0.0000000001
 40
0.0
 40
0.0
 40
0.0
 40
0.0
 40
0.3368893795
 40
0.6309116701
 40
0.7513927601
 40
0.8513955885
 40
0.9321308812
 40
1.0
 40
1.0
 40
1.0
 40
1.0
 10
102.2016809964
 20
154.7315710565
 30
0.0
 10
102.1377140471
 20
154.7315710565
 30
0.0
 10
102.0178241004
 20
154.7402426957
 30
0.0
 10
101.8778008355
 20
154.7730328486
 30
0.0
 10
101.7884997708
 20
154.8134709999
 30
0.0
 10
101.7409823764
 20
154.8460426821
 30
0.0
 10
101.7098444051
 20
154.8826286206
 30
0.0
 10
101.7016809965
 20
154.9109920841
 30
0.0
 10
101.7016809964
 20
154.9238787488
 30
0.0
  0
SPLINE
  5
40F
100
AcDbEntity
  8
RUNDUNGEN
100
AcDbSpline
 62
7
  6
CONTINUOUS
 70
0
 71
3
 72
11
 73
7
 74
0
 42
0.0000001
 43
0.0000001
 44
0.0000000001
 40
0.0
 40
0.0
 40
0.0
 40
0.0
 40
0.3137124895
 40
0.6007781341
 40
0.8344694489
 40
1.0
 40
1.0
 40
1.0
 40
1.0
 10
102.1846439083
 20
150.4269052453
 30
0.0
 10
102.13039433
 20
150.422342415
 30
0.0
 10
102.0269532272
 20
150.4080380941
 30
0.0
 10
101.8859983969
 20
150.3720948474
 30
0.0
 10
101.776346808
 20
150.3260262969
 30
0.0
 10
101.71828743
 20
150.2839152142
 30
0.0
 10
101.701689768
 20
150.260469656
 30
0.0
  0
SPLINE
  5
410
100
AcDbEntity
  8
RUNDUNGEN
100
AcDbSpline
 62
7
  6
CONTINUOUS
 70
0
 71
3
 72
11
 73
7
 74
0
 42
0.0000001
 43
0.0000001
 44
0.0000000001
 40
0.0
 40
0.0
 40
0.0
 40
0.0
 40
0.3136968471
 40
0.600755584
 40
0.834452889
 40
1.0
 40
1.0
 40
1.0
 40
1.0
 10
102.1846439096
 20
154.420871134
 30
0.0
 10
102.1303971954
 20
154.4254331742
 30
0.0
 10
102.0269601522
 20
154.4397354896
 30
0.0
 10
101.8860080288
 20
154.4756740642
 30
0.0
 10
101.7763517459
 20
154.5217384566
 30
0.0
 10
101.7182861593
 20
154.5638442072
 30
0.0
 10
101.7016809964
 20
154.5872878423
 30
0.0
  0
SPLINE
  5
411
100
AcDbEntity
  8
RUNDUNGEN
100
AcDbSpline
 62
7
  6
CONTINUOUS
 70
0
 71
3
 72
11
 73
7
 74
0
 42
0.0000001
 43
0.0000001
 44
0.0000000001
 40
0.0
 40
0.0
 40
0.0
 40
0.0
 40
0.2777544711
 40
0.5382227497
 40
0.7772995531
 40
1.0
 40
1.0
 40
1.0
 40
1.0
 10
81.7016809964
 20
146.923878749
 30
0.0
 10
81.701680424
 20
146.8525395799
 30
0.0
 10
81.6601541953
 20
146.7140260452
 30
0.0
 10
81.5359189619
 20
146.5540877783
 30
0.0
 10
81.3785283821
 20
146.4490938853
 30
0.0
 10
81.2588799491
 20
146.4238776319
 30
0.0
 10
81.2016809964
 20
146.423878749
 30
0.0
  0
SPLINE
  5
412
100
AcDbEntity
  8
RUNDUNGEN
100
AcDbSpline
 62
7
  6
CONTINUOUS
 70
0
 71
3
 72
13
 73
9
 74
0
 42
0.0000001
 43
0.0000001
 44
0.0000000001
 40
0.0
 40
0.0
 40
0.0
 40
0.0
 40
0.0678691191
 40
0.1486044125
 40
0.2486072419
 40
0.3690883331
 40
0.6631106237
 40
1.0
 40
1.0
 40
1.0
 40
1.0
 10
81.7016809964
 20
149.9238787491
 30
0.0
 10
81.7016809964
 20
149.9367654139
 30
0.0
 10
81.6935175876
 20
149.9651288775
 30
0.0
 10
81.6623796161
 20
150.0017148163
 30
0.0
 10
81.6148622211
 20
150.0342864988
 30
0.0
 10
81.5255611558
 20
150.07472465
 30
0.0
 10
81.3855378913
 20
150.1075148028
 30
0.0
 10
81.2656479451
 20
150.1161864418
 30
0.0
 10
81.2016809964
 20
150.1161864418
 30
0.0
  0
SPLINE
  5
413
100
AcDbEntity
  8
RUNDUNGEN
100
AcDbSpline
 62
7
  6
CONTINUOUS
 70
0
 71
3
 72
9
 73
5
 74
0
 42
0.0000001
 43
0.0000001
 44
0.0000000001
 40
0.0
 40
0.0
 40
0.0
 40
0.0
 40
0.2439177592
 40
1.0
 40
1.0
 40
1.0
 40
1.0
 10
81.6230628619
 20
158.1721758749
 30
0.0
 10
81.6344897402
 20
158.1541812258
 30
0.0
 10
81.6771999499
 20
158.0780844804
 30
0.0
 10
81.7016830932
 20
157.9899535205
 30
0.0
 10
81.7016809964
 20
157.923878749
 30
0.0
  0
SPLINE
  5
414
100
AcDbEntity
  8
RUNDUNGEN
100
AcDbSpline
 62
7
  6
CONTINUOUS
 70
0
 71
3
 72
13
 73
9
 74
0
 42
0.0000001
 43
0.0000001
 44
0.0000000001
 40
0.0
 40
0.0
 40
0.0
 40
0.0
 40
0.0678691192
 40
0.1486044122
 40
0.2486072408
 40
0.3690883309
 40
0.6631106213
 40
1.0
 40
1.0
 40
1.0
 40
1.0
 10
81.7016809964
 20
154.923878749
 30
0.0
 10
81.7016809964
 20
154.9109920842
 30
0.0
 10
81.6935175878
 20
154.8826286205
 30
0.0
 10
81.6623796165
 20
154.8460426817
 30
0.0
 10
81.614862222
 20
154.8134709991
 30
0.0
 10
81.5255611573
 20
154.7730328475
 30
0.0
 10
81.3855378924
 20
154.7402426941
 30
0.0
 10
81.2656479457
 20
154.7315710547
 30
0.0
 10
81.2016809964
 20
154.7315710545
 30
0.0
  0
SPLINE
  5
415
100
AcDbEntity
  8
RUNDUNGEN
100
AcDbSpline
 62
7
  6
CONTINUOUS
 70
0
 71
3
 72
10
 73
6
 74
0
 42
0.0000001
 43
0.0000001
 44
0.0000000001
 40
0.0
 40
0.0
 40
0.0
 40
0.0
 40
0.2326971581
 40
0.4744935244
 40
1.0
 40
1.0
 40
1.0
 40
1.0
 10
81.2016809964
 20
158.423878749
 30
0.0
 10
81.2411286442
 20
158.4238798453
 30
0.0
 10
81.3220291535
 20
158.4123147407
 30
0.0
 10
81.4785693591
 20
158.3437943229
 30
0.0
 10
81.5753140531
 20
158.247384366
 30
0.0
 10
81.6230628619
 20
158.1721758749
 30
0.0
  0
SPLINE
  5
416
100
AcDbEntity
  8
RUNDUNGEN
100
AcDbSpline
 62
7
  6
CONTINUOUS
 70
0
 71
3
 72
11
 73
7
 74
0
 42
0.0000001
 43
0.0000001
 44
0.0000000001
 40
0.0
 40
0.0
 40
0.0
 40
0.0
 40
0.1655313375
 40
0.3992229458
 40
0.6862882653
 40
1.0
 40
1.0
 40
1.0
 40
1.0
 10
81.7016726618
 20
150.260469656
 30
0.0
 10
81.6850746415
 20
150.2839151221
 30
0.0
 10
81.627014961
 20
150.3260259464
 30
0.0
 10
81.5173631423
 20
150.372094292
 30
0.0
 10
81.3764084361
 20
150.4080373099
 30
0.0
 10
81.2729675256
 20
150.4223415326
 30
0.0
 10
81.2187180844
 20
150.4269043243
 30
0.0
  0
SPLINE
  5
417
100
AcDbEntity
  8
RUNDUNGEN
100
AcDbSpline
 62
7
  6
CONTINUOUS
 70
0
 71
3
 72
11
 73
7
 74
0
 42
0.0000001
 43
0.0000001
 44
0.0000000001
 40
0.0
 40
0.0
 40
0.0
 40
0.0
 40
0.1655471115
 40
0.3992444193
 40
0.6863031571
 40
1.0
 40
1.0
 40
1.0
 40
1.0
 10
81.7016809964
 20
154.5872878423
 30
0.0
 10
81.6850758329
 20
154.5638442079
 30
0.0
 10
81.6270102446
 20
154.5217384597
 30
0.0
 10
81.5173539609
 20
154.4756740705
 30
0.0
 10
81.3764018381
 20
154.4397354989
 30
0.0
 10
81.2729647963
 20
154.425433185
 30
0.0
 10
81.2187180833
 20
154.4208711453
 30
0.0
  0
SPLINE
  5
418
100
AcDbEntity
  8
RUNDUNGEN
100
AcDbSpline
 62
7
  6
CONTINUOUS
 70
0
 71
3
 72
11
 73
7
 74
0
 42
0.0000001
 43
0.0000001
 44
0.0000000001
 40
0.0
 40
0.0
 40
0.0
 40
0.0
 40
0.2777541599
 40
0.5382112614
 40
0.77729039
 40
1.0
 40
1.0
 40
1.0
 40
1.0
 10
76.7016810033
 20
146.9237963673
 30
0.0
 10
76.7016740063
 20
146.8524644484
 30
0.0
 10
76.7432416738
 20
146.7139750542
 30
0.0
 10
76.8674646955
 20
146.5540647956
 30
0.0
 10
77.0248467606
 20
146.4490919748
 30
0.0
 10
77.1444854396
 20
146.4238739247
 30
0.0
 10
77.2016809964
 20
146.423878749
 30
0.0
  0
SPLINE
  5
419
100
AcDbEntity
  8
RUNDUNGEN
100
AcDbSpline
 62
7
  6
CONTINUOUS
 70
0
 71
3
 72
9
 73
5
 74
0
 42
0.0000001
 43
0.0000001
 44
0.0000000001
 40
0.0
 40
0.0
 40
0.0
 40
0.0
 40
0.4999999972
 40
1.0
 40
1.0
 40
1.0
 40
1.0
 10
76.7016809964
 20
150.2604696557
 30
0.0
 10
76.6337446701
 20
150.9791614555
 30
0.0
 10
76.5710184694
 20
152.4238787465
 30
0.0
 10
76.6337447003
 20
153.8685960316
 30
0.0
 10
76.7016809964
 20
154.5872878423
 30
0.0
  0
SPLINE
  5
41A
100
AcDbEntity
  8
RUNDUNGEN
100
AcDbSpline
 62
7
  6
CONTINUOUS
 70
0
 71
3
 72
13
 73
9
 74
0
 42
0.0000001
 43
0.0000001
 44
0.0000000001
 40
0.0
 40
0.0
 40
0.0
 40
0.0
 40
0.3368893761
 40
0.6309116668
 40
0.751392758
 40
0.8513955875
 40
0.9321308809
 40
1.0
 40
1.0
 40
1.0
 40
1.0
 10
77.2016809964
 20
150.1161864419
 30
0.0
 10
77.1377140478
 20
150.1161864419
 30
0.0
 10
77.0178241016
 20
150.1075148029
 30
0.0
 10
76.8778008371
 20
150.0747246501
 30
0.0
 10
76.7884997718
 20
150.0342864989
 30
0.0
 10
76.7409823768
 20
150.0017148164
 30
0.0
 10
76.7098444053
 20
149.9651288775
 30
0.0
 10
76.7016809964
 20
149.9367654139
 30
0.0
 10
76.7016809964
 20
149.9238787491
 30
0.0
  0
SPLINE
  5
41B
100
AcDbEntity
  8
RUNDUNGEN
100
AcDbSpline
 62
7
  6
CONTINUOUS
 70
0
 71
3
 72
9
 73
5
 74
0
 42
0.0000001
 43
0.0000001
 44
0.0000000001
 40
0.0
 40
0.0
 40
0.0
 40
0.0
 40
0.2594882063
 40
1.0
 40
1.0
 40
1.0
 40
1.0
 10
76.7016809964
 20
157.923878749
 30
0.0
 10
76.7016777587
 20
157.9468246672
 30
0.0
 10
76.7102049675
 20
158.0352584149
 30
0.0
 10
76.7464009256
 20
158.1193744509
 30
0.0
 10
76.7817673658
 20
158.1744840242
 30
0.0
  0
SPLINE
  5
41C
100
AcDbEntity
  8
RUNDUNGEN
100
AcDbSpline
 62
7
  6
CONTINUOUS
 70
0
 71
3
 72
10
 73
6
 74
0
 42
0.0000001
 43
0.0000001
 44
0.0000000001
 40
0.0
 40
0.0
 40
0.0
 40
0.0
 40
0.525362026
 40
0.7671981244
 40
1.0
 40
1.0
 40
1.0
 40
1.0
 10
76.7817673658
 20
158.1744840242
 30
0.0
 10
76.8296172079
 20
158.24904074
 30
0.0
 10
76.9260909716
 20
158.3445794255
 30
0.0
 10
77.0819314332
 20
158.4124282974
 30
0.0
 10
77.1624241052
 20
158.4238816739
 30
0.0
 10
77.2016809964
 20
158.423878749
 30
0.0
  0
LINE
  5
41D
100
AcDbEntity
  8
RUNDUNGEN
100
AcDbLine
 62
7
  6
CONTINUOUS
 10
76.7016809964
 20
149.923878749
 11
76.7016809964
 21
150.2604696557
  0
SPLINE
  5
41E
100
AcDbEntity
  8
RUNDUNGEN
100
AcDbSpline
 62
7
  6
CONTINUOUS
 70
0
 71
3
 72
13
 73
9
 74
0
 42
0.0000001
 43
0.0000001
 44
0.0000000001
 40
0.0
 40
0.0
 40
0.0
 40
0.0
 40
0.3368893795
 40
0.6309116701
 40
0.7513927601
 40
0.8513955885
 40
0.9321308812
 40
1.0
 40
1.0
 40
1.0
 40
1.0
 10
77.2016809964
 20
154.7315710565
 30
0.0
 10
77.1377140471
 20
154.7315710565
 30
0.0
 10
77.0178241004
 20
154.7402426957
 30
0.0
 10
76.8778008355
 20
154.7730328486
 30
0.0
 10
76.7884997708
 20
154.8134709999
 30
0.0
 10
76.7409823764
 20
154.8460426821
 30
0.0
 10
76.7098444051
 20
154.8826286206
 30
0.0
 10
76.7016809965
 20
154.9109920841
 30
0.0
 10
76.7016809964
 20
154.9238787488
 30
0.0
  0
SPLINE
  5
41F
100
AcDbEntity
  8
RUNDUNGEN
100
AcDbSpline
 62
7
  6
CONTINUOUS
 70
0
 71
3
 72
11
 73
7
 74
0
 42
0.0000001
 43
0.0000001
 44
0.0000000001
 40
0.0
 40
0.0
 40
0.0
 40
0.0
 40
0.3137124895
 40
0.6007781341
 40
0.8344694489
 40
1.0
 40
1.0
 40
1.0
 40
1.0
 10
77.1846439083
 20
150.4269052453
 30
0.0
 10
77.13039433
 20
150.422342415
 30
0.0
 10
77.0269532272
 20
150.4080380941
 30
0.0
 10
76.8859983969
 20
150.3720948474
 30
0.0
 10
76.776346808
 20
150.3260262969
 30
0.0
 10
76.71828743
 20
150.2839152142
 30
0.0
 10
76.701689768
 20
150.260469656
 30
0.0
  0
SPLINE
  5
420
100
AcDbEntity
  8
RUNDUNGEN
100
AcDbSpline
 62
7
  6
CONTINUOUS
 70
0
 71
3
 72
11
 73
7
 74
0
 42
0.0000001
 43
0.0000001
 44
0.0000000001
 40
0.0
 40
0.0
 40
0.0
 40
0.0
 40
0.3136968471
 40
0.600755584
 40
0.834452889
 40
1.0
 40
1.0
 40
1.0
 40
1.0
 10
77.1846439096
 20
154.420871134
 30
0.0
 10
77.1303971954
 20
154.4254331742
 30
0.0
 10
77.0269601522
 20
154.4397354896
 30
0.0
 10
76.8860080288
 20
154.4756740642
 30
0.0
 10
76.7763517459
 20
154.5217384566
 30
0.0
 10
76.7182861593
 20
154.5638442072
 30
0.0
 10
76.7016809964
 20
154.5872878423
 30
0.0
  0
SPLINE
  5
421
100
AcDbEntity
  8
RUNDUNGEN
100
AcDbSpline
 62
7
  6
CONTINUOUS
 70
0
 71
3
 72
11
 73
7
 74
0
 42
0.0000001
 43
0.0000001
 44
0.0000000001
 40
0.0
 40
0.0
 40
0.0
 40
0.0
 40
0.2777544711
 40
0.5382227497
 40
0.7772995531
 40
1.0
 40
1.0
 40
1.0
 40
1.0
 10
56.7016809964
 20
146.923878749
 30
0.0
 10
56.701680424
 20
146.8525395799
 30
0.0
 10
56.6601541953
 20
146.7140260452
 30
0.0
 10
56.5359189619
 20
146.5540877783
 30
0.0
 10
56.3785283821
 20
146.4490938853
 30
0.0
 10
56.2588799491
 20
146.4238776319
 30
0.0
 10
56.2016809964
 20
146.423878749
 30
0.0
  0
SPLINE
  5
422
100
AcDbEntity
  8
RUNDUNGEN
100
AcDbSpline
 62
7
  6
CONTINUOUS
 70
0
 71
3
 72
13
 73
9
 74
0
 42
0.0000001
 43
0.0000001
 44
0.0000000001
 40
0.0
 40
0.0
 40
0.0
 40
0.0
 40
0.0678691199
 40
0.1486044156
 40
0.2486072488
 40
0.3690883441
 40
0.6631106348
 40
1.0
 40
1.0
 40
1.0
 40
1.0
 10
56.7016809964
 20
149.9238787491
 30
0.0
 10
56.7016809964
 20
149.936765414
 30
0.0
 10
56.6935175867
 20
149.9651288781
 30
0.0
 10
56.6623796145
 20
150.0017148179
 30
0.0
 10
56.6148622174
 20
150.0342865009
 30
0.0
 10
56.5255611504
 20
150.0747246517
 30
0.0
 10
56.385537887
 20
150.1075148034
 30
0.0
 10
56.265647943
 20
150.1161864418
 30
0.0
 10
56.2016809964
 20
150.1161864418
 30
0.0
  0
SPLINE
  5
423
100
AcDbEntity
  8
RUNDUNGEN
100
AcDbSpline
 62
7
  6
CONTINUOUS
 70
0
 71
3
 72
9
 73
5
 74
0
 42
0.0000001
 43
0.0000001
 44
0.0000000001
 40
0.0
 40
0.0
 40
0.0
 40
0.0
 40
0.2594916212
 40
1.0
 40
1.0
 40
1.0
 40
1.0
 10
56.7016809964
 20
157.923878749
 30
0.0
 10
56.701685413
 20
157.9468236982
 30
0.0
 10
56.69315892
 20
158.0352530067
 30
0.0
 10
56.6569633172
 20
158.1193629411
 30
0.0
 10
56.6216011478
 20
158.1744705875
 30
0.0
  0
SPLINE
  5
424
100
AcDbEntity
  8
RUNDUNGEN
100
AcDbSpline
 62
7
  6
CONTINUOUS
 70
0
 71
3
 72
13
 73
9
 74
0
 42
0.0000001
 43
0.0000001
 44
0.0000000001
 40
0.0
 40
0.0
 40
0.0
 40
0.0
 40
0.0678691201
 40
0.1486044158
 40
0.2486072487
 40
0.3690883435
 40
0.6631106339
 40
1.0
 40
1.0
 40
1.0
 40
1.0
 10
56.7016809964
 20
154.923878749
 30
0.0
 10
56.7016809964
 20
154.910992084
 30
0.0
 10
56.6935175868
 20
154.8826286199
 30
0.0
 10
56.6623796147
 20
154.8460426799
 30
0.0
 10
56.6148622178
 20
154.8134709967
 30
0.0
 10
56.525561151
 20
154.7730328456
 30
0.0
 10
56.3855378876
 20
154.7402426934
 30
0.0
 10
56.2656479433
 20
154.7315710547
 30
0.0
 10
56.2016809964
 20
154.7315710545
 30
0.0
  0
SPLINE
  5
425
100
AcDbEntity
  8
RUNDUNGEN
100
AcDbSpline
 62
7
  6
CONTINUOUS
 70
0
 71
3
 72
10
 73
6
 74
0
 42
0.0000001
 43
0.0000001
 44
0.0000000001
 40
0.0
 40
0.0
 40
0.0
 40
0.0
 40
0.5253607194
 40
0.7671977689
 40
1.0
 40
1.0
 40
1.0
 40
1.0
 10
56.6216011478
 20
158.1744705875
 30
0.0
 10
56.5737551156
 20
158.2490324835
 30
0.0
 10
56.4772783593
 20
158.3445756325
 30
0.0
 10
56.3214343168
 20
158.4124275133
 30
0.0
 10
56.2409390653
 20
158.4238820419
 30
0.0
 10
56.2016809964
 20
158.423878749
 30
0.0
  0
SPLINE
  5
426
100
AcDbEntity
  8
RUNDUNGEN
100
AcDbSpline
 62
7
  6
CONTINUOUS
 70
0
 71
3
 72
11
 73
7
 74
0
 42
0.0000001
 43
0.0000001
 44
0.0000000001
 40
0.0
 40
0.0
 40
0.0
 40
0.0
 40
0.1703487276
 40
0.405703016
 40
0.6906647059
 40
1.0
 40
1.0
 40
1.0
 40
1.0
 10
56.7016727859
 20
150.3244038287
 30
0.0
 10
56.6829314302
 20
150.3465507964
 30
0.0
 10
56.6240846224
 20
150.3860741077
 30
0.0
 10
56.5152650256
 20
150.4306143068
 30
0.0
 10
56.3779254139
 20
150.4659404226
 30
0.0
 10
56.277654289
 20
150.4808186033
 30
0.0
 10
56.2252181077
 20
150.4859192923
 30
0.0
  0
SPLINE
  5
427
100
AcDbEntity
  8
RUNDUNGEN
100
AcDbSpline
 62
7
  6
CONTINUOUS
 70
0
 71
3
 72
11
 73
7
 74
0
 42
0.0000001
 43
0.0000001
 44
0.0000000001
 40
0.0
 40
0.0
 40
0.0
 40
0.0
 40
0.1703643421
 40
0.4057238332
 40
0.6906790541
 40
1.0
 40
1.0
 40
1.0
 40
1.0
 10
56.7016809964
 20
154.5233536695
 30
0.0
 10
56.6829333737
 20
154.5012085605
 30
0.0
 10
56.6240810491
 20
154.4616893986
 30
0.0
 10
56.5152570782
 20
154.4171529408
 30
0.0
 10
56.377919582
 20
154.381830889
 30
0.0
 10
56.277651856
 20
154.3669546082
 30
0.0
 10
56.2252181064
 20
154.361854707
 30
0.0
  0
SPLINE
  5
428
100
AcDbEntity
  8
RUNDUNGEN
100
AcDbSpline
 62
7
  6
CONTINUOUS
 70
0
 71
3
 72
15
 73
11
 74
0
 42
0.0000001
 43
0.0000001
 44
0.0000000001
 40
0.0
 40
0.0
 40
0.0
 40
0.0
 40
0.171593839
 40
0.3360537182
 40
0.4876390469
 40
0.622569472
 40
0.7393291289
 40
0.8385923307
 40
0.9234968078
 40
1.0
 40
1.0
 40
1.0
 40
1.0
 10
143.9018885346
 20
155.423878749
 30
0.0
 10
143.9019098388
 20
155.629794206
 30
0.0
 10
143.9218837947
 20
156.0333748938
 30
0.0
 10
144.0103873748
 20
156.6128714626
 30
0.0
 10
144.150948239
 20
157.1367821706
 30
0.0
 10
144.3352852325
 20
157.5859229812
 30
0.0
 10
144.5545698667
 20
157.94794567
 30
0.0
 10
144.8014679272
 20
158.2158209269
 30
0.0
 10
145.070885246
 20
158.3840677035
 30
0.0
 10
145.2660207883
 20
158.4238790057
 30
0.0
 10
145.3578258901
 20
158.4238787468
 30
0.0
  0
SPLINE
  5
429
100
AcDbEntity
  8
RUNDUNGEN
100
AcDbSpline
 62
7
  6
CONTINUOUS
 70
0
 71
3
 72
12
 73
8
 74
0
 42
0.0000001
 43
0.0000001
 44
0.0000000001
 40
0.0
 40
0.0
 40
0.0
 40
0.0
 40
0.2779285617
 40
0.5456891536
 40
0.7911945042
 40
0.9011155039
 40
1.0
 40
1.0
 40
1.0
 40
1.0
 10
124.8299505319
 20
157.423878749
 30
0.0
 10
124.6957076083
 20
157.4821861597
 30
0.0
 10
124.4319041464
 20
157.5962280537
 30
0.0
 10
124.0459168334
 20
157.7529505611
 30
0.0
 10
123.7347919457
 20
157.8594888087
 30
0.0
 10
123.5012328249
 20
157.9122813938
 30
0.0
 10
123.39131172
 20
157.9238887762
 30
0.0
 10
123.3392385469
 20
157.923878749
 30
0.0
  0
SPLINE
  5
42A
100
AcDbEntity
  8
RUNDUNGEN
100
AcDbSpline
 62
7
  6
CONTINUOUS
 70
0
 71
3
 72
12
 73
8
 74
0
 42
0.0000001
 43
0.0000001
 44
0.0000000001
 40
0.0
 40
0.0
 40
0.0
 40
0.0
 40
0.0988865459
 40
0.2088034307
 40
0.4543109661
 40
0.7220713527
 40
1.0
 40
1.0
 40
1.0
 40
1.0
 10
123.3392385469
 20
146.923878749
 30
0.0
 10
123.3913127905
 20
146.9238820198
 30
0.0
 10
123.501232704
 20
146.9354696533
 30
0.0
 10
123.7347925118
 20
146.9882709642
 30
0.0
 10
124.045912657
 20
147.0948134071
 30
0.0
 10
124.4319057082
 20
147.2515264323
 30
0.0
 10
124.6957013548
 20
147.3655856941
 30
0.0
 10
124.8299505319
 20
147.423878749
 30
0.0
  0
SPLINE
  5
42B
100
AcDbEntity
  8
RUNDUNGEN
100
AcDbSpline
 62
7
  6
CONTINUOUS
 70
0
 71
3
 72
13
 73
9
 74
0
 42
0.0000001
 43
0.0000001
 44
0.0000000001
 40
0.0
 40
0.0
 40
0.0
 40
0.0
 40
0.2732375467
 40
0.5424010804
 40
0.6723707554
 40
0.7956221298
 40
0.9073099608
 40
1.0
 40
1.0
 40
1.0
 40
1.0
 10
145.3577768934
 20
158.4238714006
 30
0.0
 10
145.161581966
 20
158.4238950384
 30
0.0
 10
144.7716480756
 20
158.3967494016
 30
0.0
 10
144.2972511063
 20
158.3009588491
 30
0.0
 10
143.9368859131
 20
158.1964699741
 30
0.0
 10
143.6890781919
 20
158.1108699103
 30
0.0
 10
143.4711423578
 20
158.0222584863
 30
0.0
 10
143.3387640108
 20
157.9580135907
 30
0.0
 10
143.2816141683
 20
157.9239040758
 30
0.0
  0
SPLINE
  5
42C
100
AcDbEntity
  8
RUNDUNGEN
100
AcDbSpline
 62
7
  6
CONTINUOUS
 70
0
 71
3
 72
13
 73
9
 74
0
 42
0.0000001
 43
0.0000001
 44
0.0000000001
 40
0.0
 40
0.0
 40
0.0
 40
0.0
 40
0.0926895806
 40
0.2043753936
 40
0.3276270562
 40
0.4575969707
 40
0.7267592779
 40
1.0
 40
1.0
 40
1.0
 40
1.0
 10
143.2815993625
 20
146.9238772624
 30
0.0
 10
143.3387486973
 20
146.8897662015
 30
0.0
 10
143.4711139157
 20
146.8254958541
 30
0.0
 10
143.6890564742
 20
146.7368952182
 30
0.0
 10
143.9368686187
 20
146.6513052004
 30
0.0
 10
144.2972318588
 20
146.5467974854
 30
0.0
 10
144.7716367613
 20
146.4510089949
 30
0.0
 10
145.1615757443
 20
146.4238624369
 30
0.0
 10
145.357774973
 20
146.423886588
 30
0.0
  0
SPLINE
  5
42D
100
AcDbEntity
  8
RUNDUNGEN
100
AcDbSpline
 62
7
  6
CONTINUOUS
 70
0
 71
3
 72
12
 73
8
 74
0
 42
0.0000001
 43
0.0000001
 44
0.0000000001
 40
0.0
 40
0.0
 40
0.0
 40
0.0
 40
0.0989848547
 40
0.2117627044
 40
0.4614199243
 40
0.7275766439
 40
1.0
 40
1.0
 40
1.0
 40
1.0
 10
112.554251006
 20
157.9238807627
 30
0.0
 10
112.4727135965
 20
157.9629558468
 30
0.0
 10
112.2930251988
 20
158.0355041198
 30
0.0
 10
111.8922209372
 20
158.1663507987
 30
0.0
 10
111.3324579151
 20
158.2991157176
 30
0.0
 10
110.6187394123
 20
158.4005865523
 30
0.0
 10
110.1264300455
 20
158.4238883295
 30
0.0
 10
109.8775872438
 20
158.4238717828
 30
0.0
  0
SPLINE
  5
42E
100
AcDbEntity
  8
RUNDUNGEN
100
AcDbSpline
 62
7
  6
CONTINUOUS
 70
0
 71
3
 72
12
 73
8
 74
0
 42
0.0000001
 43
0.0000001
 44
0.0000000001
 40
0.0
 40
0.0
 40
0.0
 40
0.0
 40
0.2724235057
 40
0.5385782557
 40
0.7882364706
 40
0.9010144553
 40
1.0
 40
1.0
 40
1.0
 40
1.0
 10
109.8775867366
 20
146.4238881477
 30
0.0
 10
110.1264291978
 20
146.4238700301
 30
0.0
 10
110.6187359287
 20
146.4471731652
 30
0.0
 10
111.332452771
 20
146.5486395497
 30
0.0
 10
111.8922142111
 20
146.6814037211
 30
0.0
 10
112.2930192751
 20
146.8122503717
 30
0.0
 10
112.4727085412
 20
146.8847977544
 30
0.0
 10
112.5542460184
 20
146.9238737542
 30
0.0
  0
SPLINE
  5
42F
100
AcDbEntity
  8
RUNDUNGEN
100
AcDbSpline
 62
7
  6
CONTINUOUS
 70
0
 71
3
 72
14
 73
10
 74
0
 42
0.0000001
 43
0.0000001
 44
0.0000000001
 40
0.0
 40
0.0
 40
0.0
 40
0.0
 40
0.0620981788
 40
0.1389825126
 40
0.2373346119
 40
0.3579540136
 40
0.4988838885
 40
0.6563914927
 40
1.0
 40
1.0
 40
1.0
 40
1.0
 10
210.4341727464
 20
158.423878749
 30
0.0
 10
210.4226194456
 20
158.423878749
 30
0.0
 10
210.396716633
 20
158.4152746709
 30
0.0
 10
210.3645180258
 20
158.3839234756
 30
0.0
 10
210.3357775458
 20
158.3365905328
 30
0.0
 10
210.3106914092
 20
158.2742861926
 30
0.0
 10
210.290094617
 20
158.1989530164
 30
0.0
 10
210.2690295109
 20
158.0812673183
 30
0.0
 10
210.2631626748
 20
157.9878067504
 30
0.0
 10
210.2631626748
 20
157.923878749
 30
0.0
  0
SPLINE
  5
430
100
AcDbEntity
  8
RUNDUNGEN
100
AcDbSpline
 62
7
  6
CONTINUOUS
 70
0
 71
3
 72
11
 73
7
 74
0
 42
0.0000001
 43
0.0000001
 44
0.0000000001
 40
0.0
 40
0.0
 40
0.0
 40
0.0
 40
0.2398831929
 40
0.4858124908
 40
0.7400487945
 40
1.0
 40
1.0
 40
1.0
 40
1.0
 10
245.4341727464
 20
158.423878749
 30
0.0
 10
245.4939997931
 20
158.423878749
 30
0.0
 10
245.6166301107
 20
158.3969962913
 30
0.0
 10
245.7688730436
 20
158.2841188786
 30
0.0
 10
245.8693171789
 20
158.1181842125
 30
0.0
 10
245.8925073092
 20
157.988710773
 30
0.0
 10
245.8925060817
 20
157.923878749
 30
0.0
  0
SPLINE
  5
431
100
AcDbEntity
  8
RUNDUNGEN
100
AcDbSpline
 62
7
  6
CONTINUOUS
 70
0
 71
3
 72
11
 73
7
 74
0
 42
0.0000001
 43
0.0000001
 44
0.0000000001
 40
0.0
 40
0.0
 40
0.0
 40
0.0
 40
0.2998762441
 40
0.5546947736
 40
0.7834854494
 40
1.0
 40
1.0
 40
1.0
 40
1.0
 10
245.8925060798
 20
146.923878749
 30
0.0
 10
245.9737870877
 20
146.9238760251
 30
0.0
 10
246.1262959935
 20
146.9558099901
 30
0.0
 10
246.3043448156
 20
147.0806078278
 30
0.0
 10
246.4104858998
 20
147.2433075558
 30
0.0
 10
246.4341508699
 20
147.3651928076
 30
0.0
 10
246.4341727464
 20
147.423878749
 30
0.0
  0
SPLINE
  5
432
100
AcDbEntity
  8
RUNDUNGEN
100
AcDbSpline
 62
7
  6
CONTINUOUS
 70
0
 71
3
 72
11
 73
7
 74
0
 42
0.0000001
 43
0.0000001
 44
0.0000000001
 40
0.0
 40
0.0
 40
0.0
 40
0.0
 40
0.2998768675
 40
0.5546946299
 40
0.7834854353
 40
1.0
 40
1.0
 40
1.0
 40
1.0
 10
245.8925060798
 20
157.923878749
 30
0.0
 10
245.9737871945
 20
157.9238847031
 30
0.0
 10
246.1262952682
 20
157.8919439689
 30
0.0
 10
246.3043451676
 20
157.7671499564
 30
0.0
 10
246.4104857233
 20
157.6044496688
 30
0.0
 10
246.4341510613
 20
157.4825646496
 30
0.0
 10
246.4341727464
 20
157.423878749
 30
0.0
  0
SPLINE
  5
433
100
AcDbEntity
  8
RUNDUNGEN
100
AcDbSpline
 62
7
  6
CONTINUOUS
 70
0
 71
3
 72
14
 73
10
 74
0
 42
0.0000001
 43
0.0000001
 44
0.0000000001
 40
0.0
 40
0.0
 40
0.0
 40
0.0
 40
0.062098221
 40
0.138982594
 40
0.2373347269
 40
0.3579541531
 40
0.4988840303
 40
0.6563915971
 40
1.0
 40
1.0
 40
1.0
 40
1.0
 10
210.4341727464
 20
146.423878749
 30
0.0
 10
210.422619437
 20
146.423878749
 30
0.0
 10
210.3967166091
 20
146.4324828338
 30
0.0
 10
210.3645179742
 20
146.4638340341
 30
0.0
 10
210.3357774785
 20
146.5111669946
 30
0.0
 10
210.3106913383
 20
146.5734713497
 30
0.0
 10
210.2900945558
 20
146.6488045316
 30
0.0
 10
210.2690294678
 20
146.7664902139
 30
0.0
 10
210.2631626568
 20
146.8599507633
 30
0.0
 10
210.2631626748
 20
146.923878749
 30
0.0
  0
LINE
  5
434
100
AcDbEntity
  8
RUNDUNGEN
100
AcDbLine
 62
7
  6
CONTINUOUS
 10
221.4341727464
 20
149.923878749
 11
221.4341727464
 21
150.3244038285
  0
LINE
  5
435
100
AcDbEntity
  8
RUNDUNGEN
100
AcDbLine
 62
7
  6
CONTINUOUS
 10
221.4341727464
 20
154.5233536695
 11
221.4341727464
 21
154.923878749
  0
SPLINE
  5
436
100
AcDbEntity
  8
RUNDUNGEN
100
AcDbSpline
 62
7
  6
CONTINUOUS
 70
0
 71
3
 72
12
 73
8
 74
0
 42
0.0000001
 43
0.0000001
 44
0.0000000001
 40
0.0
 40
0.0
 40
0.0
 40
0.0
 40
0.3732052229
 40
0.6896236538
 40
0.9041213404
 40
0.9655099792
 40
1.0
 40
1.0
 40
1.0
 40
1.0
 10
221.4341727464
 20
157.923878749
 30
0.0
 10
221.4341727464
 20
157.9880294139
 30
0.0
 10
221.4306714139
 20
158.106796905
 30
0.0
 10
221.4162993892
 20
158.2609887323
 30
0.0
 10
221.3961626626
 20
158.3624891017
 30
0.0
 10
221.3765618584
 20
158.4110384467
 30
0.0
 10
221.3624732205
 20
158.423878749
 30
0.0
 10
221.3565446921
 20
158.423878749
 30
0.0
  0
SPLINE
  5
437
100
AcDbEntity
  8
RUNDUNGEN
100
AcDbSpline
 62
7
  6
CONTINUOUS
 70
0
 71
3
 72
9
 73
5
 74
0
 42
0.0000001
 43
0.0000001
 44
0.0000000001
 40
0.0
 40
0.0
 40
0.0
 40
0.0
 40
0.4759316631
 40
1.0
 40
1.0
 40
1.0
 40
1.0
 10
218.1908784294
 20
158.423878749
 30
0.0
 10
218.1211773571
 20
158.4238787521
 30
0.0
 10
217.9749051257
 20
158.4147681484
 30
0.0
 10
217.8285184094
 20
158.4095653574
 30
0.0
 10
217.7517680878
 20
158.4093008805
 30
0.0
  0
SPLINE
  5
438
100
AcDbEntity
  8
RUNDUNGEN
100
AcDbSpline
 62
7
  6
CONTINUOUS
 70
0
 71
3
 72
12
 73
8
 74
0
 42
0.0000001
 43
0.0000001
 44
0.0000000001
 40
0.0
 40
0.0
 40
0.0
 40
0.0
 40
0.3732052229
 40
0.6896236538
 40
0.9041213404
 40
0.9655099792
 40
1.0
 40
1.0
 40
1.0
 40
1.0
 10
232.4341727464
 20
157.923878749
 30
0.0
 10
232.4341727464
 20
157.9880294139
 30
0.0
 10
232.4306714139
 20
158.106796905
 30
0.0
 10
232.4162993892
 20
158.2609887323
 30
0.0
 10
232.3961626626
 20
158.3624891017
 30
0.0
 10
232.3765618584
 20
158.4110384467
 30
0.0
 10
232.3624732205
 20
158.423878749
 30
0.0
 10
232.3565446921
 20
158.423878749
 30
0.0
  0
SPLINE
  5
439
100
AcDbEntity
  8
RUNDUNGEN
100
AcDbSpline
 62
7
  6
CONTINUOUS
 70
0
 71
3
 72
9
 73
5
 74
0
 42
0.0000001
 43
0.0000001
 44
0.0000000001
 40
0.0
 40
0.0
 40
0.0
 40
0.0
 40
0.2463215986
 40
1.0
 40
1.0
 40
1.0
 40
1.0
 10
217.7517680878
 20
158.4093008805
 30
0.0
 10
217.725679618
 20
158.4092109393
 30
0.0
 10
217.619759416
 20
158.4099036304
 30
0.0
 10
217.5139217792
 20
158.414565469
 30
0.0
 10
217.4341727464
 20
158.4180295973
 30
0.0
  0
SPLINE
  5
43A
100
AcDbEntity
  8
RUNDUNGEN
100
AcDbSpline
 62
7
  6
CONTINUOUS
 70
0
 71
3
 72
10
 73
6
 74
0
 42
0.0000001
 43
0.0000001
 44
0.0000000001
 40
0.0
 40
0.0
 40
0.0
 40
0.0
 40
0.6126878548
 40
0.8368166473
 40
1.0
 40
1.0
 40
1.0
 40
1.0
 10
217.8271459457
 20
158.1744501614
 30
0.0
 10
217.8201126031
 20
158.2248491218
 30
0.0
 10
217.8074189752
 20
158.293796935
 30
0.0
 10
217.7781977068
 20
158.3715651734
 30
0.0
 10
217.7612329852
 20
158.3995999082
 30
0.0
 10
217.7517680878
 20
158.4093008805
 30
0.0
  0
SPLINE
  5
43B
100
AcDbEntity
  8
RUNDUNGEN
100
AcDbSpline
 62
7
  6
CONTINUOUS
 70
0
 71
3
 72
12
 73
8
 74
0
 42
0.0000001
 43
0.0000001
 44
0.0000000001
 40
0.0
 40
0.0
 40
0.0
 40
0.0
 40
0.3732052229
 40
0.6896236538
 40
0.9041213404
 40
0.9655099792
 40
1.0
 40
1.0
 40
1.0
 40
1.0
 10
232.4341727464
 20
146.923878749
 30
0.0
 10
232.4341727464
 20
146.8597280842
 30
0.0
 10
232.4306714139
 20
146.740960593
 30
0.0
 10
232.4162993892
 20
146.5867687658
 30
0.0
 10
232.3961626626
 20
146.4852683963
 30
0.0
 10
232.3765618584
 20
146.4367190514
 30
0.0
 10
232.3624732205
 20
146.423878749
 30
0.0
 10
232.3565446921
 20
146.423878749
 30
0.0
  0
SPLINE
  5
43C
100
AcDbEntity
  8
RUNDUNGEN
100
AcDbSpline
 62
7
  6
CONTINUOUS
 70
0
 71
3
 72
11
 73
7
 74
0
 42
0.0000001
 43
0.0000001
 44
0.0000000001
 40
0.0
 40
0.0
 40
0.0
 40
0.0
 40
0.2599511581
 40
0.5141874108
 40
0.7601167109
 40
1.0
 40
1.0
 40
1.0
 40
1.0
 10
245.8925060787
 20
146.923878749
 30
0.0
 10
245.8925073492
 20
146.8590467292
 30
0.0
 10
245.869317285
 20
146.729573281
 30
0.0
 10
245.7688731679
 20
146.5636385956
 30
0.0
 10
245.6166301815
 20
146.4507611882
 30
0.0
 10
245.4939998222
 20
146.423878749
 30
0.0
 10
245.4341727444
 20
146.423878749
 30
0.0
  0
SPLINE
  5
43D
100
AcDbEntity
  8
RUNDUNGEN
100
AcDbSpline
 62
7
  6
CONTINUOUS
 70
0
 71
3
 72
8
 73
4
 74
0
 42
0.0000001
 43
0.0000001
 44
0.0000000001
 40
0.0
 40
0.0
 40
0.0
 40
0.0
 40
1.0
 40
1.0
 40
1.0
 40
1.0
 10
217.4341727464
 20
158.4180295973
 30
0.0
 10
217.3657298747
 20
158.42100261
 30
0.0
 10
217.2972411725
 20
158.423878735
 30
0.0
 10
217.2287337605
 20
158.423878749
 30
0.0
  0
SPLINE
  5
43E
100
AcDbEntity
  8
RUNDUNGEN
100
AcDbSpline
 62
7
  6
CONTINUOUS
 70
0
 71
3
 72
12
 73
8
 74
0
 42
0.0000001
 43
0.0000001
 44
0.0000000001
 40
0.0
 40
0.0
 40
0.0
 40
0.0
 40
0.3732052229
 40
0.6896236538
 40
0.9041213404
 40
0.9655099792
 40
1.0
 40
1.0
 40
1.0
 40
1.0
 10
221.4341727464
 20
146.923878749
 30
0.0
 10
221.4341727464
 20
146.8597280842
 30
0.0
 10
221.4306714139
 20
146.740960593
 30
0.0
 10
221.4162993892
 20
146.5867687658
 30
0.0
 10
221.3961626626
 20
146.4852683963
 30
0.0
 10
221.3765618584
 20
146.4367190514
 30
0.0
 10
221.3624732205
 20
146.423878749
 30
0.0
 10
221.3565446921
 20
146.423878749
 30
0.0
  0
SPLINE
  5
43F
100
AcDbEntity
  8
RUNDUNGEN
100
AcDbSpline
 62
7
  6
CONTINUOUS
 70
0
 71
3
 72
13
 73
9
 74
0
 42
0.0000001
 43
0.0000001
 44
0.0000000001
 40
0.0
 40
0.0
 40
0.0
 40
0.0
 40
0.3936879943
 40
0.709337526
 40
0.8273296528
 40
0.9150769251
 40
0.9715743899
 40
1.0
 40
1.0
 40
1.0
 40
1.0
 10
221.4341727464
 20
154.5233536695
 30
0.0
 10
221.3894288166
 20
154.5065370349
 30
0.0
 10
221.309350158
 20
154.4749687303
 30
0.0
 10
221.217383903
 20
154.4339070132
 30
0.0
 10
221.1614465912
 20
154.4048215378
 30
0.0
 10
221.1340572916
 20
154.3874761086
 30
0.0
 10
221.1180972779
 20
154.375589568
 30
0.0
 10
221.111457216
 20
154.3651210763
 30
0.0
 10
221.1125718215
 20
154.361854707
 30
0.0
  0
SPLINE
  5
440
100
AcDbEntity
  8
RUNDUNGEN
100
AcDbSpline
 62
7
  6
CONTINUOUS
 70
0
 71
3
 72
13
 73
9
 74
0
 42
0.0000001
 43
0.0000001
 44
0.0000000001
 40
0.0
 40
0.0
 40
0.0
 40
0.0
 40
0.3936740358
 40
0.7093230449
 40
0.8273182264
 40
0.9150697888
 40
0.9715719043
 40
1.0
 40
1.0
 40
1.0
 40
1.0
 10
221.4341753577
 20
150.3244038287
 30
0.0
 10
221.3894263858
 20
150.341221631
 30
0.0
 10
221.3093375209
 20
150.3727927065
 30
0.0
 10
221.217358591
 20
150.4138580275
 30
0.0
 10
221.1614120333
 20
150.4429468271
 30
0.0
 10
221.1340166062
 20
150.4602941831
 30
0.0
 10
221.1180532546
 20
150.4721829054
 30
0.0
 10
221.1114095554
 20
150.4826518421
 30
0.0
 10
221.1125234532
 20
150.4859192923
 30
0.0
  0
SPLINE
  5
441
100
AcDbEntity
  8
RUNDUNGEN
100
AcDbSpline
 62
7
  6
CONTINUOUS
 70
0
 71
3
 72
9
 73
5
 74
0
 42
0.0000001
 43
0.0000001
 44
0.0000000001
 40
0.0
 40
0.0
 40
0.0
 40
0.0
 40
0.2506052522
 40
1.0
 40
1.0
 40
1.0
 40
1.0
 10
217.0488549045
 20
158.3080179513
 30
0.0
 10
216.9148925232
 20
158.3269321297
 30
0.0
 10
216.3791784346
 20
158.3938447802
 30
0.0
 10
215.8387388701
 20
158.4238853807
 30
0.0
 10
215.4341727464
 20
158.423878749
 30
0.0
  0
SPLINE
  5
442
100
AcDbEntity
  8
RUNDUNGEN
100
AcDbSpline
 62
7
  6
CONTINUOUS
 70
0
 71
3
 72
9
 73
5
 74
0
 42
0.0000001
 43
0.0000001
 44
0.0000000001
 40
0.0
 40
0.0
 40
0.0
 40
0.0
 40
0.5028172722
 40
1.0
 40
1.0
 40
1.0
 40
1.0
 10
218.8982743616
 20
146.923878749
 30
0.0
 10
218.3296873125
 20
146.7744201809
 30
0.0
 10
217.1863710589
 20
146.5185999602
 30
0.0
 10
216.015487028
 20
146.4238765304
 30
0.0
 10
215.4341727464
 20
146.423878749
 30
0.0
  0
SPLINE
  5
443
100
AcDbEntity
  8
RUNDUNGEN
100
AcDbSpline
 62
7
  6
CONTINUOUS
 70
0
 71
3
 72
9
 73
5
 74
0
 42
0.0000001
 43
0.0000001
 44
0.0000000001
 40
0.0
 40
0.0
 40
0.0
 40
0.0
 40
0.2507583744
 40
1.0
 40
1.0
 40
1.0
 40
1.0
 10
218.8982743616
 20
157.923878749
 30
0.0
 10
218.8093312015
 20
157.9472496666
 30
0.0
 10
218.4541316584
 20
158.038493509
 30
0.0
 10
218.0964797
 20
158.1204529129
 30
0.0
 10
217.8270669107
 20
158.1744705875
 30
0.0
  0
SPLINE
  5
444
100
AcDbEntity
  8
RUNDUNGEN
100
AcDbSpline
 62
7
  6
CONTINUOUS
 70
0
 71
3
 72
9
 73
5
 74
0
 42
0.0000001
 43
0.0000001
 44
0.0000000001
 40
0.0
 40
0.0
 40
0.0
 40
0.0
 40
0.4999688498
 40
1.0
 40
1.0
 40
1.0
 40
1.0
 10
56.9011788003
 20
86.3591893943
 30
0.0
 10
56.8041949051
 20
86.6653125624
 30
0.0
 10
56.5794742471
 20
87.2677754764
 30
0.0
 10
56.3275804474
 20
87.8585376881
 30
0.0
 10
56.2015900264
 20
88.1539516078
 30
0.0
  0
LINE
  5
445
100
AcDbEntity
  8
RUNDUNGEN
100
AcDbLine
 62
7
  6
CONTINUOUS
 10
73.7016809964
 20
88.1537358568
 11
74.2016809964
 21
88.0655723665
  0
SPLINE
  5
446
100
AcDbEntity
  8
RUNDUNGEN
100
AcDbSpline
 62
7
  6
CONTINUOUS
 70
0
 71
3
 72
9
 73
5
 74
0
 42
0.0000001
 43
0.0000001
 44
0.0000000001
 40
0.0
 40
0.0
 40
0.0
 40
0.0
 40
0.7499831766
 40
1.0
 40
1.0
 40
1.0
 40
1.0
 10
81.2016507994
 20
88.1538071649
 30
0.0
 10
81.3905507455
 20
87.7108271257
 30
0.0
 10
81.643026542
 20
87.1198100562
 30
0.0
 10
81.8525618233
 20
86.5125624
 30
0.0
 10
81.9010546262
 20
86.3595220433
 30
0.0
  0
SPLINE
  5
447
100
AcDbEntity
  8
RUNDUNGEN
100
AcDbSpline
 62
7
  6
CONTINUOUS
 70
0
 71
3
 72
11
 73
7
 74
0
 42
0.0000001
 43
0.0000001
 44
0.0000000001
 40
0.0
 40
0.0
 40
0.0
 40
0.0
 40
0.2501652317
 40
0.5003101893
 40
0.7503209319
 40
1.0
 40
1.0
 40
1.0
 40
1.0
 10
145.3578968127
 20
83.1538520305
 30
0.0
 10
145.1046555023
 20
82.9776585075
 30
0.0
 10
144.5985367564
 20
82.6247916082
 30
0.0
 10
143.8730605038
 20
82.0479709715
 30
0.0
 10
143.232086692
 20
81.3759787412
 30
0.0
 10
142.9170295608
 20
80.8336221807
 30
0.0
 10
142.8117403513
 20
80.5442782003
 30
0.0
  0
SPLINE
  5
448
100
AcDbEntity
  8
RUNDUNGEN
100
AcDbSpline
 62
7
  6
CONTINUOUS
 70
0
 71
3
 72
11
 73
7
 74
0
 42
0.0000001
 43
0.0000001
 44
0.0000000001
 40
0.0
 40
0.0
 40
0.0
 40
0.0
 40
0.2496899904
 40
0.4997021451
 40
0.7498319471
 40
1.0
 40
1.0
 40
1.0
 40
1.0
 10
113.0178460911
 20
84.385520628
 30
0.0
 10
112.8637842162
 20
84.7668407021
 30
0.0
 10
112.4480311492
 20
85.4868263743
 30
0.0
 10
111.6611845711
 20
86.4415324728
 30
0.0
 10
110.7878089423
 20
87.3174494044
 30
0.0
 10
110.1809330382
 20
87.8748636846
 30
0.0
 10
109.8775872437
 20
88.1537358568
 30
0.0
  0
LINE
  5
449
100
AcDbEntity
  8
RUNDUNGEN
100
AcDbLine
 62
7
  6
CONTINUOUS
 10
77.0853444904
 20
82.1537358568
 11
77.1846439096
 21
82.4958193745
  0
SPLINE
  5
44A
100
AcDbEntity
  8
RUNDUNGEN
100
AcDbSpline
 62
7
  6
CONTINUOUS
 70
0
 71
3
 72
8
 73
4
 74
0
 42
0.0000001
 43
0.0000001
 44
0.0000000001
 40
0.0
 40
0.0
 40
0.0
 40
0.0
 40
1.0
 40
1.0
 40
1.0
 40
1.0
 10
76.2016809964
 20
84.6896342417
 30
0.0
 10
76.2016527397
 20
84.9263663252
 30
0.0
 10
76.2253153761
 20
85.1635510869
 30
0.0
 10
76.2641291462
 20
85.3970796106
 30
0.0
  0
LINE
  5
44B
100
AcDbEntity
  8
RUNDUNGEN
100
AcDbLine
 62
7
  6
CONTINUOUS
 10
102.0853444904
 20
82.1537358568
 11
102.1846439096
 21
82.4958193745
  0
SPLINE
  5
44C
100
AcDbEntity
  8
RUNDUNGEN
100
AcDbSpline
 62
7
  6
CONTINUOUS
 70
0
 71
3
 72
12
 73
8
 74
0
 42
0.0000001
 43
0.0000001
 44
0.0000000001
 40
0.0
 40
0.0
 40
0.0
 40
0.0
 40
0.1007055032
 40
0.2047641132
 40
0.433599766
 40
0.7008152669
 40
1.0
 40
1.0
 40
1.0
 40
1.0
 10
124.8299505319
 20
57.1537358568
 30
0.0
 10
124.7769501483
 20
57.1537797166
 30
0.0
 10
124.6688689343
 20
57.1653912119
 30
0.0
 10
124.4504645827
 20
57.2362452239
 30
0.0
 10
124.1853807318
 20
57.4196709423
 30
0.0
 10
123.9176154907
 20
57.7456763693
 30
0.0
 10
123.7763403047
 20
58.0100602657
 30
0.0
 10
123.7119165431
 20
58.1537358568
 30
0.0
  0
SPLINE
  5
44D
100
AcDbEntity
  8
RUNDUNGEN
100
AcDbSpline
 62
7
  6
CONTINUOUS
 70
0
 71
3
 72
8
 73
4
 74
0
 42
0.0000001
 43
0.0000001
 44
0.0000000001
 40
0.0
 40
0.0
 40
0.0
 40
0.0
 40
1.0
 40
1.0
 40
1.0
 40
1.0
 10
57.2016809964
 20
84.6896342417
 30
0.0
 10
57.2017196741
 20
84.926360965
 30
0.0
 10
57.1780640129
 20
85.1635427717
 30
0.0
 10
57.1392392674
 20
85.3970640388
 30
0.0
  0
LINE
  5
44E
100
AcDbEntity
  8
RUNDUNGEN
100
AcDbLine
 62
7
  6
CONTINUOUS
 10
85.2016809964
 20
69.0915580303
 11
85.7016809964
 21
69.1573842791
  0
LINE
  5
44F
100
AcDbEntity
  8
RUNDUNGEN
100
AcDbLine
 62
7
  6
CONTINUOUS
 10
57.1677673803
 20
94.1537038713
 11
59.1695921102
 21
88.1537358568
  0
LINE
  5
450
100
AcDbEntity
  8
RUNDUNGEN
100
AcDbLine
 62
7
  6
CONTINUOUS
 10
98.2016809964
 20
69.0915580303
 11
97.7016809964
 21
69.1573842791
  0
LINE
  5
451
100
AcDbEntity
  8
RUNDUNGEN
100
AcDbLine
 62
7
  6
CONTINUOUS
 10
81.7016809964
 20
82.1537358568
 11
82.2016809964
 21
82.2195621056
  0
LINE
  5
452
100
AcDbEntity
  8
RUNDUNGEN
100
AcDbLine
 62
7
  6
CONTINUOUS
 10
60.2016809964
 20
71.1537358568
 11
60.7016809964
 21
71.2313639112
  0
LINE
  5
453
100
AcDbEntity
  8
RUNDUNGEN
100
AcDbLine
 62
7
  6
CONTINUOUS
 10
76.7016809964
 20
82.1537358568
 11
76.2016809964
 21
82.2195621056
  0
LINE
  5
454
100
AcDbEntity
  8
RUNDUNGEN
100
AcDbLine
 62
7
  6
CONTINUOUS
 10
98.7016809964
 20
88.1537358568
 11
99.2016809964
 21
88.0655723665
  0
LINE
  5
455
100
AcDbEntity
  8
RUNDUNGEN
100
AcDbLine
 62
7
  6
CONTINUOUS
 10
82.1677673803
 20
94.1537038713
 11
84.1695921102
 21
88.1537358568
  0
LINE
  5
456
100
AcDbEntity
  8
RUNDUNGEN
100
AcDbLine
 62
7
  6
CONTINUOUS
 10
56.7016809964
 20
82.1537358568
 11
57.2016809964
 21
82.2313639112
  0
LINE
  5
457
100
AcDbEntity
  8
RUNDUNGEN
100
AcDbLine
 62
7
  6
CONTINUOUS
 10
59.7016809964
 20
88.1537358568
 11
59.2016809964
 21
88.0655723665
  0
SPLINE
  5
458
100
AcDbEntity
  8
RUNDUNGEN
100
AcDbSpline
 62
7
  6
CONTINUOUS
 70
0
 71
3
 72
12
 73
8
 74
0
 42
0.0000001
 43
0.0000001
 44
0.0000000001
 40
0.0
 40
0.0
 40
0.0
 40
0.0
 40
0.1239416122
 40
0.2481606509
 40
0.4975916529
 40
0.7483868965
 40
1.0
 40
1.0
 40
1.0
 40
1.0
 10
112.554251006
 20
84.1982262495
 30
0.0
 10
112.4801177247
 20
84.3817130783
 30
0.0
 10
112.3104134798
 20
84.7406041466
 30
0.0
 10
111.9154431708
 20
85.4304855093
 30
0.0
 10
111.352028874
 20
86.2545477905
 30
0.0
 10
110.6258169481
 20
87.210484786
 30
0.0
 10
110.1271787444
 20
87.8389240574
 30
0.0
 10
109.8775872438
 20
88.1537358567
 30
0.0
  0
LINE
  5
459
100
AcDbEntity
  8
RUNDUNGEN
100
AcDbLine
 62
7
  6
CONTINUOUS
 10
73.2016809964
 20
69.0915580303
 11
72.7016809964
 21
69.1573842791
  0
SPLINE
  5
45A
100
AcDbEntity
  8
RUNDUNGEN
100
AcDbSpline
 62
7
  6
CONTINUOUS
 70
0
 71
3
 72
8
 73
4
 74
0
 42
0.0000001
 43
0.0000001
 44
0.0000000001
 40
0.0
 40
0.0
 40
0.0
 40
0.0
 40
1.0
 40
1.0
 40
1.0
 40
1.0
 10
82.1393353987
 20
85.3965045263
 30
0.0
 10
82.1781166518
 20
85.1631672162
 30
0.0
 10
82.2016872788
 20
84.9261723693
 30
0.0
 10
82.2016809964
 20
84.6896342417
 30
0.0
  0
LINE
  5
45B
100
AcDbEntity
  8
RUNDUNGEN
100
AcDbLine
 62
7
  6
CONTINUOUS
 10
74.2337698827
 20
88.1537358568
 11
76.2355946308
 21
94.153703915
  0
LINE
  5
45C
100
AcDbEntity
  8
RUNDUNGEN
100
AcDbLine
 62
7
  6
CONTINUOUS
 10
99.2337698827
 20
88.1537358568
 11
101.2355946308
 21
94.153703915
  0
LINE
  5
45D
100
AcDbEntity
  8
RUNDUNGEN
100
AcDbLine
 62
7
  6
CONTINUOUS
 10
117.1852989652
 20
88.1537358568
 11
114.9631547536
 21
94.1537358461
  0
SPLINE
  5
45E
100
AcDbEntity
  8
RUNDUNGEN
100
AcDbSpline
 62
7
  6
CONTINUOUS
 70
0
 71
3
 72
11
 73
7
 74
0
 42
0.0000001
 43
0.0000001
 44
0.0000000001
 40
0.0
 40
0.0
 40
0.0
 40
0.0
 40
0.2529030582
 40
0.5039639388
 40
0.7526211021
 40
1.0
 40
1.0
 40
1.0
 40
1.0
 10
145.3577768934
 20
83.1537440149
 30
0.0
 10
145.1613468375
 20
82.9351536555
 30
0.0
 10
144.7699815173
 20
82.4995925662
 30
0.0
 10
144.1974063639
 20
81.8379688047
 30
0.0
 10
143.6664436792
 20
81.1513036696
 30
0.0
 10
143.3799266851
 20
80.6434653819
 30
0.0
 10
143.2816141683
 20
80.3733369655
 30
0.0
  0
SPLINE
  5
45F
100
AcDbEntity
  8
RUNDUNGEN
100
AcDbSpline
 62
7
  6
CONTINUOUS
 70
0
 71
3
 72
11
 73
7
 74
0
 42
0.0000001
 43
0.0000001
 44
0.0000000001
 40
0.0
 40
0.0
 40
0.0
 40
0.0
 40
0.267336808
 40
0.5223336268
 40
0.7647966574
 40
1.0
 40
1.0
 40
1.0
 40
1.0
 10
69.0995967585
 20
58.1537358571
 30
0.0
 10
68.9216192983
 20
57.9982271286
 30
0.0
 10
68.5527038266
 20
57.7173088844
 30
0.0
 10
67.9540990284
 20
57.3959554992
 30
0.0
 10
67.3331235814
 20
57.1983167142
 30
0.0
 10
66.9096176626
 20
57.1537610053
 30
0.0
 10
66.7016809964
 20
57.1537358568
 30
0.0
  0
SPLINE
  5
460
100
AcDbEntity
  8
RUNDUNGEN
100
AcDbSpline
 62
7
  6
CONTINUOUS
 70
0
 71
3
 72
11
 73
7
 74
0
 42
0.0000001
 43
0.0000001
 44
0.0000000001
 40
0.0
 40
0.0
 40
0.0
 40
0.0
 40
0.2673386034
 40
0.5223335665
 40
0.7647967403
 40
1.0
 40
1.0
 40
1.0
 40
1.0
 10
64.303851843
 20
58.1536660762
 30
0.0
 10
64.4818377004
 20
57.9981794843
 30
0.0
 10
64.8507328056
 20
57.7172714928
 30
0.0
 10
65.4493099249
 20
57.3959204534
 30
0.0
 10
66.0702657265
 20
57.1983154069
 30
0.0
 10
66.4937530498
 20
57.1537580464
 30
0.0
 10
66.7016809964
 20
57.1537358568
 30
0.0
  0
SPLINE
  5
461
100
AcDbEntity
  8
RUNDUNGEN
100
AcDbSpline
 62
7
  6
CONTINUOUS
 70
0
 71
3
 72
11
 73
7
 74
0
 42
0.0000001
 43
0.0000001
 44
0.0000000001
 40
0.0
 40
0.0
 40
0.0
 40
0.0
 40
0.2352033662
 40
0.4776663916
 40
0.7326632005
 40
1.0
 40
1.0
 40
1.0
 40
1.0
 10
91.7016809964
 20
57.1537358568
 30
0.0
 10
91.4937443095
 20
57.1537613484
 30
0.0
 10
91.0702383719
 20
57.1983164704
 30
0.0
 10
90.4492628927
 20
57.3959554968
 30
0.0
 10
89.8506583157
 20
57.7173091087
 30
0.0
 10
89.481742576
 20
57.9982270045
 30
0.0
 10
89.3037652344
 20
58.1537358571
 30
0.0
  0
SPLINE
  5
462
100
AcDbEntity
  8
RUNDUNGEN
100
AcDbSpline
 62
7
  6
CONTINUOUS
 70
0
 71
3
 72
11
 73
7
 74
0
 42
0.0000001
 43
0.0000001
 44
0.0000000001
 40
0.0
 40
0.0
 40
0.0
 40
0.0
 40
0.2352032608
 40
0.4776664404
 40
0.7326615097
 40
1.0
 40
1.0
 40
1.0
 40
1.0
 10
91.7016809964
 20
57.1537358568
 30
0.0
 10
91.9096088251
 20
57.1537583141
 30
0.0
 10
92.3330959277
 20
57.198315148
 30
0.0
 10
92.9540514499
 20
57.3959202764
 30
0.0
 10
93.5526284035
 20
57.7172708831
 30
0.0
 10
93.9215228807
 20
57.9981791607
 30
0.0
 10
94.0995089727
 20
58.1536651267
 30
0.0
  0
SPLINE
  5
463
100
AcDbEntity
  8
RUNDUNGEN
100
AcDbSpline
 62
7
  6
CONTINUOUS
 70
0
 71
3
 72
12
 73
8
 74
0
 42
0.0000001
 43
0.0000001
 44
0.0000000001
 40
0.0
 40
0.0
 40
0.0
 40
0.0
 40
0.2991844427
 40
0.566399384
 40
0.7952350821
 40
0.8992913744
 40
1.0
 40
1.0
 40
1.0
 40
1.0
 10
134.5479845206
 20
58.1537358568
 30
0.0
 10
134.4835573226
 20
58.010061939
 30
0.0
 10
134.3422886573
 20
57.745675248
 30
0.0
 10
134.0745202175
 20
57.419672382
 30
0.0
 10
133.8094392416
 20
57.2362456888
 30
0.0
 10
133.5910341452
 20
57.165391373
 30
0.0
 10
133.4829525683
 20
57.1537811415
 30
0.0
 10
133.4299505319
 20
57.1537358568
 30
0.0
  0
LINE
  5
464
100
AcDbEntity
  8
RUNDUNGEN
100
AcDbLine
 62
7
  6
CONTINUOUS
 10
56.3360720667
 20
82.1537358647
 11
56.2252181064
 21
82.4753341689
  0
LINE
  5
465
100
AcDbEntity
  8
RUNDUNGEN
100
AcDbLine
 62
7
  6
CONTINUOUS
 10
143.4378145313
 20
96.1537358568
 11
142.5278889456
 21
93.1537358568
  0
SPLINE
  5
466
100
AcDbEntity
  8
RUNDUNGEN
100
AcDbSpline
 62
7
  6
CONTINUOUS
 70
0
 71
3
 72
10
 73
6
 74
0
 42
0.0000001
 43
0.0000001
 44
0.0000000001
 40
0.0
 40
0.0
 40
0.0
 40
0.0
 40
0.2499238906
 40
0.4999361684
 40
1.0
 40
1.0
 40
1.0
 40
1.0
 10
101.7016809964
 20
85.6537358568
 30
0.0
 10
101.7016809965
 20
85.8667371332
 30
0.0
 10
101.7406143658
 20
86.2928050717
 30
0.0
 10
101.9051639696
 20
87.1296016765
 30
0.0
 10
102.0834780776
 20
87.7442689347
 30
0.0
 10
102.2016809964
 20
88.1537358568
 30
0.0
  0
SPLINE
  5
467
100
AcDbEntity
  8
RUNDUNGEN
100
AcDbSpline
 62
7
  6
CONTINUOUS
 70
0
 71
3
 72
11
 73
7
 74
0
 42
0.0000001
 43
0.0000001
 44
0.0000000001
 40
0.0
 40
0.0
 40
0.0
 40
0.0
 40
0.2591633486
 40
0.5130566939
 40
0.7593046645
 40
1.0
 40
1.0
 40
1.0
 40
1.0
 10
102.2016809964
 20
82.6152743183
 30
0.0
 10
102.1368342179
 20
82.6152743183
 30
0.0
 10
102.0072101414
 20
82.5918715128
 30
0.0
 10
101.8412433329
 20
82.4905971919
 30
0.0
 10
101.7284891141
 20
82.3372689831
 30
0.0
 10
101.7016809965
 20
82.213961646
 30
0.0
 10
101.7016809964
 20
82.1537358571
 30
0.0
  0
LINE
  5
468
100
AcDbEntity
  8
RUNDUNGEN
100
AcDbLine
 62
7
  6
CONTINUOUS
 10
81.3180175028
 20
82.1537358565
 11
81.2187180833
 21
82.4958193745
  0
SPLINE
  5
469
100
AcDbEntity
  8
RUNDUNGEN
100
AcDbSpline
 62
7
  6
CONTINUOUS
 70
0
 71
3
 72
11
 73
7
 74
0
 42
0.0000001
 43
0.0000001
 44
0.0000000001
 40
0.0
 40
0.0
 40
0.0
 40
0.0
 40
0.2565752146
 40
0.508927477
 40
0.7562526322
 40
1.0
 40
1.0
 40
1.0
 40
1.0
 10
102.1846439096
 20
82.4958211431
 30
0.0
 10
102.1303099426
 20
82.497433753
 30
0.0
 10
102.0212712562
 20
82.4835759003
 30
0.0
 10
101.8741020475
 20
82.4133732144
 30
0.0
 10
101.7604421749
 20
82.3000216261
 30
0.0
 10
101.7150464218
 20
82.2036164621
 30
0.0
 10
101.7016809964
 20
82.1537358568
 30
0.0
  0
LINE
  5
46A
100
AcDbEntity
  8
RUNDUNGEN
100
AcDbLine
 62
7
  6
CONTINUOUS
 10
143.9018885346
 20
80.1537358568
 11
145.3578258901
 21
83.1538520316
  0
SPLINE
  5
46B
100
AcDbEntity
  8
RUNDUNGEN
100
AcDbSpline
 62
7
  6
CONTINUOUS
 70
0
 71
3
 72
9
 73
5
 74
0
 42
0.0000001
 43
0.0000001
 44
0.0000000001
 40
0.0
 40
0.0
 40
0.0
 40
0.0
 40
0.5017918709
 40
1.0
 40
1.0
 40
1.0
 40
1.0
 10
81.6230628619
 20
85.7494326906
 30
0.0
 10
81.6456132416
 20
85.5730295012
 30
0.0
 10
81.6840605271
 20
85.2206215121
 30
0.0
 10
81.7016824691
 20
84.866202842
 30
0.0
 10
81.7016809964
 20
84.6896342417
 30
0.0
  0
SPLINE
  5
46C
100
AcDbEntity
  8
RUNDUNGEN
100
AcDbSpline
 62
7
  6
CONTINUOUS
 70
0
 71
3
 72
9
 73
5
 74
0
 42
0.0000001
 43
0.0000001
 44
0.0000000001
 40
0.0
 40
0.0
 40
0.0
 40
0.0
 40
0.2500206055
 40
1.0
 40
1.0
 40
1.0
 40
1.0
 10
76.5021982065
 20
86.359139417
 30
0.0
 10
76.5506919717
 20
86.5122099758
 30
0.0
 10
76.7602218739
 20
87.1195723202
 30
0.0
 10
77.0127323269
 20
87.7106923173
 30
0.0
 10
77.2016809964
 20
88.1537358568
 30
0.0
  0
SPLINE
  5
46D
100
AcDbEntity
  8
RUNDUNGEN
100
AcDbSpline
 62
7
  6
CONTINUOUS
 70
0
 71
3
 72
11
 73
7
 74
0
 42
0.0000001
 43
0.0000001
 44
0.0000000001
 40
0.0
 40
0.0
 40
0.0
 40
0.0
 40
0.2406953355
 40
0.4869433063
 40
0.7408366515
 40
1.0
 40
1.0
 40
1.0
 40
1.0
 10
81.7016809964
 20
82.1537358569
 30
0.0
 10
81.7016809964
 20
82.2139616457
 30
0.0
 10
81.6748728788
 20
82.3372689829
 30
0.0
 10
81.5621186599
 20
82.4905971916
 30
0.0
 10
81.3961518513
 20
82.5918715122
 30
0.0
 10
81.2665277749
 20
82.6152743175
 30
0.0
 10
81.2016809964
 20
82.6152743174
 30
0.0
  0
SPLINE
  5
46E
100
AcDbEntity
  8
RUNDUNGEN
100
AcDbSpline
 62
7
  6
CONTINUOUS
 70
0
 71
3
 72
9
 73
5
 74
0
 42
0.0000001
 43
0.0000001
 44
0.0000000001
 40
0.0
 40
0.0
 40
0.0
 40
0.0
 40
0.5025773992
 40
1.0
 40
1.0
 40
1.0
 40
1.0
 10
81.2016809964
 20
88.1537358568
 30
0.0
 10
81.2801192451
 20
87.752358485
 30
0.0
 10
81.4362406424
 20
86.953819309
 30
0.0
 10
81.5717402607
 20
86.150941015
 30
0.0
 10
81.6230628619
 20
85.7494326906
 30
0.0
  0
SPLINE
  5
46F
100
AcDbEntity
  8
RUNDUNGEN
100
AcDbSpline
 62
7
  6
CONTINUOUS
 70
0
 71
3
 72
11
 73
7
 74
0
 42
0.0000001
 43
0.0000001
 44
0.0000000001
 40
0.0
 40
0.0
 40
0.0
 40
0.0
 40
0.2437473678
 40
0.4910725231
 40
0.7434247857
 40
1.0
 40
1.0
 40
1.0
 40
1.0
 10
81.7016809964
 20
82.1537358568
 30
0.0
 10
81.6883155708
 20
82.2036164606
 30
0.0
 10
81.6429198164
 20
82.3000216212
 30
0.0
 10
81.5292599416
 20
82.4133732016
 30
0.0
 10
81.3820907329
 20
82.4835758777
 30
0.0
 10
81.2730520486
 20
82.4974337238
 30
0.0
 10
81.2187180833
 20
82.495821111
 30
0.0
  0
SPLINE
  5
470
100
AcDbEntity
  8
RUNDUNGEN
100
AcDbSpline
 62
7
  6
CONTINUOUS
 70
0
 71
3
 72
11
 73
7
 74
0
 42
0.0000001
 43
0.0000001
 44
0.0000000001
 40
0.0
 40
0.0
 40
0.0
 40
0.0
 40
0.2442270283
 40
0.4917071633
 40
0.7438216925
 40
1.0
 40
1.0
 40
1.0
 40
1.0
 10
56.7016809964
 20
82.1537358568
 30
0.0
 10
56.6865118293
 20
82.2014106034
 30
0.0
 10
56.6389698378
 20
82.2927770295
 30
0.0
 10
56.5261520469
 20
82.3992114972
 30
0.0
 10
56.3829596127
 20
82.4645569267
 30
0.0
 10
56.2776672844
 20
82.4770775679
 30
0.0
 10
56.2252181064
 20
82.4753367817
 30
0.0
  0
SPLINE
  5
471
100
AcDbEntity
  8
RUNDUNGEN
100
AcDbSpline
 62
7
  6
CONTINUOUS
 70
0
 71
3
 72
9
 73
5
 74
0
 42
0.0000001
 43
0.0000001
 44
0.0000000001
 40
0.0
 40
0.0
 40
0.0
 40
0.0
 40
0.4974389242
 40
1.0
 40
1.0
 40
1.0
 40
1.0
 10
56.6216011478
 20
85.7608416925
 30
0.0
 10
56.5701895457
 20
86.1604298993
 30
0.0
 10
56.4351409942
 20
86.9594821437
 30
0.0
 10
56.279749292
 20
87.7542622703
 30
0.0
 10
56.2016809964
 20
88.1537358568
 30
0.0
  0
SPLINE
  5
472
100
AcDbEntity
  8
RUNDUNGEN
100
AcDbSpline
 62
7
  6
CONTINUOUS
 70
0
 71
3
 72
9
 73
5
 74
0
 42
0.0000001
 43
0.0000001
 44
0.0000000001
 40
0.0
 40
0.0
 40
0.0
 40
0.0
 40
0.498194259
 40
1.0
 40
1.0
 40
1.0
 40
1.0
 10
76.7016809964
 20
84.6896342417
 30
0.0
 10
76.7016743764
 20
84.8681170977
 30
0.0
 10
76.7196746148
 20
85.226386913
 30
0.0
 10
76.7588254063
 20
85.5825934018
 30
0.0
 10
76.7817673658
 20
85.7609002436
 30
0.0
  0
SPLINE
  5
473
100
AcDbEntity
  8
RUNDUNGEN
100
AcDbSpline
 62
7
  6
CONTINUOUS
 70
0
 71
3
 72
9
 73
5
 74
0
 42
0.0000001
 43
0.0000001
 44
0.0000000001
 40
0.0
 40
0.0
 40
0.0
 40
0.0
 40
0.4974401885
 40
1.0
 40
1.0
 40
1.0
 40
1.0
 10
76.7817673658
 20
85.7609002436
 30
0.0
 10
76.8331813356
 20
86.1604793349
 30
0.0
 10
76.9682278577
 20
86.9595118551
 30
0.0
 10
77.1236152987
 20
87.7542728559
 30
0.0
 10
77.2016809964
 20
88.1537358568
 30
0.0
  0
SPLINE
  5
474
100
AcDbEntity
  8
RUNDUNGEN
100
AcDbSpline
 62
7
  6
CONTINUOUS
 70
0
 71
3
 72
11
 73
7
 74
0
 42
0.0000001
 43
0.0000001
 44
0.0000000001
 40
0.0
 40
0.0
 40
0.0
 40
0.0
 40
0.2591633486
 40
0.5130566939
 40
0.7593046645
 40
1.0
 40
1.0
 40
1.0
 40
1.0
 10
77.2016809964
 20
82.6152743183
 30
0.0
 10
77.1368342179
 20
82.6152743183
 30
0.0
 10
77.0072101414
 20
82.5918715128
 30
0.0
 10
76.8412433329
 20
82.4905971919
 30
0.0
 10
76.7284891141
 20
82.3372689831
 30
0.0
 10
76.7016809965
 20
82.213961646
 30
0.0
 10
76.7016809964
 20
82.1537358571
 30
0.0
  0
LINE
  5
475
100
AcDbEntity
  8
RUNDUNGEN
100
AcDbLine
 62
7
  6
CONTINUOUS
 10
112.7057805341
 20
82.1537358512
 11
109.8775872437
 21
88.1537358568
  0
SPLINE
  5
476
100
AcDbEntity
  8
RUNDUNGEN
100
AcDbSpline
 62
7
  6
CONTINUOUS
 70
0
 71
3
 72
11
 73
7
 74
0
 42
0.0000001
 43
0.0000001
 44
0.0000000001
 40
0.0
 40
0.0
 40
0.0
 40
0.0
 40
0.2406953404
 40
0.4869433184
 40
0.7408366617
 40
1.0
 40
1.0
 40
1.0
 40
1.0
 10
56.7016809964
 20
82.1537358569
 30
0.0
 10
56.7016809964
 20
82.213961647
 30
0.0
 10
56.6748728773
 20
82.3372689872
 30
0.0
 10
56.5621186547
 20
82.4905971966
 30
0.0
 10
56.3961518457
 20
82.5918715143
 30
0.0
 10
56.2665277723
 20
82.6152743175
 30
0.0
 10
56.2016809964
 20
82.6152743174
 30
0.0
  0
SPLINE
  5
477
100
AcDbEntity
  8
RUNDUNGEN
100
AcDbSpline
 62
7
  6
CONTINUOUS
 70
0
 71
3
 72
11
 73
7
 74
0
 42
0.0000001
 43
0.0000001
 44
0.0000000001
 40
0.0
 40
0.0
 40
0.0
 40
0.0
 40
0.2565752146
 40
0.508927477
 40
0.7562526322
 40
1.0
 40
1.0
 40
1.0
 40
1.0
 10
77.1846439096
 20
82.4958211431
 30
0.0
 10
77.1303099426
 20
82.497433753
 30
0.0
 10
77.0212712562
 20
82.4835759003
 30
0.0
 10
76.8741020475
 20
82.4133732144
 30
0.0
 10
76.7604421749
 20
82.3000216261
 30
0.0
 10
76.7150464218
 20
82.2036164621
 30
0.0
 10
76.7016809964
 20
82.1537358568
 30
0.0
  0
LINE
  5
478
100
AcDbEntity
  8
RUNDUNGEN
100
AcDbLine
 62
7
  6
CONTINUOUS
 10
84.7016809964
 20
88.1537358568
 11
84.2016809964
 21
88.0655723665
  0
SPLINE
  5
479
100
AcDbEntity
  8
RUNDUNGEN
100
AcDbSpline
 62
7
  6
CONTINUOUS
 70
0
 71
3
 72
9
 73
5
 74
0
 42
0.0000001
 43
0.0000001
 44
0.0000000001
 40
0.0
 40
0.0
 40
0.0
 40
0.0
 40
0.4981935984
 40
1.0
 40
1.0
 40
1.0
 40
1.0
 10
56.7016809964
 20
84.6896342417
 30
0.0
 10
56.7016900233
 20
84.8681070753
 30
0.0
 10
56.6836879472
 20
85.2263572757
 30
0.0
 10
56.6445409554
 20
85.5825442731
 30
0.0
 10
56.6216011478
 20
85.7608416925
 30
0.0
  0
ELLIPSE
  5
47A
100
AcDbEntity
  8
0
100
AcDbEllipse
 62
7
  6
CONTINUOUS
 10
120.9557695867
 20
152.423878749
 30
0.0
 11
-0.0
 21
2.75
 31
0.0
 40
0.4040262258
 41
-3.1415926536
 42
0.0
  0
ELLIPSE
  5
47B
100
AcDbEntity
  8
0
100
AcDbEllipse
 62
7
  6
CONTINUOUS
 10
137.1051795725
 20
152.423878749
 30
0.0
 11
0.0
 21
2.75
 31
0.0
 40
0.3639702343
 41
-0.0
 42
3.1415926536
  0
ELLIPSE
  5
47C
100
AcDbEntity
  8
0
100
AcDbEllipse
 62
7
  6
CONTINUOUS
 10
73.6872525816
 20
152.423878749
 30
0.0
 11
-0.0
 21
2.75
 31
0.0
 40
0.2679491924
 41
-3.1415926536
 42
-0.0
  0
ELLIPSE
  5
47D
100
AcDbEntity
  8
0
100
AcDbEllipse
 62
7
  6
CONTINUOUS
 10
84.7161094113
 20
152.423878749
 30
0.0
 11
-0.0
 21
2.75
 31
0.0
 40
0.2679491924
 41
0.0
 42
3.1415926536
  0
ELLIPSE
  5
47E
100
AcDbEntity
  8
0
100
AcDbEllipse
 62
7
  6
CONTINUOUS
 10
60.281226451
 20
152.423878749
 30
0.0
 11
-0.0
 21
2.75
 31
0.0
 40
0.3181818182
 41
0.091034778
 42
3.0505578756
  0
ELLIPSE
  5
47F
100
AcDbEntity
  8
0
100
AcDbEllipse
 62
7
  6
CONTINUOUS
 10
98.6872525816
 20
152.423878749
 30
0.0
 11
0.0
 21
2.75
 31
0.0
 40
0.2679491924
 41
-3.1415926536
 42
0.0
  0
ELLIPSE
  5
480
100
AcDbEntity
  8
0
100
AcDbEllipse
 62
7
  6
CONTINUOUS
 10
117.925572893
 20
152.423878749
 30
0.0
 11
0.0
 21
2.75
 31
0.0
 40
0.4040262258
 41
0.0
 42
3.1415926536
  0
ELLIPSE
  5
481
100
AcDbEntity
  8
0
100
AcDbEllipse
 62
7
  6
CONTINUOUS
 10
139.8349563295
 20
152.423878749
 30
0.0
 11
0.0
 21
2.75
 31
0.0
 40
0.3639702343
 41
-3.1415926536
 42
-0.0
  0
ENDSEC
  0
SECTION
  2
OBJECTS
  0
DICTIONARY
  5
C
100
AcDbDictionary
280
0
281
1
  3
ACAD_GROUP
350
D
  3
ACAD_MLINESTYLE
350
17
  3
ACAD_LAYOUT
350
1A
  3
ACAD_PLOTSETTINGS
350
19
  3
ACAD_PLOTSTYLENAME
350
E
  0
DICTIONARY
  5
D
102
{ACAD_REACTORS
330
C
102
}
100
AcDbDictionary
280
0
281
1
  0
ACDBDICTIONARYWDFLT
  5
E
102
{ACAD_REACTORS
330
C
102
}
100
AcDbDictionary
281
1
  3
Normal
350
F
100
AcDbDictionaryWithDefault
340
F
  0
DICTIONARY
  5
17
102
{ACAD_REACTORS
330
C
102
}
100
AcDbDictionary
280
0
281
1
  3
Standard
350
18
  0
DICTIONARY
  5
19
102
{ACAD_REACTORS
330
C
102
}
100
AcDbDictionary
281
1
  0
DICTIONARY
  5
1A
102
{ACAD_REACTORS
330
C
102
}
100
AcDbDictionary
281
1
  3
Model
350
482
  3
Layout1
350
483
  0
ACDBPLACEHOLDER
  5
F
102
{ACAD_REACTORS
330
E
102
}
  0
MLINESTYLE
  5
18
102
{ACAD_REACTORS
330
17
102
}
100
AcDbMlineStyle
  2
STANDARD
 70
0
  3

 62
256
 51
90.0
 52
90.0
 71
2
 49
0.5
 62
256
  6
BYLAYER
 49
-0.5
 62
256
  6
BYLAYER
  0
LAYOUT
  5
482
102
{ACAD_REACTORS
330
1A
102
}
100
AcDbPlotSettings
  1

  2
none_device
  4
ISO_A4_(297.00_x_210.00_MM)
  6

 40
0.0
 41
0.0
 42
0.0
 43
0.0
 44
297.0
 45
210.0
 46
0.0
 47
0.0
 48
0.0
 49
0.0
140
0.0
141
0.0
142
1.0
143
1.0
 70
1024
 72
1
 73
0
 74
0
  7

 75
0
147
1.0
148
0.0
149
0.0
100
AcDbLayout
  1
Model
 70
0
 71
0
 10
0.0
 20
0.0
 11
297.0
 21
210.0
 12
0.0
 22
0.0
 32
0.0
 14
0.0
 24
0.0
 34
0.0
 15
0.0
 25
0.0
 35
0.0
146
0.0
 13
0.0
 23
0.0
 33
0.0
 16
1.0
 26
0.0
 36
0.0
 17
0.0
 27
1.0
 37
0.0
 76
0
330
210
345
0
346
0
  0
LAYOUT
  5
483
102
{ACAD_REACTORS
330
1A
102
}
100
AcDbPlotSettings
  1

  2
none_device
  4
ISO_A4_(297.00_x_210.00_MM)
  6

 40
0.0
 41
0.0
 42
0.0
 43
0.0
 44
297.0
 45
210.0
 46
0.0
 47
0.0
 48
0.0
 49
0.0
140
0.0
141
0.0
142
1.0
143
1.0
 70
0
 72
1
 73
0
 74
0
  7

 75
0
147
1.0
148
0.0
149
0.0
100
AcDbLayout
  1
Layout1
 70
0
 71
1
 10
0.0
 20
0.0
 11
297.0
 21
210.0
 12
0.0
 22
0.0
 32
0.0
 14
0.0
 24
0.0
 34
0.0
 15
0.0
 25
0.0
 35
0.0
146
0.0
 13
0.0
 23
0.0
 33
0.0
 16
1.0
 26
0.0
 36
0.0
 17
0.0
 27
1.0
 37
0.0
 76
0
330
211
345
0
346
0
  0
ENDSEC
  0
EOF
