999
DXF file: s5-45_ntp_w75.dxf
999
Pro/ENGINEER 2008490 by Parametric Technology Corporation
  0
SECTION
  2
HEADER
  9
$ACADVER
  1
AC1015
  9
$DWGCODEPAGE
  3
ANSI_1252
  9
$EXTMAX
 10
297.0
 20
210.0
 30
0.0
  9
$EXTMIN
 10
0.0
 20
0.0
 30
0.0
  9
$LIMMIN
 10
0.0
 20
0.0
  9
$LIMMAX
 10
297.0
 20
210.0
  9
$VIEWCTR
 10
148.5
 20
105.0
  9
$VIEWSIZE
 40
210.0
  9
$CLAYER
  8
0
  9
$LTSCALE
 40
16.335
  9
$CELTYPE
  6
BYLAYER
  9
$DIMSCALE
 40
1.0
  9
$DIMASZ
 40
3.5
  9
$DIMEXO
 40
1.85625
  9
$DIMDLI
 40
11.286
  9
$DIMEXE
 40
5.346
  9
$DIMCEN
 40
2.673
  9
$DIMLFAC
 40
1.0
  9
$DIMBLK
  1
_FILLED
  9
$DIMTXT
 40
3.5
  9
$DIMTOL
 70
1
  9
$DIMLIM
 70
0
  9
$DIMTFAC
 40
1.0
  9
$DIMTP
 40
0.005
  9
$DIMTM
 40
0.005
  9
$PDMODE
 70
3
  9
$PDSIZE
 40
0.3125
  9
$HANDSEED
  5
534
  9
$TILEMODE
 70
1
  9
$MEASUREMENT
 70
1
  9
$INSUNITS
 70
4
  0
ENDSEC
  0
SECTION
  2
CLASSES
  0
CLASS
  1
ACDBDICTIONARYWDFLT
  2
AcDbDictionaryWithDefault
  3
AutoCAD 2000
 90
0
280
0
281
0
  0
CLASS
  1
ACDBPLACEHOLDER
  2
AcDbPlaceHolder
  3
AutoCAD 2000
 90
0
280
0
281
0
  0
CLASS
  1
LAYOUT
  2
AcDbLayout
  3
AutoCAD 2000
 90
0
280
0
281
0
  0
ENDSEC
  0
SECTION
  2
TABLES
  0
TABLE
  2
VPORT
  5
8
100
AcDbSymbolTable
 70
2
  0
VPORT
  5
1F4
100
AcDbSymbolTableRecord
100
AcDbViewportTableRecord
  2
*ACTIVE
 70
0
 10
0.0
 20
0.0
 11
1.0
 21
1.0
 12
148.5
 22
105.0
 13
0.0
 23
0.0
 14
1.0
 24
1.0
 15
0.0
 25
0.0
 16
0.0
 26
0.0
 36
1.0
 17
0.0
 27
0.0
 37
0.0
 40
210.0
 41
1.4142857143
 42
50.0
 43
0.0
 44
0.0
 50
0.0
 51
0.0
 71
0
 72
100
 73
1
 74
1
 75
0
 76
0
 77
0
 78
0
  0
ENDTAB
  0
TABLE
  2
LTYPE
  5
5
100
AcDbSymbolTable
 70
6
  0
LTYPE
  5
14
100
AcDbSymbolTableRecord
100
AcDbLinetypeTableRecord
  2
BYBLOCK
 70
0
  3

 72
65
 73
0
 40
0.0
  0
LTYPE
  5
15
100
AcDbSymbolTableRecord
100
AcDbLinetypeTableRecord
  2
BYLAYER
 70
0
  3

 72
65
 73
0
 40
0.0
  0
LTYPE
  5
16
100
AcDbSymbolTableRecord
100
AcDbLinetypeTableRecord
  2
CONTINUOUS
 70
64
  3
Solid line
 72
65
 73
0
 40
0.0
  0
LTYPE
  5
1F5
100
AcDbSymbolTableRecord
100
AcDbLinetypeTableRecord
  2
CENTER
 70
64
  3
____ _ ____ _ ____ _ ____ _ ____ _ ____ _ ____
 72
65
 73
4
 40
0.6
 49
0.375
 74
0
 49
-0.075
 74
0
 49
0.075
 74
0
 49
-0.075
 74
0
  0
LTYPE
  5
1F6
100
AcDbSymbolTableRecord
100
AcDbLinetypeTableRecord
  2
HIDDEN
 70
64
  3
- - - - - - - - - - - - - - - - - - - -
 72
65
 73
2
 40
0.2
 49
0.1
 74
0
 49
-0.1
 74
0
  0
LTYPE
  5
1F7
100
AcDbSymbolTableRecord
100
AcDbLinetypeTableRecord
  2
PHANTOM
 70
64
  3
_____ _ _ _____ _ _ _____ _ _ _____
 72
65
 73
6
 40
0.8
 49
0.45
 74
0
 49
-0.05
 74
0
 49
0.1
 74
0
 49
-0.05
 74
0
 49
0.1
 74
0
 49
-0.05
 74
0
  0
LTYPE
  5
1F8
100
AcDbSymbolTableRecord
100
AcDbLinetypeTableRecord
  2
DOT
 70
64
  3
. . . . . . . . . . . . . . . . . . . .
 72
65
 73
2
 40
0.2
 49
0.1
 74
0
 49
-0.1
 74
0
  0
LTYPE
  5
1F9
100
AcDbSymbolTableRecord
100
AcDbLinetypeTableRecord
  2
DASHED
 70
64
  3
- - - - - - - - - - - - - - - - - - - -
 72
65
 73
2
 40
0.2
 49
0.1
 74
0
 49
-0.1
 74
0
  0
ENDTAB
  0
TABLE
  2
LAYER
  5
2
100
AcDbSymbolTable
 70
36
  0
LAYER
  5
10
100
AcDbSymbolTableRecord
100
AcDbLayerTableRecord
  2
0
 70
0
 62
7
  6
CONTINUOUS
370
-3
390
F
  0
LAYER
  5
1FA
100
AcDbSymbolTableRecord
100
AcDbLayerTableRecord
  2
DEFAULT_1
 70
0
 62
7
  6
CENTER
370
-3
390
F
  0
LAYER
  5
1FB
100
AcDbSymbolTableRecord
100
AcDbLayerTableRecord
  2
DEFAULT_2
 70
0
 62
8
  6
HIDDEN
370
-3
390
F
  0
LAYER
  5
1FC
100
AcDbSymbolTableRecord
100
AcDbLayerTableRecord
  2
DEFAULT_3
 70
0
 62
7
  6
PHANTOM
370
-3
390
F
  0
LAYER
  5
1FD
100
AcDbSymbolTableRecord
100
AcDbLayerTableRecord
  2
01___PRT_ALL_DTM_PLN
 70
0
 62
7
  6
CONTINUOUS
370
-3
390
F
  0
LAYER
  5
1FE
100
AcDbSymbolTableRecord
100
AcDbLayerTableRecord
  2
01___PRT_DEF_DTM_PLN
 70
0
 62
7
  6
CONTINUOUS
370
-3
390
F
  0
LAYER
  5
1FF
100
AcDbSymbolTableRecord
100
AcDbLayerTableRecord
  2
02___PRT_ALL_AXES
 70
0
 62
7
  6
CONTINUOUS
370
-3
390
F
  0
LAYER
  5
200
100
AcDbSymbolTableRecord
100
AcDbLayerTableRecord
  2
03___PRT_ALL_CURVES
 70
0
 62
7
  6
CONTINUOUS
370
-3
390
F
  0
LAYER
  5
201
100
AcDbSymbolTableRecord
100
AcDbLayerTableRecord
  2
04___PRT_ALL_DTM_PNT
 70
0
 62
7
  6
CONTINUOUS
370
-3
390
F
  0
LAYER
  5
202
100
AcDbSymbolTableRecord
100
AcDbLayerTableRecord
  2
05___PRT_ALL_DTM_CSYS
 70
0
 62
7
  6
CONTINUOUS
370
-3
390
F
  0
LAYER
  5
203
100
AcDbSymbolTableRecord
100
AcDbLayerTableRecord
  2
05___PRT_DEF_DTM_CSYS
 70
0
 62
7
  6
CONTINUOUS
370
-3
390
F
  0
LAYER
  5
204
100
AcDbSymbolTableRecord
100
AcDbLayerTableRecord
  2
06___PRT_ALL_SURFS
 70
0
 62
7
  6
CONTINUOUS
370
-3
390
F
  0
LAYER
  5
205
100
AcDbSymbolTableRecord
100
AcDbLayerTableRecord
  2
AUSFORMSCHRAEGEN
 70
0
 62
7
  6
CONTINUOUS
370
-3
390
F
  0
LAYER
  5
206
100
AcDbSymbolTableRecord
100
AcDbLayerTableRecord
  2
BEZUGSACHSEN
 70
0
 62
7
  6
CONTINUOUS
370
-3
390
F
  0
LAYER
  5
207
100
AcDbSymbolTableRecord
100
AcDbLayerTableRecord
  2
BEZUGSEBENE
 70
0
 62
7
  6
CONTINUOUS
370
-3
390
F
  0
LAYER
  5
208
100
AcDbSymbolTableRecord
100
AcDbLayerTableRecord
  2
BEZUGSEBENEN
 70
0
 62
7
  6
CONTINUOUS
370
-3
390
F
  0
LAYER
  5
209
100
AcDbSymbolTableRecord
100
AcDbLayerTableRecord
  2
BEZUGSEBENEN-KES
 70
0
 62
7
  6
CONTINUOUS
370
-3
390
F
  0
LAYER
  5
20A
100
AcDbSymbolTableRecord
100
AcDbLayerTableRecord
  2
RUNDUNGEN
 70
0
 62
7
  6
CONTINUOUS
370
-3
390
F
  0
LAYER
  5
20B
100
AcDbSymbolTableRecord
100
AcDbLayerTableRecord
  2
ZEICHNUNGSBEMASSUNGEN
 70
0
 62
7
  6
CONTINUOUS
370
-3
390
F
  0
LAYER
  5
20C
100
AcDbSymbolTableRecord
100
AcDbLayerTableRecord
  2
ZEICHNUNGSNOTIZEN
 70
0
 62
7
  6
CONTINUOUS
370
-3
390
F
  0
ENDTAB
  0
TABLE
  2
STYLE
  5
3
100
AcDbSymbolTable
 70
1
  0
STYLE
  5
11
100
AcDbSymbolTableRecord
100
AcDbTextStyleTableRecord
  2
STANDARD
 70
0
 40
0.0
 41
0.7
 50
0.0
 71
0
 42
0.2
  3
txt
  4

  0
STYLE
  5
20D
100
AcDbSymbolTableRecord
100
AcDbTextStyleTableRecord
  2
TEXTSTYLE_1
 70
0
 40
0.0
 41
0.8
 50
0.0
 71
0
 42
0.2
  3
gdt
  4

  0
ENDTAB
  0
TABLE
  2
VIEW
  5
6
100
AcDbSymbolTable
 70
0
  0
ENDTAB
  0
TABLE
  2
UCS
  5
7
100
AcDbSymbolTable
 70
0
  0
ENDTAB
  0
TABLE
  2
APPID
  5
9
100
AcDbSymbolTable
 70
1
  0
APPID
  5
20E
100
AcDbSymbolTableRecord
100
AcDbRegAppTableRecord
  2
ACAD
 70
0
  0
ENDTAB
  0
TABLE
  2
BLOCK_RECORD
  5
1
100
AcDbSymbolTable
 70
0
  0
BLOCK_RECORD
  5
20F
100
AcDbSymbolTableRecord
100
AcDbBlockTableRecord
  2
*Model_Space
  0
BLOCK_RECORD
  5
210
100
AcDbSymbolTableRecord
100
AcDbBlockTableRecord
  2
*Paper_Space
  0
ENDTAB
  0
TABLE
  2
DIMSTYLE
  5
A
100
AcDbSymbolTable
 70
1
100
AcDbDimStyleTable
 71
0
  0
DIMSTYLE
105
211
100
AcDbSymbolTableRecord
100
AcDbDimStyleTableRecord
  2
STANDARD
 70
0
  3

  4

 40
1.0
 41
3.5
 42
0.0625
 43
0.38
 44
0.18
 45
0.0
 46
0.0
 47
0.005
 48
0.005
140
3.5
141
0.09
142
0.0
143
25.4
144
1.0
145
0.0
146
1.0
147
0.09
 71
1.0
 72
0.0
 73
0
 74
0
 75
0
 76
0
 77
1
 78
8
170
0
171
2
172
0
173
0
174
0
175
0
176
0
177
0
178
5
270
2
271
3
272
3
273
2
274
2
275
0
280
0
281
0
282
0
283
1
284
8
285
0
286
0
287
3
288
0
340
11
  0
ENDTAB
  0
ENDSEC
  0
SECTION
  2
BLOCKS
  0
BLOCK
  5
20
100
AcDbEntity
  8
0
100
AcDbBlockBegin
  2
*Model_Space
 70
0
 10
0.0
 20
0.0
 30
0.0
  3
*Model_Space
  1

  0
ENDBLK
  5
21
100
AcDbEntity
  8
0
100
AcDbBlockEnd
  0
BLOCK
  5
1C
100
AcDbEntity
  8
0
100
AcDbBlockBegin
  2
*Paper_Space
 70
0
 10
0.0
 20
0.0
 30
0.0
  3
*Paper_Space
  1

  0
ENDBLK
  5
1D
100
AcDbEntity
  8
0
100
AcDbBlockEnd
  0
ENDSEC
  0
SECTION
  2
ENTITIES
  0
LINE
  5
212
100
AcDbEntity
  8
0
100
AcDbLine
 62
7
  6
CONTINUOUS
 10
0.0
 20
0.0
 11
0.0
 21
210.0
  0
LINE
  5
213
100
AcDbEntity
  8
0
100
AcDbLine
 62
7
  6
CONTINUOUS
 10
0.0
 20
0.0
 11
297.0
 21
0.0
  0
LINE
  5
214
100
AcDbEntity
  8
0
100
AcDbLine
 62
7
  6
CONTINUOUS
 10
0.0
 20
210.0
 11
297.0
 21
210.0
  0
LINE
  5
215
100
AcDbEntity
  8
0
100
AcDbLine
 62
7
  6
CONTINUOUS
 10
297.0
 20
0.0
 11
297.0
 21
210.0
  0
LINE
  5
216
100
AcDbEntity
  8
0
100
AcDbLine
 62
7
  6
CONTINUOUS
 10
48.0947910959
 20
149.8201478417
 11
48.0947910959
 21
161.8196086547
  0
LINE
  5
217
100
AcDbEntity
  8
RUNDUNGEN
100
AcDbLine
 62
9
  6
CONTINUOUS
 10
49.9947910959
 20
149.8198782482
 11
49.9947910959
 21
153.1691870354
  0
LINE
  5
218
100
AcDbEntity
  8
RUNDUNGEN
100
AcDbLine
 62
9
  6
CONTINUOUS
 10
49.9947910959
 20
158.470569461
 11
49.9947910959
 21
161.8198782482
  0
LINE
  5
219
100
AcDbEntity
  8
RUNDUNGEN
100
AcDbLine
 62
7
  6
CONTINUOUS
 10
50.5947910959
 20
150.4198782482
 11
50.5947910959
 21
152.9041179141
  0
LINE
  5
21A
100
AcDbEntity
  8
RUNDUNGEN
100
AcDbLine
 62
7
  6
CONTINUOUS
 10
50.5947910959
 20
158.7356385823
 11
50.5947910959
 21
161.2198782482
  0
LINE
  5
21B
100
AcDbEntity
  8
RUNDUNGEN
100
AcDbLine
 62
9
  6
CONTINUOUS
 10
50.6152356002
 20
161.2198782482
 11
50.6152356002
 21
157.9941066578
  0
LINE
  5
21C
100
AcDbEntity
  8
RUNDUNGEN
100
AcDbLine
 62
9
  6
CONTINUOUS
 10
50.6152356002
 20
153.6456498386
 11
50.6152356002
 21
150.4198782482
  0
LINE
  5
21D
100
AcDbEntity
  8
02___PRT_ALL_AXES
100
AcDbLine
 62
7
  6
CONTINUOUS
 10
50.7772910959
 20
161.8198782482
 11
50.7772910959
 21
164.8198782482
  0
LINE
  5
21E
100
AcDbEntity
  8
02___PRT_ALL_AXES
100
AcDbLine
 62
7
  6
CONTINUOUS
 10
53.2772910959
 20
161.8198782482
 11
53.2772910959
 21
164.8198782482
  0
LINE
  5
21F
100
AcDbEntity
  8
02___PRT_ALL_AXES
100
AcDbLine
 62
7
  6
CONTINUOUS
 10
54.0592910959
 20
161.8198782482
 11
54.0592910959
 21
164.8198782482
  0
LINE
  5
220
100
AcDbEntity
  8
RUNDUNGEN
100
AcDbLine
 62
9
  6
CONTINUOUS
 10
54.0743465917
 20
161.2198782482
 11
54.0743465917
 21
158.5148782482
  0
LINE
  5
221
100
AcDbEntity
  8
RUNDUNGEN
100
AcDbLine
 62
9
  6
CONTINUOUS
 10
54.0743465917
 20
153.1248782482
 11
54.0743465917
 21
150.4198782482
  0
LINE
  5
222
100
AcDbEntity
  8
0
100
AcDbLine
 62
7
  6
CONTINUOUS
 10
54.0947910959
 20
150.4198782482
 11
54.0947910959
 21
153.1248782482
  0
LINE
  5
223
100
AcDbEntity
  8
RUNDUNGEN
100
AcDbLine
 62
7
  6
CONTINUOUS
 10
54.0947910959
 20
150.4198782482
 11
54.0947910959
 21
153.1248782482
  0
LINE
  5
224
100
AcDbEntity
  8
0
100
AcDbLine
 62
7
  6
CONTINUOUS
 10
54.0947910959
 20
158.5148782482
 11
54.0947910959
 21
161.2198782482
  0
LINE
  5
225
100
AcDbEntity
  8
RUNDUNGEN
100
AcDbLine
 62
7
  6
CONTINUOUS
 10
54.0947910959
 20
158.5148782482
 11
54.0947910959
 21
161.2198782482
  0
LINE
  5
226
100
AcDbEntity
  8
02___PRT_ALL_AXES
100
AcDbLine
 62
7
  6
CONTINUOUS
 10
54.7697910959
 20
161.8198782482
 11
54.7697910959
 21
164.8198782482
  0
LINE
  5
227
100
AcDbEntity
  8
02___PRT_ALL_AXES
100
AcDbLine
 62
7
  6
CONTINUOUS
 10
57.7697910959
 20
161.8198782482
 11
57.7697910959
 21
164.8198782482
  0
LINE
  5
228
100
AcDbEntity
  8
02___PRT_ALL_AXES
100
AcDbLine
 62
7
  6
CONTINUOUS
 10
58.0592910959
 20
161.8198782482
 11
58.0592910959
 21
164.8198782482
  0
LINE
  5
229
100
AcDbEntity
  8
02___PRT_ALL_AXES
100
AcDbLine
 62
7
  6
CONTINUOUS
 10
63.1302910959
 20
161.8198782482
 11
63.1302910959
 21
164.8198782482
  0
LINE
  5
22A
100
AcDbEntity
  8
02___PRT_ALL_AXES
100
AcDbLine
 62
7
  6
CONTINUOUS
 10
63.4197910959
 20
161.8198782482
 11
63.4197910959
 21
164.8198782482
  0
LINE
  5
22B
100
AcDbEntity
  8
02___PRT_ALL_AXES
100
AcDbLine
 62
7
  6
CONTINUOUS
 10
66.4197910959
 20
161.8198782482
 11
66.4197910959
 21
164.8198782482
  0
LINE
  5
22C
100
AcDbEntity
  8
RUNDUNGEN
100
AcDbLine
 62
7
  6
CONTINUOUS
 10
67.0947910959
 20
150.4198782482
 11
67.0947910959
 21
153.1248782482
  0
LINE
  5
22D
100
AcDbEntity
  8
RUNDUNGEN
100
AcDbLine
 62
7
  6
CONTINUOUS
 10
67.0947910959
 20
158.5148782482
 11
67.0947910959
 21
161.2198782482
  0
LINE
  5
22E
100
AcDbEntity
  8
RUNDUNGEN
100
AcDbLine
 62
9
  6
CONTINUOUS
 10
67.1152356002
 20
150.4198782482
 11
67.1152356002
 21
153.1248782482
  0
LINE
  5
22F
100
AcDbEntity
  8
RUNDUNGEN
100
AcDbLine
 62
9
  6
CONTINUOUS
 10
67.1152356002
 20
158.5148782482
 11
67.1152356002
 21
161.2198782482
  0
LINE
  5
230
100
AcDbEntity
  8
02___PRT_ALL_AXES
100
AcDbLine
 62
7
  6
CONTINUOUS
 10
67.1302910959
 20
161.8198782482
 11
67.1302910959
 21
164.8198782482
  0
LINE
  5
231
100
AcDbEntity
  8
02___PRT_ALL_AXES
100
AcDbLine
 62
7
  6
CONTINUOUS
 10
67.9122910959
 20
161.8198782482
 11
67.9122910959
 21
164.8198782482
  0
LINE
  5
232
100
AcDbEntity
  8
02___PRT_ALL_AXES
100
AcDbLine
 62
7
  6
CONTINUOUS
 10
70.4122910959
 20
161.8198782482
 11
70.4122910959
 21
164.8198782482
  0
LINE
  5
233
100
AcDbEntity
  8
RUNDUNGEN
100
AcDbLine
 62
9
  6
CONTINUOUS
 10
70.5743465917
 20
150.4198782482
 11
70.5743465917
 21
153.6456498386
  0
LINE
  5
234
100
AcDbEntity
  8
RUNDUNGEN
100
AcDbLine
 62
9
  6
CONTINUOUS
 10
70.5743465917
 20
157.9941066578
 11
70.5743465917
 21
161.2198782482
  0
LINE
  5
235
100
AcDbEntity
  8
RUNDUNGEN
100
AcDbLine
 62
7
  6
CONTINUOUS
 10
70.5947910959
 20
161.2198782482
 11
70.5947910959
 21
158.7356385823
  0
LINE
  5
236
100
AcDbEntity
  8
RUNDUNGEN
100
AcDbLine
 62
7
  6
CONTINUOUS
 10
70.5947910959
 20
152.9041179141
 11
70.5947910959
 21
150.4198782482
  0
LINE
  5
237
100
AcDbEntity
  8
RUNDUNGEN
100
AcDbLine
 62
9
  6
CONTINUOUS
 10
71.1947910959
 20
161.8198782482
 11
71.1947910959
 21
158.470569461
  0
LINE
  5
238
100
AcDbEntity
  8
RUNDUNGEN
100
AcDbLine
 62
9
  6
CONTINUOUS
 10
71.1947910959
 20
153.1691870354
 11
71.1947910959
 21
149.8198782482
  0
LINE
  5
239
100
AcDbEntity
  8
RUNDUNGEN
100
AcDbLine
 62
9
  6
CONTINUOUS
 10
74.9947910959
 20
149.8198782482
 11
74.9947910959
 21
153.1691870354
  0
LINE
  5
23A
100
AcDbEntity
  8
RUNDUNGEN
100
AcDbLine
 62
9
  6
CONTINUOUS
 10
74.9947910959
 20
158.470569461
 11
74.9947910959
 21
161.8198782482
  0
LINE
  5
23B
100
AcDbEntity
  8
RUNDUNGEN
100
AcDbLine
 62
7
  6
CONTINUOUS
 10
75.5947910959
 20
150.4198782482
 11
75.5947910959
 21
152.9041179141
  0
LINE
  5
23C
100
AcDbEntity
  8
RUNDUNGEN
100
AcDbLine
 62
7
  6
CONTINUOUS
 10
75.5947910959
 20
158.7356385823
 11
75.5947910959
 21
161.2198782482
  0
LINE
  5
23D
100
AcDbEntity
  8
RUNDUNGEN
100
AcDbLine
 62
9
  6
CONTINUOUS
 10
75.6152356002
 20
161.2198782482
 11
75.6152356002
 21
157.9941066578
  0
LINE
  5
23E
100
AcDbEntity
  8
RUNDUNGEN
100
AcDbLine
 62
9
  6
CONTINUOUS
 10
75.6152356002
 20
153.6456498386
 11
75.6152356002
 21
150.4198782482
  0
LINE
  5
23F
100
AcDbEntity
  8
02___PRT_ALL_AXES
100
AcDbLine
 62
7
  6
CONTINUOUS
 10
75.7772910959
 20
161.8198782482
 11
75.7772910959
 21
164.8198782482
  0
LINE
  5
240
100
AcDbEntity
  8
02___PRT_ALL_AXES
100
AcDbLine
 62
7
  6
CONTINUOUS
 10
78.2772910959
 20
161.8198782482
 11
78.2772910959
 21
164.8198782482
  0
LINE
  5
241
100
AcDbEntity
  8
0
100
AcDbLine
 62
7
  6
CONTINUOUS
 10
123.0947910959
 20
149.8198782482
 11
121.1947910959
 21
149.8198782482
  0
LINE
  5
242
100
AcDbEntity
  8
0
100
AcDbLine
 62
7
  6
CONTINUOUS
 10
114.4105479016
 20
149.8198782482
 11
106.7790342903
 21
149.8198782482
  0
LINE
  5
243
100
AcDbEntity
  8
0
100
AcDbLine
 62
7
  6
CONTINUOUS
 10
99.9947910959
 20
149.8198782482
 11
96.1947910959
 21
149.8198782482
  0
LINE
  5
244
100
AcDbEntity
  8
0
100
AcDbLine
 62
7
  6
CONTINUOUS
 10
89.4105479016
 20
149.8198782482
 11
81.7790342903
 21
149.8198782482
  0
LINE
  5
245
100
AcDbEntity
  8
0
100
AcDbLine
 62
7
  6
CONTINUOUS
 10
74.9947910959
 20
149.8198782482
 11
71.1947910959
 21
149.8198782482
  0
LINE
  5
246
100
AcDbEntity
  8
0
100
AcDbLine
 62
7
  6
CONTINUOUS
 10
64.4105479016
 20
149.8198782482
 11
56.7790342903
 21
149.8198782482
  0
LINE
  5
247
100
AcDbEntity
  8
0
100
AcDbLine
 62
7
  6
CONTINUOUS
 10
49.9947910959
 20
149.8198782482
 11
48.0947910959
 21
149.8198782482
  0
LINE
  5
248
100
AcDbEntity
  8
RUNDUNGEN
100
AcDbLine
 62
7
  6
CONTINUOUS
 10
49.9947910959
 20
149.8198782482
 11
71.1947910959
 21
149.8198782482
  0
LINE
  5
249
100
AcDbEntity
  8
RUNDUNGEN
100
AcDbLine
 62
7
  6
CONTINUOUS
 10
74.9947910959
 20
149.8198782482
 11
96.1947910959
 21
149.8198782482
  0
LINE
  5
24A
100
AcDbEntity
  8
RUNDUNGEN
100
AcDbLine
 62
7
  6
CONTINUOUS
 10
99.9947910959
 20
149.8198782482
 11
121.1947910959
 21
149.8198782482
  0
LINE
  5
24B
100
AcDbEntity
  8
02___PRT_ALL_AXES
100
AcDbLine
 62
7
  6
CONTINUOUS
 10
79.0592910959
 20
161.8198782482
 11
79.0592910959
 21
164.8198782482
  0
LINE
  5
24C
100
AcDbEntity
  8
RUNDUNGEN
100
AcDbLine
 62
9
  6
CONTINUOUS
 10
79.0743465917
 20
161.2198782482
 11
79.0743465917
 21
158.5148782482
  0
LINE
  5
24D
100
AcDbEntity
  8
RUNDUNGEN
100
AcDbLine
 62
9
  6
CONTINUOUS
 10
79.0743465917
 20
153.1248782482
 11
79.0743465917
 21
150.4198782482
  0
LINE
  5
24E
100
AcDbEntity
  8
0
100
AcDbLine
 62
7
  6
CONTINUOUS
 10
79.0947910959
 20
150.4198782482
 11
79.0947910959
 21
153.1248782482
  0
LINE
  5
24F
100
AcDbEntity
  8
RUNDUNGEN
100
AcDbLine
 62
7
  6
CONTINUOUS
 10
79.0947910959
 20
150.4198782482
 11
79.0947910959
 21
153.1248782482
  0
LINE
  5
250
100
AcDbEntity
  8
0
100
AcDbLine
 62
7
  6
CONTINUOUS
 10
79.0947910959
 20
158.5148782482
 11
79.0947910959
 21
161.2198782482
  0
LINE
  5
251
100
AcDbEntity
  8
RUNDUNGEN
100
AcDbLine
 62
7
  6
CONTINUOUS
 10
79.0947910959
 20
158.5148782482
 11
79.0947910959
 21
161.2198782482
  0
LINE
  5
252
100
AcDbEntity
  8
02___PRT_ALL_AXES
100
AcDbLine
 62
7
  6
CONTINUOUS
 10
79.7697910959
 20
161.8198782482
 11
79.7697910959
 21
164.8198782482
  0
LINE
  5
253
100
AcDbEntity
  8
RUNDUNGEN
100
AcDbLine
 62
9
  6
CONTINUOUS
 10
50.5947910959
 20
150.4198782482
 11
56.3909912253
 21
150.4198782482
  0
LINE
  5
254
100
AcDbEntity
  8
RUNDUNGEN
100
AcDbLine
 62
9
  6
CONTINUOUS
 10
64.7985909666
 20
150.4198782482
 11
70.5947910959
 21
150.4198782482
  0
LINE
  5
255
100
AcDbEntity
  8
RUNDUNGEN
100
AcDbLine
 62
9
  6
CONTINUOUS
 10
75.5947910959
 20
150.4198782482
 11
81.3909912253
 21
150.4198782482
  0
LINE
  5
256
100
AcDbEntity
  8
RUNDUNGEN
100
AcDbLine
 62
9
  6
CONTINUOUS
 10
89.7985909666
 20
150.4198782482
 11
95.5947910959
 21
150.4198782482
  0
LINE
  5
257
100
AcDbEntity
  8
RUNDUNGEN
100
AcDbLine
 62
9
  6
CONTINUOUS
 10
100.5947910959
 20
150.4198782482
 11
106.3909912253
 21
150.4198782482
  0
LINE
  5
258
100
AcDbEntity
  8
RUNDUNGEN
100
AcDbLine
 62
9
  6
CONTINUOUS
 10
114.7985909666
 20
150.4198782482
 11
120.5947910959
 21
150.4198782482
  0
LINE
  5
259
100
AcDbEntity
  8
02___PRT_ALL_AXES
100
AcDbLine
 62
7
  6
CONTINUOUS
 10
82.7697910959
 20
161.8198782482
 11
82.7697910959
 21
164.8198782482
  0
LINE
  5
25A
100
AcDbEntity
  8
02___PRT_ALL_AXES
100
AcDbLine
 62
7
  6
CONTINUOUS
 10
83.0592910959
 20
161.8198782482
 11
83.0592910959
 21
164.8198782482
  0
LINE
  5
25B
100
AcDbEntity
  8
RUNDUNGEN
100
AcDbLine
 62
7
  6
CONTINUOUS
 10
104.0805732206
 20
153.1248782482
 11
103.5944823052
 21
153.1248782482
  0
LINE
  5
25C
100
AcDbEntity
  8
RUNDUNGEN
100
AcDbLine
 62
7
  6
CONTINUOUS
 10
79.0805732206
 20
153.1248782482
 11
78.5944823052
 21
153.1248782482
  0
LINE
  5
25D
100
AcDbEntity
  8
RUNDUNGEN
100
AcDbLine
 62
7
  6
CONTINUOUS
 10
54.0805732206
 20
153.1248782482
 11
53.5944823052
 21
153.1248782482
  0
LINE
  5
25E
100
AcDbEntity
  8
0
100
AcDbLine
 62
7
  6
CONTINUOUS
 10
54.0947910959
 20
153.1248782482
 11
54.1320536728
 21
153.1248782482
  0
LINE
  5
25F
100
AcDbEntity
  8
0
100
AcDbLine
 62
7
  6
CONTINUOUS
 10
67.0575285191
 20
153.1248782482
 11
67.0947910959
 21
153.1248782482
  0
LINE
  5
260
100
AcDbEntity
  8
RUNDUNGEN
100
AcDbLine
 62
7
  6
CONTINUOUS
 10
67.0947910959
 20
153.1248782482
 11
67.5950998867
 21
153.1248782482
  0
LINE
  5
261
100
AcDbEntity
  8
0
100
AcDbLine
 62
7
  6
CONTINUOUS
 10
79.0947910959
 20
153.1248782482
 11
79.1320536728
 21
153.1248782482
  0
LINE
  5
262
100
AcDbEntity
  8
0
100
AcDbLine
 62
7
  6
CONTINUOUS
 10
92.0575285191
 20
153.1248782482
 11
92.0947910959
 21
153.1248782482
  0
LINE
  5
263
100
AcDbEntity
  8
RUNDUNGEN
100
AcDbLine
 62
7
  6
CONTINUOUS
 10
92.0947910959
 20
153.1248782482
 11
92.5950998867
 21
153.1248782482
  0
LINE
  5
264
100
AcDbEntity
  8
0
100
AcDbLine
 62
7
  6
CONTINUOUS
 10
104.0947910959
 20
153.1248782482
 11
104.1320536728
 21
153.1248782482
  0
LINE
  5
265
100
AcDbEntity
  8
0
100
AcDbLine
 62
7
  6
CONTINUOUS
 10
117.0575285191
 20
153.1248782482
 11
117.0947910959
 21
153.1248782482
  0
LINE
  5
266
100
AcDbEntity
  8
RUNDUNGEN
100
AcDbLine
 62
7
  6
CONTINUOUS
 10
117.0947910959
 20
153.1248782482
 11
117.5950998867
 21
153.1248782482
  0
LINE
  5
267
100
AcDbEntity
  8
02___PRT_ALL_AXES
100
AcDbLine
 62
7
  6
CONTINUOUS
 10
88.1302910959
 20
161.8198782482
 11
88.1302910959
 21
164.8198782482
  0
LINE
  5
268
100
AcDbEntity
  8
02___PRT_ALL_AXES
100
AcDbLine
 62
7
  6
CONTINUOUS
 10
88.4197910959
 20
161.8198782482
 11
88.4197910959
 21
164.8198782482
  0
LINE
  5
269
100
AcDbEntity
  8
0
100
AcDbLine
 62
7
  6
CONTINUOUS
 10
54.0947910959
 20
158.5148782482
 11
54.1320536728
 21
158.5148782482
  0
LINE
  5
26A
100
AcDbEntity
  8
RUNDUNGEN
100
AcDbLine
 62
7
  6
CONTINUOUS
 10
53.5944823052
 20
158.5148782482
 11
54.0947910959
 21
158.5148782482
  0
LINE
  5
26B
100
AcDbEntity
  8
0
100
AcDbLine
 62
7
  6
CONTINUOUS
 10
67.0575285191
 20
158.5148782482
 11
67.0947910959
 21
158.5148782482
  0
LINE
  5
26C
100
AcDbEntity
  8
RUNDUNGEN
100
AcDbLine
 62
7
  6
CONTINUOUS
 10
67.1090089713
 20
158.5148782482
 11
67.5950998867
 21
158.5148782482
  0
LINE
  5
26D
100
AcDbEntity
  8
0
100
AcDbLine
 62
7
  6
CONTINUOUS
 10
79.0947910959
 20
158.5148782482
 11
79.1320536728
 21
158.5148782482
  0
LINE
  5
26E
100
AcDbEntity
  8
RUNDUNGEN
100
AcDbLine
 62
7
  6
CONTINUOUS
 10
78.5944823052
 20
158.5148782482
 11
79.0947910959
 21
158.5148782482
  0
LINE
  5
26F
100
AcDbEntity
  8
0
100
AcDbLine
 62
7
  6
CONTINUOUS
 10
92.0575285191
 20
158.5148782482
 11
92.0947910959
 21
158.5148782482
  0
LINE
  5
270
100
AcDbEntity
  8
RUNDUNGEN
100
AcDbLine
 62
7
  6
CONTINUOUS
 10
92.1090089713
 20
158.5148782482
 11
92.5950998867
 21
158.5148782482
  0
LINE
  5
271
100
AcDbEntity
  8
RUNDUNGEN
100
AcDbLine
 62
7
  6
CONTINUOUS
 10
103.5944823052
 20
158.5148782482
 11
104.0947910959
 21
158.5148782482
  0
LINE
  5
272
100
AcDbEntity
  8
0
100
AcDbLine
 62
7
  6
CONTINUOUS
 10
104.0947910959
 20
158.5148782482
 11
104.1320536728
 21
158.5148782482
  0
LINE
  5
273
100
AcDbEntity
  8
0
100
AcDbLine
 62
7
  6
CONTINUOUS
 10
117.0575285191
 20
158.5148782482
 11
117.0947910959
 21
158.5148782482
  0
LINE
  5
274
100
AcDbEntity
  8
RUNDUNGEN
100
AcDbLine
 62
7
  6
CONTINUOUS
 10
117.1090089713
 20
158.5148782482
 11
117.5950998867
 21
158.5148782482
  0
LINE
  5
275
100
AcDbEntity
  8
RUNDUNGEN
100
AcDbLine
 62
9
  6
CONTINUOUS
 10
120.5947910959
 20
161.2198782482
 11
114.7985909666
 21
161.2198782482
  0
LINE
  5
276
100
AcDbEntity
  8
RUNDUNGEN
100
AcDbLine
 62
9
  6
CONTINUOUS
 10
106.3909912253
 20
161.2198782482
 11
100.5947910959
 21
161.2198782482
  0
LINE
  5
277
100
AcDbEntity
  8
RUNDUNGEN
100
AcDbLine
 62
9
  6
CONTINUOUS
 10
95.5947910959
 20
161.2198782482
 11
89.7985909666
 21
161.2198782482
  0
LINE
  5
278
100
AcDbEntity
  8
RUNDUNGEN
100
AcDbLine
 62
9
  6
CONTINUOUS
 10
81.3909912253
 20
161.2198782482
 11
75.5947910959
 21
161.2198782482
  0
LINE
  5
279
100
AcDbEntity
  8
RUNDUNGEN
100
AcDbLine
 62
9
  6
CONTINUOUS
 10
70.5947910959
 20
161.2198782482
 11
64.7985909666
 21
161.2198782482
  0
LINE
  5
27A
100
AcDbEntity
  8
RUNDUNGEN
100
AcDbLine
 62
9
  6
CONTINUOUS
 10
56.3909912253
 20
161.2198782482
 11
50.5947910959
 21
161.2198782482
  0
LINE
  5
27B
100
AcDbEntity
  8
0
100
AcDbLine
 62
7
  6
CONTINUOUS
 10
123.0947910959
 20
161.8198782482
 11
121.1947910959
 21
161.8198782482
  0
LINE
  5
27C
100
AcDbEntity
  8
02___PRT_ALL_AXES
100
AcDbLine
 62
7
  6
CONTINUOUS
 10
104.7035893896
 20
161.8198782482
 11
104.6947910959
 21
161.8198782482
  0
LINE
  5
27D
100
AcDbEntity
  8
0
100
AcDbLine
 62
7
  6
CONTINUOUS
 10
99.9947910959
 20
161.8198782482
 11
96.1947910959
 21
161.8198782482
  0
LINE
  5
27E
100
AcDbEntity
  8
0
100
AcDbLine
 62
7
  6
CONTINUOUS
 10
74.9947910959
 20
161.8198782482
 11
71.1947910959
 21
161.8198782482
  0
LINE
  5
27F
100
AcDbEntity
  8
0
100
AcDbLine
 62
7
  6
CONTINUOUS
 10
49.9947910959
 20
161.8198782482
 11
48.0947910959
 21
161.8198782482
  0
LINE
  5
280
100
AcDbEntity
  8
RUNDUNGEN
100
AcDbLine
 62
7
  6
CONTINUOUS
 10
49.9947910959
 20
161.8198782482
 11
50.7772910959
 21
161.8198782482
  0
LINE
  5
281
100
AcDbEntity
  8
02___PRT_ALL_AXES
100
AcDbLine
 62
7
  6
CONTINUOUS
 10
49.9947910959
 20
161.8198782482
 11
51.1947910959
 21
161.8198782482
  0
LINE
  5
282
100
AcDbEntity
  8
02___PRT_ALL_AXES
100
AcDbLine
 62
7
  6
CONTINUOUS
 10
54.6947910959
 20
161.8198782482
 11
56.779040877
 21
161.8198782482
  0
LINE
  5
283
100
AcDbEntity
  8
RUNDUNGEN
100
AcDbLine
 62
7
  6
CONTINUOUS
 10
51.1947910959
 20
161.8198782482
 11
54.7697910959
 21
161.8198782482
  0
LINE
  5
284
100
AcDbEntity
  8
RUNDUNGEN
100
AcDbLine
 62
7
  6
CONTINUOUS
 10
55.4761172426
 20
161.8198782482
 11
65.7134649485
 21
161.8198782482
  0
LINE
  5
285
100
AcDbEntity
  8
RUNDUNGEN
100
AcDbLine
 62
7
  6
CONTINUOUS
 10
66.4197910959
 20
161.8198782482
 11
69.9947910959
 21
161.8198782482
  0
LINE
  5
286
100
AcDbEntity
  8
02___PRT_ALL_AXES
100
AcDbLine
 62
7
  6
CONTINUOUS
 10
64.4105409668
 20
161.8198782482
 11
66.4947910959
 21
161.8198782482
  0
LINE
  5
287
100
AcDbEntity
  8
02___PRT_ALL_AXES
100
AcDbLine
 62
7
  6
CONTINUOUS
 10
69.9947910959
 20
161.8198782482
 11
71.1947910959
 21
161.8198782482
  0
LINE
  5
288
100
AcDbEntity
  8
RUNDUNGEN
100
AcDbLine
 62
7
  6
CONTINUOUS
 10
70.4122910959
 20
161.8198782482
 11
71.1947910959
 21
161.8198782482
  0
LINE
  5
289
100
AcDbEntity
  8
RUNDUNGEN
100
AcDbLine
 62
7
  6
CONTINUOUS
 10
74.9947910959
 20
161.8198782482
 11
75.7772910959
 21
161.8198782482
  0
LINE
  5
28A
100
AcDbEntity
  8
02___PRT_ALL_AXES
100
AcDbLine
 62
7
  6
CONTINUOUS
 10
74.9947910959
 20
161.8198782482
 11
76.1947910959
 21
161.8198782482
  0
LINE
  5
28B
100
AcDbEntity
  8
02___PRT_ALL_AXES
100
AcDbLine
 62
7
  6
CONTINUOUS
 10
79.6947910959
 20
161.8198782482
 11
81.779040877
 21
161.8198782482
  0
LINE
  5
28C
100
AcDbEntity
  8
RUNDUNGEN
100
AcDbLine
 62
7
  6
CONTINUOUS
 10
76.1947910959
 20
161.8198782482
 11
79.7697910959
 21
161.8198782482
  0
LINE
  5
28D
100
AcDbEntity
  8
RUNDUNGEN
100
AcDbLine
 62
7
  6
CONTINUOUS
 10
80.4761172426
 20
161.8198782482
 11
90.7134649485
 21
161.8198782482
  0
LINE
  5
28E
100
AcDbEntity
  8
RUNDUNGEN
100
AcDbLine
 62
7
  6
CONTINUOUS
 10
91.4197910959
 20
161.8198782482
 11
94.9947910959
 21
161.8198782482
  0
LINE
  5
28F
100
AcDbEntity
  8
02___PRT_ALL_AXES
100
AcDbLine
 62
7
  6
CONTINUOUS
 10
89.4105409668
 20
161.8198782482
 11
91.4947910959
 21
161.8198782482
  0
LINE
  5
290
100
AcDbEntity
  8
02___PRT_ALL_AXES
100
AcDbLine
 62
7
  6
CONTINUOUS
 10
94.9947910959
 20
161.8198782482
 11
96.1947910959
 21
161.8198782482
  0
LINE
  5
291
100
AcDbEntity
  8
RUNDUNGEN
100
AcDbLine
 62
7
  6
CONTINUOUS
 10
95.4122910959
 20
161.8198782482
 11
96.1947910959
 21
161.8198782482
  0
LINE
  5
292
100
AcDbEntity
  8
RUNDUNGEN
100
AcDbLine
 62
7
  6
CONTINUOUS
 10
99.9947910959
 20
161.8198782482
 11
100.7772910959
 21
161.8198782482
  0
LINE
  5
293
100
AcDbEntity
  8
02___PRT_ALL_AXES
100
AcDbLine
 62
7
  6
CONTINUOUS
 10
99.9947910959
 20
161.8198782482
 11
101.1947910959
 21
161.8198782482
  0
LINE
  5
294
100
AcDbEntity
  8
RUNDUNGEN
100
AcDbLine
 62
7
  6
CONTINUOUS
 10
101.1947910959
 20
161.8198782482
 11
104.7697910959
 21
161.8198782482
  0
LINE
  5
295
100
AcDbEntity
  8
02___PRT_ALL_AXES
100
AcDbLine
 62
7
  6
CONTINUOUS
 10
104.7697910959
 20
161.8198782482
 11
106.779040877
 21
161.8198782482
  0
LINE
  5
296
100
AcDbEntity
  8
RUNDUNGEN
100
AcDbLine
 62
7
  6
CONTINUOUS
 10
105.4761172426
 20
161.8198782482
 11
115.7134649485
 21
161.8198782482
  0
LINE
  5
297
100
AcDbEntity
  8
02___PRT_ALL_AXES
100
AcDbLine
 62
7
  6
CONTINUOUS
 10
114.4105409668
 20
161.8198782482
 11
116.4947910959
 21
161.8198782482
  0
LINE
  5
298
100
AcDbEntity
  8
RUNDUNGEN
100
AcDbLine
 62
7
  6
CONTINUOUS
 10
116.4197910959
 20
161.8198782482
 11
119.9947910959
 21
161.8198782482
  0
LINE
  5
299
100
AcDbEntity
  8
02___PRT_ALL_AXES
100
AcDbLine
 62
7
  6
CONTINUOUS
 10
119.9947910959
 20
161.8198782482
 11
121.1947910959
 21
161.8198782482
  0
LINE
  5
29A
100
AcDbEntity
  8
RUNDUNGEN
100
AcDbLine
 62
7
  6
CONTINUOUS
 10
120.4122910959
 20
161.8198782482
 11
121.1947910959
 21
161.8198782482
  0
LINE
  5
29B
100
AcDbEntity
  8
02___PRT_ALL_AXES
100
AcDbLine
 62
7
  6
CONTINUOUS
 10
91.4197910959
 20
161.8198782482
 11
91.4197910959
 21
164.8198782482
  0
LINE
  5
29C
100
AcDbEntity
  8
RUNDUNGEN
100
AcDbLine
 62
7
  6
CONTINUOUS
 10
92.0947910959
 20
150.4198782482
 11
92.0947910959
 21
153.1248782482
  0
LINE
  5
29D
100
AcDbEntity
  8
RUNDUNGEN
100
AcDbLine
 62
7
  6
CONTINUOUS
 10
92.0947910959
 20
158.5148782482
 11
92.0947910959
 21
161.2198782482
  0
LINE
  5
29E
100
AcDbEntity
  8
RUNDUNGEN
100
AcDbLine
 62
9
  6
CONTINUOUS
 10
92.1152356002
 20
150.4198782482
 11
92.1152356002
 21
153.1248782482
  0
LINE
  5
29F
100
AcDbEntity
  8
RUNDUNGEN
100
AcDbLine
 62
9
  6
CONTINUOUS
 10
92.1152356002
 20
158.5148782482
 11
92.1152356002
 21
161.2198782482
  0
LINE
  5
2A0
100
AcDbEntity
  8
02___PRT_ALL_AXES
100
AcDbLine
 62
7
  6
CONTINUOUS
 10
92.1302910959
 20
161.8198782482
 11
92.1302910959
 21
164.8198782482
  0
LINE
  5
2A1
100
AcDbEntity
  8
02___PRT_ALL_AXES
100
AcDbLine
 62
7
  6
CONTINUOUS
 10
92.9122910959
 20
161.8198782482
 11
92.9122910959
 21
164.8198782482
  0
LINE
  5
2A2
100
AcDbEntity
  8
02___PRT_ALL_AXES
100
AcDbLine
 62
7
  6
CONTINUOUS
 10
50.7772910959
 20
164.8198782482
 11
53.2772910959
 21
164.8198782482
  0
LINE
  5
2A3
100
AcDbEntity
  8
02___PRT_ALL_AXES
100
AcDbLine
 62
7
  6
CONTINUOUS
 10
54.0592910959
 20
164.8198782482
 11
58.0592910959
 21
164.8198782482
  0
LINE
  5
2A4
100
AcDbEntity
  8
02___PRT_ALL_AXES
100
AcDbLine
 62
7
  6
CONTINUOUS
 10
63.1302910959
 20
164.8198782482
 11
67.1302910959
 21
164.8198782482
  0
LINE
  5
2A5
100
AcDbEntity
  8
02___PRT_ALL_AXES
100
AcDbLine
 62
7
  6
CONTINUOUS
 10
67.9122910959
 20
164.8198782482
 11
70.4122910959
 21
164.8198782482
  0
LINE
  5
2A6
100
AcDbEntity
  8
02___PRT_ALL_AXES
100
AcDbLine
 62
7
  6
CONTINUOUS
 10
75.7772910959
 20
164.8198782482
 11
78.2772910959
 21
164.8198782482
  0
LINE
  5
2A7
100
AcDbEntity
  8
02___PRT_ALL_AXES
100
AcDbLine
 62
7
  6
CONTINUOUS
 10
79.0592910959
 20
164.8198782482
 11
83.0592910959
 21
164.8198782482
  0
LINE
  5
2A8
100
AcDbEntity
  8
02___PRT_ALL_AXES
100
AcDbLine
 62
7
  6
CONTINUOUS
 10
88.1302910959
 20
164.8198782482
 11
92.1302910959
 21
164.8198782482
  0
LINE
  5
2A9
100
AcDbEntity
  8
02___PRT_ALL_AXES
100
AcDbLine
 62
7
  6
CONTINUOUS
 10
92.9122910959
 20
164.8198782482
 11
95.4122910959
 21
164.8198782482
  0
LINE
  5
2AA
100
AcDbEntity
  8
02___PRT_ALL_AXES
100
AcDbLine
 62
7
  6
CONTINUOUS
 10
100.7772910959
 20
164.8198782482
 11
103.2772910959
 21
164.8198782482
  0
LINE
  5
2AB
100
AcDbEntity
  8
02___PRT_ALL_AXES
100
AcDbLine
 62
7
  6
CONTINUOUS
 10
104.0592910959
 20
164.8198782482
 11
108.0592910959
 21
164.8198782482
  0
LINE
  5
2AC
100
AcDbEntity
  8
02___PRT_ALL_AXES
100
AcDbLine
 62
7
  6
CONTINUOUS
 10
113.1302910959
 20
164.8198782482
 11
117.1302910959
 21
164.8198782482
  0
LINE
  5
2AD
100
AcDbEntity
  8
02___PRT_ALL_AXES
100
AcDbLine
 62
7
  6
CONTINUOUS
 10
117.9122910959
 20
164.8198782482
 11
120.4122910959
 21
164.8198782482
  0
LINE
  5
2AE
100
AcDbEntity
  8
02___PRT_ALL_AXES
100
AcDbLine
 62
7
  6
CONTINUOUS
 10
95.4122910959
 20
161.8198782482
 11
95.4122910959
 21
164.8198782482
  0
LINE
  5
2AF
100
AcDbEntity
  8
RUNDUNGEN
100
AcDbLine
 62
9
  6
CONTINUOUS
 10
95.5743465917
 20
150.4198782482
 11
95.5743465917
 21
153.6456498386
  0
LINE
  5
2B0
100
AcDbEntity
  8
RUNDUNGEN
100
AcDbLine
 62
9
  6
CONTINUOUS
 10
95.5743465917
 20
157.9941066578
 11
95.5743465917
 21
161.2198782482
  0
LINE
  5
2B1
100
AcDbEntity
  8
RUNDUNGEN
100
AcDbLine
 62
7
  6
CONTINUOUS
 10
95.5947910959
 20
161.2198782482
 11
95.5947910959
 21
158.7356385823
  0
LINE
  5
2B2
100
AcDbEntity
  8
RUNDUNGEN
100
AcDbLine
 62
7
  6
CONTINUOUS
 10
95.5947910959
 20
152.9041179141
 11
95.5947910959
 21
150.4198782482
  0
LINE
  5
2B3
100
AcDbEntity
  8
RUNDUNGEN
100
AcDbLine
 62
9
  6
CONTINUOUS
 10
96.1947910959
 20
161.8198782482
 11
96.1947910959
 21
158.470569461
  0
LINE
  5
2B4
100
AcDbEntity
  8
RUNDUNGEN
100
AcDbLine
 62
9
  6
CONTINUOUS
 10
96.1947910959
 20
153.1691870354
 11
96.1947910959
 21
149.8198782482
  0
LINE
  5
2B5
100
AcDbEntity
  8
RUNDUNGEN
100
AcDbLine
 62
9
  6
CONTINUOUS
 10
99.9947910959
 20
149.8198782482
 11
99.9947910959
 21
153.1691870354
  0
LINE
  5
2B6
100
AcDbEntity
  8
RUNDUNGEN
100
AcDbLine
 62
9
  6
CONTINUOUS
 10
99.9947910959
 20
158.470569461
 11
99.9947910959
 21
161.8198782482
  0
LINE
  5
2B7
100
AcDbEntity
  8
RUNDUNGEN
100
AcDbLine
 62
7
  6
CONTINUOUS
 10
100.5947910959
 20
150.4198782482
 11
100.5947910959
 21
152.9041179141
  0
LINE
  5
2B8
100
AcDbEntity
  8
RUNDUNGEN
100
AcDbLine
 62
7
  6
CONTINUOUS
 10
100.5947910959
 20
158.7356385823
 11
100.5947910959
 21
161.2198782482
  0
LINE
  5
2B9
100
AcDbEntity
  8
RUNDUNGEN
100
AcDbLine
 62
9
  6
CONTINUOUS
 10
100.6152356002
 20
161.2198782482
 11
100.6152356002
 21
157.9941066578
  0
LINE
  5
2BA
100
AcDbEntity
  8
RUNDUNGEN
100
AcDbLine
 62
9
  6
CONTINUOUS
 10
100.6152356002
 20
153.6456498386
 11
100.6152356002
 21
150.4198782482
  0
LINE
  5
2BB
100
AcDbEntity
  8
02___PRT_ALL_AXES
100
AcDbLine
 62
7
  6
CONTINUOUS
 10
100.7772910959
 20
161.8198782482
 11
100.7772910959
 21
164.8198782482
  0
LINE
  5
2BC
100
AcDbEntity
  8
02___PRT_ALL_AXES
100
AcDbLine
 62
7
  6
CONTINUOUS
 10
103.2772910959
 20
161.8198782482
 11
103.2772910959
 21
164.8198782482
  0
LINE
  5
2BD
100
AcDbEntity
  8
02___PRT_ALL_AXES
100
AcDbLine
 62
7
  6
CONTINUOUS
 10
104.0592910959
 20
161.8198782482
 11
104.0592910959
 21
164.8198782482
  0
LINE
  5
2BE
100
AcDbEntity
  8
RUNDUNGEN
100
AcDbLine
 62
9
  6
CONTINUOUS
 10
104.0743465917
 20
161.2198782482
 11
104.0743465917
 21
158.5148782482
  0
LINE
  5
2BF
100
AcDbEntity
  8
RUNDUNGEN
100
AcDbLine
 62
9
  6
CONTINUOUS
 10
104.0743465917
 20
153.1248782482
 11
104.0743465917
 21
150.4198782482
  0
LINE
  5
2C0
100
AcDbEntity
  8
RUNDUNGEN
100
AcDbLine
 62
7
  6
CONTINUOUS
 10
104.0947910959
 20
150.4198782482
 11
104.0947910959
 21
153.1248782482
  0
LINE
  5
2C1
100
AcDbEntity
  8
0
100
AcDbLine
 62
7
  6
CONTINUOUS
 10
104.0947910959
 20
150.4198782482
 11
104.0947910959
 21
153.1248782482
  0
LINE
  5
2C2
100
AcDbEntity
  8
RUNDUNGEN
100
AcDbLine
 62
7
  6
CONTINUOUS
 10
104.0947910959
 20
158.5148782482
 11
104.0947910959
 21
161.2198782482
  0
LINE
  5
2C3
100
AcDbEntity
  8
0
100
AcDbLine
 62
7
  6
CONTINUOUS
 10
104.0947910959
 20
158.5148782482
 11
104.0947910959
 21
161.2198782482
  0
LINE
  5
2C4
100
AcDbEntity
  8
02___PRT_ALL_AXES
100
AcDbLine
 62
7
  6
CONTINUOUS
 10
104.7697910959
 20
161.8198782482
 11
104.7697910959
 21
164.8198782482
  0
LINE
  5
2C5
100
AcDbEntity
  8
02___PRT_ALL_AXES
100
AcDbLine
 62
7
  6
CONTINUOUS
 10
107.7697910959
 20
161.8198782482
 11
107.7697910959
 21
164.8198782482
  0
LINE
  5
2C6
100
AcDbEntity
  8
02___PRT_ALL_AXES
100
AcDbLine
 62
7
  6
CONTINUOUS
 10
108.0592910959
 20
161.8198782482
 11
108.0592910959
 21
164.8198782482
  0
LINE
  5
2C7
100
AcDbEntity
  8
02___PRT_ALL_AXES
100
AcDbLine
 62
7
  6
CONTINUOUS
 10
113.1302910959
 20
161.8198782482
 11
113.1302910959
 21
164.8198782482
  0
LINE
  5
2C8
100
AcDbEntity
  8
02___PRT_ALL_AXES
100
AcDbLine
 62
7
  6
CONTINUOUS
 10
113.4197910959
 20
161.8198782482
 11
113.4197910959
 21
164.8198782482
  0
LINE
  5
2C9
100
AcDbEntity
  8
02___PRT_ALL_AXES
100
AcDbLine
 62
7
  6
CONTINUOUS
 10
116.4197910959
 20
161.8198782482
 11
116.4197910959
 21
164.8198782482
  0
LINE
  5
2CA
100
AcDbEntity
  8
RUNDUNGEN
100
AcDbLine
 62
7
  6
CONTINUOUS
 10
117.0947910959
 20
150.4198782482
 11
117.0947910959
 21
153.1248782482
  0
LINE
  5
2CB
100
AcDbEntity
  8
RUNDUNGEN
100
AcDbLine
 62
7
  6
CONTINUOUS
 10
117.0947910959
 20
158.5148782482
 11
117.0947910959
 21
161.2198782482
  0
LINE
  5
2CC
100
AcDbEntity
  8
RUNDUNGEN
100
AcDbLine
 62
9
  6
CONTINUOUS
 10
117.1152356002
 20
150.4198782482
 11
117.1152356002
 21
153.1248782482
  0
LINE
  5
2CD
100
AcDbEntity
  8
RUNDUNGEN
100
AcDbLine
 62
9
  6
CONTINUOUS
 10
117.1152356002
 20
158.5148782482
 11
117.1152356002
 21
161.2198782482
  0
LINE
  5
2CE
100
AcDbEntity
  8
02___PRT_ALL_AXES
100
AcDbLine
 62
7
  6
CONTINUOUS
 10
117.1302910959
 20
161.8198782482
 11
117.1302910959
 21
164.8198782482
  0
LINE
  5
2CF
100
AcDbEntity
  8
02___PRT_ALL_AXES
100
AcDbLine
 62
7
  6
CONTINUOUS
 10
117.9122910959
 20
161.8198782482
 11
117.9122910959
 21
164.8198782482
  0
LINE
  5
2D0
100
AcDbEntity
  8
02___PRT_ALL_AXES
100
AcDbLine
 62
7
  6
CONTINUOUS
 10
120.4122910959
 20
161.8198782482
 11
120.4122910959
 21
164.8198782482
  0
LINE
  5
2D1
100
AcDbEntity
  8
RUNDUNGEN
100
AcDbLine
 62
9
  6
CONTINUOUS
 10
120.5743465917
 20
150.4198782482
 11
120.5743465917
 21
153.6456498386
  0
LINE
  5
2D2
100
AcDbEntity
  8
RUNDUNGEN
100
AcDbLine
 62
9
  6
CONTINUOUS
 10
120.5743465917
 20
157.9941066578
 11
120.5743465917
 21
161.2198782482
  0
LINE
  5
2D3
100
AcDbEntity
  8
RUNDUNGEN
100
AcDbLine
 62
7
  6
CONTINUOUS
 10
120.5947910959
 20
161.2198782482
 11
120.5947910959
 21
158.7356385823
  0
LINE
  5
2D4
100
AcDbEntity
  8
RUNDUNGEN
100
AcDbLine
 62
7
  6
CONTINUOUS
 10
120.5947910959
 20
152.9041179141
 11
120.5947910959
 21
150.4198782482
  0
LINE
  5
2D5
100
AcDbEntity
  8
RUNDUNGEN
100
AcDbLine
 62
9
  6
CONTINUOUS
 10
121.1947910959
 20
161.8198782482
 11
121.1947910959
 21
158.470569461
  0
LINE
  5
2D6
100
AcDbEntity
  8
RUNDUNGEN
100
AcDbLine
 62
9
  6
CONTINUOUS
 10
121.1947910959
 20
153.1691870354
 11
121.1947910959
 21
149.8198782482
  0
LINE
  5
2D7
100
AcDbEntity
  8
0
100
AcDbLine
 62
7
  6
CONTINUOUS
 10
123.0947910959
 20
149.8199831198
 11
123.0947910959
 21
161.8197733765
  0
LINE
  5
2D8
100
AcDbEntity
  8
DEFAULT_1
100
AcDbLine
 62
7
  6
CENTER
 10
212.9312133789
 20
155.8198782482
 11
212.9312133789
 21
146.8198782482
  0
LINE
  5
2D9
100
AcDbEntity
  8
DEFAULT_1
100
AcDbLine
 62
7
  6
CENTER
 10
212.9312133789
 20
155.8198782482
 11
212.9312133789
 21
164.8198782482
  0
LINE
  5
2DA
100
AcDbEntity
  8
02___PRT_ALL_AXES
100
AcDbLine
 62
7
  6
CONTINUOUS
 10
213.6812133789
 20
161.8198782482
 11
213.6812133789
 21
164.8198782482
  0
LINE
  5
2DB
100
AcDbEntity
  8
02___PRT_ALL_AXES
100
AcDbLine
 62
7
  6
CONTINUOUS
 10
216.1812133789
 20
161.8198782482
 11
216.1812133789
 21
164.8198782482
  0
LINE
  5
2DC
100
AcDbEntity
  8
RUNDUNGEN
100
AcDbLine
 62
9
  6
CONTINUOUS
 10
216.7259465711
 20
150.4198782482
 11
216.7259465711
 21
149.8198782482
  0
LINE
  5
2DD
100
AcDbEntity
  8
RUNDUNGEN
100
AcDbLine
 62
9
  6
CONTINUOUS
 10
216.7259465711
 20
161.2198782482
 11
216.725946571
 21
161.8198782482
  0
LINE
  5
2DE
100
AcDbEntity
  8
RUNDUNGEN
100
AcDbLine
 62
9
  6
CONTINUOUS
 10
218.8522218804
 20
149.8198782482
 11
218.8522218804
 21
152.9041179141
  0
LINE
  5
2DF
100
AcDbEntity
  8
RUNDUNGEN
100
AcDbLine
 62
9
  6
CONTINUOUS
 10
218.8522218804
 20
158.7356385823
 11
218.8522218804
 21
161.8198782482
  0
LINE
  5
2E0
100
AcDbEntity
  8
RUNDUNGEN
100
AcDbLine
 62
7
  6
CONTINUOUS
 10
212.9312133789
 20
149.8198782482
 11
241.9312133789
 21
149.8198782482
  0
LINE
  5
2E1
100
AcDbEntity
  8
RUNDUNGEN
100
AcDbLine
 62
9
  6
CONTINUOUS
 10
216.725964887
 20
150.4198782482
 11
242.3888404976
 21
150.4198782482
  0
LINE
  5
2E2
100
AcDbEntity
  8
RUNDUNGEN
100
AcDbLine
 62
9
  6
CONTINUOUS
 10
218.8522218801
 20
152.9041179144
 11
218.3139483822
 21
153.1691870393
  0
LINE
  5
2E3
100
AcDbEntity
  8
RUNDUNGEN
100
AcDbLine
 62
9
  6
CONTINUOUS
 10
219.0075133074
 20
161.2198782482
 11
219.0075133074
 21
157.9941066578
  0
LINE
  5
2E4
100
AcDbEntity
  8
RUNDUNGEN
100
AcDbLine
 62
9
  6
CONTINUOUS
 10
219.0075133074
 20
153.6456498386
 11
219.0075133074
 21
150.4198782482
  0
LINE
  5
2E5
100
AcDbEntity
  8
RUNDUNGEN
100
AcDbLine
 62
9
  6
CONTINUOUS
 10
218.8522218801
 20
158.735638582
 11
218.3139483836
 21
158.4705694541
  0
LINE
  5
2E6
100
AcDbEntity
  8
RUNDUNGEN
100
AcDbLine
 62
7
  6
CONTINUOUS
 10
237.4312133789
 20
153.1248782482
 11
230.1262133789
 21
153.1248782482
  0
LINE
  5
2E7
100
AcDbEntity
  8
0
100
AcDbLine
 62
7
  6
CONTINUOUS
 10
237.4312133789
 20
153.1248782482
 11
238.1262133789
 21
153.1248782482
  0
LINE
  5
2E8
100
AcDbEntity
  8
DEFAULT_1
100
AcDbLine
 62
7
  6
CENTER
 10
212.9312133789
 20
155.8198782482
 11
203.9312133789
 21
155.8198782482
  0
LINE
  5
2E9
100
AcDbEntity
  8
DEFAULT_1
100
AcDbLine
 62
7
  6
CENTER
 10
212.9312133789
 20
155.8198782482
 11
221.9312133789
 21
155.8198782482
  0
LINE
  5
2EA
100
AcDbEntity
  8
RUNDUNGEN
100
AcDbLine
 62
7
  6
CONTINUOUS
 10
230.1262133789
 20
158.5148782482
 11
237.4312133789
 21
158.5148782482
  0
LINE
  5
2EB
100
AcDbEntity
  8
0
100
AcDbLine
 62
7
  6
CONTINUOUS
 10
237.4312133789
 20
158.5148782482
 11
238.1262133789
 21
158.5148782482
  0
LINE
  5
2EC
100
AcDbEntity
  8
02___PRT_ALL_AXES
100
AcDbLine
 62
7
  6
CONTINUOUS
 10
227.0582133789
 20
161.8198782482
 11
227.0582133789
 21
164.8198782482
  0
LINE
  5
2ED
100
AcDbEntity
  8
RUNDUNGEN
100
AcDbLine
 62
9
  6
CONTINUOUS
 10
242.3888404976
 20
161.2198782482
 11
216.7259646598
 21
161.2198782482
  0
LINE
  5
2EE
100
AcDbEntity
  8
RUNDUNGEN
100
AcDbLine
 62
7
  6
CONTINUOUS
 10
213.6812133789
 20
161.8198782482
 11
213.1075403596
 21
161.8198782482
  0
LINE
  5
2EF
100
AcDbEntity
  8
02___PRT_ALL_AXES
100
AcDbLine
 62
7
  6
CONTINUOUS
 10
212.9312133789
 20
161.8198782482
 11
216.7259465711
 21
161.8198782482
  0
LINE
  5
2F0
100
AcDbEntity
  8
RUNDUNGEN
100
AcDbLine
 62
7
  6
CONTINUOUS
 10
216.7259465711
 20
161.8198782482
 11
238.7039949909
 21
161.8198782482
  0
LINE
  5
2F1
100
AcDbEntity
  8
02___PRT_ALL_AXES
100
AcDbLine
 62
7
  6
CONTINUOUS
 10
237.4312133789
 20
161.8198782482
 11
241.9312200228
 21
161.8198782482
  0
LINE
  5
2F2
100
AcDbEntity
  8
RUNDUNGEN
100
AcDbLine
 62
7
  6
CONTINUOUS
 10
240.4341580459
 20
161.8198782482
 11
241.9312133789
 21
161.8198782482
  0
LINE
  5
2F3
100
AcDbEntity
  8
02___PRT_ALL_AXES
100
AcDbLine
 62
7
  6
CONTINUOUS
 10
231.0582133789
 20
161.8198782482
 11
231.0582133789
 21
164.8198782482
  0
LINE
  5
2F4
100
AcDbEntity
  8
RUNDUNGEN
100
AcDbLine
 62
9
  6
CONTINUOUS
 10
231.9170912769
 20
161.2198782482
 11
231.9170912769
 21
158.5148782482
  0
LINE
  5
2F5
100
AcDbEntity
  8
RUNDUNGEN
100
AcDbLine
 62
9
  6
CONTINUOUS
 10
231.9170912769
 20
153.1248782482
 11
231.9170912769
 21
150.4198782482
  0
LINE
  5
2F6
100
AcDbEntity
  8
RUNDUNGEN
100
AcDbLine
 62
9
  6
CONTINUOUS
 10
232.0723827039
 20
153.1248782482
 11
232.0723827039
 21
149.8198782482
  0
LINE
  5
2F7
100
AcDbEntity
  8
RUNDUNGEN
100
AcDbLine
 62
9
  6
CONTINUOUS
 10
232.0723827039
 20
158.5148782482
 11
232.0723827028
 21
161.8198782482
  0
LINE
  5
2F8
100
AcDbEntity
  8
02___PRT_ALL_AXES
100
AcDbLine
 62
7
  6
CONTINUOUS
 10
213.6812133789
 20
164.8198782482
 11
216.1812133789
 21
164.8198782482
  0
LINE
  5
2F9
100
AcDbEntity
  8
02___PRT_ALL_AXES
100
AcDbLine
 62
7
  6
CONTINUOUS
 10
227.0585231335
 20
164.8198782482
 11
231.0579036243
 21
164.8198782482
  0
LINE
  5
2FA
100
AcDbEntity
  8
02___PRT_ALL_AXES
100
AcDbLine
 62
7
  6
CONTINUOUS
 10
237.6372133789
 20
164.8198782482
 11
240.6372133789
 21
164.8198782482
  0
LINE
  5
2FB
100
AcDbEntity
  8
RUNDUNGEN
100
AcDbLine
 62
9
  6
CONTINUOUS
 10
237.4312133789
 20
149.8198782482
 11
237.4312133789
 21
153.1248782482
  0
LINE
  5
2FC
100
AcDbEntity
  8
RUNDUNGEN
100
AcDbLine
 62
9
  6
CONTINUOUS
 10
237.4312133789
 20
158.5148782482
 11
237.4312133789
 21
161.8198782482
  0
LINE
  5
2FD
100
AcDbEntity
  8
02___PRT_ALL_AXES
100
AcDbLine
 62
7
  6
CONTINUOUS
 10
237.6372133789
 20
161.8198782482
 11
237.6372133789
 21
164.8198782482
  0
LINE
  5
2FE
100
AcDbEntity
  8
02___PRT_ALL_AXES
100
AcDbLine
 62
7
  6
CONTINUOUS
 10
240.6372133789
 20
161.8198782482
 11
240.6372133789
 21
164.8198782482
  0
LINE
  5
2FF
100
AcDbEntity
  8
0
100
AcDbLine
 62
7
  6
CONTINUOUS
 10
243.9312133789
 20
151.8198782482
 11
243.9312133789
 21
159.8198782482
  0
LINE
  5
300
100
AcDbEntity
  8
0
100
AcDbLine
 62
7
  6
CONTINUOUS
 10
48.0947910959
 20
79.1564858127
 11
48.0947910959
 21
91.1564858127
  0
LINE
  5
301
100
AcDbEntity
  8
RUNDUNGEN
100
AcDbLine
 62
9
  6
CONTINUOUS
 10
49.9947910959
 20
79.7737508114
 11
49.9947910959
 21
85.1564858127
  0
LINE
  5
302
100
AcDbEntity
  8
RUNDUNGEN
100
AcDbLine
 62
7
  6
CONTINUOUS
 10
50.5947910959
 20
79.2354773113
 11
50.5947910959
 21
81.3617526205
  0
LINE
  5
303
100
AcDbEntity
  8
RUNDUNGEN
100
AcDbLine
 62
9
  6
CONTINUOUS
 10
51.1947910959
 20
79.2354773113
 11
51.1947910959
 21
81.3617526205
  0
LINE
  5
304
100
AcDbEntity
  8
RUNDUNGEN
100
AcDbLine
 62
7
  6
CONTINUOUS
 10
50.5947910959
 20
79.2354773112
 11
50.6152356
 21
79.0801858847
  0
LINE
  5
305
100
AcDbEntity
  8
02___PRT_ALL_AXES
100
AcDbLine
 62
9
  6
CONTINUOUS
 10
52.9947910959
 20
78.1564858127
 11
52.9947910959
 21
82.3650038167
  0
LINE
  5
306
100
AcDbEntity
  8
02___PRT_ALL_AXES
100
AcDbLine
 62
9
  6
CONTINUOUS
 10
52.9947910959
 20
83.9479678087
 11
52.9947910959
 21
84.980158832
  0
LINE
  5
307
100
AcDbEntity
  8
RUNDUNGEN
100
AcDbLine
 62
7
  6
CONTINUOUS
 10
53.5947910959
 20
78.1564858127
 11
53.5947910959
 21
84.980158832
  0
LINE
  5
308
100
AcDbEntity
  8
RUNDUNGEN
100
AcDbLine
 62
7
  6
CONTINUOUS
 10
54.0947910959
 20
60.6564858127
 11
54.0947910959
 21
66.0153164877
  0
LINE
  5
309
100
AcDbEntity
  8
RUNDUNGEN
100
AcDbLine
 62
9
  6
CONTINUOUS
 10
54.6947910959
 20
60.6564858127
 11
54.6947910959
 21
66.0153164877
  0
LINE
  5
30A
100
AcDbEntity
  8
RUNDUNGEN
100
AcDbLine
 62
7
  6
CONTINUOUS
 10
54.0743465917
 20
66.1706079148
 11
50.6152356002
 21
79.0801858842
  0
LINE
  5
30B
100
AcDbEntity
  8
RUNDUNGEN
100
AcDbLine
 62
9
  6
CONTINUOUS
 10
54.6539020875
 20
66.3258993418
 11
51.1947910959
 21
79.2354773113
  0
LINE
  5
30C
100
AcDbEntity
  8
RUNDUNGEN
100
AcDbLine
 62
7
  6
CONTINUOUS
 10
54.0743465917
 20
66.1706079147
 11
54.0947910959
 21
66.0153164883
  0
LINE
  5
30D
100
AcDbEntity
  8
0
100
AcDbLine
 62
7
  6
CONTINUOUS
 10
58.0947910959
 20
67.6564858127
 11
58.0947910959
 21
60.1564858127
  0
LINE
  5
30E
100
AcDbEntity
  8
RUNDUNGEN
100
AcDbLine
 62
9
  6
CONTINUOUS
 10
64.7985909643
 20
55.6988586921
 11
64.4105479016
 21
56.1564858128
  0
LINE
  5
30F
100
AcDbEntity
  8
RUNDUNGEN
100
AcDbLine
 62
9
  6
CONTINUOUS
 10
52.9706681443
 20
85.1169668894
 11
52.9562844325
 21
85.1564858127
  0
LINE
  5
310
100
AcDbEntity
  8
RUNDUNGEN
100
AcDbLine
 62
7
  6
CONTINUOUS
 10
53.5344837167
 20
85.3221789754
 11
51.5546607399
 21
90.7616978987
  0
LINE
  5
311
100
AcDbEntity
  8
0
100
AcDbLine
 62
7
  6
CONTINUOUS
 10
63.0947910959
 20
67.6564858127
 11
63.0947910959
 21
60.1564858127
  0
LINE
  5
312
100
AcDbEntity
  8
RUNDUNGEN
100
AcDbLine
 62
9
  6
CONTINUOUS
 10
52.9562844325
 20
85.1564858127
 11
53.5201000049
 21
85.3616978987
  0
LINE
  5
313
100
AcDbEntity
  8
RUNDUNGEN
100
AcDbLine
 62
9
  6
CONTINUOUS
 10
52.9706681443
 20
85.1169668894
 11
53.5344837167
 21
85.3221789754
  0
LINE
  5
314
100
AcDbEntity
  8
RUNDUNGEN
100
AcDbLine
 62
7
  6
CONTINUOUS
 10
69.634921452
 20
90.7616978987
 11
67.6550984752
 21
85.3221789754
  0
LINE
  5
315
100
AcDbEntity
  8
RUNDUNGEN
100
AcDbLine
 62
9
  6
CONTINUOUS
 10
68.2332977594
 20
85.1564858127
 11
68.2189140476
 21
85.1169668894
  0
LINE
  5
316
100
AcDbEntity
  8
RUNDUNGEN
100
AcDbLine
 62
9
  6
CONTINUOUS
 10
66.4947910959
 20
66.0153164877
 11
66.4947910959
 21
60.6564858127
  0
LINE
  5
317
100
AcDbEntity
  8
RUNDUNGEN
100
AcDbLine
 62
7
  6
CONTINUOUS
 10
67.0947910959
 20
66.0153164877
 11
67.0947910959
 21
60.6564858127
  0
LINE
  5
318
100
AcDbEntity
  8
RUNDUNGEN
100
AcDbLine
 62
7
  6
CONTINUOUS
 10
67.5947910959
 20
84.980158832
 11
67.5947910959
 21
78.1564858127
  0
LINE
  5
319
100
AcDbEntity
  8
02___PRT_ALL_AXES
100
AcDbLine
 62
9
  6
CONTINUOUS
 10
68.1947910959
 20
84.980158832
 11
68.1947910959
 21
83.9479678087
  0
LINE
  5
31A
100
AcDbEntity
  8
02___PRT_ALL_AXES
100
AcDbLine
 62
9
  6
CONTINUOUS
 10
68.1947910959
 20
82.3650038167
 11
68.1947910959
 21
78.1564858127
  0
LINE
  5
31B
100
AcDbEntity
  8
RUNDUNGEN
100
AcDbLine
 62
9
  6
CONTINUOUS
 10
69.9947910959
 20
79.2354773113
 11
66.5356801044
 21
66.3258993418
  0
LINE
  5
31C
100
AcDbEntity
  8
RUNDUNGEN
100
AcDbLine
 62
9
  6
CONTINUOUS
 10
56.779040877
 20
56.1564791689
 11
64.4105409668
 21
56.1564788178
  0
LINE
  5
31D
100
AcDbEntity
  8
RUNDUNGEN
100
AcDbLine
 62
9
  6
CONTINUOUS
 10
81.779040877
 20
56.1564791689
 11
89.4105409668
 21
56.1564788178
  0
LINE
  5
31E
100
AcDbEntity
  8
RUNDUNGEN
100
AcDbLine
 62
9
  6
CONTINUOUS
 10
106.779040877
 20
56.1564791689
 11
114.4105409668
 21
56.1564788178
  0
LINE
  5
31F
100
AcDbEntity
  8
RUNDUNGEN
100
AcDbLine
 62
9
  6
CONTINUOUS
 10
69.9947910959
 20
81.3617526205
 11
69.9947910959
 21
79.2354773113
  0
LINE
  5
320
100
AcDbEntity
  8
RUNDUNGEN
100
AcDbLine
 62
7
  6
CONTINUOUS
 10
70.5947910959
 20
81.3617397924
 11
70.5947910959
 21
79.2354773113
  0
LINE
  5
321
100
AcDbEntity
  8
RUNDUNGEN
100
AcDbLine
 62
9
  6
CONTINUOUS
 10
71.1947910959
 20
85.1564858127
 11
71.1947910959
 21
79.7737508114
  0
LINE
  5
322
100
AcDbEntity
  8
RUNDUNGEN
100
AcDbLine
 62
7
  6
CONTINUOUS
 10
70.5743465919
 20
79.0801858847
 11
70.5947910959
 21
79.2354773112
  0
LINE
  5
323
100
AcDbEntity
  8
RUNDUNGEN
100
AcDbLine
 62
7
  6
CONTINUOUS
 10
70.5743465917
 20
79.0801858842
 11
67.1152356002
 21
66.1706079148
  0
LINE
  5
324
100
AcDbEntity
  8
RUNDUNGEN
100
AcDbLine
 62
9
  6
CONTINUOUS
 10
77.9562844325
 20
85.1564858127
 11
78.5201000049
 21
85.3616978987
  0
LINE
  5
325
100
AcDbEntity
  8
RUNDUNGEN
100
AcDbLine
 62
9
  6
CONTINUOUS
 10
77.9706681443
 20
85.1169668894
 11
78.5344837167
 21
85.3221789754
  0
LINE
  5
326
100
AcDbEntity
  8
RUNDUNGEN
100
AcDbLine
 62
9
  6
CONTINUOUS
 10
56.3909912276
 20
55.6988586921
 11
56.7790342903
 21
56.1564858127
  0
LINE
  5
327
100
AcDbEntity
  8
RUNDUNGEN
100
AcDbLine
 62
9
  6
CONTINUOUS
 10
104.0743465917
 20
66.1706079148
 11
104.6539020875
 21
66.3258993418
  0
LINE
  5
328
100
AcDbEntity
  8
RUNDUNGEN
100
AcDbLine
 62
9
  6
CONTINUOUS
 10
117.0947910959
 20
60.6564858127
 11
116.4947910959
 21
60.6564858127
  0
LINE
  5
329
100
AcDbEntity
  8
RUNDUNGEN
100
AcDbLine
 62
9
  6
CONTINUOUS
 10
92.0947910959
 20
60.6564858127
 11
91.4947910959
 21
60.6564858127
  0
LINE
  5
32A
100
AcDbEntity
  8
RUNDUNGEN
100
AcDbLine
 62
9
  6
CONTINUOUS
 10
67.0947910959
 20
60.6564858127
 11
66.4947910959
 21
60.6564858127
  0
LINE
  5
32B
100
AcDbEntity
  8
RUNDUNGEN
100
AcDbLine
 62
9
  6
CONTINUOUS
 10
54.0947910959
 20
60.6564858127
 11
54.6947910959
 21
60.6564858127
  0
LINE
  5
32C
100
AcDbEntity
  8
RUNDUNGEN
100
AcDbLine
 62
9
  6
CONTINUOUS
 10
79.0947910959
 20
60.6564858127
 11
79.6947910959
 21
60.6564858127
  0
LINE
  5
32D
100
AcDbEntity
  8
RUNDUNGEN
100
AcDbLine
 62
9
  6
CONTINUOUS
 10
104.0947910959
 20
60.6564858127
 11
104.6947910959
 21
60.6564858127
  0
LINE
  5
32E
100
AcDbEntity
  8
RUNDUNGEN
100
AcDbLine
 62
9
  6
CONTINUOUS
 10
67.1152356002
 20
66.1706079148
 11
66.5356801044
 21
66.3258993417
  0
LINE
  5
32F
100
AcDbEntity
  8
RUNDUNGEN
100
AcDbLine
 62
9
  6
CONTINUOUS
 10
74.9947910959
 20
79.7737508114
 11
74.9947910959
 21
85.1564858127
  0
LINE
  5
330
100
AcDbEntity
  8
RUNDUNGEN
100
AcDbLine
 62
7
  6
CONTINUOUS
 10
75.5947910959
 20
79.2354773113
 11
75.5947910959
 21
81.3617526205
  0
LINE
  5
331
100
AcDbEntity
  8
RUNDUNGEN
100
AcDbLine
 62
9
  6
CONTINUOUS
 10
76.1947910959
 20
79.2354773113
 11
76.1947910959
 21
81.3617526205
  0
LINE
  5
332
100
AcDbEntity
  8
RUNDUNGEN
100
AcDbLine
 62
7
  6
CONTINUOUS
 10
75.5947910959
 20
79.2354773112
 11
75.6152356
 21
79.0801858847
  0
LINE
  5
333
100
AcDbEntity
  8
02___PRT_ALL_AXES
100
AcDbLine
 62
9
  6
CONTINUOUS
 10
77.9947910959
 20
78.1564858127
 11
77.9947910959
 21
82.3650038167
  0
LINE
  5
334
100
AcDbEntity
  8
02___PRT_ALL_AXES
100
AcDbLine
 62
9
  6
CONTINUOUS
 10
77.9947910959
 20
83.9479678087
 11
77.9947910959
 21
84.980158832
  0
LINE
  5
335
100
AcDbEntity
  8
RUNDUNGEN
100
AcDbLine
 62
7
  6
CONTINUOUS
 10
78.5947910959
 20
78.1564858127
 11
78.5947910959
 21
84.980158832
  0
LINE
  5
336
100
AcDbEntity
  8
RUNDUNGEN
100
AcDbLine
 62
7
  6
CONTINUOUS
 10
79.0947910959
 20
60.6564858127
 11
79.0947910959
 21
66.0153164877
  0
LINE
  5
337
100
AcDbEntity
  8
RUNDUNGEN
100
AcDbLine
 62
9
  6
CONTINUOUS
 10
79.6947910959
 20
60.6564858127
 11
79.6947910959
 21
66.0153164877
  0
LINE
  5
338
100
AcDbEntity
  8
RUNDUNGEN
100
AcDbLine
 62
9
  6
CONTINUOUS
 10
102.9562844325
 20
85.1564858127
 11
103.5201000049
 21
85.3616978987
  0
LINE
  5
339
100
AcDbEntity
  8
RUNDUNGEN
100
AcDbLine
 62
9
  6
CONTINUOUS
 10
102.9706681443
 20
85.1169668894
 11
103.5344837167
 21
85.3221789754
  0
LINE
  5
33A
100
AcDbEntity
  8
RUNDUNGEN
100
AcDbLine
 62
9
  6
CONTINUOUS
 10
117.0947910959
 20
66.0153164877
 11
116.4947910959
 21
66.0153164877
  0
LINE
  5
33B
100
AcDbEntity
  8
RUNDUNGEN
100
AcDbLine
 62
9
  6
CONTINUOUS
 10
92.0947910959
 20
66.0153164877
 11
91.4947910959
 21
66.0153164877
  0
LINE
  5
33C
100
AcDbEntity
  8
RUNDUNGEN
100
AcDbLine
 62
9
  6
CONTINUOUS
 10
67.0947910959
 20
66.0153164877
 11
66.4947910959
 21
66.0153164877
  0
LINE
  5
33D
100
AcDbEntity
  8
RUNDUNGEN
100
AcDbLine
 62
9
  6
CONTINUOUS
 10
54.0947910959
 20
66.0153164877
 11
54.6947910959
 21
66.0153164888
  0
LINE
  5
33E
100
AcDbEntity
  8
RUNDUNGEN
100
AcDbLine
 62
9
  6
CONTINUOUS
 10
79.0947910959
 20
66.0153164877
 11
79.6947910959
 21
66.0153164888
  0
LINE
  5
33F
100
AcDbEntity
  8
RUNDUNGEN
100
AcDbLine
 62
9
  6
CONTINUOUS
 10
104.0947910959
 20
66.0153164877
 11
104.6947910959
 21
66.0153164888
  0
LINE
  5
340
100
AcDbEntity
  8
RUNDUNGEN
100
AcDbLine
 62
9
  6
CONTINUOUS
 10
89.7985909643
 20
55.6988586921
 11
89.4105479016
 21
56.1564858128
  0
LINE
  5
341
100
AcDbEntity
  8
RUNDUNGEN
100
AcDbLine
 62
7
  6
CONTINUOUS
 10
79.0743465917
 20
66.1706079148
 11
75.6152356002
 21
79.0801858842
  0
LINE
  5
342
100
AcDbEntity
  8
RUNDUNGEN
100
AcDbLine
 62
9
  6
CONTINUOUS
 10
79.6539020875
 20
66.3258993418
 11
76.1947910959
 21
79.2354773113
  0
LINE
  5
343
100
AcDbEntity
  8
RUNDUNGEN
100
AcDbLine
 62
7
  6
CONTINUOUS
 10
79.0743465917
 20
66.1706079147
 11
79.0947910959
 21
66.0153164883
  0
LINE
  5
344
100
AcDbEntity
  8
0
100
AcDbLine
 62
7
  6
CONTINUOUS
 10
83.0947910959
 20
67.6564858127
 11
83.0947910959
 21
60.1564858127
  0
LINE
  5
345
100
AcDbEntity
  8
RUNDUNGEN
100
AcDbLine
 62
9
  6
CONTINUOUS
 10
79.0743465917
 20
66.1706079148
 11
79.6539020875
 21
66.3258993418
  0
LINE
  5
346
100
AcDbEntity
  8
RUNDUNGEN
100
AcDbLine
 62
9
  6
CONTINUOUS
 10
92.1152356002
 20
66.1706079148
 11
91.5356801044
 21
66.3258993417
  0
LINE
  5
347
100
AcDbEntity
  8
RUNDUNGEN
100
AcDbLine
 62
9
  6
CONTINUOUS
 10
77.9706681443
 20
85.1169668894
 11
77.9562844325
 21
85.1564858127
  0
LINE
  5
348
100
AcDbEntity
  8
RUNDUNGEN
100
AcDbLine
 62
7
  6
CONTINUOUS
 10
78.5344837167
 20
85.3221789754
 11
76.5546607399
 21
90.7616978987
  0
LINE
  5
349
100
AcDbEntity
  8
0
100
AcDbLine
 62
7
  6
CONTINUOUS
 10
88.0947910959
 20
67.6564858127
 11
88.0947910959
 21
60.1564858127
  0
LINE
  5
34A
100
AcDbEntity
  8
RUNDUNGEN
100
AcDbLine
 62
7
  6
CONTINUOUS
 10
94.634921452
 20
90.7616978987
 11
92.6550984752
 21
85.3221789754
  0
LINE
  5
34B
100
AcDbEntity
  8
RUNDUNGEN
100
AcDbLine
 62
9
  6
CONTINUOUS
 10
93.2332977594
 20
85.1564858127
 11
93.2189140476
 21
85.1169668894
  0
LINE
  5
34C
100
AcDbEntity
  8
RUNDUNGEN
100
AcDbLine
 62
9
  6
CONTINUOUS
 10
54.0743465917
 20
66.1706079148
 11
54.6539020875
 21
66.3258993418
  0
LINE
  5
34D
100
AcDbEntity
  8
RUNDUNGEN
100
AcDbLine
 62
9
  6
CONTINUOUS
 10
100.6152356002
 20
79.0801858842
 11
101.1947910959
 21
79.2354773113
  0
LINE
  5
34E
100
AcDbEntity
  8
RUNDUNGEN
100
AcDbLine
 62
9
  6
CONTINUOUS
 10
117.1152356002
 20
66.1706079148
 11
116.5356801044
 21
66.3258993417
  0
LINE
  5
34F
100
AcDbEntity
  8
RUNDUNGEN
100
AcDbLine
 62
9
  6
CONTINUOUS
 10
70.5743465917
 20
79.0801858842
 11
69.9947910959
 21
79.2354773113
  0
LINE
  5
350
100
AcDbEntity
  8
RUNDUNGEN
100
AcDbLine
 62
9
  6
CONTINUOUS
 10
91.4947910959
 20
66.0153164877
 11
91.4947910959
 21
60.6564858127
  0
LINE
  5
351
100
AcDbEntity
  8
RUNDUNGEN
100
AcDbLine
 62
9
  6
CONTINUOUS
 10
118.1947910959
 20
78.1564858127
 11
117.5947910959
 21
78.1564858144
  0
LINE
  5
352
100
AcDbEntity
  8
RUNDUNGEN
100
AcDbLine
 62
9
  6
CONTINUOUS
 10
93.1947910959
 20
78.1564858127
 11
92.5947910959
 21
78.1564858144
  0
LINE
  5
353
100
AcDbEntity
  8
RUNDUNGEN
100
AcDbLine
 62
9
  6
CONTINUOUS
 10
68.1947910959
 20
78.1564858127
 11
67.5947910959
 21
78.1564858144
  0
LINE
  5
354
100
AcDbEntity
  8
RUNDUNGEN
100
AcDbLine
 62
9
  6
CONTINUOUS
 10
52.9947910959
 20
78.1564858127
 11
53.5947910959
 21
78.1564858127
  0
LINE
  5
355
100
AcDbEntity
  8
RUNDUNGEN
100
AcDbLine
 62
9
  6
CONTINUOUS
 10
77.9947910959
 20
78.1564858127
 11
78.5947910959
 21
78.1564858127
  0
LINE
  5
356
100
AcDbEntity
  8
RUNDUNGEN
100
AcDbLine
 62
9
  6
CONTINUOUS
 10
102.9947910959
 20
78.1564858127
 11
103.5947910959
 21
78.1564858127
  0
LINE
  5
357
100
AcDbEntity
  8
RUNDUNGEN
100
AcDbLine
 62
9
  6
CONTINUOUS
 10
68.2189140476
 20
85.1169668894
 11
67.6550984752
 21
85.3221789754
  0
LINE
  5
358
100
AcDbEntity
  8
RUNDUNGEN
100
AcDbLine
 62
9
  6
CONTINUOUS
 10
68.2332977594
 20
85.1564858127
 11
67.669482187
 21
85.3616978987
  0
LINE
  5
359
100
AcDbEntity
  8
RUNDUNGEN
100
AcDbLine
 62
7
  6
CONTINUOUS
 10
92.0947910959
 20
66.0153164877
 11
92.0947910959
 21
60.6564858127
  0
LINE
  5
35A
100
AcDbEntity
  8
RUNDUNGEN
100
AcDbLine
 62
7
  6
CONTINUOUS
 10
92.5947910959
 20
84.980158832
 11
92.5947910959
 21
78.1564858144
  0
LINE
  5
35B
100
AcDbEntity
  8
02___PRT_ALL_AXES
100
AcDbLine
 62
9
  6
CONTINUOUS
 10
93.1947910959
 20
84.980158832
 11
93.1947910959
 21
83.9479678087
  0
LINE
  5
35C
100
AcDbEntity
  8
02___PRT_ALL_AXES
100
AcDbLine
 62
9
  6
CONTINUOUS
 10
93.1947910959
 20
82.3650038167
 11
93.1947910959
 21
78.1564858127
  0
LINE
  5
35D
100
AcDbEntity
  8
RUNDUNGEN
100
AcDbLine
 62
9
  6
CONTINUOUS
 10
94.9947910959
 20
79.2354773113
 11
91.5356801044
 21
66.3258993418
  0
LINE
  5
35E
100
AcDbEntity
  8
RUNDUNGEN
100
AcDbLine
 62
7
  6
CONTINUOUS
 10
95.5743465917
 20
79.0801858842
 11
92.1152356002
 21
66.1706079148
  0
LINE
  5
35F
100
AcDbEntity
  8
RUNDUNGEN
100
AcDbLine
 62
9
  6
CONTINUOUS
 10
81.3909912276
 20
55.6988586921
 11
81.7790342903
 21
56.1564858127
  0
LINE
  5
360
100
AcDbEntity
  8
0
100
AcDbLine
 62
7
  6
CONTINUOUS
 10
123.0947910959
 20
79.1564858127
 11
121.0551872887
 21
79.1564858127
  0
LINE
  5
361
100
AcDbEntity
  8
0
100
AcDbLine
 62
7
  6
CONTINUOUS
 10
100.1343949032
 20
79.1564858127
 11
96.0551872887
 21
79.1564858127
  0
LINE
  5
362
100
AcDbEntity
  8
0
100
AcDbLine
 62
7
  6
CONTINUOUS
 10
75.1343949032
 20
79.1564858127
 11
71.0551872887
 21
79.1564858127
  0
LINE
  5
363
100
AcDbEntity
  8
0
100
AcDbLine
 62
7
  6
CONTINUOUS
 10
50.1343949032
 20
79.1564858127
 11
48.0947910959
 21
79.1564858127
  0
LINE
  5
364
100
AcDbEntity
  8
RUNDUNGEN
100
AcDbLine
 62
7
  6
CONTINUOUS
 10
50.1343949032
 20
79.1564858127
 11
48.0947910959
 21
79.1564858127
  0
LINE
  5
365
100
AcDbEntity
  8
RUNDUNGEN
100
AcDbLine
 62
7
  6
CONTINUOUS
 10
71.0551872887
 20
79.1564858127
 11
75.1343949032
 21
79.1564858127
  0
LINE
  5
366
100
AcDbEntity
  8
RUNDUNGEN
100
AcDbLine
 62
7
  6
CONTINUOUS
 10
96.0551872887
 20
79.1564858127
 11
100.1343949032
 21
79.1564858127
  0
LINE
  5
367
100
AcDbEntity
  8
RUNDUNGEN
100
AcDbLine
 62
7
  6
CONTINUOUS
 10
121.0551872887
 20
79.1564858127
 11
123.0947910959
 21
79.1564858127
  0
LINE
  5
368
100
AcDbEntity
  8
RUNDUNGEN
100
AcDbLine
 62
9
  6
CONTINUOUS
 10
120.5947910959
 20
79.2354773113
 11
119.9947910959
 21
79.2354773113
  0
LINE
  5
369
100
AcDbEntity
  8
RUNDUNGEN
100
AcDbLine
 62
9
  6
CONTINUOUS
 10
95.5947910959
 20
79.2354773113
 11
94.9947910959
 21
79.2354773113
  0
LINE
  5
36A
100
AcDbEntity
  8
RUNDUNGEN
100
AcDbLine
 62
9
  6
CONTINUOUS
 10
70.5947910959
 20
79.2354773113
 11
69.9947910959
 21
79.2354773113
  0
LINE
  5
36B
100
AcDbEntity
  8
RUNDUNGEN
100
AcDbLine
 62
9
  6
CONTINUOUS
 10
50.5947910959
 20
79.2354773113
 11
51.1947910959
 21
79.2354773113
  0
LINE
  5
36C
100
AcDbEntity
  8
RUNDUNGEN
100
AcDbLine
 62
9
  6
CONTINUOUS
 10
75.5947910959
 20
79.2354773113
 11
76.1947910959
 21
79.2354773113
  0
LINE
  5
36D
100
AcDbEntity
  8
RUNDUNGEN
100
AcDbLine
 62
9
  6
CONTINUOUS
 10
100.5947910959
 20
79.2354773113
 11
101.1947910959
 21
79.2354773113
  0
LINE
  5
36E
100
AcDbEntity
  8
RUNDUNGEN
100
AcDbLine
 62
9
  6
CONTINUOUS
 10
120.5947910959
 20
81.3617526205
 11
119.9947910959
 21
81.3617526205
  0
LINE
  5
36F
100
AcDbEntity
  8
RUNDUNGEN
100
AcDbLine
 62
9
  6
CONTINUOUS
 10
95.5947910959
 20
81.3617526205
 11
94.9947910959
 21
81.3617526205
  0
LINE
  5
370
100
AcDbEntity
  8
RUNDUNGEN
100
AcDbLine
 62
9
  6
CONTINUOUS
 10
70.5947910959
 20
81.3617526205
 11
69.9947910959
 21
81.3617526205
  0
LINE
  5
371
100
AcDbEntity
  8
RUNDUNGEN
100
AcDbLine
 62
9
  6
CONTINUOUS
 10
50.5947910959
 20
81.3617526205
 11
51.1947910959
 21
81.3617526206
  0
LINE
  5
372
100
AcDbEntity
  8
RUNDUNGEN
100
AcDbLine
 62
9
  6
CONTINUOUS
 10
75.5947910959
 20
81.3617526205
 11
76.1947910959
 21
81.3617526206
  0
LINE
  5
373
100
AcDbEntity
  8
RUNDUNGEN
100
AcDbLine
 62
9
  6
CONTINUOUS
 10
100.5947910959
 20
81.3617526205
 11
101.1947910959
 21
81.3617526206
  0
LINE
  5
374
100
AcDbEntity
  8
RUNDUNGEN
100
AcDbLine
 62
9
  6
CONTINUOUS
 10
94.9947910959
 20
81.3617526205
 11
94.9947910959
 21
79.2354773113
  0
LINE
  5
375
100
AcDbEntity
  8
RUNDUNGEN
100
AcDbLine
 62
7
  6
CONTINUOUS
 10
95.5947910959
 20
81.3617526205
 11
95.5947910959
 21
79.2354773113
  0
LINE
  5
376
100
AcDbEntity
  8
RUNDUNGEN
100
AcDbLine
 62
9
  6
CONTINUOUS
 10
96.1947910959
 20
85.1564858127
 11
96.1947910959
 21
79.7737508114
  0
LINE
  5
377
100
AcDbEntity
  8
RUNDUNGEN
100
AcDbLine
 62
7
  6
CONTINUOUS
 10
95.5743465919
 20
79.0801858847
 11
95.5947910959
 21
79.2354773112
  0
LINE
  5
378
100
AcDbEntity
  8
RUNDUNGEN
100
AcDbLine
 62
9
  6
CONTINUOUS
 10
75.6152356002
 20
79.0801858842
 11
76.1947910959
 21
79.2354773113
  0
LINE
  5
379
100
AcDbEntity
  8
RUNDUNGEN
100
AcDbLine
 62
9
  6
CONTINUOUS
 10
95.5743465917
 20
79.0801858842
 11
94.9947910959
 21
79.2354773113
  0
LINE
  5
37A
100
AcDbEntity
  8
RUNDUNGEN
100
AcDbLine
 62
9
  6
CONTINUOUS
 10
114.7985909643
 20
55.6988586921
 11
114.4105479016
 21
56.1564858128
  0
LINE
  5
37B
100
AcDbEntity
  8
RUNDUNGEN
100
AcDbLine
 62
9
  6
CONTINUOUS
 10
118.1947910959
 20
84.980158832
 11
117.5947910959
 21
84.980158832
  0
LINE
  5
37C
100
AcDbEntity
  8
RUNDUNGEN
100
AcDbLine
 62
9
  6
CONTINUOUS
 10
93.1947910959
 20
84.980158832
 11
92.5947910959
 21
84.980158832
  0
LINE
  5
37D
100
AcDbEntity
  8
RUNDUNGEN
100
AcDbLine
 62
9
  6
CONTINUOUS
 10
68.1947910959
 20
84.980158832
 11
67.5947910959
 21
84.980158832
  0
LINE
  5
37E
100
AcDbEntity
  8
RUNDUNGEN
100
AcDbLine
 62
9
  6
CONTINUOUS
 10
52.9947910959
 20
84.980158832
 11
53.5947910959
 21
84.980158832
  0
LINE
  5
37F
100
AcDbEntity
  8
RUNDUNGEN
100
AcDbLine
 62
9
  6
CONTINUOUS
 10
77.9947910959
 20
84.980158832
 11
78.5947910959
 21
84.980158832
  0
LINE
  5
380
100
AcDbEntity
  8
RUNDUNGEN
100
AcDbLine
 62
9
  6
CONTINUOUS
 10
102.9947910959
 20
84.980158832
 11
103.5947910959
 21
84.980158832
  0
LINE
  5
381
100
AcDbEntity
  8
RUNDUNGEN
100
AcDbLine
 62
9
  6
CONTINUOUS
 10
49.9947910959
 20
85.1564858127
 11
52.9562844325
 21
85.1564858127
  0
LINE
  5
382
100
AcDbEntity
  8
RUNDUNGEN
100
AcDbLine
 62
9
  6
CONTINUOUS
 10
68.2332977594
 20
85.1564858127
 11
71.1947910959
 21
85.1564858127
  0
LINE
  5
383
100
AcDbEntity
  8
RUNDUNGEN
100
AcDbLine
 62
9
  6
CONTINUOUS
 10
74.9947910959
 20
85.1564858127
 11
77.9562844325
 21
85.1564858127
  0
LINE
  5
384
100
AcDbEntity
  8
RUNDUNGEN
100
AcDbLine
 62
9
  6
CONTINUOUS
 10
93.2332977594
 20
85.1564858127
 11
96.1947910959
 21
85.1564858127
  0
LINE
  5
385
100
AcDbEntity
  8
RUNDUNGEN
100
AcDbLine
 62
9
  6
CONTINUOUS
 10
99.9947910959
 20
85.1564858127
 11
102.9562844325
 21
85.1564858127
  0
LINE
  5
386
100
AcDbEntity
  8
RUNDUNGEN
100
AcDbLine
 62
9
  6
CONTINUOUS
 10
118.2332977594
 20
85.1564858127
 11
121.1947910959
 21
85.1564858127
  0
LINE
  5
387
100
AcDbEntity
  8
RUNDUNGEN
100
AcDbLine
 62
9
  6
CONTINUOUS
 10
99.9947910959
 20
79.7737508114
 11
99.9947910959
 21
85.1564858127
  0
LINE
  5
388
100
AcDbEntity
  8
RUNDUNGEN
100
AcDbLine
 62
7
  6
CONTINUOUS
 10
100.5947910959
 20
79.2354773113
 11
100.5947910959
 21
81.3617345318
  0
LINE
  5
389
100
AcDbEntity
  8
RUNDUNGEN
100
AcDbLine
 62
9
  6
CONTINUOUS
 10
101.1947910959
 20
79.2354773113
 11
101.1947910959
 21
81.3617526205
  0
LINE
  5
38A
100
AcDbEntity
  8
RUNDUNGEN
100
AcDbLine
 62
9
  6
CONTINUOUS
 10
50.6152356002
 20
79.0801858842
 11
51.1947910959
 21
79.2354773113
  0
LINE
  5
38B
100
AcDbEntity
  8
RUNDUNGEN
100
AcDbLine
 62
9
  6
CONTINUOUS
 10
120.5743465917
 20
79.0801858842
 11
119.9947910959
 21
79.2354773113
  0
LINE
  5
38C
100
AcDbEntity
  8
RUNDUNGEN
100
AcDbLine
 62
9
  6
CONTINUOUS
 10
93.2189140476
 20
85.1169668894
 11
92.6550984752
 21
85.3221789754
  0
LINE
  5
38D
100
AcDbEntity
  8
RUNDUNGEN
100
AcDbLine
 62
9
  6
CONTINUOUS
 10
93.2332977594
 20
85.1564858127
 11
92.669482187
 21
85.3616978987
  0
LINE
  5
38E
100
AcDbEntity
  8
RUNDUNGEN
100
AcDbLine
 62
7
  6
CONTINUOUS
 10
104.0743465917
 20
66.1706079148
 11
100.6152356002
 21
79.0801858842
  0
LINE
  5
38F
100
AcDbEntity
  8
RUNDUNGEN
100
AcDbLine
 62
9
  6
CONTINUOUS
 10
104.6539020875
 20
66.3258993418
 11
101.1947910959
 21
79.2354773113
  0
LINE
  5
390
100
AcDbEntity
  8
RUNDUNGEN
100
AcDbLine
 62
7
  6
CONTINUOUS
 10
100.5947910959
 20
79.2354773112
 11
100.6152356
 21
79.0801858847
  0
LINE
  5
391
100
AcDbEntity
  8
02___PRT_ALL_AXES
100
AcDbLine
 62
9
  6
CONTINUOUS
 10
102.9947910959
 20
78.1564858127
 11
102.9947910959
 21
82.3650038167
  0
LINE
  5
392
100
AcDbEntity
  8
02___PRT_ALL_AXES
100
AcDbLine
 62
9
  6
CONTINUOUS
 10
102.9947910959
 20
83.9479678087
 11
102.9947910959
 21
84.980158832
  0
LINE
  5
393
100
AcDbEntity
  8
RUNDUNGEN
100
AcDbLine
 62
7
  6
CONTINUOUS
 10
103.5947910959
 20
78.1564858127
 11
103.5947910959
 21
84.980158832
  0
LINE
  5
394
100
AcDbEntity
  8
RUNDUNGEN
100
AcDbLine
 62
7
  6
CONTINUOUS
 10
104.0947910959
 20
60.6564858127
 11
104.0947910959
 21
66.0153164877
  0
LINE
  5
395
100
AcDbEntity
  8
RUNDUNGEN
100
AcDbLine
 62
9
  6
CONTINUOUS
 10
104.6947910959
 20
60.6564858127
 11
104.6947910959
 21
66.0153164877
  0
LINE
  5
396
100
AcDbEntity
  8
0
100
AcDbLine
 62
7
  6
CONTINUOUS
 10
123.0947910959
 20
91.1564858127
 11
120.1987370245
 21
91.1564858127
  0
LINE
  5
397
100
AcDbEntity
  8
RUNDUNGEN
100
AcDbLine
 62
7
  6
CONTINUOUS
 10
100.9908451674
 20
91.1564858127
 11
95.1987370245
 21
91.1564858127
  0
LINE
  5
398
100
AcDbEntity
  8
0
100
AcDbLine
 62
7
  6
CONTINUOUS
 10
100.9908451674
 20
91.1564858127
 11
95.1987370245
 21
91.1564858127
  0
LINE
  5
399
100
AcDbEntity
  8
0
100
AcDbLine
 62
7
  6
CONTINUOUS
 10
75.9908451674
 20
91.1564858127
 11
70.1987370245
 21
91.1564858127
  0
LINE
  5
39A
100
AcDbEntity
  8
RUNDUNGEN
100
AcDbLine
 62
7
  6
CONTINUOUS
 10
75.9908451674
 20
91.1564858127
 11
70.1987370245
 21
91.1564858127
  0
LINE
  5
39B
100
AcDbEntity
  8
0
100
AcDbLine
 62
7
  6
CONTINUOUS
 10
50.9908451674
 20
91.1564858127
 11
48.0947910959
 21
91.1564858127
  0
LINE
  5
39C
100
AcDbEntity
  8
RUNDUNGEN
100
AcDbLine
 62
7
  6
CONTINUOUS
 10
50.9908451674
 20
91.1564858127
 11
48.0947910959
 21
91.1564858127
  0
LINE
  5
39D
100
AcDbEntity
  8
RUNDUNGEN
100
AcDbLine
 62
7
  6
CONTINUOUS
 10
120.1987370245
 20
91.1564858127
 11
123.0947910959
 21
91.1564858127
  0
LINE
  5
39E
100
AcDbEntity
  8
RUNDUNGEN
100
AcDbLine
 62
7
  6
CONTINUOUS
 10
104.0743465917
 20
66.1706079147
 11
104.0947910959
 21
66.0153164883
  0
LINE
  5
39F
100
AcDbEntity
  8
0
100
AcDbLine
 62
7
  6
CONTINUOUS
 10
108.0947910959
 20
67.6564858127
 11
108.0947910959
 21
60.1564858127
  0
LINE
  5
3A0
100
AcDbEntity
  8
RUNDUNGEN
100
AcDbLine
 62
9
  6
CONTINUOUS
 10
102.9706681443
 20
85.1169668894
 11
102.9562844325
 21
85.1564858127
  0
LINE
  5
3A1
100
AcDbEntity
  8
RUNDUNGEN
100
AcDbLine
 62
7
  6
CONTINUOUS
 10
103.5344837167
 20
85.3221789754
 11
101.5546607399
 21
90.7616978987
  0
LINE
  5
3A2
100
AcDbEntity
  8
RUNDUNGEN
100
AcDbLine
 62
9
  6
CONTINUOUS
 10
118.2189140476
 20
85.1169668894
 11
117.6550984752
 21
85.3221789754
  0
LINE
  5
3A3
100
AcDbEntity
  8
RUNDUNGEN
100
AcDbLine
 62
9
  6
CONTINUOUS
 10
118.2332977594
 20
85.1564858127
 11
117.669482187
 21
85.3616978987
  0
LINE
  5
3A4
100
AcDbEntity
  8
0
100
AcDbLine
 62
7
  6
CONTINUOUS
 10
113.0947910959
 20
67.6564858127
 11
113.0947910959
 21
60.1564858127
  0
LINE
  5
3A5
100
AcDbEntity
  8
RUNDUNGEN
100
AcDbLine
 62
7
  6
CONTINUOUS
 10
119.634921452
 20
90.7616978987
 11
117.6550984752
 21
85.3221789754
  0
LINE
  5
3A6
100
AcDbEntity
  8
RUNDUNGEN
100
AcDbLine
 62
9
  6
CONTINUOUS
 10
118.2332977594
 20
85.1564858127
 11
118.2189140476
 21
85.1169668894
  0
LINE
  5
3A7
100
AcDbEntity
  8
RUNDUNGEN
100
AcDbLine
 62
9
  6
CONTINUOUS
 10
106.3909912276
 20
55.6988586921
 11
106.7790342903
 21
56.1564858127
  0
LINE
  5
3A8
100
AcDbEntity
  8
RUNDUNGEN
100
AcDbLine
 62
9
  6
CONTINUOUS
 10
116.4947910959
 20
66.0153164877
 11
116.4947910959
 21
60.6564858127
  0
LINE
  5
3A9
100
AcDbEntity
  8
RUNDUNGEN
100
AcDbLine
 62
7
  6
CONTINUOUS
 10
117.0947910959
 20
66.0153164877
 11
117.0947910959
 21
60.6564858127
  0
LINE
  5
3AA
100
AcDbEntity
  8
RUNDUNGEN
100
AcDbLine
 62
7
  6
CONTINUOUS
 10
117.5947910959
 20
84.980158832
 11
117.5947910959
 21
78.1564858127
  0
LINE
  5
3AB
100
AcDbEntity
  8
02___PRT_ALL_AXES
100
AcDbLine
 62
9
  6
CONTINUOUS
 10
118.1947910959
 20
84.980158832
 11
118.1947910959
 21
83.9479678087
  0
LINE
  5
3AC
100
AcDbEntity
  8
02___PRT_ALL_AXES
100
AcDbLine
 62
9
  6
CONTINUOUS
 10
118.1947910959
 20
82.3650038167
 11
118.1947910959
 21
78.1564858127
  0
LINE
  5
3AD
100
AcDbEntity
  8
RUNDUNGEN
100
AcDbLine
 62
9
  6
CONTINUOUS
 10
119.9947910959
 20
79.2354773113
 11
116.5356801044
 21
66.3258993418
  0
LINE
  5
3AE
100
AcDbEntity
  8
RUNDUNGEN
100
AcDbLine
 62
7
  6
CONTINUOUS
 10
120.5743465917
 20
79.0801858842
 11
117.1152356002
 21
66.1706079148
  0
LINE
  5
3AF
100
AcDbEntity
  8
RUNDUNGEN
100
AcDbLine
 62
9
  6
CONTINUOUS
 10
119.9947910959
 20
81.3617526205
 11
119.9947910959
 21
79.2354773113
  0
LINE
  5
3B0
100
AcDbEntity
  8
RUNDUNGEN
100
AcDbLine
 62
7
  6
CONTINUOUS
 10
120.5947910959
 20
81.3617397924
 11
120.5947910959
 21
79.2354773113
  0
LINE
  5
3B1
100
AcDbEntity
  8
RUNDUNGEN
100
AcDbLine
 62
9
  6
CONTINUOUS
 10
121.1947910959
 20
85.1564858127
 11
121.1947910959
 21
79.7737508114
  0
LINE
  5
3B2
100
AcDbEntity
  8
RUNDUNGEN
100
AcDbLine
 62
7
  6
CONTINUOUS
 10
120.5743465919
 20
79.0801858847
 11
120.5947910959
 21
79.2354773112
  0
LINE
  5
3B3
100
AcDbEntity
  8
0
100
AcDbLine
 62
7
  6
CONTINUOUS
 10
123.0947910959
 20
79.1564858127
 11
123.0947910959
 21
91.1564858127
  0
ARC
  5
3B4
100
AcDbEntity
  8
RUNDUNGEN
100
AcDbCircle
 62
9
  6
CONTINUOUS
 10
66.4934261
 20
150.4201325238
 40
0.6218095522
100
AcDbArc
 50
342.6272236024
 51
359.976570129
  0
ARC
  5
3B5
100
AcDbEntity
  8
RUNDUNGEN
100
AcDbCircle
 62
9
  6
CONTINUOUS
 10
54.6961560916
 20
150.4201325237
 40
0.6218095519
100
AcDbArc
 50
180.023429863
 51
197.3727752032
  0
ARC
  5
3B6
100
AcDbEntity
  8
RUNDUNGEN
100
AcDbCircle
 62
9
  6
CONTINUOUS
 10
79.6961560916
 20
150.4201325237
 40
0.6218095519
100
AcDbArc
 50
180.023429863
 51
197.3727752032
  0
ARC
  5
3B7
100
AcDbEntity
  8
RUNDUNGEN
100
AcDbCircle
 62
7
  6
CONTINUOUS
 10
66.4947910959
 20
150.4198782482
 40
0.6
100
AcDbArc
 50
270.0
 51
360.0
  0
ARC
  5
3B8
100
AcDbEntity
  8
RUNDUNGEN
100
AcDbCircle
 62
7
  6
CONTINUOUS
 10
69.9947910959
 20
150.4198782482
 40
0.6
100
AcDbArc
 50
270.0
 51
360.0
  0
ARC
  5
3B9
100
AcDbEntity
  8
RUNDUNGEN
100
AcDbCircle
 62
7
  6
CONTINUOUS
 10
51.1947910959
 20
150.4198782482
 40
0.6
100
AcDbArc
 50
180.0
 51
270.0
  0
ARC
  5
3BA
100
AcDbEntity
  8
RUNDUNGEN
100
AcDbCircle
 62
7
  6
CONTINUOUS
 10
54.6947910959
 20
150.4198782482
 40
0.6
100
AcDbArc
 50
180.0
 51
270.0
  0
ARC
  5
3BB
100
AcDbEntity
  8
RUNDUNGEN
100
AcDbCircle
 62
7
  6
CONTINUOUS
 10
76.1947910959
 20
150.4198782482
 40
0.6
100
AcDbArc
 50
180.0
 51
270.0
  0
ARC
  5
3BC
100
AcDbEntity
  8
RUNDUNGEN
100
AcDbCircle
 62
7
  6
CONTINUOUS
 10
79.6947910959
 20
150.4198782482
 40
0.6
100
AcDbArc
 50
180.0
 51
270.0
  0
ARC
  5
3BD
100
AcDbEntity
  8
RUNDUNGEN
100
AcDbCircle
 62
9
  6
CONTINUOUS
 10
66.5353908388
 20
150.3803305597
 40
0.5604523862
100
AcDbArc
 50
270.0295720036
 51
279.3387193816
  0
ARC
  5
3BE
100
AcDbEntity
  8
RUNDUNGEN
100
AcDbCircle
 62
9
  6
CONTINUOUS
 10
54.6541913531
 20
150.3803305598
 40
0.5604523863
100
AcDbArc
 50
260.6612813501
 51
269.9704280044
  0
ARC
  5
3BF
100
AcDbEntity
  8
RUNDUNGEN
100
AcDbCircle
 62
9
  6
CONTINUOUS
 10
79.6541913531
 20
150.3803305598
 40
0.5604523863
100
AcDbArc
 50
260.66128135
 51
269.9704280045
  0
ARC
  5
3C0
100
AcDbEntity
  8
RUNDUNGEN
100
AcDbCircle
 62
9
  6
CONTINUOUS
 10
54.6961560919
 20
161.2196239726
 40
0.6218095522
100
AcDbArc
 50
162.6272236024
 51
179.976570129
  0
ARC
  5
3C1
100
AcDbEntity
  8
RUNDUNGEN
100
AcDbCircle
 62
9
  6
CONTINUOUS
 10
79.6961560919
 20
161.2196239726
 40
0.6218095522
100
AcDbArc
 50
162.6272236024
 51
179.976570129
  0
ARC
  5
3C2
100
AcDbEntity
  8
RUNDUNGEN
100
AcDbCircle
 62
9
  6
CONTINUOUS
 10
66.4934261003
 20
161.2196239727
 40
0.6218095519
100
AcDbArc
 50
0.023429863
 51
17.3727752032
  0
ARC
  5
3C3
100
AcDbEntity
  8
RUNDUNGEN
100
AcDbCircle
 62
7
  6
CONTINUOUS
 10
69.9947910959
 20
161.2198782482
 40
0.6
100
AcDbArc
 50
0.0
 51
90.0
  0
ARC
  5
3C4
100
AcDbEntity
  8
RUNDUNGEN
100
AcDbCircle
 62
7
  6
CONTINUOUS
 10
66.4947910959
 20
161.2198782482
 40
0.6
100
AcDbArc
 50
0.0
 51
90.0
  0
ARC
  5
3C5
100
AcDbEntity
  8
RUNDUNGEN
100
AcDbCircle
 62
7
  6
CONTINUOUS
 10
54.6947910959
 20
161.2198782482
 40
0.6
100
AcDbArc
 50
90.0
 51
180.0
  0
ARC
  5
3C6
100
AcDbEntity
  8
RUNDUNGEN
100
AcDbCircle
 62
7
  6
CONTINUOUS
 10
51.1947910959
 20
161.2198782482
 40
0.6
100
AcDbArc
 50
90.0
 51
180.0
  0
ARC
  5
3C7
100
AcDbEntity
  8
RUNDUNGEN
100
AcDbCircle
 62
7
  6
CONTINUOUS
 10
79.6947910959
 20
161.2198782482
 40
0.6
100
AcDbArc
 50
90.0
 51
180.0
  0
ARC
  5
3C8
100
AcDbEntity
  8
RUNDUNGEN
100
AcDbCircle
 62
7
  6
CONTINUOUS
 10
76.1947910959
 20
161.2198782482
 40
0.6
100
AcDbArc
 50
90.0
 51
180.0
  0
ARC
  5
3C9
100
AcDbEntity
  8
RUNDUNGEN
100
AcDbCircle
 62
9
  6
CONTINUOUS
 10
66.5353908388
 20
161.2594259365
 40
0.5604523863
100
AcDbArc
 50
80.66128135
 51
89.9704280044
  0
ARC
  5
3CA
100
AcDbEntity
  8
RUNDUNGEN
100
AcDbCircle
 62
9
  6
CONTINUOUS
 10
54.6541913531
 20
161.2594259366
 40
0.5604523862
100
AcDbArc
 50
90.0295720036
 51
99.3387193816
  0
ARC
  5
3CB
100
AcDbEntity
  8
RUNDUNGEN
100
AcDbCircle
 62
9
  6
CONTINUOUS
 10
79.6541913531
 20
161.2594259366
 40
0.5604523862
100
AcDbArc
 50
90.0295720036
 51
99.3387193816
  0
ARC
  5
3CC
100
AcDbEntity
  8
RUNDUNGEN
100
AcDbCircle
 62
9
  6
CONTINUOUS
 10
91.4934261
 20
150.4201325238
 40
0.6218095522
100
AcDbArc
 50
342.6272236024
 51
359.976570129
  0
ARC
  5
3CD
100
AcDbEntity
  8
RUNDUNGEN
100
AcDbCircle
 62
9
  6
CONTINUOUS
 10
116.4934261
 20
150.4201325238
 40
0.6218095522
100
AcDbArc
 50
342.6272236024
 51
359.976570129
  0
ARC
  5
3CE
100
AcDbEntity
  8
RUNDUNGEN
100
AcDbCircle
 62
9
  6
CONTINUOUS
 10
104.6961560916
 20
150.4201325237
 40
0.6218095519
100
AcDbArc
 50
180.023429863
 51
197.3727752032
  0
ARC
  5
3CF
100
AcDbEntity
  8
RUNDUNGEN
100
AcDbCircle
 62
9
  6
CONTINUOUS
 10
94.9525380559
 20
150.4201322581
 40
0.6218085877
100
AcDbArc
 50
342.6308263941
 51
359.9765945734
  0
ARC
  5
3D0
100
AcDbEntity
  8
RUNDUNGEN
100
AcDbCircle
 62
7
  6
CONTINUOUS
 10
91.4947910959
 20
150.4198782482
 40
0.6
100
AcDbArc
 50
270.0
 51
360.0
  0
ARC
  5
3D1
100
AcDbEntity
  8
RUNDUNGEN
100
AcDbCircle
 62
7
  6
CONTINUOUS
 10
94.9947910959
 20
150.4198782482
 40
0.6
100
AcDbArc
 50
270.0
 51
360.0
  0
ARC
  5
3D2
100
AcDbEntity
  8
RUNDUNGEN
100
AcDbCircle
 62
7
  6
CONTINUOUS
 10
116.4947910959
 20
150.4198782482
 40
0.6
100
AcDbArc
 50
270.0
 51
360.0
  0
ARC
  5
3D3
100
AcDbEntity
  8
RUNDUNGEN
100
AcDbCircle
 62
7
  6
CONTINUOUS
 10
119.9947910959
 20
150.4198782482
 40
0.6
100
AcDbArc
 50
270.0
 51
360.0
  0
ARC
  5
3D4
100
AcDbEntity
  8
RUNDUNGEN
100
AcDbCircle
 62
7
  6
CONTINUOUS
 10
101.1947910959
 20
150.4198782482
 40
0.6
100
AcDbArc
 50
180.0
 51
270.0
  0
ARC
  5
3D5
100
AcDbEntity
  8
RUNDUNGEN
100
AcDbCircle
 62
7
  6
CONTINUOUS
 10
104.6947910959
 20
150.4198782482
 40
0.6
100
AcDbArc
 50
180.0
 51
270.0
  0
ARC
  5
3D6
100
AcDbEntity
  8
RUNDUNGEN
100
AcDbCircle
 62
9
  6
CONTINUOUS
 10
91.5353908388
 20
150.3803305597
 40
0.5604523862
100
AcDbArc
 50
270.0295720036
 51
279.3387193816
  0
ARC
  5
3D7
100
AcDbEntity
  8
RUNDUNGEN
100
AcDbCircle
 62
9
  6
CONTINUOUS
 10
116.5353908388
 20
150.3803305597
 40
0.5604523862
100
AcDbArc
 50
270.0295720036
 51
279.3387193816
  0
ARC
  5
3D8
100
AcDbEntity
  8
RUNDUNGEN
100
AcDbCircle
 62
9
  6
CONTINUOUS
 10
104.6541913531
 20
150.3803305598
 40
0.5604523863
100
AcDbArc
 50
260.66128135
 51
269.9704280045
  0
ARC
  5
3D9
100
AcDbEntity
  8
RUNDUNGEN
100
AcDbCircle
 62
9
  6
CONTINUOUS
 10
104.6961560919
 20
161.2196239726
 40
0.6218095522
100
AcDbArc
 50
162.6272236024
 51
179.976570129
  0
ARC
  5
3DA
100
AcDbEntity
  8
RUNDUNGEN
100
AcDbCircle
 62
9
  6
CONTINUOUS
 10
91.4934261003
 20
161.2196239727
 40
0.6218095519
100
AcDbArc
 50
0.023429863
 51
17.3727752032
  0
ARC
  5
3DB
100
AcDbEntity
  8
RUNDUNGEN
100
AcDbCircle
 62
9
  6
CONTINUOUS
 10
116.4934261003
 20
161.2196239727
 40
0.6218095519
100
AcDbArc
 50
0.023429863
 51
17.3727752032
  0
ARC
  5
3DC
100
AcDbEntity
  8
RUNDUNGEN
100
AcDbCircle
 62
7
  6
CONTINUOUS
 10
94.9947910959
 20
161.2198782482
 40
0.6
100
AcDbArc
 50
0.0
 51
90.0
  0
ARC
  5
3DD
100
AcDbEntity
  8
RUNDUNGEN
100
AcDbCircle
 62
7
  6
CONTINUOUS
 10
91.4947910959
 20
161.2198782482
 40
0.6
100
AcDbArc
 50
0.0
 51
90.0
  0
ARC
  5
3DE
100
AcDbEntity
  8
RUNDUNGEN
100
AcDbCircle
 62
7
  6
CONTINUOUS
 10
119.9947910959
 20
161.2198782482
 40
0.6
100
AcDbArc
 50
0.0
 51
90.0
  0
ARC
  5
3DF
100
AcDbEntity
  8
RUNDUNGEN
100
AcDbCircle
 62
7
  6
CONTINUOUS
 10
101.1947910959
 20
161.2198782482
 40
0.6
100
AcDbArc
 50
90.0
 51
180.0
  0
ARC
  5
3E0
100
AcDbEntity
  8
RUNDUNGEN
100
AcDbCircle
 62
7
  6
CONTINUOUS
 10
104.6947910959
 20
161.2198782482
 40
0.6
100
AcDbArc
 50
90.0
 51
180.0
  0
ARC
  5
3E1
100
AcDbEntity
  8
RUNDUNGEN
100
AcDbCircle
 62
7
  6
CONTINUOUS
 10
116.4947910959
 20
161.2198782482
 40
0.6
100
AcDbArc
 50
0.0
 51
90.0
  0
ARC
  5
3E2
100
AcDbEntity
  8
RUNDUNGEN
100
AcDbCircle
 62
9
  6
CONTINUOUS
 10
91.5353908388
 20
161.2594259365
 40
0.5604523863
100
AcDbArc
 50
80.6612813501
 51
89.9704280043
  0
ARC
  5
3E3
100
AcDbEntity
  8
RUNDUNGEN
100
AcDbCircle
 62
9
  6
CONTINUOUS
 10
104.6541913531
 20
161.2594259366
 40
0.5604523862
100
AcDbArc
 50
90.0295720036
 51
99.3387193816
  0
ARC
  5
3E4
100
AcDbEntity
  8
RUNDUNGEN
100
AcDbCircle
 62
9
  6
CONTINUOUS
 10
116.5353908388
 20
161.2594259365
 40
0.5604523863
100
AcDbArc
 50
80.66128135
 51
89.9704280044
  0
ARC
  5
3E5
100
AcDbEntity
  8
RUNDUNGEN
100
AcDbCircle
 62
9
  6
CONTINUOUS
 10
208.1366668046
 20
156.1045632553
 40
11.0338423931
100
AcDbArc
 50
9.8604935382
 51
13.7953734891
  0
ARC
  5
3E6
100
AcDbEntity
  8
RUNDUNGEN
100
AcDbCircle
 62
9
  6
CONTINUOUS
 10
208.1370554095
 20
155.5351118596
 40
11.0334455923
100
AcDbArc
 50
346.2045557271
 51
350.1395772456
  0
ARC
  5
3E7
100
AcDbEntity
  8
RUNDUNGEN
100
AcDbCircle
 62
9
  6
CONTINUOUS
 10
212.9312133789
 20
155.8198782482
 40
6.6
100
AcDbArc
 50
26.2176267508
 51
54.9030702923
  0
ARC
  5
3E8
100
AcDbEntity
  8
RUNDUNGEN
100
AcDbCircle
 62
9
  6
CONTINUOUS
 10
212.9312133789
 20
155.8198782482
 40
6.6
100
AcDbArc
 50
305.096931321
 51
333.7823732492
  0
ARC
  5
3E9
100
AcDbEntity
  8
RUNDUNGEN
100
AcDbCircle
 62
9
  6
CONTINUOUS
 10
212.7761266409
 20
155.8199159658
 40
6.5997939995
100
AcDbArc
 50
340.7658096888
 51
19.2343705227
  0
CIRCLE
  5
3EA
100
AcDbEntity
  8
0
100
AcDbCircle
 62
7
  6
CONTINUOUS
 10
212.9312133789
 20
155.8198782482
 40
6.0
  0
CIRCLE
  5
3EB
100
AcDbEntity
  8
0
100
AcDbCircle
 62
7
  6
CONTINUOUS
 10
212.9312133789
 20
155.8198782482
 40
2.7
  0
ARC
  5
3EC
100
AcDbEntity
  8
0
100
AcDbCircle
 62
7
  6
CONTINUOUS
 10
238.1262133789
 20
155.8198782482
 40
2.695
100
AcDbArc
 50
270.0
 51
90.0
  0
ARC
  5
3ED
100
AcDbEntity
  8
0
100
AcDbCircle
 62
7
  6
CONTINUOUS
 10
230.1262133789
 20
155.8198782482
 40
2.695
100
AcDbArc
 50
90.0
 51
270.0
  0
ARC
  5
3EE
100
AcDbEntity
  8
RUNDUNGEN
100
AcDbCircle
 62
7
  6
CONTINUOUS
 10
241.9312133789
 20
159.8198782482
 40
2.0
100
AcDbArc
 50
0.0
 51
89.9998096666
  0
ARC
  5
3EF
100
AcDbEntity
  8
RUNDUNGEN
100
AcDbCircle
 62
7
  6
CONTINUOUS
 10
241.9312133789
 20
151.8198782482
 40
2.0
100
AcDbArc
 50
270.0
 51
360.0
  0
ARC
  5
3F0
100
AcDbEntity
  8
0
100
AcDbCircle
 62
7
  6
CONTINUOUS
 10
60.5947910959
 20
60.6564858127
 40
6.5
100
AcDbArc
 50
353.8620254069
 51
355.1032684874
  0
ARC
  5
3F1
100
AcDbEntity
  8
RUNDUNGEN
100
AcDbCircle
 62
7
  6
CONTINUOUS
 10
60.5947910959
 20
60.6564858127
 40
6.5
100
AcDbArc
 50
180.0
 51
360.0
  0
ARC
  5
3F2
100
AcDbEntity
  8
0
100
AcDbCircle
 62
7
  6
CONTINUOUS
 10
60.5947910959
 20
60.6564858127
 40
6.5
100
AcDbArc
 50
184.8971203797
 51
186.1379745931
  0
ARC
  5
3F3
100
AcDbEntity
  8
02___PRT_ALL_AXES
100
AcDbCircle
 62
9
  6
CONTINUOUS
 10
60.5947910959
 20
60.6564858127
 40
5.9
100
AcDbArc
 50
347.5418941781
 51
360.0
  0
ARC
  5
3F4
100
AcDbEntity
  8
02___PRT_ALL_AXES
100
AcDbCircle
 62
9
  6
CONTINUOUS
 10
60.5947910959
 20
60.6564858127
 40
5.9
100
AcDbArc
 50
310.2960480337
 51
329.4045092716
  0
ARC
  5
3F5
100
AcDbEntity
  8
02___PRT_ALL_AXES
100
AcDbCircle
 62
9
  6
CONTINUOUS
 10
60.5947910959
 20
60.6564858127
 40
5.9
100
AcDbArc
 50
210.5954907284
 51
229.7039471832
  0
ARC
  5
3F6
100
AcDbEntity
  8
02___PRT_ALL_AXES
100
AcDbCircle
 62
9
  6
CONTINUOUS
 10
60.5947910959
 20
60.6564858127
 40
5.9
100
AcDbArc
 50
180.0
 51
192.4581058219
  0
ARC
  5
3F7
100
AcDbEntity
  8
0
100
AcDbCircle
 62
7
  6
CONTINUOUS
 10
60.5947910959
 20
60.1564858127
 40
2.5
100
AcDbArc
 50
180.0
 51
360.0
  0
CIRCLE
  5
3F8
100
AcDbEntity
  8
02___PRT_ALL_AXES
100
AcDbCircle
 62
7
  6
CONTINUOUS
 10
64.9197910959
 20
58.9504858127
 40
1.5
  0
CIRCLE
  5
3F9
100
AcDbEntity
  8
02___PRT_ALL_AXES
100
AcDbCircle
 62
7
  6
CONTINUOUS
 10
56.2697910959
 20
58.9504858127
 40
1.5
  0
ARC
  5
3FA
100
AcDbEntity
  8
0
100
AcDbCircle
 62
7
  6
CONTINUOUS
 10
60.5947910959
 20
67.6564858127
 40
2.5
100
AcDbArc
 50
0.0
 51
180.0
  0
CIRCLE
  5
3FB
100
AcDbEntity
  8
02___PRT_ALL_AXES
100
AcDbCircle
 62
7
  6
CONTINUOUS
 10
65.1302910959
 20
69.0294858127
 40
2.0
  0
CIRCLE
  5
3FC
100
AcDbEntity
  8
02___PRT_ALL_AXES
100
AcDbCircle
 62
7
  6
CONTINUOUS
 10
56.0592910959
 20
69.0294858127
 40
2.0
  0
ARC
  5
3FD
100
AcDbEntity
  8
RUNDUNGEN
100
AcDbCircle
 62
9
  6
CONTINUOUS
 10
67.6947910959
 20
66.0153164877
 40
1.2
100
AcDbArc
 50
165.0
 51
180.0
  0
ARC
  5
3FE
100
AcDbEntity
  8
RUNDUNGEN
100
AcDbCircle
 62
9
  6
CONTINUOUS
 10
53.4947910959
 20
66.0153164877
 40
1.2
100
AcDbArc
 50
0.0
 51
15.0
  0
ARC
  5
3FF
100
AcDbEntity
  8
RUNDUNGEN
100
AcDbCircle
 62
7
  6
CONTINUOUS
 10
53.4947910959
 20
66.0153164877
 40
0.6
100
AcDbArc
 50
0.0
 51
15.0
  0
ARC
  5
400
100
AcDbEntity
  8
RUNDUNGEN
100
AcDbCircle
 62
7
  6
CONTINUOUS
 10
67.6947910959
 20
66.0153164877
 40
0.6
100
AcDbArc
 50
165.0
 51
180.0
  0
ARC
  5
401
100
AcDbEntity
  8
RUNDUNGEN
100
AcDbCircle
 62
7
  6
CONTINUOUS
 10
85.5947910959
 20
60.6564858127
 40
6.5
100
AcDbArc
 50
180.0
 51
360.0
  0
ARC
  5
402
100
AcDbEntity
  8
0
100
AcDbCircle
 62
7
  6
CONTINUOUS
 10
85.5947910959
 20
60.6564858127
 40
6.5
100
AcDbArc
 50
184.896394776
 51
186.1379745931
  0
ARC
  5
403
100
AcDbEntity
  8
02___PRT_ALL_AXES
100
AcDbCircle
 62
9
  6
CONTINUOUS
 10
85.5947910959
 20
60.6564858127
 40
5.9
100
AcDbArc
 50
347.5418941781
 51
360.0
  0
ARC
  5
404
100
AcDbEntity
  8
02___PRT_ALL_AXES
100
AcDbCircle
 62
9
  6
CONTINUOUS
 10
85.5947910959
 20
60.6564858127
 40
5.9
100
AcDbArc
 50
310.2960480337
 51
329.4045092716
  0
ARC
  5
405
100
AcDbEntity
  8
02___PRT_ALL_AXES
100
AcDbCircle
 62
9
  6
CONTINUOUS
 10
85.5947910959
 20
60.6564858127
 40
5.9
100
AcDbArc
 50
210.5954907284
 51
229.7039471832
  0
ARC
  5
406
100
AcDbEntity
  8
02___PRT_ALL_AXES
100
AcDbCircle
 62
9
  6
CONTINUOUS
 10
85.5947910959
 20
60.6564858127
 40
5.9
100
AcDbArc
 50
180.0
 51
192.4581058219
  0
ARC
  5
407
100
AcDbEntity
  8
0
100
AcDbCircle
 62
7
  6
CONTINUOUS
 10
85.5947910959
 20
60.1564858127
 40
2.5
100
AcDbArc
 50
180.0
 51
360.0
  0
CIRCLE
  5
408
100
AcDbEntity
  8
02___PRT_ALL_AXES
100
AcDbCircle
 62
7
  6
CONTINUOUS
 10
81.2697910959
 20
58.9504858127
 40
1.5
  0
ARC
  5
409
100
AcDbEntity
  8
0
100
AcDbCircle
 62
7
  6
CONTINUOUS
 10
85.5947910959
 20
67.6564858127
 40
2.5
100
AcDbArc
 50
0.0
 51
180.0
  0
CIRCLE
  5
40A
100
AcDbEntity
  8
02___PRT_ALL_AXES
100
AcDbCircle
 62
7
  6
CONTINUOUS
 10
81.0592910959
 20
69.0294858127
 40
2.0
  0
ARC
  5
40B
100
AcDbEntity
  8
RUNDUNGEN
100
AcDbCircle
 62
9
  6
CONTINUOUS
 10
78.4947910959
 20
66.0153164877
 40
1.2
100
AcDbArc
 50
0.0
 51
15.0
  0
ARC
  5
40C
100
AcDbEntity
  8
RUNDUNGEN
100
AcDbCircle
 62
7
  6
CONTINUOUS
 10
78.4947910959
 20
66.0153164877
 40
0.6
100
AcDbArc
 50
0.0
 51
15.0
  0
ARC
  5
40D
100
AcDbEntity
  8
RUNDUNGEN
100
AcDbCircle
 62
9
  6
CONTINUOUS
 10
60.5947910959
 20
78.1564858127
 40
7.6
100
AcDbArc
 50
180.0
 51
360.0
  0
ARC
  5
40E
100
AcDbEntity
  8
RUNDUNGEN
100
AcDbCircle
 62
7
  6
CONTINUOUS
 10
60.5947910959
 20
78.1564858127
 40
7.0
100
AcDbArc
 50
180.0
 51
360.0
  0
CIRCLE
  5
40F
100
AcDbEntity
  8
02___PRT_ALL_AXES
100
AcDbCircle
 62
7
  6
CONTINUOUS
 10
52.0272910959
 20
83.1564858127
 40
1.25
  0
ARC
  5
410
100
AcDbEntity
  8
RUNDUNGEN
100
AcDbCircle
 62
9
  6
CONTINUOUS
 10
50.9922793035
 20
79.774070055
 40
0.9974882587
100
AcDbArc
 50
180.0183373687
 51
196.4619820012
  0
ARC
  5
411
100
AcDbEntity
  8
RUNDUNGEN
100
AcDbCircle
 62
7
  6
CONTINUOUS
 10
51.1947910959
 20
79.2354773113
 40
0.6
100
AcDbArc
 50
180.0
 51
195.0
  0
ARC
  5
412
100
AcDbEntity
  8
RUNDUNGEN
100
AcDbCircle
 62
7
  6
CONTINUOUS
 10
50.134393702
 20
78.5564902957
 40
0.5999995925
100
AcDbArc
 50
33.7496490083
 51
89.9998852934
  0
ARC
  5
413
100
AcDbEntity
  8
RUNDUNGEN
100
AcDbCircle
 62
7
  6
CONTINUOUS
 10
52.5947910959
 20
84.980158832
 40
1.0
100
AcDbArc
 50
0.0
 51
20.0
  0
ARC
  5
414
100
AcDbEntity
  8
RUNDUNGEN
100
AcDbCircle
 62
7
  6
CONTINUOUS
 10
50.9908497791
 20
90.5564731422
 40
0.6
100
AcDbArc
 50
20.0012876045
 51
90.0004403756
  0
ARC
  5
415
100
AcDbEntity
  8
RUNDUNGEN
100
AcDbCircle
 62
9
  6
CONTINUOUS
 10
52.5947910959
 20
84.980158832
 40
0.4
100
AcDbArc
 50
0.0
 51
20.0
  0
ARC
  5
416
100
AcDbEntity
  8
RUNDUNGEN
100
AcDbCircle
 62
9
  6
CONTINUOUS
 10
85.5947910959
 20
78.1564858127
 40
7.6
100
AcDbArc
 50
180.0
 51
360.0
  0
ARC
  5
417
100
AcDbEntity
  8
RUNDUNGEN
100
AcDbCircle
 62
7
  6
CONTINUOUS
 10
85.5947910959
 20
78.1564858127
 40
7.0
100
AcDbArc
 50
180.0
 51
360.0
  0
CIRCLE
  5
418
100
AcDbEntity
  8
02___PRT_ALL_AXES
100
AcDbCircle
 62
7
  6
CONTINUOUS
 10
69.1622910959
 20
83.1564858127
 40
1.25
  0
CIRCLE
  5
419
100
AcDbEntity
  8
02___PRT_ALL_AXES
100
AcDbCircle
 62
7
  6
CONTINUOUS
 10
77.0272910959
 20
83.1564858127
 40
1.25
  0
ARC
  5
41A
100
AcDbEntity
  8
RUNDUNGEN
100
AcDbCircle
 62
9
  6
CONTINUOUS
 10
70.1972871847
 20
79.7740723292
 40
0.9975039631
100
AcDbArc
 50
343.5381483363
 51
359.9815322937
  0
ARC
  5
41B
100
AcDbEntity
  8
RUNDUNGEN
100
AcDbCircle
 62
9
  6
CONTINUOUS
 10
75.9922793035
 20
79.774070055
 40
0.9974882587
100
AcDbArc
 50
180.0183373687
 51
196.4619820012
  0
ARC
  5
41C
100
AcDbEntity
  8
RUNDUNGEN
100
AcDbCircle
 62
7
  6
CONTINUOUS
 10
69.9947910959
 20
79.2354773113
 40
0.6
100
AcDbArc
 50
345.0
 51
360.0
  0
ARC
  5
41D
100
AcDbEntity
  8
RUNDUNGEN
100
AcDbCircle
 62
7
  6
CONTINUOUS
 10
76.1947910959
 20
79.2354773113
 40
0.6
100
AcDbArc
 50
180.0
 51
195.0
  0
ARC
  5
41E
100
AcDbEntity
  8
RUNDUNGEN
100
AcDbCircle
 62
7
  6
CONTINUOUS
 10
75.134393702
 20
78.5564902957
 40
0.5999995925
100
AcDbArc
 50
33.7496490083
 51
89.9998852934
  0
ARC
  5
41F
100
AcDbEntity
  8
RUNDUNGEN
100
AcDbCircle
 62
7
  6
CONTINUOUS
 10
71.0551894128
 20
78.5564937398
 40
0.5999992794
100
AcDbArc
 50
90.0002028331
 51
146.2506187409
  0
ARC
  5
420
100
AcDbEntity
  8
RUNDUNGEN
100
AcDbCircle
 62
7
  6
CONTINUOUS
 10
68.5947910959
 20
84.980158832
 40
1.0
100
AcDbArc
 50
160.0
 51
180.0
  0
ARC
  5
421
100
AcDbEntity
  8
RUNDUNGEN
100
AcDbCircle
 62
7
  6
CONTINUOUS
 10
77.5947910959
 20
84.980158832
 40
1.0
100
AcDbArc
 50
0.0
 51
20.0
  0
ARC
  5
422
100
AcDbEntity
  8
RUNDUNGEN
100
AcDbCircle
 62
7
  6
CONTINUOUS
 10
70.1987329425
 20
90.5564745977
 40
0.6
100
AcDbArc
 50
89.9996102131
 51
159.9988603142
  0
ARC
  5
423
100
AcDbEntity
  8
RUNDUNGEN
100
AcDbCircle
 62
7
  6
CONTINUOUS
 10
75.9908497791
 20
90.5564731422
 40
0.6
100
AcDbArc
 50
20.0012876045
 51
90.0004403756
  0
ARC
  5
424
100
AcDbEntity
  8
RUNDUNGEN
100
AcDbCircle
 62
9
  6
CONTINUOUS
 10
77.5947910959
 20
84.980158832
 40
0.4
100
AcDbArc
 50
0.0
 51
20.0
  0
ARC
  5
425
100
AcDbEntity
  8
RUNDUNGEN
100
AcDbCircle
 62
9
  6
CONTINUOUS
 10
68.5947910959
 20
84.980158832
 40
0.4
100
AcDbArc
 50
160.0
 51
180.0
  0
CIRCLE
  5
426
100
AcDbEntity
  8
02___PRT_ALL_AXES
100
AcDbCircle
 62
7
  6
CONTINUOUS
 10
89.9197910959
 20
58.9504858127
 40
1.5
  0
CIRCLE
  5
427
100
AcDbEntity
  8
02___PRT_ALL_AXES
100
AcDbCircle
 62
7
  6
CONTINUOUS
 10
90.1302910959
 20
69.0294858127
 40
2.0
  0
ARC
  5
428
100
AcDbEntity
  8
RUNDUNGEN
100
AcDbCircle
 62
9
  6
CONTINUOUS
 10
92.6947910959
 20
66.0153164877
 40
1.2
100
AcDbArc
 50
165.0
 51
180.0
  0
ARC
  5
429
100
AcDbEntity
  8
RUNDUNGEN
100
AcDbCircle
 62
9
  6
CONTINUOUS
 10
103.4947910959
 20
66.0153164877
 40
1.2
100
AcDbArc
 50
0.0
 51
15.0
  0
ARC
  5
42A
100
AcDbEntity
  8
RUNDUNGEN
100
AcDbCircle
 62
7
  6
CONTINUOUS
 10
92.6947910959
 20
66.0153164877
 40
0.6
100
AcDbArc
 50
165.0
 51
180.0
  0
ARC
  5
42B
100
AcDbEntity
  8
RUNDUNGEN
100
AcDbCircle
 62
7
  6
CONTINUOUS
 10
103.4947910959
 20
66.0153164877
 40
0.6
100
AcDbArc
 50
0.0
 51
15.0
  0
ARC
  5
42C
100
AcDbEntity
  8
RUNDUNGEN
100
AcDbCircle
 62
7
  6
CONTINUOUS
 10
110.5947910959
 20
60.6564858127
 40
6.5
100
AcDbArc
 50
179.9999999919
 51
360.0
  0
ARC
  5
42D
100
AcDbEntity
  8
02___PRT_ALL_AXES
100
AcDbCircle
 62
9
  6
CONTINUOUS
 10
110.5947910959
 20
60.6564858127
 40
5.9
100
AcDbArc
 50
347.5418941781
 51
360.0
  0
ARC
  5
42E
100
AcDbEntity
  8
02___PRT_ALL_AXES
100
AcDbCircle
 62
9
  6
CONTINUOUS
 10
110.5947910959
 20
60.6564858127
 40
5.9
100
AcDbArc
 50
310.2960480337
 51
329.4045092716
  0
ARC
  5
42F
100
AcDbEntity
  8
02___PRT_ALL_AXES
100
AcDbCircle
 62
9
  6
CONTINUOUS
 10
110.5947910959
 20
60.6564858127
 40
5.9
100
AcDbArc
 50
210.5954907284
 51
229.7039471832
  0
ARC
  5
430
100
AcDbEntity
  8
02___PRT_ALL_AXES
100
AcDbCircle
 62
9
  6
CONTINUOUS
 10
110.5947910959
 20
60.6564858127
 40
5.9
100
AcDbArc
 50
180.0
 51
192.4581058219
  0
ARC
  5
431
100
AcDbEntity
  8
0
100
AcDbCircle
 62
7
  6
CONTINUOUS
 10
110.5947910959
 20
60.1564858127
 40
2.5
100
AcDbArc
 50
180.0
 51
360.0
  0
CIRCLE
  5
432
100
AcDbEntity
  8
02___PRT_ALL_AXES
100
AcDbCircle
 62
7
  6
CONTINUOUS
 10
114.9197910959
 20
58.9504858127
 40
1.5
  0
CIRCLE
  5
433
100
AcDbEntity
  8
02___PRT_ALL_AXES
100
AcDbCircle
 62
7
  6
CONTINUOUS
 10
106.2697910959
 20
58.9504858127
 40
1.5
  0
ARC
  5
434
100
AcDbEntity
  8
0
100
AcDbCircle
 62
7
  6
CONTINUOUS
 10
110.5947910959
 20
67.6564858127
 40
2.5
100
AcDbArc
 50
0.0
 51
180.0
  0
CIRCLE
  5
435
100
AcDbEntity
  8
02___PRT_ALL_AXES
100
AcDbCircle
 62
7
  6
CONTINUOUS
 10
115.1302910959
 20
69.0294858127
 40
2.0
  0
CIRCLE
  5
436
100
AcDbEntity
  8
02___PRT_ALL_AXES
100
AcDbCircle
 62
7
  6
CONTINUOUS
 10
106.0592910959
 20
69.0294858127
 40
2.0
  0
ARC
  5
437
100
AcDbEntity
  8
RUNDUNGEN
100
AcDbCircle
 62
9
  6
CONTINUOUS
 10
117.6947910959
 20
66.0153164877
 40
1.2
100
AcDbArc
 50
165.0
 51
180.0
  0
ARC
  5
438
100
AcDbEntity
  8
RUNDUNGEN
100
AcDbCircle
 62
7
  6
CONTINUOUS
 10
117.6947910959
 20
66.0153164877
 40
0.6
100
AcDbArc
 50
165.0
 51
180.0
  0
CIRCLE
  5
439
100
AcDbEntity
  8
02___PRT_ALL_AXES
100
AcDbCircle
 62
7
  6
CONTINUOUS
 10
94.1622910959
 20
83.1564858127
 40
1.25
  0
CIRCLE
  5
43A
100
AcDbEntity
  8
02___PRT_ALL_AXES
100
AcDbCircle
 62
7
  6
CONTINUOUS
 10
102.0272910959
 20
83.1564858127
 40
1.25
  0
ARC
  5
43B
100
AcDbEntity
  8
RUNDUNGEN
100
AcDbCircle
 62
9
  6
CONTINUOUS
 10
95.1972871847
 20
79.7740723292
 40
0.9975039631
100
AcDbArc
 50
343.5381483363
 51
359.9815322938
  0
ARC
  5
43C
100
AcDbEntity
  8
RUNDUNGEN
100
AcDbCircle
 62
9
  6
CONTINUOUS
 10
100.9922829103
 20
79.7740705773
 40
0.9974918656
100
AcDbArc
 50
180.0183673043
 51
196.4619520657
  0
ARC
  5
43D
100
AcDbEntity
  8
RUNDUNGEN
100
AcDbCircle
 62
7
  6
CONTINUOUS
 10
94.9947910959
 20
79.2354773113
 40
0.6
100
AcDbArc
 50
345.0
 51
360.0
  0
ARC
  5
43E
100
AcDbEntity
  8
RUNDUNGEN
100
AcDbCircle
 62
7
  6
CONTINUOUS
 10
101.1947910959
 20
79.2354773113
 40
0.6
100
AcDbArc
 50
180.0
 51
195.0
  0
ARC
  5
43F
100
AcDbEntity
  8
RUNDUNGEN
100
AcDbCircle
 62
7
  6
CONTINUOUS
 10
100.1343937068
 20
78.5564902775
 40
0.5999995941
100
AcDbArc
 50
33.7496504214
 51
89.9998857573
  0
ARC
  5
440
100
AcDbEntity
  8
RUNDUNGEN
100
AcDbCircle
 62
7
  6
CONTINUOUS
 10
96.0551894128
 20
78.5564937398
 40
0.5999992794
100
AcDbArc
 50
90.0002028331
 51
146.2506187409
  0
ARC
  5
441
100
AcDbEntity
  8
RUNDUNGEN
100
AcDbCircle
 62
7
  6
CONTINUOUS
 10
93.5947910959
 20
84.980158832
 40
1.0
100
AcDbArc
 50
160.0
 51
180.0
  0
ARC
  5
442
100
AcDbEntity
  8
RUNDUNGEN
100
AcDbCircle
 62
7
  6
CONTINUOUS
 10
102.5947910959
 20
84.980158832
 40
1.0
100
AcDbArc
 50
0.0
 51
20.0
  0
ARC
  5
443
100
AcDbEntity
  8
RUNDUNGEN
100
AcDbCircle
 62
7
  6
CONTINUOUS
 10
95.1987329425
 20
90.5564745977
 40
0.6
100
AcDbArc
 50
89.9996102131
 51
159.9988603142
  0
ARC
  5
444
100
AcDbEntity
  8
RUNDUNGEN
100
AcDbCircle
 62
7
  6
CONTINUOUS
 10
100.9908497791
 20
90.5564731422
 40
0.6
100
AcDbArc
 50
20.0012876045
 51
90.0004403756
  0
ARC
  5
445
100
AcDbEntity
  8
RUNDUNGEN
100
AcDbCircle
 62
9
  6
CONTINUOUS
 10
93.5947910959
 20
84.980158832
 40
0.4
100
AcDbArc
 50
160.0
 51
180.0
  0
ARC
  5
446
100
AcDbEntity
  8
RUNDUNGEN
100
AcDbCircle
 62
9
  6
CONTINUOUS
 10
102.5947910959
 20
84.980158832
 40
0.4
100
AcDbArc
 50
0.0
 51
20.0
  0
ARC
  5
447
100
AcDbEntity
  8
RUNDUNGEN
100
AcDbCircle
 62
9
  6
CONTINUOUS
 10
110.5947910959
 20
78.1564858127
 40
7.6
100
AcDbArc
 50
180.0
 51
360.0
  0
ARC
  5
448
100
AcDbEntity
  8
RUNDUNGEN
100
AcDbCircle
 62
7
  6
CONTINUOUS
 10
110.5947910959
 20
78.1564858127
 40
7.0
100
AcDbArc
 50
180.0
 51
360.0
  0
CIRCLE
  5
449
100
AcDbEntity
  8
02___PRT_ALL_AXES
100
AcDbCircle
 62
7
  6
CONTINUOUS
 10
119.1622910959
 20
83.1564858127
 40
1.25
  0
ARC
  5
44A
100
AcDbEntity
  8
RUNDUNGEN
100
AcDbCircle
 62
9
  6
CONTINUOUS
 10
120.1972840041
 20
79.7740727898
 40
0.9975071438
100
AcDbArc
 50
343.5381747342
 51
359.9815058958
  0
ARC
  5
44B
100
AcDbEntity
  8
RUNDUNGEN
100
AcDbCircle
 62
7
  6
CONTINUOUS
 10
119.9947910959
 20
79.2354773113
 40
0.6
100
AcDbArc
 50
345.0
 51
360.0
  0
ARC
  5
44C
100
AcDbEntity
  8
RUNDUNGEN
100
AcDbCircle
 62
7
  6
CONTINUOUS
 10
121.0551894045
 20
78.5564937088
 40
0.5999992822
100
AcDbArc
 50
90.000202042
 51
146.2506163359
  0
ARC
  5
44D
100
AcDbEntity
  8
RUNDUNGEN
100
AcDbCircle
 62
7
  6
CONTINUOUS
 10
118.5947910959
 20
84.980158832
 40
1.0
100
AcDbArc
 50
160.0
 51
180.0
  0
ARC
  5
44E
100
AcDbEntity
  8
RUNDUNGEN
100
AcDbCircle
 62
7
  6
CONTINUOUS
 10
120.1987329425
 20
90.5564745977
 40
0.6
100
AcDbArc
 50
89.9996102131
 51
159.9988603142
  0
ARC
  5
44F
100
AcDbEntity
  8
RUNDUNGEN
100
AcDbCircle
 62
9
  6
CONTINUOUS
 10
118.5947910959
 20
84.980158832
 40
0.4
100
AcDbArc
 50
160.0
 51
180.0
  0
SPLINE
  5
450
100
AcDbEntity
  8
0
100
AcDbSpline
 62
7
  6
CONTINUOUS
 70
0
 71
3
 72
8
 73
4
 74
2
 42
0.0000001
 43
0.0000001
 44
0.0000000001
 12
-0.0427170334
 22
0.0
 32
0.0
 13
-0.0357213514
 23
0.0239329167
 33
0.0
 40
0.0
 40
0.0
 40
0.0
 40
0.0
 40
1.0
 40
1.0
 40
1.0
 40
1.0
 10
67.0575285191
 20
153.1248782482
 30
0.0
 10
67.0432895079
 20
153.1248782482
 30
0.0
 10
67.0304137098
 20
153.1299328462
 30
0.0
 10
67.0185065926
 20
153.1379104851
 30
0.0
 11
67.0575285191
 21
153.1248782482
 31
0.0
 11
67.0185065926
 21
153.1379104851
 31
0.0
  0
SPLINE
  5
451
100
AcDbEntity
  8
0
100
AcDbSpline
 62
7
  6
CONTINUOUS
 70
0
 71
3
 72
22
 73
18
 74
16
 42
0.0000001
 43
0.0000001
 44
0.0000000001
 12
-4.8327583052
 22
3.2378954746
 32
0.0
 13
5.7792073776
 23
-0.0
 33
0.0
 40
0.0
 40
0.0
 40
0.0
 40
0.0
 40
0.0108994184
 40
0.049312914
 40
0.1056890626
 40
0.1756171306
 40
0.2563659594
 40
0.3465839431
 40
0.4458599551
 40
0.5480638269
 40
0.6470950346
 40
0.7373012904
 40
0.817892659
 40
0.8874857518
 40
0.9435176997
 40
0.9817607739
 40
1.0
 40
1.0
 40
1.0
 40
1.0
 10
67.0185065926
 20
153.1379104851
 30
0.0
 10
67.0009485077
 20
153.1496742109
 30
0.0
 10
66.9310390747
 20
153.2316538826
 30
0.0
 10
66.8181160269
 20
153.3863565037
 30
0.0
 10
66.6614106464
 20
153.6702627784
 30
0.0
 10
66.4959665369
 20
154.0309000203
 30
0.0
 10
66.3385391185
 20
154.4690126232
 30
0.0
 10
66.2108145955
 20
154.9744269227
 30
0.0
 10
66.1372498947
 20
155.533136837
 30
0.0
 10
66.1377562335
 20
156.1137697702
 30
0.0
 10
66.2121045718
 20
156.6718647391
 30
0.0
 10
66.3402691505
 20
157.176342567
 30
0.0
 10
66.4978420848
 20
157.6133623484
 30
0.0
 10
66.6629222386
 20
157.9724085679
 30
0.0
 10
66.818995911
 20
158.2547238292
 30
0.0
 10
66.9392962137
 20
158.4193927274
 30
0.0
 10
67.022392429
 20
158.5148782482
 30
0.0
 10
67.0575285191
 20
158.5148782482
 30
0.0
 11
67.0185065926
 21
153.1379104851
 31
0.0
 11
66.9708862517
 21
153.1854347856
 31
0.0
 11
66.8391308782
 21
153.3641085804
 31
0.0
 11
66.678136159
 21
153.6473620015
 31
0.0
 11
66.5093357246
 21
154.0145492911
 31
0.0
 11
66.3516258398
 21
154.4537566375
 31
0.0
 11
66.2245639169
 21
154.9594256696
 31
0.0
 11
66.1504072412
 21
155.5283496926
 31
0.0
 11
66.1509160438
 21
156.119006843
 31
0.0
 11
66.2257510401
 21
156.6864150425
 31
0.0
 11
66.3534355825
 21
157.1918573115
 31
0.0
 11
66.5113234614
 21
157.6300335573
 31
0.0
 11
66.6796349685
 21
157.9953147879
 31
0.0
 11
66.8398272306
 21
158.2767361648
 31
0.0
 11
66.9710933207
 21
158.454546997
 31
0.0
 11
67.0575285191
 21
158.5148782482
 31
0.0
  0
SPLINE
  5
452
100
AcDbEntity
  8
0
100
AcDbSpline
 62
7
  6
CONTINUOUS
 70
0
 71
3
 72
8
 73
4
 74
2
 42
0.0000001
 43
0.0000001
 44
0.0000000001
 12
-0.0974649968
 22
0.0
 32
0.0
 13
-0.0691505992
 23
0.0800796295
 33
0.0
 40
0.0
 40
0.0
 40
0.0
 40
0.0
 40
1.0
 40
1.0
 40
1.0
 40
1.0
 10
92.0575285191
 20
153.1248782482
 30
0.0
 10
92.0250401868
 20
153.1248782482
 30
0.0
 10
91.9996958859
 20
153.1525669559
 30
0.0
 10
91.9766456862
 20
153.1792601657
 30
0.0
 11
92.0575285191
 21
153.1248782482
 31
0.0
 11
91.9766456862
 21
153.1792601657
 31
0.0
  0
SPLINE
  5
453
100
AcDbEntity
  8
0
100
AcDbSpline
 62
7
  6
CONTINUOUS
 70
0
 71
3
 72
22
 73
18
 74
16
 42
0.0000001
 43
0.0000001
 44
0.0000000001
 12
-4.0619937132
 22
4.7039787838
 32
0.0
 13
5.7252172658
 23
0.0
 33
0.0
 40
0.0
 40
0.0
 40
0.0
 40
0.0
 40
0.0351771179
 40
0.0868692878
 40
0.1517753389
 40
0.2268432214
 40
0.3099659026
 40
0.3990812002
 40
0.4919863823
 40
0.5848390326
 40
0.6738158217
 40
0.7569053244
 40
0.8318233334
 40
0.8964878204
 40
0.9479607499
 40
0.9830159161
 40
1.0
 40
1.0
 40
1.0
 40
1.0
 10
91.9766456862
 20
153.1792601657
 30
0.0
 10
91.9290159422
 20
153.2344176378
 30
0.0
 10
91.835584541
 20
153.3601313508
 30
0.0
 10
91.6893023499
 20
153.6169667837
 30
0.0
 10
91.5325896213
 20
153.9454753308
 30
0.0
 10
91.3797566636
 20
154.3441569503
 30
0.0
 10
91.2501272832
 20
154.7984686735
 30
0.0
 10
91.1615315455
 20
155.2977549672
 30
0.0
 10
91.1300093136
 20
155.8226434955
 30
0.0
 10
91.1621776056
 20
156.3472251881
 30
0.0
 10
91.2512350607
 20
156.8459885904
 30
0.0
 10
91.381106063
 20
157.2995914051
 30
0.0
 10
91.5339519138
 20
157.6973939583
 30
0.0
 10
91.6903599745
 20
158.0247675404
 30
0.0
 10
91.8361983505
 20
158.2805313983
 30
0.0
 10
91.9475932781
 20
158.430312169
 30
0.0
 10
92.0251159955
 20
158.5148782482
 30
0.0
 10
92.0575285191
 20
158.5148782482
 30
0.0
 11
91.9766456862
 21
153.1792601657
 31
0.0
 11
91.8549387437
 21
153.3397220863
 31
0.0
 11
91.7053878394
 21
153.5951047022
 31
0.0
 11
91.5448885781
 21
153.9302576106
 31
0.0
 11
91.3910058518
 21
154.3315441673
 31
0.0
 11
91.2608912503
 21
154.7893068039
 31
0.0
 11
91.1723730946
 21
155.2917738251
 31
0.0
 11
91.140772549
 21
155.8227366467
 31
0.0
 11
91.1730193145
 21
156.3533593031
 31
0.0
 11
91.2619404675
 21
156.8549498265
 31
0.0
 11
91.3924195606
 21
157.3124111767
 31
0.0
 11
91.5463073975
 21
157.7127766492
 31
0.0
 11
91.7064135951
 21
158.046584302
 31
0.0
 11
91.8554508244
 21
158.300813104
 31
0.0
 11
91.9768060355
 21
158.4606654657
 31
0.0
 11
92.0575285191
 21
158.5148782482
 31
0.0
  0
SPLINE
  5
454
100
AcDbEntity
  8
0
100
AcDbSpline
 62
7
  6
CONTINUOUS
 70
0
 71
3
 72
8
 73
4
 74
2
 42
0.0000001
 43
0.0000001
 44
0.0000000001
 12
0.0979340899
 22
0.0
 32
0.0
 13
0.0693939213
 23
-0.0805523665
 33
0.0
 40
0.0
 40
0.0
 40
0.0
 40
0.0
 40
1.0
 40
1.0
 40
1.0
 40
1.0
 10
104.1320536728
 20
158.5148782482
 30
0.0
 10
104.1646983695
 20
158.5148782482
 30
0.0
 10
104.1901356884
 20
158.4869980385
 30
0.0
 10
104.2132669955
 20
158.4601472496
 30
0.0
 11
104.1320536728
 21
158.5148782482
 31
0.0
 11
104.2132669955
 21
158.4601472496
 31
0.0
  0
SPLINE
  5
455
100
AcDbEntity
  8
0
100
AcDbSpline
 62
7
  6
CONTINUOUS
 70
0
 71
3
 72
22
 73
18
 74
16
 42
0.0000001
 43
0.0000001
 44
0.0000000001
 12
4.0564136121
 22
-4.7086792339
 32
0.0
 13
-5.7247258572
 23
0.0
 33
0.0
 40
0.0
 40
0.0
 40
0.0
 40
0.0
 40
0.0350450936
 40
0.0864012199
 40
0.1512104934
 40
0.2266902061
 40
0.3101178091
 40
0.399412692
 40
0.4915092479
 40
0.5835238272
 40
0.6726114965
 40
0.755843569
 40
0.8312626676
 40
0.8961595583
 40
0.9476761815
 40
0.9828435877
 40
1.0
 40
1.0
 40
1.0
 40
1.0
 10
104.2132669955
 20
158.4601472496
 30
0.0
 10
104.2606527938
 20
158.4051418814
 30
0.0
 10
104.3536202659
 20
158.2801807911
 30
0.0
 10
104.4994217356
 20
158.0243657963
 30
0.0
 10
104.6562820193
 20
157.6960137426
 30
0.0
 10
104.8096545824
 20
157.2962952283
 30
0.0
 10
104.9397162516
 20
156.84036554
 30
0.0
 10
105.0280163741
 20
156.3416933469
 30
0.0
 10
105.0593803088
 20
155.8196759033
 30
0.0
 10
105.0279835563
 20
155.2980599217
 30
0.0
 10
104.9398855183
 20
154.8002982422
 30
0.0
 10
104.8102059387
 20
154.3451832899
 30
0.0
 10
104.6571207435
 20
153.9456998702
 30
0.0
 10
104.5002509359
 20
153.616962691
 30
0.0
 10
104.3542017321
 20
153.3604407043
 30
0.0
 10
104.2425347163
 20
153.2102456969
 30
0.0
 10
104.1647922586
 20
153.1248782482
 30
0.0
 10
104.1320536728
 20
153.1248782482
 30
0.0
 11
104.2132669955
 21
158.4601472496
 31
0.0
 11
104.3344808931
 21
158.3002816769
 31
0.0
 11
104.4831410193
 21
158.0466362232
 31
0.0
 11
104.6435685038
 21
157.7120986425
 31
0.0
 11
104.7984137942
 21
157.3086957186
 31
0.0
 11
104.9289619724
 21
156.8492840492
 31
0.0
 11
105.0174677327
 21
156.3458154372
 31
0.0
 11
105.048810555
 21
155.8195203667
 31
0.0
 11
105.0174386784
 21
155.2936971552
 31
0.0
 11
104.929175193
 21
154.7913903852
 31
0.0
 11
104.7990710141
 21
154.3330162446
 31
0.0
 11
104.6445259005
 21
153.9298698267
 31
0.0
 11
104.4840358892
 21
153.5948059976
 31
0.0
 11
104.3350242501
 21
153.3403016177
 31
0.0
 11
104.2134652774
 21
153.1798189946
 31
0.0
 11
104.1320536728
 21
153.1248782482
 31
0.0
  0
SPLINE
  5
456
100
AcDbEntity
  8
0
100
AcDbSpline
 62
7
  6
CONTINUOUS
 70
0
 71
3
 72
8
 73
4
 74
2
 42
0.0000001
 43
0.0000001
 44
0.0000000001
 12
-0.0900051098
 22
0.0
 32
0.0
 13
-0.0650522832
 23
0.0722792402
 33
0.0
 40
0.0
 40
0.0
 40
0.0
 40
0.0
 40
1.0
 40
1.0
 40
1.0
 40
1.0
 10
117.0575285191
 20
153.1248782482
 30
0.0
 10
117.0275268158
 20
153.1248782482
 30
0.0
 10
117.0036320167
 20
153.149657381
 30
0.0
 10
116.9819479223
 20
153.173750461
 30
0.0
 11
117.0575285191
 21
153.1248782482
 31
0.0
 11
116.9819479223
 21
153.173750461
 31
0.0
  0
SPLINE
  5
457
100
AcDbEntity
  8
0
100
AcDbSpline
 62
7
  6
CONTINUOUS
 70
0
 71
3
 72
23
 73
19
 74
17
 42
0.0000001
 43
0.0000001
 44
0.0000000001
 12
-4.1438332418
 22
4.6041907186
 32
0.0
 13
5.7333293734
 23
0.0
 33
0.0
 40
0.0
 40
0.0
 40
0.0
 40
0.0
 40
0.0319768161
 40
0.0789992788
 40
0.1387001145
 40
0.2080426768
 40
0.2849690901
 40
0.3660742651
 40
0.4502211516
 40
0.5348299849
 40
0.6188819637
 40
0.6999432312
 40
0.776809181
 40
0.8460296999
 40
0.9055584088
 40
0.9524383574
 40
0.9843292052
 40
1.0
 40
1.0
 40
1.0
 40
1.0
 10
116.9819479223
 20
153.173750461
 30
0.0
 10
116.9377790579
 20
153.2228262476
 30
0.0
 10
116.8513195619
 20
153.3370365641
 30
0.0
 10
116.7146407587
 20
153.5700103117
 30
0.0
 10
116.5662770893
 20
153.8702931499
 30
0.0
 10
116.4181308463
 20
154.2360731846
 30
0.0
 10
116.2880176552
 20
154.6510403822
 30
0.0
 10
116.1905223457
 20
155.1042954038
 30
0.0
 10
116.1384428002
 20
155.5798719259
 30
0.0
 10
116.1386806914
 20
156.0640111911
 30
0.0
 10
116.1911577074
 20
156.5392735911
 30
0.0
 10
116.2889178321
 20
156.9920797573
 30
0.0
 10
116.4191726553
 20
157.4065474632
 30
0.0
 10
116.5672604429
 20
157.771615637
 30
0.0
 10
116.7153830607
 20
158.0710942226
 30
0.0
 10
116.8517459894
 20
158.3033373284
 30
0.0
 10
116.9551530016
 20
158.4398581871
 30
0.0
 10
117.0275799096
 20
158.5148782482
 30
0.0
 10
117.0575285191
 20
158.5148782482
 30
0.0
 11
116.9819479223
 21
153.173750461
 31
0.0
 11
116.8691969499
 21
153.3183133678
 31
0.0
 11
116.7300922318
 21
153.5492494743
 31
0.0
 11
116.5778100545
 21
153.8557928723
 31
0.0
 11
116.428418677
 21
154.2242208178
 31
0.0
 11
116.2967622724
 21
154.6451564561
 31
0.0
 11
116.1994749183
 21
155.0998680844
 31
0.0
 11
116.1473241055
 21
155.5794829287
 31
0.0
 11
116.1475605478
 21
156.0645731799
 31
0.0
 11
116.200080931
 21
156.543600301
 31
0.0
 11
116.2976624619
 21
156.9979914173
 31
0.0
 11
116.4294933128
 21
157.4185091747
 31
0.0
 11
116.5788243047
 21
157.7862064912
 31
0.0
 11
116.730800216
 21
158.0918000762
 31
0.0
 11
116.8695644833
 21
158.3219873731
 31
0.0
 11
116.9820621214
 21
158.4661227799
 31
0.0
 11
117.0575285191
 21
158.5148782482
 31
0.0
  0
SPLINE
  5
458
100
AcDbEntity
  8
0
100
AcDbSpline
 62
7
  6
CONTINUOUS
 70
0
 71
3
 72
23
 73
19
 74
17
 42
0.0000001
 43
0.0000001
 44
0.0000000001
 12
5.8226768569
 22
0.0
 32
0.0
 13
-5.8226768569
 23
0.0
 33
0.0
 40
0.0
 40
0.0
 40
0.0
 40
0.0
 40
0.0166644786
 40
0.0507951847
 40
0.1008139695
 40
0.163941566
 40
0.2375071335
 40
0.319436494
 40
0.4080963941
 40
0.5001812205
 40
0.5921297043
 40
0.6804515568
 40
0.762065015
 40
0.8355306368
 40
0.8987709916
 40
0.9489926239
 40
0.9832777616
 40
1.0
 40
1.0
 40
1.0
 40
1.0
 10
79.1320536728
 20
158.5148782482
 30
0.0
 10
79.1643976307
 20
158.5148782482
 30
0.0
 10
79.2414068302
 20
158.4309808449
 30
0.0
 10
79.3519155902
 20
158.2827039008
 30
0.0
 10
79.496675577
 20
158.0295164407
 30
0.0
 10
79.6526007478
 20
157.7043604869
 30
0.0
 10
79.8058706813
 20
157.3073947512
 30
0.0
 10
79.9371884685
 20
156.8515702196
 30
0.0
 10
80.0274554147
 20
156.3486674159
 30
0.0
 10
80.0597385827
 20
155.8190863402
 30
0.0
 10
80.027290843
 20
155.2901786335
 30
0.0
 10
79.9372655509
 20
154.7888028393
 30
0.0
 10
79.8065006911
 20
154.3343487351
 30
0.0
 10
79.6536560917
 20
153.9378515804
 30
0.0
 10
79.4977337242
 20
153.6122383264
 30
0.0
 10
79.3526493583
 20
153.3581422369
 30
0.0
 10
79.241769139
 20
153.2092374471
 30
0.0
 10
79.1645097363
 20
153.1248782482
 30
0.0
 10
79.1320536728
 20
153.1248782482
 30
0.0
 11
79.1320536728
 21
158.5148782482
 31
0.0
 11
79.2126310593
 21
158.4608183803
 31
0.0
 11
79.3329317963
 21
158.3026344074
 31
0.0
 11
79.4805227103
 21
158.0515576544
 31
0.0
 11
79.6399761488
 21
157.7203726933
 31
0.0
 11
79.7943261446
 21
157.3207997469
 31
0.0
 11
79.9259269991
 21
156.8622627344
 31
0.0
 11
80.016481917
 21
156.3540291006
 31
0.0
 11
80.0488104435
 21
155.8188244109
 31
0.0
 11
80.0163241561
 21
155.2844246164
 31
0.0
 11
79.9260779137
 21
154.7781353276
 31
0.0
 11
79.7951285799
 21
154.3213250055
 31
0.0
 11
79.6412056278
 21
153.9222110266
 31
0.0
 11
79.481663093
 21
153.5903403438
 31
0.0
 11
79.3336166211
 21
153.3381613706
 31
0.0
 11
79.2128682609
 21
153.1791881629
 31
0.0
 11
79.1320536728
 21
153.1248782482
 31
0.0
  0
SPLINE
  5
459
100
AcDbEntity
  8
0
100
AcDbSpline
 62
7
  6
CONTINUOUS
 70
0
 71
3
 72
22
 73
18
 74
16
 42
0.0000001
 43
0.0000001
 44
0.0000000001
 12
5.8219088105
 22
0.0
 32
0.0
 13
-5.8219088105
 23
0.0
 33
0.0
 40
0.0
 40
0.0
 40
0.0
 40
0.0
 40
0.0182977696
 40
0.0563422246
 40
0.1121150673
 40
0.1821150839
 40
0.2636988427
 40
0.353959931
 40
0.4510105283
 40
0.5494348472
 40
0.6461337908
 40
0.7358964724
 40
0.8172435499
 40
0.8873020133
 40
0.9433516384
 40
0.9816135935
 40
1.0
 40
1.0
 40
1.0
 40
1.0
 10
54.1320536728
 20
158.5148782482
 30
0.0
 10
54.1675629881
 20
158.5148782482
 30
0.0
 10
54.2508332702
 20
158.4185306181
 30
0.0
 10
54.3715415318
 20
158.2532953671
 30
0.0
 10
54.5285246555
 20
157.9688326609
 30
0.0
 10
54.6953715284
 20
157.6049837774
 30
0.0
 10
54.8540225968
 20
157.1616508695
 30
0.0
 10
54.9807122291
 20
156.654685072
 30
0.0
 10
55.051975211
 20
156.1032184366
 30
0.0
 10
55.0518064575
 20
155.5346316783
 30
0.0
 10
54.9805704111
 20
154.9848411651
 30
0.0
 10
54.8544958005
 20
154.4799099686
 30
0.0
 10
54.6965522001
 20
154.0377256811
 30
0.0
 10
54.5298798596
 20
153.6735956881
 30
0.0
 10
54.3725693576
 20
153.3880272635
 30
0.0
 10
54.251345259
 20
153.2219184324
 30
0.0
 10
54.1677350003
 20
153.1248782482
 30
0.0
 10
54.1320536728
 20
153.1248782482
 30
0.0
 11
54.1320536728
 21
158.5148782482
 31
0.0
 11
54.2192642695
 21
158.4537021492
 31
0.0
 11
54.3506282432
 21
158.2753712108
 31
0.0
 11
54.5110910901
 21
157.9930865585
 31
0.0
 11
54.6812461722
 21
157.6227745608
 31
0.0
 11
54.8411704122
 21
157.175534377
 31
0.0
 11
54.9678685536
 21
156.6655449267
 31
0.0
 11
55.0395875415
 21
156.1050953933
 31
0.0
 11
55.0394197694
 21
155.5320780085
 31
0.0
 11
54.9677676875
 21
154.973683938
 31
0.0
 11
54.8418628024
 21
154.4664873079
 31
0.0
 11
54.6826686674
 21
154.0204495247
 31
0.0
 11
54.5126453334
 21
153.6497026377
 31
0.0
 11
54.3515949133
 21
153.3658985372
 31
0.0
 11
54.2196210533
 21
153.1864442129
 31
0.0
 11
54.1320536728
 21
153.1248782482
 31
0.0
  0
SPLINE
  5
45A
100
AcDbEntity
  8
RUNDUNGEN
100
AcDbSpline
 62
9
  6
CONTINUOUS
 70
0
 71
3
 72
11
 73
7
 74
5
 42
0.0000001
 43
0.0000001
 44
0.0000000001
 12
0.0000000228
 22
-0.7799271804
 32
0.0
 13
-0.7799271804
 23
-0.0
 33
0.0
 40
0.0
 40
0.0
 40
0.0
 40
0.0
 40
0.2968306703
 40
0.5687189135
 40
0.8008034783
 40
1.0
 40
1.0
 40
1.0
 40
1.0
 10
64.7985909643
 20
150.4198782482
 30
0.0
 10
64.7985909665
 20
150.3427094789
 30
0.0
 10
64.7803933636
 20
150.1940338246
 30
0.0
 10
64.7002709157
 20
149.9989053901
 30
0.0
 10
64.5754792399
 20
149.8582616433
 30
0.0
 10
64.4623341621
 20
149.8198782482
 30
0.0
 10
64.4105479016
 20
149.8198782482
 30
0.0
 11
64.7985909643
 21
150.4198782482
 31
0.0
 11
64.7690518803
 21
150.1902641958
 31
0.0
 11
64.6849327476
 21
149.9956094773
 31
0.0
 11
64.5590422943
 21
149.8655484392
 31
0.0
 11
64.4105479016
 21
149.8198782482
 31
0.0
  0
SPLINE
  5
45B
100
AcDbEntity
  8
RUNDUNGEN
100
AcDbSpline
 62
9
  6
CONTINUOUS
 70
0
 71
3
 72
10
 73
6
 74
4
 42
0.0000001
 43
0.0000001
 44
0.0000000001
 12
0.2026224449
 22
2.167710666
 32
0.0
 13
0.0000440891
 23
2.1771599355
 33
0.0
 40
0.0
 40
0.0
 40
0.0
 40
0.0
 40
0.3279773271
 40
0.6636175552
 40
1.0
 40
1.0
 40
1.0
 40
1.0
 10
100.6152356002
 20
153.6456498386
 30
0.0
 10
100.6373874561
 20
153.8826364886
 30
0.0
 10
100.674106928
 20
154.3629364589
 30
0.0
 10
100.7067213855
 20
155.0880253857
 30
0.0
 10
100.7139454553
 20
155.5757587876
 30
0.0
 10
100.7139503989
 20
155.8198782482
 30
0.0
 11
100.6152356002
 21
153.6456498386
 31
0.0
 11
100.6700004756
 21
154.3576057372
 31
0.0
 11
100.703031892
 21
155.087601261
 31
0.0
 11
100.7139503989
 21
155.8198782482
 31
0.0
  0
SPLINE
  5
45C
100
AcDbEntity
  8
RUNDUNGEN
100
AcDbSpline
 62
9
  6
CONTINUOUS
 70
0
 71
3
 72
21
 73
17
 74
15
 42
0.0000001
 43
0.0000001
 44
0.0000000001
 12
4.3560346244
 22
0.0000079573
 32
0.0
 13
3.5756333718
 23
2.4879476762
 33
0.0
 40
0.0
 40
0.0
 40
0.0
 40
0.0
 40
0.0297385811
 40
0.0627952202
 40
0.09999435
 40
0.1422104263
 40
0.190370209
 40
0.2454254958
 40
0.308305609
 40
0.3799130838
 40
0.4612988387
 40
0.5531542366
 40
0.6545304558
 40
0.7639978494
 40
0.8798212963
 40
1.0
 40
1.0
 40
1.0
 40
1.0
 10
106.7790342903
 20
149.8198782482
 30
0.0
 10
106.8222150533
 20
149.8198783271
 30
0.0
 10
106.9134292875
 20
149.8242091902
 30
0.0
 10
107.0575186638
 20
149.8432134267
 30
0.0
 10
107.2174689163
 20
149.8768898936
 30
0.0
 10
107.3957913052
 20
149.9275227754
 30
0.0
 10
107.5950794701
 20
149.9977137085
 30
0.0
 10
107.8179047643
 20
150.0902568013
 30
0.0
 10
108.0667722576
 20
150.2079894584
 30
0.0
 10
108.3443449358
 20
150.3537742915
 30
0.0
 10
108.6530721225
 20
150.5302075541
 30
0.0
 10
108.9932949836
 20
150.7382597274
 30
0.0
 10
109.3627547465
 20
150.9763915368
 30
0.0
 10
109.7568421624
 20
151.2403888583
 30
0.0
 10
110.1702876654
 20
151.5244616416
 30
0.0
 10
110.4515527681
 20
151.7202121393
 30
0.0
 10
110.5947910959
 20
151.8198782482
 30
0.0
 11
106.7790342903
 21
149.8198782482
 31
0.0
 11
106.9084463397
 21
149.8256856647
 31
0.0
 11
107.0512564165
 21
149.8441272203
 31
0.0
 11
107.2099098297
 21
149.8770860137
 31
0.0
 11
107.3869418094
 21
149.9268548313
 31
0.0
 11
107.5849837746
 21
149.9960604089
 31
0.0
 11
107.8066732254
 21
150.0875411821
 31
0.0
 11
108.0545143924
 21
150.204161597
 31
0.0
 11
108.3309366063
 21
150.3486875133
 31
0.0
 11
108.6390302125
 21
150.5240789866
 31
0.0
 11
108.980698576
 21
150.7323167838
 31
0.0
 11
109.3521887041
 21
150.9710722277
 31
0.0
 11
109.7486623629
 21
151.2360035512
 31
0.0
 11
110.1647927396
 21
151.5212875921
 31
0.0
 11
110.5947910959
 21
151.8198782482
 31
0.0
  0
SPLINE
  5
45D
100
AcDbEntity
  8
RUNDUNGEN
100
AcDbSpline
 62
9
  6
CONTINUOUS
 70
0
 71
3
 72
11
 73
7
 74
5
 42
0.0000001
 43
0.0000001
 44
0.0000000001
 12
-0.1936957887
 22
-0.617809713
 32
0.0
 13
-0.6391552313
 23
-0.1048730137
 33
0.0
 40
0.0
 40
0.0
 40
0.0
 40
0.0
 40
0.289324644
 40
0.5757468811
 40
0.8592369975
 40
1.0
 40
1.0
 40
1.0
 40
1.0
 10
67.0868701352
 20
150.2344680516
 30
0.0
 10
67.0681898135
 20
150.1748855265
 30
0.0
 10
67.0128829467
 20
150.062195319
 30
0.0
 10
66.8827473317
 20
149.9269938904
 30
0.0
 10
66.7456431077
 20
149.8543466886
 30
0.0
 10
66.656325633
 20
149.832226998
 30
0.0
 10
66.6263358298
 20
149.8273062512
 30
0.0
 11
67.0868701352
 21
150.2344680516
 31
0.0
 11
67.0045503497
 21
150.0672070968
 31
0.0
 11
66.8763342777
 21
149.9344680516
 31
0.0
 11
66.7147726018
 21
149.8492443384
 31
0.0
 11
66.6263358298
 21
149.8273062512
 31
0.0
  0
SPLINE
  5
45E
100
AcDbEntity
  8
RUNDUNGEN
100
AcDbSpline
 62
9
  6
CONTINUOUS
 70
0
 71
3
 72
12
 73
8
 74
6
 42
0.0000001
 43
0.0000001
 44
0.0000000001
 12
0.0
 22
-0.9226849389
 32
0.0
 13
-0.9226849389
 23
0.0
 33
0.0
 40
0.0
 40
0.0
 40
0.0
 40
0.0
 40
0.2032424509
 40
0.4052921817
 40
0.6053252621
 40
0.803302737
 40
1.0
 40
1.0
 40
1.0
 40
1.0
 10
70.5743465917
 20
150.4198782482
 30
0.0
 10
70.5743465917
 20
150.3573686654
 30
0.0
 10
70.5552702724
 20
150.2318868211
 30
0.0
 10
70.4720116729
 20
150.0622184842
 30
0.0
 10
70.341873233
 20
149.9270034021
 30
0.0
 10
70.1775783958
 20
149.8399449669
 30
0.0
 10
70.05528763
 20
149.8198782482
 30
0.0
 10
69.9947910959
 20
149.8198782482
 30
0.0
 11
70.5743465917
 21
150.4198782482
 31
0.0
 11
70.5459928441
 21
150.2345053903
 31
0.0
 11
70.4636795905
 21
150.0672331024
 31
0.0
 11
70.3354571811
 21
149.9344770115
 31
0.0
 11
70.1738888475
 21
149.8492461058
 31
0.0
 11
69.9947910959
 21
149.8198782482
 31
0.0
  0
SPLINE
  5
45F
100
AcDbEntity
  8
RUNDUNGEN
100
AcDbSpline
 62
9
  6
CONTINUOUS
 70
0
 71
3
 72
21
 73
17
 74
15
 42
0.0000001
 43
0.0000001
 44
0.0000000001
 12
4.3560346244
 22
0.0000079573
 32
0.0
 13
3.5756333718
 23
2.4879476762
 33
0.0
 40
0.0
 40
0.0
 40
0.0
 40
0.0
 40
0.029738581
 40
0.06279522
 40
0.0999943497
 40
0.1422104259
 40
0.1903702085
 40
0.2454254952
 40
0.3083056082
 40
0.3799130829
 40
0.4612988376
 40
0.5531542353
 40
0.6545304544
 40
0.7639978481
 40
0.8798212954
 40
1.0
 40
1.0
 40
1.0
 40
1.0
 10
56.7790342903
 20
149.8198782482
 30
0.0
 10
56.8222150531
 20
149.8198783271
 30
0.0
 10
56.9134292871
 20
149.8242091902
 30
0.0
 10
57.057518663
 20
149.8432134265
 30
0.0
 10
57.217468915
 20
149.8768898933
 30
0.0
 10
57.3957913035
 20
149.9275227749
 30
0.0
 10
57.595079468
 20
149.9977137077
 30
0.0
 10
57.8179047619
 20
150.0902568002
 30
0.0
 10
58.0667722547
 20
150.2079894569
 30
0.0
 10
58.3443449324
 20
150.3537742896
 30
0.0
 10
58.6530721185
 20
150.5302075518
 30
0.0
 10
58.993294979
 20
150.7382597245
 30
0.0
 10
59.3627547415
 20
150.9763915335
 30
0.0
 10
59.7568421579
 20
151.2403888552
 30
0.0
 10
60.1702876627
 20
151.5244616397
 30
0.0
 10
60.451552767
 20
151.7202121386
 30
0.0
 10
60.5947910959
 20
151.8198782482
 30
0.0
 11
56.7790342903
 21
149.8198782482
 31
0.0
 11
56.9084463392
 21
149.8256856647
 31
0.0
 11
57.0512564156
 21
149.8441272202
 31
0.0
 11
57.2099098284
 21
149.8770860134
 31
0.0
 11
57.3869418078
 21
149.9268548308
 31
0.0
 11
57.5849837725
 21
149.9960604081
 31
0.0
 11
57.806673223
 21
150.087541181
 31
0.0
 11
58.0545143895
 21
150.2041615956
 31
0.0
 11
58.3309366029
 21
150.3486875114
 31
0.0
 11
58.6390302086
 21
150.5240789843
 31
0.0
 11
58.9806985712
 21
150.7323167808
 31
0.0
 11
59.3521886988
 21
150.9710722242
 31
0.0
 11
59.748662358
 21
151.2360035479
 31
0.0
 11
60.1647927363
 21
151.5212875898
 31
0.0
 11
60.5947910959
 21
151.8198782482
 31
0.0
  0
SPLINE
  5
460
100
AcDbEntity
  8
RUNDUNGEN
100
AcDbSpline
 62
9
  6
CONTINUOUS
 70
0
 71
3
 72
10
 73
6
 74
4
 42
0.0000001
 43
0.0000001
 44
0.0000000001
 12
-0.000038618
 22
2.1771599172
 32
0.0
 13
-0.2026256755
 23
2.1677103456
 33
0.0
 40
0.0
 40
0.0
 40
0.0
 40
0.0
 40
0.3362759007
 40
0.6717156222
 40
1.0
 40
1.0
 40
1.0
 40
1.0
 10
100.7139503989
 20
155.8198782482
 30
0.0
 10
100.7139460702
 20
156.0639203856
 30
0.0
 10
100.7067260224
 20
156.5514309232
 30
0.0
 10
100.6741260853
 20
157.2765202663
 30
0.0
 10
100.6374085481
 20
157.7568981771
 30
0.0
 10
100.6152356002
 20
157.9941066578
 30
0.0
 11
100.7139503989
 21
155.8198782482
 31
0.0
 11
100.7030384333
 21
156.5519233373
 31
0.0
 11
100.6700410534
 21
157.2814834133
 31
0.0
 11
100.6152356002
 21
157.9941066578
 31
0.0
  0
SPLINE
  5
461
100
AcDbEntity
  8
RUNDUNGEN
100
AcDbSpline
 62
9
  6
CONTINUOUS
 70
0
 71
3
 72
21
 73
17
 74
15
 42
0.0000001
 43
0.0000001
 44
0.0000000001
 12
4.4558408154
 22
-0.000000231
 32
0.0
 13
4.0752198913
 23
1.8019712013
 33
0.0
 40
0.0
 40
0.0
 40
0.0
 40
0.0
 40
0.0320094266
 40
0.0674374129
 40
0.1070042799
 40
0.1514677699
 40
0.2016255533
 40
0.2582903105
 40
0.3222482646
 40
0.3942652507
 40
0.4752708249
 40
0.5658598448
 40
0.6650727224
 40
0.771569623
 40
0.8837945714
 40
1.0
 40
1.0
 40
1.0
 40
1.0
 10
106.3909912253
 20
150.4198782482
 30
0.0
 10
106.4385341952
 20
150.4198782457
 30
0.0
 10
106.5387133732
 20
150.4228939355
 30
0.0
 10
106.6971565255
 20
150.4361452902
 30
0.0
 10
106.873091031
 20
150.4596428004
 30
0.0
 10
107.0693013431
 20
150.4949936302
 30
0.0
 10
107.2886489427
 20
150.5440272788
 30
0.0
 10
107.533976579
 20
150.6087095193
 30
0.0
 10
107.8080517415
 20
150.6910364828
 30
0.0
 10
108.1138115432
 20
150.7930204275
 30
0.0
 10
108.453963442
 20
150.916488571
 30
0.0
 10
108.8289203373
 20
151.0621402609
 30
0.0
 10
109.2362042141
 20
151.2289110333
 30
0.0
 10
109.6707203505
 20
151.4138411467
 30
0.0
 10
110.1266318607
 20
151.6128781576
 30
0.0
 10
110.4369368712
 20
151.7500786363
 30
0.0
 10
110.5947910959
 20
151.8198782482
 30
0.0
 11
106.3909912253
 21
150.4198782482
 31
0.0
 11
106.5335621978
 21
150.423943182
 31
0.0
 11
106.6908949695
 21
150.4368521621
 31
0.0
 11
106.8656825944
 21
150.4599230735
 31
0.0
 11
107.0607177929
 21
150.4947611403
 31
0.0
 11
107.278899496
 21
150.5432049568
 31
0.0
 11
107.523133187
 21
150.6072414232
 31
0.0
 11
107.7961774408
 21
150.6888754795
 31
0.0
 11
108.1007089964
 21
150.7900432591
 31
0.0
 11
108.4401347973
 21
150.9128176201
 31
0.0
 11
108.8165467453
 21
151.0585830887
 31
0.0
 11
109.2258143634
 21
151.2257114951
 31
0.0
 11
109.6626088986
 21
151.4111631779
 31
0.0
 11
110.1210590055
 21
151.6108629732
 31
0.0
 11
110.5947910959
 21
151.8198782482
 31
0.0
  0
SPLINE
  5
462
100
AcDbEntity
  8
RUNDUNGEN
100
AcDbSpline
 62
9
  6
CONTINUOUS
 70
0
 71
3
 72
12
 73
8
 74
6
 42
0.0000001
 43
0.0000001
 44
0.0000000001
 12
0.0
 22
-0.9226849389
 32
0.0
 13
0.9226849389
 23
0.0
 33
0.0
 40
0.0
 40
0.0
 40
0.0
 40
0.0
 40
0.2032425192
 40
0.405292198
 40
0.605325203
 40
0.8033026552
 40
1.0
 40
1.0
 40
1.0
 40
1.0
 10
50.6152356002
 20
150.4198782482
 30
0.0
 10
50.6152356002
 20
150.3573686444
 30
0.0
 10
50.634311927
 20
150.2318867942
 30
0.0
 10
50.7175705288
 20
150.062218481
 30
0.0
 10
50.84770893
 20
149.9270034302
 30
0.0
 10
51.0120037516
 20
149.8399449787
 30
0.0
 10
51.1342945368
 20
149.8198782482
 30
0.0
 10
51.1947910959
 20
149.8198782482
 30
0.0
 11
50.6152356002
 21
150.4198782482
 31
0.0
 11
50.6435893669
 21
150.2345053294
 31
0.0
 11
50.7259026101
 21
150.06723309
 31
0.0
 11
50.8541249666
 21
149.9344770448
 31
0.0
 11
51.0156932719
 21
149.8492461302
 31
0.0
 11
51.1947910959
 21
149.8198782482
 31
0.0
  0
SPLINE
  5
463
100
AcDbEntity
  8
RUNDUNGEN
100
AcDbSpline
 62
9
  6
CONTINUOUS
 70
0
 71
3
 72
11
 73
7
 74
5
 42
0.0000001
 43
0.0000001
 44
0.0000000001
 12
0.1936957816
 22
-0.6178097359
 32
0.0
 13
0.6391552519
 23
-0.1048730087
 33
0.0
 40
0.0
 40
0.0
 40
0.0
 40
0.0
 40
0.2893246407
 40
0.5757468864
 40
0.8592370059
 40
1.0
 40
1.0
 40
1.0
 40
1.0
 10
54.1027120528
 20
150.2344680639
 30
0.0
 10
54.1213923736
 20
150.1748855373
 30
0.0
 10
54.1766992406
 20
150.0621953243
 30
0.0
 10
54.3068348603
 20
149.926993889
 30
0.0
 10
54.4439390901
 20
149.854346686
 30
0.0
 10
54.5332565668
 20
149.8322269963
 30
0.0
 10
54.5632463691
 20
149.8273062501
 30
0.0
 11
54.1027120528
 21
150.2344680639
 31
0.0
 11
54.1850318369
 21
150.0672071045
 31
0.0
 11
54.3132479158
 21
149.9344680503
 31
0.0
 11
54.4748095994
 21
149.8492443353
 31
0.0
 11
54.5632463691
 21
149.8273062501
 31
0.0
  0
SPLINE
  5
464
100
AcDbEntity
  8
RUNDUNGEN
100
AcDbSpline
 62
9
  6
CONTINUOUS
 70
0
 71
3
 72
10
 73
6
 74
4
 42
0.0000001
 43
0.0000001
 44
0.0000000001
 12
0.202622504
 22
2.1677106606
 32
0.0
 13
0.0000441412
 23
2.1771599356
 33
0.0
 40
0.0
 40
0.0
 40
0.0
 40
0.0
 40
0.3279761003
 40
0.6636168484
 40
1.0
 40
1.0
 40
1.0
 40
1.0
 10
75.6152356002
 20
153.6456498386
 30
0.0
 10
75.6373873797
 20
153.8826356016
 30
0.0
 10
75.6741068343
 20
154.3629350579
 30
0.0
 10
75.7067213616
 20
155.0880239822
 30
0.0
 10
75.7139454495
 20
155.5757582746
 30
0.0
 10
75.7139503989
 20
155.8198782482
 30
0.0
 11
75.6152356002
 21
153.6456498386
 31
0.0
 11
75.6700003146
 21
154.3576030708
 31
0.0
 11
75.7030318467
 21
155.0875997227
 31
0.0
 11
75.7139503989
 21
155.8198782482
 31
0.0
  0
SPLINE
  5
465
100
AcDbEntity
  8
RUNDUNGEN
100
AcDbSpline
 62
9
  6
CONTINUOUS
 70
0
 71
3
 72
10
 73
6
 74
4
 42
0.0000001
 43
0.0000001
 44
0.0000000001
 12
-0.000038683
 22
2.1771599172
 32
0.0
 13
-0.2026257418
 23
2.1677103394
 33
0.0
 40
0.0
 40
0.0
 40
0.0
 40
0.0
 40
0.3362753844
 40
0.6717149
 40
1.0
 40
1.0
 40
1.0
 40
1.0
 10
75.7139503989
 20
155.8198782482
 30
0.0
 10
75.7139460629
 20
156.0639200108
 30
0.0
 10
75.7067260443
 20
156.5514300243
 30
0.0
 10
75.6741261427
 20
157.2765193688
 30
0.0
 10
75.6374086041
 20
157.756897656
 30
0.0
 10
75.6152356002
 20
157.9941066578
 30
0.0
 11
75.7139503989
 21
155.8198782482
 31
0.0
 11
75.7030384665
 21
156.5519222135
 31
0.0
 11
75.67004115
 21
157.2814818437
 31
0.0
 11
75.6152356002
 21
157.9941066578
 31
0.0
  0
SPLINE
  5
466
100
AcDbEntity
  8
RUNDUNGEN
100
AcDbSpline
 62
9
  6
CONTINUOUS
 70
0
 71
3
 72
21
 73
17
 74
15
 42
0.0000001
 43
0.0000001
 44
0.0000000001
 12
-4.0752286199
 22
1.8019502852
 32
0.0
 13
-4.4558403399
 23
-0.0000149082
 33
0.0
 40
0.0
 40
0.0
 40
0.0
 40
0.0
 40
0.1064903815
 40
0.2163311998
 40
0.3253679629
 40
0.4295412943
 40
0.5250830362
 40
0.6086215026
 40
0.6814025671
 40
0.7454941505
 40
0.8018608832
 40
0.8514268628
 40
0.8951343771
 40
0.9339046718
 40
0.9684937077
 40
1.0
 40
1.0
 40
1.0
 40
1.0
 10
110.5947910959
 20
159.8198782482
 30
0.0
 10
110.4501335459
 20
159.8838417059
 30
0.0
 10
110.156264682
 20
160.013775638
 30
0.0
 10
109.7134872288
 20
160.2074083913
 30
0.0
 10
109.2721987828
 20
160.3958285229
 30
0.0
 10
108.8480033815
 20
160.57011272
 30
0.0
 10
108.4558960574
 20
160.7226778757
 30
0.0
 10
108.1041678727
 20
160.850177507
 30
0.0
 10
107.7934421286
 20
160.9533844038
 30
0.0
 10
107.5183592848
 20
161.0354572988
 30
0.0
 10
107.2739685123
 20
161.0992878997
 30
0.0
 10
107.0568838114
 20
161.1472343524
 30
0.0
 10
106.8637232676
 20
161.1815372948
 30
0.0
 10
106.6912638001
 20
161.2041979985
 30
0.0
 10
106.5359720913
 20
161.2169686782
 30
0.0
 10
106.4377868947
 20
161.2198784048
 30
0.0
 10
106.3909912253
 20
161.2198782482
 30
0.0
 11
110.5947910959
 21
159.8198782482
 31
0.0
 11
110.160688587
 21
160.0114746685
 31
0.0
 11
109.7121090746
 21
160.207232756
 31
0.0
 11
109.2651147308
 21
160.3976183519
 31
0.0
 11
108.8355796187
 21
160.5735797431
 31
0.0
 11
108.438657186
 21
160.7274921688
 31
0.0
 11
108.0885539214
 21
160.853927551
 31
0.0
 11
107.7806588375
 21
160.9557687426
 31
0.0
 11
107.5068902881
 21
161.0370570053
 31
0.0
 11
107.2637935879
 21
161.1001911745
 31
0.0
 11
107.0480650747
 21
161.1475145833
 31
0.0
 11
106.8562618439
 21
161.181286264
 31
0.0
 11
106.6849464624
 21
161.2035364025
 31
0.0
 11
106.5313228873
 21
161.2159365863
 31
0.0
 11
106.3909912253
 21
161.2198782482
 31
0.0
  0
SPLINE
  5
467
100
AcDbEntity
  8
RUNDUNGEN
100
AcDbSpline
 62
9
  6
CONTINUOUS
 70
0
 71
3
 72
11
 73
7
 74
5
 42
0.0000001
 43
0.0000001
 44
0.0000000001
 12
-0.0000000235
 22
-0.7799271078
 32
0.0
 13
0.7799271078
 23
0.0
 33
0.0
 40
0.0
 40
0.0
 40
0.0
 40
0.0
 40
0.2968254628
 40
0.5687119006
 40
0.8007986893
 40
1.0
 40
1.0
 40
1.0
 40
1.0
 10
56.3909912276
 20
150.4198782482
 30
0.0
 10
56.3909912253
 20
150.3427108399
 30
0.0
 10
56.4091882812
 20
150.1940370614
 30
0.0
 10
56.4893089867
 20
149.9989094091
 30
0.0
 10
56.61409992
 20
149.8582632966
 30
0.0
 10
56.7272467896
 20
149.8198782482
 30
0.0
 10
56.7790342903
 20
149.8198782482
 30
0.0
 11
56.3909912276
 21
150.4198782482
 31
0.0
 11
56.4205292451
 21
150.1902681753
 31
0.0
 11
56.5046464124
 21
149.9956141629
 31
0.0
 11
56.6305366453
 21
149.865550521
 31
0.0
 11
56.7790342903
 21
149.8198782482
 31
0.0
  0
SPLINE
  5
468
100
AcDbEntity
  8
RUNDUNGEN
100
AcDbSpline
 62
9
  6
CONTINUOUS
 70
0
 71
3
 72
9
 73
5
 74
3
 42
0.0000001
 43
0.0000001
 44
0.0000000001
 12
-0.0690824622
 22
0.6720365962
 32
0.0
 13
0.0000140213
 23
0.6755779548
 33
0.0
 40
0.0
 40
0.0
 40
0.0
 40
0.0
 40
0.5257446632
 40
1.0
 40
1.0
 40
1.0
 40
1.0
 10
75.0356801044
 20
157.7964495297
 30
0.0
 10
75.0235735258
 20
157.9142227476
 30
0.0
 10
75.0035005986
 20
158.1385665178
 30
0.0
 10
74.9947888794
 20
158.3637706441
 30
0.0
 10
74.9947910959
 20
158.470569461
 30
0.0
 11
75.0356801044
 21
157.7964495297
 31
0.0
 11
75.0056073797
 21
158.1503556362
 31
0.0
 11
74.9947910959
 21
158.470569461
 31
0.0
  0
SPLINE
  5
469
100
AcDbEntity
  8
RUNDUNGEN
100
AcDbSpline
 62
9
  6
CONTINUOUS
 70
0
 71
3
 72
10
 73
6
 74
4
 42
0.0000001
 43
0.0000001
 44
0.0000000001
 12
-0.0000291879
 22
1.9797951278
 32
0.0
 13
-0.2025097122
 23
1.9694107152
 33
0.0
 40
0.0
 40
0.0
 40
0.0
 40
0.0
 40
0.3362169753
 40
0.6712701592
 40
1.0
 40
1.0
 40
1.0
 40
1.0
 10
75.1343949032
 20
155.8198782482
 30
0.0
 10
75.134391632
 20
156.0417584914
 30
0.0
 10
75.1271715136
 20
156.4847873929
 30
0.0
 10
75.0945750184
 20
157.1440252897
 30
0.0
 10
75.0578704329
 20
157.5806481727
 30
0.0
 10
75.0356801044
 20
157.7964495297
 30
0.0
 11
75.1343949032
 21
155.8198782482
 31
0.0
 11
75.123481042
 21
156.4854294998
 31
0.0
 11
75.0905298929
 21
157.1479472338
 31
0.0
 11
75.0356801044
 21
157.7964495297
 31
0.0
  0
SPLINE
  5
46A
100
AcDbEntity
  8
RUNDUNGEN
100
AcDbSpline
 62
9
  6
CONTINUOUS
 70
0
 71
3
 72
10
 73
6
 74
4
 42
0.0000001
 43
0.0000001
 44
0.0000000001
 12
-0.2025098895
 22
-1.9694107024
 32
0.0
 13
-0.000029257
 23
-1.9797951332
 33
0.0
 40
0.0
 40
0.0
 40
0.0
 40
0.0
 40
0.3284585445
 40
0.663628246
 40
1.0
 40
1.0
 40
1.0
 40
1.0
 10
71.1539020875
 20
157.7964495297
 30
0.0
 10
71.131730053
 20
157.580826272
 30
0.0
 10
71.0950274508
 20
157.1443059499
 30
0.0
 10
71.0624169016
 20
156.4850686154
 30
0.0
 10
71.0551905691
 20
156.0418606354
 30
0.0
 10
71.0551872887
 20
155.8198782482
 30
0.0
 11
71.1539020875
 21
157.7964495297
 31
0.0
 11
71.0990881768
 21
157.1484832263
 31
0.0
 11
71.0661112315
 21
156.4857358077
 31
0.0
 11
71.0551872887
 21
155.8198782482
 31
0.0
  0
SPLINE
  5
46B
100
AcDbEntity
  8
RUNDUNGEN
100
AcDbSpline
 62
9
  6
CONTINUOUS
 70
0
 71
3
 72
12
 73
8
 74
6
 42
0.0000001
 43
0.0000001
 44
0.0000000001
 12
0.0
 22
0.9226849389
 32
0.0
 13
-0.9226849389
 23
0.0
 33
0.0
 40
0.0
 40
0.0
 40
0.0
 40
0.0
 40
0.2032425192
 40
0.405292198
 40
0.605325203
 40
0.8033026552
 40
1.0
 40
1.0
 40
1.0
 40
1.0
 10
70.5743465917
 20
161.2198782482
 30
0.0
 10
70.5743465917
 20
161.282387852
 30
0.0
 10
70.5552702649
 20
161.4078697022
 30
0.0
 10
70.4720116631
 20
161.5775380153
 30
0.0
 10
70.3418732619
 20
161.7127530661
 30
0.0
 10
70.1775784403
 20
161.7998115177
 30
0.0
 10
70.0552876551
 20
161.8198782482
 30
0.0
 10
69.9947910959
 20
161.8198782482
 30
0.0
 11
70.5743465917
 21
161.2198782482
 31
0.0
 11
70.545992825
 21
161.405251167
 31
0.0
 11
70.4636795818
 21
161.5725234064
 31
0.0
 11
70.3354572253
 21
161.7052794516
 31
0.0
 11
70.17388892
 21
161.7905103662
 31
0.0
 11
69.9947910959
 21
161.8198782482
 31
0.0
  0
SPLINE
  5
46C
100
AcDbEntity
  8
RUNDUNGEN
100
AcDbSpline
 62
9
  6
CONTINUOUS
 70
0
 71
3
 72
9
 73
5
 74
3
 42
0.0000001
 43
0.0000001
 44
0.0000000001
 12
0.0000152372
 22
-0.6755778212
 32
0.0
 13
-0.0690822904
 23
-0.6720364796
 33
0.0
 40
0.0
 40
0.0
 40
0.0
 40
0.0
 40
0.4753689247
 40
1.0
 40
1.0
 40
1.0
 40
1.0
 10
71.1947910959
 20
158.470569461
 30
0.0
 10
71.1947935104
 20
158.3635198935
 30
0.0
 10
71.1860614455
 20
158.1383158412
 30
0.0
 10
71.1659829929
 20
157.91397327
 30
0.0
 10
71.1539020875
 20
157.7964495297
 30
0.0
 11
71.1947910959
 21
158.470569461
 31
0.0
 11
71.1839275988
 21
158.1496045508
 31
0.0
 11
71.1539020875
 21
157.7964495297
 31
0.0
  0
SPLINE
  5
46D
100
AcDbEntity
  8
RUNDUNGEN
100
AcDbSpline
 62
9
  6
CONTINUOUS
 70
0
 71
3
 72
11
 73
7
 74
5
 42
0.0000001
 43
0.0000001
 44
0.0000000001
 12
-0.1936957816
 22
0.6178097359
 32
0.0
 13
-0.6391552519
 23
0.1048730087
 33
0.0
 40
0.0
 40
0.0
 40
0.0
 40
0.0
 40
0.2893246407
 40
0.5757468864
 40
0.8592370059
 40
1.0
 40
1.0
 40
1.0
 40
1.0
 10
67.0868701391
 20
161.4052884324
 30
0.0
 10
67.0681898183
 20
161.4648709591
 30
0.0
 10
67.0128829513
 20
161.5775611721
 30
0.0
 10
66.8827473316
 20
161.7127626074
 30
0.0
 10
66.7456431018
 20
161.7854098104
 30
0.0
 10
66.6563256251
 20
161.8075295001
 30
0.0
 10
66.6263358228
 20
161.8124502463
 30
0.0
 11
67.0868701391
 21
161.4052884324
 31
0.0
 11
67.004550355
 21
161.5725493919
 31
0.0
 11
66.8763342761
 21
161.7052884461
 31
0.0
 11
66.7147725925
 21
161.7905121611
 31
0.0
 11
66.6263358228
 21
161.8124502463
 31
0.0
  0
SPLINE
  5
46E
100
AcDbEntity
  8
RUNDUNGEN
100
AcDbSpline
 62
9
  6
CONTINUOUS
 70
0
 71
3
 72
9
 73
5
 74
3
 42
0.0000001
 43
0.0000001
 44
0.0000000001
 12
-0.0690826338
 22
0.6720365704
 32
0.0
 13
0.0000142921
 23
0.6755779467
 33
0.0
 40
0.0
 40
0.0
 40
0.0
 40
0.0
 40
0.5256888073
 40
1.0
 40
1.0
 40
1.0
 40
1.0
 10
100.0356801044
 20
157.7964495297
 30
0.0
 10
100.023574782
 20
157.9142102307
 30
0.0
 10
100.003501701
 20
158.1385539491
 30
0.0
 10
99.9947888363
 20
158.3637580671
 30
0.0
 10
99.9947910959
 20
158.470569461
 30
0.0
 11
100.0356801044
 21
157.7964495297
 31
0.0
 11
100.0056097752
 21
158.1503179645
 31
0.0
 11
99.9947910959
 21
158.470569461
 31
0.0
  0
SPLINE
  5
46F
100
AcDbEntity
  8
RUNDUNGEN
100
AcDbSpline
 62
9
  6
CONTINUOUS
 70
0
 71
3
 72
9
 73
5
 74
3
 42
0.0000001
 43
0.0000001
 44
0.0000000001
 12
0.0690825518
 22
-0.6720367369
 32
0.0
 13
-0.0000100366
 23
-0.675578104
 33
0.0
 40
0.0
 40
0.0
 40
0.0
 40
0.0
 40
0.5268927078
 40
1.0
 40
1.0
 40
1.0
 40
1.0
 10
71.1539020875
 20
153.8433069667
 30
0.0
 10
71.1660351184
 20
153.7252765481
 30
0.0
 10
71.1861031481
 20
153.5009315753
 30
0.0
 10
71.1947926787
 20
153.2757273445
 30
0.0
 10
71.1947910959
 20
153.1691870354
 30
0.0
 11
71.1539020875
 21
153.8433069667
 31
0.0
 11
71.1840236629
 21
153.488626544
 31
0.0
 11
71.1947910959
 21
153.1691870354
 31
0.0
  0
SPLINE
  5
470
100
AcDbEntity
  8
RUNDUNGEN
100
AcDbSpline
 62
9
  6
CONTINUOUS
 70
0
 71
3
 72
11
 73
7
 74
5
 42
0.0000001
 43
0.0000001
 44
0.0000000001
 12
-0.0000000103
 22
0.7799271009
 32
0.0
 13
-0.7799271009
 23
0.0
 33
0.0
 40
0.0
 40
0.0
 40
0.0
 40
0.0
 40
0.2968255055
 40
0.568711948
 40
0.8007987174
 40
1.0
 40
1.0
 40
1.0
 40
1.0
 10
64.7985909643
 20
161.2198782482
 30
0.0
 10
64.7985909633
 20
161.2970456668
 30
0.0
 10
64.7803938988
 20
161.4457194559
 30
0.0
 10
64.7002731804
 20
161.6408471089
 30
0.0
 10
64.5754822503
 20
161.7814932057
 30
0.0
 10
64.4623353946
 20
161.8198782482
 30
0.0
 10
64.4105479016
 20
161.8198782482
 30
0.0
 11
64.7985909643
 21
161.2198782482
 31
0.0
 11
64.7690529312
 21
161.4494883506
 31
0.0
 11
64.6849357521
 21
161.6441423598
 31
0.0
 11
64.559045525
 21
161.7742059843
 31
0.0
 11
64.4105479016
 21
161.8198782482
 31
0.0
  0
SPLINE
  5
471
100
AcDbEntity
  8
RUNDUNGEN
100
AcDbSpline
 62
9
  6
CONTINUOUS
 70
0
 71
3
 72
21
 73
17
 74
15
 42
0.0000001
 43
0.0000001
 44
0.0000000001
 12
-4.0752286199
 22
1.8019502852
 32
0.0
 13
-4.4558403399
 23
-0.0000149082
 33
0.0
 40
0.0
 40
0.0
 40
0.0
 40
0.0
 40
0.106490382
 40
0.2163312007
 40
0.325367964
 40
0.4295412953
 40
0.5250830372
 40
0.6086215035
 40
0.6814025679
 40
0.7454941512
 40
0.8018608838
 40
0.8514268632
 40
0.8951343774
 40
0.9339046721
 40
0.9684937079
 40
1.0
 40
1.0
 40
1.0
 40
1.0
 10
60.5947910959
 20
159.8198782482
 30
0.0
 10
60.4501335451
 20
159.8838417063
 30
0.0
 10
60.1562646801
 20
160.0137756388
 30
0.0
 10
59.7134872255
 20
160.2074083928
 30
0.0
 10
59.2721987788
 20
160.3958285246
 30
0.0
 10
58.8480033774
 20
160.5701127216
 30
0.0
 10
58.4558960535
 20
160.7226778772
 30
0.0
 10
58.1041678691
 20
160.8501775083
 30
0.0
 10
57.7934421254
 20
160.9533844048
 30
0.0
 10
57.5183592819
 20
161.0354572997
 30
0.0
 10
57.2739685098
 20
161.0992879003
 30
0.0
 10
57.0568838094
 20
161.1472343528
 30
0.0
 10
56.863723266
 20
161.181537295
 30
0.0
 10
56.691263799
 20
161.2041979987
 30
0.0
 10
56.5359720908
 20
161.2169686782
 30
0.0
 10
56.4377868945
 20
161.2198784048
 30
0.0
 10
56.3909912253
 20
161.2198782482
 30
0.0
 11
60.5947910959
 21
159.8198782482
 31
0.0
 11
60.1606885848
 21
160.0114746695
 31
0.0
 11
59.712109071
 21
160.2072327576
 31
0.0
 11
59.2651147266
 21
160.3976183537
 31
0.0
 11
58.8355796144
 21
160.5735797448
 31
0.0
 11
58.438657182
 21
160.7274921703
 31
0.0
 11
58.0885539179
 21
160.8539275523
 31
0.0
 11
57.7806588343
 21
160.9557687437
 31
0.0
 11
57.5068902852
 21
161.0370570061
 31
0.0
 11
57.2637935854
 21
161.1001911751
 31
0.0
 11
57.0480650726
 21
161.1475145837
 31
0.0
 11
56.8562618423
 21
161.1812862643
 31
0.0
 11
56.6849464613
 21
161.2035364026
 31
0.0
 11
56.5313228866
 21
161.2159365863
 31
0.0
 11
56.3909912253
 21
161.2198782482
 31
0.0
  0
SPLINE
  5
472
100
AcDbEntity
  8
RUNDUNGEN
100
AcDbSpline
 62
9
  6
CONTINUOUS
 70
0
 71
3
 72
21
 73
17
 74
15
 42
0.0000001
 43
0.0000001
 44
0.0000000001
 12
-4.4558377151
 22
0.0000156908
 32
0.0
 13
-4.0752259017
 23
-1.801949942
 33
0.0
 40
0.0
 40
0.0
 40
0.0
 40
0.0
 40
0.0320495599
 40
0.0674839083
 40
0.1073599496
 40
0.1523723359
 40
0.2033735646
 40
0.2612227043
 40
0.3267467988
 40
0.4007555641
 40
0.4846230559
 40
0.5783575149
 40
0.6795364837
 40
0.7854868813
 40
0.8933080682
 40
1.0
 40
1.0
 40
1.0
 40
1.0
 10
64.7985909666
 20
161.2198782482
 30
0.0
 10
64.7509884207
 20
161.2198784158
 30
0.0
 10
64.6507402014
 20
161.2168565367
 30
0.0
 10
64.4917714137
 20
161.2035514787
 30
0.0
 10
64.3145690152
 20
161.1798378996
 30
0.0
 10
64.115892655
 20
161.1439114853
 30
0.0
 10
63.8928617962
 20
161.0938020159
 30
0.0
 10
63.6424702971
 20
161.0273803227
 30
0.0
 10
63.3618066498
 20
160.942497728
 30
0.0
 10
63.0472275413
 20
160.836816093
 30
0.0
 10
62.6962112048
 20
160.7084565226
 30
0.0
 10
62.3105813298
 20
160.5575764993
 30
0.0
 10
61.8973855531
 20
160.387356288
 30
0.0
 10
61.467219257
 20
160.2035298159
 30
0.0
 10
61.0311213122
 20
160.0128046507
 30
0.0
 10
60.7397223373
 20
159.883962755
 30
0.0
 10
60.5947910959
 20
159.8198782482
 30
0.0
 11
64.7985909666
 21
161.2198782482
 31
0.0
 11
64.6558414774
 21
161.2158033581
 31
0.0
 11
64.4984813632
 21
161.2028823005
 31
0.0
 11
64.32233356
 21
161.1795896172
 31
0.0
 11
64.1249123231
 21
161.1442012974
 31
0.0
 11
63.9031132034
 21
161.0947122401
 31
0.0
 11
63.6538711062
 21
161.0289712115
 31
0.0
 11
63.374295607
 21
160.9448228624
 31
0.0
 11
63.0615632368
 21
160.8401929991
 31
0.0
 11
62.7104439071
 21
160.7122599833
 31
0.0
 11
62.3213257088
 21
160.5604985629
 31
0.0
 11
61.9043112751
 21
160.3891713277
 31
0.0
 11
61.4700362845
 21
160.204018569
 31
0.0
 11
61.0297154416
 21
160.0118360878
 31
0.0
 11
60.5947910959
 21
159.8198782482
 31
0.0
  0
SPLINE
  5
473
100
AcDbEntity
  8
RUNDUNGEN
100
AcDbSpline
 62
9
  6
CONTINUOUS
 70
0
 71
3
 72
11
 73
7
 74
5
 42
0.0000001
 43
0.0000001
 44
0.0000000001
 12
-0.0000000231
 22
0.7799271808
 32
0.0
 13
0.7799271808
 23
0.0
 33
0.0
 40
0.0
 40
0.0
 40
0.0
 40
0.0
 40
0.2968306978
 40
0.5687189507
 40
0.8008035037
 40
1.0
 40
1.0
 40
1.0
 40
1.0
 10
56.3909912276
 20
161.2198782482
 30
0.0
 10
56.3909912254
 20
161.2970470246
 30
0.0
 10
56.4091888312
 20
161.445722689
 30
0.0
 10
56.4893112882
 20
161.6408511277
 30
0.0
 10
56.6141029681
 20
161.7814948618
 30
0.0
 10
56.7272480363
 20
161.8198782482
 30
0.0
 10
56.7790342903
 20
161.8198782482
 30
0.0
 11
56.3909912276
 21
161.2198782482
 31
0.0
 11
56.4205303173
 21
161.4494923216
 31
0.0
 11
56.5046494603
 21
161.6441470439
 31
0.0
 11
56.6305399149
 21
161.7742080683
 31
0.0
 11
56.7790342903
 21
161.8198782482
 31
0.0
  0
SPLINE
  5
474
100
AcDbEntity
  8
RUNDUNGEN
100
AcDbSpline
 62
9
  6
CONTINUOUS
 70
0
 71
3
 72
10
 73
6
 74
4
 42
0.0000001
 43
0.0000001
 44
0.0000000001
 12
0.0000329846
 22
-1.979795143
 32
0.0
 13
0.2025071639
 23
-1.9694109927
 33
0.0
 40
0.0
 40
0.0
 40
0.0
 40
0.0
 40
0.3362508883
 40
0.6712557337
 40
1.0
 40
1.0
 40
1.0
 40
1.0
 10
71.0551872887
 20
155.8198782482
 30
0.0
 10
71.0551909858
 20
155.597975623
 30
0.0
 10
71.0624103728
 20
155.1549562123
 30
0.0
 10
71.0950084485
 20
154.4957184054
 30
0.0
 10
71.1317110645
 20
154.059117824
 30
0.0
 10
71.1539020875
 20
153.8433069667
 30
0.0
 11
71.0551872887
 21
155.8198782482
 31
0.0
 11
71.0661029599
 21
155.1542598713
 31
0.0
 11
71.0990503353
 21
154.4918377631
 31
0.0
 11
71.1539020875
 21
153.8433069667
 31
0.0
  0
SPLINE
  5
475
100
AcDbEntity
  8
RUNDUNGEN
100
AcDbSpline
 62
9
  6
CONTINUOUS
 70
0
 71
3
 72
10
 73
6
 74
4
 42
0.0000001
 43
0.0000001
 44
0.0000000001
 12
0.2025073944
 22
1.9694109757
 32
0.0
 13
0.0000330438
 23
1.9797951497
 33
0.0
 40
0.0
 40
0.0
 40
0.0
 40
0.0
 40
0.3284114562
 40
0.6635615962
 40
1.0
 40
1.0
 40
1.0
 40
1.0
 10
75.0356801044
 20
153.8433069667
 30
0.0
 10
75.0578486872
 20
154.0588993422
 30
0.0
 10
75.0945490002
 20
154.4953756589
 30
0.0
 10
75.1271642322
 20
155.1546127822
 30
0.0
 10
75.1343911974
 20
155.5978518748
 30
0.0
 10
75.1343949032
 20
155.8198782482
 30
0.0
 11
75.0356801044
 21
153.8433069667
 31
0.0
 11
75.0904878439
 21
154.4911802394
 31
0.0
 11
75.123467016
 21
155.1538887771
 31
0.0
 11
75.1343949032
 21
155.8198782482
 31
0.0
  0
SPLINE
  5
476
100
AcDbEntity
  8
RUNDUNGEN
100
AcDbSpline
 62
9
  6
CONTINUOUS
 70
0
 71
3
 72
21
 73
17
 74
15
 42
0.0000001
 43
0.0000001
 44
0.0000000001
 12
4.0752208176
 22
-1.801975327
 32
0.0
 13
4.4558433311
 23
0.000000535
 33
0.0
 40
0.0
 40
0.0
 40
0.0
 40
0.0
 40
0.118006041
 40
0.2326390726
 40
0.3415232991
 40
0.4424964911
 40
0.5336246573
 40
0.6138023213
 40
0.6845176513
 40
0.7471811143
 40
0.8025956353
 40
0.8515940299
 40
0.8950277203
 40
0.9337249111
 40
0.9684685951
 40
1.0
 40
1.0
 40
1.0
 40
1.0
 10
60.5947910959
 20
151.8198782482
 30
0.0
 10
60.7550913209
 20
151.7489969234
 30
0.0
 10
61.0711137524
 20
151.6092686378
 30
0.0
 10
61.5360371615
 20
151.4063864761
 30
0.0
 10
61.9796191089
 20
151.2178897284
 30
0.0
 10
62.3935476654
 20
151.0489706865
 30
0.0
 10
62.7708269948
 20
150.9032566253
 30
0.0
 10
63.1090746666
 20
150.781465164
 30
0.0
 10
63.4103049817
 20
150.6819782359
 30
0.0
 10
63.6791585267
 20
150.602133078
 30
0.0
 10
63.919361651
 20
150.5396041985
 30
0.0
 10
64.1338616061
 20
150.4923153781
 30
0.0
 10
64.3256852411
 20
150.4582585007
 30
0.0
 10
64.4978573632
 20
150.4356065139
 30
0.0
 10
64.6533056823
 20
150.4227978939
 30
0.0
 10
64.7517579665
 20
150.4198782426
 30
0.0
 10
64.7985909666
 20
150.4198782482
 30
0.0
 11
60.5947910959
 21
151.8198782482
 31
0.0
 11
61.075869256
 21
151.6076361152
 31
0.0
 11
61.5441975488
 21
151.4037444896
 31
0.0
 11
61.990898697
 21
151.214406072
 31
0.0
 11
62.4076384763
 21
151.0448283189
 31
0.0
 11
62.7865801988
 21
150.8989445537
 31
0.0
 11
63.1228507332
 21
150.778295479
 31
0.0
 11
63.4221694092
 21
150.6798369026
 31
0.0
 11
63.6899344675
 21
150.6006858737
 31
0.0
 11
63.9289725563
 21
150.5388029179
 31
0.0
 11
64.1422475338
 21
150.4920973468
 31
0.0
 11
64.3328501269
 21
150.4585421347
 31
0.0
 11
64.5038387302
 21
150.4363041888
 31
0.0
 11
64.658147439
 21
150.4238259862
 31
0.0
 11
64.7985909666
 21
150.4198782482
 31
0.0
  0
SPLINE
  5
477
100
AcDbEntity
  8
RUNDUNGEN
100
AcDbSpline
 62
9
  6
CONTINUOUS
 70
0
 71
3
 72
21
 73
17
 74
15
 42
0.0000001
 43
0.0000001
 44
0.0000000001
 12
4.4558408154
 22
-0.000000231
 32
0.0
 13
4.0752198913
 23
1.8019712013
 33
0.0
 40
0.0
 40
0.0
 40
0.0
 40
0.0
 40
0.0320094265
 40
0.0674374127
 40
0.1070042795
 40
0.1514677695
 40
0.2016255527
 40
0.2582903099
 40
0.3222482638
 40
0.3942652498
 40
0.4752708238
 40
0.5658598436
 40
0.665072721
 40
0.7715696217
 40
0.8837945705
 40
1.0
 40
1.0
 40
1.0
 40
1.0
 10
56.3909912253
 20
150.4198782482
 30
0.0
 10
56.438534195
 20
150.4198782457
 30
0.0
 10
56.5387133727
 20
150.4228939355
 30
0.0
 10
56.6971565245
 20
150.4361452901
 30
0.0
 10
56.8730910296
 20
150.4596428001
 30
0.0
 10
57.0693013413
 20
150.4949936298
 30
0.0
 10
57.2886489405
 20
150.5440272782
 30
0.0
 10
57.5339765763
 20
150.6087095186
 30
0.0
 10
57.8080517383
 20
150.6910364817
 30
0.0
 10
58.1138115394
 20
150.7930204262
 30
0.0
 10
58.4539634375
 20
150.9164885694
 30
0.0
 10
58.8289203322
 20
151.0621402588
 30
0.0
 10
59.2362042087
 20
151.228911031
 30
0.0
 10
59.6707203456
 20
151.4138411446
 30
0.0
 10
60.1266318577
 20
151.6128781562
 30
0.0
 10
60.43693687
 20
151.7500786357
 30
0.0
 10
60.5947910959
 20
151.8198782482
 30
0.0
 11
56.3909912253
 21
150.4198782482
 31
0.0
 11
56.5335621973
 21
150.4239431819
 31
0.0
 11
56.6908949686
 21
150.436852162
 31
0.0
 11
56.865682593
 21
150.4599230733
 31
0.0
 11
57.0607177911
 21
150.49476114
 31
0.0
 11
57.2788994938
 21
150.5432049562
 31
0.0
 11
57.5231331843
 21
150.6072414225
 31
0.0
 11
57.7961774377
 21
150.6888754785
 31
0.0
 11
58.1007089927
 21
150.7900432579
 31
0.0
 11
58.4401347929
 21
150.9128176185
 31
0.0
 11
58.81654674
 21
151.0585830866
 31
0.0
 11
59.2258143576
 21
151.2257114927
 31
0.0
 11
59.6626088932
 21
151.4111631756
 31
0.0
 11
60.1210590018
 21
151.6108629716
 31
0.0
 11
60.5947910959
 21
151.8198782482
 31
0.0
  0
SPLINE
  5
478
100
AcDbEntity
  8
RUNDUNGEN
100
AcDbSpline
 62
9
  6
CONTINUOUS
 70
0
 71
3
 72
9
 73
5
 74
3
 42
0.0000001
 43
0.0000001
 44
0.0000000001
 12
-0.0000102693
 22
0.6755780762
 32
0.0
 13
0.0690824483
 23
0.6720367196
 33
0.0
 40
0.0
 40
0.0
 40
0.0
 40
0.0
 40
0.4733454482
 40
1.0
 40
1.0
 40
1.0
 40
1.0
 10
74.9947910959
 20
153.1691870354
 30
0.0
 10
74.9947894756
 20
153.2757809712
 30
0.0
 10
75.0034833391
 20
153.5009851874
 30
0.0
 10
75.0235525758
 20
153.7253299009
 30
0.0
 10
75.0356801044
 20
153.8433069667
 30
0.0
 11
74.9947910959
 21
153.1691870354
 31
0.0
 11
75.0055685967
 21
153.4887871759
 31
0.0
 11
75.0356801044
 21
153.8433069667
 31
0.0
  0
SPLINE
  5
479
100
AcDbEntity
  8
RUNDUNGEN
100
AcDbSpline
 62
9
  6
CONTINUOUS
 70
0
 71
3
 72
11
 73
7
 74
5
 42
0.0000001
 43
0.0000001
 44
0.0000000001
 12
0.1936957887
 22
0.617809713
 32
0.0
 13
0.6391552313
 23
0.1048730137
 33
0.0
 40
0.0
 40
0.0
 40
0.0
 40
0.0
 40
0.289324644
 40
0.5757468811
 40
0.8592369975
 40
1.0
 40
1.0
 40
1.0
 40
1.0
 10
54.1027120567
 20
161.4052884448
 30
0.0
 10
54.1213923784
 20
161.4648709699
 30
0.0
 10
54.1766992452
 20
161.5775611774
 30
0.0
 10
54.3068348602
 20
161.712762606
 30
0.0
 10
54.4439390842
 20
161.7854098077
 30
0.0
 10
54.5332565589
 20
161.8075294984
 30
0.0
 10
54.5632463621
 20
161.8124502451
 30
0.0
 11
54.1027120567
 21
161.4052884448
 31
0.0
 11
54.1850318422
 21
161.5725493996
 31
0.0
 11
54.3132479142
 21
161.7052884448
 31
0.0
 11
54.4748095901
 21
161.790512158
 31
0.0
 11
54.5632463621
 21
161.8124502451
 31
0.0
  0
SPLINE
  5
47A
100
AcDbEntity
  8
RUNDUNGEN
100
AcDbSpline
 62
9
  6
CONTINUOUS
 70
0
 71
3
 72
12
 73
8
 74
6
 42
0.0000001
 43
0.0000001
 44
0.0000000001
 12
0.0
 22
0.9226849389
 32
0.0
 13
0.9226849389
 23
-0.0
 33
0.0
 40
0.0
 40
0.0
 40
0.0
 40
0.0
 40
0.2032424509
 40
0.4052921817
 40
0.6053252621
 40
0.803302737
 40
1.0
 40
1.0
 40
1.0
 40
1.0
 10
50.6152356002
 20
161.2198782482
 30
0.0
 10
50.6152356002
 20
161.282387831
 30
0.0
 10
50.6343119195
 20
161.4078696753
 30
0.0
 10
50.717570519
 20
161.5775380122
 30
0.0
 10
50.8477089589
 20
161.7127530942
 30
0.0
 10
51.012003796
 20
161.7998115295
 30
0.0
 10
51.1342945619
 20
161.8198782482
 30
0.0
 10
51.1947910959
 20
161.8198782482
 30
0.0
 11
50.6152356002
 21
161.2198782482
 31
0.0
 11
50.6435893478
 21
161.4052511061
 31
0.0
 11
50.7259026013
 21
161.572523394
 31
0.0
 11
50.8541250108
 21
161.7052794848
 31
0.0
 11
51.0156933444
 21
161.7905103905
 31
0.0
 11
51.1947910959
 21
161.8198782482
 31
0.0
  0
SPLINE
  5
47B
100
AcDbEntity
  8
RUNDUNGEN
100
AcDbSpline
 62
9
  6
CONTINUOUS
 70
0
 71
3
 72
10
 73
6
 74
4
 42
0.0000001
 43
0.0000001
 44
0.0000000001
 12
-0.0000291403
 22
1.9797951278
 32
0.0
 13
-0.2025096566
 23
1.9694107209
 33
0.0
 40
0.0
 40
0.0
 40
0.0
 40
0.0
 40
0.3362172602
 40
0.671271223
 40
1.0
 40
1.0
 40
1.0
 40
1.0
 10
100.1343949032
 20
155.8198782482
 30
0.0
 10
100.1343916373
 20
156.0417586794
 30
0.0
 10
100.127171494
 20
156.4847882829
 30
0.0
 10
100.0945749584
 20
157.1440261786
 30
0.0
 10
100.057870355
 20
157.5806488704
 30
0.0
 10
100.0356801044
 20
157.7964495297
 30
0.0
 11
100.1343949032
 21
155.8198782482
 31
0.0
 11
100.1234810239
 21
156.4854300636
 31
0.0
 11
100.0905297513
 21
157.1479493354
 31
0.0
 11
100.0356801044
 21
157.7964495297
 31
0.0
  0
SPLINE
  5
47C
100
AcDbEntity
  8
RUNDUNGEN
100
AcDbSpline
 62
9
  6
CONTINUOUS
 70
0
 71
3
 72
21
 73
17
 74
15
 42
0.0000001
 43
0.0000001
 44
0.0000000001
 12
-4.0752286199
 22
1.8019502852
 32
0.0
 13
-4.4558403399
 23
-0.0000149082
 33
0.0
 40
0.0
 40
0.0
 40
0.0
 40
0.0
 40
0.106490382
 40
0.2163312007
 40
0.325367964
 40
0.4295412953
 40
0.5250830372
 40
0.6086215035
 40
0.6814025679
 40
0.7454941512
 40
0.8018608838
 40
0.8514268632
 40
0.8951343774
 40
0.9339046721
 40
0.9684937079
 40
1.0
 40
1.0
 40
1.0
 40
1.0
 10
85.5947910959
 20
159.8198782482
 30
0.0
 10
85.4501335451
 20
159.8838417063
 30
0.0
 10
85.1562646801
 20
160.0137756388
 30
0.0
 10
84.7134872255
 20
160.2074083928
 30
0.0
 10
84.2721987788
 20
160.3958285246
 30
0.0
 10
83.8480033774
 20
160.5701127216
 30
0.0
 10
83.4558960535
 20
160.7226778772
 30
0.0
 10
83.1041678691
 20
160.8501775083
 30
0.0
 10
82.7934421254
 20
160.9533844048
 30
0.0
 10
82.5183592819
 20
161.0354572997
 30
0.0
 10
82.2739685098
 20
161.0992879003
 30
0.0
 10
82.0568838094
 20
161.1472343528
 30
0.0
 10
81.863723266
 20
161.181537295
 30
0.0
 10
81.691263799
 20
161.2041979987
 30
0.0
 10
81.5359720908
 20
161.2169686782
 30
0.0
 10
81.4377868945
 20
161.2198784048
 30
0.0
 10
81.3909912253
 20
161.2198782482
 30
0.0
 11
85.5947910959
 21
159.8198782482
 31
0.0
 11
85.1606885848
 21
160.0114746694
 31
0.0
 11
84.712109071
 21
160.2072327576
 31
0.0
 11
84.2651147266
 21
160.3976183537
 31
0.0
 11
83.8355796144
 21
160.5735797448
 31
0.0
 11
83.438657182
 21
160.7274921703
 31
0.0
 11
83.0885539179
 21
160.8539275523
 31
0.0
 11
82.7806588343
 21
160.9557687437
 31
0.0
 11
82.5068902852
 21
161.0370570061
 31
0.0
 11
82.2637935854
 21
161.1001911751
 31
0.0
 11
82.0480650726
 21
161.1475145837
 31
0.0
 11
81.8562618423
 21
161.1812862643
 31
0.0
 11
81.6849464613
 21
161.2035364026
 31
0.0
 11
81.5313228866
 21
161.2159365863
 31
0.0
 11
81.3909912253
 21
161.2198782482
 31
0.0
  0
SPLINE
  5
47D
100
AcDbEntity
  8
RUNDUNGEN
100
AcDbSpline
 62
9
  6
CONTINUOUS
 70
0
 71
3
 72
11
 73
7
 74
5
 42
0.0000001
 43
0.0000001
 44
0.0000000001
 12
0.0000000228
 22
-0.7799271804
 32
0.0
 13
-0.7799271804
 23
0.0
 33
0.0
 40
0.0
 40
0.0
 40
0.0
 40
0.0
 40
0.2968306703
 40
0.5687189135
 40
0.8008034783
 40
1.0
 40
1.0
 40
1.0
 40
1.0
 10
89.7985909643
 20
150.4198782482
 30
0.0
 10
89.7985909665
 20
150.3427094789
 30
0.0
 10
89.7803933636
 20
150.1940338246
 30
0.0
 10
89.7002709157
 20
149.9989053901
 30
0.0
 10
89.5754792399
 20
149.8582616433
 30
0.0
 10
89.4623341621
 20
149.8198782482
 30
0.0
 10
89.4105479016
 20
149.8198782482
 30
0.0
 11
89.7985909643
 21
150.4198782482
 31
0.0
 11
89.7690518803
 21
150.1902641958
 31
0.0
 11
89.6849327476
 21
149.9956094773
 31
0.0
 11
89.5590422943
 21
149.8655484392
 31
0.0
 11
89.4105479016
 21
149.8198782482
 31
0.0
  0
SPLINE
  5
47E
100
AcDbEntity
  8
RUNDUNGEN
100
AcDbSpline
 62
9
  6
CONTINUOUS
 70
0
 71
3
 72
21
 73
17
 74
15
 42
0.0000001
 43
0.0000001
 44
0.0000000001
 12
-4.4558377151
 22
0.0000156908
 32
0.0
 13
-4.0752259017
 23
-1.801949942
 33
0.0
 40
0.0
 40
0.0
 40
0.0
 40
0.0
 40
0.0320495599
 40
0.0674839083
 40
0.1073599496
 40
0.1523723359
 40
0.2033735646
 40
0.2612227043
 40
0.3267467988
 40
0.4007555641
 40
0.4846230559
 40
0.5783575149
 40
0.6795364837
 40
0.7854868813
 40
0.8933080682
 40
1.0
 40
1.0
 40
1.0
 40
1.0
 10
89.7985909666
 20
161.2198782482
 30
0.0
 10
89.7509884207
 20
161.2198784158
 30
0.0
 10
89.6507402014
 20
161.2168565367
 30
0.0
 10
89.4917714137
 20
161.2035514787
 30
0.0
 10
89.3145690152
 20
161.1798378996
 30
0.0
 10
89.115892655
 20
161.1439114853
 30
0.0
 10
88.8928617962
 20
161.0938020159
 30
0.0
 10
88.6424702971
 20
161.0273803227
 30
0.0
 10
88.3618066498
 20
160.942497728
 30
0.0
 10
88.0472275413
 20
160.836816093
 30
0.0
 10
87.6962112048
 20
160.7084565226
 30
0.0
 10
87.3105813298
 20
160.5575764993
 30
0.0
 10
86.8973855531
 20
160.387356288
 30
0.0
 10
86.467219257
 20
160.2035298159
 30
0.0
 10
86.0311213122
 20
160.0128046507
 30
0.0
 10
85.7397223373
 20
159.883962755
 30
0.0
 10
85.5947910959
 20
159.8198782482
 30
0.0
 11
89.7985909666
 21
161.2198782482
 31
0.0
 11
89.6558414774
 21
161.2158033581
 31
0.0
 11
89.4984813632
 21
161.2028823005
 31
0.0
 11
89.32233356
 21
161.1795896172
 31
0.0
 11
89.1249123231
 21
161.1442012974
 31
0.0
 11
88.9031132034
 21
161.0947122401
 31
0.0
 11
88.6538711062
 21
161.0289712115
 31
0.0
 11
88.374295607
 21
160.9448228624
 31
0.0
 11
88.0615632368
 21
160.8401929991
 31
0.0
 11
87.7104439071
 21
160.7122599833
 31
0.0
 11
87.3213257088
 21
160.5604985629
 31
0.0
 11
86.9043112751
 21
160.3891713277
 31
0.0
 11
86.4700362845
 21
160.204018569
 31
0.0
 11
86.0297154416
 21
160.0118360878
 31
0.0
 11
85.5947910959
 21
159.8198782482
 31
0.0
  0
SPLINE
  5
47F
100
AcDbEntity
  8
RUNDUNGEN
100
AcDbSpline
 62
9
  6
CONTINUOUS
 70
0
 71
3
 72
10
 73
6
 74
4
 42
0.0000001
 43
0.0000001
 44
0.0000000001
 12
-0.2025098895
 22
-1.9694107024
 32
0.0
 13
-0.000029257
 23
-1.9797951332
 33
0.0
 40
0.0
 40
0.0
 40
0.0
 40
0.0
 40
0.3284585445
 40
0.663628246
 40
1.0
 40
1.0
 40
1.0
 40
1.0
 10
96.1539020875
 20
157.7964495297
 30
0.0
 10
96.131730053
 20
157.580826272
 30
0.0
 10
96.0950274508
 20
157.1443059499
 30
0.0
 10
96.0624169016
 20
156.4850686154
 30
0.0
 10
96.0551905691
 20
156.0418606354
 30
0.0
 10
96.0551872887
 20
155.8198782482
 30
0.0
 11
96.1539020875
 21
157.7964495297
 31
0.0
 11
96.0990881768
 21
157.1484832263
 31
0.0
 11
96.0661112315
 21
156.4857358077
 31
0.0
 11
96.0551872887
 21
155.8198782482
 31
0.0
  0
SPLINE
  5
480
100
AcDbEntity
  8
RUNDUNGEN
100
AcDbSpline
 62
9
  6
CONTINUOUS
 70
0
 71
3
 72
10
 73
6
 74
4
 42
0.0000001
 43
0.0000001
 44
0.0000000001
 12
-0.2026259971
 22
-2.1677103203
 32
0.0
 13
-0.0000387577
 23
-2.177159922
 33
0.0
 40
0.0
 40
0.0
 40
0.0
 40
0.0
 40
0.3280136356
 40
0.6635691631
 40
1.0
 40
1.0
 40
1.0
 40
1.0
 10
70.5743465917
 20
157.9941066578
 30
0.0
 10
70.5521918951
 20
157.7570938101
 30
0.0
 10
70.5154763723
 20
157.2768287163
 30
0.0
 10
70.482862384
 20
156.5517398849
 30
0.0
 10
70.4756361394
 20
156.0640328264
 30
0.0
 10
70.475631793
 20
155.8198782482
 30
0.0
 11
70.5743465917
 21
157.9941066578
 31
0.0
 11
70.519576964
 21
157.2820718463
 31
0.0
 11
70.4865538479
 21
156.5522605469
 31
0.0
 11
70.475631793
 21
155.8198782482
 31
0.0
  0
SPLINE
  5
481
100
AcDbEntity
  8
RUNDUNGEN
100
AcDbSpline
 62
9
  6
CONTINUOUS
 70
0
 71
3
 72
10
 73
6
 74
4
 42
0.0000001
 43
0.0000001
 44
0.0000000001
 12
0.0000440735
 22
-2.1771599297
 32
0.0
 13
0.2026221741
 23
-2.1677106855
 33
0.0
 40
0.0
 40
0.0
 40
0.0
 40
0.0
 40
0.3361950062
 40
0.6716907202
 40
1.0
 40
1.0
 40
1.0
 40
1.0
 10
70.475631793
 20
155.8198782482
 30
0.0
 10
70.4756367321
 20
155.5758948162
 30
0.0
 10
70.482853231
 20
155.0884023644
 30
0.0
 10
70.515450564
 20
154.3633128169
 30
0.0
 10
70.552172345
 20
153.8828763499
 30
0.0
 10
70.5743465917
 20
153.6456498386
 30
0.0
 11
70.475631793
 21
155.8198782482
 31
0.0
 11
70.4865380958
 21
155.0880092102
 31
0.0
 11
70.5195377896
 21
154.3583272054
 31
0.0
 11
70.5743465917
 21
153.6456498386
 31
0.0
  0
SPLINE
  5
482
100
AcDbEntity
  8
RUNDUNGEN
100
AcDbSpline
 62
9
  6
CONTINUOUS
 70
0
 71
3
 72
9
 73
5
 74
3
 42
0.0000001
 43
0.0000001
 44
0.0000000001
 12
0.0000152372
 22
-0.6755778212
 32
0.0
 13
-0.0690822904
 23
-0.6720364796
 33
0.0
 40
0.0
 40
0.0
 40
0.0
 40
0.0
 40
0.4753689247
 40
1.0
 40
1.0
 40
1.0
 40
1.0
 10
96.1947910959
 20
158.470569461
 30
0.0
 10
96.1947935104
 20
158.3635198935
 30
0.0
 10
96.1860614455
 20
158.1383158412
 30
0.0
 10
96.1659829929
 20
157.91397327
 30
0.0
 10
96.1539020875
 20
157.7964495297
 30
0.0
 11
96.1947910959
 21
158.470569461
 31
0.0
 11
96.1839275988
 21
158.1496045508
 31
0.0
 11
96.1539020875
 21
157.7964495297
 31
0.0
  0
SPLINE
  5
483
100
AcDbEntity
  8
RUNDUNGEN
100
AcDbSpline
 62
9
  6
CONTINUOUS
 70
0
 71
3
 72
11
 73
7
 74
5
 42
0.0000001
 43
0.0000001
 44
0.0000000001
 12
-0.1936957887
 22
-0.617809713
 32
0.0
 13
-0.6391552313
 23
-0.1048730137
 33
0.0
 40
0.0
 40
0.0
 40
0.0
 40
0.0
 40
0.289324644
 40
0.5757468811
 40
0.8592369975
 40
1.0
 40
1.0
 40
1.0
 40
1.0
 10
92.0868701352
 20
150.2344680516
 30
0.0
 10
92.0681898135
 20
150.1748855265
 30
0.0
 10
92.0128829467
 20
150.062195319
 30
0.0
 10
91.8827473317
 20
149.9269938904
 30
0.0
 10
91.7456431077
 20
149.8543466886
 30
0.0
 10
91.656325633
 20
149.832226998
 30
0.0
 10
91.6263358298
 20
149.8273062512
 30
0.0
 11
92.0868701352
 21
150.2344680516
 31
0.0
 11
92.0045503497
 21
150.0672070968
 31
0.0
 11
91.8763342777
 21
149.9344680516
 31
0.0
 11
91.7147726018
 21
149.8492443384
 31
0.0
 11
91.6263358298
 21
149.8273062512
 31
0.0
  0
SPLINE
  5
484
100
AcDbEntity
  8
RUNDUNGEN
100
AcDbSpline
 62
9
  6
CONTINUOUS
 70
0
 71
3
 72
21
 73
17
 74
15
 42
0.0000001
 43
0.0000001
 44
0.0000000001
 12
-4.4558377151
 22
0.0000156908
 32
0.0
 13
-4.0752259017
 23
-1.801949942
 33
0.0
 40
0.0
 40
0.0
 40
0.0
 40
0.0
 40
0.03204956
 40
0.0674839085
 40
0.1073599499
 40
0.1523723363
 40
0.2033735651
 40
0.2612227049
 40
0.3267467994
 40
0.4007555647
 40
0.4846230567
 40
0.5783575157
 40
0.6795364846
 40
0.7854868821
 40
0.8933080687
 40
1.0
 40
1.0
 40
1.0
 40
1.0
 10
114.7985909666
 20
161.2198782482
 30
0.0
 10
114.7509884205
 20
161.2198784158
 30
0.0
 10
114.6507402009
 20
161.2168565367
 30
0.0
 10
114.4917714128
 20
161.2035514786
 30
0.0
 10
114.3145690139
 20
161.1798378994
 30
0.0
 10
114.1158926533
 20
161.143911485
 30
0.0
 10
113.8928617942
 20
161.0938020154
 30
0.0
 10
113.6424702948
 20
161.0273803221
 30
0.0
 10
113.3618066472
 20
160.9424977272
 30
0.0
 10
113.0472275384
 20
160.836816092
 30
0.0
 10
112.6962112016
 20
160.7084565213
 30
0.0
 10
112.3105813263
 20
160.5575764978
 30
0.0
 10
111.8973855495
 20
160.3873562865
 30
0.0
 10
111.4672192539
 20
160.2035298146
 30
0.0
 10
111.0311213104
 20
160.0128046499
 30
0.0
 10
110.7397223366
 20
159.8839627547
 30
0.0
 10
110.5947910959
 20
159.8198782482
 30
0.0
 11
114.7985909666
 21
161.2198782482
 31
0.0
 11
114.6558414769
 21
161.215803358
 31
0.0
 11
114.4984813623
 21
161.2028823004
 31
0.0
 11
114.3223335587
 21
161.179589617
 31
0.0
 11
114.1249123215
 21
161.144201297
 31
0.0
 11
113.9031132015
 21
161.0947122396
 31
0.0
 11
113.653871104
 21
161.0289712109
 31
0.0
 11
113.3742956045
 21
160.9448228616
 31
0.0
 11
113.061563234
 21
160.8401929981
 31
0.0
 11
112.7104439038
 21
160.712259982
 31
0.0
 11
112.3213257051
 21
160.5604985614
 31
0.0
 11
111.9043112713
 21
160.3891713261
 31
0.0
 11
111.4700362811
 21
160.2040185675
 31
0.0
 11
111.0297154394
 21
160.0118360868
 31
0.0
 11
110.5947910959
 21
159.8198782482
 31
0.0
  0
SPLINE
  5
485
100
AcDbEntity
  8
RUNDUNGEN
100
AcDbSpline
 62
9
  6
CONTINUOUS
 70
0
 71
3
 72
11
 73
7
 74
5
 42
0.0000001
 43
0.0000001
 44
0.0000000001
 12
-0.2209542898
 22
-0.7049092353
 32
0.0
 13
-0.7351561905
 23
0.0
 33
0.0
 40
0.0
 40
0.0
 40
0.0
 40
0.0
 40
0.2535899799
 40
0.5046488881
 40
0.7531278327
 40
1.0
 40
1.0
 40
1.0
 40
1.0
 10
95.5459928441
 20
150.2345053903
 30
0.0
 10
95.5273155795
 20
150.1749194173
 30
0.0
 10
95.4720116729
 20
150.0622184842
 30
0.0
 10
95.341873233
 20
149.9270034021
 30
0.0
 10
95.1775783958
 20
149.8399449669
 30
0.0
 10
95.05528763
 20
149.8198782482
 30
0.0
 10
94.9947910959
 20
149.8198782482
 30
0.0
 11
95.5459928441
 21
150.2345053903
 31
0.0
 11
95.4636795905
 21
150.0672331024
 31
0.0
 11
95.3354571811
 21
149.9344770115
 31
0.0
 11
95.1738888475
 21
149.8492461058
 31
0.0
 11
94.9947910959
 21
149.8198782482
 31
0.0
  0
SPLINE
  5
486
100
AcDbEntity
  8
RUNDUNGEN
100
AcDbSpline
 62
9
  6
CONTINUOUS
 70
0
 71
3
 72
21
 73
17
 74
15
 42
0.0000001
 43
0.0000001
 44
0.0000000001
 12
4.0752208176
 22
-1.801975327
 32
0.0
 13
4.4558433311
 23
0.000000535
 33
0.0
 40
0.0
 40
0.0
 40
0.0
 40
0.0
 40
0.118006041
 40
0.2326390726
 40
0.3415232991
 40
0.4424964911
 40
0.5336246573
 40
0.6138023213
 40
0.6845176513
 40
0.7471811143
 40
0.8025956353
 40
0.8515940299
 40
0.8950277203
 40
0.9337249111
 40
0.9684685951
 40
1.0
 40
1.0
 40
1.0
 40
1.0
 10
85.5947910959
 20
151.8198782482
 30
0.0
 10
85.7550913209
 20
151.7489969234
 30
0.0
 10
86.0711137524
 20
151.6092686378
 30
0.0
 10
86.5360371615
 20
151.4063864761
 30
0.0
 10
86.9796191089
 20
151.2178897284
 30
0.0
 10
87.3935476654
 20
151.0489706865
 30
0.0
 10
87.7708269948
 20
150.9032566253
 30
0.0
 10
88.1090746666
 20
150.781465164
 30
0.0
 10
88.4103049817
 20
150.6819782359
 30
0.0
 10
88.6791585267
 20
150.602133078
 30
0.0
 10
88.919361651
 20
150.5396041985
 30
0.0
 10
89.1338616061
 20
150.4923153781
 30
0.0
 10
89.3256852411
 20
150.4582585007
 30
0.0
 10
89.4978573632
 20
150.4356065139
 30
0.0
 10
89.6533056823
 20
150.4227978939
 30
0.0
 10
89.7517579665
 20
150.4198782426
 30
0.0
 10
89.7985909666
 20
150.4198782482
 30
0.0
 11
85.5947910959
 21
151.8198782482
 31
0.0
 11
86.075869256
 21
151.6076361152
 31
0.0
 11
86.5441975488
 21
151.4037444896
 31
0.0
 11
86.990898697
 21
151.214406072
 31
0.0
 11
87.4076384763
 21
151.0448283189
 31
0.0
 11
87.7865801988
 21
150.8989445537
 31
0.0
 11
88.1228507332
 21
150.778295479
 31
0.0
 11
88.4221694092
 21
150.6798369026
 31
0.0
 11
88.6899344675
 21
150.6006858737
 31
0.0
 11
88.9289725563
 21
150.5388029179
 31
0.0
 11
89.1422475338
 21
150.4920973468
 31
0.0
 11
89.3328501269
 21
150.4585421347
 31
0.0
 11
89.5038387302
 21
150.4363041888
 31
0.0
 11
89.658147439
 21
150.4238259862
 31
0.0
 11
89.7985909666
 21
150.4198782482
 31
0.0
  0
SPLINE
  5
487
100
AcDbEntity
  8
RUNDUNGEN
100
AcDbSpline
 62
9
  6
CONTINUOUS
 70
0
 71
3
 72
21
 73
17
 74
15
 42
0.0000001
 43
0.0000001
 44
0.0000000001
 12
4.4558408154
 22
-0.000000231
 32
0.0
 13
4.0752198913
 23
1.8019712013
 33
0.0
 40
0.0
 40
0.0
 40
0.0
 40
0.0
 40
0.0320094265
 40
0.0674374127
 40
0.1070042795
 40
0.1514677695
 40
0.2016255527
 40
0.2582903099
 40
0.3222482638
 40
0.3942652498
 40
0.4752708238
 40
0.5658598436
 40
0.665072721
 40
0.7715696217
 40
0.8837945705
 40
1.0
 40
1.0
 40
1.0
 40
1.0
 10
81.3909912253
 20
150.4198782482
 30
0.0
 10
81.438534195
 20
150.4198782457
 30
0.0
 10
81.5387133727
 20
150.4228939355
 30
0.0
 10
81.6971565245
 20
150.4361452901
 30
0.0
 10
81.8730910296
 20
150.4596428001
 30
0.0
 10
82.0693013413
 20
150.4949936298
 30
0.0
 10
82.2886489405
 20
150.5440272782
 30
0.0
 10
82.5339765763
 20
150.6087095186
 30
0.0
 10
82.8080517383
 20
150.6910364817
 30
0.0
 10
83.1138115394
 20
150.7930204262
 30
0.0
 10
83.4539634375
 20
150.9164885694
 30
0.0
 10
83.8289203322
 20
151.0621402588
 30
0.0
 10
84.2362042087
 20
151.228911031
 30
0.0
 10
84.6707203456
 20
151.4138411446
 30
0.0
 10
85.1266318577
 20
151.6128781562
 30
0.0
 10
85.43693687
 20
151.7500786357
 30
0.0
 10
85.5947910959
 20
151.8198782482
 30
0.0
 11
81.3909912253
 21
150.4198782482
 31
0.0
 11
81.5335621973
 21
150.4239431819
 31
0.0
 11
81.6908949686
 21
150.436852162
 31
0.0
 11
81.865682593
 21
150.4599230733
 31
0.0
 11
82.0607177911
 21
150.49476114
 31
0.0
 11
82.2788994938
 21
150.5432049562
 31
0.0
 11
82.5231331843
 21
150.6072414225
 31
0.0
 11
82.7961774377
 21
150.6888754785
 31
0.0
 11
83.1007089927
 21
150.7900432579
 31
0.0
 11
83.4401347929
 21
150.9128176185
 31
0.0
 11
83.81654674
 21
151.0585830866
 31
0.0
 11
84.2258143576
 21
151.2257114927
 31
0.0
 11
84.6626088932
 21
151.4111631756
 31
0.0
 11
85.1210590018
 21
151.6108629716
 31
0.0
 11
85.5947910959
 21
151.8198782482
 31
0.0
  0
SPLINE
  5
488
100
AcDbEntity
  8
RUNDUNGEN
100
AcDbSpline
 62
9
  6
CONTINUOUS
 70
0
 71
3
 72
12
 73
8
 74
6
 42
0.0000001
 43
0.0000001
 44
0.0000000001
 12
0.0
 22
-0.9226849389
 32
0.0
 13
0.9226849389
 23
0.0
 33
0.0
 40
0.0
 40
0.0
 40
0.0
 40
0.0
 40
0.2032425192
 40
0.405292198
 40
0.605325203
 40
0.8033026552
 40
1.0
 40
1.0
 40
1.0
 40
1.0
 10
75.6152356002
 20
150.4198782482
 30
0.0
 10
75.6152356002
 20
150.3573686444
 30
0.0
 10
75.634311927
 20
150.2318867942
 30
0.0
 10
75.7175705288
 20
150.062218481
 30
0.0
 10
75.84770893
 20
149.9270034302
 30
0.0
 10
76.0120037516
 20
149.8399449787
 30
0.0
 10
76.1342945368
 20
149.8198782482
 30
0.0
 10
76.1947910959
 20
149.8198782482
 30
0.0
 11
75.6152356002
 21
150.4198782482
 31
0.0
 11
75.6435893669
 21
150.2345053294
 31
0.0
 11
75.7259026101
 21
150.06723309
 31
0.0
 11
75.8541249666
 21
149.9344770448
 31
0.0
 11
76.0156932719
 21
149.8492461302
 31
0.0
 11
76.1947910959
 21
149.8198782482
 31
0.0
  0
SPLINE
  5
489
100
AcDbEntity
  8
RUNDUNGEN
100
AcDbSpline
 62
9
  6
CONTINUOUS
 70
0
 71
3
 72
21
 73
17
 74
15
 42
0.0000001
 43
0.0000001
 44
0.0000000001
 12
-3.5755883738
 22
2.4880029247
 32
0.0
 13
-4.3560292437
 23
-0.0000087686
 33
0.0
 40
0.0
 40
0.0
 40
0.0
 40
0.0
 40
0.1101387094
 40
0.2235351837
 40
0.3356690862
 40
0.4421643687
 40
0.5390598835
 40
0.6229734814
 40
0.6953041281
 40
0.758272749
 40
0.8129964924
 40
0.8605528609
 40
0.9020262363
 40
0.9384623831
 40
0.9707307147
 40
1.0
 40
1.0
 40
1.0
 40
1.0
 10
60.5947910959
 20
159.8198782482
 30
0.0
 10
60.4635208663
 20
159.9112200586
 30
0.0
 10
60.1971113343
 20
160.0966254584
 30
0.0
 10
59.7956161538
 20
160.3729584401
 30
0.0
 10
59.39546613
 20
160.6418824311
 30
0.0
 10
59.0107353402
 20
160.8906990696
 30
0.0
 10
58.6549531724
 20
161.1086306151
 30
0.0
 10
58.3356650406
 20
161.2908610001
 30
0.0
 10
58.0535422161
 20
161.4384196667
 30
0.0
 10
57.8037356529
 20
161.5558031094
 30
0.0
 10
57.5817392482
 20
161.6471384386
 30
0.0
 10
57.3844899864
 20
161.7157791236
 30
0.0
 10
57.2089303112
 20
161.7649128396
 30
0.0
 10
57.052138174
 20
161.7973883662
 30
0.0
 10
56.9109259666
 20
161.8157004819
 30
0.0
 10
56.8215392154
 20
161.8198783337
 30
0.0
 10
56.7790399279
 20
161.8198782482
 30
0.0
 11
60.5947910959
 21
159.8198782482
 31
0.0
 11
60.2007604444
 21
160.0935872928
 31
0.0
 11
59.7935886334
 21
160.3732406063
 31
0.0
 11
59.3878562912
 21
160.6452204405
 31
0.0
 11
58.9979700237
 21
160.8965941092
 31
0.0
 11
58.6376845354
 21
161.1164705216
 31
0.0
 11
58.3198984774
 21
161.2970924067
 31
0.0
 11
58.040425035
 21
161.4425794514
 31
0.0
 11
57.7919267203
 21
161.558705771
 31
0.0
 11
57.5712694105
 21
161.6488974028
 31
0.0
 11
57.3754542009
 21
161.7165021225
 31
0.0
 11
57.2013560241
 21
161.7647471688
 31
0.0
 11
57.0458544858
 21
161.7965328972
 31
0.0
 11
56.9064133798
 21
161.8142471998
 31
0.0
 11
56.7790399279
 21
161.8198782482
 31
0.0
  0
SPLINE
  5
48A
100
AcDbEntity
  8
RUNDUNGEN
100
AcDbSpline
 62
9
  6
CONTINUOUS
 70
0
 71
3
 72
21
 73
17
 74
15
 42
0.0000001
 43
0.0000001
 44
0.0000000001
 12
-4.3560228921
 22
0.0000092318
 32
0.0
 13
-3.5755878412
 23
-2.4879925696
 33
0.0
 40
0.0
 40
0.0
 40
0.0
 40
0.0
 40
0.029774617
 40
0.0628370666
 40
0.1003286058
 40
0.1430722855
 40
0.1920569408
 40
0.2482904492
 40
0.3127533621
 40
0.3864013721
 40
0.4707426171
 40
0.5658826753
 40
0.6693617515
 40
0.7783386964
 40
0.8896528929
 40
1.0
 40
1.0
 40
1.0
 40
1.0
 10
64.4105419634
 20
161.8198782482
 30
0.0
 10
64.3673089924
 20
161.8198783398
 30
0.0
 10
64.2760341349
 20
161.8155386906
 30
0.0
 10
64.1314655209
 20
161.7964571909
 30
0.0
 10
63.9703525767
 20
161.7624688671
 30
0.0
 10
63.7897789462
 20
161.7110075373
 30
0.0
 10
63.5871349253
 20
161.639271807
 30
0.0
 10
63.3597035966
 20
161.5442354012
 30
0.0
 10
63.1048511612
 20
161.4228451805
 30
0.0
 10
62.819265994
 20
161.271769996
 30
0.0
 10
62.5006834996
 20
161.0883490106
 30
0.0
 10
62.1508156932
 20
160.872853165
 30
0.0
 10
61.7760507596
 20
160.6298355815
 30
0.0
 10
61.3859535004
 20
160.3674476258
 30
0.0
 10
60.9904852541
 20
160.0952438469
 30
0.0
 10
60.7263096874
 20
159.911392509
 30
0.0
 10
60.5947910959
 20
159.8198782482
 30
0.0
 11
64.4105419634
 21
161.8198782482
 31
0.0
 11
64.2809737604
 21
161.8140568363
 31
0.0
 11
64.1381407398
 21
161.7955983564
 31
0.0
 11
63.9782525746
 21
161.762323168
 31
0.0
 11
63.7990547675
 21
161.7117685109
 31
0.0
 11
63.5977291759
 21
161.641069879
 31
0.0
 11
63.3714936803
 21
161.5471540503
 31
0.0
 11
63.1177245852
 21
161.4269418742
 31
0.0
 11
62.8338601654
 21
161.2774708122
 31
0.0
 11
62.5151513551
 21
161.0947090406
 31
0.0
 11
62.1619508372
 21
160.8779061304
 31
0.0
 11
61.7834300285
 21
160.6331530446
 31
0.0
 11
61.3892430558
 21
160.3686488282
 31
0.0
 11
60.9895676265
 21
160.0941035013
 31
0.0
 11
60.5947910959
 21
159.8198782482
 31
0.0
  0
SPLINE
  5
48B
100
AcDbEntity
  8
RUNDUNGEN
100
AcDbSpline
 62
9
  6
CONTINUOUS
 70
0
 71
3
 72
11
 73
7
 74
5
 42
0.0000001
 43
0.0000001
 44
0.0000000001
 12
0.1936957816
 22
-0.6178097359
 32
0.0
 13
0.6391552519
 23
-0.1048730087
 33
0.0
 40
0.0
 40
0.0
 40
0.0
 40
0.0
 40
0.2893246407
 40
0.5757468864
 40
0.8592370059
 40
1.0
 40
1.0
 40
1.0
 40
1.0
 10
79.1027120528
 20
150.2344680639
 30
0.0
 10
79.1213923736
 20
150.1748855373
 30
0.0
 10
79.1766992406
 20
150.0621953243
 30
0.0
 10
79.3068348603
 20
149.926993889
 30
0.0
 10
79.4439390901
 20
149.854346686
 30
0.0
 10
79.5332565668
 20
149.8322269963
 30
0.0
 10
79.5632463691
 20
149.8273062501
 30
0.0
 11
79.1027120528
 21
150.2344680639
 31
0.0
 11
79.1850318369
 21
150.0672071045
 31
0.0
 11
79.3132479158
 21
149.9344680503
 31
0.0
 11
79.4748095994
 21
149.8492443353
 31
0.0
 11
79.5632463691
 21
149.8273062501
 31
0.0
  0
SPLINE
  5
48C
100
AcDbEntity
  8
RUNDUNGEN
100
AcDbSpline
 62
9
  6
CONTINUOUS
 70
0
 71
3
 72
21
 73
17
 74
15
 42
0.0000001
 43
0.0000001
 44
0.0000000001
 12
3.57564006
 22
-2.4879479049
 32
0.0
 13
4.356040245
 23
-0.000007448
 33
0.0
 40
0.0
 40
0.0
 40
0.0
 40
0.0
 40
0.1220393509
 40
0.2403376401
 40
0.35222957
 40
0.4553502102
 40
0.5476762533
 40
0.628145574
 40
0.6983794911
 40
0.7599180156
 40
0.8137035514
 40
0.8607104156
 40
0.9019236883
 40
0.9382923078
 40
0.9707059526
 40
1.0
 40
1.0
 40
1.0
 40
1.0
 10
60.5947910959
 20
151.8198782482
 30
0.0
 10
60.7402473599
 20
151.7186690658
 30
0.0
 10
61.0266796232
 20
151.5193219574
 30
0.0
 10
61.4482754791
 20
151.2297761426
 30
0.0
 10
61.850571249
 20
150.9606944389
 30
0.0
 10
62.2260671845
 20
150.7194861489
 30
0.0
 10
62.5684337049
 20
150.5113187736
 30
0.0
 10
62.8754734561
 20
150.3372556377
 30
0.0
 10
63.1489559829
 20
150.1950274593
 30
0.0
 10
63.393094887
 20
150.0808373179
 30
0.0
 10
63.6112749164
 20
149.9913715196
 30
0.0
 10
63.8061631121
 20
149.9236776887
 30
0.0
 10
63.9804977385
 20
149.8748997812
 30
0.0
 10
64.1370214655
 20
149.8424377668
 30
0.0
 10
64.2783785571
 20
149.8240706544
 30
0.0
 10
64.3680125519
 20
149.8198783209
 30
0.0
 10
64.4105479016
 20
149.8198782482
 30
0.0
 11
60.5947910959
 21
151.8198782482
 31
0.0
 11
61.0314569436
 21
151.5166780709
 31
0.0
 11
61.4565534827
 21
151.2254058583
 31
0.0
 11
61.8620195553
 21
150.9549217946
 31
0.0
 11
62.2402932094
 21
150.7126665999
 31
0.0
 11
62.5842583485
 21
150.5042595809
 31
0.0
 11
62.8894856333
 21
150.3319055769
 31
0.0
 11
63.1611770423
 21
150.1912494554
 31
0.0
 11
63.4042262374
 21
150.0781762404
 31
0.0
 11
63.6211995109
 21
149.9897719395
 31
0.0
 11
63.8147875662
 21
149.9230495633
 31
0.0
 11
63.9877960828
 21
149.8751133551
 31
0.0
 11
64.1430012328
 21
149.8433444674
 31
0.0
 11
64.2830665534
 21
149.825518253
 31
0.0
 11
64.4105479016
 21
149.8198782482
 31
0.0
  0
SPLINE
  5
48D
100
AcDbEntity
  8
RUNDUNGEN
100
AcDbSpline
 62
9
  6
CONTINUOUS
 70
0
 71
3
 72
9
 73
5
 74
3
 42
0.0000001
 43
0.0000001
 44
0.0000000001
 12
0.0690825518
 22
-0.6720367369
 32
0.0
 13
-0.0000100366
 23
-0.675578104
 33
0.0
 40
0.0
 40
0.0
 40
0.0
 40
0.0
 40
0.5268927078
 40
1.0
 40
1.0
 40
1.0
 40
1.0
 10
96.1539020875
 20
153.8433069667
 30
0.0
 10
96.1660351184
 20
153.725276548
 30
0.0
 10
96.1861031481
 20
153.5009315753
 30
0.0
 10
96.1947926787
 20
153.2757273445
 30
0.0
 10
96.1947910959
 20
153.1691870354
 30
0.0
 11
96.1539020875
 21
153.8433069667
 31
0.0
 11
96.1840236629
 21
153.488626544
 31
0.0
 11
96.1947910959
 21
153.1691870354
 31
0.0
  0
SPLINE
  5
48E
100
AcDbEntity
  8
RUNDUNGEN
100
AcDbSpline
 62
9
  6
CONTINUOUS
 70
0
 71
3
 72
10
 73
6
 74
4
 42
0.0000001
 43
0.0000001
 44
0.0000000001
 12
0.0000329846
 22
-1.979795143
 32
0.0
 13
0.2025071639
 23
-1.9694109927
 33
0.0
 40
0.0
 40
0.0
 40
0.0
 40
0.0
 40
0.3362508883
 40
0.6712557337
 40
1.0
 40
1.0
 40
1.0
 40
1.0
 10
96.0551872887
 20
155.8198782482
 30
0.0
 10
96.0551909858
 20
155.597975623
 30
0.0
 10
96.0624103728
 20
155.1549562123
 30
0.0
 10
96.0950084485
 20
154.4957184054
 30
0.0
 10
96.1317110645
 20
154.059117824
 30
0.0
 10
96.1539020875
 20
153.8433069667
 30
0.0
 11
96.0551872887
 21
155.8198782482
 31
0.0
 11
96.0661029599
 21
155.1542598713
 31
0.0
 11
96.0990503353
 21
154.4918377631
 31
0.0
 11
96.1539020875
 21
153.8433069667
 31
0.0
  0
SPLINE
  5
48F
100
AcDbEntity
  8
RUNDUNGEN
100
AcDbSpline
 62
9
  6
CONTINUOUS
 70
0
 71
3
 72
11
 73
7
 74
5
 42
0.0000001
 43
0.0000001
 44
0.0000000001
 12
-0.0000000235
 22
-0.7799271078
 32
0.0
 13
0.7799271078
 23
0.0
 33
0.0
 40
0.0
 40
0.0
 40
0.0
 40
0.0
 40
0.2968254628
 40
0.5687119006
 40
0.8007986893
 40
1.0
 40
1.0
 40
1.0
 40
1.0
 10
81.3909912276
 20
150.4198782482
 30
0.0
 10
81.3909912253
 20
150.3427108399
 30
0.0
 10
81.4091882812
 20
150.1940370614
 30
0.0
 10
81.4893089867
 20
149.9989094091
 30
0.0
 10
81.61409992
 20
149.8582632966
 30
0.0
 10
81.7272467896
 20
149.8198782482
 30
0.0
 10
81.7790342903
 20
149.8198782482
 30
0.0
 11
81.3909912276
 21
150.4198782482
 31
0.0
 11
81.4205292451
 21
150.1902681753
 31
0.0
 11
81.5046464124
 21
149.9956141629
 31
0.0
 11
81.6305366453
 21
149.865550521
 31
0.0
 11
81.7790342903
 21
149.8198782482
 31
0.0
  0
SPLINE
  5
490
100
AcDbEntity
  8
RUNDUNGEN
100
AcDbSpline
 62
9
  6
CONTINUOUS
 70
0
 71
3
 72
10
 73
6
 74
4
 42
0.0000001
 43
0.0000001
 44
0.0000000001
 12
0.2025073435
 22
1.9694109808
 32
0.0
 13
0.000033006
 23
1.9797951496
 33
0.0
 40
0.0
 40
0.0
 40
0.0
 40
0.0
 40
0.3284122748
 40
0.6635627598
 40
1.0
 40
1.0
 40
1.0
 40
1.0
 10
100.0356801044
 20
153.8433069667
 30
0.0
 10
100.0578487369
 20
154.0588998802
 30
0.0
 10
100.0945491012
 20
154.4953769638
 30
0.0
 10
100.1271642624
 20
155.1546140908
 30
0.0
 10
100.1343912017
 20
155.5978526428
 30
0.0
 10
100.1343949032
 20
155.8198782482
 30
0.0
 11
100.0356801044
 21
153.8433069667
 31
0.0
 11
100.090487951
 21
154.4911818569
 31
0.0
 11
100.1234670911
 21
155.1538910799
 31
0.0
 11
100.1343949032
 21
155.8198782482
 31
0.0
  0
SPLINE
  5
491
100
AcDbEntity
  8
RUNDUNGEN
100
AcDbSpline
 62
9
  6
CONTINUOUS
 70
0
 71
3
 72
9
 73
5
 74
3
 42
0.0000001
 43
0.0000001
 44
0.0000000001
 12
-0.0000105536
 22
0.6755780702
 32
0.0
 13
0.0690826337
 23
0.6720366945
 33
0.0
 40
0.0
 40
0.0
 40
0.0
 40
0.0
 40
0.4733825068
 40
1.0
 40
1.0
 40
1.0
 40
1.0
 10
99.9947910959
 20
153.1691870354
 30
0.0
 10
99.9947894306
 20
153.2757893155
 30
0.0
 10
100.003484112
 20
153.5009935243
 30
0.0
 10
100.0235533966
 20
153.7253382069
 30
0.0
 10
100.0356801044
 20
153.8433069667
 30
0.0
 11
99.9947910959
 21
153.1691870354
 31
0.0
 11
100.005570197
 21
153.4888121692
 31
0.0
 11
100.0356801044
 21
153.8433069667
 31
0.0
  0
SPLINE
  5
492
100
AcDbEntity
  8
RUNDUNGEN
100
AcDbSpline
 62
9
  6
CONTINUOUS
 70
0
 71
3
 72
12
 73
8
 74
6
 42
0.0000001
 43
0.0000001
 44
0.0000000001
 12
0.0
 22
0.9226849389
 32
0.0
 13
-0.9226849389
 23
0.0
 33
0.0
 40
0.0
 40
0.0
 40
0.0
 40
0.0
 40
0.2032425192
 40
0.405292198
 40
0.605325203
 40
0.8033026552
 40
1.0
 40
1.0
 40
1.0
 40
1.0
 10
95.5743465917
 20
161.2198782482
 30
0.0
 10
95.5743465917
 20
161.282387852
 30
0.0
 10
95.5552702649
 20
161.4078697022
 30
0.0
 10
95.4720116631
 20
161.5775380153
 30
0.0
 10
95.3418732619
 20
161.7127530661
 30
0.0
 10
95.1775784403
 20
161.7998115177
 30
0.0
 10
95.0552876551
 20
161.8198782482
 30
0.0
 10
94.9947910959
 20
161.8198782482
 30
0.0
 11
95.5743465917
 21
161.2198782482
 31
0.0
 11
95.545992825
 21
161.405251167
 31
0.0
 11
95.4636795818
 21
161.5725234064
 31
0.0
 11
95.3354572253
 21
161.7052794516
 31
0.0
 11
95.17388892
 21
161.7905103662
 31
0.0
 11
94.9947910959
 21
161.8198782482
 31
0.0
  0
SPLINE
  5
493
100
AcDbEntity
  8
RUNDUNGEN
100
AcDbSpline
 62
9
  6
CONTINUOUS
 70
0
 71
3
 72
10
 73
6
 74
4
 42
0.0000001
 43
0.0000001
 44
0.0000000001
 12
-0.2026259971
 22
-2.1677103203
 32
0.0
 13
-0.0000387577
 23
-2.177159922
 33
0.0
 40
0.0
 40
0.0
 40
0.0
 40
0.0
 40
0.3280136356
 40
0.6635691631
 40
1.0
 40
1.0
 40
1.0
 40
1.0
 10
95.5743465917
 20
157.9941066578
 30
0.0
 10
95.5521918951
 20
157.7570938101
 30
0.0
 10
95.5154763723
 20
157.2768287163
 30
0.0
 10
95.482862384
 20
156.5517398849
 30
0.0
 10
95.4756361394
 20
156.0640328264
 30
0.0
 10
95.475631793
 20
155.8198782482
 30
0.0
 11
95.5743465917
 21
157.9941066578
 31
0.0
 11
95.519576964
 21
157.2820718463
 31
0.0
 11
95.4865538479
 21
156.5522605469
 31
0.0
 11
95.475631793
 21
155.8198782482
 31
0.0
  0
SPLINE
  5
494
100
AcDbEntity
  8
RUNDUNGEN
100
AcDbSpline
 62
9
  6
CONTINUOUS
 70
0
 71
3
 72
10
 73
6
 74
4
 42
0.0000001
 43
0.0000001
 44
0.0000000001
 12
0.0000440735
 22
-2.1771599297
 32
0.0
 13
0.2026221741
 23
-2.1677106855
 33
0.0
 40
0.0
 40
0.0
 40
0.0
 40
0.0
 40
0.3361950062
 40
0.6716907202
 40
1.0
 40
1.0
 40
1.0
 40
1.0
 10
95.475631793
 20
155.8198782482
 30
0.0
 10
95.4756367321
 20
155.5758948162
 30
0.0
 10
95.482853231
 20
155.0884023644
 30
0.0
 10
95.515450564
 20
154.3633128169
 30
0.0
 10
95.552172345
 20
153.8828763499
 30
0.0
 10
95.5743465917
 20
153.6456498386
 30
0.0
 11
95.475631793
 21
155.8198782482
 31
0.0
 11
95.4865380958
 21
155.0880092102
 31
0.0
 11
95.5195377896
 21
154.3583272054
 31
0.0
 11
95.5743465917
 21
153.6456498386
 31
0.0
  0
SPLINE
  5
495
100
AcDbEntity
  8
RUNDUNGEN
100
AcDbSpline
 62
9
  6
CONTINUOUS
 70
0
 71
3
 72
11
 73
7
 74
5
 42
0.0000001
 43
0.0000001
 44
0.0000000001
 12
-0.1936957816
 22
0.6178097359
 32
0.0
 13
-0.6391552519
 23
0.1048730087
 33
0.0
 40
0.0
 40
0.0
 40
0.0
 40
0.0
 40
0.2893246407
 40
0.5757468864
 40
0.8592370059
 40
1.0
 40
1.0
 40
1.0
 40
1.0
 10
92.0868701391
 20
161.4052884324
 30
0.0
 10
92.0681898183
 20
161.4648709591
 30
0.0
 10
92.0128829513
 20
161.5775611721
 30
0.0
 10
91.8827473316
 20
161.7127626074
 30
0.0
 10
91.7456431018
 20
161.7854098104
 30
0.0
 10
91.6563256251
 20
161.8075295001
 30
0.0
 10
91.6263358228
 20
161.8124502463
 30
0.0
 11
92.0868701391
 21
161.4052884324
 31
0.0
 11
92.004550355
 21
161.5725493919
 31
0.0
 11
91.8763342761
 21
161.7052884461
 31
0.0
 11
91.7147725925
 21
161.7905121611
 31
0.0
 11
91.6263358228
 21
161.8124502463
 31
0.0
  0
SPLINE
  5
496
100
AcDbEntity
  8
RUNDUNGEN
100
AcDbSpline
 62
9
  6
CONTINUOUS
 70
0
 71
3
 72
9
 73
5
 74
3
 42
0.0000001
 43
0.0000001
 44
0.0000000001
 12
0.0000034736
 22
-0.7418636283
 32
0.0
 13
-0.0346356508
 23
-0.7410546638
 33
0.0
 40
0.0
 40
0.0
 40
0.0
 40
0.0
 40
0.4759693283
 40
1.0
 40
1.0
 40
1.0
 40
1.0
 10
95.5947910959
 20
158.7356385823
 30
0.0
 10
95.5947916471
 20
158.617937138
 30
0.0
 10
95.5904341814
 20
158.3706466273
 30
0.0
 10
95.5803966395
 20
158.1235517822
 30
0.0
 10
95.5743465917
 20
157.9941066578
 30
0.0
 11
95.5947910959
 21
158.7356385823
 31
0.0
 11
95.589356804
 21
158.3825760689
 31
0.0
 11
95.5743465917
 21
157.9941066578
 31
0.0
  0
SPLINE
  5
497
100
AcDbEntity
  8
RUNDUNGEN
100
AcDbSpline
 62
9
  6
CONTINUOUS
 70
0
 71
3
 72
11
 73
7
 74
5
 42
0.0000001
 43
0.0000001
 44
0.0000000001
 12
-0.0000000103
 22
0.7799271009
 32
0.0
 13
-0.7799271009
 23
0.0
 33
0.0
 40
0.0
 40
0.0
 40
0.0
 40
0.0
 40
0.2968255055
 40
0.568711948
 40
0.8007987174
 40
1.0
 40
1.0
 40
1.0
 40
1.0
 10
89.7985909643
 20
161.2198782482
 30
0.0
 10
89.7985909633
 20
161.2970456668
 30
0.0
 10
89.7803938988
 20
161.4457194559
 30
0.0
 10
89.7002731804
 20
161.6408471089
 30
0.0
 10
89.5754822503
 20
161.7814932057
 30
0.0
 10
89.4623353946
 20
161.8198782482
 30
0.0
 10
89.4105479016
 20
161.8198782482
 30
0.0
 11
89.7985909643
 21
161.2198782482
 31
0.0
 11
89.7690529312
 21
161.4494883506
 31
0.0
 11
89.6849357521
 21
161.6441423598
 31
0.0
 11
89.559045525
 21
161.7742059843
 31
0.0
 11
89.4105479016
 21
161.8198782482
 31
0.0
  0
SPLINE
  5
498
100
AcDbEntity
  8
RUNDUNGEN
100
AcDbSpline
 62
9
  6
CONTINUOUS
 70
0
 71
3
 72
11
 73
7
 74
5
 42
0.0000001
 43
0.0000001
 44
0.0000000001
 12
-0.0000000231
 22
0.7799271808
 32
0.0
 13
0.7799271808
 23
0.0
 33
0.0
 40
0.0
 40
0.0
 40
0.0
 40
0.0
 40
0.2968306978
 40
0.5687189507
 40
0.8008035037
 40
1.0
 40
1.0
 40
1.0
 40
1.0
 10
81.3909912276
 20
161.2198782482
 30
0.0
 10
81.3909912254
 20
161.2970470246
 30
0.0
 10
81.4091888312
 20
161.445722689
 30
0.0
 10
81.4893112882
 20
161.6408511277
 30
0.0
 10
81.6141029681
 20
161.7814948618
 30
0.0
 10
81.7272480363
 20
161.8198782482
 30
0.0
 10
81.7790342903
 20
161.8198782482
 30
0.0
 11
81.3909912276
 21
161.2198782482
 31
0.0
 11
81.4205303173
 21
161.4494923216
 31
0.0
 11
81.5046494603
 21
161.6441470439
 31
0.0
 11
81.6305399149
 21
161.7742080683
 31
0.0
 11
81.7790342903
 21
161.8198782482
 31
0.0
  0
SPLINE
  5
499
100
AcDbEntity
  8
RUNDUNGEN
100
AcDbSpline
 62
9
  6
CONTINUOUS
 70
0
 71
3
 72
9
 73
5
 74
3
 42
0.0000001
 43
0.0000001
 44
0.0000000001
 12
-0.0000022132
 22
0.7418636799
 32
0.0
 13
0.0346358585
 23
0.7410547057
 33
0.0
 40
0.0
 40
0.0
 40
0.0
 40
0.0
 40
0.4739852591
 40
1.0
 40
1.0
 40
1.0
 40
1.0
 10
100.5947910959
 20
152.9041179141
 30
0.0
 10
100.5947907463
 20
153.0213287303
 30
0.0
 10
100.5991302878
 20
153.2686192646
 30
0.0
 10
100.6091626095
 20
153.5157146056
 30
0.0
 10
100.6152356002
 20
153.6456498386
 30
0.0
 11
100.5947910959
 21
152.9041179141
 31
0.0
 11
100.6001834552
 21
153.2557090138
 31
0.0
 11
100.6152356002
 21
153.6456498386
 31
0.0
  0
SPLINE
  5
49A
100
AcDbEntity
  8
RUNDUNGEN
100
AcDbSpline
 62
9
  6
CONTINUOUS
 70
0
 71
3
 72
11
 73
7
 74
5
 42
0.0000001
 43
0.0000001
 44
0.0000000001
 12
0.1936957887
 22
0.617809713
 32
0.0
 13
0.6391552313
 23
0.1048730137
 33
0.0
 40
0.0
 40
0.0
 40
0.0
 40
0.0
 40
0.289324644
 40
0.5757468811
 40
0.8592369975
 40
1.0
 40
1.0
 40
1.0
 40
1.0
 10
79.1027120567
 20
161.4052884448
 30
0.0
 10
79.1213923784
 20
161.4648709699
 30
0.0
 10
79.1766992452
 20
161.5775611774
 30
0.0
 10
79.3068348602
 20
161.712762606
 30
0.0
 10
79.4439390842
 20
161.7854098077
 30
0.0
 10
79.5332565589
 20
161.8075294984
 30
0.0
 10
79.5632463621
 20
161.8124502451
 30
0.0
 11
79.1027120567
 21
161.4052884448
 31
0.0
 11
79.1850318422
 21
161.5725493996
 31
0.0
 11
79.3132479142
 21
161.7052884448
 31
0.0
 11
79.4748095901
 21
161.790512158
 31
0.0
 11
79.5632463621
 21
161.8124502451
 31
0.0
  0
SPLINE
  5
49B
100
AcDbEntity
  8
RUNDUNGEN
100
AcDbSpline
 62
9
  6
CONTINUOUS
 70
0
 71
3
 72
12
 73
8
 74
6
 42
0.0000001
 43
0.0000001
 44
0.0000000001
 12
0.0
 22
0.9226849389
 32
0.0
 13
0.9226849389
 23
0.0
 33
0.0
 40
0.0
 40
0.0
 40
0.0
 40
0.0
 40
0.2032424509
 40
0.4052921817
 40
0.6053252621
 40
0.803302737
 40
1.0
 40
1.0
 40
1.0
 40
1.0
 10
75.6152356002
 20
161.2198782482
 30
0.0
 10
75.6152356002
 20
161.282387831
 30
0.0
 10
75.6343119195
 20
161.4078696753
 30
0.0
 10
75.717570519
 20
161.5775380122
 30
0.0
 10
75.8477089589
 20
161.7127530942
 30
0.0
 10
76.012003796
 20
161.7998115295
 30
0.0
 10
76.1342945619
 20
161.8198782482
 30
0.0
 10
76.1947910959
 20
161.8198782482
 30
0.0
 11
75.6152356002
 21
161.2198782482
 31
0.0
 11
75.6435893478
 21
161.4052511061
 31
0.0
 11
75.7259026013
 21
161.572523394
 31
0.0
 11
75.8541250108
 21
161.7052794848
 31
0.0
 11
76.0156933444
 21
161.7905103905
 31
0.0
 11
76.1947910959
 21
161.8198782482
 31
0.0
  0
SPLINE
  5
49C
100
AcDbEntity
  8
RUNDUNGEN
100
AcDbSpline
 62
9
  6
CONTINUOUS
 70
0
 71
3
 72
21
 73
17
 74
15
 42
0.0000001
 43
0.0000001
 44
0.0000000001
 12
4.0752208176
 22
-1.801975327
 32
0.0
 13
4.4558433311
 23
0.000000535
 33
0.0
 40
0.0
 40
0.0
 40
0.0
 40
0.0
 40
0.1180060401
 40
0.2326390712
 40
0.3415232976
 40
0.4424964897
 40
0.5336246561
 40
0.6138023204
 40
0.6845176505
 40
0.7471811136
 40
0.8025956347
 40
0.8515940294
 40
0.89502772
 40
0.9337249108
 40
0.968468595
 40
1.0
 40
1.0
 40
1.0
 40
1.0
 10
110.5947910959
 20
151.8198782482
 30
0.0
 10
110.7550913196
 20
151.748996924
 30
0.0
 10
111.0711137492
 20
151.6092686392
 30
0.0
 10
111.5360371562
 20
151.4063864784
 30
0.0
 10
111.9796191029
 20
151.2178897309
 30
0.0
 10
112.3935476599
 20
151.0489706887
 30
0.0
 10
112.7708269899
 20
150.9032566272
 30
0.0
 10
113.1090746625
 20
150.7814651654
 30
0.0
 10
113.4103049782
 20
150.6819782371
 30
0.0
 10
113.6791585237
 20
150.6021330788
 30
0.0
 10
113.9193616485
 20
150.5396041991
 30
0.0
 10
114.133861604
 20
150.4923153785
 30
0.0
 10
114.3256852396
 20
150.4582585009
 30
0.0
 10
114.4978573622
 20
150.435606514
 30
0.0
 10
114.6533056818
 20
150.4227978939
 30
0.0
 10
114.7517579663
 20
150.4198782426
 30
0.0
 10
114.7985909666
 20
150.4198782482
 30
0.0
 11
110.5947910959
 21
151.8198782482
 31
0.0
 11
111.075869252
 21
151.6076361169
 31
0.0
 11
111.544197543
 21
151.4037444922
 31
0.0
 11
111.9908986907
 21
151.2144060746
 31
0.0
 11
112.4076384706
 21
151.0448283212
 31
0.0
 11
112.7865801941
 21
150.8989445554
 31
0.0
 11
113.1228507291
 21
150.7782954804
 31
0.0
 11
113.4221694057
 21
150.6798369037
 31
0.0
 11
113.6899344644
 21
150.6006858745
 31
0.0
 11
113.9289725538
 21
150.5388029185
 31
0.0
 11
114.1422475317
 21
150.4920973472
 31
0.0
 11
114.3328501253
 21
150.4585421349
 31
0.0
 11
114.5038387292
 21
150.4363041889
 31
0.0
 11
114.6581474385
 21
150.4238259862
 31
0.0
 11
114.7985909666
 21
150.4198782482
 31
0.0
  0
SPLINE
  5
49D
100
AcDbEntity
  8
RUNDUNGEN
100
AcDbSpline
 62
9
  6
CONTINUOUS
 70
0
 71
3
 72
21
 73
17
 74
15
 42
0.0000001
 43
0.0000001
 44
0.0000000001
 12
-3.5755883738
 22
2.4880029247
 32
0.0
 13
-4.3560292437
 23
-0.0000087686
 33
0.0
 40
0.0
 40
0.0
 40
0.0
 40
0.0
 40
0.1101387094
 40
0.2235351836
 40
0.3356690862
 40
0.4421643687
 40
0.5390598835
 40
0.6229734814
 40
0.6953041281
 40
0.758272749
 40
0.8129964924
 40
0.8605528609
 40
0.9020262363
 40
0.9384623831
 40
0.9707307147
 40
1.0
 40
1.0
 40
1.0
 40
1.0
 10
85.5947910959
 20
159.8198782482
 30
0.0
 10
85.4635208663
 20
159.9112200586
 30
0.0
 10
85.1971113343
 20
160.0966254583
 30
0.0
 10
84.7956161538
 20
160.3729584401
 30
0.0
 10
84.39546613
 20
160.6418824311
 30
0.0
 10
84.0107353402
 20
160.8906990696
 30
0.0
 10
83.6549531724
 20
161.1086306151
 30
0.0
 10
83.3356650406
 20
161.2908610001
 30
0.0
 10
83.0535422161
 20
161.4384196667
 30
0.0
 10
82.8037356529
 20
161.5558031094
 30
0.0
 10
82.5817392482
 20
161.6471384386
 30
0.0
 10
82.3844899864
 20
161.7157791236
 30
0.0
 10
82.2089303112
 20
161.7649128396
 30
0.0
 10
82.052138174
 20
161.7973883662
 30
0.0
 10
81.9109259666
 20
161.8157004819
 30
0.0
 10
81.8215392154
 20
161.8198783337
 30
0.0
 10
81.7790399279
 20
161.8198782482
 30
0.0
 11
85.5947910959
 21
159.8198782482
 31
0.0
 11
85.2007604444
 21
160.0935872928
 31
0.0
 11
84.7935886334
 21
160.3732406063
 31
0.0
 11
84.3878562912
 21
160.6452204405
 31
0.0
 11
83.9979700237
 21
160.8965941091
 31
0.0
 11
83.6376845354
 21
161.1164705216
 31
0.0
 11
83.3198984774
 21
161.2970924067
 31
0.0
 11
83.040425035
 21
161.4425794514
 31
0.0
 11
82.7919267203
 21
161.558705771
 31
0.0
 11
82.5712694105
 21
161.6488974028
 31
0.0
 11
82.3754542009
 21
161.7165021225
 31
0.0
 11
82.2013560241
 21
161.7647471688
 31
0.0
 11
82.0458544858
 21
161.7965328972
 31
0.0
 11
81.9064133798
 21
161.8142471998
 31
0.0
 11
81.7790399279
 21
161.8198782482
 31
0.0
  0
SPLINE
  5
49E
100
AcDbEntity
  8
RUNDUNGEN
100
AcDbSpline
 62
9
  6
CONTINUOUS
 70
0
 71
3
 72
21
 73
17
 74
15
 42
0.0000001
 43
0.0000001
 44
0.0000000001
 12
-4.3560228921
 22
0.0000092318
 32
0.0
 13
-3.5755878412
 23
-2.4879925696
 33
0.0
 40
0.0
 40
0.0
 40
0.0
 40
0.0
 40
0.029774617
 40
0.0628370666
 40
0.1003286058
 40
0.1430722855
 40
0.1920569408
 40
0.2482904492
 40
0.3127533621
 40
0.3864013721
 40
0.4707426171
 40
0.5658826753
 40
0.6693617515
 40
0.7783386964
 40
0.8896528929
 40
1.0
 40
1.0
 40
1.0
 40
1.0
 10
89.4105419634
 20
161.8198782482
 30
0.0
 10
89.3673089924
 20
161.8198783398
 30
0.0
 10
89.2760341349
 20
161.8155386906
 30
0.0
 10
89.1314655209
 20
161.7964571909
 30
0.0
 10
88.9703525767
 20
161.7624688671
 30
0.0
 10
88.7897789462
 20
161.7110075373
 30
0.0
 10
88.5871349253
 20
161.639271807
 30
0.0
 10
88.3597035966
 20
161.5442354012
 30
0.0
 10
88.1048511612
 20
161.4228451805
 30
0.0
 10
87.819265994
 20
161.271769996
 30
0.0
 10
87.5006834996
 20
161.0883490106
 30
0.0
 10
87.1508156932
 20
160.872853165
 30
0.0
 10
86.7760507596
 20
160.6298355815
 30
0.0
 10
86.3859535004
 20
160.3674476258
 30
0.0
 10
85.9904852541
 20
160.0952438469
 30
0.0
 10
85.7263096874
 20
159.911392509
 30
0.0
 10
85.5947910959
 20
159.8198782482
 30
0.0
 11
89.4105419634
 21
161.8198782482
 31
0.0
 11
89.2809737604
 21
161.8140568363
 31
0.0
 11
89.1381407398
 21
161.7955983564
 31
0.0
 11
88.9782525746
 21
161.762323168
 31
0.0
 11
88.7990547675
 21
161.7117685109
 31
0.0
 11
88.5977291759
 21
161.641069879
 31
0.0
 11
88.3714936803
 21
161.5471540503
 31
0.0
 11
88.1177245852
 21
161.4269418742
 31
0.0
 11
87.8338601654
 21
161.2774708122
 31
0.0
 11
87.5151513551
 21
161.0947090406
 31
0.0
 11
87.1619508372
 21
160.8779061304
 31
0.0
 11
86.7834300285
 21
160.6331530446
 31
0.0
 11
86.3892430558
 21
160.3686488282
 31
0.0
 11
85.9895676265
 21
160.0941035013
 31
0.0
 11
85.5947910959
 21
159.8198782482
 31
0.0
  0
SPLINE
  5
49F
100
AcDbEntity
  8
RUNDUNGEN
100
AcDbSpline
 62
9
  6
CONTINUOUS
 70
0
 71
3
 72
10
 73
6
 74
4
 42
0.0000001
 43
0.0000001
 44
0.0000000001
 12
0.202622504
 22
2.1677106606
 32
0.0
 13
0.0000441412
 23
2.1771599356
 33
0.0
 40
0.0
 40
0.0
 40
0.0
 40
0.0
 40
0.3279761003
 40
0.6636168484
 40
1.0
 40
1.0
 40
1.0
 40
1.0
 10
50.6152356002
 20
153.6456498386
 30
0.0
 10
50.6373873797
 20
153.8826356016
 30
0.0
 10
50.6741068343
 20
154.3629350579
 30
0.0
 10
50.7067213616
 20
155.0880239822
 30
0.0
 10
50.7139454495
 20
155.5757582746
 30
0.0
 10
50.7139503989
 20
155.8198782482
 30
0.0
 11
50.6152356002
 21
153.6456498386
 31
0.0
 11
50.6700003146
 21
154.3576030708
 31
0.0
 11
50.7030318467
 21
155.0875997227
 31
0.0
 11
50.7139503989
 21
155.8198782482
 31
0.0
  0
SPLINE
  5
4A0
100
AcDbEntity
  8
RUNDUNGEN
100
AcDbSpline
 62
9
  6
CONTINUOUS
 70
0
 71
3
 72
10
 73
6
 74
4
 42
0.0000001
 43
0.0000001
 44
0.0000000001
 12
-0.000038683
 22
2.1771599172
 32
0.0
 13
-0.2026257418
 23
2.1677103394
 33
0.0
 40
0.0
 40
0.0
 40
0.0
 40
0.0
 40
0.3362753844
 40
0.6717149
 40
1.0
 40
1.0
 40
1.0
 40
1.0
 10
50.7139503989
 20
155.8198782482
 30
0.0
 10
50.7139460629
 20
156.0639200108
 30
0.0
 10
50.7067260443
 20
156.5514300243
 30
0.0
 10
50.6741261427
 20
157.2765193688
 30
0.0
 10
50.6374086041
 20
157.756897656
 30
0.0
 10
50.6152356002
 20
157.9941066578
 30
0.0
 11
50.7139503989
 21
155.8198782482
 31
0.0
 11
50.7030384665
 21
156.5519222135
 31
0.0
 11
50.67004115
 21
157.2814818437
 31
0.0
 11
50.6152356002
 21
157.9941066578
 31
0.0
  0
SPLINE
  5
4A1
100
AcDbEntity
  8
RUNDUNGEN
100
AcDbSpline
 62
9
  6
CONTINUOUS
 70
0
 71
3
 72
21
 73
17
 74
15
 42
0.0000001
 43
0.0000001
 44
0.0000000001
 12
4.3560346244
 22
0.0000079573
 32
0.0
 13
3.5756333718
 23
2.4879476762
 33
0.0
 40
0.0
 40
0.0
 40
0.0
 40
0.0
 40
0.029738581
 40
0.06279522
 40
0.0999943497
 40
0.1422104259
 40
0.1903702085
 40
0.2454254952
 40
0.3083056082
 40
0.3799130829
 40
0.4612988376
 40
0.5531542353
 40
0.6545304544
 40
0.7639978481
 40
0.8798212954
 40
1.0
 40
1.0
 40
1.0
 40
1.0
 10
81.7790342903
 20
149.8198782482
 30
0.0
 10
81.8222150531
 20
149.8198783271
 30
0.0
 10
81.9134292871
 20
149.8242091902
 30
0.0
 10
82.057518663
 20
149.8432134265
 30
0.0
 10
82.217468915
 20
149.8768898933
 30
0.0
 10
82.3957913035
 20
149.9275227749
 30
0.0
 10
82.595079468
 20
149.9977137077
 30
0.0
 10
82.8179047619
 20
150.0902568002
 30
0.0
 10
83.0667722547
 20
150.2079894569
 30
0.0
 10
83.3443449324
 20
150.3537742896
 30
0.0
 10
83.6530721185
 20
150.5302075518
 30
0.0
 10
83.993294979
 20
150.7382597245
 30
0.0
 10
84.3627547415
 20
150.9763915336
 30
0.0
 10
84.7568421579
 20
151.2403888552
 30
0.0
 10
85.1702876627
 20
151.5244616397
 30
0.0
 10
85.451552767
 20
151.7202121386
 30
0.0
 10
85.5947910959
 20
151.8198782482
 30
0.0
 11
81.7790342903
 21
149.8198782482
 31
0.0
 11
81.9084463392
 21
149.8256856647
 31
0.0
 11
82.0512564156
 21
149.8441272202
 31
0.0
 11
82.2099098284
 21
149.8770860134
 31
0.0
 11
82.3869418078
 21
149.9268548308
 31
0.0
 11
82.5849837725
 21
149.9960604081
 31
0.0
 11
82.806673223
 21
150.087541181
 31
0.0
 11
83.0545143895
 21
150.2041615956
 31
0.0
 11
83.3309366029
 21
150.3486875114
 31
0.0
 11
83.6390302086
 21
150.5240789843
 31
0.0
 11
83.9806985712
 21
150.7323167808
 31
0.0
 11
84.3521886988
 21
150.9710722242
 31
0.0
 11
84.748662358
 21
151.2360035479
 31
0.0
 11
85.1647927363
 21
151.5212875898
 31
0.0
 11
85.5947910959
 21
151.8198782482
 31
0.0
  0
SPLINE
  5
4A2
100
AcDbEntity
  8
RUNDUNGEN
100
AcDbSpline
 62
9
  6
CONTINUOUS
 70
0
 71
3
 72
11
 73
7
 74
5
 42
0.0000001
 43
0.0000001
 44
0.0000000001
 12
0.0000000228
 22
-0.7799271804
 32
0.0
 13
-0.7799271804
 23
0.0
 33
0.0
 40
0.0
 40
0.0
 40
0.0
 40
0.0
 40
0.2968306703
 40
0.5687189135
 40
0.8008034783
 40
1.0
 40
1.0
 40
1.0
 40
1.0
 10
114.7985909643
 20
150.4198782482
 30
0.0
 10
114.7985909665
 20
150.3427094789
 30
0.0
 10
114.7803933636
 20
150.1940338246
 30
0.0
 10
114.7002709157
 20
149.9989053901
 30
0.0
 10
114.5754792399
 20
149.8582616433
 30
0.0
 10
114.4623341621
 20
149.8198782482
 30
0.0
 10
114.4105479016
 20
149.8198782482
 30
0.0
 11
114.7985909643
 21
150.4198782482
 31
0.0
 11
114.7690518803
 21
150.1902641958
 31
0.0
 11
114.6849327476
 21
149.9956094773
 31
0.0
 11
114.5590422943
 21
149.8655484392
 31
0.0
 11
114.4105479016
 21
149.8198782482
 31
0.0
  0
SPLINE
  5
4A3
100
AcDbEntity
  8
RUNDUNGEN
100
AcDbSpline
 62
9
  6
CONTINUOUS
 70
0
 71
3
 72
21
 73
17
 74
15
 42
0.0000001
 43
0.0000001
 44
0.0000000001
 12
3.57564006
 22
-2.4879479049
 32
0.0
 13
4.356040245
 23
-0.000007448
 33
0.0
 40
0.0
 40
0.0
 40
0.0
 40
0.0
 40
0.1220393509
 40
0.2403376401
 40
0.35222957
 40
0.4553502102
 40
0.5476762533
 40
0.628145574
 40
0.6983794911
 40
0.7599180156
 40
0.8137035514
 40
0.8607104156
 40
0.9019236883
 40
0.9382923078
 40
0.9707059526
 40
1.0
 40
1.0
 40
1.0
 40
1.0
 10
85.5947910959
 20
151.8198782482
 30
0.0
 10
85.7402473599
 20
151.7186690658
 30
0.0
 10
86.0266796232
 20
151.5193219574
 30
0.0
 10
86.4482754791
 20
151.2297761426
 30
0.0
 10
86.850571249
 20
150.9606944389
 30
0.0
 10
87.2260671845
 20
150.7194861489
 30
0.0
 10
87.5684337049
 20
150.5113187736
 30
0.0
 10
87.8754734561
 20
150.3372556378
 30
0.0
 10
88.1489559829
 20
150.1950274593
 30
0.0
 10
88.393094887
 20
150.0808373179
 30
0.0
 10
88.6112749164
 20
149.9913715196
 30
0.0
 10
88.8061631121
 20
149.9236776887
 30
0.0
 10
88.9804977385
 20
149.8748997812
 30
0.0
 10
89.1370214655
 20
149.8424377668
 30
0.0
 10
89.2783785571
 20
149.8240706544
 30
0.0
 10
89.3680125519
 20
149.8198783209
 30
0.0
 10
89.4105479016
 20
149.8198782482
 30
0.0
 11
85.5947910959
 21
151.8198782482
 31
0.0
 11
86.0314569436
 21
151.5166780709
 31
0.0
 11
86.4565534827
 21
151.2254058583
 31
0.0
 11
86.8620195553
 21
150.9549217946
 31
0.0
 11
87.2402932094
 21
150.7126665999
 31
0.0
 11
87.5842583484
 21
150.5042595809
 31
0.0
 11
87.8894856333
 21
150.3319055769
 31
0.0
 11
88.1611770423
 21
150.1912494554
 31
0.0
 11
88.4042262374
 21
150.0781762404
 31
0.0
 11
88.6211995109
 21
149.9897719395
 31
0.0
 11
88.8147875662
 21
149.9230495633
 31
0.0
 11
88.9877960828
 21
149.8751133551
 31
0.0
 11
89.1430012328
 21
149.8433444674
 31
0.0
 11
89.2830665534
 21
149.825518253
 31
0.0
 11
89.4105479016
 21
149.8198782482
 31
0.0
  0
SPLINE
  5
4A4
100
AcDbEntity
  8
RUNDUNGEN
100
AcDbSpline
 62
9
  6
CONTINUOUS
 70
0
 71
3
 72
9
 73
5
 74
3
 42
0.0000001
 43
0.0000001
 44
0.0000000001
 12
-0.0690824622
 22
0.6720365962
 32
0.0
 13
0.0000140213
 23
0.6755779548
 33
0.0
 40
0.0
 40
0.0
 40
0.0
 40
0.0
 40
0.5257446632
 40
1.0
 40
1.0
 40
1.0
 40
1.0
 10
50.0356801044
 20
157.7964495297
 30
0.0
 10
50.0235735258
 20
157.9142227476
 30
0.0
 10
50.0035005986
 20
158.1385665178
 30
0.0
 10
49.9947888794
 20
158.3637706441
 30
0.0
 10
49.9947910959
 20
158.470569461
 30
0.0
 11
50.0356801044
 21
157.7964495297
 31
0.0
 11
50.0056073797
 21
158.1503556362
 31
0.0
 11
49.9947910959
 21
158.470569461
 31
0.0
  0
SPLINE
  5
4A5
100
AcDbEntity
  8
RUNDUNGEN
100
AcDbSpline
 62
9
  6
CONTINUOUS
 70
0
 71
3
 72
10
 73
6
 74
4
 42
0.0000001
 43
0.0000001
 44
0.0000000001
 12
-0.0000291879
 22
1.9797951278
 32
0.0
 13
-0.2025097122
 23
1.9694107152
 33
0.0
 40
0.0
 40
0.0
 40
0.0
 40
0.0
 40
0.3362169753
 40
0.6712701592
 40
1.0
 40
1.0
 40
1.0
 40
1.0
 10
50.1343949032
 20
155.8198782482
 30
0.0
 10
50.134391632
 20
156.0417584914
 30
0.0
 10
50.1271715136
 20
156.4847873929
 30
0.0
 10
50.0945750184
 20
157.1440252897
 30
0.0
 10
50.0578704329
 20
157.5806481727
 30
0.0
 10
50.0356801044
 20
157.7964495297
 30
0.0
 11
50.1343949032
 21
155.8198782482
 31
0.0
 11
50.123481042
 21
156.4854294998
 31
0.0
 11
50.0905298929
 21
157.1479472338
 31
0.0
 11
50.0356801044
 21
157.7964495297
 31
0.0
  0
SPLINE
  5
4A6
100
AcDbEntity
  8
RUNDUNGEN
100
AcDbSpline
 62
9
  6
CONTINUOUS
 70
0
 71
3
 72
11
 73
7
 74
5
 42
0.0000001
 43
0.0000001
 44
0.0000000001
 12
-0.1936957887
 22
-0.617809713
 32
0.0
 13
-0.6391552313
 23
-0.1048730137
 33
0.0
 40
0.0
 40
0.0
 40
0.0
 40
0.0
 40
0.289324644
 40
0.5757468811
 40
0.8592369975
 40
1.0
 40
1.0
 40
1.0
 40
1.0
 10
117.0868701352
 20
150.2344680516
 30
0.0
 10
117.0681898135
 20
150.1748855265
 30
0.0
 10
117.0128829467
 20
150.062195319
 30
0.0
 10
116.8827473317
 20
149.9269938904
 30
0.0
 10
116.7456431077
 20
149.8543466886
 30
0.0
 10
116.656325633
 20
149.832226998
 30
0.0
 10
116.6263358298
 20
149.8273062512
 30
0.0
 11
117.0868701352
 21
150.2344680516
 31
0.0
 11
117.0045503497
 21
150.0672070968
 31
0.0
 11
116.8763342777
 21
149.9344680516
 31
0.0
 11
116.7147726018
 21
149.8492443384
 31
0.0
 11
116.6263358298
 21
149.8273062512
 31
0.0
  0
SPLINE
  5
4A7
100
AcDbEntity
  8
RUNDUNGEN
100
AcDbSpline
 62
9
  6
CONTINUOUS
 70
0
 71
3
 72
10
 73
6
 74
4
 42
0.0000001
 43
0.0000001
 44
0.0000000001
 12
0.2025073944
 22
1.9694109757
 32
0.0
 13
0.0000330438
 23
1.9797951497
 33
0.0
 40
0.0
 40
0.0
 40
0.0
 40
0.0
 40
0.3284114562
 40
0.6635615962
 40
1.0
 40
1.0
 40
1.0
 40
1.0
 10
50.0356801044
 20
153.8433069667
 30
0.0
 10
50.0578486872
 20
154.0588993422
 30
0.0
 10
50.0945490002
 20
154.4953756589
 30
0.0
 10
50.1271642322
 20
155.1546127822
 30
0.0
 10
50.1343911974
 20
155.5978518748
 30
0.0
 10
50.1343949032
 20
155.8198782482
 30
0.0
 11
50.0356801044
 21
153.8433069667
 31
0.0
 11
50.0904878439
 21
154.4911802394
 31
0.0
 11
50.123467016
 21
155.1538887771
 31
0.0
 11
50.1343949032
 21
155.8198782482
 31
0.0
  0
SPLINE
  5
4A8
100
AcDbEntity
  8
RUNDUNGEN
100
AcDbSpline
 62
9
  6
CONTINUOUS
 70
0
 71
3
 72
9
 73
5
 74
3
 42
0.0000001
 43
0.0000001
 44
0.0000000001
 12
-0.0000102693
 22
0.6755780762
 32
0.0
 13
0.0690824483
 23
0.6720367196
 33
0.0
 40
0.0
 40
0.0
 40
0.0
 40
0.0
 40
0.4733454482
 40
1.0
 40
1.0
 40
1.0
 40
1.0
 10
49.9947910959
 20
153.1691870354
 30
0.0
 10
49.9947894756
 20
153.2757809712
 30
0.0
 10
50.0034833391
 20
153.5009851874
 30
0.0
 10
50.0235525758
 20
153.7253299009
 30
0.0
 10
50.0356801044
 20
153.8433069667
 30
0.0
 11
49.9947910959
 21
153.1691870354
 31
0.0
 11
50.0055685967
 21
153.4887871759
 31
0.0
 11
50.0356801044
 21
153.8433069667
 31
0.0
  0
SPLINE
  5
4A9
100
AcDbEntity
  8
RUNDUNGEN
100
AcDbSpline
 62
9
  6
CONTINUOUS
 70
0
 71
3
 72
12
 73
8
 74
6
 42
0.0000001
 43
0.0000001
 44
0.0000000001
 12
0.0
 22
-0.9226849389
 32
0.0
 13
-0.9226849389
 23
0.0
 33
0.0
 40
0.0
 40
0.0
 40
0.0
 40
0.0
 40
0.2032424509
 40
0.4052921817
 40
0.6053252621
 40
0.803302737
 40
1.0
 40
1.0
 40
1.0
 40
1.0
 10
120.5743465917
 20
150.4198782482
 30
0.0
 10
120.5743465917
 20
150.3573686654
 30
0.0
 10
120.5552702724
 20
150.2318868211
 30
0.0
 10
120.4720116729
 20
150.0622184842
 30
0.0
 10
120.341873233
 20
149.9270034021
 30
0.0
 10
120.1775783958
 20
149.8399449669
 30
0.0
 10
120.05528763
 20
149.8198782482
 30
0.0
 10
119.9947910959
 20
149.8198782482
 30
0.0
 11
120.5743465917
 21
150.4198782482
 31
0.0
 11
120.5459928441
 21
150.2345053903
 31
0.0
 11
120.4636795905
 21
150.0672331024
 31
0.0
 11
120.3354571811
 21
149.9344770115
 31
0.0
 11
120.1738888475
 21
149.8492461058
 31
0.0
 11
119.9947910959
 21
149.8198782482
 31
0.0
  0
SPLINE
  5
4AA
100
AcDbEntity
  8
RUNDUNGEN
100
AcDbSpline
 62
9
  6
CONTINUOUS
 70
0
 71
3
 72
12
 73
8
 74
6
 42
0.0000001
 43
0.0000001
 44
0.0000000001
 12
0.0
 22
-0.9226849389
 32
0.0
 13
0.9226849389
 23
0.0
 33
0.0
 40
0.0
 40
0.0
 40
0.0
 40
0.0
 40
0.2032425192
 40
0.405292198
 40
0.605325203
 40
0.8033026552
 40
1.0
 40
1.0
 40
1.0
 40
1.0
 10
100.6152356002
 20
150.4198782482
 30
0.0
 10
100.6152356002
 20
150.3573686444
 30
0.0
 10
100.634311927
 20
150.2318867942
 30
0.0
 10
100.7175705288
 20
150.062218481
 30
0.0
 10
100.84770893
 20
149.9270034302
 30
0.0
 10
101.0120037516
 20
149.8399449787
 30
0.0
 10
101.1342945368
 20
149.8198782482
 30
0.0
 10
101.1947910959
 20
149.8198782482
 30
0.0
 11
100.6152356002
 21
150.4198782482
 31
0.0
 11
100.6435893669
 21
150.2345053294
 31
0.0
 11
100.7259026101
 21
150.06723309
 31
0.0
 11
100.8541249666
 21
149.9344770448
 31
0.0
 11
101.0156932719
 21
149.8492461302
 31
0.0
 11
101.1947910959
 21
149.8198782482
 31
0.0
  0
SPLINE
  5
4AB
100
AcDbEntity
  8
RUNDUNGEN
100
AcDbSpline
 62
9
  6
CONTINUOUS
 70
0
 71
3
 72
21
 73
17
 74
15
 42
0.0000001
 43
0.0000001
 44
0.0000000001
 12
-3.5755883738
 22
2.4880029247
 32
0.0
 13
-4.3560292437
 23
-0.0000087686
 33
0.0
 40
0.0
 40
0.0
 40
0.0
 40
0.0
 40
0.1101387088
 40
0.2235351828
 40
0.3356690852
 40
0.4421643677
 40
0.5390598826
 40
0.6229734806
 40
0.6953041273
 40
0.7582727484
 40
0.8129964918
 40
0.8605528605
 40
0.902026236
 40
0.9384623829
 40
0.9707307146
 40
1.0
 40
1.0
 40
1.0
 40
1.0
 10
110.5947910959
 20
159.8198782482
 30
0.0
 10
110.463520867
 20
159.9112200581
 30
0.0
 10
110.197111336
 20
160.0966254571
 30
0.0
 10
109.7956161568
 20
160.372958438
 30
0.0
 10
109.3954661336
 20
160.6418824287
 30
0.0
 10
109.010735344
 20
160.8906990672
 30
0.0
 10
108.6549531759
 20
161.108630613
 30
0.0
 10
108.3356650438
 20
161.2908609983
 30
0.0
 10
108.0535422191
 20
161.4384196652
 30
0.0
 10
107.8037356555
 20
161.5558031082
 30
0.0
 10
107.5817392504
 20
161.6471384377
 30
0.0
 10
107.3844899882
 20
161.7157791231
 30
0.0
 10
107.2089303126
 20
161.7649128392
 30
0.0
 10
107.0521381751
 20
161.797388366
 30
0.0
 10
106.9109259671
 20
161.8157004818
 30
0.0
 10
106.8215392156
 20
161.8198783337
 30
0.0
 10
106.7790399279
 20
161.8198782482
 30
0.0
 11
110.5947910959
 21
159.8198782482
 31
0.0
 11
110.2007604464
 21
160.0935872914
 31
0.0
 11
109.7935886366
 21
160.3732406041
 31
0.0
 11
109.387856295
 21
160.645220438
 31
0.0
 11
108.9979700276
 21
160.8965941067
 31
0.0
 11
108.637684539
 21
161.1164705195
 31
0.0
 11
108.3198984806
 21
161.297092405
 31
0.0
 11
108.040425038
 21
161.44257945
 31
0.0
 11
107.7919267229
 21
161.5587057698
 31
0.0
 11
107.5712694128
 21
161.6488974019
 31
0.0
 11
107.3754542027
 21
161.7165021219
 31
0.0
 11
107.2013560256
 21
161.7647471685
 31
0.0
 11
107.0458544868
 21
161.7965328971
 31
0.0
 11
106.9064133804
 21
161.8142471997
 31
0.0
 11
106.7790399279
 21
161.8198782482
 31
0.0
  0
SPLINE
  5
4AC
100
AcDbEntity
  8
RUNDUNGEN
100
AcDbSpline
 62
9
  6
CONTINUOUS
 70
0
 71
3
 72
11
 73
7
 74
5
 42
0.0000001
 43
0.0000001
 44
0.0000000001
 12
0.1936957816
 22
-0.6178097359
 32
0.0
 13
0.6391552519
 23
-0.1048730087
 33
0.0
 40
0.0
 40
0.0
 40
0.0
 40
0.0
 40
0.2893246407
 40
0.5757468864
 40
0.8592370059
 40
1.0
 40
1.0
 40
1.0
 40
1.0
 10
104.1027120528
 20
150.2344680639
 30
0.0
 10
104.1213923736
 20
150.1748855373
 30
0.0
 10
104.1766992406
 20
150.0621953243
 30
0.0
 10
104.3068348603
 20
149.926993889
 30
0.0
 10
104.4439390901
 20
149.854346686
 30
0.0
 10
104.5332565668
 20
149.8322269963
 30
0.0
 10
104.5632463691
 20
149.8273062501
 30
0.0
 11
104.1027120528
 21
150.2344680639
 31
0.0
 11
104.1850318369
 21
150.0672071045
 31
0.0
 11
104.3132479158
 21
149.9344680503
 31
0.0
 11
104.4748095994
 21
149.8492443353
 31
0.0
 11
104.5632463691
 21
149.8273062501
 31
0.0
  0
SPLINE
  5
4AD
100
AcDbEntity
  8
RUNDUNGEN
100
AcDbSpline
 62
9
  6
CONTINUOUS
 70
0
 71
3
 72
21
 73
17
 74
15
 42
0.0000001
 43
0.0000001
 44
0.0000000001
 12
-4.3560228921
 22
0.0000092318
 32
0.0
 13
-3.5755878412
 23
-2.4879925696
 33
0.0
 40
0.0
 40
0.0
 40
0.0
 40
0.0
 40
0.0297746171
 40
0.0628370668
 40
0.1003286061
 40
0.1430722859
 40
0.1920569413
 40
0.2482904497
 40
0.3127533627
 40
0.3864013728
 40
0.4707426179
 40
0.5658826762
 40
0.6693617524
 40
0.7783386973
 40
0.8896528935
 40
1.0
 40
1.0
 40
1.0
 40
1.0
 10
114.4105419634
 20
161.8198782482
 30
0.0
 10
114.3673089922
 20
161.8198783398
 30
0.0
 10
114.2760341344
 20
161.8155386906
 30
0.0
 10
114.13146552
 20
161.7964571908
 30
0.0
 10
113.9703525755
 20
161.7624688668
 30
0.0
 10
113.7897789447
 20
161.7110075369
 30
0.0
 10
113.5871349235
 20
161.6392718063
 30
0.0
 10
113.3597035946
 20
161.5442354003
 30
0.0
 10
113.1048511589
 20
161.4228451793
 30
0.0
 10
112.8192659914
 20
161.2717699945
 30
0.0
 10
112.5006834966
 20
161.0883490088
 30
0.0
 10
112.1508156899
 20
160.872853163
 30
0.0
 10
111.7760507564
 20
160.6298355793
 30
0.0
 10
111.3859534976
 20
160.3674476239
 30
0.0
 10
110.9904852525
 20
160.0952438457
 30
0.0
 10
110.7263096867
 20
159.9113925086
 30
0.0
 10
110.5947910959
 20
159.8198782482
 30
0.0
 11
114.4105419634
 21
161.8198782482
 31
0.0
 11
114.2809737599
 21
161.8140568362
 31
0.0
 11
114.1381407389
 21
161.7955983562
 31
0.0
 11
113.9782525734
 21
161.7623231677
 31
0.0
 11
113.799054766
 21
161.7117685104
 31
0.0
 11
113.5977291741
 21
161.6410698783
 31
0.0
 11
113.3714936782
 21
161.5471540493
 31
0.0
 11
113.1177245829
 21
161.4269418731
 31
0.0
 11
112.8338601628
 21
161.2774708108
 31
0.0
 11
112.5151513521
 21
161.0947090388
 31
0.0
 11
112.1619508338
 21
160.8779061283
 31
0.0
 11
111.7834300251
 21
160.6331530423
 31
0.0
 11
111.3892430527
 21
160.3686488261
 31
0.0
 11
110.9895676245
 21
160.0941034999
 31
0.0
 11
110.5947910959
 21
159.8198782482
 31
0.0
  0
SPLINE
  5
4AE
100
AcDbEntity
  8
RUNDUNGEN
100
AcDbSpline
 62
9
  6
CONTINUOUS
 70
0
 71
3
 72
21
 73
17
 74
15
 42
0.0000001
 43
0.0000001
 44
0.0000000001
 12
3.57564006
 22
-2.4879479049
 32
0.0
 13
4.356040245
 23
-0.000007448
 33
0.0
 40
0.0
 40
0.0
 40
0.0
 40
0.0
 40
0.1220393499
 40
0.2403376386
 40
0.3522295684
 40
0.4553502088
 40
0.5476762522
 40
0.6281455731
 40
0.6983794903
 40
0.7599180149
 40
0.8137035509
 40
0.8607104152
 40
0.901923688
 40
0.9382923076
 40
0.9707059525
 40
1.0
 40
1.0
 40
1.0
 40
1.0
 10
110.5947910959
 20
151.8198782482
 30
0.0
 10
110.7402473587
 20
151.7186690666
 30
0.0
 10
111.0266796203
 20
151.5193219595
 30
0.0
 10
111.4482754742
 20
151.2297761459
 30
0.0
 10
111.8505712436
 20
150.9606944425
 30
0.0
 10
112.2260671794
 20
150.719486152
 30
0.0
 10
112.5684337005
 20
150.5113187762
 30
0.0
 10
112.8754734524
 20
150.3372556398
 30
0.0
 10
113.1489559797
 20
150.1950274609
 30
0.0
 10
113.3930948843
 20
150.0808373191
 30
0.0
 10
113.6112749141
 20
149.9913715204
 30
0.0
 10
113.8061631102
 20
149.9236776892
 30
0.0
 10
113.9804977371
 20
149.8748997815
 30
0.0
 10
114.1370214646
 20
149.8424377669
 30
0.0
 10
114.2783785566
 20
149.8240706544
 30
0.0
 10
114.3680125517
 20
149.8198783209
 30
0.0
 10
114.4105479016
 20
149.8198782482
 30
0.0
 11
110.5947910959
 21
151.8198782482
 31
0.0
 11
111.03145694
 21
151.5166780734
 31
0.0
 11
111.4565534774
 21
151.2254058619
 31
0.0
 11
111.8620195496
 21
150.9549217983
 31
0.0
 11
112.2402932042
 21
150.7126666031
 31
0.0
 11
112.5842583441
 21
150.5042595834
 31
0.0
 11
112.8894856296
 21
150.3319055789
 31
0.0
 11
113.1611770391
 21
150.1912494569
 31
0.0
 11
113.4042262347
 21
150.0781762416
 31
0.0
 11
113.6211995086
 21
149.9897719403
 31
0.0
 11
113.8147875644
 21
149.9230495638
 31
0.0
 11
113.9877960814
 21
149.8751133554
 31
0.0
 11
114.1430012318
 21
149.8433444676
 31
0.0
 11
114.2830665529
 21
149.8255182531
 31
0.0
 11
114.4105479016
 21
149.8198782482
 31
0.0
  0
SPLINE
  5
4AF
100
AcDbEntity
  8
RUNDUNGEN
100
AcDbSpline
 62
9
  6
CONTINUOUS
 70
0
 71
3
 72
9
 73
5
 74
3
 42
0.0000001
 43
0.0000001
 44
0.0000000001
 12
0.000003542
 22
-0.7418636275
 32
0.0
 13
-0.0346356852
 23
-0.7410546614
 33
0.0
 40
0.0
 40
0.0
 40
0.0
 40
0.0
 40
0.4759999691
 40
1.0
 40
1.0
 40
1.0
 40
1.0
 10
120.5947910959
 20
158.7356385823
 30
0.0
 10
120.5947916579
 20
158.617929561
 30
0.0
 10
120.5904338984
 20
158.3706390509
 30
0.0
 10
120.5803962918
 20
158.123544213
 30
0.0
 10
120.5743465917
 20
157.9941066578
 30
0.0
 11
120.5947910959
 21
158.7356385823
 31
0.0
 11
120.5893561543
 21
158.3825533453
 31
0.0
 11
120.5743465917
 21
157.9941066578
 31
0.0
  0
SPLINE
  5
4B0
100
AcDbEntity
  8
RUNDUNGEN
100
AcDbSpline
 62
9
  6
CONTINUOUS
 70
0
 71
3
 72
9
 73
5
 74
3
 42
0.0000001
 43
0.0000001
 44
0.0000000001
 12
0.0346358904
 22
-0.74105471
 32
0.0
 13
-0.0000021582
 23
-0.7418636857
 33
0.0
 40
0.0
 40
0.0
 40
0.0
 40
0.0
 40
0.5262404417
 40
1.0
 40
1.0
 40
1.0
 40
1.0
 10
120.5743465917
 20
153.6456498386
 30
0.0
 10
120.5804221938
 20
153.5156588526
 30
0.0
 10
120.5904539106
 20
153.268563455
 30
0.0
 10
120.5947914368
 20
153.0212729181
 30
0.0
 10
120.5947910959
 20
152.9041179141
 30
0.0
 11
120.5743465917
 21
153.6456498386
 31
0.0
 11
120.5894034974
 21
153.2555416305
 31
0.0
 11
120.5947910959
 21
152.9041179141
 31
0.0
  0
SPLINE
  5
4B1
100
AcDbEntity
  8
RUNDUNGEN
100
AcDbSpline
 62
9
  6
CONTINUOUS
 70
0
 71
3
 72
9
 73
5
 74
3
 42
0.0000001
 43
0.0000001
 44
0.0000000001
 12
-0.0346357895
 22
0.741054685
 32
0.0
 13
0.0000032467
 23
0.741863656
 33
0.0
 40
0.0
 40
0.0
 40
0.0
 40
0.0
 40
0.525087764
 40
1.0
 40
1.0
 40
1.0
 40
1.0
 10
100.6152356002
 20
157.9941066578
 30
0.0
 10
100.6091733238
 20
158.123812907
 30
0.0
 10
100.5991386109
 20
158.3709080165
 30
0.0
 10
100.594790582
 20
158.6181985397
 30
0.0
 10
100.5947910959
 20
158.7356385823
 30
0.0
 11
100.6152356002
 21
157.9941066578
 31
0.0
 11
100.6002030302
 21
158.383360023
 31
0.0
 11
100.5947910959
 21
158.7356385823
 31
0.0
  0
SPLINE
  5
4B2
100
AcDbEntity
  8
RUNDUNGEN
100
AcDbSpline
 62
9
  6
CONTINUOUS
 70
0
 71
3
 72
11
 73
7
 74
5
 42
0.0000001
 43
0.0000001
 44
0.0000000001
 12
-0.0000000235
 22
-0.7799271078
 32
0.0
 13
0.7799271078
 23
0.0
 33
0.0
 40
0.0
 40
0.0
 40
0.0
 40
0.0
 40
0.2968254628
 40
0.5687119006
 40
0.8007986893
 40
1.0
 40
1.0
 40
1.0
 40
1.0
 10
106.3909912276
 20
150.4198782482
 30
0.0
 10
106.3909912253
 20
150.3427108399
 30
0.0
 10
106.4091882812
 20
150.1940370614
 30
0.0
 10
106.4893089867
 20
149.9989094091
 30
0.0
 10
106.61409992
 20
149.8582632966
 30
0.0
 10
106.7272467896
 20
149.8198782482
 30
0.0
 10
106.7790342903
 20
149.8198782482
 30
0.0
 11
106.3909912276
 21
150.4198782482
 31
0.0
 11
106.4205292451
 21
150.1902681753
 31
0.0
 11
106.5046464124
 21
149.9956141629
 31
0.0
 11
106.6305366453
 21
149.865550521
 31
0.0
 11
106.7790342903
 21
149.8198782482
 31
0.0
  0
SPLINE
  5
4B3
100
AcDbEntity
  8
RUNDUNGEN
100
AcDbSpline
 62
9
  6
CONTINUOUS
 70
0
 71
3
 72
9
 73
5
 74
3
 42
0.0000001
 43
0.0000001
 44
0.0000000001
 12
0.0346358551
 22
-0.741054713
 32
0.0
 13
-0.0000020749
 23
-0.741863687
 33
0.0
 40
0.0
 40
0.0
 40
0.0
 40
0.0
 40
0.5262899474
 40
1.0
 40
1.0
 40
1.0
 40
1.0
 10
95.5743465917
 20
153.6456498386
 30
0.0
 10
95.5804227592
 20
153.5156466233
 30
0.0
 10
95.5904543627
 20
153.2685512139
 30
0.0
 10
95.5947914236
 20
153.0212606762
 30
0.0
 10
95.5947910959
 20
152.9041179141
 30
0.0
 11
95.5743465917
 21
153.6456498386
 31
0.0
 11
95.5894045426
 21
153.2555049164
 31
0.0
 11
95.5947910959
 21
152.9041179141
 31
0.0
  0
SPLINE
  5
4B4
100
AcDbEntity
  8
RUNDUNGEN
100
AcDbSpline
 62
9
  6
CONTINUOUS
 70
0
 71
3
 72
9
 73
5
 74
3
 42
0.0000001
 43
0.0000001
 44
0.0000000001
 12
-0.0346357559
 22
0.7410546881
 32
0.0
 13
0.0000031703
 23
0.7418636575
 33
0.0
 40
0.0
 40
0.0
 40
0.0
 40
0.0
 40
0.525143543
 40
1.0
 40
1.0
 40
1.0
 40
1.0
 10
75.6152356002
 20
157.9941066578
 30
0.0
 10
75.6091726857
 20
158.123826686
 30
0.0
 10
75.5991381038
 20
158.3709218088
 30
0.0
 10
75.5947905941
 20
158.6182123329
 30
0.0
 10
75.5947910959
 20
158.7356385823
 30
0.0
 11
75.6152356002
 21
157.9941066578
 31
0.0
 11
75.6002018505
 21
158.3834013895
 31
0.0
 11
75.5947910959
 21
158.7356385823
 31
0.0
  0
SPLINE
  5
4B5
100
AcDbEntity
  8
RUNDUNGEN
100
AcDbSpline
 62
9
  6
CONTINUOUS
 70
0
 71
3
 72
9
 73
5
 74
3
 42
0.0000001
 43
0.0000001
 44
0.0000000001
 12
-0.0000021326
 22
0.7418636809
 32
0.0
 13
0.0346358216
 23
0.7410547084
 33
0.0
 40
0.0
 40
0.0
 40
0.0
 40
0.0
 40
0.473948317
 40
1.0
 40
1.0
 40
1.0
 40
1.0
 10
75.5947910959
 20
152.9041179141
 30
0.0
 10
75.594790759
 20
153.0213195951
 30
0.0
 10
75.5991299475
 20
153.2686101301
 30
0.0
 10
75.6091621894
 20
153.5157054797
 30
0.0
 10
75.6152356002
 20
153.6456498386
 30
0.0
 11
75.5947910959
 21
152.9041179141
 31
0.0
 11
75.6001826747
 21
153.2556816169
 31
0.0
 11
75.6152356002
 21
153.6456498386
 31
0.0
  0
SPLINE
  5
4B6
100
AcDbEntity
  8
RUNDUNGEN
100
AcDbSpline
 62
9
  6
CONTINUOUS
 70
0
 71
3
 72
10
 73
6
 74
4
 42
0.0000001
 43
0.0000001
 44
0.0000000001
 12
-0.2025098328
 22
-1.9694107082
 32
0.0
 13
-0.000029209
 23
-1.9797951332
 33
0.0
 40
0.0
 40
0.0
 40
0.0
 40
0.0
 40
0.3284591683
 40
0.6636292066
 40
1.0
 40
1.0
 40
1.0
 40
1.0
 10
121.1539020875
 20
157.7964495297
 30
0.0
 10
121.1317300171
 20
157.5808258619
 30
0.0
 10
121.0950273691
 20
157.144304907
 30
0.0
 10
121.0624168764
 20
156.4850675694
 30
0.0
 10
121.0551905638
 20
156.0418600014
 30
0.0
 10
121.0551872887
 20
155.8198782482
 30
0.0
 11
121.1539020875
 21
157.7964495297
 31
0.0
 11
121.0990880952
 21
157.1484819937
 31
0.0
 11
121.0661111684
 21
156.4857339066
 31
0.0
 11
121.0551872887
 21
155.8198782482
 31
0.0
  0
SPLINE
  5
4B7
100
AcDbEntity
  8
RUNDUNGEN
100
AcDbSpline
 62
9
  6
CONTINUOUS
 70
0
 71
3
 72
9
 73
5
 74
3
 42
0.0000001
 43
0.0000001
 44
0.0000000001
 12
0.0000034736
 22
-0.7418636283
 32
0.0
 13
-0.0346356508
 23
-0.7410546638
 33
0.0
 40
0.0
 40
0.0
 40
0.0
 40
0.0
 40
0.4759693283
 40
1.0
 40
1.0
 40
1.0
 40
1.0
 10
70.5947910959
 20
158.7356385823
 30
0.0
 10
70.5947916471
 20
158.617937138
 30
0.0
 10
70.5904341814
 20
158.3706466273
 30
0.0
 10
70.5803966395
 20
158.1235517822
 30
0.0
 10
70.5743465917
 20
157.9941066578
 30
0.0
 11
70.5947910959
 21
158.7356385823
 31
0.0
 11
70.589356804
 21
158.3825760689
 31
0.0
 11
70.5743465917
 21
157.9941066578
 31
0.0
  0
SPLINE
  5
4B8
100
AcDbEntity
  8
RUNDUNGEN
100
AcDbSpline
 62
9
  6
CONTINUOUS
 70
0
 71
3
 72
9
 73
5
 74
3
 42
0.0000001
 43
0.0000001
 44
0.0000000001
 12
0.0346358551
 22
-0.741054713
 32
0.0
 13
-0.0000020749
 23
-0.741863687
 33
0.0
 40
0.0
 40
0.0
 40
0.0
 40
0.0
 40
0.5262899474
 40
1.0
 40
1.0
 40
1.0
 40
1.0
 10
70.5743465917
 20
153.6456498386
 30
0.0
 10
70.5804227592
 20
153.5156466233
 30
0.0
 10
70.5904543627
 20
153.2685512139
 30
0.0
 10
70.5947914236
 20
153.0212606762
 30
0.0
 10
70.5947910959
 20
152.9041179141
 30
0.0
 11
70.5743465917
 21
153.6456498386
 31
0.0
 11
70.5894045426
 21
153.2555049164
 31
0.0
 11
70.5947910959
 21
152.9041179141
 31
0.0
  0
SPLINE
  5
4B9
100
AcDbEntity
  8
RUNDUNGEN
100
AcDbSpline
 62
9
  6
CONTINUOUS
 70
0
 71
3
 72
9
 73
5
 74
3
 42
0.0000001
 43
0.0000001
 44
0.0000000001
 12
-0.0346357559
 22
0.7410546881
 32
0.0
 13
0.0000031703
 23
0.7418636575
 33
0.0
 40
0.0
 40
0.0
 40
0.0
 40
0.0
 40
0.525143543
 40
1.0
 40
1.0
 40
1.0
 40
1.0
 10
50.6152356002
 20
157.9941066578
 30
0.0
 10
50.6091726857
 20
158.123826686
 30
0.0
 10
50.5991381038
 20
158.3709218088
 30
0.0
 10
50.5947905941
 20
158.6182123329
 30
0.0
 10
50.5947910959
 20
158.7356385823
 30
0.0
 11
50.6152356002
 21
157.9941066578
 31
0.0
 11
50.6002018505
 21
158.3834013895
 31
0.0
 11
50.5947910959
 21
158.7356385823
 31
0.0
  0
SPLINE
  5
4BA
100
AcDbEntity
  8
RUNDUNGEN
100
AcDbSpline
 62
9
  6
CONTINUOUS
 70
0
 71
3
 72
9
 73
5
 74
3
 42
0.0000001
 43
0.0000001
 44
0.0000000001
 12
-0.0000021326
 22
0.7418636809
 32
0.0
 13
0.0346358216
 23
0.7410547084
 33
0.0
 40
0.0
 40
0.0
 40
0.0
 40
0.0
 40
0.473948317
 40
1.0
 40
1.0
 40
1.0
 40
1.0
 10
50.5947910959
 20
152.9041179141
 30
0.0
 10
50.594790759
 20
153.0213195951
 30
0.0
 10
50.5991299475
 20
153.2686101301
 30
0.0
 10
50.6091621894
 20
153.5157054797
 30
0.0
 10
50.6152356002
 20
153.6456498386
 30
0.0
 11
50.5947910959
 21
152.9041179141
 31
0.0
 11
50.6001826747
 21
153.2556816169
 31
0.0
 11
50.6152356002
 21
153.6456498386
 31
0.0
  0
SPLINE
  5
4BB
100
AcDbEntity
  8
RUNDUNGEN
100
AcDbSpline
 62
9
  6
CONTINUOUS
 70
0
 71
3
 72
17
 73
13
 74
11
 42
0.0000001
 43
0.0000001
 44
0.0000000001
 12
-0.0000098362
 22
0.927392291
 32
0.0
 13
-0.9273922908
 23
-0.0000202375
 33
0.0
 40
0.0
 40
0.0
 40
0.0
 40
0.0
 40
0.0707260545
 40
0.1480064682
 40
0.2320432017
 40
0.3226805564
 40
0.4199262261
 40
0.5239268799
 40
0.6343608611
 40
0.7505612543
 40
0.8720570656
 40
1.0
 40
1.0
 40
1.0
 40
1.0
 10
100.5947910959
 20
161.2198689239
 30
0.0
 10
100.594790864
 20
161.2417325231
 30
0.0
 10
100.591044344
 20
161.2875419687
 30
0.0
 10
100.5747760535
 20
161.3576329409
 30
0.0
 10
100.5470344653
 20
161.4306518915
 30
0.0
 10
100.5074113077
 20
161.505027567
 30
0.0
 10
100.4554327026
 20
161.5790605827
 30
0.0
 10
100.39042568
 20
161.6505450891
 30
0.0
 10
100.3116754086
 20
161.7162670052
 30
0.0
 10
100.2187298505
 20
161.7715853289
 30
0.0
 10
100.1117570434
 20
161.8103745574
 30
0.0
 10
100.034342193
 20
161.8198791113
 30
0.0
 10
99.9947910959
 20
161.8198782482
 30
0.0
 11
100.5947910959
 21
161.2198689239
 31
0.0
 11
100.5896962966
 21
161.2852615516
 31
0.0
 11
100.5737689804
 21
161.355138611
 31
0.0
 11
100.5463214649
 21
161.4280803757
 31
0.0
 11
100.5069591628
 21
161.5023507256
 31
0.0
 11
100.455202895
 21
161.5762060038
 31
0.0
 11
100.390273976
 21
161.6475272708
 31
0.0
 11
100.3114987244
 21
161.7129751091
 31
0.0
 11
100.2186906214
 21
161.767743671
 31
0.0
 11
100.1125903316
 21
161.8056675633
 31
0.0
 11
99.9947910959
 21
161.8198782482
 31
0.0
  0
SPLINE
  5
4BC
100
AcDbEntity
  8
RUNDUNGEN
100
AcDbSpline
 62
9
  6
CONTINUOUS
 70
0
 71
3
 72
11
 73
7
 74
5
 42
0.0000001
 43
0.0000001
 44
0.0000000001
 12
-0.0000000008
 22
-0.7006196549
 32
0.0
 13
-0.7006196549
 23
-0.0000000022
 33
0.0
 40
0.0
 40
0.0
 40
0.0
 40
0.0
 40
0.1587864949
 40
0.3813385419
 40
0.6710197331
 40
1.0
 40
1.0
 40
1.0
 40
1.0
 10
100.5947910959
 20
158.735638582
 30
0.0
 10
100.5947910959
 20
158.6985556023
 30
0.0
 10
100.5463721995
 20
158.6124426311
 30
0.0
 10
100.4068520602
 20
158.5355724961
 30
0.0
 10
100.2166309543
 20
158.4821936629
 30
0.0
 10
100.0716211096
 20
158.4705694543
 30
0.0
 10
99.9947910959
 20
158.4705694541
 30
0.0
 11
100.5947910959
 21
158.735638582
 31
0.0
 11
100.5491162473
 21
158.6341982809
 31
0.0
 11
100.4190494776
 21
158.5482038933
 31
0.0
 11
100.2243963563
 21
158.4907457625
 31
0.0
 11
99.9947910959
 21
158.4705694541
 31
0.0
  0
SPLINE
  5
4BD
100
AcDbEntity
  8
RUNDUNGEN
100
AcDbSpline
 62
9
  6
CONTINUOUS
 70
0
 71
3
 72
11
 73
7
 74
5
 42
0.0000001
 43
0.0000001
 44
0.0000000001
 12
-0.3633814139
 22
-0.5071401076
 32
0.0
 13
-0.6217331121
 23
-0.051817739
 33
0.0
 40
0.0
 40
0.0
 40
0.0
 40
0.0
 40
0.1651498308
 40
0.3987835442
 40
0.6857082618
 40
1.0
 40
1.0
 40
1.0
 40
1.0
 10
100.6152343592
 20
157.9941066578
 30
0.0
 10
100.5952302329
 20
157.9661886235
 30
0.0
 10
100.5255053448
 20
157.9161102822
 30
0.0
 10
100.3939363977
 20
157.8616319918
 30
0.0
 10
100.2249033356
 20
157.8187816065
 30
0.0
 10
100.1008152979
 20
157.8018774328
 30
0.0
 10
100.0356801044
 20
157.7964488037
 30
0.0
 11
100.6152343592
 21
157.9941066578
 31
0.0
 11
100.5363146445
 21
157.9278653261
 31
0.0
 11
100.4030502138
 21
157.8688145956
 31
0.0
 11
100.2299070721
 21
157.8233645244
 31
0.0
 11
100.0356801044
 21
157.7964488037
 31
0.0
  0
SPLINE
  5
4BE
100
AcDbEntity
  8
RUNDUNGEN
100
AcDbSpline
 62
9
  6
CONTINUOUS
 70
0
 71
3
 72
11
 73
7
 74
5
 42
0.0000001
 43
0.0000001
 44
0.0000000001
 12
-0.3633562346
 22
0.5071592654
 32
0.0
 13
-0.6217339696
 23
0.0518183826
 33
0.0
 40
0.0
 40
0.0
 40
0.0
 40
0.0
 40
0.1651463178
 40
0.398778946
 40
0.685705174
 40
1.0
 40
1.0
 40
1.0
 40
1.0
 10
100.6152330421
 20
153.6456498386
 30
0.0
 10
100.5952307274
 20
153.6735683336
 30
0.0
 10
100.5255071399
 20
153.7236478365
 30
0.0
 10
100.3939391102
 20
153.7781268623
 30
0.0
 10
100.2249051634
 20
153.8209781204
 30
0.0
 10
100.1008160277
 20
153.8378826213
 30
0.0
 10
100.0356801044
 20
153.8433113712
 30
0.0
 11
100.6152330421
 21
153.6456498386
 31
0.0
 11
100.5363167621
 21
153.7118920865
 31
0.0
 11
100.4030533389
 21
153.7709439428
 31
0.0
 11
100.2299092179
 21
153.8163950212
 31
0.0
 11
100.0356801044
 21
153.8433113712
 31
0.0
  0
SPLINE
  5
4BF
100
AcDbEntity
  8
RUNDUNGEN
100
AcDbSpline
 62
9
  6
CONTINUOUS
 70
0
 71
3
 72
11
 73
7
 74
5
 42
0.0000001
 43
0.0000001
 44
0.0000000001
 12
-0.0000000009
 22
0.7006199551
 32
0.0
 13
-0.7006199551
 23
-0.0000012285
 33
0.0
 40
0.0
 40
0.0
 40
0.0
 40
0.0
 40
0.1587837346
 40
0.381334547
 40
0.671017145
 40
1.0
 40
1.0
 40
1.0
 40
1.0
 10
100.5947910959
 20
152.9041179144
 30
0.0
 10
100.5947910959
 20
152.9412002654
 30
0.0
 10
100.5463736846
 20
153.0273126287
 30
0.0
 10
100.4068543358
 20
153.1041835807
 30
0.0
 10
100.2166326343
 20
153.1575629578
 30
0.0
 10
100.071621747
 20
153.169187174
 30
0.0
 10
99.9947910959
 20
153.1691870393
 30
0.0
 11
100.5947910959
 21
152.9041179144
 31
0.0
 11
100.549117748
 21
153.0055568225
 31
0.0
 11
100.4190522642
 21
153.091551708
 31
0.0
 11
100.2243982706
 21
153.149010672
 31
0.0
 11
99.9947910959
 21
153.1691870393
 31
0.0
  0
SPLINE
  5
4C0
100
AcDbEntity
  8
RUNDUNGEN
100
AcDbSpline
 62
9
  6
CONTINUOUS
 70
0
 71
3
 72
17
 73
13
 74
11
 42
0.0000001
 43
0.0000001
 44
0.0000000001
 12
0.9273912811
 22
-0.000020415
 32
0.0
 13
0.0000099592
 23
0.9273912812
 33
0.0
 40
0.0
 40
0.0
 40
0.0
 40
0.0
 40
0.1281080819
 40
0.2497471359
 40
0.366042355
 40
0.476500165
 40
0.580466461
 40
0.6776456564
 40
0.7682117622
 40
0.8521815984
 40
0.9293846011
 40
1.0
 40
1.0
 40
1.0
 40
1.0
 10
99.9947910959
 20
149.8198782482
 30
0.0
 10
100.034393202
 20
149.8198773764
 30
0.0
 10
100.1119043909
 20
149.8294064321
 30
0.0
 10
100.2189802574
 20
149.8682832579
 30
0.0
 10
100.3119663472
 20
149.9236931489
 30
0.0
 10
100.3907001409
 20
149.9894752428
 30
0.0
 10
100.4556541144
 20
150.0609752458
 30
0.0
 10
100.5075681143
 20
150.1349880346
 30
0.0
 10
100.547131665
 20
150.2093232873
 30
0.0
 10
100.5748241138
 20
150.2822891252
 30
0.0
 10
100.591055017
 20
150.3523072778
 30
0.0
 10
100.5947908614
 20
150.3980583199
 30
0.0
 10
100.5947910959
 20
150.4198876883
 30
0.0
 11
99.9947910959
 21
149.8198782482
 31
0.0
 11
100.1127400816
 21
149.8341252843
 31
0.0
 11
100.2189501074
 21
149.8721364569
 31
0.0
 11
100.3118046621
 21
149.9269990765
 31
0.0
 11
100.3905603038
 21
149.9925048994
 31
0.0
 11
100.455430584
 21
150.0638363006
 31
0.0
 11
100.5071174237
 21
150.1376648228
 31
0.0
 11
100.5464190255
 21
150.21189245
 31
0.0
 11
100.5738194691
 21
150.2847855451
 31
0.0
 11
100.589711851
 21
150.3545968528
 31
0.0
 11
100.5947910959
 21
150.4198876883
 31
0.0
  0
SPLINE
  5
4C1
100
AcDbEntity
  8
RUNDUNGEN
100
AcDbSpline
 62
9
  6
CONTINUOUS
 70
0
 71
3
 72
17
 73
13
 74
11
 42
0.0000001
 43
0.0000001
 44
0.0000000001
 12
0.000007219
 22
-0.9273898651
 32
0.0
 13
0.9273898649
 23
0.0000198177
 33
0.0
 40
0.0
 40
0.0
 40
0.0
 40
0.0
 40
0.0706993177
 40
0.1479703281
 40
0.2320353352
 40
0.3227270305
 40
0.4199990721
 40
0.5239914099
 40
0.6343910508
 40
0.750553641
 40
0.8720340162
 40
1.0
 40
1.0
 40
1.0
 40
1.0
 10
120.594791096
 20
150.419885089
 30
0.0
 10
120.5947912661
 20
150.3980298121
 30
0.0
 10
120.5985358981
 20
150.3522317289
 30
0.0
 10
120.6147996721
 20
150.2821424416
 30
0.0
 10
120.6425472435
 20
150.2091015025
 30
0.0
 10
120.6821886225
 20
150.134697226
 30
0.0
 10
120.734185861
 20
150.0606500425
 30
0.0
 10
120.7991956102
 20
149.9891752285
 30
0.0
 10
120.8779306753
 20
149.9234747819
 30
0.0
 10
120.9708533981
 20
149.8681725312
 30
0.0
 10
121.0778158389
 20
149.8293839978
 30
0.0
 10
121.1552329771
 20
149.8198774029
 30
0.0
 10
121.1947910959
 20
149.8198782482
 30
0.0
 11
120.594791096
 21
150.419885089
 31
0.0
 11
120.5998824199
 21
150.3545172332
 31
0.0
 11
120.6158040136
 21
150.2846480061
 31
0.0
 11
120.6432583976
 21
150.2116810282
 31
0.0
 11
120.6826463593
 21
150.1373674913
 31
0.0
 11
120.7344223614
 21
150.0634964665
 31
0.0
 11
120.7993522874
 21
149.9921868872
 31
0.0
 11
120.8781070852
 21
149.9267646849
 31
0.0
 11
120.9708856998
 21
149.8720156889
 31
0.0
 11
121.0769712492
 21
149.8340939647
 31
0.0
 11
121.1947910959
 21
149.8198782482
 31
0.0
  0
SPLINE
  5
4C2
100
AcDbEntity
  8
RUNDUNGEN
100
AcDbSpline
 62
9
  6
CONTINUOUS
 70
0
 71
3
 72
11
 73
7
 74
5
 42
0.0000001
 43
0.0000001
 44
0.0000000001
 12
0.0000000008
 22
0.7006196556
 32
0.0
 13
0.7006196556
 23
0.0000000019
 33
0.0
 40
0.0
 40
0.0
 40
0.0
 40
0.0
 40
0.1587864659
 40
0.3813384926
 40
0.6710196941
 40
1.0
 40
1.0
 40
1.0
 40
1.0
 10
120.5947910959
 20
152.9041179144
 30
0.0
 10
120.594791096
 20
152.9412008874
 30
0.0
 10
120.6432099776
 20
153.0273138497
 30
0.0
 10
120.7827301054
 20
153.1041839905
 30
0.0
 10
120.9729512164
 20
153.1575628308
 30
0.0
 10
121.1179610731
 20
153.1691870418
 30
0.0
 10
121.1947910959
 20
153.1691870421
 30
0.0
 11
120.5947910959
 21
152.9041179144
 31
0.0
 11
120.64046593
 21
153.0055581999
 31
0.0
 11
120.770532682
 21
153.0915525887
 31
0.0
 11
120.9651858083
 21
153.1490107287
 31
0.0
 11
121.1947910959
 21
153.1691870421
 31
0.0
  0
SPLINE
  5
4C3
100
AcDbEntity
  8
RUNDUNGEN
100
AcDbSpline
 62
9
  6
CONTINUOUS
 70
0
 71
3
 72
11
 73
7
 74
5
 42
0.0000001
 43
0.0000001
 44
0.0000000001
 12
0.3633813329
 22
0.5071400788
 32
0.0
 13
0.6217330379
 23
0.0518177793
 33
0.0
 40
0.0
 40
0.0
 40
0.0
 40
0.0
 40
0.1651498595
 40
0.3987835702
 40
0.6857082703
 40
1.0
 40
1.0
 40
1.0
 40
1.0
 10
120.5743479362
 20
153.6456498386
 30
0.0
 10
120.5943520616
 20
153.6735678761
 30
0.0
 10
120.6640769316
 20
153.7236462319
 30
0.0
 10
120.7956458561
 20
153.7781245445
 30
0.0
 10
120.9646788864
 20
153.8209749494
 30
0.0
 10
121.0887669035
 20
153.8378791327
 30
0.0
 10
121.1539020875
 20
153.8433077659
 30
0.0
 11
120.5743479362
 21
153.6456498386
 31
0.0
 11
120.6532676431
 21
153.7118911893
 31
0.0
 11
120.7865320451
 21
153.7709419395
 31
0.0
 11
120.9596751497
 21
153.8163920295
 31
0.0
 11
121.1539020875
 21
153.8433077659
 31
0.0
  0
SPLINE
  5
4C4
100
AcDbEntity
  8
RUNDUNGEN
100
AcDbSpline
 62
9
  6
CONTINUOUS
 70
0
 71
3
 72
11
 73
7
 74
5
 42
0.0000001
 43
0.0000001
 44
0.0000000001
 12
0.3633579371
 22
-0.5071580462
 32
0.0
 13
0.6217339771
 23
-0.0518182981
 33
0.0
 40
0.0
 40
0.0
 40
0.0
 40
0.0
 40
0.1651465258
 40
0.398779227
 40
0.6857053695
 40
1.0
 40
1.0
 40
1.0
 40
1.0
 10
120.5743489791
 20
157.9941066578
 30
0.0
 10
120.5943514128
 20
157.9661881947
 30
0.0
 10
120.6640750994
 20
157.9161087776
 30
0.0
 10
120.7956432077
 20
157.8616298164
 30
0.0
 10
120.9646771229
 20
157.8187786313
 30
0.0
 10
121.0887662039
 20
157.8018741608
 30
0.0
 10
121.1539020875
 20
157.7964454232
 30
0.0
 11
120.5743489791
 21
157.9941066578
 31
0.0
 11
120.6532654898
 21
157.9278644828
 31
0.0
 11
120.786529002
 21
157.8688127145
 31
0.0
 11
120.9596730893
 21
157.8233617173
 31
0.0
 11
121.1539020875
 21
157.7964454232
 31
0.0
  0
SPLINE
  5
4C5
100
AcDbEntity
  8
RUNDUNGEN
100
AcDbSpline
 62
9
  6
CONTINUOUS
 70
0
 71
3
 72
11
 73
7
 74
5
 42
0.0000001
 43
0.0000001
 44
0.0000000001
 12
0.0000000009
 22
-0.7006199461
 32
0.0
 13
0.7006199461
 23
0.0000011832
 33
0.0
 40
0.0
 40
0.0
 40
0.0
 40
0.0
 40
0.1587837066
 40
0.3813345076
 40
0.6710171201
 40
1.0
 40
1.0
 40
1.0
 40
1.0
 10
120.5947910959
 20
158.735638582
 30
0.0
 10
120.594791096
 20
158.698556238
 30
0.0
 10
120.6432085022
 20
158.6124438856
 30
0.0
 10
120.7827278427
 20
158.5355729361
 30
0.0
 10
120.9729495462
 20
158.4821935518
 30
0.0
 10
121.1179604401
 20
158.4705693273
 30
0.0
 10
121.1947910959
 20
158.4705694571
 30
0.0
 11
120.5947910959
 21
158.735638582
 31
0.0
 11
120.6404644351
 21
158.6341996929
 31
0.0
 11
120.770529909
 21
158.5482048107
 31
0.0
 11
120.965183908
 21
158.4907458379
 31
0.0
 11
121.1947910959
 21
158.4705694571
 31
0.0
  0
SPLINE
  5
4C6
100
AcDbEntity
  8
RUNDUNGEN
100
AcDbSpline
 62
9
  6
CONTINUOUS
 70
0
 71
3
 72
17
 73
13
 74
11
 42
0.0000001
 43
0.0000001
 44
0.0000000001
 12
-0.9273908301
 22
0.0000196202
 32
0.0
 13
-0.0000069782
 23
-0.9273908303
 33
0.0
 40
0.0
 40
0.0
 40
0.0
 40
0.0
 40
0.1277891653
 40
0.2491185696
 40
0.3651806939
 40
0.4755530252
 40
0.5795784362
 40
0.6769179313
 40
0.7676838774
 40
0.8518221059
 40
0.9291795471
 40
1.0
 40
1.0
 40
1.0
 40
1.0
 10
121.1947910959
 20
161.8198782482
 30
0.0
 10
121.1552875959
 20
161.8198790839
 30
0.0
 10
121.0779728711
 20
161.8103986022
 30
0.0
 10
120.9711198777
 20
161.7717031591
 30
0.0
 10
120.8782404316
 20
161.7164982237
 30
0.0
 10
120.799489067
 20
161.6508628541
 30
0.0
 10
120.73442444
 20
161.5794068388
 30
0.0
 10
120.6823593302
 20
161.5053407349
 30
0.0
 10
120.6426540143
 20
161.4308947469
 30
0.0
 10
120.6148526391
 20
161.3577963793
 30
0.0
 10
120.5985476585
 20
161.2876269131
 30
0.0
 10
120.5947912607
 20
161.241764381
 30
0.0
 10
120.594791096
 20
161.2198716348
 30
0.0
 11
121.1947910959
 21
161.8198782482
 31
0.0
 11
121.0771316044
 21
161.8057014124
 31
0.0
 11
120.9711615964
 21
161.7678720901
 31
0.0
 11
120.8784321972
 21
161.7132228363
 31
0.0
 11
120.799657965
 21
161.6478635257
 31
0.0
 11
120.7346675544
 21
161.5765674229
 31
0.0
 11
120.6828187831
 21
161.5026709096
 31
0.0
 11
120.6433659604
 21
161.4283137269
 31
0.0
 11
120.6158598123
 21
161.3552935925
 31
0.0
 11
120.5998994818
 21
161.2853509095
 31
0.0
 11
120.594791096
 21
161.2198716348
 31
0.0
  0
SPLINE
  5
4C7
100
AcDbEntity
  8
RUNDUNGEN
100
AcDbSpline
 62
9
  6
CONTINUOUS
 70
0
 71
3
 72
17
 73
13
 74
11
 42
0.0000001
 43
0.0000001
 44
0.0000000001
 12
-0.0000098362
 22
0.927392291
 32
0.0
 13
-0.9273922908
 23
-0.0000202375
 33
0.0
 40
0.0
 40
0.0
 40
0.0
 40
0.0
 40
0.0707260541
 40
0.1480064675
 40
0.2320432007
 40
0.3226805552
 40
0.4199262247
 40
0.5239268784
 40
0.6343608598
 40
0.7505612532
 40
0.872057065
 40
1.0
 40
1.0
 40
1.0
 40
1.0
 10
75.5947910959
 20
161.2198689239
 30
0.0
 10
75.594790864
 20
161.241732523
 30
0.0
 10
75.591044344
 20
161.2875419684
 30
0.0
 10
75.5747760537
 20
161.3576329403
 30
0.0
 10
75.5470344657
 20
161.4306518907
 30
0.0
 10
75.5074113083
 20
161.505027566
 30
0.0
 10
75.4554327034
 20
161.5790605817
 30
0.0
 10
75.3904256809
 20
161.6505450882
 30
0.0
 10
75.3116754096
 20
161.7162670045
 30
0.0
 10
75.2187298513
 20
161.7715853285
 30
0.0
 10
75.1117570439
 20
161.8103745573
 30
0.0
 10
75.0343421931
 20
161.8198791113
 30
0.0
 10
74.9947910959
 20
161.8198782482
 30
0.0
 11
75.5947910959
 21
161.2198689239
 31
0.0
 11
75.5896962967
 21
161.2852615513
 31
0.0
 11
75.5737689806
 21
161.3551386104
 31
0.0
 11
75.5463214653
 21
161.4280803749
 31
0.0
 11
75.5069591634
 21
161.5023507246
 31
0.0
 11
75.4552028958
 21
161.5762060028
 31
0.0
 11
75.390273977
 21
161.6475272698
 31
0.0
 11
75.3114987254
 21
161.7129751084
 31
0.0
 11
75.2186906223
 21
161.7677436706
 31
0.0
 11
75.1125903321
 21
161.8056675632
 31
0.0
 11
74.9947910959
 21
161.8198782482
 31
0.0
  0
SPLINE
  5
4C8
100
AcDbEntity
  8
RUNDUNGEN
100
AcDbSpline
 62
9
  6
CONTINUOUS
 70
0
 71
3
 72
11
 73
7
 74
5
 42
0.0000001
 43
0.0000001
 44
0.0000000001
 12
-0.0000000008
 22
-0.7006196544
 32
0.0
 13
-0.7006196544
 23
-0.0000000022
 33
0.0
 40
0.0
 40
0.0
 40
0.0
 40
0.0
 40
0.1587865111
 40
0.3813385695
 40
0.6710197549
 40
1.0
 40
1.0
 40
1.0
 40
1.0
 10
75.5947910959
 20
158.735638582
 30
0.0
 10
75.5947910959
 20
158.6985555985
 30
0.0
 10
75.5463721912
 20
158.6124426224
 30
0.0
 10
75.4068520455
 20
158.5355724907
 30
0.0
 10
75.2166309425
 20
158.4821936615
 30
0.0
 10
75.0716211045
 20
158.4705694543
 30
0.0
 10
74.9947910959
 20
158.4705694541
 30
0.0
 11
75.5947910959
 21
158.735638582
 31
0.0
 11
75.5491162392
 21
158.6341982722
 31
0.0
 11
75.4190494595
 21
158.5482038853
 31
0.0
 11
75.2243963411
 21
158.4907457597
 31
0.0
 11
74.9947910959
 21
158.4705694541
 31
0.0
  0
SPLINE
  5
4C9
100
AcDbEntity
  8
RUNDUNGEN
100
AcDbSpline
 62
9
  6
CONTINUOUS
 70
0
 71
3
 72
11
 73
7
 74
5
 42
0.0000001
 43
0.0000001
 44
0.0000000001
 12
-0.3633814235
 22
-0.5071400996
 32
0.0
 13
-0.6217331111
 23
-0.051817739
 33
0.0
 40
0.0
 40
0.0
 40
0.0
 40
0.0
 40
0.1651498325
 40
0.3987835465
 40
0.6857082634
 40
1.0
 40
1.0
 40
1.0
 40
1.0
 10
75.6152343588
 20
157.9941066578
 30
0.0
 10
75.5952302317
 20
157.9661886237
 30
0.0
 10
75.5255053433
 20
157.9161102827
 30
0.0
 10
75.3939363959
 20
157.8616319923
 30
0.0
 10
75.2249033346
 20
157.8187816071
 30
0.0
 10
75.1008152975
 20
157.8018774334
 30
0.0
 10
75.0356801044
 20
157.7964488044
 30
0.0
 11
75.6152343588
 21
157.9941066578
 31
0.0
 11
75.5363146427
 21
157.9278653263
 31
0.0
 11
75.4030502118
 21
157.868814596
 31
0.0
 11
75.2299070708
 21
157.823364525
 31
0.0
 11
75.0356801044
 21
157.7964488044
 31
0.0
  0
SPLINE
  5
4CA
100
AcDbEntity
  8
RUNDUNGEN
100
AcDbSpline
 62
9
  6
CONTINUOUS
 70
0
 71
3
 72
11
 73
7
 74
5
 42
0.0000001
 43
0.0000001
 44
0.0000000001
 12
-0.3633561607
 22
0.507159318
 32
0.0
 13
-0.621733969
 23
0.0518183862
 33
0.0
 40
0.0
 40
0.0
 40
0.0
 40
0.0
 40
0.1651463088
 40
0.3987789339
 40
0.6857051656
 40
1.0
 40
1.0
 40
1.0
 40
1.0
 10
75.6152330344
 20
153.6456498386
 30
0.0
 10
75.5952307249
 20
153.673568335
 30
0.0
 10
75.5255071417
 20
153.7236478416
 30
0.0
 10
75.3939391155
 20
153.7781268702
 30
0.0
 10
75.2249051674
 20
153.8209781314
 30
0.0
 10
75.1008160294
 20
153.8378826336
 30
0.0
 10
75.0356801044
 20
153.843311384
 30
0.0
 11
75.6152330344
 21
153.6456498386
 31
0.0
 11
75.5363167645
 21
153.7118920896
 31
0.0
 11
75.4030533451
 21
153.7709439498
 31
0.0
 11
75.2299092228
 21
153.8163950316
 31
0.0
 11
75.0356801044
 21
153.843311384
 31
0.0
  0
SPLINE
  5
4CB
100
AcDbEntity
  8
RUNDUNGEN
100
AcDbSpline
 62
9
  6
CONTINUOUS
 70
0
 71
3
 72
11
 73
7
 74
5
 42
0.0000001
 43
0.0000001
 44
0.0000000001
 12
-0.0000000009
 22
0.7006199565
 32
0.0
 13
-0.7006199565
 23
-0.0000012385
 33
0.0
 40
0.0
 40
0.0
 40
0.0
 40
0.0
 40
0.1587837514
 40
0.3813345801
 40
0.6710171748
 40
1.0
 40
1.0
 40
1.0
 40
1.0
 10
75.5947910959
 20
152.9041179144
 30
0.0
 10
75.5947910959
 20
152.9412002694
 30
0.0
 10
75.5463736769
 20
153.0273126396
 30
0.0
 10
75.4068543194
 20
153.1041835901
 30
0.0
 10
75.2166326202
 20
153.157562962
 30
0.0
 10
75.0716217402
 20
153.1691871752
 30
0.0
 10
74.9947910959
 20
153.1691870393
 30
0.0
 11
75.5947910959
 21
152.9041179144
 31
0.0
 11
75.5491177405
 21
153.0055568323
 31
0.0
 11
75.4190522439
 21
153.0915517198
 31
0.0
 11
75.2243982506
 21
153.1490106781
 31
0.0
 11
74.9947910959
 21
153.1691870393
 31
0.0
  0
SPLINE
  5
4CC
100
AcDbEntity
  8
RUNDUNGEN
100
AcDbSpline
 62
9
  6
CONTINUOUS
 70
0
 71
3
 72
17
 73
13
 74
11
 42
0.0000001
 43
0.0000001
 44
0.0000000001
 12
0.9273912811
 22
-0.000020415
 32
0.0
 13
0.0000099592
 23
0.9273912812
 33
0.0
 40
0.0
 40
0.0
 40
0.0
 40
0.0
 40
0.1281080825
 40
0.2497471369
 40
0.3660423563
 40
0.4765001664
 40
0.5804664624
 40
0.6776456575
 40
0.7682117631
 40
0.8521815991
 40
0.9293846015
 40
1.0
 40
1.0
 40
1.0
 40
1.0
 10
74.9947910959
 20
149.8198782482
 30
0.0
 10
75.0343932022
 20
149.8198773764
 30
0.0
 10
75.1119043914
 20
149.8294064322
 30
0.0
 10
75.2189802582
 20
149.8682832583
 30
0.0
 10
75.3119663482
 20
149.9236931496
 30
0.0
 10
75.3907001418
 20
149.9894752437
 30
0.0
 10
75.4556541152
 20
150.0609752468
 30
0.0
 10
75.5075681148
 20
150.1349880355
 30
0.0
 10
75.5471316653
 20
150.2093232881
 30
0.0
 10
75.5748241139
 20
150.2822891258
 30
0.0
 10
75.5910550171
 20
150.3523072781
 30
0.0
 10
75.5947908614
 20
150.39805832
 30
0.0
 10
75.5947910959
 20
150.4198876883
 30
0.0
 11
74.9947910959
 21
149.8198782482
 31
0.0
 11
75.1127400821
 21
149.8341252844
 31
0.0
 11
75.2189501083
 21
149.8721364573
 31
0.0
 11
75.3118046631
 21
149.9269990772
 31
0.0
 11
75.3905603047
 21
149.9925049003
 31
0.0
 11
75.4554305848
 21
150.0638363016
 31
0.0
 11
75.5071174243
 21
150.1376648237
 31
0.0
 11
75.5464190259
 21
150.2118924508
 31
0.0
 11
75.5738194692
 21
150.2847855457
 31
0.0
 11
75.5897118511
 21
150.3545968531
 31
0.0
 11
75.5947910959
 21
150.4198876883
 31
0.0
  0
SPLINE
  5
4CD
100
AcDbEntity
  8
RUNDUNGEN
100
AcDbSpline
 62
9
  6
CONTINUOUS
 70
0
 71
3
 72
17
 73
13
 74
11
 42
0.0000001
 43
0.0000001
 44
0.0000000001
 12
0.000007219
 22
-0.9273898651
 32
0.0
 13
0.9273898649
 23
0.0000198177
 33
0.0
 40
0.0
 40
0.0
 40
0.0
 40
0.0
 40
0.0706993173
 40
0.1479703274
 40
0.2320353342
 40
0.3227270293
 40
0.4199990707
 40
0.5239914084
 40
0.6343910495
 40
0.7505536399
 40
0.8720340156
 40
1.0
 40
1.0
 40
1.0
 40
1.0
 10
95.594791096
 20
150.419885089
 30
0.0
 10
95.5947912661
 20
150.3980298122
 30
0.0
 10
95.5985358981
 20
150.3522317293
 30
0.0
 10
95.6147996719
 20
150.2821424423
 30
0.0
 10
95.6425472432
 20
150.2091015033
 30
0.0
 10
95.6821886219
 20
150.134697227
 30
0.0
 10
95.7341858602
 20
150.0606500435
 30
0.0
 10
95.7991956093
 20
149.9891752294
 30
0.0
 10
95.8779306744
 20
149.9234747826
 30
0.0
 10
95.9708533973
 20
149.8681725316
 30
0.0
 10
96.0778158384
 20
149.8293839978
 30
0.0
 10
96.155232977
 20
149.8198774029
 30
0.0
 10
96.1947910959
 20
149.8198782482
 30
0.0
 11
95.594791096
 21
150.419885089
 31
0.0
 11
95.5998824199
 21
150.3545172335
 31
0.0
 11
95.6158040134
 21
150.2846480067
 31
0.0
 11
95.6432583972
 21
150.211681029
 31
0.0
 11
95.6826463587
 21
150.1373674923
 31
0.0
 11
95.7344223606
 21
150.0634964675
 31
0.0
 11
95.7993522864
 21
149.9921868882
 31
0.0
 11
95.8781070842
 21
149.9267646856
 31
0.0
 11
95.9708856989
 21
149.8720156893
 31
0.0
 11
96.0769712487
 21
149.8340939648
 31
0.0
 11
96.1947910959
 21
149.8198782482
 31
0.0
  0
SPLINE
  5
4CE
100
AcDbEntity
  8
RUNDUNGEN
100
AcDbSpline
 62
9
  6
CONTINUOUS
 70
0
 71
3
 72
11
 73
7
 74
5
 42
0.0000001
 43
0.0000001
 44
0.0000000001
 12
0.0000000008
 22
0.7006196552
 32
0.0
 13
0.7006196552
 23
0.0000000019
 33
0.0
 40
0.0
 40
0.0
 40
0.0
 40
0.0
 40
0.1587864819
 40
0.3813385198
 40
0.6710197157
 40
1.0
 40
1.0
 40
1.0
 40
1.0
 10
95.5947910959
 20
152.9041179144
 30
0.0
 10
95.594791096
 20
152.9412008911
 30
0.0
 10
95.6432099857
 20
153.0273138583
 30
0.0
 10
95.7827301199
 20
153.1041839959
 30
0.0
 10
95.9729512281
 20
153.1575628322
 30
0.0
 10
96.1179610782
 20
153.1691870418
 30
0.0
 10
96.1947910959
 20
153.1691870421
 30
0.0
 11
95.5947910959
 21
152.9041179144
 31
0.0
 11
95.640465938
 21
153.0055582085
 31
0.0
 11
95.7705326998
 21
153.0915525966
 31
0.0
 11
95.9651858234
 21
153.1490107314
 31
0.0
 11
96.1947910959
 21
153.1691870421
 31
0.0
  0
SPLINE
  5
4CF
100
AcDbEntity
  8
RUNDUNGEN
100
AcDbSpline
 62
9
  6
CONTINUOUS
 70
0
 71
3
 72
11
 73
7
 74
5
 42
0.0000001
 43
0.0000001
 44
0.0000000001
 12
0.3633813427
 22
0.5071400703
 32
0.0
 13
0.6217330367
 23
0.0518177794
 33
0.0
 40
0.0
 40
0.0
 40
0.0
 40
0.0
 40
0.1651498614
 40
0.3987835726
 40
0.6857082719
 40
1.0
 40
1.0
 40
1.0
 40
1.0
 10
95.574347937
 20
153.6456498386
 30
0.0
 10
95.5943520631
 20
153.673567876
 30
0.0
 10
95.6640769335
 20
153.7236462314
 30
0.0
 10
95.7956458581
 20
153.7781245442
 30
0.0
 10
95.9646788876
 20
153.820974949
 30
0.0
 10
96.088766904
 20
153.8378791322
 30
0.0
 10
96.1539020875
 20
153.8433077654
 30
0.0
 11
95.574347937
 21
153.6456498386
 31
0.0
 11
95.6532676452
 21
153.7118911892
 31
0.0
 11
95.7865320474
 21
153.7709419392
 31
0.0
 11
95.9596751511
 21
153.8163920291
 31
0.0
 11
96.1539020875
 21
153.8433077654
 31
0.0
  0
SPLINE
  5
4D0
100
AcDbEntity
  8
RUNDUNGEN
100
AcDbSpline
 62
9
  6
CONTINUOUS
 70
0
 71
3
 72
11
 73
7
 74
5
 42
0.0000001
 43
0.0000001
 44
0.0000000001
 12
0.3633578723
 22
-0.5071580923
 32
0.0
 13
0.6217339765
 23
-0.0518183012
 33
0.0
 40
0.0
 40
0.0
 40
0.0
 40
0.0
 40
0.1651465179
 40
0.3987792164
 40
0.6857053621
 40
1.0
 40
1.0
 40
1.0
 40
1.0
 10
95.5743489859
 20
157.9941066578
 30
0.0
 10
95.594351415
 20
157.9661881935
 30
0.0
 10
95.6640750978
 20
157.9161087731
 30
0.0
 10
95.7956432031
 20
157.8616298095
 30
0.0
 10
95.9646771194
 20
157.8187786216
 30
0.0
 10
96.0887662025
 20
157.80187415
 30
0.0
 10
96.1539020875
 20
157.7964454119
 30
0.0
 11
95.5743489859
 21
157.9941066578
 31
0.0
 11
95.6532654878
 21
157.92786448
 31
0.0
 11
95.7865289965
 21
157.8688127084
 31
0.0
 11
95.959673085
 21
157.8233617081
 31
0.0
 11
96.1539020875
 21
157.7964454119
 31
0.0
  0
SPLINE
  5
4D1
100
AcDbEntity
  8
RUNDUNGEN
100
AcDbSpline
 62
9
  6
CONTINUOUS
 70
0
 71
3
 72
11
 73
7
 74
5
 42
0.0000001
 43
0.0000001
 44
0.0000000001
 12
0.0000000009
 22
-0.7006199476
 32
0.0
 13
0.7006199476
 23
0.0000011934
 33
0.0
 40
0.0
 40
0.0
 40
0.0
 40
0.0
 40
0.1587837244
 40
0.3813345427
 40
0.6710171519
 40
1.0
 40
1.0
 40
1.0
 40
1.0
 10
95.5947910959
 20
158.735638582
 30
0.0
 10
95.594791096
 20
158.6985562338
 30
0.0
 10
95.6432085104
 20
158.6124438741
 30
0.0
 10
95.7827278602
 20
158.5355729262
 30
0.0
 10
95.9729495613
 20
158.4821935474
 30
0.0
 10
96.1179604473
 20
158.4705693262
 30
0.0
 10
96.1947910959
 20
158.470569457
 30
0.0
 11
95.5947910959
 21
158.735638582
 31
0.0
 11
95.6404644431
 21
158.6341996826
 31
0.0
 11
95.7705299306
 21
158.5482047983
 31
0.0
 11
95.9651839293
 21
158.4907458316
 31
0.0
 11
96.1947910959
 21
158.470569457
 31
0.0
  0
SPLINE
  5
4D2
100
AcDbEntity
  8
RUNDUNGEN
100
AcDbSpline
 62
9
  6
CONTINUOUS
 70
0
 71
3
 72
17
 73
13
 74
11
 42
0.0000001
 43
0.0000001
 44
0.0000000001
 12
-0.9273908301
 22
0.0000196202
 32
0.0
 13
-0.0000069782
 23
-0.9273908303
 33
0.0
 40
0.0
 40
0.0
 40
0.0
 40
0.0
 40
0.1277891658
 40
0.2491185706
 40
0.3651806951
 40
0.4755530266
 40
0.5795784375
 40
0.6769179325
 40
0.7676838784
 40
0.8518221066
 40
0.9291795475
 40
1.0
 40
1.0
 40
1.0
 40
1.0
 10
96.1947910959
 20
161.8198782482
 30
0.0
 10
96.1552875958
 20
161.8198790839
 30
0.0
 10
96.0779728706
 20
161.8103986021
 30
0.0
 10
95.9711198769
 20
161.7717031588
 30
0.0
 10
95.8782404307
 20
161.7164982231
 30
0.0
 10
95.7994890661
 20
161.6508628532
 30
0.0
 10
95.7344244392
 20
161.5794068378
 30
0.0
 10
95.6823593296
 20
161.505340734
 30
0.0
 10
95.6426540139
 20
161.4308947461
 30
0.0
 10
95.6148526389
 20
161.3577963788
 30
0.0
 10
95.5985476584
 20
161.2876269127
 30
0.0
 10
95.5947912607
 20
161.2417643808
 30
0.0
 10
95.594791096
 20
161.2198716348
 30
0.0
 11
96.1947910959
 21
161.8198782482
 31
0.0
 11
96.0771316039
 21
161.8057014123
 31
0.0
 11
95.9711615956
 21
161.7678720897
 31
0.0
 11
95.8784321962
 21
161.7132228356
 31
0.0
 11
95.7996579641
 21
161.6478635248
 31
0.0
 11
95.7346675537
 21
161.576567422
 31
0.0
 11
95.6828187825
 21
161.5026709086
 31
0.0
 11
95.64336596
 21
161.4283137261
 31
0.0
 11
95.6158598122
 21
161.3552935919
 31
0.0
 11
95.5998994818
 21
161.2853509092
 31
0.0
 11
95.594791096
 21
161.2198716348
 31
0.0
  0
SPLINE
  5
4D3
100
AcDbEntity
  8
RUNDUNGEN
100
AcDbSpline
 62
9
  6
CONTINUOUS
 70
0
 71
3
 72
17
 73
13
 74
11
 42
0.0000001
 43
0.0000001
 44
0.0000000001
 12
-0.0000098362
 22
0.927392291
 32
0.0
 13
-0.9273922908
 23
-0.0000202375
 33
0.0
 40
0.0
 40
0.0
 40
0.0
 40
0.0
 40
0.0707260541
 40
0.1480064675
 40
0.2320432007
 40
0.3226805552
 40
0.4199262247
 40
0.5239268784
 40
0.6343608598
 40
0.7505612532
 40
0.872057065
 40
1.0
 40
1.0
 40
1.0
 40
1.0
 10
50.5947910959
 20
161.2198689239
 30
0.0
 10
50.594790864
 20
161.241732523
 30
0.0
 10
50.591044344
 20
161.2875419684
 30
0.0
 10
50.5747760537
 20
161.3576329403
 30
0.0
 10
50.5470344657
 20
161.4306518907
 30
0.0
 10
50.5074113083
 20
161.505027566
 30
0.0
 10
50.4554327034
 20
161.5790605817
 30
0.0
 10
50.3904256809
 20
161.6505450882
 30
0.0
 10
50.3116754096
 20
161.7162670045
 30
0.0
 10
50.2187298513
 20
161.7715853285
 30
0.0
 10
50.1117570439
 20
161.8103745573
 30
0.0
 10
50.0343421931
 20
161.8198791113
 30
0.0
 10
49.9947910959
 20
161.8198782482
 30
0.0
 11
50.5947910959
 21
161.2198689239
 31
0.0
 11
50.5896962967
 21
161.2852615513
 31
0.0
 11
50.5737689806
 21
161.3551386104
 31
0.0
 11
50.5463214653
 21
161.4280803749
 31
0.0
 11
50.5069591634
 21
161.5023507246
 31
0.0
 11
50.4552028958
 21
161.5762060028
 31
0.0
 11
50.390273977
 21
161.6475272698
 31
0.0
 11
50.3114987254
 21
161.7129751084
 31
0.0
 11
50.2186906223
 21
161.7677436706
 31
0.0
 11
50.1125903321
 21
161.8056675632
 31
0.0
 11
49.9947910959
 21
161.8198782482
 31
0.0
  0
SPLINE
  5
4D4
100
AcDbEntity
  8
RUNDUNGEN
100
AcDbSpline
 62
9
  6
CONTINUOUS
 70
0
 71
3
 72
11
 73
7
 74
5
 42
0.0000001
 43
0.0000001
 44
0.0000000001
 12
-0.0000000008
 22
-0.7006196544
 32
0.0
 13
-0.7006196544
 23
-0.0000000022
 33
0.0
 40
0.0
 40
0.0
 40
0.0
 40
0.0
 40
0.1587865111
 40
0.3813385695
 40
0.6710197549
 40
1.0
 40
1.0
 40
1.0
 40
1.0
 10
50.5947910959
 20
158.735638582
 30
0.0
 10
50.5947910959
 20
158.6985555985
 30
0.0
 10
50.5463721912
 20
158.6124426224
 30
0.0
 10
50.4068520455
 20
158.5355724907
 30
0.0
 10
50.2166309425
 20
158.4821936615
 30
0.0
 10
50.0716211045
 20
158.4705694543
 30
0.0
 10
49.9947910959
 20
158.4705694541
 30
0.0
 11
50.5947910959
 21
158.735638582
 31
0.0
 11
50.5491162392
 21
158.6341982722
 31
0.0
 11
50.4190494595
 21
158.5482038853
 31
0.0
 11
50.2243963411
 21
158.4907457597
 31
0.0
 11
49.9947910959
 21
158.4705694541
 31
0.0
  0
SPLINE
  5
4D5
100
AcDbEntity
  8
RUNDUNGEN
100
AcDbSpline
 62
9
  6
CONTINUOUS
 70
0
 71
3
 72
11
 73
7
 74
5
 42
0.0000001
 43
0.0000001
 44
0.0000000001
 12
-0.3633814235
 22
-0.5071400996
 32
0.0
 13
-0.6217331111
 23
-0.051817739
 33
0.0
 40
0.0
 40
0.0
 40
0.0
 40
0.0
 40
0.1651498325
 40
0.3987835465
 40
0.6857082634
 40
1.0
 40
1.0
 40
1.0
 40
1.0
 10
50.6152343588
 20
157.9941066578
 30
0.0
 10
50.5952302317
 20
157.9661886237
 30
0.0
 10
50.5255053433
 20
157.9161102827
 30
0.0
 10
50.3939363959
 20
157.8616319923
 30
0.0
 10
50.2249033346
 20
157.8187816071
 30
0.0
 10
50.1008152975
 20
157.8018774334
 30
0.0
 10
50.0356801044
 20
157.7964488044
 30
0.0
 11
50.6152343588
 21
157.9941066578
 31
0.0
 11
50.5363146427
 21
157.9278653263
 31
0.0
 11
50.4030502118
 21
157.868814596
 31
0.0
 11
50.2299070708
 21
157.823364525
 31
0.0
 11
50.0356801044
 21
157.7964488044
 31
0.0
  0
SPLINE
  5
4D6
100
AcDbEntity
  8
RUNDUNGEN
100
AcDbSpline
 62
9
  6
CONTINUOUS
 70
0
 71
3
 72
11
 73
7
 74
5
 42
0.0000001
 43
0.0000001
 44
0.0000000001
 12
-0.3633561607
 22
0.507159318
 32
0.0
 13
-0.621733969
 23
0.0518183862
 33
0.0
 40
0.0
 40
0.0
 40
0.0
 40
0.0
 40
0.1651463088
 40
0.3987789339
 40
0.6857051656
 40
1.0
 40
1.0
 40
1.0
 40
1.0
 10
50.6152330344
 20
153.6456498386
 30
0.0
 10
50.5952307249
 20
153.673568335
 30
0.0
 10
50.5255071417
 20
153.7236478416
 30
0.0
 10
50.3939391155
 20
153.7781268702
 30
0.0
 10
50.2249051674
 20
153.8209781314
 30
0.0
 10
50.1008160294
 20
153.8378826336
 30
0.0
 10
50.0356801044
 20
153.843311384
 30
0.0
 11
50.6152330344
 21
153.6456498386
 31
0.0
 11
50.5363167645
 21
153.7118920896
 31
0.0
 11
50.4030533451
 21
153.7709439498
 31
0.0
 11
50.2299092228
 21
153.8163950316
 31
0.0
 11
50.0356801044
 21
153.843311384
 31
0.0
  0
SPLINE
  5
4D7
100
AcDbEntity
  8
RUNDUNGEN
100
AcDbSpline
 62
9
  6
CONTINUOUS
 70
0
 71
3
 72
11
 73
7
 74
5
 42
0.0000001
 43
0.0000001
 44
0.0000000001
 12
-0.0000000009
 22
0.7006199565
 32
0.0
 13
-0.7006199565
 23
-0.0000012385
 33
0.0
 40
0.0
 40
0.0
 40
0.0
 40
0.0
 40
0.1587837514
 40
0.3813345801
 40
0.6710171748
 40
1.0
 40
1.0
 40
1.0
 40
1.0
 10
50.5947910959
 20
152.9041179144
 30
0.0
 10
50.5947910959
 20
152.9412002694
 30
0.0
 10
50.5463736769
 20
153.0273126396
 30
0.0
 10
50.4068543194
 20
153.1041835901
 30
0.0
 10
50.2166326202
 20
153.157562962
 30
0.0
 10
50.0716217402
 20
153.1691871752
 30
0.0
 10
49.9947910959
 20
153.1691870393
 30
0.0
 11
50.5947910959
 21
152.9041179144
 31
0.0
 11
50.5491177405
 21
153.0055568323
 31
0.0
 11
50.4190522439
 21
153.0915517198
 31
0.0
 11
50.2243982506
 21
153.1490106781
 31
0.0
 11
49.9947910959
 21
153.1691870393
 31
0.0
  0
SPLINE
  5
4D8
100
AcDbEntity
  8
RUNDUNGEN
100
AcDbSpline
 62
9
  6
CONTINUOUS
 70
0
 71
3
 72
17
 73
13
 74
11
 42
0.0000001
 43
0.0000001
 44
0.0000000001
 12
0.9273912811
 22
-0.000020415
 32
0.0
 13
0.0000099592
 23
0.9273912812
 33
0.0
 40
0.0
 40
0.0
 40
0.0
 40
0.0
 40
0.1281080825
 40
0.2497471369
 40
0.3660423563
 40
0.4765001664
 40
0.5804664624
 40
0.6776456575
 40
0.7682117631
 40
0.8521815991
 40
0.9293846015
 40
1.0
 40
1.0
 40
1.0
 40
1.0
 10
49.9947910959
 20
149.8198782482
 30
0.0
 10
50.0343932022
 20
149.8198773764
 30
0.0
 10
50.1119043914
 20
149.8294064322
 30
0.0
 10
50.2189802582
 20
149.8682832583
 30
0.0
 10
50.3119663482
 20
149.9236931496
 30
0.0
 10
50.3907001418
 20
149.9894752437
 30
0.0
 10
50.4556541152
 20
150.0609752468
 30
0.0
 10
50.5075681148
 20
150.1349880355
 30
0.0
 10
50.5471316653
 20
150.2093232881
 30
0.0
 10
50.5748241139
 20
150.2822891258
 30
0.0
 10
50.5910550171
 20
150.3523072781
 30
0.0
 10
50.5947908614
 20
150.39805832
 30
0.0
 10
50.5947910959
 20
150.4198876883
 30
0.0
 11
49.9947910959
 21
149.8198782482
 31
0.0
 11
50.1127400821
 21
149.8341252844
 31
0.0
 11
50.2189501083
 21
149.8721364573
 31
0.0
 11
50.3118046631
 21
149.9269990772
 31
0.0
 11
50.3905603047
 21
149.9925049003
 31
0.0
 11
50.4554305848
 21
150.0638363016
 31
0.0
 11
50.5071174243
 21
150.1376648237
 31
0.0
 11
50.5464190259
 21
150.2118924508
 31
0.0
 11
50.5738194692
 21
150.2847855457
 31
0.0
 11
50.5897118511
 21
150.3545968531
 31
0.0
 11
50.5947910959
 21
150.4198876883
 31
0.0
  0
SPLINE
  5
4D9
100
AcDbEntity
  8
RUNDUNGEN
100
AcDbSpline
 62
9
  6
CONTINUOUS
 70
0
 71
3
 72
17
 73
13
 74
11
 42
0.0000001
 43
0.0000001
 44
0.0000000001
 12
0.000007219
 22
-0.9273898651
 32
0.0
 13
0.9273898649
 23
0.0000198177
 33
0.0
 40
0.0
 40
0.0
 40
0.0
 40
0.0
 40
0.0706993173
 40
0.1479703274
 40
0.2320353342
 40
0.3227270293
 40
0.4199990707
 40
0.5239914084
 40
0.6343910495
 40
0.7505536399
 40
0.8720340156
 40
1.0
 40
1.0
 40
1.0
 40
1.0
 10
70.594791096
 20
150.419885089
 30
0.0
 10
70.5947912661
 20
150.3980298122
 30
0.0
 10
70.5985358981
 20
150.3522317293
 30
0.0
 10
70.6147996719
 20
150.2821424423
 30
0.0
 10
70.6425472432
 20
150.2091015033
 30
0.0
 10
70.6821886219
 20
150.134697227
 30
0.0
 10
70.7341858602
 20
150.0606500435
 30
0.0
 10
70.7991956093
 20
149.9891752294
 30
0.0
 10
70.8779306744
 20
149.9234747826
 30
0.0
 10
70.9708533973
 20
149.8681725316
 30
0.0
 10
71.0778158384
 20
149.8293839978
 30
0.0
 10
71.155232977
 20
149.8198774029
 30
0.0
 10
71.1947910959
 20
149.8198782482
 30
0.0
 11
70.594791096
 21
150.419885089
 31
0.0
 11
70.5998824199
 21
150.3545172335
 31
0.0
 11
70.6158040134
 21
150.2846480067
 31
0.0
 11
70.6432583972
 21
150.211681029
 31
0.0
 11
70.6826463587
 21
150.1373674923
 31
0.0
 11
70.7344223606
 21
150.0634964675
 31
0.0
 11
70.7993522864
 21
149.9921868882
 31
0.0
 11
70.8781070842
 21
149.9267646856
 31
0.0
 11
70.9708856989
 21
149.8720156893
 31
0.0
 11
71.0769712487
 21
149.8340939648
 31
0.0
 11
71.1947910959
 21
149.8198782482
 31
0.0
  0
SPLINE
  5
4DA
100
AcDbEntity
  8
RUNDUNGEN
100
AcDbSpline
 62
9
  6
CONTINUOUS
 70
0
 71
3
 72
11
 73
7
 74
5
 42
0.0000001
 43
0.0000001
 44
0.0000000001
 12
0.0000000008
 22
0.7006196552
 32
0.0
 13
0.7006196552
 23
0.0000000019
 33
0.0
 40
0.0
 40
0.0
 40
0.0
 40
0.0
 40
0.1587864819
 40
0.3813385198
 40
0.6710197157
 40
1.0
 40
1.0
 40
1.0
 40
1.0
 10
70.5947910959
 20
152.9041179144
 30
0.0
 10
70.594791096
 20
152.9412008911
 30
0.0
 10
70.6432099857
 20
153.0273138583
 30
0.0
 10
70.7827301199
 20
153.1041839959
 30
0.0
 10
70.9729512281
 20
153.1575628322
 30
0.0
 10
71.1179610782
 20
153.1691870418
 30
0.0
 10
71.1947910959
 20
153.1691870421
 30
0.0
 11
70.5947910959
 21
152.9041179144
 31
0.0
 11
70.640465938
 21
153.0055582085
 31
0.0
 11
70.7705326998
 21
153.0915525966
 31
0.0
 11
70.9651858234
 21
153.1490107314
 31
0.0
 11
71.1947910959
 21
153.1691870421
 31
0.0
  0
SPLINE
  5
4DB
100
AcDbEntity
  8
RUNDUNGEN
100
AcDbSpline
 62
9
  6
CONTINUOUS
 70
0
 71
3
 72
11
 73
7
 74
5
 42
0.0000001
 43
0.0000001
 44
0.0000000001
 12
0.3633813427
 22
0.5071400703
 32
0.0
 13
0.6217330367
 23
0.0518177794
 33
0.0
 40
0.0
 40
0.0
 40
0.0
 40
0.0
 40
0.1651498614
 40
0.3987835726
 40
0.6857082719
 40
1.0
 40
1.0
 40
1.0
 40
1.0
 10
70.574347937
 20
153.6456498386
 30
0.0
 10
70.5943520631
 20
153.673567876
 30
0.0
 10
70.6640769335
 20
153.7236462314
 30
0.0
 10
70.7956458581
 20
153.7781245442
 30
0.0
 10
70.9646788876
 20
153.820974949
 30
0.0
 10
71.088766904
 20
153.8378791322
 30
0.0
 10
71.1539020875
 20
153.8433077654
 30
0.0
 11
70.574347937
 21
153.6456498386
 31
0.0
 11
70.6532676452
 21
153.7118911892
 31
0.0
 11
70.7865320474
 21
153.7709419392
 31
0.0
 11
70.9596751511
 21
153.8163920291
 31
0.0
 11
71.1539020875
 21
153.8433077654
 31
0.0
  0
SPLINE
  5
4DC
100
AcDbEntity
  8
RUNDUNGEN
100
AcDbSpline
 62
9
  6
CONTINUOUS
 70
0
 71
3
 72
11
 73
7
 74
5
 42
0.0000001
 43
0.0000001
 44
0.0000000001
 12
0.3633578723
 22
-0.5071580923
 32
0.0
 13
0.6217339765
 23
-0.0518183012
 33
0.0
 40
0.0
 40
0.0
 40
0.0
 40
0.0
 40
0.1651465179
 40
0.3987792164
 40
0.6857053621
 40
1.0
 40
1.0
 40
1.0
 40
1.0
 10
70.5743489859
 20
157.9941066578
 30
0.0
 10
70.594351415
 20
157.9661881935
 30
0.0
 10
70.6640750978
 20
157.9161087731
 30
0.0
 10
70.7956432031
 20
157.8616298095
 30
0.0
 10
70.9646771194
 20
157.8187786216
 30
0.0
 10
71.0887662025
 20
157.80187415
 30
0.0
 10
71.1539020875
 20
157.7964454119
 30
0.0
 11
70.5743489859
 21
157.9941066578
 31
0.0
 11
70.6532654878
 21
157.92786448
 31
0.0
 11
70.7865289965
 21
157.8688127084
 31
0.0
 11
70.959673085
 21
157.8233617081
 31
0.0
 11
71.1539020875
 21
157.7964454119
 31
0.0
  0
SPLINE
  5
4DD
100
AcDbEntity
  8
RUNDUNGEN
100
AcDbSpline
 62
9
  6
CONTINUOUS
 70
0
 71
3
 72
11
 73
7
 74
5
 42
0.0000001
 43
0.0000001
 44
0.0000000001
 12
0.0000000009
 22
-0.7006199476
 32
0.0
 13
0.7006199476
 23
0.0000011934
 33
0.0
 40
0.0
 40
0.0
 40
0.0
 40
0.0
 40
0.1587837244
 40
0.3813345427
 40
0.6710171519
 40
1.0
 40
1.0
 40
1.0
 40
1.0
 10
70.5947910959
 20
158.735638582
 30
0.0
 10
70.594791096
 20
158.6985562338
 30
0.0
 10
70.6432085104
 20
158.6124438741
 30
0.0
 10
70.7827278602
 20
158.5355729262
 30
0.0
 10
70.9729495613
 20
158.4821935474
 30
0.0
 10
71.1179604473
 20
158.4705693262
 30
0.0
 10
71.1947910959
 20
158.470569457
 30
0.0
 11
70.5947910959
 21
158.735638582
 31
0.0
 11
70.6404644431
 21
158.6341996826
 31
0.0
 11
70.7705299306
 21
158.5482047983
 31
0.0
 11
70.9651839293
 21
158.4907458316
 31
0.0
 11
71.1947910959
 21
158.470569457
 31
0.0
  0
SPLINE
  5
4DE
100
AcDbEntity
  8
RUNDUNGEN
100
AcDbSpline
 62
9
  6
CONTINUOUS
 70
0
 71
3
 72
17
 73
13
 74
11
 42
0.0000001
 43
0.0000001
 44
0.0000000001
 12
-0.9273908301
 22
0.0000196202
 32
0.0
 13
-0.0000069782
 23
-0.9273908303
 33
0.0
 40
0.0
 40
0.0
 40
0.0
 40
0.0
 40
0.1277891658
 40
0.2491185706
 40
0.3651806951
 40
0.4755530266
 40
0.5795784375
 40
0.6769179325
 40
0.7676838784
 40
0.8518221066
 40
0.9291795475
 40
1.0
 40
1.0
 40
1.0
 40
1.0
 10
71.1947910959
 20
161.8198782482
 30
0.0
 10
71.1552875958
 20
161.8198790839
 30
0.0
 10
71.0779728706
 20
161.8103986021
 30
0.0
 10
70.9711198769
 20
161.7717031588
 30
0.0
 10
70.8782404307
 20
161.7164982231
 30
0.0
 10
70.7994890661
 20
161.6508628532
 30
0.0
 10
70.7344244392
 20
161.5794068378
 30
0.0
 10
70.6823593296
 20
161.505340734
 30
0.0
 10
70.6426540139
 20
161.4308947461
 30
0.0
 10
70.6148526389
 20
161.3577963788
 30
0.0
 10
70.5985476584
 20
161.2876269127
 30
0.0
 10
70.5947912607
 20
161.2417643808
 30
0.0
 10
70.594791096
 20
161.2198716348
 30
0.0
 11
71.1947910959
 21
161.8198782482
 31
0.0
 11
71.0771316039
 21
161.8057014123
 31
0.0
 11
70.9711615956
 21
161.7678720897
 31
0.0
 11
70.8784321962
 21
161.7132228356
 31
0.0
 11
70.7996579641
 21
161.6478635248
 31
0.0
 11
70.7346675537
 21
161.576567422
 31
0.0
 11
70.6828187825
 21
161.5026709086
 31
0.0
 11
70.64336596
 21
161.4283137261
 31
0.0
 11
70.6158598122
 21
161.3552935919
 31
0.0
 11
70.5998994818
 21
161.2853509092
 31
0.0
 11
70.594791096
 21
161.2198716348
 31
0.0
  0
SPLINE
  5
4DF
100
AcDbEntity
  8
RUNDUNGEN
100
AcDbSpline
 62
9
  6
CONTINUOUS
 70
0
 71
3
 72
9
 73
5
 74
3
 42
0.0000001
 43
0.0000001
 44
0.0000000001
 12
0.0000154758
 22
-0.675577816
 32
0.0
 13
-0.0690824548
 23
-0.6720364575
 33
0.0
 40
0.0
 40
0.0
 40
0.0
 40
0.0
 40
0.4753996259
 40
1.0
 40
1.0
 40
1.0
 40
1.0
 10
121.1947910959
 20
158.470569461
 30
0.0
 10
121.1947935483
 20
158.3635129807
 30
0.0
 10
121.1860608011
 20
158.1383089348
 30
0.0
 10
121.1659823147
 20
157.9139663887
 30
0.0
 10
121.1539020875
 20
157.7964495297
 30
0.0
 11
121.1947910959
 21
158.470569461
 31
0.0
 11
121.1839262673
 21
158.1495838454
 31
0.0
 11
121.1539020875
 21
157.7964495297
 31
0.0
  0
SPLINE
  5
4E0
100
AcDbEntity
  8
RUNDUNGEN
100
AcDbSpline
 62
9
  6
CONTINUOUS
 70
0
 71
3
 72
10
 73
6
 74
4
 42
0.0000001
 43
0.0000001
 44
0.0000000001
 12
-0.2026259293
 22
-2.1677103266
 32
0.0
 13
-0.0000386921
 23
-2.177159922
 33
0.0
 40
0.0
 40
0.0
 40
0.0
 40
0.0
 40
0.3280145988
 40
0.6635698979
 40
1.0
 40
1.0
 40
1.0
 40
1.0
 10
120.5743465917
 20
157.9941066578
 30
0.0
 10
120.5521918374
 20
157.7570931135
 30
0.0
 10
120.5154762877
 20
157.2768274863
 30
0.0
 10
120.482862361
 20
156.5517386524
 30
0.0
 10
120.475636132
 20
156.0640322932
 30
0.0
 10
120.475631793
 20
155.8198782482
 30
0.0
 11
120.5743465917
 21
157.9941066578
 31
0.0
 11
120.5195768375
 21
157.2820697528
 31
0.0
 11
120.4865537997
 21
156.5522589477
 31
0.0
 11
120.475631793
 21
155.8198782482
 31
0.0
  0
SPLINE
  5
4E1
100
AcDbEntity
  8
RUNDUNGEN
100
AcDbSpline
 62
9
  6
CONTINUOUS
 70
0
 71
3
 72
10
 73
6
 74
4
 42
0.0000001
 43
0.0000001
 44
0.0000000001
 12
0.0000440222
 22
-2.1771599297
 32
0.0
 13
0.2026221171
 23
-2.1677106908
 33
0.0
 40
0.0
 40
0.0
 40
0.0
 40
0.0
 40
0.3361956743
 40
0.6716914963
 40
1.0
 40
1.0
 40
1.0
 40
1.0
 10
120.475631793
 20
155.8198782482
 30
0.0
 10
120.4756367263
 20
155.5758943313
 30
0.0
 10
120.4828532579
 20
155.0884013162
 30
0.0
 10
120.5154506328
 20
154.3633117706
 30
0.0
 10
120.5521724037
 20
153.8828757897
 30
0.0
 10
120.5743465917
 20
153.6456498386
 30
0.0
 11
120.475631793
 21
155.8198782482
 31
0.0
 11
120.4865381401
 21
155.0880077562
 31
0.0
 11
120.5195378937
 21
154.3583255188
 31
0.0
 11
120.5743465917
 21
153.6456498386
 31
0.0
  0
SPLINE
  5
4E2
100
AcDbEntity
  8
RUNDUNGEN
100
AcDbSpline
 62
9
  6
CONTINUOUS
 70
0
 71
3
 72
12
 73
8
 74
6
 42
0.0000001
 43
0.0000001
 44
0.0000000001
 12
0.0
 22
0.9226849389
 32
0.0
 13
0.9226849389
 23
0.0
 33
0.0
 40
0.0
 40
0.0
 40
0.0
 40
0.0
 40
0.2032424509
 40
0.4052921817
 40
0.6053252621
 40
0.803302737
 40
1.0
 40
1.0
 40
1.0
 40
1.0
 10
100.6152356002
 20
161.2198782482
 30
0.0
 10
100.6152356002
 20
161.282387831
 30
0.0
 10
100.6343119195
 20
161.4078696753
 30
0.0
 10
100.717570519
 20
161.5775380122
 30
0.0
 10
100.8477089589
 20
161.7127530942
 30
0.0
 10
101.012003796
 20
161.7998115295
 30
0.0
 10
101.1342945619
 20
161.8198782482
 30
0.0
 10
101.1947910959
 20
161.8198782482
 30
0.0
 11
100.6152356002
 21
161.2198782482
 31
0.0
 11
100.6435893478
 21
161.4052511061
 31
0.0
 11
100.7259026013
 21
161.572523394
 31
0.0
 11
100.8541250108
 21
161.7052794848
 31
0.0
 11
101.0156933444
 21
161.7905103905
 31
0.0
 11
101.1947910959
 21
161.8198782482
 31
0.0
  0
SPLINE
  5
4E3
100
AcDbEntity
  8
RUNDUNGEN
100
AcDbSpline
 62
9
  6
CONTINUOUS
 70
0
 71
3
 72
11
 73
7
 74
5
 42
0.0000001
 43
0.0000001
 44
0.0000000001
 12
0.1936957887
 22
0.617809713
 32
0.0
 13
0.6391552313
 23
0.1048730137
 33
0.0
 40
0.0
 40
0.0
 40
0.0
 40
0.0
 40
0.289324644
 40
0.5757468811
 40
0.8592369975
 40
1.0
 40
1.0
 40
1.0
 40
1.0
 10
104.1027120567
 20
161.4052884448
 30
0.0
 10
104.1213923784
 20
161.4648709699
 30
0.0
 10
104.1766992452
 20
161.5775611774
 30
0.0
 10
104.3068348602
 20
161.712762606
 30
0.0
 10
104.4439390842
 20
161.7854098077
 30
0.0
 10
104.5332565589
 20
161.8075294984
 30
0.0
 10
104.5632463621
 20
161.8124502451
 30
0.0
 11
104.1027120567
 21
161.4052884448
 31
0.0
 11
104.1850318422
 21
161.5725493996
 31
0.0
 11
104.3132479142
 21
161.7052884448
 31
0.0
 11
104.4748095901
 21
161.790512158
 31
0.0
 11
104.5632463621
 21
161.8124502451
 31
0.0
  0
SPLINE
  5
4E4
100
AcDbEntity
  8
RUNDUNGEN
100
AcDbSpline
 62
9
  6
CONTINUOUS
 70
0
 71
3
 72
9
 73
5
 74
3
 42
0.0000001
 43
0.0000001
 44
0.0000000001
 12
0.069082734
 22
-0.6720367107
 32
0.0
 13
-0.0000103327
 23
-0.6755780965
 33
0.0
 40
0.0
 40
0.0
 40
0.0
 40
0.0
 40
0.5268430945
 40
1.0
 40
1.0
 40
1.0
 40
1.0
 10
121.1539020875
 20
153.8433069667
 30
0.0
 10
121.1660340079
 20
153.7252876666
 30
0.0
 10
121.1861021492
 20
153.5009427385
 30
0.0
 10
121.1947927256
 20
153.2757385159
 30
0.0
 10
121.1947910959
 20
153.1691870354
 30
0.0
 11
121.1539020875
 21
153.8433069667
 31
0.0
 11
121.1840215328
 21
153.4886600054
 31
0.0
 11
121.1947910959
 21
153.1691870354
 31
0.0
  0
SPLINE
  5
4E5
100
AcDbEntity
  8
RUNDUNGEN
100
AcDbSpline
 62
9
  6
CONTINUOUS
 70
0
 71
3
 72
12
 73
8
 74
6
 42
0.0000001
 43
0.0000001
 44
0.0000000001
 12
0.0
 22
0.9226849389
 32
0.0
 13
-0.9226849389
 23
0.0
 33
0.0
 40
0.0
 40
0.0
 40
0.0
 40
0.0
 40
0.2032425192
 40
0.405292198
 40
0.605325203
 40
0.8033026552
 40
1.0
 40
1.0
 40
1.0
 40
1.0
 10
120.5743465917
 20
161.2198782482
 30
0.0
 10
120.5743465917
 20
161.282387852
 30
0.0
 10
120.5552702649
 20
161.4078697022
 30
0.0
 10
120.4720116631
 20
161.5775380153
 30
0.0
 10
120.3418732619
 20
161.7127530661
 30
0.0
 10
120.1775784403
 20
161.7998115177
 30
0.0
 10
120.0552876551
 20
161.8198782482
 30
0.0
 10
119.9947910959
 20
161.8198782482
 30
0.0
 11
120.5743465917
 21
161.2198782482
 31
0.0
 11
120.545992825
 21
161.405251167
 31
0.0
 11
120.4636795818
 21
161.5725234064
 31
0.0
 11
120.3354572253
 21
161.7052794516
 31
0.0
 11
120.17388892
 21
161.7905103662
 31
0.0
 11
119.9947910959
 21
161.8198782482
 31
0.0
  0
SPLINE
  5
4E6
100
AcDbEntity
  8
RUNDUNGEN
100
AcDbSpline
 62
9
  6
CONTINUOUS
 70
0
 71
3
 72
11
 73
7
 74
5
 42
0.0000001
 43
0.0000001
 44
0.0000000001
 12
-0.0000000231
 22
0.7799271808
 32
0.0
 13
0.7799271808
 23
0.0
 33
0.0
 40
0.0
 40
0.0
 40
0.0
 40
0.0
 40
0.2968306978
 40
0.5687189507
 40
0.8008035037
 40
1.0
 40
1.0
 40
1.0
 40
1.0
 10
106.3909912276
 20
161.2198782482
 30
0.0
 10
106.3909912254
 20
161.2970470246
 30
0.0
 10
106.4091888312
 20
161.445722689
 30
0.0
 10
106.4893112882
 20
161.6408511277
 30
0.0
 10
106.6141029681
 20
161.7814948618
 30
0.0
 10
106.7272480363
 20
161.8198782482
 30
0.0
 10
106.7790342903
 20
161.8198782482
 30
0.0
 11
106.3909912276
 21
161.2198782482
 31
0.0
 11
106.4205303173
 21
161.4494923216
 31
0.0
 11
106.5046494603
 21
161.6441470439
 31
0.0
 11
106.6305399149
 21
161.7742080683
 31
0.0
 11
106.7790342903
 21
161.8198782482
 31
0.0
  0
SPLINE
  5
4E7
100
AcDbEntity
  8
RUNDUNGEN
100
AcDbSpline
 62
9
  6
CONTINUOUS
 70
0
 71
3
 72
11
 73
7
 74
5
 42
0.0000001
 43
0.0000001
 44
0.0000000001
 12
-0.0000000103
 22
0.7799271009
 32
0.0
 13
-0.7799271009
 23
0.0
 33
0.0
 40
0.0
 40
0.0
 40
0.0
 40
0.0
 40
0.2968255055
 40
0.568711948
 40
0.8007987174
 40
1.0
 40
1.0
 40
1.0
 40
1.0
 10
114.7985909643
 20
161.2198782482
 30
0.0
 10
114.7985909633
 20
161.2970456668
 30
0.0
 10
114.7803938988
 20
161.4457194559
 30
0.0
 10
114.7002731804
 20
161.6408471089
 30
0.0
 10
114.5754822503
 20
161.7814932057
 30
0.0
 10
114.4623353946
 20
161.8198782482
 30
0.0
 10
114.4105479016
 20
161.8198782482
 30
0.0
 11
114.7985909643
 21
161.2198782482
 31
0.0
 11
114.7690529312
 21
161.4494883506
 31
0.0
 11
114.6849357521
 21
161.6441423598
 31
0.0
 11
114.559045525
 21
161.7742059843
 31
0.0
 11
114.4105479016
 21
161.8198782482
 31
0.0
  0
SPLINE
  5
4E8
100
AcDbEntity
  8
RUNDUNGEN
100
AcDbSpline
 62
9
  6
CONTINUOUS
 70
0
 71
3
 72
11
 73
7
 74
5
 42
0.0000001
 43
0.0000001
 44
0.0000000001
 12
-0.1936957816
 22
0.6178097359
 32
0.0
 13
-0.6391552519
 23
0.1048730087
 33
0.0
 40
0.0
 40
0.0
 40
0.0
 40
0.0
 40
0.2893246407
 40
0.5757468864
 40
0.8592370059
 40
1.0
 40
1.0
 40
1.0
 40
1.0
 10
117.0868701391
 20
161.4052884324
 30
0.0
 10
117.0681898183
 20
161.4648709591
 30
0.0
 10
117.0128829513
 20
161.5775611721
 30
0.0
 10
116.8827473316
 20
161.7127626074
 30
0.0
 10
116.7456431018
 20
161.7854098104
 30
0.0
 10
116.6563256251
 20
161.8075295001
 30
0.0
 10
116.6263358228
 20
161.8124502463
 30
0.0
 11
117.0868701391
 21
161.4052884324
 31
0.0
 11
117.004550355
 21
161.5725493919
 31
0.0
 11
116.8763342761
 21
161.7052884461
 31
0.0
 11
116.7147725925
 21
161.7905121611
 31
0.0
 11
116.6263358228
 21
161.8124502463
 31
0.0
  0
SPLINE
  5
4E9
100
AcDbEntity
  8
RUNDUNGEN
100
AcDbSpline
 62
9
  6
CONTINUOUS
 70
0
 71
3
 72
10
 73
6
 74
4
 42
0.0000001
 43
0.0000001
 44
0.0000000001
 12
0.0000329474
 22
-1.979795143
 32
0.0
 13
0.2025071144
 23
-1.9694109977
 33
0.0
 40
0.0
 40
0.0
 40
0.0
 40
0.0
 40
0.3362510948
 40
0.6712569189
 40
1.0
 40
1.0
 40
1.0
 40
1.0
 10
121.0551872887
 20
155.8198782482
 30
0.0
 10
121.0551909816
 20
155.5979754868
 30
0.0
 10
121.0624103935
 20
155.154955294
 30
0.0
 10
121.0950085099
 20
154.495717488
 30
0.0
 10
121.1317111499
 20
154.0591170465
 30
0.0
 10
121.1539020875
 20
153.8433069667
 30
0.0
 11
121.0551872887
 21
155.8198782482
 31
0.0
 11
121.0661029741
 21
155.1542594626
 31
0.0
 11
121.0990504932
 21
154.4918354217
 31
0.0
 11
121.1539020875
 21
153.8433069667
 31
0.0
  0
SPLINE
  5
4EA
100
AcDbEntity
  8
RUNDUNGEN
100
AcDbSpline
 62
9
  6
CONTINUOUS
 70
0
 71
3
 72
12
 73
8
 74
6
 42
0.0000001
 43
0.0000001
 44
0.0000000001
 12
0.0
 22
-0.6432360924
 32
0.0
 13
-0.6432360924
 23
0.0
 33
0.0
 40
0.0
 40
0.0
 40
0.0
 40
0.0
 40
0.2884299278
 40
0.5507287367
 40
0.7639160571
 40
0.9125326828
 40
1.0
 40
1.0
 40
1.0
 40
1.0
 10
219.0075133074
 20
150.4198782482
 30
0.0
 10
219.0075133074
 20
150.3580354016
 30
0.0
 10
219.0027063995
 20
150.2398652237
 30
0.0
 10
218.98308048
 20
150.0772008063
 30
0.0
 10
218.9499723365
 20
149.9464202918
 30
0.0
 10
218.9152526183
 20
149.8579534315
 30
0.0
 10
218.8709759255
 20
149.8198782482
 30
0.0
 10
218.8522218804
 20
149.8198782482
 30
0.0
 11
219.0075133074
 21
150.4198782482
 31
0.0
 11
218.9999159385
 21
150.2345053294
 31
0.0
 11
218.9778601715
 21
150.06723309
 31
0.0
 11
218.9435030946
 21
149.9344770448
 31
0.0
 11
218.9002109977
 21
149.8492461302
 31
0.0
 11
218.8522218804
 21
149.8198782482
 31
0.0
  0
SPLINE
  5
4EB
100
AcDbEntity
  8
RUNDUNGEN
100
AcDbSpline
 62
9
  6
CONTINUOUS
 70
0
 71
3
 72
12
 73
8
 74
6
 42
0.0000001
 43
0.0000001
 44
0.0000000001
 12
0.0
 22
-0.6432362514
 32
0.0
 13
-0.6432362514
 23
-0.0
 33
0.0
 40
0.0
 40
0.0
 40
0.0
 40
0.0
 40
0.2884879417
 40
0.5507696562
 40
0.7639306964
 40
0.9125360571
 40
1.0
 40
1.0
 40
1.0
 40
1.0
 10
231.9170912769
 20
150.4198782482
 30
0.0
 10
231.9170912769
 20
150.3580229475
 30
0.0
 10
231.9122831211
 20
150.239843924
 30
0.0
 10
231.8926538347
 20
150.0771766645
 30
0.0
 10
231.8595461558
 20
149.9464083153
 30
0.0
 10
231.824827729
 20
149.8579499857
 30
0.0
 10
231.7805531762
 20
149.8198782482
 30
0.0
 10
231.76179985
 20
149.8198782482
 30
0.0
 11
231.9170912769
 21
150.4198782482
 31
0.0
 11
231.9094907745
 21
150.2344680639
 31
0.0
 11
231.8874332548
 21
150.0672071045
 31
0.0
 11
231.85307786
 21
149.9344680503
 31
0.0
 11
231.8097875374
 21
149.8492443353
 31
0.0
 11
231.76179985
 21
149.8198782482
 31
0.0
  0
SPLINE
  5
4EC
100
AcDbEntity
  8
RUNDUNGEN
100
AcDbSpline
 62
9
  6
CONTINUOUS
 70
0
 71
3
 72
11
 73
7
 74
5
 42
0.0000001
 43
0.0000001
 44
0.0000000001
 12
-0.0000000212
 22
-0.8290745334
 32
0.0
 13
-0.8290745334
 23
0.0
 33
0.0
 40
0.0
 40
0.0
 40
0.0
 40
0.0
 40
0.2801165327
 40
0.5436324701
 40
0.7817036879
 40
1.0
 40
1.0
 40
1.0
 40
1.0
 10
242.3888404995
 20
150.4198782482
 30
0.0
 10
242.3888404976
 20
150.3424657536
 30
0.0
 10
242.3667203047
 20
150.1911631074
 30
0.0
 10
242.269710434
 20
149.9937768638
 30
0.0
 10
242.1192834095
 20
149.8549637615
 30
0.0
 10
241.9915413499
 20
149.8198782482
 30
0.0
 10
241.9312133789
 20
149.8198782482
 30
0.0
 11
242.3888404995
 21
150.4198782482
 31
0.0
 11
242.3540057003
 21
150.1902681753
 31
0.0
 11
242.2548046
 21
149.9956141629
 31
0.0
 11
242.106339677
 21
149.865550521
 31
0.0
 11
241.9312133789
 21
149.8198782482
 31
0.0
  0
SPLINE
  5
4ED
100
AcDbEntity
  8
RUNDUNGEN
100
AcDbSpline
 62
9
  6
CONTINUOUS
 70
0
 71
3
 72
11
 73
7
 74
5
 42
0.0000001
 43
0.0000001
 44
0.0000000001
 12
-0.0000000208
 22
0.8290745833
 32
0.0
 13
-0.8290745833
 23
0.0
 33
0.0
 40
0.0
 40
0.0
 40
0.0
 40
0.0
 40
0.2801215152
 40
0.5436394746
 40
0.7817088342
 40
1.0
 40
1.0
 40
1.0
 40
1.0
 10
242.3888404995
 20
161.2198782482
 30
0.0
 10
242.3888404976
 20
161.2972921243
 30
0.0
 10
242.3667196235
 20
161.4485967721
 30
0.0
 10
242.2697075882
 20
161.6459837208
 30
0.0
 10
242.1192800016
 20
161.7847942017
 30
0.0
 10
241.9915399313
 20
161.8198782482
 30
0.0
 10
241.9312133789
 20
161.8198782482
 30
0.0
 11
242.3888404995
 21
161.2198782482
 31
0.0
 11
242.3540044368
 21
161.4494923216
 31
0.0
 11
242.2548010085
 21
161.6441470439
 31
0.0
 11
242.1063358247
 21
161.7742080683
 31
0.0
 11
241.9312133789
 21
161.8198782482
 31
0.0
  0
SPLINE
  5
4EE
100
AcDbEntity
  8
RUNDUNGEN
100
AcDbSpline
 62
9
  6
CONTINUOUS
 70
0
 71
3
 72
12
 73
8
 74
6
 42
0.0000001
 43
0.0000001
 44
0.0000000001
 12
0.0
 22
0.6432362514
 32
0.0
 13
-0.6432362514
 23
0.0
 33
0.0
 40
0.0
 40
0.0
 40
0.0
 40
0.0
 40
0.288487961
 40
0.5507696684
 40
0.7639306944
 40
0.912536051
 40
1.0
 40
1.0
 40
1.0
 40
1.0
 10
231.9170912769
 20
161.2198782482
 30
0.0
 10
231.9170912769
 20
161.2817335531
 30
0.0
 10
231.9122831207
 20
161.3999125792
 30
0.0
 10
231.8926538334
 20
161.562579838
 30
0.0
 10
231.8595461553
 20
161.693348182
 30
0.0
 10
231.8248277298
 20
161.7818065086
 30
0.0
 10
231.7805531774
 20
161.8198782482
 30
0.0
 10
231.7617998498
 20
161.8198782482
 30
0.0
 11
231.9170912769
 21
161.2198782482
 31
0.0
 11
231.9094907735
 21
161.4052884448
 31
0.0
 11
231.8874332534
 21
161.5725493996
 31
0.0
 11
231.8530778605
 21
161.7052884448
 31
0.0
 11
231.8097875399
 21
161.790512158
 31
0.0
 11
231.7617998498
 21
161.8198782482
 31
0.0
  0
SPLINE
  5
4EF
100
AcDbEntity
  8
RUNDUNGEN
100
AcDbSpline
 62
9
  6
CONTINUOUS
 70
0
 71
3
 72
12
 73
8
 74
6
 42
0.0000001
 43
0.0000001
 44
0.0000000001
 12
0.0
 22
0.6432360938
 32
0.0
 13
-0.6432360938
 23
0.0
 33
0.0
 40
0.0
 40
0.0
 40
0.0
 40
0.0
 40
0.2884298323
 40
0.5507287158
 40
0.76391611
 40
0.9125327285
 40
1.0
 40
1.0
 40
1.0
 40
1.0
 10
219.0075133074
 20
161.2198782482
 30
0.0
 10
219.0075133074
 20
161.2817210744
 30
0.0
 10
219.0027064012
 20
161.3998912478
 30
0.0
 10
218.9830804839
 20
161.5625556782
 30
0.0
 10
218.9499723325
 20
161.6933362205
 30
0.0
 10
218.9152526052
 20
161.7818030882
 30
0.0
 10
218.8709759157
 20
161.8198782482
 30
0.0
 10
218.8522218804
 20
161.8198782482
 30
0.0
 11
219.0075133074
 21
161.2198782482
 31
0.0
 11
218.9999159436
 21
161.4052511061
 31
0.0
 11
218.9778601738
 21
161.572523394
 31
0.0
 11
218.9435030827
 21
161.7052794848
 31
0.0
 11
218.9002109782
 21
161.7905103905
 31
0.0
 11
218.8522218804
 21
161.8198782482
 31
0.0
  0
SPLINE
  5
4F0
100
AcDbEntity
  8
RUNDUNGEN
100
AcDbSpline
 62
9
  6
CONTINUOUS
 70
0
 71
3
 72
21
 73
17
 74
15
 42
0.0000001
 43
0.0000001
 44
0.0000000001
 12
-0.0000707097
 22
2.310837834
 32
0.0
 13
-2.3108378351
 23
-0.000009118
 33
0.0
 40
0.0
 40
0.0
 40
0.0
 40
0.0
 40
0.083149591
 40
0.1701403958
 40
0.2590514495
 40
0.3477539013
 40
0.4336766482
 40
0.5135836039
 40
0.587859182
 40
0.6577453333
 40
0.7234457937
 40
0.785160765
 40
0.8432056894
 40
0.8980090282
 40
0.9499205177
 40
1.0
 40
1.0
 40
1.0
 40
1.0
 10
243.9312133789
 20
159.8198782482
 30
0.0
 10
243.9312114191
 20
159.8839266551
 30
0.0
 10
243.9212597367
 20
160.0151920483
 30
0.0
 10
243.8756164052
 20
160.2102477814
 30
0.0
 10
243.7985297301
 20
160.3998333165
 30
0.0
 10
243.6938538073
 20
160.5746535359
 30
0.0
 10
243.5694420189
 20
160.7270181736
 30
0.0
 10
243.4341994921
 20
160.8538816893
 30
0.0
 10
243.2949134324
 20
160.9564212327
 30
0.0
 10
243.1549472777
 20
161.0378656661
 30
0.0
 10
243.0165063662
 20
161.1011089275
 30
0.0
 10
242.8815630241
 20
161.1485388351
 30
0.0
 10
242.7512864431
 20
161.1824081479
 30
0.0
 10
242.6262279604
 20
161.2047135013
 30
0.0
 10
242.5060031304
 20
161.2172016531
 30
0.0
 10
242.427415685
 20
161.2198784004
 30
0.0
 10
242.3888404976
 20
161.2198782482
 30
0.0
 11
243.9312133789
 21
159.8198782482
 31
0.0
 11
243.9167014106
 21
160.0114746695
 31
0.0
 11
243.8710016086
 21
160.2072327576
 31
0.0
 11
243.7937569546
 21
160.3976183537
 31
0.0
 11
243.6886229838
 21
160.5735797448
 31
0.0
 11
243.563185863
 21
160.7274921703
 31
0.0
 11
243.4286107484
 21
160.8539275523
 31
0.0
 11
243.2904504977
 21
160.9557687437
 31
0.0
 11
243.1509046803
 21
161.0370570061
 31
0.0
 11
243.0128310284
 21
161.1001911751
 31
0.0
 11
242.8782983347
 21
161.1475145837
 31
0.0
 11
242.7484870242
 21
161.1812862643
 31
0.0
 11
242.6238153214
 21
161.2035364026
 31
0.0
 11
242.5044989132
 21
161.2159365863
 31
0.0
 11
242.3888404976
 21
161.2198782482
 31
0.0
  0
SPLINE
  5
4F1
100
AcDbEntity
  8
RUNDUNGEN
100
AcDbSpline
 62
9
  6
CONTINUOUS
 70
0
 71
3
 72
21
 73
17
 74
15
 42
0.0000001
 43
0.0000001
 44
0.0000000001
 12
2.3108392357
 22
-0.0000001413
 32
0.0
 13
0.0001209298
 23
2.3108392325
 33
0.0
 40
0.0
 40
0.0
 40
0.0
 40
0.0
 40
0.0508566365
 40
0.1039448759
 40
0.1597215049
 40
0.2185559727
 40
0.2807469449
 40
0.346513396
 40
0.4159857805
 40
0.4892661725
 40
0.5666548996
 40
0.6482316771
 40
0.7330006078
 40
0.8201650196
 40
0.909241254
 40
1.0
 40
1.0
 40
1.0
 40
1.0
 10
242.3888404976
 20
150.4198782482
 30
0.0
 10
242.4280143346
 20
150.4198782458
 30
0.0
 10
242.508108074
 20
150.4226482954
 30
0.0
 10
242.6305583023
 20
150.4355984429
 30
0.0
 10
242.757775727
 20
150.4587286476
 30
0.0
 10
242.8895678879
 20
150.4936412505
 30
0.0
 10
243.0252150314
 20
150.5421690244
 30
0.0
 10
243.1633601765
 20
150.6062940643
 30
0.0
 10
243.3019426928
 20
150.688045448
 30
0.0
 10
243.4382663264
 20
150.7894788855
 30
0.0
 10
243.5687503449
 20
150.9125022581
 30
0.0
 10
243.6882725779
 20
151.0580035517
 30
0.0
 10
243.7906225104
 20
151.2250885972
 30
0.0
 10
243.8695303959
 20
151.4108665386
 30
0.0
 10
243.9197170571
 20
151.6111730359
 30
0.0
 10
243.9312097204
 20
151.7499686246
 30
0.0
 10
243.9312133789
 20
151.8198782482
 30
0.0
 11
242.3888404976
 21
150.4198782482
 31
0.0
 11
242.5062916869
 21
150.4239431819
 31
0.0
 11
242.6282890015
 21
150.436852162
 31
0.0
 11
242.7550982174
 21
150.4599230733
 31
0.0
 11
242.8865159256
 21
150.49476114
 31
0.0
 11
243.0218182552
 21
150.5432049562
 31
0.0
 11
243.1596440256
 21
150.6072414225
 31
0.0
 11
243.2978786661
 21
150.6888754785
 31
0.0
 11
243.4336757455
 21
150.7900432579
 31
0.0
 11
243.5637052228
 21
150.9128176185
 31
0.0
 11
243.6832408109
 21
151.0585830866
 31
0.0
 11
243.7854169238
 21
151.2257114927
 31
0.0
 11
243.864022745
 21
151.4111631756
 31
0.0
 11
243.913927155
 21
151.6108629716
 31
0.0
 11
243.9312133789
 21
151.8198782482
 31
0.0
  0
SPLINE
  5
4F2
100
AcDbEntity
  8
RUNDUNGEN
100
AcDbSpline
 62
9
  6
CONTINUOUS
 70
0
 71
3
 72
11
 73
7
 74
5
 42
0.0000001
 43
0.0000001
 44
0.0000000001
 12
-0.4303621425
 22
0.1609346357
 32
0.0
 13
0.1513315512
 23
0.4338321015
 33
0.0
 40
0.0
 40
0.0
 40
0.0
 40
0.0
 40
0.3944794344
 40
0.7122712507
 40
0.9198970299
 40
1.0
 40
1.0
 40
1.0
 40
1.0
 10
219.0075139948
 20
153.6456498386
 30
0.0
 10
218.9509243233
 20
153.6668116399
 30
0.0
 10
218.8518511135
 20
153.7059808512
 30
0.0
 10
218.7138658884
 20
153.763700583
 30
0.0
 10
218.6479843958
 20
153.8027369298
 30
0.0
 10
218.5922430651
 20
153.8317276374
 30
0.0
 10
218.5962837674
 20
153.843311384
 30
0.0
 11
219.0075139948
 21
153.6456498386
 31
0.0
 11
218.8388015797
 21
153.7118920896
 31
0.0
 11
218.7052599113
 21
153.7709439498
 31
0.0
 11
218.6213856422
 21
153.8163950316
 31
0.0
 11
218.5962837674
 21
153.843311384
 31
0.0
  0
SPLINE
  5
4F3
100
AcDbEntity
  8
RUNDUNGEN
100
AcDbSpline
 62
9
  6
CONTINUOUS
 70
0
 71
3
 72
17
 73
13
 74
11
 42
0.0000001
 43
0.0000001
 44
0.0000000001
 12
3.8546317758
 22
-0.0000179983
 32
0.0
 13
3.7101601717
 23
1.0454174419
 33
0.0
 40
0.0
 40
0.0
 40
0.0
 40
0.0
 40
0.1448138532
 40
0.2783274495
 40
0.400561771
 40
0.5117423997
 40
0.6127220438
 40
0.704702493
 40
0.7889793804
 40
0.8662538008
 40
0.9366017592
 40
1.0
 40
1.0
 40
1.0
 40
1.0
 10
212.9312133789
 20
149.8198782482
 30
0.0
 10
213.1172814056
 20
149.8198773794
 30
0.0
 10
213.4749670423
 20
149.8290546437
 30
0.0
 10
213.98839051
 20
149.8672382709
 30
0.0
 10
214.4567454426
 20
149.9223412495
 30
0.0
 10
214.8814024496
 20
149.9882192245
 30
0.0
 10
215.2655853515
 20
150.060018045
 30
0.0
 10
215.6139903693
 20
150.1343518477
 30
0.0
 10
215.9311175803
 20
150.2089186977
 30
0.0
 10
216.2200032941
 20
150.2819454512
 30
0.0
 10
216.4819825556
 20
150.3518347371
 30
0.0
 10
216.6475724442
 20
150.3977951461
 30
0.0
 10
216.7259783201
 20
150.4198876883
 30
0.0
 11
212.9312133789
 21
149.8198782482
 31
0.0
 11
213.489235616
 21
149.8341252844
 31
0.0
 11
214.0024757152
 21
149.8721364573
 31
0.0
 11
214.4704390255
 21
149.9269990772
 31
0.0
 11
214.893963511
 21
149.9925049003
 31
0.0
 11
215.2766109977
 21
150.0638363016
 31
0.0
 11
215.6233898785
 21
150.1376648237
 31
0.0
 11
215.9396523002
 21
150.2118924508
 31
0.0
 11
216.2284598816
 21
150.2847855457
 31
0.0
 11
216.4904848742
 21
150.3545968531
 31
0.0
 11
216.7259783201
 21
150.4198876883
 31
0.0
  0
SPLINE
  5
4F4
100
AcDbEntity
  8
RUNDUNGEN
100
AcDbSpline
 62
9
  6
CONTINUOUS
 70
0
 71
3
 72
11
 73
7
 74
5
 42
0.0000001
 43
0.0000001
 44
0.0000000001
 12
-0.4303509288
 22
-0.1609318151
 32
0.0
 13
0.1513304707
 23
-0.4338203081
 33
0.0
 40
0.0
 40
0.0
 40
0.0
 40
0.0
 40
0.3944810012
 40
0.7122724968
 40
0.9198974173
 40
1.0
 40
1.0
 40
1.0
 40
1.0
 10
219.00751364
 20
157.9941066578
 30
0.0
 10
218.9509252183
 20
157.9729451433
 30
0.0
 10
218.8518544162
 20
157.9337765966
 30
0.0
 10
218.7138727928
 20
157.8760578019
 30
0.0
 10
218.6479931598
 20
157.8370224396
 30
0.0
 10
218.5922536966
 20
157.8080321801
 30
0.0
 10
218.5962943504
 20
157.7964488044
 30
0.0
 11
219.00751364
 21
157.9941066578
 31
0.0
 11
218.8388049605
 21
157.9278653263
 31
0.0
 11
218.7052669465
 21
157.868814596
 31
0.0
 11
218.621395292
 21
157.823364525
 31
0.0
 11
218.5962943504
 21
157.7964488044
 31
0.0
  0
SPLINE
  5
4F5
100
AcDbEntity
  8
RUNDUNGEN
100
AcDbSpline
 62
9
  6
CONTINUOUS
 70
0
 71
3
 72
17
 73
13
 74
11
 42
0.0000001
 43
0.0000001
 44
0.0000000001
 12
-3.7101608688
 22
1.0454146747
 32
0.0
 13
-3.8546316963
 23
-0.0000178418
 33
0.0
 40
0.0
 40
0.0
 40
0.0
 40
0.0
 40
0.063498695
 40
0.1339188742
 40
0.2112569808
 40
0.2956039928
 40
0.3876547332
 40
0.4886801839
 40
0.5998537006
 40
0.7220051247
 40
0.8553714591
 40
1.0
 40
1.0
 40
1.0
 40
1.0
 10
216.7259779282
 20
161.2198689239
 30
0.0
 10
216.6474478037
 20
161.2419964131
 30
0.0
 10
216.4816438672
 20
161.2880152389
 30
0.0
 10
216.2193696089
 20
161.35797701
 30
0.0
 10
215.9302243746
 20
161.4310574131
 30
0.0
 10
215.6128373785
 20
161.5056653851
 30
0.0
 10
215.2641919464
 20
161.5800194978
 30
0.0
 10
214.8798633352
 20
161.6518014453
 30
0.0
 10
214.4552540314
 20
161.7176165826
 30
0.0
 10
213.9871953444
 20
161.7726265391
 30
0.0
 10
213.4743013505
 20
161.8107246173
 30
0.0
 10
213.1170432982
 20
161.8198791083
 30
0.0
 10
212.9312133789
 20
161.8198782482
 30
0.0
 11
216.7259779282
 21
161.2198689239
 31
0.0
 11
216.4901108886
 21
161.2852615513
 31
0.0
 11
216.2278153244
 21
161.3551386104
 31
0.0
 11
215.9387668484
 21
161.4280803749
 31
0.0
 11
215.6222368119
 21
161.5023507246
 31
0.0
 11
215.2751866167
 21
161.5762060028
 31
0.0
 11
214.8923576428
 21
161.6475272698
 31
0.0
 11
214.4688519408
 21
161.7129751084
 31
0.0
 11
214.0011993446
 21
161.7677436706
 31
0.0
 11
213.4885219886
 21
161.8056675632
 31
0.0
 11
212.9312133789
 21
161.8198782482
 31
0.0
  0
SPLINE
  5
4F6
100
AcDbEntity
  8
RUNDUNGEN
100
AcDbSpline
 62
9
  6
CONTINUOUS
 70
0
 71
3
 72
21
 73
17
 74
15
 42
0.0000001
 43
0.0000001
 44
0.0000000001
 12
-2.8342641018
 22
-3.4333250987
 32
0.0
 13
-4.4520528105
 23
-0.0000707484
 33
0.0
 40
0.0
 40
0.0
 40
0.0
 40
0.0
 40
0.044944175
 40
0.0928199066
 40
0.1445331822
 40
0.2003721086
 40
0.260724573
 40
0.3258908208
 40
0.3960742372
 40
0.4714452531
 40
0.5527470113
 40
0.6394917946
 40
0.7293845244
 40
0.820516142
 40
0.9112256336
 40
1.0
 40
1.0
 40
1.0
 40
1.0
 10
114.4105419634
 20
56.1564788178
 30
0.0
 10
114.3680807428
 20
56.1050428297
 30
0.0
 10
114.2788853029
 20
56.0000463411
 30
0.0
 10
114.1351567789
 20
55.8407902302
 30
0.0
 10
113.974974015
 20
55.6747583246
 30
0.0
 10
113.795360395
 20
55.5019623299
 30
0.0
 10
113.5936922978
 20
55.323600723
 30
0.0
 10
113.367198166
 20
55.1416168809
 30
0.0
 10
113.1131739502
 20
54.9589526286
 30
0.0
 10
112.8282819443
 20
54.7791450684
 30
0.0
 10
112.5100394265
 20
54.607551299
 30
0.0
 10
112.1596681794
 20
54.4523238248
 30
0.0
 10
111.7834148646
 20
54.3228690184
 30
0.0
 10
111.3910858535
 20
54.2270391295
 30
0.0
 10
110.9930637139
 20
54.1692637754
 30
0.0
 10
110.7265338185
 20
54.1564879063
 30
0.0
 10
110.5947910959
 20
54.1564858127
 30
0.0
 11
114.4105419634
 21
56.1564788178
 31
0.0
 11
114.2809737599
 21
56.0040005381
 31
0.0
 11
114.1381407389
 21
55.8457929503
 31
0.0
 11
113.9782525734
 21
55.6801374793
 31
0.0
 11
113.799054766
 21
55.507832411
 31
0.0
 11
113.5977291741
 21
55.3298897527
 31
0.0
 11
113.3714936782
 21
55.1482604873
 31
0.0
 11
113.1177245829
 21
54.9659621861
 31
0.0
 11
112.8338601628
 21
54.7870246335
 31
0.0
 11
112.5151513521
 21
54.6154451075
 31
0.0
 11
112.1619508338
 21
54.4592595447
 31
0.0
 11
111.7834300251
 21
54.329306536
 31
0.0
 11
111.3892430527
 21
54.2332461364
 31
0.0
 11
110.9895676245
 21
54.1753748842
 31
0.0
 11
110.5947910959
 21
54.1564858127
 31
0.0
  0
SPLINE
  5
4F7
100
AcDbEntity
  8
02___PRT_ALL_AXES
100
AcDbSpline
 62
9
  6
CONTINUOUS
 70
0
 71
3
 72
12
 73
8
 74
6
 42
0.0000001
 43
0.0000001
 44
0.0000000001
 12
-0.8497957195
 22
-1.802601205
 32
0.0
 13
-0.6796041465
 23
-1.8734092114
 33
0.0
 40
0.0
 40
0.0
 40
0.0
 40
0.0
 40
0.2258231425
 40
0.4383223498
 40
0.6378904313
 40
0.8249485714
 40
1.0
 40
1.0
 40
1.0
 40
1.0
 10
121.1947910959
 20
85.1564858127
 30
0.0
 10
121.1308232493
 20
85.0207961231
 30
0.0
 10
121.0066668411
 20
84.7574192884
 30
0.0
 10
120.8293583172
 20
84.372544049
 30
0.0
 10
120.6686849449
 20
84.0083959171
 30
0.0
 10
120.5258868009
 20
83.6636492101
 30
0.0
 10
120.4398698416
 20
83.438960636
 30
0.0
 10
120.400214616
 20
83.3296463164
 30
0.0
 11
121.1947910959
 21
85.1564858127
 31
0.0
 11
121.0035085807
 21
84.7491245544
 31
0.0
 11
120.8268358027
 21
84.3642550751
 31
0.0
 11
120.6667665235
 21
84.0001762764
 31
0.0
 11
120.5244471335
 21
83.6556305155
 31
0.0
 11
120.400214616
 21
83.3296463164
 31
0.0
  0
SPLINE
  5
4F8
100
AcDbEntity
  8
02___PRT_ALL_AXES
100
AcDbSpline
 62
9
  6
CONTINUOUS
 70
0
 71
3
 72
11
 73
7
 74
5
 42
0.0000001
 43
0.0000001
 44
0.0000000001
 12
-0.2088985414
 22
-0.963473069
 32
0.0
 13
-0.000011151
 23
-0.9858595007
 33
0.0
 40
0.0
 40
0.0
 40
0.0
 40
0.0
 40
0.2728878726
 40
0.5305839711
 40
0.772982851
 40
1.0
 40
1.0
 40
1.0
 40
1.0
 10
95.1081842433
 20
82.339315798
 30
0.0
 10
95.0891822838
 20
82.2516757592
 30
0.0
 10
95.0561437614
 20
82.0803939636
 30
0.0
 10
95.020417251
 20
81.8287904648
 30
0.0
 10
94.9995399246
 20
81.5906444144
 30
0.0
 10
94.9947919398
 20
81.4363549583
 30
0.0
 10
94.9947910959
 20
81.3617526205
 30
0.0
 11
95.1081842433
 21
82.339315798
 31
0.0
 11
95.0574503125
 21
82.0751137429
 31
0.0
 11
95.022034886
 21
81.8235422004
 31
0.0
 11
95.0014262023
 21
81.5854612581
 31
0.0
 11
94.9947910959
 21
81.3617526205
 31
0.0
  0
LINE
  5
4F9
100
AcDbEntity
  8
RUNDUNGEN
100
AcDbLine
 62
9
  6
CONTINUOUS
 10
70.1987370245
 20
91.1564858127
 11
68.2332977594
 21
85.1564858127
  0
LINE
  5
4FA
100
AcDbEntity
  8
RUNDUNGEN
100
AcDbLine
 62
9
  6
CONTINUOUS
 10
77.9562844325
 20
85.1564858127
 11
75.9908451674
 21
91.1564858127
  0
SPLINE
  5
4FB
100
AcDbEntity
  8
RUNDUNGEN
100
AcDbSpline
 62
9
  6
CONTINUOUS
 70
0
 71
3
 72
17
 73
13
 74
11
 42
0.0000001
 43
0.0000001
 44
0.0000000001
 12
-0.7984169855
 22
-3.764153857
 32
0.0
 13
-0.0000081582
 23
-3.8478986398
 33
0.0
 40
0.0
 40
0.0
 40
0.0
 40
0.0
 40
0.1478578905
 40
0.2837415113
 40
0.4075197406
 40
0.5194301446
 40
0.6203845622
 40
0.7116745329
 40
0.7946929266
 40
0.8702438849
 40
0.9386054218
 40
1.0
 40
1.0
 40
1.0
 40
1.0
 10
71.1947910959
 20
85.1564858127
 30
0.0
 10
71.1554403456
 20
84.9709658632
 30
0.0
 10
71.0799087117
 20
84.6149537011
 30
0.0
 10
70.9735982657
 20
84.1031776227
 30
0.0
 10
70.8804344973
 20
83.6357734543
 30
0.0
 10
70.8010689015
 20
83.2113268236
 30
0.0
 10
70.7354213937
 20
82.8267503974
 30
0.0
 10
70.6829263018
 20
82.4775851738
 30
0.0
 10
70.6429577797
 20
82.1595723517
 30
0.0
 10
70.6150248932
 20
81.869797486
 30
0.0
 10
70.5986562708
 20
81.6069192753
 30
0.0
 10
70.5947912629
 20
81.4404770861
 30
0.0
 10
70.594791096
 20
81.3617303814
 30
0.0
 11
71.1947910959
 21
85.1564858127
 31
0.0
 11
71.0771316039
 21
84.5998428005
 31
0.0
 11
70.9711615956
 21
84.0878275378
 31
0.0
 11
70.8784321962
 21
83.620655526
 31
0.0
 11
70.7996579641
 21
83.197302114
 31
0.0
 11
70.7346675537
 21
82.8143148345
 31
0.0
 11
70.6828187825
 21
82.4668878389
 31
0.0
 11
70.64336596
 21
82.1498871223
 31
0.0
 11
70.6158598122
 21
81.8604788836
 31
0.0
 11
70.5998994818
 21
81.5979152578
 31
0.0
 11
70.594791096
 21
81.3617303814
 31
0.0
  0
LINE
  5
4FC
100
AcDbEntity
  8
RUNDUNGEN
100
AcDbLine
 62
9
  6
CONTINUOUS
 10
71.1539020875
 20
79.4914027622
 11
71.0551872887
 21
79.1564858127
  0
SPLINE
  5
4FD
100
AcDbEntity
  8
RUNDUNGEN
100
AcDbSpline
 62
9
  6
CONTINUOUS
 70
0
 71
3
 72
11
 73
7
 74
5
 42
0.0000001
 43
0.0000001
 44
0.0000000001
 12
0.0000000006
 22
0.8889175992
 32
0.0
 13
0.8889175992
 23
0.0000007457
 33
0.0
 40
0.0
 40
0.0
 40
0.0
 40
0.0
 40
0.2373597786
 40
0.482313279
 40
0.7376199499
 40
1.0
 40
1.0
 40
1.0
 40
1.0
 10
70.5947910959
 20
79.2354773116
 30
0.0
 10
70.594791096
 20
79.3058084064
 30
0.0
 10
70.627336873
 20
79.4504867095
 30
0.0
 10
70.7632417497
 20
79.6291820319
 30
0.0
 10
70.962226753
 20
79.7466840752
 30
0.0
 10
71.1170463479
 20
79.7737507443
 30
0.0
 10
71.1947910959
 20
79.7737508095
 30
0.0
 11
70.5947910959
 21
79.2354773116
 31
0.0
 11
70.6404644431
 21
79.4414678732
 31
0.0
 11
70.7705299306
 21
79.6160965964
 31
0.0
 11
70.9651839293
 21
79.7327781153
 31
0.0
 11
71.1947910959
 21
79.7737508095
 31
0.0
  0
SPLINE
  5
4FE
100
AcDbEntity
  8
RUNDUNGEN
100
AcDbSpline
 62
9
  6
CONTINUOUS
 70
0
 71
3
 72
8
 73
4
 74
2
 42
0.0000001
 43
0.0000001
 44
0.0000000001
 12
0.0482020932
 22
0.1799115345
 32
0.0
 13
0.1075957459
 23
0.1534388901
 33
0.0
 40
0.0
 40
0.0
 40
0.0
 40
0.0
 40
1.0
 40
1.0
 40
1.0
 40
1.0
 10
70.5743489859
 20
79.0801852428
 30
0.0
 10
70.5904163503
 20
79.1401557543
 30
0.0
 10
70.6174002391
 20
79.1977510907
 30
0.0
 10
70.6532654878
 20
79.2488973874
 30
0.0
 11
70.5743489859
 21
79.0801852428
 31
0.0
 11
70.6532654878
 21
79.2488973874
 31
0.0
  0
SPLINE
  5
4FF
100
AcDbEntity
  8
RUNDUNGEN
100
AcDbSpline
 62
9
  6
CONTINUOUS
 70
0
 71
3
 72
10
 73
6
 74
4
 42
0.0000001
 43
0.0000001
 44
0.0000000001
 12
0.3332564639
 22
0.4752465025
 32
0.0
 13
0.5766498619
 23
-0.0167650648
 33
0.0
 40
0.0
 40
0.0
 40
0.0
 40
0.0
 40
0.3270268261
 40
0.6605190949
 40
1.0
 40
1.0
 40
1.0
 40
1.0
 10
70.6532654878
 20
79.2488973874
 30
0.0
 10
70.6895934223
 20
79.3007035059
 30
0.0
 10
70.7813716336
 20
79.3919761443
 30
0.0
 10
70.9577213924
 20
79.4767729069
 30
0.0
 10
71.0886482151
 20
79.4933117052
 30
0.0
 10
71.1539020875
 20
79.4914145654
 30
0.0
 11
70.6532654878
 21
79.2488973874
 31
0.0
 11
70.7865289965
 21
79.3824387782
 31
0.0
 11
70.959673085
 21
79.4663128216
 31
0.0
 11
71.1539020875
 21
79.4914145654
 31
0.0
  0
SPLINE
  5
500
100
AcDbEntity
  8
RUNDUNGEN
100
AcDbSpline
 62
9
  6
CONTINUOUS
 70
0
 71
3
 72
8
 73
4
 74
2
 42
0.0000001
 43
0.0000001
 44
0.0000000001
 12
-0.0482065053
 22
0.1799085128
 32
0.0
 13
-0.1075977385
 23
0.1534352551
 33
0.0
 40
0.0
 40
0.0
 40
0.0
 40
0.0
 40
1.0
 40
1.0
 40
1.0
 40
1.0
 10
50.6152343588
 20
79.0801855516
 30
0.0
 10
50.5991655237
 20
79.1401550559
 30
0.0
 10
50.5721805556
 20
79.1977491461
 30
0.0
 10
50.5363146427
 20
79.2488942312
 30
0.0
 11
50.6152343588
 21
79.0801855516
 31
0.0
 11
50.5363146427
 21
79.2488942312
 31
0.0
  0
SPLINE
  5
501
100
AcDbEntity
  8
RUNDUNGEN
100
AcDbSpline
 62
9
  6
CONTINUOUS
 70
0
 71
3
 72
10
 73
6
 74
4
 42
0.0000001
 43
0.0000001
 44
0.0000000001
 12
-0.3332624902
 22
0.4752350364
 32
0.0
 13
-0.5766441116
 23
-0.0167648174
 33
0.0
 40
0.0
 40
0.0
 40
0.0
 40
0.0
 40
0.3270270744
 40
0.6605193868
 40
1.0
 40
1.0
 40
1.0
 40
1.0
 10
50.5363146427
 20
79.2488942312
 30
0.0
 10
50.4999860237
 20
79.300699139
 30
0.0
 10
50.4082073071
 20
79.3919693663
 30
0.0
 10
50.2318586855
 20
79.4767636651
 30
0.0
 10
50.1009332699
 20
79.4933019514
 30
0.0
 10
50.0356801044
 20
79.4914048412
 30
0.0
 11
50.5363146427
 21
79.2488942312
 31
0.0
 11
50.4030502118
 21
79.3824322452
 31
0.0
 11
50.2299070708
 21
79.4663038996
 31
0.0
 11
50.0356801044
 21
79.4914048412
 31
0.0
  0
SPLINE
  5
502
100
AcDbEntity
  8
RUNDUNGEN
100
AcDbSpline
 62
9
  6
CONTINUOUS
 70
0
 71
3
 72
11
 73
7
 74
5
 42
0.0000001
 43
0.0000001
 44
0.0000000001
 12
-0.0000000005
 22
0.8889176958
 32
0.0
 13
-0.8889176958
 23
-0.0000000014
 33
0.0
 40
0.0
 40
0.0
 40
0.0
 40
0.0
 40
0.2373638193
 40
0.4823175349
 40
0.7376222751
 40
1.0
 40
1.0
 40
1.0
 40
1.0
 10
50.5947910959
 20
79.2354773115
 30
0.0
 10
50.5947910959
 20
79.3058096113
 30
0.0
 10
50.562244451
 20
79.450489265
 30
0.0
 10
50.4263379502
 20
79.629184228
 30
0.0
 10
50.2273535056
 20
79.7466846908
 30
0.0
 10
50.0725351635
 20
79.7737508081
 30
0.0
 10
49.9947910959
 20
79.773750808
 30
0.0
 11
50.5947910959
 21
79.2354773115
 31
0.0
 11
50.5491162392
 21
79.441471241
 31
0.0
 11
50.4190494595
 21
79.6160992698
 31
0.0
 11
50.2243963411
 21
79.7327789671
 31
0.0
 11
49.9947910959
 21
79.773750808
 31
0.0
  0
SPLINE
  5
503
100
AcDbEntity
  8
RUNDUNGEN
100
AcDbSpline
 62
9
  6
CONTINUOUS
 70
0
 71
3
 72
17
 73
13
 74
11
 42
0.0000001
 43
0.0000001
 44
0.0000000001
 12
-0.0000114996
 22
3.8479078622
 32
0.0
 13
-0.7984181763
 23
3.7641630321
 33
0.0
 40
0.0
 40
0.0
 40
0.0
 40
0.0
 40
0.0613117741
 40
0.1296030909
 40
0.2050593505
 40
0.2879532556
 40
0.3791426088
 40
0.4800535503
 40
0.5920026444
 40
0.7159070643
 40
0.8519657163
 40
1.0
 40
1.0
 40
1.0
 40
1.0
 10
50.5947910959
 20
81.3617212635
 30
0.0
 10
50.5947908608
 20
81.4403619494
 30
0.0
 10
50.5909360901
 20
81.6066082324
 30
0.0
 10
50.5746043073
 20
81.8691709093
 30
0.0
 10
50.5467319521
 20
82.1585792566
 30
0.0
 10
50.5068467658
 20
82.4761898242
 30
0.0
 10
50.4544387298
 20
82.8250206174
 30
0.0
 10
50.3888473475
 20
83.2094704677
 30
0.0
 10
50.3094786191
 20
83.6340760462
 30
0.0
 10
50.216244301
 20
84.1019119263
 30
0.0
 10
50.109814381
 20
84.6142901706
 30
0.0
 10
50.0341888502
 20
84.9707440867
 30
0.0
 10
49.9947910959
 20
85.1564858127
 30
0.0
 11
50.5947910959
 21
81.3617212635
 31
0.0
 11
50.5896962967
 21
81.5975883031
 31
0.0
 11
50.5737689806
 21
81.8598838672
 31
0.0
 11
50.5463214653
 21
82.1489323433
 31
0.0
 11
50.5069591634
 21
82.4654623798
 31
0.0
 11
50.4552028958
 21
82.8125125749
 31
0.0
 11
50.390273977
 21
83.1953415488
 31
0.0
 11
50.3114987254
 21
83.6188472508
 31
0.0
 11
50.2186906223
 21
84.0864998471
 31
0.0
 11
50.1125903321
 21
84.599177203
 31
0.0
 11
49.9947910959
 21
85.1564858127
 31
0.0
  0
SPLINE
  5
504
100
AcDbEntity
  8
RUNDUNGEN
100
AcDbSpline
 62
9
  6
CONTINUOUS
 70
0
 71
3
 72
17
 73
13
 74
11
 42
0.0000001
 43
0.0000001
 44
0.0000000001
 12
-0.7984169855
 22
-3.764153857
 32
0.0
 13
-0.0000081582
 23
-3.8478986398
 33
0.0
 40
0.0
 40
0.0
 40
0.0
 40
0.0
 40
0.1478578905
 40
0.2837415113
 40
0.4075197406
 40
0.5194301446
 40
0.6203845622
 40
0.7116745329
 40
0.7946929266
 40
0.8702438849
 40
0.9386054218
 40
1.0
 40
1.0
 40
1.0
 40
1.0
 10
96.1947910959
 20
85.1564858127
 30
0.0
 10
96.1554403456
 20
84.9709658632
 30
0.0
 10
96.0799087117
 20
84.6149537011
 30
0.0
 10
95.9735982657
 20
84.1031776227
 30
0.0
 10
95.8804344973
 20
83.6357734543
 30
0.0
 10
95.8010689015
 20
83.2113268236
 30
0.0
 10
95.7354213937
 20
82.8267503974
 30
0.0
 10
95.6829263018
 20
82.4775851738
 30
0.0
 10
95.6429577797
 20
82.1595723517
 30
0.0
 10
95.6150248932
 20
81.869797486
 30
0.0
 10
95.5986562708
 20
81.6069192753
 30
0.0
 10
95.5947912629
 20
81.4404770861
 30
0.0
 10
95.594791096
 20
81.3617303814
 30
0.0
 11
96.1947910959
 21
85.1564858127
 31
0.0
 11
96.0771316039
 21
84.5998428005
 31
0.0
 11
95.9711615956
 21
84.0878275378
 31
0.0
 11
95.8784321962
 21
83.620655526
 31
0.0
 11
95.7996579641
 21
83.197302114
 31
0.0
 11
95.7346675537
 21
82.8143148345
 31
0.0
 11
95.6828187825
 21
82.4668878389
 31
0.0
 11
95.64336596
 21
82.1498871223
 31
0.0
 11
95.6158598122
 21
81.8604788836
 31
0.0
 11
95.5998994818
 21
81.5979152578
 31
0.0
 11
95.594791096
 21
81.3617303814
 31
0.0
  0
SPLINE
  5
505
100
AcDbEntity
  8
02___PRT_ALL_AXES
100
AcDbSpline
 62
9
  6
CONTINUOUS
 70
0
 71
3
 72
11
 73
7
 74
5
 42
0.0000001
 43
0.0000001
 44
0.0000000001
 12
-0.0000162769
 22
0.9858558357
 32
0.0
 13
-0.208901768
 23
0.9634686193
 33
0.0
 40
0.0
 40
0.0
 40
0.0
 40
0.0
 40
0.2269479087
 40
0.4693791041
 40
0.7271161826
 40
1.0
 40
1.0
 40
1.0
 40
1.0
 10
76.1947910959
 20
81.3617526205
 30
0.0
 10
76.1947898646
 20
81.4363319273
 30
0.0
 10
76.1900444825
 20
81.5906086329
 30
0.0
 10
76.1691705798
 20
81.8287555674
 30
0.0
 10
76.1334392664
 20
82.0803803775
 30
0.0
 10
76.1004023646
 20
82.2516741809
 30
0.0
 10
76.081400394
 20
82.3393125125
 30
0.0
 11
76.1947910959
 21
81.3617526205
 31
0.0
 11
76.1881602564
 21
81.5853922613
 31
0.0
 11
76.1675520564
 21
81.8235043313
 31
0.0
 11
76.1321313505
 21
82.0751149755
 31
0.0
 11
76.081400394
 21
82.3393125125
 31
0.0
  0
SPLINE
  5
506
100
AcDbEntity
  8
02___PRT_ALL_AXES
100
AcDbSpline
 62
9
  6
CONTINUOUS
 70
0
 71
3
 72
12
 73
8
 74
6
 42
0.0000001
 43
0.0000001
 44
0.0000000001
 12
-0.6796034894
 22
1.8734076685
 32
0.0
 13
-0.8497960234
 23
1.8025992105
 33
0.0
 40
0.0
 40
0.0
 40
0.0
 40
0.0
 40
0.1749623139
 40
0.3620181842
 40
0.5616318823
 40
0.7741769279
 40
1.0
 40
1.0
 40
1.0
 40
1.0
 10
75.7893679614
 20
83.3296482622
 30
0.0
 10
75.7497329617
 20
83.4389068424
 30
0.0
 10
75.6637381168
 20
83.6635386092
 30
0.0
 10
75.5209564873
 20
84.0082589021
 30
0.0
 10
75.3602616662
 20
84.3724619957
 30
0.0
 10
75.1829282001
 20
84.7573921951
 30
0.0
 10
75.0587589455
 20
85.0207963156
 30
0.0
 10
74.9947910959
 20
85.1564858127
 30
0.0
 11
75.7893679614
 21
83.3296482622
 31
0.0
 11
75.6652001212
 21
83.6554667429
 31
0.0
 11
75.522886733
 21
84.0000097497
 31
0.0
 11
75.3627836358
 21
84.364172621
 31
0.0
 11
75.1860734652
 21
84.7491250586
 31
0.0
 11
74.9947910959
 21
85.1564858127
 31
0.0
  0
SPLINE
  5
507
100
AcDbEntity
  8
RUNDUNGEN
100
AcDbSpline
 62
9
  6
CONTINUOUS
 70
0
 71
3
 72
11
 73
7
 74
5
 42
0.0000001
 43
0.0000001
 44
0.0000000001
 12
0.0000000006
 22
0.8889175992
 32
0.0
 13
0.8889175992
 23
0.0000007457
 33
0.0
 40
0.0
 40
0.0
 40
0.0
 40
0.0
 40
0.2373597786
 40
0.482313279
 40
0.7376199499
 40
1.0
 40
1.0
 40
1.0
 40
1.0
 10
95.5947910959
 20
79.2354773116
 30
0.0
 10
95.594791096
 20
79.3058084064
 30
0.0
 10
95.627336873
 20
79.4504867095
 30
0.0
 10
95.7632417497
 20
79.6291820319
 30
0.0
 10
95.962226753
 20
79.7466840752
 30
0.0
 10
96.1170463479
 20
79.7737507443
 30
0.0
 10
96.1947910959
 20
79.7737508095
 30
0.0
 11
95.5947910959
 21
79.2354773116
 31
0.0
 11
95.6404644431
 21
79.4414678732
 31
0.0
 11
95.7705299306
 21
79.6160965964
 31
0.0
 11
95.9651839293
 21
79.7327781153
 31
0.0
 11
96.1947910959
 21
79.7737508095
 31
0.0
  0
SPLINE
  5
508
100
AcDbEntity
  8
RUNDUNGEN
100
AcDbSpline
 62
9
  6
CONTINUOUS
 70
0
 71
3
 72
8
 73
4
 74
2
 42
0.0000001
 43
0.0000001
 44
0.0000000001
 12
0.0482020932
 22
0.1799115345
 32
0.0
 13
0.1075957459
 23
0.1534388901
 33
0.0
 40
0.0
 40
0.0
 40
0.0
 40
0.0
 40
1.0
 40
1.0
 40
1.0
 40
1.0
 10
95.5743489859
 20
79.0801852428
 30
0.0
 10
95.5904163503
 20
79.1401557543
 30
0.0
 10
95.6174002391
 20
79.1977510907
 30
0.0
 10
95.6532654878
 20
79.2488973874
 30
0.0
 11
95.5743489859
 21
79.0801852428
 31
0.0
 11
95.6532654878
 21
79.2488973874
 31
0.0
  0
SPLINE
  5
509
100
AcDbEntity
  8
RUNDUNGEN
100
AcDbSpline
 62
9
  6
CONTINUOUS
 70
0
 71
3
 72
10
 73
6
 74
4
 42
0.0000001
 43
0.0000001
 44
0.0000000001
 12
0.3332564639
 22
0.4752465025
 32
0.0
 13
0.5766498619
 23
-0.0167650648
 33
0.0
 40
0.0
 40
0.0
 40
0.0
 40
0.0
 40
0.3270268261
 40
0.6605190949
 40
1.0
 40
1.0
 40
1.0
 40
1.0
 10
95.6532654878
 20
79.2488973874
 30
0.0
 10
95.6895934223
 20
79.3007035059
 30
0.0
 10
95.7813716336
 20
79.3919761443
 30
0.0
 10
95.9577213924
 20
79.4767729069
 30
0.0
 10
96.0886482151
 20
79.4933117052
 30
0.0
 10
96.1539020875
 20
79.4914145654
 30
0.0
 11
95.6532654878
 21
79.2488973874
 31
0.0
 11
95.7865289965
 21
79.3824387782
 31
0.0
 11
95.959673085
 21
79.4663128216
 31
0.0
 11
96.1539020875
 21
79.4914145654
 31
0.0
  0
SPLINE
  5
50A
100
AcDbEntity
  8
RUNDUNGEN
100
AcDbSpline
 62
9
  6
CONTINUOUS
 70
0
 71
3
 72
8
 73
4
 74
2
 42
0.0000001
 43
0.0000001
 44
0.0000000001
 12
-0.0482065053
 22
0.1799085128
 32
0.0
 13
-0.1075977385
 23
0.1534352551
 33
0.0
 40
0.0
 40
0.0
 40
0.0
 40
0.0
 40
1.0
 40
1.0
 40
1.0
 40
1.0
 10
75.6152343588
 20
79.0801855516
 30
0.0
 10
75.5991655237
 20
79.1401550559
 30
0.0
 10
75.5721805556
 20
79.1977491461
 30
0.0
 10
75.5363146427
 20
79.2488942312
 30
0.0
 11
75.6152343588
 21
79.0801855516
 31
0.0
 11
75.5363146427
 21
79.2488942312
 31
0.0
  0
SPLINE
  5
50B
100
AcDbEntity
  8
RUNDUNGEN
100
AcDbSpline
 62
9
  6
CONTINUOUS
 70
0
 71
3
 72
10
 73
6
 74
4
 42
0.0000001
 43
0.0000001
 44
0.0000000001
 12
-0.3332624902
 22
0.4752350364
 32
0.0
 13
-0.5766441116
 23
-0.0167648174
 33
0.0
 40
0.0
 40
0.0
 40
0.0
 40
0.0
 40
0.3270270744
 40
0.6605193868
 40
1.0
 40
1.0
 40
1.0
 40
1.0
 10
75.5363146427
 20
79.2488942312
 30
0.0
 10
75.4999860237
 20
79.300699139
 30
0.0
 10
75.4082073071
 20
79.3919693663
 30
0.0
 10
75.2318586855
 20
79.4767636651
 30
0.0
 10
75.1009332699
 20
79.4933019514
 30
0.0
 10
75.0356801044
 20
79.4914048412
 30
0.0
 11
75.5363146427
 21
79.2488942312
 31
0.0
 11
75.4030502118
 21
79.3824322452
 31
0.0
 11
75.2299070708
 21
79.4663038996
 31
0.0
 11
75.0356801044
 21
79.4914048412
 31
0.0
  0
SPLINE
  5
50C
100
AcDbEntity
  8
RUNDUNGEN
100
AcDbSpline
 62
9
  6
CONTINUOUS
 70
0
 71
3
 72
11
 73
7
 74
5
 42
0.0000001
 43
0.0000001
 44
0.0000000001
 12
-0.0000000005
 22
0.8889176958
 32
0.0
 13
-0.8889176958
 23
-0.0000000014
 33
0.0
 40
0.0
 40
0.0
 40
0.0
 40
0.0
 40
0.2373638193
 40
0.4823175349
 40
0.7376222751
 40
1.0
 40
1.0
 40
1.0
 40
1.0
 10
75.5947910959
 20
79.2354773115
 30
0.0
 10
75.5947910959
 20
79.3058096113
 30
0.0
 10
75.562244451
 20
79.450489265
 30
0.0
 10
75.4263379502
 20
79.629184228
 30
0.0
 10
75.2273535056
 20
79.7466846908
 30
0.0
 10
75.0725351635
 20
79.7737508081
 30
0.0
 10
74.9947910959
 20
79.773750808
 30
0.0
 11
75.5947910959
 21
79.2354773115
 31
0.0
 11
75.5491162392
 21
79.441471241
 31
0.0
 11
75.4190494595
 21
79.6160992698
 31
0.0
 11
75.2243963411
 21
79.7327789671
 31
0.0
 11
74.9947910959
 21
79.773750808
 31
0.0
  0
SPLINE
  5
50D
100
AcDbEntity
  8
RUNDUNGEN
100
AcDbSpline
 62
9
  6
CONTINUOUS
 70
0
 71
3
 72
17
 73
13
 74
11
 42
0.0000001
 43
0.0000001
 44
0.0000000001
 12
-0.0000114996
 22
3.8479078622
 32
0.0
 13
-0.7984181763
 23
3.7641630321
 33
0.0
 40
0.0
 40
0.0
 40
0.0
 40
0.0
 40
0.0613117741
 40
0.1296030909
 40
0.2050593505
 40
0.2879532556
 40
0.3791426088
 40
0.4800535503
 40
0.5920026444
 40
0.7159070643
 40
0.8519657163
 40
1.0
 40
1.0
 40
1.0
 40
1.0
 10
75.5947910959
 20
81.3617212635
 30
0.0
 10
75.5947908608
 20
81.4403619494
 30
0.0
 10
75.5909360901
 20
81.6066082324
 30
0.0
 10
75.5746043073
 20
81.8691709093
 30
0.0
 10
75.5467319521
 20
82.1585792566
 30
0.0
 10
75.5068467658
 20
82.4761898242
 30
0.0
 10
75.4544387298
 20
82.8250206174
 30
0.0
 10
75.3888473475
 20
83.2094704677
 30
0.0
 10
75.3094786191
 20
83.6340760462
 30
0.0
 10
75.216244301
 20
84.1019119263
 30
0.0
 10
75.109814381
 20
84.6142901706
 30
0.0
 10
75.0341888502
 20
84.9707440867
 30
0.0
 10
74.9947910959
 20
85.1564858127
 30
0.0
 11
75.5947910959
 21
81.3617212635
 31
0.0
 11
75.5896962967
 21
81.5975883031
 31
0.0
 11
75.5737689806
 21
81.8598838672
 31
0.0
 11
75.5463214653
 21
82.1489323433
 31
0.0
 11
75.5069591634
 21
82.4654623798
 31
0.0
 11
75.4552028958
 21
82.8125125749
 31
0.0
 11
75.390273977
 21
83.1953415488
 31
0.0
 11
75.3114987254
 21
83.6188472508
 31
0.0
 11
75.2186906223
 21
84.0864998471
 31
0.0
 11
75.1125903321
 21
84.599177203
 31
0.0
 11
74.9947910959
 21
85.1564858127
 31
0.0
  0
SPLINE
  5
50E
100
AcDbEntity
  8
RUNDUNGEN
100
AcDbSpline
 62
9
  6
CONTINUOUS
 70
0
 71
3
 72
17
 73
13
 74
11
 42
0.0000001
 43
0.0000001
 44
0.0000000001
 12
-0.7984169855
 22
-3.764153857
 32
0.0
 13
-0.0000081581
 23
-3.8478986397
 33
0.0
 40
0.0
 40
0.0
 40
0.0
 40
0.0
 40
0.1478578898
 40
0.2837415102
 40
0.4075197393
 40
0.5194301433
 40
0.6203845609
 40
0.7116745318
 40
0.7946929257
 40
0.8702438843
 40
0.9386054215
 40
1.0
 40
1.0
 40
1.0
 40
1.0
 10
121.1947910959
 20
85.1564858127
 30
0.0
 10
121.1554403457
 20
84.970965864
 30
0.0
 10
121.0799087121
 20
84.6149537032
 30
0.0
 10
120.9735982665
 20
84.1031776265
 30
0.0
 10
120.8804344982
 20
83.635773459
 30
0.0
 10
120.8010689024
 20
83.2113268286
 30
0.0
 10
120.7354213945
 20
82.8267504022
 30
0.0
 10
120.6829263023
 20
82.4775851779
 30
0.0
 10
120.6429577801
 20
82.1595723549
 30
0.0
 10
120.6150248934
 20
81.8697974883
 30
0.0
 10
120.5986562708
 20
81.6069192764
 30
0.0
 10
120.5947912629
 20
81.4404770865
 30
0.0
 10
120.594791096
 20
81.3617303814
 30
0.0
 11
121.1947910959
 21
85.1564858127
 31
0.0
 11
121.0771316044
 21
84.5998428029
 31
0.0
 11
120.9711615964
 21
84.0878275418
 31
0.0
 11
120.8784321972
 21
83.6206555309
 31
0.0
 11
120.799657965
 21
83.1973021192
 31
0.0
 11
120.7346675544
 21
82.8143148394
 31
0.0
 11
120.6828187831
 21
82.4668878431
 31
0.0
 11
120.6433659604
 21
82.1498871256
 31
0.0
 11
120.6158598123
 21
81.8604788859
 31
0.0
 11
120.5998994818
 21
81.597915259
 31
0.0
 11
120.594791096
 21
81.3617303814
 31
0.0
  0
SPLINE
  5
50F
100
AcDbEntity
  8
RUNDUNGEN
100
AcDbSpline
 62
9
  6
CONTINUOUS
 70
0
 71
3
 72
11
 73
7
 74
5
 42
0.0000001
 43
0.0000001
 44
0.0000000001
 12
0.0000000006
 22
0.8889176003
 32
0.0
 13
0.8889176003
 23
0.0000007392
 33
0.0
 40
0.0
 40
0.0
 40
0.0
 40
0.0
 40
0.2373597584
 40
0.482313248
 40
0.7376199253
 40
1.0
 40
1.0
 40
1.0
 40
1.0
 10
120.5947910959
 20
79.2354773116
 30
0.0
 10
120.594791096
 20
79.3058084005
 30
0.0
 10
120.6273368677
 20
79.4504866941
 30
0.0
 10
120.7632417312
 20
79.6291820171
 30
0.0
 10
120.9622267356
 20
79.7466840722
 30
0.0
 10
121.1170463405
 20
79.7737507448
 30
0.0
 10
121.1947910959
 20
79.7737508095
 30
0.0
 11
120.5947910959
 21
79.2354773116
 31
0.0
 11
120.6404644351
 21
79.4414678568
 31
0.0
 11
120.770529909
 21
79.6160965785
 31
0.0
 11
120.965183908
 21
79.7327781086
 31
0.0
 11
121.1947910959
 21
79.7737508095
 31
0.0
  0
SPLINE
  5
510
100
AcDbEntity
  8
RUNDUNGEN
100
AcDbSpline
 62
9
  6
CONTINUOUS
 70
0
 71
3
 72
8
 73
4
 74
2
 42
0.0000001
 43
0.0000001
 44
0.0000000001
 12
0.0482021047
 22
0.1799115257
 32
0.0
 13
0.1075957518
 23
0.1534388791
 33
0.0
 40
0.0
 40
0.0
 40
0.0
 40
0.0
 40
1.0
 40
1.0
 40
1.0
 40
1.0
 10
120.5743489791
 20
79.0801852446
 30
0.0
 10
120.5904163474
 20
79.1401557531
 30
0.0
 10
120.6174002392
 20
79.197751086
 30
0.0
 10
120.6532654898
 20
79.248897379
 30
0.0
 11
120.5743489791
 21
79.0801852446
 31
0.0
 11
120.6532654898
 21
79.248897379
 31
0.0
  0
SPLINE
  5
511
100
AcDbEntity
  8
RUNDUNGEN
100
AcDbSpline
 62
9
  6
CONTINUOUS
 70
0
 71
3
 72
10
 73
6
 74
4
 42
0.0000001
 43
0.0000001
 44
0.0000000001
 12
0.3332564835
 22
0.4752464705
 32
0.0
 13
0.576649847
 23
-0.016765073
 33
0.0
 40
0.0
 40
0.0
 40
0.0
 40
0.0
 40
0.3270268257
 40
0.6605190948
 40
1.0
 40
1.0
 40
1.0
 40
1.0
 10
120.6532654898
 20
79.248897379
 30
0.0
 10
120.6895934265
 20
79.3007034939
 30
0.0
 10
120.7813716401
 20
79.3919761251
 30
0.0
 10
120.9577213972
 20
79.4767728788
 30
0.0
 10
121.0886482168
 20
79.4933116738
 30
0.0
 10
121.1539020875
 20
79.4914145331
 30
0.0
 11
120.6532654898
 21
79.248897379
 31
0.0
 11
120.786529002
 21
79.3824387593
 31
0.0
 11
120.9596730893
 21
79.4663127941
 31
0.0
 11
121.1539020875
 21
79.4914145331
 31
0.0
  0
SPLINE
  5
512
100
AcDbEntity
  8
RUNDUNGEN
100
AcDbSpline
 62
9
  6
CONTINUOUS
 70
0
 71
3
 72
8
 73
4
 74
2
 42
0.0000001
 43
0.0000001
 44
0.0000000001
 12
-0.0482065034
 22
0.1799085135
 32
0.0
 13
-0.1075977377
 23
0.1534352558
 33
0.0
 40
0.0
 40
0.0
 40
0.0
 40
0.0
 40
1.0
 40
1.0
 40
1.0
 40
1.0
 10
100.6152343592
 20
79.0801855517
 30
0.0
 10
100.5991655248
 20
79.1401550562
 30
0.0
 10
100.5721805571
 20
79.1977491468
 30
0.0
 10
100.5363146445
 20
79.2488942321
 30
0.0
 11
100.6152343592
 21
79.0801855517
 31
0.0
 11
100.5363146445
 21
79.2488942321
 31
0.0
  0
SPLINE
  5
513
100
AcDbEntity
  8
RUNDUNGEN
100
AcDbSpline
 62
9
  6
CONTINUOUS
 70
0
 71
3
 72
10
 73
6
 74
4
 42
0.0000001
 43
0.0000001
 44
0.0000000001
 12
-0.3332624889
 22
0.4752350405
 32
0.0
 13
-0.576644114
 23
-0.0167648188
 33
0.0
 40
0.0
 40
0.0
 40
0.0
 40
0.0
 40
0.3270270736
 40
0.6605193861
 40
1.0
 40
1.0
 40
1.0
 40
1.0
 10
100.5363146445
 20
79.2488942321
 30
0.0
 10
100.4999860257
 20
79.3006991402
 30
0.0
 10
100.4082073091
 20
79.3919693682
 30
0.0
 10
100.2318586866
 20
79.4767636673
 30
0.0
 10
100.1009332704
 20
79.4933019534
 30
0.0
 10
100.0356801044
 20
79.4914048431
 30
0.0
 11
100.5363146445
 21
79.2488942321
 31
0.0
 11
100.4030502138
 21
79.3824322468
 31
0.0
 11
100.2299070721
 21
79.4663039017
 31
0.0
 11
100.0356801044
 21
79.4914048431
 31
0.0
  0
SPLINE
  5
514
100
AcDbEntity
  8
RUNDUNGEN
100
AcDbSpline
 62
9
  6
CONTINUOUS
 70
0
 71
3
 72
11
 73
7
 74
5
 42
0.0000001
 43
0.0000001
 44
0.0000000001
 12
-0.0000000005
 22
0.8889176959
 32
0.0
 13
-0.8889176959
 23
-0.0000000014
 33
0.0
 40
0.0
 40
0.0
 40
0.0
 40
0.0
 40
0.237363798
 40
0.4823175082
 40
0.7376222572
 40
1.0
 40
1.0
 40
1.0
 40
1.0
 10
100.5947910959
 20
79.2354773115
 30
0.0
 10
100.5947910959
 20
79.305809605
 30
0.0
 10
100.562244456
 20
79.4504892504
 30
0.0
 10
100.4263379659
 20
79.6291842146
 30
0.0
 10
100.2273535191
 20
79.7466846875
 30
0.0
 10
100.0725351688
 20
79.7737508081
 30
0.0
 10
99.9947910959
 20
79.773750808
 30
0.0
 11
100.5947910959
 21
79.2354773115
 31
0.0
 11
100.5491162473
 21
79.4414712234
 31
0.0
 11
100.4190494776
 21
79.6160992536
 31
0.0
 11
100.2243963563
 21
79.7327789615
 31
0.0
 11
99.9947910959
 21
79.773750808
 31
0.0
  0
SPLINE
  5
515
100
AcDbEntity
  8
RUNDUNGEN
100
AcDbSpline
 62
9
  6
CONTINUOUS
 70
0
 71
3
 72
17
 73
13
 74
11
 42
0.0000001
 43
0.0000001
 44
0.0000000001
 12
-0.0000114996
 22
3.8479078622
 32
0.0
 13
-0.7984181763
 23
3.7641630321
 33
0.0
 40
0.0
 40
0.0
 40
0.0
 40
0.0
 40
0.0613117745
 40
0.1296030915
 40
0.2050593514
 40
0.2879532568
 40
0.3791426101
 40
0.4800535518
 40
0.5920026458
 40
0.7159070654
 40
0.851965717
 40
1.0
 40
1.0
 40
1.0
 40
1.0
 10
100.5947910959
 20
81.3617212635
 30
0.0
 10
100.5947908608
 20
81.4403619498
 30
0.0
 10
100.59093609
 20
81.6066082336
 30
0.0
 10
100.5746043072
 20
81.8691709116
 30
0.0
 10
100.5467319517
 20
82.15857926
 30
0.0
 10
100.5068467652
 20
82.4761898285
 30
0.0
 10
100.454438729
 20
82.8250206224
 30
0.0
 10
100.3888473465
 20
83.2094704729
 30
0.0
 10
100.3094786182
 20
83.6340760512
 30
0.0
 10
100.2162443001
 20
84.1019119303
 30
0.0
 10
100.1098143805
 20
84.6142901728
 30
0.0
 10
100.03418885
 20
84.9707440876
 30
0.0
 10
99.9947910959
 20
85.1564858127
 30
0.0
 11
100.5947910959
 21
81.3617212635
 31
0.0
 11
100.5896962966
 21
81.5975883043
 31
0.0
 11
100.5737689804
 21
81.8598838696
 31
0.0
 11
100.5463214649
 21
82.1489323467
 31
0.0
 11
100.5069591628
 21
82.4654623842
 31
0.0
 11
100.455202895
 21
82.81251258
 31
0.0
 11
100.390273976
 21
83.1953415543
 31
0.0
 11
100.3114987244
 21
83.618847256
 31
0.0
 11
100.2186906214
 21
84.0864998513
 31
0.0
 11
100.1125903316
 21
84.5991772056
 31
0.0
 11
99.9947910959
 21
85.1564858127
 31
0.0
  0
SPLINE
  5
516
100
AcDbEntity
  8
02___PRT_ALL_AXES
100
AcDbSpline
 62
9
  6
CONTINUOUS
 70
0
 71
3
 72
12
 73
8
 74
6
 42
0.0000001
 43
0.0000001
 44
0.0000000001
 12
-0.8497953416
 22
-1.8026004034
 32
0.0
 13
-0.6796041674
 23
-1.8734082611
 33
0.0
 40
0.0
 40
0.0
 40
0.0
 40
0.0
 40
0.2258230894
 40
0.438322256
 40
0.6378903084
 40
0.8249484307
 40
1.0
 40
1.0
 40
1.0
 40
1.0
 10
96.1947910959
 20
85.1564858127
 30
0.0
 10
96.1308232928
 20
85.0207962154
 30
0.0
 10
96.0066669584
 20
84.7574195571
 30
0.0
 10
95.8293585762
 20
84.3725445524
 30
0.0
 10
95.6686851764
 20
84.0083966833
 30
0.0
 10
95.5258874251
 20
83.6636499382
 30
0.0
 10
95.4398695854
 20
83.4389617271
 30
0.0
 10
95.4002143267
 20
83.329647375
 30
0.0
 11
96.1947910959
 21
85.1564858127
 31
0.0
 11
96.00350871
 21
84.7491248319
 31
0.0
 11
95.826836039
 21
84.3642555995
 31
0.0
 11
95.6667668418
 21
84.0001770213
 31
0.0
 11
95.5244475073
 21
83.6556314556
 31
0.0
 11
95.4002143267
 21
83.329647375
 31
0.0
  0
SPLINE
  5
517
100
AcDbEntity
  8
02___PRT_ALL_AXES
100
AcDbSpline
 62
9
  6
CONTINUOUS
 70
0
 71
3
 72
11
 73
7
 74
5
 42
0.0000001
 43
0.0000001
 44
0.0000000001
 12
-0.2088985414
 22
-0.963473069
 32
0.0
 13
-0.000011151
 23
-0.9858595007
 33
0.0
 40
0.0
 40
0.0
 40
0.0
 40
0.0
 40
0.2728878726
 40
0.5305839711
 40
0.772982851
 40
1.0
 40
1.0
 40
1.0
 40
1.0
 10
70.1081842433
 20
82.339315798
 30
0.0
 10
70.0891822838
 20
82.2516757592
 30
0.0
 10
70.0561437614
 20
82.0803939636
 30
0.0
 10
70.020417251
 20
81.8287904648
 30
0.0
 10
69.9995399246
 20
81.5906444144
 30
0.0
 10
69.9947919398
 20
81.4363549583
 30
0.0
 10
69.9947910959
 20
81.3617526205
 30
0.0
 11
70.1081842433
 21
82.339315798
 31
0.0
 11
70.0574503125
 21
82.0751137429
 31
0.0
 11
70.022034886
 21
81.8235422004
 31
0.0
 11
70.0014262023
 21
81.5854612581
 31
0.0
 11
69.9947910959
 21
81.3617526205
 31
0.0
  0
LINE
  5
518
100
AcDbEntity
  8
RUNDUNGEN
100
AcDbLine
 62
9
  6
CONTINUOUS
 10
95.1987370245
 20
91.1564858127
 11
93.2332977594
 21
85.1564858127
  0
LINE
  5
519
100
AcDbEntity
  8
RUNDUNGEN
100
AcDbLine
 62
9
  6
CONTINUOUS
 10
102.9562844325
 20
85.1564858127
 11
100.9908451674
 21
91.1564858127
  0
SPLINE
  5
51A
100
AcDbEntity
  8
02___PRT_ALL_AXES
100
AcDbSpline
 62
9
  6
CONTINUOUS
 70
0
 71
3
 72
11
 73
7
 74
5
 42
0.0000001
 43
0.0000001
 44
0.0000000001
 12
-0.0000162769
 22
0.9858558357
 32
0.0
 13
-0.208901768
 23
0.9634686193
 33
0.0
 40
0.0
 40
0.0
 40
0.0
 40
0.0
 40
0.2269479087
 40
0.4693791041
 40
0.7271161826
 40
1.0
 40
1.0
 40
1.0
 40
1.0
 10
51.1947910959
 20
81.3617526205
 30
0.0
 10
51.1947898646
 20
81.4363319273
 30
0.0
 10
51.1900444825
 20
81.5906086329
 30
0.0
 10
51.1691705798
 20
81.8287555674
 30
0.0
 10
51.1334392664
 20
82.0803803775
 30
0.0
 10
51.1004023646
 20
82.2516741809
 30
0.0
 10
51.081400394
 20
82.3393125125
 30
0.0
 11
51.1947910959
 21
81.3617526205
 31
0.0
 11
51.1881602564
 21
81.5853922613
 31
0.0
 11
51.1675520564
 21
81.8235043313
 31
0.0
 11
51.1321313505
 21
82.0751149755
 31
0.0
 11
51.081400394
 21
82.3393125125
 31
0.0
  0
SPLINE
  5
51B
100
AcDbEntity
  8
02___PRT_ALL_AXES
100
AcDbSpline
 62
9
  6
CONTINUOUS
 70
0
 71
3
 72
12
 73
8
 74
6
 42
0.0000001
 43
0.0000001
 44
0.0000000001
 12
-0.6796034894
 22
1.8734076685
 32
0.0
 13
-0.8497960234
 23
1.8025992105
 33
0.0
 40
0.0
 40
0.0
 40
0.0
 40
0.0
 40
0.1749623139
 40
0.3620181842
 40
0.5616318823
 40
0.7741769279
 40
1.0
 40
1.0
 40
1.0
 40
1.0
 10
50.7893679614
 20
83.3296482622
 30
0.0
 10
50.7497329617
 20
83.4389068424
 30
0.0
 10
50.6637381168
 20
83.6635386092
 30
0.0
 10
50.5209564873
 20
84.0082589021
 30
0.0
 10
50.3602616662
 20
84.3724619957
 30
0.0
 10
50.1829282001
 20
84.7573921951
 30
0.0
 10
50.0587589455
 20
85.0207963156
 30
0.0
 10
49.9947910959
 20
85.1564858127
 30
0.0
 11
50.7893679614
 21
83.3296482622
 31
0.0
 11
50.6652001212
 21
83.6554667429
 31
0.0
 11
50.522886733
 21
84.0000097497
 31
0.0
 11
50.3627836358
 21
84.364172621
 31
0.0
 11
50.1860734652
 21
84.7491250586
 31
0.0
 11
49.9947910959
 21
85.1564858127
 31
0.0
  0
SPLINE
  5
51C
100
AcDbEntity
  8
02___PRT_ALL_AXES
100
AcDbSpline
 62
9
  6
CONTINUOUS
 70
0
 71
3
 72
12
 73
8
 74
6
 42
0.0000001
 43
0.0000001
 44
0.0000000001
 12
-0.8497953416
 22
-1.8026004034
 32
0.0
 13
-0.6796041674
 23
-1.8734082611
 33
0.0
 40
0.0
 40
0.0
 40
0.0
 40
0.0
 40
0.2258230894
 40
0.438322256
 40
0.6378903084
 40
0.8249484307
 40
1.0
 40
1.0
 40
1.0
 40
1.0
 10
71.1947910959
 20
85.1564858127
 30
0.0
 10
71.1308232928
 20
85.0207962154
 30
0.0
 10
71.0066669584
 20
84.7574195571
 30
0.0
 10
70.8293585762
 20
84.3725445524
 30
0.0
 10
70.6686851764
 20
84.0083966833
 30
0.0
 10
70.5258874251
 20
83.6636499382
 30
0.0
 10
70.4398695854
 20
83.4389617271
 30
0.0
 10
70.4002143267
 20
83.329647375
 30
0.0
 11
71.1947910959
 21
85.1564858127
 31
0.0
 11
71.00350871
 21
84.7491248319
 31
0.0
 11
70.826836039
 21
84.3642555995
 31
0.0
 11
70.6667668418
 21
84.0001770213
 31
0.0
 11
70.5244475073
 21
83.6556314556
 31
0.0
 11
70.4002143267
 21
83.329647375
 31
0.0
  0
LINE
  5
51D
100
AcDbEntity
  8
RUNDUNGEN
100
AcDbLine
 62
9
  6
CONTINUOUS
 10
96.1539020875
 20
79.4914027622
 11
96.0551872887
 21
79.1564858127
  0
LINE
  5
51E
100
AcDbEntity
  8
RUNDUNGEN
100
AcDbLine
 62
9
  6
CONTINUOUS
 10
50.1343949032
 20
79.1564858127
 11
50.0356801044
 21
79.4914027622
  0
LINE
  5
51F
100
AcDbEntity
  8
RUNDUNGEN
100
AcDbLine
 62
9
  6
CONTINUOUS
 10
52.9562844325
 20
85.1564858127
 11
50.9908451674
 21
91.1564858127
  0
LINE
  5
520
100
AcDbEntity
  8
RUNDUNGEN
100
AcDbLine
 62
9
  6
CONTINUOUS
 10
120.1987370245
 20
91.1564858127
 11
118.2332977594
 21
85.1564858127
  0
LINE
  5
521
100
AcDbEntity
  8
RUNDUNGEN
100
AcDbLine
 62
9
  6
CONTINUOUS
 10
121.1539020875
 20
79.4914027622
 11
121.0551872887
 21
79.1564858127
  0
SPLINE
  5
522
100
AcDbEntity
  8
02___PRT_ALL_AXES
100
AcDbSpline
 62
9
  6
CONTINUOUS
 70
0
 71
3
 72
11
 73
7
 74
5
 42
0.0000001
 43
0.0000001
 44
0.0000000001
 12
-0.0000162769
 22
0.9858566348
 32
0.0
 13
-0.2089021951
 23
0.9634693444
 33
0.0
 40
0.0
 40
0.0
 40
0.0
 40
0.0
 40
0.2269479503
 40
0.4693792049
 40
0.7271163584
 40
1.0
 40
1.0
 40
1.0
 40
1.0
 10
101.1947910959
 20
81.3617526205
 30
0.0
 10
101.1947898646
 20
81.4363320014
 30
0.0
 10
101.1900444887
 20
81.5906088683
 30
0.0
 10
101.169170468
 20
81.8287560372
 30
0.0
 10
101.1334394031
 20
82.0803810923
 30
0.0
 10
101.1004016474
 20
82.2516748423
 30
0.0
 10
101.0813996502
 20
82.3393131834
 30
0.0
 11
101.1947910959
 21
81.3617526205
 31
0.0
 11
101.1881602434
 21
81.5853924834
 31
0.0
 11
101.1675520027
 21
81.8235048029
 31
0.0
 11
101.1321312264
 21
82.0751157199
 31
0.0
 11
101.0813996502
 21
82.3393131834
 31
0.0
  0
LINE
  5
523
100
AcDbEntity
  8
RUNDUNGEN
100
AcDbLine
 62
9
  6
CONTINUOUS
 10
75.1343949032
 20
79.1564858127
 11
75.0356801044
 21
79.4914027622
  0
SPLINE
  5
524
100
AcDbEntity
  8
02___PRT_ALL_AXES
100
AcDbSpline
 62
9
  6
CONTINUOUS
 70
0
 71
3
 72
11
 73
7
 74
5
 42
0.0000001
 43
0.0000001
 44
0.0000000001
 12
-0.2088989686
 22
-0.9634737942
 32
0.0
 13
-0.000011151
 23
-0.9858603
 33
0.0
 40
0.0
 40
0.0
 40
0.0
 40
0.0
 40
0.272887697
 40
0.5305838706
 40
0.7729828095
 40
1.0
 40
1.0
 40
1.0
 40
1.0
 10
120.1081849873
 20
82.339316469
 30
0.0
 10
120.0891830011
 20
82.2516764207
 30
0.0
 10
120.0561436247
 20
82.0803946784
 30
0.0
 10
120.0204173628
 20
81.8287909345
 30
0.0
 10
119.9995399184
 20
81.5906446498
 30
0.0
 10
119.9947919398
 20
81.4363550324
 30
0.0
 10
119.9947910959
 20
81.3617526205
 30
0.0
 11
120.1081849873
 21
82.339316469
 31
0.0
 11
120.0574504366
 21
82.0751144871
 31
0.0
 11
120.0220349396
 21
81.8235426718
 31
0.0
 11
120.0014262152
 21
81.5854614802
 31
0.0
 11
119.9947910959
 21
81.3617526205
 31
0.0
  0
SPLINE
  5
525
100
AcDbEntity
  8
02___PRT_ALL_AXES
100
AcDbSpline
 62
9
  6
CONTINUOUS
 70
0
 71
3
 72
12
 73
8
 74
6
 42
0.0000001
 43
0.0000001
 44
0.0000000001
 12
-0.6796034684
 22
1.8734086185
 32
0.0
 13
-0.8497964012
 23
1.8026000119
 33
0.0
 40
0.0
 40
0.0
 40
0.0
 40
0.0
 40
0.174962173
 40
0.3620180611
 40
0.5616317883
 40
0.7741768746
 40
1.0
 40
1.0
 40
1.0
 40
1.0
 10
100.7893676722
 20
83.3296472039
 30
0.0
 10
100.7497327056
 20
83.4389057515
 30
0.0
 10
100.6637387411
 20
83.663537881
 30
0.0
 10
100.5209567189
 20
84.0082581357
 30
0.0
 10
100.3602619253
 20
84.3724614919
 30
0.0
 10
100.1829283175
 20
84.7573919261
 30
0.0
 10
100.058758989
 20
85.0207962232
 30
0.0
 10
99.9947910959
 20
85.1564858127
 30
0.0
 11
100.7893676722
 21
83.3296472039
 31
0.0
 11
100.6652004951
 21
83.6554658026
 31
0.0
 11
100.5228870515
 21
84.0000090043
 31
0.0
 11
100.3627838723
 21
84.3641720961
 31
0.0
 11
100.1860735946
 21
84.749124781
 31
0.0
 11
99.9947910959
 21
85.1564858127
 31
0.0
  0
SPLINE
  5
526
100
AcDbEntity
  8
RUNDUNGEN
100
AcDbSpline
 62
9
  6
CONTINUOUS
 70
0
 71
3
 72
21
 73
17
 74
15
 42
0.0000001
 43
0.0000001
 44
0.0000000001
 12
-4.452025125
 22
0.0000663602
 32
0.0
 13
-2.8342451067
 23
3.4333048791
 33
0.0
 40
0.0
 40
0.0
 40
0.0
 40
0.0
 40
0.0886068074
 40
0.1810279845
 40
0.2748983398
 40
0.367672597
 40
0.4564637976
 40
0.5378977801
 40
0.6124628335
 40
0.6815099305
 40
0.7453364316
 40
0.8042426541
 40
0.8586370637
 40
0.9090210675
 40
0.9558043876
 40
1.0
 40
1.0
 40
1.0
 40
1.0
 10
85.5947910959
 20
54.1564858127
 30
0.0
 10
85.4632978516
 20
54.1564877727
 30
0.0
 10
85.1944791573
 20
54.1693486732
 30
0.0
 10
84.7901786128
 20
54.2283405312
 30
0.0
 10
84.3875313412
 20
54.3279871451
 30
0.0
 10
84.0012440608
 20
54.463367474
 30
0.0
 10
83.6452253424
 20
54.6244140923
 30
0.0
 10
83.3266392231
 20
54.7996274055
 30
0.0
 10
83.0453904687
 20
54.9801346925
 30
0.0
 10
82.7964906149
 20
55.1615515926
 30
0.0
 10
82.5754667366
 20
55.3410280662
 30
0.0
 10
82.3791915775
 20
55.5159950267
 30
0.0
 10
82.2045579724
 20
55.6849235149
 30
0.0
 10
82.048637197
 20
55.847087293
 30
0.0
 10
81.9081948681
 20
56.0029668062
 30
0.0
 10
81.8207936606
 20
56.105900165
 30
0.0
 10
81.7790399279
 20
56.1564791689
 30
0.0
 11
85.5947910959
 21
54.1564858127
 31
0.0
 11
85.2007604444
 21
54.1753034994
 31
0.0
 11
84.7935886334
 21
54.2345622709
 31
0.0
 11
84.3878562912
 21
54.334725602
 31
0.0
 11
83.9979700237
 21
54.4710532407
 31
0.0
 11
83.6376845354
 21
54.6337092446
 31
0.0
 11
83.3198984774
 21
54.8082134627
 31
0.0
 11
83.040425035
 21
54.9873661418
 31
0.0
 11
82.7919267203
 21
55.1683163708
 31
0.0
 11
82.5712694105
 21
55.3473573111
 31
0.0
 11
82.3754542009
 21
55.5218064612
 31
0.0
 11
82.2013560241
 21
55.6901330691
 31
0.0
 11
82.0458544858
 21
55.8517951526
 31
0.0
 11
81.9064133798
 21
56.0065108649
 31
0.0
 11
81.7790399279
 21
56.1564791689
 31
0.0
  0
SPLINE
  5
527
100
AcDbEntity
  8
RUNDUNGEN
100
AcDbSpline
 62
9
  6
CONTINUOUS
 70
0
 71
3
 72
21
 73
17
 74
15
 42
0.0000001
 43
0.0000001
 44
0.0000000001
 12
-2.8342641018
 22
-3.4333250987
 32
0.0
 13
-4.4520528105
 23
-0.0000707484
 33
0.0
 40
0.0
 40
0.0
 40
0.0
 40
0.0
 40
0.0449441749
 40
0.0928199064
 40
0.1445331818
 40
0.2003721082
 40
0.2607245725
 40
0.3258908202
 40
0.3960742366
 40
0.4714452524
 40
0.5527470105
 40
0.6394917938
 40
0.7293845236
 40
0.8205161413
 40
0.9112256331
 40
1.0
 40
1.0
 40
1.0
 40
1.0
 10
64.4105419634
 20
56.1564788178
 30
0.0
 10
64.3680807429
 20
56.1050428299
 30
0.0
 10
64.2788853033
 20
56.0000463416
 30
0.0
 10
64.1351567797
 20
55.8407902311
 30
0.0
 10
63.9749740162
 20
55.6747583258
 30
0.0
 10
63.7953603965
 20
55.5019623313
 30
0.0
 10
63.5936922996
 20
55.3236007245
 30
0.0
 10
63.3671981681
 20
55.1416168824
 30
0.0
 10
63.1131739525
 20
54.9589526301
 30
0.0
 10
62.8282819469
 20
54.7791450699
 30
0.0
 10
62.5100394295
 20
54.6075513005
 30
0.0
 10
62.1596681826
 20
54.4523238261
 30
0.0
 10
61.7834148679
 20
54.3228690194
 30
0.0
 10
61.3910858563
 20
54.22703913
 30
0.0
 10
60.9930637156
 20
54.1692637755
 30
0.0
 10
60.7265338192
 20
54.1564879063
 30
0.0
 10
60.5947910959
 20
54.1564858127
 30
0.0
 11
64.4105419634
 21
56.1564788178
 31
0.0
 11
64.2809737604
 21
56.0040005387
 31
0.0
 11
64.1381407398
 21
55.8457929512
 31
0.0
 11
63.9782525746
 21
55.6801374805
 31
0.0
 11
63.7990547675
 21
55.5078324124
 31
0.0
 11
63.5977291759
 21
55.3298897542
 31
0.0
 11
63.3714936803
 21
55.1482604889
 31
0.0
 11
63.1177245852
 21
54.9659621877
 31
0.0
 11
62.8338601654
 21
54.787024635
 31
0.0
 11
62.5151513551
 21
54.615445109
 31
0.0
 11
62.1619508372
 21
54.459259546
 31
0.0
 11
61.7834300285
 21
54.329306537
 31
0.0
 11
61.3892430558
 21
54.233246137
 31
0.0
 11
60.9895676265
 21
54.1753748844
 31
0.0
 11
60.5947910959
 21
54.1564858127
 31
0.0
  0
SPLINE
  5
528
100
AcDbEntity
  8
RUNDUNGEN
100
AcDbSpline
 62
9
  6
CONTINUOUS
 70
0
 71
3
 72
21
 73
17
 74
15
 42
0.0000001
 43
0.0000001
 44
0.0000000001
 12
-4.452025125
 22
0.0000663602
 32
0.0
 13
-2.8342451067
 23
3.4333048791
 33
0.0
 40
0.0
 40
0.0
 40
0.0
 40
0.0
 40
0.0886068074
 40
0.1810279845
 40
0.2748983398
 40
0.367672597
 40
0.4564637976
 40
0.5378977801
 40
0.6124628335
 40
0.6815099305
 40
0.7453364316
 40
0.8042426541
 40
0.8586370637
 40
0.9090210675
 40
0.9558043876
 40
1.0
 40
1.0
 40
1.0
 40
1.0
 10
60.5947910959
 20
54.1564858127
 30
0.0
 10
60.4632978516
 20
54.1564877727
 30
0.0
 10
60.1944791573
 20
54.1693486732
 30
0.0
 10
59.7901786128
 20
54.2283405312
 30
0.0
 10
59.3875313412
 20
54.3279871451
 30
0.0
 10
59.0012440608
 20
54.463367474
 30
0.0
 10
58.6452253424
 20
54.6244140923
 30
0.0
 10
58.3266392231
 20
54.7996274055
 30
0.0
 10
58.0453904687
 20
54.9801346925
 30
0.0
 10
57.7964906149
 20
55.1615515926
 30
0.0
 10
57.5754667366
 20
55.3410280662
 30
0.0
 10
57.3791915775
 20
55.5159950267
 30
0.0
 10
57.2045579724
 20
55.6849235149
 30
0.0
 10
57.048637197
 20
55.847087293
 30
0.0
 10
56.9081948681
 20
56.0029668062
 30
0.0
 10
56.8207936606
 20
56.105900165
 30
0.0
 10
56.7790399279
 20
56.1564791689
 30
0.0
 11
60.5947910959
 21
54.1564858127
 31
0.0
 11
60.2007604444
 21
54.1753034994
 31
0.0
 11
59.7935886334
 21
54.2345622709
 31
0.0
 11
59.3878562912
 21
54.334725602
 31
0.0
 11
58.9979700237
 21
54.4710532407
 31
0.0
 11
58.6376845354
 21
54.6337092446
 31
0.0
 11
58.3198984774
 21
54.8082134627
 31
0.0
 11
58.040425035
 21
54.9873661418
 31
0.0
 11
57.7919267203
 21
55.1683163708
 31
0.0
 11
57.5712694105
 21
55.3473573111
 31
0.0
 11
57.3754542009
 21
55.5218064612
 31
0.0
 11
57.2013560241
 21
55.6901330691
 31
0.0
 11
57.0458544858
 21
55.8517951526
 31
0.0
 11
56.9064133798
 21
56.0065108649
 31
0.0
 11
56.7790399279
 21
56.1564791689
 31
0.0
  0
LINE
  5
529
100
AcDbEntity
  8
RUNDUNGEN
100
AcDbLine
 62
9
  6
CONTINUOUS
 10
100.1343949032
 20
79.1564858127
 11
100.0356801044
 21
79.4914027622
  0
SPLINE
  5
52A
100
AcDbEntity
  8
RUNDUNGEN
100
AcDbSpline
 62
9
  6
CONTINUOUS
 70
0
 71
3
 72
21
 73
17
 74
15
 42
0.0000001
 43
0.0000001
 44
0.0000000001
 12
-4.452025125
 22
0.0000663602
 32
0.0
 13
-2.8342451068
 23
3.4333048791
 33
0.0
 40
0.0
 40
0.0
 40
0.0
 40
0.0
 40
0.088606807
 40
0.1810279838
 40
0.2748983389
 40
0.367672596
 40
0.4564637967
 40
0.5378977793
 40
0.6124628327
 40
0.6815099298
 40
0.745336431
 40
0.8042426535
 40
0.8586370633
 40
0.9090210671
 40
0.9558043874
 40
1.0
 40
1.0
 40
1.0
 40
1.0
 10
110.5947910959
 20
54.1564858127
 30
0.0
 10
110.4632978523
 20
54.1564877727
 30
0.0
 10
110.1944791591
 20
54.169348673
 30
0.0
 10
109.7901786158
 20
54.2283405306
 30
0.0
 10
109.3875313448
 20
54.327987144
 30
0.0
 10
109.0012440646
 20
54.4633674725
 30
0.0
 10
108.6452253459
 20
54.6244140905
 30
0.0
 10
108.3266392263
 20
54.7996274036
 30
0.0
 10
108.0453904716
 20
54.9801346905
 30
0.0
 10
107.7964906175
 20
55.1615515906
 30
0.0
 10
107.5754667388
 20
55.3410280643
 30
0.0
 10
107.3791915793
 20
55.515995025
 30
0.0
 10
107.2045579739
 20
55.6849235134
 30
0.0
 10
107.048637198
 20
55.847087292
 30
0.0
 10
106.9081948686
 20
56.0029668056
 30
0.0
 10
106.8207936608
 20
56.1059001648
 30
0.0
 10
106.7790399279
 20
56.1564791689
 30
0.0
 11
110.5947910959
 21
54.1564858127
 31
0.0
 11
110.2007604464
 21
54.1753034992
 31
0.0
 11
109.7935886366
 21
54.2345622703
 31
0.0
 11
109.387856295
 21
54.3347256008
 31
0.0
 11
108.9979700276
 21
54.4710532392
 31
0.0
 11
108.637684539
 21
54.6337092428
 31
0.0
 11
108.3198984806
 21
54.8082134608
 31
0.0
 11
108.040425038
 21
54.9873661398
 31
0.0
 11
107.7919267229
 21
55.1683163687
 31
0.0
 11
107.5712694128
 21
55.3473573091
 31
0.0
 11
107.3754542027
 21
55.5218064594
 31
0.0
 11
107.2013560256
 21
55.6901330676
 31
0.0
 11
107.0458544868
 21
55.8517951516
 31
0.0
 11
106.9064133804
 21
56.0065108642
 31
0.0
 11
106.7790399279
 21
56.1564791689
 31
0.0
  0
SPLINE
  5
52B
100
AcDbEntity
  8
RUNDUNGEN
100
AcDbSpline
 62
9
  6
CONTINUOUS
 70
0
 71
3
 72
21
 73
17
 74
15
 42
0.0000001
 43
0.0000001
 44
0.0000000001
 12
-2.8342641018
 22
-3.4333250987
 32
0.0
 13
-4.4520528105
 23
-0.0000707484
 33
0.0
 40
0.0
 40
0.0
 40
0.0
 40
0.0
 40
0.0449441749
 40
0.0928199064
 40
0.1445331818
 40
0.2003721082
 40
0.2607245725
 40
0.3258908202
 40
0.3960742366
 40
0.4714452524
 40
0.5527470105
 40
0.6394917938
 40
0.7293845236
 40
0.8205161413
 40
0.9112256331
 40
1.0
 40
1.0
 40
1.0
 40
1.0
 10
89.4105419634
 20
56.1564788178
 30
0.0
 10
89.3680807429
 20
56.1050428299
 30
0.0
 10
89.2788853033
 20
56.0000463416
 30
0.0
 10
89.1351567797
 20
55.8407902311
 30
0.0
 10
88.9749740162
 20
55.6747583258
 30
0.0
 10
88.7953603965
 20
55.5019623313
 30
0.0
 10
88.5936922996
 20
55.3236007245
 30
0.0
 10
88.367198168
 20
55.1416168824
 30
0.0
 10
88.1131739525
 20
54.9589526301
 30
0.0
 10
87.8282819469
 20
54.7791450699
 30
0.0
 10
87.5100394294
 20
54.6075513005
 30
0.0
 10
87.1596681826
 20
54.4523238261
 30
0.0
 10
86.7834148679
 20
54.3228690194
 30
0.0
 10
86.3910858563
 20
54.22703913
 30
0.0
 10
85.9930637156
 20
54.1692637755
 30
0.0
 10
85.7265338192
 20
54.1564879063
 30
0.0
 10
85.5947910959
 20
54.1564858127
 30
0.0
 11
89.4105419634
 21
56.1564788178
 31
0.0
 11
89.2809737604
 21
56.0040005387
 31
0.0
 11
89.1381407398
 21
55.8457929512
 31
0.0
 11
88.9782525746
 21
55.6801374805
 31
0.0
 11
88.7990547675
 21
55.5078324124
 31
0.0
 11
88.5977291759
 21
55.3298897542
 31
0.0
 11
88.3714936803
 21
55.1482604889
 31
0.0
 11
88.1177245852
 21
54.9659621877
 31
0.0
 11
87.8338601654
 21
54.787024635
 31
0.0
 11
87.5151513551
 21
54.615445109
 31
0.0
 11
87.1619508372
 21
54.459259546
 31
0.0
 11
86.7834300285
 21
54.329306537
 31
0.0
 11
86.3892430558
 21
54.233246137
 31
0.0
 11
85.9895676265
 21
54.1753748844
 31
0.0
 11
85.5947910959
 21
54.1564858127
 31
0.0
  0
ELLIPSE
  5
52C
100
AcDbEntity
  8
0
100
AcDbEllipse
 62
7
  6
CONTINUOUS
 10
53.5944823052
 20
155.8198782482
 30
0.0
 11
0.0
 21
2.695
 31
0.0
 40
0.2679491924
 41
0.0
 42
3.1415926536
  0
ELLIPSE
  5
52D
100
AcDbEntity
  8
0
100
AcDbEllipse
 62
7
  6
CONTINUOUS
 10
103.5944823052
 20
155.8198782482
 30
0.0
 11
-0.0
 21
2.695
 31
0.0
 40
0.2679491924
 41
-0.0
 42
3.1415926536
  0
ELLIPSE
  5
52E
100
AcDbEntity
  8
0
100
AcDbEllipse
 62
7
  6
CONTINUOUS
 10
117.5950998867
 20
155.8198782482
 30
0.0
 11
0.0
 21
2.695
 31
0.0
 40
0.2679491924
 41
-3.1415926536
 42
-0.0
  0
ELLIPSE
  5
52F
100
AcDbEntity
  8
0
100
AcDbEllipse
 62
7
  6
CONTINUOUS
 10
67.5950998867
 20
155.8198782482
 30
0.0
 11
-0.0
 21
2.695
 31
0.0
 40
0.2679491924
 41
-3.1415926536
 42
0.0
  0
ELLIPSE
  5
530
100
AcDbEntity
  8
0
100
AcDbEllipse
 62
7
  6
CONTINUOUS
 10
78.5944823052
 20
155.8198782482
 30
0.0
 11
0.0
 21
2.695
 31
0.0
 40
0.2679491924
 41
0.0
 42
3.1415926536
  0
ELLIPSE
  5
531
100
AcDbEntity
  8
0
100
AcDbEllipse
 62
7
  6
CONTINUOUS
 10
92.5950998867
 20
155.8198782482
 30
0.0
 11
0.0
 21
2.695
 31
0.0
 40
0.2679491924
 41
-3.1415926536
 42
-0.0
  0
ENDSEC
  0
SECTION
  2
OBJECTS
  0
DICTIONARY
  5
C
100
AcDbDictionary
280
0
281
1
  3
ACAD_GROUP
350
D
  3
ACAD_MLINESTYLE
350
17
  3
ACAD_LAYOUT
350
1A
  3
ACAD_PLOTSETTINGS
350
19
  3
ACAD_PLOTSTYLENAME
350
E
  0
DICTIONARY
  5
D
102
{ACAD_REACTORS
330
C
102
}
100
AcDbDictionary
280
0
281
1
  0
ACDBDICTIONARYWDFLT
  5
E
102
{ACAD_REACTORS
330
C
102
}
100
AcDbDictionary
281
1
  3
Normal
350
F
100
AcDbDictionaryWithDefault
340
F
  0
DICTIONARY
  5
17
102
{ACAD_REACTORS
330
C
102
}
100
AcDbDictionary
280
0
281
1
  3
Standard
350
18
  0
DICTIONARY
  5
19
102
{ACAD_REACTORS
330
C
102
}
100
AcDbDictionary
281
1
  0
DICTIONARY
  5
1A
102
{ACAD_REACTORS
330
C
102
}
100
AcDbDictionary
281
1
  3
Model
350
532
  3
Layout1
350
533
  0
ACDBPLACEHOLDER
  5
F
102
{ACAD_REACTORS
330
E
102
}
  0
MLINESTYLE
  5
18
102
{ACAD_REACTORS
330
17
102
}
100
AcDbMlineStyle
  2
STANDARD
 70
0
  3

 62
256
 51
90.0
 52
90.0
 71
2
 49
0.5
 62
256
  6
BYLAYER
 49
-0.5
 62
256
  6
BYLAYER
  0
LAYOUT
  5
532
102
{ACAD_REACTORS
330
1A
102
}
100
AcDbPlotSettings
  1

  2
none_device
  4
ISO_A4_(297.00_x_210.00_MM)
  6

 40
0.0
 41
0.0
 42
0.0
 43
0.0
 44
297.0
 45
210.0
 46
0.0
 47
0.0
 48
0.0
 49
0.0
140
0.0
141
0.0
142
1.0
143
1.0
 70
1024
 72
1
 73
0
 74
0
  7

 75
0
147
1.0
148
0.0
149
0.0
100
AcDbLayout
  1
Model
 70
0
 71
0
 10
0.0
 20
0.0
 11
297.0
 21
210.0
 12
0.0
 22
0.0
 32
0.0
 14
0.0
 24
0.0
 34
0.0
 15
0.0
 25
0.0
 35
0.0
146
0.0
 13
0.0
 23
0.0
 33
0.0
 16
1.0
 26
0.0
 36
0.0
 17
0.0
 27
1.0
 37
0.0
 76
0
330
20F
345
0
346
0
  0
LAYOUT
  5
533
102
{ACAD_REACTORS
330
1A
102
}
100
AcDbPlotSettings
  1

  2
none_device
  4
ISO_A4_(297.00_x_210.00_MM)
  6

 40
0.0
 41
0.0
 42
0.0
 43
0.0
 44
297.0
 45
210.0
 46
0.0
 47
0.0
 48
0.0
 49
0.0
140
0.0
141
0.0
142
1.0
143
1.0
 70
0
 72
1
 73
0
 74
0
  7

 75
0
147
1.0
148
0.0
149
0.0
100
AcDbLayout
  1
Layout1
 70
0
 71
1
 10
0.0
 20
0.0
 11
297.0
 21
210.0
 12
0.0
 22
0.0
 32
0.0
 14
0.0
 24
0.0
 34
0.0
 15
0.0
 25
0.0
 35
0.0
146
0.0
 13
0.0
 23
0.0
 33
0.0
 16
1.0
 26
0.0
 36
0.0
 17
0.0
 27
1.0
 37
0.0
 76
0
330
210
345
0
346
0
  0
ENDSEC
  0
EOF
