999
DXF file: s5-45_ntp_w50.dxf
999
Pro/ENGINEER 2008490 by Parametric Technology Corporation
  0
SECTION
  2
HEADER
  9
$ACADVER
  1
AC1015
  9
$DWGCODEPAGE
  3
ANSI_1252
  9
$EXTMAX
 10
297.0
 20
210.0
 30
0.0
  9
$EXTMIN
 10
0.0
 20
0.0
 30
0.0
  9
$LIMMIN
 10
0.0
 20
0.0
  9
$LIMMAX
 10
297.0
 20
210.0
  9
$VIEWCTR
 10
148.5
 20
105.0
  9
$VIEWSIZE
 40
210.0
  9
$CLAYER
  8
0
  9
$LTSCALE
 40
16.335
  9
$CELTYPE
  6
BYLAYER
  9
$DIMSCALE
 40
1.0
  9
$DIMASZ
 40
3.5
  9
$DIMEXO
 40
1.85625
  9
$DIMDLI
 40
11.286
  9
$DIMEXE
 40
5.346
  9
$DIMCEN
 40
2.673
  9
$DIMLFAC
 40
1.0
  9
$DIMBLK
  1
_FILLED
  9
$DIMTXT
 40
3.5
  9
$DIMTOL
 70
1
  9
$DIMLIM
 70
0
  9
$DIMTFAC
 40
1.0
  9
$DIMTP
 40
0.005
  9
$DIMTM
 40
0.005
  9
$PDMODE
 70
3
  9
$PDSIZE
 40
0.3125
  9
$HANDSEED
  5
445
  9
$TILEMODE
 70
1
  9
$MEASUREMENT
 70
1
  9
$INSUNITS
 70
4
  0
ENDSEC
  0
SECTION
  2
CLASSES
  0
CLASS
  1
ACDBDICTIONARYWDFLT
  2
AcDbDictionaryWithDefault
  3
AutoCAD 2000
 90
0
280
0
281
0
  0
CLASS
  1
ACDBPLACEHOLDER
  2
AcDbPlaceHolder
  3
AutoCAD 2000
 90
0
280
0
281
0
  0
CLASS
  1
LAYOUT
  2
AcDbLayout
  3
AutoCAD 2000
 90
0
280
0
281
0
  0
ENDSEC
  0
SECTION
  2
TABLES
  0
TABLE
  2
VPORT
  5
8
100
AcDbSymbolTable
 70
2
  0
VPORT
  5
1F4
100
AcDbSymbolTableRecord
100
AcDbViewportTableRecord
  2
*ACTIVE
 70
0
 10
0.0
 20
0.0
 11
1.0
 21
1.0
 12
148.5
 22
105.0
 13
0.0
 23
0.0
 14
1.0
 24
1.0
 15
0.0
 25
0.0
 16
0.0
 26
0.0
 36
1.0
 17
0.0
 27
0.0
 37
0.0
 40
210.0
 41
1.4142857143
 42
50.0
 43
0.0
 44
0.0
 50
0.0
 51
0.0
 71
0
 72
100
 73
1
 74
1
 75
0
 76
0
 77
0
 78
0
  0
ENDTAB
  0
TABLE
  2
LTYPE
  5
5
100
AcDbSymbolTable
 70
6
  0
LTYPE
  5
14
100
AcDbSymbolTableRecord
100
AcDbLinetypeTableRecord
  2
BYBLOCK
 70
0
  3

 72
65
 73
0
 40
0.0
  0
LTYPE
  5
15
100
AcDbSymbolTableRecord
100
AcDbLinetypeTableRecord
  2
BYLAYER
 70
0
  3

 72
65
 73
0
 40
0.0
  0
LTYPE
  5
16
100
AcDbSymbolTableRecord
100
AcDbLinetypeTableRecord
  2
CONTINUOUS
 70
64
  3
Solid line
 72
65
 73
0
 40
0.0
  0
LTYPE
  5
1F5
100
AcDbSymbolTableRecord
100
AcDbLinetypeTableRecord
  2
CENTER
 70
64
  3
____ _ ____ _ ____ _ ____ _ ____ _ ____ _ ____
 72
65
 73
4
 40
0.6
 49
0.375
 74
0
 49
-0.075
 74
0
 49
0.075
 74
0
 49
-0.075
 74
0
  0
LTYPE
  5
1F6
100
AcDbSymbolTableRecord
100
AcDbLinetypeTableRecord
  2
HIDDEN
 70
64
  3
- - - - - - - - - - - - - - - - - - - -
 72
65
 73
2
 40
0.2
 49
0.1
 74
0
 49
-0.1
 74
0
  0
LTYPE
  5
1F7
100
AcDbSymbolTableRecord
100
AcDbLinetypeTableRecord
  2
PHANTOM
 70
64
  3
_____ _ _ _____ _ _ _____ _ _ _____
 72
65
 73
6
 40
0.8
 49
0.45
 74
0
 49
-0.05
 74
0
 49
0.1
 74
0
 49
-0.05
 74
0
 49
0.1
 74
0
 49
-0.05
 74
0
  0
LTYPE
  5
1F8
100
AcDbSymbolTableRecord
100
AcDbLinetypeTableRecord
  2
DOT
 70
64
  3
. . . . . . . . . . . . . . . . . . . .
 72
65
 73
2
 40
0.2
 49
0.1
 74
0
 49
-0.1
 74
0
  0
LTYPE
  5
1F9
100
AcDbSymbolTableRecord
100
AcDbLinetypeTableRecord
  2
DASHED
 70
64
  3
- - - - - - - - - - - - - - - - - - - -
 72
65
 73
2
 40
0.2
 49
0.1
 74
0
 49
-0.1
 74
0
  0
ENDTAB
  0
TABLE
  2
LAYER
  5
2
100
AcDbSymbolTable
 70
36
  0
LAYER
  5
10
100
AcDbSymbolTableRecord
100
AcDbLayerTableRecord
  2
0
 70
0
 62
7
  6
CONTINUOUS
370
-3
390
F
  0
LAYER
  5
1FA
100
AcDbSymbolTableRecord
100
AcDbLayerTableRecord
  2
DEFAULT_1
 70
0
 62
7
  6
CENTER
370
-3
390
F
  0
LAYER
  5
1FB
100
AcDbSymbolTableRecord
100
AcDbLayerTableRecord
  2
DEFAULT_2
 70
0
 62
8
  6
HIDDEN
370
-3
390
F
  0
LAYER
  5
1FC
100
AcDbSymbolTableRecord
100
AcDbLayerTableRecord
  2
DEFAULT_3
 70
0
 62
7
  6
PHANTOM
370
-3
390
F
  0
LAYER
  5
1FD
100
AcDbSymbolTableRecord
100
AcDbLayerTableRecord
  2
01___PRT_ALL_DTM_PLN
 70
0
 62
7
  6
CONTINUOUS
370
-3
390
F
  0
LAYER
  5
1FE
100
AcDbSymbolTableRecord
100
AcDbLayerTableRecord
  2
01___PRT_DEF_DTM_PLN
 70
0
 62
7
  6
CONTINUOUS
370
-3
390
F
  0
LAYER
  5
1FF
100
AcDbSymbolTableRecord
100
AcDbLayerTableRecord
  2
02___PRT_ALL_AXES
 70
0
 62
7
  6
CONTINUOUS
370
-3
390
F
  0
LAYER
  5
200
100
AcDbSymbolTableRecord
100
AcDbLayerTableRecord
  2
03___PRT_ALL_CURVES
 70
0
 62
7
  6
CONTINUOUS
370
-3
390
F
  0
LAYER
  5
201
100
AcDbSymbolTableRecord
100
AcDbLayerTableRecord
  2
04___PRT_ALL_DTM_PNT
 70
0
 62
7
  6
CONTINUOUS
370
-3
390
F
  0
LAYER
  5
202
100
AcDbSymbolTableRecord
100
AcDbLayerTableRecord
  2
05___PRT_ALL_DTM_CSYS
 70
0
 62
7
  6
CONTINUOUS
370
-3
390
F
  0
LAYER
  5
203
100
AcDbSymbolTableRecord
100
AcDbLayerTableRecord
  2
05___PRT_DEF_DTM_CSYS
 70
0
 62
7
  6
CONTINUOUS
370
-3
390
F
  0
LAYER
  5
204
100
AcDbSymbolTableRecord
100
AcDbLayerTableRecord
  2
06___PRT_ALL_SURFS
 70
0
 62
7
  6
CONTINUOUS
370
-3
390
F
  0
LAYER
  5
205
100
AcDbSymbolTableRecord
100
AcDbLayerTableRecord
  2
AUSFORMSCHRAEGEN
 70
0
 62
7
  6
CONTINUOUS
370
-3
390
F
  0
LAYER
  5
206
100
AcDbSymbolTableRecord
100
AcDbLayerTableRecord
  2
BEZUGSACHSEN
 70
0
 62
7
  6
CONTINUOUS
370
-3
390
F
  0
LAYER
  5
207
100
AcDbSymbolTableRecord
100
AcDbLayerTableRecord
  2
BEZUGSEBENE
 70
0
 62
7
  6
CONTINUOUS
370
-3
390
F
  0
LAYER
  5
208
100
AcDbSymbolTableRecord
100
AcDbLayerTableRecord
  2
BEZUGSEBENEN
 70
0
 62
7
  6
CONTINUOUS
370
-3
390
F
  0
LAYER
  5
209
100
AcDbSymbolTableRecord
100
AcDbLayerTableRecord
  2
BEZUGSEBENEN-KES
 70
0
 62
7
  6
CONTINUOUS
370
-3
390
F
  0
LAYER
  5
20A
100
AcDbSymbolTableRecord
100
AcDbLayerTableRecord
  2
RUNDUNGEN
 70
0
 62
7
  6
CONTINUOUS
370
-3
390
F
  0
LAYER
  5
20B
100
AcDbSymbolTableRecord
100
AcDbLayerTableRecord
  2
ZEICHNUNGSBEMASSUNGEN
 70
0
 62
7
  6
CONTINUOUS
370
-3
390
F
  0
LAYER
  5
20C
100
AcDbSymbolTableRecord
100
AcDbLayerTableRecord
  2
ZEICHNUNGSNOTIZEN
 70
0
 62
7
  6
CONTINUOUS
370
-3
390
F
  0
ENDTAB
  0
TABLE
  2
STYLE
  5
3
100
AcDbSymbolTable
 70
1
  0
STYLE
  5
11
100
AcDbSymbolTableRecord
100
AcDbTextStyleTableRecord
  2
STANDARD
 70
0
 40
0.0
 41
0.7
 50
0.0
 71
0
 42
0.2
  3
txt
  4

  0
STYLE
  5
20D
100
AcDbSymbolTableRecord
100
AcDbTextStyleTableRecord
  2
TEXTSTYLE_1
 70
0
 40
0.0
 41
0.8
 50
0.0
 71
0
 42
0.2
  3
gdt
  4

  0
ENDTAB
  0
TABLE
  2
VIEW
  5
6
100
AcDbSymbolTable
 70
0
  0
ENDTAB
  0
TABLE
  2
UCS
  5
7
100
AcDbSymbolTable
 70
0
  0
ENDTAB
  0
TABLE
  2
APPID
  5
9
100
AcDbSymbolTable
 70
1
  0
APPID
  5
20E
100
AcDbSymbolTableRecord
100
AcDbRegAppTableRecord
  2
ACAD
 70
0
  0
ENDTAB
  0
TABLE
  2
BLOCK_RECORD
  5
1
100
AcDbSymbolTable
 70
0
  0
BLOCK_RECORD
  5
20F
100
AcDbSymbolTableRecord
100
AcDbBlockTableRecord
  2
*Model_Space
  0
BLOCK_RECORD
  5
210
100
AcDbSymbolTableRecord
100
AcDbBlockTableRecord
  2
*Paper_Space
  0
ENDTAB
  0
TABLE
  2
DIMSTYLE
  5
A
100
AcDbSymbolTable
 70
1
100
AcDbDimStyleTable
 71
0
  0
DIMSTYLE
105
211
100
AcDbSymbolTableRecord
100
AcDbDimStyleTableRecord
  2
STANDARD
 70
0
  3

  4

 40
1.0
 41
3.5
 42
0.0625
 43
0.38
 44
0.18
 45
0.0
 46
0.0
 47
0.005
 48
0.005
140
3.5
141
0.09
142
0.0
143
25.4
144
1.0
145
0.0
146
1.0
147
0.09
 71
1.0
 72
0.0
 73
0
 74
0
 75
0
 76
0
 77
1
 78
8
170
0
171
2
172
0
173
0
174
0
175
0
176
0
177
0
178
5
270
2
271
3
272
3
273
2
274
2
275
0
280
0
281
0
282
0
283
1
284
8
285
0
286
0
287
3
288
0
340
11
  0
ENDTAB
  0
ENDSEC
  0
SECTION
  2
BLOCKS
  0
BLOCK
  5
20
100
AcDbEntity
  8
0
100
AcDbBlockBegin
  2
*Model_Space
 70
0
 10
0.0
 20
0.0
 30
0.0
  3
*Model_Space
  1

  0
ENDBLK
  5
21
100
AcDbEntity
  8
0
100
AcDbBlockEnd
  0
BLOCK
  5
1C
100
AcDbEntity
  8
0
100
AcDbBlockBegin
  2
*Paper_Space
 70
0
 10
0.0
 20
0.0
 30
0.0
  3
*Paper_Space
  1

  0
ENDBLK
  5
1D
100
AcDbEntity
  8
0
100
AcDbBlockEnd
  0
ENDSEC
  0
SECTION
  2
ENTITIES
  0
LINE
  5
212
100
AcDbEntity
  8
0
100
AcDbLine
 62
7
  6
CONTINUOUS
 10
0.0
 20
0.0
 11
0.0
 21
210.0
  0
LINE
  5
213
100
AcDbEntity
  8
0
100
AcDbLine
 62
7
  6
CONTINUOUS
 10
0.0
 20
0.0
 11
297.0
 21
0.0
  0
LINE
  5
214
100
AcDbEntity
  8
0
100
AcDbLine
 62
7
  6
CONTINUOUS
 10
0.0
 20
210.0
 11
297.0
 21
210.0
  0
LINE
  5
215
100
AcDbEntity
  8
0
100
AcDbLine
 62
7
  6
CONTINUOUS
 10
297.0
 20
0.0
 11
297.0
 21
210.0
  0
LINE
  5
216
100
AcDbEntity
  8
0
100
AcDbLine
 62
7
  6
CONTINUOUS
 10
60.5947910959
 20
149.8199022495
 11
60.5947910959
 21
161.8199022495
  0
LINE
  5
217
100
AcDbEntity
  8
RUNDUNGEN
100
AcDbLine
 62
9
  6
CONTINUOUS
 10
62.4947910959
 20
149.8199022495
 11
62.4947910959
 21
153.1692110367
  0
LINE
  5
218
100
AcDbEntity
  8
RUNDUNGEN
100
AcDbLine
 62
9
  6
CONTINUOUS
 10
62.4947910959
 20
158.4705934623
 11
62.4947910959
 21
161.8199022495
  0
LINE
  5
219
100
AcDbEntity
  8
RUNDUNGEN
100
AcDbLine
 62
7
  6
CONTINUOUS
 10
63.0947910959
 20
150.4199022495
 11
63.0947910959
 21
152.9041419154
  0
LINE
  5
21A
100
AcDbEntity
  8
RUNDUNGEN
100
AcDbLine
 62
7
  6
CONTINUOUS
 10
63.0947910959
 20
158.7356625836
 11
63.0947910959
 21
161.2199022495
  0
LINE
  5
21B
100
AcDbEntity
  8
RUNDUNGEN
100
AcDbLine
 62
9
  6
CONTINUOUS
 10
63.1152356002
 20
161.2199022495
 11
63.1152356002
 21
157.9941306591
  0
LINE
  5
21C
100
AcDbEntity
  8
RUNDUNGEN
100
AcDbLine
 62
9
  6
CONTINUOUS
 10
63.1152356002
 20
153.6456738399
 11
63.1152356002
 21
150.4199022495
  0
LINE
  5
21D
100
AcDbEntity
  8
02___PRT_ALL_AXES
100
AcDbLine
 62
7
  6
CONTINUOUS
 10
63.2772910959
 20
161.8199022495
 11
63.2772910959
 21
164.8199022495
  0
LINE
  5
21E
100
AcDbEntity
  8
02___PRT_ALL_AXES
100
AcDbLine
 62
7
  6
CONTINUOUS
 10
65.7772910959
 20
161.8199022495
 11
65.7772910959
 21
164.8199022495
  0
LINE
  5
21F
100
AcDbEntity
  8
02___PRT_ALL_AXES
100
AcDbLine
 62
7
  6
CONTINUOUS
 10
66.5592910959
 20
161.8199022495
 11
66.5592910959
 21
164.8199022495
  0
LINE
  5
220
100
AcDbEntity
  8
RUNDUNGEN
100
AcDbLine
 62
9
  6
CONTINUOUS
 10
66.5743465917
 20
161.2199022495
 11
66.5743465917
 21
158.5149022495
  0
LINE
  5
221
100
AcDbEntity
  8
RUNDUNGEN
100
AcDbLine
 62
9
  6
CONTINUOUS
 10
66.5743465917
 20
153.1249022495
 11
66.5743465917
 21
150.4199022495
  0
LINE
  5
222
100
AcDbEntity
  8
0
100
AcDbLine
 62
7
  6
CONTINUOUS
 10
66.5947910959
 20
150.4199022495
 11
66.5947910959
 21
153.1249022495
  0
LINE
  5
223
100
AcDbEntity
  8
RUNDUNGEN
100
AcDbLine
 62
7
  6
CONTINUOUS
 10
66.5947910959
 20
150.4199022495
 11
66.5947910959
 21
153.1249022495
  0
LINE
  5
224
100
AcDbEntity
  8
0
100
AcDbLine
 62
7
  6
CONTINUOUS
 10
66.5947910959
 20
158.5149022495
 11
66.5947910959
 21
161.2199022495
  0
LINE
  5
225
100
AcDbEntity
  8
RUNDUNGEN
100
AcDbLine
 62
7
  6
CONTINUOUS
 10
66.5947910959
 20
158.5149022495
 11
66.5947910959
 21
161.2199022495
  0
LINE
  5
226
100
AcDbEntity
  8
02___PRT_ALL_AXES
100
AcDbLine
 62
7
  6
CONTINUOUS
 10
67.2697910959
 20
161.8199022495
 11
67.2697910959
 21
164.8199022495
  0
LINE
  5
227
100
AcDbEntity
  8
02___PRT_ALL_AXES
100
AcDbLine
 62
7
  6
CONTINUOUS
 10
70.2697910959
 20
161.8199022495
 11
70.2697910959
 21
164.8199022495
  0
LINE
  5
228
100
AcDbEntity
  8
02___PRT_ALL_AXES
100
AcDbLine
 62
7
  6
CONTINUOUS
 10
70.5592910959
 20
161.8199022495
 11
70.5592910959
 21
164.8199022495
  0
LINE
  5
229
100
AcDbEntity
  8
02___PRT_ALL_AXES
100
AcDbLine
 62
7
  6
CONTINUOUS
 10
75.6302910959
 20
161.8199022495
 11
75.6302910959
 21
164.8199022495
  0
LINE
  5
22A
100
AcDbEntity
  8
02___PRT_ALL_AXES
100
AcDbLine
 62
7
  6
CONTINUOUS
 10
75.9197910959
 20
161.8199022495
 11
75.9197910959
 21
164.8199022495
  0
LINE
  5
22B
100
AcDbEntity
  8
0
100
AcDbLine
 62
7
  6
CONTINUOUS
 10
110.5947910959
 20
149.8199022495
 11
107.4947910959
 21
149.8199022495
  0
LINE
  5
22C
100
AcDbEntity
  8
0
100
AcDbLine
 62
7
  6
CONTINUOUS
 10
88.6947910959
 20
149.8199022495
 11
82.4947910959
 21
149.8199022495
  0
LINE
  5
22D
100
AcDbEntity
  8
0
100
AcDbLine
 62
7
  6
CONTINUOUS
 10
63.6947910959
 20
149.8199022495
 11
60.5947910959
 21
149.8199022495
  0
LINE
  5
22E
100
AcDbEntity
  8
RUNDUNGEN
100
AcDbLine
 62
7
  6
CONTINUOUS
 10
62.4947910959
 20
149.8199022495
 11
83.6947910959
 21
149.8199022495
  0
LINE
  5
22F
100
AcDbEntity
  8
RUNDUNGEN
100
AcDbLine
 62
7
  6
CONTINUOUS
 10
87.4947910959
 20
149.8199022495
 11
108.6947910959
 21
149.8199022495
  0
LINE
  5
230
100
AcDbEntity
  8
RUNDUNGEN
100
AcDbLine
 62
9
  6
CONTINUOUS
 10
63.0947910959
 20
150.4199022495
 11
68.8909912253
 21
150.4199022495
  0
LINE
  5
231
100
AcDbEntity
  8
RUNDUNGEN
100
AcDbLine
 62
9
  6
CONTINUOUS
 10
77.2985909666
 20
150.4199022495
 11
83.0947910959
 21
150.4199022495
  0
LINE
  5
232
100
AcDbEntity
  8
RUNDUNGEN
100
AcDbLine
 62
9
  6
CONTINUOUS
 10
88.0947910959
 20
150.4199022495
 11
93.8909912253
 21
150.4199022495
  0
LINE
  5
233
100
AcDbEntity
  8
RUNDUNGEN
100
AcDbLine
 62
9
  6
CONTINUOUS
 10
102.2985909666
 20
150.4199022495
 11
108.0947910959
 21
150.4199022495
  0
LINE
  5
234
100
AcDbEntity
  8
02___PRT_ALL_AXES
100
AcDbLine
 62
7
  6
CONTINUOUS
 10
78.9197910959
 20
161.8199022495
 11
78.9197910959
 21
164.8199022495
  0
LINE
  5
235
100
AcDbEntity
  8
RUNDUNGEN
100
AcDbLine
 62
7
  6
CONTINUOUS
 10
79.5947910959
 20
150.4199022495
 11
79.5947910959
 21
153.1249022495
  0
LINE
  5
236
100
AcDbEntity
  8
RUNDUNGEN
100
AcDbLine
 62
7
  6
CONTINUOUS
 10
79.5947910959
 20
158.5149022495
 11
79.5947910959
 21
161.2199022495
  0
LINE
  5
237
100
AcDbEntity
  8
RUNDUNGEN
100
AcDbLine
 62
9
  6
CONTINUOUS
 10
79.6152356002
 20
150.4199022495
 11
79.6152356002
 21
153.1249022495
  0
LINE
  5
238
100
AcDbEntity
  8
RUNDUNGEN
100
AcDbLine
 62
9
  6
CONTINUOUS
 10
79.6152356002
 20
158.5149022495
 11
79.6152356002
 21
161.2199022495
  0
LINE
  5
239
100
AcDbEntity
  8
02___PRT_ALL_AXES
100
AcDbLine
 62
7
  6
CONTINUOUS
 10
79.6302910959
 20
161.8199022495
 11
79.6302910959
 21
164.8199022495
  0
LINE
  5
23A
100
AcDbEntity
  8
02___PRT_ALL_AXES
100
AcDbLine
 62
7
  6
CONTINUOUS
 10
80.4122910959
 20
161.8199022495
 11
80.4122910959
 21
164.8199022495
  0
LINE
  5
23B
100
AcDbEntity
  8
RUNDUNGEN
100
AcDbLine
 62
7
  6
CONTINUOUS
 10
91.5805732206
 20
153.1249022495
 11
91.0944823052
 21
153.1249022495
  0
LINE
  5
23C
100
AcDbEntity
  8
RUNDUNGEN
100
AcDbLine
 62
7
  6
CONTINUOUS
 10
66.5805732206
 20
153.1249022495
 11
66.0944823052
 21
153.1249022495
  0
LINE
  5
23D
100
AcDbEntity
  8
0
100
AcDbLine
 62
7
  6
CONTINUOUS
 10
66.5947910959
 20
153.1249022495
 11
66.6320536728
 21
153.1249022495
  0
LINE
  5
23E
100
AcDbEntity
  8
0
100
AcDbLine
 62
7
  6
CONTINUOUS
 10
79.5575285191
 20
153.1249022495
 11
79.5947910959
 21
153.1249022495
  0
LINE
  5
23F
100
AcDbEntity
  8
RUNDUNGEN
100
AcDbLine
 62
7
  6
CONTINUOUS
 10
79.5947910959
 20
153.1249022495
 11
80.0950998867
 21
153.1249022495
  0
LINE
  5
240
100
AcDbEntity
  8
0
100
AcDbLine
 62
7
  6
CONTINUOUS
 10
91.5947910959
 20
153.1249022495
 11
91.6320536728
 21
153.1249022495
  0
LINE
  5
241
100
AcDbEntity
  8
0
100
AcDbLine
 62
7
  6
CONTINUOUS
 10
104.5575285191
 20
153.1249022495
 11
104.5947910959
 21
153.1249022495
  0
LINE
  5
242
100
AcDbEntity
  8
RUNDUNGEN
100
AcDbLine
 62
7
  6
CONTINUOUS
 10
104.5947910959
 20
153.1249022495
 11
105.0950998867
 21
153.1249022495
  0
LINE
  5
243
100
AcDbEntity
  8
02___PRT_ALL_AXES
100
AcDbLine
 62
7
  6
CONTINUOUS
 10
82.9122910959
 20
161.8199022495
 11
82.9122910959
 21
164.8199022495
  0
LINE
  5
244
100
AcDbEntity
  8
RUNDUNGEN
100
AcDbLine
 62
9
  6
CONTINUOUS
 10
83.0743465917
 20
150.4199022495
 11
83.0743465917
 21
153.6456738399
  0
LINE
  5
245
100
AcDbEntity
  8
RUNDUNGEN
100
AcDbLine
 62
9
  6
CONTINUOUS
 10
83.0743465917
 20
157.9941306591
 11
83.0743465917
 21
161.2199022495
  0
LINE
  5
246
100
AcDbEntity
  8
RUNDUNGEN
100
AcDbLine
 62
7
  6
CONTINUOUS
 10
83.0947910959
 20
161.2199022495
 11
83.0947910959
 21
158.7356625836
  0
LINE
  5
247
100
AcDbEntity
  8
RUNDUNGEN
100
AcDbLine
 62
7
  6
CONTINUOUS
 10
83.0947910959
 20
152.9041419154
 11
83.0947910959
 21
150.4199022495
  0
LINE
  5
248
100
AcDbEntity
  8
RUNDUNGEN
100
AcDbLine
 62
9
  6
CONTINUOUS
 10
83.6947910959
 20
161.8199022495
 11
83.6947910959
 21
158.4705934623
  0
LINE
  5
249
100
AcDbEntity
  8
RUNDUNGEN
100
AcDbLine
 62
9
  6
CONTINUOUS
 10
83.6947910959
 20
153.1692110367
 11
83.6947910959
 21
149.8199022495
  0
LINE
  5
24A
100
AcDbEntity
  8
RUNDUNGEN
100
AcDbLine
 62
9
  6
CONTINUOUS
 10
87.4947910959
 20
149.8199022495
 11
87.4947910959
 21
153.1692110367
  0
LINE
  5
24B
100
AcDbEntity
  8
RUNDUNGEN
100
AcDbLine
 62
9
  6
CONTINUOUS
 10
87.4947910959
 20
158.4705934623
 11
87.4947910959
 21
161.8199022495
  0
LINE
  5
24C
100
AcDbEntity
  8
0
100
AcDbLine
 62
7
  6
CONTINUOUS
 10
66.5947910959
 20
158.5149022495
 11
66.6320536728
 21
158.5149022495
  0
LINE
  5
24D
100
AcDbEntity
  8
RUNDUNGEN
100
AcDbLine
 62
7
  6
CONTINUOUS
 10
66.0944823052
 20
158.5149022495
 11
66.5947910959
 21
158.5149022495
  0
LINE
  5
24E
100
AcDbEntity
  8
0
100
AcDbLine
 62
7
  6
CONTINUOUS
 10
79.5575285191
 20
158.5149022495
 11
79.5947910959
 21
158.5149022495
  0
LINE
  5
24F
100
AcDbEntity
  8
RUNDUNGEN
100
AcDbLine
 62
7
  6
CONTINUOUS
 10
79.6090089713
 20
158.5149022495
 11
80.0950998867
 21
158.5149022495
  0
LINE
  5
250
100
AcDbEntity
  8
0
100
AcDbLine
 62
7
  6
CONTINUOUS
 10
91.5947910959
 20
158.5149022495
 11
91.6320536728
 21
158.5149022495
  0
LINE
  5
251
100
AcDbEntity
  8
RUNDUNGEN
100
AcDbLine
 62
7
  6
CONTINUOUS
 10
91.0944823052
 20
158.5149022495
 11
91.5947910959
 21
158.5149022495
  0
LINE
  5
252
100
AcDbEntity
  8
0
100
AcDbLine
 62
7
  6
CONTINUOUS
 10
104.5575285191
 20
158.5149022495
 11
104.5947910959
 21
158.5149022495
  0
LINE
  5
253
100
AcDbEntity
  8
RUNDUNGEN
100
AcDbLine
 62
7
  6
CONTINUOUS
 10
104.6090089713
 20
158.5149022495
 11
105.0950998867
 21
158.5149022495
  0
LINE
  5
254
100
AcDbEntity
  8
RUNDUNGEN
100
AcDbLine
 62
7
  6
CONTINUOUS
 10
88.0947910959
 20
150.4199022495
 11
88.0947910959
 21
152.9041419154
  0
LINE
  5
255
100
AcDbEntity
  8
RUNDUNGEN
100
AcDbLine
 62
7
  6
CONTINUOUS
 10
88.0947910959
 20
158.7356625836
 11
88.0947910959
 21
161.2199022495
  0
LINE
  5
256
100
AcDbEntity
  8
RUNDUNGEN
100
AcDbLine
 62
9
  6
CONTINUOUS
 10
88.1152356002
 20
161.2199022495
 11
88.1152356002
 21
157.9941306591
  0
LINE
  5
257
100
AcDbEntity
  8
RUNDUNGEN
100
AcDbLine
 62
9
  6
CONTINUOUS
 10
88.1152356002
 20
153.6456738399
 11
88.1152356002
 21
150.4199022495
  0
LINE
  5
258
100
AcDbEntity
  8
02___PRT_ALL_AXES
100
AcDbLine
 62
7
  6
CONTINUOUS
 10
88.2772910959
 20
161.8199022495
 11
88.2772910959
 21
164.8199022495
  0
LINE
  5
259
100
AcDbEntity
  8
02___PRT_ALL_AXES
100
AcDbLine
 62
7
  6
CONTINUOUS
 10
90.7772910959
 20
161.8199022495
 11
90.7772910959
 21
164.8199022495
  0
LINE
  5
25A
100
AcDbEntity
  8
RUNDUNGEN
100
AcDbLine
 62
9
  6
CONTINUOUS
 10
108.0947910959
 20
161.2199022495
 11
102.2985909666
 21
161.2199022495
  0
LINE
  5
25B
100
AcDbEntity
  8
RUNDUNGEN
100
AcDbLine
 62
9
  6
CONTINUOUS
 10
93.8909912253
 20
161.2199022495
 11
88.0947910959
 21
161.2199022495
  0
LINE
  5
25C
100
AcDbEntity
  8
RUNDUNGEN
100
AcDbLine
 62
9
  6
CONTINUOUS
 10
83.0947910959
 20
161.2199022495
 11
77.2985909666
 21
161.2199022495
  0
LINE
  5
25D
100
AcDbEntity
  8
RUNDUNGEN
100
AcDbLine
 62
9
  6
CONTINUOUS
 10
68.8909912253
 20
161.2199022495
 11
63.0947910959
 21
161.2199022495
  0
LINE
  5
25E
100
AcDbEntity
  8
0
100
AcDbLine
 62
7
  6
CONTINUOUS
 10
110.5947910959
 20
161.8199022495
 11
108.6947910959
 21
161.8199022495
  0
LINE
  5
25F
100
AcDbEntity
  8
02___PRT_ALL_AXES
100
AcDbLine
 62
7
  6
CONTINUOUS
 10
92.2298244308
 20
161.8199022495
 11
92.1947910959
 21
161.8199022495
  0
LINE
  5
260
100
AcDbEntity
  8
0
100
AcDbLine
 62
7
  6
CONTINUOUS
 10
87.4947910959
 20
161.8199022495
 11
83.6947910959
 21
161.8199022495
  0
LINE
  5
261
100
AcDbEntity
  8
0
100
AcDbLine
 62
7
  6
CONTINUOUS
 10
62.4947910959
 20
161.8199022495
 11
60.5947910959
 21
161.8199022495
  0
LINE
  5
262
100
AcDbEntity
  8
RUNDUNGEN
100
AcDbLine
 62
7
  6
CONTINUOUS
 10
62.4947910959
 20
161.8199022495
 11
63.2772910959
 21
161.8199022495
  0
LINE
  5
263
100
AcDbEntity
  8
02___PRT_ALL_AXES
100
AcDbLine
 62
7
  6
CONTINUOUS
 10
62.4947910959
 20
161.8199022495
 11
63.6947910959
 21
161.8199022495
  0
LINE
  5
264
100
AcDbEntity
  8
02___PRT_ALL_AXES
100
AcDbLine
 62
7
  6
CONTINUOUS
 10
67.1947910959
 20
161.8199022495
 11
69.2790434357
 21
161.8199022495
  0
LINE
  5
265
100
AcDbEntity
  8
RUNDUNGEN
100
AcDbLine
 62
7
  6
CONTINUOUS
 10
63.6947910959
 20
161.8199022495
 11
67.2697910959
 21
161.8199022495
  0
LINE
  5
266
100
AcDbEntity
  8
RUNDUNGEN
100
AcDbLine
 62
7
  6
CONTINUOUS
 10
67.9761172419
 20
161.8199022495
 11
78.21346495
 21
161.8199022495
  0
LINE
  5
267
100
AcDbEntity
  8
02___PRT_ALL_AXES
100
AcDbLine
 62
7
  6
CONTINUOUS
 10
76.9105398184
 20
161.8199022495
 11
78.9947910959
 21
161.8199022495
  0
LINE
  5
268
100
AcDbEntity
  8
RUNDUNGEN
100
AcDbLine
 62
7
  6
CONTINUOUS
 10
78.9197910959
 20
161.8199022495
 11
82.4947910959
 21
161.8199022495
  0
LINE
  5
269
100
AcDbEntity
  8
02___PRT_ALL_AXES
100
AcDbLine
 62
7
  6
CONTINUOUS
 10
82.4947910959
 20
161.8199022495
 11
83.6947910959
 21
161.8199022495
  0
LINE
  5
26A
100
AcDbEntity
  8
RUNDUNGEN
100
AcDbLine
 62
7
  6
CONTINUOUS
 10
82.9122910959
 20
161.8199022495
 11
83.6947910959
 21
161.8199022495
  0
LINE
  5
26B
100
AcDbEntity
  8
RUNDUNGEN
100
AcDbLine
 62
7
  6
CONTINUOUS
 10
87.4947910959
 20
161.8199022495
 11
88.2772910959
 21
161.8199022495
  0
LINE
  5
26C
100
AcDbEntity
  8
02___PRT_ALL_AXES
100
AcDbLine
 62
7
  6
CONTINUOUS
 10
87.4947910959
 20
161.8199022495
 11
88.6947910959
 21
161.8199022495
  0
LINE
  5
26D
100
AcDbEntity
  8
02___PRT_ALL_AXES
100
AcDbLine
 62
7
  6
CONTINUOUS
 10
92.2697910959
 20
161.8199022495
 11
94.2790434357
 21
161.8199022495
  0
LINE
  5
26E
100
AcDbEntity
  8
RUNDUNGEN
100
AcDbLine
 62
7
  6
CONTINUOUS
 10
88.6947910959
 20
161.8199022495
 11
92.2697910959
 21
161.8199022495
  0
LINE
  5
26F
100
AcDbEntity
  8
RUNDUNGEN
100
AcDbLine
 62
7
  6
CONTINUOUS
 10
92.9761172419
 20
161.8199022495
 11
103.21346495
 21
161.8199022495
  0
LINE
  5
270
100
AcDbEntity
  8
02___PRT_ALL_AXES
100
AcDbLine
 62
7
  6
CONTINUOUS
 10
101.9105398184
 20
161.8199022495
 11
103.9947910959
 21
161.8199022495
  0
LINE
  5
271
100
AcDbEntity
  8
RUNDUNGEN
100
AcDbLine
 62
7
  6
CONTINUOUS
 10
103.9197910959
 20
161.8199022495
 11
107.4947910959
 21
161.8199022495
  0
LINE
  5
272
100
AcDbEntity
  8
02___PRT_ALL_AXES
100
AcDbLine
 62
7
  6
CONTINUOUS
 10
107.4947910959
 20
161.8199022495
 11
108.6947910959
 21
161.8199022495
  0
LINE
  5
273
100
AcDbEntity
  8
RUNDUNGEN
100
AcDbLine
 62
7
  6
CONTINUOUS
 10
107.9122910959
 20
161.8199022495
 11
108.6947910959
 21
161.8199022495
  0
LINE
  5
274
100
AcDbEntity
  8
02___PRT_ALL_AXES
100
AcDbLine
 62
7
  6
CONTINUOUS
 10
91.5592910959
 20
161.8199022495
 11
91.5592910959
 21
164.8199022495
  0
LINE
  5
275
100
AcDbEntity
  8
RUNDUNGEN
100
AcDbLine
 62
9
  6
CONTINUOUS
 10
91.5743465917
 20
161.2199022495
 11
91.5743465917
 21
158.5149022495
  0
LINE
  5
276
100
AcDbEntity
  8
RUNDUNGEN
100
AcDbLine
 62
9
  6
CONTINUOUS
 10
91.5743465917
 20
153.1249022495
 11
91.5743465917
 21
150.4199022495
  0
LINE
  5
277
100
AcDbEntity
  8
RUNDUNGEN
100
AcDbLine
 62
7
  6
CONTINUOUS
 10
91.5947910959
 20
150.4199022495
 11
91.5947910959
 21
153.1249022495
  0
LINE
  5
278
100
AcDbEntity
  8
0
100
AcDbLine
 62
7
  6
CONTINUOUS
 10
91.5947910959
 20
150.4199022495
 11
91.5947910959
 21
153.1249022495
  0
LINE
  5
279
100
AcDbEntity
  8
RUNDUNGEN
100
AcDbLine
 62
7
  6
CONTINUOUS
 10
91.5947910959
 20
158.5149022495
 11
91.5947910959
 21
161.2199022495
  0
LINE
  5
27A
100
AcDbEntity
  8
0
100
AcDbLine
 62
7
  6
CONTINUOUS
 10
91.5947910959
 20
158.5149022495
 11
91.5947910959
 21
161.2199022495
  0
LINE
  5
27B
100
AcDbEntity
  8
02___PRT_ALL_AXES
100
AcDbLine
 62
7
  6
CONTINUOUS
 10
92.2697910959
 20
161.8199022495
 11
92.2697910959
 21
164.8199022495
  0
LINE
  5
27C
100
AcDbEntity
  8
02___PRT_ALL_AXES
100
AcDbLine
 62
7
  6
CONTINUOUS
 10
63.2772910959
 20
164.8199022495
 11
65.7772910959
 21
164.8199022495
  0
LINE
  5
27D
100
AcDbEntity
  8
02___PRT_ALL_AXES
100
AcDbLine
 62
7
  6
CONTINUOUS
 10
66.5592910959
 20
164.8199022495
 11
70.5592910959
 21
164.8199022495
  0
LINE
  5
27E
100
AcDbEntity
  8
02___PRT_ALL_AXES
100
AcDbLine
 62
7
  6
CONTINUOUS
 10
75.6302910959
 20
164.8199022495
 11
79.6302910959
 21
164.8199022495
  0
LINE
  5
27F
100
AcDbEntity
  8
02___PRT_ALL_AXES
100
AcDbLine
 62
7
  6
CONTINUOUS
 10
80.4122910959
 20
164.8199022495
 11
82.9122910959
 21
164.8199022495
  0
LINE
  5
280
100
AcDbEntity
  8
02___PRT_ALL_AXES
100
AcDbLine
 62
7
  6
CONTINUOUS
 10
88.2772910959
 20
164.8199022495
 11
90.7772910959
 21
164.8199022495
  0
LINE
  5
281
100
AcDbEntity
  8
02___PRT_ALL_AXES
100
AcDbLine
 62
7
  6
CONTINUOUS
 10
91.5592910959
 20
164.8199022495
 11
95.5592910959
 21
164.8199022495
  0
LINE
  5
282
100
AcDbEntity
  8
02___PRT_ALL_AXES
100
AcDbLine
 62
7
  6
CONTINUOUS
 10
100.6302910959
 20
164.8199022495
 11
104.6302910959
 21
164.8199022495
  0
LINE
  5
283
100
AcDbEntity
  8
02___PRT_ALL_AXES
100
AcDbLine
 62
7
  6
CONTINUOUS
 10
105.4122910959
 20
164.8199022495
 11
107.9122910959
 21
164.8199022495
  0
LINE
  5
284
100
AcDbEntity
  8
02___PRT_ALL_AXES
100
AcDbLine
 62
7
  6
CONTINUOUS
 10
95.2697910959
 20
161.8199022495
 11
95.2697910959
 21
164.8199022495
  0
LINE
  5
285
100
AcDbEntity
  8
02___PRT_ALL_AXES
100
AcDbLine
 62
7
  6
CONTINUOUS
 10
95.5592910959
 20
161.8199022495
 11
95.5592910959
 21
164.8199022495
  0
LINE
  5
286
100
AcDbEntity
  8
02___PRT_ALL_AXES
100
AcDbLine
 62
7
  6
CONTINUOUS
 10
100.6302910959
 20
161.8199022495
 11
100.6302910959
 21
164.8199022495
  0
LINE
  5
287
100
AcDbEntity
  8
02___PRT_ALL_AXES
100
AcDbLine
 62
7
  6
CONTINUOUS
 10
100.9197910959
 20
161.8199022495
 11
100.9197910959
 21
164.8199022495
  0
LINE
  5
288
100
AcDbEntity
  8
02___PRT_ALL_AXES
100
AcDbLine
 62
7
  6
CONTINUOUS
 10
103.9197910959
 20
161.8199022495
 11
103.9197910959
 21
164.8199022495
  0
LINE
  5
289
100
AcDbEntity
  8
RUNDUNGEN
100
AcDbLine
 62
7
  6
CONTINUOUS
 10
104.5947910959
 20
150.4199022495
 11
104.5947910959
 21
153.1249022495
  0
LINE
  5
28A
100
AcDbEntity
  8
RUNDUNGEN
100
AcDbLine
 62
7
  6
CONTINUOUS
 10
104.5947910959
 20
158.5149022495
 11
104.5947910959
 21
161.2199022495
  0
LINE
  5
28B
100
AcDbEntity
  8
RUNDUNGEN
100
AcDbLine
 62
9
  6
CONTINUOUS
 10
104.6152356002
 20
150.4199022495
 11
104.6152356002
 21
153.1249022495
  0
LINE
  5
28C
100
AcDbEntity
  8
RUNDUNGEN
100
AcDbLine
 62
9
  6
CONTINUOUS
 10
104.6152356002
 20
158.5149022495
 11
104.6152356002
 21
161.2199022495
  0
LINE
  5
28D
100
AcDbEntity
  8
02___PRT_ALL_AXES
100
AcDbLine
 62
7
  6
CONTINUOUS
 10
104.6302910959
 20
161.8199022495
 11
104.6302910959
 21
164.8199022495
  0
LINE
  5
28E
100
AcDbEntity
  8
02___PRT_ALL_AXES
100
AcDbLine
 62
7
  6
CONTINUOUS
 10
105.4122910959
 20
161.8199022495
 11
105.4122910959
 21
164.8199022495
  0
LINE
  5
28F
100
AcDbEntity
  8
02___PRT_ALL_AXES
100
AcDbLine
 62
7
  6
CONTINUOUS
 10
107.9122910959
 20
161.8199022495
 11
107.9122910959
 21
164.8199022495
  0
LINE
  5
290
100
AcDbEntity
  8
RUNDUNGEN
100
AcDbLine
 62
9
  6
CONTINUOUS
 10
108.0743465917
 20
150.4199022495
 11
108.0743465917
 21
153.6456738399
  0
LINE
  5
291
100
AcDbEntity
  8
RUNDUNGEN
100
AcDbLine
 62
9
  6
CONTINUOUS
 10
108.0743465917
 20
157.9941306591
 11
108.0743465917
 21
161.2199022495
  0
LINE
  5
292
100
AcDbEntity
  8
RUNDUNGEN
100
AcDbLine
 62
7
  6
CONTINUOUS
 10
108.0947910959
 20
161.2199022495
 11
108.0947910959
 21
158.7356625836
  0
LINE
  5
293
100
AcDbEntity
  8
RUNDUNGEN
100
AcDbLine
 62
7
  6
CONTINUOUS
 10
108.0947910959
 20
152.9041419154
 11
108.0947910959
 21
150.4199022495
  0
LINE
  5
294
100
AcDbEntity
  8
RUNDUNGEN
100
AcDbLine
 62
9
  6
CONTINUOUS
 10
108.6947910959
 20
161.8199022495
 11
108.6947910959
 21
158.4705934623
  0
LINE
  5
295
100
AcDbEntity
  8
RUNDUNGEN
100
AcDbLine
 62
9
  6
CONTINUOUS
 10
108.6947910959
 20
153.1692110367
 11
108.6947910959
 21
149.8199022495
  0
LINE
  5
296
100
AcDbEntity
  8
0
100
AcDbLine
 62
7
  6
CONTINUOUS
 10
110.5947910959
 20
149.8200071212
 11
110.5947910959
 21
161.8197973778
  0
LINE
  5
297
100
AcDbEntity
  8
DEFAULT_1
100
AcDbLine
 62
7
  6
CENTER
 10
212.9312133789
 20
155.8199022495
 11
212.9312133789
 21
146.8199022495
  0
LINE
  5
298
100
AcDbEntity
  8
DEFAULT_1
100
AcDbLine
 62
7
  6
CENTER
 10
212.9312133789
 20
155.8199022495
 11
212.9312133789
 21
164.8199022495
  0
LINE
  5
299
100
AcDbEntity
  8
02___PRT_ALL_AXES
100
AcDbLine
 62
7
  6
CONTINUOUS
 10
213.6812133789
 20
161.8199022495
 11
213.6812133789
 21
164.8199022495
  0
LINE
  5
29A
100
AcDbEntity
  8
02___PRT_ALL_AXES
100
AcDbLine
 62
7
  6
CONTINUOUS
 10
216.1812133789
 20
161.8199022495
 11
216.1812133789
 21
164.8199022495
  0
LINE
  5
29B
100
AcDbEntity
  8
RUNDUNGEN
100
AcDbLine
 62
9
  6
CONTINUOUS
 10
216.7259465711
 20
150.4199022495
 11
216.7259465711
 21
149.8199022495
  0
LINE
  5
29C
100
AcDbEntity
  8
RUNDUNGEN
100
AcDbLine
 62
9
  6
CONTINUOUS
 10
216.7259465711
 20
161.2199022495
 11
216.7259465656
 21
161.8199022495
  0
LINE
  5
29D
100
AcDbEntity
  8
RUNDUNGEN
100
AcDbLine
 62
9
  6
CONTINUOUS
 10
218.8522218804
 20
149.8199022495
 11
218.8522218804
 21
152.9041419154
  0
LINE
  5
29E
100
AcDbEntity
  8
RUNDUNGEN
100
AcDbLine
 62
9
  6
CONTINUOUS
 10
218.8522218804
 20
158.7356625836
 11
218.8522218804
 21
161.8199022495
  0
LINE
  5
29F
100
AcDbEntity
  8
RUNDUNGEN
100
AcDbLine
 62
7
  6
CONTINUOUS
 10
212.9312133789
 20
149.8199022495
 11
241.9312729413
 21
149.8199022495
  0
LINE
  5
2A0
100
AcDbEntity
  8
RUNDUNGEN
100
AcDbLine
 62
9
  6
CONTINUOUS
 10
216.7260111573
 20
150.4199022495
 11
242.3888404976
 21
150.4199022495
  0
LINE
  5
2A1
100
AcDbEntity
  8
RUNDUNGEN
100
AcDbLine
 62
9
  6
CONTINUOUS
 10
218.8522218803
 20
152.9041419154
 11
218.3139483803
 21
153.1692110368
  0
LINE
  5
2A2
100
AcDbEntity
  8
RUNDUNGEN
100
AcDbLine
 62
9
  6
CONTINUOUS
 10
219.0075133074
 20
161.2199022495
 11
219.0075133074
 21
157.9941306591
  0
LINE
  5
2A3
100
AcDbEntity
  8
RUNDUNGEN
100
AcDbLine
 62
9
  6
CONTINUOUS
 10
219.0075133074
 20
153.6456738399
 11
219.0075133074
 21
150.4199022495
  0
LINE
  5
2A4
100
AcDbEntity
  8
RUNDUNGEN
100
AcDbLine
 62
9
  6
CONTINUOUS
 10
218.8522218804
 20
158.7356625836
 11
218.3139483802
 21
158.4705934624
  0
LINE
  5
2A5
100
AcDbEntity
  8
RUNDUNGEN
100
AcDbLine
 62
7
  6
CONTINUOUS
 10
237.4312133789
 20
153.1249022495
 11
230.1262133789
 21
153.1249022495
  0
LINE
  5
2A6
100
AcDbEntity
  8
0
100
AcDbLine
 62
7
  6
CONTINUOUS
 10
237.4312133789
 20
153.1249022495
 11
238.1262133789
 21
153.1249022495
  0
LINE
  5
2A7
100
AcDbEntity
  8
DEFAULT_1
100
AcDbLine
 62
7
  6
CENTER
 10
212.9312133789
 20
155.8199022495
 11
203.9312133789
 21
155.8199022495
  0
LINE
  5
2A8
100
AcDbEntity
  8
DEFAULT_1
100
AcDbLine
 62
7
  6
CENTER
 10
212.9312133789
 20
155.8199022495
 11
221.9312133789
 21
155.8199022495
  0
LINE
  5
2A9
100
AcDbEntity
  8
RUNDUNGEN
100
AcDbLine
 62
7
  6
CONTINUOUS
 10
230.1262133789
 20
158.5149022495
 11
237.4312133789
 21
158.5149022495
  0
LINE
  5
2AA
100
AcDbEntity
  8
0
100
AcDbLine
 62
7
  6
CONTINUOUS
 10
237.4312133789
 20
158.5149022495
 11
238.1262133789
 21
158.5149022495
  0
LINE
  5
2AB
100
AcDbEntity
  8
02___PRT_ALL_AXES
100
AcDbLine
 62
7
  6
CONTINUOUS
 10
227.0582133789
 20
161.8199022495
 11
227.0582133789
 21
164.8199022495
  0
LINE
  5
2AC
100
AcDbEntity
  8
RUNDUNGEN
100
AcDbLine
 62
9
  6
CONTINUOUS
 10
242.3888404976
 20
161.2199022495
 11
216.7260093336
 21
161.2199022495
  0
LINE
  5
2AD
100
AcDbEntity
  8
RUNDUNGEN
100
AcDbLine
 62
7
  6
CONTINUOUS
 10
213.6812133789
 20
161.8199022495
 11
213.1075403596
 21
161.8199022495
  0
LINE
  5
2AE
100
AcDbEntity
  8
02___PRT_ALL_AXES
100
AcDbLine
 62
7
  6
CONTINUOUS
 10
212.9312133789
 20
161.8199022495
 11
216.7259465711
 21
161.8199022495
  0
LINE
  5
2AF
100
AcDbEntity
  8
RUNDUNGEN
100
AcDbLine
 62
7
  6
CONTINUOUS
 10
216.7259465711
 20
161.8199022495
 11
238.7039949909
 21
161.8199022495
  0
LINE
  5
2B0
100
AcDbEntity
  8
02___PRT_ALL_AXES
100
AcDbLine
 62
7
  6
CONTINUOUS
 10
237.4312133789
 20
161.8199022495
 11
241.9312226089
 21
161.8199022495
  0
LINE
  5
2B1
100
AcDbEntity
  8
RUNDUNGEN
100
AcDbLine
 62
7
  6
CONTINUOUS
 10
240.4341580459
 20
161.8199022495
 11
241.9312133789
 21
161.8199022495
  0
LINE
  5
2B2
100
AcDbEntity
  8
02___PRT_ALL_AXES
100
AcDbLine
 62
7
  6
CONTINUOUS
 10
231.0582133789
 20
161.8199022495
 11
231.0582133789
 21
164.8199022495
  0
LINE
  5
2B3
100
AcDbEntity
  8
RUNDUNGEN
100
AcDbLine
 62
9
  6
CONTINUOUS
 10
231.9170912769
 20
161.2199022495
 11
231.9170912769
 21
158.5149022495
  0
LINE
  5
2B4
100
AcDbEntity
  8
RUNDUNGEN
100
AcDbLine
 62
9
  6
CONTINUOUS
 10
231.9170912769
 20
153.1249022495
 11
231.9170912769
 21
150.4199022495
  0
LINE
  5
2B5
100
AcDbEntity
  8
RUNDUNGEN
100
AcDbLine
 62
9
  6
CONTINUOUS
 10
232.0723827039
 20
153.1249022495
 11
232.0723827039
 21
149.8199022495
  0
LINE
  5
2B6
100
AcDbEntity
  8
RUNDUNGEN
100
AcDbLine
 62
9
  6
CONTINUOUS
 10
232.0723827039
 20
158.5149022495
 11
232.0723827032
 21
161.8199022495
  0
LINE
  5
2B7
100
AcDbEntity
  8
02___PRT_ALL_AXES
100
AcDbLine
 62
7
  6
CONTINUOUS
 10
213.6814069755
 20
164.8199022495
 11
216.1810197823
 21
164.8199022495
  0
LINE
  5
2B8
100
AcDbEntity
  8
02___PRT_ALL_AXES
100
AcDbLine
 62
7
  6
CONTINUOUS
 10
227.0582133789
 20
164.8199022495
 11
231.0582133789
 21
164.8199022495
  0
LINE
  5
2B9
100
AcDbEntity
  8
02___PRT_ALL_AXES
100
AcDbLine
 62
7
  6
CONTINUOUS
 10
237.6374456949
 20
164.8199022495
 11
240.636981063
 21
164.8199022495
  0
LINE
  5
2BA
100
AcDbEntity
  8
RUNDUNGEN
100
AcDbLine
 62
9
  6
CONTINUOUS
 10
237.4312133789
 20
149.8199022495
 11
237.4312133789
 21
153.1249022495
  0
LINE
  5
2BB
100
AcDbEntity
  8
RUNDUNGEN
100
AcDbLine
 62
9
  6
CONTINUOUS
 10
237.4312133789
 20
158.5149022495
 11
237.4312133789
 21
161.8199022495
  0
LINE
  5
2BC
100
AcDbEntity
  8
02___PRT_ALL_AXES
100
AcDbLine
 62
7
  6
CONTINUOUS
 10
237.6372133789
 20
161.8199022495
 11
237.6372133789
 21
164.8199022495
  0
LINE
  5
2BD
100
AcDbEntity
  8
02___PRT_ALL_AXES
100
AcDbLine
 62
7
  6
CONTINUOUS
 10
240.6372133789
 20
161.8199022495
 11
240.6372133789
 21
164.8199022495
  0
LINE
  5
2BE
100
AcDbEntity
  8
0
100
AcDbLine
 62
7
  6
CONTINUOUS
 10
243.9312133789
 20
151.8199022495
 11
243.9312133789
 21
159.8199022495
  0
LINE
  5
2BF
100
AcDbEntity
  8
0
100
AcDbLine
 62
7
  6
CONTINUOUS
 10
60.5947910959
 20
79.1564858127
 11
60.5947910959
 21
91.1564858127
  0
LINE
  5
2C0
100
AcDbEntity
  8
RUNDUNGEN
100
AcDbLine
 62
9
  6
CONTINUOUS
 10
62.4947910959
 20
79.7737508114
 11
62.4947910959
 21
85.1564858127
  0
LINE
  5
2C1
100
AcDbEntity
  8
RUNDUNGEN
100
AcDbLine
 62
7
  6
CONTINUOUS
 10
63.0947910959
 20
79.2354773113
 11
63.0947910959
 21
81.3617526205
  0
LINE
  5
2C2
100
AcDbEntity
  8
RUNDUNGEN
100
AcDbLine
 62
9
  6
CONTINUOUS
 10
63.6947910959
 20
79.2354773113
 11
63.6947910959
 21
81.3617526205
  0
LINE
  5
2C3
100
AcDbEntity
  8
RUNDUNGEN
100
AcDbLine
 62
7
  6
CONTINUOUS
 10
63.0947910959
 20
79.2354773111
 11
63.1152356001
 21
79.0801858845
  0
LINE
  5
2C4
100
AcDbEntity
  8
02___PRT_ALL_AXES
100
AcDbLine
 62
9
  6
CONTINUOUS
 10
65.4947910959
 20
78.1564858127
 11
65.4947910959
 21
82.3650038167
  0
LINE
  5
2C5
100
AcDbEntity
  8
02___PRT_ALL_AXES
100
AcDbLine
 62
9
  6
CONTINUOUS
 10
65.4947910959
 20
83.9479678087
 11
65.4947910959
 21
84.980158832
  0
LINE
  5
2C6
100
AcDbEntity
  8
RUNDUNGEN
100
AcDbLine
 62
7
  6
CONTINUOUS
 10
66.0947910959
 20
78.1564858127
 11
66.0947910959
 21
84.9801588321
  0
LINE
  5
2C7
100
AcDbEntity
  8
RUNDUNGEN
100
AcDbLine
 62
7
  6
CONTINUOUS
 10
66.5947910959
 20
60.6564858127
 11
66.5947910959
 21
66.0153164877
  0
LINE
  5
2C8
100
AcDbEntity
  8
RUNDUNGEN
100
AcDbLine
 62
9
  6
CONTINUOUS
 10
67.1947910959
 20
60.6564858127
 11
67.1947910959
 21
66.0153164877
  0
LINE
  5
2C9
100
AcDbEntity
  8
RUNDUNGEN
100
AcDbLine
 62
9
  6
CONTINUOUS
 10
65.4562844325
 20
85.1564858127
 11
66.0201000049
 21
85.3616978987
  0
LINE
  5
2CA
100
AcDbEntity
  8
RUNDUNGEN
100
AcDbLine
 62
9
  6
CONTINUOUS
 10
65.4706681443
 20
85.1169668894
 11
66.0344837167
 21
85.3221789754
  0
LINE
  5
2CB
100
AcDbEntity
  8
RUNDUNGEN
100
AcDbLine
 62
7
  6
CONTINUOUS
 10
66.5743465917
 20
66.1706079148
 11
63.1152356002
 21
79.0801858842
  0
LINE
  5
2CC
100
AcDbEntity
  8
RUNDUNGEN
100
AcDbLine
 62
9
  6
CONTINUOUS
 10
67.1539020875
 20
66.3258993418
 11
63.6947910959
 21
79.2354773113
  0
LINE
  5
2CD
100
AcDbEntity
  8
RUNDUNGEN
100
AcDbLine
 62
7
  6
CONTINUOUS
 10
66.5743465918
 20
66.1706079145
 11
66.5947910959
 21
66.0153164881
  0
LINE
  5
2CE
100
AcDbEntity
  8
RUNDUNGEN
100
AcDbLine
 62
9
  6
CONTINUOUS
 10
94.2790434357
 20
56.1564765827
 11
101.9105398184
 21
56.1564776547
  0
LINE
  5
2CF
100
AcDbEntity
  8
RUNDUNGEN
100
AcDbLine
 62
9
  6
CONTINUOUS
 10
69.2790434357
 20
56.1564765827
 11
76.9105398184
 21
56.1564776547
  0
LINE
  5
2D0
100
AcDbEntity
  8
RUNDUNGEN
100
AcDbLine
 62
9
  6
CONTINUOUS
 10
77.2985909666
 20
55.6988586941
 11
76.9105479016
 21
56.1564858128
  0
LINE
  5
2D1
100
AcDbEntity
  8
0
100
AcDbLine
 62
7
  6
CONTINUOUS
 10
70.5947910959
 20
67.6564858127
 11
70.5947910959
 21
60.1564858127
  0
LINE
  5
2D2
100
AcDbEntity
  8
RUNDUNGEN
100
AcDbLine
 62
9
  6
CONTINUOUS
 10
65.4706681443
 20
85.1169668894
 11
65.4563512424
 21
85.1563022539
  0
LINE
  5
2D3
100
AcDbEntity
  8
RUNDUNGEN
100
AcDbLine
 62
7
  6
CONTINUOUS
 10
66.0344837167
 20
85.3221789754
 11
64.0546607399
 21
90.7616978987
  0
LINE
  5
2D4
100
AcDbEntity
  8
RUNDUNGEN
100
AcDbLine
 62
9
  6
CONTINUOUS
 10
104.5947910959
 20
60.6564858127
 11
103.9947910959
 21
60.6564858127
  0
LINE
  5
2D5
100
AcDbEntity
  8
RUNDUNGEN
100
AcDbLine
 62
9
  6
CONTINUOUS
 10
79.5947910959
 20
60.6564858127
 11
78.9947910959
 21
60.6564858127
  0
LINE
  5
2D6
100
AcDbEntity
  8
RUNDUNGEN
100
AcDbLine
 62
9
  6
CONTINUOUS
 10
66.5947910959
 20
60.6564858127
 11
67.1947910959
 21
60.6564858127
  0
LINE
  5
2D7
100
AcDbEntity
  8
RUNDUNGEN
100
AcDbLine
 62
9
  6
CONTINUOUS
 10
91.5947910959
 20
60.6564858127
 11
92.1947910959
 21
60.6564858127
  0
LINE
  5
2D8
100
AcDbEntity
  8
0
100
AcDbLine
 62
7
  6
CONTINUOUS
 10
75.5947910959
 20
67.6564858127
 11
75.5947910959
 21
60.1564858127
  0
LINE
  5
2D9
100
AcDbEntity
  8
RUNDUNGEN
100
AcDbLine
 62
7
  6
CONTINUOUS
 10
82.134921452
 20
90.7616978987
 11
80.1550984752
 21
85.3221789754
  0
LINE
  5
2DA
100
AcDbEntity
  8
RUNDUNGEN
100
AcDbLine
 62
9
  6
CONTINUOUS
 10
80.7332305413
 20
85.1563011325
 11
80.7189140476
 21
85.1169668894
  0
LINE
  5
2DB
100
AcDbEntity
  8
RUNDUNGEN
100
AcDbLine
 62
9
  6
CONTINUOUS
 10
90.4562844325
 20
85.1564858127
 11
91.0201000049
 21
85.3616978987
  0
LINE
  5
2DC
100
AcDbEntity
  8
RUNDUNGEN
100
AcDbLine
 62
9
  6
CONTINUOUS
 10
90.4706681443
 20
85.1169668894
 11
91.0344837167
 21
85.3221789754
  0
LINE
  5
2DD
100
AcDbEntity
  8
RUNDUNGEN
100
AcDbLine
 62
9
  6
CONTINUOUS
 10
78.9947910959
 20
66.0153164877
 11
78.9947910959
 21
60.6564858127
  0
LINE
  5
2DE
100
AcDbEntity
  8
RUNDUNGEN
100
AcDbLine
 62
7
  6
CONTINUOUS
 10
79.5947910959
 20
66.0153164877
 11
79.5947910959
 21
60.6564858127
  0
LINE
  5
2DF
100
AcDbEntity
  8
RUNDUNGEN
100
AcDbLine
 62
9
  6
CONTINUOUS
 10
91.5743465917
 20
66.1706079148
 11
92.1539020875
 21
66.3258993418
  0
LINE
  5
2E0
100
AcDbEntity
  8
RUNDUNGEN
100
AcDbLine
 62
9
  6
CONTINUOUS
 10
104.5947910959
 20
66.0153164877
 11
103.9947910959
 21
66.0153164877
  0
LINE
  5
2E1
100
AcDbEntity
  8
RUNDUNGEN
100
AcDbLine
 62
9
  6
CONTINUOUS
 10
79.5947910959
 20
66.0153164877
 11
78.9947910959
 21
66.0153164877
  0
LINE
  5
2E2
100
AcDbEntity
  8
RUNDUNGEN
100
AcDbLine
 62
9
  6
CONTINUOUS
 10
66.5947910959
 20
66.0153164877
 11
67.1947910959
 21
66.0153164884
  0
LINE
  5
2E3
100
AcDbEntity
  8
RUNDUNGEN
100
AcDbLine
 62
9
  6
CONTINUOUS
 10
91.5947910959
 20
66.0153164877
 11
92.1947910959
 21
66.0153164884
  0
LINE
  5
2E4
100
AcDbEntity
  8
RUNDUNGEN
100
AcDbLine
 62
9
  6
CONTINUOUS
 10
79.6152356002
 20
66.1706079148
 11
79.0356801043
 21
66.3258993414
  0
LINE
  5
2E5
100
AcDbEntity
  8
RUNDUNGEN
100
AcDbLine
 62
7
  6
CONTINUOUS
 10
80.0947910959
 20
84.980158832
 11
80.0947910959
 21
78.1564858127
  0
LINE
  5
2E6
100
AcDbEntity
  8
02___PRT_ALL_AXES
100
AcDbLine
 62
9
  6
CONTINUOUS
 10
80.6947910959
 20
84.980158832
 11
80.6947910959
 21
83.9479678087
  0
LINE
  5
2E7
100
AcDbEntity
  8
02___PRT_ALL_AXES
100
AcDbLine
 62
9
  6
CONTINUOUS
 10
80.6947910959
 20
82.3650038167
 11
80.6947910959
 21
78.1564858127
  0
LINE
  5
2E8
100
AcDbEntity
  8
RUNDUNGEN
100
AcDbLine
 62
9
  6
CONTINUOUS
 10
82.4947910959
 20
79.2354773113
 11
79.0356801044
 21
66.3258993418
  0
LINE
  5
2E9
100
AcDbEntity
  8
RUNDUNGEN
100
AcDbLine
 62
7
  6
CONTINUOUS
 10
83.0743465917
 20
79.0801858842
 11
79.6152356002
 21
66.1706079148
  0
LINE
  5
2EA
100
AcDbEntity
  8
RUNDUNGEN
100
AcDbLine
 62
9
  6
CONTINUOUS
 10
82.4947910959
 20
81.3617526205
 11
82.4947910959
 21
79.2354773113
  0
LINE
  5
2EB
100
AcDbEntity
  8
RUNDUNGEN
100
AcDbLine
 62
7
  6
CONTINUOUS
 10
83.0947910959
 20
81.3617526205
 11
83.0947910959
 21
79.2354773113
  0
LINE
  5
2EC
100
AcDbEntity
  8
RUNDUNGEN
100
AcDbLine
 62
9
  6
CONTINUOUS
 10
83.6947910959
 20
85.1564858127
 11
83.6947910959
 21
79.7737508114
  0
LINE
  5
2ED
100
AcDbEntity
  8
RUNDUNGEN
100
AcDbLine
 62
7
  6
CONTINUOUS
 10
83.0743465918
 20
79.0801858845
 11
83.0947910959
 21
79.2354773111
  0
LINE
  5
2EE
100
AcDbEntity
  8
RUNDUNGEN
100
AcDbLine
 62
9
  6
CONTINUOUS
 10
68.8909912253
 20
55.6988586941
 11
69.2790342903
 21
56.1564858127
  0
LINE
  5
2EF
100
AcDbEntity
  8
RUNDUNGEN
100
AcDbLine
 62
9
  6
CONTINUOUS
 10
66.5743465917
 20
66.1706079148
 11
67.1539020875
 21
66.3258993418
  0
LINE
  5
2F0
100
AcDbEntity
  8
RUNDUNGEN
100
AcDbLine
 62
9
  6
CONTINUOUS
 10
104.6152356002
 20
66.1706079148
 11
104.0356801043
 21
66.3258993414
  0
LINE
  5
2F1
100
AcDbEntity
  8
RUNDUNGEN
100
AcDbLine
 62
9
  6
CONTINUOUS
 10
87.4947910959
 20
79.7737508114
 11
87.4947910959
 21
85.1564858127
  0
LINE
  5
2F2
100
AcDbEntity
  8
RUNDUNGEN
100
AcDbLine
 62
9
  6
CONTINUOUS
 10
102.2985909666
 20
55.6988586941
 11
101.9105479016
 21
56.1564858128
  0
LINE
  5
2F3
100
AcDbEntity
  8
RUNDUNGEN
100
AcDbLine
 62
7
  6
CONTINUOUS
 10
88.0947910959
 20
79.2354773113
 11
88.0947910959
 21
81.3617526205
  0
LINE
  5
2F4
100
AcDbEntity
  8
RUNDUNGEN
100
AcDbLine
 62
9
  6
CONTINUOUS
 10
88.6947910959
 20
79.2354773113
 11
88.6947910959
 21
81.3617526205
  0
LINE
  5
2F5
100
AcDbEntity
  8
RUNDUNGEN
100
AcDbLine
 62
7
  6
CONTINUOUS
 10
91.5743465917
 20
66.1706079148
 11
88.1152356002
 21
79.0801858842
  0
LINE
  5
2F6
100
AcDbEntity
  8
RUNDUNGEN
100
AcDbLine
 62
7
  6
CONTINUOUS
 10
88.0947910959
 20
79.2354773111
 11
88.1152356001
 21
79.0801858845
  0
LINE
  5
2F7
100
AcDbEntity
  8
02___PRT_ALL_AXES
100
AcDbLine
 62
9
  6
CONTINUOUS
 10
90.4947910959
 20
78.1564858127
 11
90.4947910959
 21
82.3650038167
  0
LINE
  5
2F8
100
AcDbEntity
  8
02___PRT_ALL_AXES
100
AcDbLine
 62
9
  6
CONTINUOUS
 10
90.4947910959
 20
83.9479678087
 11
90.4947910959
 21
84.980158832
  0
LINE
  5
2F9
100
AcDbEntity
  8
RUNDUNGEN
100
AcDbLine
 62
7
  6
CONTINUOUS
 10
91.0947910959
 20
78.1564858127
 11
91.0947910959
 21
84.980158832
  0
LINE
  5
2FA
100
AcDbEntity
  8
RUNDUNGEN
100
AcDbLine
 62
7
  6
CONTINUOUS
 10
91.5947910959
 20
60.6564858127
 11
91.5947910959
 21
66.0153164877
  0
LINE
  5
2FB
100
AcDbEntity
  8
RUNDUNGEN
100
AcDbLine
 62
9
  6
CONTINUOUS
 10
88.1152356002
 20
79.0801858842
 11
88.6947910959
 21
79.2354773113
  0
LINE
  5
2FC
100
AcDbEntity
  8
RUNDUNGEN
100
AcDbLine
 62
9
  6
CONTINUOUS
 10
105.6947910959
 20
78.1564858127
 11
105.0947910959
 21
78.1564858128
  0
LINE
  5
2FD
100
AcDbEntity
  8
RUNDUNGEN
100
AcDbLine
 62
9
  6
CONTINUOUS
 10
80.6947910959
 20
78.1564858127
 11
80.0947910959
 21
78.1564858128
  0
LINE
  5
2FE
100
AcDbEntity
  8
RUNDUNGEN
100
AcDbLine
 62
9
  6
CONTINUOUS
 10
65.4947910959
 20
78.1564858127
 11
66.0947910959
 21
78.1564858127
  0
LINE
  5
2FF
100
AcDbEntity
  8
RUNDUNGEN
100
AcDbLine
 62
9
  6
CONTINUOUS
 10
90.4947910959
 20
78.1564858127
 11
91.0947910959
 21
78.1564858127
  0
LINE
  5
300
100
AcDbEntity
  8
RUNDUNGEN
100
AcDbLine
 62
9
  6
CONTINUOUS
 10
83.0743465917
 20
79.0801858842
 11
82.4947910959
 21
79.2354773113
  0
LINE
  5
301
100
AcDbEntity
  8
RUNDUNGEN
100
AcDbLine
 62
9
  6
CONTINUOUS
 10
92.1539020875
 20
66.3258993418
 11
88.6947910959
 21
79.2354773113
  0
LINE
  5
302
100
AcDbEntity
  8
RUNDUNGEN
100
AcDbLine
 62
7
  6
CONTINUOUS
 10
91.5743465918
 20
66.1706079145
 11
91.5947910959
 21
66.0153164881
  0
LINE
  5
303
100
AcDbEntity
  8
RUNDUNGEN
100
AcDbLine
 62
9
  6
CONTINUOUS
 10
92.1947910959
 20
60.6564858127
 11
92.1947910959
 21
66.0153164877
  0
LINE
  5
304
100
AcDbEntity
  8
0
100
AcDbLine
 62
7
  6
CONTINUOUS
 10
110.5947910959
 20
79.1564858127
 11
108.5551872887
 21
79.1564858127
  0
LINE
  5
305
100
AcDbEntity
  8
0
100
AcDbLine
 62
7
  6
CONTINUOUS
 10
87.6343949032
 20
79.1564858127
 11
83.5551872887
 21
79.1564858127
  0
LINE
  5
306
100
AcDbEntity
  8
0
100
AcDbLine
 62
7
  6
CONTINUOUS
 10
62.6343949032
 20
79.1564858127
 11
60.5947910959
 21
79.1564858127
  0
LINE
  5
307
100
AcDbEntity
  8
RUNDUNGEN
100
AcDbLine
 62
7
  6
CONTINUOUS
 10
62.6343949032
 20
79.1564858127
 11
60.5947910959
 21
79.1564858127
  0
LINE
  5
308
100
AcDbEntity
  8
RUNDUNGEN
100
AcDbLine
 62
7
  6
CONTINUOUS
 10
83.5551872887
 20
79.1564858127
 11
87.6343949032
 21
79.1564858127
  0
LINE
  5
309
100
AcDbEntity
  8
RUNDUNGEN
100
AcDbLine
 62
7
  6
CONTINUOUS
 10
108.5551872887
 20
79.1564858127
 11
110.5947910959
 21
79.1564858127
  0
LINE
  5
30A
100
AcDbEntity
  8
RUNDUNGEN
100
AcDbLine
 62
9
  6
CONTINUOUS
 10
108.0947910959
 20
79.2354773113
 11
107.4947910959
 21
79.2354773113
  0
LINE
  5
30B
100
AcDbEntity
  8
RUNDUNGEN
100
AcDbLine
 62
9
  6
CONTINUOUS
 10
83.0947910959
 20
79.2354773113
 11
82.4947910959
 21
79.2354773113
  0
LINE
  5
30C
100
AcDbEntity
  8
RUNDUNGEN
100
AcDbLine
 62
9
  6
CONTINUOUS
 10
63.0947910959
 20
79.2354773113
 11
63.6947910959
 21
79.2354773113
  0
LINE
  5
30D
100
AcDbEntity
  8
RUNDUNGEN
100
AcDbLine
 62
9
  6
CONTINUOUS
 10
88.0947910959
 20
79.2354773113
 11
88.6947910959
 21
79.2354773113
  0
LINE
  5
30E
100
AcDbEntity
  8
0
100
AcDbLine
 62
7
  6
CONTINUOUS
 10
95.5947910959
 20
67.6564858127
 11
95.5947910959
 21
60.1564858127
  0
LINE
  5
30F
100
AcDbEntity
  8
RUNDUNGEN
100
AcDbLine
 62
9
  6
CONTINUOUS
 10
108.0947910959
 20
81.3617526205
 11
107.4947910959
 21
81.3617526205
  0
LINE
  5
310
100
AcDbEntity
  8
RUNDUNGEN
100
AcDbLine
 62
9
  6
CONTINUOUS
 10
83.0947910959
 20
81.3617526205
 11
82.4947910959
 21
81.3617526205
  0
LINE
  5
311
100
AcDbEntity
  8
RUNDUNGEN
100
AcDbLine
 62
9
  6
CONTINUOUS
 10
63.0947910959
 20
81.3617526205
 11
63.6947910935
 21
81.361752626
  0
LINE
  5
312
100
AcDbEntity
  8
RUNDUNGEN
100
AcDbLine
 62
9
  6
CONTINUOUS
 10
88.0947910959
 20
81.3617526205
 11
88.6947910935
 21
81.361752626
  0
LINE
  5
313
100
AcDbEntity
  8
RUNDUNGEN
100
AcDbLine
 62
9
  6
CONTINUOUS
 10
80.7189140476
 20
85.1169668894
 11
80.1550984752
 21
85.3221789754
  0
LINE
  5
314
100
AcDbEntity
  8
RUNDUNGEN
100
AcDbLine
 62
9
  6
CONTINUOUS
 10
80.7332977594
 20
85.1564858127
 11
80.169482187
 21
85.3616978987
  0
LINE
  5
315
100
AcDbEntity
  8
RUNDUNGEN
100
AcDbLine
 62
9
  6
CONTINUOUS
 10
90.4706681443
 20
85.1169668894
 11
90.4563512424
 21
85.1563022539
  0
LINE
  5
316
100
AcDbEntity
  8
RUNDUNGEN
100
AcDbLine
 62
7
  6
CONTINUOUS
 10
91.0344837167
 20
85.3221789754
 11
89.0546607399
 21
90.7616978987
  0
LINE
  5
317
100
AcDbEntity
  8
RUNDUNGEN
100
AcDbLine
 62
9
  6
CONTINUOUS
 10
63.1152356002
 20
79.0801858842
 11
63.6947910959
 21
79.2354773113
  0
LINE
  5
318
100
AcDbEntity
  8
RUNDUNGEN
100
AcDbLine
 62
9
  6
CONTINUOUS
 10
105.6947910959
 20
84.980158832
 11
105.0947910959
 21
84.980158832
  0
LINE
  5
319
100
AcDbEntity
  8
RUNDUNGEN
100
AcDbLine
 62
9
  6
CONTINUOUS
 10
80.6947910959
 20
84.980158832
 11
80.0947910959
 21
84.980158832
  0
LINE
  5
31A
100
AcDbEntity
  8
RUNDUNGEN
100
AcDbLine
 62
9
  6
CONTINUOUS
 10
65.4947910959
 20
84.980158832
 11
66.0947910959
 21
84.9801588321
  0
LINE
  5
31B
100
AcDbEntity
  8
RUNDUNGEN
100
AcDbLine
 62
9
  6
CONTINUOUS
 10
90.4947910959
 20
84.980158832
 11
91.0947910959
 21
84.9801588321
  0
LINE
  5
31C
100
AcDbEntity
  8
RUNDUNGEN
100
AcDbLine
 62
9
  6
CONTINUOUS
 10
105.7332305413
 20
85.1563011325
 11
108.6947910959
 21
85.1564858127
  0
LINE
  5
31D
100
AcDbEntity
  8
RUNDUNGEN
100
AcDbLine
 62
9
  6
CONTINUOUS
 10
80.7332305413
 20
85.1563011325
 11
83.6947910959
 21
85.1564858127
  0
LINE
  5
31E
100
AcDbEntity
  8
RUNDUNGEN
100
AcDbLine
 62
9
  6
CONTINUOUS
 10
62.4947910959
 20
85.1564858127
 11
65.4563512424
 21
85.1563022539
  0
LINE
  5
31F
100
AcDbEntity
  8
RUNDUNGEN
100
AcDbLine
 62
9
  6
CONTINUOUS
 10
87.4947910959
 20
85.1564858127
 11
90.4563512424
 21
85.1563022539
  0
LINE
  5
320
100
AcDbEntity
  8
RUNDUNGEN
100
AcDbLine
 62
9
  6
CONTINUOUS
 10
108.0743465917
 20
79.0801858842
 11
107.4947910959
 21
79.2354773113
  0
LINE
  5
321
100
AcDbEntity
  8
RUNDUNGEN
100
AcDbLine
 62
7
  6
CONTINUOUS
 10
107.134921452
 20
90.7616978987
 11
105.1550984752
 21
85.3221789754
  0
LINE
  5
322
100
AcDbEntity
  8
RUNDUNGEN
100
AcDbLine
 62
9
  6
CONTINUOUS
 10
105.7332305413
 20
85.1563011325
 11
105.7189140476
 21
85.1169668894
  0
LINE
  5
323
100
AcDbEntity
  8
0
100
AcDbLine
 62
7
  6
CONTINUOUS
 10
100.5947910959
 20
67.6564858127
 11
100.5947910959
 21
60.1564858127
  0
LINE
  5
324
100
AcDbEntity
  8
RUNDUNGEN
100
AcDbLine
 62
9
  6
CONTINUOUS
 10
103.9947910959
 20
66.0153164877
 11
103.9947910959
 21
60.6564858127
  0
LINE
  5
325
100
AcDbEntity
  8
RUNDUNGEN
100
AcDbLine
 62
9
  6
CONTINUOUS
 10
93.8909912253
 20
55.6988586941
 11
94.2790342903
 21
56.1564858127
  0
LINE
  5
326
100
AcDbEntity
  8
0
100
AcDbLine
 62
7
  6
CONTINUOUS
 10
110.5947910959
 20
91.1564858127
 11
107.6987370245
 21
91.1564858127
  0
LINE
  5
327
100
AcDbEntity
  8
0
100
AcDbLine
 62
7
  6
CONTINUOUS
 10
88.4908451674
 20
91.1564858127
 11
82.6987370245
 21
91.1564858127
  0
LINE
  5
328
100
AcDbEntity
  8
RUNDUNGEN
100
AcDbLine
 62
7
  6
CONTINUOUS
 10
88.4908451674
 20
91.1564858127
 11
82.6987370245
 21
91.1564858127
  0
LINE
  5
329
100
AcDbEntity
  8
0
100
AcDbLine
 62
7
  6
CONTINUOUS
 10
63.4908451674
 20
91.1564858127
 11
60.5947910959
 21
91.1564858127
  0
LINE
  5
32A
100
AcDbEntity
  8
RUNDUNGEN
100
AcDbLine
 62
7
  6
CONTINUOUS
 10
63.4908451674
 20
91.1564858127
 11
60.5947910959
 21
91.1564858127
  0
LINE
  5
32B
100
AcDbEntity
  8
RUNDUNGEN
100
AcDbLine
 62
7
  6
CONTINUOUS
 10
107.6987370245
 20
91.1564858127
 11
110.5947910959
 21
91.1564858127
  0
LINE
  5
32C
100
AcDbEntity
  8
RUNDUNGEN
100
AcDbLine
 62
9
  6
CONTINUOUS
 10
105.7189140476
 20
85.1169668894
 11
105.1550984752
 21
85.3221789754
  0
LINE
  5
32D
100
AcDbEntity
  8
RUNDUNGEN
100
AcDbLine
 62
9
  6
CONTINUOUS
 10
105.7332977594
 20
85.1564858127
 11
105.169482187
 21
85.3616978987
  0
LINE
  5
32E
100
AcDbEntity
  8
RUNDUNGEN
100
AcDbLine
 62
7
  6
CONTINUOUS
 10
104.5947910959
 20
66.0153164877
 11
104.5947910959
 21
60.6564858127
  0
LINE
  5
32F
100
AcDbEntity
  8
RUNDUNGEN
100
AcDbLine
 62
7
  6
CONTINUOUS
 10
105.0947910959
 20
84.980158832
 11
105.0947910959
 21
78.1564858127
  0
LINE
  5
330
100
AcDbEntity
  8
02___PRT_ALL_AXES
100
AcDbLine
 62
9
  6
CONTINUOUS
 10
105.6947910959
 20
84.980158832
 11
105.6947910959
 21
83.9479678087
  0
LINE
  5
331
100
AcDbEntity
  8
02___PRT_ALL_AXES
100
AcDbLine
 62
9
  6
CONTINUOUS
 10
105.6947910959
 20
82.3650038167
 11
105.6947910959
 21
78.1564858127
  0
LINE
  5
332
100
AcDbEntity
  8
RUNDUNGEN
100
AcDbLine
 62
9
  6
CONTINUOUS
 10
107.4947910959
 20
79.2354773113
 11
104.0356801044
 21
66.3258993418
  0
LINE
  5
333
100
AcDbEntity
  8
RUNDUNGEN
100
AcDbLine
 62
7
  6
CONTINUOUS
 10
108.0743465917
 20
79.0801858842
 11
104.6152356002
 21
66.1706079148
  0
LINE
  5
334
100
AcDbEntity
  8
RUNDUNGEN
100
AcDbLine
 62
9
  6
CONTINUOUS
 10
107.4947910959
 20
81.3617526205
 11
107.4947910959
 21
79.2354773113
  0
LINE
  5
335
100
AcDbEntity
  8
RUNDUNGEN
100
AcDbLine
 62
7
  6
CONTINUOUS
 10
108.0947910959
 20
81.3617018183
 11
108.0947910959
 21
79.2354773113
  0
LINE
  5
336
100
AcDbEntity
  8
RUNDUNGEN
100
AcDbLine
 62
7
  6
CONTINUOUS
 10
108.0743465918
 20
79.0801858845
 11
108.0947910959
 21
79.2354773111
  0
LINE
  5
337
100
AcDbEntity
  8
RUNDUNGEN
100
AcDbLine
 62
9
  6
CONTINUOUS
 10
108.6947910959
 20
85.1564858127
 11
108.6947910959
 21
79.7737508114
  0
LINE
  5
338
100
AcDbEntity
  8
0
100
AcDbLine
 62
7
  6
CONTINUOUS
 10
110.5947910959
 20
79.1564858127
 11
110.5947910959
 21
91.1564858127
  0
ARC
  5
339
100
AcDbEntity
  8
RUNDUNGEN
100
AcDbCircle
 62
9
  6
CONTINUOUS
 10
67.1952220049
 20
150.4200851728
 40
0.6208754402
100
AcDbArc
 50
180.016880571
 51
188.7116890386
  0
ARC
  5
33A
100
AcDbEntity
  8
RUNDUNGEN
100
AcDbCircle
 62
9
  6
CONTINUOUS
 10
78.9943601868
 20
150.4200851729
 40
0.6208754403
100
AcDbArc
 50
351.2883087126
 51
359.9831194153
  0
ARC
  5
33B
100
AcDbEntity
  8
RUNDUNGEN
100
AcDbCircle
 62
7
  6
CONTINUOUS
 10
78.9947910959
 20
150.4199022495
 40
0.6
100
AcDbArc
 50
270.0
 51
360.0
  0
ARC
  5
33C
100
AcDbEntity
  8
RUNDUNGEN
100
AcDbCircle
 62
7
  6
CONTINUOUS
 10
82.4947910959
 20
150.4199022495
 40
0.6
100
AcDbArc
 50
270.0
 51
360.0
  0
ARC
  5
33D
100
AcDbEntity
  8
RUNDUNGEN
100
AcDbCircle
 62
7
  6
CONTINUOUS
 10
63.6947910959
 20
150.4199022495
 40
0.6
100
AcDbArc
 50
180.0
 51
270.0
  0
ARC
  5
33E
100
AcDbEntity
  8
RUNDUNGEN
100
AcDbCircle
 62
7
  6
CONTINUOUS
 10
67.1947910959
 20
150.4199022495
 40
0.6
100
AcDbArc
 50
180.0
 51
270.0
  0
ARC
  5
33F
100
AcDbEntity
  8
RUNDUNGEN
100
AcDbCircle
 62
9
  6
CONTINUOUS
 10
67.154191353
 20
150.3803545614
 40
0.5604523866
100
AcDbArc
 50
260.6612825123
 51
269.9704280142
  0
ARC
  5
340
100
AcDbEntity
  8
RUNDUNGEN
100
AcDbCircle
 62
9
  6
CONTINUOUS
 10
79.0353908388
 20
150.380354561
 40
0.5604523862
100
AcDbArc
 50
270.0295720036
 51
279.3387193822
  0
ARC
  5
341
100
AcDbEntity
  8
RUNDUNGEN
100
AcDbCircle
 62
9
  6
CONTINUOUS
 10
78.9943601869
 20
161.2197193262
 40
0.6208754402
100
AcDbArc
 50
0.0168805709
 51
8.7116890386
  0
ARC
  5
342
100
AcDbEntity
  8
RUNDUNGEN
100
AcDbCircle
 62
9
  6
CONTINUOUS
 10
67.1952220051
 20
161.2197193261
 40
0.6208754403
100
AcDbArc
 50
171.2883087126
 51
179.9831194153
  0
ARC
  5
343
100
AcDbEntity
  8
RUNDUNGEN
100
AcDbCircle
 62
7
  6
CONTINUOUS
 10
82.4947910959
 20
161.2199022495
 40
0.6
100
AcDbArc
 50
0.0
 51
90.0
  0
ARC
  5
344
100
AcDbEntity
  8
RUNDUNGEN
100
AcDbCircle
 62
7
  6
CONTINUOUS
 10
78.9947910959
 20
161.2199022495
 40
0.6
100
AcDbArc
 50
0.0
 51
90.0
  0
ARC
  5
345
100
AcDbEntity
  8
RUNDUNGEN
100
AcDbCircle
 62
7
  6
CONTINUOUS
 10
67.1947910959
 20
161.2199022495
 40
0.6
100
AcDbArc
 50
90.0
 51
180.0
  0
ARC
  5
346
100
AcDbEntity
  8
RUNDUNGEN
100
AcDbCircle
 62
7
  6
CONTINUOUS
 10
63.6947910959
 20
161.2199022495
 40
0.6
100
AcDbArc
 50
90.0
 51
180.0
  0
ARC
  5
347
100
AcDbEntity
  8
RUNDUNGEN
100
AcDbCircle
 62
9
  6
CONTINUOUS
 10
79.0353908389
 20
161.2594499376
 40
0.5604523866
100
AcDbArc
 50
80.6612825123
 51
89.9704280142
  0
ARC
  5
348
100
AcDbEntity
  8
RUNDUNGEN
100
AcDbCircle
 62
9
  6
CONTINUOUS
 10
67.1541913531
 20
161.259449938
 40
0.5604523862
100
AcDbArc
 50
90.0295720036
 51
99.3387193823
  0
ARC
  5
349
100
AcDbEntity
  8
RUNDUNGEN
100
AcDbCircle
 62
9
  6
CONTINUOUS
 10
103.9943601868
 20
150.4200851729
 40
0.6208754403
100
AcDbArc
 50
351.2883087126
 51
359.9831194152
  0
ARC
  5
34A
100
AcDbEntity
  8
RUNDUNGEN
100
AcDbCircle
 62
9
  6
CONTINUOUS
 10
92.1952220049
 20
150.4200851728
 40
0.6208754402
100
AcDbArc
 50
180.0168805709
 51
188.7116890386
  0
ARC
  5
34B
100
AcDbEntity
  8
RUNDUNGEN
100
AcDbCircle
 62
9
  6
CONTINUOUS
 10
107.4534711852
 20
150.4200850915
 40
0.6208754334
100
AcDbArc
 50
351.289371139
 51
359.9831269258
  0
ARC
  5
34C
100
AcDbEntity
  8
RUNDUNGEN
100
AcDbCircle
 62
7
  6
CONTINUOUS
 10
103.9947910959
 20
150.4199022495
 40
0.6
100
AcDbArc
 50
270.0
 51
360.0
  0
ARC
  5
34D
100
AcDbEntity
  8
RUNDUNGEN
100
AcDbCircle
 62
7
  6
CONTINUOUS
 10
107.4947910959
 20
150.4199022495
 40
0.6
100
AcDbArc
 50
270.0
 51
360.0
  0
ARC
  5
34E
100
AcDbEntity
  8
RUNDUNGEN
100
AcDbCircle
 62
7
  6
CONTINUOUS
 10
88.6947910959
 20
150.4199022495
 40
0.6
100
AcDbArc
 50
180.0
 51
270.0
  0
ARC
  5
34F
100
AcDbEntity
  8
RUNDUNGEN
100
AcDbCircle
 62
7
  6
CONTINUOUS
 10
92.1947910959
 20
150.4199022495
 40
0.6
100
AcDbArc
 50
180.0
 51
270.0
  0
ARC
  5
350
100
AcDbEntity
  8
RUNDUNGEN
100
AcDbCircle
 62
9
  6
CONTINUOUS
 10
92.154191353
 20
150.3803545614
 40
0.5604523866
100
AcDbArc
 50
260.6612825124
 51
269.9704280141
  0
ARC
  5
351
100
AcDbEntity
  8
RUNDUNGEN
100
AcDbCircle
 62
9
  6
CONTINUOUS
 10
104.0353908388
 20
150.380354561
 40
0.5604523862
100
AcDbArc
 50
270.0295720036
 51
279.3387193823
  0
ARC
  5
352
100
AcDbEntity
  8
RUNDUNGEN
100
AcDbCircle
 62
9
  6
CONTINUOUS
 10
103.9943601869
 20
161.2197193262
 40
0.6208754402
100
AcDbArc
 50
0.016880571
 51
8.7116890386
  0
ARC
  5
353
100
AcDbEntity
  8
RUNDUNGEN
100
AcDbCircle
 62
9
  6
CONTINUOUS
 10
92.1952220051
 20
161.2197193261
 40
0.6208754403
100
AcDbArc
 50
171.2883087126
 51
179.9831194153
  0
ARC
  5
354
100
AcDbEntity
  8
RUNDUNGEN
100
AcDbCircle
 62
7
  6
CONTINUOUS
 10
107.4947910959
 20
161.2199022495
 40
0.6
100
AcDbArc
 50
0.0
 51
90.0
  0
ARC
  5
355
100
AcDbEntity
  8
RUNDUNGEN
100
AcDbCircle
 62
7
  6
CONTINUOUS
 10
88.6947910959
 20
161.2199022495
 40
0.6
100
AcDbArc
 50
90.0
 51
180.0
  0
ARC
  5
356
100
AcDbEntity
  8
RUNDUNGEN
100
AcDbCircle
 62
7
  6
CONTINUOUS
 10
92.1947910959
 20
161.2199022495
 40
0.6
100
AcDbArc
 50
90.0
 51
180.0
  0
ARC
  5
357
100
AcDbEntity
  8
RUNDUNGEN
100
AcDbCircle
 62
7
  6
CONTINUOUS
 10
103.9947910959
 20
161.2199022495
 40
0.6
100
AcDbArc
 50
0.0
 51
90.0
  0
ARC
  5
358
100
AcDbEntity
  8
RUNDUNGEN
100
AcDbCircle
 62
9
  6
CONTINUOUS
 10
104.0353908389
 20
161.2594499376
 40
0.5604523866
100
AcDbArc
 50
80.6612825124
 51
89.9704280141
  0
ARC
  5
359
100
AcDbEntity
  8
RUNDUNGEN
100
AcDbCircle
 62
9
  6
CONTINUOUS
 10
92.1541913531
 20
161.259449938
 40
0.5604523862
100
AcDbArc
 50
90.0295720036
 51
99.3387193823
  0
ARC
  5
35A
100
AcDbEntity
  8
RUNDUNGEN
100
AcDbCircle
 62
9
  6
CONTINUOUS
 10
208.0744037051
 20
155.5479321017
 40
11.0973690652
100
AcDbArc
 50
346.2175282191
 51
350.1298801001
  0
ARC
  5
35B
100
AcDbEntity
  8
RUNDUNGEN
100
AcDbCircle
 62
9
  6
CONTINUOUS
 10
208.2046466916
 20
156.1191275397
 40
10.9643484343
100
AcDbArc
 50
9.8464682279
 51
13.8062914148
  0
ARC
  5
35C
100
AcDbEntity
  8
RUNDUNGEN
100
AcDbCircle
 62
9
  6
CONTINUOUS
 10
212.9312133789
 20
155.8199022495
 40
6.6
100
AcDbArc
 50
26.2176267508
 51
54.9027529868
  0
ARC
  5
35D
100
AcDbEntity
  8
RUNDUNGEN
100
AcDbCircle
 62
9
  6
CONTINUOUS
 10
212.9312133789
 20
155.8199022495
 40
6.6
100
AcDbArc
 50
305.0972599668
 51
333.7823732492
  0
ARC
  5
35E
100
AcDbEntity
  8
RUNDUNGEN
100
AcDbCircle
 62
9
  6
CONTINUOUS
 10
212.7760888607
 20
155.8199329993
 40
6.5998320269
100
AcDbArc
 50
340.7658480632
 51
19.2343195875
  0
CIRCLE
  5
35F
100
AcDbEntity
  8
0
100
AcDbCircle
 62
7
  6
CONTINUOUS
 10
212.9312133789
 20
155.8199022495
 40
6.0
  0
CIRCLE
  5
360
100
AcDbEntity
  8
0
100
AcDbCircle
 62
7
  6
CONTINUOUS
 10
212.9312133789
 20
155.8199022495
 40
2.7
  0
ARC
  5
361
100
AcDbEntity
  8
0
100
AcDbCircle
 62
7
  6
CONTINUOUS
 10
238.1262133789
 20
155.8199022495
 40
2.695
100
AcDbArc
 50
270.0
 51
90.0
  0
ARC
  5
362
100
AcDbEntity
  8
0
100
AcDbCircle
 62
7
  6
CONTINUOUS
 10
230.1262133789
 20
155.8199022495
 40
2.695
100
AcDbArc
 50
90.0
 51
270.0
  0
ARC
  5
363
100
AcDbEntity
  8
RUNDUNGEN
100
AcDbCircle
 62
7
  6
CONTINUOUS
 10
241.9312133789
 20
159.8199022495
 40
2.0
100
AcDbArc
 50
0.0
 51
89.9997355797
  0
ARC
  5
364
100
AcDbEntity
  8
RUNDUNGEN
100
AcDbCircle
 62
7
  6
CONTINUOUS
 10
241.9312133789
 20
151.8199022495
 40
2.0
100
AcDbArc
 50
270.001706338
 51
360.0
  0
CIRCLE
  5
365
100
AcDbEntity
  8
02___PRT_ALL_AXES
100
AcDbCircle
 62
7
  6
CONTINUOUS
 10
68.7697910959
 20
58.9504858127
 40
1.5
  0
CIRCLE
  5
366
100
AcDbEntity
  8
02___PRT_ALL_AXES
100
AcDbCircle
 62
7
  6
CONTINUOUS
 10
68.5592910959
 20
69.0294858127
 40
2.0
  0
ARC
  5
367
100
AcDbEntity
  8
RUNDUNGEN
100
AcDbCircle
 62
9
  6
CONTINUOUS
 10
65.9947910959
 20
66.0153164877
 40
1.2
100
AcDbArc
 50
0.0
 51
15.0
  0
ARC
  5
368
100
AcDbEntity
  8
RUNDUNGEN
100
AcDbCircle
 62
7
  6
CONTINUOUS
 10
65.9947910959
 20
66.0153164877
 40
0.6
100
AcDbArc
 50
0.0
 51
15.0
  0
ARC
  5
369
100
AcDbEntity
  8
RUNDUNGEN
100
AcDbCircle
 62
7
  6
CONTINUOUS
 10
73.0947910959
 20
60.6564858127
 40
6.5
100
AcDbArc
 50
180.0
 51
360.0
  0
ARC
  5
36A
100
AcDbEntity
  8
0
100
AcDbCircle
 62
7
  6
CONTINUOUS
 10
73.0947910959
 20
60.6564858127
 40
6.5
100
AcDbArc
 50
184.8963947798
 51
186.1379745931
  0
ARC
  5
36B
100
AcDbEntity
  8
02___PRT_ALL_AXES
100
AcDbCircle
 62
9
  6
CONTINUOUS
 10
73.0947910959
 20
60.6564858127
 40
5.9
100
AcDbArc
 50
347.5418941781
 51
360.0
  0
ARC
  5
36C
100
AcDbEntity
  8
02___PRT_ALL_AXES
100
AcDbCircle
 62
9
  6
CONTINUOUS
 10
73.0947910959
 20
60.6564858127
 40
5.9
100
AcDbArc
 50
310.296032223
 51
329.4045092716
  0
ARC
  5
36D
100
AcDbEntity
  8
02___PRT_ALL_AXES
100
AcDbCircle
 62
9
  6
CONTINUOUS
 10
73.0947910959
 20
60.6564858127
 40
5.9
100
AcDbArc
 50
210.5954907284
 51
229.703982377
  0
ARC
  5
36E
100
AcDbEntity
  8
02___PRT_ALL_AXES
100
AcDbCircle
 62
9
  6
CONTINUOUS
 10
73.0947910959
 20
60.6564858127
 40
5.9
100
AcDbArc
 50
180.0
 51
192.4581058219
  0
ARC
  5
36F
100
AcDbEntity
  8
0
100
AcDbCircle
 62
7
  6
CONTINUOUS
 10
73.0947910959
 20
60.1564858127
 40
2.5
100
AcDbArc
 50
180.0
 51
360.0
  0
CIRCLE
  5
370
100
AcDbEntity
  8
02___PRT_ALL_AXES
100
AcDbCircle
 62
7
  6
CONTINUOUS
 10
77.4197910959
 20
58.9504858127
 40
1.5
  0
ARC
  5
371
100
AcDbEntity
  8
0
100
AcDbCircle
 62
7
  6
CONTINUOUS
 10
73.0947910959
 20
67.6564858127
 40
2.5
100
AcDbArc
 50
0.0
 51
180.0
  0
CIRCLE
  5
372
100
AcDbEntity
  8
02___PRT_ALL_AXES
100
AcDbCircle
 62
7
  6
CONTINUOUS
 10
77.6302910959
 20
69.0294858127
 40
2.0
  0
ARC
  5
373
100
AcDbEntity
  8
RUNDUNGEN
100
AcDbCircle
 62
9
  6
CONTINUOUS
 10
80.1947910959
 20
66.0153164877
 40
1.2
100
AcDbArc
 50
165.0
 51
180.0
  0
ARC
  5
374
100
AcDbEntity
  8
RUNDUNGEN
100
AcDbCircle
 62
7
  6
CONTINUOUS
 10
80.1947910959
 20
66.0153164877
 40
0.6
100
AcDbArc
 50
165.0
 51
180.0
  0
CIRCLE
  5
375
100
AcDbEntity
  8
02___PRT_ALL_AXES
100
AcDbCircle
 62
7
  6
CONTINUOUS
 10
64.5272910959
 20
83.1564858127
 40
1.25
  0
ARC
  5
376
100
AcDbEntity
  8
RUNDUNGEN
100
AcDbCircle
 62
9
  6
CONTINUOUS
 10
63.4916532828
 20
79.7740011688
 40
0.9968604152
100
AcDbArc
 50
180.0143895696
 51
196.46838128
  0
ARC
  5
377
100
AcDbEntity
  8
RUNDUNGEN
100
AcDbCircle
 62
7
  6
CONTINUOUS
 10
63.6947910959
 20
79.2354773113
 40
0.6
100
AcDbArc
 50
180.0
 51
195.0
  0
ARC
  5
378
100
AcDbEntity
  8
RUNDUNGEN
100
AcDbCircle
 62
7
  6
CONTINUOUS
 10
62.6343941994
 20
78.5564884391
 40
0.5999997612
100
AcDbArc
 50
14.9997403536
 51
89.9999327983
  0
ARC
  5
379
100
AcDbEntity
  8
RUNDUNGEN
100
AcDbCircle
 62
9
  6
CONTINUOUS
 10
62.5942622181
 20
78.9390887042
 40
0.5398055087
100
AcDbArc
 50
25.0720713672
 51
35.0240941973
  0
ARC
  5
37A
100
AcDbEntity
  8
RUNDUNGEN
100
AcDbCircle
 62
9
  6
CONTINUOUS
 10
62.6015844438
 20
78.9421619944
 40
0.5318709809
100
AcDbArc
 50
15.0407349046
 51
25.106450765
  0
ARC
  5
37B
100
AcDbEntity
  8
RUNDUNGEN
100
AcDbCircle
 62
7
  6
CONTINUOUS
 10
65.0947910959
 20
84.980158832
 40
1.0
100
AcDbArc
 50
0.0
 51
20.0
  0
ARC
  5
37C
100
AcDbEntity
  8
RUNDUNGEN
100
AcDbCircle
 62
7
  6
CONTINUOUS
 10
63.4908453108
 20
90.5564854189
 40
0.6
100
AcDbArc
 50
20.000040026
 51
90.0000136897
  0
ARC
  5
37D
100
AcDbEntity
  8
RUNDUNGEN
100
AcDbCircle
 62
9
  6
CONTINUOUS
 10
65.0947910959
 20
84.980158832
 40
0.4
100
AcDbArc
 50
0.0
 51
20.0
  0
ARC
  5
37E
100
AcDbEntity
  8
RUNDUNGEN
100
AcDbCircle
 62
9
  6
CONTINUOUS
 10
73.0947910959
 20
78.1564858127
 40
7.6
100
AcDbArc
 50
180.0
 51
360.0
  0
ARC
  5
37F
100
AcDbEntity
  8
RUNDUNGEN
100
AcDbCircle
 62
7
  6
CONTINUOUS
 10
73.0947910959
 20
78.1564858127
 40
7.0
100
AcDbArc
 50
180.0
 51
360.0
  0
CIRCLE
  5
380
100
AcDbEntity
  8
02___PRT_ALL_AXES
100
AcDbCircle
 62
7
  6
CONTINUOUS
 10
81.6622910959
 20
83.1564858127
 40
1.25
  0
ARC
  5
381
100
AcDbEntity
  8
RUNDUNGEN
100
AcDbCircle
 62
9
  6
CONTINUOUS
 10
82.6957483134
 20
79.7743158815
 40
0.9990509223
100
AcDbArc
 50
343.5497624512
 51
359.9675928497
  0
ARC
  5
382
100
AcDbEntity
  8
RUNDUNGEN
100
AcDbCircle
 62
7
  6
CONTINUOUS
 10
82.4947910959
 20
79.2354773113
 40
0.6
100
AcDbArc
 50
345.0
 51
360.0
  0
ARC
  5
383
100
AcDbEntity
  8
RUNDUNGEN
100
AcDbCircle
 62
7
  6
CONTINUOUS
 10
83.5551885519
 20
78.5564905271
 40
0.5999995714
100
AcDbArc
 50
90.0001206289
 51
165.0004660707
  0
ARC
  5
384
100
AcDbEntity
  8
RUNDUNGEN
100
AcDbCircle
 62
9
  6
CONTINUOUS
 10
83.5953176232
 20
78.9390990255
 40
0.5398001949
100
AcDbArc
 50
144.976587898
 51
154.9287649648
  0
ARC
  5
385
100
AcDbEntity
  8
RUNDUNGEN
100
AcDbCircle
 62
9
  6
CONTINUOUS
 10
83.5879956947
 20
78.9421720353
 40
0.5318660505
100
AcDbArc
 50
154.8943839273
 51
164.9602522716
  0
ARC
  5
386
100
AcDbEntity
  8
RUNDUNGEN
100
AcDbCircle
 62
7
  6
CONTINUOUS
 10
81.0947910959
 20
84.980158832
 40
1.0
100
AcDbArc
 50
160.0
 51
180.0
  0
ARC
  5
387
100
AcDbEntity
  8
RUNDUNGEN
100
AcDbCircle
 62
7
  6
CONTINUOUS
 10
82.6987368944
 20
90.5564854554
 40
0.6
100
AcDbArc
 50
89.9999875806
 51
159.999963688
  0
ARC
  5
388
100
AcDbEntity
  8
RUNDUNGEN
100
AcDbCircle
 62
9
  6
CONTINUOUS
 10
81.0947910959
 20
84.980158832
 40
0.4
100
AcDbArc
 50
160.0
 51
180.0
  0
CIRCLE
  5
389
100
AcDbEntity
  8
02___PRT_ALL_AXES
100
AcDbCircle
 62
7
  6
CONTINUOUS
 10
93.7697910959
 20
58.9504858127
 40
1.5
  0
CIRCLE
  5
38A
100
AcDbEntity
  8
02___PRT_ALL_AXES
100
AcDbCircle
 62
7
  6
CONTINUOUS
 10
93.5592910959
 20
69.0294858127
 40
2.0
  0
ARC
  5
38B
100
AcDbEntity
  8
RUNDUNGEN
100
AcDbCircle
 62
9
  6
CONTINUOUS
 10
90.9947910959
 20
66.0153164877
 40
1.2
100
AcDbArc
 50
0.0
 51
15.0
  0
ARC
  5
38C
100
AcDbEntity
  8
RUNDUNGEN
100
AcDbCircle
 62
7
  6
CONTINUOUS
 10
90.9947910959
 20
66.0153164877
 40
0.6
100
AcDbArc
 50
0.0
 51
15.0
  0
ARC
  5
38D
100
AcDbEntity
  8
RUNDUNGEN
100
AcDbCircle
 62
7
  6
CONTINUOUS
 10
98.0947910959
 20
60.6564858127
 40
6.5
100
AcDbArc
 50
180.0
 51
360.0
  0
ARC
  5
38E
100
AcDbEntity
  8
02___PRT_ALL_AXES
100
AcDbCircle
 62
9
  6
CONTINUOUS
 10
98.0947910959
 20
60.6564858127
 40
5.9
100
AcDbArc
 50
347.5418941781
 51
360.0
  0
ARC
  5
38F
100
AcDbEntity
  8
02___PRT_ALL_AXES
100
AcDbCircle
 62
9
  6
CONTINUOUS
 10
98.0947910959
 20
60.6564858127
 40
5.9
100
AcDbArc
 50
310.2960322227
 51
329.4045092716
  0
ARC
  5
390
100
AcDbEntity
  8
02___PRT_ALL_AXES
100
AcDbCircle
 62
9
  6
CONTINUOUS
 10
98.0947910959
 20
60.6564858127
 40
5.9
100
AcDbArc
 50
210.5954907284
 51
229.7039823773
  0
ARC
  5
391
100
AcDbEntity
  8
02___PRT_ALL_AXES
100
AcDbCircle
 62
9
  6
CONTINUOUS
 10
98.0947910959
 20
60.6564858127
 40
5.9
100
AcDbArc
 50
180.0
 51
192.4581058219
  0
ARC
  5
392
100
AcDbEntity
  8
0
100
AcDbCircle
 62
7
  6
CONTINUOUS
 10
98.0947910959
 20
60.1564858127
 40
2.5
100
AcDbArc
 50
180.0
 51
360.0
  0
CIRCLE
  5
393
100
AcDbEntity
  8
02___PRT_ALL_AXES
100
AcDbCircle
 62
7
  6
CONTINUOUS
 10
102.4197910959
 20
58.9504858127
 40
1.5
  0
ARC
  5
394
100
AcDbEntity
  8
0
100
AcDbCircle
 62
7
  6
CONTINUOUS
 10
98.0947910959
 20
67.6564858127
 40
2.5
100
AcDbArc
 50
0.0
 51
180.0
  0
CIRCLE
  5
395
100
AcDbEntity
  8
02___PRT_ALL_AXES
100
AcDbCircle
 62
7
  6
CONTINUOUS
 10
102.6302910959
 20
69.0294858127
 40
2.0
  0
ARC
  5
396
100
AcDbEntity
  8
RUNDUNGEN
100
AcDbCircle
 62
9
  6
CONTINUOUS
 10
105.1947910959
 20
66.0153164877
 40
1.2
100
AcDbArc
 50
165.0
 51
180.0
  0
ARC
  5
397
100
AcDbEntity
  8
RUNDUNGEN
100
AcDbCircle
 62
7
  6
CONTINUOUS
 10
105.1947910959
 20
66.0153164877
 40
0.6
100
AcDbArc
 50
165.0
 51
180.0
  0
CIRCLE
  5
398
100
AcDbEntity
  8
02___PRT_ALL_AXES
100
AcDbCircle
 62
7
  6
CONTINUOUS
 10
89.5272910959
 20
83.1564858127
 40
1.25
  0
ARC
  5
399
100
AcDbEntity
  8
RUNDUNGEN
100
AcDbCircle
 62
9
  6
CONTINUOUS
 10
88.491653632
 20
79.7740012797
 40
0.996860757
100
AcDbArc
 50
180.0143959408
 51
196.4683817038
  0
ARC
  5
39A
100
AcDbEntity
  8
RUNDUNGEN
100
AcDbCircle
 62
7
  6
CONTINUOUS
 10
88.6947910959
 20
79.2354773113
 40
0.6
100
AcDbArc
 50
180.0
 51
195.0
  0
ARC
  5
39B
100
AcDbEntity
  8
RUNDUNGEN
100
AcDbCircle
 62
7
  6
CONTINUOUS
 10
87.6343942044
 20
78.5564884205
 40
0.5999997629
100
AcDbArc
 50
14.9997421965
 51
89.9999332752
  0
ARC
  5
39C
100
AcDbEntity
  8
RUNDUNGEN
100
AcDbCircle
 62
9
  6
CONTINUOUS
 10
87.5942622435
 20
78.9390887165
 40
0.5398054852
100
AcDbArc
 50
25.0720711619
 51
35.0240943567
  0
ARC
  5
39D
100
AcDbEntity
  8
RUNDUNGEN
100
AcDbCircle
 62
9
  6
CONTINUOUS
 10
87.601584471
 20
78.9421620075
 40
0.5318709553
100
AcDbArc
 50
15.0407343006
 51
25.106450564
  0
ARC
  5
39E
100
AcDbEntity
  8
RUNDUNGEN
100
AcDbCircle
 62
7
  6
CONTINUOUS
 10
90.0947910959
 20
84.980158832
 40
1.0
100
AcDbArc
 50
0.0
 51
20.0
  0
ARC
  5
39F
100
AcDbEntity
  8
RUNDUNGEN
100
AcDbCircle
 62
7
  6
CONTINUOUS
 10
88.4908453108
 20
90.5564854189
 40
0.6
100
AcDbArc
 50
20.000040026
 51
90.0000136897
  0
ARC
  5
3A0
100
AcDbEntity
  8
RUNDUNGEN
100
AcDbCircle
 62
9
  6
CONTINUOUS
 10
90.0947910959
 20
84.980158832
 40
0.4
100
AcDbArc
 50
0.0
 51
20.0
  0
ARC
  5
3A1
100
AcDbEntity
  8
RUNDUNGEN
100
AcDbCircle
 62
9
  6
CONTINUOUS
 10
98.0947910959
 20
78.1564858127
 40
7.6
100
AcDbArc
 50
180.0
 51
360.0
  0
ARC
  5
3A2
100
AcDbEntity
  8
RUNDUNGEN
100
AcDbCircle
 62
7
  6
CONTINUOUS
 10
98.0947910959
 20
78.1564858127
 40
7.0
100
AcDbArc
 50
180.0
 51
360.0
  0
CIRCLE
  5
3A3
100
AcDbEntity
  8
02___PRT_ALL_AXES
100
AcDbCircle
 62
7
  6
CONTINUOUS
 10
106.6622910959
 20
83.1564858127
 40
1.25
  0
ARC
  5
3A4
100
AcDbEntity
  8
RUNDUNGEN
100
AcDbCircle
 62
9
  6
CONTINUOUS
 10
107.6957422637
 20
79.774316824
 40
0.9990569966
100
AcDbArc
 50
343.5498088622
 51
359.967538994
  0
ARC
  5
3A5
100
AcDbEntity
  8
RUNDUNGEN
100
AcDbCircle
 62
7
  6
CONTINUOUS
 10
107.4947910959
 20
79.2354773113
 40
0.6
100
AcDbArc
 50
345.0
 51
360.0
  0
ARC
  5
3A6
100
AcDbEntity
  8
RUNDUNGEN
100
AcDbCircle
 62
7
  6
CONTINUOUS
 10
108.5551885432
 20
78.5564904943
 40
0.5999995744
100
AcDbArc
 50
90.0001197891
 51
165.0004628261
  0
ARC
  5
3A7
100
AcDbEntity
  8
RUNDUNGEN
100
AcDbCircle
 62
9
  6
CONTINUOUS
 10
108.595317607
 20
78.9390989761
 40
0.5398002014
100
AcDbArc
 50
144.9765834139
 51
154.9287599792
  0
ARC
  5
3A8
100
AcDbEntity
  8
RUNDUNGEN
100
AcDbCircle
 62
9
  6
CONTINUOUS
 10
108.5879956751
 20
78.9421719883
 40
0.5318660529
100
AcDbArc
 50
154.8943789468
 51
164.9602468348
  0
ARC
  5
3A9
100
AcDbEntity
  8
RUNDUNGEN
100
AcDbCircle
 62
7
  6
CONTINUOUS
 10
106.0947910959
 20
84.980158832
 40
1.0
100
AcDbArc
 50
160.0
 51
180.0
  0
ARC
  5
3AA
100
AcDbEntity
  8
RUNDUNGEN
100
AcDbCircle
 62
7
  6
CONTINUOUS
 10
107.6987368944
 20
90.5564854554
 40
0.6
100
AcDbArc
 50
89.9999875806
 51
159.999963688
  0
ARC
  5
3AB
100
AcDbEntity
  8
RUNDUNGEN
100
AcDbCircle
 62
9
  6
CONTINUOUS
 10
106.0947910959
 20
84.980158832
 40
0.4
100
AcDbArc
 50
160.0
 51
180.0
  0
SPLINE
  5
3AC
100
AcDbEntity
  8
0
100
AcDbSpline
 62
7
  6
CONTINUOUS
 70
0
 71
3
 72
8
 73
4
 74
2
 42
0.0000001
 43
0.0000001
 44
0.0000000001
 12
-0.0396584464
 22
0.0
 32
0.0
 13
-0.033541754
 23
0.0217087428
 33
0.0
 40
0.0
 40
0.0
 40
0.0
 40
0.0
 40
1.0
 40
1.0
 40
1.0
 40
1.0
 10
79.5575285191
 20
153.1249022495
 30
0.0
 10
79.5443090369
 20
153.1249022495
 30
0.0
 10
79.5322723714
 20
153.1294865886
 30
0.0
 10
79.5210917867
 20
153.1367228362
 30
0.0
 11
79.5575285191
 21
153.1249022495
 31
0.0
 11
79.5210917867
 21
153.1367228362
 31
0.0
  0
SPLINE
  5
3AD
100
AcDbEntity
  8
0
100
AcDbSpline
 62
7
  6
CONTINUOUS
 70
0
 71
3
 72
23
 73
19
 74
17
 42
0.0000001
 43
0.0000001
 44
0.0000000001
 12
-4.8910832311
 22
3.1655848486
 32
0.0
 13
5.7830238163
 23
0.0
 33
0.0
 40
0.0
 40
0.0
 40
0.0
 40
0.0
 40
0.0099959039
 40
0.0448213948
 40
0.0959968547
 40
0.1602541112
 40
0.2345716223
 40
0.3168634172
 40
0.4050879268
 40
0.4970644376
 40
0.5889889417
 40
0.6770763274
 40
0.7593352754
 40
0.8335044112
 40
0.8975225182
 40
0.9484809293
 40
0.9831856873
 40
1.0
 40
1.0
 40
1.0
 40
1.0
 10
79.5210917867
 20
153.1367228362
 30
0.0
 10
79.504794854
 20
153.1472704635
 30
0.0
 10
79.4398754886
 20
153.2198299147
 30
0.0
 10
79.335584541
 20
153.3601553522
 30
0.0
 10
79.1893023499
 20
153.616990785
 30
0.0
 10
79.0325896213
 20
153.9454993321
 30
0.0
 10
78.8797566636
 20
154.3441809517
 30
0.0
 10
78.7501272832
 20
154.7984926748
 30
0.0
 10
78.6615315455
 20
155.2977789686
 30
0.0
 10
78.6300093136
 20
155.8226674968
 30
0.0
 10
78.6621776056
 20
156.3472491895
 30
0.0
 10
78.7512350607
 20
156.8460125917
 30
0.0
 10
78.881106063
 20
157.2996154064
 30
0.0
 10
79.0339519138
 20
157.6974179596
 30
0.0
 10
79.1903599745
 20
158.0247915418
 30
0.0
 10
79.3361983505
 20
158.2805553997
 30
0.0
 10
79.4475932781
 20
158.4303361703
 30
0.0
 10
79.5251159955
 20
158.5149022495
 30
0.0
 10
79.5575285191
 20
158.5149022495
 30
0.0
 11
79.5210917867
 21
153.1367228362
 31
0.0
 11
79.4766456862
 21
153.179284167
 31
0.0
 11
79.3549387437
 21
153.3397460876
 31
0.0
 11
79.2053878394
 21
153.5951287035
 31
0.0
 11
79.0448885781
 21
153.9302816119
 31
0.0
 11
78.8910058518
 21
154.3315681686
 31
0.0
 11
78.7608912503
 21
154.7893308053
 31
0.0
 11
78.6723730946
 21
155.2917978264
 31
0.0
 11
78.640772549
 21
155.8227606481
 31
0.0
 11
78.6730193145
 21
156.3533833044
 31
0.0
 11
78.7619404675
 21
156.8549738278
 31
0.0
 11
78.8924195606
 21
157.312435178
 31
0.0
 11
79.0463073975
 21
157.7128006505
 31
0.0
 11
79.2064135951
 21
158.0466083033
 31
0.0
 11
79.3554508244
 21
158.3008371053
 31
0.0
 11
79.4768060355
 21
158.460689467
 31
0.0
 11
79.5575285191
 21
158.5149022495
 31
0.0
  0
SPLINE
  5
3AE
100
AcDbEntity
  8
0
100
AcDbSpline
 62
7
  6
CONTINUOUS
 70
0
 71
3
 72
8
 73
4
 74
2
 42
0.0000001
 43
0.0000001
 44
0.0000000001
 12
0.0400068728
 22
0.0
 32
0.0
 13
0.0337927159
 23
-0.0220032833
 33
0.0
 40
0.0
 40
0.0
 40
0.0
 40
0.0
 40
1.0
 40
1.0
 40
1.0
 40
1.0
 10
91.6320536728
 20
158.5149022495
 30
0.0
 10
91.6453892971
 20
158.5149022495
 30
0.0
 10
91.6575221621
 20
158.5102496308
 30
0.0
 10
91.6687864007
 20
158.502915203
 30
0.0
 11
91.6320536728
 21
158.5149022495
 31
0.0
 11
91.6687864007
 21
158.502915203
 31
0.0
  0
SPLINE
  5
3AF
100
AcDbEntity
  8
0
100
AcDbSpline
 62
7
  6
CONTINUOUS
 70
0
 71
3
 72
23
 73
19
 74
17
 42
0.0000001
 43
0.0000001
 44
0.0000000001
 12
4.884449574
 22
-3.1803873885
 32
0.0
 13
-5.7826530744
 23
0.0
 33
0.0
 40
0.0
 40
0.0
 40
0.0
 40
0.0
 40
0.0100174118
 40
0.0447114443
 40
0.0955531151
 40
0.1597131674
 40
0.2344367688
 40
0.3170286431
 40
0.4054290224
 40
0.4966030092
 40
0.5876958405
 40
0.675891082
 40
0.7582893845
 40
0.8329529789
 40
0.8971997708
 40
0.9482003307
 40
0.9830154505
 40
1.0
 40
1.0
 40
1.0
 40
1.0
 10
91.6687864007
 20
158.502915203
 30
0.0
 10
91.6850962483
 20
158.492295453
 30
0.0
 10
91.7497650192
 20
158.4198005517
 30
0.0
 10
91.8536202659
 20
158.2802047924
 30
0.0
 10
91.9994217356
 20
158.0243897976
 30
0.0
 10
92.1562820193
 20
157.696037744
 30
0.0
 10
92.3096545824
 20
157.2963192296
 30
0.0
 10
92.4397162516
 20
156.8403895413
 30
0.0
 10
92.5280163741
 20
156.3417173482
 30
0.0
 10
92.5593803088
 20
155.8196999046
 30
0.0
 10
92.5279835563
 20
155.298083923
 30
0.0
 10
92.4398855183
 20
154.8003222435
 30
0.0
 10
92.3102059387
 20
154.3452072912
 30
0.0
 10
92.1571207435
 20
153.9457238716
 30
0.0
 10
92.0002509359
 20
153.6169866923
 30
0.0
 10
91.8542017321
 20
153.3604647056
 30
0.0
 10
91.7425347163
 20
153.2102696982
 30
0.0
 10
91.6647922586
 20
153.1249022495
 30
0.0
 10
91.6320536728
 20
153.1249022495
 30
0.0
 11
91.6687864007
 21
158.502915203
 31
0.0
 11
91.7132669955
 21
158.4601712509
 31
0.0
 11
91.8344808931
 21
158.3003056782
 31
0.0
 11
91.9831410193
 21
158.0466602245
 31
0.0
 11
92.1435685038
 21
157.7121226438
 31
0.0
 11
92.2984137942
 21
157.3087197199
 31
0.0
 11
92.4289619724
 21
156.8493080506
 31
0.0
 11
92.5174677327
 21
156.3458394385
 31
0.0
 11
92.548810555
 21
155.819544368
 31
0.0
 11
92.5174386784
 21
155.2937211566
 31
0.0
 11
92.429175193
 21
154.7914143865
 31
0.0
 11
92.2990710141
 21
154.3330402459
 31
0.0
 11
92.1445259005
 21
153.929893828
 31
0.0
 11
91.9840358892
 21
153.5948299989
 31
0.0
 11
91.8350242501
 21
153.340325619
 31
0.0
 11
91.7134652774
 21
153.1798429959
 31
0.0
 11
91.6320536728
 21
153.1249022495
 31
0.0
  0
SPLINE
  5
3B0
100
AcDbEntity
  8
0
100
AcDbSpline
 62
7
  6
CONTINUOUS
 70
0
 71
3
 72
8
 73
4
 74
2
 42
0.0000001
 43
0.0000001
 44
0.0000000001
 12
-0.0368396432
 22
0.0
 32
0.0
 13
-0.0315025567
 23
0.0196691417
 33
0.0
 40
0.0
 40
0.0
 40
0.0
 40
0.0
 40
1.0
 40
1.0
 40
1.0
 40
1.0
 10
104.5575285191
 20
153.1249022495
 30
0.0
 10
104.545248638
 20
153.1249022495
 30
0.0
 10
104.5339918558
 20
153.129053535
 30
0.0
 10
104.5234910036
 20
153.1356099156
 30
0.0
 11
104.5575285191
 21
153.1249022495
 31
0.0
 11
104.5234910036
 21
153.1356099156
 31
0.0
  0
SPLINE
  5
3B1
100
AcDbEntity
  8
0
100
AcDbSpline
 62
7
  6
CONTINUOUS
 70
0
 71
3
 72
24
 73
20
 74
18
 42
0.0000001
 43
0.0000001
 44
0.0000000001
 12
-4.9481853296
 22
3.089481261
 32
0.0
 13
5.78649484
 23
0.0
 33
0.0
 40
0.0
 40
0.0
 40
0.0
 40
0.0
 40
0.0091878535
 40
0.0408708712
 40
0.0874612985
 40
0.1466136116
 40
0.2153190646
 40
0.2915386894
 40
0.3718986818
 40
0.4552724391
 40
0.5391038988
 40
0.6223836204
 40
0.7027001089
 40
0.7788598255
 40
0.8474443564
 40
0.9064261243
 40
0.9528753468
 40
0.9844731861
 40
1.0
 40
1.0
 40
1.0
 40
1.0
 10
104.5234910036
 20
153.1356099156
 30
0.0
 10
104.508336603
 20
153.1450718159
 30
0.0
 10
104.4479278022
 20
153.209444072
 30
0.0
 10
104.3513195619
 20
153.3370605654
 30
0.0
 10
104.2146407587
 20
153.570034313
 30
0.0
 10
104.0662770893
 20
153.8703171512
 30
0.0
 10
103.9181308463
 20
154.236097186
 30
0.0
 10
103.7880176552
 20
154.6510643835
 30
0.0
 10
103.6905223457
 20
155.1043194051
 30
0.0
 10
103.6384428002
 20
155.5798959272
 30
0.0
 10
103.6386806914
 20
156.0640351924
 30
0.0
 10
103.6911577074
 20
156.5392975924
 30
0.0
 10
103.7889178321
 20
156.9921037587
 30
0.0
 10
103.9191726553
 20
157.4065714645
 30
0.0
 10
104.0672604429
 20
157.7716396383
 30
0.0
 10
104.2153830607
 20
158.0711182239
 30
0.0
 10
104.3517459894
 20
158.3033613297
 30
0.0
 10
104.4551530016
 20
158.4398821884
 30
0.0
 10
104.5275799096
 20
158.5149022495
 30
0.0
 10
104.5575285191
 20
158.5149022495
 30
0.0
 11
104.5234910036
 21
153.1356099156
 31
0.0
 11
104.4819479223
 21
153.1737744624
 31
0.0
 11
104.3691969499
 21
153.3183373691
 31
0.0
 11
104.2300922318
 21
153.5492734757
 31
0.0
 11
104.0778100545
 21
153.8558168736
 31
0.0
 11
103.928418677
 21
154.2242448191
 31
0.0
 11
103.7967622724
 21
154.6451804574
 31
0.0
 11
103.6994749183
 21
155.0998920857
 31
0.0
 11
103.6473241055
 21
155.5795069301
 31
0.0
 11
103.6475605478
 21
156.0645971812
 31
0.0
 11
103.700080931
 21
156.5436243023
 31
0.0
 11
103.7976624619
 21
156.9980154186
 31
0.0
 11
103.9294933128
 21
157.418533176
 31
0.0
 11
104.0788243047
 21
157.7862304926
 31
0.0
 11
104.230800216
 21
158.0918240775
 31
0.0
 11
104.3695644833
 21
158.3220113745
 31
0.0
 11
104.4820621214
 21
158.4661467812
 31
0.0
 11
104.5575285191
 21
158.5149022495
 31
0.0
  0
SPLINE
  5
3B2
100
AcDbEntity
  8
0
100
AcDbSpline
 62
7
  6
CONTINUOUS
 70
0
 71
3
 72
23
 73
19
 74
17
 42
0.0000001
 43
0.0000001
 44
0.0000000001
 12
5.8226768569
 22
0.0
 32
0.0
 13
-5.8226768569
 23
0.0
 33
0.0
 40
0.0
 40
0.0
 40
0.0
 40
0.0
 40
0.0166644786
 40
0.0507951847
 40
0.1008139695
 40
0.163941566
 40
0.2375071335
 40
0.319436494
 40
0.4080963941
 40
0.5001812205
 40
0.5921297043
 40
0.6804515568
 40
0.762065015
 40
0.8355306368
 40
0.8987709916
 40
0.9489926239
 40
0.9832777616
 40
1.0
 40
1.0
 40
1.0
 40
1.0
 10
66.6320536728
 20
158.5149022495
 30
0.0
 10
66.6643976307
 20
158.5149022495
 30
0.0
 10
66.7414068302
 20
158.4310048462
 30
0.0
 10
66.8519155902
 20
158.2827279021
 30
0.0
 10
66.996675577
 20
158.029540442
 30
0.0
 10
67.1526007478
 20
157.7043844882
 30
0.0
 10
67.3058706813
 20
157.3074187525
 30
0.0
 10
67.4371884685
 20
156.851594221
 30
0.0
 10
67.5274554147
 20
156.3486914172
 30
0.0
 10
67.5597385827
 20
155.8191103415
 30
0.0
 10
67.527290843
 20
155.2902026348
 30
0.0
 10
67.4372655509
 20
154.7888268406
 30
0.0
 10
67.3065006911
 20
154.3343727364
 30
0.0
 10
67.1536560917
 20
153.9378755817
 30
0.0
 10
66.9977337242
 20
153.6122623278
 30
0.0
 10
66.8526493583
 20
153.3581662382
 30
0.0
 10
66.741769139
 20
153.2092614484
 30
0.0
 10
66.6645097363
 20
153.1249022495
 30
0.0
 10
66.6320536728
 20
153.1249022495
 30
0.0
 11
66.6320536728
 21
158.5149022495
 31
0.0
 11
66.7126310593
 21
158.4608423817
 31
0.0
 11
66.8329317963
 21
158.3026584087
 31
0.0
 11
66.9805227103
 21
158.0515816558
 31
0.0
 11
67.1399761488
 21
157.7203966946
 31
0.0
 11
67.2943261446
 21
157.3208237482
 31
0.0
 11
67.4259269991
 21
156.8622867357
 31
0.0
 11
67.516481917
 21
156.3540531019
 31
0.0
 11
67.5488104435
 21
155.8188484122
 31
0.0
 11
67.5163241561
 21
155.2844486177
 31
0.0
 11
67.4260779137
 21
154.7781593289
 31
0.0
 11
67.2951285799
 21
154.3213490068
 31
0.0
 11
67.1412056278
 21
153.9222350279
 31
0.0
 11
66.981663093
 21
153.5903643451
 31
0.0
 11
66.8336166211
 21
153.3381853719
 31
0.0
 11
66.7128682609
 21
153.1792121643
 31
0.0
 11
66.6320536728
 21
153.1249022495
 31
0.0
  0
SPLINE
  5
3B3
100
AcDbEntity
  8
RUNDUNGEN
100
AcDbSpline
 62
9
  6
CONTINUOUS
 70
0
 71
3
 72
10
 73
6
 74
4
 42
0.0000001
 43
0.0000001
 44
0.0000000001
 12
-0.0000179027
 22
0.6756198515
 32
0.0
 13
0.0691159627
 23
0.6720752694
 33
0.0
 40
0.0
 40
0.0
 40
0.0
 40
0.0
 40
0.3073358552
 40
0.6412220926
 40
1.0
 40
1.0
 40
1.0
 40
1.0
 10
87.4947910959
 20
153.1692110367
 30
0.0
 10
87.4947892619
 20
153.238425105
 30
0.0
 10
87.4984403701
 20
153.3828429248
 30
0.0
 10
87.5128807545
 20
153.607623708
 30
0.0
 10
87.5274143442
 20
153.7629557151
 30
0.0
 10
87.5356801044
 20
153.843330968
 30
0.0
 11
87.4947910959
 21
153.1692110367
 31
0.0
 11
87.4995775827
 21
153.3767980662
 31
0.0
 11
87.5135741676
 21
153.6019435942
 31
0.0
 11
87.5356801044
 21
153.843330968
 31
0.0
  0
SPLINE
  5
3B4
100
AcDbEntity
  8
RUNDUNGEN
100
AcDbSpline
 62
9
  6
CONTINUOUS
 70
0
 71
3
 72
10
 73
6
 74
4
 42
0.0000001
 43
0.0000001
 44
0.0000000001
 12
-0.2025050762
 22
-1.9694112166
 32
0.0
 13
-0.0000234783
 23
-1.9797951523
 33
0.0
 40
0.0
 40
0.0
 40
0.0
 40
0.0
 40
0.327696736
 40
0.6625883893
 40
1.0
 40
1.0
 40
1.0
 40
1.0
 10
108.6539020875
 20
157.796473531
 30
0.0
 10
108.6317820033
 20
157.5813503218
 30
0.0
 10
108.5951176655
 20
157.1455161163
 30
0.0
 10
108.5624475561
 20
156.4862819385
 30
0.0
 10
108.5551899294
 20
156.0425708733
 30
0.0
 10
108.5551872887
 20
155.8199022495
 30
0.0
 11
108.6539020875
 21
157.796473531
 31
0.0
 11
108.5991890787
 21
157.1500122979
 31
0.0
 11
108.5661790217
 21
156.4878176827
 31
0.0
 11
108.5551872887
 21
155.8199022495
 31
0.0
  0
SPLINE
  5
3B5
100
AcDbEntity
  8
RUNDUNGEN
100
AcDbSpline
 62
9
  6
CONTINUOUS
 70
0
 71
3
 72
10
 73
6
 74
4
 42
0.0000001
 43
0.0000001
 44
0.0000000001
 12
0.000021354
 22
-0.6756196025
 32
0.0
 13
-0.0691096537
 23
-0.672075668
 33
0.0
 40
0.0
 40
0.0
 40
0.0
 40
0.0
 40
0.3104460255
 40
0.6461449889
 40
1.0
 40
1.0
 40
1.0
 40
1.0
 10
108.6947910959
 20
158.4705934623
 30
0.0
 10
108.6947933057
 20
158.4006789889
 30
0.0
 10
108.6910760132
 20
158.2551524385
 30
0.0
 10
108.6765435427
 20
158.0303777378
 30
0.0
 10
108.6620536866
 20
157.8757459786
 30
0.0
 10
108.6539020875
 20
157.796473531
 30
0.0
 11
108.6947910959
 21
158.4705934623
 31
0.0
 11
108.6899117836
 21
158.2609068038
 31
0.0
 11
108.6757482208
 21
158.0345446804
 31
0.0
 11
108.6539020875
 21
157.796473531
 31
0.0
  0
SPLINE
  5
3B6
100
AcDbEntity
  8
RUNDUNGEN
100
AcDbSpline
 62
9
  6
CONTINUOUS
 70
0
 71
3
 72
12
 73
8
 74
6
 42
0.0000001
 43
0.0000001
 44
0.0000000001
 12
0.0
 22
-0.9226849506
 32
0.0
 13
0.9226849506
 23
0.0
 33
0.0
 40
0.0
 40
0.0
 40
0.0
 40
0.0
 40
0.2032661663
 40
0.4053147375
 40
0.605336389
 40
0.8033062775
 40
1.0
 40
1.0
 40
1.0
 40
1.0
 10
63.1152356002
 20
150.4199022495
 30
0.0
 10
63.1152356002
 20
150.357385372
 30
0.0
 10
63.1343152967
 20
150.231896294
 30
0.0
 10
63.2175814688
 20
150.0622278786
 30
0.0
 10
63.3477189074
 20
149.9270210768
 30
0.0
 10
63.5120083551
 20
149.8399680321
 30
0.0
 10
63.6342956501
 20
149.8199022495
 30
0.0
 10
63.6947910959
 20
149.8199022495
 30
0.0
 11
63.1152356002
 21
150.4199022495
 31
0.0
 11
63.1435959767
 21
150.2345082667
 31
0.0
 11
63.2259147011
 21
150.0672398611
 31
0.0
 11
63.3541333176
 21
149.9344947645
 31
0.0
 11
63.5156964795
 21
149.8492690525
 31
0.0
 11
63.6947910959
 21
149.8199022495
 31
0.0
  0
SPLINE
  5
3B7
100
AcDbEntity
  8
RUNDUNGEN
100
AcDbSpline
 62
9
  6
CONTINUOUS
 70
0
 71
3
 72
12
 73
8
 74
6
 42
0.0000001
 43
0.0000001
 44
0.0000000001
 12
0.1121568319
 22
-0.7327602848
 32
0.0
 13
0.7319995173
 23
-0.120106941
 33
0.0
 40
0.0
 40
0.0
 40
0.0
 40
0.0
 40
0.1268364615
 40
0.3794641757
 40
0.6295576692
 40
0.8770909001
 40
1.0
 40
1.0
 40
1.0
 40
1.0
 10
66.5815096003
 20
150.3260458377
 30
0.0
 10
66.5862514588
 20
150.2950655971
 30
0.0
 10
66.6074384521
 20
150.2033412831
 30
0.0
 10
66.6766992314
 20
150.0622193355
 30
0.0
 10
66.80683486
 20
149.9270178877
 30
0.0
 10
66.9439391022
 20
149.8543706824
 30
0.0
 10
67.0332565796
 20
149.8322509949
 30
0.0
 10
67.0632463802
 20
149.8273302495
 30
0.0
 11
66.5815096003
 21
150.3260458377
 31
0.0
 11
66.6027120453
 21
150.234492089
 31
0.0
 11
66.6850318231
 21
150.0672311254
 31
0.0
 11
66.8132479241
 21
149.9344920455
 31
0.0
 11
66.9748096153
 21
149.8492683313
 31
0.0
 11
67.0632463802
 21
149.8273302495
 31
0.0
  0
SPLINE
  5
3B8
100
AcDbEntity
  8
RUNDUNGEN
100
AcDbSpline
 62
9
  6
CONTINUOUS
 70
0
 71
3
 72
10
 73
6
 74
4
 42
0.0000001
 43
0.0000001
 44
0.0000000001
 12
-0.2026208821
 22
-2.1677108149
 32
0.0
 13
-0.0000308435
 23
-2.1771599385
 33
0.0
 40
0.0
 40
0.0
 40
0.0
 40
0.0
 40
0.3273028887
 40
0.6625034002
 40
1.0
 40
1.0
 40
1.0
 40
1.0
 10
108.0743465917
 20
157.9941306591
 30
0.0
 10
108.0522404584
 20
157.7576313219
 30
0.0
 10
108.0155657946
 20
157.2781393866
 30
0.0
 10
107.982893152
 20
156.5530534606
 30
0.0
 10
107.9756352628
 20
156.064830275
 30
0.0
 10
107.975631793
 20
155.8199022495
 30
0.0
 11
108.0743465917
 21
157.9941306591
 31
0.0
 11
108.0196711755
 21
157.2836405765
 31
0.0
 11
107.9866233168
 21
156.5546041112
 31
0.0
 11
107.975631793
 21
155.8199022495
 31
0.0
  0
SPLINE
  5
3B9
100
AcDbEntity
  8
RUNDUNGEN
100
AcDbSpline
 62
9
  6
CONTINUOUS
 70
0
 71
3
 72
10
 73
6
 74
4
 42
0.0000001
 43
0.0000001
 44
0.0000000001
 12
0.0691168292
 22
-0.6720752932
 32
0.0
 13
-0.000012735
 23
-0.6756199639
 33
0.0
 40
0.0
 40
0.0
 40
0.0
 40
0.0
 40
0.3597269222
 40
0.6948242921
 40
1.0
 40
1.0
 40
1.0
 40
1.0
 10
108.6539020875
 20
153.843330968
 30
0.0
 10
108.6621898156
 20
153.7627431091
 30
0.0
 10
108.6767643641
 20
153.6069262367
 30
0.0
 10
108.6911734835
 20
153.3821426629
 30
0.0
 10
108.6947923914
 20
153.237938637
 30
0.0
 10
108.6947910959
 20
153.1692110367
 30
0.0
 11
108.6539020875
 21
153.843330968
 31
0.0
 11
108.6760580035
 21
153.6013042746
 31
0.0
 11
108.6900688394
 21
153.3753397529
 31
0.0
 11
108.6947910959
 21
153.1692110367
 31
0.0
  0
SPLINE
  5
3BA
100
AcDbEntity
  8
RUNDUNGEN
100
AcDbSpline
 62
9
  6
CONTINUOUS
 70
0
 71
3
 72
10
 73
6
 74
4
 42
0.0000001
 43
0.0000001
 44
0.0000000001
 12
0.0000280671
 22
-1.9797951629
 32
0.0
 13
0.2025033632
 23
-1.9694114034
 33
0.0
 40
0.0
 40
0.0
 40
0.0
 40
0.0
 40
0.3374489969
 40
0.6723440555
 40
1.0
 40
1.0
 40
1.0
 40
1.0
 10
108.5551872887
 20
155.8199022495
 30
0.0
 10
108.5551904458
 20
155.5972089523
 30
0.0
 10
108.5624480937
 20
155.1534709452
 30
0.0
 10
108.5951215685
 20
154.4942368975
 30
0.0
 10
108.6317849439
 20
154.0584274192
 30
0.0
 10
108.6539020875
 20
153.843330968
 30
0.0
 11
108.5551872887
 21
155.8199022495
 31
0.0
 11
108.5661811962
 21
155.1519128216
 31
0.0
 11
108.5991944574
 21
154.4897116123
 31
0.0
 11
108.6539020875
 21
153.843330968
 31
0.0
  0
SPLINE
  5
3BB
100
AcDbEntity
  8
RUNDUNGEN
100
AcDbSpline
 62
9
  6
CONTINUOUS
 70
0
 71
3
 72
10
 73
6
 74
4
 42
0.0000001
 43
0.0000001
 44
0.0000000001
 12
-0.2026209086
 22
-2.1677108124
 32
0.0
 13
-0.0000309416
 23
-2.1771599385
 33
0.0
 40
0.0
 40
0.0
 40
0.0
 40
0.0
 40
0.3273021841
 40
0.6625034791
 40
1.0
 40
1.0
 40
1.0
 40
1.0
 10
83.0743465917
 20
157.9941306591
 30
0.0
 10
83.0522405031
 20
157.7576318313
 30
0.0
 10
83.0155658202
 20
157.2781398405
 30
0.0
 10
82.9828931543
 20
156.5530539146
 30
0.0
 10
82.9756352739
 20
156.0648302177
 30
0.0
 10
82.975631793
 20
155.8199022495
 30
0.0
 11
83.0743465917
 21
157.9941306591
 31
0.0
 11
83.0196712673
 21
157.283642108
 31
0.0
 11
82.9866233122
 21
156.5546039394
 31
0.0
 11
82.975631793
 21
155.8199022495
 31
0.0
  0
SPLINE
  5
3BC
100
AcDbEntity
  8
RUNDUNGEN
100
AcDbSpline
 62
9
  6
CONTINUOUS
 70
0
 71
3
 72
10
 73
6
 74
4
 42
0.0000001
 43
0.0000001
 44
0.0000000001
 12
0.0000373666
 22
-2.1771599471
 32
0.0
 13
0.2026185607
 23
-2.1677110406
 33
0.0
 40
0.0
 40
0.0
 40
0.0
 40
0.0
 40
0.337448069
 40
0.6727240477
 40
1.0
 40
1.0
 40
1.0
 40
1.0
 10
82.975631793
 20
155.8199022495
 30
0.0
 10
82.9756359961
 20
155.5750094428
 30
0.0
 10
82.9828916095
 20
155.0867667183
 30
0.0
 10
83.0155643522
 20
154.3616806942
 30
0.0
 10
83.0522425309
 20
153.8821537383
 30
0.0
 10
83.0743465917
 20
153.6456738399
 30
0.0
 11
82.975631793
 21
155.8199022495
 31
0.0
 11
82.986619877
 21
155.0853060046
 31
0.0
 11
83.0196747254
 21
154.3561053803
 31
0.0
 11
83.0743465917
 21
153.6456738399
 31
0.0
  0
SPLINE
  5
3BD
100
AcDbEntity
  8
RUNDUNGEN
100
AcDbSpline
 62
9
  6
CONTINUOUS
 70
0
 71
3
 72
12
 73
8
 74
6
 42
0.0000001
 43
0.0000001
 44
0.0000000001
 12
-0.0000002964
 22
-0.7817371254
 32
0.0
 13
0.7817371254
 23
-0.0
 33
0.0
 40
0.0
 40
0.0
 40
0.0
 40
0.0
 40
0.2384195981
 40
0.4636985139
 40
0.6659152891
 40
0.84207664
 40
1.0
 40
1.0
 40
1.0
 40
1.0
 10
68.8909912253
 20
150.4199022495
 30
0.0
 10
68.8909912018
 20
150.3577750991
 30
0.0
 10
68.9030404818
 20
150.2365601838
 30
0.0
 10
68.9562053414
 20
150.0699037332
 30
0.0
 10
69.0402729928
 20
149.9345793164
 30
0.0
 10
69.1499343581
 20
149.8429014287
 30
0.0
 10
69.2378827723
 20
149.8199022495
 30
0.0
 10
69.2790342901
 20
149.8199022495
 30
0.0
 11
68.8909912253
 21
150.4199022495
 31
0.0
 11
68.9099835708
 21
150.2344909872
 31
0.0
 11
68.9651014565
 21
150.0672296332
 31
0.0
 11
69.0509492112
 21
149.9344909297
 31
0.0
 11
69.159123142
 21
149.8492679322
 31
0.0
 11
69.2790342901
 21
149.8199022495
 31
0.0
  0
SPLINE
  5
3BE
100
AcDbEntity
  8
RUNDUNGEN
100
AcDbSpline
 62
9
  6
CONTINUOUS
 70
0
 71
3
 72
10
 73
6
 74
4
 42
0.0000001
 43
0.0000001
 44
0.0000000001
 12
0.00003727
 22
-2.177159947
 32
0.0
 13
0.2026185467
 23
-2.1677110418
 33
0.0
 40
0.0
 40
0.0
 40
0.0
 40
0.0
 40
0.337448304
 40
0.6727230708
 40
1.0
 40
1.0
 40
1.0
 40
1.0
 10
107.975631793
 20
155.8199022495
 30
0.0
 10
107.9756359852
 20
155.5750092723
 30
0.0
 10
107.9828916096
 20
155.0867672566
 30
0.0
 10
108.015564324
 20
154.3616812327
 30
0.0
 10
108.0522424665
 20
153.8821544443
 30
0.0
 10
108.0743465917
 20
153.6456738399
 30
0.0
 11
107.975631793
 21
155.8199022495
 31
0.0
 11
107.9866198931
 21
155.0853054931
 31
0.0
 11
108.019674598
 21
154.3561075035
 31
0.0
 11
108.0743465917
 21
153.6456738399
 31
0.0
  0
SPLINE
  5
3BF
100
AcDbEntity
  8
RUNDUNGEN
100
AcDbSpline
 62
9
  6
CONTINUOUS
 70
0
 71
3
 72
14
 73
10
 74
8
 42
0.0000001
 43
0.0000001
 44
0.0000000001
 12
4.4553074195
 22
-0.0000514955
 32
0.0
 13
4.0746095199
 23
1.8020325926
 33
0.0
 40
0.0
 40
0.0
 40
0.0
 40
0.0
 40
0.0844996557
 40
0.1856225303
 40
0.3050462415
 40
0.4445313275
 40
0.6059803185
 40
0.7918575575
 40
1.0
 40
1.0
 40
1.0
 40
1.0
 10
93.8909912253
 20
150.4199022495
 30
0.0
 10
94.0164818729
 20
150.4199007991
 30
0.0
 10
94.2922158019
 20
150.4415181221
 30
0.0
 10
94.7377929633
 20
150.5265032913
 30
0.0
 10
95.2534903402
 20
150.6694568451
 30
0.0
 10
95.8442203141
 20
150.8721210488
 30
0.0
 10
96.5175563121
 20
151.1357708534
 30
0.0
 10
97.276905836
 20
151.4582480753
 30
0.0
 10
97.81209137
 20
151.6948757611
 30
0.0
 10
98.0947910959
 20
151.8199022495
 30
0.0
 11
93.8909912253
 21
150.4199022495
 31
0.0
 11
94.2665700339
 21
150.4458190825
 31
0.0
 11
94.7097480562
 21
150.5268972512
 31
0.0
 11
95.2232642765
 21
150.6661771172
 31
0.0
 11
95.811922536
 21
150.8653761055
 31
0.0
 11
96.4825589966
 21
151.1254650497
 31
0.0
 11
97.2456991696
 21
151.4470755859
 31
0.0
 11
98.0947910959
 21
151.8199022495
 31
0.0
  0
SPLINE
  5
3C0
100
AcDbEntity
  8
RUNDUNGEN
100
AcDbSpline
 62
9
  6
CONTINUOUS
 70
0
 71
3
 72
12
 73
8
 74
6
 42
0.0000001
 43
0.0000001
 44
0.0000000001
 12
0.0
 22
0.9226849506
 32
0.0
 13
-0.9226849506
 23
-0.0
 33
0.0
 40
0.0
 40
0.0
 40
0.0
 40
0.0
 40
0.2032661663
 40
0.4053147375
 40
0.605336389
 40
0.8033062775
 40
1.0
 40
1.0
 40
1.0
 40
1.0
 10
83.0743465917
 20
161.2199022495
 30
0.0
 10
83.0743465917
 20
161.2824191271
 30
0.0
 10
83.0552668952
 20
161.407908205
 30
0.0
 10
82.9720007231
 20
161.5775766205
 30
0.0
 10
82.8418632845
 20
161.7127834223
 30
0.0
 10
82.6775738368
 20
161.7998364669
 30
0.0
 10
82.5552865418
 20
161.8199022495
 30
0.0
 10
82.4947910959
 20
161.8199022495
 30
0.0
 11
83.0743465917
 21
161.2199022495
 31
0.0
 11
83.0459862152
 21
161.4052962323
 31
0.0
 11
82.9636674908
 21
161.5725646379
 31
0.0
 11
82.8354488743
 21
161.7053097345
 31
0.0
 11
82.6738857124
 21
161.7905354465
 31
0.0
 11
82.4947910959
 21
161.8199022495
 31
0.0
  0
SPLINE
  5
3C1
100
AcDbEntity
  8
RUNDUNGEN
100
AcDbSpline
 62
9
  6
CONTINUOUS
 70
0
 71
3
 72
12
 73
8
 74
6
 42
0.0000001
 43
0.0000001
 44
0.0000000001
 12
-0.1121568319
 22
0.7327602848
 32
0.0
 13
-0.7319995173
 23
0.120106941
 33
0.0
 40
0.0
 40
0.0
 40
0.0
 40
0.0
 40
0.1268364615
 40
0.3794641757
 40
0.6295576692
 40
0.8770909001
 40
1.0
 40
1.0
 40
1.0
 40
1.0
 10
79.6080725916
 20
161.3137586614
 30
0.0
 10
79.6033307331
 20
161.3447389019
 30
0.0
 10
79.5821437398
 20
161.4364632159
 30
0.0
 10
79.5128829605
 20
161.5775851635
 30
0.0
 10
79.3827473319
 20
161.7127866113
 30
0.0
 10
79.2456430897
 20
161.7854338166
 30
0.0
 10
79.1563256123
 20
161.8075535041
 30
0.0
 10
79.1263358117
 20
161.8124742495
 30
0.0
 11
79.6080725916
 21
161.3137586614
 31
0.0
 11
79.5868701465
 21
161.40531241
 31
0.0
 11
79.5045503688
 21
161.5725733736
 31
0.0
 11
79.3763342678
 21
161.7053124536
 31
0.0
 11
79.2147725766
 21
161.7905361678
 31
0.0
 11
79.1263358117
 21
161.8124742495
 31
0.0
  0
SPLINE
  5
3C2
100
AcDbEntity
  8
RUNDUNGEN
100
AcDbSpline
 62
9
  6
CONTINUOUS
 70
0
 71
3
 72
15
 73
11
 74
9
 42
0.0000001
 43
0.0000001
 44
0.0000000001
 12
-3.5752408031
 22
2.4872009292
 32
0.0
 13
-4.355285899
 23
-0.0000122171
 33
0.0
 40
0.0
 40
0.0
 40
0.0
 40
0.0
 40
0.1965482723
 40
0.3700120061
 40
0.5205947218
 40
0.6504290657
 40
0.7614591929
 40
0.8553943102
 40
0.9341180766
 40
1.0
 40
1.0
 40
1.0
 40
1.0
 10
73.0947910959
 20
159.8199022495
 30
0.0
 10
72.8605552949
 20
159.9828539314
 30
0.0
 10
72.4196886481
 20
160.289760518
 30
0.0
 10
71.7926601673
 20
160.7118142772
 30
0.0
 10
71.2353249492
 20
161.0635929805
 30
0.0
 10
70.7415663894
 20
161.3454609733
 30
0.0
 10
70.3049486673
 20
161.559950621
 30
0.0
 10
69.9205486471
 20
161.7097135628
 30
0.0
 10
69.5847464702
 20
161.7979156338
 30
0.0
 10
69.3746872413
 20
161.8199025178
 30
0.0
 10
69.2790423706
 20
161.8199022495
 30
0.0
 11
73.0947910959
 21
159.8199022495
 31
0.0
 11
72.3908311545
 21
160.3069518884
 31
0.0
 11
71.762920338
 21
160.7270522485
 31
0.0
 11
71.2071437929
 21
161.0752281266
 31
0.0
 11
70.7148555251
 21
161.35344334
 31
0.0
 11
70.2795940892
 21
161.5641218677
 31
0.0
 11
69.8972424143
 21
161.7096612114
 31
0.0
 11
69.5647442676
 21
161.7933335138
 31
0.0
 11
69.2790423706
 21
161.8199022495
 31
0.0
  0
SPLINE
  5
3C3
100
AcDbEntity
  8
RUNDUNGEN
100
AcDbSpline
 62
9
  6
CONTINUOUS
 70
0
 71
3
 72
15
 73
11
 74
9
 42
0.0000001
 43
0.0000001
 44
0.0000000001
 12
-4.3552911059
 22
0.0000107983
 32
0.0
 13
-3.5752484906
 23
-2.4871989964
 33
0.0
 40
0.0
 40
0.0
 40
0.0
 40
0.0
 40
0.0656111367
 40
0.1440588884
 40
0.2377544324
 40
0.3486172512
 40
0.4783841259
 40
0.6290495917
 40
0.8028340306
 40
1.0
 40
1.0
 40
1.0
 40
1.0
 10
76.9105407613
 20
161.8199022495
 30
0.0
 10
76.8152888946
 20
161.8199024857
 30
0.0
 10
76.6060231033
 20
161.7980875238
 30
0.0
 10
76.2712641558
 20
161.7104200058
 30
0.0
 10
75.8876811435
 20
161.5612913763
 30
0.0
 10
75.4515572946
 20
161.3473535639
 30
0.0
 10
74.9578770245
 20
161.0657891356
 30
0.0
 10
74.4000465086
 20
160.71387736
 30
0.0
 10
73.7717482878
 20
160.2910520927
 30
0.0
 10
73.3297635408
 20
159.9833659166
 30
0.0
 10
73.0947910959
 20
159.8199022495
 30
0.0
 11
76.9105407613
 21
161.8199022495
 31
0.0
 11
76.62600397
 21
161.7935379289
 31
0.0
 11
76.2946140655
 21
161.7103862785
 31
0.0
 11
75.913133801
 21
161.5654895907
 31
0.0
 11
75.4784051976
 21
161.3553816156
 31
0.0
 11
74.9862580018
 21
161.077512745
 31
0.0
 11
74.430089905
 21
160.7292815851
 31
0.0
 11
73.8009727157
 21
160.3084708759
 31
0.0
 11
73.0947910959
 21
159.8199022495
 31
0.0
  0
SPLINE
  5
3C4
100
AcDbEntity
  8
RUNDUNGEN
100
AcDbSpline
 62
9
  6
CONTINUOUS
 70
0
 71
3
 72
14
 73
10
 74
8
 42
0.0000001
 43
0.0000001
 44
0.0000000001
 12
4.3548783109
 22
-0.0000786647
 32
0.0
 13
3.5749307608
 23
2.4869328829
 33
0.0
 40
0.0
 40
0.0
 40
0.0
 40
0.0
 40
0.0787765868
 40
0.1749015467
 40
0.2912750557
 40
0.4302792611
 40
0.5940328203
 40
0.7848913978
 40
1.0
 40
1.0
 40
1.0
 40
1.0
 10
69.2790869709
 20
149.8199022504
 30
0.0
 10
69.3934411207
 20
149.8199001847
 30
0.0
 10
69.6474131802
 20
149.8515970471
 30
0.0
 10
70.0532854388
 20
149.974316391
 30
0.0
 10
70.5215272558
 20
150.1792700062
 30
0.0
 10
71.0570803943
 20
150.4689309623
 30
0.0
 10
71.6671750278
 20
150.845207167
 30
0.0
 10
72.3548048093
 20
151.3048687907
 30
0.0
 10
72.8384583097
 20
151.6415820308
 30
0.0
 10
73.0947910959
 20
151.8199022495
 30
0.0
 11
69.2790869709
 21
149.8199022504
 31
0.0
 11
69.6201407669
 21
149.8569718132
 31
0.0
 11
70.0224041526
 21
149.9728191096
 31
0.0
 11
70.4884986333
 21
150.1718028853
 31
0.0
 11
71.0227887155
 21
150.4563698746
 31
0.0
 11
71.6314803727
 21
150.8279130522
 31
0.0
 11
72.3241363982
 21
151.2873304551
 31
0.0
 11
73.0947910959
 21
151.8199022495
 31
0.0
  0
SPLINE
  5
3C5
100
AcDbEntity
  8
RUNDUNGEN
100
AcDbSpline
 62
9
  6
CONTINUOUS
 70
0
 71
3
 72
14
 73
10
 74
8
 42
0.0000001
 43
0.0000001
 44
0.0000000001
 12
3.5749555321
 22
-2.4869180121
 32
0.0
 13
4.3548901536
 23
0.0000777566
 33
0.0
 40
0.0
 40
0.0
 40
0.0
 40
0.0
 40
0.2176837993
 40
0.4084757013
 40
0.5718436743
 40
0.7103534951
 40
0.8261774302
 40
0.921738192
 40
1.0
 40
1.0
 40
1.0
 40
1.0
 10
73.0947910959
 20
151.8199022495
 30
0.0
 10
73.3541943968
 20
151.6394483291
 30
0.0
 10
73.8408345303
 20
151.3006477708
 30
0.0
 10
74.5311973085
 20
150.8395206453
 30
0.0
 10
75.1403713894
 20
150.4643613498
 30
0.0
 10
75.6743746033
 20
150.176188211
 30
0.0
 10
76.140720105
 20
149.9727249867
 30
0.0
 10
76.5444788899
 20
149.8512010385
 30
0.0
 10
76.7968886568
 20
149.8199002219
 30
0.0
 10
76.9104958491
 20
149.8199022504
 30
0.0
 11
73.0947910959
 21
151.8199022495
 31
0.0
 11
73.8747170557
 21
151.2810157065
 31
0.0
 11
74.5673081479
 21
150.8220217445
 31
0.0
 11
75.1748172522
 21
150.4517607707
 31
0.0
 11
75.7074793847
 21
150.1687142605
 31
0.0
 11
76.1716082186
 21
149.9712191851
 31
0.0
 11
76.5716475809
 21
149.8565246271
 31
0.0
 11
76.9104958491
 21
149.8199022504
 31
0.0
  0
SPLINE
  5
3C6
100
AcDbEntity
  8
RUNDUNGEN
100
AcDbSpline
 62
9
  6
CONTINUOUS
 70
0
 71
3
 72
12
 73
8
 74
6
 42
0.0000001
 43
0.0000001
 44
0.0000000001
 12
0.0000005942
 22
0.7817371891
 32
0.0
 13
-0.7817371891
 23
0.0
 33
0.0
 40
0.0
 40
0.0
 40
0.0
 40
0.0
 40
0.2384193895
 40
0.4636981982
 40
0.6659149852
 40
0.8420764489
 40
1.0
 40
1.0
 40
1.0
 40
1.0
 10
77.2985909666
 20
161.2199022495
 30
0.0
 10
77.2985910138
 20
161.2820293506
 30
0.0
 10
77.2865417878
 20
161.4032441976
 30
0.0
 10
77.2333770126
 20
161.5699006067
 30
0.0
 10
77.1493093963
 20
161.7052250673
 30
0.0
 10
77.0396479762
 20
161.7969030428
 30
0.0
 10
76.9516994726
 20
161.8199022495
 30
0.0
 10
76.9105479016
 20
161.8199022495
 30
0.0
 11
77.2985909666
 21
161.2199022495
 31
0.0
 11
77.2795987088
 21
161.4053133721
 31
0.0
 11
77.2244809109
 21
161.572574682
 31
0.0
 11
77.1386331903
 21
161.7053134339
 31
0.0
 11
77.0304592024
 21
161.7905365195
 31
0.0
 11
76.9105479016
 21
161.8199022495
 31
0.0
  0
SPLINE
  5
3C7
100
AcDbEntity
  8
RUNDUNGEN
100
AcDbSpline
 62
9
  6
CONTINUOUS
 70
0
 71
3
 72
12
 73
8
 74
6
 42
0.0000001
 43
0.0000001
 44
0.0000000001
 12
0.0000000001
 22
0.7817370515
 32
0.0
 13
0.7817370515
 23
0.0
 33
0.0
 40
0.0
 40
0.0
 40
0.0
 40
0.0
 40
0.2384186356
 40
0.4636971361
 40
0.6659140575
 40
0.842075925
 40
1.0
 40
1.0
 40
1.0
 40
1.0
 10
68.8909912253
 20
161.2199022495
 30
0.0
 10
68.8909912253
 20
161.2820291432
 30
0.0
 10
68.9030404568
 20
161.4032436777
 30
0.0
 10
68.9562050408
 20
161.569899848
 30
0.0
 10
69.0402724581
 20
161.7052244532
 30
0.0
 10
69.1499338596
 20
161.7969028456
 30
0.0
 10
69.23788259
 20
161.8199022495
 30
0.0
 10
69.2790342903
 20
161.8199022495
 30
0.0
 11
68.8909912253
 21
161.2199022495
 31
0.0
 11
68.9099834682
 21
161.4053127482
 31
0.0
 11
68.9651010621
 21
161.572573839
 31
0.0
 11
69.0509486097
 21
161.7053127947
 31
0.0
 11
69.1591226467
 21
161.7905362889
 31
0.0
 11
69.2790342903
 21
161.8199022495
 31
0.0
  0
SPLINE
  5
3C8
100
AcDbEntity
  8
RUNDUNGEN
100
AcDbSpline
 62
9
  6
CONTINUOUS
 70
0
 71
3
 72
15
 73
11
 74
9
 42
0.0000001
 43
0.0000001
 44
0.0000000001
 12
-4.0748091349
 22
1.8020152655
 32
0.0
 13
-4.4554829708
 23
0.0000087248
 33
0.0
 40
0.0
 40
0.0
 40
0.0
 40
0.0
 40
0.1901543778
 40
0.358869306
 40
0.506788062
 40
0.636129398
 40
0.7487326162
 40
0.8460011872
 40
0.9292589267
 40
1.0
 40
1.0
 40
1.0
 40
1.0
 10
98.0947910959
 20
159.8199022495
 30
0.0
 10
97.836510164
 20
159.9341226134
 30
0.0
 10
97.3490507129
 20
160.1496502893
 30
0.0
 10
96.6569800779
 20
160.445612055
 30
0.0
 10
96.042106228
 20
160.6920722893
 30
0.0
 10
95.4975956907
 20
160.8893844627
 30
0.0
 10
95.016400866
 20
161.0393047241
 30
0.0
 10
94.5933922272
 20
161.1436816662
 30
0.0
 10
94.2248350955
 20
161.2048220246
 30
0.0
 10
93.9960531078
 20
161.2199020438
 30
0.0
 10
93.8909912253
 20
161.2199022495
 30
0.0
 11
98.0947910959
 21
159.8199022495
 31
0.0
 11
97.3191954174
 21
160.1608558025
 31
0.0
 11
96.627401648
 21
160.4549374693
 31
0.0
 11
96.0150765025
 21
160.6986671504
 31
0.0
 11
95.4727043731
 21
160.8934206995
 31
0.0
 11
94.993166599
 21
161.0408932073
 31
0.0
 11
94.5719306336
 21
161.142761516
 31
0.0
 11
94.2056287807
 21
161.2013226587
 31
0.0
 11
93.8909912253
 21
161.2199022495
 31
0.0
  0
SPLINE
  5
3C9
100
AcDbEntity
  8
RUNDUNGEN
100
AcDbSpline
 62
9
  6
CONTINUOUS
 70
0
 71
3
 72
15
 73
11
 74
9
 42
0.0000001
 43
0.0000001
 44
0.0000000001
 12
-4.4554848968
 22
-0.0000110943
 32
0.0
 13
-4.0748098907
 23
-1.8020183186
 33
0.0
 40
0.0
 40
0.0
 40
0.0
 40
0.0
 40
0.0704521102
 40
0.153426301
 40
0.2504615623
 40
0.3629123104
 40
0.4922022493
 40
0.6402139957
 40
0.8092468807
 40
1.0
 40
1.0
 40
1.0
 40
1.0
 10
102.2985909666
 20
161.2199022495
 30
0.0
 10
102.1939581957
 20
161.219901989
 30
0.0
 10
101.9660265684
 20
161.2049381552
 30
0.0
 10
101.5986229017
 20
161.1441683882
 30
0.0
 10
101.1765283436
 20
161.0402377872
 30
0.0
 10
100.6958909046
 20
160.8907082824
 30
0.0
 10
100.1514757591
 20
160.693613055
 30
0.0
 10
99.536061504
 20
160.4470629657
 30
0.0
 10
98.8425901678
 20
160.1505608486
 30
0.0
 10
98.3538853283
 20
159.9344824546
 30
0.0
 10
98.0947910959
 20
159.8199022495
 30
0.0
 11
102.2985909666
 21
161.2199022495
 31
0.0
 11
101.9852345719
 21
161.2014653112
 31
0.0
 11
101.6201537685
 21
161.1432683111
 31
0.0
 11
101.199878363
 21
161.0418497879
 31
0.0
 11
100.720928293
 21
160.8947767247
 31
0.0
 11
100.178712142
 21
160.700265743
 31
0.0
 11
99.56595611
 21
160.4564975226
 31
0.0
 11
98.8728339122
 21
160.1619188834
 31
0.0
 11
98.0947910959
 21
159.8199022495
 31
0.0
  0
SPLINE
  5
3CA
100
AcDbEntity
  8
RUNDUNGEN
100
AcDbSpline
 62
9
  6
CONTINUOUS
 70
0
 71
3
 72
15
 73
11
 74
9
 42
0.0000001
 43
0.0000001
 44
0.0000000001
 12
-3.5752408031
 22
2.4872009292
 32
0.0
 13
-4.355285899
 23
-0.0000122171
 33
0.0
 40
0.0
 40
0.0
 40
0.0
 40
0.0
 40
0.1965482713
 40
0.3700120044
 40
0.52059472
 40
0.650429064
 40
0.7614591915
 40
0.8553943093
 40
0.9341180761
 40
1.0
 40
1.0
 40
1.0
 40
1.0
 10
98.0947910959
 20
159.8199022495
 30
0.0
 10
97.8605552961
 20
159.9828539305
 30
0.0
 10
97.4196886512
 20
160.2897605158
 30
0.0
 10
96.7926601726
 20
160.7118142737
 30
0.0
 10
96.2353249555
 20
161.0635929767
 30
0.0
 10
95.7415663957
 20
161.34546097
 30
0.0
 10
95.3049486727
 20
161.5599506187
 30
0.0
 10
94.9205486511
 20
161.7097135615
 30
0.0
 10
94.5847464724
 20
161.7979156335
 30
0.0
 10
94.3746872421
 20
161.8199025178
 30
0.0
 10
94.2790423706
 20
161.8199022495
 30
0.0
 11
98.0947910959
 21
159.8199022495
 31
0.0
 11
97.3908311581
 21
160.3069518859
 31
0.0
 11
96.7629203439
 21
160.7270522447
 31
0.0
 11
96.2071437996
 21
161.0752281226
 31
0.0
 11
95.7148555317
 21
161.3534433365
 31
0.0
 11
95.2795940948
 21
161.5641218653
 31
0.0
 11
94.8972424184
 21
161.7096612101
 31
0.0
 11
94.5647442697
 21
161.7933335134
 31
0.0
 11
94.2790423706
 21
161.8199022495
 31
0.0
  0
SPLINE
  5
3CB
100
AcDbEntity
  8
RUNDUNGEN
100
AcDbSpline
 62
9
  6
CONTINUOUS
 70
0
 71
3
 72
12
 73
8
 74
6
 42
0.0000001
 43
0.0000001
 44
0.0000000001
 12
0.1121568544
 22
0.73276024
 32
0.0
 13
0.7319994728
 23
0.1201069583
 33
0.0
 40
0.0
 40
0.0
 40
0.0
 40
0.0
 40
0.1268364868
 40
0.3794642095
 40
0.6295576562
 40
0.8770908822
 40
1.0
 40
1.0
 40
1.0
 40
1.0
 10
66.581509604
 20
161.3137586853
 30
0.0
 10
66.5862514644
 20
161.3447389302
 30
0.0
 10
66.6074384629
 20
161.4364632463
 30
0.0
 10
66.6766992452
 20
161.5775851787
 30
0.0
 10
66.8068348602
 20
161.7127866073
 30
0.0
 10
66.9439390842
 20
161.7854338091
 30
0.0
 10
67.0332565589
 20
161.8075534997
 30
0.0
 10
67.0632463621
 20
161.8124742465
 30
0.0
 11
66.581509604
 21
161.3137586853
 31
0.0
 11
66.6027120567
 21
161.4053124461
 31
0.0
 11
66.6850318422
 21
161.5725734009
 31
0.0
 11
66.8132479142
 21
161.7053124461
 31
0.0
 11
66.9748095901
 21
161.7905361593
 31
0.0
 11
67.0632463621
 21
161.8124742465
 31
0.0
  0
SPLINE
  5
3CC
100
AcDbEntity
  8
RUNDUNGEN
100
AcDbSpline
 62
9
  6
CONTINUOUS
 70
0
 71
3
 72
12
 73
8
 74
6
 42
0.0000001
 43
0.0000001
 44
0.0000000001
 12
0.0
 22
0.9226849506
 32
0.0
 13
0.9226849506
 23
-0.0
 33
0.0
 40
0.0
 40
0.0
 40
0.0
 40
0.0
 40
0.2032661615
 40
0.4053148024
 40
0.6053363593
 40
0.8033062988
 40
1.0
 40
1.0
 40
1.0
 40
1.0
 10
63.1152356002
 20
161.2199022495
 30
0.0
 10
63.1152356002
 20
161.2824191256
 30
0.0
 10
63.134315299
 20
161.4079082233
 30
0.0
 10
63.2175814762
 20
161.5775766291
 30
0.0
 10
63.3477189219
 20
161.7127834303
 30
0.0
 10
63.5120083529
 20
161.7998364679
 30
0.0
 10
63.6342956566
 20
161.8199022495
 30
0.0
 10
63.6947910959
 20
161.8199022495
 30
0.0
 11
63.1152356002
 21
161.2199022495
 31
0.0
 11
63.1435959753
 21
161.4052962279
 31
0.0
 11
63.2259147359
 21
161.5725646876
 31
0.0
 11
63.3541332955
 21
161.7053097178
 31
0.0
 11
63.5156964984
 21
161.7905354528
 31
0.0
 11
63.6947910959
 21
161.8199022495
 31
0.0
  0
SPLINE
  5
3CD
100
AcDbEntity
  8
RUNDUNGEN
100
AcDbSpline
 62
9
  6
CONTINUOUS
 70
0
 71
3
 72
15
 73
11
 74
9
 42
0.0000001
 43
0.0000001
 44
0.0000000001
 12
-4.3552911058
 22
0.0000107984
 32
0.0
 13
-3.5752484905
 23
-2.4871989964
 33
0.0
 40
0.0
 40
0.0
 40
0.0
 40
0.0
 40
0.0656111373
 40
0.1440588895
 40
0.2377544339
 40
0.3486172531
 40
0.4783841279
 40
0.6290495935
 40
0.8028340317
 40
1.0
 40
1.0
 40
1.0
 40
1.0
 10
101.9105407613
 20
161.8199022495
 30
0.0
 10
101.8152888938
 20
161.8199024857
 30
0.0
 10
101.6060231009
 20
161.7980875235
 30
0.0
 10
101.2712641514
 20
161.7104200044
 30
0.0
 10
100.8876811375
 20
161.5612913736
 30
0.0
 10
100.4515572876
 20
161.3473535601
 30
0.0
 10
99.9578770175
 20
161.0657891313
 30
0.0
 10
99.4000465027
 20
160.713877356
 30
0.0
 10
98.7717482843
 20
160.2910520902
 30
0.0
 10
98.3297635395
 20
159.9833659157
 30
0.0
 10
98.0947910959
 20
159.8199022495
 30
0.0
 11
101.9105407613
 21
161.8199022495
 31
0.0
 11
101.6260039676
 21
161.7935379285
 31
0.0
 11
101.294614061
 21
161.7103862771
 31
0.0
 11
100.9131337948
 21
161.565489588
 31
0.0
 11
100.4784051904
 21
161.3553816118
 31
0.0
 11
99.9862579943
 21
161.0775127406
 31
0.0
 11
99.4300898985
 21
160.7292815808
 31
0.0
 11
98.8009727117
 21
160.3084708732
 31
0.0
 11
98.0947910959
 21
159.8199022495
 31
0.0
  0
SPLINE
  5
3CE
100
AcDbEntity
  8
RUNDUNGEN
100
AcDbSpline
 62
9
  6
CONTINUOUS
 70
0
 71
3
 72
14
 73
10
 74
8
 42
0.0000001
 43
0.0000001
 44
0.0000000001
 12
4.3548783109
 22
-0.0000786648
 32
0.0
 13
3.5749307607
 23
2.486932883
 33
0.0
 40
0.0
 40
0.0
 40
0.0
 40
0.0
 40
0.0787765877
 40
0.1749015487
 40
0.2912750593
 40
0.4302792668
 40
0.5940328287
 40
0.7848914089
 40
1.0
 40
1.0
 40
1.0
 40
1.0
 10
94.2790869709
 20
149.8199022504
 30
0.0
 10
94.3934411219
 20
149.8199001847
 30
0.0
 10
94.6474131843
 20
149.8515970478
 30
0.0
 10
95.0532854477
 20
149.9743163941
 30
0.0
 10
95.5215272706
 20
150.1792700134
 30
0.0
 10
96.0570804166
 20
150.4689309751
 30
0.0
 10
96.6671750585
 20
150.8452071868
 30
0.0
 10
97.3548048324
 20
151.3048688068
 30
0.0
 10
97.8384583229
 20
151.64158204
 30
0.0
 10
98.0947910959
 20
151.8199022495
 30
0.0
 11
94.2790869709
 21
149.8199022504
 31
0.0
 11
94.6201407704
 21
149.8569718139
 31
0.0
 11
95.0224041608
 21
149.9728191125
 31
0.0
 11
95.4884986475
 21
150.1718028922
 31
0.0
 11
96.0227887371
 21
150.456369887
 31
0.0
 11
96.6314804034
 21
150.8279130718
 31
0.0
 11
97.3241364381
 21
151.2873304822
 31
0.0
 11
98.0947910959
 21
151.8199022495
 31
0.0
  0
SPLINE
  5
3CF
100
AcDbEntity
  8
RUNDUNGEN
100
AcDbSpline
 62
9
  6
CONTINUOUS
 70
0
 71
3
 72
14
 73
10
 74
8
 42
0.0000001
 43
0.0000001
 44
0.0000000001
 12
3.574955532
 22
-2.4869180122
 32
0.0
 13
4.3548901535
 23
0.0000777567
 33
0.0
 40
0.0
 40
0.0
 40
0.0
 40
0.0
 40
0.2176837879
 40
0.4084756926
 40
0.5718436682
 40
0.7103534912
 40
0.8261774281
 40
0.9217381911
 40
1.0
 40
1.0
 40
1.0
 40
1.0
 10
98.0947910959
 20
151.8199022495
 30
0.0
 10
98.3541943832
 20
151.6394483385
 30
0.0
 10
98.8408345065
 20
151.3006477874
 30
0.0
 10
99.5311972767
 20
150.8395206658
 30
0.0
 10
100.140371366
 20
150.4643613633
 30
0.0
 10
100.6743745875
 20
150.1761882187
 30
0.0
 10
101.1407200954
 20
149.9727249901
 30
0.0
 10
101.5444788854
 20
149.8512010393
 30
0.0
 10
101.7968886554
 20
149.8199002219
 30
0.0
 10
101.9104958491
 20
149.8199022504
 30
0.0
 11
98.0947910959
 21
151.8199022495
 31
0.0
 11
98.8747170148
 21
151.2810157343
 31
0.0
 11
99.567308116
 21
150.8220217649
 31
0.0
 11
100.1748172294
 21
150.4517607838
 31
0.0
 11
100.7074793695
 21
150.1687142678
 31
0.0
 11
101.1716082097
 21
149.9712191883
 31
0.0
 11
101.571647577
 21
149.8565246279
 31
0.0
 11
101.9104958491
 21
149.8199022504
 31
0.0
  0
SPLINE
  5
3D0
100
AcDbEntity
  8
RUNDUNGEN
100
AcDbSpline
 62
9
  6
CONTINUOUS
 70
0
 71
3
 72
12
 73
8
 74
6
 42
0.0000001
 43
0.0000001
 44
0.0000000001
 12
-0.0000000001
 22
-0.7817370514
 32
0.0
 13
-0.7817370514
 23
0.0
 33
0.0
 40
0.0
 40
0.0
 40
0.0
 40
0.0
 40
0.2384186321
 40
0.4636971307
 40
0.6659140523
 40
0.8420759218
 40
1.0
 40
1.0
 40
1.0
 40
1.0
 10
102.2985909666
 20
150.4199022495
 30
0.0
 10
102.2985909666
 20
150.3577753567
 30
0.0
 10
102.2865417355
 20
150.2365608236
 30
0.0
 10
102.2333771526
 20
150.0699046545
 30
0.0
 10
102.1493097363
 20
149.9345800487
 30
0.0
 10
102.0396483345
 20
149.8429016543
 30
0.0
 10
101.9516996027
 20
149.8199022495
 30
0.0
 10
101.9105479016
 20
149.8199022495
 30
0.0
 11
102.2985909666
 21
150.4199022495
 31
0.0
 11
102.2795987242
 21
150.2344917535
 31
0.0
 11
102.2244811316
 21
150.0672306639
 31
0.0
 11
102.1386335849
 21
149.9344917074
 31
0.0
 11
102.0304595475
 21
149.8492682112
 31
0.0
 11
101.9105479016
 21
149.8199022495
 31
0.0
  0
SPLINE
  5
3D1
100
AcDbEntity
  8
RUNDUNGEN
100
AcDbSpline
 62
9
  6
CONTINUOUS
 70
0
 71
3
 72
12
 73
8
 74
6
 42
0.0000001
 43
0.0000001
 44
0.0000000001
 12
-0.1121568544
 22
-0.73276024
 32
0.0
 13
-0.7319994728
 23
-0.1201069583
 33
0.0
 40
0.0
 40
0.0
 40
0.0
 40
0.0
 40
0.1268364868
 40
0.3794642095
 40
0.6295576562
 40
0.8770908822
 40
1.0
 40
1.0
 40
1.0
 40
1.0
 10
104.6080725879
 20
150.3260458137
 30
0.0
 10
104.6033307275
 20
150.2950655688
 30
0.0
 10
104.5821437289
 20
150.2033412527
 30
0.0
 10
104.5128829467
 20
150.0622193203
 30
0.0
 10
104.3827473317
 20
149.9270178917
 30
0.0
 10
104.2456431077
 20
149.85437069
 30
0.0
 10
104.156325633
 20
149.8322509993
 30
0.0
 10
104.1263358298
 20
149.8273302526
 30
0.0
 11
104.6080725879
 21
150.3260458137
 31
0.0
 11
104.5868701352
 21
150.2344920529
 31
0.0
 11
104.5045503497
 21
150.0672310981
 31
0.0
 11
104.3763342777
 21
149.9344920529
 31
0.0
 11
104.2147726018
 21
149.8492683397
 31
0.0
 11
104.1263358298
 21
149.8273302526
 31
0.0
  0
SPLINE
  5
3D2
100
AcDbEntity
  8
RUNDUNGEN
100
AcDbSpline
 62
9
  6
CONTINUOUS
 70
0
 71
3
 72
12
 73
8
 74
6
 42
0.0000001
 43
0.0000001
 44
0.0000000001
 12
-0.1259417377
 22
-0.8229233586
 32
0.0
 13
-0.8287250008
 23
0.0
 33
0.0
 40
0.0
 40
0.0
 40
0.0
 40
0.0
 40
0.1129333353
 40
0.337890034
 40
0.56058982
 40
0.7810053784
 40
1.0
 40
1.0
 40
1.0
 40
1.0
 10
108.0671853232
 20
150.3260571133
 30
0.0
 10
108.0624443164
 20
150.2950786201
 30
0.0
 10
108.0412593744
 20
150.2033536739
 30
0.0
 10
107.9720007157
 20
150.0622278699
 30
0.0
 10
107.84186327
 20
149.9270210687
 30
0.0
 10
107.677573839
 20
149.8399680312
 30
0.0
 10
107.5552865353
 20
149.8199022495
 30
0.0
 10
107.4947910959
 20
149.8199022495
 30
0.0
 11
108.0671853232
 21
150.3260571133
 31
0.0
 11
108.0459862166
 21
150.2345082711
 31
0.0
 11
107.963667456
 21
150.0672398115
 31
0.0
 11
107.8354488964
 21
149.9344947812
 31
0.0
 11
107.6738856935
 21
149.8492690462
 31
0.0
 11
107.4947910959
 21
149.8199022495
 31
0.0
  0
SPLINE
  5
3D3
100
AcDbEntity
  8
RUNDUNGEN
100
AcDbSpline
 62
9
  6
CONTINUOUS
 70
0
 71
3
 72
10
 73
6
 74
4
 42
0.0000001
 43
0.0000001
 44
0.0000000001
 12
0.2026185669
 22
2.1677110399
 32
0.0
 13
0.0000372617
 23
2.1771599469
 33
0.0
 40
0.0
 40
0.0
 40
0.0
 40
0.0
 40
0.3272769296
 40
0.662551696
 40
1.0
 40
1.0
 40
1.0
 40
1.0
 10
88.1152356002
 20
153.6456738399
 30
0.0
 10
88.1373397277
 20
153.8821544444
 30
0.0
 10
88.1740178648
 20
154.3616812332
 30
0.0
 10
88.2066905825
 20
155.0867672569
 30
0.0
 10
88.2139462076
 20
155.5750092723
 30
0.0
 10
88.2139503989
 20
155.8199022495
 30
0.0
 11
88.1152356002
 21
153.6456738399
 31
0.0
 11
88.1699075928
 21
154.3561075046
 31
0.0
 11
88.2029622986
 21
155.0853054932
 31
0.0
 11
88.2139503989
 21
155.8199022495
 31
0.0
  0
SPLINE
  5
3D4
100
AcDbEntity
  8
RUNDUNGEN
100
AcDbSpline
 62
9
  6
CONTINUOUS
 70
0
 71
3
 72
10
 73
6
 74
4
 42
0.0000001
 43
0.0000001
 44
0.0000000001
 12
-0.0000308427
 22
2.1771599385
 32
0.0
 13
-0.2026208629
 23
2.1677108167
 33
0.0
 40
0.0
 40
0.0
 40
0.0
 40
0.0
 40
0.3374965998
 40
0.6726971117
 40
1.0
 40
1.0
 40
1.0
 40
1.0
 10
88.2139503989
 20
155.8199022495
 30
0.0
 10
88.2139469292
 20
156.064830275
 30
0.0
 10
88.2066890387
 20
156.5530534609
 30
0.0
 10
88.1740164007
 20
157.2781393871
 30
0.0
 10
88.1373417314
 20
157.7576313221
 30
0.0
 10
88.1152356002
 20
157.9941306591
 30
0.0
 11
88.2139503989
 21
155.8199022495
 31
0.0
 11
88.202958875
 21
156.5546041111
 31
0.0
 11
88.1699110176
 21
157.2836405776
 31
0.0
 11
88.1152356002
 21
157.9941306591
 31
0.0
  0
SPLINE
  5
3D5
100
AcDbEntity
  8
RUNDUNGEN
100
AcDbSpline
 62
9
  6
CONTINUOUS
 70
0
 71
3
 72
10
 73
6
 74
4
 42
0.0000001
 43
0.0000001
 44
0.0000000001
 12
0.2026185809
 22
2.1677110386
 32
0.0
 13
0.0000373582
 23
2.177159947
 33
0.0
 40
0.0
 40
0.0
 40
0.0
 40
0.0
 40
0.3272759527
 40
0.662551931
 40
1.0
 40
1.0
 40
1.0
 40
1.0
 10
63.1152356002
 20
153.6456738399
 30
0.0
 10
63.1373396632
 20
153.8821537384
 30
0.0
 10
63.1740178367
 20
154.3616806948
 30
0.0
 10
63.2066905827
 20
155.0867667186
 30
0.0
 10
63.2139461968
 20
155.5750094428
 30
0.0
 10
63.2139503989
 20
155.8199022495
 30
0.0
 11
63.1152356002
 21
153.6456738399
 31
0.0
 11
63.1699074653
 21
154.3561053813
 31
0.0
 11
63.2029623148
 21
155.0853060046
 31
0.0
 11
63.2139503989
 21
155.8199022495
 31
0.0
  0
SPLINE
  5
3D6
100
AcDbEntity
  8
RUNDUNGEN
100
AcDbSpline
 62
9
  6
CONTINUOUS
 70
0
 71
3
 72
10
 73
6
 74
4
 42
0.0000001
 43
0.0000001
 44
0.0000000001
 12
-0.0000309409
 22
2.1771599386
 32
0.0
 13
-0.2026208893
 23
2.1677108143
 33
0.0
 40
0.0
 40
0.0
 40
0.0
 40
0.0
 40
0.3374965208
 40
0.6726978163
 40
1.0
 40
1.0
 40
1.0
 40
1.0
 10
63.2139503989
 20
155.8199022495
 30
0.0
 10
63.2139469181
 20
156.0648302177
 30
0.0
 10
63.2066890363
 20
156.5530539149
 30
0.0
 10
63.1740163751
 20
157.278139841
 30
0.0
 10
63.1373416867
 20
157.7576318314
 30
0.0
 10
63.1152356002
 20
157.9941306591
 30
0.0
 11
63.2139503989
 21
155.8199022495
 31
0.0
 11
63.2029588796
 21
156.5546039393
 31
0.0
 11
63.1699109258
 21
157.2836421091
 31
0.0
 11
63.1152356002
 21
157.9941306591
 31
0.0
  0
SPLINE
  5
3D7
100
AcDbEntity
  8
RUNDUNGEN
100
AcDbSpline
 62
9
  6
CONTINUOUS
 70
0
 71
3
 72
10
 73
6
 74
4
 42
0.0000001
 43
0.0000001
 44
0.0000000001
 12
-0.0691096906
 22
0.6720757783
 32
0.0
 13
0.000015771
 23
0.6756197161
 33
0.0
 40
0.0
 40
0.0
 40
0.0
 40
0.0
 40
0.3545919692
 40
0.6917085154
 40
1.0
 40
1.0
 40
1.0
 40
1.0
 10
87.5356801044
 20
157.796473531
 30
0.0
 10
87.527511524
 20
157.8759110889
 30
0.0
 10
87.5129795322
 20
158.0310262919
 30
0.0
 10
87.4984757049
 20
158.2558036876
 30
0.0
 10
87.4947894753
 20
158.4011641939
 30
0.0
 10
87.4947910959
 20
158.4705934623
 30
0.0
 11
87.5356801044
 21
157.796473531
 31
0.0
 11
87.5137948435
 21
158.0350411255
 31
0.0
 11
87.4996058453
 21
158.2623613129
 31
0.0
 11
87.4947910959
 21
158.4705934623
 31
0.0
  0
SPLINE
  5
3D8
100
AcDbEntity
  8
RUNDUNGEN
100
AcDbSpline
 62
9
  6
CONTINUOUS
 70
0
 71
3
 72
10
 73
6
 74
4
 42
0.0000001
 43
0.0000001
 44
0.0000000001
 12
-0.0000234729
 22
1.9797951524
 32
0.0
 13
-0.2025050629
 23
1.969411218
 33
0.0
 40
0.0
 40
0.0
 40
0.0
 40
0.0
 40
0.3374116107
 40
0.672303264
 40
1.0
 40
1.0
 40
1.0
 40
1.0
 10
87.6343949032
 20
155.8199022495
 30
0.0
 10
87.6343922632
 20
156.0425708733
 30
0.0
 10
87.6271346343
 20
156.4862819384
 30
0.0
 10
87.5944645295
 20
157.1455161165
 30
0.0
 10
87.5578001871
 20
157.5813503217
 30
0.0
 10
87.5356801044
 20
157.796473531
 30
0.0
 11
87.6343949032
 21
155.8199022495
 31
0.0
 11
87.62340317
 21
156.4878176827
 31
0.0
 11
87.5903931145
 21
157.150012298
 31
0.0
 11
87.5356801044
 21
157.796473531
 31
0.0
  0
SPLINE
  5
3D9
100
AcDbEntity
  8
RUNDUNGEN
100
AcDbSpline
 62
9
  6
CONTINUOUS
 70
0
 71
3
 72
12
 73
8
 74
6
 42
0.0000001
 43
0.0000001
 44
0.0000000001
 12
0.0
 22
-0.9226849506
 32
0.0
 13
0.9226849506
 23
0.0
 33
0.0
 40
0.0
 40
0.0
 40
0.0
 40
0.0
 40
0.2032661663
 40
0.4053147375
 40
0.605336389
 40
0.8033062775
 40
1.0
 40
1.0
 40
1.0
 40
1.0
 10
88.1152356002
 20
150.4199022495
 30
0.0
 10
88.1152356002
 20
150.357385372
 30
0.0
 10
88.1343152967
 20
150.231896294
 30
0.0
 10
88.2175814688
 20
150.0622278786
 30
0.0
 10
88.3477189074
 20
149.9270210768
 30
0.0
 10
88.5120083551
 20
149.8399680321
 30
0.0
 10
88.6342956501
 20
149.8199022495
 30
0.0
 10
88.6947910959
 20
149.8199022495
 30
0.0
 11
88.1152356002
 21
150.4199022495
 31
0.0
 11
88.1435959767
 21
150.2345082667
 31
0.0
 11
88.2259147011
 21
150.0672398611
 31
0.0
 11
88.3541333176
 21
149.9344947645
 31
0.0
 11
88.5156964795
 21
149.8492690525
 31
0.0
 11
88.6947910959
 21
149.8199022495
 31
0.0
  0
SPLINE
  5
3DA
100
AcDbEntity
  8
RUNDUNGEN
100
AcDbSpline
 62
9
  6
CONTINUOUS
 70
0
 71
3
 72
12
 73
8
 74
6
 42
0.0000001
 43
0.0000001
 44
0.0000000001
 12
0.1121568319
 22
-0.7327602848
 32
0.0
 13
0.7319995173
 23
-0.1201069409
 33
0.0
 40
0.0
 40
0.0
 40
0.0
 40
0.0
 40
0.1268364615
 40
0.3794641757
 40
0.6295576692
 40
0.8770909001
 40
1.0
 40
1.0
 40
1.0
 40
1.0
 10
91.5815096003
 20
150.3260458377
 30
0.0
 10
91.5862514588
 20
150.2950655971
 30
0.0
 10
91.6074384521
 20
150.2033412831
 30
0.0
 10
91.6766992314
 20
150.0622193355
 30
0.0
 10
91.80683486
 20
149.9270178877
 30
0.0
 10
91.9439391022
 20
149.8543706824
 30
0.0
 10
92.0332565796
 20
149.8322509949
 30
0.0
 10
92.0632463802
 20
149.8273302495
 30
0.0
 11
91.5815096003
 21
150.3260458377
 31
0.0
 11
91.6027120453
 21
150.234492089
 31
0.0
 11
91.6850318231
 21
150.0672311254
 31
0.0
 11
91.8132479241
 21
149.9344920455
 31
0.0
 11
91.9748096153
 21
149.8492683313
 31
0.0
 11
92.0632463802
 21
149.8273302495
 31
0.0
  0
SPLINE
  5
3DB
100
AcDbEntity
  8
RUNDUNGEN
100
AcDbSpline
 62
9
  6
CONTINUOUS
 70
0
 71
3
 72
10
 73
6
 74
4
 42
0.0000001
 43
0.0000001
 44
0.0000000001
 12
-0.0691091079
 22
0.6720758333
 32
0.0
 13
0.0000155841
 23
0.6756197113
 33
0.0
 40
0.0
 40
0.0
 40
0.0
 40
0.0
 40
0.3544319186
 40
0.6916464801
 40
1.0
 40
1.0
 40
1.0
 40
1.0
 10
62.5356801044
 20
157.796473531
 30
0.0
 10
62.5275152798
 20
157.87587524
 30
0.0
 10
62.5129837456
 20
158.030976425
 30
0.0
 10
62.498477375
 20
158.2557536738
 30
0.0
 10
62.4947894941
 20
158.4011502236
 30
0.0
 10
62.4947910959
 20
158.4705934623
 30
0.0
 11
62.5356801044
 21
157.796473531
 31
0.0
 11
62.5138032564
 21
158.0349333081
 31
0.0
 11
62.4996076834
 21
158.2623194334
 31
0.0
 11
62.4947910959
 21
158.4705934623
 31
0.0
  0
SPLINE
  5
3DC
100
AcDbEntity
  8
RUNDUNGEN
100
AcDbSpline
 62
9
  6
CONTINUOUS
 70
0
 71
3
 72
10
 73
6
 74
4
 42
0.0000001
 43
0.0000001
 44
0.0000000001
 12
-0.0000235449
 22
1.9797951524
 32
0.0
 13
-0.2025050964
 23
1.9694112145
 33
0.0
 40
0.0
 40
0.0
 40
0.0
 40
0.0
 40
0.3374117246
 40
0.672303307
 40
1.0
 40
1.0
 40
1.0
 40
1.0
 10
62.6343949032
 20
155.8199022495
 30
0.0
 10
62.6343922551
 20
156.0425709484
 30
0.0
 10
62.6271346337
 20
156.4862820419
 30
0.0
 10
62.5944645216
 20
157.1455162198
 30
0.0
 10
62.5578001879
 20
157.5813503503
 30
0.0
 10
62.5356801044
 20
157.796473531
 30
0.0
 11
62.6343949032
 21
155.8199022495
 31
0.0
 11
62.6234031619
 21
156.487817908
 31
0.0
 11
62.5903931102
 21
157.1500123831
 31
0.0
 11
62.5356801044
 21
157.796473531
 31
0.0
  0
SPLINE
  5
3DD
100
AcDbEntity
  8
RUNDUNGEN
100
AcDbSpline
 62
9
  6
CONTINUOUS
 70
0
 71
3
 72
10
 73
6
 74
4
 42
0.0000001
 43
0.0000001
 44
0.0000000001
 12
-0.2025051098
 22
-1.9694112131
 32
0.0
 13
-0.0000235502
 23
-1.9797951524
 33
0.0
 40
0.0
 40
0.0
 40
0.0
 40
0.0
 40
0.327696693
 40
0.6625882754
 40
1.0
 40
1.0
 40
1.0
 40
1.0
 10
83.6539020875
 20
157.796473531
 30
0.0
 10
83.6317820026
 20
157.5813503504
 30
0.0
 10
83.5951176735
 20
157.1455162196
 30
0.0
 10
83.5624475568
 20
156.486282042
 30
0.0
 10
83.5551899374
 20
156.0425709484
 30
0.0
 10
83.5551872887
 20
155.8199022495
 30
0.0
 11
83.6539020875
 21
157.796473531
 31
0.0
 11
83.599189083
 21
157.150012383
 31
0.0
 11
83.5661790298
 21
156.487817908
 31
0.0
 11
83.5551872887
 21
155.8199022495
 31
0.0
  0
SPLINE
  5
3DE
100
AcDbEntity
  8
RUNDUNGEN
100
AcDbSpline
 62
9
  6
CONTINUOUS
 70
0
 71
3
 72
10
 73
6
 74
4
 42
0.0000001
 43
0.0000001
 44
0.0000000001
 12
0.2025034022
 22
1.9694113994
 32
0.0
 13
0.000028135
 23
1.9797951629
 33
0.0
 40
0.0
 40
0.0
 40
0.0
 40
0.0
 40
0.3276556671
 40
0.662550729
 40
1.0
 40
1.0
 40
1.0
 40
1.0
 10
62.5356801044
 20
153.843330968
 30
0.0
 10
62.5577972335
 20
154.0584272367
 30
0.0
 10
62.5944605939
 20
154.4942365345
 30
0.0
 10
62.6271340944
 20
155.1534705811
 30
0.0
 10
62.6343917385
 20
155.5972087713
 30
0.0
 10
62.6343949032
 20
155.8199022495
 30
0.0
 11
62.5356801044
 21
153.843330968
 31
0.0
 11
62.5903876983
 21
154.4897110643
 31
0.0
 11
62.6234009784
 21
155.151912279
 31
0.0
 11
62.6343949032
 21
155.8199022495
 31
0.0
  0
SPLINE
  5
3DF
100
AcDbEntity
  8
RUNDUNGEN
100
AcDbSpline
 62
9
  6
CONTINUOUS
 70
0
 71
3
 72
10
 73
6
 74
4
 42
0.0000001
 43
0.0000001
 44
0.0000000001
 12
-0.0000178308
 22
0.6756198461
 32
0.0
 13
0.069115468
 23
0.6720753148
 33
0.0
 40
0.0
 40
0.0
 40
0.0
 40
0.0
 40
0.3074028664
 40
0.6413819271
 40
1.0
 40
1.0
 40
1.0
 40
1.0
 10
62.4947910959
 20
153.1692110367
 30
0.0
 10
62.4947892689
 20
153.2384401958
 30
0.0
 10
62.4984420884
 20
153.3828940115
 30
0.0
 10
62.5128851127
 20
153.6076746386
 30
0.0
 10
62.5274180858
 20
153.7629915166
 30
0.0
 10
62.5356801044
 20
153.843330968
 30
0.0
 11
62.4947910959
 21
153.1692110367
 31
0.0
 11
62.4995795664
 21
153.3768433049
 31
0.0
 11
62.513582555
 21
153.6020512674
 31
0.0
 11
62.5356801044
 21
153.843330968
 31
0.0
  0
SPLINE
  5
3E0
100
AcDbEntity
  8
RUNDUNGEN
100
AcDbSpline
 62
9
  6
CONTINUOUS
 70
0
 71
3
 72
12
 73
8
 74
6
 42
0.0000001
 43
0.0000001
 44
0.0000000001
 12
-0.0000000001
 22
-0.7817370514
 32
0.0
 13
-0.7817370514
 23
0.0
 33
0.0
 40
0.0
 40
0.0
 40
0.0
 40
0.0
 40
0.2384186321
 40
0.4636971307
 40
0.6659140523
 40
0.8420759218
 40
1.0
 40
1.0
 40
1.0
 40
1.0
 10
77.2985909666
 20
150.4199022495
 30
0.0
 10
77.2985909666
 20
150.3577753567
 30
0.0
 10
77.2865417355
 20
150.2365608236
 30
0.0
 10
77.2333771526
 20
150.0699046545
 30
0.0
 10
77.1493097363
 20
149.9345800487
 30
0.0
 10
77.0396483345
 20
149.8429016543
 30
0.0
 10
76.9516996027
 20
149.8199022495
 30
0.0
 10
76.9105479016
 20
149.8199022495
 30
0.0
 11
77.2985909666
 21
150.4199022495
 31
0.0
 11
77.2795987242
 21
150.2344917535
 31
0.0
 11
77.2244811316
 21
150.0672306639
 31
0.0
 11
77.1386335849
 21
149.9344917074
 31
0.0
 11
77.0304595475
 21
149.8492682112
 31
0.0
 11
76.9105479016
 21
149.8199022495
 31
0.0
  0
SPLINE
  5
3E1
100
AcDbEntity
  8
RUNDUNGEN
100
AcDbSpline
 62
9
  6
CONTINUOUS
 70
0
 71
3
 72
12
 73
8
 74
6
 42
0.0000001
 43
0.0000001
 44
0.0000000001
 12
-0.0000002964
 22
-0.7817371254
 32
0.0
 13
0.7817371254
 23
-0.0
 33
0.0
 40
0.0
 40
0.0
 40
0.0
 40
0.0
 40
0.2384195981
 40
0.4636985139
 40
0.6659152891
 40
0.84207664
 40
1.0
 40
1.0
 40
1.0
 40
1.0
 10
93.8909912253
 20
150.4199022495
 30
0.0
 10
93.8909912018
 20
150.3577750991
 30
0.0
 10
93.9030404818
 20
150.2365601838
 30
0.0
 10
93.9562053414
 20
150.0699037332
 30
0.0
 10
94.0402729928
 20
149.9345793164
 30
0.0
 10
94.1499343581
 20
149.8429014287
 30
0.0
 10
94.2378827723
 20
149.8199022495
 30
0.0
 10
94.2790342901
 20
149.8199022495
 30
0.0
 11
93.8909912253
 21
150.4199022495
 31
0.0
 11
93.9099835708
 21
150.2344909872
 31
0.0
 11
93.9651014565
 21
150.0672296332
 31
0.0
 11
94.0509492112
 21
149.9344909297
 31
0.0
 11
94.159123142
 21
149.8492679322
 31
0.0
 11
94.2790342901
 21
149.8199022495
 31
0.0
  0
SPLINE
  5
3E2
100
AcDbEntity
  8
RUNDUNGEN
100
AcDbSpline
 62
9
  6
CONTINUOUS
 70
0
 71
3
 72
10
 73
6
 74
4
 42
0.0000001
 43
0.0000001
 44
0.0000000001
 12
0.0000213624
 22
-0.6756195968
 32
0.0
 13
-0.0691091151
 23
-0.6720757176
 33
0.0
 40
0.0
 40
0.0
 40
0.0
 40
0.0
 40
0.3105196442
 40
0.6462976802
 40
1.0
 40
1.0
 40
1.0
 40
1.0
 10
83.6947910959
 20
158.4705934623
 30
0.0
 10
83.6947933071
 20
158.40066241
 30
0.0
 10
83.6910742207
 20
158.2551014732
 30
0.0
 10
83.6765392161
 20
158.0303269282
 30
0.0
 10
83.6620501056
 20
157.8757117778
 30
0.0
 10
83.6539020875
 20
157.796473531
 30
0.0
 11
83.6947910959
 21
158.4705934623
 31
0.0
 11
83.6899095799
 21
158.2608571052
 31
0.0
 11
83.6757401837
 21
158.0344418212
 31
0.0
 11
83.6539020875
 21
157.796473531
 31
0.0
  0
SPLINE
  5
3E3
100
AcDbEntity
  8
RUNDUNGEN
100
AcDbSpline
 62
9
  6
CONTINUOUS
 70
0
 71
3
 72
14
 73
10
 74
8
 42
0.0000001
 43
0.0000001
 44
0.0000000001
 12
4.0746139543
 22
-1.8020354069
 32
0.0
 13
4.4553126132
 23
0.0000519897
 33
0.0
 40
0.0
 40
0.0
 40
0.0
 40
0.0
 40
0.2106399911
 40
0.3964761155
 40
0.5575792553
 40
0.6966060848
 40
0.8154991032
 40
0.9160481149
 40
1.0
 40
1.0
 40
1.0
 40
1.0
 10
98.0947910959
 20
151.8199022495
 30
0.0
 10
98.3808833117
 20
151.6933753421
 30
0.0
 10
98.9194054213
 20
151.4552699066
 30
0.0
 10
99.6817339654
 20
151.1317823724
 30
0.0
 10
100.3540346563
 20
150.8689252581
 30
0.0
 10
100.9430314696
 20
150.6673123363
 30
0.0
 10
101.4566105739
 20
150.5254082263
 30
0.0
 10
101.8998445646
 20
150.4412527352
 30
0.0
 10
102.1739136691
 20
150.4199007946
 30
0.0
 10
102.2985909666
 20
150.4199022495
 30
0.0
 11
98.0947910959
 21
151.8199022495
 31
0.0
 11
98.9540962485
 21
151.442655669
 31
0.0
 11
99.7171637669
 21
151.1213420215
 31
0.0
 11
100.3864965265
 21
150.8621508991
 31
0.0
 11
100.973360216
 21
150.6640164382
 31
0.0
 11
101.4847096968
 21
150.5257786225
 31
0.0
 11
101.9254365089
 21
150.4455070807
 31
0.0
 11
102.2985909666
 21
150.4199022495
 31
0.0
  0
SPLINE
  5
3E4
100
AcDbEntity
  8
RUNDUNGEN
100
AcDbSpline
 62
9
  6
CONTINUOUS
 70
0
 71
3
 72
12
 73
8
 74
6
 42
0.0000001
 43
0.0000001
 44
0.0000000001
 12
0.0
 22
0.9226849506
 32
0.0
 13
-0.9226849506
 23
-0.0
 33
0.0
 40
0.0
 40
0.0
 40
0.0
 40
0.0
 40
0.2032661663
 40
0.4053147375
 40
0.605336389
 40
0.8033062775
 40
1.0
 40
1.0
 40
1.0
 40
1.0
 10
108.0743465917
 20
161.2199022495
 30
0.0
 10
108.0743465917
 20
161.2824191271
 30
0.0
 10
108.0552668952
 20
161.407908205
 30
0.0
 10
107.9720007231
 20
161.5775766205
 30
0.0
 10
107.8418632845
 20
161.7127834223
 30
0.0
 10
107.6775738368
 20
161.7998364669
 30
0.0
 10
107.5552865418
 20
161.8199022495
 30
0.0
 10
107.4947910959
 20
161.8199022495
 30
0.0
 11
108.0743465917
 21
161.2199022495
 31
0.0
 11
108.0459862152
 21
161.4052962323
 31
0.0
 11
107.9636674908
 21
161.5725646379
 31
0.0
 11
107.8354488743
 21
161.7053097345
 31
0.0
 11
107.6738857124
 21
161.7905354465
 31
0.0
 11
107.4947910959
 21
161.8199022495
 31
0.0
  0
SPLINE
  5
3E5
100
AcDbEntity
  8
RUNDUNGEN
100
AcDbSpline
 62
9
  6
CONTINUOUS
 70
0
 71
3
 72
12
 73
8
 74
6
 42
0.0000001
 43
0.0000001
 44
0.0000000001
 12
-0.1121568544
 22
-0.73276024
 32
0.0
 13
-0.7319994728
 23
-0.1201069583
 33
0.0
 40
0.0
 40
0.0
 40
0.0
 40
0.0
 40
0.1268364868
 40
0.3794642095
 40
0.6295576562
 40
0.8770908822
 40
1.0
 40
1.0
 40
1.0
 40
1.0
 10
79.6080725879
 20
150.3260458137
 30
0.0
 10
79.6033307275
 20
150.2950655688
 30
0.0
 10
79.5821437289
 20
150.2033412527
 30
0.0
 10
79.5128829467
 20
150.0622193203
 30
0.0
 10
79.3827473317
 20
149.9270178917
 30
0.0
 10
79.2456431077
 20
149.85437069
 30
0.0
 10
79.156325633
 20
149.8322509993
 30
0.0
 10
79.1263358298
 20
149.8273302526
 30
0.0
 11
79.6080725879
 21
150.3260458137
 31
0.0
 11
79.5868701352
 21
150.2344920529
 31
0.0
 11
79.5045503497
 21
150.0672310981
 31
0.0
 11
79.3763342777
 21
149.9344920529
 31
0.0
 11
79.2147726018
 21
149.8492683397
 31
0.0
 11
79.1263358298
 21
149.8273302526
 31
0.0
  0
SPLINE
  5
3E6
100
AcDbEntity
  8
RUNDUNGEN
100
AcDbSpline
 62
9
  6
CONTINUOUS
 70
0
 71
3
 72
12
 73
8
 74
6
 42
0.0000001
 43
0.0000001
 44
0.0000000001
 12
-0.1121568319
 22
0.7327602848
 32
0.0
 13
-0.7319995173
 23
0.120106941
 33
0.0
 40
0.0
 40
0.0
 40
0.0
 40
0.0
 40
0.1268364615
 40
0.3794641757
 40
0.6295576692
 40
0.8770909001
 40
1.0
 40
1.0
 40
1.0
 40
1.0
 10
104.6080725916
 20
161.3137586614
 30
0.0
 10
104.6033307331
 20
161.3447389019
 30
0.0
 10
104.5821437398
 20
161.4364632159
 30
0.0
 10
104.5128829605
 20
161.5775851635
 30
0.0
 10
104.3827473319
 20
161.7127866113
 30
0.0
 10
104.2456430897
 20
161.7854338166
 30
0.0
 10
104.1563256123
 20
161.8075535041
 30
0.0
 10
104.1263358117
 20
161.8124742495
 30
0.0
 11
104.6080725916
 21
161.3137586614
 31
0.0
 11
104.5868701465
 21
161.40531241
 31
0.0
 11
104.5045503688
 21
161.5725733736
 31
0.0
 11
104.3763342678
 21
161.7053124536
 31
0.0
 11
104.2147725766
 21
161.7905361678
 31
0.0
 11
104.1263358117
 21
161.8124742495
 31
0.0
  0
SPLINE
  5
3E7
100
AcDbEntity
  8
RUNDUNGEN
100
AcDbSpline
 62
9
  6
CONTINUOUS
 70
0
 71
3
 72
10
 73
6
 74
4
 42
0.0000001
 43
0.0000001
 44
0.0000000001
 12
0.0691163156
 22
-0.6720753414
 32
0.0
 13
-0.0000124728
 23
-0.6756199593
 33
0.0
 40
0.0
 40
0.0
 40
0.0
 40
0.0
 40
0.3595606528
 40
0.6947683944
 40
1.0
 40
1.0
 40
1.0
 40
1.0
 10
83.6539020875
 20
153.843330968
 30
0.0
 10
83.6621859233
 20
153.7627803519
 30
0.0
 10
83.6767601099
 20
153.606976121
 30
0.0
 10
83.6911718979
 20
153.3821926962
 30
0.0
 10
83.694792365
 20
153.237951225
 30
0.0
 10
83.6947910959
 20
153.1692110367
 30
0.0
 11
83.6539020875
 21
153.843330968
 31
0.0
 11
83.6760492864
 21
153.6014162829
 31
0.0
 11
83.6900672073
 21
153.3753774896
 31
0.0
 11
83.6947910959
 21
153.1692110367
 31
0.0
  0
SPLINE
  5
3E8
100
AcDbEntity
  8
RUNDUNGEN
100
AcDbSpline
 62
9
  6
CONTINUOUS
 70
0
 71
3
 72
12
 73
8
 74
6
 42
0.0000001
 43
0.0000001
 44
0.0000000001
 12
0.0
 22
-0.9226849506
 32
0.0
 13
-0.9226849506
 23
0.0
 33
0.0
 40
0.0
 40
0.0
 40
0.0
 40
0.0
 40
0.2032661615
 40
0.4053148024
 40
0.6053363593
 40
0.8033062988
 40
1.0
 40
1.0
 40
1.0
 40
1.0
 10
83.0743465917
 20
150.4199022495
 30
0.0
 10
83.0743465917
 20
150.3573853735
 30
0.0
 10
83.0552668929
 20
150.2318962757
 30
0.0
 10
82.9720007157
 20
150.0622278699
 30
0.0
 10
82.84186327
 20
149.9270210687
 30
0.0
 10
82.677573839
 20
149.8399680312
 30
0.0
 10
82.5552865353
 20
149.8199022495
 30
0.0
 10
82.4947910959
 20
149.8199022495
 30
0.0
 11
83.0743465917
 21
150.4199022495
 31
0.0
 11
83.0459862166
 21
150.2345082711
 31
0.0
 11
82.963667456
 21
150.0672398115
 31
0.0
 11
82.8354488964
 21
149.9344947812
 31
0.0
 11
82.6738856935
 21
149.8492690462
 31
0.0
 11
82.4947910959
 21
149.8199022495
 31
0.0
  0
SPLINE
  5
3E9
100
AcDbEntity
  8
RUNDUNGEN
100
AcDbSpline
 62
9
  6
CONTINUOUS
 70
0
 71
3
 72
15
 73
11
 74
9
 42
0.0000001
 43
0.0000001
 44
0.0000000001
 12
-4.0748091349
 22
1.8020152656
 32
0.0
 13
-4.4554829708
 23
0.0000087249
 33
0.0
 40
0.0
 40
0.0
 40
0.0
 40
0.0
 40
0.1901543788
 40
0.3588693076
 40
0.5067880637
 40
0.6361293997
 40
0.7487326177
 40
0.8460011882
 40
0.9292589272
 40
1.0
 40
1.0
 40
1.0
 40
1.0
 10
73.0947910959
 20
159.8199022495
 30
0.0
 10
72.8365101627
 20
159.934122614
 30
0.0
 10
72.3490507095
 20
160.1496502908
 30
0.0
 10
71.656980072
 20
160.4456120574
 30
0.0
 10
71.0421062209
 20
160.692072292
 30
0.0
 10
70.4975956837
 20
160.8893844651
 30
0.0
 10
70.01640086
 20
161.0393047258
 30
0.0
 10
69.5933922229
 20
161.1436816671
 30
0.0
 10
69.2248350932
 20
161.2048220248
 30
0.0
 10
68.9960531071
 20
161.2199020438
 30
0.0
 10
68.8909912253
 20
161.2199022495
 30
0.0
 11
73.0947910959
 21
159.8199022495
 31
0.0
 11
72.3191954134
 21
160.1608558043
 31
0.0
 11
71.6274016415
 21
160.454937472
 31
0.0
 11
71.0150764951
 21
160.6986671532
 31
0.0
 11
70.4727043658
 21
160.8934207019
 31
0.0
 11
69.9931665929
 21
161.0408932091
 31
0.0
 11
69.5719306291
 21
161.1427615169
 31
0.0
 11
69.2056287784
 21
161.201322659
 31
0.0
 11
68.8909912253
 21
161.2199022495
 31
0.0
  0
SPLINE
  5
3EA
100
AcDbEntity
  8
RUNDUNGEN
100
AcDbSpline
 62
9
  6
CONTINUOUS
 70
0
 71
3
 72
15
 73
11
 74
9
 42
0.0000001
 43
0.0000001
 44
0.0000000001
 12
-4.4554848968
 22
-0.0000110943
 32
0.0
 13
-4.0748098907
 23
-1.8020183186
 33
0.0
 40
0.0
 40
0.0
 40
0.0
 40
0.0
 40
0.0704521096
 40
0.1534262998
 40
0.2504615607
 40
0.3629123085
 40
0.4922022473
 40
0.6402139939
 40
0.8092468796
 40
1.0
 40
1.0
 40
1.0
 40
1.0
 10
77.2985909666
 20
161.2199022495
 30
0.0
 10
77.1939581965
 20
161.219901989
 30
0.0
 10
76.9660265709
 20
161.2049381554
 30
0.0
 10
76.5986229065
 20
161.1441683892
 30
0.0
 10
76.1765283503
 20
161.0402377891
 30
0.0
 10
75.6958909123
 20
160.890708285
 30
0.0
 10
75.1514757669
 20
160.693613058
 30
0.0
 10
74.5360615106
 20
160.4470629685
 30
0.0
 10
73.8425901716
 20
160.1505608503
 30
0.0
 10
73.3538853298
 20
159.9344824552
 30
0.0
 10
73.0947910959
 20
159.8199022495
 30
0.0
 11
77.2985909666
 21
161.2199022495
 31
0.0
 11
76.9852345745
 21
161.2014653115
 31
0.0
 11
76.6201537735
 21
161.1432683121
 31
0.0
 11
76.1998783699
 21
161.0418497898
 31
0.0
 11
75.720928301
 21
160.8947767273
 31
0.0
 11
75.1787121502
 21
160.7002657461
 31
0.0
 11
74.5659561172
 21
160.4564975256
 31
0.0
 11
73.8728339166
 21
160.1619188854
 31
0.0
 11
73.0947910959
 21
159.8199022495
 31
0.0
  0
SPLINE
  5
3EB
100
AcDbEntity
  8
RUNDUNGEN
100
AcDbSpline
 62
9
  6
CONTINUOUS
 70
0
 71
3
 72
10
 73
6
 74
4
 42
0.0000001
 43
0.0000001
 44
0.0000000001
 12
0.0000053939
 22
-0.7418732014
 32
0.0
 13
-0.0346407284
 23
-0.74106401
 33
0.0
 40
0.0
 40
0.0
 40
0.0
 40
0.0
 40
0.3108873665
 40
0.6466701597
 40
1.0
 40
1.0
 40
1.0
 40
1.0
 10
108.0947910959
 20
158.7356625836
 30
0.0
 10
108.0947916549
 20
158.658782915
 30
0.0
 10
108.0929378462
 20
158.4988647376
 30
0.0
 10
108.0856740297
 20
158.2516718066
 30
0.0
 10
108.0784264594
 20
158.0814106686
 30
0.0
 10
108.0743465917
 20
157.9941306591
 30
0.0
 11
108.0947910959
 21
158.7356625836
 31
0.0
 11
108.0923520232
 21
158.505036475
 31
0.0
 11
108.0852691733
 21
158.2560289324
 31
0.0
 11
108.0743465917
 21
157.9941306591
 31
0.0
  0
SPLINE
  5
3EC
100
AcDbEntity
  8
RUNDUNGEN
100
AcDbSpline
 62
9
  6
CONTINUOUS
 70
0
 71
3
 72
10
 73
6
 74
4
 42
0.0000001
 43
0.0000001
 44
0.0000000001
 12
0.0346421814
 22
-0.7410640247
 32
0.0
 13
-0.0000030658
 23
-0.7418732839
 33
0.0
 40
0.0
 40
0.0
 40
0.0
 40
0.0
 40
0.3592106784
 40
0.6943646757
 40
1.0
 40
1.0
 40
1.0
 40
1.0
 10
108.0743465917
 20
153.6456738399
 30
0.0
 10
108.0784945389
 20
153.5569411362
 30
0.0
 10
108.085785383
 20
153.3853816598
 30
0.0
 10
108.0929855728
 20
153.1381866629
 30
0.0
 10
108.0947914083
 20
152.9797228093
 30
0.0
 10
108.0947910959
 20
152.9041419154
 30
0.0
 11
108.0743465917
 21
153.6456738399
 31
0.0
 11
108.085424778
 21
153.3794153991
 31
0.0
 11
108.0924299548
 21
153.1308723032
 31
0.0
 11
108.0947910959
 21
152.9041419154
 31
0.0
  0
SPLINE
  5
3ED
100
AcDbEntity
  8
RUNDUNGEN
100
AcDbSpline
 62
9
  6
CONTINUOUS
 70
0
 71
3
 72
10
 73
6
 74
4
 42
0.0000001
 43
0.0000001
 44
0.0000000001
 12
-0.0346407821
 22
0.7410640305
 32
0.0
 13
0.0000038134
 23
0.7418732244
 33
0.0
 40
0.0
 40
0.0
 40
0.0
 40
0.0
 40
0.3540772628
 40
0.6912744928
 40
1.0
 40
1.0
 40
1.0
 40
1.0
 10
88.1152356002
 20
157.9941306591
 30
0.0
 10
88.1111470957
 20
158.0815953003
 30
0.0
 10
88.103878381
 20
158.2523906443
 30
0.0
 10
88.0966293699
 20
158.4995841963
 30
0.0
 10
88.0947907035
 20
158.6593175211
 30
0.0
 10
88.0947910959
 20
158.7356625836
 30
0.0
 11
88.1152356002
 21
157.9941306591
 31
0.0
 11
88.104293204
 21
158.2565830888
 31
0.0
 11
88.0971979405
 21
158.5066400427
 31
0.0
 11
88.0947910959
 21
158.7356625836
 31
0.0
  0
SPLINE
  5
3EE
100
AcDbEntity
  8
RUNDUNGEN
100
AcDbSpline
 62
9
  6
CONTINUOUS
 70
0
 71
3
 72
10
 73
6
 74
4
 42
0.0000001
 43
0.0000001
 44
0.0000000001
 12
-0.0000045139
 22
0.7418732609
 32
0.0
 13
0.0346419754
 23
0.7410640112
 33
0.0
 40
0.0
 40
0.0
 40
0.0
 40
0.0
 40
0.3077992357
 40
0.6417482374
 40
1.0
 40
1.0
 40
1.0
 40
1.0
 10
88.0947910959
 20
152.9041419154
 30
0.0
 10
88.0947906328
 20
152.980257923
 30
0.0
 10
88.0966120721
 20
153.1389589298
 30
0.0
 10
88.1038286136
 20
153.3861532772
 30
0.0
 10
88.1110987506
 20
153.5571780105
 30
0.0
 10
88.1152356002
 20
153.6456738399
 30
0.0
 11
88.0947910959
 21
152.9041419154
 31
0.0
 11
88.0971842141
 21
153.1324773977
 31
0.0
 11
88.1041827089
 21
153.3801263644
 31
0.0
 11
88.1152356002
 21
153.6456738399
 31
0.0
  0
SPLINE
  5
3EF
100
AcDbEntity
  8
RUNDUNGEN
100
AcDbSpline
 62
9
  6
CONTINUOUS
 70
0
 71
3
 72
10
 73
6
 74
4
 42
0.0000001
 43
0.0000001
 44
0.0000000001
 12
0.0000053886
 22
-0.7418731997
 32
0.0
 13
-0.0346406247
 23
-0.7410640131
 33
0.0
 40
0.0
 40
0.0
 40
0.0
 40
0.0
 40
0.310959925
 40
0.6468229753
 40
1.0
 40
1.0
 40
1.0
 40
1.0
 10
83.0947910959
 20
158.7356625836
 30
0.0
 10
83.0947916545
 20
158.6587649721
 30
0.0
 10
83.0929369786
 20
158.4988090044
 30
0.0
 10
83.085671806
 20
158.2516161116
 30
0.0
 10
83.0784246826
 20
158.0813729202
 30
0.0
 10
83.0743465917
 20
157.9941306591
 30
0.0
 11
83.0947910959
 21
158.7356625836
 31
0.0
 11
83.0923509392
 21
158.5049826548
 31
0.0
 11
83.0852651164
 21
158.2559156326
 31
0.0
 11
83.0743465917
 21
157.9941306591
 31
0.0
  0
SPLINE
  5
3F0
100
AcDbEntity
  8
RUNDUNGEN
100
AcDbSpline
 62
9
  6
CONTINUOUS
 70
0
 71
3
 72
10
 73
6
 74
4
 42
0.0000001
 43
0.0000001
 44
0.0000000001
 12
0.0346420918
 22
-0.7410640274
 32
0.0
 13
-0.0000029868
 23
-0.7418732824
 33
0.0
 40
0.0
 40
0.0
 40
0.0
 40
0.0
 40
0.3590451299
 40
0.6943094334
 40
1.0
 40
1.0
 40
1.0
 40
1.0
 10
83.0743465917
 20
153.6456738399
 30
0.0
 10
83.0784926165
 20
153.5569820299
 30
0.0
 10
83.0857832167
 20
153.3854362237
 30
0.0
 10
83.0929847876
 20
153.1382412626
 30
0.0
 10
83.0947914003
 20
152.9797364701
 30
0.0
 10
83.0947910959
 20
152.9041419154
 30
0.0
 11
83.0743465917
 21
153.6456738399
 31
0.0
 11
83.0854204095
 21
153.3795381402
 31
0.0
 11
83.0924291425
 21
153.1309132793
 31
0.0
 11
83.0947910959
 21
152.9041419154
 31
0.0
  0
SPLINE
  5
3F1
100
AcDbEntity
  8
RUNDUNGEN
100
AcDbSpline
 62
9
  6
CONTINUOUS
 70
0
 71
3
 72
10
 73
6
 74
4
 42
0.0000001
 43
0.0000001
 44
0.0000000001
 12
-0.0346406708
 22
0.7410640341
 32
0.0
 13
0.0000037532
 23
0.7418732227
 33
0.0
 40
0.0
 40
0.0
 40
0.0
 40
0.0
 40
0.3539170238
 40
0.69121337
 40
1.0
 40
1.0
 40
1.0
 40
1.0
 10
63.1152356002
 20
157.9941306591
 30
0.0
 10
63.1111489591
 20
158.0815557183
 30
0.0
 10
63.1038805569
 20
158.25233594
 30
0.0
 10
63.0966301839
 20
158.4995294554
 30
0.0
 10
63.0947907096
 20
158.6593024061
 30
0.0
 10
63.0947910959
 20
158.7356625836
 30
0.0
 11
63.1152356002
 21
157.9941306591
 31
0.0
 11
63.1042974552
 21
158.2564642852
 31
0.0
 11
63.0971988475
 21
158.5065947049
 31
0.0
 11
63.0947910959
 21
158.7356625836
 31
0.0
  0
SPLINE
  5
3F2
100
AcDbEntity
  8
RUNDUNGEN
100
AcDbSpline
 62
9
  6
CONTINUOUS
 70
0
 71
3
 72
10
 73
6
 74
4
 42
0.0000001
 43
0.0000001
 44
0.0000000001
 12
-0.0000044879
 22
0.7418732593
 32
0.0
 13
0.0346418878
 23
0.7410640137
 33
0.0
 40
0.0
 40
0.0
 40
0.0
 40
0.0
 40
0.3078653585
 40
0.641907473
 40
1.0
 40
1.0
 40
1.0
 40
1.0
 10
63.0947910959
 20
152.9041419154
 30
0.0
 10
63.0947906354
 20
152.9802742744
 30
0.0
 10
63.0966129104
 20
153.1390146591
 30
0.0
 10
63.1038308323
 20
153.386208969
 30
0.0
 10
63.1111005998
 20
153.5572173448
 30
0.0
 10
63.1152356002
 20
153.6456738399
 30
0.0
 11
63.0947910959
 21
152.9041419154
 31
0.0
 11
63.0971851931
 21
153.1325264444
 31
0.0
 11
63.1041869146
 21
153.3802444249
 31
0.0
 11
63.1152356002
 21
153.6456738399
 31
0.0
  0
SPLINE
  5
3F3
100
AcDbEntity
  8
RUNDUNGEN
100
AcDbSpline
 62
9
  6
CONTINUOUS
 70
0
 71
3
 72
13
 73
9
 74
7
 42
0.0000001
 43
0.0000001
 44
0.0000000001
 12
-0.0000342209
 22
0.9257576155
 32
0.0
 13
-0.9257576147
 23
-0.0000503823
 33
0.0
 40
0.0
 40
0.0
 40
0.0
 40
0.0
 40
0.1401473913
 40
0.2944051772
 40
0.4612147862
 40
0.6369953183
 40
0.817489071
 40
1.0
 40
1.0
 40
1.0
 40
1.0
 10
88.0947910949
 20
161.2198672453
 30
0.0
 10
88.0947894962
 20
161.2631147502
 30
0.0
 10
88.0800283287
 20
161.3541896354
 30
0.0
 10
88.022888818
 20
161.4857376637
 30
0.0
 10
87.9330054278
 20
161.6113269567
 30
0.0
 10
87.8124498502
 20
161.720724277
 30
0.0
 10
87.6639090859
 20
161.7998679454
 30
0.0
 10
87.55111139
 20
161.8199053146
 30
0.0
 10
87.4947910959
 20
161.8199022495
 30
0.0
 11
88.0947910949
 21
161.2198672453
 31
0.0
 11
88.0758155519
 21
161.3482146213
 31
0.0
 11
88.0202180362
 21
161.4797527363
 31
0.0
 11
87.9306027391
 21
161.6055154546
 31
0.0
 11
87.8096138681
 21
161.7143400848
 31
0.0
 11
87.6613207363
 21
161.7913425102
 31
0.0
 11
87.4947910959
 21
161.8199022495
 31
0.0
  0
SPLINE
  5
3F4
100
AcDbEntity
  8
RUNDUNGEN
100
AcDbSpline
 62
9
  6
CONTINUOUS
 70
0
 71
3
 72
12
 73
8
 74
6
 42
0.0000001
 43
0.0000001
 44
0.0000000001
 12
-0.0
 22
-0.702238282
 32
0.0
 13
-0.702238282
 23
0.0000000003
 33
0.0
 40
0.0
 40
0.0
 40
0.0
 40
0.0
 40
0.1239125
 40
0.284538244
 40
0.4911853983
 40
0.7353275024
 40
1.0
 40
1.0
 40
1.0
 40
1.0
 10
88.0947910959
 20
158.7356625836
 30
0.0
 10
88.0947910959
 20
158.7066572165
 30
0.0
 10
88.0667485216
 20
158.6404593331
 30
0.0
 10
87.9733564143
 20
158.5694288522
 30
0.0
 10
87.8405164556
 20
158.5138640593
 30
0.0
 10
87.6759988768
 20
158.4786421499
 30
0.0
 10
87.5567454826
 20
158.4705934623
 30
0.0
 10
87.4947910959
 20
158.4705934624
 30
0.0
 11
88.0947910959
 21
158.7356625836
 31
0.0
 11
88.0654248455
 21
158.6537515026
 31
0.0
 11
87.9802008686
 21
158.5798586054
 31
0.0
 11
87.8474617195
 21
158.5212169904
 31
0.0
 11
87.6802009294
 21
158.4835668164
 31
0.0
 11
87.4947910959
 21
158.4705934624
 31
0.0
  0
SPLINE
  5
3F5
100
AcDbEntity
  8
RUNDUNGEN
100
AcDbSpline
 62
9
  6
CONTINUOUS
 70
0
 71
3
 72
11
 73
7
 74
5
 42
0.0000001
 43
0.0000001
 44
0.0000000001
 12
-0.3633805239
 22
-0.5071408485
 32
0.0
 13
-0.6217331957
 23
-0.0518177452
 33
0.0
 40
0.0
 40
0.0
 40
0.0
 40
0.0
 40
0.1651497043
 40
0.398783373
 40
0.6857081427
 40
1.0
 40
1.0
 40
1.0
 40
1.0
 10
88.1152343653
 20
157.9941306591
 30
0.0
 10
88.0952303033
 20
157.9662126054
 30
0.0
 10
88.0255054569
 20
157.9161342184
 30
0.0
 10
87.8939365308
 20
157.8616559038
 30
0.0
 10
87.7249034207
 20
157.8188054929
 30
0.0
 10
87.6008153313
 20
157.8019013119
 30
0.0
 10
87.5356801044
 20
157.7964726801
 30
0.0
 11
88.1152343653
 21
157.9941306591
 31
0.0
 11
88.036314768
 21
157.9278892888
 31
0.0
 11
87.9030503636
 21
157.8688385195
 31
0.0
 11
87.7299071714
 21
157.8233884177
 31
0.0
 11
87.5356801044
 21
157.7964726801
 31
0.0
  0
SPLINE
  5
3F6
100
AcDbEntity
  8
RUNDUNGEN
100
AcDbSpline
 62
9
  6
CONTINUOUS
 70
0
 71
3
 72
11
 73
7
 74
5
 42
0.0000001
 43
0.0000001
 44
0.0000000001
 12
-0.3633651383
 22
0.5071529257
 32
0.0
 13
-0.6217340381
 23
0.0518179462
 33
0.0
 40
0.0
 40
0.0
 40
0.0
 40
0.0
 40
0.165147399
 40
0.3987804072
 40
0.6857061908
 40
1.0
 40
1.0
 40
1.0
 40
1.0
 10
88.1152339629
 20
153.6456738399
 30
0.0
 10
88.0952310271
 20
153.6735921687
 30
0.0
 10
88.0255069187
 20
153.7236712249
 30
0.0
 10
87.8939384725
 20
153.778149914
 30
0.0
 10
87.7249046818
 20
153.8210007922
 30
0.0
 10
87.6008158241
 20
153.8379051353
 30
0.0
 10
87.5356801044
 20
153.8433338219
 30
0.0
 11
88.1152339629
 21
153.6456738399
 31
0.0
 11
88.0363164764
 21
153.7119157079
 31
0.0
 11
87.9030525824
 21
153.7709671056
 31
0.0
 11
87.7299086278
 21
153.8164177617
 31
0.0
 11
87.5356801044
 21
153.8433338219
 31
0.0
  0
SPLINE
  5
3F7
100
AcDbEntity
  8
RUNDUNGEN
100
AcDbSpline
 62
9
  6
CONTINUOUS
 70
0
 71
3
 72
12
 73
8
 74
6
 42
0.0000001
 43
0.0000001
 44
0.0000000001
 12
-0.0
 22
0.7022383707
 32
0.0
 13
-0.7022383707
 23
-0.0000005417
 33
0.0
 40
0.0
 40
0.0
 40
0.0
 40
0.0
 40
0.1239129173
 40
0.2845392371
 40
0.4911867561
 40
0.7353285651
 40
1.0
 40
1.0
 40
1.0
 40
1.0
 10
88.0947910959
 20
152.9041419154
 30
0.0
 10
88.0947910959
 20
152.9331473838
 30
0.0
 10
88.0667483701
 20
152.9993455001
 30
0.0
 10
87.9733559126
 20
153.0703760839
 30
0.0
 10
87.8405157422
 20
153.1259408088
 30
0.0
 10
87.6759983381
 20
153.1611625179
 30
0.0
 10
87.5567452417
 20
153.1692110846
 30
0.0
 10
87.4947910959
 20
153.1692110368
 30
0.0
 11
88.0947910959
 21
152.9041419154
 31
0.0
 11
88.0654247005
 21
152.9860532675
 31
0.0
 11
87.9802003315
 21
153.0599463514
 31
0.0
 11
87.8474608671
 21
153.1185879318
 31
0.0
 11
87.6802002196
 21
153.1562378945
 31
0.0
 11
87.4947910959
 21
153.1692110368
 31
0.0
  0
SPLINE
  5
3F8
100
AcDbEntity
  8
RUNDUNGEN
100
AcDbSpline
 62
9
  6
CONTINUOUS
 70
0
 71
3
 72
13
 73
9
 74
7
 42
0.0000001
 43
0.0000001
 44
0.0000000001
 12
0.9257403145
 22
-0.0000480814
 32
0.0
 13
0.0000352072
 23
0.9257403151
 33
0.0
 40
0.0
 40
0.0
 40
0.0
 40
0.0
 40
0.1848298541
 40
0.368088299
 40
0.5442223657
 40
0.709628664
 40
0.86182134
 40
1.0
 40
1.0
 40
1.0
 40
1.0
 10
87.4947910959
 20
149.8199022495
 30
0.0
 10
87.5518259117
 20
149.8198992872
 30
0.0
 10
87.6662139392
 20
149.8404925855
 30
0.0
 10
87.8158117038
 20
149.9213562496
 30
0.0
 10
87.9360057219
 20
150.0319216709
 30
0.0
 10
88.0245759319
 20
150.1572367362
 30
0.0
 10
88.0804363507
 20
150.2874746139
 30
0.0
 10
88.0947894732
 20
150.377299009
 30
0.0
 10
88.0947910948
 20
150.4199381944
 30
0.0
 11
87.4947910959
 21
149.8199022495
 31
0.0
 11
87.6633723696
 21
149.8491782832
 31
0.0
 11
87.81348515
 21
149.9282174144
 31
0.0
 11
87.9339537386
 21
150.0380994359
 31
0.0
 11
88.0220509022
 21
150.1633417142
 31
0.0
 11
88.0763203802
 21
150.2933612063
 31
0.0
 11
88.0947910948
 21
150.4199381944
 31
0.0
  0
SPLINE
  5
3F9
100
AcDbEntity
  8
RUNDUNGEN
100
AcDbSpline
 62
9
  6
CONTINUOUS
 70
0
 71
3
 72
13
 73
9
 74
7
 42
0.0000001
 43
0.0000001
 44
0.0000000001
 12
0.0000268711
 22
-0.9257373919
 32
0.0
 13
0.9257373891
 23
0.0000764257
 33
0.0
 40
0.0
 40
0.0
 40
0.0
 40
0.0
 40
0.1397219993
 40
0.2934703329
 40
0.4596844719
 40
0.6347894596
 40
0.8149013382
 40
1.0
 40
1.0
 40
1.0
 40
1.0
 10
108.0947910966
 20
150.4199297209
 30
0.0
 10
108.0947923481
 20
150.3768144279
 30
0.0
 10
108.1094639146
 20
150.2860310556
 30
0.0
 10
108.1662747664
 20
150.154867752
 30
0.0
 10
108.2556365088
 20
150.0295983083
 30
0.0
 10
108.3755424591
 20
149.9202743141
 30
0.0
 10
108.5241730602
 20
149.8403664418
 30
0.0
 10
108.637673512
 20
149.8198975341
 30
0.0
 10
108.6947910959
 20
149.8199022495
 30
0.0
 11
108.0947910966
 21
150.4199297209
 31
0.0
 11
108.1136582634
 21
150.2919672792
 31
0.0
 11
108.1689391788
 21
150.1608108275
 31
0.0
 11
108.258034379
 21
150.0353587639
 31
0.0
 11
108.3782862651
 21
149.9266559849
 31
0.0
 11
108.5259723663
 21
149.8492621252
 31
0.0
 11
108.6947910959
 21
149.8199022495
 31
0.0
  0
SPLINE
  5
3FA
100
AcDbEntity
  8
RUNDUNGEN
100
AcDbSpline
 62
9
  6
CONTINUOUS
 70
0
 71
3
 72
12
 73
8
 74
6
 42
0.0000001
 43
0.0000001
 44
0.0000000001
 12
0.0
 22
0.7022382812
 32
0.0
 13
0.7022382812
 23
-0.0000000002
 33
0.0
 40
0.0
 40
0.0
 40
0.0
 40
0.0
 40
0.123912535
 40
0.2845383094
 40
0.4911854719
 40
0.7353275513
 40
1.0
 40
1.0
 40
1.0
 40
1.0
 10
108.0947910959
 20
152.9041419154
 30
0.0
 10
108.0947910959
 20
152.9331472906
 30
0.0
 10
108.1228336851
 20
152.999345188
 30
0.0
 10
108.2162258143
 20
153.0703756671
 30
0.0
 10
108.3490657794
 20
153.125940452
 30
0.0
 10
108.513583344
 20
153.1611623517
 30
0.0
 10
108.6328367208
 20
153.1692110367
 30
0.0
 10
108.6947910959
 20
153.1692110367
 30
0.0
 11
108.0947910959
 21
152.9041419154
 31
0.0
 11
108.1241573615
 21
152.986053017
 31
0.0
 11
108.2093813633
 21
153.0599459179
 31
0.0
 11
108.3421205221
 21
153.1185875247
 31
0.0
 11
108.5093812968
 21
153.1562376876
 31
0.0
 11
108.6947910959
 21
153.1692110367
 31
0.0
  0
SPLINE
  5
3FB
100
AcDbEntity
  8
RUNDUNGEN
100
AcDbSpline
 62
9
  6
CONTINUOUS
 70
0
 71
3
 72
11
 73
7
 74
5
 42
0.0000001
 43
0.0000001
 44
0.0000000001
 12
0.3633803293
 22
0.507140927
 32
0.0
 13
0.6217331476
 23
0.0518177267
 33
0.0
 40
0.0
 40
0.0
 40
0.0
 40
0.0
 40
0.1651497083
 40
0.3987833681
 40
0.6857081313
 40
1.0
 40
1.0
 40
1.0
 40
1.0
 10
108.0743479081
 20
153.6456738399
 30
0.0
 10
108.0943519599
 20
153.6735918986
 30
0.0
 10
108.1640767855
 20
153.7236703028
 30
0.0
 10
108.2956456903
 20
153.7781486358
 30
0.0
 10
108.4646787825
 20
153.8209990593
 30
0.0
 10
108.5887668632
 20
153.837903241
 30
0.0
 10
108.6539020875
 20
153.843331871
 30
0.0
 11
108.0743479081
 21
153.6456738399
 31
0.0
 11
108.1532674817
 21
153.7119152297
 31
0.0
 11
108.2865318593
 21
153.7709660172
 31
0.0
 11
108.4596750293
 21
153.8164161314
 31
0.0
 11
108.6539020875
 21
153.843331871
 31
0.0
  0
SPLINE
  5
3FC
100
AcDbEntity
  8
RUNDUNGEN
100
AcDbSpline
 62
9
  6
CONTINUOUS
 70
0
 71
3
 72
11
 73
7
 74
5
 42
0.0000001
 43
0.0000001
 44
0.0000000001
 12
0.3633659227
 22
-0.5071523619
 32
0.0
 13
0.62173404
 23
-0.0518179069
 33
0.0
 40
0.0
 40
0.0
 40
0.0
 40
0.0
 40
0.1651474952
 40
0.3987805371
 40
0.6857062812
 40
1.0
 40
1.0
 40
1.0
 40
1.0
 10
108.0743481518
 20
157.9941306591
 30
0.0
 10
108.0943511425
 20
157.966212345
 30
0.0
 10
108.1640752964
 20
157.9161333285
 30
0.0
 10
108.2956437786
 20
157.8616546692
 30
0.0
 10
108.4646775542
 20
157.8188038248
 30
0.0
 10
108.5887663863
 20
157.8018994958
 30
0.0
 10
108.6539020875
 20
157.7964708149
 30
0.0
 11
108.0743481518
 21
157.9941306591
 31
0.0
 11
108.1532657447
 21
157.9278888248
 31
0.0
 11
108.2865296793
 21
157.8688374678
 31
0.0
 11
108.4596736179
 21
157.8233868491
 31
0.0
 11
108.6539020875
 21
157.7964708149
 31
0.0
  0
SPLINE
  5
3FD
100
AcDbEntity
  8
RUNDUNGEN
100
AcDbSpline
 62
9
  6
CONTINUOUS
 70
0
 71
3
 72
12
 73
8
 74
6
 42
0.0000001
 43
0.0000001
 44
0.0000000001
 12
0.0
 22
-0.702238384
 32
0.0
 13
0.702238384
 23
0.0000006249
 33
0.0
 40
0.0
 40
0.0
 40
0.0
 40
0.0
 40
0.1239130306
 40
0.2845394751
 40
0.4911870538
 40
0.7353287827
 40
1.0
 40
1.0
 40
1.0
 40
1.0
 10
108.0947910959
 20
158.7356625836
 30
0.0
 10
108.0947910959
 20
158.7066570881
 30
0.0
 10
108.1228338645
 20
158.6404589178
 30
0.0
 10
108.2162264031
 20
158.5694283214
 30
0.0
 10
108.3490666114
 20
158.5138636182
 30
0.0
 10
108.5135839704
 20
158.4786419522
 30
0.0
 10
108.632837
 20
158.4705934071
 30
0.0
 10
108.6947910959
 20
158.4705934622
 30
0.0
 11
108.0947910959
 21
158.7356625836
 31
0.0
 11
108.1241575344
 21
158.6537511607
 31
0.0
 11
108.2093819945
 21
158.5798580449
 31
0.0
 11
108.3421215156
 21
158.5212164824
 31
0.0
 11
108.5093821192
 21
158.4835665664
 31
0.0
 11
108.6947910959
 21
158.4705934622
 31
0.0
  0
SPLINE
  5
3FE
100
AcDbEntity
  8
RUNDUNGEN
100
AcDbSpline
 62
9
  6
CONTINUOUS
 70
0
 71
3
 72
13
 73
9
 74
7
 42
0.0000001
 43
0.0000001
 44
0.0000000001
 12
-0.9257309599
 22
0.0000523472
 32
0.0
 13
-0.0000276986
 23
-0.9257309609
 33
0.0
 40
0.0
 40
0.0
 40
0.0
 40
0.0
 40
0.1852270763
 40
0.3682970973
 40
0.544245728
 40
0.7095893262
 40
0.86179161
 40
1.0
 40
1.0
 40
1.0
 40
1.0
 10
108.6947910959
 20
161.8199022495
 30
0.0
 10
108.6376342829
 20
161.8199054815
 30
0.0
 10
108.5231793089
 20
161.7992525851
 30
0.0
 10
108.3736215755
 20
161.7183215764
 30
0.0
 10
108.2535455074
 20
161.6078349605
 30
0.0
 10
108.1650174952
 20
161.4825836743
 30
0.0
 10
108.1091529821
 20
161.3523573899
 30
0.0
 10
108.0947923727
 20
161.2625219027
 30
0.0
 10
108.0947910967
 20
161.2198739741
 30
0.0
 11
108.6947910959
 21
161.8199022495
 31
0.0
 11
108.525859774
 21
161.7905029291
 31
0.0
 11
108.3759404349
 21
161.7114745271
 31
0.0
 11
108.2556165298
 21
161.6016910631
 31
0.0
 11
108.1675513764
 21
161.476499125
 31
0.0
 11
108.1132708468
 21
161.3464761508
 31
0.0
 11
108.0947910967
 21
161.2198739741
 31
0.0
  0
SPLINE
  5
3FF
100
AcDbEntity
  8
RUNDUNGEN
100
AcDbSpline
 62
9
  6
CONTINUOUS
 70
0
 71
3
 72
13
 73
9
 74
7
 42
0.0000001
 43
0.0000001
 44
0.0000000001
 12
-0.0000342209
 22
0.9257576154
 32
0.0
 13
-0.9257576147
 23
-0.0000503825
 33
0.0
 40
0.0
 40
0.0
 40
0.0
 40
0.0
 40
0.1401473871
 40
0.2944051685
 40
0.4612147736
 40
0.6369953025
 40
0.8174890547
 40
1.0
 40
1.0
 40
1.0
 40
1.0
 10
63.0947910949
 20
161.2198672452
 30
0.0
 10
63.0947894962
 20
161.2631147489
 30
0.0
 10
63.0800283296
 20
161.3541896314
 30
0.0
 10
63.0228888218
 20
161.4857376566
 30
0.0
 10
62.9330054354
 20
161.6113269478
 30
0.0
 10
62.8124498616
 20
161.7207242687
 30
0.0
 10
62.663909096
 20
161.7998679426
 30
0.0
 10
62.5511113951
 20
161.8199053146
 30
0.0
 10
62.4947910959
 20
161.8199022495
 30
0.0
 11
63.0947910949
 21
161.2198672452
 31
0.0
 11
63.075815553
 21
161.3482146175
 31
0.0
 11
63.0202180401
 21
161.4797527292
 31
0.0
 11
62.9306027469
 21
161.6055154457
 31
0.0
 11
62.8096138802
 21
161.7143400762
 31
0.0
 11
62.6613207507
 21
161.7913425052
 31
0.0
 11
62.4947910959
 21
161.8199022495
 31
0.0
  0
SPLINE
  5
400
100
AcDbEntity
  8
RUNDUNGEN
100
AcDbSpline
 62
9
  6
CONTINUOUS
 70
0
 71
3
 72
12
 73
8
 74
6
 42
0.0000001
 43
0.0000001
 44
0.0000000001
 12
-0.0
 22
-0.702238282
 32
0.0
 13
-0.702238282
 23
0.0000000003
 33
0.0
 40
0.0
 40
0.0
 40
0.0
 40
0.0
 40
0.1239125007
 40
0.2845382453
 40
0.4911853998
 40
0.7353275034
 40
1.0
 40
1.0
 40
1.0
 40
1.0
 10
63.0947910959
 20
158.7356625836
 30
0.0
 10
63.0947910959
 20
158.7066572164
 30
0.0
 10
63.0667485213
 20
158.6404593326
 30
0.0
 10
62.9733564135
 20
158.5694288518
 30
0.0
 10
62.8405164547
 20
158.5138640591
 30
0.0
 10
62.6759988762
 20
158.4786421499
 30
0.0
 10
62.5567454824
 20
158.4705934624
 30
0.0
 10
62.4947910959
 20
158.4705934624
 30
0.0
 11
63.0947910959
 21
158.7356625836
 31
0.0
 11
63.0654248452
 21
158.6537515022
 31
0.0
 11
62.9802008677
 21
158.5798586049
 31
0.0
 11
62.8474617185
 21
158.52121699
 31
0.0
 11
62.6802009287
 21
158.4835668163
 31
0.0
 11
62.4947910959
 21
158.4705934624
 31
0.0
  0
SPLINE
  5
401
100
AcDbEntity
  8
RUNDUNGEN
100
AcDbSpline
 62
9
  6
CONTINUOUS
 70
0
 71
3
 72
11
 73
7
 74
5
 42
0.0000001
 43
0.0000001
 44
0.0000000001
 12
-0.3633805327
 22
-0.5071408379
 32
0.0
 13
-0.6217331917
 23
-0.0518177504
 33
0.0
 40
0.0
 40
0.0
 40
0.0
 40
0.0
 40
0.1651497069
 40
0.3987833761
 40
0.6857081446
 40
1.0
 40
1.0
 40
1.0
 40
1.0
 10
63.1152343613
 20
157.9941306591
 30
0.0
 10
63.0952302985
 20
157.9662126055
 30
0.0
 10
63.0255054522
 20
157.9161342186
 30
0.0
 10
62.8939365267
 20
157.8616559035
 30
0.0
 10
62.7249034184
 20
157.8188054918
 30
0.0
 10
62.6008153306
 20
157.8019013099
 30
0.0
 10
62.5356801044
 20
157.7964726776
 30
0.0
 11
63.1152343613
 21
157.9941306591
 31
0.0
 11
63.0363147627
 21
157.9278892886
 31
0.0
 11
62.903050359
 21
157.868838519
 31
0.0
 11
62.7299071689
 21
157.8233884165
 31
0.0
 11
62.5356801044
 21
157.7964726776
 31
0.0
  0
SPLINE
  5
402
100
AcDbEntity
  8
RUNDUNGEN
100
AcDbSpline
 62
9
  6
CONTINUOUS
 70
0
 71
3
 72
11
 73
7
 74
5
 42
0.0000001
 43
0.0000001
 44
0.0000000001
 12
-0.3633650451
 22
0.5071529919
 32
0.0
 13
-0.6217340374
 23
0.0518179508
 33
0.0
 40
0.0
 40
0.0
 40
0.0
 40
0.0
 40
0.1651473877
 40
0.3987803919
 40
0.6857061802
 40
1.0
 40
1.0
 40
1.0
 40
1.0
 10
63.1152339532
 20
153.6456738399
 30
0.0
 10
63.0952310239
 20
153.6735921705
 30
0.0
 10
63.025506921
 20
153.7236712313
 30
0.0
 10
62.8939384791
 20
153.7781499239
 30
0.0
 10
62.7249046868
 20
153.8210008061
 30
0.0
 10
62.6008158262
 20
153.8379051508
 30
0.0
 10
62.5356801044
 20
153.8433338381
 30
0.0
 11
63.1152339532
 21
153.6456738399
 31
0.0
 11
63.0363164793
 21
153.7119157118
 31
0.0
 11
62.9030525903
 21
153.7709671144
 31
0.0
 11
62.7299086339
 21
153.8164177749
 31
0.0
 11
62.5356801044
 21
153.8433338381
 31
0.0
  0
SPLINE
  5
403
100
AcDbEntity
  8
RUNDUNGEN
100
AcDbSpline
 62
9
  6
CONTINUOUS
 70
0
 71
3
 72
12
 73
8
 74
6
 42
0.0000001
 43
0.0000001
 44
0.0000000001
 12
-0.0
 22
0.7022383731
 32
0.0
 13
-0.7022383731
 23
-0.0000005567
 33
0.0
 40
0.0
 40
0.0
 40
0.0
 40
0.0
 40
0.1239129369
 40
0.2845392782
 40
0.4911868075
 40
0.7353286026
 40
1.0
 40
1.0
 40
1.0
 40
1.0
 10
63.0947910959
 20
152.9041419154
 30
0.0
 10
63.0947910959
 20
152.9331473885
 30
0.0
 10
63.0667483627
 20
152.9993455141
 30
0.0
 10
62.9733558913
 20
153.0703761002
 30
0.0
 10
62.8405157144
 20
153.1259408213
 30
0.0
 10
62.675998318
 20
153.161162523
 30
0.0
 10
62.5567452331
 20
153.1692110859
 30
0.0
 10
62.4947910959
 20
153.1692110368
 30
0.0
 11
63.0947910959
 21
152.9041419154
 31
0.0
 11
63.0654246931
 21
152.9860532797
 31
0.0
 11
62.9802003084
 21
153.0599463692
 31
0.0
 11
62.8474608342
 21
153.1185879465
 31
0.0
 11
62.6802001943
 21
153.1562379012
 31
0.0
 11
62.4947910959
 21
153.1692110368
 31
0.0
  0
SPLINE
  5
404
100
AcDbEntity
  8
RUNDUNGEN
100
AcDbSpline
 62
9
  6
CONTINUOUS
 70
0
 71
3
 72
13
 73
9
 74
7
 42
0.0000001
 43
0.0000001
 44
0.0000000001
 12
0.9257403145
 22
-0.0000480816
 32
0.0
 13
0.0000352073
 23
0.9257403151
 33
0.0
 40
0.0
 40
0.0
 40
0.0
 40
0.0
 40
0.1848298707
 40
0.3680883145
 40
0.544222378
 40
0.7096286722
 40
0.861821344
 40
1.0
 40
1.0
 40
1.0
 40
1.0
 10
62.4947910959
 20
149.8199022495
 30
0.0
 10
62.5518259168
 20
149.8198992872
 30
0.0
 10
62.6662139492
 20
149.8404925883
 30
0.0
 10
62.815811715
 20
149.921356258
 30
0.0
 10
62.9360057292
 20
150.0319216796
 30
0.0
 10
63.0245759355
 20
150.1572367431
 30
0.0
 10
63.0804363515
 20
150.2874746177
 30
0.0
 10
63.0947894732
 20
150.3772990103
 30
0.0
 10
63.0947910948
 20
150.4199381944
 30
0.0
 11
62.4947910959
 21
149.8199022495
 31
0.0
 11
62.6633723842
 21
149.8491782883
 31
0.0
 11
62.8134851618
 21
149.9282174228
 31
0.0
 11
62.9339537461
 21
150.0380994446
 31
0.0
 11
63.022050906
 21
150.163341721
 31
0.0
 11
63.0763203812
 21
150.2933612099
 31
0.0
 11
63.0947910948
 21
150.4199381944
 31
0.0
  0
SPLINE
  5
405
100
AcDbEntity
  8
RUNDUNGEN
100
AcDbSpline
 62
9
  6
CONTINUOUS
 70
0
 71
3
 72
13
 73
9
 74
7
 42
0.0000001
 43
0.0000001
 44
0.0000000001
 12
0.0000268712
 22
-0.9257373918
 32
0.0
 13
0.9257373891
 23
0.0000764259
 33
0.0
 40
0.0
 40
0.0
 40
0.0
 40
0.0
 40
0.1397219951
 40
0.2934703243
 40
0.4596844594
 40
0.634789444
 40
0.8149013217
 40
1.0
 40
1.0
 40
1.0
 40
1.0
 10
83.0947910966
 20
150.419929721
 30
0.0
 10
83.0947923481
 20
150.3768144292
 30
0.0
 10
83.1094639137
 20
150.2860310596
 30
0.0
 10
83.1662747627
 20
150.154867759
 30
0.0
 10
83.2556365013
 20
150.0295983171
 30
0.0
 10
83.3755424478
 20
149.9202743225
 30
0.0
 10
83.5241730502
 20
149.8403664447
 30
0.0
 10
83.6376735069
 20
149.8198975341
 30
0.0
 10
83.6947910959
 20
149.8199022495
 30
0.0
 11
83.0947910966
 21
150.419929721
 31
0.0
 11
83.1136582623
 21
150.291967283
 31
0.0
 11
83.1689391748
 21
150.1608108346
 31
0.0
 11
83.2580343712
 21
150.0353587727
 31
0.0
 11
83.3782862531
 21
149.9266559934
 31
0.0
 11
83.5259723517
 21
149.8492621304
 31
0.0
 11
83.6947910959
 21
149.8199022495
 31
0.0
  0
SPLINE
  5
406
100
AcDbEntity
  8
RUNDUNGEN
100
AcDbSpline
 62
9
  6
CONTINUOUS
 70
0
 71
3
 72
12
 73
8
 74
6
 42
0.0000001
 43
0.0000001
 44
0.0000000001
 12
0.0
 22
0.7022382812
 32
0.0
 13
0.7022382812
 23
-0.0000000002
 33
0.0
 40
0.0
 40
0.0
 40
0.0
 40
0.0
 40
0.123912536
 40
0.2845383114
 40
0.4911854741
 40
0.7353275527
 40
1.0
 40
1.0
 40
1.0
 40
1.0
 10
83.0947910959
 20
152.9041419154
 30
0.0
 10
83.0947910959
 20
152.9331472909
 30
0.0
 10
83.1228336856
 20
152.9993451886
 30
0.0
 10
83.2162258154
 20
153.0703756677
 30
0.0
 10
83.3490657807
 20
153.1259404524
 30
0.0
 10
83.5135833449
 20
153.1611623518
 30
0.0
 10
83.6328367211
 20
153.1692110367
 30
0.0
 10
83.6947910959
 20
153.1692110367
 30
0.0
 11
83.0947910959
 21
152.9041419154
 31
0.0
 11
83.124157362
 21
152.9860530176
 31
0.0
 11
83.2093813645
 21
153.0599459187
 31
0.0
 11
83.3421205236
 21
153.1185875251
 31
0.0
 11
83.5093812978
 21
153.1562376877
 31
0.0
 11
83.6947910959
 21
153.1692110367
 31
0.0
  0
SPLINE
  5
407
100
AcDbEntity
  8
RUNDUNGEN
100
AcDbSpline
 62
9
  6
CONTINUOUS
 70
0
 71
3
 72
11
 73
7
 74
5
 42
0.0000001
 43
0.0000001
 44
0.0000000001
 12
0.3633803273
 22
0.5071409167
 32
0.0
 13
0.6217331372
 23
0.0518177353
 33
0.0
 40
0.0
 40
0.0
 40
0.0
 40
0.0
 40
0.1651497127
 40
0.3987833726
 40
0.6857081333
 40
1.0
 40
1.0
 40
1.0
 40
1.0
 10
83.0743479212
 20
153.6456738399
 30
0.0
 10
83.0943519734
 20
153.6735918988
 30
0.0
 10
83.1640767971
 20
153.7236703043
 30
0.0
 10
83.2956456993
 20
153.7781486397
 30
0.0
 10
83.464678787
 20
153.8209990658
 30
0.0
 10
83.5887668647
 20
153.8379032491
 30
0.0
 10
83.6539020875
 20
153.84333188
 30
0.0
 11
83.0743479212
 21
153.6456738399
 31
0.0
 11
83.1532674948
 21
153.7119152315
 31
0.0
 11
83.286531869
 21
153.7709660211
 31
0.0
 11
83.4596750339
 21
153.8164161377
 31
0.0
 11
83.6539020875
 21
153.84333188
 31
0.0
  0
SPLINE
  5
408
100
AcDbEntity
  8
RUNDUNGEN
100
AcDbSpline
 62
9
  6
CONTINUOUS
 70
0
 71
3
 72
11
 73
7
 74
5
 42
0.0000001
 43
0.0000001
 44
0.0000000001
 12
0.3633658373
 22
-0.5071524227
 32
0.0
 13
0.6217340393
 23
-0.0518179111
 33
0.0
 40
0.0
 40
0.0
 40
0.0
 40
0.0
 40
0.1651474849
 40
0.3987805231
 40
0.6857062715
 40
1.0
 40
1.0
 40
1.0
 40
1.0
 10
83.0743481607
 20
157.9941306591
 30
0.0
 10
83.0943511454
 20
157.9662123434
 30
0.0
 10
83.1640752943
 20
157.9161333226
 30
0.0
 10
83.2956437725
 20
157.8616546601
 30
0.0
 10
83.4646775496
 20
157.818803812
 30
0.0
 10
83.5887663844
 20
157.8018994815
 30
0.0
 10
83.6539020875
 20
157.7964708
 30
0.0
 11
83.0743481607
 21
157.9941306591
 31
0.0
 11
83.153265742
 21
157.9278888212
 31
0.0
 11
83.2865296721
 21
157.8688374597
 31
0.0
 11
83.4596736123
 21
157.8233868371
 31
0.0
 11
83.6539020875
 21
157.7964708
 31
0.0
  0
SPLINE
  5
409
100
AcDbEntity
  8
RUNDUNGEN
100
AcDbSpline
 62
9
  6
CONTINUOUS
 70
0
 71
3
 72
12
 73
8
 74
6
 42
0.0000001
 43
0.0000001
 44
0.0000000001
 12
0.0
 22
-0.7022383865
 32
0.0
 13
0.7022383865
 23
0.0000006411
 33
0.0
 40
0.0
 40
0.0
 40
0.0
 40
0.0
 40
0.123913052
 40
0.2845395202
 40
0.4911871102
 40
0.735328824
 40
1.0
 40
1.0
 40
1.0
 40
1.0
 10
83.0947910959
 20
158.7356625836
 30
0.0
 10
83.0947910959
 20
158.706657083
 30
0.0
 10
83.1228338726
 20
158.6404589025
 30
0.0
 10
83.2162264265
 20
158.5694283036
 30
0.0
 10
83.349066642
 20
158.5138636045
 30
0.0
 10
83.5135839925
 20
158.4786419466
 30
0.0
 10
83.6328370094
 20
158.4705934057
 30
0.0
 10
83.6947910959
 20
158.4705934622
 30
0.0
 11
83.0947910959
 21
158.7356625836
 31
0.0
 11
83.1241575425
 21
158.6537511473
 31
0.0
 11
83.2093820198
 21
158.5798580254
 31
0.0
 11
83.3421215517
 21
158.5212164662
 31
0.0
 11
83.5093821471
 21
158.4835665591
 31
0.0
 11
83.6947910959
 21
158.4705934622
 31
0.0
  0
SPLINE
  5
40A
100
AcDbEntity
  8
RUNDUNGEN
100
AcDbSpline
 62
9
  6
CONTINUOUS
 70
0
 71
3
 72
13
 73
9
 74
7
 42
0.0000001
 43
0.0000001
 44
0.0000000001
 12
-0.9257309598
 22
0.0000523474
 32
0.0
 13
-0.0000276986
 23
-0.9257309609
 33
0.0
 40
0.0
 40
0.0
 40
0.0
 40
0.0
 40
0.1852270932
 40
0.3682971131
 40
0.5442457404
 40
0.7095893346
 40
0.8617916141
 40
1.0
 40
1.0
 40
1.0
 40
1.0
 10
83.6947910959
 20
161.8199022495
 30
0.0
 10
83.6376342777
 20
161.8199054816
 30
0.0
 10
83.5231792986
 20
161.7992525822
 30
0.0
 10
83.3736215641
 20
161.7183215679
 30
0.0
 10
83.2535455
 20
161.6078349516
 30
0.0
 10
83.1650174915
 20
161.4825836673
 30
0.0
 10
83.1091529813
 20
161.352357386
 30
0.0
 10
83.0947923727
 20
161.2625219014
 30
0.0
 10
83.0947910967
 20
161.2198739741
 30
0.0
 11
83.6947910959
 21
161.8199022495
 31
0.0
 11
83.525859759
 21
161.7905029238
 31
0.0
 11
83.3759404229
 21
161.7114745185
 31
0.0
 11
83.2556165222
 21
161.6016910543
 31
0.0
 11
83.1675513726
 21
161.476499118
 31
0.0
 11
83.1132708458
 21
161.3464761471
 31
0.0
 11
83.0947910967
 21
161.2198739741
 31
0.0
  0
SPLINE
  5
40B
100
AcDbEntity
  8
RUNDUNGEN
100
AcDbSpline
 62
9
  6
CONTINUOUS
 70
0
 71
3
 72
10
 73
6
 74
4
 42
0.0000001
 43
0.0000001
 44
0.0000000001
 12
0.0000281375
 22
-1.979795163
 32
0.0
 13
0.2025033881
 23
-1.9694114009
 33
0.0
 40
0.0
 40
0.0
 40
0.0
 40
0.0
 40
0.337449271
 40
0.6723443328
 40
1.0
 40
1.0
 40
1.0
 40
1.0
 10
83.5551872887
 20
155.8199022495
 30
0.0
 10
83.5551904537
 20
155.5972087713
 30
0.0
 10
83.5624480981
 20
155.1534705811
 30
0.0
 10
83.5951215951
 20
154.4942365342
 30
0.0
 10
83.6317849599
 20
154.0584272369
 30
0.0
 10
83.6539020875
 20
153.843330968
 30
0.0
 11
83.5551872887
 21
155.8199022495
 31
0.0
 11
83.5661812134
 21
155.151912279
 31
0.0
 11
83.5991944924
 21
154.4897110642
 31
0.0
 11
83.6539020875
 21
153.843330968
 31
0.0
  0
SPLINE
  5
40C
100
AcDbEntity
  8
RUNDUNGEN
100
AcDbSpline
 62
9
  6
CONTINUOUS
 70
0
 71
3
 72
10
 73
6
 74
4
 42
0.0000001
 43
0.0000001
 44
0.0000000001
 12
0.2025033772
 22
1.9694114019
 32
0.0
 13
0.0000280647
 23
1.9797951628
 33
0.0
 40
0.0
 40
0.0
 40
0.0
 40
0.0
 40
0.3276559445
 40
0.6625510031
 40
1.0
 40
1.0
 40
1.0
 40
1.0
 10
87.5356801044
 20
153.843330968
 30
0.0
 10
87.5577972495
 20
154.058427419
 30
0.0
 10
87.5944606206
 20
154.4942368977
 30
0.0
 10
87.6271340988
 20
155.1534709452
 30
0.0
 10
87.6343917464
 20
155.5972089523
 30
0.0
 10
87.6343949032
 20
155.8199022495
 30
0.0
 11
87.5356801044
 21
153.843330968
 31
0.0
 11
87.5903877333
 21
154.4897116124
 31
0.0
 11
87.6234009956
 21
155.1519128216
 31
0.0
 11
87.6343949032
 21
155.8199022495
 31
0.0
  0
SPLINE
  5
40D
100
AcDbEntity
  8
RUNDUNGEN
100
AcDbSpline
 62
9
  6
CONTINUOUS
 70
0
 71
3
 72
12
 73
8
 74
6
 42
0.0000001
 43
0.0000001
 44
0.0000000001
 12
0.0
 22
0.9226849506
 32
0.0
 13
0.9226849506
 23
0.0
 33
0.0
 40
0.0
 40
0.0
 40
0.0
 40
0.0
 40
0.2032661615
 40
0.4053148024
 40
0.6053363593
 40
0.8033062988
 40
1.0
 40
1.0
 40
1.0
 40
1.0
 10
88.1152356002
 20
161.2199022495
 30
0.0
 10
88.1152356002
 20
161.2824191256
 30
0.0
 10
88.134315299
 20
161.4079082233
 30
0.0
 10
88.2175814762
 20
161.5775766291
 30
0.0
 10
88.3477189219
 20
161.7127834303
 30
0.0
 10
88.5120083529
 20
161.7998364679
 30
0.0
 10
88.6342956566
 20
161.8199022495
 30
0.0
 10
88.6947910959
 20
161.8199022495
 30
0.0
 11
88.1152356002
 21
161.2199022495
 31
0.0
 11
88.1435959753
 21
161.4052962279
 31
0.0
 11
88.2259147359
 21
161.5725646876
 31
0.0
 11
88.3541332955
 21
161.7053097178
 31
0.0
 11
88.5156964984
 21
161.7905354528
 31
0.0
 11
88.6947910959
 21
161.8199022495
 31
0.0
  0
SPLINE
  5
40E
100
AcDbEntity
  8
RUNDUNGEN
100
AcDbSpline
 62
9
  6
CONTINUOUS
 70
0
 71
3
 72
12
 73
8
 74
6
 42
0.0000001
 43
0.0000001
 44
0.0000000001
 12
0.1121568544
 22
0.73276024
 32
0.0
 13
0.7319994728
 23
0.1201069583
 33
0.0
 40
0.0
 40
0.0
 40
0.0
 40
0.0
 40
0.1268364868
 40
0.3794642095
 40
0.6295576562
 40
0.8770908822
 40
1.0
 40
1.0
 40
1.0
 40
1.0
 10
91.581509604
 20
161.3137586853
 30
0.0
 10
91.5862514644
 20
161.3447389302
 30
0.0
 10
91.6074384629
 20
161.4364632463
 30
0.0
 10
91.6766992452
 20
161.5775851787
 30
0.0
 10
91.8068348602
 20
161.7127866073
 30
0.0
 10
91.9439390842
 20
161.7854338091
 30
0.0
 10
92.0332565589
 20
161.8075534997
 30
0.0
 10
92.0632463621
 20
161.8124742465
 30
0.0
 11
91.581509604
 21
161.3137586853
 31
0.0
 11
91.6027120567
 21
161.4053124461
 31
0.0
 11
91.6850318422
 21
161.5725734009
 31
0.0
 11
91.8132479142
 21
161.7053124461
 31
0.0
 11
91.9748095901
 21
161.7905361593
 31
0.0
 11
92.0632463621
 21
161.8124742465
 31
0.0
  0
SPLINE
  5
40F
100
AcDbEntity
  8
RUNDUNGEN
100
AcDbSpline
 62
9
  6
CONTINUOUS
 70
0
 71
3
 72
14
 73
10
 74
8
 42
0.0000001
 43
0.0000001
 44
0.0000000001
 12
4.0746139543
 22
-1.8020354069
 32
0.0
 13
4.4553126132
 23
0.0000519896
 33
0.0
 40
0.0
 40
0.0
 40
0.0
 40
0.0
 40
0.2106400021
 40
0.396476124
 40
0.5575792613
 40
0.6966060888
 40
0.8154991055
 40
0.9160481159
 40
1.0
 40
1.0
 40
1.0
 40
1.0
 10
73.0947910959
 20
151.8199022495
 30
0.0
 10
73.3808833266
 20
151.6933753355
 30
0.0
 10
73.9194054478
 20
151.4552698948
 30
0.0
 10
74.6817340005
 20
151.131782358
 30
0.0
 10
75.3540346821
 20
150.8689252488
 30
0.0
 10
75.943031487
 20
150.667312331
 30
0.0
 10
76.4566105843
 20
150.5254082239
 30
0.0
 10
76.8998445694
 20
150.4412527347
 30
0.0
 10
77.1739136705
 20
150.4199007946
 30
0.0
 10
77.2985909666
 20
150.4199022495
 30
0.0
 11
73.0947910959
 21
151.8199022495
 31
0.0
 11
73.9540962935
 21
151.4426556495
 31
0.0
 11
74.717163802
 21
151.1213420072
 31
0.0
 11
75.3864965516
 21
150.8621508899
 31
0.0
 11
75.9733602328
 21
150.664016433
 31
0.0
 11
76.4847097067
 21
150.5257786202
 31
0.0
 11
76.9254365132
 21
150.4455070802
 31
0.0
 11
77.2985909666
 21
150.4199022495
 31
0.0
  0
SPLINE
  5
410
100
AcDbEntity
  8
RUNDUNGEN
100
AcDbSpline
 62
9
  6
CONTINUOUS
 70
0
 71
3
 72
14
 73
10
 74
8
 42
0.0000001
 43
0.0000001
 44
0.0000000001
 12
4.4553074195
 22
-0.0000514955
 32
0.0
 13
4.0746095199
 23
1.8020325926
 33
0.0
 40
0.0
 40
0.0
 40
0.0
 40
0.0
 40
0.0844996548
 40
0.1856225282
 40
0.3050462378
 40
0.4445313218
 40
0.6059803103
 40
0.7918575468
 40
1.0
 40
1.0
 40
1.0
 40
1.0
 10
68.8909912253
 20
150.4199022495
 30
0.0
 10
69.0164818716
 20
150.4199007991
 30
0.0
 10
69.2922157975
 20
150.4415181217
 30
0.0
 10
69.7377929537
 20
150.5265032892
 30
0.0
 10
70.253490324
 20
150.6694568402
 30
0.0
 10
70.8442202896
 20
150.8721210399
 30
0.0
 10
71.5175562782
 20
151.1357708396
 30
0.0
 10
72.2769058102
 20
151.4582480639
 30
0.0
 10
72.8120913555
 20
151.6948757546
 30
0.0
 10
73.0947910959
 20
151.8199022495
 30
0.0
 11
68.8909912253
 21
150.4199022495
 31
0.0
 11
69.26657003
 21
150.445819082
 31
0.0
 11
69.7097480472
 21
150.5268972491
 31
0.0
 11
70.2232642609
 21
150.6661771124
 31
0.0
 11
70.8119225122
 21
150.8653760968
 31
0.0
 11
71.4825589628
 21
151.1254650359
 31
0.0
 11
72.2456991256
 21
151.4470755669
 31
0.0
 11
73.0947910959
 21
151.8199022495
 31
0.0
  0
SPLINE
  5
411
100
AcDbEntity
  8
RUNDUNGEN
100
AcDbSpline
 62
9
  6
CONTINUOUS
 70
0
 71
3
 72
12
 73
8
 74
6
 42
0.0000001
 43
0.0000001
 44
0.0000000001
 12
0.0000000001
 22
0.7817370515
 32
0.0
 13
0.7817370515
 23
0.0
 33
0.0
 40
0.0
 40
0.0
 40
0.0
 40
0.0
 40
0.2384186356
 40
0.4636971361
 40
0.6659140575
 40
0.842075925
 40
1.0
 40
1.0
 40
1.0
 40
1.0
 10
93.8909912253
 20
161.2199022495
 30
0.0
 10
93.8909912253
 20
161.2820291432
 30
0.0
 10
93.9030404568
 20
161.4032436777
 30
0.0
 10
93.9562050408
 20
161.569899848
 30
0.0
 10
94.0402724581
 20
161.7052244532
 30
0.0
 10
94.1499338596
 20
161.7969028456
 30
0.0
 10
94.23788259
 20
161.8199022495
 30
0.0
 10
94.2790342903
 20
161.8199022495
 30
0.0
 11
93.8909912253
 21
161.2199022495
 31
0.0
 11
93.9099834682
 21
161.4053127482
 31
0.0
 11
93.9651010621
 21
161.572573839
 31
0.0
 11
94.0509486097
 21
161.7053127947
 31
0.0
 11
94.1591226467
 21
161.7905362889
 31
0.0
 11
94.2790342903
 21
161.8199022495
 31
0.0
  0
SPLINE
  5
412
100
AcDbEntity
  8
RUNDUNGEN
100
AcDbSpline
 62
9
  6
CONTINUOUS
 70
0
 71
3
 72
12
 73
8
 74
6
 42
0.0000001
 43
0.0000001
 44
0.0000000001
 12
0.0000005942
 22
0.7817371891
 32
0.0
 13
-0.7817371891
 23
0.0
 33
0.0
 40
0.0
 40
0.0
 40
0.0
 40
0.0
 40
0.2384193895
 40
0.4636981982
 40
0.6659149852
 40
0.8420764489
 40
1.0
 40
1.0
 40
1.0
 40
1.0
 10
102.2985909666
 20
161.2199022495
 30
0.0
 10
102.2985910138
 20
161.2820293506
 30
0.0
 10
102.2865417878
 20
161.4032441976
 30
0.0
 10
102.2333770126
 20
161.5699006067
 30
0.0
 10
102.1493093963
 20
161.7052250673
 30
0.0
 10
102.0396479762
 20
161.7969030428
 30
0.0
 10
101.9516994726
 20
161.8199022495
 30
0.0
 10
101.9105479016
 20
161.8199022495
 30
0.0
 11
102.2985909666
 21
161.2199022495
 31
0.0
 11
102.2795987088
 21
161.4053133721
 31
0.0
 11
102.2244809109
 21
161.572574682
 31
0.0
 11
102.1386331903
 21
161.7053134339
 31
0.0
 11
102.0304592024
 21
161.7905365195
 31
0.0
 11
101.9105479016
 21
161.8199022495
 31
0.0
  0
SPLINE
  5
413
100
AcDbEntity
  8
RUNDUNGEN
100
AcDbSpline
 62
9
  6
CONTINUOUS
 70
0
 71
3
 72
13
 73
9
 74
7
 42
0.0000001
 43
0.0000001
 44
0.0000000001
 12
3.8544616265
 22
-0.0000424647
 32
0.0
 13
3.710049304
 23
1.0451835214
 33
0.0
 40
0.0
 40
0.0
 40
0.0
 40
0.0
 40
0.2078652029
 40
0.4028138008
 40
0.57793409
 40
0.7345738857
 40
0.8750182167
 40
1.0
 40
1.0
 40
1.0
 40
1.0
 10
212.9312133789
 20
149.8199022495
 30
0.0
 10
213.1982828616
 20
149.8198993072
 30
0.0
 10
213.7160264332
 20
149.8390211105
 30
0.0
 10
214.4548595307
 20
149.9178781411
 30
0.0
 10
215.1227287729
 20
150.0288975156
 30
0.0
 10
215.716217709
 20
150.1555366218
 30
0.0
 10
216.2425362706
 20
150.2864198524
 30
0.0
 10
216.57149944
 20
150.3763952276
 30
0.0
 10
216.7260622994
 20
150.4199381944
 30
0.0
 11
212.9312133789
 21
149.8199022495
 31
0.0
 11
213.7318867773
 21
149.8491782883
 31
0.0
 11
214.4791401961
 21
149.9282174228
 31
0.0
 11
215.1451307578
 21
150.0380994446
 31
0.0
 11
215.7357601029
 21
150.163341721
 31
0.0
 11
216.2612512904
 21
150.2933612099
 31
0.0
 11
216.7260622994
 21
150.4199381944
 31
0.0
  0
SPLINE
  5
414
100
AcDbEntity
  8
RUNDUNGEN
100
AcDbSpline
 62
9
  6
CONTINUOUS
 70
0
 71
3
 72
15
 73
11
 74
9
 42
0.0000001
 43
0.0000001
 44
0.0000000001
 12
-0.000597763
 22
2.3082590588
 32
0.0
 13
-2.3082591362
 23
0.0000053308
 33
0.0
 40
0.0
 40
0.0
 40
0.0
 40
0.0
 40
0.1490740665
 40
0.2869003861
 40
0.4166097539
 40
0.5408956659
 40
0.6612368012
 40
0.7780737315
 40
0.8911856799
 40
1.0
 40
1.0
 40
1.0
 40
1.0
 10
243.9312133789
 20
159.8199022495
 30
0.0
 10
243.9311836753
 20
159.934602771
 30
0.0
 10
243.9008451393
 20
160.1565254413
 30
0.0
 10
243.7767526075
 20
160.4552770232
 30
0.0
 10
243.5997803605
 20
160.7022589338
 30
0.0
 10
243.3865863262
 20
160.8986015201
 30
0.0
 10
243.1494333253
 20
161.0466915638
 30
0.0
 10
242.8986151454
 20
161.1487032
 30
0.0
 10
242.6435852019
 20
161.2072616543
 30
0.0
 10
242.4725643804
 20
161.2199020562
 30
0.0
 10
242.3888404976
 20
161.2199022495
 30
0.0
 11
243.9312133789
 21
159.8199022495
 31
0.0
 11
243.884774515
 21
160.1608558043
 31
0.0
 11
243.763414275
 21
160.454937472
 31
0.0
 11
243.5895237948
 21
160.6986671532
 31
0.0
 11
243.3788735222
 21
160.8934207019
 31
0.0
 11
243.1434743535
 21
161.0408932091
 31
0.0
 11
242.893763528
 21
161.1427615169
 31
0.0
 11
242.6393240217
 21
161.201322659
 31
0.0
 11
242.3888404976
 21
161.2199022495
 31
0.0
  0
SPLINE
  5
415
100
AcDbEntity
  8
RUNDUNGEN
100
AcDbSpline
 62
9
  6
CONTINUOUS
 70
0
 71
3
 72
14
 73
10
 74
8
 42
0.0000001
 43
0.0000001
 44
0.0000000001
 12
2.3071311933
 22
-0.0000314501
 32
0.0
 13
0.0007429262
 23
2.3071310739
 33
0.0
 40
0.0
 40
0.0
 40
0.0
 40
0.0
 40
0.1285472862
 40
0.2615457656
 40
0.3979937852
 40
0.5381114142
 40
0.683263325
 40
0.8366091938
 40
1.0
 40
1.0
 40
1.0
 40
1.0
 10
242.3888404976
 20
150.4199022495
 30
0.0
 10
242.4876989822
 20
150.4199009019
 30
0.0
 10
242.689278521
 20
150.4375025002
 30
0.0
 10
242.9861538292
 20
150.5185632071
 30
0.0
 10
243.2706980673
 20
150.6583581618
 30
0.0
 10
243.5285312088
 20
150.8591295877
 30
0.0
 10
243.7437178752
 20
151.1230303058
 30
0.0
 10
243.8943895212
 20
151.4491276349
 30
0.0
 10
243.9311729165
 20
151.6942475808
 30
0.0
 10
243.9312133789
 20
151.8199022495
 30
0.0
 11
242.3888404976
 21
150.4199022495
 31
0.0
 11
242.6842813844
 21
150.445819082
 31
0.0
 11
242.9802208179
 21
150.5268972491
 31
0.0
 11
243.2625368681
 21
150.6661771124
 31
0.0
 11
243.517140673
 21
150.8653760968
 31
0.0
 11
243.7280941582
 21
151.1254650359
 31
0.0
 11
243.8755165085
 21
151.4470755669
 31
0.0
 11
243.9312133789
 21
151.8199022495
 31
0.0
  0
SPLINE
  5
416
100
AcDbEntity
  8
RUNDUNGEN
100
AcDbSpline
 62
9
  6
CONTINUOUS
 70
0
 71
3
 72
12
 73
8
 74
6
 42
0.0000001
 43
0.0000001
 44
0.0000000001
 12
0.0
 22
-0.643236193
 32
0.0
 13
-0.643236193
 23
0.0
 33
0.0
 40
0.0
 40
0.0
 40
0.0
 40
0.0
 40
0.2884627149
 40
0.5507558722
 40
0.7639262907
 40
0.9125347117
 40
1.0
 40
1.0
 40
1.0
 40
1.0
 10
219.0075133074
 20
150.4199022495
 30
0.0
 10
219.0075133074
 20
150.3580523633
 30
0.0
 10
219.0027056568
 20
150.2398763253
 30
0.0
 10
218.9830776981
 20
150.0772098855
 30
0.0
 10
218.9499695739
 20
149.9464362693
 30
0.0
 10
218.9152506453
 20
149.8579751301
 30
0.0
 10
218.8709754934
 20
149.8199022495
 30
0.0
 10
218.8522218804
 20
149.8199022495
 30
0.0
 11
219.0075133074
 21
150.4199022495
 31
0.0
 11
218.9999141674
 21
150.2345082667
 31
0.0
 11
218.9778569317
 21
150.0672398611
 31
0.0
 11
218.943500857
 21
149.9344947645
 31
0.0
 11
218.9002101382
 21
149.8492690525
 31
0.0
 11
218.8522218804
 21
149.8199022495
 31
0.0
  0
SPLINE
  5
417
100
AcDbEntity
  8
RUNDUNGEN
100
AcDbSpline
 62
9
  6
CONTINUOUS
 70
0
 71
3
 72
12
 73
8
 74
6
 42
0.0000001
 43
0.0000001
 44
0.0000000001
 12
0.0
 22
-0.6432362514
 32
0.0
 13
-0.6432362514
 23
-0.0000000001
 33
0.0
 40
0.0
 40
0.0
 40
0.0
 40
0.0
 40
0.2884879047
 40
0.5507696252
 40
0.7639307065
 40
0.9125360675
 40
1.0
 40
1.0
 40
1.0
 40
1.0
 10
231.9170912769
 20
150.4199022495
 30
0.0
 10
231.9170912769
 20
150.3580469567
 30
0.0
 10
231.912283122
 20
150.23986794
 30
0.0
 10
231.8926538372
 20
150.0772006779
 30
0.0
 10
231.8595461571
 20
149.9464323187
 30
0.0
 10
231.8248277264
 20
149.8579739824
 30
0.0
 10
231.7805531743
 20
149.8199022495
 30
0.0
 10
231.7617998503
 20
149.8199022495
 30
0.0
 11
231.9170912769
 21
150.4199022495
 31
0.0
 11
231.9094907765
 21
150.234492089
 31
0.0
 11
231.8874332585
 21
150.0672311254
 31
0.0
 11
231.8530778578
 21
149.9344920455
 31
0.0
 11
231.8097875331
 21
149.8492683313
 31
0.0
 11
231.7617998503
 21
149.8199022495
 31
0.0
  0
SPLINE
  5
418
100
AcDbEntity
  8
RUNDUNGEN
100
AcDbSpline
 62
9
  6
CONTINUOUS
 70
0
 71
3
 72
12
 73
8
 74
6
 42
0.0000001
 43
0.0000001
 44
0.0000000001
 12
-0.0000002672
 22
-0.8309985783
 32
0.0
 13
-0.8309985783
 23
-0.0
 33
0.0
 40
0.0
 40
0.0
 40
0.0
 40
0.0
 40
0.2247407483
 40
0.4406833499
 40
0.6415761505
 40
0.8261965931
 40
1.0
 40
1.0
 40
1.0
 40
1.0
 10
242.3888404976
 20
150.4199022495
 30
0.0
 10
242.3888404775
 20
150.3576491687
 30
0.0
 10
242.3743612531
 20
150.2350458207
 30
0.0
 10
242.3105716131
 20
150.0671477188
 30
0.0
 10
242.2097240159
 20
149.9313641915
 30
0.0
 10
242.0796270816
 20
149.8414268128
 30
0.0
 10
241.9793568401
 20
149.8199022495
 30
0.0
 10
241.9312133788
 20
149.8199022495
 30
0.0
 11
242.3888404976
 21
150.4199022495
 31
0.0
 11
242.366442319
 21
150.2344909872
 31
0.0
 11
242.3014406085
 21
150.0672296332
 31
0.0
 11
242.2001985966
 21
149.9344909297
 31
0.0
 11
242.0726269302
 21
149.8492679322
 31
0.0
 11
241.9312133788
 21
149.8199022495
 31
0.0
  0
SPLINE
  5
419
100
AcDbEntity
  8
RUNDUNGEN
100
AcDbSpline
 62
9
  6
CONTINUOUS
 70
0
 71
3
 72
12
 73
8
 74
6
 42
0.0000001
 43
0.0000001
 44
0.0000000001
 12
0.0000000001
 22
0.830998626
 32
0.0
 13
-0.830998626
 23
0.0
 33
0.0
 40
0.0
 40
0.0
 40
0.0
 40
0.0
 40
0.2247397888
 40
0.4406819061
 40
0.6415747583
 40
0.8261957091
 40
1.0
 40
1.0
 40
1.0
 40
1.0
 10
242.3888404976
 20
161.2199022495
 30
0.0
 10
242.3888404976
 20
161.2821550681
 30
0.0
 10
242.3743614124
 20
161.4047580213
 30
0.0
 10
242.3105721646
 20
161.572655856
 30
0.0
 10
242.2097248284
 20
161.7084396075
 30
0.0
 10
242.0796277326
 20
161.7983774992
 30
0.0
 10
241.9793570879
 20
161.8199022495
 30
0.0
 10
241.9312133789
 20
161.8199022495
 30
0.0
 11
242.3888404976
 21
161.2199022495
 31
0.0
 11
242.3664425573
 21
161.4053127482
 31
0.0
 11
242.3014412522
 21
161.572573839
 31
0.0
 11
242.2001994844
 21
161.7053127947
 31
0.0
 11
242.0726276314
 21
161.7905362889
 31
0.0
 11
241.9312133789
 21
161.8199022495
 31
0.0
  0
SPLINE
  5
41A
100
AcDbEntity
  8
RUNDUNGEN
100
AcDbSpline
 62
9
  6
CONTINUOUS
 70
0
 71
3
 72
12
 73
8
 74
6
 42
0.0000001
 43
0.0000001
 44
0.0000000001
 12
0.0
 22
0.6432362514
 32
0.0
 13
-0.6432362514
 23
-0.0
 33
0.0
 40
0.0
 40
0.0
 40
0.0
 40
0.0
 40
0.288487961
 40
0.5507696684
 40
0.7639306944
 40
0.912536051
 40
1.0
 40
1.0
 40
1.0
 40
1.0
 10
231.9170912769
 20
161.2199022495
 30
0.0
 10
231.9170912769
 20
161.2817575544
 30
0.0
 10
231.9122831207
 20
161.3999365805
 30
0.0
 10
231.8926538334
 20
161.5626038393
 30
0.0
 10
231.8595461553
 20
161.6933721833
 30
0.0
 10
231.8248277298
 20
161.7818305099
 30
0.0
 10
231.7805531774
 20
161.8199022495
 30
0.0
 10
231.7617998498
 20
161.8199022495
 30
0.0
 11
231.9170912769
 21
161.2199022495
 31
0.0
 11
231.9094907735
 21
161.4053124461
 31
0.0
 11
231.8874332534
 21
161.5725734009
 31
0.0
 11
231.8530778605
 21
161.7053124461
 31
0.0
 11
231.8097875399
 21
161.7905361593
 31
0.0
 11
231.7617998498
 21
161.8199022495
 31
0.0
  0
SPLINE
  5
41B
100
AcDbEntity
  8
RUNDUNGEN
100
AcDbSpline
 62
9
  6
CONTINUOUS
 70
0
 71
3
 72
12
 73
8
 74
6
 42
0.0000001
 43
0.0000001
 44
0.0000000001
 12
0.0
 22
0.6432361932
 32
0.0
 13
-0.6432361932
 23
0.0
 33
0.0
 40
0.0
 40
0.0
 40
0.0
 40
0.0
 40
0.288462708
 40
0.5507559504
 40
0.7639262631
 40
0.9125347236
 40
1.0
 40
1.0
 40
1.0
 40
1.0
 10
219.0075133074
 20
161.2199022495
 30
0.0
 10
219.0075133074
 20
161.2817521342
 30
0.0
 10
219.0027056561
 20
161.3999281888
 30
0.0
 10
218.9830776971
 20
161.5625946236
 30
0.0
 10
218.9499695683
 20
161.693368241
 30
0.0
 10
218.9152506493
 20
161.7818293683
 30
0.0
 10
218.8709754908
 20
161.8199022495
 30
0.0
 10
218.8522218804
 20
161.8199022495
 30
0.0
 11
219.0075133074
 21
161.2199022495
 31
0.0
 11
218.9999141678
 21
161.4052962279
 31
0.0
 11
218.9778569224
 21
161.5725646876
 31
0.0
 11
218.9435008629
 21
161.7053097178
 31
0.0
 11
218.9002101331
 21
161.7905354528
 31
0.0
 11
218.8522218804
 21
161.8199022495
 31
0.0
  0
SPLINE
  5
41C
100
AcDbEntity
  8
RUNDUNGEN
100
AcDbSpline
 62
9
  6
CONTINUOUS
 70
0
 71
3
 72
11
 73
7
 74
5
 42
0.0000001
 43
0.0000001
 44
0.0000000001
 12
-0.4303574724
 22
0.1609333027
 32
0.0
 13
0.1513406649
 23
0.433823795
 33
0.0
 40
0.0
 40
0.0
 40
0.0
 40
0.0
 40
0.3944804539
 40
0.7122723559
 40
0.9198976514
 40
1.0
 40
1.0
 40
1.0
 40
1.0
 10
219.0075137487
 20
153.6456738399
 30
0.0
 10
218.950924545
 20
153.6668355207
 30
0.0
 10
218.851852299
 20
153.7060043919
 30
0.0
 10
218.7138683655
 20
153.763723928
 30
0.0
 10
218.6479879661
 20
153.802759461
 30
0.0
 10
218.5922472883
 20
153.8317504031
 30
0.0
 10
218.5962882025
 20
153.8433338381
 30
0.0
 11
219.0075137487
 21
153.6456738399
 31
0.0
 11
218.8388027331
 21
153.7119157118
 31
0.0
 11
218.7052625015
 21
153.7709671144
 31
0.0
 11
218.6213894001
 21
153.8164177749
 31
0.0
 11
218.5962882025
 21
153.8433338381
 31
0.0
  0
SPLINE
  5
41D
100
AcDbEntity
  8
RUNDUNGEN
100
AcDbSpline
 62
9
  6
CONTINUOUS
 70
0
 71
3
 72
11
 73
7
 74
5
 42
0.0000001
 43
0.0000001
 44
0.0000000001
 12
-0.4303512876
 22
-0.1609319461
 32
0.0
 13
0.1513301347
 23
-0.4338208298
 33
0.0
 40
0.0
 40
0.0
 40
0.0
 40
0.0
 40
0.3944809332
 40
0.7122724335
 40
0.9198973895
 40
1.0
 40
1.0
 40
1.0
 40
1.0
 10
219.0075136394
 20
157.9941306591
 30
0.0
 10
218.9509251802
 20
157.972969131
 30
0.0
 10
218.8518543027
 20
157.933800554
 30
0.0
 10
218.7138725669
 20
157.8760817348
 30
0.0
 10
218.647992863
 20
157.8370463235
 30
0.0
 10
218.5922533371
 20
157.8080560712
 30
0.0
 10
218.5962939834
 20
157.7964726776
 30
0.0
 11
219.0075136394
 21
157.9941306591
 31
0.0
 11
218.8388048468
 21
157.9278892886
 31
0.0
 11
218.7052667151
 21
157.868838519
 31
0.0
 11
218.621394969
 21
157.8233884165
 31
0.0
 11
218.5962939834
 21
157.7964726776
 31
0.0
  0
SPLINE
  5
41E
100
AcDbEntity
  8
RUNDUNGEN
100
AcDbSpline
 62
9
  6
CONTINUOUS
 70
0
 71
3
 72
13
 73
9
 74
7
 42
0.0000001
 43
0.0000001
 44
0.0000000001
 12
-3.710056869
 22
1.045173329
 32
0.0
 13
-3.8544661442
 23
-0.000044495
 33
0.0
 40
0.0
 40
0.0
 40
0.0
 40
0.0
 40
0.1267961564
 40
0.2692092135
 40
0.4273527002
 40
0.6024419093
 40
0.7947064774
 40
1.0
 40
1.0
 40
1.0
 40
1.0
 10
216.7260591378
 20
161.2198672452
 30
0.0
 10
216.5692521542
 20
161.2640418988
 30
0.0
 10
216.2355892484
 20
161.3552634924
 30
0.0
 10
215.702603049
 20
161.4874985133
 30
0.0
 10
215.1046399614
 20
161.6143881339
 30
0.0
 10
214.4381293315
 20
161.7241044282
 30
0.0
 10
213.70596352
 20
161.8012686883
 30
0.0
 10
213.1949790231
 20
161.8199052944
 30
0.0
 10
212.9312133789
 20
161.8199022495
 30
0.0
 11
216.7260591378
 21
161.2198672452
 31
0.0
 11
216.254481548
 21
161.3482146175
 31
0.0
 11
215.7215483289
 21
161.4797527292
 31
0.0
 11
215.125104227
 21
161.6055154457
 31
0.0
 11
214.4590606516
 21
161.7143400762
 31
0.0
 11
213.7219947499
 21
161.7913425052
 31
0.0
 11
212.9312133789
 21
161.8199022495
 31
0.0
  0
SPLINE
  5
41F
100
AcDbEntity
  8
02___PRT_ALL_AXES
100
AcDbSpline
 62
9
  6
CONTINUOUS
 70
0
 71
3
 72
9
 73
5
 74
3
 42
0.0000001
 43
0.0000001
 44
0.0000000001
 12
-0.2087490329
 22
-0.963294978
 32
0.0
 13
-0.0000239293
 23
-0.9856537794
 33
0.0
 40
0.0
 40
0.0
 40
0.0
 40
0.0
 40
0.5177231921
 40
1.0
 40
1.0
 40
1.0
 40
1.0
 10
107.6082896751
 20
82.3394414076
 30
0.0
 10
107.5722649365
 20
82.1732013573
 30
0.0
 10
107.5161251171
 20
81.8489357389
 30
0.0
 10
107.4947949428
 20
81.5202052733
 30
0.0
 10
107.4947910959
 20
81.3617526205
 30
0.0
 11
107.6082896751
 21
82.3394414076
 31
0.0
 11
107.5234654469
 21
81.8362449496
 31
0.0
 11
107.4947910959
 21
81.3617526205
 31
0.0
  0
SPLINE
  5
420
100
AcDbEntity
  8
02___PRT_ALL_AXES
100
AcDbSpline
 62
9
  6
CONTINUOUS
 70
0
 71
3
 72
9
 73
5
 74
3
 42
0.0000001
 43
0.0000001
 44
0.0000000001
 12
-0.2087469753
 22
-0.9632914905
 32
0.0
 13
-0.0000239292
 23
-0.9856499352
 33
0.0
 40
0.0
 40
0.0
 40
0.0
 40
0.0
 40
0.5177237404
 40
1.0
 40
1.0
 40
1.0
 40
1.0
 10
82.608286033
 20
82.3394381225
 30
0.0
 10
82.5722616114
 20
82.173198498
 30
0.0
 10
82.5161261937
 20
81.8489334462
 30
0.0
 10
82.4947949428
 20
81.5202044752
 30
0.0
 10
82.4947910959
 20
81.3617526205
 30
0.0
 11
82.608286033
 21
82.3394381225
 31
0.0
 11
82.5234651693
 21
81.8362425676
 31
0.0
 11
82.4947910959
 21
81.3617526205
 31
0.0
  0
SPLINE
  5
421
100
AcDbEntity
  8
RUNDUNGEN
100
AcDbSpline
 62
9
  6
CONTINUOUS
 70
0
 71
3
 72
13
 73
9
 74
7
 42
0.0000001
 43
0.0000001
 44
0.0000000001
 12
-0.7984153775
 22
-3.7640650827
 32
0.0
 13
-0.0000324334
 23
-3.8478114637
 33
0.0
 40
0.0
 40
0.0
 40
0.0
 40
0.0
 40
0.2130961145
 40
0.4109452838
 40
0.586640538
 40
0.7417760631
 40
0.8790801241
 40
1.0
 40
1.0
 40
1.0
 40
1.0
 10
83.6947910959
 20
85.1564858127
 30
0.0
 10
83.6380780244
 20
84.8891165981
 30
0.0
 10
83.5286706805
 20
84.3735160698
 30
0.0
 10
83.3791146328
 20
83.636078317
 30
0.0
 10
83.2568144726
 20
82.9690512339
 30
0.0
 10
83.166372076
 20
82.3753259118
 30
0.0
 10
83.1097387745
 20
81.8479819971
 30
0.0
 10
83.0947924039
 20
81.5167538815
 30
0.0
 10
83.0947910967
 20
81.3616615867
 30
0.0
 11
83.6947910959
 21
85.1564858127
 31
0.0
 11
83.525859759
 21
84.3541229098
 31
0.0
 11
83.3759404229
 21
83.6077443022
 31
0.0
 11
83.2556165222
 21
82.9424960529
 31
0.0
 11
83.1675513726
 21
82.3520956439
 31
0.0
 11
83.1132708458
 21
81.8265713394
 31
0.0
 11
83.0947910967
 21
81.3616615867
 31
0.0
  0
SPLINE
  5
422
100
AcDbEntity
  8
RUNDUNGEN
100
AcDbSpline
 62
9
  6
CONTINUOUS
 70
0
 71
3
 72
12
 73
8
 74
6
 42
0.0000001
 43
0.0000001
 44
0.0000000001
 12
0.0
 22
0.8909806308
 32
0.0
 13
0.8909806308
 23
0.0000004005
 33
0.0
 40
0.0
 40
0.0
 40
0.0
 40
0.0
 40
0.189576519
 40
0.3832586995
 40
0.5834055448
 40
0.7898144561
 40
1.0
 40
1.0
 40
1.0
 40
1.0
 10
83.0947910959
 20
79.2354773113
 30
0.0
 10
83.0947910959
 20
79.2917803135
 30
0.0
 10
83.115240955
 20
79.4065509349
 30
0.0
 10
83.2032074953
 20
79.5594354175
 30
0.0
 10
83.3387640109
 20
79.6797185399
 30
0.0
 10
83.5079154384
 20
79.7562827725
 30
0.0
 10
83.6323673464
 20
79.7737507833
 30
0.0
 10
83.6947910959
 20
79.7737508114
 30
0.0
 11
83.0947910959
 21
79.2354773113
 31
0.0
 11
83.1241575425
 21
79.4018139107
 31
0.0
 11
83.2093820198
 21
79.5518678429
 31
0.0
 11
83.3421215517
 21
79.6709506806
 31
0.0
 11
83.5093821471
 21
79.7474061307
 31
0.0
 11
83.6947910959
 21
79.7737508114
 31
0.0
  0
SPLINE
  5
423
100
AcDbEntity
  8
02___PRT_ALL_AXES
100
AcDbSpline
 62
9
  6
CONTINUOUS
 70
0
 71
3
 72
9
 73
5
 74
3
 42
0.0000001
 43
0.0000001
 44
0.0000000001
 12
-0.000033438
 22
0.985646184
 32
0.0
 13
-0.208748458
 23
0.9632873312
 33
0.0
 40
0.0
 40
0.0
 40
0.0
 40
0.0
 40
0.4825700222
 40
1.0
 40
1.0
 40
1.0
 40
1.0
 10
63.6947910959
 20
81.3617526205
 30
0.0
 10
63.6947857172
 20
81.5203003875
 30
0.0
 10
63.6734475304
 20
81.8490285809
 30
0.0
 10
63.6173035342
 20
82.173290085
 30
0.0
 10
63.5812992975
 20
82.3394346658
 30
0.0
 11
63.6947910959
 21
81.3617526205
 31
0.0
 11
63.6660860166
 21
81.8365289556
 31
0.0
 11
63.5812992975
 21
82.3394346658
 31
0.0
  0
SPLINE
  5
424
100
AcDbEntity
  8
RUNDUNGEN
100
AcDbSpline
 62
9
  6
CONTINUOUS
 70
0
 71
3
 72
10
 73
6
 74
4
 42
0.0000001
 43
0.0000001
 44
0.0000000001
 12
0.333258865
 22
0.4752425631
 32
0.0
 13
0.5766480273
 23
-0.0167660761
 33
0.0
 40
0.0
 40
0.0
 40
0.0
 40
0.0
 40
0.3270267846
 40
0.6605190744
 40
1.0
 40
1.0
 40
1.0
 40
1.0
 10
83.153265742
 20
79.248896354
 30
0.0
 10
83.1895939337
 20
79.3007020364
 30
0.0
 10
83.2813724232
 20
79.3919737776
 30
0.0
 10
83.4577219819
 20
79.4767694537
 30
0.0
 10
83.5886484188
 20
79.4933078448
 30
0.0
 10
83.6539020875
 20
79.4914105904
 30
0.0
 11
83.153265742
 21
79.248896354
 31
0.0
 11
83.2865296721
 21
79.3824364568
 31
0.0
 11
83.4596736123
 21
79.4663094536
 31
0.0
 11
83.6539020875
 21
79.4914105904
 31
0.0
  0
SPLINE
  5
425
100
AcDbEntity
  8
02___PRT_ALL_AXES
100
AcDbSpline
 62
9
  6
CONTINUOUS
 70
0
 71
3
 72
10
 73
6
 74
4
 42
0.0000001
 43
0.0000001
 44
0.0000000001
 12
-0.679704879
 22
1.8735901817
 32
0.0
 13
-0.8500086177
 23
1.8027268904
 33
0.0
 40
0.0
 40
0.0
 40
0.0
 40
0.0
 40
0.3140256529
 40
0.6489339604
 40
1.0
 40
1.0
 40
1.0
 40
1.0
 10
63.2892764616
 20
83.3293243591
 30
0.0
 10
63.2181282055
 20
83.5254428191
 30
0.0
 10
63.059003761
 20
83.9263653353
 30
0.0
 10
62.7885576211
 20
84.5332781304
 30
0.0
 10
62.5942608156
 20
84.9455270828
 30
0.0
 10
62.4947910959
 20
85.1564858127
 30
0.0
 11
63.2892764616
 21
83.3293243591
 31
0.0
 11
63.0602893351
 21
83.9118066493
 31
0.0
 11
62.7908351538
 21
84.5224998399
 31
0.0
 11
62.4947910959
 21
85.1564858127
 31
0.0
  0
SPLINE
  5
426
100
AcDbEntity
  8
02___PRT_ALL_AXES
100
AcDbSpline
 62
9
  6
CONTINUOUS
 70
0
 71
3
 72
10
 73
6
 74
4
 42
0.0000001
 43
0.0000001
 44
0.0000000001
 12
-0.8500283078
 22
-1.8027237174
 32
0.0
 13
-0.6797309262
 23
-1.8735866122
 33
0.0
 40
0.0
 40
0.0
 40
0.0
 40
0.0
 40
0.3520250084
 40
0.6879158891
 40
1.0
 40
1.0
 40
1.0
 40
1.0
 10
83.6947910959
 20
85.1564858127
 30
0.0
 10
83.5950473552
 20
84.9449512022
 30
0.0
 10
83.4002030637
 20
84.5315331815
 30
0.0
 10
83.1298217582
 20
83.9245868651
 30
0.0
 10
82.9710169358
 20
83.5242246398
 30
0.0
 10
82.9003058619
 20
83.3293191025
 30
0.0
 11
83.6947910959
 21
85.1564858127
 31
0.0
 11
83.3979493672
 21
84.5207607655
 31
0.0
 11
83.1277904485
 21
83.9082360076
 31
0.0
 11
82.9003058619
 21
83.3293191025
 31
0.0
  0
SPLINE
  5
427
100
AcDbEntity
  8
RUNDUNGEN
100
AcDbSpline
 62
9
  6
CONTINUOUS
 70
0
 71
3
 72
10
 73
6
 74
4
 42
0.0000001
 43
0.0000001
 44
0.0000000001
 12
-0.3332623143
 22
0.4752354749
 32
0.0
 13
-0.5766443643
 23
-0.0167647689
 33
0.0
 40
0.0
 40
0.0
 40
0.0
 40
0.0
 40
0.3270270431
 40
0.6605193562
 40
1.0
 40
1.0
 40
1.0
 40
1.0
 10
63.0363147627
 20
79.2488943449
 30
0.0
 10
62.9999861663
 20
79.3006992956
 30
0.0
 10
62.9082074592
 20
79.3919696091
 30
0.0
 10
62.7318587827
 20
79.4767639994
 30
0.0
 10
62.6009333044
 20
79.4933023131
 30
0.0
 10
62.5356801044
 20
79.4914052082
 30
0.0
 11
63.0363147627
 21
79.2488943449
 31
0.0
 11
62.903050359
 21
79.3824324766
 31
0.0
 11
62.7299071689
 21
79.4663042227
 31
0.0
 11
62.5356801044
 21
79.4914052082
 31
0.0
  0
SPLINE
  5
428
100
AcDbEntity
  8
RUNDUNGEN
100
AcDbSpline
 62
9
  6
CONTINUOUS
 70
0
 71
3
 72
12
 73
8
 74
6
 42
0.0000001
 43
0.0000001
 44
0.0000000001
 12
-0.0
 22
0.8909806937
 32
0.0
 13
-0.8909806937
 23
0.0000000002
 33
0.0
 40
0.0
 40
0.0
 40
0.0
 40
0.0
 40
0.1895759181
 40
0.3832575297
 40
0.5834041661
 40
0.7898134582
 40
1.0
 40
1.0
 40
1.0
 40
1.0
 10
63.0947910959
 20
79.2354773113
 30
0.0
 10
63.0947910959
 20
79.291780139
 30
0.0
 10
63.0743413767
 20
79.4065504119
 30
0.0
 10
62.9863753184
 20
79.5594346856
 30
0.0
 10
62.8508191419
 20
79.6797180303
 30
0.0
 10
62.6816674926
 20
79.7562826974
 30
0.0
 10
62.5572151462
 20
79.7737508115
 30
0.0
 10
62.4947910959
 20
79.7737508115
 30
0.0
 11
63.0947910959
 21
79.2354773113
 31
0.0
 11
63.0654248452
 21
79.4018134137
 31
0.0
 11
62.9802008677
 21
79.5518670609
 31
0.0
 11
62.8474617185
 21
79.6709500652
 31
0.0
 11
62.6802009287
 21
79.7474059372
 31
0.0
 11
62.4947910959
 21
79.7737508115
 31
0.0
  0
SPLINE
  5
429
100
AcDbEntity
  8
RUNDUNGEN
100
AcDbSpline
 62
9
  6
CONTINUOUS
 70
0
 71
3
 72
13
 73
9
 74
7
 42
0.0000001
 43
0.0000001
 44
0.0000000001
 12
-0.0000400699
 22
3.8478284261
 32
0.0
 13
-0.7984070281
 23
3.7640841935
 33
0.0
 40
0.0
 40
0.0
 40
0.0
 40
0.0
 40
0.1226559909
 40
0.2619099747
 40
0.4186578281
 40
0.5945865112
 40
0.7899787343
 40
1.0
 40
1.0
 40
1.0
 40
1.0
 10
63.0947910949
 20
81.3616400538
 30
0.0
 10
63.0947894566
 20
81.51895979
 30
0.0
 10
63.0794215832
 20
81.854916683
 30
0.0
 10
63.0214758177
 20
82.3889598529
 30
0.0
 10
62.9296536043
 20
82.9874017851
 30
0.0
 10
62.8070114228
 20
83.6535693881
 30
0.0
 10
62.658620549
 20
84.3843110871
 30
0.0
 10
62.5506852475
 20
84.8929732372
 30
0.0
 10
62.4947910959
 20
85.1564858127
 30
0.0
 11
63.0947910949
 21
81.3616400538
 31
0.0
 11
63.075815553
 21
81.8332176437
 31
0.0
 11
63.0202180401
 21
82.3661508627
 31
0.0
 11
62.9306027469
 21
82.9625949647
 31
0.0
 11
62.8096138802
 21
83.62863854
 31
0.0
 11
62.6613207507
 21
84.3657044417
 31
0.0
 11
62.4947910959
 21
85.1564858127
 31
0.0
  0
SPLINE
  5
42A
100
AcDbEntity
  8
RUNDUNGEN
100
AcDbSpline
 62
9
  6
CONTINUOUS
 70
0
 71
3
 72
13
 73
9
 74
7
 42
0.0000001
 43
0.0000001
 44
0.0000000001
 12
-0.7984153776
 22
-3.7640650825
 32
0.0
 13
-0.0000324333
 23
-3.8478114636
 33
0.0
 40
0.0
 40
0.0
 40
0.0
 40
0.0
 40
0.2130960953
 40
0.4109452673
 40
0.586640526
 40
0.7417760554
 40
0.8790801205
 40
1.0
 40
1.0
 40
1.0
 40
1.0
 10
108.6947910959
 20
85.1564858127
 30
0.0
 10
108.6380780295
 20
84.8891166222
 30
0.0
 10
108.52867069
 20
84.3735161146
 30
0.0
 10
108.3791146445
 20
83.6360783772
 30
0.0
 10
108.2568144803
 20
82.96905128
 30
0.0
 10
108.1663720798
 20
82.3753259419
 30
0.0
 10
108.1097387754
 20
81.847982012
 30
0.0
 10
108.0947924039
 20
81.5167538864
 30
0.0
 10
108.0947910967
 20
81.3616615868
 30
0.0
 11
108.6947910959
 21
85.1564858127
 31
0.0
 11
108.525859774
 21
84.354122982
 31
0.0
 11
108.3759404349
 21
83.6077443646
 31
0.0
 11
108.2556165298
 21
82.9424960988
 31
0.0
 11
108.1675513764
 21
82.3520956738
 31
0.0
 11
108.1132708468
 21
81.8265713536
 31
0.0
 11
108.0947910967
 21
81.3616615868
 31
0.0
  0
SPLINE
  5
42B
100
AcDbEntity
  8
RUNDUNGEN
100
AcDbSpline
 62
9
  6
CONTINUOUS
 70
0
 71
3
 72
12
 73
8
 74
6
 42
0.0000001
 43
0.0000001
 44
0.0000000001
 12
0.0
 22
0.8909806324
 32
0.0
 13
0.8909806324
 23
0.0000003904
 33
0.0
 40
0.0
 40
0.0
 40
0.0
 40
0.0
 40
0.1895764936
 40
0.3832586563
 40
0.5834054983
 40
0.7898144245
 40
1.0
 40
1.0
 40
1.0
 40
1.0
 10
108.0947910959
 20
79.2354773113
 30
0.0
 10
108.0947910959
 20
79.291780306
 30
0.0
 10
108.1152409495
 20
79.4065509144
 30
0.0
 10
108.2032074726
 20
79.5594353906
 30
0.0
 10
108.3387639783
 20
79.6797185221
 30
0.0
 10
108.5079154143
 20
79.7562827695
 30
0.0
 10
108.632367337
 20
79.773750784
 30
0.0
 10
108.6947910959
 20
79.7737508114
 30
0.0
 11
108.0947910959
 21
79.2354773113
 31
0.0
 11
108.1241575344
 21
79.4018138894
 31
0.0
 11
108.2093819945
 21
79.5518678136
 31
0.0
 11
108.3421215156
 21
79.6709506593
 31
0.0
 11
108.5093821192
 21
79.7474061242
 31
0.0
 11
108.6947910959
 21
79.7737508114
 31
0.0
  0
SPLINE
  5
42C
100
AcDbEntity
  8
RUNDUNGEN
100
AcDbSpline
 62
9
  6
CONTINUOUS
 70
0
 71
3
 72
10
 73
6
 74
4
 42
0.0000001
 43
0.0000001
 44
0.0000000001
 12
0.3332588908
 22
0.4752425208
 32
0.0
 13
0.5766480077
 23
-0.016766087
 33
0.0
 40
0.0
 40
0.0
 40
0.0
 40
0.0
 40
0.3270267842
 40
0.6605190742
 40
1.0
 40
1.0
 40
1.0
 40
1.0
 10
108.1532657447
 20
79.2488963429
 30
0.0
 10
108.1895939391
 20
79.3007020207
 30
0.0
 10
108.2813724317
 20
79.3919737522
 30
0.0
 10
108.4577219882
 20
79.4767694167
 30
0.0
 10
108.588648421
 20
79.4933078034
 30
0.0
 10
108.6539020875
 20
79.4914105478
 30
0.0
 11
108.1532657447
 21
79.2488963429
 31
0.0
 11
108.2865296793
 21
79.382436432
 31
0.0
 11
108.4596736179
 21
79.4663094175
 31
0.0
 11
108.6539020875
 21
79.4914105478
 31
0.0
  0
SPLINE
  5
42D
100
AcDbEntity
  8
RUNDUNGEN
100
AcDbSpline
 62
9
  6
CONTINUOUS
 70
0
 71
3
 72
10
 73
6
 74
4
 42
0.0000001
 43
0.0000001
 44
0.0000000001
 12
-0.3332623171
 22
0.4752354761
 32
0.0
 13
-0.5766443662
 23
-0.0167647798
 33
0.0
 40
0.0
 40
0.0
 40
0.0
 40
0.0
 40
0.3270270408
 40
0.660519354
 40
1.0
 40
1.0
 40
1.0
 40
1.0
 10
88.036314768
 20
79.2488943449
 30
0.0
 10
87.9999861715
 20
79.3006992954
 30
0.0
 10
87.9082074634
 20
79.3919696082
 30
0.0
 10
87.7318587846
 20
79.4767639958
 30
0.0
 10
87.6009333051
 20
79.4933023071
 30
0.0
 10
87.5356801044
 20
79.491405201
 30
0.0
 11
88.036314768
 21
79.2488943449
 31
0.0
 11
87.9030503636
 21
79.3824324751
 31
0.0
 11
87.7299071714
 21
79.4663042188
 31
0.0
 11
87.5356801044
 21
79.491405201
 31
0.0
  0
SPLINE
  5
42E
100
AcDbEntity
  8
RUNDUNGEN
100
AcDbSpline
 62
9
  6
CONTINUOUS
 70
0
 71
3
 72
12
 73
8
 74
6
 42
0.0000001
 43
0.0000001
 44
0.0000000001
 12
-0.0
 22
0.8909806937
 32
0.0
 13
-0.8909806937
 23
0.0000000002
 33
0.0
 40
0.0
 40
0.0
 40
0.0
 40
0.0
 40
0.1895759171
 40
0.3832575283
 40
0.5834041648
 40
0.7898134574
 40
1.0
 40
1.0
 40
1.0
 40
1.0
 10
88.0947910959
 20
79.2354773113
 30
0.0
 10
88.0947910959
 20
79.2917801387
 30
0.0
 10
88.0743413768
 20
79.4065504112
 30
0.0
 10
87.9863753191
 20
79.5594346847
 30
0.0
 10
87.8508191428
 20
79.6797180297
 30
0.0
 10
87.6816674933
 20
79.7562826973
 30
0.0
 10
87.5572151465
 20
79.7737508114
 30
0.0
 10
87.4947910959
 20
79.7737508115
 30
0.0
 11
88.0947910959
 21
79.2354773113
 31
0.0
 11
88.0654248455
 21
79.4018134128
 31
0.0
 11
87.9802008686
 21
79.5518670599
 31
0.0
 11
87.8474617195
 21
79.6709500645
 31
0.0
 11
87.6802009294
 21
79.747405937
 31
0.0
 11
87.4947910959
 21
79.7737508115
 31
0.0
  0
SPLINE
  5
42F
100
AcDbEntity
  8
RUNDUNGEN
100
AcDbSpline
 62
9
  6
CONTINUOUS
 70
0
 71
3
 72
13
 73
9
 74
7
 42
0.0000001
 43
0.0000001
 44
0.0000000001
 12
-0.0000400698
 22
3.8478284259
 32
0.0
 13
-0.7984070282
 23
3.7640841933
 33
0.0
 40
0.0
 40
0.0
 40
0.0
 40
0.0
 40
0.1226559947
 40
0.2619099827
 40
0.4186578404
 40
0.5945865277
 40
0.7899787527
 40
1.0
 40
1.0
 40
1.0
 40
1.0
 10
88.0947910949
 20
81.361640054
 30
0.0
 10
88.0947894566
 20
81.518959795
 30
0.0
 10
88.0794215823
 20
81.8549166982
 30
0.0
 10
88.0214758138
 20
82.3889598836
 30
0.0
 10
87.9296535965
 20
82.9874018317
 30
0.0
 10
87.8070114112
 20
83.6535694477
 30
0.0
 10
87.6586205397
 20
84.384311131
 30
0.0
 10
87.5506852426
 20
84.8929732604
 30
0.0
 10
87.4947910959
 20
85.1564858127
 30
0.0
 11
88.0947910949
 21
81.361640054
 31
0.0
 11
88.0758155519
 21
81.8332176582
 31
0.0
 11
88.0202180362
 21
82.3661508934
 31
0.0
 11
87.9306027391
 21
82.9625950115
 31
0.0
 11
87.8096138681
 21
83.6286386025
 31
0.0
 11
87.6613207363
 21
84.3657045112
 31
0.0
 11
87.4947910959
 21
85.1564858127
 31
0.0
  0
LINE
  5
430
100
AcDbEntity
  8
RUNDUNGEN
100
AcDbLine
 62
9
  6
CONTINUOUS
 10
107.6987370245
 20
91.1564858127
 11
105.7332375405
 21
85.1563011329
  0
LINE
  5
431
100
AcDbEntity
  8
RUNDUNGEN
100
AcDbLine
 62
9
  6
CONTINUOUS
 10
108.6539020875
 20
79.4914027622
 11
108.5551872887
 21
79.1564858127
  0
LINE
  5
432
100
AcDbEntity
  8
RUNDUNGEN
100
AcDbLine
 62
9
  6
CONTINUOUS
 10
82.6987370245
 20
91.1564858127
 11
80.7332375405
 21
85.1563011329
  0
LINE
  5
433
100
AcDbEntity
  8
RUNDUNGEN
100
AcDbLine
 62
9
  6
CONTINUOUS
 10
90.4563442887
 20
85.1563022544
 11
88.4908451674
 21
91.1564858127
  0
LINE
  5
434
100
AcDbEntity
  8
RUNDUNGEN
100
AcDbLine
 62
9
  6
CONTINUOUS
 10
83.6539020875
 20
79.4914027622
 11
83.5551872887
 21
79.1564858127
  0
SPLINE
  5
435
100
AcDbEntity
  8
02___PRT_ALL_AXES
100
AcDbSpline
 62
9
  6
CONTINUOUS
 70
0
 71
3
 72
9
 73
5
 74
3
 42
0.0000001
 43
0.0000001
 44
0.0000000001
 12
-0.0000334381
 22
0.985650024
 32
0.0
 13
-0.2087505124
 23
0.9632908152
 33
0.0
 40
0.0
 40
0.0
 40
0.0
 40
0.0
 40
0.4825705724
 40
1.0
 40
1.0
 40
1.0
 40
1.0
 10
88.6947910959
 20
81.3617526205
 30
0.0
 10
88.6947857172
 20
81.520301186
 30
0.0
 10
88.6734486072
 20
81.8490308726
 30
0.0
 10
88.6173002122
 20
82.1732929423
 30
0.0
 10
88.5812956595
 20
82.3394379473
 30
0.0
 11
88.6947910959
 21
81.3617526205
 31
0.0
 11
88.6660857388
 21
81.8365313386
 31
0.0
 11
88.5812956595
 21
82.3394379473
 31
0.0
  0
LINE
  5
436
100
AcDbEntity
  8
RUNDUNGEN
100
AcDbLine
 62
9
  6
CONTINUOUS
 10
62.6343949032
 20
79.1564858127
 11
62.5356801044
 21
79.4914027622
  0
SPLINE
  5
437
100
AcDbEntity
  8
02___PRT_ALL_AXES
100
AcDbSpline
 62
9
  6
CONTINUOUS
 70
0
 71
3
 72
10
 73
6
 74
4
 42
0.0000001
 43
0.0000001
 44
0.0000000001
 12
-0.6797045685
 22
1.8736018583
 32
0.0
 13
-0.8500132538
 23
1.8027367229
 33
0.0
 40
0.0
 40
0.0
 40
0.0
 40
0.0
 40
0.3140241625
 40
0.6489331357
 40
1.0
 40
1.0
 40
1.0
 40
1.0
 10
88.2892728805
 20
83.3293112726
 30
0.0
 10
88.2181249946
 20
83.5254300241
 30
0.0
 10
88.0590108172
 20
83.9263585299
 30
0.0
 10
87.7885587911
 20
84.5332729112
 30
0.0
 10
87.5942615918
 20
84.9455254366
 30
0.0
 10
87.4947910959
 20
85.1564858127
 30
0.0
 11
88.2892728805
 21
83.3293112726
 31
0.0
 11
88.0602933763
 21
83.9117970354
 31
0.0
 11
87.7908374274
 21
84.5224948756
 31
0.0
 11
87.4947910959
 21
85.1564858127
 31
0.0
  0
SPLINE
  5
438
100
AcDbEntity
  8
RUNDUNGEN
100
AcDbSpline
 62
9
  6
CONTINUOUS
 70
0
 71
3
 72
15
 73
11
 74
9
 42
0.0000001
 43
0.0000001
 44
0.0000000001
 12
-4.4503058442
 22
0.0005614385
 32
0.0
 13
-2.8330793348
 23
3.4320378647
 33
0.0
 40
0.0
 40
0.0
 40
0.0
 40
0.0
 40
0.158759918
 40
0.3042166174
 40
0.4389868167
 40
0.5654904995
 40
0.6849460305
 40
0.7975287782
 40
0.9027812879
 40
1.0
 40
1.0
 40
1.0
 40
1.0
 10
98.0947910959
 20
54.1564858127
 30
0.0
 10
97.8592810323
 20
54.1565155241
 30
0.0
 10
97.4070325382
 20
54.1954279606
 30
0.0
 10
96.7733777559
 20
54.35525406
 30
0.0
 10
96.2130459266
 20
54.5836288655
 30
0.0
 10
95.7185813935
 20
54.8589903148
 30
0.0
 10
95.2828425423
 20
55.1654497788
 30
0.0
 10
94.9009247822
 20
55.4896213675
 30
0.0
 10
94.56918938
 20
55.8194002917
 30
0.0
 10
94.3708518121
 20
56.045257149
 30
0.0
 10
94.2790423706
 20
56.1564765827
 30
0.0
 11
98.0947910959
 21
54.1564858127
 31
0.0
 11
97.3908311581
 21
54.216696481
 31
0.0
 11
96.7629203439
 21
54.3740495905
 31
0.0
 11
96.2071437996
 21
54.5995153723
 31
0.0
 11
95.7148555317
 21
54.8726432467
 31
0.0
 11
95.2795940948
 21
55.1778653899
 31
0.0
 11
94.8972424184
 21
55.5016491377
 31
0.0
 11
94.5647442697
 21
55.8315719064
 31
0.0
 11
94.2790423706
 21
56.1564765827
 31
0.0
  0
SPLINE
  5
439
100
AcDbEntity
  8
RUNDUNGEN
100
AcDbSpline
 62
9
  6
CONTINUOUS
 70
0
 71
3
 72
15
 73
11
 74
9
 42
0.0000001
 43
0.0000001
 44
0.0000000001
 12
-2.833075127
 22
-3.4320318222
 32
0.0
 13
-4.4502985046
 23
-0.0005692309
 33
0.0
 40
0.0
 40
0.0
 40
0.0
 40
0.0
 40
0.0968362549
 40
0.2017772977
 40
0.3141606455
 40
0.4335342368
 40
0.5600621334
 40
0.6949739741
 40
0.840735095
 40
1.0
 40
1.0
 40
1.0
 40
1.0
 10
101.9105407613
 20
56.1564776547
 30
0.0
 10
101.819092633
 20
56.045695952
 30
0.0
 10
101.6214634988
 20
55.8205911482
 30
0.0
 10
101.2907928821
 20
55.4916273346
 30
0.0
 10
100.9097414606
 20
55.1678014781
 30
0.0
 10
100.4745514652
 20
54.8612315109
 30
0.0
 10
99.9802165049
 20
54.5853857932
 30
0.0
 10
99.4194313109
 20
54.3562679491
 30
0.0
 10
98.784507249
 20
54.1956579436
 30
0.0
 10
98.3310498855
 20
54.1565160322
 30
0.0
 10
98.0947910959
 20
54.1564858127
 30
0.0
 11
101.9105407613
 21
56.1564776547
 31
0.0
 11
101.6260039676
 21
55.8328159091
 31
0.0
 11
101.294614061
 21
55.5037453272
 31
0.0
 11
100.9131337948
 21
55.1803071182
 31
0.0
 11
100.4784051904
 21
54.8749620603
 31
0.0
 11
99.9862579943
 21
54.6013601417
 31
0.0
 11
99.4300898985
 21
54.3751859414
 31
0.0
 11
98.8009727117
 21
54.2170785064
 31
0.0
 11
98.0947910959
 21
54.1564858127
 31
0.0
  0
LINE
  5
43A
100
AcDbEntity
  8
RUNDUNGEN
100
AcDbLine
 62
9
  6
CONTINUOUS
 10
65.4563442887
 20
85.1563022544
 11
63.4908451674
 21
91.1564858127
  0
SPLINE
  5
43B
100
AcDbEntity
  8
RUNDUNGEN
100
AcDbSpline
 62
9
  6
CONTINUOUS
 70
0
 71
3
 72
15
 73
11
 74
9
 42
0.0000001
 43
0.0000001
 44
0.0000000001
 12
-4.4503058442
 22
0.0005614385
 32
0.0
 13
-2.8330793347
 23
3.4320378648
 33
0.0
 40
0.0
 40
0.0
 40
0.0
 40
0.0
 40
0.1587599188
 40
0.3042166188
 40
0.4389868183
 40
0.5654905012
 40
0.6849460321
 40
0.7975287794
 40
0.9027812885
 40
1.0
 40
1.0
 40
1.0
 40
1.0
 10
73.0947910959
 20
54.1564858127
 30
0.0
 10
72.8592810311
 20
54.1565155241
 30
0.0
 10
72.4070325349
 20
54.195427961
 30
0.0
 10
71.7733777504
 20
54.3552540617
 30
0.0
 10
71.2130459201
 20
54.5836288686
 30
0.0
 10
70.7185813872
 20
54.8589903188
 30
0.0
 10
70.2828425369
 20
55.165449783
 30
0.0
 10
69.9009247783
 20
55.4896213711
 30
0.0
 10
69.5691893781
 20
55.8194002939
 30
0.0
 10
69.3708518114
 20
56.0452571498
 30
0.0
 10
69.2790423706
 20
56.1564765827
 30
0.0
 11
73.0947910959
 21
54.1564858127
 31
0.0
 11
72.3908311545
 21
54.2166964816
 31
0.0
 11
71.762920338
 21
54.3740495925
 31
0.0
 11
71.2071437929
 21
54.5995153755
 31
0.0
 11
70.7148555251
 21
54.8726432508
 31
0.0
 11
70.2795940892
 21
55.1778653942
 31
0.0
 11
69.8972424143
 21
55.5016491415
 31
0.0
 11
69.5647442676
 21
55.8315719086
 31
0.0
 11
69.2790423706
 21
56.1564765827
 31
0.0
  0
SPLINE
  5
43C
100
AcDbEntity
  8
RUNDUNGEN
100
AcDbSpline
 62
9
  6
CONTINUOUS
 70
0
 71
3
 72
15
 73
11
 74
9
 42
0.0000001
 43
0.0000001
 44
0.0000000001
 12
-2.833075127
 22
-3.4320318223
 32
0.0
 13
-4.4502985046
 23
-0.000569231
 33
0.0
 40
0.0
 40
0.0
 40
0.0
 40
0.0
 40
0.0968362541
 40
0.2017772963
 40
0.3141606438
 40
0.4335342349
 40
0.5600621316
 40
0.6949739726
 40
0.8407350941
 40
1.0
 40
1.0
 40
1.0
 40
1.0
 10
76.9105407613
 20
56.1564776547
 30
0.0
 10
76.8190926337
 20
56.0456959529
 30
0.0
 10
76.6214635009
 20
55.8205911506
 30
0.0
 10
76.2907928863
 20
55.4916273386
 30
0.0
 10
75.9097414665
 20
55.1678014827
 30
0.0
 10
75.4745514722
 20
54.8612315154
 30
0.0
 10
74.9802165121
 20
54.5853857966
 30
0.0
 10
74.4194313171
 20
54.356267951
 30
0.0
 10
73.7845072527
 20
54.195657944
 30
0.0
 10
73.3310498869
 20
54.1565160322
 30
0.0
 10
73.0947910959
 20
54.1564858127
 30
0.0
 11
76.9105407613
 21
56.1564776547
 31
0.0
 11
76.62600397
 21
55.8328159116
 31
0.0
 11
76.2946140655
 21
55.5037453314
 31
0.0
 11
75.913133801
 21
55.180307123
 31
0.0
 11
75.4784051976
 21
54.8749620649
 31
0.0
 11
74.9862580018
 21
54.6013601453
 31
0.0
 11
74.430089905
 21
54.3751859435
 31
0.0
 11
73.8009727157
 21
54.2170785071
 31
0.0
 11
73.0947910959
 21
54.1564858127
 31
0.0
  0
LINE
  5
43D
100
AcDbEntity
  8
RUNDUNGEN
100
AcDbLine
 62
9
  6
CONTINUOUS
 10
87.6343949032
 20
79.1564858127
 11
87.5356801044
 21
79.4914027622
  0
SPLINE
  5
43E
100
AcDbEntity
  8
02___PRT_ALL_AXES
100
AcDbSpline
 62
9
  6
CONTINUOUS
 70
0
 71
3
 72
10
 73
6
 74
4
 42
0.0000001
 43
0.0000001
 44
0.0000000001
 12
-0.8500329519
 22
-1.8027335664
 32
0.0
 13
-0.6797306174
 23
-1.8735983077
 33
0.0
 40
0.0
 40
0.0
 40
0.0
 40
0.0
 40
0.3520258686
 40
0.6879174413
 40
1.0
 40
1.0
 40
1.0
 40
1.0
 10
108.6947910959
 20
85.1564858127
 30
0.0
 10
108.5950465665
 20
84.9449495295
 30
0.0
 10
108.4002018753
 20
84.5315278822
 30
0.0
 10
108.1298146286
 20
83.9245799936
 30
0.0
 10
107.9710201386
 20
83.52421178
 30
0.0
 10
107.9003094485
 20
83.3293059954
 30
0.0
 11
108.6947910959
 21
85.1564858127
 31
0.0
 11
108.3979470575
 21
84.5207557213
 31
0.0
 11
108.1277863489
 21
83.908226248
 31
0.0
 11
107.9003094485
 21
83.3293059954
 31
0.0
  0
ELLIPSE
  5
43F
100
AcDbEntity
  8
0
100
AcDbEllipse
 62
7
  6
CONTINUOUS
 10
66.0944823052
 20
155.8199022495
 30
0.0
 11
0.0
 21
2.695
 31
0.0
 40
0.2679491924
 41
0.0
 42
3.1415926536
  0
ELLIPSE
  5
440
100
AcDbEntity
  8
0
100
AcDbEllipse
 62
7
  6
CONTINUOUS
 10
80.0950998867
 20
155.8199022495
 30
0.0
 11
-0.0
 21
2.695
 31
0.0
 40
0.2679491924
 41
-3.1415926536
 42
0.0
  0
ELLIPSE
  5
441
100
AcDbEntity
  8
0
100
AcDbEllipse
 62
7
  6
CONTINUOUS
 10
91.0944823052
 20
155.8199022495
 30
0.0
 11
-0.0
 21
2.695
 31
0.0
 40
0.2679491924
 41
-0.0
 42
3.1415926536
  0
ELLIPSE
  5
442
100
AcDbEntity
  8
0
100
AcDbEllipse
 62
7
  6
CONTINUOUS
 10
105.0950998867
 20
155.8199022495
 30
0.0
 11
0.0
 21
2.695
 31
0.0
 40
0.2679491924
 41
-3.1415926536
 42
-0.0
  0
ENDSEC
  0
SECTION
  2
OBJECTS
  0
DICTIONARY
  5
C
100
AcDbDictionary
280
0
281
1
  3
ACAD_GROUP
350
D
  3
ACAD_MLINESTYLE
350
17
  3
ACAD_LAYOUT
350
1A
  3
ACAD_PLOTSETTINGS
350
19
  3
ACAD_PLOTSTYLENAME
350
E
  0
DICTIONARY
  5
D
102
{ACAD_REACTORS
330
C
102
}
100
AcDbDictionary
280
0
281
1
  0
ACDBDICTIONARYWDFLT
  5
E
102
{ACAD_REACTORS
330
C
102
}
100
AcDbDictionary
281
1
  3
Normal
350
F
100
AcDbDictionaryWithDefault
340
F
  0
DICTIONARY
  5
17
102
{ACAD_REACTORS
330
C
102
}
100
AcDbDictionary
280
0
281
1
  3
Standard
350
18
  0
DICTIONARY
  5
19
102
{ACAD_REACTORS
330
C
102
}
100
AcDbDictionary
281
1
  0
DICTIONARY
  5
1A
102
{ACAD_REACTORS
330
C
102
}
100
AcDbDictionary
281
1
  3
Model
350
443
  3
Layout1
350
444
  0
ACDBPLACEHOLDER
  5
F
102
{ACAD_REACTORS
330
E
102
}
  0
MLINESTYLE
  5
18
102
{ACAD_REACTORS
330
17
102
}
100
AcDbMlineStyle
  2
STANDARD
 70
0
  3

 62
256
 51
90.0
 52
90.0
 71
2
 49
0.5
 62
256
  6
BYLAYER
 49
-0.5
 62
256
  6
BYLAYER
  0
LAYOUT
  5
443
102
{ACAD_REACTORS
330
1A
102
}
100
AcDbPlotSettings
  1

  2
none_device
  4
ISO_A4_(297.00_x_210.00_MM)
  6

 40
0.0
 41
0.0
 42
0.0
 43
0.0
 44
297.0
 45
210.0
 46
0.0
 47
0.0
 48
0.0
 49
0.0
140
0.0
141
0.0
142
1.0
143
1.0
 70
1024
 72
1
 73
0
 74
0
  7

 75
0
147
1.0
148
0.0
149
0.0
100
AcDbLayout
  1
Model
 70
0
 71
0
 10
0.0
 20
0.0
 11
297.0
 21
210.0
 12
0.0
 22
0.0
 32
0.0
 14
0.0
 24
0.0
 34
0.0
 15
0.0
 25
0.0
 35
0.0
146
0.0
 13
0.0
 23
0.0
 33
0.0
 16
1.0
 26
0.0
 36
0.0
 17
0.0
 27
1.0
 37
0.0
 76
0
330
20F
345
0
346
0
  0
LAYOUT
  5
444
102
{ACAD_REACTORS
330
1A
102
}
100
AcDbPlotSettings
  1

  2
none_device
  4
ISO_A4_(297.00_x_210.00_MM)
  6

 40
0.0
 41
0.0
 42
0.0
 43
0.0
 44
297.0
 45
210.0
 46
0.0
 47
0.0
 48
0.0
 49
0.0
140
0.0
141
0.0
142
1.0
143
1.0
 70
0
 72
1
 73
0
 74
0
  7

 75
0
147
1.0
148
0.0
149
0.0
100
AcDbLayout
  1
Layout1
 70
0
 71
1
 10
0.0
 20
0.0
 11
297.0
 21
210.0
 12
0.0
 22
0.0
 32
0.0
 14
0.0
 24
0.0
 34
0.0
 15
0.0
 25
0.0
 35
0.0
146
0.0
 13
0.0
 23
0.0
 33
0.0
 16
1.0
 26
0.0
 36
0.0
 17
0.0
 27
1.0
 37
0.0
 76
0
330
210
345
0
346
0
  0
ENDSEC
  0
EOF
