999
DXF file: s5-45_ntp_w25.dxf
999
Pro/ENGINEER 2008490 by Parametric Technology Corporation
  0
SECTION
  2
HEADER
  9
$ACADVER
  1
AC1015
  9
$DWGCODEPAGE
  3
ANSI_1252
  9
$EXTMAX
 10
297.0
 20
210.0
 30
0.0
  9
$EXTMIN
 10
0.0
 20
0.0
 30
0.0
  9
$LIMMIN
 10
0.0
 20
0.0
  9
$LIMMAX
 10
297.0
 20
210.0
  9
$VIEWCTR
 10
148.5
 20
105.0
  9
$VIEWSIZE
 40
210.0
  9
$CLAYER
  8
0
  9
$LTSCALE
 40
16.335
  9
$CELTYPE
  6
BYLAYER
  9
$DIMSCALE
 40
1.0
  9
$DIMASZ
 40
3.5
  9
$DIMEXO
 40
1.85625
  9
$DIMDLI
 40
11.286
  9
$DIMEXE
 40
5.346
  9
$DIMCEN
 40
2.673
  9
$DIMLFAC
 40
1.0
  9
$DIMBLK
  1
_FILLED
  9
$DIMTXT
 40
3.5
  9
$DIMTOL
 70
1
  9
$DIMLIM
 70
0
  9
$DIMTFAC
 40
1.0
  9
$DIMTP
 40
0.005
  9
$DIMTM
 40
0.005
  9
$PDMODE
 70
3
  9
$PDSIZE
 40
0.3125
  9
$HANDSEED
  5
356
  9
$TILEMODE
 70
1
  9
$MEASUREMENT
 70
1
  9
$INSUNITS
 70
4
  0
ENDSEC
  0
SECTION
  2
CLASSES
  0
CLASS
  1
ACDBDICTIONARYWDFLT
  2
AcDbDictionaryWithDefault
  3
AutoCAD 2000
 90
0
280
0
281
0
  0
CLASS
  1
ACDBPLACEHOLDER
  2
AcDbPlaceHolder
  3
AutoCAD 2000
 90
0
280
0
281
0
  0
CLASS
  1
LAYOUT
  2
AcDbLayout
  3
AutoCAD 2000
 90
0
280
0
281
0
  0
ENDSEC
  0
SECTION
  2
TABLES
  0
TABLE
  2
VPORT
  5
8
100
AcDbSymbolTable
 70
2
  0
VPORT
  5
1F4
100
AcDbSymbolTableRecord
100
AcDbViewportTableRecord
  2
*ACTIVE
 70
0
 10
0.0
 20
0.0
 11
1.0
 21
1.0
 12
148.5
 22
105.0
 13
0.0
 23
0.0
 14
1.0
 24
1.0
 15
0.0
 25
0.0
 16
0.0
 26
0.0
 36
1.0
 17
0.0
 27
0.0
 37
0.0
 40
210.0
 41
1.4142857143
 42
50.0
 43
0.0
 44
0.0
 50
0.0
 51
0.0
 71
0
 72
100
 73
1
 74
1
 75
0
 76
0
 77
0
 78
0
  0
ENDTAB
  0
TABLE
  2
LTYPE
  5
5
100
AcDbSymbolTable
 70
6
  0
LTYPE
  5
14
100
AcDbSymbolTableRecord
100
AcDbLinetypeTableRecord
  2
BYBLOCK
 70
0
  3

 72
65
 73
0
 40
0.0
  0
LTYPE
  5
15
100
AcDbSymbolTableRecord
100
AcDbLinetypeTableRecord
  2
BYLAYER
 70
0
  3

 72
65
 73
0
 40
0.0
  0
LTYPE
  5
16
100
AcDbSymbolTableRecord
100
AcDbLinetypeTableRecord
  2
CONTINUOUS
 70
64
  3
Solid line
 72
65
 73
0
 40
0.0
  0
LTYPE
  5
1F5
100
AcDbSymbolTableRecord
100
AcDbLinetypeTableRecord
  2
CENTER
 70
64
  3
____ _ ____ _ ____ _ ____ _ ____ _ ____ _ ____
 72
65
 73
4
 40
0.6
 49
0.375
 74
0
 49
-0.075
 74
0
 49
0.075
 74
0
 49
-0.075
 74
0
  0
LTYPE
  5
1F6
100
AcDbSymbolTableRecord
100
AcDbLinetypeTableRecord
  2
HIDDEN
 70
64
  3
- - - - - - - - - - - - - - - - - - - -
 72
65
 73
2
 40
0.2
 49
0.1
 74
0
 49
-0.1
 74
0
  0
LTYPE
  5
1F7
100
AcDbSymbolTableRecord
100
AcDbLinetypeTableRecord
  2
PHANTOM
 70
64
  3
_____ _ _ _____ _ _ _____ _ _ _____
 72
65
 73
6
 40
0.8
 49
0.45
 74
0
 49
-0.05
 74
0
 49
0.1
 74
0
 49
-0.05
 74
0
 49
0.1
 74
0
 49
-0.05
 74
0
  0
LTYPE
  5
1F8
100
AcDbSymbolTableRecord
100
AcDbLinetypeTableRecord
  2
DOT
 70
64
  3
. . . . . . . . . . . . . . . . . . . .
 72
65
 73
2
 40
0.2
 49
0.1
 74
0
 49
-0.1
 74
0
  0
LTYPE
  5
1F9
100
AcDbSymbolTableRecord
100
AcDbLinetypeTableRecord
  2
DASHED
 70
64
  3
- - - - - - - - - - - - - - - - - - - -
 72
65
 73
2
 40
0.2
 49
0.1
 74
0
 49
-0.1
 74
0
  0
ENDTAB
  0
TABLE
  2
LAYER
  5
2
100
AcDbSymbolTable
 70
36
  0
LAYER
  5
10
100
AcDbSymbolTableRecord
100
AcDbLayerTableRecord
  2
0
 70
0
 62
7
  6
CONTINUOUS
370
-3
390
F
  0
LAYER
  5
1FA
100
AcDbSymbolTableRecord
100
AcDbLayerTableRecord
  2
DEFAULT_1
 70
0
 62
7
  6
CENTER
370
-3
390
F
  0
LAYER
  5
1FB
100
AcDbSymbolTableRecord
100
AcDbLayerTableRecord
  2
DEFAULT_2
 70
0
 62
8
  6
HIDDEN
370
-3
390
F
  0
LAYER
  5
1FC
100
AcDbSymbolTableRecord
100
AcDbLayerTableRecord
  2
DEFAULT_3
 70
0
 62
7
  6
PHANTOM
370
-3
390
F
  0
LAYER
  5
1FD
100
AcDbSymbolTableRecord
100
AcDbLayerTableRecord
  2
01___PRT_ALL_DTM_PLN
 70
0
 62
7
  6
CONTINUOUS
370
-3
390
F
  0
LAYER
  5
1FE
100
AcDbSymbolTableRecord
100
AcDbLayerTableRecord
  2
01___PRT_DEF_DTM_PLN
 70
0
 62
7
  6
CONTINUOUS
370
-3
390
F
  0
LAYER
  5
1FF
100
AcDbSymbolTableRecord
100
AcDbLayerTableRecord
  2
02___PRT_ALL_AXES
 70
0
 62
7
  6
CONTINUOUS
370
-3
390
F
  0
LAYER
  5
200
100
AcDbSymbolTableRecord
100
AcDbLayerTableRecord
  2
03___PRT_ALL_CURVES
 70
0
 62
7
  6
CONTINUOUS
370
-3
390
F
  0
LAYER
  5
201
100
AcDbSymbolTableRecord
100
AcDbLayerTableRecord
  2
04___PRT_ALL_DTM_PNT
 70
0
 62
7
  6
CONTINUOUS
370
-3
390
F
  0
LAYER
  5
202
100
AcDbSymbolTableRecord
100
AcDbLayerTableRecord
  2
05___PRT_ALL_DTM_CSYS
 70
0
 62
7
  6
CONTINUOUS
370
-3
390
F
  0
LAYER
  5
203
100
AcDbSymbolTableRecord
100
AcDbLayerTableRecord
  2
05___PRT_DEF_DTM_CSYS
 70
0
 62
7
  6
CONTINUOUS
370
-3
390
F
  0
LAYER
  5
204
100
AcDbSymbolTableRecord
100
AcDbLayerTableRecord
  2
06___PRT_ALL_SURFS
 70
0
 62
7
  6
CONTINUOUS
370
-3
390
F
  0
LAYER
  5
205
100
AcDbSymbolTableRecord
100
AcDbLayerTableRecord
  2
AUSFORMSCHRAEGEN
 70
0
 62
7
  6
CONTINUOUS
370
-3
390
F
  0
LAYER
  5
206
100
AcDbSymbolTableRecord
100
AcDbLayerTableRecord
  2
BEZUGSACHSEN
 70
0
 62
7
  6
CONTINUOUS
370
-3
390
F
  0
LAYER
  5
207
100
AcDbSymbolTableRecord
100
AcDbLayerTableRecord
  2
BEZUGSEBENE
 70
0
 62
7
  6
CONTINUOUS
370
-3
390
F
  0
LAYER
  5
208
100
AcDbSymbolTableRecord
100
AcDbLayerTableRecord
  2
BEZUGSEBENEN
 70
0
 62
7
  6
CONTINUOUS
370
-3
390
F
  0
LAYER
  5
209
100
AcDbSymbolTableRecord
100
AcDbLayerTableRecord
  2
BEZUGSEBENEN-KES
 70
0
 62
7
  6
CONTINUOUS
370
-3
390
F
  0
LAYER
  5
20A
100
AcDbSymbolTableRecord
100
AcDbLayerTableRecord
  2
RUNDUNGEN
 70
0
 62
7
  6
CONTINUOUS
370
-3
390
F
  0
LAYER
  5
20B
100
AcDbSymbolTableRecord
100
AcDbLayerTableRecord
  2
ZEICHNUNGSBEMASSUNGEN
 70
0
 62
7
  6
CONTINUOUS
370
-3
390
F
  0
LAYER
  5
20C
100
AcDbSymbolTableRecord
100
AcDbLayerTableRecord
  2
ZEICHNUNGSNOTIZEN
 70
0
 62
7
  6
CONTINUOUS
370
-3
390
F
  0
ENDTAB
  0
TABLE
  2
STYLE
  5
3
100
AcDbSymbolTable
 70
1
  0
STYLE
  5
11
100
AcDbSymbolTableRecord
100
AcDbTextStyleTableRecord
  2
STANDARD
 70
0
 40
0.0
 41
0.7
 50
0.0
 71
0
 42
0.2
  3
txt
  4

  0
STYLE
  5
20D
100
AcDbSymbolTableRecord
100
AcDbTextStyleTableRecord
  2
TEXTSTYLE_1
 70
0
 40
0.0
 41
0.8
 50
0.0
 71
0
 42
0.2
  3
gdt
  4

  0
ENDTAB
  0
TABLE
  2
VIEW
  5
6
100
AcDbSymbolTable
 70
0
  0
ENDTAB
  0
TABLE
  2
UCS
  5
7
100
AcDbSymbolTable
 70
0
  0
ENDTAB
  0
TABLE
  2
APPID
  5
9
100
AcDbSymbolTable
 70
1
  0
APPID
  5
20E
100
AcDbSymbolTableRecord
100
AcDbRegAppTableRecord
  2
ACAD
 70
0
  0
ENDTAB
  0
TABLE
  2
BLOCK_RECORD
  5
1
100
AcDbSymbolTable
 70
0
  0
BLOCK_RECORD
  5
20F
100
AcDbSymbolTableRecord
100
AcDbBlockTableRecord
  2
*Model_Space
  0
BLOCK_RECORD
  5
210
100
AcDbSymbolTableRecord
100
AcDbBlockTableRecord
  2
*Paper_Space
  0
ENDTAB
  0
TABLE
  2
DIMSTYLE
  5
A
100
AcDbSymbolTable
 70
1
100
AcDbDimStyleTable
 71
0
  0
DIMSTYLE
105
211
100
AcDbSymbolTableRecord
100
AcDbDimStyleTableRecord
  2
STANDARD
 70
0
  3

  4

 40
1.0
 41
3.5
 42
0.0625
 43
0.38
 44
0.18
 45
0.0
 46
0.0
 47
0.005
 48
0.005
140
3.5
141
0.09
142
0.0
143
25.4
144
1.0
145
0.0
146
1.0
147
0.09
 71
1.0
 72
0.0
 73
0
 74
0
 75
0
 76
0
 77
1
 78
8
170
0
171
2
172
0
173
0
174
0
175
0
176
0
177
0
178
5
270
2
271
3
272
3
273
2
274
2
275
0
280
0
281
0
282
0
283
1
284
8
285
0
286
0
287
3
288
0
340
11
  0
ENDTAB
  0
ENDSEC
  0
SECTION
  2
BLOCKS
  0
BLOCK
  5
20
100
AcDbEntity
  8
0
100
AcDbBlockBegin
  2
*Model_Space
 70
0
 10
0.0
 20
0.0
 30
0.0
  3
*Model_Space
  1

  0
ENDBLK
  5
21
100
AcDbEntity
  8
0
100
AcDbBlockEnd
  0
BLOCK
  5
1C
100
AcDbEntity
  8
0
100
AcDbBlockBegin
  2
*Paper_Space
 70
0
 10
0.0
 20
0.0
 30
0.0
  3
*Paper_Space
  1

  0
ENDBLK
  5
1D
100
AcDbEntity
  8
0
100
AcDbBlockEnd
  0
ENDSEC
  0
SECTION
  2
ENTITIES
  0
LINE
  5
212
100
AcDbEntity
  8
0
100
AcDbLine
 62
7
  6
CONTINUOUS
 10
0.0
 20
0.0
 11
0.0
 21
210.0
  0
LINE
  5
213
100
AcDbEntity
  8
0
100
AcDbLine
 62
7
  6
CONTINUOUS
 10
0.0
 20
0.0
 11
297.0
 21
0.0
  0
LINE
  5
214
100
AcDbEntity
  8
0
100
AcDbLine
 62
7
  6
CONTINUOUS
 10
0.0
 20
210.0
 11
297.0
 21
210.0
  0
LINE
  5
215
100
AcDbEntity
  8
0
100
AcDbLine
 62
7
  6
CONTINUOUS
 10
297.0
 20
0.0
 11
297.0
 21
210.0
  0
LINE
  5
216
100
AcDbEntity
  8
0
100
AcDbLine
 62
7
  6
CONTINUOUS
 10
73.0947910959
 20
149.820080113
 11
73.0947910959
 21
161.8197530282
  0
LINE
  5
217
100
AcDbEntity
  8
RUNDUNGEN
100
AcDbLine
 62
9
  6
CONTINUOUS
 10
74.9947910959
 20
149.8199165706
 11
74.9947910959
 21
153.1692253578
  0
LINE
  5
218
100
AcDbEntity
  8
RUNDUNGEN
100
AcDbLine
 62
9
  6
CONTINUOUS
 10
74.9947910959
 20
158.4706077834
 11
74.9947910959
 21
161.8199165706
  0
LINE
  5
219
100
AcDbEntity
  8
RUNDUNGEN
100
AcDbLine
 62
7
  6
CONTINUOUS
 10
75.5947910959
 20
150.4199165706
 11
75.5947910959
 21
152.9041562365
  0
LINE
  5
21A
100
AcDbEntity
  8
RUNDUNGEN
100
AcDbLine
 62
7
  6
CONTINUOUS
 10
75.5947910959
 20
158.7356769046
 11
75.5947910959
 21
161.2199165706
  0
LINE
  5
21B
100
AcDbEntity
  8
RUNDUNGEN
100
AcDbLine
 62
9
  6
CONTINUOUS
 10
75.6152356002
 20
161.2199165706
 11
75.6152356002
 21
157.9941449802
  0
LINE
  5
21C
100
AcDbEntity
  8
RUNDUNGEN
100
AcDbLine
 62
9
  6
CONTINUOUS
 10
75.6152356002
 20
153.6456881609
 11
75.6152356002
 21
150.4199165706
  0
LINE
  5
21D
100
AcDbEntity
  8
02___PRT_ALL_AXES
100
AcDbLine
 62
7
  6
CONTINUOUS
 10
75.7772910959
 20
161.8199165706
 11
75.7772910959
 21
164.8199165706
  0
LINE
  5
21E
100
AcDbEntity
  8
02___PRT_ALL_AXES
100
AcDbLine
 62
7
  6
CONTINUOUS
 10
78.2772910959
 20
161.8199165706
 11
78.2772910959
 21
164.8199165706
  0
LINE
  5
21F
100
AcDbEntity
  8
0
100
AcDbLine
 62
7
  6
CONTINUOUS
 10
98.0947910959
 20
149.8199165706
 11
96.1947910959
 21
149.8199165706
  0
LINE
  5
220
100
AcDbEntity
  8
0
100
AcDbLine
 62
7
  6
CONTINUOUS
 10
89.4105479016
 20
149.8199165706
 11
81.7790342903
 21
149.8199165706
  0
LINE
  5
221
100
AcDbEntity
  8
0
100
AcDbLine
 62
7
  6
CONTINUOUS
 10
74.9947910959
 20
149.8199165706
 11
73.0947910959
 21
149.8199165706
  0
LINE
  5
222
100
AcDbEntity
  8
RUNDUNGEN
100
AcDbLine
 62
7
  6
CONTINUOUS
 10
74.9947910959
 20
149.8199165706
 11
96.1947910959
 21
149.8199165706
  0
LINE
  5
223
100
AcDbEntity
  8
RUNDUNGEN
100
AcDbLine
 62
9
  6
CONTINUOUS
 10
75.5947910959
 20
150.4199165706
 11
81.3909912253
 21
150.4199165706
  0
LINE
  5
224
100
AcDbEntity
  8
RUNDUNGEN
100
AcDbLine
 62
9
  6
CONTINUOUS
 10
89.7985909666
 20
150.4199165706
 11
92.0947910959
 21
150.4199165706
  0
LINE
  5
225
100
AcDbEntity
  8
RUNDUNGEN
100
AcDbLine
 62
9
  6
CONTINUOUS
 10
92.1152356002
 20
150.4199165706
 11
95.5947910959
 21
150.4199165706
  0
LINE
  5
226
100
AcDbEntity
  8
02___PRT_ALL_AXES
100
AcDbLine
 62
7
  6
CONTINUOUS
 10
79.0592910959
 20
161.8199165706
 11
79.0592910959
 21
164.8199165706
  0
LINE
  5
227
100
AcDbEntity
  8
RUNDUNGEN
100
AcDbLine
 62
9
  6
CONTINUOUS
 10
79.0743465917
 20
161.2199165706
 11
79.0743465917
 21
158.5149165706
  0
LINE
  5
228
100
AcDbEntity
  8
RUNDUNGEN
100
AcDbLine
 62
9
  6
CONTINUOUS
 10
79.0743465917
 20
153.1249165706
 11
79.0743465917
 21
150.4199165706
  0
LINE
  5
229
100
AcDbEntity
  8
0
100
AcDbLine
 62
7
  6
CONTINUOUS
 10
79.0947910959
 20
150.4199165706
 11
79.0947910959
 21
153.1249165706
  0
LINE
  5
22A
100
AcDbEntity
  8
RUNDUNGEN
100
AcDbLine
 62
7
  6
CONTINUOUS
 10
79.0947910959
 20
150.4199165706
 11
79.0947910959
 21
153.1249165706
  0
LINE
  5
22B
100
AcDbEntity
  8
0
100
AcDbLine
 62
7
  6
CONTINUOUS
 10
79.0947910959
 20
158.5149165706
 11
79.0947910959
 21
161.2199165706
  0
LINE
  5
22C
100
AcDbEntity
  8
RUNDUNGEN
100
AcDbLine
 62
7
  6
CONTINUOUS
 10
79.0947910959
 20
158.5149165706
 11
79.0947910959
 21
161.2199165706
  0
LINE
  5
22D
100
AcDbEntity
  8
02___PRT_ALL_AXES
100
AcDbLine
 62
7
  6
CONTINUOUS
 10
79.7697910959
 20
161.8199165706
 11
79.7697910959
 21
164.8199165706
  0
LINE
  5
22E
100
AcDbEntity
  8
0
100
AcDbLine
 62
7
  6
CONTINUOUS
 10
79.0947910959
 20
153.1249165706
 11
79.1320536728
 21
153.1249165706
  0
LINE
  5
22F
100
AcDbEntity
  8
RUNDUNGEN
100
AcDbLine
 62
7
  6
CONTINUOUS
 10
78.5944823052
 20
153.1249165706
 11
79.0947910959
 21
153.1249165706
  0
LINE
  5
230
100
AcDbEntity
  8
0
100
AcDbLine
 62
7
  6
CONTINUOUS
 10
92.0575285191
 20
153.1249165706
 11
92.0947910959
 21
153.1249165706
  0
LINE
  5
231
100
AcDbEntity
  8
RUNDUNGEN
100
AcDbLine
 62
7
  6
CONTINUOUS
 10
92.1039064441
 20
153.1249165706
 11
92.5950998867
 21
153.1249165706
  0
LINE
  5
232
100
AcDbEntity
  8
02___PRT_ALL_AXES
100
AcDbLine
 62
7
  6
CONTINUOUS
 10
82.7697910959
 20
161.8199165706
 11
82.7697910959
 21
164.8199165706
  0
LINE
  5
233
100
AcDbEntity
  8
02___PRT_ALL_AXES
100
AcDbLine
 62
7
  6
CONTINUOUS
 10
83.0592910959
 20
161.8199165706
 11
83.0592910959
 21
164.8199165706
  0
LINE
  5
234
100
AcDbEntity
  8
RUNDUNGEN
100
AcDbLine
 62
7
  6
CONTINUOUS
 10
79.0856757478
 20
158.5149165706
 11
78.5944823052
 21
158.5149165706
  0
LINE
  5
235
100
AcDbEntity
  8
0
100
AcDbLine
 62
7
  6
CONTINUOUS
 10
79.0947910959
 20
158.5149165706
 11
79.1320536728
 21
158.5149165706
  0
LINE
  5
236
100
AcDbEntity
  8
0
100
AcDbLine
 62
7
  6
CONTINUOUS
 10
92.0575285191
 20
158.5149165706
 11
92.0947910959
 21
158.5149165706
  0
LINE
  5
237
100
AcDbEntity
  8
RUNDUNGEN
100
AcDbLine
 62
7
  6
CONTINUOUS
 10
92.0947910959
 20
158.5149165706
 11
92.5950998867
 21
158.5149165706
  0
LINE
  5
238
100
AcDbEntity
  8
02___PRT_ALL_AXES
100
AcDbLine
 62
7
  6
CONTINUOUS
 10
88.1302910959
 20
161.8199165706
 11
88.1302910959
 21
164.8199165706
  0
LINE
  5
239
100
AcDbEntity
  8
02___PRT_ALL_AXES
100
AcDbLine
 62
7
  6
CONTINUOUS
 10
88.4197910959
 20
161.8199165706
 11
88.4197910959
 21
164.8199165706
  0
LINE
  5
23A
100
AcDbEntity
  8
RUNDUNGEN
100
AcDbLine
 62
9
  6
CONTINUOUS
 10
95.5947910959
 20
161.2199165706
 11
89.7985909666
 21
161.2199165706
  0
LINE
  5
23B
100
AcDbEntity
  8
RUNDUNGEN
100
AcDbLine
 62
9
  6
CONTINUOUS
 10
81.3909912253
 20
161.2199165706
 11
75.5947910959
 21
161.2199165706
  0
LINE
  5
23C
100
AcDbEntity
  8
RUNDUNGEN
100
AcDbLine
 62
7
  6
CONTINUOUS
 10
76.1034297432
 20
161.8199683646
 11
76.0820242514
 21
161.8199589752
  0
LINE
  5
23D
100
AcDbEntity
  8
0
100
AcDbLine
 62
7
  6
CONTINUOUS
 10
98.0947910959
 20
161.8199165706
 11
96.1947910959
 21
161.8199165706
  0
LINE
  5
23E
100
AcDbEntity
  8
0
100
AcDbLine
 62
7
  6
CONTINUOUS
 10
74.9947910959
 20
161.8199165706
 11
73.0947910959
 21
161.8199165706
  0
LINE
  5
23F
100
AcDbEntity
  8
RUNDUNGEN
100
AcDbLine
 62
7
  6
CONTINUOUS
 10
74.9947910959
 20
161.8199165706
 11
75.7772910959
 21
161.8199165706
  0
LINE
  5
240
100
AcDbEntity
  8
02___PRT_ALL_AXES
100
AcDbLine
 62
7
  6
CONTINUOUS
 10
74.9947910959
 20
161.8199165706
 11
76.1947910959
 21
161.8199165706
  0
LINE
  5
241
100
AcDbEntity
  8
02___PRT_ALL_AXES
100
AcDbLine
 62
7
  6
CONTINUOUS
 10
79.6947910959
 20
161.8199165706
 11
81.7790887561
 21
161.8199165706
  0
LINE
  5
242
100
AcDbEntity
  8
RUNDUNGEN
100
AcDbLine
 62
7
  6
CONTINUOUS
 10
76.1947910959
 20
161.8199165706
 11
79.7697910959
 21
161.8199165706
  0
LINE
  5
243
100
AcDbEntity
  8
RUNDUNGEN
100
AcDbLine
 62
7
  6
CONTINUOUS
 10
80.5161767842
 20
161.8199165706
 11
90.6734054077
 21
161.8199165706
  0
LINE
  5
244
100
AcDbEntity
  8
02___PRT_ALL_AXES
100
AcDbLine
 62
7
  6
CONTINUOUS
 10
89.4104950625
 20
161.8199165706
 11
91.4947910959
 21
161.8199165706
  0
LINE
  5
245
100
AcDbEntity
  8
RUNDUNGEN
100
AcDbLine
 62
7
  6
CONTINUOUS
 10
91.4197910959
 20
161.8199165706
 11
94.9947910959
 21
161.8199165706
  0
LINE
  5
246
100
AcDbEntity
  8
02___PRT_ALL_AXES
100
AcDbLine
 62
7
  6
CONTINUOUS
 10
94.9947910959
 20
161.8199165706
 11
96.1947910959
 21
161.8199165706
  0
LINE
  5
247
100
AcDbEntity
  8
RUNDUNGEN
100
AcDbLine
 62
7
  6
CONTINUOUS
 10
95.4122910959
 20
161.8199165706
 11
96.1947910959
 21
161.8199165706
  0
LINE
  5
248
100
AcDbEntity
  8
RUNDUNGEN
100
AcDbLine
 62
7
  6
CONTINUOUS
 10
76.1896959896
 20
161.8199768221
 11
76.1434167675
 21
161.8199379857
  0
LINE
  5
249
100
AcDbEntity
  8
RUNDUNGEN
100
AcDbLine
 62
7
  6
CONTINUOUS
 10
95.1076046598
 20
161.8199563112
 11
95.0857448781
 21
161.81996616
  0
LINE
  5
24A
100
AcDbEntity
  8
RUNDUNGEN
100
AcDbLine
 62
7
  6
CONTINUOUS
 10
95.0456880172
 20
161.8199369926
 11
94.999489127
 21
161.8199732636
  0
LINE
  5
24B
100
AcDbEntity
  8
02___PRT_ALL_AXES
100
AcDbLine
 62
7
  6
CONTINUOUS
 10
91.4197910959
 20
161.8199165706
 11
91.4197910959
 21
164.8199165706
  0
LINE
  5
24C
100
AcDbEntity
  8
RUNDUNGEN
100
AcDbLine
 62
7
  6
CONTINUOUS
 10
92.0947910959
 20
150.4199165706
 11
92.0947910959
 21
153.1249165706
  0
LINE
  5
24D
100
AcDbEntity
  8
RUNDUNGEN
100
AcDbLine
 62
7
  6
CONTINUOUS
 10
92.0947910959
 20
158.5149165706
 11
92.0947910959
 21
161.2199165706
  0
LINE
  5
24E
100
AcDbEntity
  8
RUNDUNGEN
100
AcDbLine
 62
9
  6
CONTINUOUS
 10
92.1152356002
 20
150.4199165706
 11
92.1152356002
 21
153.1249165706
  0
LINE
  5
24F
100
AcDbEntity
  8
RUNDUNGEN
100
AcDbLine
 62
9
  6
CONTINUOUS
 10
92.1152356002
 20
158.5149165706
 11
92.1152356002
 21
161.2199165706
  0
LINE
  5
250
100
AcDbEntity
  8
02___PRT_ALL_AXES
100
AcDbLine
 62
7
  6
CONTINUOUS
 10
92.1302910959
 20
161.8199165706
 11
92.1302910959
 21
164.8199165706
  0
LINE
  5
251
100
AcDbEntity
  8
02___PRT_ALL_AXES
100
AcDbLine
 62
7
  6
CONTINUOUS
 10
92.9122910959
 20
161.8199165706
 11
92.9122910959
 21
164.8199165706
  0
LINE
  5
252
100
AcDbEntity
  8
02___PRT_ALL_AXES
100
AcDbLine
 62
7
  6
CONTINUOUS
 10
75.7772910959
 20
164.8199165706
 11
78.2772910959
 21
164.8199165706
  0
LINE
  5
253
100
AcDbEntity
  8
02___PRT_ALL_AXES
100
AcDbLine
 62
7
  6
CONTINUOUS
 10
79.0592910959
 20
164.8199165706
 11
83.0592910959
 21
164.8199165706
  0
LINE
  5
254
100
AcDbEntity
  8
02___PRT_ALL_AXES
100
AcDbLine
 62
7
  6
CONTINUOUS
 10
88.1302910959
 20
164.8199165706
 11
92.1302910959
 21
164.8199165706
  0
LINE
  5
255
100
AcDbEntity
  8
02___PRT_ALL_AXES
100
AcDbLine
 62
7
  6
CONTINUOUS
 10
92.9122910959
 20
164.8199165706
 11
95.4122910959
 21
164.8199165706
  0
LINE
  5
256
100
AcDbEntity
  8
02___PRT_ALL_AXES
100
AcDbLine
 62
7
  6
CONTINUOUS
 10
95.4122910959
 20
161.8199165706
 11
95.4122910959
 21
164.8199165706
  0
LINE
  5
257
100
AcDbEntity
  8
RUNDUNGEN
100
AcDbLine
 62
9
  6
CONTINUOUS
 10
95.5743465917
 20
150.4199165706
 11
95.5743465917
 21
153.6456881609
  0
LINE
  5
258
100
AcDbEntity
  8
RUNDUNGEN
100
AcDbLine
 62
9
  6
CONTINUOUS
 10
95.5743465917
 20
157.9941449802
 11
95.5743465917
 21
161.2199165706
  0
LINE
  5
259
100
AcDbEntity
  8
RUNDUNGEN
100
AcDbLine
 62
7
  6
CONTINUOUS
 10
95.5947910959
 20
161.2199165706
 11
95.5947910959
 21
158.7356769046
  0
LINE
  5
25A
100
AcDbEntity
  8
RUNDUNGEN
100
AcDbLine
 62
7
  6
CONTINUOUS
 10
95.5947910959
 20
152.9041562365
 11
95.5947910959
 21
150.4199165706
  0
LINE
  5
25B
100
AcDbEntity
  8
RUNDUNGEN
100
AcDbLine
 62
9
  6
CONTINUOUS
 10
96.1947910959
 20
161.8199165706
 11
96.1947910959
 21
158.4706077834
  0
LINE
  5
25C
100
AcDbEntity
  8
RUNDUNGEN
100
AcDbLine
 62
9
  6
CONTINUOUS
 10
96.1947910959
 20
153.1692253578
 11
96.1947910959
 21
149.8199165706
  0
LINE
  5
25D
100
AcDbEntity
  8
0
100
AcDbLine
 62
7
  6
CONTINUOUS
 10
98.0947910959
 20
149.8200214422
 11
98.0947910959
 21
161.8198116989
  0
LINE
  5
25E
100
AcDbEntity
  8
DEFAULT_1
100
AcDbLine
 62
7
  6
CENTER
 10
212.9312133789
 20
155.8199165706
 11
212.9312133789
 21
146.8199165706
  0
LINE
  5
25F
100
AcDbEntity
  8
DEFAULT_1
100
AcDbLine
 62
7
  6
CENTER
 10
212.9312133789
 20
155.8199165706
 11
212.9312133789
 21
164.8199165706
  0
LINE
  5
260
100
AcDbEntity
  8
02___PRT_ALL_AXES
100
AcDbLine
 62
7
  6
CONTINUOUS
 10
213.6812133789
 20
161.8199165706
 11
213.6812133789
 21
164.8199165706
  0
LINE
  5
261
100
AcDbEntity
  8
02___PRT_ALL_AXES
100
AcDbLine
 62
7
  6
CONTINUOUS
 10
216.1812133789
 20
161.8199165706
 11
216.1812133789
 21
164.8199165706
  0
LINE
  5
262
100
AcDbEntity
  8
RUNDUNGEN
100
AcDbLine
 62
9
  6
CONTINUOUS
 10
216.7259465711
 20
150.4199165706
 11
216.7259465711
 21
149.8199165706
  0
LINE
  5
263
100
AcDbEntity
  8
RUNDUNGEN
100
AcDbLine
 62
9
  6
CONTINUOUS
 10
216.7259465711
 20
161.2199165706
 11
216.7259465975
 21
161.8199165706
  0
LINE
  5
264
100
AcDbEntity
  8
RUNDUNGEN
100
AcDbLine
 62
9
  6
CONTINUOUS
 10
218.8522218804
 20
149.8199165706
 11
218.8522218804
 21
152.9041562365
  0
LINE
  5
265
100
AcDbEntity
  8
RUNDUNGEN
100
AcDbLine
 62
9
  6
CONTINUOUS
 10
218.8522218804
 20
158.7356769046
 11
218.8522218804
 21
161.8199165706
  0
LINE
  5
266
100
AcDbEntity
  8
RUNDUNGEN
100
AcDbLine
 62
7
  6
CONTINUOUS
 10
212.9312133789
 20
149.8199165706
 11
241.9312133789
 21
149.8199165706
  0
LINE
  5
267
100
AcDbEntity
  8
RUNDUNGEN
100
AcDbLine
 62
9
  6
CONTINUOUS
 10
216.7257890633
 20
150.4199165706
 11
242.3888404976
 21
150.4199165706
  0
LINE
  5
268
100
AcDbEntity
  8
RUNDUNGEN
100
AcDbLine
 62
9
  6
CONTINUOUS
 10
218.8522218804
 20
152.9041562365
 11
218.3139483803
 21
153.1692253578
  0
LINE
  5
269
100
AcDbEntity
  8
RUNDUNGEN
100
AcDbLine
 62
9
  6
CONTINUOUS
 10
219.0075133074
 20
161.2199165706
 11
219.0075133074
 21
157.9941449802
  0
LINE
  5
26A
100
AcDbEntity
  8
RUNDUNGEN
100
AcDbLine
 62
9
  6
CONTINUOUS
 10
219.0075133074
 20
153.6456881609
 11
219.0075133074
 21
150.4199165706
  0
LINE
  5
26B
100
AcDbEntity
  8
RUNDUNGEN
100
AcDbLine
 62
9
  6
CONTINUOUS
 10
218.8522218804
 20
158.7356769046
 11
218.3139483802
 21
158.4706077833
  0
LINE
  5
26C
100
AcDbEntity
  8
RUNDUNGEN
100
AcDbLine
 62
7
  6
CONTINUOUS
 10
230.1262133789
 20
153.1249165706
 11
237.4312133789
 21
153.1249165706
  0
LINE
  5
26D
100
AcDbEntity
  8
0
100
AcDbLine
 62
7
  6
CONTINUOUS
 10
237.4312133789
 20
153.1249165706
 11
238.1262133789
 21
153.1249165706
  0
LINE
  5
26E
100
AcDbEntity
  8
DEFAULT_1
100
AcDbLine
 62
7
  6
CENTER
 10
212.9312133789
 20
155.8199165706
 11
203.9312133789
 21
155.8199165706
  0
LINE
  5
26F
100
AcDbEntity
  8
DEFAULT_1
100
AcDbLine
 62
7
  6
CENTER
 10
212.9312133789
 20
155.8199165706
 11
221.9312133789
 21
155.8199165706
  0
LINE
  5
270
100
AcDbEntity
  8
RUNDUNGEN
100
AcDbLine
 62
7
  6
CONTINUOUS
 10
237.4312133789
 20
158.5149165706
 11
230.1262133789
 21
158.5149165706
  0
LINE
  5
271
100
AcDbEntity
  8
0
100
AcDbLine
 62
7
  6
CONTINUOUS
 10
237.4312133789
 20
158.5149165706
 11
238.1262133789
 21
158.5149165706
  0
LINE
  5
272
100
AcDbEntity
  8
02___PRT_ALL_AXES
100
AcDbLine
 62
7
  6
CONTINUOUS
 10
227.0582133789
 20
161.8199165706
 11
227.0582133789
 21
164.8199165706
  0
LINE
  5
273
100
AcDbEntity
  8
RUNDUNGEN
100
AcDbLine
 62
9
  6
CONTINUOUS
 10
242.3888404976
 20
161.2199165706
 11
216.7257828385
 21
161.2199165706
  0
LINE
  5
274
100
AcDbEntity
  8
RUNDUNGEN
100
AcDbLine
 62
7
  6
CONTINUOUS
 10
213.6812133789
 20
161.8199165706
 11
213.1075403596
 21
161.8199165706
  0
LINE
  5
275
100
AcDbEntity
  8
02___PRT_ALL_AXES
100
AcDbLine
 62
7
  6
CONTINUOUS
 10
212.9312133789
 20
161.8199165706
 11
216.7259465711
 21
161.8199165706
  0
LINE
  5
276
100
AcDbEntity
  8
RUNDUNGEN
100
AcDbLine
 62
7
  6
CONTINUOUS
 10
216.1812133789
 20
161.8199165706
 11
238.7039949909
 21
161.8199165706
  0
LINE
  5
277
100
AcDbEntity
  8
02___PRT_ALL_AXES
100
AcDbLine
 62
7
  6
CONTINUOUS
 10
237.4312133789
 20
161.8199165706
 11
241.9312683472
 21
161.8199165706
  0
LINE
  5
278
100
AcDbEntity
  8
RUNDUNGEN
100
AcDbLine
 62
7
  6
CONTINUOUS
 10
240.4341580459
 20
161.8199165706
 11
241.9312133789
 21
161.8199165706
  0
LINE
  5
279
100
AcDbEntity
  8
02___PRT_ALL_AXES
100
AcDbLine
 62
7
  6
CONTINUOUS
 10
231.0582133789
 20
161.8199165706
 11
231.0582133789
 21
164.8199165706
  0
LINE
  5
27A
100
AcDbEntity
  8
RUNDUNGEN
100
AcDbLine
 62
9
  6
CONTINUOUS
 10
231.9170912769
 20
161.2199165706
 11
231.9170912769
 21
158.5149165706
  0
LINE
  5
27B
100
AcDbEntity
  8
RUNDUNGEN
100
AcDbLine
 62
9
  6
CONTINUOUS
 10
231.9170912769
 20
153.1249165706
 11
231.9170912769
 21
150.4199165706
  0
LINE
  5
27C
100
AcDbEntity
  8
RUNDUNGEN
100
AcDbLine
 62
9
  6
CONTINUOUS
 10
232.0723827039
 20
153.1249165706
 11
232.0723827039
 21
149.8199165706
  0
LINE
  5
27D
100
AcDbEntity
  8
RUNDUNGEN
100
AcDbLine
 62
9
  6
CONTINUOUS
 10
232.0723827039
 20
158.5149165706
 11
232.0723827039
 21
161.8199165706
  0
LINE
  5
27E
100
AcDbEntity
  8
02___PRT_ALL_AXES
100
AcDbLine
 62
7
  6
CONTINUOUS
 10
213.6814069755
 20
164.8199165706
 11
216.1810197823
 21
164.8199165706
  0
LINE
  5
27F
100
AcDbEntity
  8
02___PRT_ALL_AXES
100
AcDbLine
 62
7
  6
CONTINUOUS
 10
227.0583724729
 20
164.8199165706
 11
231.058054285
 21
164.8199165706
  0
LINE
  5
280
100
AcDbEntity
  8
02___PRT_ALL_AXES
100
AcDbLine
 62
7
  6
CONTINUOUS
 10
237.6372133789
 20
164.8199165706
 11
240.6372133789
 21
164.8199165706
  0
LINE
  5
281
100
AcDbEntity
  8
RUNDUNGEN
100
AcDbLine
 62
9
  6
CONTINUOUS
 10
237.4312133789
 20
149.8199165706
 11
237.4312133789
 21
153.1249165706
  0
LINE
  5
282
100
AcDbEntity
  8
RUNDUNGEN
100
AcDbLine
 62
9
  6
CONTINUOUS
 10
237.4312133789
 20
158.5149165706
 11
237.4312133789
 21
161.8199165706
  0
LINE
  5
283
100
AcDbEntity
  8
02___PRT_ALL_AXES
100
AcDbLine
 62
7
  6
CONTINUOUS
 10
237.6372133789
 20
161.8199165706
 11
237.6372133789
 21
164.8199165706
  0
LINE
  5
284
100
AcDbEntity
  8
02___PRT_ALL_AXES
100
AcDbLine
 62
7
  6
CONTINUOUS
 10
240.6372133789
 20
161.8199165706
 11
240.6372133789
 21
164.8199165706
  0
LINE
  5
285
100
AcDbEntity
  8
0
100
AcDbLine
 62
7
  6
CONTINUOUS
 10
243.9312133789
 20
151.8199165706
 11
243.9312133789
 21
159.8199165706
  0
LINE
  5
286
100
AcDbEntity
  8
RUNDUNGEN
100
AcDbLine
 62
9
  6
CONTINUOUS
 10
81.7790887561
 20
56.1564308444
 11
89.4104950625
 21
56.1564324847
  0
LINE
  5
287
100
AcDbEntity
  8
RUNDUNGEN
100
AcDbLine
 62
9
  6
CONTINUOUS
 10
77.9562844325
 20
85.1564858127
 11
78.5201000049
 21
85.3616978987
  0
LINE
  5
288
100
AcDbEntity
  8
RUNDUNGEN
100
AcDbLine
 62
9
  6
CONTINUOUS
 10
77.9706681443
 20
85.1169668894
 11
78.5344837167
 21
85.3221789754
  0
LINE
  5
289
100
AcDbEntity
  8
0
100
AcDbLine
 62
7
  6
CONTINUOUS
 10
73.0947910959
 20
79.1564858127
 11
73.0947910959
 21
91.1564858127
  0
LINE
  5
28A
100
AcDbEntity
  8
RUNDUNGEN
100
AcDbLine
 62
9
  6
CONTINUOUS
 10
92.0947910959
 20
60.6564858127
 11
91.4947910959
 21
60.6564858127
  0
LINE
  5
28B
100
AcDbEntity
  8
RUNDUNGEN
100
AcDbLine
 62
9
  6
CONTINUOUS
 10
79.0947910959
 20
60.6564858127
 11
79.6947910959
 21
60.6564858127
  0
LINE
  5
28C
100
AcDbEntity
  8
RUNDUNGEN
100
AcDbLine
 62
9
  6
CONTINUOUS
 10
74.9947910959
 20
79.7737508114
 11
74.9947910959
 21
85.1564858127
  0
LINE
  5
28D
100
AcDbEntity
  8
RUNDUNGEN
100
AcDbLine
 62
7
  6
CONTINUOUS
 10
75.5947910959
 20
79.2354773113
 11
75.5947910959
 21
81.3617526205
  0
LINE
  5
28E
100
AcDbEntity
  8
RUNDUNGEN
100
AcDbLine
 62
9
  6
CONTINUOUS
 10
76.1947910959
 20
79.2354773113
 11
76.1947910959
 21
81.3617526205
  0
LINE
  5
28F
100
AcDbEntity
  8
RUNDUNGEN
100
AcDbLine
 62
7
  6
CONTINUOUS
 10
75.5947910959
 20
79.2354773112
 11
75.6152356001
 21
79.0801858843
  0
LINE
  5
290
100
AcDbEntity
  8
02___PRT_ALL_AXES
100
AcDbLine
 62
9
  6
CONTINUOUS
 10
77.9947910959
 20
78.1564858127
 11
77.9947910959
 21
82.3650038167
  0
LINE
  5
291
100
AcDbEntity
  8
02___PRT_ALL_AXES
100
AcDbLine
 62
9
  6
CONTINUOUS
 10
77.9947910959
 20
83.9479678087
 11
77.9947910959
 21
84.980158832
  0
LINE
  5
292
100
AcDbEntity
  8
RUNDUNGEN
100
AcDbLine
 62
9
  6
CONTINUOUS
 10
89.7985909666
 20
55.6988586941
 11
89.4105479018
 21
56.1564858128
  0
LINE
  5
293
100
AcDbEntity
  8
RUNDUNGEN
100
AcDbLine
 62
7
  6
CONTINUOUS
 10
79.0743465917
 20
66.1706079148
 11
75.6152356002
 21
79.0801858842
  0
LINE
  5
294
100
AcDbEntity
  8
RUNDUNGEN
100
AcDbLine
 62
9
  6
CONTINUOUS
 10
79.6539020875
 20
66.3258993418
 11
76.1947910959
 21
79.2354773113
  0
LINE
  5
295
100
AcDbEntity
  8
RUNDUNGEN
100
AcDbLine
 62
7
  6
CONTINUOUS
 10
79.0743465917
 20
66.1706079148
 11
79.0947910959
 21
66.0153164877
  0
LINE
  5
296
100
AcDbEntity
  8
RUNDUNGEN
100
AcDbLine
 62
7
  6
CONTINUOUS
 10
78.5947910959
 20
78.1564858127
 11
78.5947910959
 21
84.980158832
  0
LINE
  5
297
100
AcDbEntity
  8
RUNDUNGEN
100
AcDbLine
 62
7
  6
CONTINUOUS
 10
79.0947910959
 20
60.6564858127
 11
79.0947910959
 21
66.0153164877
  0
LINE
  5
298
100
AcDbEntity
  8
RUNDUNGEN
100
AcDbLine
 62
9
  6
CONTINUOUS
 10
79.6947910959
 20
60.6564858127
 11
79.6947910959
 21
66.0153164877
  0
LINE
  5
299
100
AcDbEntity
  8
RUNDUNGEN
100
AcDbLine
 62
9
  6
CONTINUOUS
 10
92.0947910959
 20
66.0153164877
 11
91.4947910959
 21
66.0153164877
  0
LINE
  5
29A
100
AcDbEntity
  8
RUNDUNGEN
100
AcDbLine
 62
9
  6
CONTINUOUS
 10
79.0947910959
 20
66.0153164877
 11
79.6947910959
 21
66.0153164877
  0
LINE
  5
29B
100
AcDbEntity
  8
RUNDUNGEN
100
AcDbLine
 62
9
  6
CONTINUOUS
 10
79.0743465917
 20
66.1706079148
 11
79.6539020875
 21
66.3258993418
  0
LINE
  5
29C
100
AcDbEntity
  8
RUNDUNGEN
100
AcDbLine
 62
9
  6
CONTINUOUS
 10
92.1152356002
 20
66.1706079148
 11
91.5356801044
 21
66.3258993418
  0
LINE
  5
29D
100
AcDbEntity
  8
RUNDUNGEN
100
AcDbLine
 62
9
  6
CONTINUOUS
 10
77.9706681443
 20
85.1169668894
 11
77.9562844325
 21
85.1564858127
  0
LINE
  5
29E
100
AcDbEntity
  8
0
100
AcDbLine
 62
7
  6
CONTINUOUS
 10
83.0947910959
 20
67.6564858127
 11
83.0947910959
 21
60.1564858127
  0
LINE
  5
29F
100
AcDbEntity
  8
RUNDUNGEN
100
AcDbLine
 62
7
  6
CONTINUOUS
 10
78.5344837167
 20
85.3221789754
 11
76.5546607399
 21
90.7616978987
  0
LINE
  5
2A0
100
AcDbEntity
  8
0
100
AcDbLine
 62
7
  6
CONTINUOUS
 10
88.0947910959
 20
67.6564858127
 11
88.0947910959
 21
60.1564858127
  0
LINE
  5
2A1
100
AcDbEntity
  8
RUNDUNGEN
100
AcDbLine
 62
7
  6
CONTINUOUS
 10
94.634921452
 20
90.7616978987
 11
92.6550984751
 21
85.3221789753
  0
LINE
  5
2A2
100
AcDbEntity
  8
RUNDUNGEN
100
AcDbLine
 62
9
  6
CONTINUOUS
 10
93.2332977594
 20
85.1564858127
 11
93.2189140476
 21
85.1169668894
  0
LINE
  5
2A3
100
AcDbEntity
  8
RUNDUNGEN
100
AcDbLine
 62
9
  6
CONTINUOUS
 10
91.4947910959
 20
66.0153164877
 11
91.4947910959
 21
60.6564858127
  0
LINE
  5
2A4
100
AcDbEntity
  8
RUNDUNGEN
100
AcDbLine
 62
9
  6
CONTINUOUS
 10
93.1947910959
 20
78.1564858127
 11
92.5947910959
 21
78.1564858128
  0
LINE
  5
2A5
100
AcDbEntity
  8
RUNDUNGEN
100
AcDbLine
 62
9
  6
CONTINUOUS
 10
77.9947910959
 20
78.1564858127
 11
78.5947910959
 21
78.1564858127
  0
LINE
  5
2A6
100
AcDbEntity
  8
RUNDUNGEN
100
AcDbLine
 62
7
  6
CONTINUOUS
 10
92.0947910959
 20
66.0153164877
 11
92.0947910959
 21
60.6564858127
  0
LINE
  5
2A7
100
AcDbEntity
  8
RUNDUNGEN
100
AcDbLine
 62
7
  6
CONTINUOUS
 10
92.5947910959
 20
84.980158832
 11
92.5947910959
 21
78.1564858127
  0
LINE
  5
2A8
100
AcDbEntity
  8
02___PRT_ALL_AXES
100
AcDbLine
 62
9
  6
CONTINUOUS
 10
93.1947910959
 20
84.980158832
 11
93.1947910959
 21
83.9479678087
  0
LINE
  5
2A9
100
AcDbEntity
  8
02___PRT_ALL_AXES
100
AcDbLine
 62
9
  6
CONTINUOUS
 10
93.1947910959
 20
82.3650038167
 11
93.1947910959
 21
78.1564858127
  0
LINE
  5
2AA
100
AcDbEntity
  8
RUNDUNGEN
100
AcDbLine
 62
9
  6
CONTINUOUS
 10
94.9947910959
 20
79.2354773113
 11
91.5356801044
 21
66.3258993418
  0
LINE
  5
2AB
100
AcDbEntity
  8
0
100
AcDbLine
 62
7
  6
CONTINUOUS
 10
98.0947910959
 20
79.1564858127
 11
96.0551872887
 21
79.1564858127
  0
LINE
  5
2AC
100
AcDbEntity
  8
RUNDUNGEN
100
AcDbLine
 62
7
  6
CONTINUOUS
 10
98.0947910959
 20
79.1564858127
 11
96.0551872887
 21
79.1564858127
  0
LINE
  5
2AD
100
AcDbEntity
  8
0
100
AcDbLine
 62
7
  6
CONTINUOUS
 10
75.1343949032
 20
79.1564858127
 11
73.0947910959
 21
79.1564858127
  0
LINE
  5
2AE
100
AcDbEntity
  8
RUNDUNGEN
100
AcDbLine
 62
7
  6
CONTINUOUS
 10
75.1343949032
 20
79.1564858127
 11
73.0947910959
 21
79.1564858127
  0
LINE
  5
2AF
100
AcDbEntity
  8
RUNDUNGEN
100
AcDbLine
 62
9
  6
CONTINUOUS
 10
95.5947910959
 20
79.2354773113
 11
94.9947910959
 21
79.2354773113
  0
LINE
  5
2B0
100
AcDbEntity
  8
RUNDUNGEN
100
AcDbLine
 62
9
  6
CONTINUOUS
 10
75.5947910959
 20
79.2354773113
 11
76.1947910959
 21
79.2354773113
  0
LINE
  5
2B1
100
AcDbEntity
  8
RUNDUNGEN
100
AcDbLine
 62
7
  6
CONTINUOUS
 10
95.5743465917
 20
79.0801858843
 11
95.5947910959
 21
79.2354773112
  0
LINE
  5
2B2
100
AcDbEntity
  8
RUNDUNGEN
100
AcDbLine
 62
7
  6
CONTINUOUS
 10
95.5743465917
 20
79.0801858842
 11
92.1152356002
 21
66.1706079148
  0
LINE
  5
2B3
100
AcDbEntity
  8
RUNDUNGEN
100
AcDbLine
 62
9
  6
CONTINUOUS
 10
81.3909912253
 20
55.6988586941
 11
81.7790342903
 21
56.1564858127
  0
LINE
  5
2B4
100
AcDbEntity
  8
RUNDUNGEN
100
AcDbLine
 62
9
  6
CONTINUOUS
 10
75.6152356002
 20
79.0801858842
 11
76.1947910959
 21
79.2354773113
  0
LINE
  5
2B5
100
AcDbEntity
  8
RUNDUNGEN
100
AcDbLine
 62
9
  6
CONTINUOUS
 10
75.5947910959
 20
81.3617526205
 11
76.1947910895
 21
81.3617525941
  0
LINE
  5
2B6
100
AcDbEntity
  8
RUNDUNGEN
100
AcDbLine
 62
9
  6
CONTINUOUS
 10
95.5947910959
 20
81.3617526205
 11
94.9947910959
 21
81.3617526205
  0
LINE
  5
2B7
100
AcDbEntity
  8
RUNDUNGEN
100
AcDbLine
 62
9
  6
CONTINUOUS
 10
95.5743465917
 20
79.0801858842
 11
94.9947910959
 21
79.2354773113
  0
LINE
  5
2B8
100
AcDbEntity
  8
RUNDUNGEN
100
AcDbLine
 62
9
  6
CONTINUOUS
 10
94.9947910959
 20
81.3617526205
 11
94.9947910959
 21
79.2354773113
  0
LINE
  5
2B9
100
AcDbEntity
  8
RUNDUNGEN
100
AcDbLine
 62
7
  6
CONTINUOUS
 10
95.5947910959
 20
81.3617526205
 11
95.5947910959
 21
79.2354773113
  0
LINE
  5
2BA
100
AcDbEntity
  8
RUNDUNGEN
100
AcDbLine
 62
9
  6
CONTINUOUS
 10
96.1947910959
 20
85.1564858127
 11
96.1947910959
 21
79.7737508114
  0
LINE
  5
2BB
100
AcDbEntity
  8
0
100
AcDbLine
 62
7
  6
CONTINUOUS
 10
98.0947910959
 20
79.1564858127
 11
98.0947910959
 21
91.1564858127
  0
LINE
  5
2BC
100
AcDbEntity
  8
RUNDUNGEN
100
AcDbLine
 62
9
  6
CONTINUOUS
 10
93.1947910959
 20
84.980158832
 11
92.5947910959
 21
84.980158832
  0
LINE
  5
2BD
100
AcDbEntity
  8
RUNDUNGEN
100
AcDbLine
 62
9
  6
CONTINUOUS
 10
77.9947910959
 20
84.980158832
 11
78.5947910959
 21
84.9801588318
  0
LINE
  5
2BE
100
AcDbEntity
  8
RUNDUNGEN
100
AcDbLine
 62
9
  6
CONTINUOUS
 10
74.9947910959
 20
85.1564858127
 11
77.9562844325
 21
85.1564858127
  0
LINE
  5
2BF
100
AcDbEntity
  8
RUNDUNGEN
100
AcDbLine
 62
9
  6
CONTINUOUS
 10
93.2332977594
 20
85.1564858127
 11
96.1947910959
 21
85.1564858127
  0
LINE
  5
2C0
100
AcDbEntity
  8
RUNDUNGEN
100
AcDbLine
 62
9
  6
CONTINUOUS
 10
93.2189140476
 20
85.1169668894
 11
92.6550984751
 21
85.3221789753
  0
LINE
  5
2C1
100
AcDbEntity
  8
RUNDUNGEN
100
AcDbLine
 62
9
  6
CONTINUOUS
 10
93.2332977594
 20
85.1564858127
 11
92.669482187
 21
85.3616978987
  0
LINE
  5
2C2
100
AcDbEntity
  8
0
100
AcDbLine
 62
7
  6
CONTINUOUS
 10
98.0947910959
 20
91.1564858127
 11
95.1987370245
 21
91.1564858127
  0
LINE
  5
2C3
100
AcDbEntity
  8
0
100
AcDbLine
 62
7
  6
CONTINUOUS
 10
75.9908451674
 20
91.1564858127
 11
73.0947910959
 21
91.1564858127
  0
LINE
  5
2C4
100
AcDbEntity
  8
RUNDUNGEN
100
AcDbLine
 62
7
  6
CONTINUOUS
 10
75.9908451674
 20
91.1564858127
 11
73.0947910959
 21
91.1564858127
  0
LINE
  5
2C5
100
AcDbEntity
  8
RUNDUNGEN
100
AcDbLine
 62
7
  6
CONTINUOUS
 10
95.1987370245
 20
91.1564858127
 11
98.0947910959
 21
91.1564858127
  0
ARC
  5
2C6
100
AcDbEntity
  8
RUNDUNGEN
100
AcDbCircle
 62
9
  6
CONTINUOUS
 10
91.4943601868
 20
150.420099494
 40
0.6208754403
100
AcDbArc
 50
351.2883087126
 51
359.9831194152
  0
ARC
  5
2C7
100
AcDbEntity
  8
RUNDUNGEN
100
AcDbCircle
 62
9
  6
CONTINUOUS
 10
79.6952220051
 20
150.420099494
 40
0.6208754403
100
AcDbArc
 50
180.0168805847
 51
188.711691282
  0
ARC
  5
2C8
100
AcDbEntity
  8
RUNDUNGEN
100
AcDbCircle
 62
9
  6
CONTINUOUS
 10
79.6952220051
 20
161.2197336471
 40
0.6208754403
100
AcDbArc
 50
171.2883087126
 51
179.9831194152
  0
ARC
  5
2C9
100
AcDbEntity
  8
RUNDUNGEN
100
AcDbCircle
 62
9
  6
CONTINUOUS
 10
91.4943601868
 20
161.2197336471
 40
0.6208754403
100
AcDbArc
 50
0.0168805847
 51
8.711691282
  0
ARC
  5
2CA
100
AcDbEntity
  8
RUNDUNGEN
100
AcDbCircle
 62
9
  6
CONTINUOUS
 10
76.2361110065
 20
161.2197337285
 40
0.6208754333
100
AcDbArc
 50
171.2893709018
 51
179.9831269217
  0
ARC
  5
2CB
100
AcDbEntity
  8
RUNDUNGEN
100
AcDbCircle
 62
7
  6
CONTINUOUS
 10
91.4947910959
 20
150.4199165706
 40
0.6
100
AcDbArc
 50
270.0
 51
360.0
  0
ARC
  5
2CC
100
AcDbEntity
  8
RUNDUNGEN
100
AcDbCircle
 62
7
  6
CONTINUOUS
 10
94.9947910959
 20
150.4199165706
 40
0.6
100
AcDbArc
 50
270.0
 51
360.0
  0
ARC
  5
2CD
100
AcDbEntity
  8
RUNDUNGEN
100
AcDbCircle
 62
7
  6
CONTINUOUS
 10
76.1947910959
 20
150.4199165706
 40
0.6
100
AcDbArc
 50
180.0
 51
270.0
  0
ARC
  5
2CE
100
AcDbEntity
  8
RUNDUNGEN
100
AcDbCircle
 62
7
  6
CONTINUOUS
 10
76.1947910959
 20
161.2199165706
 40
0.6
100
AcDbArc
 50
90.0
 51
180.0
  0
ARC
  5
2CF
100
AcDbEntity
  8
RUNDUNGEN
100
AcDbCircle
 62
7
  6
CONTINUOUS
 10
79.6947910959
 20
161.2199165706
 40
0.6
100
AcDbArc
 50
90.0
 51
180.0
  0
ARC
  5
2D0
100
AcDbEntity
  8
RUNDUNGEN
100
AcDbCircle
 62
7
  6
CONTINUOUS
 10
79.6947910959
 20
150.4199165706
 40
0.6
100
AcDbArc
 50
180.0
 51
270.0
  0
ARC
  5
2D1
100
AcDbEntity
  8
RUNDUNGEN
100
AcDbCircle
 62
7
  6
CONTINUOUS
 10
91.4947910959
 20
161.2199165706
 40
0.6
100
AcDbArc
 50
0.0
 51
90.0
  0
ARC
  5
2D2
100
AcDbEntity
  8
RUNDUNGEN
100
AcDbCircle
 62
7
  6
CONTINUOUS
 10
94.9947910959
 20
161.2199165706
 40
0.6
100
AcDbArc
 50
0.0
 51
90.0
  0
ARC
  5
2D3
100
AcDbEntity
  8
RUNDUNGEN
100
AcDbCircle
 62
9
  6
CONTINUOUS
 10
208.1405051301
 20
155.5344277423
 40
11.0299231154
100
AcDbArc
 50
346.2039271427
 51
350.14020583
  0
ARC
  5
2D4
100
AcDbEntity
  8
RUNDUNGEN
100
AcDbCircle
 62
9
  6
CONTINUOUS
 10
208.1407401507
 20
156.1054546168
 40
11.0296831382
100
AcDbArc
 50
9.8597513316
 51
13.7961156957
  0
ARC
  5
2D5
100
AcDbEntity
  8
RUNDUNGEN
100
AcDbCircle
 62
9
  6
CONTINUOUS
 10
212.9312133789
 20
155.8199165706
 40
6.6
100
AcDbArc
 50
26.2176267508
 51
54.9043617463
  0
ARC
  5
2D6
100
AcDbEntity
  8
RUNDUNGEN
100
AcDbCircle
 62
9
  6
CONTINUOUS
 10
212.9312133789
 20
155.8199165706
 40
6.6
100
AcDbArc
 50
305.0956824687
 51
333.7823732492
  0
ARC
  5
2D7
100
AcDbEntity
  8
RUNDUNGEN
100
AcDbCircle
 62
9
  6
CONTINUOUS
 10
212.7760475061
 20
155.8199378449
 40
6.5998744458
100
AcDbArc
 50
340.7658708795
 51
19.2342789847
  0
CIRCLE
  5
2D8
100
AcDbEntity
  8
0
100
AcDbCircle
 62
7
  6
CONTINUOUS
 10
212.9312133789
 20
155.8199165706
 40
6.0
  0
CIRCLE
  5
2D9
100
AcDbEntity
  8
0
100
AcDbCircle
 62
7
  6
CONTINUOUS
 10
212.9312133789
 20
155.8199165706
 40
2.7
  0
ARC
  5
2DA
100
AcDbEntity
  8
0
100
AcDbCircle
 62
7
  6
CONTINUOUS
 10
238.1262133789
 20
155.8199165706
 40
2.695
100
AcDbArc
 50
270.0
 51
90.0
  0
ARC
  5
2DB
100
AcDbEntity
  8
0
100
AcDbCircle
 62
7
  6
CONTINUOUS
 10
230.1262133789
 20
155.8199165706
 40
2.695
100
AcDbArc
 50
90.0
 51
270.0
  0
ARC
  5
2DC
100
AcDbEntity
  8
RUNDUNGEN
100
AcDbCircle
 62
7
  6
CONTINUOUS
 10
241.9312133789
 20
159.8199165706
 40
2.0
100
AcDbArc
 50
0.0
 51
89.9984252735
  0
ARC
  5
2DD
100
AcDbEntity
  8
RUNDUNGEN
100
AcDbCircle
 62
7
  6
CONTINUOUS
 10
241.9312133789
 20
151.8199165706
 40
2.0
100
AcDbArc
 50
270.0
 51
360.0
  0
ARC
  5
2DE
100
AcDbEntity
  8
RUNDUNGEN
100
AcDbCircle
 62
7
  6
CONTINUOUS
 10
85.5947910959
 20
60.6564858127
 40
6.5
100
AcDbArc
 50
180.0
 51
360.0
  0
ARC
  5
2DF
100
AcDbEntity
  8
02___PRT_ALL_AXES
100
AcDbCircle
 62
9
  6
CONTINUOUS
 10
85.5947910959
 20
60.6564858127
 40
5.9
100
AcDbArc
 50
347.5418941781
 51
360.0
  0
ARC
  5
2E0
100
AcDbEntity
  8
02___PRT_ALL_AXES
100
AcDbCircle
 62
9
  6
CONTINUOUS
 10
85.5947910959
 20
60.6564858127
 40
5.9
100
AcDbArc
 50
310.295417032
 51
329.4045092716
  0
ARC
  5
2E1
100
AcDbEntity
  8
02___PRT_ALL_AXES
100
AcDbCircle
 62
9
  6
CONTINUOUS
 10
85.5947910959
 20
60.6564858127
 40
5.9
100
AcDbArc
 50
210.5954907284
 51
229.7046053188
  0
ARC
  5
2E2
100
AcDbEntity
  8
02___PRT_ALL_AXES
100
AcDbCircle
 62
9
  6
CONTINUOUS
 10
85.5947910959
 20
60.6564858127
 40
5.9
100
AcDbArc
 50
180.0
 51
192.4581058219
  0
ARC
  5
2E3
100
AcDbEntity
  8
0
100
AcDbCircle
 62
7
  6
CONTINUOUS
 10
85.5947910959
 20
67.6564858127
 40
2.5
100
AcDbArc
 50
0.0
 51
180.0
  0
ARC
  5
2E4
100
AcDbEntity
  8
0
100
AcDbCircle
 62
7
  6
CONTINUOUS
 10
85.5947910959
 20
60.1564858127
 40
2.5
100
AcDbArc
 50
180.0
 51
360.0
  0
CIRCLE
  5
2E5
100
AcDbEntity
  8
02___PRT_ALL_AXES
100
AcDbCircle
 62
7
  6
CONTINUOUS
 10
81.0592910959
 20
69.0294858127
 40
2.0
  0
CIRCLE
  5
2E6
100
AcDbEntity
  8
02___PRT_ALL_AXES
100
AcDbCircle
 62
7
  6
CONTINUOUS
 10
81.2697910959
 20
58.9504858127
 40
1.5
  0
ARC
  5
2E7
100
AcDbEntity
  8
RUNDUNGEN
100
AcDbCircle
 62
9
  6
CONTINUOUS
 10
78.4947910959
 20
66.0153164877
 40
1.2
100
AcDbArc
 50
0.0
 51
15.0
  0
ARC
  5
2E8
100
AcDbEntity
  8
RUNDUNGEN
100
AcDbCircle
 62
7
  6
CONTINUOUS
 10
78.4947910959
 20
66.0153164877
 40
0.6
100
AcDbArc
 50
0.0
 51
15.0
  0
ARC
  5
2E9
100
AcDbEntity
  8
RUNDUNGEN
100
AcDbCircle
 62
9
  6
CONTINUOUS
 10
85.5947910959
 20
78.1564858127
 40
7.6
100
AcDbArc
 50
180.0
 51
360.0
  0
ARC
  5
2EA
100
AcDbEntity
  8
RUNDUNGEN
100
AcDbCircle
 62
7
  6
CONTINUOUS
 10
85.5947910959
 20
78.1564858127
 40
7.0
100
AcDbArc
 50
180.0
 51
360.0
  0
CIRCLE
  5
2EB
100
AcDbEntity
  8
02___PRT_ALL_AXES
100
AcDbCircle
 62
7
  6
CONTINUOUS
 10
77.0272910959
 20
83.1564858127
 40
1.25
  0
ARC
  5
2EC
100
AcDbEntity
  8
RUNDUNGEN
100
AcDbCircle
 62
7
  6
CONTINUOUS
 10
77.5947910959
 20
84.980158832
 40
1.0
100
AcDbArc
 50
0.0
 51
20.0
  0
ARC
  5
2ED
100
AcDbEntity
  8
RUNDUNGEN
100
AcDbCircle
 62
9
  6
CONTINUOUS
 10
75.9916286501
 20
79.7739758288
 40
0.9968375796
100
AcDbArc
 50
180.0129334493
 51
196.4673859206
  0
ARC
  5
2EE
100
AcDbEntity
  8
RUNDUNGEN
100
AcDbCircle
 62
7
  6
CONTINUOUS
 10
75.9908452743
 20
90.5564855191
 40
0.6
100
AcDbArc
 50
20.0000298383
 51
90.0000102053
  0
ARC
  5
2EF
100
AcDbEntity
  8
RUNDUNGEN
100
AcDbCircle
 62
7
  6
CONTINUOUS
 10
76.1947910959
 20
79.2354773113
 40
0.6
100
AcDbArc
 50
180.0
 51
195.0
  0
ARC
  5
2F0
100
AcDbEntity
  8
RUNDUNGEN
100
AcDbCircle
 62
7
  6
CONTINUOUS
 10
75.1343945286
 20
78.5564872105
 40
0.5999998729
100
AcDbArc
 50
14.9998618189
 51
89.999964236
  0
ARC
  5
2F1
100
AcDbEntity
  8
RUNDUNGEN
100
AcDbCircle
 62
9
  6
CONTINUOUS
 10
75.0931872761
 20
78.9385238024
 40
0.5410197528
100
AcDbArc
 50
25.0779479055
 51
30.6701017643
  0
ARC
  5
2F2
100
AcDbEntity
  8
RUNDUNGEN
100
AcDbCircle
 62
9
  6
CONTINUOUS
 10
75.1015919695
 20
78.9421629082
 40
0.5318649816
100
AcDbArc
 50
15.0408501094
 51
25.1066334338
  0
ARC
  5
2F3
100
AcDbEntity
  8
RUNDUNGEN
100
AcDbCircle
 62
9
  6
CONTINUOUS
 10
77.5947910959
 20
84.980158832
 40
0.4
100
AcDbArc
 50
0.0
 51
20.0
  0
CIRCLE
  5
2F4
100
AcDbEntity
  8
02___PRT_ALL_AXES
100
AcDbCircle
 62
7
  6
CONTINUOUS
 10
90.1302910959
 20
69.0294858127
 40
2.0
  0
CIRCLE
  5
2F5
100
AcDbEntity
  8
02___PRT_ALL_AXES
100
AcDbCircle
 62
7
  6
CONTINUOUS
 10
89.9197910959
 20
58.9504858127
 40
1.5
  0
ARC
  5
2F6
100
AcDbEntity
  8
RUNDUNGEN
100
AcDbCircle
 62
9
  6
CONTINUOUS
 10
92.6947910959
 20
66.0153164877
 40
1.2
100
AcDbArc
 50
165.0
 51
180.0
  0
ARC
  5
2F7
100
AcDbEntity
  8
RUNDUNGEN
100
AcDbCircle
 62
7
  6
CONTINUOUS
 10
92.6947910959
 20
66.0153164877
 40
0.6
100
AcDbArc
 50
165.0
 51
180.0
  0
CIRCLE
  5
2F8
100
AcDbEntity
  8
02___PRT_ALL_AXES
100
AcDbCircle
 62
7
  6
CONTINUOUS
 10
94.1622910959
 20
83.1564858127
 40
1.25
  0
ARC
  5
2F9
100
AcDbEntity
  8
RUNDUNGEN
100
AcDbCircle
 62
7
  6
CONTINUOUS
 10
93.5947910959
 20
84.980158832
 40
1.0
100
AcDbArc
 50
160.0
 51
180.0
  0
ARC
  5
2FA
100
AcDbEntity
  8
RUNDUNGEN
100
AcDbCircle
 62
9
  6
CONTINUOUS
 10
95.1979436695
 20
79.7739772585
 40
0.9968474522
100
AcDbArc
 50
343.5326961251
 51
359.986984505
  0
ARC
  5
2FB
100
AcDbEntity
  8
RUNDUNGEN
100
AcDbCircle
 62
7
  6
CONTINUOUS
 10
95.1987369289
 20
90.5564855502
 40
0.6
100
AcDbArc
 50
89.9999908755
 51
159.9999733217
  0
ARC
  5
2FC
100
AcDbEntity
  8
RUNDUNGEN
100
AcDbCircle
 62
7
  6
CONTINUOUS
 10
94.9947910959
 20
79.2354773113
 40
0.6
100
AcDbArc
 50
345.0
 51
360.0
  0
ARC
  5
2FD
100
AcDbEntity
  8
RUNDUNGEN
100
AcDbCircle
 62
7
  6
CONTINUOUS
 10
96.055187985
 20
78.5564884114
 40
0.5999997638
100
AcDbArc
 50
90.000066493
 51
165.0002569082
  0
ARC
  5
2FE
100
AcDbEntity
  8
RUNDUNGEN
100
AcDbCircle
 62
9
  6
CONTINUOUS
 10
96.0963981317
 20
78.9385302045
 40
0.5410199588
100
AcDbArc
 50
149.3306067169
 51
154.9227236443
  0
ARC
  5
2FF
100
AcDbEntity
  8
RUNDUNGEN
100
AcDbCircle
 62
9
  6
CONTINUOUS
 10
96.0879943313
 20
78.9421687841
 40
0.5318662163
100
AcDbArc
 50
154.8940391667
 51
164.9598759682
  0
ARC
  5
300
100
AcDbEntity
  8
RUNDUNGEN
100
AcDbCircle
 62
9
  6
CONTINUOUS
 10
93.5947910959
 20
84.980158832
 40
0.4
100
AcDbArc
 50
160.0
 51
180.0
  0
SPLINE
  5
301
100
AcDbEntity
  8
0
100
AcDbSpline
 62
7
  6
CONTINUOUS
 70
0
 71
3
 72
8
 73
4
 74
2
 42
0.0000001
 43
0.0000001
 44
0.0000000001
 12
0.0400068728
 22
0.0
 32
0.0
 13
0.0337927159
 23
-0.0220032833
 33
0.0
 40
0.0
 40
0.0
 40
0.0
 40
0.0
 40
1.0
 40
1.0
 40
1.0
 40
1.0
 10
79.1320536728
 20
158.5149165706
 30
0.0
 10
79.1453892971
 20
158.5149165706
 30
0.0
 10
79.1575221621
 20
158.5102639519
 30
0.0
 10
79.1687864007
 20
158.5029295241
 30
0.0
 11
79.1320536728
 21
158.5149165706
 31
0.0
 11
79.1687864007
 21
158.5029295241
 31
0.0
  0
SPLINE
  5
302
100
AcDbEntity
  8
0
100
AcDbSpline
 62
7
  6
CONTINUOUS
 70
0
 71
3
 72
23
 73
19
 74
17
 42
0.0000001
 43
0.0000001
 44
0.0000000001
 12
4.8505682535
 22
-3.1583264125
 32
0.0
 13
-4.8486389576
 23
-3.1609743444
 33
0.0
 40
0.0
 40
0.0
 40
0.0
 40
0.0
 40
0.0100873836
 40
0.0450237547
 40
0.0962205556
 40
0.1608287672
 40
0.2360743145
 40
0.3192430948
 40
0.4082609526
 40
0.5000717916
 40
0.5918009082
 40
0.6806121953
 40
0.7635860517
 40
0.8387711729
 40
0.9034667299
 40
0.9548235298
 40
0.989881834
 40
1.0
 40
1.0
 40
1.0
 40
1.0
 10
79.1687864007
 20
158.5029295241
 30
0.0
 10
79.1850962483
 20
158.492309774
 30
0.0
 10
79.2497650192
 20
158.4198148727
 30
0.0
 10
79.3536202659
 20
158.2802191135
 30
0.0
 10
79.4994217356
 20
158.0244041187
 30
0.0
 10
79.6562820193
 20
157.696052065
 30
0.0
 10
79.8096545824
 20
157.2963335507
 30
0.0
 10
79.9397162516
 20
156.8404038624
 30
0.0
 10
80.0280163741
 20
156.3417316693
 30
0.0
 10
80.0593803088
 20
155.8197142257
 30
0.0
 10
80.0279835563
 20
155.2980982441
 30
0.0
 10
79.9398855183
 20
154.8003365645
 30
0.0
 10
79.8102059387
 20
154.3452216123
 30
0.0
 10
79.6571207435
 20
153.9457381926
 30
0.0
 10
79.5002509359
 20
153.6170010134
 30
0.0
 10
79.3542017321
 20
153.3604790267
 30
0.0
 10
79.2500695822
 20
153.2204186076
 30
0.0
 10
79.1852283746
 20
153.1476062329
 30
0.0
 10
79.1688752633
 20
153.1369451452
 30
0.0
 11
79.1687864007
 21
158.5029295241
 31
0.0
 11
79.2132669955
 21
158.460185572
 31
0.0
 11
79.3344808931
 21
158.3003199993
 31
0.0
 11
79.4831410193
 21
158.0466745456
 31
0.0
 11
79.6435685038
 21
157.7121369649
 31
0.0
 11
79.7984137942
 21
157.308734041
 31
0.0
 11
79.9289619724
 21
156.8493223716
 31
0.0
 11
80.0174677327
 21
156.3458537595
 31
0.0
 11
80.048810555
 21
155.8195586891
 31
0.0
 11
80.0174386784
 21
155.2937354776
 31
0.0
 11
79.929175193
 21
154.7914287076
 31
0.0
 11
79.7990710141
 21
154.333054567
 31
0.0
 11
79.6445259005
 21
153.9299081491
 31
0.0
 11
79.4840358892
 21
153.59484432
 31
0.0
 11
79.3350242501
 21
153.3403399401
 31
0.0
 11
79.2134652774
 21
153.179857317
 31
0.0
 11
79.1688752633
 21
153.1369451452
 31
0.0
  0
SPLINE
  5
303
100
AcDbEntity
  8
0
100
AcDbSpline
 62
7
  6
CONTINUOUS
 70
0
 71
3
 72
8
 73
4
 74
2
 42
0.0000001
 43
0.0000001
 44
0.0000000001
 12
-0.0338678444
 22
-0.0220794718
 32
0.0
 13
-0.0401117709
 23
0.0
 33
0.0
 40
0.0
 40
0.0
 40
0.0
 40
0.0
 40
1.0
 40
1.0
 40
1.0
 40
1.0
 10
79.1688752633
 20
153.1369451452
 30
0.0
 10
79.1575859818
 20
153.1295853212
 30
0.0
 10
79.1454242631
 20
153.1249165706
 30
0.0
 10
79.1320536728
 20
153.1249165706
 30
0.0
 11
79.1688752633
 21
153.1369451452
 31
0.0
 11
79.1320536728
 21
153.1249165706
 31
0.0
  0
SPLINE
  5
304
100
AcDbEntity
  8
0
100
AcDbSpline
 62
7
  6
CONTINUOUS
 70
0
 71
3
 72
8
 73
4
 74
2
 42
0.0000001
 43
0.0000001
 44
0.0000000001
 12
-0.0368396432
 22
0.0
 32
0.0
 13
-0.0315025567
 23
0.0196691417
 33
0.0
 40
0.0
 40
0.0
 40
0.0
 40
0.0
 40
1.0
 40
1.0
 40
1.0
 40
1.0
 10
92.0575285191
 20
153.1249165706
 30
0.0
 10
92.045248638
 20
153.1249165706
 30
0.0
 10
92.0339918558
 20
153.129067856
 30
0.0
 10
92.0234910036
 20
153.1356242366
 30
0.0
 11
92.0575285191
 21
153.1249165706
 31
0.0
 11
92.0234910036
 21
153.1356242366
 31
0.0
  0
SPLINE
  5
305
100
AcDbEntity
  8
0
100
AcDbSpline
 62
7
  6
CONTINUOUS
 70
0
 71
3
 72
24
 73
20
 74
18
 42
0.0000001
 43
0.0000001
 44
0.0000000001
 12
-4.9481853296
 22
3.0894812611
 32
0.0
 13
5.78649484
 23
0.0
 33
0.0
 40
0.0
 40
0.0
 40
0.0
 40
0.0
 40
0.0091878535
 40
0.0408708712
 40
0.0874612985
 40
0.1466136116
 40
0.2153190646
 40
0.2915386894
 40
0.3718986818
 40
0.4552724391
 40
0.5391038988
 40
0.6223836204
 40
0.7027001089
 40
0.7788598255
 40
0.8474443564
 40
0.9064261243
 40
0.9528753468
 40
0.9844731861
 40
1.0
 40
1.0
 40
1.0
 40
1.0
 10
92.0234910036
 20
153.1356242366
 30
0.0
 10
92.008336603
 20
153.145086137
 30
0.0
 10
91.9479278022
 20
153.2094583931
 30
0.0
 10
91.8513195619
 20
153.3370748865
 30
0.0
 10
91.7146407587
 20
153.5700486341
 30
0.0
 10
91.5662770893
 20
153.8703314723
 30
0.0
 10
91.4181308463
 20
154.236111507
 30
0.0
 10
91.2880176552
 20
154.6510787045
 30
0.0
 10
91.1905223457
 20
155.1043337262
 30
0.0
 10
91.1384428002
 20
155.5799102482
 30
0.0
 10
91.1386806914
 20
156.0640495135
 30
0.0
 10
91.1911577074
 20
156.5393119135
 30
0.0
 10
91.2889178321
 20
156.9921180797
 30
0.0
 10
91.4191726553
 20
157.4065857856
 30
0.0
 10
91.5672604429
 20
157.7716539594
 30
0.0
 10
91.7153830607
 20
158.071132545
 30
0.0
 10
91.8517459894
 20
158.3033756507
 30
0.0
 10
91.9551530016
 20
158.4398965095
 30
0.0
 10
92.0275799096
 20
158.5149165706
 30
0.0
 10
92.0575285191
 20
158.5149165706
 30
0.0
 11
92.0234910036
 21
153.1356242366
 31
0.0
 11
91.9819479223
 21
153.1737887834
 31
0.0
 11
91.8691969499
 21
153.3183516902
 31
0.0
 11
91.7300922318
 21
153.5492877967
 31
0.0
 11
91.5778100545
 21
153.8558311947
 31
0.0
 11
91.428418677
 21
154.2242591401
 31
0.0
 11
91.2967622724
 21
154.6451947785
 31
0.0
 11
91.1994749183
 21
155.0999064068
 31
0.0
 11
91.1473241055
 21
155.5795212511
 31
0.0
 11
91.1475605478
 21
156.0646115023
 31
0.0
 11
91.200080931
 21
156.5436386233
 31
0.0
 11
91.2976624619
 21
156.9980297397
 31
0.0
 11
91.4294933128
 21
157.418547497
 31
0.0
 11
91.5788243047
 21
157.7862448136
 31
0.0
 11
91.730800216
 21
158.0918383985
 31
0.0
 11
91.8695644833
 21
158.3220256955
 31
0.0
 11
91.9820621214
 21
158.4661611023
 31
0.0
 11
92.0575285191
 21
158.5149165706
 31
0.0
  0
SPLINE
  5
306
100
AcDbEntity
  8
RUNDUNGEN
100
AcDbSpline
 62
9
  6
CONTINUOUS
 70
0
 71
3
 72
13
 73
9
 74
7
 42
0.0000001
 43
0.0000001
 44
0.0000000001
 12
3.5745531065
 22
-2.4866172852
 32
0.0
 13
4.3543880583
 23
0.0002678262
 33
0.0
 40
0.0
 40
0.0
 40
0.0
 40
0.0
 40
0.2358238214
 40
0.4535723349
 40
0.636236769
 40
0.7857762281
 40
0.9054497668
 40
1.0
 40
1.0
 40
1.0
 40
1.0
 10
85.5947910959
 20
151.8199165706
 30
0.0
 10
85.8757793537
 20
151.6244487071
 30
0.0
 10
86.4160714422
 20
151.2482792737
 30
0.0
 10
87.1861736436
 20
150.7382736786
 30
0.0
 10
87.8726880232
 20
150.330090305
 30
0.0
 10
88.4623398586
 20
150.0402794442
 30
0.0
 10
88.9624917515
 20
149.8662261211
 30
0.0
 10
89.2733117662
 20
149.8199081296
 30
0.0
 10
89.4105479016
 20
149.8199165706
 30
0.0
 11
85.5947910959
 21
151.8199165706
 31
0.0
 11
86.4399578661
 21
151.2366911336
 31
0.0
 11
87.2331290294
 21
150.7171819514
 31
0.0
 11
87.9197210402
 21
150.3156354694
 31
0.0
 11
88.5071299282
 21
150.0346535941
 31
0.0
 11
89.0021139726
 21
149.8717387478
 31
0.0
 11
89.4105479016
 21
149.8199165706
 31
0.0
  0
SPLINE
  5
307
100
AcDbEntity
  8
RUNDUNGEN
100
AcDbSpline
 62
9
  6
CONTINUOUS
 70
0
 71
3
 72
15
 73
11
 74
9
 42
0.0000001
 43
0.0000001
 44
0.0000000001
 12
4.3545111467
 22
-0.0002545526
 32
0.0
 13
3.574327197
 23
2.4871575101
 33
0.0
 40
0.0
 40
0.0
 40
0.0
 40
0.0
 40
0.0941192203
 40
0.2133156094
 40
0.3549125784
 40
0.5027581643
 40
0.6444428677
 40
0.7762460287
 40
0.8954161005
 40
1.0
 40
1.0
 40
1.0
 40
1.0
 10
81.7790342903
 20
149.8199165706
 30
0.0
 10
81.9156486882
 20
149.8199085845
 30
0.0
 10
82.225166204
 20
149.8658324754
 30
0.0
 10
82.7133254022
 20
150.035201857
 30
0.0
 10
83.2475509428
 20
150.2950893107
 30
0.0
 10
83.789242292
 20
150.608952828
 30
0.0
 10
84.3051808926
 20
150.9375047407
 30
0.0
 10
84.7785490625
 20
151.2549746491
 30
0.0
 10
85.2036069798
 20
151.5476906572
 30
0.0
 10
85.4701854038
 20
151.7332110269
 30
0.0
 10
85.5947910959
 20
151.8199165706
 30
0.0
 11
81.7790342903
 21
149.8199165706
 31
0.0
 11
82.1856422932
 21
149.8713108894
 31
0.0
 11
82.6788045055
 21
150.0331615499
 31
0.0
 11
83.2358577959
 21
150.2974897749
 31
0.0
 11
83.7945736298
 21
150.6173474693
 31
0.0
 11
84.3158873798
 21
150.94731871
 31
0.0
 11
84.7930812507
 21
151.2662093201
 31
0.0
 11
85.2207854033
 21
151.5600712125
 31
0.0
 11
85.5947910959
 21
151.8199165706
 31
0.0
  0
SPLINE
  5
308
100
AcDbEntity
  8
RUNDUNGEN
100
AcDbSpline
 62
9
  6
CONTINUOUS
 70
0
 71
3
 72
10
 73
6
 74
4
 42
0.0000001
 43
0.0000001
 44
0.0000000001
 12
0.2026199328
 22
2.1677109054
 32
0.0
 13
0.000029508
 23
2.1771599403
 33
0.0
 40
0.0
 40
0.0
 40
0.0
 40
0.0
 40
0.3273462689
 40
0.6625354079
 40
1.0
 40
1.0
 40
1.0
 40
1.0
 10
75.6152356002
 20
153.6456881609
 30
0.0
 10
75.6373445598
 20
153.8822188533
 30
0.0
 10
75.6740197563
 20
154.3617340709
 30
0.0
 10
75.7066905834
 20
155.0868200666
 30
0.0
 10
75.7139470796
 20
155.5750117735
 30
0.0
 10
75.7139503989
 20
155.8199165706
 30
0.0
 11
75.6152356002
 21
153.6456881609
 31
0.0
 11
75.6699166348
 21
154.3562725367
 31
0.0
 11
75.7029611828
 21
155.0852843675
 31
0.0
 11
75.7139503989
 21
155.8199165706
 31
0.0
  0
SPLINE
  5
309
100
AcDbEntity
  8
RUNDUNGEN
100
AcDbSpline
 62
9
  6
CONTINUOUS
 70
0
 71
3
 72
10
 73
6
 74
4
 42
0.0000001
 43
0.0000001
 44
0.0000000001
 12
-0.0000228329
 22
2.1771598972
 32
0.0
 13
-0.2026211773
 23
2.1677107457
 33
0.0
 40
0.0
 40
0.0
 40
0.0
 40
0.0
 40
0.335183099
 40
0.671627253
 40
1.0
 40
1.0
 40
1.0
 40
1.0
 10
75.7139503989
 20
155.8199165706
 30
0.0
 10
75.7139478479
 20
156.0631656377
 30
0.0
 10
75.7067496756
 20
156.5506116759
 30
0.0
 10
75.6741901767
 20
157.2757036643
 30
0.0
 10
75.6374140244
 20
157.7568726028
 30
0.0
 10
75.6152356002
 20
157.9941449802
 30
0.0
 11
75.7139503989
 21
155.8199165706
 31
0.0
 11
75.7031095314
 21
156.5495832435
 31
0.0
 11
75.670052461
 21
157.2813296576
 31
0.0
 11
75.6152356002
 21
157.9941449802
 31
0.0
  0
SPLINE
  5
30A
100
AcDbEntity
  8
RUNDUNGEN
100
AcDbSpline
 62
9
  6
CONTINUOUS
 70
0
 71
3
 72
12
 73
8
 74
6
 42
0.0000001
 43
0.0000001
 44
0.0000000001
 12
0.0000000005
 22
-0.7817370512
 32
0.0
 13
-0.7817370512
 23
0.0
 33
0.0
 40
0.0
 40
0.0
 40
0.0
 40
0.0
 40
0.2384186006
 40
0.4636970819
 40
0.6659140063
 40
0.8420758942
 40
1.0
 40
1.0
 40
1.0
 40
1.0
 10
89.7985909666
 20
150.4199165706
 30
0.0
 10
89.7985909666
 20
150.357789686
 30
0.0
 10
89.7865417384
 20
150.2365751658
 30
0.0
 10
89.7333771659
 20
150.0699190065
 30
0.0
 10
89.6493097579
 20
149.9345943948
 30
0.0
 10
89.5396483539
 20
149.8429159829
 30
0.0
 10
89.4516996099
 20
149.8199165706
 30
0.0
 10
89.4105479016
 20
149.8199165706
 30
0.0
 11
89.7985909666
 21
150.4199165706
 31
0.0
 11
89.7795987294
 21
150.2345060988
 31
0.0
 11
89.7244811482
 21
150.0672450197
 31
0.0
 11
89.6386336093
 21
149.9345060557
 31
0.0
 11
89.5304595672
 21
149.8492825422
 31
0.0
 11
89.4105479016
 21
149.8199165706
 31
0.0
  0
SPLINE
  5
30B
100
AcDbEntity
  8
RUNDUNGEN
100
AcDbSpline
 62
9
  6
CONTINUOUS
 70
0
 71
3
 72
10
 73
6
 74
4
 42
0.0000001
 43
0.0000001
 44
0.0000000001
 12
-0.2025041383
 22
-1.9694112691
 32
0.0
 13
-0.0000176336
 23
-1.9797951088
 33
0.0
 40
0.0
 40
0.0
 40
0.0
 40
0.0
 40
0.3287133593
 40
0.6649081698
 40
1.0
 40
1.0
 40
1.0
 40
1.0
 10
96.1539020875
 20
157.796487852
 30
0.0
 10
96.1317134823
 20
157.580697254
 30
0.0
 10
96.0949458006
 20
157.1433344868
 30
0.0
 10
96.062387243
 20
156.484093646
 30
0.0
 10
96.0551892584
 20
156.0410542927
 30
0.0
 10
96.0551872887
 20
155.8199165706
 30
0.0
 11
96.1539020875
 21
157.796487852
 31
0.0
 11
96.0990547318
 21
157.1480181032
 31
0.0
 11
96.0660279188
 21
156.4832411595
 31
0.0
 11
96.0551872887
 21
155.8199165706
 31
0.0
  0
SPLINE
  5
30C
100
AcDbEntity
  8
RUNDUNGEN
100
AcDbSpline
 62
9
  6
CONTINUOUS
 70
0
 71
3
 72
9
 73
5
 74
3
 42
0.0000001
 43
0.0000001
 44
0.0000000001
 12
-0.0690779197
 22
0.6720375776
 32
0.0
 13
-0.0000592722
 23
0.6755784641
 33
0.0
 40
0.0
 40
0.0
 40
0.0
 40
0.0
 40
0.5272297332
 40
1.0
 40
1.0
 40
1.0
 40
1.0
 10
75.0356801044
 20
157.796487852
 30
0.0
 10
75.0235401267
 20
157.9145939163
 30
0.0
 10
75.0034538345
 20
158.1389383418
 30
0.0
 10
74.9948004367
 20
158.3641433131
 30
0.0
 10
74.9947910959
 20
158.4706077834
 30
0.0
 11
75.0356801044
 21
157.796487852
 31
0.0
 11
75.005537961
 21
158.1513952265
 31
0.0
 11
74.9947910959
 21
158.4706077834
 31
0.0
  0
SPLINE
  5
30D
100
AcDbEntity
  8
RUNDUNGEN
100
AcDbSpline
 62
9
  6
CONTINUOUS
 70
0
 71
3
 72
10
 73
6
 74
4
 42
0.0000001
 43
0.0000001
 44
0.0000000001
 12
-0.0000175556
 22
1.9797951088
 32
0.0
 13
-0.2025041058
 23
1.9694112725
 33
0.0
 40
0.0
 40
0.0
 40
0.0
 40
0.0
 40
0.3350918302
 40
0.6712866407
 40
1.0
 40
1.0
 40
1.0
 40
1.0
 10
75.1343949032
 20
155.8199165706
 30
0.0
 10
75.1343929422
 20
156.0410542927
 30
0.0
 10
75.1271949429
 20
156.4840936459
 30
0.0
 10
75.0946363979
 20
157.1433344872
 30
0.0
 10
75.057868706
 20
157.5806972536
 30
0.0
 10
75.0356801044
 20
157.796487852
 30
0.0
 11
75.1343949032
 21
155.8199165706
 31
0.0
 11
75.1235542729
 21
156.4832411595
 31
0.0
 11
75.0905274621
 21
157.1480181033
 31
0.0
 11
75.0356801044
 21
157.796487852
 31
0.0
  0
SPLINE
  5
30E
100
AcDbEntity
  8
RUNDUNGEN
100
AcDbSpline
 62
9
  6
CONTINUOUS
 70
0
 71
3
 72
12
 73
8
 74
6
 42
0.0000001
 43
0.0000001
 44
0.0000000001
 12
-0.1259553416
 22
-0.8229106179
 32
0.0
 13
-0.8287136671
 23
0.0
 33
0.0
 40
0.0
 40
0.0
 40
0.0
 40
0.0
 40
0.1129414696
 40
0.3378936657
 40
0.5605892174
 40
0.7810050221
 40
1.0
 40
1.0
 40
1.0
 40
1.0
 10
92.1080725879
 20
150.3260601347
 30
0.0
 10
92.1033307275
 20
150.2950798899
 30
0.0
 10
92.0821437289
 20
150.2033555738
 30
0.0
 10
92.0128829467
 20
150.0622336414
 30
0.0
 10
91.8827473317
 20
149.9270322127
 30
0.0
 10
91.7184605916
 20
149.8399818535
 30
0.0
 10
91.5961748148
 20
149.8199165706
 30
0.0
 10
91.5356801044
 20
149.8199165706
 30
0.0
 11
92.1080725879
 21
150.3260601347
 31
0.0
 11
92.0868701352
 21
150.2345063739
 31
0.0
 11
92.0045503497
 21
150.0672454192
 31
0.0
 11
91.8763342777
 21
149.9345063739
 31
0.0
 11
91.7147726018
 21
149.8492826608
 31
0.0
 11
91.5356801044
 21
149.8199165706
 31
0.0
  0
SPLINE
  5
30F
100
AcDbEntity
  8
RUNDUNGEN
100
AcDbSpline
 62
9
  6
CONTINUOUS
 70
0
 71
3
 72
10
 73
6
 74
4
 42
0.0000001
 43
0.0000001
 44
0.0000000001
 12
0.2025031466
 22
1.9694114193
 32
0.0
 13
0.0000224129
 23
1.9797951567
 33
0.0
 40
0.0
 40
0.0
 40
0.0
 40
0.0
 40
0.3276692187
 40
0.6625683493
 40
1.0
 40
1.0
 40
1.0
 40
1.0
 10
75.0356801044
 20
153.8433452891
 30
0.0
 10
75.0577981203
 20
154.0584504561
 30
0.0
 10
75.0944620348
 20
154.4942713927
 30
0.0
 10
75.1271342972
 20
155.1535054797
 30
0.0
 10
75.1343923822
 20
155.5972347213
 30
0.0
 10
75.1343949032
 20
155.8199165706
 30
0.0
 11
75.0356801044
 21
153.8433452891
 31
0.0
 11
75.0903893648
 21
154.4897521674
 31
0.0
 11
75.123402083
 21
155.1519614734
 31
0.0
 11
75.1343949032
 21
155.8199165706
 31
0.0
  0
SPLINE
  5
310
100
AcDbEntity
  8
RUNDUNGEN
100
AcDbSpline
 62
9
  6
CONTINUOUS
 70
0
 71
3
 72
9
 73
5
 74
3
 42
0.0000001
 43
0.0000001
 44
0.0000000001
 12
0.0000594139
 22
0.6755783931
 32
0.0
 13
0.0690785208
 23
0.6720374445
 33
0.0
 40
0.0
 40
0.0
 40
0.0
 40
0.0
 40
0.4734041202
 40
1.0
 40
1.0
 40
1.0
 40
1.0
 10
74.9947910959
 20
153.1692253578
 30
0.0
 10
74.9948004715
 20
153.275832556
 30
0.0
 10
75.0034651674
 20
153.5010374883
 30
0.0
 10
75.0235546163
 20
153.7253812393
 30
0.0
 10
75.0356801044
 20
153.8433452891
 30
0.0
 11
74.9947910959
 21
153.1692253578
 31
0.0
 11
75.0055646951
 21
153.4888654411
 31
0.0
 11
75.0356801044
 21
153.8433452891
 31
0.0
  0
SPLINE
  5
311
100
AcDbEntity
  8
RUNDUNGEN
100
AcDbSpline
 62
9
  6
CONTINUOUS
 70
0
 71
3
 72
12
 73
8
 74
6
 42
0.0000001
 43
0.0000001
 44
0.0000000001
 12
0.0
 22
-0.9226849506
 32
0.0
 13
-0.9226849506
 23
0.0
 33
0.0
 40
0.0
 40
0.0
 40
0.0
 40
0.0
 40
0.2032661626
 40
0.4053147878
 40
0.605336366
 40
0.803306294
 40
1.0
 40
1.0
 40
1.0
 40
1.0
 10
95.5743465917
 20
150.4199165706
 30
0.0
 10
95.5743465917
 20
150.3573996942
 30
0.0
 10
95.5552668934
 20
150.2319106009
 30
0.0
 10
95.4720007174
 20
150.0622421929
 30
0.0
 10
95.3418632733
 20
149.9270353916
 30
0.0
 10
95.1775738385
 20
149.8399823524
 30
0.0
 10
95.0552865367
 20
149.8199165706
 30
0.0
 10
94.9947910959
 20
149.8199165706
 30
0.0
 11
95.5743465917
 21
150.4199165706
 31
0.0
 11
95.5459862163
 21
150.2345225912
 31
0.0
 11
95.4636674639
 21
150.0672541437
 31
0.0
 11
95.3354488914
 21
149.9345090985
 31
0.0
 11
95.1738856977
 21
149.8492833687
 31
0.0
 11
94.9947910959
 21
149.8199165706
 31
0.0
  0
SPLINE
  5
312
100
AcDbEntity
  8
RUNDUNGEN
100
AcDbSpline
 62
9
  6
CONTINUOUS
 70
0
 71
3
 72
9
 73
5
 74
3
 42
0.0000001
 43
0.0000001
 44
0.0000000001
 12
-0.0000593981
 22
-0.6755783738
 32
0.0
 13
-0.0690785585
 23
-0.6720374212
 33
0.0
 40
0.0
 40
0.0
 40
0.0
 40
0.0
 40
0.473544861
 40
1.0
 40
1.0
 40
1.0
 40
1.0
 10
96.1947910959
 20
158.4706077834
 30
0.0
 10
96.1947817201
 20
158.3639688943
 30
0.0
 10
96.1861143753
 20
158.1387639773
 30
0.0
 10
96.1660243415
 20
157.91442037
 30
0.0
 10
96.1539020875
 20
157.796487852
 30
0.0
 11
96.1947910959
 21
158.4706077834
 31
0.0
 11
96.184011489
 21
158.1508727763
 31
0.0
 11
96.1539020875
 21
157.796487852
 31
0.0
  0
SPLINE
  5
313
100
AcDbEntity
  8
RUNDUNGEN
100
AcDbSpline
 62
9
  6
CONTINUOUS
 70
0
 71
3
 72
13
 73
9
 74
7
 42
0.0000001
 43
0.0000001
 44
0.0000000001
 12
4.0743017276
 22
-1.8020760255
 32
0.0
 13
4.4550434966
 23
0.0001117909
 33
0.0
 40
0.0
 40
0.0
 40
0.0
 40
0.0
 40
0.2282307644
 40
0.4406974615
 40
0.6218425085
 40
0.77367245
 40
0.8987308912
 40
1.0
 40
1.0
 40
1.0
 40
1.0
 10
85.5947910959
 20
151.8199165706
 30
0.0
 10
85.9047514286
 20
151.6828201743
 30
0.0
 10
86.5033044311
 20
151.4181854067
 30
0.0
 10
87.3546058967
 20
151.0600608432
 30
0.0
 10
88.1127309291
 20
150.7740971461
 30
0.0
 10
88.762761429
 20
150.5717293138
 30
0.0
 10
89.3120918995
 20
150.4513035448
 30
0.0
 10
89.6482048717
 20
150.4199127969
 30
0.0
 10
89.7985909666
 20
150.4199165706
 30
0.0
 11
85.5947910959
 21
151.8199165706
 31
0.0
 11
86.5259920747
 21
151.411624758
 31
0.0
 11
87.3998856029
 21
151.047943672
 31
0.0
 11
88.1563591546
 21
150.7668540165
 31
0.0
 11
88.8035417187
 21
150.5701718988
 31
0.0
 11
89.3488899698
 21
150.45614931
 31
0.0
 11
89.7985909666
 21
150.4199165706
 31
0.0
  0
SPLINE
  5
314
100
AcDbEntity
  8
RUNDUNGEN
100
AcDbSpline
 62
9
  6
CONTINUOUS
 70
0
 71
3
 72
15
 73
11
 74
9
 42
0.0000001
 43
0.0000001
 44
0.0000000001
 12
4.4551128775
 22
-0.0001023031
 32
0.0
 13
4.0745694731
 23
1.8016421316
 33
0.0
 40
0.0
 40
0.0
 40
0.0
 40
0.0
 40
0.1008134317
 40
0.2253881973
 40
0.3692698068
 40
0.5163060245
 40
0.6552703703
 40
0.7834824909
 40
0.8988959592
 40
1.0
 40
1.0
 40
1.0
 40
1.0
 10
81.3909912253
 20
150.4199165706
 30
0.0
 10
81.5407029645
 20
150.4199131327
 30
0.0
 10
81.875428175
 20
150.4510400063
 30
0.0
 10
82.4119303288
 20
150.5683040009
 30
0.0
 10
83.0020716313
 20
150.7501902191
 30
0.0
 10
83.6013874651
 20
150.9705709691
 30
0.0
 10
84.1716844522
 20
151.2012436928
 30
0.0
 10
84.6943920359
 20
151.4239551028
 30
0.0
 10
85.1633989763
 20
151.6291737547
 30
0.0
 10
85.4574726165
 20
151.759198804
 30
0.0
 10
85.5947910959
 20
151.8199165706
 30
0.0
 11
81.3909912253
 21
150.4199165706
 31
0.0
 11
81.8386866539
 21
150.4558504955
 31
0.0
 11
82.381999348
 21
150.5691217189
 31
0.0
 11
82.9957264891
 21
150.7541387244
 31
0.0
 11
83.611331653
 21
150.9780533227
 31
0.0
 11
84.1857231297
 21
151.2090544649
 31
0.0
 11
84.7114915117
 21
151.4322952386
 31
0.0
 11
85.1827250178
 21
151.6380136983
 31
0.0
 11
85.5947910959
 21
151.8199165706
 31
0.0
  0
SPLINE
  5
315
100
AcDbEntity
  8
RUNDUNGEN
100
AcDbSpline
 62
9
  6
CONTINUOUS
 70
0
 71
3
 72
9
 73
5
 74
3
 42
0.0000001
 43
0.0000001
 44
0.0000000001
 12
0.0690780242
 22
-0.6720375519
 32
0.0
 13
0.0000592768
 23
-0.6755784492
 33
0.0
 40
0.0
 40
0.0
 40
0.0
 40
0.0
 40
0.52709153
 40
1.0
 40
1.0
 40
1.0
 40
1.0
 10
96.1539020875
 20
153.8433452891
 30
0.0
 10
96.1660389013
 20
153.7252701886
 30
0.0
 10
96.1861259082
 20
153.5009259122
 30
0.0
 10
96.1947817518
 20
153.275720948
 30
0.0
 10
96.1947910959
 20
153.1692253578
 30
0.0
 11
96.1539020875
 21
153.8433452891
 31
0.0
 11
96.1840384152
 21
153.4885311318
 31
0.0
 11
96.1947910959
 21
153.1692253578
 31
0.0
  0
SPLINE
  5
316
100
AcDbEntity
  8
RUNDUNGEN
100
AcDbSpline
 62
9
  6
CONTINUOUS
 70
0
 71
3
 72
10
 73
6
 74
4
 42
0.0000001
 43
0.0000001
 44
0.0000000001
 12
0.0000224089
 22
-1.9797951567
 32
0.0
 13
0.2025031342
 23
-1.9694114206
 33
0.0
 40
0.0
 40
0.0
 40
0.0
 40
0.0
 40
0.3374316507
 40
0.6723307813
 40
1.0
 40
1.0
 40
1.0
 40
1.0
 10
96.0551872887
 20
155.8199165706
 30
0.0
 10
96.0551898092
 20
155.5972347213
 30
0.0
 10
96.0624478955
 20
155.1535054798
 30
0.0
 10
96.0951201549
 20
154.4942713925
 30
0.0
 10
96.1317840729
 20
154.0584504563
 30
0.0
 10
96.1539020875
 20
153.8433452891
 30
0.0
 11
96.0551872887
 21
155.8199165706
 31
0.0
 11
96.0661801089
 21
155.1519614734
 31
0.0
 11
96.0991928264
 21
154.4897521674
 31
0.0
 11
96.1539020875
 21
153.8433452891
 31
0.0
  0
SPLINE
  5
317
100
AcDbEntity
  8
RUNDUNGEN
100
AcDbSpline
 62
9
  6
CONTINUOUS
 70
0
 71
3
 72
12
 73
8
 74
6
 42
0.0000001
 43
0.0000001
 44
0.0000000001
 12
0.0
 22
-0.9226849506
 32
0.0
 13
0.9226849506
 23
0.0
 33
0.0
 40
0.0
 40
0.0
 40
0.0
 40
0.0
 40
0.2032661663
 40
0.4053147375
 40
0.605336389
 40
0.8033062775
 40
1.0
 40
1.0
 40
1.0
 40
1.0
 10
75.6152356002
 20
150.4199165706
 30
0.0
 10
75.6152356002
 20
150.357399693
 30
0.0
 10
75.6343152967
 20
150.2319106151
 30
0.0
 10
75.7175814688
 20
150.0622421996
 30
0.0
 10
75.8477189074
 20
149.9270353978
 30
0.0
 10
76.0120083551
 20
149.8399823532
 30
0.0
 10
76.1342956501
 20
149.8199165706
 30
0.0
 10
76.1947910959
 20
149.8199165706
 30
0.0
 11
75.6152356002
 21
150.4199165706
 31
0.0
 11
75.6435959767
 21
150.2345225878
 31
0.0
 11
75.7259147011
 21
150.0672541822
 31
0.0
 11
75.8541333176
 21
149.9345090856
 31
0.0
 11
76.0156964795
 21
149.8492833736
 31
0.0
 11
76.1947910959
 21
149.8199165706
 31
0.0
  0
SPLINE
  5
318
100
AcDbEntity
  8
RUNDUNGEN
100
AcDbSpline
 62
9
  6
CONTINUOUS
 70
0
 71
3
 72
12
 73
8
 74
6
 42
0.0000001
 43
0.0000001
 44
0.0000000001
 12
0.1259553416
 22
-0.8229106179
 32
0.0
 13
0.8287136672
 23
-0.0
 33
0.0
 40
0.0
 40
0.0
 40
0.0
 40
0.0
 40
0.1129414696
 40
0.3378936656
 40
0.5605892174
 40
0.7810050222
 40
1.0
 40
1.0
 40
1.0
 40
1.0
 10
79.081509604
 20
150.3260601348
 30
0.0
 10
79.0862514644
 20
150.29507989
 30
0.0
 10
79.1074384629
 20
150.2033555739
 30
0.0
 10
79.1766992452
 20
150.0622336414
 30
0.0
 10
79.3068348602
 20
149.9270322127
 30
0.0
 10
79.4711216004
 20
149.8399818535
 30
0.0
 10
79.5934073771
 20
149.8199165706
 30
0.0
 10
79.6539020875
 20
149.8199165706
 30
0.0
 11
79.081509604
 21
150.3260601348
 31
0.0
 11
79.1027120567
 21
150.234506374
 31
0.0
 11
79.1850318422
 21
150.0672454193
 31
0.0
 11
79.3132479142
 21
149.9345063739
 31
0.0
 11
79.4748095902
 21
149.8492826608
 31
0.0
 11
79.6539020875
 21
149.8199165706
 31
0.0
  0
SPLINE
  5
319
100
AcDbEntity
  8
RUNDUNGEN
100
AcDbSpline
 62
9
  6
CONTINUOUS
 70
0
 71
3
 72
14
 73
10
 74
8
 42
0.0000001
 43
0.0000001
 44
0.0000000001
 12
-4.0746071864
 22
1.8020603253
 32
0.0
 13
-4.4553165024
 23
-0.0000465951
 33
0.0
 40
0.0
 40
0.0
 40
0.0
 40
0.0
 40
0.2062364971
 40
0.3953303375
 40
0.5584202519
 40
0.6982587755
 40
0.8171139784
 40
0.916990123
 40
1.0
 40
1.0
 40
1.0
 40
1.0
 10
85.5947910959
 20
159.8199165706
 30
0.0
 10
85.3146801915
 20
159.9438001069
 30
0.0
 10
84.7777116581
 20
160.1812096945
 30
0.0
 10
84.0143580101
 20
160.505482225
 30
0.0
 10
83.3337001275
 20
160.7716807683
 30
0.0
 10
82.7407333837
 20
160.9743806965
 30
0.0
 10
82.2268694538
 20
161.1158394199
 30
0.0
 10
81.7859415954
 20
161.1989834119
 30
0.0
 10
81.5142696503
 20
161.2199178598
 30
0.0
 10
81.3909912253
 20
161.2199165706
 30
0.0
 11
85.5947910959
 21
159.8199165706
 31
0.0
 11
84.7534900915
 21
160.1893700374
 31
0.0
 11
83.9771458449
 21
160.5165553223
 31
0.0
 11
83.299561741
 21
160.7789525758
 31
0.0
 11
82.709174963
 21
160.9779587462
 31
0.0
 11
82.1978503813
 21
161.1156438423
 31
0.0
 11
81.7599757053
 21
161.1948449911
 31
0.0
 11
81.3909912253
 21
161.2199165706
 31
0.0
  0
SPLINE
  5
31A
100
AcDbEntity
  8
RUNDUNGEN
100
AcDbSpline
 62
9
  6
CONTINUOUS
 70
0
 71
3
 72
14
 73
10
 74
8
 42
0.0000001
 43
0.0000001
 44
0.0000000001
 12
-4.4553197421
 22
0.0000433639
 32
0.0
 13
-4.0746088837
 23
-1.802064497
 33
0.0
 40
0.0
 40
0.0
 40
0.0
 40
0.0
 40
0.0826681406
 40
0.18217656
 40
0.3006842418
 40
0.4402169346
 40
0.6030660509
 40
0.7921348684
 40
1.0
 40
1.0
 40
1.0
 40
1.0
 10
89.7985909666
 20
161.2199165706
 30
0.0
 10
89.675819967
 20
161.2199177655
 30
0.0
 10
89.4052011271
 20
161.1991480062
 30
0.0
 10
88.965774141
 20
161.1165279018
 30
0.0
 10
88.4532966496
 20
160.9757481775
 30
0.0
 10
87.8614941583
 20
160.7737441327
 30
0.0
 10
87.1815387126
 20
160.5080764285
 30
0.0
 10
86.416260954
 20
160.183152661
 30
0.0
 10
85.8771141333
 20
159.9447786952
 30
0.0
 10
85.5947910959
 20
159.8199165706
 30
0.0
 11
89.7985909666
 21
161.2199165706
 31
0.0
 11
89.4311192265
 21
161.1950371547
 31
0.0
 11
88.9948170687
 21
161.1163453413
 31
0.0
 11
88.4849140952
 21
160.9793344283
 31
0.0
 11
87.8957280018
 21
160.7810307831
 31
0.0
 11
87.2190566901
 21
160.5192459224
 31
0.0
 11
86.4427515221
 21
160.1922534394
 31
0.0
 11
85.5947910959
 21
159.8199165706
 31
0.0
  0
SPLINE
  5
31B
100
AcDbEntity
  8
RUNDUNGEN
100
AcDbSpline
 62
9
  6
CONTINUOUS
 70
0
 71
3
 72
10
 73
6
 74
4
 42
0.0000001
 43
0.0000001
 44
0.0000000001
 12
-0.2026212239
 22
-2.1677107413
 32
0.0
 13
-0.0000229066
 23
-2.1771598972
 33
0.0
 40
0.0
 40
0.0
 40
0.0
 40
0.0
 40
0.3283727477
 40
0.6648169009
 40
1.0
 40
1.0
 40
1.0
 40
1.0
 10
95.5743465917
 20
157.9941449802
 30
0.0
 10
95.5521681624
 20
157.7568726027
 30
0.0
 10
95.5153920224
 20
157.2757036634
 30
0.0
 10
95.4828325104
 20
156.5506116755
 30
0.0
 10
95.4756343523
 20
156.0631656377
 30
0.0
 10
95.475631793
 20
155.8199165706
 30
0.0
 11
95.5743465917
 21
157.9941449802
 31
0.0
 11
95.5195297327
 21
157.281329656
 31
0.0
 11
95.4864726604
 21
156.5495832436
 31
0.0
 11
95.475631793
 21
155.8199165706
 31
0.0
  0
SPLINE
  5
31C
100
AcDbEntity
  8
RUNDUNGEN
100
AcDbSpline
 62
9
  6
CONTINUOUS
 70
0
 71
3
 72
10
 73
6
 74
4
 42
0.0000001
 43
0.0000001
 44
0.0000000001
 12
0.0000295084
 22
-2.1771599403
 32
0.0
 13
0.2026199153
 23
-2.167710907
 33
0.0
 40
0.0
 40
0.0
 40
0.0
 40
0.0
 40
0.3374645921
 40
0.6726537314
 40
1.0
 40
1.0
 40
1.0
 40
1.0
 10
95.475631793
 20
155.8199165706
 30
0.0
 10
95.4756351123
 20
155.5750117735
 30
0.0
 10
95.482891609
 20
155.0868200664
 30
0.0
 10
95.5155624334
 20
154.3617340705
 30
0.0
 10
95.552237634
 20
153.8822188533
 30
0.0
 10
95.5743465917
 20
153.6456881609
 30
0.0
 11
95.475631793
 21
155.8199165706
 31
0.0
 11
95.486621009
 21
155.0852843675
 31
0.0
 11
95.5196655564
 21
154.356272536
 31
0.0
 11
95.5743465917
 21
153.6456881609
 31
0.0
  0
SPLINE
  5
31D
100
AcDbEntity
  8
RUNDUNGEN
100
AcDbSpline
 62
9
  6
CONTINUOUS
 70
0
 71
3
 72
9
 73
5
 74
3
 42
0.0000001
 43
0.0000001
 44
0.0000000001
 12
-0.0000069924
 22
-0.741863668
 32
0.0
 13
-0.0346378995
 23
-0.7410545985
 33
0.0
 40
0.0
 40
0.0
 40
0.0
 40
0.0
 40
0.4741861359
 40
1.0
 40
1.0
 40
1.0
 40
1.0
 10
95.5947910959
 20
158.7356769046
 30
0.0
 10
95.5947899907
 20
158.6184164159
 30
0.0
 10
95.5904501848
 20
158.3711259057
 30
0.0
 10
95.580417621
 20
158.1240305742
 30
0.0
 10
95.5743465917
 20
157.9941449802
 30
0.0
 11
95.5947910959
 21
158.7356769046
 31
0.0
 11
95.5893942083
 21
158.3839368394
 31
0.0
 11
95.5743465917
 21
157.9941449802
 31
0.0
  0
SPLINE
  5
31E
100
AcDbEntity
  8
RUNDUNGEN
100
AcDbSpline
 62
9
  6
CONTINUOUS
 70
0
 71
3
 72
9
 73
5
 74
3
 42
0.0000001
 43
0.0000001
 44
0.0000000001
 12
0.0346378109
 22
-0.741054619
 32
0.0
 13
0.0000069666
 23
-0.7418636844
 33
0.0
 40
0.0
 40
0.0
 40
0.0
 40
0.0
 40
0.5264497116
 40
1.0
 40
1.0
 40
1.0
 40
1.0
 10
95.5743465917
 20
153.6456881609
 30
0.0
 10
95.5804249469
 20
153.5156454975
 30
0.0
 10
95.5904558495
 20
153.2685500089
 30
0.0
 10
95.5947899963
 20
153.0212594904
 30
0.0
 10
95.5947910959
 20
152.9041562365
 30
0.0
 11
95.5743465917
 21
153.6456881609
 31
0.0
 11
95.5894076266
 21
153.2554247477
 31
0.0
 11
95.5947910959
 21
152.9041562365
 31
0.0
  0
SPLINE
  5
31F
100
AcDbEntity
  8
RUNDUNGEN
100
AcDbSpline
 62
9
  6
CONTINUOUS
 70
0
 71
3
 72
9
 73
5
 74
3
 42
0.0000001
 43
0.0000001
 44
0.0000000001
 12
-0.0346378043
 22
0.7410546229
 32
0.0
 13
-0.0000069604
 23
0.741863688
 33
0.0
 40
0.0
 40
0.0
 40
0.0
 40
0.0
 40
0.5265904204
 40
1.0
 40
1.0
 40
1.0
 40
1.0
 10
75.6152356002
 20
157.9941449802
 30
0.0
 10
75.6091556215
 20
158.124222402
 30
0.0
 10
75.5991250912
 20
158.3713179256
 30
0.0
 10
75.5947921943
 20
158.6186084458
 30
0.0
 10
75.5947910959
 20
158.7356769046
 30
0.0
 11
75.6152356002
 21
157.9941449802
 31
0.0
 11
75.6001715985
 21
158.3845127453
 31
0.0
 11
75.5947910959
 21
158.7356769046
 31
0.0
  0
SPLINE
  5
320
100
AcDbEntity
  8
RUNDUNGEN
100
AcDbSpline
 62
9
  6
CONTINUOUS
 70
0
 71
3
 72
9
 73
5
 74
3
 42
0.0000001
 43
0.0000001
 44
0.0000000001
 12
0.0000069825
 22
0.7418636716
 32
0.0
 13
0.0346378957
 23
0.7410546022
 33
0.0
 40
0.0
 40
0.0
 40
0.0
 40
0.0
 40
0.4740490997
 40
1.0
 40
1.0
 40
1.0
 40
1.0
 10
75.5947910959
 20
152.9041562365
 30
0.0
 10
75.5947921993
 20
153.0213828384
 30
0.0
 10
75.5991307886
 20
153.2686733503
 30
0.0
 10
75.6091629894
 20
153.5157687159
 30
0.0
 10
75.6152356002
 20
153.6456881609
 30
0.0
 11
75.5947910959
 21
152.9041562365
 31
0.0
 11
75.6001850909
 21
153.2557946737
 31
0.0
 11
75.6152356002
 21
153.6456881609
 31
0.0
  0
SPLINE
  5
321
100
AcDbEntity
  8
RUNDUNGEN
100
AcDbSpline
 62
9
  6
CONTINUOUS
 70
0
 71
3
 72
12
 73
8
 74
6
 42
0.0000001
 43
0.0000001
 44
0.0000000001
 12
0.000089198
 22
0.9245077626
 32
0.0
 13
-0.9245077665
 23
-0.000029905
 33
0.0
 40
0.0
 40
0.0
 40
0.0
 40
0.0
 40
0.1728860025
 40
0.36684091
 40
0.576848178
 40
0.7945780061
 40
1.0
 40
1.0
 40
1.0
 40
1.0
 10
75.5947910886
 20
161.2200110849
 30
0.0
 10
75.5947962289
 20
161.2732892354
 30
0.0
 10
75.5721114886
 20
161.3865897486
 30
0.0
 10
75.4881566713
 20
161.5453268202
 30
0.0
 10
75.3580747869
 20
161.6888798385
 30
0.0
 10
75.1895281397
 20
161.7934628587
 30
0.0
 10
75.0580958389
 20
161.8199186183
 30
0.0
 10
74.9947910959
 20
161.8199165706
 30
0.0
 11
75.5947910886
 21
161.2200110849
 31
0.0
 11
75.5665944136
 21
161.3773387672
 31
0.0
 11
75.4845611492
 21
161.5367866595
 31
0.0
 11
75.3538175121
 21
161.6803193207
 31
0.0
 11
75.1812771977
 21
161.7839951541
 31
0.0
 11
74.9947910959
 21
161.8199165706
 31
0.0
  0
SPLINE
  5
322
100
AcDbEntity
  8
RUNDUNGEN
100
AcDbSpline
 62
9
  6
CONTINUOUS
 70
0
 71
3
 72
12
 73
8
 74
6
 42
0.0000001
 43
0.0000001
 44
0.0000000001
 12
-0.0
 22
-0.702238284
 32
0.0
 13
-0.702238284
 23
0.0000000001
 33
0.0
 40
0.0
 40
0.0
 40
0.0
 40
0.0
 40
0.1239124162
 40
0.2845380869
 40
0.4911852211
 40
0.7353273845
 40
1.0
 40
1.0
 40
1.0
 40
1.0
 10
75.5947910959
 20
158.7356769046
 30
0.0
 10
75.5947910959
 20
158.7066715571
 30
0.0
 10
75.5667485572
 20
158.640473707
 30
0.0
 10
75.4733565025
 20
158.5694432219
 30
0.0
 10
75.3405165593
 20
158.51387841
 30
0.0
 10
75.1759989466
 20
158.4786564771
 30
0.0
 10
75.0567455104
 20
158.4706077833
 30
0.0
 10
74.9947910959
 20
158.4706077833
 30
0.0
 11
75.5947910959
 21
158.7356769046
 31
0.0
 11
75.5654248817
 21
158.6537658729
 31
0.0
 11
75.4802009646
 21
158.5798729849
 31
0.0
 11
75.3474618394
 21
158.5212313498
 31
0.0
 11
75.180201012
 21
158.4835811493
 31
0.0
 11
74.9947910959
 21
158.4706077833
 31
0.0
  0
SPLINE
  5
323
100
AcDbEntity
  8
RUNDUNGEN
100
AcDbSpline
 62
9
  6
CONTINUOUS
 70
0
 71
3
 72
11
 73
7
 74
5
 42
0.0000001
 43
0.0000001
 44
0.0000000001
 12
-0.3633841689
 22
-0.5071392387
 32
0.0
 13
-0.6217339418
 23
-0.0518185996
 33
0.0
 40
0.0
 40
0.0
 40
0.0
 40
0.0
 40
0.1651490954
 40
0.3987826913
 40
0.6857077115
 40
1.0
 40
1.0
 40
1.0
 40
1.0
 10
75.6152358158
 20
157.9941449802
 30
0.0
 10
75.5952316268
 20
157.966227118
 30
0.0
 10
75.5255065096
 20
157.9161492033
 30
0.0
 10
75.3939373664
 20
157.8616712399
 30
0.0
 10
75.2249038719
 20
157.8188209271
 30
0.0
 10
75.1008154989
 20
157.8019166373
 30
0.0
 10
75.0356801044
 20
157.7964879086
 30
0.0
 11
75.6152358158
 21
157.9941449802
 31
0.0
 11
75.5363160249
 21
157.927904222
 31
0.0
 11
75.4030512987
 21
157.8688538216
 31
0.0
 11
75.2299076777
 21
157.8234038173
 31
0.0
 11
75.0356801044
 21
157.7964879086
 31
0.0
  0
SPLINE
  5
324
100
AcDbEntity
  8
RUNDUNGEN
100
AcDbSpline
 62
9
  6
CONTINUOUS
 70
0
 71
3
 72
11
 73
7
 74
5
 42
0.0000001
 43
0.0000001
 44
0.0000000001
 12
-0.3633715354
 22
0.507148372
 32
0.0
 13
-0.6217340886
 23
0.0518176326
 33
0.0
 40
0.0
 40
0.0
 40
0.0
 40
0.0
 40
0.1651481757
 40
0.3987814567
 40
0.6857069212
 40
1.0
 40
1.0
 40
1.0
 40
1.0
 10
75.6152346256
 20
153.6456881609
 30
0.0
 10
75.5952312436
 20
153.6736063704
 30
0.0
 10
75.525506761
 20
153.7236851057
 30
0.0
 10
75.3939380152
 20
153.7781635529
 30
0.0
 10
75.2249043363
 20
153.8210141583
 30
0.0
 10
75.100815678
 20
153.837918388
 30
0.0
 10
75.0356801044
 20
153.8433470291
 30
0.0
 11
75.6152346256
 21
153.6456881609
 31
0.0
 11
75.5363162722
 21
153.7119297561
 31
0.0
 11
75.4030520399
 21
153.7709808243
 31
0.0
 11
75.2299082043
 21
153.8164311772
 31
0.0
 11
75.0356801044
 21
153.8433470291
 31
0.0
  0
SPLINE
  5
325
100
AcDbEntity
  8
RUNDUNGEN
100
AcDbSpline
 62
9
  6
CONTINUOUS
 70
0
 71
3
 72
12
 73
8
 74
6
 42
0.0000001
 43
0.0000001
 44
0.0000000001
 12
-0.0
 22
0.7022373446
 32
0.0
 13
-0.7022373446
 23
0.0000028007
 33
0.0
 40
0.0
 40
0.0
 40
0.0
 40
0.0
 40
0.1239101404
 40
0.2845345051
 40
0.4911817076
 40
0.7353254448
 40
1.0
 40
1.0
 40
1.0
 40
1.0
 10
75.5947910959
 20
152.9041562365
 30
0.0
 10
75.5947910959
 20
152.9331610125
 30
0.0
 10
75.5667487084
 20
152.9993578279
 30
0.0
 10
75.4733576249
 20
153.0703877849
 30
0.0
 10
75.3405180089
 20
153.1259530957
 30
0.0
 10
75.1759999543
 20
153.1611759094
 30
0.0
 10
75.0567458816
 20
153.1692251107
 30
0.0
 10
74.9947910959
 20
153.1692253578
 30
0.0
 11
75.5947910959
 21
152.9041562365
 31
0.0
 11
75.5654253455
 21
152.9860656131
 31
0.0
 11
75.4802023471
 21
153.0599579305
 31
0.0
 11
75.3474635837
 21
153.1186000228
 31
0.0
 11
75.1802020704
 21
153.1562511643
 31
0.0
 11
74.9947910959
 21
153.1692253578
 31
0.0
  0
SPLINE
  5
326
100
AcDbEntity
  8
RUNDUNGEN
100
AcDbSpline
 62
9
  6
CONTINUOUS
 70
0
 71
3
 72
12
 73
8
 74
6
 42
0.0000001
 43
0.0000001
 44
0.0000000001
 12
0.9245026539
 22
-0.0000212176
 32
0.0
 13
-0.0000858018
 23
0.9245026501
 33
0.0
 40
0.0
 40
0.0
 40
0.0
 40
0.0
 40
0.2064413499
 40
0.4262992986
 40
0.6364730363
 40
0.8288500469
 40
1.0
 40
1.0
 40
1.0
 40
1.0
 10
74.9947910959
 20
149.8199165706
 30
0.0
 10
75.0584096212
 20
149.8199151105
 30
0.0
 10
75.1908225009
 20
149.8467092466
 30
0.0
 10
75.3599530987
 20
149.9524234171
 30
0.0
 10
75.4896099106
 20
150.0966514834
 30
0.0
 10
75.5725417166
 20
150.2548040095
 30
0.0
 10
75.5947959841
 20
150.3670829487
 30
0.0
 10
75.5947910891
 20
150.4198258104
 30
0.0
 11
74.9947910959
 21
149.8199165706
 31
0.0
 11
75.1821685064
 21
149.8561871772
 31
0.0
 11
75.356072631
 21
149.961409233
 31
0.0
 11
75.4863208094
 21
150.1055976617
 31
0.0
 11
75.567125953
 21
150.2640345217
 31
0.0
 11
75.5947910891
 21
150.4198258104
 31
0.0
  0
SPLINE
  5
327
100
AcDbEntity
  8
RUNDUNGEN
100
AcDbSpline
 62
9
  6
CONTINUOUS
 70
0
 71
3
 72
12
 73
8
 74
6
 42
0.0000001
 43
0.0000001
 44
0.0000000001
 12
-0.0000931545
 22
-0.9244931982
 32
0.0
 13
0.9244932011
 23
0.0000567187
 33
0.0
 40
0.0
 40
0.0
 40
0.0
 40
0.0
 40
0.172383006
 40
0.3657285806
 40
0.5750238923
 40
0.7923027124
 40
1.0
 40
1.0
 40
1.0
 40
1.0
 10
95.594791104
 20
150.4198178683
 30
0.0
 10
95.5947857513
 20
150.3666955628
 30
0.0
 10
95.6173383426
 20
150.2537398341
 30
0.0
 10
95.7008415433
 20
150.0954178357
 30
0.0
 10
95.8302904119
 20
149.9520583814
 30
0.0
 10
95.9987715891
 20
149.8468050935
 30
0.0
 10
96.1307861858
 20
149.8199126438
 30
0.0
 10
96.1947910959
 20
149.8199165706
 30
0.0
 11
95.594791104
 21
150.4198178683
 31
0.0
 11
95.6228344004
 21
150.2629376979
 31
0.0
 11
95.7044300774
 21
150.1039014839
 31
0.0
 11
95.8344575038
 21
149.960611364
 31
0.0
 11
96.0063168977
 21
149.8566198865
 31
0.0
 11
96.1947910959
 21
149.8199165706
 31
0.0
  0
SPLINE
  5
328
100
AcDbEntity
  8
RUNDUNGEN
100
AcDbSpline
 62
9
  6
CONTINUOUS
 70
0
 71
3
 72
12
 73
8
 74
6
 42
0.0000001
 43
0.0000001
 44
0.0000000001
 12
0.0
 22
0.7022382841
 32
0.0
 13
0.7022382841
 23
-0.0000000001
 33
0.0
 40
0.0
 40
0.0
 40
0.0
 40
0.0
 40
0.1239124101
 40
0.2845380754
 40
0.4911852082
 40
0.735327376
 40
1.0
 40
1.0
 40
1.0
 40
1.0
 10
95.5947910959
 20
152.9041562365
 30
0.0
 10
95.5947910959
 20
152.9331615826
 30
0.0
 10
95.6228336321
 20
152.9993594302
 30
0.0
 10
95.7162256829
 20
153.0703899157
 30
0.0
 10
95.8490656251
 20
153.125954729
 30
0.0
 10
96.0135832402
 20
153.1611766636
 30
0.0
 10
96.1328366795
 20
153.1692253578
 30
0.0
 10
96.1947910959
 20
153.1692253578
 30
0.0
 11
95.5947910959
 21
152.9041562365
 31
0.0
 11
95.6241573075
 21
152.9860672646
 31
0.0
 11
95.7093812202
 21
153.059960152
 31
0.0
 11
95.8421203438
 21
153.1186017885
 31
0.0
 11
96.0093811739
 21
153.156251991
 31
0.0
 11
96.1947910959
 21
153.1692253578
 31
0.0
  0
SPLINE
  5
329
100
AcDbEntity
  8
RUNDUNGEN
100
AcDbSpline
 62
9
  6
CONTINUOUS
 70
0
 71
3
 72
11
 73
7
 74
5
 42
0.0000001
 43
0.0000001
 44
0.0000000001
 12
0.363384144
 22
0.5071392684
 32
0.0
 13
0.6217339532
 23
0.0518185791
 33
0.0
 40
0.0
 40
0.0
 40
0.0
 40
0.0
 40
0.1651491
 40
0.3987826974
 40
0.6857077166
 40
1.0
 40
1.0
 40
1.0
 40
1.0
 10
95.5743463693
 20
153.645688161
 30
0.0
 10
95.5943505574
 20
153.6736060255
 30
0.0
 10
95.6640756754
 20
153.7236839447
 30
0.0
 10
95.7956448216
 20
153.7781619094
 30
0.0
 10
95.9646783186
 20
153.82101222
 30
0.0
 10
96.0887666929
 20
153.8379165063
 30
0.0
 10
96.1539020875
 20
153.8433452328
 30
0.0
 11
95.5743463693
 21
153.645688161
 31
0.0
 11
95.6532661609
 21
153.7119289251
 31
0.0
 11
95.7865308898
 21
153.7709793274
 31
0.0
 11
95.9596745136
 21
153.8164293297
 31
0.0
 11
96.1539020875
 21
153.8433452328
 31
0.0
  0
SPLINE
  5
32A
100
AcDbEntity
  8
RUNDUNGEN
100
AcDbSpline
 62
9
  6
CONTINUOUS
 70
0
 71
3
 72
11
 73
7
 74
5
 42
0.0000001
 43
0.0000001
 44
0.0000000001
 12
0.3633717497
 22
-0.5071482201
 32
0.0
 13
0.6217340908
 23
-0.0518176223
 33
0.0
 40
0.0
 40
0.0
 40
0.0
 40
0.0
 40
0.1651482016
 40
0.3987814917
 40
0.6857069456
 40
1.0
 40
1.0
 40
1.0
 40
1.0
 10
95.5743475436
 20
157.9941449802
 30
0.0
 10
95.5943509406
 20
157.9662267747
 30
0.0
 10
95.6640754358
 20
157.9161480502
 30
0.0
 10
95.7956441917
 20
157.861669611
 30
0.0
 10
95.964677867
 20
157.8188190147
 30
0.0
 10
96.0887665187
 20
157.8019147888
 30
0.0
 10
96.1539020875
 20
157.7964861492
 30
0.0
 11
95.5743475436
 21
157.9941449802
 31
0.0
 11
95.6532659261
 21
157.9279033942
 31
0.0
 11
95.7865301698
 21
157.8688523369
 31
0.0
 11
95.9596740016
 21
157.8234019942
 31
0.0
 11
96.1539020875
 21
157.7964861492
 31
0.0
  0
SPLINE
  5
32B
100
AcDbEntity
  8
RUNDUNGEN
100
AcDbSpline
 62
9
  6
CONTINUOUS
 70
0
 71
3
 72
12
 73
8
 74
6
 42
0.0000001
 43
0.0000001
 44
0.0000000001
 12
0.0
 22
-0.7022373367
 32
0.0
 13
0.7022373367
 23
-0.0000028242
 33
0.0
 40
0.0
 40
0.0
 40
0.0
 40
0.0
 40
0.1239101249
 40
0.2845344824
 40
0.4911816868
 40
0.7353254343
 40
1.0
 40
1.0
 40
1.0
 40
1.0
 10
95.5947910959
 20
158.7356769046
 30
0.0
 10
95.5947910959
 20
158.7066721326
 30
0.0
 10
95.6228334838
 20
158.6404753243
 30
0.0
 10
95.7162245617
 20
158.5694453718
 30
0.0
 10
95.8490641758
 20
158.5138800577
 30
0.0
 10
96.0135822325
 20
158.4786572378
 30
0.0
 10
96.1328363086
 20
158.4706080325
 30
0.0
 10
96.1947910959
 20
158.4706077833
 30
0.0
 11
95.5947910959
 21
158.7356769046
 31
0.0
 11
95.6241568441
 21
158.6537675398
 31
0.0
 11
95.7093798377
 21
158.5798752266
 31
0.0
 11
95.8421185995
 21
158.5212331313
 31
0.0
 11
96.0093801167
 21
158.4835819832
 31
0.0
 11
96.1947910959
 21
158.4706077833
 31
0.0
  0
SPLINE
  5
32C
100
AcDbEntity
  8
RUNDUNGEN
100
AcDbSpline
 62
9
  6
CONTINUOUS
 70
0
 71
3
 72
12
 73
8
 74
6
 42
0.0000001
 43
0.0000001
 44
0.0000000001
 12
-0.9244940965
 22
0.0000270455
 32
0.0
 13
0.000090543
 23
-0.9244940924
 33
0.0
 40
0.0
 40
0.0
 40
0.0
 40
0.0
 40
0.2071165125
 40
0.4269384599
 40
0.6368228321
 40
0.828995578
 40
1.0
 40
1.0
 40
1.0
 40
1.0
 10
96.1947910959
 20
161.8199165706
 30
0.0
 10
96.1309650983
 20
161.8199184378
 30
0.0
 10
95.9983499186
 20
161.792988359
 30
0.0
 10
95.8292405157
 20
161.687056986
 30
0.0
 10
95.6997843291
 20
161.5428812462
 30
0.0
 10
95.617002316
 20
161.3848797078
 30
0.0
 10
95.5947859425
 20
161.272709902
 30
0.0
 10
95.5947911036
 20
161.220012376
 30
0.0
 11
96.1947910959
 21
161.8199165706
 31
0.0
 11
96.0068246619
 21
161.7834139473
 31
0.0
 11
95.8330543811
 21
161.6780388012
 31
0.0
 11
95.7030781096
 21
161.5339677316
 31
0.0
 11
95.6224132662
 21
161.3756731597
 31
0.0
 11
95.5947911036
 21
161.220012376
 31
0.0
  0
SPLINE
  5
32D
100
AcDbEntity
  8
RUNDUNGEN
100
AcDbSpline
 62
9
  6
CONTINUOUS
 70
0
 71
3
 72
12
 73
8
 74
6
 42
0.0000001
 43
0.0000001
 44
0.0000000001
 12
0.1259417407
 22
0.8229233558
 32
0.0
 13
0.8287249983
 23
0.0
 33
0.0
 40
0.0
 40
0.0
 40
0.0
 40
0.0
 40
0.1129333338
 40
0.3378900156
 40
0.5605898261
 40
0.7810053724
 40
1.0
 40
1.0
 40
1.0
 40
1.0
 10
75.6223968691
 20
161.3137617092
 30
0.0
 10
75.627137876
 20
161.3447402019
 30
0.0
 10
75.648322817
 20
161.4364651428
 30
0.0
 10
75.7175814745
 20
161.5775909482
 30
0.0
 10
75.8477189186
 20
161.7127977495
 30
0.0
 10
76.0120083534
 20
161.7998507887
 30
0.0
 10
76.1342956551
 20
161.8199165706
 30
0.0
 10
76.1947910959
 20
161.8199165706
 30
0.0
 11
75.6223968691
 21
161.3137617092
 31
0.0
 11
75.6435959756
 21
161.40531055
 31
0.0
 11
75.725914728
 21
161.5725789974
 31
0.0
 11
75.8541333005
 21
161.7053240427
 31
0.0
 11
76.0156964942
 21
161.7905497725
 31
0.0
 11
76.1947910959
 21
161.8199165706
 31
0.0
  0
SPLINE
  5
32E
100
AcDbEntity
  8
RUNDUNGEN
100
AcDbSpline
 62
9
  6
CONTINUOUS
 70
0
 71
3
 72
12
 73
8
 74
6
 42
0.0000001
 43
0.0000001
 44
0.0000000001
 12
0.1259553416
 22
0.8229106179
 32
0.0
 13
0.8287136671
 23
-0.0
 33
0.0
 40
0.0
 40
0.0
 40
0.0
 40
0.0
 40
0.1129414696
 40
0.3378936657
 40
0.5605892174
 40
0.7810050221
 40
1.0
 40
1.0
 40
1.0
 40
1.0
 10
79.081509604
 20
161.3137730064
 30
0.0
 10
79.0862514644
 20
161.3447532512
 30
0.0
 10
79.1074384629
 20
161.4364775673
 30
0.0
 10
79.1766992452
 20
161.5775994997
 30
0.0
 10
79.3068348602
 20
161.7128009284
 30
0.0
 10
79.4711216003
 20
161.7998512876
 30
0.0
 10
79.5934073771
 20
161.8199165706
 30
0.0
 10
79.6539020875
 20
161.8199165706
 30
0.0
 11
79.081509604
 21
161.3137730064
 31
0.0
 11
79.1027120567
 21
161.4053267672
 31
0.0
 11
79.1850318422
 21
161.5725877219
 31
0.0
 11
79.3132479142
 21
161.7053267672
 31
0.0
 11
79.4748095901
 21
161.7905504803
 31
0.0
 11
79.6539020875
 21
161.8199165706
 31
0.0
  0
SPLINE
  5
32F
100
AcDbEntity
  8
RUNDUNGEN
100
AcDbSpline
 62
9
  6
CONTINUOUS
 70
0
 71
3
 72
12
 73
8
 74
6
 42
0.0000001
 43
0.0000001
 44
0.0000000001
 12
-0.0000000005
 22
0.7817370512
 32
0.0
 13
0.7817370512
 23
0.0
 33
0.0
 40
0.0
 40
0.0
 40
0.0
 40
0.0
 40
0.2384186025
 40
0.4636970848
 40
0.6659140091
 40
0.842075896
 40
1.0
 40
1.0
 40
1.0
 40
1.0
 10
81.3909912253
 20
161.2199165706
 30
0.0
 10
81.3909912253
 20
161.2820434557
 30
0.0
 10
81.4030404537
 20
161.4032579766
 30
0.0
 10
81.4562050268
 20
161.5699141365
 30
0.0
 10
81.5402724353
 20
161.7052387479
 30
0.0
 10
81.6499338392
 20
161.7969171587
 30
0.0
 10
81.7378825825
 20
161.8199165706
 30
0.0
 10
81.7790342903
 20
161.8199165706
 30
0.0
 11
81.3909912253
 21
161.2199165706
 31
0.0
 11
81.4099834628
 21
161.4053270438
 31
0.0
 11
81.4651010447
 21
161.5725881235
 31
0.0
 11
81.5509485841
 21
161.7053270871
 31
0.0
 11
81.6591226259
 21
161.7905505996
 31
0.0
 11
81.7790342903
 21
161.8199165706
 31
0.0
  0
SPLINE
  5
330
100
AcDbEntity
  8
RUNDUNGEN
100
AcDbSpline
 62
9
  6
CONTINUOUS
 70
0
 71
3
 72
12
 73
8
 74
6
 42
0.0000001
 43
0.0000001
 44
0.0000000001
 12
0.0000003369
 22
0.7817371342
 32
0.0
 13
-0.7817371342
 23
0.0
 33
0.0
 40
0.0
 40
0.0
 40
0.0
 40
0.0
 40
0.2384195889
 40
0.4636984983
 40
0.6659152722
 40
0.8420766282
 40
1.0
 40
1.0
 40
1.0
 40
1.0
 10
89.7985909666
 20
161.2199165706
 30
0.0
 10
89.7985909934
 20
161.2820437193
 30
0.0
 10
89.786541719
 20
161.4032586326
 30
0.0
 10
89.7333768651
 20
161.5699150826
 30
0.0
 10
89.6493092142
 20
161.7052395015
 30
0.0
 10
89.539647843
 20
161.7969173916
 30
0.0
 10
89.4516994231
 20
161.8199165706
 30
0.0
 10
89.4105479018
 20
161.8199165706
 30
0.0
 11
89.7985909666
 21
161.2199165706
 31
0.0
 11
89.7795986299
 21
161.4053278287
 31
0.0
 11
89.7244807501
 21
161.5725891814
 31
0.0
 11
89.6386329963
 21
161.7053278864
 31
0.0
 11
89.5304590605
 21
161.7905508865
 31
0.0
 11
89.4105479018
 21
161.8199165706
 31
0.0
  0
SPLINE
  5
331
100
AcDbEntity
  8
RUNDUNGEN
100
AcDbSpline
 62
9
  6
CONTINUOUS
 70
0
 71
3
 72
14
 73
10
 74
8
 42
0.0000001
 43
0.0000001
 44
0.0000000001
 12
-3.5749202956
 22
2.4869917389
 32
0.0
 13
-4.3549033311
 23
-0.0000726218
 33
0.0
 40
0.0
 40
0.0
 40
0.0
 40
0.0
 40
0.21314254
 40
0.4073049431
 40
0.572688612
 40
0.7119812013
 40
0.8277299181
 40
0.9226229509
 40
1.0
 40
1.0
 40
1.0
 40
1.0
 10
85.5947910959
 20
159.8199165706
 30
0.0
 10
85.3408018986
 20
159.9966111493
 30
0.0
 10
84.8555466908
 20
160.3344262634
 30
0.0
 10
84.1643923089
 20
160.7965825334
 30
0.0
 10
83.5476336569
 20
161.1765251293
 30
0.0
 10
83.0099792816
 20
161.4662894396
 30
0.0
 10
82.5432973275
 20
161.6691583957
 30
0.0
 10
82.1415679746
 20
161.7892393497
 30
0.0
 10
81.8914060441
 20
161.8199184429
 30
0.0
 10
81.7790828545
 20
161.8199165698
 30
0.0
 11
85.5947910959
 21
159.8199165706
 31
0.0
 11
84.8312077079
 21
160.3476701001
 31
0.0
 11
84.1265641551
 21
160.815052849
 31
0.0
 11
83.5115643796
 21
161.1898946449
 31
0.0
 11
82.9757022277
 21
161.4741872825
 31
0.0
 11
82.5115925926
 21
161.6708934596
 31
0.0
 11
82.1141390618
 21
161.7840581223
 31
0.0
 11
81.7790828545
 21
161.8199165698
 31
0.0
  0
SPLINE
  5
332
100
AcDbEntity
  8
RUNDUNGEN
100
AcDbSpline
 62
9
  6
CONTINUOUS
 70
0
 71
3
 72
12
 73
8
 74
6
 42
0.0000001
 43
0.0000001
 44
0.0000000001
 12
-0.1259553416
 22
0.8229106179
 32
0.0
 13
-0.8287136672
 23
-0.0
 33
0.0
 40
0.0
 40
0.0
 40
0.0
 40
0.0
 40
0.1129414696
 40
0.3378936656
 40
0.5605892174
 40
0.7810050222
 40
1.0
 40
1.0
 40
1.0
 40
1.0
 10
92.1080725879
 20
161.3137730063
 30
0.0
 10
92.1033307275
 20
161.3447532512
 30
0.0
 10
92.082143729
 20
161.4364775673
 30
0.0
 10
92.0128829467
 20
161.5775994997
 30
0.0
 10
91.8827473317
 20
161.7128009284
 30
0.0
 10
91.7184605915
 20
161.7998512876
 30
0.0
 10
91.5961748148
 20
161.8199165706
 30
0.0
 10
91.5356801044
 20
161.8199165706
 30
0.0
 11
92.1080725879
 21
161.3137730063
 31
0.0
 11
92.0868701352
 21
161.4053267671
 31
0.0
 11
92.0045503497
 21
161.5725877219
 31
0.0
 11
91.8763342777
 21
161.7053267672
 31
0.0
 11
91.7147726017
 21
161.7905504804
 31
0.0
 11
91.5356801044
 21
161.8199165706
 31
0.0
  0
SPLINE
  5
333
100
AcDbEntity
  8
RUNDUNGEN
100
AcDbSpline
 62
9
  6
CONTINUOUS
 70
0
 71
3
 72
12
 73
8
 74
6
 42
0.0000001
 43
0.0000001
 44
0.0000000001
 12
0.0
 22
0.9226849506
 32
0.0
 13
-0.9226849506
 23
0.0
 33
0.0
 40
0.0
 40
0.0
 40
0.0
 40
0.0
 40
0.2032661663
 40
0.4053147375
 40
0.605336389
 40
0.8033062775
 40
1.0
 40
1.0
 40
1.0
 40
1.0
 10
95.5743465917
 20
161.2199165706
 30
0.0
 10
95.5743465917
 20
161.2824334481
 30
0.0
 10
95.5552668952
 20
161.4079225261
 30
0.0
 10
95.4720007231
 20
161.5775909415
 30
0.0
 10
95.3418632845
 20
161.7127977433
 30
0.0
 10
95.1775738368
 20
161.7998507879
 30
0.0
 10
95.0552865418
 20
161.8199165706
 30
0.0
 10
94.9947910959
 20
161.8199165706
 30
0.0
 11
95.5743465917
 21
161.2199165706
 31
0.0
 11
95.5459862152
 21
161.4053105533
 31
0.0
 11
95.4636674908
 21
161.5725789589
 31
0.0
 11
95.3354488743
 21
161.7053240555
 31
0.0
 11
95.1738857124
 21
161.7905497675
 31
0.0
 11
94.9947910959
 21
161.8199165706
 31
0.0
  0
SPLINE
  5
334
100
AcDbEntity
  8
RUNDUNGEN
100
AcDbSpline
 62
9
  6
CONTINUOUS
 70
0
 71
3
 72
14
 73
10
 74
8
 42
0.0000001
 43
0.0000001
 44
0.0000000001
 12
-4.3549117594
 22
0.0000704593
 32
0.0
 13
-3.5749478648
 23
-2.4869668677
 33
0.0
 40
0.0
 40
0.0
 40
0.0
 40
0.0
 40
0.0770562383
 40
0.1715881814
 40
0.2869777397
 40
0.4259411501
 40
0.5910576331
 40
0.7851781102
 40
1.0
 40
1.0
 40
1.0
 40
1.0
 10
89.4105007984
 20
161.8199165699
 30
0.0
 10
89.2986430923
 20
161.8199183796
 30
0.0
 10
89.0494686704
 20
161.7894846789
 30
0.0
 10
88.6490943629
 20
161.6701593938
 30
0.0
 10
88.1836543731
 20
161.4682551497
 30
0.0
 10
87.647041592
 20
161.1794760598
 30
0.0
 10
87.0309071589
 20
160.8002810107
 30
0.0
 10
86.3379873379
 20
160.3371804474
 30
0.0
 10
85.850783448
 20
159.9980015447
 30
0.0
 10
85.5947910959
 20
159.8199165706
 30
0.0
 11
89.4105007984
 21
161.8199165699
 31
0.0
 11
89.0768195784
 21
161.7843334117
 31
0.0
 11
88.6807930486
 21
161.6718968238
 31
0.0
 11
88.2179730981
 21
161.4761537663
 31
0.0
 11
87.6832001878
 21
161.1928645734
 31
0.0
 11
87.0690284531
 21
160.8188973861
 31
0.0
 11
86.3644197504
 21
160.3517895019
 31
0.0
 11
85.5947910959
 21
159.8199165706
 31
0.0
  0
SPLINE
  5
335
100
AcDbEntity
  8
RUNDUNGEN
100
AcDbSpline
 62
9
  6
CONTINUOUS
 70
0
 71
3
 72
12
 73
8
 74
6
 42
0.0000001
 43
0.0000001
 44
0.0000000001
 12
0.0000000358
 22
-0.7817370511
 32
0.0
 13
0.7817370511
 23
-0.0
 33
0.0
 40
0.0
 40
0.0
 40
0.0
 40
0.0
 40
0.2384194847
 40
0.4636983617
 40
0.665915169
 40
0.8420765821
 40
1.0
 40
1.0
 40
1.0
 40
1.0
 10
81.3909912253
 20
150.4199165706
 30
0.0
 10
81.3909912282
 20
150.3577894556
 30
0.0
 10
81.4030405381
 20
150.2365745979
 30
0.0
 10
81.4562053848
 20
150.0699181974
 30
0.0
 10
81.5402729944
 20
149.9345937611
 30
0.0
 10
81.6499343254
 20
149.8429157946
 30
0.0
 10
81.737882761
 20
149.8199165706
 30
0.0
 10
81.77903429
 20
149.8199165706
 30
0.0
 11
81.3909912253
 21
150.4199165706
 31
0.0
 11
81.4099836124
 21
150.2345054195
 31
0.0
 11
81.4651014826
 21
150.0672441099
 31
0.0
 11
81.5509492026
 21
149.9345053719
 31
0.0
 11
81.6591231183
 21
149.8492822979
 31
0.0
 11
81.77903429
 21
149.8199165706
 31
0.0
  0
SPLINE
  5
336
100
AcDbEntity
  8
RUNDUNGEN
100
AcDbSpline
 62
9
  6
CONTINUOUS
 70
0
 71
3
 72
15
 73
11
 74
9
 42
0.0000001
 43
0.0000001
 44
0.0000000001
 12
2.3082739462
 22
-0.0000625153
 32
0.0
 13
0.0000516957
 23
2.3082739465
 33
0.0
 40
0.0
 40
0.0
 40
0.0
 40
0.0
 40
0.1512387104
 40
0.3088020365
 40
0.4641886896
 40
0.6039441624
 40
0.7245692279
 40
0.8295519333
 40
0.9209919839
 40
1.0
 40
1.0
 40
1.0
 40
1.0
 10
242.3888404976
 20
150.4199165706
 30
0.0
 10
242.5052072892
 20
150.419913419
 30
0.0
 10
242.7435237541
 20
150.4444210545
 30
0.0
 10
243.0857397627
 20
150.5560328425
 30
0.0
 10
243.3872638289
 20
150.7365903498
 30
0.0
 10
243.6199442742
 20
150.9599157653
 30
0.0
 10
243.7783678924
 20
151.1944602241
 30
0.0
 10
243.874039049
 20
151.4203690577
 30
0.0
 10
243.921766482
 20
151.6277989243
 30
0.0
 10
243.9312120174
 20
151.7591258555
 30
0.0
 10
243.9312133789
 20
151.8199165706
 30
0.0
 11
242.3888404976
 21
150.4199165706
 31
0.0
 11
242.7360865556
 21
150.4558504955
 31
0.0
 11
243.0816973568
 21
150.5691217189
 31
0.0
 11
243.388969934
 21
150.7541387244
 31
0.0
 11
243.6211963061
 21
150.9780533227
 31
0.0
 11
243.7766469706
 21
151.2090544649
 31
0.0
 11
243.8709169314
 21
151.4322952386
 31
0.0
 11
243.9181388099
 21
151.6380136983
 31
0.0
 11
243.9312133789
 21
151.8199165706
 31
0.0
  0
SPLINE
  5
337
100
AcDbEntity
  8
RUNDUNGEN
100
AcDbSpline
 62
9
  6
CONTINUOUS
 70
0
 71
3
 72
12
 73
8
 74
6
 42
0.0000001
 43
0.0000001
 44
0.0000000001
 12
3.8538744207
 22
-0.0000187681
 32
0.0
 13
3.709526241
 23
1.04487469
 33
0.0
 40
0.0
 40
0.0
 40
0.0
 40
0.0
 40
0.2315415034
 40
0.4619125616
 40
0.6659513569
 40
0.8447417337
 40
1.0
 40
1.0
 40
1.0
 40
1.0
 10
212.9312133789
 20
149.8199165706
 30
0.0
 10
213.228657338
 20
149.819915122
 30
0.0
 10
213.8223164684
 20
149.8443594396
 30
0.0
 10
214.672398235
 20
149.9471111151
 30
0.0
 10
215.4469139326
 20
150.093097713
 30
0.0
 10
216.1195023048
 20
150.2533096058
 30
0.0
 10
216.5336816503
 20
150.3657506661
 30
0.0
 10
216.7256598545
 20
150.4198258104
 30
0.0
 11
212.9312133789
 21
149.8199165706
 31
0.0
 11
213.822807806
 21
149.8561871772
 31
0.0
 11
214.7043715728
 21
149.961409233
 31
0.0
 11
215.4773787694
 21
150.1055976617
 31
0.0
 11
216.1479515859
 21
150.2640345217
 31
0.0
 11
216.7256598545
 21
150.4198258104
 31
0.0
  0
SPLINE
  5
338
100
AcDbEntity
  8
RUNDUNGEN
100
AcDbSpline
 62
9
  6
CONTINUOUS
 70
0
 71
3
 72
12
 73
8
 74
6
 42
0.0000001
 43
0.0000001
 44
0.0000000001
 12
0.0
 22
-0.643236193
 32
0.0
 13
-0.643236193
 23
0.0
 33
0.0
 40
0.0
 40
0.0
 40
0.0
 40
0.0
 40
0.2884627149
 40
0.5507558722
 40
0.7639262907
 40
0.9125347117
 40
1.0
 40
1.0
 40
1.0
 40
1.0
 10
219.0075133074
 20
150.4199165706
 30
0.0
 10
219.0075133074
 20
150.3580666844
 30
0.0
 10
219.0027056568
 20
150.2398906464
 30
0.0
 10
218.9830776981
 20
150.0772242066
 30
0.0
 10
218.9499695739
 20
149.9464505904
 30
0.0
 10
218.9152506453
 20
149.8579894512
 30
0.0
 10
218.8709754934
 20
149.8199165706
 30
0.0
 10
218.8522218804
 20
149.8199165706
 30
0.0
 11
219.0075133074
 21
150.4199165706
 31
0.0
 11
218.9999141674
 21
150.2345225878
 31
0.0
 11
218.9778569317
 21
150.0672541822
 31
0.0
 11
218.943500857
 21
149.9345090856
 31
0.0
 11
218.9002101382
 21
149.8492833736
 31
0.0
 11
218.8522218804
 21
149.8199165706
 31
0.0
  0
SPLINE
  5
339
100
AcDbEntity
  8
RUNDUNGEN
100
AcDbSpline
 62
9
  6
CONTINUOUS
 70
0
 71
3
 72
12
 73
8
 74
6
 42
0.0000001
 43
0.0000001
 44
0.0000000001
 12
0.0
 22
-0.6432362514
 32
0.0
 13
-0.6432362514
 23
0.0
 33
0.0
 40
0.0
 40
0.0
 40
0.0
 40
0.0
 40
0.2884879609
 40
0.5507696683
 40
0.7639306944
 40
0.9125360511
 40
1.0
 40
1.0
 40
1.0
 40
1.0
 10
231.9170912769
 20
150.4199165706
 30
0.0
 10
231.9170912769
 20
150.3580612657
 30
0.0
 10
231.9122831207
 20
150.2398822397
 30
0.0
 10
231.8926538334
 20
150.0772149808
 30
0.0
 10
231.8595461553
 20
149.9464466367
 30
0.0
 10
231.8248277298
 20
149.8579883102
 30
0.0
 10
231.7805531774
 20
149.8199165706
 30
0.0
 10
231.7617998498
 20
149.8199165706
 30
0.0
 11
231.9170912769
 21
150.4199165706
 31
0.0
 11
231.9094907735
 21
150.234506374
 31
0.0
 11
231.8874332534
 21
150.0672454193
 31
0.0
 11
231.8530778605
 21
149.9345063739
 31
0.0
 11
231.8097875399
 21
149.8492826608
 31
0.0
 11
231.7617998498
 21
149.8199165706
 31
0.0
  0
SPLINE
  5
33A
100
AcDbEntity
  8
RUNDUNGEN
100
AcDbSpline
 62
9
  6
CONTINUOUS
 70
0
 71
3
 72
12
 73
8
 74
6
 42
0.0000001
 43
0.0000001
 44
0.0000000001
 12
0.0000000322
 22
-0.8309986384
 32
0.0
 13
-0.8309986384
 23
-0.0
 33
0.0
 40
0.0
 40
0.0
 40
0.0
 40
0.0
 40
0.2247405873
 40
0.4406830853
 40
0.6415758744
 40
0.8261964065
 40
1.0
 40
1.0
 40
1.0
 40
1.0
 10
242.3888404976
 20
150.4199165706
 30
0.0
 10
242.3888405
 20
150.3576635299
 30
0.0
 10
242.3743613281
 20
150.2350602416
 30
0.0
 10
242.3105717713
 20
150.0671621764
 30
0.0
 10
242.2097242117
 20
149.9313786135
 30
0.0
 10
242.0796272232
 20
149.8414411576
 30
0.0
 10
241.9793568952
 20
149.8199165706
 30
0.0
 10
241.9312133787
 20
149.8199165706
 30
0.0
 11
242.3888404976
 21
150.4199165706
 31
0.0
 11
242.3664424016
 21
150.2345054195
 31
0.0
 11
242.3014407789
 21
150.0672441099
 31
0.0
 11
242.200198808
 21
149.9345053719
 31
0.0
 11
242.0726270899
 21
149.8492822979
 31
0.0
 11
241.9312133787
 21
149.8199165706
 31
0.0
  0
SPLINE
  5
33B
100
AcDbEntity
  8
RUNDUNGEN
100
AcDbSpline
 62
9
  6
CONTINUOUS
 70
0
 71
3
 72
12
 73
8
 74
6
 42
0.0000001
 43
0.0000001
 44
0.0000000001
 12
-0.0000000005
 22
0.8309986257
 32
0.0
 13
-0.8309986257
 23
0.0
 33
0.0
 40
0.0
 40
0.0
 40
0.0
 40
0.0
 40
0.2247397575
 40
0.4406818564
 40
0.6415747092
 40
0.8261956778
 40
1.0
 40
1.0
 40
1.0
 40
1.0
 10
242.3888404976
 20
161.2199165706
 30
0.0
 10
242.3888404975
 20
161.2821693804
 30
0.0
 10
242.3743614159
 20
161.4047723196
 30
0.0
 10
242.3105721812
 20
161.5726701439
 30
0.0
 10
242.2097248553
 20
161.7084539026
 30
0.0
 10
242.0796277552
 20
161.7983918131
 30
0.0
 10
241.9793570965
 20
161.8199165706
 30
0.0
 10
241.9312133789
 20
161.8199165706
 30
0.0
 11
242.3888404976
 21
161.2199165706
 31
0.0
 11
242.3664425635
 21
161.4053270438
 31
0.0
 11
242.3014412724
 21
161.5725881235
 31
0.0
 11
242.2001995143
 21
161.7053270871
 31
0.0
 11
242.0726276557
 21
161.7905505996
 31
0.0
 11
241.9312133789
 21
161.8199165706
 31
0.0
  0
SPLINE
  5
33C
100
AcDbEntity
  8
RUNDUNGEN
100
AcDbSpline
 62
9
  6
CONTINUOUS
 70
0
 71
3
 72
12
 73
8
 74
6
 42
0.0000001
 43
0.0000001
 44
0.0000000001
 12
0.0
 22
0.6432362514
 32
0.0
 13
-0.6432362514
 23
-0.0
 33
0.0
 40
0.0
 40
0.0
 40
0.0
 40
0.0
 40
0.288487961
 40
0.5507696684
 40
0.7639306944
 40
0.912536051
 40
1.0
 40
1.0
 40
1.0
 40
1.0
 10
231.9170912769
 20
161.2199165706
 30
0.0
 10
231.9170912769
 20
161.2817718754
 30
0.0
 10
231.9122831207
 20
161.3999509015
 30
0.0
 10
231.8926538334
 20
161.5626181604
 30
0.0
 10
231.8595461553
 20
161.6933865044
 30
0.0
 10
231.8248277298
 20
161.7818448309
 30
0.0
 10
231.7805531774
 20
161.8199165706
 30
0.0
 10
231.7617998498
 20
161.8199165706
 30
0.0
 11
231.9170912769
 21
161.2199165706
 31
0.0
 11
231.9094907735
 21
161.4053267672
 31
0.0
 11
231.8874332534
 21
161.5725877219
 31
0.0
 11
231.8530778605
 21
161.7053267672
 31
0.0
 11
231.8097875399
 21
161.7905504803
 31
0.0
 11
231.7617998498
 21
161.8199165706
 31
0.0
  0
SPLINE
  5
33D
100
AcDbEntity
  8
RUNDUNGEN
100
AcDbSpline
 62
9
  6
CONTINUOUS
 70
0
 71
3
 72
12
 73
8
 74
6
 42
0.0000001
 43
0.0000001
 44
0.0000000001
 12
0.0
 22
0.6432361932
 32
0.0
 13
-0.6432361932
 23
0.0
 33
0.0
 40
0.0
 40
0.0
 40
0.0
 40
0.0
 40
0.2884627095
 40
0.5507559327
 40
0.7639262693
 40
0.9125347209
 40
1.0
 40
1.0
 40
1.0
 40
1.0
 10
219.0075133074
 20
161.2199165706
 30
0.0
 10
219.0075133074
 20
161.2817664556
 30
0.0
 10
219.0027056562
 20
161.3999425065
 30
0.0
 10
218.9830776973
 20
161.5626089424
 30
0.0
 10
218.9499695695
 20
161.6933825595
 30
0.0
 10
218.9152506484
 20
161.7818436895
 30
0.0
 10
218.8709754914
 20
161.8199165706
 30
0.0
 10
218.8522218804
 20
161.8199165706
 30
0.0
 11
219.0075133074
 21
161.2199165706
 31
0.0
 11
218.9999141677
 21
161.40531055
 31
0.0
 11
218.9778569245
 21
161.5725789974
 31
0.0
 11
218.9435008616
 21
161.7053240427
 31
0.0
 11
218.9002101343
 21
161.7905497725
 31
0.0
 11
218.8522218804
 21
161.8199165706
 31
0.0
  0
SPLINE
  5
33E
100
AcDbEntity
  8
RUNDUNGEN
100
AcDbSpline
 62
9
  6
CONTINUOUS
 70
0
 71
3
 72
14
 73
10
 74
8
 42
0.0000001
 43
0.0000001
 44
0.0000000001
 12
-0.000713825
 22
2.3071140598
 32
0.0
 13
-2.3071141701
 23
-0.0000284568
 33
0.0
 40
0.0
 40
0.0
 40
0.0
 40
0.0
 40
0.1618806844
 40
0.3178595616
 40
0.4646811299
 40
0.6055379262
 40
0.7418057474
 40
0.8735613999
 40
1.0
 40
1.0
 40
1.0
 40
1.0
 10
243.9312133789
 20
159.8199165706
 30
0.0
 10
243.9311748607
 20
159.9444089715
 30
0.0
 10
243.8946258372
 20
160.190351371
 30
0.0
 10
243.7430709683
 20
160.5186266167
 30
0.0
 10
243.5245003957
 20
160.7848914326
 30
0.0
 10
243.2643137494
 20
160.9854729298
 30
0.0
 10
242.9795657876
 20
161.1236127402
 30
0.0
 10
242.6850558264
 20
161.2028295929
 30
0.0
 10
242.4860765928
 20
161.2199177699
 30
0.0
 10
242.3888404976
 20
161.2199165706
 30
0.0
 11
243.9312133789
 21
159.8199165706
 31
0.0
 11
243.8765382443
 21
160.1893700374
 31
0.0
 11
243.726705722
 21
160.5165553223
 31
0.0
 11
243.5124897423
 21
160.7789525758
 31
0.0
 11
243.2555776819
 21
160.9779587462
 31
0.0
 11
242.9729453988
 21
161.1156438423
 31
0.0
 11
242.6794693673
 21
161.1948449911
 31
0.0
 11
242.3888404976
 21
161.2199165706
 31
0.0
  0
SPLINE
  5
33F
100
AcDbEntity
  8
RUNDUNGEN
100
AcDbSpline
 62
9
  6
CONTINUOUS
 70
0
 71
3
 72
11
 73
7
 74
5
 42
0.0000001
 43
0.0000001
 44
0.0000000001
 12
-0.4303540611
 22
0.1609323292
 32
0.0
 13
0.1513473209
 23
0.4338177278
 33
0.0
 40
0.0
 40
0.0
 40
0.0
 40
0.0
 40
0.3944811986
 40
0.7122731631
 40
0.9198981054
 40
1.0
 40
1.0
 40
1.0
 40
1.0
 10
219.0075135685
 20
153.6456881609
 30
0.0
 10
218.9509247066
 20
153.6668497536
 30
0.0
 10
218.8518531647
 20
153.7060183766
 30
0.0
 10
218.7138701746
 20
153.7637377697
 30
0.0
 10
218.6479905736
 20
153.8027727083
 30
0.0
 10
218.5922503727
 20
153.8317638218
 30
0.0
 10
218.5962914418
 20
153.8433470291
 30
0.0
 11
219.0075135685
 21
153.6456881609
 31
0.0
 11
218.8388035754
 21
153.7119297561
 31
0.0
 11
218.7052643933
 21
153.7709808243
 31
0.0
 11
218.6213921448
 21
153.8164311772
 31
0.0
 11
218.5962914418
 21
153.8433470291
 31
0.0
  0
SPLINE
  5
340
100
AcDbEntity
  8
RUNDUNGEN
100
AcDbSpline
 62
9
  6
CONTINUOUS
 70
0
 71
3
 72
11
 73
7
 74
5
 42
0.0000001
 43
0.0000001
 44
0.0000000001
 12
-0.4303488249
 22
-0.1609301717
 32
0.0
 13
0.1513330736
 23
-0.4338167033
 33
0.0
 40
0.0
 40
0.0
 40
0.0
 40
0.0
 40
0.394481001
 40
0.7122724217
 40
0.9198972464
 40
1.0
 40
1.0
 40
1.0
 40
1.0
 10
219.0075132497
 20
157.9941449802
 30
0.0
 10
218.9509251046
 20
157.9729836818
 30
0.0
 10
218.8518547663
 20
157.9338155461
 30
0.0
 10
218.7138740714
 20
157.8760968949
 30
0.0
 10
218.6479945847
 20
157.8370619917
 30
0.0
 10
218.5922558595
 20
157.8080712128
 30
0.0
 10
218.5962965915
 20
157.7964879086
 30
0.0
 11
219.0075132497
 21
157.9941449802
 31
0.0
 11
218.8388054242
 21
157.927904222
 31
0.0
 11
218.7052681867
 21
157.8688538216
 31
0.0
 11
218.6213971475
 21
157.8234038173
 31
0.0
 11
218.5962965915
 21
157.7964879086
 31
0.0
  0
SPLINE
  5
341
100
AcDbEntity
  8
RUNDUNGEN
100
AcDbSpline
 62
9
  6
CONTINUOUS
 70
0
 71
3
 72
12
 73
8
 74
6
 42
0.0000001
 43
0.0000001
 44
0.0000000001
 12
-3.7095215911
 22
1.0448678039
 32
0.0
 13
-3.8538680779
 23
-0.0000264515
 33
0.0
 40
0.0
 40
0.0
 40
0.0
 40
0.0
 40
0.1568675707
 40
0.3372024987
 40
0.5412744368
 40
0.7695824959
 40
1.0
 40
1.0
 40
1.0
 40
1.0
 10
216.7256482842
 20
161.2200110849
 30
0.0
 10
216.531680404
 20
161.2746463763
 30
0.0
 10
216.1135789751
 20
161.388107271
 30
0.0
 10
215.4369228693
 20
161.5489293341
 30
0.0
 10
214.6628882164
 20
161.6941132007
 30
0.0
 10
213.8167731335
 20
161.7957610647
 30
0.0
 10
213.2272129334
 20
161.8199186022
 30
0.0
 10
212.9312133789
 20
161.8199165706
 30
0.0
 11
216.7256482842
 21
161.2200110849
 31
0.0
 11
216.1419317582
 21
161.3773387672
 31
0.0
 11
215.4654826982
 21
161.5367866595
 31
0.0
 11
214.6922248756
 21
161.6803193207
 31
0.0
 11
213.8184851965
 21
161.7839951541
 31
0.0
 11
212.9312133789
 21
161.8199165706
 31
0.0
  0
LINE
  5
342
100
AcDbEntity
  8
RUNDUNGEN
100
AcDbLine
 62
9
  6
CONTINUOUS
 10
96.1539020875
 20
79.4914027622
 11
96.0551872887
 21
79.1564858127
  0
SPLINE
  5
343
100
AcDbEntity
  8
02___PRT_ALL_AXES
100
AcDbSpline
 62
9
  6
CONTINUOUS
 70
0
 71
3
 72
9
 73
5
 74
3
 42
0.0000001
 43
0.0000001
 44
0.0000000001
 12
0.0001902012
 22
0.9854310684
 32
0.0
 13
-0.209032887
 23
0.9630055446
 33
0.0
 40
0.0
 40
0.0
 40
0.0
 40
0.0
 40
0.4828083395
 40
1.0
 40
1.0
 40
1.0
 40
1.0
 10
76.1947910959
 20
81.3617526205
 30
0.0
 10
76.1948217062
 20
81.5203440665
 30
0.0
 10
76.1732982724
 20
81.8489836474
 30
0.0
 10
76.1174382899
 20
82.1732182681
 30
0.0
 10
76.0814016012
 20
82.339237747
 30
0.0
 11
76.1947910959
 21
81.3617526205
 31
0.0
 11
76.1660343364
 21
81.8366571139
 31
0.0
 11
76.0814016012
 21
82.339237747
 31
0.0
  0
SPLINE
  5
344
100
AcDbEntity
  8
02___PRT_ALL_AXES
100
AcDbSpline
 62
9
  6
CONTINUOUS
 70
0
 71
3
 72
10
 73
6
 74
4
 42
0.0000001
 43
0.0000001
 44
0.0000000001
 12
-0.6799443489
 22
1.8738260244
 32
0.0
 13
-0.8504305572
 23
1.8028633211
 33
0.0
 40
0.0
 40
0.0
 40
0.0
 40
0.0
 40
0.3275421297
 40
0.6656065193
 40
1.0
 40
1.0
 40
1.0
 40
1.0
 10
75.7891962602
 20
83.3289617023
 30
0.0
 10
75.7149594535
 20
83.5335473579
 30
0.0
 10
75.5515222207
 20
83.9447695994
 30
0.0
 10
75.2800304071
 20
84.5513233031
 30
0.0
 10
75.0895839073
 20
84.9555305657
 30
0.0
 10
74.9947910959
 20
85.1564858127
 30
0.0
 11
75.7891962602
 21
83.3289617023
 31
0.0
 11
75.5499239745
 21
83.9364535284
 31
0.0
 11
75.277042296
 21
84.5526212122
 31
0.0
 11
74.9947910959
 21
85.1564858127
 31
0.0
  0
SPLINE
  5
345
100
AcDbEntity
  8
RUNDUNGEN
100
AcDbSpline
 62
9
  6
CONTINUOUS
 70
0
 71
3
 72
12
 73
8
 74
6
 42
0.0000001
 43
0.0000001
 44
0.0000000001
 12
-0.7985869317
 22
-3.7635124469
 32
0.0
 13
0.0001061356
 23
-3.8473064622
 33
0.0
 40
0.0
 40
0.0
 40
0.0
 40
0.0
 40
0.2375663391
 40
0.4710107804
 40
0.6744420687
 40
0.8498004942
 40
1.0
 40
1.0
 40
1.0
 40
1.0
 10
96.1947910959
 20
85.1564858127
 30
0.0
 10
96.1315519713
 20
84.8584578547
 30
0.0
 10
96.0061967426
 20
84.2675650073
 30
0.0
 10
95.8364091598
 20
83.4194268785
 30
0.0
 10
95.7029002732
 20
82.6455255084
 30
0.0
 10
95.6180462503
 20
81.9721857977
 30
0.0
 10
95.5947857897
 20
81.5546764776
 30
0.0
 10
95.5947911036
 20
81.3620553012
 30
0.0
 11
96.1947910959
 21
85.1564858127
 31
0.0
 11
96.0068246619
 21
84.2620321944
 31
0.0
 11
95.8330543811
 21
83.3808707266
 31
0.0
 11
95.7030781096
 21
82.6090762113
 31
0.0
 11
95.6224132662
 21
81.9392582767
 31
0.0
 11
95.5947911036
 21
81.3620553012
 31
0.0
  0
SPLINE
  5
346
100
AcDbEntity
  8
RUNDUNGEN
100
AcDbSpline
 62
9
  6
CONTINUOUS
 70
0
 71
3
 72
12
 73
8
 74
6
 42
0.0000001
 43
0.0000001
 44
0.0000000001
 12
0.0
 22
0.8909811396
 32
0.0
 13
0.8909811396
 23
-0.0000017646
 33
0.0
 40
0.0
 40
0.0
 40
0.0
 40
0.0
 40
0.1895747536
 40
0.3832554609
 40
0.5834020679
 40
0.7898122896
 40
1.0
 40
1.0
 40
1.0
 40
1.0
 10
95.5947910959
 20
79.2354773113
 30
0.0
 10
95.5947910959
 20
79.2917798213
 30
0.0
 10
95.6152404226
 20
79.4065495241
 30
0.0
 10
95.7032055095
 20
79.5594337156
 30
0.0
 10
95.8387613392
 20
79.6797176414
 30
0.0
 10
96.0079135877
 20
79.7562828318
 30
0.0
 10
96.1323666674
 20
79.773750935
 30
0.0
 10
96.1947910959
 20
79.7737508114
 30
0.0
 11
95.5947910959
 21
79.2354773113
 31
0.0
 11
95.6241568441
 21
79.4018125347
 31
0.0
 11
95.7093798377
 21
79.5518659133
 31
0.0
 11
95.8421185995
 21
79.6709494439
 31
0.0
 11
96.0093801167
 21
79.7474059385
 31
0.0
 11
96.1947910959
 21
79.7737508114
 31
0.0
  0
SPLINE
  5
347
100
AcDbEntity
  8
RUNDUNGEN
100
AcDbSpline
 62
9
  6
CONTINUOUS
 70
0
 71
3
 72
14
 73
10
 74
8
 42
0.0000001
 43
0.0000001
 44
0.0000000001
 12
-4.4494995835
 22
0.0006707043
 32
0.0
 13
-2.8327553534
 23
3.4312598417
 33
0.0
 40
0.0
 40
0.0
 40
0.0
 40
0.0
 40
0.172348982
 40
0.3366216918
 40
0.4882810056
 40
0.6300846729
 40
0.7629856124
 40
0.8866501185
 40
1.0
 40
1.0
 40
1.0
 40
1.0
 10
85.5947910959
 20
54.1564858127
 30
0.0
 10
85.3391688548
 20
54.1565243445
 30
0.0
 10
84.8386785051
 20
54.2033117362
 30
0.0
 10
84.1378058996
 20
54.3981083569
 30
0.0
 10
83.517557945
 20
54.6798358067
 30
0.0
 10
82.9798643692
 20
55.0155704845
 30
0.0
 10
82.515925945
 20
55.3831361884
 30
0.0
 10
82.1196394653
 20
55.7635430845
 30
0.0
 10
81.8861136823
 20
56.0267865457
 30
0.0
 10
81.7790828545
 20
56.1564308444
 30
0.0
 11
85.5947910959
 21
54.1564858127
 31
0.0
 11
84.8312077079
 21
54.2273730084
 31
0.0
 11
84.1265641551
 21
54.4216360246
 31
0.0
 11
83.5115643796
 21
54.6993790645
 31
0.0
 11
82.9757022277
 21
55.0324802916
 31
0.0
 11
82.5115925926
 21
55.3989341271
 31
0.0
 11
82.1141390618
 21
55.7794606617
 31
0.0
 11
81.7790828545
 21
56.1564308444
 31
0.0
  0
SPLINE
  5
348
100
AcDbEntity
  8
RUNDUNGEN
100
AcDbSpline
 62
9
  6
CONTINUOUS
 70
0
 71
3
 72
14
 73
10
 74
8
 42
0.0000001
 43
0.0000001
 44
0.0000000001
 12
-2.8327414841
 22
-3.4312531616
 32
0.0
 13
-4.4494855965
 23
-0.0007081837
 33
0.0
 40
0.0
 40
0.0
 40
0.0
 40
0.0
 40
0.1129038333
 40
0.2361786676
 40
0.3687908195
 40
0.5103991591
 40
0.6619437813
 40
0.8262740921
 40
1.0
 40
1.0
 40
1.0
 40
1.0
 10
89.4105007984
 20
56.1564324847
 30
0.0
 10
89.3038916743
 20
56.0272986063
 30
0.0
 10
89.0712284491
 20
55.7649541082
 30
0.0
 10
88.6763214848
 20
55.3855311229
 30
0.0
 10
88.2136843016
 20
55.0184266067
 30
0.0
 10
87.6771041257
 20
54.6826077192
 30
0.0
 10
87.0575713324
 20
54.4002357618
 30
0.0
 10
86.3550995497
 20
54.203895913
 30
0.0
 10
85.8524547376
 20
54.1565268227
 30
0.0
 10
85.5947910959
 20
54.1564858127
 30
0.0
 11
89.4105007984
 21
56.1564324847
 31
0.0
 11
89.0768195784
 21
55.7808976416
 31
0.0
 11
88.6807930486
 21
55.4013903609
 31
0.0
 11
88.2179730981
 21
55.0353799517
 31
0.0
 11
87.6832001878
 21
54.7021771173
 31
0.0
 11
87.0690284531
 21
54.4238469784
 31
0.0
 11
86.3644197504
 21
54.2285046964
 31
0.0
 11
85.5947910959
 21
54.1564858127
 31
0.0
  0
SPLINE
  5
349
100
AcDbEntity
  8
RUNDUNGEN
100
AcDbSpline
 62
9
  6
CONTINUOUS
 70
0
 71
3
 72
11
 73
7
 74
5
 42
0.0000001
 43
0.0000001
 44
0.0000000001
 12
0.3172014996
 22
0.5348531405
 32
0.0
 13
0.6173182018
 23
-0.0179494089
 33
0.0
 40
0.0
 40
0.0
 40
0.0
 40
0.0
 40
0.065884225
 40
0.3713650738
 40
0.6828854971
 40
1.0
 40
1.0
 40
1.0
 40
1.0
 10
95.6310534074
 20
79.2144955708
 30
0.0
 10
95.6380195991
 20
79.226241699
 30
0.0
 10
95.6797940563
 20
79.2909548997
 30
0.0
 10
95.7813730058
 20
79.3919720235
 30
0.0
 10
95.9577224175
 20
79.4767668937
 30
0.0
 10
96.0886485693
 20
79.4933049827
 30
0.0
 10
96.1539020875
 20
79.4914076434
 30
0.0
 11
95.6310534074
 21
79.2144955708
 31
0.0
 11
95.6532659261
 21
79.2488955887
 31
0.0
 11
95.7865301698
 21
79.3824347363
 31
0.0
 11
95.9596740016
 21
79.4663069567
 31
0.0
 11
96.1539020875
 21
79.4914076434
 31
0.0
  0
SPLINE
  5
34A
100
AcDbEntity
  8
02___PRT_ALL_AXES
100
AcDbSpline
 62
9
  6
CONTINUOUS
 70
0
 71
3
 72
10
 73
6
 74
4
 42
0.0000001
 43
0.0000001
 44
0.0000000001
 12
-0.8504530876
 22
-1.8028658802
 32
0.0
 13
-0.6799233936
 23
-1.8738463157
 33
0.0
 40
0.0
 40
0.0
 40
0.0
 40
0.0
 40
0.334285445
 40
0.6726460132
 40
1.0
 40
1.0
 40
1.0
 40
1.0
 10
96.1947910959
 20
85.1564858127
 30
0.0
 10
96.1000263997
 20
84.955595205
 30
0.0
 10
95.9095267897
 20
84.5512719319
 30
0.0
 10
95.6380296084
 20
83.9447157975
 30
0.0
 10
95.4745809511
 20
83.5334181281
 30
0.0
 10
95.4003890733
 20
83.328947774
 30
0.0
 11
96.1947910959
 21
85.1564858127
 31
0.0
 11
95.9126266389
 21
84.5528139859
 31
0.0
 11
95.6395082162
 21
83.9361010325
 31
0.0
 11
95.4003890733
 21
83.328947774
 31
0.0
  0
SPLINE
  5
34B
100
AcDbEntity
  8
RUNDUNGEN
100
AcDbSpline
 62
9
  6
CONTINUOUS
 70
0
 71
3
 72
11
 73
7
 74
5
 42
0.0000001
 43
0.0000001
 44
0.0000000001
 12
-0.3172064389
 22
0.5348464088
 32
0.0
 13
-0.6173150407
 23
-0.0179479783
 33
0.0
 40
0.0
 40
0.0
 40
0.0
 40
0.0
 40
0.0658830116
 40
0.3713638066
 40
0.6828847037
 40
1.0
 40
1.0
 40
1.0
 40
1.0
 10
75.5585284108
 20
79.2144948176
 30
0.0
 10
75.551562239
 20
79.2262405817
 30
0.0
 10
75.5097874052
 20
79.2909527402
 30
0.0
 10
75.4082082034
 20
79.3919682431
 30
0.0
 10
75.2318591138
 20
79.4767618143
 30
0.0
 10
75.1009334518
 20
79.493299793
 30
0.0
 10
75.0356801044
 20
79.4914026001
 30
0.0
 11
75.5585284108
 21
79.2144948176
 31
0.0
 11
75.5363160249
 21
79.2488937675
 31
0.0
 11
75.4030512987
 21
79.3824310049
 31
0.0
 11
75.2299076777
 21
79.4663020441
 31
0.0
 11
75.0356801044
 21
79.4914026001
 31
0.0
  0
SPLINE
  5
34C
100
AcDbEntity
  8
RUNDUNGEN
100
AcDbSpline
 62
9
  6
CONTINUOUS
 70
0
 71
3
 72
12
 73
8
 74
6
 42
0.0000001
 43
0.0000001
 44
0.0000000001
 12
-0.0
 22
0.890980694
 32
0.0
 13
-0.890980694
 23
0.0
 33
0.0
 40
0.0
 40
0.0
 40
0.0
 40
0.0
 40
0.1895757994
 40
0.3832573592
 40
0.5834040061
 40
0.7898133618
 40
1.0
 40
1.0
 40
1.0
 40
1.0
 10
75.5947910959
 20
79.2354773113
 30
0.0
 10
75.5947910959
 20
79.2917801037
 30
0.0
 10
75.5743413993
 20
79.4065503244
 30
0.0
 10
75.4863754049
 20
79.5594345779
 30
0.0
 10
75.3508192538
 20
79.6797179628
 30
0.0
 10
75.1816675698
 20
79.7562826825
 30
0.0
 10
75.0572151749
 20
79.7737508114
 30
0.0
 10
74.9947910959
 20
79.7737508114
 30
0.0
 11
75.5947910959
 21
79.2354773113
 31
0.0
 11
75.5654248817
 21
79.4018133128
 31
0.0
 11
75.4802009646
 21
79.5518669413
 31
0.0
 11
75.3474618394
 21
79.6709499864
 31
0.0
 11
75.180201012
 21
79.7474059129
 31
0.0
 11
74.9947910959
 21
79.7737508114
 31
0.0
  0
SPLINE
  5
34D
100
AcDbEntity
  8
RUNDUNGEN
100
AcDbSpline
 62
9
  6
CONTINUOUS
 70
0
 71
3
 72
12
 73
8
 74
6
 42
0.0000001
 43
0.0000001
 44
0.0000000001
 12
0.000104555
 22
3.8473058693
 32
0.0
 13
-0.7985713614
 23
3.7635151446
 33
0.0
 40
0.0
 40
0.0
 40
0.0
 40
0.0
 40
0.151897763
 40
0.3290100157
 40
0.532849567
 40
0.7643395617
 40
1.0
 40
1.0
 40
1.0
 40
1.0
 10
75.5947910886
 20
81.3620509075
 30
0.0
 10
75.5947963824
 20
81.5568499592
 30
0.0
 10
75.5710376552
 20
81.9787836873
 30
0.0
 10
75.4849635754
 20
82.6569589798
 30
0.0
 10
75.350927921
 20
83.4310359076
 30
0.0
 10
75.1818509434
 20
84.2747989161
 30
0.0
 10
75.057521655
 20
84.8608486032
 30
0.0
 10
74.9947910959
 20
85.1564858127
 30
0.0
 11
75.5947910886
 21
81.3620509075
 31
0.0
 11
75.5665944136
 21
81.9457674334
 31
0.0
 11
75.4845611492
 21
82.6222164935
 31
0.0
 11
75.3538175121
 21
83.395474316
 31
0.0
 11
75.1812771977
 21
84.2692139952
 31
0.0
 11
74.9947910959
 21
85.1564858127
 31
0.0
  0
SPLINE
  5
34E
100
AcDbEntity
  8
02___PRT_ALL_AXES
100
AcDbSpline
 62
9
  6
CONTINUOUS
 70
0
 71
3
 72
9
 73
5
 74
3
 42
0.0000001
 43
0.0000001
 44
0.0000000001
 12
-0.2089856059
 22
-0.9627608452
 32
0.0
 13
0.0001895049
 23
-0.9851819084
 33
0.0
 40
0.0
 40
0.0
 40
0.0
 40
0.0
 40
0.5175826573
 40
1.0
 40
1.0
 40
1.0
 40
1.0
 10
95.1079430765
 20
82.3390248884
 30
0.0
 10
95.0718873014
 20
82.1729221162
 30
0.0
 10
95.0163455967
 20
81.848716357
 30
0.0
 10
94.9947606225
 20
81.5201755666
 30
0.0
 10
94.9947910959
 20
81.3617526205
 30
0.0
 11
95.1079430765
 21
82.3390248884
 31
0.0
 11
95.0234891851
 21
81.8361542402
 31
0.0
 11
94.9947910959
 21
81.3617526205
 31
0.0
  0
LINE
  5
34F
100
AcDbEntity
  8
RUNDUNGEN
100
AcDbLine
 62
9
  6
CONTINUOUS
 10
75.1343949032
 20
79.1564858127
 11
75.0356801044
 21
79.4914027622
  0
LINE
  5
350
100
AcDbEntity
  8
RUNDUNGEN
100
AcDbLine
 62
9
  6
CONTINUOUS
 10
77.9562844325
 20
85.1564858127
 11
75.9908451674
 21
91.1564858127
  0
LINE
  5
351
100
AcDbEntity
  8
RUNDUNGEN
100
AcDbLine
 62
9
  6
CONTINUOUS
 10
95.1987370245
 20
91.1564858127
 11
93.2332977594
 21
85.1564858127
  0
ELLIPSE
  5
352
100
AcDbEntity
  8
0
100
AcDbEllipse
 62
7
  6
CONTINUOUS
 10
92.5950998867
 20
155.8199165706
 30
0.0
 11
0.0
 21
2.695
 31
0.0
 40
0.2679491924
 41
-3.1415926536
 42
-0.0
  0
ELLIPSE
  5
353
100
AcDbEntity
  8
0
100
AcDbEllipse
 62
7
  6
CONTINUOUS
 10
78.5944823052
 20
155.8199165706
 30
0.0
 11
0.0
 21
2.695
 31
0.0
 40
0.2679491924
 41
0.0
 42
3.1415926536
  0
ENDSEC
  0
SECTION
  2
OBJECTS
  0
DICTIONARY
  5
C
100
AcDbDictionary
280
0
281
1
  3
ACAD_GROUP
350
D
  3
ACAD_MLINESTYLE
350
17
  3
ACAD_LAYOUT
350
1A
  3
ACAD_PLOTSETTINGS
350
19
  3
ACAD_PLOTSTYLENAME
350
E
  0
DICTIONARY
  5
D
102
{ACAD_REACTORS
330
C
102
}
100
AcDbDictionary
280
0
281
1
  0
ACDBDICTIONARYWDFLT
  5
E
102
{ACAD_REACTORS
330
C
102
}
100
AcDbDictionary
281
1
  3
Normal
350
F
100
AcDbDictionaryWithDefault
340
F
  0
DICTIONARY
  5
17
102
{ACAD_REACTORS
330
C
102
}
100
AcDbDictionary
280
0
281
1
  3
Standard
350
18
  0
DICTIONARY
  5
19
102
{ACAD_REACTORS
330
C
102
}
100
AcDbDictionary
281
1
  0
DICTIONARY
  5
1A
102
{ACAD_REACTORS
330
C
102
}
100
AcDbDictionary
281
1
  3
Model
350
354
  3
Layout1
350
355
  0
ACDBPLACEHOLDER
  5
F
102
{ACAD_REACTORS
330
E
102
}
  0
MLINESTYLE
  5
18
102
{ACAD_REACTORS
330
17
102
}
100
AcDbMlineStyle
  2
STANDARD
 70
0
  3

 62
256
 51
90.0
 52
90.0
 71
2
 49
0.5
 62
256
  6
BYLAYER
 49
-0.5
 62
256
  6
BYLAYER
  0
LAYOUT
  5
354
102
{ACAD_REACTORS
330
1A
102
}
100
AcDbPlotSettings
  1

  2
none_device
  4
ISO_A4_(297.00_x_210.00_MM)
  6

 40
0.0
 41
0.0
 42
0.0
 43
0.0
 44
297.0
 45
210.0
 46
0.0
 47
0.0
 48
0.0
 49
0.0
140
0.0
141
0.0
142
1.0
143
1.0
 70
1024
 72
1
 73
0
 74
0
  7

 75
0
147
1.0
148
0.0
149
0.0
100
AcDbLayout
  1
Model
 70
0
 71
0
 10
0.0
 20
0.0
 11
297.0
 21
210.0
 12
0.0
 22
0.0
 32
0.0
 14
0.0
 24
0.0
 34
0.0
 15
0.0
 25
0.0
 35
0.0
146
0.0
 13
0.0
 23
0.0
 33
0.0
 16
1.0
 26
0.0
 36
0.0
 17
0.0
 27
1.0
 37
0.0
 76
0
330
20F
345
0
346
0
  0
LAYOUT
  5
355
102
{ACAD_REACTORS
330
1A
102
}
100
AcDbPlotSettings
  1

  2
none_device
  4
ISO_A4_(297.00_x_210.00_MM)
  6

 40
0.0
 41
0.0
 42
0.0
 43
0.0
 44
297.0
 45
210.0
 46
0.0
 47
0.0
 48
0.0
 49
0.0
140
0.0
141
0.0
142
1.0
143
1.0
 70
0
 72
1
 73
0
 74
0
  7

 75
0
147
1.0
148
0.0
149
0.0
100
AcDbLayout
  1
Layout1
 70
0
 71
1
 10
0.0
 20
0.0
 11
297.0
 21
210.0
 12
0.0
 22
0.0
 32
0.0
 14
0.0
 24
0.0
 34
0.0
 15
0.0
 25
0.0
 35
0.0
146
0.0
 13
0.0
 23
0.0
 33
0.0
 16
1.0
 26
0.0
 36
0.0
 17
0.0
 27
1.0
 37
0.0
 76
0
330
210
345
0
346
0
  0
ENDSEC
  0
EOF
