999
DXF file: C:\Temp\1x_90t3g\s8_internet.dxf
999
Pro/ENGINEER 2012230 by Parametric Technology Corporation
  0
SECTION
  2
HEADER
  9
$ACADVER
  1
AC1021
  9
$DWGCODEPAGE
  3
ANSI_1252
  9
$EXTMAX
 10
297.0
 20
210.0
 30
0.0
  9
$EXTMIN
 10
0.0
 20
0.0
 30
0.0
  9
$LIMMIN
 10
0.0
 20
0.0
  9
$LIMMAX
 10
297.0
 20
210.0
  9
$VIEWCTR
 10
148.5
 20
105.0
  9
$VIEWSIZE
 40
210.0
  9
$CLAYER
  8
0
  9
$LTSCALE
 40
16.335
  9
$CELTYPE
  6
BYLAYER
  9
$DIMSCALE
 40
1.0
  9
$DIMASZ
 40
3.5
  9
$DIMEXO
 40
0.0
  9
$DIMDLI
 40
11.286
  9
$DIMEXE
 40
1.5
  9
$DIMCEN
 40
2.673
  9
$DIMLFAC
 40
1.0
  9
$DIMBLK
  1
_FILLED
  9
$DIMTXT
 40
3.5
  9
$DIMTOL
 70
1
  9
$DIMLIM
 70
0
  9
$DIMTFAC
 40
1.0
  9
$DIMTP
 40
0.005
  9
$DIMTM
 40
0.005
  9
$DIMGAP
 40
0.625
  9
$DIMDSEP
 70
46
  9
$PDMODE
 70
3
  9
$PDSIZE
 40
0.3125
  9
$HANDSEED
  5
403
  9
$TILEMODE
 70
1
  9
$MEASUREMENT
 70
1
  9
$INSUNITS
 70
4
  0
ENDSEC
  0
SECTION
  2
CLASSES
  0
CLASS
  1
ACDBDICTIONARYWDFLT
  2
AcDbDictionaryWithDefault
  3
AutoCAD 2000
 90
0
 91
1
280
0
281
0
  0
CLASS
  1
ACDBPLACEHOLDER
  2
AcDbPlaceHolder
  3
AutoCAD 2000
 90
0
 91
1
280
0
281
0
  0
CLASS
  1
LAYOUT
  2
AcDbLayout
  3
AutoCAD 2000
 90
0
 91
0
280
0
281
0
  0
ENDSEC
  0
SECTION
  2
TABLES
  0
TABLE
  2
VPORT
  5
8
100
AcDbSymbolTable
 70
2
  0
VPORT
  5
1F4
100
AcDbSymbolTableRecord
100
AcDbViewportTableRecord
  2
*ACTIVE
 70
0
 10
0.0
 20
0.0
 11
1.0
 21
1.0
 12
148.5
 22
105.0
 13
0.0
 23
0.0
 14
1.0
 24
1.0
 15
0.0
 25
0.0
 16
0.0
 26
0.0
 36
1.0
 17
0.0
 27
0.0
 37
0.0
 40
210.0
 41
1.4142857143
 42
50.0
 43
0.0
 44
0.0
 50
0.0
 51
0.0
 71
0
 72
100
 73
1
 74
1
 75
0
 76
0
 77
0
 78
0
  0
ENDTAB
  0
TABLE
  2
LTYPE
  5
5
100
AcDbSymbolTable
 70
6
  0
LTYPE
  5
14
100
AcDbSymbolTableRecord
100
AcDbLinetypeTableRecord
  2
BYBLOCK
 70
0
  3

 72
65
 73
0
 40
0.0
  0
LTYPE
  5
15
100
AcDbSymbolTableRecord
100
AcDbLinetypeTableRecord
  2
BYLAYER
 70
0
  3

 72
65
 73
0
 40
0.0
  0
LTYPE
  5
16
100
AcDbSymbolTableRecord
100
AcDbLinetypeTableRecord
  2
CONTINUOUS
 70
64
  3
Solid line
 72
65
 73
0
 40
0.0
  0
LTYPE
  5
1F5
100
AcDbSymbolTableRecord
100
AcDbLinetypeTableRecord
  2
CENTER
 70
64
  3
____ _ ____ _ ____ _ ____ _ ____ _ ____ _ ____
 72
65
 73
4
 40
0.6
 49
0.375
 74
0
 49
-0.075
 74
0
 49
0.075
 74
0
 49
-0.075
 74
0
  0
LTYPE
  5
1F6
100
AcDbSymbolTableRecord
100
AcDbLinetypeTableRecord
  2
HIDDEN
 70
64
  3
- - - - - - - - - - - - - - - - - - - -
 72
65
 73
2
 40
0.2
 49
0.1
 74
0
 49
-0.1
 74
0
  0
LTYPE
  5
1F7
100
AcDbSymbolTableRecord
100
AcDbLinetypeTableRecord
  2
PHANTOM
 70
64
  3
_____ _ _ _____ _ _ _____ _ _ _____
 72
65
 73
6
 40
0.8
 49
0.45
 74
0
 49
-0.05
 74
0
 49
0.1
 74
0
 49
-0.05
 74
0
 49
0.1
 74
0
 49
-0.05
 74
0
  0
LTYPE
  5
1F8
100
AcDbSymbolTableRecord
100
AcDbLinetypeTableRecord
  2
DOT
 70
64
  3
. . . . . . . . . . . . . . . . . . . .
 72
65
 73
2
 40
0.2
 49
0.1
 74
0
 49
-0.1
 74
0
  0
LTYPE
  5
1F9
100
AcDbSymbolTableRecord
100
AcDbLinetypeTableRecord
  2
DASHED
 70
64
  3
- - - - - - - - - - - - - - - - - - - -
 72
65
 73
2
 40
0.2
 49
0.1
 74
0
 49
-0.1
 74
0
  0
ENDTAB
  0
TABLE
  2
LAYER
  5
2
100
AcDbSymbolTable
 70
36
  0
LAYER
  5
10
100
AcDbSymbolTableRecord
100
AcDbLayerTableRecord
  2
0
 70
0
 62
7
  6
CONTINUOUS
370
-3
390
F
  0
LAYER
  5
1FA
100
AcDbSymbolTableRecord
100
AcDbLayerTableRecord
  2
DEFAULT_1
 70
0
 62
7
  6
CENTER
370
-3
390
F
  0
LAYER
  5
1FB
100
AcDbSymbolTableRecord
100
AcDbLayerTableRecord
  2
DEFAULT_2
 70
0
 62
8
  6
HIDDEN
370
-3
390
F
  0
LAYER
  5
1FC
100
AcDbSymbolTableRecord
100
AcDbLayerTableRecord
  2
DEFAULT_3
 70
0
 62
7
  6
PHANTOM
370
-3
390
F
  0
LAYER
  5
1FD
100
AcDbSymbolTableRecord
100
AcDbLayerTableRecord
  2
01___PRT_ALL_DTM_PLN
 70
0
 62
7
  6
CONTINUOUS
370
-3
390
F
  0
LAYER
  5
1FE
100
AcDbSymbolTableRecord
100
AcDbLayerTableRecord
  2
01___PRT_DEF_DTM_PLN
 70
0
 62
7
  6
CONTINUOUS
370
-3
390
F
  0
LAYER
  5
1FF
100
AcDbSymbolTableRecord
100
AcDbLayerTableRecord
  2
02___PRT_ALL_AXES
 70
0
 62
7
  6
CONTINUOUS
370
-3
390
F
  0
LAYER
  5
200
100
AcDbSymbolTableRecord
100
AcDbLayerTableRecord
  2
03___PRT_ALL_CURVES
 70
0
 62
7
  6
CONTINUOUS
370
-3
390
F
  0
LAYER
  5
201
100
AcDbSymbolTableRecord
100
AcDbLayerTableRecord
  2
04___PRT_ALL_DTM_PNT
 70
0
 62
7
  6
CONTINUOUS
370
-3
390
F
  0
LAYER
  5
202
100
AcDbSymbolTableRecord
100
AcDbLayerTableRecord
  2
05___PRT_ALL_DTM_CSYS
 70
0
 62
7
  6
CONTINUOUS
370
-3
390
F
  0
LAYER
  5
203
100
AcDbSymbolTableRecord
100
AcDbLayerTableRecord
  2
05___PRT_DEF_DTM_CSYS
 70
0
 62
7
  6
CONTINUOUS
370
-3
390
F
  0
LAYER
  5
204
100
AcDbSymbolTableRecord
100
AcDbLayerTableRecord
  2
06___PRT_ALL_SURFS
 70
0
 62
7
  6
CONTINUOUS
370
-3
390
F
  0
LAYER
  5
205
100
AcDbSymbolTableRecord
100
AcDbLayerTableRecord
  2
AUSFORMSCHRAEGEN
 70
0
 62
7
  6
CONTINUOUS
370
-3
390
F
  0
LAYER
  5
206
100
AcDbSymbolTableRecord
100
AcDbLayerTableRecord
  2
BEZUGSACHSEN
 70
0
 62
7
  6
CONTINUOUS
370
-3
390
F
  0
LAYER
  5
207
100
AcDbSymbolTableRecord
100
AcDbLayerTableRecord
  2
BEZUGSEBENE
 70
0
 62
7
  6
CONTINUOUS
370
-3
390
F
  0
LAYER
  5
208
100
AcDbSymbolTableRecord
100
AcDbLayerTableRecord
  2
BEZUGSEBENEN
 70
0
 62
7
  6
CONTINUOUS
370
-3
390
F
  0
LAYER
  5
209
100
AcDbSymbolTableRecord
100
AcDbLayerTableRecord
  2
BEZUGSEBENEN-KES
 70
0
 62
7
  6
CONTINUOUS
370
-3
390
F
  0
LAYER
  5
20A
100
AcDbSymbolTableRecord
100
AcDbLayerTableRecord
  2
KURVEN
 70
0
 62
7
  6
CONTINUOUS
370
-3
390
F
  0
LAYER
  5
20B
100
AcDbSymbolTableRecord
100
AcDbLayerTableRecord
  2
RUNDUNGEN
 70
0
 62
7
  6
CONTINUOUS
370
-3
390
F
  0
LAYER
  5
20C
100
AcDbSymbolTableRecord
100
AcDbLayerTableRecord
  2
ZEICHNUNGSBEMASSUNGEN
 70
0
 62
7
  6
CONTINUOUS
370
-3
390
F
  0
LAYER
  5
20D
100
AcDbSymbolTableRecord
100
AcDbLayerTableRecord
  2
ZEICHNUNGSNOTIZEN
 70
0
 62
7
  6
CONTINUOUS
370
-3
390
F
  0
ENDTAB
  0
TABLE
  2
STYLE
  5
3
100
AcDbSymbolTable
 70
1
  0
STYLE
  5
11
100
AcDbSymbolTableRecord
100
AcDbTextStyleTableRecord
  2
STANDARD
 70
0
 40
0.0
 41
0.7
 50
0.0
 71
0
 42
0.2
  3
txt
  4

  0
STYLE
  5
20E
100
AcDbSymbolTableRecord
100
AcDbTextStyleTableRecord
  2
TEXTSTYLE_1
 70
0
 40
0.0
 41
0.8
 50
0.0
 71
0
 42
0.2
  3
gdt
  4

  0
ENDTAB
  0
TABLE
  2
VIEW
  5
6
100
AcDbSymbolTable
 70
0
  0
ENDTAB
  0
TABLE
  2
UCS
  5
7
100
AcDbSymbolTable
 70
0
  0
ENDTAB
  0
TABLE
  2
APPID
  5
9
100
AcDbSymbolTable
 70
1
  0
APPID
  5
20F
100
AcDbSymbolTableRecord
100
AcDbRegAppTableRecord
  2
ACAD
 70
0
  0
ENDTAB
  0
TABLE
  2
BLOCK_RECORD
  5
1
100
AcDbSymbolTable
 70
0
  0
BLOCK_RECORD
  5
210
100
AcDbSymbolTableRecord
100
AcDbBlockTableRecord
  2
*Model_Space
  0
BLOCK_RECORD
  5
211
100
AcDbSymbolTableRecord
100
AcDbBlockTableRecord
  2
*Paper_Space
  0
ENDTAB
  0
TABLE
  2
DIMSTYLE
  5
A
100
AcDbSymbolTable
 70
1
100
AcDbDimStyleTable
 71
0
  0
DIMSTYLE
105
212
100
AcDbSymbolTableRecord
100
AcDbDimStyleTableRecord
  2
STANDARD
 70
0
  3

  4

 40
1.0
 41
3.5
 42
0.0
 43
0.38
 44
1.5
 45
0.0
 46
0.0
 47
0.005
 48
0.005
140
3.5
141
0.09
142
0.0
143
25.4
144
1.0
145
0.0
146
1.0
147
0.625
 71
1.0
 72
0.0
 73
0
 74
0
 75
0
 76
0
 77
1
 78
8
170
0
171
2
172
0
173
0
174
0
175
0
176
0
177
0
178
5
270
2
271
3
272
3
273
2
274
2
275
0
280
0
281
0
282
0
283
1
284
8
285
0
286
0
287
3
288
0
340
11
278
46
  0
ENDTAB
  0
ENDSEC
  0
SECTION
  2
BLOCKS
  0
BLOCK
  5
20
100
AcDbEntity
  8
0
100
AcDbBlockBegin
  2
*Model_Space
 70
0
 10
0.0
 20
0.0
 30
0.0
  3
*Model_Space
  1

  0
ENDBLK
  5
21
100
AcDbEntity
  8
0
100
AcDbBlockEnd
  0
BLOCK
  5
1C
100
AcDbEntity
  8
0
100
AcDbBlockBegin
  2
*Paper_Space
 70
0
 10
0.0
 20
0.0
 30
0.0
  3
*Paper_Space
  1

  0
ENDBLK
  5
1D
100
AcDbEntity
  8
0
100
AcDbBlockEnd
  0
ENDSEC
  0
SECTION
  2
ENTITIES
  0
LINE
  5
213
100
AcDbEntity
  8
0
100
AcDbLine
 62
7
  6
CONTINUOUS
 10
0.0
 20
0.0
 11
0.0
 21
210.0
  0
LINE
  5
214
100
AcDbEntity
  8
0
100
AcDbLine
 62
7
  6
CONTINUOUS
 10
0.0
 20
0.0
 11
297.0
 21
0.0
  0
LINE
  5
215
100
AcDbEntity
  8
0
100
AcDbLine
 62
7
  6
CONTINUOUS
 10
0.0
 20
210.0
 11
297.0
 21
210.0
  0
LINE
  5
216
100
AcDbEntity
  8
0
100
AcDbLine
 62
7
  6
CONTINUOUS
 10
297.0
 20
0.0
 11
297.0
 21
210.0
  0
LINE
  5
217
100
AcDbEntity
  8
RUNDUNGEN
100
AcDbLine
 62
7
  6
CONTINUOUS
 10
54.2016809964
 20
158.4238380835
 11
54.2016809964
 21
148.4238380835
  0
LINE
  5
218
100
AcDbEntity
  8
RUNDUNGEN
100
AcDbLine
 62
7
  6
CONTINUOUS
 10
55.2016809964
 20
159.4238380835
 11
55.2016809964
 21
147.4238380835
  0
LINE
  5
219
100
AcDbEntity
  8
0
100
AcDbLine
 62
7
  6
CONTINUOUS
 10
56.2016809964
 20
147.4238380835
 11
56.2016809964
 21
149.8443988225
  0
LINE
  5
21A
100
AcDbEntity
  8
RUNDUNGEN
100
AcDbLine
 62
7
  6
CONTINUOUS
 10
56.4016809964
 20
149.8443988225
 11
56.4016809964
 21
149.5238380835
  0
LINE
  5
21B
100
AcDbEntity
  8
RUNDUNGEN
100
AcDbLine
 62
7
  6
CONTINUOUS
 10
56.4516809964
 20
149.5238380835
 11
56.4516809964
 21
149.7238380835
  0
LINE
  5
21C
100
AcDbEntity
  8
RUNDUNGEN
100
AcDbLine
 62
7
  6
CONTINUOUS
 10
60.0516809964
 20
149.5238380835
 11
60.0516809964
 21
149.7238380835
  0
LINE
  5
21D
100
AcDbEntity
  8
RUNDUNGEN
100
AcDbLine
 62
7
  6
CONTINUOUS
 10
60.1016809964
 20
149.5238380835
 11
60.1016809964
 21
149.8443988225
  0
LINE
  5
21E
100
AcDbEntity
  8
0
100
AcDbLine
 62
7
  6
CONTINUOUS
 10
60.3016809964
 20
147.4238380835
 11
60.3016809964
 21
149.8443988225
  0
LINE
  5
21F
100
AcDbEntity
  8
RUNDUNGEN
100
AcDbLine
 62
7
  6
CONTINUOUS
 10
64.5014734582
 20
156.4238380835
 11
64.5014734582
 21
150.4238380835
  0
LINE
  5
220
100
AcDbEntity
  8
RUNDUNGEN
100
AcDbLine
 62
7
  6
CONTINUOUS
 10
65.441166079
 20
156.4238380835
 11
65.441166079
 21
150.4238380835
  0
LINE
  5
221
100
AcDbEntity
  8
RUNDUNGEN
100
AcDbLine
 62
7
  6
CONTINUOUS
 10
73.0940262194
 20
147.9238380835
 11
73.0940262194
 21
158.9238380835
  0
LINE
  5
222
100
AcDbEntity
  8
RUNDUNGEN
100
AcDbLine
 62
7
  6
CONTINUOUS
 10
74.973411461
 20
148.4238380835
 11
74.973411461
 21
158.4238380835
  0
LINE
  5
223
100
AcDbEntity
  8
RUNDUNGEN
100
AcDbLine
 62
7
  6
CONTINUOUS
 10
83.573411461
 20
148.4238380835
 11
83.573411461
 21
158.4238380835
  0
LINE
  5
224
100
AcDbEntity
  8
RUNDUNGEN
100
AcDbLine
 62
7
  6
CONTINUOUS
 10
85.4277791701
 20
147.9238380835
 11
85.4277791701
 21
158.9238380835
  0
LINE
  5
225
100
AcDbEntity
  8
0
100
AcDbLine
 62
7
  6
CONTINUOUS
 10
56.2016809964
 20
147.4238380835
 11
55.2016809964
 21
147.4238380835
  0
LINE
  5
226
100
AcDbEntity
  8
0
100
AcDbLine
 62
7
  6
CONTINUOUS
 10
60.3016809964
 20
147.4238380835
 11
65.5916216487
 21
147.4238380835
  0
LINE
  5
227
100
AcDbEntity
  8
0
100
AcDbLine
 62
7
  6
CONTINUOUS
 10
95.3855159058
 20
147.4238380835
 11
106.2016809964
 21
147.4238380835
  0
LINE
  5
228
100
AcDbEntity
  8
0
100
AcDbLine
 62
7
  6
CONTINUOUS
 10
126.2016809964
 20
147.4238380835
 11
132.2016809964
 21
147.4238380835
  0
LINE
  5
229
100
AcDbEntity
  8
RUNDUNGEN
100
AcDbLine
 62
7
  6
CONTINUOUS
 10
63.0454651317
 20
147.4238380835
 11
154.2016809964
 21
147.4238380835
  0
LINE
  5
22A
100
AcDbEntity
  8
0
100
AcDbLine
 62
7
  6
CONTINUOUS
 10
151.2016809964
 20
147.4238380835
 11
154.2016809964
 21
147.4238380835
  0
LINE
  5
22B
100
AcDbEntity
  8
RUNDUNGEN
100
AcDbLine
 62
7
  6
CONTINUOUS
 10
151.7016809964
 20
147.9238380835
 11
144.2994230716
 21
147.9238380835
  0
LINE
  5
22C
100
AcDbEntity
  8
RUNDUNGEN
100
AcDbLine
 62
7
  6
CONTINUOUS
 10
114.1039389213
 20
147.9238380835
 11
106.7016809964
 21
147.9238380835
  0
LINE
  5
22D
100
AcDbEntity
  8
RUNDUNGEN
100
AcDbLine
 62
7
  6
CONTINUOUS
 10
85.064123446
 20
147.9238380835
 11
95.8491108689
 21
147.9238379711
  0
LINE
  5
22E
100
AcDbEntity
  8
RUNDUNGEN
100
AcDbLine
 62
7
  6
CONTINUOUS
 10
119.2994230716
 20
147.9238380835
 11
126.7016809964
 21
147.9238380835
  0
LINE
  5
22F
100
AcDbEntity
  8
RUNDUNGEN
100
AcDbLine
 62
7
  6
CONTINUOUS
 10
131.7016809964
 20
147.9238380835
 11
139.1039389213
 21
147.9238380835
  0
LINE
  5
230
100
AcDbEntity
  8
RUNDUNGEN
100
AcDbLine
 62
7
  6
CONTINUOUS
 10
65.1217588052
 20
147.9238351491
 11
73.482699476
 21
147.9238380835
  0
LINE
  5
231
100
AcDbEntity
  8
RUNDUNGEN
100
AcDbLine
 62
7
  6
CONTINUOUS
 10
74.973411461
 20
148.4238380835
 11
83.573411461
 21
148.4238380835
  0
LINE
  5
232
100
AcDbEntity
  8
RUNDUNGEN
100
AcDbLine
 62
7
  6
CONTINUOUS
 10
60.1016809964
 20
149.5238380835
 11
60.0516809964
 21
149.5238380835
  0
LINE
  5
233
100
AcDbEntity
  8
RUNDUNGEN
100
AcDbLine
 62
7
  6
CONTINUOUS
 10
56.4516809964
 20
149.5238380835
 11
56.4016809964
 21
149.5238380835
  0
LINE
  5
234
100
AcDbEntity
  8
RUNDUNGEN
100
AcDbLine
 62
7
  6
CONTINUOUS
 10
60.3016809964
 20
149.7238380835
 11
60.0516809964
 21
149.7238380835
  0
LINE
  5
235
100
AcDbEntity
  8
RUNDUNGEN
100
AcDbLine
 62
7
  6
CONTINUOUS
 10
56.2016809964
 20
149.7238380835
 11
56.4516809964
 21
149.7238380835
  0
LINE
  5
236
100
AcDbEntity
  8
0
100
AcDbLine
 62
7
  6
CONTINUOUS
 10
60.3016809964
 20
149.8443988225
 11
56.2016809964
 21
149.8443988225
  0
LINE
  5
237
100
AcDbEntity
  8
RUNDUNGEN
100
AcDbLine
 62
7
  6
CONTINUOUS
 10
54.2016809964
 20
150.4238380835
 11
65.441166079
 21
150.4238380835
  0
LINE
  5
238
100
AcDbEntity
  8
0
100
AcDbLine
 62
7
  6
CONTINUOUS
 10
135.2016809964
 20
150.6738380835
 11
134.7161094113
 21
150.6738380835
  0
LINE
  5
239
100
AcDbEntity
  8
0
100
AcDbLine
 62
7
  6
CONTINUOUS
 10
110.2016809964
 20
150.6738380835
 11
109.7161094113
 21
150.6738380835
  0
LINE
  5
23A
100
AcDbEntity
  8
0
100
AcDbLine
 62
7
  6
CONTINUOUS
 10
71.2981824204
 20
150.6738380835
 11
68.5684056634
 21
150.6738380835
  0
LINE
  5
23B
100
AcDbEntity
  8
0
100
AcDbLine
 62
7
  6
CONTINUOUS
 10
87.4475924061
 20
150.6738380835
 11
90.4777890999
 21
150.6738380835
  0
LINE
  5
23C
100
AcDbEntity
  8
0
100
AcDbLine
 62
7
  6
CONTINUOUS
 10
123.2016809964
 20
150.6738380835
 11
123.6872525816
 21
150.6738380835
  0
LINE
  5
23D
100
AcDbEntity
  8
RUNDUNGEN
100
AcDbLine
 62
7
  6
CONTINUOUS
 10
106.2016809964
 20
147.4238380835
 11
106.2016809964
 21
151.1161457758
  0
LINE
  5
23E
100
AcDbEntity
  8
RUNDUNGEN
100
AcDbLine
 62
7
  6
CONTINUOUS
 10
106.2016809964
 20
155.7315303912
 11
106.2016809964
 21
159.4238380835
  0
LINE
  5
23F
100
AcDbEntity
  8
RUNDUNGEN
100
AcDbLine
 62
7
  6
CONTINUOUS
 10
106.7016809964
 20
147.4238380835
 11
106.7016809964
 21
150.9238380835
  0
LINE
  5
240
100
AcDbEntity
  8
RUNDUNGEN
100
AcDbLine
 62
7
  6
CONTINUOUS
 10
106.7016809964
 20
155.9238380835
 11
106.7016809964
 21
159.4238380835
  0
LINE
  5
241
100
AcDbEntity
  8
0
100
AcDbLine
 62
7
  6
CONTINUOUS
 10
135.2016809964
 20
156.1738380835
 11
134.7161094113
 21
156.1738380835
  0
LINE
  5
242
100
AcDbEntity
  8
0
100
AcDbLine
 62
7
  6
CONTINUOUS
 10
110.2016809964
 20
156.1738380835
 11
109.7161094113
 21
156.1738380835
  0
LINE
  5
243
100
AcDbEntity
  8
0
100
AcDbLine
 62
7
  6
CONTINUOUS
 10
90.4777890999
 20
156.1738380835
 11
87.4475924061
 21
156.1738380835
  0
LINE
  5
244
100
AcDbEntity
  8
0
100
AcDbLine
 62
7
  6
CONTINUOUS
 10
68.5684056634
 20
156.1738380835
 11
71.2981824204
 21
156.1738380835
  0
LINE
  5
245
100
AcDbEntity
  8
0
100
AcDbLine
 62
7
  6
CONTINUOUS
 10
123.2016809964
 20
156.1738380835
 11
123.6872525816
 21
156.1738380835
  0
LINE
  5
246
100
AcDbEntity
  8
RUNDUNGEN
100
AcDbLine
 62
7
  6
CONTINUOUS
 10
54.2016809964
 20
156.4238380835
 11
65.441166079
 21
156.4238380835
  0
LINE
  5
247
100
AcDbEntity
  8
0
100
AcDbLine
 62
7
  6
CONTINUOUS
 10
110.2016809964
 20
147.9238380835
 11
110.2016809964
 21
150.6738380835
  0
LINE
  5
248
100
AcDbEntity
  8
0
100
AcDbLine
 62
7
  6
CONTINUOUS
 10
110.2016809964
 20
156.1738380835
 11
110.2016809964
 21
158.9238380835
  0
LINE
  5
249
100
AcDbEntity
  8
RUNDUNGEN
100
AcDbLine
 62
7
  6
CONTINUOUS
 10
74.973411461
 20
158.4238380835
 11
83.573411461
 21
158.4238380835
  0
LINE
  5
24A
100
AcDbEntity
  8
RUNDUNGEN
100
AcDbLine
 62
7
  6
CONTINUOUS
 10
95.8491142892
 20
158.92383826
 11
85.064123446
 21
158.9238380835
  0
LINE
  5
24B
100
AcDbEntity
  8
RUNDUNGEN
100
AcDbLine
 62
7
  6
CONTINUOUS
 10
106.7016809964
 20
158.9238380835
 11
114.1039389213
 21
158.9238380835
  0
LINE
  5
24C
100
AcDbEntity
  8
RUNDUNGEN
100
AcDbLine
 62
7
  6
CONTINUOUS
 10
119.2994230716
 20
158.9238380835
 11
126.7016809964
 21
158.9238380835
  0
LINE
  5
24D
100
AcDbEntity
  8
RUNDUNGEN
100
AcDbLine
 62
7
  6
CONTINUOUS
 10
131.7016809964
 20
158.9238380835
 11
139.1039389213
 21
158.9238380835
  0
LINE
  5
24E
100
AcDbEntity
  8
RUNDUNGEN
100
AcDbLine
 62
7
  6
CONTINUOUS
 10
144.2994230716
 20
158.9238380835
 11
151.7016809964
 21
158.9238380835
  0
LINE
  5
24F
100
AcDbEntity
  8
RUNDUNGEN
100
AcDbLine
 62
7
  6
CONTINUOUS
 10
73.482699476
 20
158.9238380835
 11
65.1217707315
 21
158.9238370422
  0
LINE
  5
250
100
AcDbEntity
  8
0
100
AcDbLine
 62
7
  6
CONTINUOUS
 10
73.8553774722
 20
159.4238380835
 11
84.6914454497
 21
159.4238380835
  0
LINE
  5
251
100
AcDbEntity
  8
0
100
AcDbLine
 62
7
  6
CONTINUOUS
 10
95.3855157359
 20
159.4238380835
 11
106.2016809964
 21
159.4238380835
  0
LINE
  5
252
100
AcDbEntity
  8
0
100
AcDbLine
 62
7
  6
CONTINUOUS
 10
126.2016809964
 20
159.4238380835
 11
132.2016809964
 21
159.4238380835
  0
LINE
  5
253
100
AcDbEntity
  8
RUNDUNGEN
100
AcDbLine
 62
7
  6
CONTINUOUS
 10
55.2016809964
 20
159.4238380835
 11
154.2016809964
 21
159.4238380835
  0
LINE
  5
254
100
AcDbEntity
  8
0
100
AcDbLine
 62
7
  6
CONTINUOUS
 10
151.2016809964
 20
159.4238380835
 11
154.2016809964
 21
159.4238380835
  0
LINE
  5
255
100
AcDbEntity
  8
0
100
AcDbLine
 62
7
  6
CONTINUOUS
 10
123.2016809964
 20
147.9238380835
 11
123.2016809964
 21
150.6738380835
  0
LINE
  5
256
100
AcDbEntity
  8
0
100
AcDbLine
 62
7
  6
CONTINUOUS
 10
123.2016809964
 20
156.1738380835
 11
123.2016809964
 21
158.9238380835
  0
LINE
  5
257
100
AcDbEntity
  8
RUNDUNGEN
100
AcDbLine
 62
7
  6
CONTINUOUS
 10
126.7016809964
 20
147.9238380835
 11
126.7016809964
 21
150.9238380835
  0
LINE
  5
258
100
AcDbEntity
  8
RUNDUNGEN
100
AcDbLine
 62
7
  6
CONTINUOUS
 10
126.7016809964
 20
155.9238380835
 11
126.7016809964
 21
158.9238380835
  0
LINE
  5
259
100
AcDbEntity
  8
RUNDUNGEN
100
AcDbLine
 62
7
  6
CONTINUOUS
 10
127.2016809964
 20
159.4238380835
 11
127.2016809964
 21
155.7315303912
  0
LINE
  5
25A
100
AcDbEntity
  8
RUNDUNGEN
100
AcDbLine
 62
7
  6
CONTINUOUS
 10
127.2016809964
 20
151.1161457758
 11
127.2016809964
 21
147.4238380835
  0
LINE
  5
25B
100
AcDbEntity
  8
RUNDUNGEN
100
AcDbLine
 62
7
  6
CONTINUOUS
 10
131.2016809964
 20
147.4238380835
 11
131.2016809964
 21
151.1161457758
  0
LINE
  5
25C
100
AcDbEntity
  8
RUNDUNGEN
100
AcDbLine
 62
7
  6
CONTINUOUS
 10
131.2016809964
 20
155.7315303912
 11
131.2016809964
 21
159.4238380835
  0
LINE
  5
25D
100
AcDbEntity
  8
RUNDUNGEN
100
AcDbLine
 62
7
  6
CONTINUOUS
 10
131.7016809964
 20
147.9238380835
 11
131.7016809964
 21
150.9238380835
  0
LINE
  5
25E
100
AcDbEntity
  8
RUNDUNGEN
100
AcDbLine
 62
7
  6
CONTINUOUS
 10
131.7016809964
 20
155.9238380835
 11
131.7016809964
 21
158.9238380835
  0
LINE
  5
25F
100
AcDbEntity
  8
0
100
AcDbLine
 62
7
  6
CONTINUOUS
 10
135.2016809964
 20
147.9238380835
 11
135.2016809964
 21
150.6738380835
  0
LINE
  5
260
100
AcDbEntity
  8
0
100
AcDbLine
 62
7
  6
CONTINUOUS
 10
135.2016809964
 20
156.1738380835
 11
135.2016809964
 21
158.9238380835
  0
LINE
  5
261
100
AcDbEntity
  8
0
100
AcDbLine
 62
7
  6
CONTINUOUS
 10
148.2016809964
 20
147.9238380835
 11
148.2016809964
 21
150.6738380835
  0
LINE
  5
262
100
AcDbEntity
  8
0
100
AcDbLine
 62
7
  6
CONTINUOUS
 10
148.2016809964
 20
156.1738380835
 11
148.2016809964
 21
158.9238380835
  0
LINE
  5
263
100
AcDbEntity
  8
RUNDUNGEN
100
AcDbLine
 62
7
  6
CONTINUOUS
 10
151.7016809964
 20
147.9238380835
 11
151.7016809964
 21
150.9238380835
  0
LINE
  5
264
100
AcDbEntity
  8
RUNDUNGEN
100
AcDbLine
 62
7
  6
CONTINUOUS
 10
151.7016809964
 20
155.9238380835
 11
151.7016809964
 21
158.9238380835
  0
LINE
  5
265
100
AcDbEntity
  8
RUNDUNGEN
100
AcDbLine
 62
7
  6
CONTINUOUS
 10
152.2016809964
 20
159.4238380835
 11
152.2016809964
 21
155.7315303912
  0
LINE
  5
266
100
AcDbEntity
  8
RUNDUNGEN
100
AcDbLine
 62
7
  6
CONTINUOUS
 10
152.2016809964
 20
151.1161457758
 11
152.2016809964
 21
147.4238380835
  0
LINE
  5
267
100
AcDbEntity
  8
0
100
AcDbLine
 62
7
  6
CONTINUOUS
 10
154.2016809964
 20
159.4238380835
 11
154.2016809964
 21
147.4238380835
  0
LINE
  5
268
100
AcDbEntity
  8
RUNDUNGEN
100
AcDbLine
 62
7
  6
CONTINUOUS
 10
207.4341727464
 20
150.4238380835
 11
207.4341727464
 21
156.4238380835
  0
LINE
  5
269
100
AcDbEntity
  8
RUNDUNGEN
100
AcDbLine
 62
7
  6
CONTINUOUS
 10
208.4341727464
 20
150.4238380835
 11
208.4341727464
 21
156.4238380835
  0
LINE
  5
26A
100
AcDbEntity
  8
RUNDUNGEN
100
AcDbLine
 62
7
  6
CONTINUOUS
 10
210.4341727464
 20
159.4238380835
 11
210.4341727464
 21
158.4238380835
  0
LINE
  5
26B
100
AcDbEntity
  8
RUNDUNGEN
100
AcDbLine
 62
7
  6
CONTINUOUS
 10
210.4341727464
 20
147.4238380835
 11
210.4341727464
 21
148.4238380835
  0
LINE
  5
26C
100
AcDbEntity
  8
RUNDUNGEN
100
AcDbLine
 62
7
  6
CONTINUOUS
 10
220.4341727464
 20
159.4238380835
 11
220.4341727464
 21
158.4238380835
  0
LINE
  5
26D
100
AcDbEntity
  8
RUNDUNGEN
100
AcDbLine
 62
7
  6
CONTINUOUS
 10
220.4341727464
 20
147.4238380835
 11
220.4341727464
 21
148.4238380835
  0
LINE
  5
26E
100
AcDbEntity
  8
RUNDUNGEN
100
AcDbLine
 62
7
  6
CONTINUOUS
 10
210.4341727464
 20
147.4238380835
 11
245.434172751
 21
147.4238380835
  0
LINE
  5
26F
100
AcDbEntity
  8
RUNDUNGEN
100
AcDbLine
 62
7
  6
CONTINUOUS
 10
223.2145883306
 20
147.9238351491
 11
245.7675060798
 21
147.9238380835
  0
LINE
  5
270
100
AcDbEntity
  8
RUNDUNGEN
100
AcDbLine
 62
7
  6
CONTINUOUS
 10
222.4341727464
 20
156.4238380835
 11
222.4341727464
 21
150.4238380835
  0
LINE
  5
271
100
AcDbEntity
  8
RUNDUNGEN
100
AcDbLine
 62
7
  6
CONTINUOUS
 10
220.4341727464
 20
148.4238380835
 11
210.4341727464
 21
148.4238380835
  0
LINE
  5
272
100
AcDbEntity
  8
RUNDUNGEN
100
AcDbLine
 62
7
  6
CONTINUOUS
 10
223.4341727464
 20
156.4238380835
 11
223.4341727464
 21
150.4238380835
  0
LINE
  5
273
100
AcDbEntity
  8
RUNDUNGEN
100
AcDbLine
 62
7
  6
CONTINUOUS
 10
224.0921526031
 20
156.4238380835
 11
224.0921526031
 21
150.4238380835
  0
LINE
  5
274
100
AcDbEntity
  8
RUNDUNGEN
100
AcDbLine
 62
7
  6
CONTINUOUS
 10
207.4341727464
 20
150.4238380835
 11
208.4341727464
 21
150.4238380835
  0
LINE
  5
275
100
AcDbEntity
  8
RUNDUNGEN
100
AcDbLine
 62
7
  6
CONTINUOUS
 10
222.4341727464
 20
150.4238380835
 11
224.0921526031
 21
150.4238380835
  0
LINE
  5
276
100
AcDbEntity
  8
0
100
AcDbLine
 62
7
  6
CONTINUOUS
 10
240.1841727464
 20
150.6738380835
 11
232.6841727464
 21
150.6738380835
  0
LINE
  5
277
100
AcDbEntity
  8
0
100
AcDbLine
 62
7
  6
CONTINUOUS
 10
232.6841727464
 20
156.1738380835
 11
240.1841727464
 21
156.1738380835
  0
LINE
  5
278
100
AcDbEntity
  8
RUNDUNGEN
100
AcDbLine
 62
7
  6
CONTINUOUS
 10
207.4341727464
 20
156.4238380835
 11
208.4341727464
 21
156.4238380835
  0
LINE
  5
279
100
AcDbEntity
  8
RUNDUNGEN
100
AcDbLine
 62
7
  6
CONTINUOUS
 10
222.4341727464
 20
156.4238380835
 11
224.0921526031
 21
156.4238380835
  0
LINE
  5
27A
100
AcDbEntity
  8
RUNDUNGEN
100
AcDbLine
 62
7
  6
CONTINUOUS
 10
210.4341727464
 20
158.4238380835
 11
220.4341727464
 21
158.4238380835
  0
LINE
  5
27B
100
AcDbEntity
  8
RUNDUNGEN
100
AcDbLine
 62
7
  6
CONTINUOUS
 10
245.7675060798
 20
158.9238380835
 11
223.2146210979
 21
158.9238370422
  0
LINE
  5
27C
100
AcDbEntity
  8
RUNDUNGEN
100
AcDbLine
 62
7
  6
CONTINUOUS
 10
210.4341727464
 20
159.4238380835
 11
245.4341727464
 21
159.4238380835
  0
LINE
  5
27D
100
AcDbEntity
  8
RUNDUNGEN
100
AcDbLine
 62
7
  6
CONTINUOUS
 10
245.1182130331
 20
147.9238380835
 11
245.1182130331
 21
158.9238380835
  0
LINE
  5
27E
100
AcDbEntity
  8
RUNDUNGEN
100
AcDbLine
 62
7
  6
CONTINUOUS
 10
246.4341727464
 20
148.4238380835
 11
246.4341727464
 21
158.4238380835
  0
LINE
  5
27F
100
AcDbEntity
  8
RUNDUNGEN
100
AcDbLine
 62
7
  6
CONTINUOUS
 10
54.2016809964
 20
95.1537358568
 11
54.2016809964
 21
81.1537358568
  0
LINE
  5
280
100
AcDbEntity
  8
RUNDUNGEN
100
AcDbLine
 62
7
  6
CONTINUOUS
 10
55.2016809964
 20
96.1537358568
 11
55.2016809964
 21
80.1537358568
  0
LINE
  5
281
100
AcDbEntity
  8
RUNDUNGEN
100
AcDbLine
 62
7
  6
CONTINUOUS
 10
73.0940262194
 20
58.4696955702
 11
65.1217737464
 21
80.3732792219
  0
LINE
  5
282
100
AcDbEntity
  8
RUNDUNGEN
100
AcDbLine
 62
7
  6
CONTINUOUS
 10
73.5638725298
 20
58.6407056418
 11
65.5916162213
 21
80.5442888445
  0
LINE
  5
283
100
AcDbEntity
  8
RUNDUNGEN
100
AcDbLine
 62
7
  6
CONTINUOUS
 10
74.723411461
 20
73.6537358568
 11
74.7234114613
 21
74.1537358568
  0
LINE
  5
284
100
AcDbEntity
  8
RUNDUNGEN
100
AcDbLine
 62
7
  6
CONTINUOUS
 10
65.8754730473
 20
93.1537358568
 11
66.3453193576
 21
93.3247459285
  0
LINE
  5
285
100
AcDbEntity
  8
RUNDUNGEN
100
AcDbLine
 62
7
  6
CONTINUOUS
 10
72.374179909
 20
75.2986854985
 11
65.8754730473
 21
93.1537358568
  0
LINE
  5
286
100
AcDbEntity
  8
RUNDUNGEN
100
AcDbLine
 62
7
  6
CONTINUOUS
 10
72.8440262194
 20
75.4696955702
 11
65.435393772
 21
95.8247459285
  0
LINE
  5
287
100
AcDbEntity
  8
RUNDUNGEN
100
AcDbLine
 62
7
  6
CONTINUOUS
 10
85.0641234458
 20
57.8204025233
 11
84.6914454519
 21
58.1537358622
  0
LINE
  5
288
100
AcDbEntity
  8
RUNDUNGEN
100
AcDbLine
 62
7
  6
CONTINUOUS
 10
85.4277791701
 20
58.40452267
 11
84.9641872428
 21
58.5918259667
  0
LINE
  5
289
100
AcDbEntity
  8
RUNDUNGEN
100
AcDbLine
 62
7
  6
CONTINUOUS
 10
83.673411461
 20
73.6537358568
 11
83.673411461
 21
74.1537358568
  0
LINE
  5
28A
100
AcDbEntity
  8
RUNDUNGEN
100
AcDbLine
 62
7
  6
CONTINUOUS
 10
74.973411461
 20
57.1537358568
 11
83.573411461
 21
57.1537358568
  0
LINE
  5
28B
100
AcDbEntity
  8
RUNDUNGEN
100
AcDbLine
 62
7
  6
CONTINUOUS
 10
73.8553774722
 20
58.1537358568
 11
84.6914454497
 21
58.1537358568
  0
LINE
  5
28C
100
AcDbEntity
  8
RUNDUNGEN
100
AcDbLine
 62
7
  6
CONTINUOUS
 10
114.3037853579
 20
58.1537246723
 11
119.0995152177
 21
58.1536905194
  0
LINE
  5
28D
100
AcDbEntity
  8
RUNDUNGEN
100
AcDbLine
 62
7
  6
CONTINUOUS
 10
139.3037853579
 20
58.1537246723
 11
144.0995152177
 21
58.1536905194
  0
LINE
  5
28E
100
AcDbEntity
  8
RUNDUNGEN
100
AcDbLine
 62
7
  6
CONTINUOUS
 10
92.97661494
 20
93.8410381574
 11
85.5277791701
 21
75.40452267
  0
LINE
  5
28F
100
AcDbEntity
  8
RUNDUNGEN
100
AcDbLine
 62
7
  6
CONTINUOUS
 10
91.2180630277
 20
88.1537358568
 11
85.9913710974
 21
75.2172193733
  0
LINE
  5
290
100
AcDbEntity
  8
RUNDUNGEN
100
AcDbLine
 62
7
  6
CONTINUOUS
 10
65.1217737464
 20
80.3732792219
 11
65.591616221
 21
80.544288844
  0
LINE
  5
291
100
AcDbEntity
  8
RUNDUNGEN
100
AcDbLine
 62
7
  6
CONTINUOUS
 10
95.3855153806
 20
84.3855192586
 11
84.9641872428
 21
58.5918259667
  0
LINE
  5
292
100
AcDbEntity
  8
RUNDUNGEN
100
AcDbLine
 62
7
  6
CONTINUOUS
 10
95.8491142892
 20
84.1982322183
 11
85.4277791701
 21
58.40452267
  0
LINE
  5
293
100
AcDbEntity
  8
RUNDUNGEN
100
AcDbLine
 62
7
  6
CONTINUOUS
 10
144.7016809964
 20
63.1537358568
 11
144.2016809964
 21
63.1537358661
  0
LINE
  5
294
100
AcDbEntity
  8
RUNDUNGEN
100
AcDbLine
 62
7
  6
CONTINUOUS
 10
119.7016809964
 20
63.1537358568
 11
119.2016809964
 21
63.1537358661
  0
LINE
  5
295
100
AcDbEntity
  8
RUNDUNGEN
100
AcDbLine
 62
7
  6
CONTINUOUS
 10
113.7016809964
 20
63.1537358568
 11
114.2016809964
 21
63.1537358568
  0
LINE
  5
296
100
AcDbEntity
  8
RUNDUNGEN
100
AcDbLine
 62
7
  6
CONTINUOUS
 10
138.7016809964
 20
63.1537358568
 11
139.2016809964
 21
63.1537358568
  0
LINE
  5
297
100
AcDbEntity
  8
RUNDUNGEN
100
AcDbLine
 62
7
  6
CONTINUOUS
 10
148.2016809964
 20
63.6537358568
 11
147.7016809964
 21
63.6537358568
  0
LINE
  5
298
100
AcDbEntity
  8
RUNDUNGEN
100
AcDbLine
 62
7
  6
CONTINUOUS
 10
135.7016809964
 20
63.6537358568
 11
135.2016809964
 21
63.6537358595
  0
LINE
  5
299
100
AcDbEntity
  8
RUNDUNGEN
100
AcDbLine
 62
7
  6
CONTINUOUS
 10
123.2016809964
 20
63.6537358568
 11
122.7016809964
 21
63.6537358568
  0
LINE
  5
29A
100
AcDbEntity
  8
RUNDUNGEN
100
AcDbLine
 62
7
  6
CONTINUOUS
 10
110.7016809964
 20
63.6537358568
 11
110.2016809964
 21
63.6537358595
  0
LINE
  5
29B
100
AcDbEntity
  8
RUNDUNGEN
100
AcDbLine
 62
7
  6
CONTINUOUS
 10
72.374179909
 20
75.2986854985
 11
72.8440262194
 21
75.4696955702
  0
LINE
  5
29C
100
AcDbEntity
  8
RUNDUNGEN
100
AcDbLine
 62
7
  6
CONTINUOUS
 10
109.6394384206
 20
88.3247459285
 11
109.1695921102
 21
88.1537358568
  0
LINE
  5
29D
100
AcDbEntity
  8
RUNDUNGEN
100
AcDbLine
 62
7
  6
CONTINUOUS
 10
85.9913710974
 20
75.2172193733
 11
85.5277791701
 21
75.4045226699
  0
LINE
  5
29E
100
AcDbEntity
  8
RUNDUNGEN
100
AcDbLine
 62
7
  6
CONTINUOUS
 10
73.4826994763
 20
57.8204025231
 11
73.8553774722
 21
58.1537358568
  0
LINE
  5
29F
100
AcDbEntity
  8
RUNDUNGEN
100
AcDbLine
 62
7
  6
CONTINUOUS
 10
144.7016809964
 20
71.1537358568
 11
144.2016809964
 21
71.1537358568
  0
LINE
  5
2A0
100
AcDbEntity
  8
RUNDUNGEN
100
AcDbLine
 62
7
  6
CONTINUOUS
 10
119.7016809964
 20
71.1537358568
 11
119.2016809964
 21
71.1537358568
  0
LINE
  5
2A1
100
AcDbEntity
  8
RUNDUNGEN
100
AcDbLine
 62
7
  6
CONTINUOUS
 10
113.7016809964
 20
71.1537358568
 11
114.2016809964
 21
71.1537358476
  0
LINE
  5
2A2
100
AcDbEntity
  8
RUNDUNGEN
100
AcDbLine
 62
7
  6
CONTINUOUS
 10
138.7016809964
 20
71.1537358568
 11
139.2016809964
 21
71.1537358476
  0
LINE
  5
2A3
100
AcDbEntity
  8
RUNDUNGEN
100
AcDbLine
 62
7
  6
CONTINUOUS
 10
134.6394384206
 20
88.3247459285
 11
134.1695921102
 21
88.1537358568
  0
LINE
  5
2A4
100
AcDbEntity
  8
RUNDUNGEN
100
AcDbLine
 62
7
  6
CONTINUOUS
 10
83.673411461
 20
73.6537358568
 11
74.723411461
 21
73.6537358568
  0
LINE
  5
2A5
100
AcDbEntity
  8
RUNDUNGEN
100
AcDbLine
 62
7
  6
CONTINUOUS
 10
83.673411461
 20
74.1537358568
 11
74.7234114613
 21
74.1537358568
  0
LINE
  5
2A6
100
AcDbEntity
  8
RUNDUNGEN
100
AcDbLine
 62
7
  6
CONTINUOUS
 10
106.2016809964
 20
82.6152743184
 11
106.2016809964
 21
88.1537358568
  0
LINE
  5
2A7
100
AcDbEntity
  8
RUNDUNGEN
100
AcDbLine
 62
7
  6
CONTINUOUS
 10
106.7016809964
 20
82.1537358568
 11
106.7016809964
 21
85.6537358568
  0
LINE
  5
2A8
100
AcDbEntity
  8
RUNDUNGEN
100
AcDbLine
 62
7
  6
CONTINUOUS
 10
55.2016809964
 20
80.1537358568
 11
64.5014734582
 21
80.1537358568
  0
LINE
  5
2A9
100
AcDbEntity
  8
RUNDUNGEN
100
AcDbLine
 62
7
  6
CONTINUOUS
 10
95.8491077539
 20
84.198216043
 11
95.3855153806
 21
84.3855192586
  0
LINE
  5
2AA
100
AcDbEntity
  8
RUNDUNGEN
100
AcDbLine
 62
7
  6
CONTINUOUS
 10
106.7016809964
 20
82.1537358568
 11
110.2016809964
 21
69.0915580303
  0
LINE
  5
2AB
100
AcDbEntity
  8
RUNDUNGEN
100
AcDbLine
 62
7
  6
CONTINUOUS
 10
109.2016809964
 20
81.1537358568
 11
109.2016809964
 21
88.0655723665
  0
LINE
  5
2AC
100
AcDbEntity
  8
RUNDUNGEN
100
AcDbLine
 62
7
  6
CONTINUOUS
 10
109.7016809964
 20
81.1537358568
 11
109.7016809964
 21
88.1537358568
  0
LINE
  5
2AD
100
AcDbEntity
  8
RUNDUNGEN
100
AcDbLine
 62
7
  6
CONTINUOUS
 10
110.2016809964
 20
69.0915580303
 11
110.2016809964
 21
63.6537358568
  0
LINE
  5
2AE
100
AcDbEntity
  8
RUNDUNGEN
100
AcDbLine
 62
7
  6
CONTINUOUS
 10
110.7016809964
 20
69.1573842791
 11
110.7016809964
 21
63.6537358568
  0
LINE
  5
2AF
100
AcDbEntity
  8
RUNDUNGEN
100
AcDbLine
 62
7
  6
CONTINUOUS
 10
73.0940262194
 20
58.4696955702
 11
73.5638725298
 21
58.6407056418
  0
LINE
  5
2B0
100
AcDbEntity
  8
RUNDUNGEN
100
AcDbLine
 62
7
  6
CONTINUOUS
 10
109.2016809964
 20
81.1537358568
 11
109.7016809964
 21
81.1537358568
  0
LINE
  5
2B1
100
AcDbEntity
  8
RUNDUNGEN
100
AcDbLine
 62
7
  6
CONTINUOUS
 10
134.2016809964
 20
81.1537358568
 11
134.7016809964
 21
81.1537358568
  0
LINE
  5
2B2
100
AcDbEntity
  8
RUNDUNGEN
100
AcDbLine
 62
7
  6
CONTINUOUS
 10
149.2016809964
 20
81.1537358568
 11
148.7016809964
 21
81.1537358602
  0
LINE
  5
2B3
100
AcDbEntity
  8
RUNDUNGEN
100
AcDbLine
 62
7
  6
CONTINUOUS
 10
124.2016809964
 20
81.1537358568
 11
123.7016809964
 21
81.1537358602
  0
LINE
  5
2B4
100
AcDbEntity
  8
0
100
AcDbLine
 62
7
  6
CONTINUOUS
 10
95.6976079677
 20
82.1537358568
 11
106.3180173864
 21
82.1537358568
  0
LINE
  5
2B5
100
AcDbEntity
  8
0
100
AcDbLine
 62
7
  6
CONTINUOUS
 10
127.0853576825
 20
82.1537358568
 11
131.3180173865
 21
82.1537358568
  0
LINE
  5
2B6
100
AcDbEntity
  8
0
100
AcDbLine
 62
7
  6
CONTINUOUS
 10
152.0674278281
 20
82.1537358568
 11
154.2016809964
 21
82.1537358568
  0
LINE
  5
2B7
100
AcDbEntity
  8
RUNDUNGEN
100
AcDbLine
 62
7
  6
CONTINUOUS
 10
54.2016809964
 20
83.1537358568
 11
63.0455061211
 21
83.1538146746
  0
LINE
  5
2B8
100
AcDbEntity
  8
RUNDUNGEN
100
AcDbLine
 62
7
  6
CONTINUOUS
 10
91.2180630277
 20
88.1537358568
 11
90.7544711004
 21
88.3410391535
  0
LINE
  5
2B9
100
AcDbEntity
  8
RUNDUNGEN
100
AcDbLine
 62
7
  6
CONTINUOUS
 10
119.2994230741
 20
57.6954025246
 11
119.0995967615
 21
58.1537358618
  0
LINE
  5
2BA
100
AcDbEntity
  8
RUNDUNGEN
100
AcDbLine
 62
7
  6
CONTINUOUS
 10
106.7016809964
 20
84.0855875094
 11
110.7016809964
 21
69.1573842791
  0
LINE
  5
2BB
100
AcDbEntity
  8
RUNDUNGEN
100
AcDbLine
 62
7
  6
CONTINUOUS
 10
113.7016809964
 20
63.1537358568
 11
113.7016809964
 21
71.1537358568
  0
LINE
  5
2BC
100
AcDbEntity
  8
RUNDUNGEN
100
AcDbLine
 62
7
  6
CONTINUOUS
 10
114.2016809964
 20
63.1537358568
 11
114.2016809964
 21
71.1537358568
  0
LINE
  5
2BD
100
AcDbEntity
  8
RUNDUNGEN
100
AcDbLine
 62
7
  6
CONTINUOUS
 10
126.2016809964
 20
84.6896342417
 11
126.7016809964
 21
84.6896342417
  0
LINE
  5
2BE
100
AcDbEntity
  8
RUNDUNGEN
100
AcDbLine
 62
7
  6
CONTINUOUS
 10
151.2016809964
 20
84.6896342417
 11
151.7016809964
 21
84.6896342417
  0
LINE
  5
2BF
100
AcDbEntity
  8
RUNDUNGEN
100
AcDbLine
 62
7
  6
CONTINUOUS
 10
131.7016809964
 20
84.6896342417
 11
132.2016809962
 21
84.68963424
  0
LINE
  5
2C0
100
AcDbEntity
  8
RUNDUNGEN
100
AcDbLine
 62
7
  6
CONTINUOUS
 10
109.1695921102
 20
88.1537358568
 11
109.2016809964
 21
88.0655723665
  0
LINE
  5
2C1
100
AcDbEntity
  8
RUNDUNGEN
100
AcDbLine
 62
7
  6
CONTINUOUS
 10
107.6384807144
 20
93.8223320434
 11
109.7016809964
 21
88.1537358568
  0
LINE
  5
2C2
100
AcDbEntity
  8
RUNDUNGEN
100
AcDbLine
 62
7
  6
CONTINUOUS
 10
123.7016809964
 20
88.1537358568
 11
125.764879663
 21
93.8223276052
  0
LINE
  5
2C3
100
AcDbEntity
  8
RUNDUNGEN
100
AcDbLine
 62
7
  6
CONTINUOUS
 10
91.2180630277
 20
88.1537358568
 11
98.5257752563
 21
88.1537358568
  0
LINE
  5
2C4
100
AcDbEntity
  8
RUNDUNGEN
100
AcDbLine
 62
7
  6
CONTINUOUS
 10
106.2016809964
 20
88.1537358568
 11
109.1695921102
 21
88.1537358568
  0
LINE
  5
2C5
100
AcDbEntity
  8
RUNDUNGEN
100
AcDbLine
 62
7
  6
CONTINUOUS
 10
124.2337698827
 20
88.1537358568
 11
127.2016809964
 21
88.1537358568
  0
LINE
  5
2C6
100
AcDbEntity
  8
RUNDUNGEN
100
AcDbLine
 62
7
  6
CONTINUOUS
 10
131.2016809964
 20
88.1537358568
 11
134.1695921102
 21
88.1537358568
  0
LINE
  5
2C7
100
AcDbEntity
  8
RUNDUNGEN
100
AcDbLine
 62
7
  6
CONTINUOUS
 10
149.2337698827
 20
88.1537358568
 11
152.2016809964
 21
88.1537358568
  0
LINE
  5
2C8
100
AcDbEntity
  8
RUNDUNGEN
100
AcDbLine
 62
7
  6
CONTINUOUS
 10
119.2016809964
 20
71.1537358568
 11
119.2016809964
 21
63.1537358568
  0
LINE
  5
2C9
100
AcDbEntity
  8
RUNDUNGEN
100
AcDbLine
 62
7
  6
CONTINUOUS
 10
119.7016809964
 20
71.1537358568
 11
119.7016809964
 21
63.1537358568
  0
LINE
  5
2CA
100
AcDbEntity
  8
RUNDUNGEN
100
AcDbLine
 62
7
  6
CONTINUOUS
 10
124.2016809964
 20
88.0655723665
 11
124.2337698827
 21
88.1537358568
  0
LINE
  5
2CB
100
AcDbEntity
  8
RUNDUNGEN
100
AcDbLine
 62
7
  6
CONTINUOUS
 10
114.3037652348
 20
58.1537358568
 11
114.1039389255
 21
57.6954025217
  0
LINE
  5
2CC
100
AcDbEntity
  8
RUNDUNGEN
100
AcDbLine
 62
7
  6
CONTINUOUS
 10
65.8754730473
 20
93.1537358568
 11
54.2016809964
 21
93.1537358568
  0
LINE
  5
2CD
100
AcDbEntity
  8
0
100
AcDbLine
 62
7
  6
CONTINUOUS
 10
93.4400469199
 20
94.1537358568
 11
107.1761641999
 21
94.1537358568
  0
LINE
  5
2CE
100
AcDbEntity
  8
0
100
AcDbLine
 62
7
  6
CONTINUOUS
 10
126.2271952599
 20
94.1537358568
 11
132.1761641999
 21
94.1537358568
  0
LINE
  5
2CF
100
AcDbEntity
  8
0
100
AcDbLine
 62
7
  6
CONTINUOUS
 10
151.2271952599
 20
94.1537358568
 11
154.2016809964
 21
94.1537358568
  0
LINE
  5
2D0
100
AcDbEntity
  8
RUNDUNGEN
100
AcDbLine
 62
7
  6
CONTINUOUS
 10
123.7639235723
 20
88.3247459285
 11
124.2337698827
 21
88.1537358568
  0
LINE
  5
2D1
100
AcDbEntity
  8
RUNDUNGEN
100
AcDbLine
 62
7
  6
CONTINUOUS
 10
122.7016809964
 20
69.1573842791
 11
122.7016809964
 21
63.6537358568
  0
LINE
  5
2D2
100
AcDbEntity
  8
RUNDUNGEN
100
AcDbLine
 62
7
  6
CONTINUOUS
 10
123.2016809964
 20
69.0915580303
 11
123.2016809964
 21
63.6537358568
  0
LINE
  5
2D3
100
AcDbEntity
  8
RUNDUNGEN
100
AcDbLine
 62
7
  6
CONTINUOUS
 10
123.7016809964
 20
88.1537358568
 11
123.7016809964
 21
81.1537358568
  0
LINE
  5
2D4
100
AcDbEntity
  8
RUNDUNGEN
100
AcDbLine
 62
7
  6
CONTINUOUS
 10
124.2016809964
 20
88.0655723665
 11
124.2016809964
 21
81.1537358568
  0
LINE
  5
2D5
100
AcDbEntity
  8
RUNDUNGEN
100
AcDbLine
 62
7
  6
CONTINUOUS
 10
122.7016809964
 20
69.1573842791
 11
126.2016809964
 21
82.2195621056
  0
LINE
  5
2D6
100
AcDbEntity
  8
RUNDUNGEN
100
AcDbLine
 62
7
  6
CONTINUOUS
 10
123.2016809964
 20
69.0915580303
 11
126.7016809964
 21
82.1537358568
  0
LINE
  5
2D7
100
AcDbEntity
  8
RUNDUNGEN
100
AcDbLine
 62
7
  6
CONTINUOUS
 10
64.9655474616
 20
96.1537358568
 11
55.2016809964
 21
96.1537358568
  0
LINE
  5
2D8
100
AcDbEntity
  8
RUNDUNGEN
100
AcDbLine
 62
7
  6
CONTINUOUS
 10
126.2016809964
 20
82.2195621056
 11
126.2016809964
 21
84.6896342417
  0
LINE
  5
2D9
100
AcDbEntity
  8
RUNDUNGEN
100
AcDbLine
 62
7
  6
CONTINUOUS
 10
126.7016809964
 20
82.1537358568
 11
126.7016809964
 21
84.6896341612
  0
LINE
  5
2DA
100
AcDbEntity
  8
RUNDUNGEN
100
AcDbLine
 62
7
  6
CONTINUOUS
 10
127.2016809964
 20
88.1537358568
 11
127.2016809964
 21
82.6152743184
  0
LINE
  5
2DB
100
AcDbEntity
  8
RUNDUNGEN
100
AcDbLine
 62
7
  6
CONTINUOUS
 10
131.2016809964
 20
82.6152743184
 11
131.2016809964
 21
88.1537358568
  0
LINE
  5
2DC
100
AcDbEntity
  8
RUNDUNGEN
100
AcDbLine
 62
7
  6
CONTINUOUS
 10
131.7016809964
 20
82.1537358568
 11
131.7016809964
 21
84.6896342417
  0
LINE
  5
2DD
100
AcDbEntity
  8
RUNDUNGEN
100
AcDbLine
 62
7
  6
CONTINUOUS
 10
132.2016809964
 20
82.2195621056
 11
132.2016809964
 21
84.6896342417
  0
LINE
  5
2DE
100
AcDbEntity
  8
RUNDUNGEN
100
AcDbLine
 62
7
  6
CONTINUOUS
 10
148.7639235723
 20
88.3247459285
 11
149.2337698827
 21
88.1537358568
  0
LINE
  5
2DF
100
AcDbEntity
  8
RUNDUNGEN
100
AcDbLine
 62
7
  6
CONTINUOUS
 10
131.7016809964
 20
82.1537358568
 11
135.2016809964
 21
69.0915580303
  0
LINE
  5
2E0
100
AcDbEntity
  8
RUNDUNGEN
100
AcDbLine
 62
7
  6
CONTINUOUS
 10
132.2016809964
 20
82.2195621056
 11
135.7016809964
 21
69.1573842791
  0
LINE
  5
2E1
100
AcDbEntity
  8
RUNDUNGEN
100
AcDbLine
 62
7
  6
CONTINUOUS
 10
134.2016809964
 20
81.1537358568
 11
134.2016809964
 21
88.0655723665
  0
LINE
  5
2E2
100
AcDbEntity
  8
RUNDUNGEN
100
AcDbLine
 62
7
  6
CONTINUOUS
 10
134.7016809964
 20
81.1537358568
 11
134.7016809964
 21
88.1537358568
  0
LINE
  5
2E3
100
AcDbEntity
  8
RUNDUNGEN
100
AcDbLine
 62
7
  6
CONTINUOUS
 10
135.2016809964
 20
69.0915580303
 11
135.2016809964
 21
63.6537358568
  0
LINE
  5
2E4
100
AcDbEntity
  8
RUNDUNGEN
100
AcDbLine
 62
7
  6
CONTINUOUS
 10
135.7016809964
 20
69.1573842791
 11
135.7016809964
 21
63.6537358568
  0
LINE
  5
2E5
100
AcDbEntity
  8
RUNDUNGEN
100
AcDbLine
 62
7
  6
CONTINUOUS
 10
144.2994230741
 20
57.6954025246
 11
144.0995967615
 21
58.1537358618
  0
LINE
  5
2E6
100
AcDbEntity
  8
RUNDUNGEN
100
AcDbLine
 62
7
  6
CONTINUOUS
 10
134.1695921102
 20
88.1537358568
 11
134.2016809964
 21
88.0655723665
  0
LINE
  5
2E7
100
AcDbEntity
  8
RUNDUNGEN
100
AcDbLine
 62
7
  6
CONTINUOUS
 10
132.6384807144
 20
93.8223320434
 11
134.7016809964
 21
88.1537358568
  0
LINE
  5
2E8
100
AcDbEntity
  8
RUNDUNGEN
100
AcDbLine
 62
7
  6
CONTINUOUS
 10
138.7016809964
 20
63.1537358568
 11
138.7016809964
 21
71.1537358568
  0
LINE
  5
2E9
100
AcDbEntity
  8
RUNDUNGEN
100
AcDbLine
 62
7
  6
CONTINUOUS
 10
139.2016809964
 20
63.1537358568
 11
139.2016809964
 21
71.1537358568
  0
LINE
  5
2EA
100
AcDbEntity
  8
RUNDUNGEN
100
AcDbLine
 62
7
  6
CONTINUOUS
 10
148.7016809964
 20
88.1537358568
 11
150.764879663
 21
93.8223276052
  0
LINE
  5
2EB
100
AcDbEntity
  8
RUNDUNGEN
100
AcDbLine
 62
7
  6
CONTINUOUS
 10
149.2016809964
 20
88.0655723665
 11
149.2337698827
 21
88.1537358568
  0
LINE
  5
2EC
100
AcDbEntity
  8
RUNDUNGEN
100
AcDbLine
 62
7
  6
CONTINUOUS
 10
139.3037652348
 20
58.1537358568
 11
139.1039389255
 21
57.6954025217
  0
LINE
  5
2ED
100
AcDbEntity
  8
RUNDUNGEN
100
AcDbLine
 62
7
  6
CONTINUOUS
 10
144.2016809964
 20
71.1537358568
 11
144.2016809964
 21
63.1537358568
  0
LINE
  5
2EE
100
AcDbEntity
  8
RUNDUNGEN
100
AcDbLine
 62
7
  6
CONTINUOUS
 10
144.7016809964
 20
71.1537358568
 11
144.7016809964
 21
63.1537358568
  0
LINE
  5
2EF
100
AcDbEntity
  8
RUNDUNGEN
100
AcDbLine
 62
7
  6
CONTINUOUS
 10
147.7016809964
 20
71.2313639112
 11
151.2016809964
 21
82.2313639112
  0
LINE
  5
2F0
100
AcDbEntity
  8
RUNDUNGEN
100
AcDbLine
 62
7
  6
CONTINUOUS
 10
147.7016809964
 20
71.2313639112
 11
147.7016809964
 21
63.6537358568
  0
LINE
  5
2F1
100
AcDbEntity
  8
RUNDUNGEN
100
AcDbLine
 62
7
  6
CONTINUOUS
 10
148.2016809964
 20
71.1537358568
 11
148.2016809964
 21
63.6537358568
  0
LINE
  5
2F2
100
AcDbEntity
  8
RUNDUNGEN
100
AcDbLine
 62
7
  6
CONTINUOUS
 10
148.7016809964
 20
88.1537358568
 11
148.7016809964
 21
81.1537358568
  0
LINE
  5
2F3
100
AcDbEntity
  8
RUNDUNGEN
100
AcDbLine
 62
7
  6
CONTINUOUS
 10
149.2016809964
 20
88.0655723665
 11
149.2016809964
 21
81.1537358568
  0
LINE
  5
2F4
100
AcDbEntity
  8
RUNDUNGEN
100
AcDbLine
 62
7
  6
CONTINUOUS
 10
148.2016809964
 20
71.1537358568
 11
151.7016809964
 21
82.1537358568
  0
LINE
  5
2F5
100
AcDbEntity
  8
RUNDUNGEN
100
AcDbLine
 62
7
  6
CONTINUOUS
 10
151.2016809964
 20
82.2313639112
 11
151.2016809964
 21
84.6896342417
  0
LINE
  5
2F6
100
AcDbEntity
  8
RUNDUNGEN
100
AcDbLine
 62
7
  6
CONTINUOUS
 10
151.7016809964
 20
82.1537358568
 11
151.7016809964
 21
84.6896341612
  0
LINE
  5
2F7
100
AcDbEntity
  8
RUNDUNGEN
100
AcDbLine
 62
7
  6
CONTINUOUS
 10
152.2016809964
 20
88.1537358568
 11
152.2016809964
 21
82.6152743184
  0
LINE
  5
2F8
100
AcDbEntity
  8
0
100
AcDbLine
 62
7
  6
CONTINUOUS
 10
154.2016809964
 20
82.1540056342
 11
154.2016809964
 21
94.1534660794
  0
ARC
  5
2F9
100
AcDbEntity
  8
RUNDUNGEN
100
AcDbCircle
 62
7
  6
CONTINUOUS
 10
55.2016809964
 20
158.4238380835
 40
1.0
100
AcDbArc
 50
90.0
 51
180.0
  0
ARC
  5
2FA
100
AcDbEntity
  8
RUNDUNGEN
100
AcDbCircle
 62
7
  6
CONTINUOUS
 10
55.2016809964
 20
148.4238380835
 40
1.0
100
AcDbArc
 50
180.0
 51
270.0
  0
ARC
  5
2FB
100
AcDbEntity
  8
RUNDUNGEN
100
AcDbCircle
 62
7
  6
CONTINUOUS
 10
110.7016809964
 20
147.9238380835
 40
0.5
100
AcDbArc
 50
180.0
 51
270.0
  0
ARC
  5
2FC
100
AcDbEntity
  8
RUNDUNGEN
100
AcDbCircle
 62
7
  6
CONTINUOUS
 10
110.7016809964
 20
158.9238380835
 40
0.5
100
AcDbArc
 50
90.0
 51
180.0
  0
ARC
  5
2FD
100
AcDbEntity
  8
RUNDUNGEN
100
AcDbCircle
 62
7
  6
CONTINUOUS
 10
147.7016809964
 20
147.9238380835
 40
0.5
100
AcDbArc
 50
270.0
 51
360.0
  0
ARC
  5
2FE
100
AcDbEntity
  8
RUNDUNGEN
100
AcDbCircle
 62
7
  6
CONTINUOUS
 10
135.7016809964
 20
158.9238380835
 40
0.5
100
AcDbArc
 50
90.0
 51
180.0
  0
ARC
  5
2FF
100
AcDbEntity
  8
RUNDUNGEN
100
AcDbCircle
 62
7
  6
CONTINUOUS
 10
60.0516809964
 20
150.0238380835
 40
0.5
100
AcDbArc
 50
201.072416186
 51
270.0
  0
ARC
  5
300
100
AcDbEntity
  8
RUNDUNGEN
100
AcDbCircle
 62
7
  6
CONTINUOUS
 10
56.4516809964
 20
150.0238380835
 40
0.5
100
AcDbArc
 50
270.0
 51
338.9275888304
  0
ARC
  5
301
100
AcDbEntity
  8
RUNDUNGEN
100
AcDbCircle
 62
7
  6
CONTINUOUS
 10
122.7016809964
 20
147.9238380835
 40
0.5
100
AcDbArc
 50
270.0
 51
360.0
  0
ARC
  5
302
100
AcDbEntity
  8
RUNDUNGEN
100
AcDbCircle
 62
7
  6
CONTINUOUS
 10
126.2016809964
 20
147.9238380835
 40
0.5
100
AcDbArc
 50
270.0
 51
360.0
  0
ARC
  5
303
100
AcDbEntity
  8
RUNDUNGEN
100
AcDbCircle
 62
7
  6
CONTINUOUS
 10
122.7016809964
 20
158.9238380835
 40
0.5
100
AcDbArc
 50
0.0
 51
90.0
  0
ARC
  5
304
100
AcDbEntity
  8
RUNDUNGEN
100
AcDbCircle
 62
7
  6
CONTINUOUS
 10
126.2016809964
 20
158.9238380835
 40
0.5
100
AcDbArc
 50
0.0
 51
90.0
  0
ARC
  5
305
100
AcDbEntity
  8
RUNDUNGEN
100
AcDbCircle
 62
7
  6
CONTINUOUS
 10
151.2016809964
 20
147.9238380835
 40
0.5
100
AcDbArc
 50
270.0
 51
360.0
  0
ARC
  5
306
100
AcDbEntity
  8
RUNDUNGEN
100
AcDbCircle
 62
7
  6
CONTINUOUS
 10
135.7016809964
 20
147.9238380835
 40
0.5
100
AcDbArc
 50
180.0
 51
270.0
  0
ARC
  5
307
100
AcDbEntity
  8
RUNDUNGEN
100
AcDbCircle
 62
7
  6
CONTINUOUS
 10
132.2016809964
 20
147.9238380835
 40
0.5
100
AcDbArc
 50
180.0
 51
270.0
  0
ARC
  5
308
100
AcDbEntity
  8
RUNDUNGEN
100
AcDbCircle
 62
7
  6
CONTINUOUS
 10
132.2016809964
 20
158.9238380835
 40
0.5
100
AcDbArc
 50
90.0
 51
180.0
  0
ARC
  5
309
100
AcDbEntity
  8
RUNDUNGEN
100
AcDbCircle
 62
7
  6
CONTINUOUS
 10
147.7016809964
 20
158.9238380835
 40
0.5
100
AcDbArc
 50
0.0
 51
90.0
  0
ARC
  5
30A
100
AcDbEntity
  8
RUNDUNGEN
100
AcDbCircle
 62
7
  6
CONTINUOUS
 10
151.2016809964
 20
158.9238380835
 40
0.5
100
AcDbArc
 50
0.0
 51
90.0
  0
ARC
  5
30B
100
AcDbEntity
  8
RUNDUNGEN
100
AcDbCircle
 62
7
  6
CONTINUOUS
 10
56.4516809964
 20
150.0238380835
 40
0.3
100
AcDbArc
 50
270.0
 51
323.0352618984
  0
ARC
  5
30C
100
AcDbEntity
  8
RUNDUNGEN
100
AcDbCircle
 62
7
  6
CONTINUOUS
 10
60.0516809964
 20
150.0238380835
 40
0.3
100
AcDbArc
 50
216.9661069513
 51
270.0
  0
ARC
  5
30D
100
AcDbEntity
  8
RUNDUNGEN
100
AcDbCircle
 62
7
  6
CONTINUOUS
 10
56.4016809964
 20
149.3238380835
 40
0.2
100
AcDbArc
 50
90.0
 51
180.0
  0
ARC
  5
30E
100
AcDbEntity
  8
RUNDUNGEN
100
AcDbCircle
 62
7
  6
CONTINUOUS
 10
60.1016809964
 20
149.3238380835
 40
0.2
100
AcDbArc
 50
0.0
 51
90.0
  0
ARC
  5
30F
100
AcDbEntity
  8
RUNDUNGEN
100
AcDbCircle
 62
7
  6
CONTINUOUS
 10
220.092066443
 20
150.423944419
 40
4.0000861616
100
AcDbArc
 50
321.3167956621
 51
359.9984768899
  0
ARC
  5
310
100
AcDbEntity
  8
RUNDUNGEN
100
AcDbCircle
 62
7
  6
CONTINUOUS
 10
210.4341727464
 20
150.4238380835
 40
3.0
100
AcDbArc
 50
180.0
 51
270.0
  0
ARC
  5
311
100
AcDbEntity
  8
RUNDUNGEN
100
AcDbCircle
 62
7
  6
CONTINUOUS
 10
220.4341727464
 20
150.4238380835
 40
3.0
100
AcDbArc
 50
270.0
 51
360.0
  0
ARC
  5
312
100
AcDbEntity
  8
RUNDUNGEN
100
AcDbCircle
 62
7
  6
CONTINUOUS
 10
220.4341727464
 20
150.4238380835
 40
2.0
100
AcDbArc
 50
270.0
 51
360.0
  0
ARC
  5
313
100
AcDbEntity
  8
RUNDUNGEN
100
AcDbCircle
 62
7
  6
CONTINUOUS
 10
210.4341727464
 20
150.4238380835
 40
2.0
100
AcDbArc
 50
180.0
 51
270.0
  0
ARC
  5
314
100
AcDbEntity
  8
RUNDUNGEN
100
AcDbCircle
 62
7
  6
CONTINUOUS
 10
220.0923723928
 20
156.4238760914
 40
3.9997802105
100
AcDbArc
 50
359.9994555467
 51
38.6839916679
  0
ARC
  5
315
100
AcDbEntity
  8
RUNDUNGEN
100
AcDbCircle
 62
7
  6
CONTINUOUS
 10
210.4341727464
 20
156.4238380835
 40
3.0
100
AcDbArc
 50
90.0
 51
180.0
  0
ARC
  5
316
100
AcDbEntity
  8
RUNDUNGEN
100
AcDbCircle
 62
7
  6
CONTINUOUS
 10
220.4341727464
 20
156.4238380835
 40
3.0
100
AcDbArc
 50
0.0
 51
90.0
  0
CIRCLE
  5
317
100
AcDbEntity
  8
0
100
AcDbCircle
 62
7
  6
CONTINUOUS
 10
215.4341727464
 20
153.4238380835
 40
2.7
  0
ARC
  5
318
100
AcDbEntity
  8
RUNDUNGEN
100
AcDbCircle
 62
7
  6
CONTINUOUS
 10
220.4341727464
 20
156.4238380835
 40
2.0
100
AcDbArc
 50
0.0
 51
90.0
  0
ARC
  5
319
100
AcDbEntity
  8
RUNDUNGEN
100
AcDbCircle
 62
7
  6
CONTINUOUS
 10
210.4341727464
 20
156.4238380835
 40
2.0
100
AcDbArc
 50
90.0
 51
180.0
  0
ARC
  5
31A
100
AcDbEntity
  8
RUNDUNGEN
100
AcDbCircle
 62
7
  6
CONTINUOUS
 10
245.4341727464
 20
148.4238380835
 40
1.0
100
AcDbArc
 50
270.0
 51
360.0
  0
ARC
  5
31B
100
AcDbEntity
  8
0
100
AcDbCircle
 62
7
  6
CONTINUOUS
 10
240.1841727464
 20
153.4238380835
 40
2.75
100
AcDbArc
 50
270.0
 51
90.0
  0
ARC
  5
31C
100
AcDbEntity
  8
0
100
AcDbCircle
 62
7
  6
CONTINUOUS
 10
232.6841727464
 20
153.4238380835
 40
2.75
100
AcDbArc
 50
90.0
 51
270.0
  0
ARC
  5
31D
100
AcDbEntity
  8
RUNDUNGEN
100
AcDbCircle
 62
7
  6
CONTINUOUS
 10
245.4341727464
 20
158.4238380835
 40
1.0
100
AcDbArc
 50
0.0
 51
90.0
  0
ARC
  5
31E
100
AcDbEntity
  8
RUNDUNGEN
100
AcDbCircle
 62
7
  6
CONTINUOUS
 10
74.973411461
 20
59.1537358568
 40
2.0
100
AcDbArc
 50
200.0
 51
270.0
  0
ARC
  5
31F
100
AcDbEntity
  8
RUNDUNGEN
100
AcDbCircle
 62
7
  6
CONTINUOUS
 10
74.973411461
 20
59.1537358568
 40
1.5
100
AcDbArc
 50
200.0
 51
221.8103148958
  0
ARC
  5
320
100
AcDbEntity
  8
RUNDUNGEN
100
AcDbCircle
 62
7
  6
CONTINUOUS
 10
74.723411461
 20
76.1537358568
 40
2.5
100
AcDbArc
 50
200.0
 51
270.0
  0
ARC
  5
321
100
AcDbEntity
  8
RUNDUNGEN
100
AcDbCircle
 62
7
  6
CONTINUOUS
 10
74.723411461
 20
76.1537358568
 40
2.0
100
AcDbArc
 50
200.0
 51
270.0
  0
ARC
  5
322
100
AcDbEntity
  8
RUNDUNGEN
100
AcDbCircle
 62
7
  6
CONTINUOUS
 10
83.573411461
 20
59.1537358568
 40
2.0
100
AcDbArc
 50
270.0
 51
338.0
  0
ARC
  5
323
100
AcDbEntity
  8
RUNDUNGEN
100
AcDbCircle
 62
7
  6
CONTINUOUS
 10
83.573411461
 20
59.1537358568
 40
1.5
100
AcDbArc
 50
318.1896851042
 51
338.0
  0
ARC
  5
324
100
AcDbEntity
  8
RUNDUNGEN
100
AcDbCircle
 62
7
  6
CONTINUOUS
 10
83.673411461
 20
76.1537358568
 40
2.5
100
AcDbArc
 50
270.0
 51
338.0
  0
ARC
  5
325
100
AcDbEntity
  8
RUNDUNGEN
100
AcDbCircle
 62
7
  6
CONTINUOUS
 10
83.673411461
 20
76.1537358568
 40
2.0
100
AcDbArc
 50
270.0
 51
338.0
  0
ARC
  5
326
100
AcDbEntity
  8
RUNDUNGEN
100
AcDbCircle
 62
7
  6
CONTINUOUS
 10
55.2016809964
 20
95.1537358568
 40
1.0
100
AcDbArc
 50
90.0
 51
180.0
  0
ARC
  5
327
100
AcDbEntity
  8
RUNDUNGEN
100
AcDbCircle
 62
7
  6
CONTINUOUS
 10
55.2016809964
 20
81.1537358568
 40
1.0
100
AcDbArc
 50
180.0
 51
270.0
  0
ARC
  5
328
100
AcDbEntity
  8
RUNDUNGEN
100
AcDbCircle
 62
7
  6
CONTINUOUS
 10
95.6976087518
 20
81.153775692
 40
0.9999943144
100
AcDbArc
 50
90.0015623384
 51
158.0041704365
  0
ARC
  5
329
100
AcDbEntity
  8
RUNDUNGEN
100
AcDbCircle
 62
7
  6
CONTINUOUS
 10
64.501460796
 20
79.1537706459
 40
0.9999913027
100
AcDbArc
 50
20.0
 51
89.9992744839
  0
ARC
  5
32A
100
AcDbEntity
  8
RUNDUNGEN
100
AcDbCircle
 62
7
  6
CONTINUOUS
 10
93.4402072641
 20
93.6537358428
 40
0.5
100
AcDbArc
 50
90.0000002261
 51
158.0
  0
ARC
  5
32B
100
AcDbEntity
  8
RUNDUNGEN
100
AcDbCircle
 62
7
  6
CONTINUOUS
 10
64.9655585855
 20
95.6537052942
 40
0.5
100
AcDbArc
 50
20.0037269815
 51
90.0012746248
  0
ARC
  5
32C
100
AcDbEntity
  8
0
100
AcDbCircle
 62
7
  6
CONTINUOUS
 10
116.7016809964
 20
63.6537358568
 40
6.5
100
AcDbArc
 50
357.795772496
 51
360.0
  0
ARC
  5
32D
100
AcDbEntity
  8
RUNDUNGEN
100
AcDbCircle
 62
7
  6
CONTINUOUS
 10
116.7016809964
 20
63.6537358568
 40
6.5
100
AcDbArc
 50
180.0
 51
360.0
  0
ARC
  5
32E
100
AcDbEntity
  8
0
100
AcDbCircle
 62
7
  6
CONTINUOUS
 10
116.7016809964
 20
63.6537358568
 40
6.5
100
AcDbArc
 50
180.0
 51
182.204227504
  0
ARC
  5
32F
100
AcDbEntity
  8
RUNDUNGEN
100
AcDbCircle
 62
7
  6
CONTINUOUS
 10
116.7016809964
 20
63.6537358568
 40
6.0
100
AcDbArc
 50
293.5555775189
 51
360.0
  0
ARC
  5
330
100
AcDbEntity
  8
RUNDUNGEN
100
AcDbCircle
 62
7
  6
CONTINUOUS
 10
116.7016809964
 20
63.6537358568
 40
6.0
100
AcDbArc
 50
180.0
 51
246.4437545241
  0
ARC
  5
331
100
AcDbEntity
  8
RUNDUNGEN
100
AcDbCircle
 62
7
  6
CONTINUOUS
 10
116.7016809964
 20
63.1537358568
 40
3.0
100
AcDbArc
 50
180.0
 51
360.0
  0
ARC
  5
332
100
AcDbEntity
  8
RUNDUNGEN
100
AcDbCircle
 62
7
  6
CONTINUOUS
 10
116.7016809964
 20
63.1537358568
 40
2.5
100
AcDbArc
 50
180.0
 51
360.0
  0
ARC
  5
333
100
AcDbEntity
  8
RUNDUNGEN
100
AcDbCircle
 62
7
  6
CONTINUOUS
 10
116.7016809964
 20
71.1537358568
 40
3.0
100
AcDbArc
 50
118.4546491273
 51
180.0
  0
ARC
  5
334
100
AcDbEntity
  8
RUNDUNGEN
100
AcDbCircle
 62
7
  6
CONTINUOUS
 10
116.7016809964
 20
71.1537358568
 40
3.0
100
AcDbArc
 50
0.0
 51
61.5453391445
  0
ARC
  5
335
100
AcDbEntity
  8
RUNDUNGEN
100
AcDbCircle
 62
7
  6
CONTINUOUS
 10
116.7016809964
 20
71.1537358568
 40
2.5
100
AcDbArc
 50
0.0
 51
180.0
  0
ARC
  5
336
100
AcDbEntity
  8
0
100
AcDbCircle
 62
7
  6
CONTINUOUS
 10
141.7016809964
 20
63.6537358568
 40
6.5
100
AcDbArc
 50
357.795772496
 51
360.0
  0
ARC
  5
337
100
AcDbEntity
  8
RUNDUNGEN
100
AcDbCircle
 62
7
  6
CONTINUOUS
 10
141.7016809964
 20
63.6537358568
 40
6.5
100
AcDbArc
 50
180.0
 51
360.0
  0
ARC
  5
338
100
AcDbEntity
  8
RUNDUNGEN
100
AcDbCircle
 62
7
  6
CONTINUOUS
 10
141.7016809964
 20
63.6537358568
 40
6.0
100
AcDbArc
 50
293.5555775189
 51
360.0
  0
ARC
  5
339
100
AcDbEntity
  8
RUNDUNGEN
100
AcDbCircle
 62
7
  6
CONTINUOUS
 10
141.7016809964
 20
63.6537358568
 40
6.0
100
AcDbArc
 50
180.0
 51
246.4437545241
  0
ARC
  5
33A
100
AcDbEntity
  8
RUNDUNGEN
100
AcDbCircle
 62
7
  6
CONTINUOUS
 10
141.7016809964
 20
63.1537358568
 40
3.0
100
AcDbArc
 50
180.0
 51
360.0
  0
ARC
  5
33B
100
AcDbEntity
  8
RUNDUNGEN
100
AcDbCircle
 62
7
  6
CONTINUOUS
 10
141.7016809964
 20
63.1537358568
 40
2.5
100
AcDbArc
 50
180.0
 51
360.0
  0
ARC
  5
33C
100
AcDbEntity
  8
RUNDUNGEN
100
AcDbCircle
 62
7
  6
CONTINUOUS
 10
141.7016809964
 20
71.1537358568
 40
3.0
100
AcDbArc
 50
118.4546491273
 51
180.0
  0
ARC
  5
33D
100
AcDbEntity
  8
RUNDUNGEN
100
AcDbCircle
 62
7
  6
CONTINUOUS
 10
141.7016809964
 20
71.1537358568
 40
3.0
100
AcDbArc
 50
0.0
 51
61.5453391445
  0
ARC
  5
33E
100
AcDbEntity
  8
RUNDUNGEN
100
AcDbCircle
 62
7
  6
CONTINUOUS
 10
141.7016809964
 20
71.1537358568
 40
2.5
100
AcDbArc
 50
0.0
 51
180.0
  0
ARC
  5
33F
100
AcDbEntity
  8
RUNDUNGEN
100
AcDbCircle
 62
7
  6
CONTINUOUS
 10
141.7016809964
 20
81.1537358568
 40
7.5
100
AcDbArc
 50
180.0
 51
259.0138388011
  0
ARC
  5
340
100
AcDbEntity
  8
RUNDUNGEN
100
AcDbCircle
 62
7
  6
CONTINUOUS
 10
141.7016809964
 20
81.1537358568
 40
7.5
100
AcDbArc
 50
280.9861676491
 51
360.0
  0
ARC
  5
341
100
AcDbEntity
  8
RUNDUNGEN
100
AcDbCircle
 62
7
  6
CONTINUOUS
 10
116.7016809964
 20
81.1537358568
 40
7.5
100
AcDbArc
 50
180.0
 51
259.0138388011
  0
ARC
  5
342
100
AcDbEntity
  8
RUNDUNGEN
100
AcDbCircle
 62
7
  6
CONTINUOUS
 10
116.7016809964
 20
81.1537358568
 40
7.5
100
AcDbArc
 50
280.9861676491
 51
360.0
  0
ARC
  5
343
100
AcDbEntity
  8
RUNDUNGEN
100
AcDbCircle
 62
7
  6
CONTINUOUS
 10
141.7016809964
 20
81.1537358568
 40
7.0
100
AcDbArc
 50
180.0
 51
360.0
  0
ARC
  5
344
100
AcDbEntity
  8
RUNDUNGEN
100
AcDbCircle
 62
7
  6
CONTINUOUS
 10
116.7016809964
 20
81.1537358568
 40
7.0
100
AcDbArc
 50
180.0
 51
360.0
  0
ARC
  5
345
100
AcDbEntity
  8
RUNDUNGEN
100
AcDbCircle
 62
7
  6
CONTINUOUS
 10
107.1677680882
 20
93.6537021549
 40
0.5
100
AcDbArc
 50
20.0000000004
 51
89.9995381188
  0
ARC
  5
346
100
AcDbEntity
  8
RUNDUNGEN
100
AcDbCircle
 62
7
  6
CONTINUOUS
 10
126.2355938788
 20
93.653702084
 40
0.5
100
AcDbArc
 50
90.0004628165
 51
159.9999999997
  0
ARC
  5
347
100
AcDbEntity
  8
RUNDUNGEN
100
AcDbCircle
 62
7
  6
CONTINUOUS
 10
151.2355938788
 20
93.653702084
 40
0.5
100
AcDbArc
 50
90.0004628165
 51
159.9999999996
  0
ARC
  5
348
100
AcDbEntity
  8
RUNDUNGEN
100
AcDbCircle
 62
7
  6
CONTINUOUS
 10
132.1677680882
 20
93.6537021549
 40
0.5
100
AcDbArc
 50
20.0000000004
 51
89.9995381188
  0
ARC
  5
349
100
AcDbEntity
  8
RUNDUNGEN
100
AcDbCircle
 62
7
  6
CONTINUOUS
 10
131.3180175024
 20
81.6537358568
 40
0.5
100
AcDbArc
 50
34.0249963385
 51
90.0
  0
ARC
  5
34A
100
AcDbEntity
  8
RUNDUNGEN
100
AcDbCircle
 62
7
  6
CONTINUOUS
 10
127.0853444902
 20
81.6537358558
 40
0.5000000001
100
AcDbArc
 50
90.0
 51
141.6408426737
  0
ARC
  5
34B
100
AcDbEntity
  8
RUNDUNGEN
100
AcDbCircle
 62
7
  6
CONTINUOUS
 10
106.3180175024
 20
81.6537358568
 40
0.5
100
AcDbArc
 50
34.0249963385
 51
90.0
  0
ARC
  5
34C
100
AcDbEntity
  8
RUNDUNGEN
100
AcDbCircle
 62
7
  6
CONTINUOUS
 10
152.0672899297
 20
81.6537358784
 40
0.4999999983
100
AcDbArc
 50
90.0000000012
 51
150.9803148362
  0
ARC
  5
34D
100
AcDbEntity
  8
RUNDUNGEN
100
AcDbCircle
 62
7
  6
CONTINUOUS
 10
151.7736784217
 20
82.6153123574
 40
0.4280025765
100
AcDbArc
 50
340.9101876946
 51
359.9949078012
  0
ARC
  5
34E
100
AcDbEntity
  8
RUNDUNGEN
100
AcDbCircle
 62
7
  6
CONTINUOUS
 10
126.7742357851
 20
82.6152956504
 40
0.4274452119
100
AcDbArc
 50
343.7688891894
 51
359.9971406034
  0
ARC
  5
34F
100
AcDbEntity
  8
RUNDUNGEN
100
AcDbCircle
 62
7
  6
CONTINUOUS
 10
131.6291241304
 20
82.6152953541
 40
0.4274431344
100
AcDbArc
 50
180.0028196955
 51
196.2311505117
  0
ARC
  5
350
100
AcDbEntity
  8
RUNDUNGEN
100
AcDbCircle
 62
7
  6
CONTINUOUS
 10
106.6291241303
 20
82.6152953541
 40
0.4274431344
100
AcDbArc
 50
180.0028196953
 51
196.2311505118
  0
SPLINE
  5
351
100
AcDbEntity
  8
0
100
AcDbSpline
 62
7
  6
CONTINUOUS
 70
0
 71
3
 72
35
 73
31
 74
0
 42
0.0000001
 43
0.0000001
 44
0.0000000001
 40
0.0
 40
0.0
 40
0.0
 40
0.0
 40
0.0013120389
 40
0.003749829
 40
0.0073990888
 40
0.0122682188
 40
0.0256109364
 40
0.0435487186
 40
0.0657893418
 40
0.0920044652
 40
0.1218527912
 40
0.1550006634
 40
0.2299034259
 40
0.3142112419
 40
0.4052892889
 40
0.5000016772
 40
0.5947137742
 40
0.6857911998
 40
0.7700983148
 40
0.8450003312
 40
0.8781480499
 40
0.9079962176
 40
0.9342111367
 40
0.9564516061
 40
0.9743892528
 40
0.9877319232
 40
0.9926010293
 40
0.9962502398
 40
0.9986879813
 40
1.0
 40
1.0
 40
1.0
 40
1.0
 10
135.206490468
 20
156.1738380835
 30
0.0
 10
135.2090084441
 20
156.1738380835
 30
0.0
 10
135.2153289365
 20
156.1690106244
 30
0.0
 10
135.2244043303
 20
156.15864886
 30
0.0
 10
135.2367502891
 20
156.1413331593
 30
0.0
 10
135.2590687697
 20
156.1059393504
 30
0.0
 10
135.2928801499
 20
156.0452154834
 30
0.0
 10
135.3394485138
 20
155.9536983961
 30
0.0
 10
135.3938669671
 20
155.8384478765
 30
0.0
 10
135.4543550884
 20
155.7008709138
 30
0.0
 10
135.5190539049
 20
155.5423312061
 30
0.0
 10
135.6120821297
 20
155.2945435711
 30
0.0
 10
135.7253438525
 20
154.9428759846
 30
0.0
 10
135.8388612954
 20
154.4756185541
 30
0.0
 10
135.916856097
 20
153.962383755
 30
0.0
 10
135.9447759077
 20
153.4238289265
 30
0.0
 10
135.9168557355
 20
152.8852752265
 30
0.0
 10
135.83885851
 20
152.3720439303
 30
0.0
 10
135.7253411613
 20
151.9047905978
 30
0.0
 10
135.6120795991
 20
151.5531262021
 30
0.0
 10
135.5190522575
 20
151.3053404022
 30
0.0
 10
135.4543534314
 20
151.1468017697
 30
0.0
 10
135.3938658581
 20
151.0092256486
 30
0.0
 10
135.3394475695
 20
150.8939760996
 30
0.0
 10
135.2928795693
 20
150.8024595516
 30
0.0
 10
135.2590683405
 20
150.7417360561
 30
0.0
 10
135.2367499113
 20
150.7063424797
 30
0.0
 10
135.224404082
 20
150.6890269926
 30
0.0
 10
135.2153288241
 20
150.6786653681
 30
0.0
 10
135.2090084053
 20
150.6738380835
 30
0.0
 10
135.206490468
 20
150.6738380835
 30
0.0
  0
SPLINE
  5
352
100
AcDbEntity
  8
0
100
AcDbSpline
 62
7
  6
CONTINUOUS
 70
0
 71
3
 72
35
 73
31
 74
0
 42
0.0000001
 43
0.0000001
 44
0.0000000001
 40
0.0
 40
0.0
 40
0.0
 40
0.0
 40
0.0013120389
 40
0.003749829
 40
0.0073990888
 40
0.0122682188
 40
0.0256109364
 40
0.0435487186
 40
0.0657893418
 40
0.0920044652
 40
0.1218527912
 40
0.1550006634
 40
0.2299034259
 40
0.3142112419
 40
0.4052892889
 40
0.5000016772
 40
0.5947137742
 40
0.6857911998
 40
0.7700983148
 40
0.8450003312
 40
0.8781480499
 40
0.9079962176
 40
0.9342111367
 40
0.9564516061
 40
0.9743892528
 40
0.9877319232
 40
0.9926010293
 40
0.9962502398
 40
0.9986879813
 40
1.0
 40
1.0
 40
1.0
 40
1.0
 10
110.206490468
 20
156.1738380835
 30
0.0
 10
110.2090084441
 20
156.1738380835
 30
0.0
 10
110.2153289365
 20
156.1690106244
 30
0.0
 10
110.2244043303
 20
156.15864886
 30
0.0
 10
110.2367502891
 20
156.1413331593
 30
0.0
 10
110.2590687697
 20
156.1059393504
 30
0.0
 10
110.2928801499
 20
156.0452154834
 30
0.0
 10
110.3394485138
 20
155.9536983961
 30
0.0
 10
110.3938669671
 20
155.8384478765
 30
0.0
 10
110.4543550884
 20
155.7008709138
 30
0.0
 10
110.5190539049
 20
155.5423312061
 30
0.0
 10
110.6120821297
 20
155.2945435711
 30
0.0
 10
110.7253438525
 20
154.9428759846
 30
0.0
 10
110.8388612954
 20
154.4756185541
 30
0.0
 10
110.916856097
 20
153.962383755
 30
0.0
 10
110.9447759077
 20
153.4238289265
 30
0.0
 10
110.9168557355
 20
152.8852752265
 30
0.0
 10
110.83885851
 20
152.3720439303
 30
0.0
 10
110.7253411613
 20
151.9047905978
 30
0.0
 10
110.6120795991
 20
151.5531262021
 30
0.0
 10
110.5190522575
 20
151.3053404022
 30
0.0
 10
110.4543534314
 20
151.1468017697
 30
0.0
 10
110.3938658581
 20
151.0092256486
 30
0.0
 10
110.3394475695
 20
150.8939760996
 30
0.0
 10
110.2928795693
 20
150.8024595516
 30
0.0
 10
110.2590683405
 20
150.7417360561
 30
0.0
 10
110.2367499113
 20
150.7063424797
 30
0.0
 10
110.224404082
 20
150.6890269926
 30
0.0
 10
110.2153288241
 20
150.6786653681
 30
0.0
 10
110.2090084053
 20
150.6738380835
 30
0.0
 10
110.206490468
 20
150.6738380835
 30
0.0
  0
SPLINE
  5
353
100
AcDbEntity
  8
0
100
AcDbSpline
 62
7
  6
CONTINUOUS
 70
0
 71
3
 72
35
 73
31
 74
0
 42
0.0000001
 43
0.0000001
 44
0.0000000001
 40
0.0
 40
0.0
 40
0.0
 40
0.0
 40
0.0013120165
 40
0.0037497523
 40
0.0073989561
 40
0.0122680567
 40
0.0256107047
 40
0.0435483132
 40
0.0657887501
 40
0.0920036281
 40
0.1218517608
 40
0.1549994577
 40
0.2299014642
 40
0.31420863
 40
0.4052861355
 40
0.499998233
 40
0.5947105109
 40
0.6857883611
 40
0.7700960462
 40
0.8449988224
 40
0.8781467493
 40
0.9079951646
 40
0.9342103914
 40
0.9564510952
 40
0.9743889679
 40
0.987731739
 40
0.9926008817
 40
0.9962501554
 40
0.9986879568
 40
1.0
 40
1.0
 40
1.0
 40
1.0
 10
123.1968715248
 20
150.6738380835
 30
0.0
 10
123.1943535917
 20
150.6738380835
 30
0.0
 10
123.1880331818
 20
150.6786653492
 30
0.0
 10
123.1789579408
 20
150.6890269558
 30
0.0
 10
123.1666121303
 20
150.7063424119
 30
0.0
 10
123.1442937258
 20
150.7417359263
 30
0.0
 10
123.1104825611
 20
150.8024593119
 30
0.0
 10
123.0639146474
 20
150.8939757031
 30
0.0
 10
123.00949639
 20
151.00922503
 30
0.0
 10
122.9490089422
 20
151.1468009789
 30
0.0
 10
122.8843100892
 20
151.3053393973
 30
0.0
 10
122.7912828306
 20
151.5531250931
 30
0.0
 10
122.6780211242
 20
151.9047894767
 30
0.0
 10
122.5645036145
 20
152.3720430152
 30
0.0
 10
122.4865063608
 20
152.8852745616
 30
0.0
 10
122.4585860545
 20
153.4238281941
 30
0.0
 10
122.4865057311
 20
153.9623824428
 30
0.0
 10
122.5645003664
 20
154.4756164146
 30
0.0
 10
122.6780174518
 20
154.9428732997
 30
0.0
 10
122.7912788077
 20
155.2945408882
 30
0.0
 10
122.8843072298
 20
155.5423287703
 30
0.0
 10
122.94900599
 20
155.7008690148
 30
0.0
 10
123.0094944195
 20
155.8384464153
 30
0.0
 10
123.0639129602
 20
155.9536974755
 30
0.0
 10
123.110481529
 20
156.0452149436
 30
0.0
 10
123.1442930637
 20
156.1059390691
 30
0.0
 10
123.166611604
 20
156.1413330205
 30
0.0
 10
123.1789576027
 20
156.1586487864
 30
0.0
 10
123.1880330303
 20
156.1690105874
 30
0.0
 10
123.1943535405
 20
156.1738380835
 30
0.0
 10
123.1968715248
 20
156.1738380835
 30
0.0
  0
SPLINE
  5
354
100
AcDbEntity
  8
0
100
AcDbSpline
 62
7
  6
CONTINUOUS
 70
0
 71
3
 72
35
 73
31
 74
0
 42
0.0000001
 43
0.0000001
 44
0.0000000001
 40
0.0
 40
0.0
 40
0.0
 40
0.0
 40
0.0013120165
 40
0.0037497523
 40
0.0073989561
 40
0.0122680567
 40
0.0256107047
 40
0.0435483132
 40
0.0657887501
 40
0.0920036281
 40
0.1218517608
 40
0.1549994577
 40
0.2299014642
 40
0.31420863
 40
0.4052861355
 40
0.499998233
 40
0.5947105109
 40
0.6857883611
 40
0.7700960462
 40
0.8449988224
 40
0.8781467493
 40
0.9079951646
 40
0.9342103914
 40
0.9564510952
 40
0.9743889679
 40
0.987731739
 40
0.9926008817
 40
0.9962501554
 40
0.9986879568
 40
1.0
 40
1.0
 40
1.0
 40
1.0
 10
148.1968715248
 20
150.6738380835
 30
0.0
 10
148.1943535917
 20
150.6738380835
 30
0.0
 10
148.1880331818
 20
150.6786653492
 30
0.0
 10
148.1789579408
 20
150.6890269558
 30
0.0
 10
148.1666121303
 20
150.7063424119
 30
0.0
 10
148.1442937258
 20
150.7417359263
 30
0.0
 10
148.1104825611
 20
150.8024593119
 30
0.0
 10
148.0639146474
 20
150.8939757031
 30
0.0
 10
148.00949639
 20
151.00922503
 30
0.0
 10
147.9490089422
 20
151.1468009789
 30
0.0
 10
147.8843100892
 20
151.3053393973
 30
0.0
 10
147.7912828306
 20
151.5531250931
 30
0.0
 10
147.6780211242
 20
151.9047894767
 30
0.0
 10
147.5645036145
 20
152.3720430152
 30
0.0
 10
147.4865063608
 20
152.8852745616
 30
0.0
 10
147.4585860545
 20
153.4238281941
 30
0.0
 10
147.4865057311
 20
153.9623824428
 30
0.0
 10
147.5645003664
 20
154.4756164146
 30
0.0
 10
147.6780174518
 20
154.9428732997
 30
0.0
 10
147.7912788077
 20
155.2945408882
 30
0.0
 10
147.8843072298
 20
155.5423287703
 30
0.0
 10
147.94900599
 20
155.7008690148
 30
0.0
 10
148.0094944195
 20
155.8384464153
 30
0.0
 10
148.0639129602
 20
155.9536974755
 30
0.0
 10
148.110481529
 20
156.0452149436
 30
0.0
 10
148.1442930637
 20
156.1059390691
 30
0.0
 10
148.166611604
 20
156.1413330205
 30
0.0
 10
148.1789576027
 20
156.1586487864
 30
0.0
 10
148.1880330303
 20
156.1690105874
 30
0.0
 10
148.1943535405
 20
156.1738380835
 30
0.0
 10
148.1968715248
 20
156.1738380835
 30
0.0
  0
LINE
  5
355
100
AcDbEntity
  8
RUNDUNGEN
100
AcDbLine
 62
7
  6
CONTINUOUS
 10
131.7016809964
 20
151.2604289902
 11
131.7016809964
 21
150.9238380835
  0
SPLINE
  5
356
100
AcDbEntity
  8
RUNDUNGEN
100
AcDbSpline
 62
7
  6
CONTINUOUS
 70
0
 71
3
 72
9
 73
5
 74
0
 42
0.0000001
 43
0.0000001
 44
0.0000000001
 40
0.0
 40
0.0
 40
0.0
 40
0.0
 40
0.4999999972
 40
1.0
 40
1.0
 40
1.0
 40
1.0
 10
131.7016809964
 20
155.5872471768
 30
0.0
 10
131.7696172653
 20
154.8685553716
 30
0.0
 10
131.8323435809
 20
153.4238380861
 30
0.0
 10
131.7696172351
 20
151.9791208063
 30
0.0
 10
131.7016809964
 20
151.2604289902
 30
0.0
  0
LINE
  5
357
100
AcDbEntity
  8
RUNDUNGEN
100
AcDbLine
 62
7
  6
CONTINUOUS
 10
131.7016809964
 20
155.9238380835
 11
131.7016809964
 21
155.5872471768
  0
SPLINE
  5
358
100
AcDbEntity
  8
RUNDUNGEN
100
AcDbSpline
 62
7
  6
CONTINUOUS
 70
0
 71
3
 72
12
 73
8
 74
0
 42
0.0000001
 43
0.0000001
 44
0.0000000001
 40
0.0
 40
0.0
 40
0.0
 40
0.0
 40
0.2779285478
 40
0.5456891392
 40
0.7911945163
 40
0.9011154971
 40
1.0
 40
1.0
 40
1.0
 40
1.0
 10
83.573411461
 20
148.4238380835
 30
0.0
 10
83.7076544205
 20
148.3655307734
 30
0.0
 10
83.9714578253
 20
148.2514887678
 30
0.0
 10
84.357445172
 20
148.0947663145
 30
0.0
 10
84.6685700325
 20
147.988228009
 30
0.0
 10
84.9021291704
 20
147.9354353854
 30
0.0
 10
85.0120502692
 20
147.923828139
 30
0.0
 10
85.064123446
 20
147.9238380835
 30
0.0
  0
SPLINE
  5
359
100
AcDbEntity
  8
RUNDUNGEN
100
AcDbSpline
 62
7
  6
CONTINUOUS
 70
0
 71
3
 72
12
 73
8
 74
0
 42
0.0000001
 43
0.0000001
 44
0.0000000001
 40
0.0
 40
0.0
 40
0.0
 40
0.0
 40
0.0988865508
 40
0.2088034229
 40
0.4543109781
 40
0.7220713646
 40
1.0
 40
1.0
 40
1.0
 40
1.0
 10
85.064123446
 20
158.9238380835
 30
0.0
 10
85.0120491999
 20
158.9238347836
 30
0.0
 10
84.9021292926
 20
158.9122471749
 30
0.0
 10
84.6685694779
 20
158.8594458498
 30
0.0
 10
84.3574493341
 20
158.7529034048
 30
0.0
 10
83.9714562649
 20
158.5961904105
 30
0.0
 10
83.7076606615
 20
158.4821310676
 30
0.0
 10
83.573411461
 20
158.4238380835
 30
0.0
  0
SPLINE
  5
35A
100
AcDbEntity
  8
RUNDUNGEN
100
AcDbSpline
 62
7
  6
CONTINUOUS
 70
0
 71
3
 72
11
 73
7
 74
0
 42
0.0000001
 43
0.0000001
 44
0.0000000001
 40
0.0
 40
0.0
 40
0.0
 40
0.0
 40
0.2074188543
 40
0.4491815328
 40
0.7173596933
 40
1.0
 40
1.0
 40
1.0
 40
1.0
 10
95.8491142892
 20
158.92383826
 30
0.0
 10
95.6708156091
 20
158.5764162227
 30
0.0
 10
95.3577789524
 20
157.7863816644
 30
0.0
 10
95.0269762417
 20
156.474311329
 30
0.0
 10
94.8177886094
 20
154.9943318157
 30
0.0
 10
94.7704366124
 20
153.9566695788
 30
0.0
 10
94.7703976304
 20
153.4245489528
 30
0.0
  0
SPLINE
  5
35B
100
AcDbEntity
  8
RUNDUNGEN
100
AcDbSpline
 62
7
  6
CONTINUOUS
 70
0
 71
3
 72
11
 73
7
 74
0
 42
0.0000001
 43
0.0000001
 44
0.0000000001
 40
0.0
 40
0.0
 40
0.0
 40
0.0
 40
0.2826275456
 40
0.5508104157
 40
0.7925783888
 40
1.0
 40
1.0
 40
1.0
 40
1.0
 10
94.7703976304
 20
153.4245489528
 30
0.0
 10
94.7703688319
 20
152.8923188042
 30
0.0
 10
94.8177056597
 20
151.8544086757
 30
0.0
 10
95.0268207315
 20
150.3740458145
 30
0.0
 10
95.3576755683
 20
149.061612682
 30
0.0
 10
95.6707632853
 20
148.2713509091
 30
0.0
 10
95.8491108689
 20
147.9238379711
 30
0.0
  0
SPLINE
  5
35C
100
AcDbEntity
  8
RUNDUNGEN
100
AcDbSpline
 62
7
  6
CONTINUOUS
 70
0
 71
3
 72
13
 73
9
 74
0
 42
0.0000001
 43
0.0000001
 44
0.0000000001
 40
0.0
 40
0.0
 40
0.0
 40
0.0
 40
0.0698387917
 40
0.1519255908
 40
0.2525265629
 40
0.3729697201
 40
0.6655313556
 40
1.0
 40
1.0
 40
1.0
 40
1.0
 10
114.3037652348
 20
147.4238380835
 30
0.0
 10
114.2904054978
 20
147.4238380835
 30
0.0
 10
114.2611724304
 20
147.4318722699
 30
0.0
 10
114.2230632918
 20
147.4629218735
 30
0.0
 10
114.1891337487
 20
147.5104898024
 30
0.0
 10
114.1471184038
 20
147.5996961556
 30
0.0
 10
114.1129610636
 20
147.7398015768
 30
0.0
 10
114.1039389279
 20
147.8598562617
 30
0.0
 10
114.1039389273
 20
147.9238380835
 30
0.0
  0
SPLINE
  5
35D
100
AcDbEntity
  8
RUNDUNGEN
100
AcDbSpline
 62
7
  6
CONTINUOUS
 70
0
 71
3
 72
10
 73
6
 74
0
 42
0.0000001
 43
0.0000001
 44
0.0000000001
 40
0.0
 40
0.0
 40
0.0
 40
0.0
 40
0.2404997845
 40
0.4893169834
 40
1.0
 40
1.0
 40
1.0
 40
1.0
 10
139.1039389213
 20
158.9238380835
 30
0.0
 10
139.3164916602
 20
158.9238364853
 30
0.0
 10
139.7487010737
 20
158.8817071412
 30
0.0
 10
140.6167556501
 20
158.714408006
 30
0.0
 10
141.2655751001
 20
158.5401096267
 30
0.0
 10
141.7016809964
 20
158.4238380835
 30
0.0
  0
SPLINE
  5
35E
100
AcDbEntity
  8
RUNDUNGEN
100
AcDbSpline
 62
7
  6
CONTINUOUS
 70
0
 71
3
 72
10
 73
6
 74
0
 42
0.0000001
 43
0.0000001
 44
0.0000000001
 40
0.0
 40
0.0
 40
0.0
 40
0.0
 40
0.2404999982
 40
0.4893171537
 40
1.0
 40
1.0
 40
1.0
 40
1.0
 10
144.2994230716
 20
158.9238380835
 30
0.0
 10
144.0868701597
 20
158.9238413197
 30
0.0
 10
143.6546609432
 20
158.8817016754
 30
0.0
 10
142.786605665
 20
158.7144110507
 30
0.0
 10
142.1377870651
 20
158.5401082651
 30
0.0
 10
141.7016809964
 20
158.4238380835
 30
0.0
  0
SPLINE
  5
35F
100
AcDbEntity
  8
RUNDUNGEN
100
AcDbSpline
 62
7
  6
CONTINUOUS
 70
0
 71
3
 72
13
 73
9
 74
0
 42
0.0000001
 43
0.0000001
 44
0.0000000001
 40
0.0
 40
0.0
 40
0.0
 40
0.0
 40
0.0698332505
 40
0.151917093
 40
0.2525173287
 40
0.3729612727
 40
0.6655269395
 40
1.0
 40
1.0
 40
1.0
 40
1.0
 10
144.0995967581
 20
147.4238380835
 30
0.0
 10
144.1129552967
 20
147.4238380835
 30
0.0
 10
144.1421863225
 20
147.4318727544
 30
0.0
 10
144.1802923193
 20
147.4629224512
 30
0.0
 10
144.214220028
 20
147.5104901545
 30
0.0
 10
144.2562346221
 20
147.5996965194
 30
0.0
 10
144.2903941184
 20
147.7398014334
 30
0.0
 10
144.2994202929
 20
147.85985608
 30
0.0
 10
144.2994230671
 20
147.9238380835
 30
0.0
  0
SPLINE
  5
360
100
AcDbEntity
  8
RUNDUNGEN
100
AcDbSpline
 62
7
  6
CONTINUOUS
 70
0
 71
3
 72
10
 73
6
 74
0
 42
0.0000001
 43
0.0000001
 44
0.0000000001
 40
0.0
 40
0.0
 40
0.0
 40
0.0
 40
0.2404999769
 40
0.4893170818
 40
1.0
 40
1.0
 40
1.0
 40
1.0
 10
144.2994230716
 20
147.9238380835
 30
0.0
 10
144.0868701919
 20
147.9238311747
 30
0.0
 10
143.6546613271
 20
147.9659788435
 30
0.0
 10
142.7866054649
 20
148.133262624
 30
0.0
 10
142.1377873142
 20
148.307568699
 30
0.0
 10
141.7016809964
 20
148.4238380835
 30
0.0
  0
SPLINE
  5
361
100
AcDbEntity
  8
RUNDUNGEN
100
AcDbSpline
 62
7
  6
CONTINUOUS
 70
0
 71
3
 72
10
 73
6
 74
0
 42
0.0000001
 43
0.0000001
 44
0.0000000001
 40
0.0
 40
0.0
 40
0.0
 40
0.0
 40
0.24049926
 40
0.4893165158
 40
1.0
 40
1.0
 40
1.0
 40
1.0
 10
139.1039389213
 20
147.9238380835
 30
0.0
 10
139.3164913029
 20
147.9238757929
 30
0.0
 10
139.7487025723
 20
147.9659313002
 30
0.0
 10
140.6167527718
 20
148.1332884643
 30
0.0
 10
141.2655770774
 20
148.3075566168
 30
0.0
 10
141.7016809964
 20
148.4238380835
 30
0.0
  0
LINE
  5
362
100
AcDbEntity
  8
RUNDUNGEN
100
AcDbLine
 62
7
  6
CONTINUOUS
 10
106.7016809964
 20
151.2604289902
 11
106.7016809964
 21
150.9238380835
  0
SPLINE
  5
363
100
AcDbEntity
  8
RUNDUNGEN
100
AcDbSpline
 62
7
  6
CONTINUOUS
 70
0
 71
3
 72
9
 73
5
 74
0
 42
0.0000001
 43
0.0000001
 44
0.0000000001
 40
0.0
 40
0.0
 40
0.0
 40
0.0
 40
0.4999999972
 40
1.0
 40
1.0
 40
1.0
 40
1.0
 10
106.7016809964
 20
155.5872471768
 30
0.0
 10
106.7696172653
 20
154.8685553716
 30
0.0
 10
106.8323435809
 20
153.4238380861
 30
0.0
 10
106.7696172351
 20
151.9791208063
 30
0.0
 10
106.7016809964
 20
151.2604289902
 30
0.0
  0
LINE
  5
364
100
AcDbEntity
  8
RUNDUNGEN
100
AcDbLine
 62
7
  6
CONTINUOUS
 10
106.7016809964
 20
155.9238380835
 11
106.7016809964
 21
155.5872471768
  0
LINE
  5
365
100
AcDbEntity
  8
RUNDUNGEN
100
AcDbLine
 62
7
  6
CONTINUOUS
 10
151.7016809964
 20
155.9238380835
 11
151.7016809964
 21
155.523313004
  0
SPLINE
  5
366
100
AcDbEntity
  8
RUNDUNGEN
100
AcDbSpline
 62
7
  6
CONTINUOUS
 70
0
 71
3
 72
9
 73
5
 74
0
 42
0.0000001
 43
0.0000001
 44
0.0000000001
 40
0.0
 40
0.0
 40
0.0
 40
0.0
 40
0.4999966923
 40
1.0
 40
1.0
 40
1.0
 40
1.0
 10
151.7016809964
 20
155.523313004
 30
0.0
 10
151.6260590876
 20
154.8266098946
 30
0.0
 10
151.5555950409
 20
153.4238427218
 30
0.0
 10
151.6260589747
 20
152.0210755867
 30
0.0
 10
151.7016809964
 20
151.324363163
 30
0.0
  0
SPLINE
  5
367
100
AcDbEntity
  8
RUNDUNGEN
100
AcDbSpline
 62
7
  6
CONTINUOUS
 70
0
 71
3
 72
11
 73
7
 74
0
 42
0.0000001
 43
0.0000001
 44
0.0000000001
 40
0.0
 40
0.0
 40
0.0
 40
0.0
 40
0.2571360361
 40
0.5101512625
 40
0.7572214569
 40
1.0
 40
1.0
 40
1.0
 40
1.0
 10
65.1217766399
 20
147.9238351491
 30
0.0
 10
65.1217770687
 20
147.8589503874
 30
0.0
 10
65.1457319263
 20
147.728933073
 30
0.0
 10
65.2491598247
 20
147.5628929487
 30
0.0
 10
65.4052931999
 20
147.4504597396
 30
0.0
 10
65.530359804
 20
147.4238383837
 30
0.0
 10
65.5916216487
 20
147.4238380835
 30
0.0
  0
SPLINE
  5
368
100
AcDbEntity
  8
RUNDUNGEN
100
AcDbSpline
 62
7
  6
CONTINUOUS
 70
0
 71
3
 72
11
 73
7
 74
0
 42
0.0000001
 43
0.0000001
 44
0.0000000001
 40
0.0
 40
0.0
 40
0.0
 40
0.0
 40
0.2571361857
 40
0.5101514665
 40
0.7572215914
 40
1.0
 40
1.0
 40
1.0
 40
1.0
 10
73.0940262194
 20
147.9238380835
 30
0.0
 10
73.0940262194
 20
147.8589529018
 30
0.0
 10
73.1179805284
 20
147.7289345938
 30
0.0
 10
73.2214086011
 20
147.5628931043
 30
0.0
 10
73.3775429155
 20
147.4504591927
 30
0.0
 10
73.5026103581
 20
147.4238380835
 30
0.0
 10
73.5638725298
 20
147.4238380835
 30
0.0
  0
LINE
  5
369
100
AcDbEntity
  8
RUNDUNGEN
100
AcDbLine
 62
7
  6
CONTINUOUS
 10
151.7016809964
 20
151.324363163
 11
151.7016809964
 21
150.9238380835
  0
SPLINE
  5
36A
100
AcDbEntity
  8
RUNDUNGEN
100
AcDbSpline
 62
7
  6
CONTINUOUS
 70
0
 71
3
 72
11
 73
7
 74
0
 42
0.0000001
 43
0.0000001
 44
0.0000000001
 40
0.0
 40
0.0
 40
0.0
 40
0.0
 40
0.2770429685
 40
0.5406106221
 40
0.7812962679
 40
1.0
 40
1.0
 40
1.0
 40
1.0
 10
73.4826994763
 20
147.9238380835
 30
0.0
 10
73.4826964451
 20
147.8672536285
 30
0.0
 10
73.496633557
 20
147.7562777332
 30
0.0
 10
73.5579818064
 20
147.606761809
 30
0.0
 10
73.6540083396
 20
147.4910463665
 30
0.0
 10
73.7395198274
 20
147.4450361035
 30
0.0
 10
73.78267663
 20
147.4335117952
 30
0.0
  0
SPLINE
  5
36B
100
AcDbEntity
  8
RUNDUNGEN
100
AcDbSpline
 62
7
  6
CONTINUOUS
 70
0
 71
3
 72
8
 73
4
 74
0
 42
0.0000001
 43
0.0000001
 44
0.0000000001
 40
0.0
 40
0.0
 40
0.0
 40
0.0
 40
1.0
 40
1.0
 40
1.0
 40
1.0
 10
73.78267663
 20
147.4335117952
 30
0.0
 10
73.8062962184
 20
147.4272045759
 30
0.0
 10
73.8309302685
 20
147.4238380835
 30
0.0
 10
73.8553774763
 20
147.4238380835
 30
0.0
  0
SPLINE
  5
36C
100
AcDbEntity
  8
RUNDUNGEN
100
AcDbSpline
 62
7
  6
CONTINUOUS
 70
0
 71
3
 72
11
 73
7
 74
0
 42
0.0000001
 43
0.0000001
 44
0.0000000001
 40
0.0
 40
0.0
 40
0.0
 40
0.0
 40
0.2825356676
 40
0.5472257276
 40
0.7843970202
 40
1.0
 40
1.0
 40
1.0
 40
1.0
 10
73.4826994763
 20
158.9238380835
 30
0.0
 10
73.4826994764
 20
158.9883158288
 30
0.0
 10
73.5006293022
 20
159.1140519402
 30
0.0
 10
73.5793163034
 20
159.2782990188
 30
0.0
 10
73.7015388463
 20
159.3942524587
 30
0.0
 10
73.8061745021
 20
159.4238380835
 30
0.0
 10
73.8553774722
 20
159.4238380835
 30
0.0
  0
SPLINE
  5
36D
100
AcDbEntity
  8
RUNDUNGEN
100
AcDbSpline
 62
7
  6
CONTINUOUS
 70
0
 71
3
 72
11
 73
7
 74
0
 42
0.0000001
 43
0.0000001
 44
0.0000000001
 40
0.0
 40
0.0
 40
0.0
 40
0.0
 40
0.2571361879
 40
0.5101514653
 40
0.7572215883
 40
1.0
 40
1.0
 40
1.0
 40
1.0
 10
73.0940262194
 20
158.9238380835
 30
0.0
 10
73.0940262194
 20
158.9887232658
 30
0.0
 10
73.1179805287
 20
159.1187415735
 30
0.0
 10
73.2214086009
 20
159.2847830622
 30
0.0
 10
73.3775429145
 20
159.3972169738
 30
0.0
 10
73.5026103573
 20
159.4238380835
 30
0.0
 10
73.5638725298
 20
159.4238380835
 30
0.0
  0
SPLINE
  5
36E
100
AcDbEntity
  8
RUNDUNGEN
100
AcDbSpline
 62
7
  6
CONTINUOUS
 70
0
 71
3
 72
13
 73
9
 74
0
 42
0.0000001
 43
0.0000001
 44
0.0000000001
 40
0.0
 40
0.0
 40
0.0
 40
0.0
 40
0.0698328453
 40
0.1519164679
 40
0.2525166463
 40
0.372960644
 40
0.6655266083
 40
1.0
 40
1.0
 40
1.0
 40
1.0
 10
114.3037652348
 20
159.4238380835
 30
0.0
 10
114.2904067837
 20
159.4238380835
 30
0.0
 10
114.2611759068
 20
159.4158033806
 30
0.0
 10
114.2230701393
 20
159.384753678
 30
0.0
 10
114.189142562
 20
159.3371859953
 30
0.0
 10
114.1471280159
 20
159.2479796321
 30
0.0
 10
114.1129683632
 20
159.1078747506
 30
0.0
 10
114.103941898
 20
158.9878201027
 30
0.0
 10
114.1039389255
 20
158.9238380835
 30
0.0
  0
SPLINE
  5
36F
100
AcDbEntity
  8
RUNDUNGEN
100
AcDbSpline
 62
7
  6
CONTINUOUS
 70
0
 71
3
 72
11
 73
7
 74
0
 42
0.0000001
 43
0.0000001
 44
0.0000000001
 40
0.0
 40
0.0
 40
0.0
 40
0.0
 40
0.2571357872
 40
0.5101505717
 40
0.7572207786
 40
1.0
 40
1.0
 40
1.0
 40
1.0
 10
65.1217737464
 20
158.9238370422
 30
0.0
 10
65.1217734016
 20
158.9887219435
 30
0.0
 10
65.1457268663
 20
159.1187397777
 30
0.0
 10
65.2491534755
 20
159.2847813079
 30
0.0
 10
65.4052869047
 20
159.3972157403
 30
0.0
 10
65.530354014
 20
159.4238375935
 30
0.0
 10
65.591616221
 20
159.4238380835
 30
0.0
  0
SPLINE
  5
370
100
AcDbEntity
  8
RUNDUNGEN
100
AcDbSpline
 62
7
  6
CONTINUOUS
 70
0
 71
3
 72
11
 73
7
 74
0
 42
0.0000001
 43
0.0000001
 44
0.0000000001
 40
0.0
 40
0.0
 40
0.0
 40
0.0
 40
0.2586598092
 40
0.5123341605
 40
0.7587859022
 40
1.0
 40
1.0
 40
1.0
 40
1.0
 10
95.8491077539
 20
158.92383826
 30
0.0
 10
95.8491077252
 20
158.9886944582
 30
0.0
 10
95.8255692408
 20
159.1184155308
 30
0.0
 10
95.7237629447
 20
159.2844020849
 30
0.0
 10
95.5697396783
 20
159.3970771317
 30
0.0
 10
95.4459976074
 20
159.4238380822
 30
0.0
 10
95.3855157359
 20
159.4238380835
 30
0.0
  0
SPLINE
  5
371
100
AcDbEntity
  8
RUNDUNGEN
100
AcDbSpline
 62
7
  6
CONTINUOUS
 70
0
 71
3
 72
11
 73
7
 74
0
 42
0.0000001
 43
0.0000001
 44
0.0000000001
 40
0.0
 40
0.0
 40
0.0
 40
0.0
 40
0.2586598225
 40
0.5123341816
 40
0.7587859203
 40
1.0
 40
1.0
 40
1.0
 40
1.0
 10
85.4277791701
 20
158.9238380835
 30
0.0
 10
85.4277791701
 20
158.9886942952
 30
0.0
 10
85.4042407337
 20
159.1184154042
 30
0.0
 10
85.302434471
 20
159.2844020227
 30
0.0
 10
85.1484112047
 20
159.3970771184
 30
0.0
 10
85.0246691192
 20
159.4238380835
 30
0.0
 10
84.9641872428
 20
159.4238380835
 30
0.0
  0
SPLINE
  5
372
100
AcDbEntity
  8
RUNDUNGEN
100
AcDbSpline
 62
7
  6
CONTINUOUS
 70
0
 71
3
 72
11
 73
7
 74
0
 42
0.0000001
 43
0.0000001
 44
0.0000000001
 40
0.0
 40
0.0
 40
0.0
 40
0.0
 40
0.2770435832
 40
0.5406118048
 40
0.7812973619
 40
1.0
 40
1.0
 40
1.0
 40
1.0
 10
85.0641234458
 20
158.9238380835
 30
0.0
 10
85.0641260621
 20
158.9804228091
 30
0.0
 10
85.0501881648
 20
159.0913991184
 30
0.0
 10
84.9888390347
 20
159.2409153421
 30
0.0
 10
84.8928120836
 20
159.3566307296
 30
0.0
 10
84.8073004738
 20
159.4026408364
 30
0.0
 10
84.7641437189
 20
159.4141649005
 30
0.0
  0
SPLINE
  5
373
100
AcDbEntity
  8
RUNDUNGEN
100
AcDbSpline
 62
7
  6
CONTINUOUS
 70
0
 71
3
 72
8
 73
4
 74
0
 42
0.0000001
 43
0.0000001
 44
0.0000000001
 40
0.0
 40
0.0
 40
0.0
 40
0.0
 40
1.0
 40
1.0
 40
1.0
 40
1.0
 10
84.7641437189
 20
159.4141649005
 30
0.0
 10
84.7405249452
 20
159.4204717756
 30
0.0
 10
84.7158917852
 20
159.4238380835
 30
0.0
 10
84.6914454533
 20
159.4238380835
 30
0.0
  0
SPLINE
  5
374
100
AcDbEntity
  8
RUNDUNGEN
100
AcDbSpline
 62
7
  6
CONTINUOUS
 70
0
 71
3
 72
11
 73
7
 74
0
 42
0.0000001
 43
0.0000001
 44
0.0000000001
 40
0.0
 40
0.0
 40
0.0
 40
0.0
 40
0.282535664
 40
0.5472257216
 40
0.7843970167
 40
1.0
 40
1.0
 40
1.0
 40
1.0
 10
85.0641234458
 20
147.9238380835
 30
0.0
 10
85.0641234457
 20
147.8593603391
 30
0.0
 10
85.0461936203
 20
147.7336242291
 30
0.0
 10
84.9675066204
 20
147.5693771508
 30
0.0
 10
84.8452840778
 20
147.4534237095
 30
0.0
 10
84.7406484206
 20
147.4238380835
 30
0.0
 10
84.6914454497
 20
147.4238380835
 30
0.0
  0
SPLINE
  5
375
100
AcDbEntity
  8
RUNDUNGEN
100
AcDbSpline
 62
7
  6
CONTINUOUS
 70
0
 71
3
 72
11
 73
7
 74
0
 42
0.0000001
 43
0.0000001
 44
0.0000000001
 40
0.0
 40
0.0
 40
0.0
 40
0.0
 40
0.2586598242
 40
0.5123341807
 40
0.758785918
 40
1.0
 40
1.0
 40
1.0
 40
1.0
 10
85.4277791701
 20
147.9238380835
 30
0.0
 10
85.4277791701
 20
147.8589818715
 30
0.0
 10
85.4042407334
 20
147.7292607627
 30
0.0
 10
85.3024344712
 20
147.5632741447
 30
0.0
 10
85.1484112054
 20
147.4505990491
 30
0.0
 10
85.0246691197
 20
147.4238380835
 30
0.0
 10
84.9641872428
 20
147.4238380835
 30
0.0
  0
SPLINE
  5
376
100
AcDbEntity
  8
RUNDUNGEN
100
AcDbSpline
 62
7
  6
CONTINUOUS
 70
0
 71
3
 72
11
 73
7
 74
0
 42
0.0000001
 43
0.0000001
 44
0.0000000001
 40
0.0
 40
0.0
 40
0.0
 40
0.0
 40
0.2586597884
 40
0.5123341306
 40
0.7587858768
 40
1.0
 40
1.0
 40
1.0
 40
1.0
 10
95.8491082737
 20
147.9238379711
 30
0.0
 10
95.8491082944
 20
147.8589817375
 30
0.0
 10
95.8255698537
 20
147.7292605663
 30
0.0
 10
95.7237634385
 20
147.5632739356
 30
0.0
 10
95.5697400045
 20
147.4505988982
 30
0.0
 10
95.4459978216
 20
147.4238380297
 30
0.0
 10
95.3855159058
 20
147.4238380835
 30
0.0
  0
SPLINE
  5
377
100
AcDbEntity
  8
RUNDUNGEN
100
AcDbSpline
 62
7
  6
CONTINUOUS
 70
0
 71
3
 72
13
 73
9
 74
0
 42
0.0000001
 43
0.0000001
 44
0.0000000001
 40
0.0
 40
0.0
 40
0.0
 40
0.0
 40
0.334468583
 40
0.6270301904
 40
0.7474733745
 40
0.8480743797
 40
0.9301612072
 40
1.0
 40
1.0
 40
1.0
 40
1.0
 10
119.2994230741
 20
147.9238380835
 30
0.0
 10
119.2994230719
 20
147.8598562742
 30
0.0
 10
119.290400938
 20
147.7398016078
 30
0.0
 10
119.2562436012
 20
147.5996962005
 30
0.0
 10
119.2142282619
 20
147.5104898398
 30
0.0
 10
119.1802987103
 20
147.4629218951
 30
0.0
 10
119.1421895642
 20
147.4318722871
 30
0.0
 10
119.1129564952
 20
147.4238380835
 30
0.0
 10
119.0995967581
 20
147.4238380835
 30
0.0
  0
SPLINE
  5
378
100
AcDbEntity
  8
RUNDUNGEN
100
AcDbSpline
 62
7
  6
CONTINUOUS
 70
0
 71
3
 72
15
 73
11
 74
0
 42
0.0000001
 43
0.0000001
 44
0.0000000001
 40
0.0
 40
0.0
 40
0.0
 40
0.0
 40
0.076499669
 40
0.1613891719
 40
0.2606242095
 40
0.3773506416
 40
0.5122663021
 40
0.6638447815
 40
0.8283446127
 40
1.0
 40
1.0
 40
1.0
 40
1.0
 10
63.04559065
 20
159.4238380815
 30
0.0
 10
63.137390238
 20
159.4238331961
 30
0.0
 10
63.332498943
 20
159.3840170528
 30
0.0
 10
63.6018567017
 20
159.2157963351
 30
0.0
 10
63.8487136115
 20
158.9480181927
 30
0.0
 10
64.0679679959
 20
158.5860903015
 30
0.0
 10
64.2523154424
 20
158.1370335944
 30
0.0
 10
64.3929262484
 20
157.613120634
 30
0.0
 10
64.4814643812
 20
157.0335210192
 30
0.0
 10
64.5014427672
 20
156.629824513
 30
0.0
 10
64.5014734582
 20
156.4238380835
 30
0.0
  0
SPLINE
  5
379
100
AcDbEntity
  8
RUNDUNGEN
100
AcDbSpline
 62
7
  6
CONTINUOUS
 70
0
 71
3
 72
13
 73
9
 74
0
 42
0.0000001
 43
0.0000001
 44
0.0000000001
 40
0.0
 40
0.0
 40
0.0
 40
0.0
 40
0.0698328453
 40
0.1519164679
 40
0.2525166463
 40
0.372960644
 40
0.6655266083
 40
1.0
 40
1.0
 40
1.0
 40
1.0
 10
139.3037652348
 20
159.4238380835
 30
0.0
 10
139.2904067837
 20
159.4238380835
 30
0.0
 10
139.2611759068
 20
159.4158033806
 30
0.0
 10
139.2230701393
 20
159.384753678
 30
0.0
 10
139.189142562
 20
159.3371859953
 30
0.0
 10
139.1471280159
 20
159.2479796321
 30
0.0
 10
139.1129683632
 20
159.1078747506
 30
0.0
 10
139.103941898
 20
158.9878201027
 30
0.0
 10
139.1039389255
 20
158.9238380835
 30
0.0
  0
SPLINE
  5
37A
100
AcDbEntity
  8
RUNDUNGEN
100
AcDbSpline
 62
7
  6
CONTINUOUS
 70
0
 71
3
 72
13
 73
9
 74
0
 42
0.0000001
 43
0.0000001
 44
0.0000000001
 40
0.0
 40
0.0
 40
0.0
 40
0.0
 40
0.0717095771
 40
0.1621802539
 40
0.2718419628
 40
0.3981200709
 40
0.686471433
 40
1.0
 40
1.0
 40
1.0
 40
1.0
 10
84.6914454497
 20
159.4238380835
 30
0.0
 10
84.6550367764
 20
159.4238286301
 30
0.0
 10
84.5732566231
 20
159.4015668236
 30
0.0
 10
84.4538592651
 20
159.3315689405
 30
0.0
 10
84.3234320151
 20
159.228669253
 30
0.0
 10
84.1287880081
 20
159.0469042324
 30
0.0
 10
83.8774418009
 20
158.7753106921
 30
0.0
 10
83.677970526
 20
158.5438696597
 30
0.0
 10
83.573411461
 20
158.4238380835
 30
0.0
  0
SPLINE
  5
37B
100
AcDbEntity
  8
RUNDUNGEN
100
AcDbSpline
 62
7
  6
CONTINUOUS
 70
0
 71
3
 72
13
 73
9
 74
0
 42
0.0000001
 43
0.0000001
 44
0.0000000001
 40
0.0
 40
0.0
 40
0.0
 40
0.0
 40
0.3344732234
 40
0.627039037
 40
0.7474830084
 40
0.848083217
 40
0.930166951
 40
1.0
 40
1.0
 40
1.0
 40
1.0
 10
119.2994230741
 20
158.9238380835
 30
0.0
 10
119.2994202023
 20
158.9878200947
 30
0.0
 10
119.2903938845
 20
159.107874742
 30
0.0
 10
119.2562343108
 20
159.2479796403
 30
0.0
 10
119.2142197383
 20
159.3371860041
 30
0.0
 10
119.1802920933
 20
159.3847536969
 30
0.0
 10
119.1421862098
 20
159.4158033965
 30
0.0
 10
119.1129552579
 20
159.4238380835
 30
0.0
 10
119.0995967628
 20
159.4238380835
 30
0.0
  0
SPLINE
  5
37C
100
AcDbEntity
  8
RUNDUNGEN
100
AcDbSpline
 62
7
  6
CONTINUOUS
 70
0
 71
3
 72
10
 73
6
 74
0
 42
0.0000001
 43
0.0000001
 44
0.0000000001
 40
0.0
 40
0.0
 40
0.0
 40
0.0
 40
0.2404997845
 40
0.4893169834
 40
1.0
 40
1.0
 40
1.0
 40
1.0
 10
114.1039389213
 20
158.9238380835
 30
0.0
 10
114.3164916602
 20
158.9238364853
 30
0.0
 10
114.7487010737
 20
158.8817071412
 30
0.0
 10
115.6167556501
 20
158.714408006
 30
0.0
 10
116.2655751001
 20
158.5401096267
 30
0.0
 10
116.7016809964
 20
158.4238380835
 30
0.0
  0
SPLINE
  5
37D
100
AcDbEntity
  8
RUNDUNGEN
100
AcDbSpline
 62
7
  6
CONTINUOUS
 70
0
 71
3
 72
10
 73
6
 74
0
 42
0.0000001
 43
0.0000001
 44
0.0000000001
 40
0.0
 40
0.0
 40
0.0
 40
0.0
 40
0.2404999982
 40
0.4893171537
 40
1.0
 40
1.0
 40
1.0
 40
1.0
 10
119.2994230716
 20
158.9238380835
 30
0.0
 10
119.0868701597
 20
158.9238413197
 30
0.0
 10
118.6546609432
 20
158.8817016754
 30
0.0
 10
117.786605665
 20
158.7144110507
 30
0.0
 10
117.1377870651
 20
158.5401082651
 30
0.0
 10
116.7016809964
 20
158.4238380835
 30
0.0
  0
SPLINE
  5
37E
100
AcDbEntity
  8
RUNDUNGEN
100
AcDbSpline
 62
7
  6
CONTINUOUS
 70
0
 71
3
 72
9
 73
5
 74
0
 42
0.0000001
 43
0.0000001
 44
0.0000000001
 40
0.0
 40
0.0
 40
0.0
 40
0.0
 40
0.2520709241
 40
1.0
 40
1.0
 40
1.0
 40
1.0
 10
127.1846439096
 20
151.4268450743
 30
0.0
 10
127.1873087699
 20
151.4008299751
 30
0.0
 10
127.1968213656
 20
151.2975252865
 30
0.0
 10
127.2016784813
 20
151.1937400716
 30
0.0
 10
127.2016809964
 20
151.1161457758
 30
0.0
  0
SPLINE
  5
37F
100
AcDbEntity
  8
RUNDUNGEN
100
AcDbSpline
 62
7
  6
CONTINUOUS
 70
0
 71
3
 72
9
 73
5
 74
0
 42
0.0000001
 43
0.0000001
 44
0.0000000001
 40
0.0
 40
0.0
 40
0.0
 40
0.0
 40
0.5000003688
 40
1.0
 40
1.0
 40
1.0
 40
1.0
 10
127.1846439096
 20
155.4208310927
 30
0.0
 10
127.1167386917
 20
154.7578121317
 30
0.0
 10
127.0539504673
 20
153.4238376106
 30
0.0
 10
127.1167383339
 20
152.0898630103
 30
0.0
 10
127.1846439096
 20
151.4268450743
 30
0.0
  0
SPLINE
  5
380
100
AcDbEntity
  8
RUNDUNGEN
100
AcDbSpline
 62
7
  6
CONTINUOUS
 70
0
 71
3
 72
9
 73
5
 74
0
 42
0.0000001
 43
0.0000001
 44
0.0000000001
 40
0.0
 40
0.0
 40
0.0
 40
0.0
 40
0.2479456325
 40
1.0
 40
1.0
 40
1.0
 40
1.0
 10
127.2016809964
 20
155.7315303912
 30
0.0
 10
127.2016805837
 20
155.705806296
 30
0.0
 10
127.2000539657
 20
155.6020576577
 30
0.0
 10
127.1925942021
 20
155.4984498304
 30
0.0
 10
127.1846439096
 20
155.4208310927
 30
0.0
  0
SPLINE
  5
381
100
AcDbEntity
  8
RUNDUNGEN
100
AcDbSpline
 62
7
  6
CONTINUOUS
 70
0
 71
3
 72
9
 73
5
 74
0
 42
0.0000001
 43
0.0000001
 44
0.0000000001
 40
0.0
 40
0.0
 40
0.0
 40
0.0
 40
0.2479456778
 40
1.0
 40
1.0
 40
1.0
 40
1.0
 10
131.2016809964
 20
155.7315303912
 30
0.0
 10
131.2016813742
 20
155.7058062912
 30
0.0
 10
131.2033080248
 20
155.6020576512
 30
0.0
 10
131.2107678141
 20
155.4984498283
 30
0.0
 10
131.2187180833
 20
155.4208310927
 30
0.0
  0
SPLINE
  5
382
100
AcDbEntity
  8
RUNDUNGEN
100
AcDbSpline
 62
7
  6
CONTINUOUS
 70
0
 71
3
 72
9
 73
5
 74
0
 42
0.0000001
 43
0.0000001
 44
0.0000000001
 40
0.0
 40
0.0
 40
0.0
 40
0.0
 40
0.4999999968
 40
1.0
 40
1.0
 40
1.0
 40
1.0
 10
131.2187180833
 20
155.4208310927
 30
0.0
 10
131.2866240982
 20
154.7578127119
 30
0.0
 10
131.349410918
 20
153.4238380867
 30
0.0
 10
131.2866240756
 20
152.0898634662
 30
0.0
 10
131.2187180833
 20
151.4268450743
 30
0.0
  0
SPLINE
  5
383
100
AcDbEntity
  8
RUNDUNGEN
100
AcDbSpline
 62
7
  6
CONTINUOUS
 70
0
 71
3
 72
9
 73
5
 74
0
 42
0.0000001
 43
0.0000001
 44
0.0000000001
 40
0.0
 40
0.0
 40
0.0
 40
0.0
 40
0.2520709043
 40
1.0
 40
1.0
 40
1.0
 40
1.0
 10
131.2187180833
 20
151.4268450743
 30
0.0
 10
131.2160532036
 20
151.400829979
 30
0.0
 10
131.206540573
 20
151.2975252913
 30
0.0
 10
131.2016835879
 20
151.193740074
 30
0.0
 10
131.2016809964
 20
151.1161457758
 30
0.0
  0
SPLINE
  5
384
100
AcDbEntity
  8
RUNDUNGEN
100
AcDbSpline
 62
7
  6
CONTINUOUS
 70
0
 71
3
 72
9
 73
5
 74
0
 42
0.0000001
 43
0.0000001
 44
0.0000000001
 40
0.0
 40
0.0
 40
0.0
 40
0.0
 40
0.2524242866
 40
1.0
 40
1.0
 40
1.0
 40
1.0
 10
152.1781438864
 20
151.4858612338
 30
0.0
 10
152.1817863806
 20
151.454894202
 30
0.0
 10
152.1948242082
 20
151.3320681098
 30
0.0
 10
152.2016784851
 20
151.2084895029
 30
0.0
 10
152.2016809964
 20
151.1161457758
 30
0.0
  0
SPLINE
  5
385
100
AcDbEntity
  8
RUNDUNGEN
100
AcDbSpline
 62
7
  6
CONTINUOUS
 70
0
 71
3
 72
9
 73
5
 74
0
 42
0.0000001
 43
0.0000001
 44
0.0000000001
 40
0.0
 40
0.0
 40
0.0
 40
0.0
 40
0.4999966294
 40
1.0
 40
1.0
 40
1.0
 40
1.0
 10
152.1781438864
 20
155.3618149332
 30
0.0
 10
152.102570871
 20
154.7191995702
 30
0.0
 10
152.032009152
 20
153.4238424612
 30
0.0
 10
152.1025705295
 20
152.1284853405
 30
0.0
 10
152.1781438864
 20
151.4858612338
 30
0.0
  0
SPLINE
  5
386
100
AcDbEntity
  8
RUNDUNGEN
100
AcDbSpline
 62
7
  6
CONTINUOUS
 70
0
 71
3
 72
9
 73
5
 74
0
 42
0.0000001
 43
0.0000001
 44
0.0000000001
 40
0.0
 40
0.0
 40
0.0
 40
0.0
 40
0.2475883819
 40
1.0
 40
1.0
 40
1.0
 40
1.0
 10
152.2016809964
 20
155.7315303912
 30
0.0
 10
152.2016808569
 20
155.7009456721
 30
0.0
 10
152.1993786901
 20
155.5774148144
 30
0.0
 10
152.1890006226
 20
155.4541244741
 30
0.0
 10
152.1781438864
 20
155.3618149332
 30
0.0
  0
SPLINE
  5
387
100
AcDbEntity
  8
RUNDUNGEN
100
AcDbSpline
 62
7
  6
CONTINUOUS
 70
0
 71
3
 72
16
 73
12
 74
0
 42
0.0000001
 43
0.0000001
 44
0.0000000001
 40
0.0
 40
0.0
 40
0.0
 40
0.0
 40
0.1722848148
 40
0.3374639848
 40
0.4896982021
 40
0.6250715487
 40
0.7418908498
 40
0.8406979373
 40
0.9245765942
 40
0.9628890841
 40
1.0
 40
1.0
 40
1.0
 40
1.0
 10
95.697581485
 20
153.4244464543
 30
0.0
 10
95.6975578056
 20
153.0137546655
 30
0.0
 10
95.7362382504
 20
152.2087302863
 30
0.0
 10
95.9071827195
 20
151.0520060806
 30
0.0
 10
96.1792204244
 20
150.005033085
 30
0.0
 10
96.5362570335
 20
149.1063555822
 30
0.0
 10
96.9617872283
 20
148.3810854496
 30
0.0
 10
97.4402954646
 20
147.8435329108
 30
0.0
 10
97.8917278791
 20
147.5530978592
 30
0.0
 10
98.2570401803
 20
147.4420615242
 30
0.0
 10
98.4373099094
 20
147.4238355464
 30
0.0
 10
98.5257747486
 20
147.4238380835
 30
0.0
  0
SPLINE
  5
388
100
AcDbEntity
  8
RUNDUNGEN
100
AcDbSpline
 62
7
  6
CONTINUOUS
 70
0
 71
3
 72
16
 73
12
 74
0
 42
0.0000001
 43
0.0000001
 44
0.0000000001
 40
0.0
 40
0.0
 40
0.0
 40
0.0
 40
0.0371261741
 40
0.0754384229
 40
0.1593149971
 40
0.2581247658
 40
0.3749418505
 40
0.5103113468
 40
0.6625362347
 40
0.8277122668
 40
1.0
 40
1.0
 40
1.0
 40
1.0
 10
98.5257752948
 20
159.4238380835
 30
0.0
 10
98.4372890225
 20
159.4238397575
 30
0.0
 10
98.2570112854
 20
159.4056337191
 30
0.0
 10
97.8917359701
 20
159.2945806505
 30
0.0
 10
97.4403963991
 20
159.0041835835
 30
0.0
 10
96.9619101551
 20
158.4667818221
 30
0.0
 10
96.5364272365
 20
157.7416541609
 30
0.0
 10
96.1794014991
 20
156.843190112
 30
0.0
 10
95.9073389188
 20
155.7964529285
 30
0.0
 10
95.7363186188
 20
154.6399609455
 30
0.0
 10
95.6976111158
 20
153.8350758708
 30
0.0
 10
95.697581485
 20
153.4244464543
 30
0.0
  0
SPLINE
  5
389
100
AcDbEntity
  8
RUNDUNGEN
100
AcDbSpline
 62
7
  6
CONTINUOUS
 70
0
 71
3
 72
10
 73
6
 74
0
 42
0.0000001
 43
0.0000001
 44
0.0000000001
 40
0.0
 40
0.0
 40
0.0
 40
0.0
 40
0.5106834879
 40
0.7595007395
 40
1.0
 40
1.0
 40
1.0
 40
1.0
 10
116.7016809964
 20
148.4238380835
 30
0.0
 10
117.137785019
 20
148.3075569955
 30
0.0
 10
117.7866091875
 20
148.1332882117
 30
0.0
 10
118.6546594387
 20
147.9659315698
 30
0.0
 10
119.0868706898
 20
147.9238754591
 30
0.0
 10
119.2994230716
 20
147.9238380835
 30
0.0
  0
SPLINE
  5
38A
100
AcDbEntity
  8
RUNDUNGEN
100
AcDbSpline
 62
7
  6
CONTINUOUS
 70
0
 71
3
 72
9
 73
5
 74
0
 42
0.0000001
 43
0.0000001
 44
0.0000000001
 40
0.0
 40
0.0
 40
0.0
 40
0.0
 40
0.2479456778
 40
1.0
 40
1.0
 40
1.0
 40
1.0
 10
106.2016809964
 20
155.7315303912
 30
0.0
 10
106.2016813742
 20
155.7058062912
 30
0.0
 10
106.2033080248
 20
155.6020576512
 30
0.0
 10
106.2107678141
 20
155.4984498283
 30
0.0
 10
106.2187180833
 20
155.4208310927
 30
0.0
  0
SPLINE
  5
38B
100
AcDbEntity
  8
RUNDUNGEN
100
AcDbSpline
 62
7
  6
CONTINUOUS
 70
0
 71
3
 72
9
 73
5
 74
0
 42
0.0000001
 43
0.0000001
 44
0.0000000001
 40
0.0
 40
0.0
 40
0.0
 40
0.0
 40
0.4999999968
 40
1.0
 40
1.0
 40
1.0
 40
1.0
 10
106.2187180833
 20
155.4208310927
 30
0.0
 10
106.2866240982
 20
154.7578127119
 30
0.0
 10
106.349410918
 20
153.4238380867
 30
0.0
 10
106.2866240756
 20
152.0898634662
 30
0.0
 10
106.2187180833
 20
151.4268450743
 30
0.0
  0
SPLINE
  5
38C
100
AcDbEntity
  8
RUNDUNGEN
100
AcDbSpline
 62
7
  6
CONTINUOUS
 70
0
 71
3
 72
9
 73
5
 74
0
 42
0.0000001
 43
0.0000001
 44
0.0000000001
 40
0.0
 40
0.0
 40
0.0
 40
0.0
 40
0.2520709043
 40
1.0
 40
1.0
 40
1.0
 40
1.0
 10
106.2187180833
 20
151.4268450743
 30
0.0
 10
106.2160532036
 20
151.400829979
 30
0.0
 10
106.206540573
 20
151.2975252913
 30
0.0
 10
106.2016835879
 20
151.193740074
 30
0.0
 10
106.2016809964
 20
151.1161457758
 30
0.0
  0
SPLINE
  5
38D
100
AcDbEntity
  8
RUNDUNGEN
100
AcDbSpline
 62
7
  6
CONTINUOUS
 70
0
 71
3
 72
10
 73
6
 74
0
 42
0.0000001
 43
0.0000001
 44
0.0000000001
 40
0.0
 40
0.0
 40
0.0
 40
0.0
 40
0.5106829148
 40
0.7595000512
 40
1.0
 40
1.0
 40
1.0
 40
1.0
 10
116.7016809964
 20
148.4238380835
 30
0.0
 10
116.2655746128
 20
148.3075689557
 30
0.0
 10
115.6167565193
 20
148.1332625089
 30
0.0
 10
114.7487006459
 20
147.9659789156
 30
0.0
 10
114.3164917764
 20
147.9238309449
 30
0.0
 10
114.1039389213
 20
147.9238380835
 30
0.0
  0
SPLINE
  5
38E
100
AcDbEntity
  8
RUNDUNGEN
100
AcDbSpline
 62
7
  6
CONTINUOUS
 70
0
 71
3
 72
13
 73
9
 74
0
 42
0.0000001
 43
0.0000001
 44
0.0000000001
 40
0.0
 40
0.0
 40
0.0
 40
0.0
 40
0.3344736576
 40
0.6270398621
 40
0.7474839037
 40
0.848084038
 40
0.9301674831
 40
1.0
 40
1.0
 40
1.0
 40
1.0
 10
139.1039389188
 20
147.9238380835
 30
0.0
 10
139.1039420523
 20
147.8598560502
 30
0.0
 10
139.1129687563
 20
147.7398013987
 30
0.0
 10
139.1471285408
 20
147.5996965403
 30
0.0
 10
139.1891430614
 20
147.5104901805
 30
0.0
 10
139.2230705399
 20
147.4629225176
 30
0.0
 10
139.2611761246
 20
147.431872811
 30
0.0
 10
139.290406882
 20
147.4238380835
 30
0.0
 10
139.3037652626
 20
147.4238380835
 30
0.0
  0
SPLINE
  5
38F
100
AcDbEntity
  8
RUNDUNGEN
100
AcDbSpline
 62
7
  6
CONTINUOUS
 70
0
 71
3
 72
9
 73
5
 74
0
 42
0.0000001
 43
0.0000001
 44
0.0000000001
 40
0.0
 40
0.0
 40
0.0
 40
0.0
 40
0.5287743528
 40
1.0
 40
1.0
 40
1.0
 40
1.0
 10
65.441166079
 20
150.4238380835
 30
0.0
 10
65.4411076476
 20
149.978564714
 30
0.0
 10
65.3910433142
 20
149.1358491171
 30
0.0
 10
65.2327635056
 20
148.3048050398
 30
0.0
 10
65.1217588052
 20
147.9238351491
 30
0.0
  0
SPLINE
  5
390
100
AcDbEntity
  8
RUNDUNGEN
100
AcDbSpline
 62
7
  6
CONTINUOUS
 70
0
 71
3
 72
10
 73
6
 74
0
 42
0.0000001
 43
0.0000001
 44
0.0000000001
 40
0.0
 40
0.0
 40
0.0
 40
0.0
 40
0.2254376363
 40
0.4713466307
 40
1.0
 40
1.0
 40
1.0
 40
1.0
 10
65.1217707315
 20
158.9238370422
 30
0.0
 10
65.1749029311
 20
158.741517559
 30
0.0
 10
65.2679250085
 20
158.3549243773
 30
0.0
 10
65.4026208076
 20
157.5229071969
 30
0.0
 10
65.4410822357
 20
156.869164089
 30
0.0
 10
65.441166079
 20
156.4238380835
 30
0.0
  0
SPLINE
  5
391
100
AcDbEntity
  8
RUNDUNGEN
100
AcDbSpline
 62
7
  6
CONTINUOUS
 70
0
 71
3
 72
13
 73
9
 74
0
 42
0.0000001
 43
0.0000001
 44
0.0000000001
 40
0.0
 40
0.0
 40
0.0
 40
0.0
 40
0.334473224
 40
0.6270390378
 40
0.7474830091
 40
0.8480832174
 40
0.9301669511
 40
1.0
 40
1.0
 40
1.0
 40
1.0
 10
144.2994230741
 20
158.9238380835
 30
0.0
 10
144.2994202023
 20
158.987820095
 30
0.0
 10
144.2903938844
 20
159.1078747427
 30
0.0
 10
144.2562343105
 20
159.2479796414
 30
0.0
 10
144.2142197377
 20
159.3371860052
 30
0.0
 10
144.1802920925
 20
159.3847536978
 30
0.0
 10
144.1421862087
 20
159.4158033972
 30
0.0
 10
144.1129552566
 20
159.4238380837
 30
0.0
 10
144.0995967615
 20
159.4238380835
 30
0.0
  0
SPLINE
  5
392
100
AcDbEntity
  8
RUNDUNGEN
100
AcDbSpline
 62
7
  6
CONTINUOUS
 70
0
 71
3
 72
11
 73
7
 74
0
 42
0.0000001
 43
0.0000001
 44
0.0000000001
 40
0.0
 40
0.0
 40
0.0
 40
0.0
 40
0.2190809298
 40
0.464224785
 40
0.7276062482
 40
1.0
 40
1.0
 40
1.0
 40
1.0
 10
144.0995404873
 20
159.4238380825
 30
0.0
 10
143.9081740445
 20
159.4238420028
 30
0.0
 10
143.5042781626
 20
159.3392036586
 30
0.0
 10
142.9171430087
 20
159.0950414154
 30
0.0
 10
142.3128940705
 20
158.7769029173
 30
0.0
 10
141.9077597298
 20
158.5427692605
 30
0.0
 10
141.7016809964
 20
158.4238380835
 30
0.0
  0
SPLINE
  5
393
100
AcDbEntity
  8
RUNDUNGEN
100
AcDbSpline
 62
7
  6
CONTINUOUS
 70
0
 71
3
 72
11
 73
7
 74
0
 42
0.0000001
 43
0.0000001
 44
0.0000000001
 40
0.0
 40
0.0
 40
0.0
 40
0.0
 40
0.2190798372
 40
0.4642232574
 40
0.7276053017
 40
1.0
 40
1.0
 40
1.0
 40
1.0
 10
139.3037791156
 20
159.4238380835
 30
0.0
 10
139.4951476943
 20
159.4238390642
 30
0.0
 10
139.8990514738
 20
159.3392217747
 30
0.0
 10
140.4861963974
 20
159.0950518754
 30
0.0
 10
141.0904564032
 20
158.7769105419
 30
0.0
 10
141.4955982586
 20
158.5427716627
 30
0.0
 10
141.7016809964
 20
158.4238380835
 30
0.0
  0
SPLINE
  5
394
100
AcDbEntity
  8
RUNDUNGEN
100
AcDbSpline
 62
7
  6
CONTINUOUS
 70
0
 71
3
 72
11
 73
7
 74
0
 42
0.0000001
 43
0.0000001
 44
0.0000000001
 40
0.0
 40
0.0
 40
0.0
 40
0.0
 40
0.2190809298
 40
0.464224785
 40
0.7276062482
 40
1.0
 40
1.0
 40
1.0
 40
1.0
 10
119.0995404873
 20
159.4238380825
 30
0.0
 10
118.9081740445
 20
159.4238420028
 30
0.0
 10
118.5042781626
 20
159.3392036586
 30
0.0
 10
117.9171430087
 20
159.0950414154
 30
0.0
 10
117.3128940705
 20
158.7769029173
 30
0.0
 10
116.9077597298
 20
158.5427692605
 30
0.0
 10
116.7016809964
 20
158.4238380835
 30
0.0
  0
SPLINE
  5
395
100
AcDbEntity
  8
RUNDUNGEN
100
AcDbSpline
 62
7
  6
CONTINUOUS
 70
0
 71
3
 72
11
 73
7
 74
0
 42
0.0000001
 43
0.0000001
 44
0.0000000001
 40
0.0
 40
0.0
 40
0.0
 40
0.0
 40
0.2190798372
 40
0.4642232574
 40
0.7276053017
 40
1.0
 40
1.0
 40
1.0
 40
1.0
 10
114.3037791156
 20
159.4238380835
 30
0.0
 10
114.4951476942
 20
159.4238390642
 30
0.0
 10
114.8990514738
 20
159.3392217747
 30
0.0
 10
115.4861963974
 20
159.0950518754
 30
0.0
 10
116.0904564032
 20
158.7769105419
 30
0.0
 10
116.4955982586
 20
158.5427716627
 30
0.0
 10
116.7016809964
 20
158.4238380835
 30
0.0
  0
SPLINE
  5
396
100
AcDbEntity
  8
RUNDUNGEN
100
AcDbSpline
 62
7
  6
CONTINUOUS
 70
0
 71
3
 72
13
 73
9
 74
0
 42
0.0000001
 43
0.0000001
 44
0.0000000001
 40
0.0
 40
0.0
 40
0.0
 40
0.0
 40
0.3135295304
 40
0.6018806076
 40
0.7281582928
 40
0.8378195547
 40
0.928290782
 40
1.0
 40
1.0
 40
1.0
 40
1.0
 10
74.973411461
 20
158.4238380835
 30
0.0
 10
74.8688592314
 20
158.543876253
 30
0.0
 10
74.6693779098
 20
158.7753089696
 30
0.0
 10
74.4180345336
 20
159.0469051427
 30
0.0
 10
74.2233906143
 20
159.228669364
 30
0.0
 10
74.0929637433
 20
159.3315693957
 30
0.0
 10
73.9735660207
 20
159.4015661536
 30
0.0
 10
73.8917859616
 20
159.4238287129
 30
0.0
 10
73.8553774722
 20
159.4238380835
 30
0.0
  0
SPLINE
  5
397
100
AcDbEntity
  8
RUNDUNGEN
100
AcDbSpline
 62
7
  6
CONTINUOUS
 70
0
 71
3
 72
11
 73
7
 74
0
 42
0.0000001
 43
0.0000001
 44
0.0000000001
 40
0.0
 40
0.0
 40
0.0
 40
0.0
 40
0.2190756087
 40
0.4642220876
 40
0.7276037886
 40
1.0
 40
1.0
 40
1.0
 40
1.0
 10
139.3037652344
 20
147.4238380835
 30
0.0
 10
139.4951311995
 20
147.4238861639
 30
0.0
 10
139.8990367959
 20
147.5084221178
 30
0.0
 10
140.4861880186
 20
147.7526182881
 30
0.0
 10
141.090452058
 20
148.0707581484
 30
0.0
 10
141.4955968207
 20
148.3049016497
 30
0.0
 10
141.7016809964
 20
148.4238380835
 30
0.0
  0
SPLINE
  5
398
100
AcDbEntity
  8
RUNDUNGEN
100
AcDbSpline
 62
7
  6
CONTINUOUS
 70
0
 71
3
 72
11
 73
7
 74
0
 42
0.0000001
 43
0.0000001
 44
0.0000000001
 40
0.0
 40
0.0
 40
0.0
 40
0.0
 40
0.2190810958
 40
0.4642252667
 40
0.727606692
 40
1.0
 40
1.0
 40
1.0
 40
1.0
 10
144.0995091332
 20
147.423838086
 30
0.0
 10
143.9081448342
 20
147.4238319976
 30
0.0
 10
143.5042554296
 20
147.5084859665
 30
0.0
 10
142.9171274722
 20
147.7526418148
 30
0.0
 10
142.3128862274
 20
148.0707785169
 30
0.0
 10
141.9077570003
 20
148.3049086457
 30
0.0
 10
141.7016809964
 20
148.4238380835
 30
0.0
  0
SPLINE
  5
399
100
AcDbEntity
  8
RUNDUNGEN
100
AcDbSpline
 62
7
  6
CONTINUOUS
 70
0
 71
3
 72
11
 73
7
 74
0
 42
0.0000001
 43
0.0000001
 44
0.0000000001
 40
0.0
 40
0.0
 40
0.0
 40
0.0
 40
0.2723962181
 40
0.5357779246
 40
0.7809243717
 40
1.0
 40
1.0
 40
1.0
 40
1.0
 10
116.7016809964
 20
148.4238380835
 30
0.0
 10
116.9077657624
 20
148.3049026623
 30
0.0
 10
117.3129097777
 20
148.0707578743
 30
0.0
 10
117.9171740325
 20
147.7526183201
 30
0.0
 10
118.5043251813
 20
147.5084223381
 30
0.0
 10
118.9082307767
 20
147.4238857216
 30
0.0
 10
119.0995967585
 20
147.4238380835
 30
0.0
  0
SPLINE
  5
39A
100
AcDbEntity
  8
RUNDUNGEN
100
AcDbSpline
 62
7
  6
CONTINUOUS
 70
0
 71
3
 72
11
 73
7
 74
0
 42
0.0000001
 43
0.0000001
 44
0.0000000001
 40
0.0
 40
0.0
 40
0.0
 40
0.0
 40
0.2723932652
 40
0.5357746903
 40
0.7809189599
 40
1.0
 40
1.0
 40
1.0
 40
1.0
 10
116.7016809964
 20
148.4238380835
 30
0.0
 10
116.495604662
 20
148.3049095033
 30
0.0
 10
116.0904762491
 20
148.0707784641
 30
0.0
 10
115.4862350454
 20
147.75264215
 30
0.0
 10
114.8991074194
 20
147.5084863136
 30
0.0
 10
114.4952181978
 20
147.4238319172
 30
0.0
 10
114.3038540319
 20
147.4238380861
 30
0.0
  0
SPLINE
  5
39B
100
AcDbEntity
  8
RUNDUNGEN
100
AcDbSpline
 62
7
  6
CONTINUOUS
 70
0
 71
3
 72
13
 73
9
 74
0
 42
0.0000001
 43
0.0000001
 44
0.0000000001
 40
0.0
 40
0.0
 40
0.0
 40
0.0
 40
0.3135314524
 40
0.6018802731
 40
0.7281612025
 40
0.837858696
 40
0.9283163967
 40
1.0
 40
1.0
 40
1.0
 40
1.0
 10
83.573411461
 20
148.4238380835
 30
0.0
 10
83.6779970788
 20
148.3038290798
 30
0.0
 10
83.8774259208
 20
148.072352456
 30
0.0
 10
84.1287785636
 20
147.8007690882
 30
0.0
 10
84.3234180688
 20
147.6189701933
 30
0.0
 10
84.4539213385
 20
147.5161463435
 30
0.0
 10
84.5732905139
 20
147.4461260487
 30
0.0
 10
84.6550502008
 20
147.4238344643
 30
0.0
 10
84.6914454497
 20
147.4238380835
 30
0.0
  0
SPLINE
  5
39C
100
AcDbEntity
  8
RUNDUNGEN
100
AcDbSpline
 62
7
  6
CONTINUOUS
 70
0
 71
3
 72
13
 73
9
 74
0
 42
0.0000001
 43
0.0000001
 44
0.0000000001
 40
0.0
 40
0.0
 40
0.0
 40
0.0
 40
0.0716839174
 40
0.1621408067
 40
0.2718381496
 40
0.3981189004
 40
0.6864676658
 40
1.0
 40
1.0
 40
1.0
 40
1.0
 10
73.8553774722
 20
147.4238380835
 30
0.0
 10
73.8917728789
 20
147.4238341631
 30
0.0
 10
73.9735324967
 20
147.4461256801
 30
0.0
 10
74.0929007088
 20
147.5161468208
 30
0.0
 10
74.2234040737
 20
147.6189695511
 30
0.0
 10
74.4180430964
 20
147.8007686427
 30
0.0
 10
74.6693995801
 20
148.0723490938
 30
0.0
 10
74.8688161016
 20
148.3038369858
 30
0.0
 10
74.973411461
 20
148.4238380835
 30
0.0
  0
SPLINE
  5
39D
100
AcDbEntity
  8
RUNDUNGEN
100
AcDbSpline
 62
7
  6
CONTINUOUS
 70
0
 71
3
 72
13
 73
9
 74
0
 42
0.0000001
 43
0.0000001
 44
0.0000000001
 40
0.0
 40
0.0
 40
0.0
 40
0.0
 40
0.3368893761
 40
0.6309116668
 40
0.751392758
 40
0.8513955875
 40
0.9321308809
 40
1.0
 40
1.0
 40
1.0
 40
1.0
 10
106.2016809964
 20
155.7315303906
 30
0.0
 10
106.2656479451
 20
155.7315303906
 30
0.0
 10
106.3855378912
 20
155.7402020297
 30
0.0
 10
106.5255611558
 20
155.7729921824
 30
0.0
 10
106.614862221
 20
155.8134303337
 30
0.0
 10
106.6623796161
 20
155.8460020162
 30
0.0
 10
106.6935175876
 20
155.882587955
 30
0.0
 10
106.7016809964
 20
155.9109514187
 30
0.0
 10
106.7016809964
 20
155.9238380835
 30
0.0
  0
SPLINE
  5
39E
100
AcDbEntity
  8
RUNDUNGEN
100
AcDbSpline
 62
7
  6
CONTINUOUS
 70
0
 71
3
 72
13
 73
9
 74
0
 42
0.0000001
 43
0.0000001
 44
0.0000000001
 40
0.0
 40
0.0
 40
0.0
 40
0.0
 40
0.3368893795
 40
0.6309116701
 40
0.7513927601
 40
0.8513955885
 40
0.9321308812
 40
1.0
 40
1.0
 40
1.0
 40
1.0
 10
106.2016809964
 20
151.116145776
 30
0.0
 10
106.2656479457
 20
151.116145776
 30
0.0
 10
106.3855378924
 20
151.1074741369
 30
0.0
 10
106.5255611573
 20
151.0746839839
 30
0.0
 10
106.614862222
 20
151.0342458326
 30
0.0
 10
106.6623796165
 20
151.0016741504
 30
0.0
 10
106.6935175878
 20
150.9650882119
 30
0.0
 10
106.7016809964
 20
150.9367247484
 30
0.0
 10
106.7016809964
 20
150.9238380837
 30
0.0
  0
SPLINE
  5
39F
100
AcDbEntity
  8
RUNDUNGEN
100
AcDbSpline
 62
7
  6
CONTINUOUS
 70
0
 71
3
 72
11
 73
7
 74
0
 42
0.0000001
 43
0.0000001
 44
0.0000000001
 40
0.0
 40
0.0
 40
0.0
 40
0.0
 40
0.3137124458
 40
0.6007780715
 40
0.8344694033
 40
1.0
 40
1.0
 40
1.0
 40
1.0
 10
106.2187180845
 20
155.4208116406
 30
0.0
 10
106.2729676549
 20
155.4253744687
 30
0.0
 10
106.3764087466
 20
155.4396787839
 30
0.0
 10
106.5173635698
 20
155.4756220173
 30
0.0
 10
106.627015172
 20
155.5216905559
 30
0.0
 10
106.6850745675
 20
155.5638016236
 30
0.0
 10
106.7016722503
 20
155.5872471765
 30
0.0
  0
SPLINE
  5
3A0
100
AcDbEntity
  8
RUNDUNGEN
100
AcDbSpline
 62
7
  6
CONTINUOUS
 70
0
 71
3
 72
11
 73
7
 74
0
 42
0.0000001
 43
0.0000001
 44
0.0000000001
 40
0.0
 40
0.0
 40
0.0
 40
0.0
 40
0.3136968471
 40
0.600755584
 40
0.834452889
 40
1.0
 40
1.0
 40
1.0
 40
1.0
 10
106.2187180833
 20
151.4268456987
 30
0.0
 10
106.2729647975
 20
151.4222836584
 30
0.0
 10
106.3764018406
 20
151.4079813431
 30
0.0
 10
106.5173539641
 20
151.3720427684
 30
0.0
 10
106.627010247
 20
151.325978376
 30
0.0
 10
106.6850758336
 20
151.2838726254
 30
0.0
 10
106.7016809964
 20
151.2604289902
 30
0.0
  0
SPLINE
  5
3A1
100
AcDbEntity
  8
RUNDUNGEN
100
AcDbSpline
 62
7
  6
CONTINUOUS
 70
0
 71
3
 72
11
 73
7
 74
0
 42
0.0000001
 43
0.0000001
 44
0.0000000001
 40
0.0
 40
0.0
 40
0.0
 40
0.0
 40
0.2777545116
 40
0.5382227881
 40
0.7772996057
 40
1.0
 40
1.0
 40
1.0
 40
1.0
 10
126.7016809964
 20
158.9238380835
 30
0.0
 10
126.7016817326
 20
158.9951772633
 30
0.0
 10
126.7432077121
 20
159.1336908178
 30
0.0
 10
126.8674430788
 20
159.2936290666
 30
0.0
 10
127.0248336295
 20
159.398622962
 30
0.0
 10
127.1444820571
 20
159.4238391779
 30
0.0
 10
127.2016809964
 20
159.4238380835
 30
0.0
  0
SPLINE
  5
3A2
100
AcDbEntity
  8
RUNDUNGEN
100
AcDbSpline
 62
7
  6
CONTINUOUS
 70
0
 71
3
 72
13
 73
9
 74
0
 42
0.0000001
 43
0.0000001
 44
0.0000000001
 40
0.0
 40
0.0
 40
0.0
 40
0.0
 40
0.0678691191
 40
0.1486044125
 40
0.2486072419
 40
0.3690883331
 40
0.6631106237
 40
1.0
 40
1.0
 40
1.0
 40
1.0
 10
126.7016809964
 20
155.9238380834
 30
0.0
 10
126.7016809964
 20
155.9109514187
 30
0.0
 10
126.7098444053
 20
155.882587955
 30
0.0
 10
126.7409823768
 20
155.8460020162
 30
0.0
 10
126.7884997718
 20
155.8134303338
 30
0.0
 10
126.877800837
 20
155.7729921825
 30
0.0
 10
127.0178241016
 20
155.7402020298
 30
0.0
 10
127.1377140477
 20
155.7315303908
 30
0.0
 10
127.2016809964
 20
155.7315303907
 30
0.0
  0
SPLINE
  5
3A3
100
AcDbEntity
  8
RUNDUNGEN
100
AcDbSpline
 62
7
  6
CONTINUOUS
 70
0
 71
3
 72
11
 73
7
 74
0
 42
0.0000001
 43
0.0000001
 44
0.0000000001
 40
0.0
 40
0.0
 40
0.0
 40
0.0
 40
0.2227070315
 40
0.4617795113
 40
0.7222480705
 40
1.0
 40
1.0
 40
1.0
 40
1.0
 10
127.2016809964
 20
147.4238380835
 30
0.0
 10
127.1444803707
 20
147.4238354351
 30
0.0
 10
127.024831103
 20
147.4490553057
 30
0.0
 10
126.8674428632
 20
147.5540516762
 30
0.0
 10
126.7432051601
 20
147.7139852806
 30
0.0
 10
126.7016788173
 20
147.8524995898
 30
0.0
 10
126.7016809964
 20
147.9238380835
 30
0.0
  0
SPLINE
  5
3A4
100
AcDbEntity
  8
RUNDUNGEN
100
AcDbSpline
 62
7
  6
CONTINUOUS
 70
0
 71
3
 72
12
 73
8
 74
0
 42
0.0000001
 43
0.0000001
 44
0.0000000001
 40
0.0
 40
0.0
 40
0.0
 40
0.0
 40
0.2779290578
 40
0.5456893449
 40
0.7911964946
 40
0.9011133817
 40
1.0
 40
1.0
 40
1.0
 40
1.0
 10
74.973411461
 20
158.4238380835
 30
0.0
 10
74.8391612607
 20
158.4821293144
 30
0.0
 10
74.5753665573
 20
158.5961911363
 30
0.0
 10
74.1893732177
 20
158.7529033748
 30
0.0
 10
73.8782533208
 20
158.859445749
 30
0.0
 10
73.6446936885
 20
158.9122469004
 30
0.0
 10
73.5347737563
 20
158.9238349267
 30
0.0
 10
73.482699476
 20
158.9238380835
 30
0.0
  0
SPLINE
  5
3A5
100
AcDbEntity
  8
RUNDUNGEN
100
AcDbSpline
 62
7
  6
CONTINUOUS
 70
0
 71
3
 72
13
 73
9
 74
0
 42
0.0000001
 43
0.0000001
 44
0.0000000001
 40
0.0
 40
0.0
 40
0.0
 40
0.0
 40
0.0678691192
 40
0.1486044122
 40
0.2486072407
 40
0.3690883309
 40
0.6631106213
 40
1.0
 40
1.0
 40
1.0
 40
1.0
 10
126.7016809964
 20
150.9238380836
 30
0.0
 10
126.7016809964
 20
150.9367247484
 30
0.0
 10
126.709844405
 20
150.965088212
 30
0.0
 10
126.7409823763
 20
151.0016741509
 30
0.0
 10
126.7884997708
 20
151.0342458334
 30
0.0
 10
126.8778008356
 20
151.0746839851
 30
0.0
 10
127.0178241004
 20
151.1074741384
 30
0.0
 10
127.1377140472
 20
151.1161457779
 30
0.0
 10
127.2016809964
 20
151.1161457781
 30
0.0
  0
SPLINE
  5
3A6
100
AcDbEntity
  8
RUNDUNGEN
100
AcDbSpline
 62
7
  6
CONTINUOUS
 70
0
 71
3
 72
11
 73
7
 74
0
 42
0.0000001
 43
0.0000001
 44
0.0000000001
 40
0.0
 40
0.0
 40
0.0
 40
0.0
 40
0.1655313814
 40
0.3992230061
 40
0.6862883074
 40
1.0
 40
1.0
 40
1.0
 40
1.0
 10
126.7016893065
 20
155.5872471766
 30
0.0
 10
126.7182873468
 20
155.5638017156
 30
0.0
 10
126.7763470443
 20
155.5216909058
 30
0.0
 10
126.8859988758
 20
155.4756225715
 30
0.0
 10
127.0269535751
 20
155.4396795664
 30
0.0
 10
127.1303944749
 20
155.4253753492
 30
0.0
 10
127.1846439085
 20
155.4208125597
 30
0.0
  0
SPLINE
  5
3A7
100
AcDbEntity
  8
RUNDUNGEN
100
AcDbSpline
 62
7
  6
CONTINUOUS
 70
0
 71
3
 72
11
 73
7
 74
0
 42
0.0000001
 43
0.0000001
 44
0.0000000001
 40
0.0
 40
0.0
 40
0.0
 40
0.0
 40
0.1655471115
 40
0.3992444193
 40
0.6863031571
 40
1.0
 40
1.0
 40
1.0
 40
1.0
 10
126.7016809964
 20
151.2604289902
 30
0.0
 10
126.71828616
 20
151.2838726247
 30
0.0
 10
126.7763517483
 20
151.3259783728
 30
0.0
 10
126.8860080319
 20
151.3720427621
 30
0.0
 10
127.0269601548
 20
151.4079813338
 30
0.0
 10
127.1303971966
 20
151.4222836477
 30
0.0
 10
127.1846439096
 20
151.4268456873
 30
0.0
  0
SPLINE
  5
3A8
100
AcDbEntity
  8
RUNDUNGEN
100
AcDbSpline
 62
7
  6
CONTINUOUS
 70
0
 71
3
 72
11
 73
7
 74
0
 42
0.0000001
 43
0.0000001
 44
0.0000000001
 40
0.0
 40
0.0
 40
0.0
 40
0.0
 40
0.2777541508
 40
0.5382112973
 40
0.7772904086
 40
1.0
 40
1.0
 40
1.0
 40
1.0
 10
131.7016809895
 20
158.9239204875
 30
0.0
 10
131.7016879874
 20
158.9952524007
 30
0.0
 10
131.6601203004
 20
159.1337417973
 30
0.0
 10
131.5358972583
 20
159.2936520254
 30
0.0
 10
131.3785152116
 20
159.3986248682
 30
0.0
 10
131.2588765458
 20
159.4238428917
 30
0.0
 10
131.2016809964
 20
159.4238380835
 30
0.0
  0
SPLINE
  5
3A9
100
AcDbEntity
  8
RUNDUNGEN
100
AcDbSpline
 62
7
  6
CONTINUOUS
 70
0
 71
3
 72
12
 73
8
 74
0
 42
0.0000001
 43
0.0000001
 44
0.0000000001
 40
0.0
 40
0.0
 40
0.0
 40
0.0
 40
0.0988844972
 40
0.2088053369
 40
0.4543104822
 40
0.7220710961
 40
1.0
 40
1.0
 40
1.0
 40
1.0
 10
73.482699476
 20
147.9238380835
 30
0.0
 10
73.5347726521
 20
147.923828113
 30
0.0
 10
73.6446937605
 20
147.935434608
 30
0.0
 10
73.8782525342
 20
147.988228225
 30
0.0
 10
74.1893773068
 20
148.0947660358
 30
0.0
 10
74.5753644624
 20
148.2514892142
 30
0.0
 10
74.8391694233
 20
148.3655281641
 30
0.0
 10
74.973411461
 20
148.4238380835
 30
0.0
  0
SPLINE
  5
3AA
100
AcDbEntity
  8
RUNDUNGEN
100
AcDbSpline
 62
7
  6
CONTINUOUS
 70
0
 71
3
 72
13
 73
9
 74
0
 42
0.0000001
 43
0.0000001
 44
0.0000000001
 40
0.0
 40
0.0
 40
0.0
 40
0.0
 40
0.3368893761
 40
0.6309116668
 40
0.751392758
 40
0.8513955875
 40
0.9321308809
 40
1.0
 40
1.0
 40
1.0
 40
1.0
 10
131.2016809964
 20
155.7315303906
 30
0.0
 10
131.2656479451
 20
155.7315303906
 30
0.0
 10
131.3855378912
 20
155.7402020297
 30
0.0
 10
131.5255611558
 20
155.7729921824
 30
0.0
 10
131.614862221
 20
155.8134303337
 30
0.0
 10
131.6623796161
 20
155.8460020162
 30
0.0
 10
131.6935175876
 20
155.882587955
 30
0.0
 10
131.7016809964
 20
155.9109514187
 30
0.0
 10
131.7016809964
 20
155.9238380835
 30
0.0
  0
SPLINE
  5
3AB
100
AcDbEntity
  8
RUNDUNGEN
100
AcDbSpline
 62
7
  6
CONTINUOUS
 70
0
 71
3
 72
11
 73
7
 74
0
 42
0.0000001
 43
0.0000001
 44
0.0000000001
 40
0.0
 40
0.0
 40
0.0
 40
0.0
 40
0.277754777
 40
0.53821341
 40
0.7772922506
 40
1.0
 40
1.0
 40
1.0
 40
1.0
 10
131.7016809929
 20
147.9237791972
 30
0.0
 10
131.7016859586
 20
147.8524450985
 30
0.0
 10
131.6601299772
 20
147.713949091
 30
0.0
 10
131.5359033659
 20
147.5540313712
 30
0.0
 10
131.378519396
 20
147.4490523594
 30
0.0
 10
131.2588776962
 20
147.4238341192
 30
0.0
 10
131.2016809964
 20
147.4238380835
 30
0.0
  0
SPLINE
  5
3AC
100
AcDbEntity
  8
RUNDUNGEN
100
AcDbSpline
 62
7
  6
CONTINUOUS
 70
0
 71
3
 72
13
 73
9
 74
0
 42
0.0000001
 43
0.0000001
 44
0.0000000001
 40
0.0
 40
0.0
 40
0.0
 40
0.0
 40
0.3368893795
 40
0.6309116701
 40
0.7513927601
 40
0.8513955885
 40
0.9321308812
 40
1.0
 40
1.0
 40
1.0
 40
1.0
 10
131.2016809964
 20
151.116145776
 30
0.0
 10
131.2656479457
 20
151.116145776
 30
0.0
 10
131.3855378924
 20
151.1074741369
 30
0.0
 10
131.5255611573
 20
151.0746839839
 30
0.0
 10
131.614862222
 20
151.0342458326
 30
0.0
 10
131.6623796165
 20
151.0016741504
 30
0.0
 10
131.6935175878
 20
150.9650882119
 30
0.0
 10
131.7016809964
 20
150.9367247484
 30
0.0
 10
131.7016809964
 20
150.9238380837
 30
0.0
  0
SPLINE
  5
3AD
100
AcDbEntity
  8
RUNDUNGEN
100
AcDbSpline
 62
7
  6
CONTINUOUS
 70
0
 71
3
 72
11
 73
7
 74
0
 42
0.0000001
 43
0.0000001
 44
0.0000000001
 40
0.0
 40
0.0
 40
0.0
 40
0.0
 40
0.3137124458
 40
0.6007780715
 40
0.8344694033
 40
1.0
 40
1.0
 40
1.0
 40
1.0
 10
131.2187180845
 20
155.4208116406
 30
0.0
 10
131.2729676549
 20
155.4253744687
 30
0.0
 10
131.3764087466
 20
155.4396787839
 30
0.0
 10
131.5173635698
 20
155.4756220173
 30
0.0
 10
131.627015172
 20
155.5216905559
 30
0.0
 10
131.6850745675
 20
155.5638016236
 30
0.0
 10
131.7016722503
 20
155.5872471765
 30
0.0
  0
SPLINE
  5
3AE
100
AcDbEntity
  8
RUNDUNGEN
100
AcDbSpline
 62
7
  6
CONTINUOUS
 70
0
 71
3
 72
11
 73
7
 74
0
 42
0.0000001
 43
0.0000001
 44
0.0000000001
 40
0.0
 40
0.0
 40
0.0
 40
0.0
 40
0.3136968471
 40
0.600755584
 40
0.834452889
 40
1.0
 40
1.0
 40
1.0
 40
1.0
 10
131.2187180833
 20
151.4268456987
 30
0.0
 10
131.2729647975
 20
151.4222836584
 30
0.0
 10
131.3764018406
 20
151.4079813431
 30
0.0
 10
131.5173539641
 20
151.3720427684
 30
0.0
 10
131.627010247
 20
151.325978376
 30
0.0
 10
131.6850758336
 20
151.2838726254
 30
0.0
 10
131.7016809964
 20
151.2604289902
 30
0.0
  0
SPLINE
  5
3AF
100
AcDbEntity
  8
RUNDUNGEN
100
AcDbSpline
 62
7
  6
CONTINUOUS
 70
0
 71
3
 72
11
 73
7
 74
0
 42
0.0000001
 43
0.0000001
 44
0.0000000001
 40
0.0
 40
0.0
 40
0.0
 40
0.0
 40
0.2777545116
 40
0.5382227881
 40
0.7772996057
 40
1.0
 40
1.0
 40
1.0
 40
1.0
 10
151.7016809964
 20
158.9238380835
 30
0.0
 10
151.7016817326
 20
158.9951772633
 30
0.0
 10
151.7432077121
 20
159.1336908178
 30
0.0
 10
151.8674430788
 20
159.2936290666
 30
0.0
 10
152.0248336295
 20
159.398622962
 30
0.0
 10
152.1444820571
 20
159.4238391779
 30
0.0
 10
152.2016809964
 20
159.4238380835
 30
0.0
  0
SPLINE
  5
3B0
100
AcDbEntity
  8
RUNDUNGEN
100
AcDbSpline
 62
7
  6
CONTINUOUS
 70
0
 71
3
 72
13
 73
9
 74
0
 42
0.0000001
 43
0.0000001
 44
0.0000000001
 40
0.0
 40
0.0
 40
0.0
 40
0.0
 40
0.0678691199
 40
0.1486044156
 40
0.2486072488
 40
0.3690883441
 40
0.6631106348
 40
1.0
 40
1.0
 40
1.0
 40
1.0
 10
151.7016809964
 20
155.9238380834
 30
0.0
 10
151.7016809964
 20
155.9109514185
 30
0.0
 10
151.7098444062
 20
155.8825879545
 30
0.0
 10
151.7409823783
 20
155.8460020147
 30
0.0
 10
151.7884997755
 20
155.8134303316
 30
0.0
 10
151.8778008425
 20
155.7729921809
 30
0.0
 10
152.0178241058
 20
155.7402020291
 30
0.0
 10
152.1377140499
 20
155.7315303908
 30
0.0
 10
152.2016809964
 20
155.7315303907
 30
0.0
  0
SPLINE
  5
3B1
100
AcDbEntity
  8
RUNDUNGEN
100
AcDbSpline
 62
7
  6
CONTINUOUS
 70
0
 71
3
 72
11
 73
7
 74
0
 42
0.0000001
 43
0.0000001
 44
0.0000000001
 40
0.0
 40
0.0
 40
0.0
 40
0.0
 40
0.2777546056
 40
0.5382110598
 40
0.7772901506
 40
1.0
 40
1.0
 40
1.0
 40
1.0
 10
151.7016810031
 20
147.9237571064
 30
0.0
 10
151.7016741103
 20
147.8524249171
 30
0.0
 10
151.743240618
 20
147.7139350443
 30
0.0
 10
151.8674639255
 20
147.5540241919
 30
0.0
 10
152.0248462507
 20
147.4490515334
 30
0.0
 10
152.1444852531
 20
147.4238328716
 30
0.0
 10
152.2016809964
 20
147.4238380835
 30
0.0
  0
SPLINE
  5
3B2
100
AcDbEntity
  8
RUNDUNGEN
100
AcDbSpline
 62
7
  6
CONTINUOUS
 70
0
 71
3
 72
13
 73
9
 74
0
 42
0.0000001
 43
0.0000001
 44
0.0000000001
 40
0.0
 40
0.0
 40
0.0
 40
0.0
 40
0.0678691201
 40
0.1486044158
 40
0.2486072487
 40
0.3690883435
 40
0.6631106339
 40
1.0
 40
1.0
 40
1.0
 40
1.0
 10
151.7016809964
 20
150.9238380836
 30
0.0
 10
151.7016809964
 20
150.9367247485
 30
0.0
 10
151.709844406
 20
150.9650882127
 30
0.0
 10
151.7409823781
 20
151.0016741526
 30
0.0
 10
151.788499775
 20
151.0342458358
 30
0.0
 10
151.8778008418
 20
151.074683987
 30
0.0
 10
152.0178241053
 20
151.1074741392
 30
0.0
 10
152.1377140496
 20
151.1161457779
 30
0.0
 10
152.2016809964
 20
151.1161457781
 30
0.0
  0
SPLINE
  5
3B3
100
AcDbEntity
  8
RUNDUNGEN
100
AcDbSpline
 62
7
  6
CONTINUOUS
 70
0
 71
3
 72
11
 73
7
 74
0
 42
0.0000001
 43
0.0000001
 44
0.0000000001
 40
0.0
 40
0.0
 40
0.0
 40
0.0
 40
0.1703487696
 40
0.4057030726
 40
0.6906647454
 40
1.0
 40
1.0
 40
1.0
 40
1.0
 10
151.7016891839
 20
155.5233130038
 30
0.0
 10
151.7204305566
 20
155.5011660413
 30
0.0
 10
151.7792773797
 20
155.4616427415
 30
0.0
 10
151.8880969887
 20
155.4171025531
 30
0.0
 10
152.0254365948
 20
155.3817764488
 30
0.0
 10
152.1257077105
 20
155.3668982735
 30
0.0
 10
152.1781438852
 20
155.3617975866
 30
0.0
  0
SPLINE
  5
3B4
100
AcDbEntity
  8
RUNDUNGEN
100
AcDbSpline
 62
7
  6
CONTINUOUS
 70
0
 71
3
 72
11
 73
7
 74
0
 42
0.0000001
 43
0.0000001
 44
0.0000000001
 40
0.0
 40
0.0
 40
0.0
 40
0.0
 40
0.1703643421
 40
0.4057238332
 40
0.690679054
 40
1.0
 40
1.0
 40
1.0
 40
1.0
 10
151.7016809964
 20
151.324363163
 30
0.0
 10
151.7204286191
 20
151.3465082721
 30
0.0
 10
151.7792809438
 20
151.3860274339
 30
0.0
 10
151.8881049146
 20
151.4305638918
 30
0.0
 10
152.0254424108
 20
151.4658859436
 30
0.0
 10
152.1257101368
 20
151.4807622245
 30
0.0
 10
152.1781438864
 20
151.4858621256
 30
0.0
  0
SPLINE
  5
3B5
100
AcDbEntity
  8
RUNDUNGEN
100
AcDbSpline
 62
7
  6
CONTINUOUS
 70
0
 71
3
 72
15
 73
11
 74
0
 42
0.0000001
 43
0.0000001
 44
0.0000000001
 40
0.0
 40
0.0
 40
0.0
 40
0.0
 40
0.1715937975
 40
0.3360536259
 40
0.4876389196
 40
0.6225693246
 40
0.7393289937
 40
0.8385922378
 40
0.923496781
 40
1.0
 40
1.0
 40
1.0
 40
1.0
 10
64.5014734582
 20
150.4238380835
 30
0.0
 10
64.5014521475
 20
150.2179226757
 30
0.0
 10
64.481478209
 20
149.8143420981
 30
0.0
 10
64.3929746784
 20
149.2348456733
 30
0.0
 10
64.2524138688
 20
148.7109350837
 30
0.0
 10
64.0680769796
 20
148.261794283
 30
0.0
 10
63.8487923734
 20
147.8997715341
 30
0.0
 10
63.6018943147
 20
147.6318960702
 30
0.0
 10
63.33247686
 20
147.4636491912
 30
0.0
 10
63.1373412129
 20
147.4238378267
 30
0.0
 10
63.0455360785
 20
147.4238380858
 30
0.0
  0
LINE
  5
3B6
100
AcDbEntity
  8
RUNDUNGEN
100
AcDbLine
 62
7
  6
CONTINUOUS
 10
126.7016809964
 20
155.9238380835
 11
126.7016809964
 21
155.5872471768
  0
SPLINE
  5
3B7
100
AcDbEntity
  8
RUNDUNGEN
100
AcDbSpline
 62
7
  6
CONTINUOUS
 70
0
 71
3
 72
9
 73
5
 74
0
 42
0.0000001
 43
0.0000001
 44
0.0000000001
 40
0.0
 40
0.0
 40
0.0
 40
0.0
 40
0.5000003556
 40
1.0
 40
1.0
 40
1.0
 40
1.0
 10
126.7016809964
 20
155.5872471768
 30
0.0
 10
126.6337456929
 20
154.8685547605
 30
0.0
 10
126.5710177189
 20
153.4238375948
 30
0.0
 10
126.633745177
 20
151.9791203262
 30
0.0
 10
126.7016809964
 20
151.2604289902
 30
0.0
  0
LINE
  5
3B8
100
AcDbEntity
  8
RUNDUNGEN
100
AcDbLine
 62
7
  6
CONTINUOUS
 10
126.7016809964
 20
151.2604289902
 11
126.7016809964
 21
150.9238380835
  0
SPLINE
  5
3B9
100
AcDbEntity
  8
RUNDUNGEN
100
AcDbSpline
 62
7
  6
CONTINUOUS
 70
0
 71
3
 72
13
 73
9
 74
0
 42
0.0000001
 43
0.0000001
 44
0.0000000001
 40
0.0
 40
0.0
 40
0.0
 40
0.0
 40
0.2732375683
 40
0.542401133
 40
0.6723708313
 40
0.7956221961
 40
0.9073099874
 40
1.0
 40
1.0
 40
1.0
 40
1.0
 10
63.0455850975
 20
147.423845428
 30
0.0
 10
63.2417800798
 20
147.4238218212
 30
0.0
 10
63.6317140815
 20
147.4509674851
 30
0.0
 10
64.1061112039
 20
147.5467580573
 30
0.0
 10
64.4664764894
 20
147.6512470024
 30
0.0
 10
64.7142842549
 20
147.7368470308
 30
0.0
 10
64.932220087
 20
147.8254584754
 30
0.0
 10
65.0645983059
 20
147.889703566
 30
0.0
 10
65.1217481698
 20
147.9238130338
 30
0.0
  0
SPLINE
  5
3BA
100
AcDbEntity
  8
RUNDUNGEN
100
AcDbSpline
 62
7
  6
CONTINUOUS
 70
0
 71
3
 72
13
 73
9
 74
0
 42
0.0000001
 43
0.0000001
 44
0.0000000001
 40
0.0
 40
0.0
 40
0.0
 40
0.0
 40
0.0926895543
 40
0.2043753358
 40
0.3276269927
 40
0.4575969261
 40
0.7267592696
 40
1.0
 40
1.0
 40
1.0
 40
1.0
 10
65.1217629048
 20
158.9238393647
 30
0.0
 10
65.0646135563
 20
158.9579503874
 30
0.0
 10
64.932248434
 20
159.0222208737
 30
0.0
 10
64.71430588
 20
159.1108215292
 30
0.0
 10
64.4664937014
 20
159.1964115347
 30
0.0
 10
64.1061303728
 20
159.3009193016
 30
0.0
 10
63.6317253348
 20
159.3967077669
 30
0.0
 10
63.2417862626
 20
159.4238543674
 30
0.0
 10
63.045586995
 20
159.4238302574
 30
0.0
  0
SPLINE
  5
3BB
100
AcDbEntity
  8
RUNDUNGEN
100
AcDbSpline
 62
7
  6
CONTINUOUS
 70
0
 71
3
 72
12
 73
8
 74
0
 42
0.0000001
 43
0.0000001
 44
0.0000000001
 40
0.0
 40
0.0
 40
0.0
 40
0.0
 40
0.0989848613
 40
0.2117627146
 40
0.4614199327
 40
0.7275766472
 40
1.0
 40
1.0
 40
1.0
 40
1.0
 10
95.8491110776
 20
147.9238360257
 30
0.0
 10
95.9306484866
 20
147.8847609346
 30
0.0
 10
96.1103368963
 20
147.8122126829
 30
0.0
 10
96.5111411477
 20
147.6813660022
 30
0.0
 10
97.0709041525
 20
147.5486011121
 30
0.0
 10
97.7846226176
 20
147.4471302727
 30
0.0
 10
98.276931959
 20
147.423828508
 30
0.0
 10
98.5257747485
 20
147.4238450496
 30
0.0
  0
SPLINE
  5
3BC
100
AcDbEntity
  8
RUNDUNGEN
100
AcDbSpline
 62
7
  6
CONTINUOUS
 70
0
 71
3
 72
12
 73
8
 74
0
 42
0.0000001
 43
0.0000001
 44
0.0000000001
 40
0.0
 40
0.0
 40
0.0
 40
0.0
 40
0.2724235042
 40
0.5385782457
 40
0.7882364611
 40
0.9010144494
 40
1.0
 40
1.0
 40
1.0
 40
1.0
 10
98.5257752561
 20
159.4238286778
 30
0.0
 10
98.2769328022
 20
159.4238467881
 30
0.0
 10
97.7846260905
 20
159.4005436771
 30
0.0
 10
97.0709092775
 20
159.2990772792
 30
0.0
 10
96.511147842
 20
159.1663131501
 30
0.0
 10
96.110342793
 20
159.0354664663
 30
0.0
 10
95.9306535012
 20
158.9629191297
 30
0.0
 10
95.8491160319
 20
158.9238431053
 30
0.0
  0
SPLINE
  5
3BD
100
AcDbEntity
  8
RUNDUNGEN
100
AcDbSpline
 62
7
  6
CONTINUOUS
 70
0
 71
3
 72
14
 73
10
 74
0
 42
0.0000001
 43
0.0000001
 44
0.0000000001
 40
0.0
 40
0.0
 40
0.0
 40
0.0
 40
0.343608762
 40
0.5011163487
 40
0.6420461963
 40
0.7626656003
 40
0.8610177314
 40
0.9379020558
 40
1.0
 40
1.0
 40
1.0
 40
1.0
 10
223.214637331
 20
147.9238351491
 30
0.0
 10
223.2146373949
 20
147.8599076329
 30
0.0
 10
223.208770741
 20
147.766447796
 30
0.0
 10
223.1877060597
 20
147.6487629952
 30
0.0
 10
223.1671096561
 20
147.5734303975
 30
0.0
 10
223.1420239748
 20
147.5111264807
 30
0.0
 10
223.113283999
 20
147.4637937723
 30
0.0
 10
223.0810859928
 20
147.4324425952
 30
0.0
 10
223.0551835764
 20
147.4238382391
 30
0.0
 10
223.0436304154
 20
147.4238380835
 30
0.0
  0
SPLINE
  5
3BE
100
AcDbEntity
  8
RUNDUNGEN
100
AcDbSpline
 62
7
  6
CONTINUOUS
 70
0
 71
3
 72
14
 73
10
 74
0
 42
0.0000001
 43
0.0000001
 44
0.0000000001
 40
0.0
 40
0.0
 40
0.0
 40
0.0
 40
0.3436085044
 40
0.5011161098
 40
0.6420459874
 40
0.7626653901
 40
0.8610174894
 40
0.9379018219
 40
1.0
 40
1.0
 40
1.0
 40
1.0
 10
245.1182130331
 20
147.9238380835
 30
0.0
 10
245.1182130331
 20
147.8599100827
 30
0.0
 10
245.1123461972
 20
147.7664495151
 30
0.0
 10
245.0912810907
 20
147.6487638167
 30
0.0
 10
245.0706842987
 20
147.5734306395
 30
0.0
 10
245.0455981614
 20
147.5111262988
 30
0.0
 10
245.0168576814
 20
147.4637933562
 30
0.0
 10
244.9846590745
 20
147.4324421608
 30
0.0
 10
244.9587562621
 20
147.4238380835
 30
0.0
 10
244.9472029614
 20
147.4238380835
 30
0.0
  0
SPLINE
  5
3BF
100
AcDbEntity
  8
RUNDUNGEN
100
AcDbSpline
 62
7
  6
CONTINUOUS
 70
0
 71
3
 72
11
 73
7
 74
0
 42
0.0000001
 43
0.0000001
 44
0.0000000001
 40
0.0
 40
0.0
 40
0.0
 40
0.0
 40
0.2938707645
 40
0.5642354854
 40
0.7973401085
 40
1.0
 40
1.0
 40
1.0
 40
1.0
 10
245.7675060801
 20
147.9238380835
 30
0.0
 10
245.7675022267
 20
147.8594987854
 30
0.0
 10
245.7517846945
 20
147.7352525005
 30
0.0
 10
245.6826560155
 20
147.5722827654
 30
0.0
 10
245.5749260785
 20
147.4552775617
 30
0.0
 10
245.4785425787
 20
147.4238380835
 30
0.0
 10
245.434172751
 20
147.4238380835
 30
0.0
  0
SPLINE
  5
3C0
100
AcDbEntity
  8
RUNDUNGEN
100
AcDbSpline
 62
7
  6
CONTINUOUS
 70
0
 71
3
 72
11
 73
7
 74
0
 42
0.0000001
 43
0.0000001
 44
0.0000000001
 40
0.0
 40
0.0
 40
0.0
 40
0.0
 40
0.2938652627
 40
0.5642245624
 40
0.7973295735
 40
1.0
 40
1.0
 40
1.0
 40
1.0
 10
245.7675060801
 20
158.9238380835
 30
0.0
 10
245.7675060802
 20
158.988176998
 30
0.0
 10
245.7517944218
 20
159.1124235257
 30
0.0
 10
245.6826685285
 20
159.2753950235
 30
0.0
 10
245.5749332886
 20
159.3924008724
 30
0.0
 10
245.4785454468
 20
159.4238380835
 30
0.0
 10
245.4341727464
 20
159.4238380835
 30
0.0
  0
SPLINE
  5
3C1
100
AcDbEntity
  8
RUNDUNGEN
100
AcDbSpline
 62
7
  6
CONTINUOUS
 70
0
 71
3
 72
14
 73
10
 74
0
 42
0.0000001
 43
0.0000001
 44
0.0000000001
 40
0.0
 40
0.0
 40
0.0
 40
0.0
 40
0.3436085073
 40
0.5011161115
 40
0.6420459864
 40
0.7626653881
 40
0.8610174874
 40
0.9379018212
 40
1.0
 40
1.0
 40
1.0
 40
1.0
 10
245.1182130331
 20
158.9238380835
 30
0.0
 10
245.1182130331
 20
158.9877660848
 30
0.0
 10
245.1123461969
 20
159.0812266528
 30
0.0
 10
245.0912810908
 20
159.1989123509
 30
0.0
 10
245.0706842987
 20
159.2742455271
 30
0.0
 10
245.0455981621
 20
159.3365498673
 30
0.0
 10
245.016857682
 20
159.3838828101
 30
0.0
 10
244.9846590748
 20
159.4152340054
 30
0.0
 10
244.9587562623
 20
159.4238380835
 30
0.0
 10
244.9472029614
 20
159.4238380835
 30
0.0
  0
SPLINE
  5
3C2
100
AcDbEntity
  8
RUNDUNGEN
100
AcDbSpline
 62
7
  6
CONTINUOUS
 70
0
 71
3
 72
14
 73
10
 74
0
 42
0.0000001
 43
0.0000001
 44
0.0000000001
 40
0.0
 40
0.0
 40
0.0
 40
0.0
 40
0.3436084617
 40
0.5011163711
 40
0.6420467778
 40
0.7626667408
 40
0.8610191732
 40
0.9379032572
 40
1.0
 40
1.0
 40
1.0
 40
1.0
 10
223.2146293814
 20
158.9238370422
 30
0.0
 10
223.2146288373
 20
158.9877648659
 30
0.0
 10
223.2087613839
 20
159.0812251863
 30
0.0
 10
223.1876955226
 20
159.1989105772
 30
0.0
 10
223.1670984141
 20
159.2742437099
 30
0.0
 10
223.1420124281
 20
159.3365481789
 30
0.0
 10
223.1132724736
 20
159.3838813838
 30
0.0
 10
223.0810749097
 20
159.4152329749
 30
0.0
 10
223.0551727623
 20
159.4238378296
 30
0.0
 10
223.0436197592
 20
159.4238380835
 30
0.0
  0
SPLINE
  5
3C3
100
AcDbEntity
  8
RUNDUNGEN
100
AcDbSpline
 62
7
  6
CONTINUOUS
 70
0
 71
3
 72
11
 73
7
 74
0
 42
0.0000001
 43
0.0000001
 44
0.0000000001
 40
0.0
 40
0.0
 40
0.0
 40
0.0
 40
0.2772443139
 40
0.5290371218
 40
0.7673486513
 40
1.0
 40
1.0
 40
1.0
 40
1.0
 10
223.2146215685
 20
158.9238393647
 30
0.0
 10
222.9588759281
 20
158.9793978299
 30
0.0
 10
222.4741033836
 20
159.0997021197
 30
0.0
 10
221.7713883017
 20
159.2757779545
 30
0.0
 10
221.0987856805
 20
159.3956031652
 30
0.0
 10
220.6537830238
 20
159.4238545131
 30
0.0
 10
220.434166672
 20
159.4238302574
 30
0.0
  0
SPLINE
  5
3C4
100
AcDbEntity
  8
RUNDUNGEN
100
AcDbSpline
 62
7
  6
CONTINUOUS
 70
0
 71
3
 72
11
 73
7
 74
0
 42
0.0000001
 43
0.0000001
 44
0.0000000001
 40
0.0
 40
0.0
 40
0.0
 40
0.0
 40
0.2326534864
 40
0.470964118
 40
0.7227572649
 40
1.0
 40
1.0
 40
1.0
 40
1.0
 10
220.4341645862
 20
147.423845428
 30
0.0
 10
220.6537789983
 20
147.4238216822
 30
0.0
 10
221.0987746119
 20
147.4520730112
 30
0.0
 10
221.7713675026
 20
147.5718916376
 30
0.0
 10
222.4740666916
 20
147.7479691656
 30
0.0
 10
222.9588318435
 20
147.8682611966
 30
0.0
 10
223.2145725723
 20
147.9238130338
 30
0.0
  0
SPLINE
  5
3C5
100
AcDbEntity
  8
RUNDUNGEN
100
AcDbSpline
 62
7
  6
CONTINUOUS
 70
0
 71
3
 72
11
 73
7
 74
0
 42
0.0000001
 43
0.0000001
 44
0.0000000001
 40
0.0
 40
0.0
 40
0.0
 40
0.0
 40
0.1942115697
 40
0.4127979304
 40
0.676156331
 40
1.0
 40
1.0
 40
1.0
 40
1.0
 10
246.4341727464
 20
158.4238380835
 30
0.0
 10
246.4340994963
 20
158.4830894517
 30
0.0
 10
246.4025017666
 20
158.6104827049
 30
0.0
 10
246.2668711379
 20
158.7733128723
 30
0.0
 10
246.0473245805
 20
158.8941606176
 30
0.0
 10
245.8663065535
 20
158.9238327261
 30
0.0
 10
245.7675060798
 20
158.9238380835
 30
0.0
  0
SPLINE
  5
3C6
100
AcDbEntity
  8
RUNDUNGEN
100
AcDbSpline
 62
7
  6
CONTINUOUS
 70
0
 71
3
 72
11
 73
7
 74
0
 42
0.0000001
 43
0.0000001
 44
0.0000000001
 40
0.0
 40
0.0
 40
0.0
 40
0.0
 40
0.3238415638
 40
0.5871984844
 40
0.80578559
 40
1.0
 40
1.0
 40
1.0
 40
1.0
 10
245.7675060798
 20
147.9238380835
 30
0.0
 10
245.8663061076
 20
147.9238211696
 30
0.0
 10
246.047322633
 20
147.953528324
 30
0.0
 10
246.2668705042
 20
148.0743558958
 30
0.0
 10
246.4025110751
 20
148.2371913673
 30
0.0
 10
246.4340851447
 20
148.3645857497
 30
0.0
 10
246.4341727464
 20
148.4238380835
 30
0.0
  0
LINE
  5
3C7
100
AcDbEntity
  8
RUNDUNGEN
100
AcDbLine
 62
7
  6
CONTINUOUS
 10
93.4402072393
 20
94.1537358461
 11
91.2180630277
 21
88.1537358568
  0
LINE
  5
3C8
100
AcDbEntity
  8
RUNDUNGEN
100
AcDbLine
 62
7
  6
CONTINUOUS
 10
131.7016809964
 20
82.1537358568
 11
132.2016809964
 21
82.2195621056
  0
LINE
  5
3C9
100
AcDbEntity
  8
RUNDUNGEN
100
AcDbLine
 62
7
  6
CONTINUOUS
 10
123.2016809964
 20
69.0915580303
 11
122.7016809964
 21
69.1573842791
  0
LINE
  5
3CA
100
AcDbEntity
  8
RUNDUNGEN
100
AcDbLine
 62
7
  6
CONTINUOUS
 10
107.1677673617
 20
94.1537039072
 11
109.1695921102
 21
88.1537358568
  0
LINE
  5
3CB
100
AcDbEntity
  8
RUNDUNGEN
100
AcDbLine
 62
7
  6
CONTINUOUS
 10
109.7016809964
 20
88.1537358568
 11
109.2016809964
 21
88.0655723665
  0
LINE
  5
3CC
100
AcDbEntity
  8
RUNDUNGEN
100
AcDbLine
 62
7
  6
CONTINUOUS
 10
148.7016809964
 20
88.1537358568
 11
149.2016809964
 21
88.0655723665
  0
LINE
  5
3CD
100
AcDbEntity
  8
RUNDUNGEN
100
AcDbLine
 62
7
  6
CONTINUOUS
 10
123.7016809964
 20
88.1537358568
 11
124.2016809964
 21
88.0655723665
  0
LINE
  5
3CE
100
AcDbEntity
  8
RUNDUNGEN
100
AcDbLine
 62
7
  6
CONTINUOUS
 10
132.1677673617
 20
94.1537039072
 11
134.1695921102
 21
88.1537358568
  0
SPLINE
  5
3CF
100
AcDbEntity
  8
RUNDUNGEN
100
AcDbSpline
 62
7
  6
CONTINUOUS
 70
0
 71
3
 72
10
 73
6
 74
0
 42
0.0000001
 43
0.0000001
 44
0.0000000001
 40
0.0
 40
0.0
 40
0.0
 40
0.0
 40
0.2497938705
 40
0.4998307943
 40
1.0
 40
1.0
 40
1.0
 40
1.0
 10
151.2016809964
 20
84.6896342417
 30
0.0
 10
151.201683303
 20
84.9916508457
 30
0.0
 10
151.2778116472
 20
85.5961274582
 30
0.0
 10
151.6064842184
 20
86.7616165133
 30
0.0
 10
151.9644697179
 20
87.5974654872
 30
0.0
 10
152.2016809964
 20
88.1537358568
 30
0.0
  0
LINE
  5
3D0
100
AcDbEntity
  8
RUNDUNGEN
100
AcDbLine
 62
7
  6
CONTINUOUS
 10
110.2016809964
 20
69.0915580303
 11
110.7016809964
 21
69.1573842791
  0
LINE
  5
3D1
100
AcDbEntity
  8
RUNDUNGEN
100
AcDbLine
 62
7
  6
CONTINUOUS
 10
126.7016809964
 20
82.1537358568
 11
126.2016809964
 21
82.2195621056
  0
LINE
  5
3D2
100
AcDbEntity
  8
RUNDUNGEN
100
AcDbLine
 62
7
  6
CONTINUOUS
 10
135.2016809964
 20
69.0915580303
 11
135.7016809964
 21
69.1573842791
  0
SPLINE
  5
3D3
100
AcDbEntity
  8
RUNDUNGEN
100
AcDbSpline
 62
7
  6
CONTINUOUS
 70
0
 71
3
 72
10
 73
6
 74
0
 42
0.0000001
 43
0.0000001
 44
0.0000000001
 40
0.0
 40
0.0
 40
0.0
 40
0.0
 40
0.2498431012
 40
0.4998801369
 40
1.0
 40
1.0
 40
1.0
 40
1.0
 10
132.2016809964
 20
84.6896342417
 30
0.0
 10
132.2017309791
 20
84.9917104153
 30
0.0
 10
132.1255140734
 20
85.5962481624
 30
0.0
 10
131.7968364582
 20
86.7617237743
 30
0.0
 10
131.4388939006
 20
87.5975309269
 30
0.0
 10
131.2016809964
 20
88.1537358568
 30
0.0
  0
LINE
  5
3D4
100
AcDbEntity
  8
RUNDUNGEN
100
AcDbLine
 62
7
  6
CONTINUOUS
 10
148.2016809964
 20
71.1537358568
 11
147.7016809964
 21
71.2313639112
  0
LINE
  5
3D5
100
AcDbEntity
  8
RUNDUNGEN
100
AcDbLine
 62
7
  6
CONTINUOUS
 10
151.7016809964
 20
82.1537358568
 11
151.2016809964
 21
82.2313639112
  0
SPLINE
  5
3D6
100
AcDbEntity
  8
RUNDUNGEN
100
AcDbSpline
 62
7
  6
CONTINUOUS
 70
0
 71
3
 72
10
 73
6
 74
0
 42
0.0000001
 43
0.0000001
 44
0.0000000001
 40
0.0
 40
0.0
 40
0.0
 40
0.0
 40
0.2497938705
 40
0.4998307943
 40
1.0
 40
1.0
 40
1.0
 40
1.0
 10
126.2016809964
 20
84.6896342417
 30
0.0
 10
126.201683303
 20
84.9916508457
 30
0.0
 10
126.2778116472
 20
85.5961274582
 30
0.0
 10
126.6064842184
 20
86.7616165133
 30
0.0
 10
126.9644697179
 20
87.5974654872
 30
0.0
 10
127.2016809964
 20
88.1537358568
 30
0.0
  0
SPLINE
  5
3D7
100
AcDbEntity
  8
RUNDUNGEN
100
AcDbSpline
 62
7
  6
CONTINUOUS
 70
0
 71
3
 72
14
 73
10
 74
0
 42
0.0000001
 43
0.0000001
 44
0.0000000001
 40
0.0
 40
0.0
 40
0.0
 40
0.0
 40
0.1251031689
 40
0.2499884918
 40
0.3749138743
 40
0.500031707
 40
0.7500272062
 40
0.8749052459
 40
1.0
 40
1.0
 40
1.0
 40
1.0
 10
115.2721378002
 20
73.7912358568
 30
0.0
 10
115.390785837
 20
73.8070603902
 30
0.0
 10
115.6275354925
 20
73.8413030079
 30
0.0
 10
115.9845317659
 20
73.8776941226
 30
0.0
 10
116.3427457072
 20
73.8986920264
 30
0.0
 10
116.8211671856
 20
73.9087047653
 30
0.0
 10
117.2998039051
 20
73.8892093505
 30
0.0
 10
117.7758393469
 20
73.841482169
 30
0.0
 10
118.0129948835
 20
73.8098819175
 30
0.0
 10
118.1312241927
 20
73.7912358568
 30
0.0
  0
LINE
  5
3D8
100
AcDbEntity
  8
RUNDUNGEN
100
AcDbLine
 62
7
  6
CONTINUOUS
 10
134.7016809964
 20
88.1537358568
 11
134.2016809964
 21
88.0655723665
  0
SPLINE
  5
3D9
100
AcDbEntity
  8
RUNDUNGEN
100
AcDbSpline
 62
7
  6
CONTINUOUS
 70
0
 71
3
 72
14
 73
10
 74
0
 42
0.0000001
 43
0.0000001
 44
0.0000000001
 40
0.0
 40
0.0
 40
0.0
 40
0.0
 40
0.1251031689
 40
0.2499884918
 40
0.3749138743
 40
0.500031707
 40
0.7500272062
 40
0.8749052459
 40
1.0
 40
1.0
 40
1.0
 40
1.0
 10
140.2721378002
 20
73.7912358568
 30
0.0
 10
140.390785837
 20
73.8070603902
 30
0.0
 10
140.6275354925
 20
73.8413030079
 30
0.0
 10
140.9845317659
 20
73.8776941226
 30
0.0
 10
141.3427457072
 20
73.8986920264
 30
0.0
 10
141.8211671856
 20
73.9087047653
 30
0.0
 10
142.2998039051
 20
73.8892093505
 30
0.0
 10
142.7758393469
 20
73.841482169
 30
0.0
 10
143.0129948835
 20
73.8098819175
 30
0.0
 10
143.1312241927
 20
73.7912358568
 30
0.0
  0
SPLINE
  5
3DA
100
AcDbEntity
  8
RUNDUNGEN
100
AcDbSpline
 62
7
  6
CONTINUOUS
 70
0
 71
3
 72
12
 73
8
 74
0
 42
0.0000001
 43
0.0000001
 44
0.0000000001
 40
0.0
 40
0.0
 40
0.0
 40
0.0
 40
0.2516133082
 40
0.5024085889
 40
0.7518392149
 40
0.8760581866
 40
1.0
 40
1.0
 40
1.0
 40
1.0
 10
98.5257752561
 20
88.1537358566
 30
0.0
 10
98.2761881465
 20
87.8389215937
 30
0.0
 10
97.7775423983
 20
87.2104905352
 30
0.0
 10
97.0513454205
 20
86.254546861
 30
0.0
 10
96.4879237725
 20
85.4304938406
 30
0.0
 10
96.0929554105
 20
84.7406143617
 30
0.0
 10
95.9232489474
 20
84.3817253035
 30
0.0
 10
95.8491160319
 20
84.1982385777
 30
0.0
  0
SPLINE
  5
3DB
100
AcDbEntity
  8
RUNDUNGEN
100
AcDbSpline
 62
7
  6
CONTINUOUS
 70
0
 71
3
 72
11
 73
7
 74
0
 42
0.0000001
 43
0.0000001
 44
0.0000000001
 40
0.0
 40
0.0
 40
0.0
 40
0.0
 40
0.2473781168
 40
0.4960357171
 40
0.7470966995
 40
1.0
 40
1.0
 40
1.0
 40
1.0
 10
65.1217629048
 20
80.3732870348
 30
0.0
 10
65.0234453214
 20
80.6434169309
 30
0.0
 10
64.7369500807
 20
81.1512743415
 30
0.0
 10
64.2059713972
 20
81.8379451454
 30
0.0
 10
63.6333916193
 20
82.4995809182
 30
0.0
 10
63.2420381177
 20
82.9351645854
 30
0.0
 10
63.045586995
 20
83.1537419313
 30
0.0
  0
LINE
  5
3DC
100
AcDbEntity
  8
RUNDUNGEN
100
AcDbLine
 62
7
  6
CONTINUOUS
 10
127.1846439096
 20
82.4958193745
 11
127.0853444901
 21
82.1537358565
  0
LINE
  5
3DD
100
AcDbEntity
  8
RUNDUNGEN
100
AcDbLine
 62
7
  6
CONTINUOUS
 10
131.2187180833
 20
82.4958193745
 11
131.3180175024
 21
82.1537358568
  0
LINE
  5
3DE
100
AcDbEntity
  8
RUNDUNGEN
100
AcDbLine
 62
7
  6
CONTINUOUS
 10
152.1781438864
 20
82.4753341689
 11
152.0672899261
 21
82.1537358647
  0
LINE
  5
3DF
100
AcDbEntity
  8
RUNDUNGEN
100
AcDbLine
 62
7
  6
CONTINUOUS
 10
98.5257752948
 20
88.1537358568
 11
95.6975814527
 21
82.1537358407
  0
LINE
  5
3E0
100
AcDbEntity
  8
RUNDUNGEN
100
AcDbLine
 62
7
  6
CONTINUOUS
 10
106.2187180833
 20
82.4958193745
 11
106.3180175024
 21
82.1537358568
  0
SPLINE
  5
3E1
100
AcDbEntity
  8
RUNDUNGEN
100
AcDbSpline
 62
7
  6
CONTINUOUS
 70
0
 71
3
 72
11
 73
7
 74
0
 42
0.0000001
 43
0.0000001
 44
0.0000000001
 40
0.0
 40
0.0
 40
0.0
 40
0.0
 40
0.2501660567
 40
0.5002955199
 40
0.7503083861
 40
1.0
 40
1.0
 40
1.0
 40
1.0
 10
98.5257752563
 20
88.1537358568
 30
0.0
 10
98.2224368092
 20
87.8748604089
 30
0.0
 10
97.6155498436
 20
87.3174631769
 30
0.0
 10
96.7421930373
 20
86.4415307957
 30
0.0
 10
95.9553334867
 20
85.486832143
 30
0.0
 10
95.5395759236
 20
84.766842858
 30
0.0
 10
95.3855153806
 20
84.3855192586
 30
0.0
  0
LINE
  5
3E2
100
AcDbEntity
  8
RUNDUNGEN
100
AcDbLine
 62
7
  6
CONTINUOUS
 10
124.2337698827
 20
88.1537358568
 11
126.2355946164
 21
94.1537038772
  0
LINE
  5
3E3
100
AcDbEntity
  8
RUNDUNGEN
100
AcDbLine
 62
7
  6
CONTINUOUS
 10
149.2337698827
 20
88.1537358568
 11
151.2355946164
 21
94.1537038772
  0
LINE
  5
3E4
100
AcDbEntity
  8
RUNDUNGEN
100
AcDbLine
 62
7
  6
CONTINUOUS
 10
65.8754730473
 20
93.1537358568
 11
64.9655474141
 21
96.1537358883
  0
SPLINE
  5
3E5
100
AcDbEntity
  8
RUNDUNGEN
100
AcDbSpline
 62
7
  6
CONTINUOUS
 70
0
 71
3
 72
11
 73
7
 74
0
 42
0.0000001
 43
0.0000001
 44
0.0000000001
 40
0.0
 40
0.0
 40
0.0
 40
0.0
 40
0.2673388946
 40
0.5223340837
 40
0.7647970366
 40
1.0
 40
1.0
 40
1.0
 40
1.0
 10
144.0995404873
 20
58.1536905192
 30
0.0
 10
143.9215581617
 20
57.9981942653
 30
0.0
 10
143.5526493237
 20
57.7172911837
 30
0.0
 10
142.9540693238
 20
57.3959265621
 30
0.0
 10
142.3331045665
 20
57.1983168211
 30
0.0
 10
141.9096117072
 20
57.1537582428
 30
0.0
 10
141.7016809964
 20
57.1537358568
 30
0.0
  0
SPLINE
  5
3E6
100
AcDbEntity
  8
RUNDUNGEN
100
AcDbSpline
 62
7
  6
CONTINUOUS
 70
0
 71
3
 72
11
 73
7
 74
0
 42
0.0000001
 43
0.0000001
 44
0.0000000001
 40
0.0
 40
0.0
 40
0.0
 40
0.0
 40
0.2673385228
 40
0.5223340348
 40
0.7647971928
 40
1.0
 40
1.0
 40
1.0
 40
1.0
 10
139.3037791156
 20
58.1537246723
 30
0.0
 10
139.4817579357
 20
57.9982175876
 30
0.0
 10
139.85068187
 20
57.7173175062
 30
0.0
 10
140.4492673727
 20
57.3959362395
 30
0.0
 10
141.0702447967
 20
57.1983187704
 30
0.0
 10
141.4937461876
 20
57.1537586154
 30
0.0
 10
141.7016809964
 20
57.1537358568
 30
0.0
  0
SPLINE
  5
3E7
100
AcDbEntity
  8
RUNDUNGEN
100
AcDbSpline
 62
7
  6
CONTINUOUS
 70
0
 71
3
 72
11
 73
7
 74
0
 42
0.0000001
 43
0.0000001
 44
0.0000000001
 40
0.0
 40
0.0
 40
0.0
 40
0.0
 40
0.2673388946
 40
0.5223340837
 40
0.7647970366
 40
1.0
 40
1.0
 40
1.0
 40
1.0
 10
119.0995404873
 20
58.1536905192
 30
0.0
 10
118.9215581617
 20
57.9981942653
 30
0.0
 10
118.5526493237
 20
57.7172911837
 30
0.0
 10
117.9540693238
 20
57.3959265621
 30
0.0
 10
117.3331045665
 20
57.1983168211
 30
0.0
 10
116.9096117072
 20
57.1537582428
 30
0.0
 10
116.7016809964
 20
57.1537358568
 30
0.0
  0
SPLINE
  5
3E8
100
AcDbEntity
  8
RUNDUNGEN
100
AcDbSpline
 62
7
  6
CONTINUOUS
 70
0
 71
3
 72
11
 73
7
 74
0
 42
0.0000001
 43
0.0000001
 44
0.0000000001
 40
0.0
 40
0.0
 40
0.0
 40
0.0
 40
0.2673385228
 40
0.5223340348
 40
0.7647971928
 40
1.0
 40
1.0
 40
1.0
 40
1.0
 10
114.3037791156
 20
58.1537246723
 30
0.0
 10
114.4817579357
 20
57.9982175876
 30
0.0
 10
114.85068187
 20
57.7173175062
 30
0.0
 10
115.4492673727
 20
57.3959362395
 30
0.0
 10
116.0702447967
 20
57.1983187704
 30
0.0
 10
116.4937461876
 20
57.1537586154
 30
0.0
 10
116.7016809964
 20
57.1537358568
 30
0.0
  0
SPLINE
  5
3E9
100
AcDbEntity
  8
RUNDUNGEN
100
AcDbSpline
 62
7
  6
CONTINUOUS
 70
0
 71
3
 72
12
 73
8
 74
0
 42
0.0000001
 43
0.0000001
 44
0.0000000001
 40
0.0
 40
0.0
 40
0.0
 40
0.0
 40
0.299189915
 40
0.5663920601
 40
0.7952327518
 40
0.8993006591
 40
1.0
 40
1.0
 40
1.0
 40
1.0
 10
84.6914454497
 20
58.1537358568
 30
0.0
 10
84.6271171178
 20
58.0100154226
 30
0.0
 10
84.4855805689
 20
57.7457795606
 30
0.0
 10
84.2180355583
 20
57.4196170863
 30
0.0
 10
83.9528925037
 20
57.2362484036
 30
0.0
 10
83.7344920286
 20
57.1653884709
 30
0.0
 10
83.6264083297
 20
57.1537746876
 30
0.0
 10
83.573411461
 20
57.1537358568
 30
0.0
  0
SPLINE
  5
3EA
100
AcDbEntity
  8
RUNDUNGEN
100
AcDbSpline
 62
7
  6
CONTINUOUS
 70
0
 71
3
 72
12
 73
8
 74
0
 42
0.0000001
 43
0.0000001
 44
0.0000000001
 40
0.0
 40
0.0
 40
0.0
 40
0.0
 40
0.1006975375
 40
0.2047678439
 40
0.4336084076
 40
0.700809798
 40
1.0
 40
1.0
 40
1.0
 40
1.0
 10
74.973411461
 20
57.1537358568
 30
0.0
 10
74.9204155451
 20
57.153773683
 30
0.0
 10
74.8123315307
 20
57.1653888526
 30
0.0
 10
74.5939309966
 20
57.2362485664
 30
0.0
 10
74.3287863929
 20
57.419616947
 30
0.0
 10
74.0612439793
 20
57.7457805343
 30
0.0
 10
73.919702699
 20
58.010013882
 30
0.0
 10
73.8553774722
 20
58.1537358568
 30
0.0
  0
LINE
  5
3EB
100
AcDbEntity
  8
RUNDUNGEN
100
AcDbLine
 62
7
  6
CONTINUOUS
 10
63.0455517068
 20
83.1538146751
 11
64.5014735125
 21
80.1537358308
  0
SPLINE
  5
3EC
100
AcDbEntity
  8
RUNDUNGEN
100
AcDbSpline
 62
7
  6
CONTINUOUS
 70
0
 71
3
 72
11
 73
7
 74
0
 42
0.0000001
 43
0.0000001
 44
0.0000000001
 40
0.0
 40
0.0
 40
0.0
 40
0.0
 40
0.244227263
 40
0.4917070734
 40
0.7438214006
 40
1.0
 40
1.0
 40
1.0
 40
1.0
 10
151.7016891839
 20
82.1537332529
 30
0.0
 10
151.7168527689
 20
82.2014123953
 30
0.0
 10
151.7643860328
 20
82.2927893771
 30
0.0
 10
151.8771993466
 20
82.3992402419
 30
0.0
 10
152.0203947181
 20
82.464598778
 30
0.0
 10
152.1256920308
 20
82.4771244008
 30
0.0
 10
152.1781438852
 20
82.4753850141
 30
0.0
  0
SPLINE
  5
3ED
100
AcDbEntity
  8
RUNDUNGEN
100
AcDbSpline
 62
7
  6
CONTINUOUS
 70
0
 71
3
 72
11
 73
7
 74
0
 42
0.0000001
 43
0.0000001
 44
0.0000000001
 40
0.0
 40
0.0
 40
0.0
 40
0.0
 40
0.240695341
 40
0.4869433197
 40
0.7408366628
 40
1.0
 40
1.0
 40
1.0
 40
1.0
 10
151.7016809964
 20
82.153735857
 30
0.0
 10
151.7016809965
 20
82.2139616472
 30
0.0
 10
151.7284891157
 20
82.3372689878
 30
0.0
 10
151.8412433387
 20
82.4905971974
 30
0.0
 10
152.0072101477
 20
82.5918715151
 30
0.0
 10
152.1368342208
 20
82.6152743182
 30
0.0
 10
152.2016809964
 20
82.6152743182
 30
0.0
  0
SPLINE
  5
3EE
100
AcDbEntity
  8
RUNDUNGEN
100
AcDbSpline
 62
7
  6
CONTINUOUS
 70
0
 71
3
 72
11
 73
7
 74
0
 42
0.0000001
 43
0.0000001
 44
0.0000000001
 40
0.0
 40
0.0
 40
0.0
 40
0.0
 40
0.259163346
 40
0.5130566908
 40
0.7593046633
 40
1.0
 40
1.0
 40
1.0
 40
1.0
 10
106.2016809964
 20
82.6152743181
 30
0.0
 10
106.2665277743
 20
82.6152743181
 30
0.0
 10
106.39615185
 20
82.5918715132
 30
0.0
 10
106.5621186587
 20
82.4905971931
 30
0.0
 10
106.6748728785
 20
82.337268984
 30
0.0
 10
106.7016809964
 20
82.2139616461
 30
0.0
 10
106.7016809964
 20
82.1537358569
 30
0.0
  0
SPLINE
  5
3EF
100
AcDbEntity
  8
RUNDUNGEN
100
AcDbSpline
 62
7
  6
CONTINUOUS
 70
0
 71
3
 72
10
 73
6
 74
0
 42
0.0000001
 43
0.0000001
 44
0.0000000001
 40
0.0
 40
0.0
 40
0.0
 40
0.0
 40
0.5000630689
 40
0.7500748667
 40
1.0
 40
1.0
 40
1.0
 40
1.0
 10
106.2016809964
 20
88.1537358568
 30
0.0
 10
106.3198837359
 20
87.7442695562
 30
0.0
 10
106.4981974607
 20
87.1296033057
 30
0.0
 10
106.6627476774
 20
86.2928068108
 30
0.0
 10
106.7016809964
 20
85.8667381939
 30
0.0
 10
106.7016809964
 20
85.6537358568
 30
0.0
  0
SPLINE
  5
3F0
100
AcDbEntity
  8
RUNDUNGEN
100
AcDbSpline
 62
7
  6
CONTINUOUS
 70
0
 71
3
 72
11
 73
7
 74
0
 42
0.0000001
 43
0.0000001
 44
0.0000000001
 40
0.0
 40
0.0
 40
0.0
 40
0.0
 40
0.2496790962
 40
0.4996897742
 40
0.7498347862
 40
1.0
 40
1.0
 40
1.0
 40
1.0
 10
65.5916162213
 20
80.5442888445
 30
0.0
 10
65.4863230696
 20
80.8336254147
 30
0.0
 10
65.1712822129
 20
81.3759767403
 30
0.0
 10
64.5303089027
 20
82.0479484405
 30
0.0
 10
63.8048528186
 20
82.6247634972
 30
0.0
 10
63.2987620634
 20
82.9776521357
 30
0.0
 10
63.0455061211
 20
83.1538146746
 30
0.0
  0
SPLINE
  5
3F1
100
AcDbEntity
  8
RUNDUNGEN
100
AcDbSpline
 62
7
  6
CONTINUOUS
 70
0
 71
3
 72
11
 73
7
 74
0
 42
0.0000001
 43
0.0000001
 44
0.0000000001
 40
0.0
 40
0.0
 40
0.0
 40
0.0
 40
0.2461762761
 40
0.4953062338
 40
0.7469388247
 40
1.0
 40
1.0
 40
1.0
 40
1.0
 10
151.7016809964
 20
84.6896342417
 30
0.0
 10
151.7016817764
 20
84.9771873927
 30
0.0
 10
151.7469667158
 20
85.5554700635
 30
0.0
 10
151.8744449245
 20
86.4185996114
 30
0.0
 10
152.0318867443
 20
87.2850739861
 30
0.0
 10
152.1449868424
 20
87.8636284184
 30
0.0
 10
152.2016809964
 20
88.1537358568
 30
0.0
  0
SPLINE
  5
3F2
100
AcDbEntity
  8
RUNDUNGEN
100
AcDbSpline
 62
7
  6
CONTINUOUS
 70
0
 71
3
 72
11
 73
7
 74
0
 42
0.0000001
 43
0.0000001
 44
0.0000000001
 40
0.0
 40
0.0
 40
0.0
 40
0.0
 40
0.2565756031
 40
0.5089276625
 40
0.75625242
 40
1.0
 40
1.0
 40
1.0
 40
1.0
 10
131.2187180845
 20
82.4958745076
 30
0.0
 10
131.2730551791
 20
82.4974857368
 30
0.0
 10
131.3820997411
 20
82.4836225753
 30
0.0
 10
131.5292725624
 20
82.4134053945
 30
0.0
 10
131.642927432
 20
82.3000355683
 30
0.0
 10
131.6883131959
 20
82.2036188264
 30
0.0
 10
131.7016722503
 20
82.1537335146
 30
0.0
  0
SPLINE
  5
3F3
100
AcDbEntity
  8
RUNDUNGEN
100
AcDbSpline
 62
7
  6
CONTINUOUS
 70
0
 71
3
 72
11
 73
7
 74
0
 42
0.0000001
 43
0.0000001
 44
0.0000000001
 40
0.0
 40
0.0
 40
0.0
 40
0.0
 40
0.2565756031
 40
0.5089276625
 40
0.75625242
 40
1.0
 40
1.0
 40
1.0
 40
1.0
 10
106.2187180845
 20
82.4958745076
 30
0.0
 10
106.2730551791
 20
82.4974857368
 30
0.0
 10
106.3820997411
 20
82.4836225753
 30
0.0
 10
106.5292725624
 20
82.4134053945
 30
0.0
 10
106.642927432
 20
82.3000355683
 30
0.0
 10
106.6883131959
 20
82.2036188264
 30
0.0
 10
106.7016722503
 20
82.1537335146
 30
0.0
  0
SPLINE
  5
3F4
100
AcDbEntity
  8
RUNDUNGEN
100
AcDbSpline
 62
7
  6
CONTINUOUS
 70
0
 71
3
 72
11
 73
7
 74
0
 42
0.0000001
 43
0.0000001
 44
0.0000000001
 40
0.0
 40
0.0
 40
0.0
 40
0.0
 40
0.2461762761
 40
0.4953062338
 40
0.7469388247
 40
1.0
 40
1.0
 40
1.0
 40
1.0
 10
126.7016809964
 20
84.6896342417
 30
0.0
 10
126.7016817764
 20
84.9771873927
 30
0.0
 10
126.7469667158
 20
85.5554700635
 30
0.0
 10
126.8744449245
 20
86.4185996114
 30
0.0
 10
127.0318867443
 20
87.2850739861
 30
0.0
 10
127.1449868424
 20
87.8636284184
 30
0.0
 10
127.2016809964
 20
88.1537358568
 30
0.0
  0
SPLINE
  5
3F5
100
AcDbEntity
  8
RUNDUNGEN
100
AcDbSpline
 62
7
  6
CONTINUOUS
 70
0
 71
3
 72
11
 73
7
 74
0
 42
0.0000001
 43
0.0000001
 44
0.0000000001
 40
0.0
 40
0.0
 40
0.0
 40
0.0
 40
0.2406953367
 40
0.4869433091
 40
0.7408366539
 40
1.0
 40
1.0
 40
1.0
 40
1.0
 10
126.7016809964
 20
82.153735857
 30
0.0
 10
126.7016809965
 20
82.2139616461
 30
0.0
 10
126.7284891144
 20
82.337268984
 30
0.0
 10
126.8412433341
 20
82.4905971931
 30
0.0
 10
127.0072101428
 20
82.5918715132
 30
0.0
 10
127.1368342185
 20
82.6152743182
 30
0.0
 10
127.2016809964
 20
82.6152743182
 30
0.0
  0
SPLINE
  5
3F6
100
AcDbEntity
  8
RUNDUNGEN
100
AcDbSpline
 62
7
  6
CONTINUOUS
 70
0
 71
3
 72
11
 73
7
 74
0
 42
0.0000001
 43
0.0000001
 44
0.0000000001
 40
0.0
 40
0.0
 40
0.0
 40
0.0
 40
0.259163346
 40
0.5130566908
 40
0.7593046633
 40
1.0
 40
1.0
 40
1.0
 40
1.0
 10
131.2016809964
 20
82.6152743181
 30
0.0
 10
131.2665277743
 20
82.6152743181
 30
0.0
 10
131.39615185
 20
82.5918715132
 30
0.0
 10
131.5621186587
 20
82.4905971931
 30
0.0
 10
131.6748728785
 20
82.337268984
 30
0.0
 10
131.7016809964
 20
82.2139616461
 30
0.0
 10
131.7016809964
 20
82.1537358569
 30
0.0
  0
SPLINE
  5
3F7
100
AcDbEntity
  8
RUNDUNGEN
100
AcDbSpline
 62
7
  6
CONTINUOUS
 70
0
 71
3
 72
11
 73
7
 74
0
 42
0.0000001
 43
0.0000001
 44
0.0000000001
 40
0.0
 40
0.0
 40
0.0
 40
0.0
 40
0.2437475701
 40
0.4910723469
 40
0.7434244163
 40
1.0
 40
1.0
 40
1.0
 40
1.0
 10
126.7016893065
 20
82.1537336313
 30
0.0
 10
126.7150486644
 20
82.2036187176
 30
0.0
 10
126.7604349085
 20
82.3000349044
 30
0.0
 10
126.8740900277
 20
82.4134038462
 30
0.0
 10
127.0212626837
 20
82.4836203131
 30
0.0
 10
127.1303069647
 20
82.4974832055
 30
0.0
 10
127.1846439085
 20
82.4958719032
 30
0.0
  0
SPLINE
  5
3F8
100
AcDbEntity
  8
RUNDUNGEN
100
AcDbSpline
 62
7
  6
CONTINUOUS
 70
0
 71
3
 72
11
 73
7
 74
0
 42
0.0000001
 43
0.0000001
 44
0.0000000001
 40
0.0
 40
0.0
 40
0.0
 40
0.0
 40
0.2461823771
 40
0.4953084937
 40
0.7469360616
 40
1.0
 40
1.0
 40
1.0
 40
1.0
 10
131.7016809895
 20
84.689920776
 30
0.0
 10
131.7016884017
 20
84.9774576119
 30
0.0
 10
131.6563590822
 20
85.5556936883
 30
0.0
 10
131.5289015416
 20
86.4187492552
 30
0.0
 10
131.3714617589
 20
87.2851444446
 30
0.0
 10
131.2583719991
 20
87.8636490665
 30
0.0
 10
131.2016809964
 20
88.1537358568
 30
0.0
  0
ELLIPSE
  5
3F9
100
AcDbEntity
  8
0
100
AcDbEllipse
 62
7
  6
CONTINUOUS
 10
87.4475924061
 20
153.4238380835
 30
0.0
 11
0.0
 21
2.75
 31
0.0
 40
0.4040262258
 41
0.0
 42
3.1415926536
  0
ELLIPSE
  5
3FA
100
AcDbEntity
  8
0
100
AcDbEllipse
 62
7
  6
CONTINUOUS
 10
71.2981824204
 20
153.4238380835
 30
0.0
 11
-0.0
 21
2.75
 31
0.0
 40
0.3639702343
 41
-3.1415926536
 42
0.0
  0
ELLIPSE
  5
3FB
100
AcDbEntity
  8
0
100
AcDbEllipse
 62
7
  6
CONTINUOUS
 10
134.7161094113
 20
153.4238380835
 30
0.0
 11
-0.0
 21
2.75
 31
0.0
 40
0.2679491924
 41
0.0
 42
3.1415926536
  0
ELLIPSE
  5
3FC
100
AcDbEntity
  8
0
100
AcDbEllipse
 62
7
  6
CONTINUOUS
 10
123.6872525816
 20
153.4238380835
 30
0.0
 11
0.0
 21
2.75
 31
0.0
 40
0.2679491924
 41
-3.1415926536
 42
0.0
  0
ELLIPSE
  5
3FD
100
AcDbEntity
  8
0
100
AcDbEllipse
 62
7
  6
CONTINUOUS
 10
148.1221355419
 20
153.4238380835
 30
0.0
 11
-0.0
 21
2.75
 31
0.0
 40
0.3181818182
 41
3.2326274316
 42
6.1921505291
  0
ELLIPSE
  5
3FE
100
AcDbEntity
  8
0
100
AcDbEllipse
 62
7
  6
CONTINUOUS
 10
109.7161094113
 20
153.4238380835
 30
0.0
 11
-0.0
 21
2.75
 31
0.0
 40
0.2679491924
 41
-0.0
 42
3.1415926536
  0
ELLIPSE
  5
3FF
100
AcDbEntity
  8
0
100
AcDbEllipse
 62
7
  6
CONTINUOUS
 10
90.4777890999
 20
153.4238380835
 30
0.0
 11
0.0
 21
2.75
 31
0.0
 40
0.4040262258
 41
-3.1415926536
 42
-0.0
  0
ELLIPSE
  5
400
100
AcDbEntity
  8
0
100
AcDbEllipse
 62
7
  6
CONTINUOUS
 10
68.5684056634
 20
153.4238380835
 30
0.0
 11
-0.0
 21
2.75
 31
0.0
 40
0.3639702343
 41
0.0
 42
3.1415926536
  0
ENDSEC
  0
SECTION
  2
OBJECTS
  0
DICTIONARY
  5
C
100
AcDbDictionary
280
0
281
1
  3
ACAD_GROUP
350
D
  3
ACAD_MLINESTYLE
350
17
  3
ACAD_LAYOUT
350
1A
  3
ACAD_PLOTSETTINGS
350
19
  3
ACAD_PLOTSTYLENAME
350
E
  0
DICTIONARY
  5
D
102
{ACAD_REACTORS
330
C
102
}
100
AcDbDictionary
280
0
281
1
  0
ACDBDICTIONARYWDFLT
  5
E
102
{ACAD_REACTORS
330
C
102
}
100
AcDbDictionary
281
1
  3
Normal
350
F
100
AcDbDictionaryWithDefault
340
F
  0
DICTIONARY
  5
17
102
{ACAD_REACTORS
330
C
102
}
100
AcDbDictionary
280
0
281
1
  3
Standard
350
18
  0
DICTIONARY
  5
19
102
{ACAD_REACTORS
330
C
102
}
100
AcDbDictionary
281
1
  0
DICTIONARY
  5
1A
102
{ACAD_REACTORS
330
C
102
}
100
AcDbDictionary
281
1
  3
Model
350
401
  3
Layout1
350
402
  0
ACDBPLACEHOLDER
  5
F
102
{ACAD_REACTORS
330
E
102
}
  0
MLINESTYLE
  5
18
102
{ACAD_REACTORS
330
17
102
}
100
AcDbMlineStyle
  2
STANDARD
 70
0
  3

 62
256
 51
90.0
 52
90.0
 71
2
 49
0.5
 62
256
  6
BYLAYER
 49
-0.5
 62
256
  6
BYLAYER
  0
LAYOUT
  5
401
102
{ACAD_REACTORS
330
1A
102
}
100
AcDbPlotSettings
  1

  2
none_device
  4
ISO_A4_(297.00_x_210.00_MM)
  6

 40
0.0
 41
0.0
 42
0.0
 43
0.0
 44
297.0
 45
210.0
 46
0.0
 47
0.0
 48
0.0
 49
0.0
140
0.0
141
0.0
142
1.0
143
1.0
 70
1024
 72
1
 73
0
 74
0
  7

 75
0
147
1.0
148
0.0
149
0.0
100
AcDbLayout
  1
Model
 70
0
 71
0
 10
0.0
 20
0.0
 11
297.0
 21
210.0
 12
0.0
 22
0.0
 32
0.0
 14
0.0
 24
0.0
 34
0.0
 15
0.0
 25
0.0
 35
0.0
146
0.0
 13
0.0
 23
0.0
 33
0.0
 16
1.0
 26
0.0
 36
0.0
 17
0.0
 27
1.0
 37
0.0
 76
0
330
210
345
0
346
0
  0
LAYOUT
  5
402
102
{ACAD_REACTORS
330
1A
102
}
100
AcDbPlotSettings
  1

  2
none_device
  4
ISO_A4_(297.00_x_210.00_MM)
  6

 40
0.0
 41
0.0
 42
0.0
 43
0.0
 44
297.0
 45
210.0
 46
0.0
 47
0.0
 48
0.0
 49
0.0
140
0.0
141
0.0
142
1.0
143
1.0
 70
0
 72
1
 73
0
 74
0
  7

 75
0
147
1.0
148
0.0
149
0.0
100
AcDbLayout
  1
Layout1
 70
0
 71
1
 10
0.0
 20
0.0
 11
297.0
 21
210.0
 12
0.0
 22
0.0
 32
0.0
 14
0.0
 24
0.0
 34
0.0
 15
0.0
 25
0.0
 35
0.0
146
0.0
 13
0.0
 23
0.0
 33
0.0
 16
1.0
 26
0.0
 36
0.0
 17
0.0
 27
1.0
 37
0.0
 76
0
330
211
345
0
346
0
  0
ENDSEC
  0
EOF
